  0
SECTION
  2
HEADER
  9
$ACADVER
  1
AC1015
  9
$ACADMAINTVER
 70
    20
  9
$DWGCODEPAGE
  3
ANSI_1252
  9
$INSBASE
 10
0.0
 20
0.0
 30
0.0
  9
$EXTMIN
 10
-115.0
 20
-73.00000000000006
 30
0.0
  9
$EXTMAX
 10
115.0
 20
73.00000000000003
 30
14.0
  9
$LIMMIN
 10
0.0
 20
0.0
  9
$LIMMAX
 10
420.0
 20
297.0
  9
$ORTHOMODE
 70
     1
  9
$REGENMODE
 70
     1
  9
$FILLMODE
 70
     1
  9
$QTEXTMODE
 70
     0
  9
$MIRRTEXT
 70
     1
  9
$LTSCALE
 40
1.0
  9
$ATTMODE
 70
     1
  9
$TEXTSIZE
 40
2.5
  9
$TRACEWID
 40
1.0
  9
$TEXTSTYLE
  7
SANINDUSA
  9
$CLAYER
  8
0
  9
$CELTYPE
  6
ByLayer
  9
$CECOLOR
 62
   256
  9
$CELTSCALE
 40
1.0
  9
$DISPSILH
 70
     0
  9
$DIMSCALE
 40
1.0
  9
$DIMASZ
 40
2.0
  9
$DIMEXO
 40
1.0
  9
$DIMDLI
 40
1.0
  9
$DIMRND
 40
0.0
  9
$DIMDLE
 40
0.0
  9
$DIMEXE
 40
1.0
  9
$DIMTP
 40
0.0
  9
$DIMTM
 40
0.0
  9
$DIMTXT
 40
2.0
  9
$DIMCEN
 40
0.0
  9
$DIMTSZ
 40
0.0
  9
$DIMTOL
 70
     0
  9
$DIMLIM
 70
     0
  9
$DIMTIH
 70
     0
  9
$DIMTOH
 70
     0
  9
$DIMSE1
 70
     0
  9
$DIMSE2
 70
     0
  9
$DIMTAD
 70
     1
  9
$DIMZIN
 70
     8
  9
$DIMBLK
  1

  9
$DIMASO
 70
     1
  9
$DIMSHO
 70
     1
  9
$DIMPOST
  1

  9
$DIMAPOST
  1

  9
$DIMALT
 70
     0
  9
$DIMALTD
 70
     3
  9
$DIMALTF
 40
0.03937007874016
  9
$DIMLFAC
 40
1.0
  9
$DIMTOFL
 70
     1
  9
$DIMTVP
 40
0.0
  9
$DIMTIX
 70
     0
  9
$DIMSOXD
 70
     0
  9
$DIMSAH
 70
     0
  9
$DIMBLK1
  1

  9
$DIMBLK2
  1

  9
$DIMSTYLE
  2
SANINDUSA
  9
$DIMCLRD
 70
   256
  9
$DIMCLRE
 70
   256
  9
$DIMCLRT
 70
   256
  9
$DIMTFAC
 40
1.0
  9
$DIMGAP
 40
1.0
  9
$DIMJUST
 70
     0
  9
$DIMSD1
 70
     0
  9
$DIMSD2
 70
     0
  9
$DIMTOLJ
 70
     0
  9
$DIMTZIN
 70
     8
  9
$DIMALTZ
 70
     0
  9
$DIMALTTZ
 70
     0
  9
$DIMUPT
 70
     0
  9
$DIMDEC
 70
     1
  9
$DIMTDEC
 70
     1
  9
$DIMALTU
 70
     2
  9
$DIMALTTD
 70
     3
  9
$DIMTXSTY
  7
SANINDUSA
  9
$DIMAUNIT
 70
     0
  9
$DIMADEC
 70
     1
  9
$DIMALTRND
 40
0.0
  9
$DIMAZIN
 70
     0
  9
$DIMDSEP
 70
    44
  9
$DIMATFIT
 70
     3
  9
$DIMFRAC
 70
     0
  9
$DIMLDRBLK
  1

  9
$DIMLUNIT
 70
     2
  9
$DIMLWD
 70
    -1
  9
$DIMLWE
 70
    -1
  9
$DIMTMOVE
 70
     0
  9
$LUNITS
 70
     2
  9
$LUPREC
 70
     4
  9
$SKETCHINC
 40
1.0
  9
$FILLETRAD
 40
3.0
  9
$AUNITS
 70
     0
  9
$AUPREC
 70
     0
  9
$MENU
  1
.
  9
$ELEVATION
 40
0.0
  9
$PELEVATION
 40
0.0
  9
$THICKNESS
 40
0.0
  9
$LIMCHECK
 70
     0
  9
$CHAMFERA
 40
10.0
  9
$CHAMFERB
 40
10.0
  9
$CHAMFERC
 40
20.0
  9
$CHAMFERD
 40
0.0
  9
$SKPOLY
 70
     0
  9
$TDCREATE
 40
2458730.578005591
  9
$TDUCREATE
 40
2458730.536338924
  9
$TDUPDATE
 40
2458730.579673599
  9
$TDUUPDATE
 40
2458730.538006933
  9
$TDINDWG
 40
0.0016689352
  9
$TDUSRTIMER
 40
0.0016689120
  9
$USRTIMER
 70
     1
  9
$ANGBASE
 50
0.0
  9
$ANGDIR
 70
     0
  9
$PDMODE
 70
     0
  9
$PDSIZE
 40
0.0
  9
$PLINEWID
 40
0.0
  9
$SPLFRAME
 70
     0
  9
$SPLINETYPE
 70
     6
  9
$SPLINESEGS
 70
     8
  9
$HANDSEED
  5
1187
  9
$SURFTAB1
 70
     6
  9
$SURFTAB2
 70
     6
  9
$SURFTYPE
 70
     6
  9
$SURFU
 70
     6
  9
$SURFV
 70
     6
  9
$UCSBASE
  2

  9
$UCSNAME
  2

  9
$UCSORG
 10
0.0
 20
0.0
 30
0.0
  9
$UCSXDIR
 10
1.0
 20
0.0
 30
0.0
  9
$UCSYDIR
 10
0.0
 20
1.0
 30
0.0
  9
$UCSORTHOREF
  2

  9
$UCSORTHOVIEW
 70
     0
  9
$UCSORGTOP
 10
0.0
 20
0.0
 30
0.0
  9
$UCSORGBOTTOM
 10
0.0
 20
0.0
 30
0.0
  9
$UCSORGLEFT
 10
0.0
 20
0.0
 30
0.0
  9
$UCSORGRIGHT
 10
0.0
 20
0.0
 30
0.0
  9
$UCSORGFRONT
 10
0.0
 20
0.0
 30
0.0
  9
$UCSORGBACK
 10
0.0
 20
0.0
 30
0.0
  9
$PUCSBASE
  2

  9
$PUCSNAME
  2

  9
$PUCSORG
 10
0.0
 20
0.0
 30
0.0
  9
$PUCSXDIR
 10
1.0
 20
0.0
 30
0.0
  9
$PUCSYDIR
 10
0.0
 20
1.0
 30
0.0
  9
$PUCSORTHOREF
  2

  9
$PUCSORTHOVIEW
 70
     0
  9
$PUCSORGTOP
 10
0.0
 20
0.0
 30
0.0
  9
$PUCSORGBOTTOM
 10
0.0
 20
0.0
 30
0.0
  9
$PUCSORGLEFT
 10
0.0
 20
0.0
 30
0.0
  9
$PUCSORGRIGHT
 10
0.0
 20
0.0
 30
0.0
  9
$PUCSORGFRONT
 10
0.0
 20
0.0
 30
0.0
  9
$PUCSORGBACK
 10
0.0
 20
0.0
 30
0.0
  9
$USERI1
 70
     0
  9
$USERI2
 70
     0
  9
$USERI3
 70
     0
  9
$USERI4
 70
     0
  9
$USERI5
 70
     0
  9
$USERR1
 40
0.0
  9
$USERR2
 40
0.0
  9
$USERR3
 40
0.0
  9
$USERR4
 40
0.0
  9
$USERR5
 40
0.0
  9
$WORLDVIEW
 70
     1
  9
$SHADEDGE
 70
     3
  9
$SHADEDIF
 70
    70
  9
$TILEMODE
 70
     1
  9
$MAXACTVP
 70
    64
  9
$PINSBASE
 10
0.0
 20
0.0
 30
0.0
  9
$PLIMCHECK
 70
     0
  9
$PEXTMIN
 10
1.000000000000000E+20
 20
1.000000000000000E+20
 30
1.000000000000000E+20
  9
$PEXTMAX
 10
-1.000000000000000E+20
 20
-1.000000000000000E+20
 30
-1.000000000000000E+20
  9
$PLIMMIN
 10
0.0
 20
0.0
  9
$PLIMMAX
 10
420.0
 20
297.0
  9
$UNITMODE
 70
     0
  9
$VISRETAIN
 70
     1
  9
$PLINEGEN
 70
     0
  9
$PSLTSCALE
 70
     1
  9
$TREEDEPTH
 70
  3020
  9
$CMLSTYLE
  2
Standard
  9
$CMLJUST
 70
     0
  9
$CMLSCALE
 40
20.0
  9
$PROXYGRAPHICS
 70
     1
  9
$MEASUREMENT
 70
     1
  9
$CELWEIGHT
370
    -1
  9
$ENDCAPS
280
     0
  9
$JOINSTYLE
280
     0
  9
$LWDISPLAY
290
     0
  9
$INSUNITS
 70
     4
  9
$HYPERLINKBASE
  1

  9
$STYLESHEET
  1
sanindusa.ctb
  9
$XEDIT
290
     1
  9
$CEPSNTYPE
380
     0
  9
$PSTYLEMODE
290
     1
  9
$FINGERPRINTGUID
  2
{CDD5C9F8-8DC5-4C13-8418-1B91B9245A7B}
  9
$VERSIONGUID
  2
{BBA654C0-29B2-415A-A0AF-7D3D8F9EC87F}
  9
$EXTNAMES
290
     1
  9
$PSVPSCALE
 40
0.0
  9
$OLESTARTUP
290
     0
  0
ENDSEC
  0
SECTION
  2
CLASSES
  0
CLASS
  1
ACDBDICTIONARYWDFLT
  2
AcDbDictionaryWithDefault
  3
ObjectDBX Classes
 90
        0
280
     0
281
     0
  0
CLASS
  1
ACDBPLACEHOLDER
  2
AcDbPlaceHolder
  3
ObjectDBX Classes
 90
        0
280
     0
281
     0
  0
CLASS
  1
LAYOUT
  2
AcDbLayout
  3
ObjectDBX Classes
 90
        0
280
     0
281
     0
  0
CLASS
  1
DICTIONARYVAR
  2
AcDbDictionaryVar
  3
ObjectDBX Classes
 90
        0
280
     0
281
     0
  0
CLASS
  1
DIMASSOC
  2
AcDbDimAssoc
  3
"AcDbDimAssoc|Product Desc:     AcDim ARX App For Dimension|Company:          Autodesk, Inc.|WEB Address:      www.autodesk.com"
 90
    32768
280
     0
281
     0
  0
CLASS
  1
TABLESTYLE
  2
AcDbTableStyle
  3
ObjectDBX Classes
 90
     4095
280
     0
281
     0
  0
CLASS
  1
MATERIAL
  2
AcDbMaterial
  3
ObjectDBX Classes
 90
     1153
280
     0
281
     0
  0
CLASS
  1
VISUALSTYLE
  2
AcDbVisualStyle
  3
ObjectDBX Classes
 90
     4095
280
     0
281
     0
  0
CLASS
  1
SCALE
  2
AcDbScale
  3
ObjectDBX Classes
 90
     1153
280
     0
281
     0
  0
CLASS
  1
MLEADERSTYLE
  2
AcDbMLeaderStyle
  3
ACDB_MLEADERSTYLE_CLASS
 90
     4095
280
     0
281
     0
  0
CLASS
  1
ACDBSECTIONVIEWSTYLE
  2
AcDbSectionViewStyle
  3
ObjectDBX Classes
 90
     1025
280
     0
281
     0
  0
CLASS
  1
ACDBDETAILVIEWSTYLE
  2
AcDbDetailViewStyle
  3
ObjectDBX Classes
 90
     1025
280
     0
281
     0
  0
CLASS
  1
SOLID_BACKGROUND
  2
AcDbSolidBackground
  3
SCENEOE
 90
     4095
280
     0
281
     0
  0
CLASS
  1
NPOCOLLECTION
  2
AcDbImpNonPersistentObjectsCollection
  3
ObjectDBX Classes
 90
     1153
280
     0
281
     0
  0
CLASS
  1
CELLSTYLEMAP
  2
AcDbCellStyleMap
  3
ObjectDBX Classes
 90
     1152
280
     0
281
     0
  0
ENDSEC
  0
SECTION
  2
TABLES
  0
TABLE
  2
VPORT
  5
8
330
0
100
AcDbSymbolTable
 70
     1
  0
VPORT
  5
1068
330
8
100
AcDbSymbolTableRecord
100
AcDbViewportTableRecord
  2
*Active
 70
     0
 10
0.0
 20
0.0
 11
1.0
 21
1.0
 12
0.0014534086150917
 22
-0.0000143029046029
 13
0.0
 23
0.0
 14
10.0
 24
10.0
 15
10.0
 25
10.0
 16
244.6174991785401
 26
133.2241709735068
 36
202.9225602473067
 17
-4.96872760740484
 27
-2.705559493828979
 37
2.880078100652283
 40
207.8683245949256
 41
1.696774193548387
 42
50.0
 43
0.0
 44
0.0
 50
0.0
 51
107.780452381334
 71
     0
 72
   100
 73
     1
 74
     2
 75
     0
 76
     0
 77
     0
 78
     0
281
     4
 65
     1
110
0.0
120
0.0
130
0.0
111
1.0
121
0.0
131
0.0
112
0.0
122
1.0
132
0.0
 79
     0
146
0.0
1001
ACAD_NAV_VCDISPLAY
1070
     3
  0
ENDTAB
  0
TABLE
  2
LTYPE
  5
5
330
0
100
AcDbSymbolTable
 70
     5
  0
LTYPE
  5
14
330
5
100
AcDbSymbolTableRecord
100
AcDbLinetypeTableRecord
  2
ByBlock
 70
     0
  3

 72
    65
 73
     0
 40
0.0
  0
LTYPE
  5
15
330
5
100
AcDbSymbolTableRecord
100
AcDbLinetypeTableRecord
  2
ByLayer
 70
     0
  3

 72
    65
 73
     0
 40
0.0
  0
LTYPE
  5
16
330
5
100
AcDbSymbolTableRecord
100
AcDbLinetypeTableRecord
  2
Continuous
 70
     0
  3
Solid line
 72
    65
 73
     0
 40
0.0
  0
LTYPE
  5
2D
330
5
100
AcDbSymbolTableRecord
100
AcDbLinetypeTableRecord
  2
DASHDOT
 70
     0
  3
Dash dot __ . __ . __ . __ . __ . __ . __ . __
 72
    65
 73
     4
 40
25.4
 49
12.7
 74
     0
 49
-6.349999999999999
 74
     0
 49
0.0
 74
     0
 49
-6.349999999999999
 74
     0
  0
LTYPE
  5
2E
330
5
100
AcDbSymbolTableRecord
100
AcDbLinetypeTableRecord
  2
HIDDEN
 70
     0
  3
Hidden __ __ __ __ __ __ __ __ __ __ __ __ __ _
 72
    65
 73
     2
 40
9.524999999999998
 49
6.349999999999999
 74
     0
 49
-3.174999999999999
 74
     0
  0
LTYPE
  5
C75
330
5
100
AcDbSymbolTableRecord
100
AcDbLinetypeTableRecord
  2
AM_ISO02W050
 70
     0
  3
__ __ __ __ __ __ __ __ __ __ __ __ __ __ __
 72
    65
 73
     2
 40
7.5
 49
6.0
 74
     0
 49
-1.5
 74
     0
  0
LTYPE
  5
C76
330
5
100
AcDbSymbolTableRecord
100
AcDbLinetypeTableRecord
  2
AM_ISO08W050
 70
     0
  3
____ . ____ . ____ . ____ . ____ . ____ . ____
 72
    65
 73
     4
 40
18.0
 49
12.0
 74
     0
 49
-1.5
 74
     0
 49
3.0
 74
     0
 49
-1.5
 74
     0
  0
ENDTAB
  0
TABLE
  2
LAYER
  5
2
102
{ACAD_XDICTIONARY
360
1051
102
}
330
0
100
AcDbSymbolTable
 70
    17
  0
LAYER
  5
10
102
{ACAD_XDICTIONARY
360
10D3
102
}
330
2
100
AcDbSymbolTableRecord
100
AcDbLayerTableRecord
  2
0
 70
     0
 62
     7
  6
Continuous
370
    -3
390
F
  0
LAYER
  5
2F
102
{ACAD_XDICTIONARY
360
10D5
102
}
330
2
100
AcDbSymbolTableRecord
100
AcDbLayerTableRecord
  2
1
 70
     0
 62
     1
  6
Continuous
370
    -3
390
F
  0
LAYER
  5
30
102
{ACAD_XDICTIONARY
360
10D7
102
}
330
2
100
AcDbSymbolTableRecord
100
AcDbLayerTableRecord
  2
2
 70
     0
 62
     2
  6
Continuous
370
    -3
390
F
  0
LAYER
  5
31
102
{ACAD_XDICTIONARY
360
10D9
102
}
330
2
100
AcDbSymbolTableRecord
100
AcDbLayerTableRecord
  2
3
 70
     0
 62
     3
  6
Continuous
370
    -3
390
F
  0
LAYER
  5
32
102
{ACAD_XDICTIONARY
360
10DB
102
}
330
2
100
AcDbSymbolTableRecord
100
AcDbLayerTableRecord
  2
4
 70
     0
 62
     4
  6
Continuous
370
    -3
390
F
  0
LAYER
  5
33
102
{ACAD_XDICTIONARY
360
10DD
102
}
330
2
100
AcDbSymbolTableRecord
100
AcDbLayerTableRecord
  2
5
 70
     0
 62
     5
  6
Continuous
370
    -3
390
F
  0
LAYER
  5
34
102
{ACAD_XDICTIONARY
360
10DF
102
}
330
2
100
AcDbSymbolTableRecord
100
AcDbLayerTableRecord
  2
6
 70
     0
 62
     6
  6
Continuous
370
    -3
390
F
  0
LAYER
  5
35
102
{ACAD_XDICTIONARY
360
10E1
102
}
330
2
100
AcDbSymbolTableRecord
100
AcDbLayerTableRecord
  2
7
 70
     0
 62
     7
  6
Continuous
370
    -3
390
F
  0
LAYER
  5
36
102
{ACAD_XDICTIONARY
360
10E3
102
}
330
2
100
AcDbSymbolTableRecord
100
AcDbLayerTableRecord
  2
cen
 70
     0
 62
     7
  6
DASHDOT
370
    -3
390
F
  0
LAYER
  5
37
102
{ACAD_XDICTIONARY
360
10E5
102
}
330
2
100
AcDbSymbolTableRecord
100
AcDbLayerTableRecord
  2
hid
 70
     0
 62
     7
  6
HIDDEN
370
    -3
390
F
  0
LAYER
  5
5D6
102
{ACAD_XDICTIONARY
360
10E7
102
}
330
2
100
AcDbSymbolTableRecord
100
AcDbLayerTableRecord
  2
hatch
 70
     0
 62
     9
  6
Continuous
370
    -3
390
F
  0
LAYER
  5
8AF
102
{ACAD_XDICTIONARY
360
10E9
102
}
330
2
100
AcDbSymbolTableRecord
100
AcDbLayerTableRecord
  2
9
 70
     0
 62
     9
  6
Continuous
370
    -3
390
F
  0
LAYER
  5
8F8
102
{ACAD_XDICTIONARY
360
10EB
102
}
330
2
100
AcDbSymbolTableRecord
100
AcDbLayerTableRecord
  2
leg fin
 70
     0
 62
     9
  6
Continuous
370
    -3
390
F
  0
LAYER
  5
91D
102
{ACAD_XDICTIONARY
360
10ED
102
}
330
2
100
AcDbSymbolTableRecord
100
AcDbLayerTableRecord
  2
cotas
 70
     0
 62
     1
  6
Continuous
370
    -3
390
F
  0
LAYER
  5
92F
330
2
100
AcDbSymbolTableRecord
100
AcDbLayerTableRecord
  2
Defpoints
 70
     0
 62
     7
  6
Continuous
290
     0
370
    -3
390
F
  0
LAYER
  5
C7B
102
{ACAD_XDICTIONARY
360
10EF
102
}
330
2
100
AcDbSymbolTableRecord
100
AcDbLayerTableRecord
  2
SANINDUSA
 70
     0
 62
     3
  6
Continuous
370
    -3
390
F
  0
LAYER
  5
1060
102
{ACAD_XDICTIONARY
360
10F1
102
}
330
2
100
AcDbSymbolTableRecord
100
AcDbLayerTableRecord
  2
hid1
 70
     0
 62
     9
  6
HIDDEN
370
    -3
390
F
1001
AcAecLayerStandard
1000

1000

  0
ENDTAB
  0
TABLE
  2
STYLE
  5
3
330
0
100
AcDbSymbolTable
 70
     4
  0
STYLE
  5
11
330
3
100
AcDbSymbolTableRecord
100
AcDbTextStyleTableRecord
  2
Standard
 70
     0
 40
0.0
 41
1.0
 50
0.0
 71
     0
 42
2.5
  3
Avgardn.ttf
  4

1001
ACAD
1000
AvantGarde Bk BT
1071
       34
  0
STYLE
  5
2C
330
3
100
AcDbSymbolTableRecord
100
AcDbTextStyleTableRecord
  2

 70
     1
 40
0.0
 41
1.0
 50
0.0
 71
     0
 42
2.5
  3
ltypeshp.shx
  4

  0
STYLE
  5
91F
330
3
100
AcDbSymbolTableRecord
100
AcDbTextStyleTableRecord
  2
SANINDUSA
 70
     0
 40
0.0
 41
1.0
 50
0.0
 71
     0
 42
2.5
  3
verdana.ttf
  4

1001
ACAD
1000
Verdana
1071
       34
  0
STYLE
  5
C7C
330
3
100
AcDbSymbolTableRecord
100
AcDbTextStyleTableRecord
  2
futura
 70
     0
 40
0.0
 41
1.0
 50
0.0
 71
     0
 42
2.5
  3
zuricrm.ttf
  4

1001
ACAD
1000
Zurich BT
1071
       34
  0
ENDTAB
  0
TABLE
  2
VIEW
  5
6
330
0
100
AcDbSymbolTable
 70
     0
  0
ENDTAB
  0
TABLE
  2
UCS
  5
7
330
0
100
AcDbSymbolTable
 70
     0
  0
ENDTAB
  0
TABLE
  2
APPID
  5
9
330
0
100
AcDbSymbolTable
 70
    14
  0
APPID
  5
12
330
9
100
AcDbSymbolTableRecord
100
AcDbRegAppTableRecord
  2
ACAD
 70
     0
  0
APPID
  5
3A
330
9
100
AcDbSymbolTableRecord
100
AcDbRegAppTableRecord
  2
DCO15
 70
     0
  0
APPID
  5
EEE
330
9
100
AcDbSymbolTableRecord
100
AcDbRegAppTableRecord
  2
ACAD_DSTYLE_DIMTEXT_FILL
 70
     0
  0
APPID
  5
EEF
330
9
100
AcDbSymbolTableRecord
100
AcDbRegAppTableRecord
  2
ACAD_DSTYLE_DIMEXT_LENGTH
 70
     0
  0
APPID
  5
EF0
330
9
100
AcDbSymbolTableRecord
100
AcDbRegAppTableRecord
  2
ACAD_DSTYLE_DIMEXT_ENABLED
 70
     0
  0
APPID
  5
EF1
330
9
100
AcDbSymbolTableRecord
100
AcDbRegAppTableRecord
  2
ACAD_DSTYLE_DIM_LINETYPE
 70
     0
  0
APPID
  5
EF2
330
9
100
AcDbSymbolTableRecord
100
AcDbRegAppTableRecord
  2
ACAD_DSTYLE_DIM_EXT1_LINETYPE
 70
     0
  0
APPID
  5
EF3
330
9
100
AcDbSymbolTableRecord
100
AcDbRegAppTableRecord
  2
ACAD_DSTYLE_DIM_EXT2_LINETYPE
 70
     0
  0
APPID
  5
FAF
330
9
100
AcDbSymbolTableRecord
100
AcDbRegAppTableRecord
  2
ACAD_DSTYLE_DIMJOGGED_JOGANGLE_SYMBOL
 70
     0
  0
APPID
  5
1013
330
9
100
AcDbSymbolTableRecord
100
AcDbRegAppTableRecord
  2
ACAD_DSTYLE_DIMARC_LENGTH_SYMBOL
 70
     0
  0
APPID
  5
1061
330
9
100
AcDbSymbolTableRecord
100
AcDbRegAppTableRecord
  2
AcAecLayerStandard
 70
     0
  0
APPID
  5
10BC
330
9
100
AcDbSymbolTableRecord
100
AcDbRegAppTableRecord
  2
ACAD_NAV_VCDISPLAY
 70
     0
  0
APPID
  5
1182
330
9
100
AcDbSymbolTableRecord
100
AcDbRegAppTableRecord
  2
ACAD_MLEADERVER
 70
     0
  0
APPID
  5
1185
330
9
100
AcDbSymbolTableRecord
100
AcDbRegAppTableRecord
  2
ACAD_OBJECT_CHANGE_GUID
 70
     0
  0
ENDTAB
  0
TABLE
  2
DIMSTYLE
  5
A
330
0
100
AcDbSymbolTable
 70
     3
100
AcDbDimStyleTable
 71
     1
340
921
  0
DIMSTYLE
105
45
330
A
100
AcDbSymbolTableRecord
100
AcDbDimStyleTableRecord
  2
STANDARD
 70
     0
289
     0
340
11
  0
DIMSTYLE
105
921
330
A
100
AcDbSymbolTableRecord
100
AcDbDimStyleTableRecord
  2
SANINDUSA
 70
     0
 41
2.0
 42
1.0
 43
1.0
 44
1.0
 73
     0
 74
     0
 77
     1
 78
     8
140
2.0
141
0.0
143
0.03937007874016
147
1.0
171
     3
172
     1
176
   256
177
   256
178
   256
179
     1
271
     1
272
     1
274
     3
278
    44
283
     0
284
     8
340
91F
371
    -1
372
    -1
1001
ACAD_DSTYLE_DIMJOGGED_JOGANGLE_SYMBOL
1070
   384
1040
1.570796326794896
  0
DIMSTYLE
105
C7D
330
A
100
AcDbSymbolTableRecord
100
AcDbDimStyleTableRecord
  2
AM_ISO
 70
     0
  4
"
 41
2.5
 42
1.0
 43
10.0
 44
1.0
 47
0.1
 48
0.1
 73
     0
 74
     0
 77
     1
 78
     8
 79
     2
140
3.5
141
0.0
143
0.0393701
146
0.71
147
1.5
172
     1
176
   256
177
   256
178
     2
271
     2
272
     3
274
     4
283
     0
284
     8
340
11
371
    -1
372
    -1
  0
ENDTAB
  0
TABLE
  2
BLOCK_RECORD
  5
1
330
0
100
AcDbSymbolTable
 70
     7
  0
BLOCK_RECORD
  5
1F
330
1
100
AcDbSymbolTableRecord
100
AcDbBlockTableRecord
  2
*Model_Space
340
22
  0
BLOCK_RECORD
  5
1B
330
1
100
AcDbSymbolTableRecord
100
AcDbBlockTableRecord
  2
*Paper_Space
340
1E
  0
BLOCK_RECORD
  5
23
330
1
100
AcDbSymbolTableRecord
100
AcDbBlockTableRecord
  2
*Paper_Space0
340
26
  0
BLOCK_RECORD
  5
919
330
1
100
AcDbSymbolTableRecord
100
AcDbBlockTableRecord
  2
_DotSmall
340
0
  0
BLOCK_RECORD
  5
922
330
1
100
AcDbSymbolTableRecord
100
AcDbBlockTableRecord
  2
base para cotas
340
0
310
2800000020000000200000000100080000000000000400000000000000000000000000000000000000000000000080000080000000808000800000008000800080800000C0C0C000C0DCC000F0CAA6000020400000206000002080000020A0000020C0000020E00000400000004020000040400000406000004080000040A0
310
000040C0000040E00000600000006020000060400000606000006080000060A0000060C0000060E00000800000008020000080400000806000008080000080A0000080C0000080E00000A0000000A0200000A0400000A0600000A0800000A0A00000A0C00000A0E00000C0000000C0200000C0400000C0600000C0800000C0
310
A00000C0C00000C0E00000E0000000E0200000E0400000E0600000E0800000E0A00000E0C00000E0E00040000000400020004000400040006000400080004000A0004000C0004000E00040200000402020004020400040206000402080004020A0004020C0004020E000404000004040200040404000404060004040800040
310
40A0004040C0004040E00040600000406020004060400040606000406080004060A0004060C0004060E00040800000408020004080400040806000408080004080A0004080C0004080E00040A0000040A0200040A0400040A0600040A0800040A0A00040A0C00040A0E00040C0000040C0200040C0400040C0600040C08000
310
40C0A00040C0C00040C0E00040E0000040E0200040E0400040E0600040E0800040E0A00040E0C00040E0E00080000000800020008000400080006000800080008000A0008000C0008000E00080200000802020008020400080206000802080008020A0008020C0008020E00080400000804020008040400080406000804080
310
008040A0008040C0008040E00080600000806020008060400080606000806080008060A0008060C0008060E00080800000808020008080400080806000808080008080A0008080C0008080E00080A0000080A0200080A0400080A0600080A0800080A0A00080A0C00080A0E00080C0000080C0200080C0400080C0600080C0
310
800080C0A00080C0C00080C0E00080E0000080E0200080E0400080E0600080E0800080E0A00080E0C00080E0E000C0000000C0002000C0004000C0006000C0008000C000A000C000C000C000E000C0200000C0202000C0204000C0206000C0208000C020A000C020C000C020E000C0400000C0402000C0404000C0406000C0
310
408000C040A000C040C000C040E000C0600000C0602000C0604000C0606000C0608000C060A000C060C000C060E000C0800000C0802000C0804000C0806000C0808000C080A000C080C000C080E000C0A00000C0A02000C0A04000C0A06000C0A08000C0A0A000C0A0C000C0A0E000C0C00000C0C02000C0C04000C0C06000
310
C0C08000C0C0A000F0FBFF00A4A0A000808080000000FF0000FF000000FFFF00FF000000FF00FF00FFFF0000FFFFFF00A4A4A4A4A4A4A4A4A4A4A4A4A4A4A4A4A4A4A4A4A4A4A4A4A4A4A4A4A4A4A4A4A4A4A4A4A4A4A4A4A4A4A4A4A4A4A4A4A4A4A4A4A4A4A4A4A4A4A4A4A4A4A4A4A4A4A4A4A4A4A4A4A4A4A4A4A4A4A4
310
A4A4A4A4A4A4A4A4A4A4A4A4A4A4A4A4A4A4A4A4A4A4A4A4A4A4A4A4A4A4A4A4A4A4A4A4A4A4A4A4A4A4A4A4A4A4A4A4A4A4A4A4A4A4A4A4A4A4A4A4A4A4A4A4A4A4A4A4A4A4A4A4A4A4A4A4A4A4A4A4A4A4A4A4A4A4A4A4A4A4A4A4A4A4A4A4A4A4A4A4A4A4A4A4A4A4A4A4A4A4A4A4A4A4A4A4A4A4A4A4A4A4A4A4A4A4A4
310
A4A4A4A4A4A4A4A4A4A4A4A4A4A4A4A4A4A4A4A4A4A4A4A4A4A4A4A4A4A4A4A4A4A4A4A4A4A4A4A4A4A4A4A4A4A4A4A4A4A4A4A4A4A4A4A4A4A4A4A4A4A4A4A4A4A4A4A4A4A4A4A4A4A4A4A4A4A4A4A4A4A4A4A4A4A4A4A4A4A4A4A4A4A4A4A4A4A4A4A4A4A4A4A4A4A4A4A4A4A4A4A4A4A4A4A4A4A4A4A4A4A4A4A4A4A4A4
310
A4A4A4A4A4A4A4A4A4A4A4A4A4A4A4A4A4A4A4A4A4A4A4A4A4A4A4A4A4A4A4A4A4A4A4A4A4A4A4A4A4A4A4A4A4A4A4A4A4A4A4A4A4A4A4A4A4A4A4A4A4A4A4A4A4A4A4A4A4A4A4A4A4A4A4A4A4A4A4A4A4A4A4A4A4A4A4A4A4A4A4A4A4A4A4A4A4A4A4A4A4A4A4A4A4A4A4A4A4A4A4A4A4A4A4A4F9F9F9F9F9F9F9F9F9F9F9
310
F9F9F9F9F9F9F9F9F9F9F9F9F9F9F9F9F9F9F9A4A4F9F9F9F9F9F9F9F9F9F9F9F9F9F9F9F9F9F9F9F9F9F9F9F9F9F9F9F9F9F9A4A4F9F9F9F9F9F9F9F9F9F9F9F9F9F9F9F9F9F9F9F9F9F9F9F9F9F9F9F9F9F9A4A4F9A4A4A4A4A4A4A4A4A4A4A4A4A4A4A4A4A4A4A4A4A4A4A4A4A4A4A4A4F9A4A4A4A4A4A4A4A4A4A4A4A4
310
A4A4A4A4A4A4A4A4A4A4A4A4A4A4A4A4A4A4A4A4A4A4A4A4A4A4A4A4A4A4A4A4A4A4A4A4A4A4A4A4A4A4A4A4A4A4A4A4A4A4A4A4A4A4A4A4A4A4A4A4A4A4A4A4A4A4A4A4A4A4A4A4A4A4A4A4A4A4A4A4A4A4A4A4A4A4A4A4A4A4A4A4A4A4A4A4A4A4A4A4A4A4A4A4A4A4A4A4A4A4A4A4A4A4A4A4A4A4A4A4A4A4A4A4A4A4A4
310
A4A4A4A4A4A4A4A4A4A4A4A4A4A4A4A4A4A4A4A4A4A4A4A4A4A4A4A4A4A4A4A4A4A4A4A4A4A4A4A4A4A4A4A4A4A4A4A4A4A4A4A4A4A4A4A4A4A4A4A4A4A4A4A4A4A4A4A4A4A4A4A4A4A4A4A4A4A4A4A4A4A4A4A4A4A4A4A4A4A4A4A4A4A4A4A4A4A4A4A4A4A4A4A4A4A4A4A4A4A4A4A4A4A4A4A4A4A4A4A4A4A4A4A4A4A4A4
310
A4A4A4A4A4A4A4A4A4A4A4A4A4A4A4A4A4A4A4A4A4A4A4A4A4A4A4A4A4A4A4A4A4A4A4A4A4A4A4A4A4A4A4A4A4A4A4A4A4A4A4A4A4A4A4A4A4A4A4A4A4A4A4A4A4A4A4A4A4A4A4A4A4A4A4A4A4A4A4A4A4A4A4A4A4A4A4A4A4A4A4A4A4A4A4A4A4A4A4A4A4A4A4A4A4A4A4A4A4A4A4A4A4A4A4A4A4A4A4A4A4A4A4A4A4A4A4
310
A4A4A4A4A4A4A4A4A4A4A4A4A4A4A4A4A4A4A4A4A4A4A4A4A4A4A4A4A4A4A4A4A4A4A4A4A4A4A4A4A4A4A4A4A4A4A4A4A4A4A4A4A4A4A4A4
1001
ACAD
1000
DesignCenter Data
1002
{
1070
     1
1070
     4
1002
}
  0
BLOCK_RECORD
  5
AA8
330
1
100
AcDbSymbolTableRecord
100
AcDbBlockTableRecord
  2
_CLOSED
340
0
  0
BLOCK_RECORD
  5
B79
330
1
100
AcDbSymbolTableRecord
100
AcDbBlockTableRecord
  2
nota revisoes
340
0
1001
ACAD
1000
DesignCenter Data
1002
{
1070
     1
1070
     4
1002
}
  0
BLOCK_RECORD
  5
B8E
330
1
100
AcDbSymbolTableRecord
100
AcDbBlockTableRecord
  2
a3l
340
0
1001
ACAD
1000
DesignCenter Data
1002
{
1070
     1
1070
     4
1002
}
  0
BLOCK_RECORD
  5
B9E
330
1
100
AcDbSymbolTableRecord
100
AcDbBlockTableRecord
  2
legenda desenvolvimento
340
0
1001
ACAD
1000
DesignCenter Data
1002
{
1070
     1
1070
     4
1002
}
  0
ENDTAB
  0
ENDSEC
  0
SECTION
  2
BLOCKS
  0
BLOCK
  5
20
330
1F
100
AcDbEntity
  8
0
100
AcDbBlockBegin
  2
*Model_Space
 70
     0
 10
0.0
 20
0.0
 30
0.0
  3
*Model_Space
  1

  0
ENDBLK
  5
21
330
1F
100
AcDbEntity
  8
0
100
AcDbBlockEnd
  0
BLOCK
  5
1C
330
1B
100
AcDbEntity
 67
     1
  8
0
100
AcDbBlockBegin
  2
*Paper_Space
 70
     0
 10
0.0
 20
0.0
 30
0.0
  3
*Paper_Space
  1

  0
ENDBLK
  5
1D
330
1B
100
AcDbEntity
 67
     1
  8
0
100
AcDbBlockEnd
  0
BLOCK
  5
24
330
23
100
AcDbEntity
 67
     1
  8
0
100
AcDbBlockBegin
  2
*Paper_Space0
 70
     0
 10
0.0
 20
0.0
 30
0.0
  3
*Paper_Space0
  1

  0
ENDBLK
  5
25
330
23
100
AcDbEntity
 67
     1
  8
0
100
AcDbBlockEnd
  0
BLOCK
  5
91B
330
919
100
AcDbEntity
  8
0
100
AcDbBlockBegin
  2
_DotSmall
 70
     0
 10
0.0
 20
0.0
 30
0.0
  3
_DotSmall
  1

  0
LWPOLYLINE
  5
91A
330
919
100
AcDbEntity
  8
0
  6
ByBlock
 62
     0
100
AcDbPolyline
 90
        2
 70
     1
 43
0.5
 10
-0.0625
 20
0.0
 42
1.0
 10
0.0625
 20
0.0
 42
1.0
  0
ENDBLK
  5
91C
330
919
100
AcDbEntity
  8
0
100
AcDbBlockEnd
  0
BLOCK
  5
92A
330
922
100
AcDbEntity
  8
0
100
AcDbBlockBegin
  2
base para cotas
 70
     0
 10
0.0
 20
0.0
 30
0.0
  3
base para cotas
  1

  0
LINE
  5
B36
330
922
100
AcDbEntity
  8
cotas
100
AcDbLine
 10
0.0
 20
-30.0
 30
0.0
 11
327.1260136525398
 21
-30.0
 31
0.0
  0
LINE
  5
B37
330
922
100
AcDbEntity
  8
cotas
100
AcDbLine
 10
0.0
 20
-25.0
 30
0.0
 11
327.1260136525398
 21
-25.0
 31
0.0
  0
LINE
  5
B38
330
922
100
AcDbEntity
  8
cotas
100
AcDbLine
 10
0.0
 20
-20.0
 30
0.0
 11
327.1260136525398
 21
-20.0
 31
0.0
  0
LINE
  5
B39
330
922
100
AcDbEntity
  8
cotas
100
AcDbLine
 10
0.0
 20
-15.0
 30
0.0
 11
327.1260136525398
 21
-15.0
 31
0.0
  0
LINE
  5
B3A
330
922
100
AcDbEntity
  8
cotas
100
AcDbLine
 10
0.0
 20
-10.0
 30
0.0
 11
327.1260136525398
 21
-10.0
 31
0.0
  0
LINE
  5
B3B
330
922
100
AcDbEntity
  8
cotas
100
AcDbLine
 10
0.0
 20
0.0
 30
0.0
 11
0.0
 21
-30.0
 31
0.0
  0
LINE
  5
B3C
330
922
100
AcDbEntity
  8
cotas
100
AcDbLine
 10
327.1260136525398
 20
-30.0
 30
0.0
 11
327.1260136525398
 21
0.0
 31
0.0
  0
ENDBLK
  5
92B
330
922
100
AcDbEntity
  8
0
100
AcDbBlockEnd
  0
BLOCK
  5
AAD
330
AA8
100
AcDbEntity
  8
0
100
AcDbBlockBegin
  2
_CLOSED
 70
     0
 10
0.0
 20
0.0
 30
0.0
  3
_CLOSED
  1

  0
LINE
  5
AA9
330
AA8
100
AcDbEntity
  8
0
100
AcDbLine
 10
-1.0
 20
0.166667
 30
0.0
 11
0.0
 21
0.0
 31
0.0
  0
LINE
  5
AAA
330
AA8
100
AcDbEntity
  8
0
100
AcDbLine
 10
0.0
 20
0.0
 30
0.0
 11
-1.0
 21
-0.166667
 31
0.0
  0
LINE
  5
AAB
330
AA8
100
AcDbEntity
  8
0
100
AcDbLine
 10
-1.0
 20
0.166667
 30
0.0
 11
-1.0
 21
-0.166667
 31
0.0
  0
LINE
  5
AAC
330
AA8
100
AcDbEntity
  8
0
100
AcDbLine
 10
0.0
 20
0.0
 30
0.0
 11
-1.0
 21
0.0
 31
0.0
  0
ENDBLK
  5
AAE
330
AA8
100
AcDbEntity
  8
0
100
AcDbBlockEnd
  0
BLOCK
  5
B7C
330
B79
100
AcDbEntity
  8
0
100
AcDbBlockBegin
  2
nota revisoes
 70
     0
 10
0.0
 20
0.0
 30
0.0
  3
nota revisoes
  1

  0
CIRCLE
  5
B7A
330
B79
100
AcDbEntity
  8
4
100
AcDbCircle
 10
0.0
 20
0.0
 30
0.0
 40
13.69426055101189
  0
TEXT
  5
B7B
330
B79
100
AcDbEntity
  8
4
100
AcDbText
 10
-5.496248358154345
 20
-5.354545554066362
 30
0.0
 40
12.0
  1
1
  7
SANINDUSA
 72
     1
 11
-0.249774214433728
 21
-5.354545554066362
 31
0.0
100
AcDbText
  0
ENDBLK
  5
B7D
330
B79
100
AcDbEntity
  8
0
100
AcDbBlockEnd
  0
BLOCK
  5
B9C
330
B8E
100
AcDbEntity
  8
0
100
AcDbBlockBegin
  2
a3l
 70
     0
 10
0.0
 20
0.0
 30
0.0
  3
a3l
  1

  0
LINE
  5
B8F
330
B8E
100
AcDbEntity
  8
1
100
AcDbLine
 10
-364.2925296599447
 20
-362.1188951399395
 30
0.0
 11
-364.2925296599447
 21
-65.11889513993946
 31
0.0
  0
LINE
  5
B90
330
B8E
100
AcDbEntity
  8
4
100
AcDbLine
 10
-369.2925296599447
 20
-357.1188951399395
 30
0.0
 11
-369.2925296599447
 21
-70.11889513993946
 31
0.0
  0
LINE
  5
B91
330
B8E
100
AcDbEntity
  8
1
100
AcDbLine
 10
-784.2925296599446
 20
-65.11889513993946
 30
0.0
 11
-784.2925296599446
 21
-362.1188951399395
 31
0.0
  0
LINE
  5
B92
330
B8E
100
AcDbEntity
  8
4
100
AcDbLine
 10
-759.2925296599446
 20
-357.1188951399395
 30
0.0
 11
-759.2925296599446
 21
-70.11889513993946
 31
0.0
  0
LINE
  5
B93
330
B8E
100
AcDbEntity
  8
1
100
AcDbLine
 10
-784.2925296599446
 20
-362.1188951399395
 30
0.0
 11
-364.2925296599447
 21
-362.1188951399395
 31
0.0
  0
LINE
  5
B94
330
B8E
100
AcDbEntity
  8
4
100
AcDbLine
 10
-759.2925296599446
 20
-357.1188951399395
 30
0.0
 11
-369.2925296599447
 21
-357.1188951399395
 31
0.0
  0
LINE
  5
B95
330
B8E
100
AcDbEntity
  8
1
100
AcDbLine
 10
-654.2925296599446
 20
-357.1188951399395
 30
0.0
 11
-654.2925296599446
 21
-362.1188951399395
 31
0.0
  0
LINE
  5
B96
330
B8E
100
AcDbEntity
  8
1
100
AcDbLine
 10
-364.2925296599447
 20
-65.11889513993946
 30
0.0
 11
-784.2925296599446
 21
-65.11889513993946
 31
0.0
  0
LINE
  5
B97
330
B8E
100
AcDbEntity
  8
4
100
AcDbLine
 10
-369.2925296599447
 20
-70.11889513993946
 30
0.0
 11
-759.2925296599446
 21
-70.11889513993946
 31
0.0
  0
LINE
  5
B98
330
B8E
100
AcDbEntity
  8
1
100
AcDbLine
 10
-654.2925296599446
 20
-65.11889513993946
 30
0.0
 11
-654.2925296599446
 21
-70.11889513993946
 31
0.0
  0
LINE
  5
B99
330
B8E
100
AcDbEntity
  8
1
100
AcDbLine
 10
-549.2925296599446
 20
-70.11889513993946
 30
0.0
 11
-549.2925296599446
 21
-65.11889513993946
 31
0.0
  0
LINE
  5
B9A
330
B8E
100
AcDbEntity
  8
1
100
AcDbLine
 10
-369.2925296599447
 20
-65.11889513993946
 30
0.0
 11
-364.2925296599447
 21
-65.11889513993946
 31
0.0
  0
LINE
  5
B9B
330
B8E
100
AcDbEntity
  8
1
100
AcDbLine
 10
-549.2925296599446
 20
-357.1188951399395
 30
0.0
 11
-549.2925296599446
 21
-362.1188951399395
 31
0.0
  0
ENDBLK
  5
B9D
330
B8E
100
AcDbEntity
  8
0
100
AcDbBlockEnd
  0
BLOCK
  5
C13
330
B9E
100
AcDbEntity
  8
0
100
AcDbBlockBegin
  2
legenda desenvolvimento
 70
     2
 10
0.0
 20
0.0
 30
0.0
  3
legenda desenvolvimento
  1

  0
ATTDEF
  5
B9F
330
B9E
100
AcDbEntity
  8
1
100
AcDbText
 10
-108.606245802552
 20
55.5
 30
0.0
 40
4.0
  1
XXXXXXXXXXXXXX
 41
0.8
  7
SANINDUSA
 72
     4
 11
-87.5
 21
57.5
 31
0.0
100
AcDbAttributeDefinition
  3
Nome do Produto:
  2
PRODUTO
 70
     0
  0
ATTDEF
  5
BA0
330
B9E
100
AcDbEntity
  8
1
100
AcDbText
 10
-97.9997966101695
 20
41.25
 30
0.0
 40
3.0
  1
XXXXXXXXX
 41
0.8
  7
futura
 72
     4
 11
-87.5
 21
42.75
 31
0.0
100
AcDbAttributeDefinition
  3
Nome da Peça:
  2
PECA
 70
     0
  0
ATTDEF
  5
BA1
330
B9E
100
AcDbEntity
  8
1
100
AcDbText
 10
-133.4422431161853
 20
21.11745296763252
 30
0.0
 40
2.5
  1
X
 41
0.8
  7
SANINDUSA
 72
     4
 11
-132.5
 21
22.36745296763252
 31
0.0
100
AcDbAttributeDefinition
  3
Cod. TESTE:
  2
TESTE
 70
     0
  0
ATTDEF
  5
BA2
330
B9E
100
AcDbEntity
  8
1
100
AcDbText
 10
-124.3844862323707
 20
21.11745296763252
 30
0.0
 40
2.5
  1
XX
 41
0.8
  7
SANINDUSA
 72
     4
 11
-122.5
 21
22.36745296763252
 31
0.0
100
AcDbAttributeDefinition
  3
Cod. Ano:
  2
ANO
 70
     0
  0
ATTDEF
  5
BA3
330
B9E
100
AcDbEntity
  8
1
100
AcDbText
 10
-112.526889953052
 20
21.11745296763252
 30
0.0
 40
2.5
  1
XXX
 41
0.8
  7
SANINDUSA
 72
     4
 11
-109.700160604496
 21
22.36745296763252
 31
0.0
100
AcDbAttributeDefinition
  3
Cod. Sequência:
  2
SEQUENCIA
 70
     0
  0
ATTDEF
  5
BA4
330
B9E
100
AcDbEntity
  8
1
100
AcDbText
 10
-99.35382430979316
 20
21.11745296763252
 30
0.0
 40
2.5
  1
XX
 41
0.8
  7
SANINDUSA
 72
     4
 11
-97.46933807742244
 21
22.36745296763252
 31
0.0
100
AcDbAttributeDefinition
  3
Cod. Tipo:
  2
TIPO
 70
     0
  0
ATTDEF
  5
BA5
330
B9E
100
AcDbEntity
  8
1
100
AcDbText
 10
-87.42035911468438
 20
21.11745296763252
 30
0.0
 40
2.5
  1
XXX
 41
0.8
  7
SANINDUSA
 72
     4
 11
-84.59362976612828
 21
22.36745296763252
 31
0.0
100
AcDbAttributeDefinition
  3
Cod. Produto:
  2
PRODUTO
 70
     0
  0
ATTDEF
  5
BA6
330
B9E
100
AcDbEntity
  8
1
100
AcDbText
 10
-74.62051971917853
 20
21.11745296763252
 30
0.0
 40
2.5
  1
XXX
 41
0.8
  7
SANINDUSA
 72
     4
 11
-71.79379037062244
 21
22.36745296763252
 31
0.0
100
AcDbAttributeDefinition
  3
Cod. Peça:
  2
PECA
 70
     0
  0
ATTDEF
  5
BA7
330
B9E
100
AcDbEntity
  8
1
100
AcDbText
 10
-61.10603446650329
 20
21.11745296763252
 30
0.0
 40
2.5
  1
XX
 41
0.8
  7
SANINDUSA
 72
     4
 11
-59.22154823413257
 21
22.36745296763252
 31
0.0
100
AcDbAttributeDefinition
  3
Cod. Revisão:
  2
REV
 70
     0
  0
ATTDEF
  5
BA8
330
B9E
100
AcDbEntity
  8
1
100
AcDbText
 10
-48.43615325006194
 20
21.11745296763252
 30
0.0
 40
2.5
  1
XX
 41
0.8
  7
SANINDUSA
 72
     4
 11
-46.55166701769121
 21
22.36745296763252
 31
0.0
100
AcDbAttributeDefinition
  3
Cod. Alteração:
  2
ALT
 70
     0
  0
ATTDEF
  5
BA9
330
B9E
100
AcDbEntity
  8
1
100
AcDbText
 10
-35.19086635325722
 20
23.98875083948959
 30
0.0
 40
3.0
  1
1/XXX
 41
0.8
  7
SANINDUSA
 72
     4
 11
-30.0
 21
25.25
 31
0.0
100
AcDbAttributeDefinition
  3
Escala geral:
  2
ESCALA
 70
     0
  0
ATTDEF
  5
BAA
330
B9E
100
AcDbEntity
  8
1
100
AcDbText
 10
-15.65345869711215
 20
23.75
 30
0.0
 40
3.0
  1
XXXXX
 41
0.8
  7
SANINDUSA
 72
     4
 11
-10.0
 21
25.25
 31
0.0
100
AcDbAttributeDefinition
  3
Folha:
  2
FOLHA
 70
     0
  0
ATTDEF
  5
BAB
330
B9E
100
AcDbEntity
  8
1
100
AcDbText
 10
-178.5146998822042
 20
56.9531347542807
 30
0.0
 40
2.0
  1
xx
 41
0.8
  7
SANINDUSA
 72
     4
 11
-177.2123493113513
 21
57.70330265219877
 31
0.0
100
AcDbAttributeDefinition
  3
revisão
  2
REV.
 70
     0
  0
ATTDEF
  5
BAC
330
B9E
100
AcDbEntity
  8
1
100
AcDbText
 10
-172.7849640077129
 20
56.9531347542807
 30
0.0
 40
2.0
  1
xx
 41
0.8
  7
SANINDUSA
 72
     4
 11
-171.48261343686
 21
57.70330265219877
 31
0.0
100
AcDbAttributeDefinition
  3
alteração
  2
ALT.
 70
     0
  0
ATTDEF
  5
BAD
330
B9E
100
AcDbEntity
  8
1
100
AcDbText
 10
-168.007199951307
 20
56.70330265219877
 30
0.0
 40
2.0
  1
xx/xx/xxxx
 41
0.8
  7
SANINDUSA
 11
-168.007199951307
 21
57.70330265219877
 31
0.0
100
AcDbAttributeDefinition
  3
data
  2
DATA
 70
     0
 74
     2
  0
ATTDEF
  5
BAE
330
B9E
100
AcDbEntity
  8
1
100
AcDbText
 10
-168.5396372253371
 20
13.15916722632639
 30
0.0
 40
2.0
  1
XX/XX/XXXX
 41
0.8
  7
SANINDUSA
 72
     4
 11
-161.5099528734231
 21
14.0
 31
0.0
100
AcDbAttributeDefinition
  3
Data projecto
  2
DATA_PROJ
 70
     0
  0
ATTDEF
  5
BAF
330
B9E
100
AcDbEntity
  8
1
100
AcDbText
 10
-150.8658110728766
 20
13.24983210208193
 30
0.0
 40
2.0
  1
xxxxxxxx
 41
0.8
  7
SANINDUSA
 72
     4
 11
-145.6564087894649
 21
14.0
 31
0.0
100
AcDbAttributeDefinition
  3
nome de quem projectou
  2
NOME
 70
     0
  0
ATTDEF
  5
BB0
330
B9E
100
AcDbEntity
  8
1
100
AcDbText
 10
-168.5396372253371
 20
9.159167226326394
 30
0.0
 40
2.0
  1
XX/XX/XXXX
 41
0.8
  7
SANINDUSA
 72
     4
 11
-161.5099528734231
 21
10.0
 31
0.0
100
AcDbAttributeDefinition
  3
Data desenhou
  2
DATA_DES
 70
     0
  0
ATTDEF
  5
BB1
330
B9E
100
AcDbEntity
  8
1
100
AcDbText
 10
-151.516986358303
 20
9.249832102081933
 30
0.0
 40
2.0
  1
xxxxxxxxx
 41
0.8
  7
SANINDUSA
 72
     4
 11
-145.6564087894649
 21
10.0
 31
0.0
100
AcDbAttributeDefinition
  3
nome
  2
NOME
 70
     0
  0
ATTDEF
  5
BB2
330
B9E
100
AcDbEntity
  8
1
100
AcDbText
 10
-127.2924214135946
 20
14.1979876583216
 30
0.0
 40
2.0
  1
Vitreous China
 41
0.8
  7
SANINDUSA
 72
     4
 11
-119.231709526422
 21
15.22216495852308
 31
0.0
100
AcDbAttributeDefinition
  3
Nome do Material:
  2
MATERIAL
 70
     0
  0
ATTDEF
  5
BB3
330
B9E
100
AcDbEntity
  8
1
100
AcDbText
 10
-103.1563452122093
 20
14.38019043949261
 30
0.0
 40
2.0
  1
Branco
 41
0.8
  7
SANINDUSA
 72
     4
 11
-99.33418268702462
 21
15.35937109765245
 31
0.0
100
AcDbAttributeDefinition
  3
cor da peça
  2
COR
 70
     0
  0
ATTDEF
  5
BB4
330
B9E
100
AcDbEntity
  8
1
100
AcDbText
 10
-116.7235057085292
 20
5.975822699798522
 30
0.0
 40
2.0
  1
Vidrado
 41
0.8
  7
SANINDUSA
 72
     4
 11
-112.5
 21
7.0
 31
0.0
100
AcDbAttributeDefinition
  3
Tipo de acabamento:
  2
ACABAMENTO
 70
     0
  0
ATTDEF
  5
BB5
330
B9E
100
AcDbEntity
  8
1
100
AcDbText
 10
-79.18527869967246
 20
16.65066409850533
 30
0.0
 40
2.0
  1
XXXXXXX
 41
0.8
  7
SANINDUSA
 72
     4
 11
-73.90871724903445
 21
17.65066409850533
 31
0.0
100
AcDbAttributeDefinition
  3
Normas
  2
NORMAS
 70
     0
  0
ATTDEF
  5
BB6
330
B9E
100
AcDbEntity
  8
1
100
AcDbText
 10
-30.55312290127603
 20
14.0
 30
0.0
 40
2.0
  1
XXXXXXXXXXXXXX
 41
0.8
  7
SANINDUSA
 72
     4
 11
-20.0
 21
15.0
 31
0.0
100
AcDbAttributeDefinition
  3
Substitui o desenho:
  2
SUBSTITUI
 70
     0
  0
ATTDEF
  5
BB7
330
B9E
100
AcDbEntity
  8
1
100
AcDbText
 10
-31.30691739422431
 20
6.0
 30
0.0
 40
2.0
  1
XXXXXXXXXXXXXXX
 41
0.8
  7
SANINDUSA
 72
     4
 11
-20.0
 21
7.0
 31
0.0
100
AcDbAttributeDefinition
  3
Substituido por:
  2
SUBSTITUIDO
 70
     0
  0
ATTDEF
  5
BB8
330
B9E
100
AcDbEntity
  8
1
100
AcDbText
 10
-110.0220608548302
 20
1.478208457928303
 30
0.0
 40
2.0
  1
XXXXXXXXXXXXXXXXXXXXXXXXXXXXXXXXXX
 41
0.8
  7
SANINDUSA
 11
-110.0220608548302
 21
2.478208457928303
 31
0.0
100
AcDbAttributeDefinition
  3
Localização do desenho:
  2
LOC-DWG
 70
     0
 74
     2
  0
LINE
  5
BB9
330
B9E
100
AcDbEntity
  8
3
100
AcDbLine
 10
-135.0
 20
4.0
 30
0.0
 11
0.0000000000004547
 21
4.0
 31
0.0
  0
LINE
  5
BBA
330
B9E
100
AcDbEntity
  8
3
100
AcDbLine
 10
-90.00000000000046
 20
12.0
 30
0.0
 11
-135.0
 21
12.0
 31
0.0
  0
LINE
  5
BBB
330
B9E
100
AcDbEntity
  8
3
100
AcDbLine
 10
-135.0
 20
32.5
 30
0.0
 11
-40.0
 21
32.5
 31
0.0
  0
TEXT
  5
BBC
330
B9E
100
AcDbEntity
  8
1
100
AcDbText
 10
-134.0
 20
1.25
 30
0.0
 40
2.0
  1
Localização do des.:
 41
0.8
  7
SANINDUSA
 11
-134.0
 21
2.25
 31
0.0
100
AcDbText
 73
     2
  0
LINE
  5
BBD
330
B9E
100
AcDbEntity
  8
3
100
AcDbLine
 10
-180.0
 20
65.0
 30
0.0
 11
0.0
 21
65.0
 31
0.0
  0
LINE
  5
BBE
330
B9E
100
AcDbEntity
  8
leg fin
100
AcDbLine
 10
-40.0
 20
25.05956924886846
 30
0.0
 11
-135.0
 21
25.05956924886846
 31
0.0
  0
LINE
  5
BBF
330
B9E
100
AcDbEntity
  8
leg fin
100
AcDbLine
 10
-40.0
 20
28.5
 30
0.0
 11
-135.0
 21
28.5
 31
0.0
  0
LINE
  5
BC0
330
B9E
100
AcDbEntity
  8
3
100
AcDbLine
 10
-135.0
 20
50.0
 30
0.0
 11
-40.0
 21
50.0
 31
0.0
  0
TEXT
  5
BC1
330
B9E
100
AcDbEntity
  8
1
100
AcDbText
 10
-134.0
 20
29.75
 30
0.0
 40
2.0
  1
Desenho nº:
 41
0.8
  7
SANINDUSA
 11
-134.0
 21
30.75
 31
0.0
100
AcDbText
 73
     2
  0
TEXT
  5
BC2
330
B9E
100
AcDbEntity
  8
1
100
AcDbText
 10
-134.0
 20
9.25
 30
0.0
 40
2.0
  1
Acabamento:
 41
0.8
  7
SANINDUSA
 11
-134.0
 21
10.25
 31
0.0
100
AcDbText
 73
     2
  0
LINE
  5
BC3
330
B9E
100
AcDbEntity
  8
3
100
AcDbLine
 10
-180.0
 20
20.0
 30
0.0
 11
0.0
 21
20.0
 31
0.0
  0
LINE
  5
BC4
330
B9E
100
AcDbEntity
  8
1
100
AcDbLine
 10
-174.5810776056337
 20
55.5
 30
0.0
 11
-174.5810776056337
 21
65.0
 31
0.0
  0
LINE
  5
BC5
330
B9E
100
AcDbEntity
  8
1
100
AcDbLine
 10
-168.9210461879161
 20
55.5
 30
0.0
 11
-168.9210461879161
 21
65.0
 31
0.0
  0
LINE
  5
BC6
330
B9E
100
AcDbEntity
  8
1
100
AcDbLine
 10
-154.0988595589306
 20
55.5
 30
0.0
 11
-154.0988595589306
 21
65.0
 31
0.0
  0
LINE
  5
BC7
330
B9E
100
AcDbEntity
  8
3
100
AcDbLine
 10
-180.0
 20
65.0
 30
0.0
 11
-180.0
 21
0.0
 31
0.0
  0
LINE
  5
BC8
330
B9E
100
AcDbEntity
  8
3
100
AcDbLine
 10
-135.0
 20
0.0
 30
0.0
 11
-135.0
 21
65.0
 31
0.0
  0
TEXT
  5
BC9
330
B9E
100
AcDbEntity
  8
1
100
AcDbText
 10
-179.0
 20
9.75
 30
0.0
 40
1.5
  1
Des.
 41
0.8
  7
SANINDUSA
 11
-179.0
 21
10.5
 31
0.0
100
AcDbText
 73
     2
  0
LINE
  5
BCA
330
B9E
100
AcDbEntity
  8
1
100
AcDbLine
 10
-168.9210461879161
 20
20.0
 30
0.0
 11
-168.9210461879161
 21
0.0
 31
0.0
  0
LINE
  5
BCB
330
B9E
100
AcDbEntity
  8
1
100
AcDbLine
 10
-154.0988595589306
 20
20.0
 30
0.0
 11
-154.0988595589306
 21
0.0
 31
0.0
  0
LINE
  5
BCC
330
B9E
100
AcDbEntity
  8
1
100
AcDbLine
 10
-180.0
 20
4.0
 30
0.0
 11
-135.0
 21
4.0
 31
0.0
  0
LINE
  5
BCD
330
B9E
100
AcDbEntity
  8
1
100
AcDbLine
 10
-180.0
 20
8.0
 30
0.0
 11
-135.0
 21
8.0
 31
0.0
  0
TEXT
  5
BCE
330
B9E
100
AcDbEntity
  8
1
100
AcDbText
 10
-179.0
 20
1.73257823687436
 30
0.0
 40
1.5
  1
Aprov.
 41
0.8
  7
SANINDUSA
 11
-179.0
 21
2.48257823687436
 31
0.0
100
AcDbText
 73
     2
  0
TEXT
  5
BCF
330
B9E
100
AcDbEntity
  8
1
100
AcDbText
 10
-179.0
 20
5.75
 30
0.0
 40
1.5
  1
Ver.
 41
0.8
  7
SANINDUSA
 11
-179.0
 21
6.5
 31
0.0
100
AcDbText
 73
     2
  0
LINE
  5
BD0
330
B9E
100
AcDbEntity
  8
1
100
AcDbLine
 10
-180.0
 20
16.0
 30
0.0
 11
-135.0
 21
16.0
 31
0.0
  0
LINE
  5
BD1
330
B9E
100
AcDbEntity
  8
1
100
AcDbLine
 10
-180.0
 20
12.0
 30
0.0
 11
-135.0
 21
12.0
 31
0.0
  0
TEXT
  5
BD2
330
B9E
100
AcDbEntity
  8
1
100
AcDbText
 10
-179.0
 20
13.75
 30
0.0
 40
1.5
  1
Proj.
 41
0.8
  7
SANINDUSA
 11
-179.0
 21
14.5
 31
0.0
100
AcDbText
 73
     2
  0
TEXT
  5
BD3
330
B9E
100
AcDbEntity
  8
1
100
AcDbText
 10
-167.9210461879161
 20
17.75
 30
0.0
 40
1.5
  1
Data
 41
0.8
  7
SANINDUSA
 11
-167.9210461879161
 21
18.5
 31
0.0
100
AcDbText
 73
     2
  0
TEXT
  5
BD4
330
B9E
100
AcDbEntity
  8
1
100
AcDbText
 10
-153.0988595589306
 20
17.75
 30
0.0
 40
1.5
  1
Nome
 41
0.8
  7
SANINDUSA
 11
-153.0988595589306
 21
18.5
 31
0.0
100
AcDbText
 73
     2
  0
LINE
  5
BD5
330
B9E
100
AcDbEntity
  8
leg fin
100
AcDbLine
 10
-130.0
 20
20.0
 30
0.0
 11
-130.0
 21
28.5
 31
0.0
  0
TEXT
  5
BD6
330
B9E
100
AcDbEntity
  8
1
100
AcDbText
 10
-134.0
 20
17.25
 30
0.0
 40
2.0
  1
Material:
 41
0.8
  7
SANINDUSA
 11
-134.0
 21
18.25
 31
0.0
100
AcDbText
 73
     2
  0
TEXT
  5
BD7
330
B9E
100
AcDbEntity
  8
1
100
AcDbText
 10
-129.0
 20
26.43288406845113
 30
0.0
 40
1.5
  1
Ano:
 41
0.8
  7
SANINDUSA
 11
-129.0
 21
27.18288406845113
 31
0.0
100
AcDbText
 73
     2
  0
LINE
  5
BD8
330
B9E
100
AcDbEntity
  8
1
100
AcDbLine
 10
-180.0
 20
55.5
 30
0.0
 11
-135.0
 21
55.5
 31
0.0
  0
TEXT
  5
BD9
330
B9E
100
AcDbEntity
  8
1
100
AcDbText
 10
-179.0
 20
52.67772246885193
 30
0.0
 40
1.5
  1
descrição
 41
0.8
  7
SANINDUSA
 11
-179.0
 21
53.42772246885193
 31
0.0
100
AcDbText
 73
     2
  0
TEXT
  5
BDA
330
B9E
100
AcDbEntity
  8
1
100
AcDbText
 10
-134.0
 20
47.25
 30
0.0
 40
2.0
  1
Peça:
 41
0.8
  7
SANINDUSA
 11
-134.0
 21
48.25
 31
0.0
100
AcDbText
 73
     2
  0
LINE
  5
BDB
330
B9E
100
AcDbEntity
  8
1
100
AcDbLine
 10
-180.0
 20
59.5
 30
0.0
 11
-135.0
 21
59.5
 31
0.0
  0
TEXT
  5
BDC
330
B9E
100
AcDbEntity
  8
1
100
AcDbText
 10
-173.5810776056337
 20
62.75
 30
0.0
 40
1.5
  1
Alt.
 41
0.8
  7
SANINDUSA
 11
-173.5810776056337
 21
63.5
 31
0.0
100
AcDbText
 73
     2
  0
TEXT
  5
BDD
330
B9E
100
AcDbEntity
  8
1
100
AcDbText
 10
-179.0
 20
62.75
 30
0.0
 40
1.5
  1
Rev.
 41
0.8
  7
SANINDUSA
 11
-179.0
 21
63.5
 31
0.0
100
AcDbText
 73
     2
  0
TEXT
  5
BDE
330
B9E
100
AcDbEntity
  8
1
100
AcDbText
 10
-167.9210461879161
 20
62.75
 30
0.0
 40
1.5
  1
Data
 41
0.8
  7
SANINDUSA
 11
-167.9210461879161
 21
63.5
 31
0.0
100
AcDbText
 73
     2
  0
TEXT
  5
BDF
330
B9E
100
AcDbEntity
  8
1
100
AcDbText
 10
-153.0988595589306
 20
62.75
 30
0.0
 40
1.5
  1
Nome
 41
0.8
  7
SANINDUSA
 11
-153.0988595589306
 21
63.5
 31
0.0
100
AcDbText
 73
     2
  0
TEXT
  5
BE0
330
B9E
100
AcDbEntity
  8
1
100
AcDbText
 10
-134.0
 20
62.25
 30
0.0
 40
2.0
  1
Produto:
 41
0.8
  7
SANINDUSA
 11
-134.0
 21
63.25
 31
0.0
100
AcDbText
 73
     2
  0
LINE
  5
BE1
330
B9E
100
AcDbEntity
  8
3
100
AcDbLine
 10
-40.0
 20
4.0
 30
0.0
 11
-40.0
 21
65.0
 31
0.0
  0
LWPOLYLINE
  5
BE2
102
{ACAD_REACTORS
330
BEC
102
}
330
B9E
100
AcDbEntity
  8
9
100
AcDbPolyline
 90
       12
 70
     1
 43
0.0
 10
-3.038714600644652
 20
58.90010174665076
 10
-5.726962862472191
 20
58.90010174665076
 10
-5.726962862472191
 20
58.5001017466509
 10
-3.038748516195028
 20
58.5001017466509
 42
-0.4142135623731731
 10
-2.638748516194482
 20
58.1001017466508
 10
-2.638748516194482
 20
57.42799728675596
 10
-5.21497371544865
 20
57.42799728675596
 42
0.4142135623731289
 10
-6.014973715448377
 20
56.627997286756
 10
-6.014973715448377
 20
55.92380871629643
 42
0.4142135623731132
 10
-5.21497371544865
 20
55.12380871629648
 10
-2.23871460064447
 20
55.12380871629648
 10
-2.23871460064447
 20
58.10010174665103
 42
0.4142135623730717
  0
LWPOLYLINE
  5
BE3
102
{ACAD_REACTORS
330
BEC
102
}
330
B9E
100
AcDbEntity
  8
9
100
AcDbPolyline
 90
       20
 70
     1
 43
0.0
 10
-10.01531287095122
 20
57.82799728675581
 10
-10.01531287095122
 20
58.10010174665103
 42
-0.4142135623730744
 10
-9.615312870951584
 20
58.5001017466509
 10
-6.92703069357276
 20
58.5001017466509
 10
-6.92703069357276
 20
58.90010174665076
 10
-9.615346786501959
 20
58.90010174665076
 42
0.4142135623730883
 10
-10.41534678650168
 20
58.1001017466508
 10
-10.41534678650168
 20
57.82796337120567
 42
0.4142135623730717
 10
-9.615346786501959
 20
57.02796337120571
 10
-7.423079531965413
 20
57.02796337120571
 42
-0.4142135623730847
 10
-7.023079531965322
 20
56.62796337120562
 10
-7.023079531965322
 20
55.90786840766487
 42
-0.4142135623730744
 10
-7.423079531965413
 20
55.507868407665
 10
-10.41534678650168
 20
55.507868407665
 10
-10.41534678650168
 20
55.12380871629648
 10
-7.445787917283723
 20
55.12380871629648
 42
0.4114777732064574
 10
-6.645822882998345
 20
55.9163291493976
 10
-6.639238813324936
 20
56.62051771985716
 42
0.4169546541682913
 10
-7.439203847610315
 20
57.42799728675596
 10
-9.615312870951584
 20
57.42799728675596
 42
-0.4142135623731576
  0
LWPOLYLINE
  5
BE4
102
{ACAD_REACTORS
330
BEC
102
}
330
B9E
100
AcDbEntity
  8
9
100
AcDbPolyline
 90
       12
 70
     1
 43
0.0
 10
-14.41561811090378
 20
58.90010174665076
 10
-14.79964388672215
 20
58.90010174665076
 10
-14.79964388672215
 20
55.92380871629643
 42
0.4142135623731133
 10
-13.99964388672242
 20
55.12380871629648
 10
-11.8233508563676
 20
55.12380871629648
 42
0.4142135623730872
 10
-11.02335085636741
 20
55.92380871629643
 10
-11.02335085636741
 20
58.90010174665076
 10
-11.42338477191788
 20
58.90010174665076
 10
-11.42338477191788
 20
55.91567577726095
 42
-0.4131711701795318
 10
-11.82196067063523
 20
55.51567831234956
 10
-14.0141940096214
 20
55.50787335710947
 42
-0.4152567234624407
 10
-14.41561811090378
 20
55.90787082202087
  0
LWPOLYLINE
  5
BE5
102
{ACAD_REACTORS
330
BEC
102
}
330
B9E
100
AcDbEntity
  8
9
100
AcDbPolyline
 90
        6
 70
     1
 43
0.0
 10
-15.80771578768872
 20
55.507868407665
 10
-18.39994912667453
 20
55.507868407665
 42
-0.4142135623731731
 10
-18.79994912667462
 20
55.90786840766487
 10
-18.79994912667462
 20
58.10010174665103
 42
-0.4142135623730744
 10
-18.39994912667453
 20
58.5001017466509
 10
-15.80771578768872
 20
58.5001017466509
  0
LWPOLYLINE
  5
BE6
102
{ACAD_REACTORS
330
BEC
102
}
330
B9E
100
AcDbEntity
  8
9
100
AcDbPolyline
 90
        8
 70
     1
 43
0.0
 10
-15.4236900118708
 20
59.87619128370352
 10
-15.80771578768872
 20
59.87619128370352
 10
-15.80771578768872
 20
58.90010174665076
 10
-18.39176256411201
 20
58.90010174665076
 42
0.4131164467977967
 10
-19.19175694739761
 20
58.1030995310698
 10
-19.1999120763262
 20
55.92680650071542
 42
0.4153115297271718
 10
-18.39991769304061
 20
55.12380871629648
 10
-15.4236900118708
 20
55.12380871629648
  0
LWPOLYLINE
  5
BE7
102
{ACAD_REACTORS
330
BEC
102
}
330
B9E
100
AcDbEntity
  8
9
100
AcDbPolyline
 90
       10
 70
     1
 43
0.0
 10
-20.59201288790928
 20
58.90010174665076
 10
-23.56830591826338
 20
58.90010174665076
 10
-23.56830591826338
 20
55.12380871629648
 10
-23.18424622689509
 20
55.12380871629648
 10
-23.18424622689509
 20
58.5001017466509
 10
-20.59204680345965
 20
58.5001017466509
 42
-0.4142135623730898
 10
-20.19204680345956
 20
58.1001017466508
 10
-20.19204680345956
 20
55.12380871629648
 10
-19.79201288790909
 20
55.12380871629648
 10
-19.79201288790909
 20
58.10010174665103
 42
0.4142135623731132
  0
LWPOLYLINE
  5
BE8
102
{ACAD_REACTORS
330
BEC
102
}
330
B9E
100
AcDbEntity
  8
9
100
AcDbPolyline
 90
        4
 70
     1
 43
0.0
 10
-24.19231812786165
 20
58.90010174665076
 10
-24.57637781922995
 20
58.90010174665076
 10
-24.57637781922995
 20
55.12380871629648
 10
-24.19231812786165
 20
55.12380871629648
  0
LWPOLYLINE
  5
BE9
102
{ACAD_REACTORS
330
BEC
102
}
330
B9E
100
AcDbEntity
  8
9
100
AcDbPolyline
 90
       10
 70
     1
 43
0.0
 10
-28.57661522808212
 20
58.5001017466509
 10
-25.98444972019706
 20
58.5001017466509
 42
-0.4142135623731731
 10
-25.58444972019652
 20
58.1001017466508
 10
-25.58444972019652
 20
55.12380871629648
 10
-25.2004239443786
 20
55.12380871629648
 10
-25.2004239443786
 20
58.10010174665103
 42
0.4142135623730717
 10
-26.00042394437833
 20
58.90010174665076
 10
-28.97664914363259
 20
58.90010174665076
 10
-28.97664914363259
 20
55.12380871629648
 10
-28.57661522808212
 20
55.12380871629648
  0
LWPOLYLINE
  5
BEA
102
{ACAD_REACTORS
330
BEC
102
}
330
B9E
100
AcDbEntity
  8
9
100
AcDbPolyline
 90
       12
 70
     1
 43
0.0
 10
-29.58465321349832
 20
58.10010174665103
 42
0.4142135623730716
 10
-30.3846532134985
 20
58.90010174665076
 10
-33.07296930642724
 20
58.90010174665076
 10
-33.07296930642724
 20
58.5001017466509
 10
-30.38468712904842
 20
58.5001017466509
 42
-0.4142135623730067
 10
-29.98468712904878
 20
58.1001017466508
 10
-29.98468712904878
 20
57.42799728675618
 10
-32.56098015940324
 20
57.42799728675596
 42
0.4142135623731289
 10
-33.36098015940343
 20
56.627997286756
 10
-33.36098015940343
 20
55.92380871629643
 42
0.4142135623731132
 10
-32.56098015940324
 20
55.12380871629648
 10
-29.58465321349832
 20
55.12380871629648
  0
LWPOLYLINE
  5
BEB
102
{ACAD_REACTORS
330
BEC
102
}
330
B9E
100
AcDbEntity
  8
9
100
AcDbPolyline
 90
       20
 70
     1
 43
0.0
 10
-34.7850262845518
 20
57.42799728675596
 10
-36.96125148380543
 20
57.42799728675596
 42
-0.4142135623730898
 10
-37.36125148380552
 20
57.82799728675604
 10
-37.36125148380552
 20
58.10010174665103
 42
-0.4142135623730744
 10
-36.96125148380543
 20
58.5001017466509
 10
-34.27303713752781
 20
58.50010174665067
 10
-34.27303713752781
 20
58.90010174665076
 10
-36.96128539935535
 20
58.90010174665076
 42
0.4142135623731289
 10
-37.76128539935553
 20
58.1001017466508
 10
-37.76128539935553
 20
57.82796337120567
 42
0.4142135623730716
 10
-36.9612853993558
 20
57.02796337120571
 10
-34.76901814481926
 20
57.02796337120571
 42
-0.414213562373168
 10
-34.36901814481962
 20
56.62796337120562
 10
-34.36901814481962
 20
55.90786840766487
 42
-0.4142135623730744
 10
-34.76901814481926
 20
55.507868407665
 10
-37.76128539935553
 20
55.507868407665
 10
-37.76128539935553
 20
55.12380871629648
 10
-34.7850262845518
 20
55.12380871629648
 42
0.4142135623731289
 10
-33.98502628455162
 20
55.92380871629643
 10
-33.98502628455162
 20
56.627997286756
 42
0.4142135623731132
  0
HATCH
  5
BEC
330
B9E
100
AcDbEntity
  8
9
100
AcDbHatch
 10
0.0
 20
0.0
 30
0.0
210
0.0
220
0.0
230
1.0
  2
SOLID
 70
     1
 71
     1
 91
       13
 92
        7
 72
     1
 73
     1
 93
       20
 10
-34.36901814481962
 20
55.90786840766487
 42
-0.414213562372991
 10
-34.76901814481926
 20
55.507868407665
 42
0.0
 10
-37.76128539935553
 20
55.507868407665
 42
0.0
 10
-37.76128539935553
 20
55.12380871629648
 42
0.0
 10
-34.7850262845518
 20
55.12380871629648
 42
0.4142135623731705
 10
-33.98502628455162
 20
55.92380871629666
 42
0.0
 10
-33.98502628455162
 20
56.627997286756
 42
0.4142135623731547
 10
-34.7850262845518
 20
57.42799728675596
 42
0.0
 10
-36.96125148380543
 20
57.42799728675596
 42
-0.4142135623730898
 10
-37.36125148380552
 20
57.82799728675604
 42
0.0
 10
-37.36125148380552
 20
58.1001017466508
 42
-0.4142135623731575
 10
-36.96125148380543
 20
58.5001017466509
 42
0.0
 10
-34.27303713752781
 20
58.50010174665067
 42
0.0
 10
-34.27303713752781
 20
58.90010174665076
 42
0.0
 10
-36.96128539935535
 20
58.90010174665076
 42
0.4142135623731705
 10
-37.76128539935553
 20
58.10010174665058
 42
0.0
 10
-37.76128539935553
 20
57.82796337120544
 42
0.4142135623730299
 10
-36.9612853993558
 20
57.02796337120571
 42
0.0
 10
-34.76901814481926
 20
57.02796337120571
 42
-0.4142135623730015
 10
-34.36901814481962
 20
56.62796337120608
 42
0.0
 97
        1
330
BEB
 92
        7
 72
     1
 73
     1
 93
       12
 10
-33.36098015940343
 20
55.92380871629666
 42
0.4142135623731547
 10
-32.56098015940324
 20
55.12380871629648
 42
0.0
 10
-29.58465321349877
 20
55.12380871629648
 42
0.0
 10
-29.58465321349832
 20
58.10010174665058
 42
0.4142135623731964
 10
-30.3846532134985
 20
58.90010174665076
 42
0.0
 10
-33.07296930642724
 20
58.90010174665076
 42
0.0
 10
-33.07296930642724
 20
58.50010174665067
 42
0.0
 10
-30.38468712904887
 20
58.5001017466509
 42
-0.4142135623732564
 10
-29.98468712904878
 20
58.10010174665103
 42
0.0
 10
-29.98468712904923
 20
57.42799728675596
 42
0.0
 10
-32.56098015940324
 20
57.42799728675596
 42
0.4142135623731705
 10
-33.36098015940343
 20
56.627997286756
 42
0.0
 97
        1
330
BEA
 92
       22
 72
     1
 73
     1
 93
        6
 10
-32.97692046803468
 20
56.62796337120562
 42
-0.4142135623731576
 10
-32.57692046803459
 20
57.02796337120571
 42
0.0
 10
-29.98468712904878
 20
57.02796337120571
 42
0.0
 10
-29.98468712904878
 20
55.507868407665
 42
0.0
 10
-32.57692046803459
 20
55.507868407665
 42
-0.4142135623731731
 10
-32.97692046803468
 20
55.90786840766487
 42
0.0
 97
        1
330
C11
 92
        7
 72
     1
 73
     1
 93
       10
 10
-28.57661522808212
 20
58.5001017466509
 42
0.0
 10
-25.98444972019661
 20
58.5001017466509
 42
-0.4142135623730067
 10
-25.58444972019652
 20
58.10010174665058
 42
0.0
 10
-25.58444972019606
 20
55.12380871629648
 42
0.0
 10
-25.20042394437906
 20
55.12380871629648
 42
0.0
 10
-25.2004239443786
 20
58.1001017466508
 42
0.4142135623731134
 10
-26.00042394437833
 20
58.90010174665076
 42
0.0
 10
-28.97664914363259
 20
58.90010174665076
 42
0.0
 10
-28.97664914363259
 20
55.12380871629648
 42
0.0
 10
-28.57661522808212
 20
55.12380871629648
 42
0.0
 97
        1
330
BE9
 92
        7
 72
     0
 73
     1
 93
        4
 10
-24.57637781922995
 20
55.12380871629648
 10
-24.19231812786165
 20
55.12380871629648
 10
-24.19231812786165
 20
58.90010174665076
 10
-24.57637781922995
 20
58.90010174665076
 97
        1
330
BE8
 92
        7
 72
     0
 73
     1
 93
        4
 10
-24.19231812786165
 20
59.87619128370352
 10
-24.5763778192304
 20
59.87619128370352
 10
-24.5763778192304
 20
59.28412752246913
 10
-24.1923181278612
 20
59.28412752246913
 97
        1
330
C12
 92
        7
 72
     1
 73
     1
 93
       10
 10
-23.18424622689509
 20
58.5001017466509
 42
0.0
 10
-20.59204680345965
 20
58.5001017466509
 42
-0.4142135623730898
 10
-20.19204680345956
 20
58.1001017466508
 42
0.0
 10
-20.19204680345956
 20
55.12380871629648
 42
0.0
 10
-19.79201288790909
 20
55.12380871629648
 42
0.0
 10
-19.79201288790909
 20
58.1001017466508
 42
0.4142135623731547
 10
-20.59201288790928
 20
58.90010174665076
 42
0.0
 10
-23.56830591826338
 20
58.90010174665076
 42
0.0
 10
-23.56830591826338
 20
55.12380871629648
 42
0.0
 10
-23.18424622689463
 20
55.12380871629648
 42
0.0
 97
        1
330
BE7
 92
        7
 72
     1
 73
     1
 93
        8
 10
-19.1999120763262
 20
55.92680650071542
 42
0.4153115297271299
 10
-18.39991769304061
 20
55.12380871629648
 42
0.0
 10
-15.4236900118708
 20
55.12380871629648
 42
0.0
 10
-15.4236900118708
 20
59.87619128370352
 42
0.0
 10
-15.80771578768872
 20
59.87619128370352
 42
0.0
 10
-15.80771578768872
 20
58.90010174665076
 42
0.0
 10
-18.39176256411201
 20
58.90010174665076
 42
0.4131164467977965
 10
-19.19175694739761
 20
58.1030995310698
 42
0.0
 97
        1
330
BE6
 92
       22
 72
     1
 73
     1
 93
        6
 10
-18.79994912667462
 20
58.1001017466508
 42
-0.4142135623731575
 10
-18.39994912667453
 20
58.5001017466509
 42
0.0
 10
-15.80771578768872
 20
58.50010174665067
 42
0.0
 10
-15.80771578768827
 20
55.507868407665
 42
0.0
 10
-18.39994912667453
 20
55.507868407665
 42
-0.4142135623731731
 10
-18.79994912667462
 20
55.90786840766487
 42
0.0
 97
        1
330
BE5
 92
        7
 72
     1
 73
     1
 93
       12
 10
-14.79964388672215
 20
55.92380871629621
 42
0.4142135623729885
 10
-13.99964388672242
 20
55.12380871629648
 42
0.0
 10
-11.8233508563676
 20
55.12380871629648
 42
0.4142135623731289
 10
-11.02335085636741
 20
55.92380871629666
 42
0.0
 10
-11.02335085636741
 20
58.90010174665076
 42
0.0
 10
-11.42338477191788
 20
58.90010174665076
 42
0.0
 10
-11.42338477191788
 20
55.91567577726095
 42
-0.4131711701795319
 10
-11.82196067063523
 20
55.51567831234956
 42
0.0
 10
-14.01419400962095
 20
55.50787335710947
 42
-0.4152567234626918
 10
-14.41561811090378
 20
55.90787082202087
 42
0.0
 10
-14.41561811090378
 20
58.90010174665076
 42
0.0
 10
-14.7996438867226
 20
58.90010174665076
 42
0.0
 97
        1
330
BE4
 92
        7
 72
     1
 73
     1
 93
       20
 10
-7.423079531965413
 20
57.02796337120571
 42
-0.414213562373168
 10
-7.023079531965322
 20
56.62796337120562
 42
0.0
 10
-7.023079531965322
 20
55.90786840766487
 42
-0.4142135623731575
 10
-7.423079531965413
 20
55.507868407665
 42
0.0
 10
-10.41534678650168
 20
55.507868407665
 42
0.0
 10
-10.41534678650168
 20
55.12380871629648
 42
0.0
 10
-7.445787917283723
 20
55.12380871629648
 42
0.4114777732065809
 10
-6.645822882998345
 20
55.91632914939783
 42
0.0
 10
-6.639238813324936
 20
56.62051771985716
 42
0.4169546541682913
 10
-7.439203847610315
 20
57.42799728675596
 42
0.0
 10
-9.615312870951584
 20
57.42799728675596
 42
-0.4142135623729911
 10
-10.01531287095122
 20
57.82799728675581
 42
0.0
 10
-10.01531287095122
 20
58.10010174665103
 42
-0.414213562372991
 10
-9.615312870951584
 20
58.5001017466509
 42
0.0
 10
-6.92703069357276
 20
58.50010174665067
 42
0.0
 10
-6.927030693572305
 20
58.90010174665076
 42
0.0
 10
-9.615346786501959
 20
58.90010174665076
 42
0.4142135623730467
 10
-10.41534678650168
 20
58.10010174665103
 42
0.0
 10
-10.41534678650168
 20
57.82796337120544
 42
0.4142135623730301
 10
-9.615346786501959
 20
57.02796337120571
 42
0.0
 97
        1
330
BE3
 92
        7
 72
     1
 73
     1
 93
       12
 10
-5.21497371544865
 20
57.42799728675596
 42
0.4142135623730871
 10
-6.014973715448377
 20
56.627997286756
 42
0.0
 10
-6.014973715448377
 20
55.92380871629621
 42
0.4142135623730715
 10
-5.21497371544865
 20
55.12380871629648
 42
0.0
 10
-2.23871460064447
 20
55.12380871629648
 42
0.0
 10
-2.23871460064447
 20
58.10010174665058
 42
0.414213562373155
 10
-3.038714600644652
 20
58.90010174665076
 42
0.0
 10
-5.726962862471737
 20
58.90010174665076
 42
0.0
 10
-5.726962862472191
 20
58.5001017466509
 42
0.0
 10
-3.038748516194573
 20
58.5001017466509
 42
-0.4142135623730067
 10
-2.638748516194482
 20
58.10010174665058
 42
0.0
 10
-2.638748516194482
 20
57.42799728675596
 42
0.0
 97
        1
330
BE2
 92
       22
 72
     1
 73
     1
 93
        6
 10
-2.638748516194937
 20
57.02796337120571
 42
0.0
 10
-2.638748516194482
 20
55.50786840766477
 42
0.0
 10
-5.21497371544865
 20
55.507868407665
 42
-0.4142135623731731
 10
-5.614973715448741
 20
55.90786840766509
 42
0.0
 10
-5.614973715448741
 20
56.62796337120562
 42
-0.4142135623731576
 10
-5.21497371544865
 20
57.02796337120571
 42
0.0
 97
        1
330
C0D
 75
     0
 76
     1
 47
0.0407044778999864
 98
       13
 10
-34.18710075113677
 20
56.16907953933765
 10
-33.12851374392494
 20
56.49471602641233
 10
-33.12851374392494
 20
56.49471602641233
 10
-28.77202873835904
 20
57.51232930166111
 10
-24.41554807250941
 20
57.91937341678636
 10
-24.41554807250941
 20
59.384734621186
 10
-23.31624584658039
 20
58.3264175319116
 10
-19.04119127844888
 20
57.75655517324913
 10
-19.04119127844888
 20
57.75655517324913
 10
-14.64399105416578
 20
57.43091868617466
 10
-8.048195057457178
 20
57.22739662861204
 10
-4.017427461911665
 20
57.18669281458665
 10
-4.017427461911665
 20
57.18669281458665
  0
TEXT
  5
BED
330
B9E
100
AcDbEntity
  8
leg fin
100
AcDbText
 10
3.391127401597259
 20
2.107634911895729
 30
0.0
 40
1.5
  1
Este desenho é propriedade da Sanindusa, S.A., e não pode ser copiado nem divulgado sem nossa autorização.
 50
90.0
 41
0.8
  7
SANINDUSA
100
AcDbText
  0
LINE
  5
BEE
330
B9E
100
AcDbEntity
  8
3
100
AcDbLine
 10
-90.0
 20
4.0
 30
0.0
 11
-90.0
 21
12.0
 31
0.0
  0
TEXT
  5
BEF
330
B9E
100
AcDbEntity
  8
1
100
AcDbText
 10
-39.0
 20
9.25
 30
0.0
 40
2.0
  1
Substituido por:
 41
0.8
  7
SANINDUSA
 11
-39.0
 21
10.25
 31
0.0
100
AcDbText
 73
     2
  0
POINT
  5
BF0
330
B9E
100
AcDbEntity
  8
SANINDUSA
100
AcDbPoint
 10
0.0
 20
0.0
 30
0.0
  0
TEXT
  5
BF1
330
B9E
100
AcDbEntity
  8
1
100
AcDbText
 10
-89.0
 20
16.74927010445663
 30
0.0
 40
2.0
  1
Normas:
 41
0.8
  7
SANINDUSA
 11
-89.0
 21
17.74927010445663
 31
0.0
100
AcDbText
 73
     2
  0
LINE
  5
BF2
330
B9E
100
AcDbEntity
  8
3
100
AcDbLine
 10
-90.0
 20
12.0
 30
0.0
 11
-90.0
 21
20.0
 31
0.0
  0
LINE
  5
BF3
330
B9E
100
AcDbEntity
  8
3
100
AcDbLine
 10
-110.546019464768
 20
12.0
 30
0.0
 11
-110.546019464768
 21
20.0
 31
0.0
  0
TEXT
  5
BF4
330
B9E
100
AcDbEntity
  8
1
100
AcDbText
 10
-109.6177520618648
 20
17.25
 30
0.0
 40
2.0
  1
Cor:
 41
0.8
  7
SANINDUSA
 11
-109.6177520618648
 21
18.25
 31
0.0
100
AcDbText
 73
     2
  0
LINE
  5
BF5
330
B9E
100
AcDbEntity
  8
leg fin
100
AcDbLine
 10
-91.42857142857156
 20
20.0
 30
0.0
 11
-91.42857142857156
 21
28.5
 31
0.0
  0
LINE
  5
BF6
330
B9E
100
AcDbEntity
  8
leg fin
100
AcDbLine
 10
-104.2857142857142
 20
20.0
 30
0.0
 11
-104.2857142857142
 21
28.5
 31
0.0
  0
LINE
  5
BF7
330
B9E
100
AcDbEntity
  8
leg fin
100
AcDbLine
 10
-117.1428571428573
 20
20.0
 30
0.0
 11
-117.1428571428573
 21
28.5
 31
0.0
  0
POINT
  5
BF8
330
B9E
100
AcDbEntity
  8
SANINDUSA
100
AcDbPoint
 10
-117.1428571428573
 20
28.5
 30
0.0
  0
POINT
  5
BF9
330
B9E
100
AcDbEntity
  8
SANINDUSA
100
AcDbPoint
 10
-104.2857142857142
 20
28.5
 30
0.0
  0
POINT
  5
BFA
330
B9E
100
AcDbEntity
  8
SANINDUSA
100
AcDbPoint
 10
-91.42857142857156
 20
28.5
 30
0.0
  0
TEXT
  5
BFB
330
B9E
100
AcDbEntity
  8
1
100
AcDbText
 10
-116.200160604496
 20
26.43288406845113
 30
0.0
 40
1.5
  1
Nº Seq.:
 41
0.8
  7
SANINDUSA
 11
-116.200160604496
 21
27.18288406845113
 31
0.0
100
AcDbText
 73
     2
  0
TEXT
  5
BFC
330
B9E
100
AcDbEntity
  8
1
100
AcDbText
 10
-103.2106584078738
 20
26.43288406845113
 30
0.0
 40
1.5
  1
Tipo:
 41
0.8
  7
SANINDUSA
 11
-103.2106584078738
 21
27.18288406845113
 31
0.0
100
AcDbText
 73
     2
  0
TEXT
  5
BFD
330
B9E
100
AcDbEntity
  8
1
100
AcDbText
 10
-90.22114672289353
 20
26.43288406845113
 30
0.0
 40
1.5
  1
Prod.:
 41
0.8
  7
SANINDUSA
 11
-90.22114672289353
 21
27.18288406845113
 31
0.0
100
AcDbText
 73
     2
  0
TEXT
  5
BFE
330
B9E
100
AcDbEntity
  8
1
100
AcDbText
 10
-64.77320576346574
 20
26.43288406845113
 30
0.0
 40
1.5
  1
Rev.:
 41
0.8
  7
SANINDUSA
 11
-64.77320576346574
 21
27.18288406845113
 31
0.0
100
AcDbText
 73
     2
  0
LINE
  5
BFF
330
B9E
100
AcDbEntity
  8
leg fin
100
AcDbLine
 10
-52.85714285714266
 20
20.0
 30
0.0
 11
-52.85714285714266
 21
28.5
 31
0.0
  0
LINE
  5
C00
330
B9E
100
AcDbEntity
  8
leg fin
100
AcDbLine
 10
-65.71428571428578
 20
20.0
 30
0.0
 11
-65.71428571428578
 21
28.5
 31
0.0
  0
LINE
  5
C01
330
B9E
100
AcDbEntity
  8
leg fin
100
AcDbLine
 10
-78.57142857142844
 20
20.0
 30
0.0
 11
-78.57142857142844
 21
28.5
 31
0.0
  0
POINT
  5
C02
330
B9E
100
AcDbEntity
  8
SANINDUSA
100
AcDbPoint
 10
-78.57142857142844
 20
28.5
 30
0.0
  0
POINT
  5
C03
330
B9E
100
AcDbEntity
  8
SANINDUSA
100
AcDbPoint
 10
-65.71428571428578
 20
28.5
 30
0.0
  0
POINT
  5
C04
330
B9E
100
AcDbEntity
  8
SANINDUSA
100
AcDbPoint
 10
-52.85714285714266
 20
28.5
 30
0.0
  0
TEXT
  5
C05
330
B9E
100
AcDbEntity
  8
1
100
AcDbText
 10
-77.61097961686573
 20
26.43288406845113
 30
0.0
 40
1.5
  1
Peça:
 41
0.8
  7
SANINDUSA
 11
-77.61097961686573
 21
27.18288406845113
 31
0.0
100
AcDbText
 73
     2
  0
TEXT
  5
C06
330
B9E
100
AcDbEntity
  8
1
100
AcDbText
 10
-52.06538060077036
 20
26.43288406845113
 30
0.0
 40
1.5
  1
Alt.:
 41
0.8
  7
SANINDUSA
 11
-52.06538060077036
 21
27.18288406845113
 31
0.0
100
AcDbText
 73
     2
  0
LINE
  5
C07
330
B9E
100
AcDbEntity
  8
3
100
AcDbLine
 10
0.0
 20
12.0
 30
0.0
 11
-40.0
 21
12.0
 31
0.0
  0
LINE
  5
C08
330
B9E
100
AcDbEntity
  8
3
100
AcDbLine
 10
-40.0
 20
32.5
 30
0.0
 11
0.0
 21
32.5
 31
0.0
  0
TEXT
  5
C09
330
B9E
100
AcDbEntity
  8
1
100
AcDbText
 10
-19.0
 20
29.75
 30
0.0
 40
2.0
  1
Folha:
 41
0.8
  7
SANINDUSA
 11
-19.0
 21
30.75
 31
0.0
100
AcDbText
 73
     2
  0
LINE
  5
C0A
330
B9E
100
AcDbEntity
  8
3
100
AcDbLine
 10
-20.0
 20
32.5
 30
0.0
 11
-20.0
 21
20.0
 31
0.0
  0
TEXT
  5
C0B
330
B9E
100
AcDbEntity
  8
1
100
AcDbText
 10
-39.0
 20
29.75
 30
0.0
 40
2.0
  1
Escala:
 41
0.8
  7
SANINDUSA
 11
-39.0
 21
30.75
 31
0.0
100
AcDbText
 73
     2
  0
TEXT
  5
C0C
330
B9E
100
AcDbEntity
  8
1
100
AcDbText
 10
-39.0
 20
17.25
 30
0.0
 40
2.0
  1
Substitui:
 41
0.8
  7
SANINDUSA
 11
-39.0
 21
18.25
 31
0.0
100
AcDbText
 73
     2
  0
LWPOLYLINE
  5
C0D
102
{ACAD_REACTORS
330
BEC
102
}
330
B9E
100
AcDbEntity
  8
9
100
AcDbPolyline
 90
        6
 70
     1
 43
0.0
 10
-2.638748516194482
 20
57.02796337120571
 10
-2.638748516194482
 20
55.50786840766477
 10
-5.21497371544865
 20
55.507868407665
 42
-0.4142135623730898
 10
-5.614973715448741
 20
55.90786840766487
 10
-5.614973715448741
 20
56.62796337120562
 42
-0.4142135623731576
 10
-5.21497371544865
 20
57.02796337120571
  0
LINE
  5
C0E
330
B9E
100
AcDbEntity
  8
3
100
AcDbLine
 10
-40.0
 20
50.0
 30
0.0
 11
0.0
 21
50.0
 31
0.0
  0
ATTDEF
  5
C0F
330
B9E
100
AcDbEntity
  8
1
100
AcDbText
 10
-31.30691739422431
 20
40.25
 30
0.0
 40
2.0
  1
XXXXXXXXXXXXXXX
 41
0.8
  7
SANINDUSA
 72
     4
 11
-20.0
 21
41.25
 31
0.0
100
AcDbAttributeDefinition
  3
Observações:
  2
OBS
 70
     0
  0
TEXT
  5
C10
330
B9E
100
AcDbEntity
  8
1
100
AcDbText
 10
-39.0
 20
47.25
 30
0.0
 40
2.0
  1
Observações:
 41
0.8
  7
SANINDUSA
 11
-39.0
 21
48.25
 31
0.0
100
AcDbText
 73
     2
  0
LWPOLYLINE
  5
C11
102
{ACAD_REACTORS
330
BEC
102
}
330
B9E
100
AcDbEntity
  8
9
100
AcDbPolyline
 90
        6
 70
     1
 43
0.0
 10
-29.98468712904878
 20
57.02796337120571
 10
-29.98468712904878
 20
55.507868407665
 10
-32.57692046803459
 20
55.507868407665
 42
-0.4142135623731731
 10
-32.97692046803468
 20
55.90786840766487
 10
-32.97692046803468
 20
56.62796337120562
 42
-0.4142135623731576
 10
-32.57692046803459
 20
57.02796337120571
  0
LWPOLYLINE
  5
C12
102
{ACAD_REACTORS
330
BEC
102
}
330
B9E
100
AcDbEntity
  8
9
100
AcDbPolyline
 90
        4
 70
     1
 43
0.0
 10
-24.19231812786165
 20
59.87619128370352
 10
-24.57637781922995
 20
59.87619128370352
 10
-24.57637781922995
 20
59.28412752246913
 10
-24.19231812786165
 20
59.28412752246913
  0
ENDBLK
  5
C14
330
B9E
100
AcDbEntity
  8
0
100
AcDbBlockEnd
  0
ENDSEC
  0
SECTION
  2
ENTITIES
  0
3DSOLID
  5
10CC
330
1F
100
AcDbEntity
  8
0
100
AcDbModelerGeometry
 70
     1
  1
koo nllj n o        
  1
ni ^ *+0;:,4 ^ *+0\^ [ nf ^ LR mngqoqoqjnni QK o  
  1
n fqfffffffffffffffj:rooh n:rono 
  1
=0;& {n {m {rn {rn |
  1
-:9@)+r:&:r>++-6= {rn {l {rn {o {k {j |
  1
3*2/ {i {rn {h {o |
  1
1>2:@>++-6=r8:1r>++-6= {rn {rn {n {o 4::/ 4::/@4:/+ 6810-: f kklGG@,>+ |
  1
:&:@-:961:2:1+ {rn j 8-6;  n l +-6 n k ,*-9 o l >;5 o k 8->; o f /0,+<7:<4 o k ,+03 oqmklfjogjghnmnfilj k 1+03 lo k ;,63 o g 93>+1:,, o h /6'>-:> o k 72>' o i 8-6;>- o j 28-6; looo j *8-6; o j )8-6; o no :1;@96:3;, |
  1
):-+:'@+:2/3>+: {rn l o n g |
  1
-:9@)+r:&:r>++-6= {rn {g {rn {m {k {j |
  1
,7:33 {f {rn {rn {no {rn {m |
  1
-8=@<030-r,+r>++-6= {rn {rn {i {m oqhfmnjigimhkjofg oqgnfiohgklnlhmjkgg oqflllllllllllllllj |
  1
-:9@)+r:&:r>++-6= {rn {rn {rn {h {k {j |
  1
9><: {nn {nm {nl {h {rn {nk 90-(>-; ,6183: |
  1
92:,7r:&:r>++-6= {rn {nj {rn {no |
  1
9><: {ni {nh {ng {h {rn {nf 90-(>-; ,6183: |
  1
300/ {rn {rn {mo {no |
  1
/3>1:r,*-9><: {rn rnnjqooooooooooooon hl o roqffffkjniflijjnmnk rnqfoofimjgimggnhlf:roni oqonokhnhgknnimkjgni noqkhnhgknnimkjgni o fffqfkjniflijjnmnl 90-(>-;@) V V V V |
  1
-:9@)+r:&:r>++-6= {rn {mn {nn {no {k {j |
  1
92:,7r:&:r>++-6= {rn {mm {rn {nm |
  1
9><: {ml {mk {mj {h {rn {mi 90-(>-; ,6183: |
  1
300/ {rn {rn {mh {nm |
  1
/3>1:r,*-9><: {rn rnnkqffffffffffffff rhl o o roqffffkjniflijjnmmj oqonokhnhgknnimkjgng o rnoqkhnhgknnimkjgng rfffqfkjniflijjnmmk 90-(>-;@) V V V V |
  1
<0:;8: {rn {mg {mf {lo {ln 90-(>-; {nl {rn |
  1
61+:8:-@>++-6=r1>2:@>++-6=r8:1r>++-6= {rn {rn {nj {no <0/& 4::/@4:/+ 6810-: h Y633:+j o |
  1
-:9@)+r:&:r>++-6= {rn {lm {ni {nm {k {j |
  1
92:,7r:&:r>++-6= {rn {ll {rn {nh |
  1
9><: {lk {lj {li {h {rn {lh 90-(>-; ,6183: |
  1
300/ {rn {rn {lg {nh |
  1
/3>1:r,*-9><: {rn nnkqffffffffffffff hlqooooooooooooonk o oqffffkjniflijjnmnk mqgjnkklghfklmmiom:roni oqonokhnhgknnimkjgni noqkhnhgknnimkjgni o rfffqfkjniflijjnmnl 90-(>-;@) V V V V |
  1
<0:;8: {rn {lf {ko {kn {km 90-(>-; {ng {rn |
  1
<0:;8: {rn {kl {mo {kk {kj 90-(>-; {nl {rn |
  1
<0:;8: {rn {mo {kl {ki {kh 90-(>-; {nl {rn |
  1
<0:;8: {rn {kg {kf {mo {ln -:):-,:; {jo {rn |
  1
:;8: {jn {jm {jl {mo {jk 90-(>-; |
  1
61+:8:-@>++-6=r1>2:@>++-6=r8:1r>++-6= {rn {rn {mm {nm <0/& 4::/@4:/+ 6810-: h Y633:+j o |
  1
-:9@)+r:&:r>++-6= {rn {jj {ml {nh {k {j |
  1
92:,7r:&:r>++-6= {rn {ji {rn {mk |
  1
9><: {jh {jg {jf {h {rn {io 90-(>-; ,6183: |
  1
300/ {rn {rn {in {mk |
  1
/3>1:r,*-9><: {rn rnnjqooooooooooooon hl o riqollkgffkhhgkmomj:ronh oqffffkjniflijjnmnk oqonokhnhgknnimkjgni o rnoqkhnhgknnimkjgni fffqfkjniflijjnmnl 90-(>-;@) V V V V |
  1
<0:;8: {rn {im {il {ik {ij 90-(>-; {mj {rn |
  1
<0:;8: {rn {ii {mh {ih {ig 90-(>-; {ng {rn |
  1
<0:;8: {rn {mh {ii {if {ho 90-(>-; {ng {rn |
  1
<0:;8: {rn {hn {hm {mh {km -:):-,:; {hl {rn |
  1
:;8: {hk {hj {hi {mh {hh 90-(>-; |
  1
<0:;8: {rn {mf {mg {hg {hf 90-(>-; {nl {rn |
  1
<0:;8: {rn {go {gn {mg {kj -:):-,:; {gm {rn |
  1
:;8: {gl {jl {gk {mg {gj 90-(>-; |
  1
<0:;8: {rn {gi {gh {mf {kh -:):-,:; {gg {rn |
  1
:;8: {gf {fo {jm {mf {fn 90-(>-; |
  1
<0:;8: {rn {fm {lo {gh {fl -:):-,:; {jo {rn |
  1
<0:;8: {rn {lo {fm {fk {fj 90-(>-; {jo {rn |
  1
300/ {rn {rn {fm {fi |
  1
/+36,+r:&:r>++-6= {rn {rn {rn {ln |
  1
):-+:' {rn {fl {fh |
  1
):-+:' {rn {fj {fg |
  1
,+->687+r<*-): {rn rnnkqfgknonmgfllgik rhnqfgknjinnffhlnj nqjngnjfjlifkflloi noqkhnmnoookililn noqkhnmnoookililnm fffqgfolkhhkfmlofj V V |
  1
61+:8:-@>++-6=r1>2:@>++-6=r8:1r>++-6= {rn {rn {ll {nh <0/& 4::/@4:/+ 6810-: h Y633:+j o |
  1
-:9@)+r:&:r>++-6= {rn {ff {lk {mk {k {j |
  1
92:,7r:&:r>++-6= {rn {noo {rn {lj |
  1
9><: {non {nom {gg {h {rn {nol -:):-,:; ,6183: |
  1
300/ {rn {nok {noj {lj |
  1
/3>1:r,*-9><: {rn o o nk o o n nooo o o 90-(>-;@) V V V V |
  1
<0:;8: {rn {noi {noh {nog {nof 90-(>-; {li {rn |
  1
<0:;8: {rn {nno {lg {nnn {nnm 90-(>-; {mj {rn |
  1
<0:;8: {rn {lg {nno {nnl {nnk 90-(>-; {mj {rn |
  1
<0:;8: {rn {nnj {nni {lg {ij -:):-,:; {nnh {rn |
  1
:;8: {nng {nnf {nmo {lg {nmn 90-(>-; |
  1
<0:;8: {rn {ko {lf {fm {nmm 90-(>-; {ng {rn |
  1
<0:;8: {rn {nml {nmk {lf {ig -:):-,:; {nmj {rn |
  1
:;8: {nmi {hi {nmh {lf {nmg 90-(>-; |
  1
<0:;8: {rn {gh {nmf {ko {ho -:):-,:; {gg {rn |
  1
:;8: {nlo {nln {hj {ko {nlm 90-(>-; |
  1
<0:;8: {rn {nll {kn {nmf {nlk -:):-,:; {hl {rn |
  1
<0:;8: {rn {kn {nll {nlj {nli 90-(>-; {hl {rn |
  1
300/ {rn {rn {nll {nlh |
  1
/+36,+r:&:r>++-6= {rn {rn {rn {km |
  1
):-+:' {rn {nlk {nlg |
  1
):-+:' {rn {nli {nlf |
  1
,+->687+r<*-): {rn nnlqfhkfkjgljfooki rhmqfhkgfnoojmijfnh mqlfhikkhmfmlmnhgg rnoqkhnmnoookililnh noqkhnmnoookililnm fffqgfolkhhkfmlofj V V |
  1
<0:;8: {rn {nko {nkn {kl {hf -:):-,:; {nkm {rn |
  1
:;8: {nkl {gk {fo {kl {nkk 90-(>-; |
  1
<0:;8: {rn {nkj {kk {nki {nkh 90-(>-; {gm {rn |
  1
<0:;8: {rn {kk {nkj {nkg {nkf -:):-,:; {gm {rn |
  1
300/ {rn {rn {go {njo |
  1
/+36,+r:&:r>++-6= {rn {rn {rn {kj |
  1
):-+:' {rn {kj {njn |
  1
,+->687+r<*-): {rn rnnkqgilhkfihhjlkin hnqgjlkkngnknmmloi nlqonokhnhgknnimki rnqfonoiigmmfggmgm:ronl nooo nqlnnhingimonllfkh:roln V V |
  1
<0:;8: {rn {njm {ki {nkn {njl 90-(>-; {gg {rn |
  1
<0:;8: {rn {ki {if {kg {fl 90-(>-; {gg {rn |
  1
300/ {rn {rn {if {jg |
  1
/+36,+r:&:r>++-6= {rn {rn {rn {kh |
  1
):-+:' {rn {hf {njk |
  1
,+->687+r<*-): {rn rnnjqooooooooooooon hl o nqfonoiigmmfggmgm:ronl rnooo o V V |
  1
<0:;8: {rn {kf {kg {ii {nmm -:):-,:; {jo {rn |
  1
:;8: {njj {nln {jm {gh {nji 90-(>-; |
  1
<0:;8: {rn {njh {nki {kf {fj -:):-,:; {njg {rn |
  1
:;8: {njf {nmh {jl {kf {nio 90-(>-; |
  1
9><: {nin {nlh {jo {h {rn {nim 90-(>-; ,6183: |
  1
/061+ {rn rnnkqffffffffffffff rhmqoooojkgloilkkfh o |
  1
/061+ {rn rnnkqgilhkfihhjlkjf rhnqgilgokjognifofi nlqonokhnhgknnimj |
  1
61+:8:-@>++-6=r1>2:@>++-6=r8:1r>++-6= {rn {rn {ji {mk <0/& 4::/@4:/+ 6810-: h Y633:+j o |
  1
-:9@)+r:&:r>++-6= {rn {nil {jh {lj {k {j |
  1
92:,7r:&:r>++-6= {rn {nik {rn {jg |
  1
9><: {nij {nii {nih {h {rn {nig -:):-,:; ,6183: |
  1
/3>1:r,*-9><: {rn o o o o o n nooo o o 90-(>-;@) V V V V |
  1
300/ {rn {rn {nif {lj |
  1
<0:;8: {rn {nho {nhn {nhm {nhl 90-(>-; {jf {rn |
  1
<0:;8: {rn {nhk {in {nhj {nhi 90-(>-; {li {rn |
  1
<0:;8: {rn {in {nhk {njm {nhh 90-(>-; {li {rn |
  1
<0:;8: {rn {nkn {nko {in {nof -:):-,:; {nkm {rn |
  1
:;8: {nhg {nhf {ngo {in {ngn 90-(>-; |
  1
<0:;8: {rn {il {im {nll {ngm 90-(>-; {mj {rn |
  1
<0:;8: {rn {ngl {ngk {im {nnm -:):-,:; {ngj {rn |
  1
:;8: {ngi {nmo {ngh {im {ngg 90-(>-; |
  1
<0:;8: {rn {nmf {ngf {il {nnk -:):-,:; {gg {rn |
  1
:;8: {nfo {nfn {nnf {il {nfm 90-(>-; |
  1
<0:;8: {rn {nfl {ik {ngf {nfk -:):-,:; {nnh {rn |
  1
<0:;8: {rn {ik {nfl {nfj {nfi 90-(>-; {nnh {rn |
  1
300/ {rn {rn {nfl {nfh |
  1
/+36,+r:&:r>++-6= {rn {rn {rn {ij |
  1
):-+:' {rn {nfk {nfg |
  1
):-+:' {rn {nfi {nff |
  1
,+->687+r<*-): {rn nnjqooonofikommifg hmqooonikkhoginkfm roqonokifkghhlmhjgjjh rnoqkhnmnoookililog rnoqkhnmnoookililnm fffqgfolkhhkfmlogk V V |
  1
:;8: {moo {nmh {nln {ii {mon 90-(>-; |
  1
<0:;8: {rn {mom {ih {mol {mok 90-(>-; {nmj {rn |
  1
<0:;8: {rn {ih {mom {njh {moj -:):-,:; {nmj {rn |
  1
300/ {rn {rn {nml {moi |
  1
/+36,+r:&:r>++-6= {rn {rn {rn {ig |
  1
):-+:' {rn {ig {moh |
  1
,+->687+r<*-): {rn rnnlqgjlkkngnknmmlm rhmqgilhkfihhjlkjgj nlqonokhnhgknnimki rnooo ro ro V V |
  1
<0:;8: {rn {if {nnl {hn {nlk 90-(>-; {gg {rn |
  1
/+36,+r:&:r>++-6= {rn {rn {rn {ho |
  1
):-+:' {rn {nmm {mog |
  1
,+->687+r<*-): {rn rnnkqffffffffffffff rhl o nooo o o V V |
  1
<0:;8: {rn {hm {hn {nno {ngm -:):-,:; {hl {rn |
  1
:;8: {mof {nfn {hj {nmf {mno 90-(>-; |
  1
<0:;8: {rn {mnn {mol {hm {nli -:):-,:; {mnm {rn |
  1
:;8: {mnl {ngh {hi {hm {mnk 90-(>-; |
  1
9><: {mnj {nfh {hl {h {rn {mni 90-(>-; ,6183: |
  1
/061+ {rn nnkqoooojkgloilkkh rhl o |
  1
/061+ {rn nnlqgilgokjognifnk rhmqgilhkfihhjlkjff nlqonokhnhgknnimj |
  1
<0:;8: {rn {nog {hg {mnh {mng 90-(>-; {nkm {rn |
  1
<0:;8: {rn {hg {nog {gi {njl -:):-,:; {nkm {rn |
  1
300/ {rn {rn {hg {mnf |
  1
/+36,+r:&:r>++-6= {rn {rn {rn {hf |
  1
,+->687+r<*-): {rn rnnjqooonofikommhon hmqooonikkhoginkhg roqonokifkghhlmhjgin rnoqkhnmnoookililnk noqkhnmnoookililnm rfffqgfolkhhkfmlogk V V |
  1
<0:;8: {rn {gn {go {mmo {mmn -:):-,:; {gm {rn |
  1
<0:;8: {rn {fk {njh {go {nkh -:):-,:; {njg {rn |
  1
:;8: {mmm {jl {mml {go {mmk 90-(>-; |
  1
<0:;8: {rn {mmj {mnh {gn {nkf 90-(>-; {mmi {rn |
  1
:;8: {mmh {gk {mmg {nkg {mmf 90-(>-; |
  1
9><: {mlo {mln {gm {h {rn {mlm 90-(>-; ,6183: |
  1
/061+ {rn rnnkqgilhkfihhjlkil hnqgilgokjognifofi nlqonokhnhgknnimkg |
  1
<0:;8: {rn {ngf {gi {noh {nhh -:):-,:; {gg {rn |
  1
:;8: {mll {fo {nhf {gi {mlk 90-(>-; |
  1
/061+ {rn rnnjqooooooooooooon hmqoooojkgloilkkgl o |
  1
/+36,+r:&:r>++-6= {rn {rn {rn {fl |
  1
61+<*-):r<*-): {rn 90-(>-; $ :'><+<*- 1*-=, l 0/:1 m 
  1
 jqkfhgknfhmfnljll l hqoigjmgiknkkjimin l 
  1
 rnnkqoooojkgloilkkg rhl o n 
  1
 rnnkqjgjgmmkjnkhioj rhl o oqgokhilhoonningffm 
  1
 rnnj rhmqjgjgmmkjnkhiohi o oqgokhilhoonningffm 
  1
 rnnkqffffffffffffff rhmqoooojkgloilkkfh o n 
  1
 o 
  1
 1*33@,*-9><: 
  1
 1*33@,*-9><: 
  1
 1*33=, 
  1
 1*33=, 
  1
 V V 
  1
 o 
  1
 o 
  1
 o 
  1
 Y n Y o " V V |
  1
<0:;8: {rn {nki {fk {nmk {moj 90-(>-; {njg {rn |
  1
300/ {rn {rn {fk {mlj |
  1
/+36,+r:&:r>++-6= {rn {rn {rn {fj |
  1
:336/,:r<*-): {rn rnnlqgilgokjognifn rhnqgilgokjognifofi nlqoooooooooooooom roqonokhnmnoookililnm roqonokhnmnoookililnk roqfffgfolkhhkfmlofn o oqffffkjniflijjofgn roqonokhnhgknnimkjili n V V |
  1
92:,7r:&:r>++-6= {rn {mli {rn {fi |
  1
<01:r,*-9><: {rn rnnkqooonikkhoginkg rhmqooonikkhoginkhg roqomofknmhngkfookkgf roqonokhnmnoookililnm roqonokhnmnoookililnk roqfffgfolkhhkfmlofn o oqffffkjniflijjofgn roqonokhnhgknnimkjgng n V V o n oqffffffffffffffhgf 90-(>-; V V V V |
  1
61+:8:-@>++-6=r1>2:@>++-6=r8:1r>++-6= {rn {rn {noo {lj <0/& 4::/@4:/+ 6810-: h Y633:+j o |
  1
-:9@)+r:&:r>++-6= {rn {mlh {non {jg {k {j |
  1
92:,7r:&:r>++-6= {rn {mlg {rn {nom |
  1
9><: {mlf {mko {mkn {h {rn {mkm -:):-,:; ,6183: |
  1
300/ {rn {rn {mkl {nom |
  1
/3>1:r,*-9><: {rn rifqiooooooooooooml mhqiffffffffffffff fqoooooooooooooong rn o o o o nooo 90-(>-;@) V V V V |
  1
<0:;8: {rn {mkk {mkj {mki {mkh 90-(>-; {nok {rn |
  1
<0:;8: {rn {mkg {noj {mkf {mjo 90-(>-; {jf {rn |
  1
<0:;8: {rn {noj {mjn {mjm {mjl 90-(>-; {jf {rn |
  1
<0:;8: {rn {mjk {mjj {noj {nhl -:):-,:; {mji {rn |
  1
:;8: {mjh {mjg {mjf {noj {mio 90-(>-; |
  1
<0:;8: {rn {noh {noi {nfl {min 90-(>-; {li {rn |
  1
<0:;8: {rn {mim {mil {noi {nhi -:):-,:; {mik {rn |
  1
:;8: {mij {ngo {mii {noi {mih 90-(>-; |
  1
:;8: {mig {mif {nhf {noh {mho 90-(>-; |
  1
/+36,+r:&:r>++-6= {rn {rn {rn {nof |
  1
):-+:' {rn {njl {mhn |
  1
):-+:' {rn {mhm {mhl |
  1
,+->687+r<*-): {rn rnnkqooonikkhoginjn hlqooonofikommiffj roqonokifkghhlmhjgjij noqkhnmnoookililnj rnoqkhnmnoookililnm fffqgfolkhhkfmlogk V V |
  1
:;8: {mhk {ngh {nfn {nno {mhj 90-(>-; |
  1
<0:;8: {rn {mki {nnn {mhi {mhh -:):-,:; {ngj {rn |
  1
<0:;8: {rn {nnn {mki {mnn {mhg 90-(>-; {ngj {rn |
  1
300/ {rn {rn {ngk {mhf |
  1
/+36,+r:&:r>++-6= {rn {rn {rn {nnm |
  1
):-+:' {rn {nnm {mgo |
  1
,+->687+r<*-): {rn nnkqgilhkfihhjlkil rhnqgjlkkngnknmmmil nlqonokhnhgknnimki mqgjnioomlkkgmkmmm:ronl rnooo rhqhomghkfgfkklhffm:roln V V |
  1
<0:;8: {rn {nnl {njm {nnj {nfk 90-(>-; {gg {rn |
  1
/+36,+r:&:r>++-6= {rn {rn {rn {nnk |
  1
):-+:' {rn {ngm {mgn |
  1
,+->687+r<*-): {rn nnkqffffffffffffff hlqooooooooooooonk o rmqgjnioomlkkgmkmmm:ronl nooo o V V |
  1
<0:;8: {rn {nni {nnj {nhk {min -:):-,:; {nnh {rn |
  1
:;8: {mgm {mif {nnf {ngf {mgl 90-(>-; |
  1
<0:;8: {rn {mgk {mhi {nni {nfi -:):-,:; {mgj {rn |
  1
:;8: {mgi {mii {nmo {nni {mgh 90-(>-; |
  1
9><: {mgg {mnf {nnh {h {rn {mgf 90-(>-; ,6183: |
  1
/061+ {rn nnkqffffffffffffff hmqoooojkgloilkjnn o |
  1
/061+ {rn nnkqgilhkfihhjlki hnqgilgokjognifnn nlqonokhnhgknnimkg |
  1
/+36,+r:&:r>++-6= {rn {rn {rn {nmm |
  1
,+->687+r<*-): {rn rnnkqooonikkhoginkg rhlqooonofikommiffj roqonokifkghhlmhjgiof rnoqkhnmnoookililnm rnoqkhnmnoookililnm rfffqgfolkhhkfmlofj V V |
  1
<0:;8: {rn {nmk {nml {mkj {mfo -:):-,:; {nmj {rn |
  1
<0:;8: {rn {nlj {mnn {nml {mok -:):-,:; {mnm {rn |
  1
:;8: {mfn {hi {mfm {nml {mfl 90-(>-; |
  1
:;8: {mfk {nmh {mml {njh {mfj 90-(>-; |
  1
9><: {mfi {mfh {nmj {h {rn {mfg 90-(>-; ,6183: |
  1
/061+ {rn rnnlqgilgokjognifn rhmqgilhkfihhjlkjff nlqonokhnhgknnimj |
  1
/061+ {rn rnnkqoooojkgloilkkg rhl o |
  1
/+36,+r:&:r>++-6= {rn {rn {rn {nlk |
  1
61+<*-):r<*-): {rn 90-(>-; $ :'><+<*- 1*-=, l 0/:1 m 
  1
 jqkfhgknfhmfnljojj l hqoigjmgiknkkjifjk l 
  1
 nnjqoooooooooooool rhmqoooojkgloilkkgl o n 
  1
 nnjqoooooooooooook rhmqjgjgmmkjnkhinnf o oqgokhilhoonniniifk 
  1
 nnkqjgjgmmkjnkhiof rhlqooooooooooooojh o oqgokhilhoonniniifk 
  1
 nnkqoooojkgloilkkh rhl o n 
  1
 o 
  1
 1*33@,*-9><: 
  1
 1*33@,*-9><: 
  1
 1*33=, 
  1
 1*33=, 
  1
 V V 
  1
 o 
  1
 o 
  1
 o 
  1
 Y n Y o " V V |
  1
<0:;8: {rn {mol {nlj {ngk {mhg -:):-,:; {mnm {rn |
  1
300/ {rn {rn {mol {mff |
  1
/+36,+r:&:r>++-6= {rn {rn {rn {nli |
  1
:336/,:r<*-): {rn nnlqgilgokjognifnn rhnqgilgokjognifnn nlqoooooooooooooom oqonokhnmnoookililnh roqonokhnmnoookililnk roqfffgfolkhhkfmlofn roqffffkjniflijjofgn o roqonokhnhgknnimkjili n V V |
  1
92:,7r:&:r>++-6= {rn {loo {rn {nlh |
  1
<01:r,*-9><: {rn nnlqfgknjinnffhlng rhnqfgknjinnffhlnik nqjohighhjmgllogjf oqonokhnmnoookililnh roqonokhnmnoookililnk roqfffgfolkhhkfmlofn roqffffkjniflijjofgn o roqonokhnhgknnimkjgjl n V V o n oqffffffffffffffhgf 90-(>-; V V V V |
  1
<0:;8: {rn {nkg {mmj {nko {mng -:):-,:; {mmi {rn |
  1
:;8: {lon {gk {ngo {nko {lom 90-(>-; |
  1
9><: {lol {mff {nkm {h {rn {lok 90-(>-; ,6183: |
  1
<0:;8: {rn {mkj {mkk {nkj {mmn 90-(>-; {nok {rn |
  1
:;8: {loj {mmg {mml {mmo {loi 90-(>-; |
  1
/+36,+r:&:r>++-6= {rn {rn {rn {nkh |
  1
):-+:' {rn {mmn {loh |
  1
:336/,:r<*-): {rn rnnlqgilgokjognifn rhnqgilgokjognifofi nl o n o o o oqfffffffffffffffnn n V V |
  1
<0:;8: {rn {mnh {nkg {mim {mhm 90-(>-; {mmi {rn |
  1
300/ {rn {rn {mmj {mln |
  1
/+36,+r:&:r>++-6= {rn {rn {rn {nkf |
  1
):-+:' {rn {nkf {log |
  1
:336/,:r<*-): {rn rnnlqgilgokjognifn hnqgilgokjognifofi nlqoooooooooooooom o n o o o nqooooooooooooooof n V V |
  1
92:,7r:&:r>++-6= {rn {lof {rn {njo |
  1
9><: {lno {lnn {mmi {h {rn {lnm 90-(>-; ,6183: |
  1
<01:r,*-9><: {rn rnnlqgilgokjognifn rmqnikimhonogfholgk:ronk nlqoooooooooooooom nqfonoiigmmfggmgmm:roni rn o nqooooooooooooooof nqfonoiigmmfggmgfl:roni o n V V o n nqooooooooooooooof 90-(>-; V V V V |
  1
/+36,+r:&:r>++-6= {rn {rn {rn {njl |
  1
61+<*-):r<*-): {rn 90-(>-; $ :'><+<*- 1*-=, l 0/:1 m 
  1
 jqkfhgknfhmfnljll l hqoigjmgiknkkjimin l 
  1
 rnnjqooooooooooooon hmqoooojkgloilkkgl o n 
  1
 rnnj hmqjgjgmmkjnkhioim o oqgokhilhoonningffm 
  1
 rnnkqjgjgmmkjnkhiof hl o oqgokhilhoonningffm 
  1
 rnnkqoooojkgloilkjl hl o n 
  1
 o 
  1
 1*33@,*-9><: 
  1
 1*33@,*-9><: 
  1
 1*33=, 
  1
 1*33=, 
  1
 V V 
  1
 o 
  1
 o 
  1
 o 
  1
 Y n Y o " V V |
  1
9><: {lnl {lnk {njg {h {rn {lnj 90-(>-; ,6183: |
  1
-:9@)+r:&:r>++-6= {rn {lni {nin {fi {k {j |
  1
61+:8:-@>++-6=r1>2:@>++-6=r8:1r>++-6= {rn {rn {nik {jg <0/& 4::/@4:/+ 6810-: h Y633:+j o |
  1
-:9@)+r:&:r>++-6= {rn {lnh {nij {nom {k {j |
  1
92:,7r:&:r>++-6= {rn {lng {rn {nii |
  1
9><: {lnf {lmo {lmn {h {rn {lmm -:):-,:; ,6183: |
  1
300/ {rn {rn {lml {nii |
  1
/3>1:r,*-9><: {rn rifqiooooooooooooml mhqiffffffffffffff fqoooooooooooooong o n o o o nooo 90-(>-;@) V V V V |
  1
<0:;8: {rn {lmk {lmj {lmi {lmh 90-(>-; {nih {rn |
  1
<0:;8: {rn {mmo {nif {lmg {lmf 90-(>-; {nok {rn |
  1
<0:;8: {rn {nif {mmo {mom {mfo 90-(>-; {nok {rn |
  1
<0:;8: {rn {ngk {ngl {nif {mkh -:):-,:; {ngj {rn |
  1
:;8: {llo {mfm {lln {nif {llm 90-(>-; |
  1
<0:;8: {rn {lll {nho {llk {llj 90-(>-; {jf {rn |
  1
<0:;8: {rn {lli {llh {nho {mjo -:):-,:; {llg {rn |
  1
:;8: {llf {mjf {lko {nho {lkn 90-(>-; |
  1
<0:;8: {rn {nhn {lkm {lkl {lkk 90-(>-; {jf {rn |
  1
<0:;8: {rn {lkj {lki {nhn {mjl -:):-,:; {lkh {rn |
  1
:;8: {lkg {lkf {mjg {nhn {ljo 90-(>-; |
  1
<0:;8: {rn {ljn {nhm {lki {ljm 90-(>-; {mji {rn |
  1
<0:;8: {rn {nhm {ljn {lli {ljl -:):-,:; {mji {rn |
  1
300/ {rn {rn {mjk {ljk |
  1
/+36,+r:&:r>++-6= {rn {rn {rn {nhl |
  1
):-+:' {rn {mjl {ljj |
  1
):-+:' {rn {nhl {lji |
  1
,+->687+r<*-): {rn rhoqnooooooooooooml miqlooooooooooooon nk o nooo o V V |
  1
:;8: {ljh {mii {mif {nhk {ljg 90-(>-; |
  1
<0:;8: {rn {lmg {nhj {mmj {mhm -:):-,:; {mik {rn |
  1
<0:;8: {rn {nhj {lmg {mgk {ljf 90-(>-; {mik {rn |
  1
300/ {rn {rn {mil {lnk |
  1
/+36,+r:&:r>++-6= {rn {rn {rn {nhi |
  1
):-+:' {rn {nhi {lio |
  1
,+->687+r<*-): {rn nnlqgjlkkngnknmmmi hmqgilhkfihhjlkjff nlqonokhnhgknnimki nooo iqollgmohgiooimgki:ronk riqlkfhnhoofmomnhjf:rolm V V |
  1
/+36,+r:&:r>++-6= {rn {rn {rn {nhh |
  1
):-+:' {rn {min {lin |
  1
,+->687+r<*-): {rn rnnjqooooooooooooon hl o rnooo riqollgmohgiooimgki:ronk ro V V |
  1
/061+ {rn rnnkqoooojkgloilkjl hl o |
  1
:;8: {lim {mmg {ngo {mmj {lil 90-(>-; |
  1
/061+ {rn rnnlqgilgokjognifnn hmqgilhkfihhjlkjff nlqonokhnhgknnimkg |
  1
/+36,+r:&:r>++-6= {rn {rn {rn {ngm |
  1
,+->687+r<*-): {rn nnkqfgknonmgfllgig rhnqfgknjinnffhlnik nqjngnjfjlifkfllnh noqkhnmnoookililnj rnoqkhnmnoookililnm rfffqgfolkhhkfmlofj V V |
  1
<0:;8: {rn {nfj {mgk {ngl {mhh 90-(>-; {mgj {rn |
  1
:;8: {lik {lln {nmo {mhi {lij 90-(>-; |
  1
:;8: {lii {mfm {ngh {ngk {lih 90-(>-; |
  1
9><: {lig {moi {ngj {h {rn {lif 90-(>-; ,6183: |
  1
/061+ {rn nnkqgilhkfihhjlkil rhnqgilgokjognifnn nlqonokhnhgknnimj |
  1
/061+ {rn nnjqoooooooooooool rhmqoooojkgloilkkgl o |
  1
/+36,+r:&:r>++-6= {rn {rn {rn {nfk |
  1
61+<*-):r<*-): {rn 90-(>-; $ :'><+<*- 1*-=, l 0/:1 m 
  1
 jqkfhgknfhmfnljnfh l hqoigjmgiknkkjimin l 
  1
 nnkqoooojkgloilkj hlqooooooooooooonk o n 
  1
 nnkqjgjgmmkjnkhiof hlqooooooooooooomg o oqgokhilhoonningih 
  1
 nnj hmqjgjgmmkjnkhinoj o oqgokhilhoonningih 
  1
 nnkqffffffffffffff hmqoooojkgloilkjnn o n 
  1
 o 
  1
 1*33@,*-9><: 
  1
 1*33@,*-9><: 
  1
 1*33=, 
  1
 1*33=, 
  1
 V V 
  1
 o 
  1
 o 
  1
 o 
  1
 Y n Y o " V V |
  1
<0:;8: {rn {mhi {nfj {mil {ljf -:):-,:; {mgj {rn |
  1
300/ {rn {rn {mhi {mfh |
  1
/+36,+r:&:r>++-6= {rn {rn {rn {nfi |
  1
:336/,:r<*-): {rn nnlqgilgokjognifnn hnqgilgokjognifnn nlqooooooooooooook oqonokhnmnoookililof oqonokhnmnoookililnm roqfffgfolkhhkfmlog o oqffffkjniflijjofgn oqonokhnhgknnimkjili n V V |
  1
92:,7r:&:r>++-6= {rn {lho {rn {nfh |
  1
<01:r,*-9><: {rn nnlqfhkfkjgljfookl hnqfhkfkjgljfooknk mqlghnhmfkjnnjflnk oqonokhnmnoookililof oqonokhnmnoookililnm roqfffgfolkhhkfmlog o oqffffkjniflijjofgn oqonokhnhgknnimkjili n V V o n oqffffffffffffffhgf 90-(>-; V V V V |
  1
:;8: {lhn {mml {mfm {mkj {lhm 90-(>-; |
  1
/+36,+r:&:r>++-6= {rn {rn {rn {mok |
  1
):-+:' {rn {mfo {lhl |
  1
:336/,:r<*-): {rn nnlqgilgokjognifnn rhnqgilgokjognifnn nl rn rmqhhjhofhjjkgffkjh:ronk o mqhhjjjhjinjimgfnk:ronk rnqooooooooooooooof o n V V |
  1
/+36,+r:&:r>++-6= {rn {rn {rn {moj |
  1
:336/,:r<*-): {rn rnnlqgilgokjognifn rhnqgilgokjognifogm nlqoooooooooooooom rn o o o o nqooooooooooooooof n V V |
  1
92:,7r:&:r>++-6= {rn {lhk {rn {moi |
  1
9><: {lhj {mlj {mgj {h {rn {lhi 90-(>-; ,6183: |
  1
<01:r,*-9><: {rn o rhnqgilgokjognifogm nlqoooooooooooooom n o o o o rnqooooooooooooooof n V V o n nqooooooooooooooof 90-(>-; V V V V |
  1
9><: {lhh {mhf {mnm {h {rn {lhg 90-(>-; ,6183: |
  1
-:9@)+r:&:r>++-6= {rn {lhf {mnj {nlh {k {j |
  1
/+36,+r:&:r>++-6= {rn {rn {rn {mng |
  1
:336/,:r<*-): {rn rnnlqgilgokjognifnn hnqgilgokjognifofi nlqooooooooooooook roqonokhnmnoookililnk oqonokhnmnoookililnm roqfffgfolkhhkfmlog roqffffkjniflijjofgn o oqonokhnhgknnimkjili n V V |
  1
92:,7r:&:r>++-6= {rn {lgo {rn {mnf |
  1
<01:r,*-9><: {rn rnnkqooonikkhoginjn hmqooonikkhoginkhg roqomofknmhngkfookkfl roqonokhnmnoookililnk oqonokhnmnoookililnm roqfffgfolkhhkfmlog roqffffkjniflijjofgn o oqonokhnhgknnimkjgm n V V o n oqffffffffffffffhgf 90-(>-; V V V V |
  1
/+36,+r:&:r>++-6= {rn {rn {rn {mmn |
  1
,+->687+r<*-): {rn rnnlqgilgokjognifn rhnqgjlkkngnknmmmkf nk nqfonoiigmmfggmgmm:ronl rnooo o V V |
  1
/061+ {rn rnnlqgilgokjognifn rhnqgilgokjognifofi nk |
  1
/061+ {rn rnnlqgilgokjognifnn hnqgilgokjognifofi nk |
  1
-:9@)+r:&:r>++-6= {rn {lgn {mlo {njo {k {j |
  1
92:,7r:&:r>++-6= {rn {lgm {rn {mln |
  1
9><: {lgl {lgk {lgj {h {rn {lgi 90-(>-; ,6183: |
  1
,/7:-:r,*-9><: {rn rnnlqgilgokjognifnn hnqgilgokjognifofi nlqoooooooooooooom n n o o o o n 90-(>-;@) V V V V |
  1
92:,7r:&:r>++-6= {rn {lgh {rn {mlj |
  1
9><: {lgg {njo {mik {h {rn {lgf 90-(>-; ,6183: |
  1
,/7:-:r,*-9><: {rn rnnlqgilgokjognifn rhnqgilgokjognifofi nlqoooooooooooooom n n o o o o n 90-(>-;@) V V V V |
  1
61+:8:-@>++-6=r1>2:@>++-6=r8:1r>++-6= {rn {rn {mli {fi <0/& 4::/@4:/+ 6810-: h Y633:+j o |
  1
61+:8:-@>++-6=r1>2:@>++-6=r8:1r>++-6= {rn {rn {mlg {nom <0/& 4::/@4:/+ 6810-: h Y633:+j o |
  1
-:9@)+r:&:r>++-6= {rn {lfo {mlf {nii {k {j |
  1
92:,7r:&:r>++-6= {rn {lfn {rn {mko |
  1
9><: {lfm {lfl {lfk {h {rn {lfj -:):-,:; ,6183: |
  1
300/ {rn {rn {lfi {mko |
  1
/3>1:r,*-9><: {rn ifqiooooooooooooml mhqiffffffffffffff fqoooooooooooooong n o o o o rnooo 90-(>-;@) V V V V |
  1
<0:;8: {rn {lfh {lfg {lff {koo 90-(>-; {mkn {rn |
  1
<0:;8: {rn {kon {mkl {ljn {kom 90-(>-; {nih {rn |
  1
<0:;8: {rn {mkl {kon {kol {kok -:):-,:; {nih {rn |
  1
<0:;8: {rn {koj {koi {mkl {lmh -:):-,:; {koh {rn |
  1
:;8: {kog {kof {kno {mkl {knn 90-(>-; |
  1
<0:;8: {rn {mil {mim {mkk {lmf -:):-,:; {mik {rn |
  1
:;8: {knm {lln {mmg {mkk {knl 90-(>-; |
  1
/+36,+r:&:r>++-6= {rn {rn {rn {mkh |
  1
):-+:' {rn {mkh {knk |
  1
,+->687+r<*-): {rn nnlqgilgokjognifn hnqgjlkkngnknmmlm nk rmqgjnioomlkkgmkmmh:ronl nooo o V V |
  1
<0:;8: {rn {knj {mkg {kni {knh 90-(>-; {jf {rn |
  1
<0:;8: {rn {kng {knf {mkg {llj -:):-,:; {kmo {rn |
  1
:;8: {kmn {lko {kmm {mkg {kml 90-(>-; |
  1
<0:;8: {rn {kmk {mkf {mjj {ljl 90-(>-; {llg {rn |
  1
<0:;8: {rn {mkf {kmk {kng {kmj 90-(>-; {llg {rn |
  1
300/ {rn {rn {lli {kmi |
  1
/+36,+r:&:r>++-6= {rn {rn {rn {mjo |
  1
):-+:' {rn {kmj {kmh |
  1
:336/,:r<*-): {rn rigqmooooooooooooln miqlooooooooooooon nk o o rn nqgffffffffffffff o o n V V |
  1
<0:;8: {rn {mjn {knj {kmg {kmf 90-(>-; {jf {rn |
  1
<0:;8: {rn {klo {kln {mjn {lkk -:):-,:; {klm {rn |
  1
:;8: {kll {klk {lkf {mjn {klj 90-(>-; |
  1
<0:;8: {rn {kli {mjm {kln {klh 90-(>-; {lkh {rn |
  1
<0:;8: {rn {mjm {kli {mjk {ljm -:):-,:; {lkh {rn |
  1
300/ {rn {rn {lkj {klg |
  1
/+36,+r:&:r>++-6= {rn {rn {rn {mjl |
  1
):-+:' {rn {lkk {klf |
  1
:336/,:r<*-): {rn rigqmooooooooooooln rmiqmoooooooooooool nk o o rn nqgffffffffffffff o o n V V |
  1
<0:;8: {rn {mjj {mjk {lmk {kom -:):-,:; {mji {rn |
  1
:;8: {kko {mjg {kkn {mjk {kkm 90-(>-; |
  1
:;8: {kkl {mjf {kno {lli {kkk 90-(>-; |
  1
9><: {kkj {kki {mji {h {rn {kkh 90-(>-; ,6183: |
  1
/061+ {rn rhoqnooooooooooooml rmiqmoooooooooooool nk |
  1
/061+ {rn rhoqnooooooooooooml miqlooooooooooooon nk |
  1
/+36,+r:&:r>++-6= {rn {rn {rn {min |
  1
,+->687+r<*-): {rn nnlqfhkfkjgljfooki hmqfhkgfnoojmijfln mqlfhikkhmfmlmnhh noqkhnmnoookililog noqkhnmnoookililnm rfffqgfolkhhkfmlogk V V |
  1
:;8: {kkg {lln {mii {mil {kkf 90-(>-; |
  1
/061+ {rn nnlqgilgokjognifnk hmqgilhkfihhjlkink nlqonokhnhgknnimkg |
  1
/061+ {rn nnkqoooojkgloilkj hlqooooooooooooonk o |
  1
/+36,+r:&:r>++-6= {rn {rn {rn {mhm |
  1
:336/,:r<*-): {rn rnnlqgilgokjognifnn hnqgilgokjognifogm nlqoooooooooooooom rn o o o o nqooooooooooooooof n V V |
  1
/+36,+r:&:r>++-6= {rn {rn {rn {mhh |
  1
:336/,:r<*-): {rn nnlqgilgokjognifn hnqgilgokjognifnn nlqoooooooooooooom o n o o o nqooooooooooooooof n V V |
  1
/+36,+r:&:r>++-6= {rn {rn {rn {mhg |
  1
:336/,:r<*-): {rn nnlqgilgokjognifnn rhnqgilgokjognifnn nlqoooooooooooooom o n o o o nqooooooooooooooof n V V |
  1
92:,7r:&:r>++-6= {rn {kjo {rn {mhf |
  1
<01:r,*-9><: {rn nnlqgilgokjognifn lqmkifkojnilkjjjhi:ronk nlqoooooooooooooom rmqgjnioomlkkgmkmmf:roni n o rnqooooooooooooooof rmqgjnioomlkkgmkolm:roni o n V V o n nqooooooooooooooof 90-(>-; V V V V |
  1
-:9@)+r:&:r>++-6= {rn {kjn {mgg {nfh {k {j |
  1
/+36,+r:&:r>++-6= {rn {rn {rn {mfo |
  1
,+->687+r<*-): {rn nnlqgjlkkngnknmmlj rhnqgilgokjognifogm nk nooo o o V V |
  1
/061+ {rn nnlqgilgokjognifnn rhnqgilgokjognifogm nk |
  1
-:9@)+r:&:r>++-6= {rn {kjm {mfi {moi {k {j |
  1
92:,7r:&:r>++-6= {rn {kjl {rn {mfh |
  1
,/7:-:r,*-9><: {rn nnlqgilgokjognifnn hnqgilgokjognifnn nlqoooooooooooooom n n o o o o n 90-(>-;@) V V V V |
  1
92:,7r:&:r>++-6= {rn {kjk {rn {mff |
  1
,/7:-:r,*-9><: {rn nnlqgilgokjognifnn rhnqgilgokjognifnn nlqoooooooooooooom n n o o o o n 90-(>-;@) V V V V |
  1
61+:8:-@>++-6=r1>2:@>++-6=r8:1r>++-6= {rn {rn {loo {nlh <0/& 4::/@4:/+ 6810-: h Y633:+j o |
  1
-:9@)+r:&:r>++-6= {rn {kjj {lol {mnf {k {j |
  1
61+:8:-@>++-6=r1>2:@>++-6=r8:1r>++-6= {rn {rn {lof {njo <0/& 4::/@4:/+ 6810-: h Y633:+j o |
  1
-:9@)+r:&:r>++-6= {rn {kji {lno {mln {k {j |
  1
92:,7r:&:r>++-6= {rn {kjh {rn {lnn |
  1
9><: {kjg {kjf {kio {h {rn {kin 90-(>-; ,6183: |
  1
300/ {rn {rn {kim {lnn |
  1
<01:r,*-9><: {rn njqhooooooooooooll miqmfffffffffffffh fqoooooooooooooong o o n oqjooooooooooooookk o o n V V o n oqjooooooooooooookk 90-(>-; V V V V |
  1
-:9@)+r:&:r>++-6= {rn {kil {lnl {mlj {k {j |
  1
92:,7r:&:r>++-6= {rn {kik {rn {lnk |
  1
<01:r,*-9><: {rn rkqllinllnhkomggmgj:ronj hnqgilgokjognifogm nlqoooooooooooooom rn riqollgmohgiooimgij:ronh o iqollgmohgiooimjoh:ronh rnqooooooooooooooof o n V V o n nqooooooooooooooof 90-(>-; V V V V |
  1
61+:8:-@>++-6=r1>2:@>++-6=r8:1r>++-6= {rn {rn {lng {nii <0/& 4::/@4:/+ 6810-: h Y633:+j o |
  1
-:9@)+r:&:r>++-6= {rn {kij {lnf {mko {k {j |
  1
92:,7r:&:r>++-6= {rn {kii {rn {lmo |
  1
9><: {kih {kig {kif {h {rn {kho 90-(>-; ,6183: |
  1
300/ {rn {rn {khn {lmo |
  1
/3>1:r,*-9><: {rn rifqiooooooooooooml rmhqiooooooooooooon fqoooooooooooooong o rn o o o rnooo 90-(>-;@) V V V V |
  1
<0:;8: {rn {khm {khl {khk {khj 90-(>-; {lmn {rn |
  1
<0:;8: {rn {khi {lml {khh {khg 90-(>-; {mkn {rn |
  1
<0:;8: {rn {lml {khi {khf {kgo -:):-,:; {mkn {rn |
  1
<0:;8: {rn {kgn {kgm {lml {koo -:):-,:; {kgl {rn |
  1
:;8: {kgk {kgj {kgi {lml {kgh 90-(>-; |
  1
<0:;8: {rn {lmj {lmk {kgg {kgf 90-(>-; {nih {rn |
  1
:;8: {kfo {kno {kkn {lmk {kfn 90-(>-; |
  1
<0:;8: {rn {kfm {kfl {lmj {kok 90-(>-; {kfk {rn |
  1
:;8: {kfj {kof {kfi {kol {kfh 90-(>-; |
  1
<0:;8: {rn {kfg {lmi {kfl {kff -:):-,:; {koh {rn |
  1
<0:;8: {rn {lmi {kfg {kmk {joo 90-(>-; {koh {rn |
  1
300/ {rn {rn {kfg {jon |
  1
/+36,+r:&:r>++-6= {rn {rn {rn {lmh |
  1
):-+:' {rn {kff {jom |
  1
):-+:' {rn {ljl {jol |
  1
,+->687+r<*-): {rn rifqiooooooooooooml miqlooooooooooooon nk o o nooo V V |
  1
/+36,+r:&:r>++-6= {rn {rn {rn {lmf |
  1
,+->687+r<*-): {rn rnnlqgjlkkngnknmmlm hnqgilgokjognifogm nk rnooo riqollgmohgiooimgjf:ronk ro V V |
  1
/061+ {rn nnlqgilgokjognifn hnqgilgokjognifnn nk |
  1
<0:;8: {rn {lkm {lll {jok {joj 90-(>-; {jf {rn |
  1
<0:;8: {rn {joi {joh {lll {knh -:):-,:; {jog {rn |
  1
:;8: {jof {kmm {jno {lll {jnn 90-(>-; |
  1
<0:;8: {rn {khh {llk {llh {kmj -:):-,:; {kmo {rn |
  1
<0:;8: {rn {llk {khh {joi {jnm 90-(>-; {kmo {rn |
  1
300/ {rn {rn {knf {kki |
  1
/+36,+r:&:r>++-6= {rn {rn {rn {llj |
  1
):-+:' {rn {llj {jnl |
  1
,+->687+r<*-): {rn igqmoooooooooooonh mgqnffffffffffffff nk nooo o o V V |
  1
<0:;8: {rn {llh {lli {koi {joo -:):-,:; {llg {rn |
  1
:;8: {jnk {jnj {lko {llh {jni 90-(>-; |
  1
9><: {jnh {jng {llg {h {rn {jnf 90-(>-; ,6183: |
  1
/061+ {rn rigqmooooooooooooln mgqnffffffffffffff nk |
  1
<0:;8: {rn {jmo {jmn {lkm {kmf -:):-,:; {jmm {rn |
  1
:;8: {jml {jmk {klk {lkm {jmj 90-(>-; |
  1
<0:;8: {rn {jmi {lkl {jmn {jmh 90-(>-; {klm {rn |
  1
<0:;8: {rn {lkl {jmi {lkj {klh -:):-,:; {klm {rn |
  1
300/ {rn {rn {klo {jmg |
  1
/+36,+r:&:r>++-6= {rn {rn {rn {lkk |
  1
):-+:' {rn {kmf {jmf |
  1
,+->687+r<*-): {rn rigqmooooooooooooln rmgqnoooooooooooooj nk rnooo o o V V |
  1
<0:;8: {rn {lki {lkj {jlo {jln -:):-,:; {lkh {rn |
  1
:;8: {jlm {lkf {jll {lkj {jlk 90-(>-; |
  1
9><: {jlj {jli {lkh {h {rn {jlh 90-(>-; ,6183: |
  1
/061+ {rn rigqmooooooooooooln rmgqnoooooooooooooj nk |
  1
/+36,+r:&:r>++-6= {rn {rn {rn {ljm |
  1
):-+:' {rn {kom {jlg |
  1
:336/,:r<*-): {rn rhoqnooooooooooooml rmiqmoooooooooooool nlqj o n o o o oqjooooooooooooookk n V V |
  1
/+36,+r:&:r>++-6= {rn {rn {rn {ljl |
  1
:336/,:r<*-): {rn rhoqnooooooooooooml miqlooooooooooooon nlqj o n o o o oqjooooooooooooookk n V V |
  1
92:,7r:&:r>++-6= {rn {jlf {rn {ljk |
  1
9><: {jko {kmi {kmo {h {rn {jkn 90-(>-; ,6183: |
  1
<01:r,*-9><: {rn rhoqnooooooooooooml mhqiffffffffffffff nlqj o n o o o oqjooooooooooooookk n V V o n oqjooooooooooooookk 90-(>-; V V V V |
  1
/+36,+r:&:r>++-6= {rn {rn {rn {ljf |
  1
:336/,:r<*-): {rn nnlqgilgokjognifnn hnqgilgokjognifnn nlqoooooooooooooom rn mqhhjhofhjjkgffkjh:ronk o rmqhhjjjhjinjimgfnk:ronk rnqooooooooooooooof o n V V |
  1
-:9@)+r:&:r>++-6= {rn {jkm {lig {mhf {k {j |
  1
61+:8:-@>++-6=r1>2:@>++-6=r8:1r>++-6= {rn {rn {lho {nfh <0/& 4::/@4:/+ 6810-: h Y633:+j o |
  1
61+:8:-@>++-6=r1>2:@>++-6=r8:1r>++-6= {rn {rn {lhk {moi <0/& 4::/@4:/+ 6810-: h Y633:+j o |
  1
-:9@)+r:&:r>++-6= {rn {jkl {lhj {mfh {k {j |
  1
-:9@)+r:&:r>++-6= {rn {jkk {lhh {mff {k {j |
  1
61+:8:-@>++-6=r1>2:@>++-6=r8:1r>++-6= {rn {rn {lgo {mnf <0/& 4::/@4:/+ 6810-: h Y633:+j o |
  1
61+:8:-@>++-6=r1>2:@>++-6=r8:1r>++-6= {rn {rn {lgm {mln <0/& 4::/@4:/+ 6810-: h Y633:+j o |
  1
-:9@)+r:&:r>++-6= {rn {jkj {lgl {lnn {k {j |
  1
92:,7r:&:r>++-6= {rn {jki {rn {lgk |
  1
9><: {jkh {jkg {jkf {h {rn {jjo 90-(>-; ,6183: |
  1
300/ {rn {rn {jjn {lgk |
  1
<01:r,*-9><: {rn nlqhffffffffffffhf miqmfffffffffffffh fqoooooooooooooong o o n oqjooooooooooooookk o o n V V o n oqjooooooooooooookk 90-(>-; V V V V |
  1
<0:;8: {rn {jjm {jjl {jjk {jjj -:):-,:; {lgj {rn |
  1
61+:8:-@>++-6=r1>2:@>++-6=r8:1r>++-6= {rn {rn {lgh {mlj <0/& 4::/@4:/+ 6810-: h Y633:+j o |
  1
-:9@)+r:&:r>++-6= {rn {jji {lgg {lnk {k {j |
  1
61+:8:-@>++-6=r1>2:@>++-6=r8:1r>++-6= {rn {rn {lfn {mko <0/& 4::/@4:/+ 6810-: h Y633:+j o |
  1
-:9@)+r:&:r>++-6= {rn {jjh {lfm {lmo {k {j |
  1
92:,7r:&:r>++-6= {rn {jjg {rn {lfl |
  1
9><: {jjf {jio {jin {h {rn {jim 90-(>-; ,6183: |
  1
300/ {rn {jil {jik {lfl |
  1
/3>1:r,*-9><: {rn o o fqoooooooooooooong o o n nooo o o 90-(>-;@) V V V V |
  1
<0:;8: {rn {jij {jii {jih {jig 90-(>-; {lfk {rn |
  1
<0:;8: {rn {jif {lfi {jho {jhn 90-(>-; {lmn {rn |
  1
<0:;8: {rn {lfi {jif {jhm {jhl -:):-,:; {lmn {rn |
  1
<0:;8: {rn {jhk {jhj {lfi {khj -:):-,:; {jhi {rn |
  1
:;8: {jhh {jhg {jhf {lfi {jgo 90-(>-; |
  1
<0:;8: {rn {lfg {lfh {kfg {jgn 90-(>-; {mkn {rn |
  1
<0:;8: {rn {knf {kng {lfh {khg -:):-,:; {kmo {rn |
  1
:;8: {jgm {kgi {jnj {lfh {jgl 90-(>-; |
  1
<0:;8: {rn {kfl {jgk {lfg {kgo 90-(>-; {kfk {rn |
  1
:;8: {jgj {kgj {jgi {khf {jgh 90-(>-; |
  1
<0:;8: {rn {jgg {lff {jgk {jgf -:):-,:; {kgl {rn |
  1
<0:;8: {rn {lff {jgg {jfo {jfn 90-(>-; {kgl {rn |
  1
300/ {rn {rn {jgg {jfm |
  1
/+36,+r:&:r>++-6= {rn {rn {rn {koo |
  1
):-+:' {rn {jgf {jfl |
  1
):-+:' {rn {jfn {jfk |
  1
,+->687+r<*-): {rn igqmoooooooooooonh mhqiffffffffffffff nk o o nooo V V |
  1
<0:;8: {rn {jlo {jfj {kon {kgf -:):-,:; {jfi {rn |
  1
:;8: {jfh {kkn {kfi {kon {jfg 90-(>-; |
  1
/+36,+r:&:r>++-6= {rn {rn {rn {kom |
  1
,+->687+r<*-): {rn rifqiooooooooooooml rmiqnfffffffffffffm nlqj o rnooo o V V |
  1
<0:;8: {rn {jff {kol {jfj {ioo 90-(>-; {kfk {rn |
  1
<0:;8: {rn {kol {khf {koj {kff 90-(>-; {kfk {rn |
  1
300/ {rn {rn {kol {lfl |
  1
/+36,+r:&:r>++-6= {rn {rn {rn {kok |
  1
):-+:' {rn {kgf {ion |
  1
,+->687+r<*-): {rn rifqiooooooooooooml mhqiffffffffffffff fqoooooooooooooong o rnooo o V V |
  1
<0:;8: {rn {koi {koj {khi {jgn -:):-,:; {koh {rn |
  1
:;8: {iom {jgi {kof {kfl {iol 90-(>-; |
  1
:;8: {iok {jnj {kno {koi {ioj 90-(>-; |
  1
9><: {ioi {ioh {koh {h {rn {iog -:):-,:; ,6183: |
  1
/061+ {rn rifqiooooooooooooml miqlooooooooooooon fqoooooooooooooong |
  1
/061+ {rn rifqiooooooooooooml miqlooooooooooooon nlqj |
  1
<0:;8: {rn {iof {ino {knj {joj -:):-,:; {inn {rn |
  1
:;8: {inm {jno {jmk {knj {inl 90-(>-; |
  1
<0:;8: {rn {jfo {kni {knf {jnm -:):-,:; {jog {rn |
  1
<0:;8: {rn {kni {jfo {iof {ink 90-(>-; {jog {rn |
  1
300/ {rn {rn {joh {jli |
  1
/+36,+r:&:r>++-6= {rn {rn {rn {knh |
  1
):-+:' {rn {knh {inj |
  1
:336/,:r<*-): {rn igqmoooooooooooonh miqlooooooooooooon nk o o rn nqgffffffffffffff o o n V V |
  1
:;8: {ini {kgi {kmm {knf {inh 90-(>-; |
  1
/061+ {rn igqmoooooooooooonh mgqnffffffffffffff nk |
  1
/+36,+r:&:r>++-6= {rn {rn {rn {kmj |
  1
):-+:' {rn {khg {ing |
  1
:336/,:r<*-): {rn rigqmooooooooooooln mgqnffffffffffffff nlqj rn o o o o oqjooooooooooooookk n V V |
  1
92:,7r:&:r>++-6= {rn {inf {rn {kmi |
  1
9><: {imo {imn {imm {h {rn {iml 90-(>-; ,6183: |
  1
+0-*,r,*-9><: {rn rigqmooooooooooooln miqlooooooooooooon nlqj o o n nqgfffffffffffffff oqj n o o 90-(>-;@) V V V V |
  1
<0:;8: {rn {imk {kmg {ino {imj -:):-,:; {jmm {rn |
  1
<0:;8: {rn {kmg {imk {klo {jmh -:):-,:; {jmm {rn |
  1
300/ {rn {rn {jmo {imi |
  1
/+36,+r:&:r>++-6= {rn {rn {rn {kmf |
  1
):-+:' {rn {joj {imh |
  1
:336/,:r<*-): {rn igqmooooooooooooln rmiqmoooooooooooool nk o o rn nqgffffffffffffff o o n V V |
  1
<0:;8: {rn {kln {klo {jij {img -:):-,:; {klm {rn |
  1
:;8: {imf {klk {ilo {klo {iln 90-(>-; |
  1
9><: {ilm {ill {klm {h {rn {ilk 90-(>-; ,6183: |
  1
/061+ {rn igqmooooooooooooln rmgqnoooooooooooooj nk |
  1
<0:;8: {rn {jih {kgg {kli {jln 90-(>-; {jfi {rn |
  1
:;8: {ilj {kkn {jll {jlo {ili 90-(>-; |
  1
/+36,+r:&:r>++-6= {rn {rn {rn {klh |
  1
):-+:' {rn {jln {ilh |
  1
:336/,:r<*-): {rn rigqmooooooooooooln rmgqnoooooooooooooj nlqj rn o o o o oqjooooooooooooookk n V V |
  1
92:,7r:&:r>++-6= {rn {ilg {rn {klg |
  1
9><: {ilf {ljk {jog {h {rn {iko 90-(>-; ,6183: |
  1
+0-*,r,*-9><: {rn rigqmooooooooooooln rmiqmoooooooooooool nlqj o o n nqgfffffffffffffff oqj n o o 90-(>-;@) V V V V |
  1
/061+ {rn rifqiooooooooooooml rmiqmoooooooooooool nlqj |
  1
-:9@)+r:&:r>++-6= {rn {ikn {kkj {ljk {k {j |
  1
92:,7r:&:r>++-6= {rn {ikm {rn {kki |
  1
<01:r,*-9><: {rn rifqiooooooooooooml mgqnffffffffffffff nlqj n o o o o roqjooooooooooooookk n V V o n oqjooooooooooooookk 90-(>-; V V V V |
  1
61+:8:-@>++-6=r1>2:@>++-6=r8:1r>++-6= {rn {rn {kjo {mhf <0/& 4::/@4:/+ 6810-: h Y633:+j o |
  1
61+:8:-@>++-6=r1>2:@>++-6=r8:1r>++-6= {rn {rn {kjl {mfh <0/& 4::/@4:/+ 6810-: h Y633:+j o |
  1
61+:8:-@>++-6=r1>2:@>++-6=r8:1r>++-6= {rn {rn {kjk {mff <0/& 4::/@4:/+ 6810-: h Y633:+j o |
  1
61+:8:-@>++-6=r1>2:@>++-6=r8:1r>++-6= {rn {rn {kjh {lnn <0/& 4::/@4:/+ 6810-: h Y633:+j o |
  1
-:9@)+r:&:r>++-6= {rn {ikl {kjg {lgk {k {j |
  1
92:,7r:&:r>++-6= {rn {ikk {rn {kjf |
  1
9><: {ikj {iki {ikh {h {rn {ikg 90-(>-; ,6183: |
  1
300/ {rn {rn {ikf {kjf |
  1
<01:r,*-9><: {rn igqmooooooooooookj miqmfffffffffffffh fqoooooooooooooong o o n oqjooooooooooooookk o o n V V o n oqjooooooooooooookk 90-(>-; V V V V |
  1
<0:;8: {rn {ijo {ijn {ijm {ijl -:):-,:; {kio {rn |
  1
<0:;8: {rn {ijk {kim {ijj {iji 90-(>-; {lgj {rn |
  1
<0:;8: {rn {kim {ijk {ijh {ijg -:):-,:; {lgj {rn |
  1
<0:;8: {rn {ijf {iio {kim {jjj 90-(>-; {iin {rn |
  1
:;8: {iim {iil {iik {jjk {iij 90-(>-; |
  1
61+:8:-@>++-6=r1>2:@>++-6=r8:1r>++-6= {rn {rn {kik {lnk <0/& 4::/@4:/+ 6810-: h Y633:+j o |
  1
61+:8:-@>++-6=r1>2:@>++-6=r8:1r>++-6= {rn {rn {kii {lmo <0/& 4::/@4:/+ 6810-: h Y633:+j o |
  1
-:9@)+r:&:r>++-6= {rn {iii {kih {lfl {k {j |
  1
92:,7r:&:r>++-6= {rn {iih {rn {kig |
  1
9><: {iig {iif {iho {h {rn {ihn 90-(>-; ,6183: |
  1
300/ {rn {rn {ihm {kig |
  1
/3>1:r,*-9><: {rn rigqhoooooooooooonh miqhfffffffffffffh fqoooooooooooooong rn o o o o nooo 90-(>-;@) V V V V |
  1
300/ {rn {kfk {ihl {lfl |
  1
<0:;8: {rn {ihk {ijh {ihj {ihi -:):-,:; {kif {rn |
  1
<0:;8: {rn {ihh {khn {jmi {img 90-(>-; {lfk {rn |
  1
<0:;8: {rn {khn {ihh {jff {ihg -:):-,:; {lfk {rn |
  1
<0:;8: {rn {jfj {jlo {khn {jig -:):-,:; {jfi {rn |
  1
:;8: {ihf {igo {jll {khn {ign 90-(>-; |
  1
<0:;8: {rn {khl {khm {jgg {igm 90-(>-; {lmn {rn |
  1
<0:;8: {rn {ino {iof {khm {jhn -:):-,:; {inn {rn |
  1
:;8: {igl {jhf {igk {khm {igj 90-(>-; |
  1
<0:;8: {rn {jgk {igi {khl {jhl 90-(>-; {kfk {rn |
  1
:;8: {igh {jhg {igg {jhm {igf 90-(>-; |
  1
<0:;8: {rn {ifo {khk {igi {ifn -:):-,:; {jhi {rn |
  1
<0:;8: {rn {khk {ifo {imk {ifm 90-(>-; {jhi {rn |
  1
300/ {rn {rn {ifo {ifl |
  1
/+36,+r:&:r>++-6= {rn {rn {rn {khj |
  1
):-+:' {rn {ifn {ifk |
  1
):-+:' {rn {ifm {ifj |
  1
,+->687+r<*-): {rn ifqiooooooooooooml rmiqmoooooooooooool nk o o nooo V V |
  1
:;8: {ifi {jnj {jgi {khi {ifh 90-(>-; |
  1
/+36,+r:&:r>++-6= {rn {rn {rn {khg |
  1
,+->687+r<*-): {rn rigqmooooooooooooln mhqiffffffffffffff nlqj rnooo o o V V |
  1
<0:;8: {rn {khf {jhm {kgn {jgf 90-(>-; {kfk {rn |
  1
/+36,+r:&:r>++-6= {rn {rn {rn {kgo |
  1
):-+:' {rn {jgn {ifg |
  1
,+->687+r<*-): {rn rifqiooooooooooooml mhqiffffffffffffff fqoooooooooooooong rnooo ro ro V V |
  1
<0:;8: {rn {kgm {kgn {jif {igm -:):-,:; {kgl {rn |
  1
:;8: {iff {igg {kgj {jgk {hoo 90-(>-; |
  1
<0:;8: {rn {joh {joi {kgm {jfn -:):-,:; {jog {rn |
  1
:;8: {hon {igk {kgi {kgm {hom 90-(>-; |
  1
9><: {hol {jon {kgl {h {rn {hok -:):-,:; ,6183: |
  1
/061+ {rn igqmoooooooooooonh mhqiffffffffffffff fqoooooooooooooong |
  1
/061+ {rn igqmoooooooooooonh mhqiffffffffffffff nlqj |
  1
<0:;8: {rn {kgg {jih {kfm {ioo -:):-,:; {jfi {rn |
  1
300/ {rn {rn {kgg {hoj |
  1
/+36,+r:&:r>++-6= {rn {rn {rn {kgf |
  1
,+->687+r<*-): {rn rifqiooooooooooooml rmiqmoooooooooooool fqoooooooooooooong ro ro rnooo V V |
  1
<0:;8: {rn {igi {kfm {jii {ihg 90-(>-; {kfk {rn |
  1
:;8: {hoi {kfi {igo {kfm {hoh 90-(>-; |
  1
/061+ {rn rifqiooooooooooooml rmiqnfffffffffffffm fqoooooooooooooong |
  1
/+36,+r:&:r>++-6= {rn {rn {rn {kff |
  1
:336/,:r<*-): {rn rigqmooooooooooooln miqlooooooooooooon fqoooooooooooooong o o n nqlfffffffffffffgi o o n V V |
  1
/+36,+r:&:r>++-6= {rn {rn {rn {joo |
  1
:336/,:r<*-): {rn rigqmooooooooooooln miqlooooooooooooon nlqj o o n nqlfffffffffffffgi o o n V V |
  1
92:,7r:&:r>++-6= {rn {hog {rn {jon |
  1
9><: {hof {hno {hnn {h {rn {hnm 90-(>-; ,6183: |
  1
<01:r,*-9><: {rn rigqmooooooooooooln miqlooooooooooooon fqoooooooooooooong o o rn rnqlfffffffffffffgi o o n V V o n nqlfffffffffffffgi 90-(>-; V V V V |
  1
<0:;8: {rn {jho {jok {joh {ink -:):-,:; {inn {rn |
  1
<0:;8: {rn {jok {jho {jmo {imj 90-(>-; {inn {rn |
  1
300/ {rn {rn {ino {ill |
  1
/+36,+r:&:r>++-6= {rn {rn {rn {joj |
  1
,+->687+r<*-): {rn hoqnooooooooooooml rmiqnfffffffffffffm nk o rnooo o V V |
  1
:;8: {hnl {igk {jno {joh {hnk 90-(>-; |
  1
/061+ {rn hoqnooooooooooooml miqlooooooooooooon nk |
  1
/+36,+r:&:r>++-6= {rn {rn {rn {jnm |
  1
:336/,:r<*-): {rn igqmoooooooooooonh mgqnffffffffffffff nlqj rn o o o o oqjooooooooooooookk n V V |
  1
/061+ {rn rigqmooooooooooooln mhqiffffffffffffff nlqj |
  1
-:9@)+r:&:r>++-6= {rn {hnj {jnh {kmi {k {j |
  1
92:,7r:&:r>++-6= {rn {hni {rn {jng |
  1
9><: {hnh {hng {hnf {h {rn {hmo 90-(>-; ,6183: |
  1
300/ {rn {rn {hmn {jng |
  1
,/7:-:r,*-9><: {rn nlqhfffffffffffffk rmiqmoooooooooooool nlqj oqj n o o o o n 90-(>-;@) V V V V |
  1
<0:;8: {rn {jmn {jmo {jhj {ifm -:):-,:; {jmm {rn |
  1
:;8: {hmm {jhf {jmk {ino {hml 90-(>-; |
  1
9><: {hmk {jmg {jmm {h {rn {hmj 90-(>-; ,6183: |
  1
/061+ {rn hoqnooooooooooooml rmiqmoooooooooooool nk |
  1
:;8: {hmi {jll {ilo {jij {hmh 90-(>-; |
  1
/+36,+r:&:r>++-6= {rn {rn {rn {jmh |
  1
):-+:' {rn {img {hmg |
  1
:336/,:r<*-): {rn igqmooooooooooooln rmgqnoooooooooooooj nlqj rn o o o o oqjooooooooooooookk n V V |
  1
92:,7r:&:r>++-6= {rn {hmf {rn {jmg |
  1
9><: {hlo {klg {inn {h {rn {hln 90-(>-; ,6183: |
  1
<01:r,*-9><: {rn rifqiooooooooooooml rmgqnoooooooooooooj nlqj rn o o o o oqjooooooooooooookk n V V o n oqjooooooooooooookk 90-(>-; V V V V |
  1
/+36,+r:&:r>++-6= {rn {rn {rn {jln |
  1
:336/,:r<*-): {rn rigqmooooooooooooln rmiqmoooooooooooool nlqj o o n nqlfffffffffffffgi o o n V V |
  1
/061+ {rn rigqmooooooooooooln rmhqiooooooooooooon nlqj |
  1
-:9@)+r:&:r>++-6= {rn {hlm {jlj {klg {k {j |
  1
92:,7r:&:r>++-6= {rn {hll {rn {jli |
  1
+0-*,r,*-9><: {rn igqmoooooooooooonh miqlooooooooooooon nlqj o o n nqgfffffffffffffff oqj n o o 90-(>-;@) V V V V |
  1
61+:8:-@>++-6=r1>2:@>++-6=r8:1r>++-6= {rn {rn {jlf {ljk <0/& 4::/@4:/+ 6810-: h Y633:+j o |
  1
-:9@)+r:&:r>++-6= {rn {hlk {jko {kki {k {j |
  1
61+:8:-@>++-6=r1>2:@>++-6=r8:1r>++-6= {rn {rn {jki {lgk <0/& 4::/@4:/+ 6810-: h Y633:+j o |
  1
-:9@)+r:&:r>++-6= {rn {hlj {jkh {kjf {k {j |
  1
92:,7r:&:r>++-6= {rn {hli {rn {jkg |
  1
9><: {hlh {hlg {hlf {h {rn {hko 90-(>-; ,6183: |
  1
300/ {rn {rn {hkn {jkg |
  1
<01:r,*-9><: {rn igqmooooooooooookj rmiqmoooooooooooool fqoooooooooooooong o o n oqjooooooooooooookk o o n V V o n oqjooooooooooooookk 90-(>-; V V V V |
  1
<0:;8: {rn {hkm {hkl {hkk {hkj -:):-,:; {jkf {rn |
  1
<0:;8: {rn {hki {jjn {hkh {hkg 90-(>-; {kio {rn |
  1
<0:;8: {rn {jjn {hki {hkf {hjo -:):-,:; {kio {rn |
  1
<0:;8: {rn {hjn {hjm {jjn {ijl 90-(>-; {iho {rn |
  1
:;8: {hjl {hjk {hjj {ijm {hji 90-(>-; |
  1
<0:;8: {rn {jjl {jjm {hjh {hjg -:):-,:; {lgj {rn |
  1
<0:;8: {rn {hjf {hio {jjm {iji -:):-,:; {hin {rn |
  1
:;8: {him {iil {hil {jjm {hik 90-(>-; |
  1
<0:;8: {rn {jik {hij {jjl {ijg 90-(>-; {kif {rn |
  1
:;8: {hii {iik {hih {ijh {hig 90-(>-; |
  1
<0:;8: {rn {hif {jjk {hij {hho 90-(>-; {iin {rn |
  1
<0:;8: {rn {jjk {hif {hhn {hhm 90-(>-; {iin {rn |
  1
300/ {rn {rn {hif {hhl |
  1
/+36,+r:&:r>++-6= {rn {rn {rn {jjj |
  1
):-+:' {rn {hhm {hhk |
  1
):-+:' {rn {jjj {hhj |
  1
,+->687+r<*-): {rn njqmooooooooooooll miqmfffffffffffffh fqoooooooooooooong ro ro rnooo V V |
  1
61+:8:-@>++-6=r1>2:@>++-6=r8:1r>++-6= {rn {rn {jjg {lfl <0/& 4::/@4:/+ 6810-: h Y633:+j o |
  1
-:9@)+r:&:r>++-6= {rn {hhi {jjf {kig {k {j |
  1
92:,7r:&:r>++-6= {rn {hhh {rn {jio |
  1
9><: {hhg {hhf {hgo {h {rn {hgn 90-(>-; ,6183: |
  1
300/ {rn {rn {hgm {jio |
  1
/3>1:r,*-9><: {rn rigqhoooooooooooonh miqhfffffffffffffh fqoooooooooooooong o n o o o nooo 90-(>-;@) V V V V |
  1
<0:;8: {rn {hgl {hgk {hgj {hgi 90-(>-; {jin {rn |
  1
<0:;8: {rn {hkf {hgh {hjn {hgg -:):-,:; {jil {rn |
  1
<0:;8: {rn {hgf {jik {hkl {hfo 90-(>-; {kif {rn |
  1
<0:;8: {rn {hjh {hkk {jik {ihi 90-(>-; {hfn {rn |
  1
:;8: {hfm {hfl {hih {ihj {hfk 90-(>-; |
  1
<0:;8: {rn {jii {jij {ifo {hfj 90-(>-; {lfk {rn |
  1
:;8: {hfi {igo {hfh {jff {hfg 90-(>-; |
  1
/+36,+r:&:r>++-6= {rn {rn {rn {jig |
  1
):-+:' {rn {ioo {hff |
  1
,+->687+r<*-): {rn rigqmooooooooooooln rmhqiooooooooooooon nk o o nooo V V |
  1
:;8: {goo {igk {igg {jif {gon 90-(>-; |
  1
/+36,+r:&:r>++-6= {rn {rn {rn {jhn |
  1
):-+:' {rn {jhn {gom |
  1
,+->687+r<*-): {rn ifqiooooooooooooml miqlooooooooooooon nlqj o nooo o V V |
  1
<0:;8: {rn {jhm {jff {jhk {ifn 90-(>-; {kfk {rn |
  1
/+36,+r:&:r>++-6= {rn {rn {rn {jhl |
  1
):-+:' {rn {igm {gol |
  1
,+->687+r<*-): {rn ifqiooooooooooooml mhqiffffffffffffff fqoooooooooooooong o nooo o V V |
  1
<0:;8: {rn {jhj {jhk {ihh {hfj -:):-,:; {jhi {rn |
  1
:;8: {gok {hfh {jhg {igi {goj 90-(>-; |
  1
:;8: {goi {ilo {jhf {jhj {goh 90-(>-; |
  1
9><: {gog {jfm {jhi {h {rn {gof -:):-,:; ,6183: |
  1
/061+ {rn ifqiooooooooooooml rmiqnfffffffffffffm fqoooooooooooooong |
  1
/061+ {rn ifqiooooooooooooml rmiqmoooooooooooool nlqj |
  1
/+36,+r:&:r>++-6= {rn {rn {rn {jgn |
  1
,+->687+r<*-): {rn rigqmooooooooooooln mhqiffffffffffffff fqoooooooooooooong o o rnooo V V |
  1
/061+ {rn rigqmooooooooooooln mhqiffffffffffffff fqoooooooooooooong |
  1
/+36,+r:&:r>++-6= {rn {rn {rn {jgf |
  1
:336/,:r<*-): {rn igqmoooooooooooonh miqlooooooooooooon fqoooooooooooooong o o n nqlfffffffffffffgi o o n V V |
  1
/+36,+r:&:r>++-6= {rn {rn {rn {jfn |
  1
:336/,:r<*-): {rn igqmoooooooooooonh miqlooooooooooooon nlqj o o n nqlfffffffffffffgi o o n V V |
  1
92:,7r:&:r>++-6= {rn {gno {rn {jfm |
  1
<01:r,*-9><: {rn igqmoooooooooooonh miqlooooooooooooon fqoooooooooooooong o o rn rnqlfffffffffffffgi o o n V V o n nqlfffffffffffffgi 90-(>-; V V V V |
  1
9><: {gnn {ifl {jfi {h {rn {gnm -:):-,:; ,6183: |
  1
/+36,+r:&:r>++-6= {rn {rn {rn {ioo |
  1
:336/,:r<*-): {rn rigqmooooooooooooln rmiqmoooooooooooool fqoooooooooooooong o o n nqlfffffffffffffgi o o n V V |
  1
-:9@)+r:&:r>++-6= {rn {gnl {ioi {jon {k {j |
  1
92:,7r:&:r>++-6= {rn {gnk {rn {ioh |
  1
9><: {gnj {gni {gnh {h {rn {gng 90-(>-; ,6183: |
  1
300/ {rn {rn {gnf {ioh |
  1
,/7:-:r,*-9><: {rn igqmooooooooooookj miqmfffffffffffffh nlqj oqj n o o o o n 90-(>-;@) V V V V |
  1
/+36,+r:&:r>++-6= {rn {rn {rn {ink |
  1
:336/,:r<*-): {rn hoqnooooooooooooml miqlooooooooooooon nlqj o n o o o oqjooooooooooooookk n V V |
  1
61+:8:-@>++-6=r1>2:@>++-6=r8:1r>++-6= {rn {rn {inf {kmi <0/& 4::/@4:/+ 6810-: h Y633:+j o |
  1
-:9@)+r:&:r>++-6= {rn {gmo {imo {jng {k {j |
  1
92:,7r:&:r>++-6= {rn {gmn {rn {imn |
  1
9><: {gmm {gml {gmk {h {rn {gmj 90-(>-; ,6183: |
  1
300/ {rn {rn {gmi {imn |
  1
<01:r,*-9><: {rn nlqhffffffffffffgi lqjhfifnoiohohmhhn:ronj nlqj rmqjflfhfomfkfgomfg:roni n o roqjooooooooooooookk rnqmfifgfjnkhkfonkf:roni o n V V o n oqjooooooooooooookk 90-(>-; V V V V |
  1
<0:;8: {rn {gmh {gmg {gmf {glo -:):-,:; {imm {rn |
  1
/+36,+r:&:r>++-6= {rn {rn {rn {imj |
  1
:336/,:r<*-): {rn hoqnooooooooooooml rmiqmoooooooooooool nlqj o n o o o oqjooooooooooooookk n V V |
  1
92:,7r:&:r>++-6= {rn {gln {rn {imi |
  1
+0-*,r,*-9><: {rn igqmooooooooooooln rmiqmoooooooooooool nlqj o o n nqgfffffffffffffff oqj n o o 90-(>-;@) V V V V |
  1
/+36,+r:&:r>++-6= {rn {rn {rn {img |
  1
,+->687+r<*-): {rn igqmoooooooooooonh rmhqiooooooooooooon nlqj nooo o o V V |
  1
/061+ {rn igqmooooooooooooln rmhqiooooooooooooon nlqj |
  1
-:9@)+r:&:r>++-6= {rn {glm {ilm {jmg {k {j |
  1
92:,7r:&:r>++-6= {rn {gll {rn {ill |
  1
<01:r,*-9><: {rn hoqnooooooooooooml mhqiffffffffffffff nlqj o rn o o o roqjooooooooooooookk n V V o n oqjooooooooooooookk 90-(>-; V V V V |
  1
61+:8:-@>++-6=r1>2:@>++-6=r8:1r>++-6= {rn {rn {ilg {klg <0/& 4::/@4:/+ 6810-: h Y633:+j o |
  1
-:9@)+r:&:r>++-6= {rn {glk {ilf {jli {k {j |
  1
61+:8:-@>++-6=r1>2:@>++-6=r8:1r>++-6= {rn {rn {ikm {kki <0/& 4::/@4:/+ 6810-: h Y633:+j o |
  1
61+:8:-@>++-6=r1>2:@>++-6=r8:1r>++-6= {rn {rn {ikk {kjf <0/& 4::/@4:/+ 6810-: h Y633:+j o |
  1
-:9@)+r:&:r>++-6= {rn {glj {ikj {jkg {k {j |
  1
92:,7r:&:r>++-6= {rn {gli {rn {iki |
  1
9><: {glh {glg {glf {h {rn {gko 90-(>-; ,6183: |
  1
300/ {rn {rn {gkn {iki |
  1
<01:r,*-9><: {rn nlqhfffffffffffffk rmiqmoooooooooooool fqoooooooooooooong o o n oqjooooooooooooookk o o n V V o n oqjooooooooooooookk 90-(>-; V V V V |
  1
<0:;8: {rn {gkm {gkl {gkk {gkj -:):-,:; {ikh {rn |
  1
<0:;8: {rn {gki {ikf {gkh {gkg 90-(>-; {jkf {rn |
  1
<0:;8: {rn {ikf {gki {ihk {hfo -:):-,:; {jkf {rn |
  1
<0:;8: {rn {ihj {gkf {ikf {hkj 90-(>-; {hfn {rn |
  1
:;8: {gjo {gjn {hfl {hkk {gjm 90-(>-; |
  1
<0:;8: {rn {ijn {ijo {gjl {gjk -:):-,:; {kio {rn |
  1
<0:;8: {rn {gjj {gji {ijo {hkg -:):-,:; {gjh {rn |
  1
:;8: {gjg {hjk {gjf {ijo {gio 90-(>-; |
  1
<0:;8: {rn {gin {ihl {ijn {hjo 90-(>-; {jil {rn |
  1
:;8: {gim {hjj {gil {hkf {gik 90-(>-; |
  1
<0:;8: {rn {hgm {ijm {ihl {hgg 90-(>-; {iho {rn |
  1
<0:;8: {rn {ijm {hgm {gij {gii 90-(>-; {iho {rn |
  1
/+36,+r:&:r>++-6= {rn {rn {rn {ijl |
  1
):-+:' {rn {gii {gih |
  1
):-+:' {rn {ijl {gig |
  1
,+->687+r<*-): {rn nlqhffffffffffffhf miqhfffffffffffffh fqoooooooooooooong ro ro rnooo V V |
  1
<0:;8: {rn {gkf {ihj {ijk {hjg 90-(>-; {hfn {rn |
  1
:;8: {gif {hih {hil {hjh {gho 90-(>-; |
  1
<0:;8: {rn {hio {ijj {ghn {ghm -:):-,:; {hin {rn |
  1
<0:;8: {rn {ijj {hjf {ghl {ghk 90-(>-; {hin {rn |
  1
300/ {rn {rn {hio {ghj |
  1
/+36,+r:&:r>++-6= {rn {rn {rn {iji |
  1
):-+:' {rn {iji {ghi |
  1
:336/,:r<*-): {rn njqhooooooooooooll miqmfffffffffffffh nlqj ro ro rn oqjooooooooooooookk o o n V V |
  1
<0:;8: {rn {ijh {ghh {ijf {hho -:):-,:; {kif {rn |
  1
/+36,+r:&:r>++-6= {rn {rn {rn {ijg |
  1
):-+:' {rn {ijg {ghg |
  1
:336/,:r<*-): {rn njqhooooooooooooll miqmfffffffffffffh fqoooooooooooooong o o rn oqjooooooooooooookk o o n V V |
  1
<0:;8: {rn {iio {ijf {ghf {ggo 90-(>-; {iin {rn |
  1
:;8: {ggn {iik {ggm {ijf {ggl 90-(>-; |
  1
<0:;8: {rn {ggk {ghn {iio {hhm -:):-,:; {ggj {rn |
  1
:;8: {ggi {ggh {iil {iio {ggg 90-(>-; |
  1
9><: {ggf {gfo {iin {h {rn {gfn 90-(>-; ,6183: |
  1
/061+ {rn njqmooooooooooooll miqmfffffffffffffh nlqj |
  1
/061+ {rn njqmooooooooooooll miqmfffffffffffffh fqoooooooooooooong |
  1
61+:8:-@>++-6=r1>2:@>++-6=r8:1r>++-6= {rn {rn {iih {kig <0/& 4::/@4:/+ 6810-: h Y633:+j o |
  1
-:9@)+r:&:r>++-6= {rn {gfm {iig {jio {k {j |
  1
92:,7r:&:r>++-6= {rn {gfl {rn {iif |
  1
9><: {gfk {hhl {gfj {h {rn {gfi 90-(>-; ,6183: |
  1
300/ {rn {rn {gjl {iif |
  1
/3>1:r,*-9><: {rn nkqmffffffffffffhf miqhfffffffffffffh fqoooooooooooooong n mqjflfhfomfkfgomfg:roni o rmqjflfhfomfkfgomff:ronl nooo o 90-(>-;@) V V V V |
  1
<0:;8: {rn {hjm {hjn {gfh {gfg 90-(>-; {iho {rn |
  1
<0:;8: {rn {gff {ihm {foo {fon 90-(>-; {jin {rn |
  1
<0:;8: {rn {ihm {gff {fom {fol 90-(>-; {jin {rn |
  1
<0:;8: {rn {fok {foj {ihm {hgi -:):-,:; {foi {rn |
  1
:;8: {foh {fog {fof {ihm {fno 90-(>-; |
  1
<0:;8: {rn {ihl {fom {fnn {fnm 90-(>-; {jil {rn |
  1
:;8: {fnl {hjj {fnk {hjn {fnj 90-(>-; |
  1
<0:;8: {rn {fni {ihk {fnh {fng -:):-,:; {kif {rn |
  1
:;8: {fnf {hfl {fmo {ihk {fmn 90-(>-; |
  1
300/ {rn {rn {hjh {gfo |
  1
/+36,+r:&:r>++-6= {rn {rn {rn {ihi |
  1
):-+:' {rn {hkj {fmm |
  1
,+->687+r<*-): {rn njqmooooooooooooll miqhfffffffffffffh fqoooooooooooooong rnooo ro ro V V |
  1
:;8: {fml {ilo {hfh {ihh {fmk 90-(>-; |
  1
/+36,+r:&:r>++-6= {rn {rn {rn {ihg |
  1
):-+:' {rn {hfj {fmj |
  1
,+->687+r<*-): {rn rifqiooooooooooooml rmhqiooooooooooooon fqoooooooooooooong nooo o o V V |
  1
/061+ {rn rigqmooooooooooooln rmhqiooooooooooooon fqoooooooooooooong |
  1
/+36,+r:&:r>++-6= {rn {rn {rn {igm |
  1
,+->687+r<*-): {rn ifqiooooooooooooml miqlooooooooooooon fqoooooooooooooong o o rnooo V V |
  1
/061+ {rn ifqiooooooooooooml miqlooooooooooooon nlqj |
  1
/061+ {rn ifqiooooooooooooml miqlooooooooooooon fqoooooooooooooong |
  1
/+36,+r:&:r>++-6= {rn {rn {rn {ifn |
  1
:336/,:r<*-): {rn igqmooooooooooooln rmiqmoooooooooooool fqoooooooooooooong o o n nqlfffffffffffffgi o o n V V |
  1
/+36,+r:&:r>++-6= {rn {rn {rn {ifm |
  1
:336/,:r<*-): {rn igqmooooooooooooln rmiqmoooooooooooool nlqj o o n nqlfffffffffffffgi o o n V V |
  1
92:,7r:&:r>++-6= {rn {fmi {rn {ifl |
  1
<01:r,*-9><: {rn igqmooooooooooooln rmiqmoooooooooooool fqoooooooooooooong o o rn rnqlfffffffffffffgi o o n V V o n nqlfffffffffffffgi 90-(>-; V V V V |
  1
-:9@)+r:&:r>++-6= {rn {fmh {hol {jfm {k {j |
  1
92:,7r:&:r>++-6= {rn {fmg {rn {hoj |
  1
<01:r,*-9><: {rn rigqmooooooooooooln rmiqmoooooooooooool fqoooooooooooooong o o rn rnqlfffffffffffffgi o o n V V o n nqlfffffffffffffgi 90-(>-; V V V V |
  1
61+:8:-@>++-6=r1>2:@>++-6=r8:1r>++-6= {rn {rn {hog {jon <0/& 4::/@4:/+ 6810-: h Y633:+j o |
  1
-:9@)+r:&:r>++-6= {rn {fmf {hof {ioh {k {j |
  1
92:,7r:&:r>++-6= {rn {flo {rn {hno |
  1
9><: {fln {ghj {flm {h {rn {fll 90-(>-; ,6183: |
  1
300/ {rn {rn {flk {hno |
  1
<01:r,*-9><: {rn o miqmfffffffffffffh nlqj rn o o o o oqjooooooooooooookk n V V o n oqjooooooooooooookk 90-(>-; V V V V |
  1
<0:;8: {rn {gkh {flj {fli {flh -:):-,:; {hnn {rn |
  1
61+:8:-@>++-6=r1>2:@>++-6=r8:1r>++-6= {rn {rn {hni {jng <0/& 4::/@4:/+ 6810-: h Y633:+j o |
  1
-:9@)+r:&:r>++-6= {rn {flg {hnh {imn {k {j |
  1
92:,7r:&:r>++-6= {rn {flf {rn {hng |
  1
9><: {fko {fkn {gjh {h {rn {fkm 90-(>-; ,6183: |
  1
300/ {rn {rn {gmf {hng |
  1
<01:r,*-9><: {rn o rmiqmoooooooooooool nlqj n o o o o roqjooooooooooooookk n V V o n oqjooooooooooooookk 90-(>-; V V V V |
  1
<0:;8: {rn {fkl {fkk {gmg {fkj 90-(>-; {hnf {rn |
  1
<0:;8: {rn {gmg {hmn {fki {fkh -:):-,:; {imm {rn |
  1
<0:;8: {rn {hmn {gmh {gmi {fkj -:):-,:; {imm {rn |
  1
<0:;8: {rn {fkg {fkf {hmn {glo 90-(>-; {gmk {rn |
  1
:;8: {fjo {fjn {fjm {gmf {fjl 90-(>-; |
  1
-:9@)+r:&:r>++-6= {rn {fjk {hmk {imi {k {j |
  1
61+:8:-@>++-6=r1>2:@>++-6=r8:1r>++-6= {rn {rn {hmf {jmg <0/& 4::/@4:/+ 6810-: h Y633:+j o |
  1
-:9@)+r:&:r>++-6= {rn {fjj {hlo {ill {k {j |
  1
61+:8:-@>++-6=r1>2:@>++-6=r8:1r>++-6= {rn {rn {hll {jli <0/& 4::/@4:/+ 6810-: h Y633:+j o |
  1
61+:8:-@>++-6=r1>2:@>++-6=r8:1r>++-6= {rn {rn {hli {jkg <0/& 4::/@4:/+ 6810-: h Y633:+j o |
  1
-:9@)+r:&:r>++-6= {rn {fji {hlh {iki {k {j |
  1
92:,7r:&:r>++-6= {rn {fjh {rn {hlg |
  1
9><: {fjg {fjf {foi {h {rn {fio 90-(>-; ,6183: |
  1
300/ {rn {rn {fin {hlg |
  1
<01:r,*-9><: {rn njqhooooooooooook rmiqmoooooooooooool fqoooooooooooooong o o n oqjooooooooooooookk o o n V V o n oqjooooooooooooookk 90-(>-; V V V V |
  1
<0:;8: {rn {fki {fim {fil {fik -:):-,:; {hlf {rn |
  1
<0:;8: {rn {fij {hkn {fii {fih 90-(>-; {ikh {rn |
  1
<0:;8: {rn {hkn {fij {fni {fig -:):-,:; {ikh {rn |
  1
<0:;8: {rn {fnh {fif {hkn {gkj 90-(>-; {fho {rn |
  1
:;8: {fhn {fhm {fhl {gkk {fhk 90-(>-; |
  1
<0:;8: {rn {hkl {hkm {fhj {fhi -:):-,:; {jkf {rn |
  1
<0:;8: {rn {flj {gnf {hkm {gkg -:):-,:; {hnn {rn |
  1
:;8: {fhh {gjn {fhg {hkm {fhf 90-(>-; |
  1
<0:;8: {rn {hkk {hjh {fgo {fgn 90-(>-; {hfn {rn |
  1
/+36,+r:&:r>++-6= {rn {rn {rn {hkj |
  1
):-+:' {rn {fgn {fgm |
  1
,+->687+r<*-): {rn igqmooooooooooookj miqhfffffffffffffh fqoooooooooooooong ro ro rnooo V V |
  1
<0:;8: {rn {fgl {fgk {hki {gjk 90-(>-; {hgo {rn |
  1
:;8: {fgj {gil {gjf {gjl {fgi 90-(>-; |
  1
<0:;8: {rn {gji {hkh {fgh {fgg -:):-,:; {gjh {rn |
  1
<0:;8: {rn {hkh {gjj {fgf {ffo 90-(>-; {gjh {rn |
  1
300/ {rn {rn {gji {gml |
  1
/+36,+r:&:r>++-6= {rn {rn {rn {hkg |
  1
):-+:' {rn {hkg {ffn |
  1
:336/,:r<*-): {rn nlqhffffffffffffhf miqmfffffffffffffh nlqj o o rn oqjooooooooooooookk o o n V V |
  1
<0:;8: {rn {ffm {hkf {fgk {ffl -:):-,:; {jil {rn |
  1
/+36,+r:&:r>++-6= {rn {rn {rn {hjo |
  1
):-+:' {rn {hjo {ffk |
  1
:336/,:r<*-): {rn nlqhffffffffffffhf miqmfffffffffffffh fqoooooooooooooong o o rn oqjooooooooooooookk o o n V V |
  1
<0:;8: {rn {ffj {fgh {hjm {gii -:):-,:; {ffi {rn |
  1
:;8: {ffh {ffg {hjk {hjm {fff 90-(>-; |
  1
/061+ {rn nlqhffffffffffffhf miqhfffffffffffffh nlqj |
  1
/061+ {rn nlqhffffffffffffjn miqhfffffffffffffh fqoooooooooooooong |
  1
/+36,+r:&:r>++-6= {rn {rn {rn {hjg |
  1
,+->687+r<*-): {rn njqhooooooooooooll miqhfffffffffffffh fqoooooooooooooong o o nooo V V |
  1
<0:;8: {rn {hhn {nooo {hjf {ghm 90-(>-; {ggj {rn |
  1
:;8: {noon {noom {iil {ghn {nool 90-(>-; |
  1
<0:;8: {rn {nook {fgo {hio {ghk -:):-,:; {gnh {rn |
  1
:;8: {nooj {noom {hil {hio {nooi 90-(>-; |
  1
9><: {nooh {noog {hin {h {rn {noof 90-(>-; ,6183: |
  1
/061+ {rn njqhooooooooooooll miqhfffffffffffffh nlqj |
  1
<0:;8: {rn {hij {nono {nonn {nonm 90-(>-; {kif {rn |
  1
/061+ {rn njqhooooooooooooll miqhfffffffffffffh fqoooooooooooooong |
  1
<0:;8: {rn {nonn {nonl {hif {ggo -:):-,:; {glf {rn |
  1
:;8: {nonk {ggm {ggh {hif {nonj 90-(>-; |
  1
/+36,+r:&:r>++-6= {rn {rn {rn {hho |
  1
):-+:' {rn {nonm {noni |
  1
,+->687+r<*-): {rn njqmooooooooooooll miqhfffffffffffffh fqoooooooooooooong nqmfifgfjnkhkfonkh:ronl rnooo o V V |
  1
<0:;8: {rn {nooo {hhn {nonh {nong -:):-,:; {ggj {rn |
  1
300/ {rn {rn {ghn {nonf |
  1
/+36,+r:&:r>++-6= {rn {rn {rn {hhm |
  1
):-+:' {rn {nong {nomo |
  1
,+->687+r<*-): {rn njqmooooooooooooll miqhfffffffffffffh nlqj rnqmfifgfjnkhkfonj:ronl nooo o V V |
  1
92:,7r:&:r>++-6= {rn {nomn {rn {hhl |
  1
9><: {nomm {noml {hfn {h {rn {nomk 90-(>-; ,6183: |
  1
/3>1:r,*-9><: {rn njqmooooooooooooll miqhfffffffffffffh fqoooooooooooooong rn rnqmfifgfjnkhkfonkf:roni o nqmfifgfjnkhkfonj:ronl rnooo o 90-(>-;@) V V V V |
  1
61+:8:-@>++-6=r1>2:@>++-6=r8:1r>++-6= {rn {rn {hhh {jio <0/& 4::/@4:/+ 6810-: h Y633:+j o |
  1
-:9@)+r:&:r>++-6= {rn {nomj {hhg {iif {k {j |
  1
92:,7r:&:r>++-6= {rn {nomi {rn {hhf |
  1
300/ {rn {rn {nomh {hhf |
  1
/3>1:r,*-9><: {rn rigqhoooooooooooonh rmiqhoooooooooooool fqoooooooooooooong o rn o o o rnooo 90-(>-;@) V V V V |
  1
<0:;8: {rn {fnn {nomg {hgm {gfg -:):-,:; {nomf {rn |
  1
:;8: {nolo {fnk {ffg {hgm {noln 90-(>-; |
  1
<0:;8: {rn {hgk {hgl {nolm {noll 90-(>-; {jin {rn |
  1
<0:;8: {rn {nolk {nolj {hgl {fon -:):-,:; {noli {rn |
  1
:;8: {nolh {fof {nolg {hgl {nolf 90-(>-; |
  1
<0:;8: {rn {hgh {noko {hgk {fol -:):-,:; {jil {rn |
  1
:;8: {nokn {nokm {fog {hgk {nokl 90-(>-; |
  1
<0:;8: {rn {nokk {hgj {noko {nokj -:):-,:; {foi {rn |
  1
<0:;8: {rn {hgj {nokk {noki {nokh 90-(>-; {foi {rn |
  1
300/ {rn {rn {nokk {glg |
  1
/+36,+r:&:r>++-6= {rn {rn {rn {hgi |
  1
):-+:' {rn {nokj {nokg |
  1
):-+:' {rn {nokh {nokf |
  1
,+->687+r<*-): {rn rigqhoooooooooooonh rmiqmoooooooooooool fqoooooooooooooong o o nooo V V |
  1
<0:;8: {rn {nolm {gfh {hgh {fnm -:):-,:; {nomf {rn |
  1
:;8: {nojo {nokm {fnk {hgh {nojn 90-(>-; |
  1
/+36,+r:&:r>++-6= {rn {rn {rn {hgg |
  1
):-+:' {rn {fnm {nojm |
  1
,+->687+r<*-): {rn rigqhoooooooooooonh miqhfffffffffffffh fqoooooooooooooong rnooo ro ro V V |
  1
<0:;8: {rn {nono {hgf {gkl {fig 90-(>-; {kif {rn |
  1
<0:;8: {rn {fhj {gkk {hgf {fng 90-(>-; {fho {rn |
  1
:;8: {nojl {fhl {fmo {fnh {nojk 90-(>-; |
  1
/+36,+r:&:r>++-6= {rn {rn {rn {hfo |
  1
):-+:' {rn {hfo {nojj |
  1
:336/,:r<*-): {rn igqmooooooooooookj miqmfffffffffffffh fqoooooooooooooong o o rn oqjooooooooooooookk o o n V V |
  1
/061+ {rn igqmooooooooooooln miqhfffffffffffffh fqoooooooooooooong |
  1
/+36,+r:&:r>++-6= {rn {rn {rn {hfj |
  1
,+->687+r<*-): {rn igqmooooooooooooln rmhqiooooooooooooon fqoooooooooooooong ro ro rnooo V V |
  1
/061+ {rn igqmoooooooooooonh rmhqiooooooooooooon fqoooooooooooooong |
  1
-:9@)+r:&:r>++-6= {rn {noji {gog {ifl {k {j |
  1
61+:8:-@>++-6=r1>2:@>++-6=r8:1r>++-6= {rn {rn {gno {jfm <0/& 4::/@4:/+ 6810-: h Y633:+j o |
  1
-:9@)+r:&:r>++-6= {rn {nojh {gnn {hoj {k {j |
  1
61+:8:-@>++-6=r1>2:@>++-6=r8:1r>++-6= {rn {rn {gnk {ioh <0/& 4::/@4:/+ 6810-: h Y633:+j o |
  1
-:9@)+r:&:r>++-6= {rn {nojg {gnj {hno {k {j |
  1
92:,7r:&:r>++-6= {rn {nojf {rn {gni |
  1
300/ {rn {rn {fli {gni |
  1
<01:r,*-9><: {rn igqmooooooooooookj o nlqj o n o o o oqjooooooooooooookk n V V o n oqjooooooooooooookk 90-(>-; V V V V |
  1
<0:;8: {rn {fgo {nook {flj {noio 90-(>-; {gnh {rn |
  1
<0:;8: {rn {gnf {gkh {flk {noio -:):-,:; {hnn {rn |
  1
<0:;8: {rn {noin {noim {gnf {flh 90-(>-; {flm {rn |
  1
:;8: {noil {fhg {noik {fli {noij 90-(>-; |
  1
61+:8:-@>++-6=r1>2:@>++-6=r8:1r>++-6= {rn {rn {gmn {imn <0/& 4::/@4:/+ 6810-: h Y633:+j o |
  1
-:9@)+r:&:r>++-6= {rn {noii {gmm {hng {k {j |
  1
92:,7r:&:r>++-6= {rn {noih {rn {gml |
  1
9><: {noig {noif {noho {h {rn {nohn 90-(>-; ,6183: |
  1
,/7:-:r,*-9><: {rn nlqhffffffffffffhf miqmfffffffffffffh nlqj oqj n o o o o n 90-(>-;@) V V V V |
  1
<0:;8: {rn {fgf {gmi {fgl {nohm -:):-,:; {hnf {rn |
  1
<0:;8: {rn {gmi {fgf {nohl {nohk -:):-,:; {hnf {rn |
  1
:;8: {nohj {fjm {nohi {gmi {nohh 90-(>-; |
  1
<0:;8: {rn {nohg {gkn {gmh {fkh 90-(>-; {hlf {rn |
  1
:;8: {nohf {nohi {fjn {fki {nogo 90-(>-; |
  1
<0:;8: {rn {nogn {gmf {nogm {nogl -:):-,:; {gmk {rn |
  1
<0:;8: {rn {gmf {nogn {nogk {nogj -:):-,:; {gmk {rn |
  1
/+36,+r:&:r>++-6= {rn {rn {rn {glo |
  1
):-+:' {rn {fkh {nogi |
  1
):-+:' {rn {nogl {nogh |
  1
:336/,:r<*-): {rn nlqhfffffffffffffk rmiqmoooooooooooool nlqj rn o o o o oqjooooooooooooookk n V V |
  1
61+:8:-@>++-6=r1>2:@>++-6=r8:1r>++-6= {rn {rn {gln {imi <0/& 4::/@4:/+ 6810-: h Y633:+j o |
  1
61+:8:-@>++-6=r1>2:@>++-6=r8:1r>++-6= {rn {rn {gll {ill <0/& 4::/@4:/+ 6810-: h Y633:+j o |
  1
61+:8:-@>++-6=r1>2:@>++-6=r8:1r>++-6= {rn {rn {gli {iki <0/& 4::/@4:/+ 6810-: h Y633:+j o |
  1
-:9@)+r:&:r>++-6= {rn {nogg {glh {hlg {k {j |
  1
92:,7r:&:r>++-6= {rn {nogf {rn {glg |
  1
9><: {nofo {hoj {nomf {h {rn {nofn 90-(>-; ,6183: |
  1
<01:r,*-9><: {rn rigqmoooooooooooonh rmiqmoooooooooooool fqoooooooooooooong o o n oqjooooooooooooookk o o n V V o n oqjooooooooooooookk 90-(>-; V V V V |
  1
<0:;8: {rn {nonl {nonn {nofm {nofl -:):-,:; {glf {rn |
  1
<0:;8: {rn {gkn {nohg {ffm {nofk -:):-,:; {hlf {rn |
  1
<0:;8: {rn {fgk {fgl {gkn {fik 90-(>-; {hgo {rn |
  1
:;8: {nofj {nohi {nofi {fil {nofh 90-(>-; |
  1
<0:;8: {rn {gkl {gkm {nofg {noff -:):-,:; {ikh {rn |
  1
<0:;8: {rn {nnoo {nnon {gkm {fih -:):-,:; {nnom {rn |
  1
:;8: {nnol {fhm {nnok {gkm {nnoj 90-(>-; |
  1
:;8: {nnoi {fhl {nnoh {fni {nnog 90-(>-; |
  1
<0:;8: {rn {gkk {fhj {noim {nnof 90-(>-; {fho {rn |
  1
300/ {rn {rn {fhj {noml |
  1
/+36,+r:&:r>++-6= {rn {rn {rn {gkj |
  1
):-+:' {rn {nnof {nnno |
  1
):-+:' {rn {gkj {nnnn |
  1
,+->687+r<*-): {rn igqhooooooooooookj rmiqmoooooooooooool fqoooooooooooooong o o rnooo V V |
  1
<0:;8: {rn {fif {fnh {gki {fhi 90-(>-; {fho {rn |
  1
:;8: {nnnm {fmo {fhg {fhj {nnnl 90-(>-; |
  1
/+36,+r:&:r>++-6= {rn {rn {rn {gkg |
  1
):-+:' {rn {gkg {nnnk |
  1
:336/,:r<*-): {rn igqmooooooooooookj miqmfffffffffffffh nlqj o o rn oqjooooooooooooookk o o n V V |
  1
<0:;8: {rn {ghl {flk {gkf {fgn -:):-,:; {gnh {rn |
  1
:;8: {nnnj {hil {gjn {gkf {nnni 90-(>-; |
  1
/061+ {rn igqmooooooooooookj miqhfffffffffffffh nlqj |
  1
<0:;8: {rn {fil {gjl {fkl {nohm 90-(>-; {hgo {rn |
  1
<0:;8: {rn {gjl {fil {gin {ffl 90-(>-; {hgo {rn |
  1
/+36,+r:&:r>++-6= {rn {rn {rn {gjk |
  1
,+->687+r<*-): {rn nkqmffffffffffffhf miqmfffffffffffffh fqoooooooooooooong o o nooo V V |
  1
<0:;8: {rn {gij {nnnh {gjj {fgg 90-(>-; {ffi {rn |
  1
:;8: {nnng {nnnf {hjk {fgh {nnmo 90-(>-; |
  1
<0:;8: {rn {fkk {fkl {gji {ffo -:):-,:; {hnf {rn |
  1
:;8: {nnmn {nnnf {gjf {gji {nnmm 90-(>-; |
  1
/061+ {rn nkqmffffffffffffhf miqmfffffffffffffh nlqj |
  1
<0:;8: {rn {nnml {gin {fim {nofk 90-(>-; {jil {rn |
  1
:;8: {nnmk {nofi {gil {fgk {nnmj 90-(>-; |
  1
/061+ {rn nkqmffffffffffffhf miqmfffffffffffffh fqoooooooooooooong |
  1
<0:;8: {rn {nnnh {gij {nnmi {nnmh -:):-,:; {ffi {rn |
  1
300/ {rn {rn {fgh {noif |
  1
/+36,+r:&:r>++-6= {rn {rn {rn {gii |
  1
):-+:' {rn {nnmh {nnmg |
  1
,+->687+r<*-): {rn rigqhoooooooooooonh miqhfffffffffffffh nlqj nooo o o V V |
  1
<0:;8: {rn {ghn {ggk {nnmf {nnlo -:):-,:; {ggj {rn |
  1
/+36,+r:&:r>++-6= {rn {rn {rn {ghm |
  1
):-+:' {rn {nnln {nnlm |
  1
:336/,:r<*-): {rn njqhooooooooooooll miqmfffffffffffffh nlqj o rn o o o roqjooooooooooooookk n V V |
  1
<0:;8: {rn {flk {ghl {nnll {nnln -:):-,:; {gnh {rn |
  1
/+36,+r:&:r>++-6= {rn {rn {rn {ghk |
  1
:336/,:r<*-): {rn njqhooooooooooooll miqmfffffffffffffh nlqj rn o o o o oqjooooooooooooookk n V V |
  1
92:,7r:&:r>++-6= {rn {nnlk {rn {ghj |
  1
9><: {nnlj {nonf {nnom {h {rn {nnli 90-(>-; ,6183: |
  1
,/7:-:r,*-9><: {rn njqhooooooooooooll miqmfffffffffffffh nlqj oqj n o o o o n 90-(>-;@) V V V V |
  1
<0:;8: {rn {ghh {fni {nnlh {nnlg -:):-,:; {kif {rn |
  1
<0:;8: {rn {fin {ghf {ghh {nonm -:):-,:; {glf {rn |
  1
:;8: {nnlf {nnko {ggm {ghh {nnkn 90-(>-; |
  1
<0:;8: {rn {ghf {fin {nnkm {nnkl 90-(>-; {glf {rn |
  1
/+36,+r:&:r>++-6= {rn {rn {rn {ggo |
  1
,+->687+r<*-): {rn njqmooooooooooook rmiqmoooooooooooool fqoooooooooooooong o o nooo V V |
  1
/061+ {rn njqmooooooooooook rmiqmoooooooooooool fqoooooooooooooong |
  1
<0:;8: {rn {nnkm {nnkk {ggk {nong 90-(>-; {nnkj {rn |
  1
:;8: {nnki {nnkh {ggh {nonh {nnkg 90-(>-; |
  1
9><: {nnkf {nnjo {ggj {h {rn {nnjn 90-(>-; ,6183: |
  1
/061+ {rn njqmooooooooooook rmiqmoooooooooooool nlqj |
  1
-:9@)+r:&:r>++-6= {rn {nnjm {ggf {hhl {k {j |
  1
92:,7r:&:r>++-6= {rn {nnjl {rn {gfo |
  1
9><: {nnjk {nnjj {fho {h {rn {nnji 90-(>-; ,6183: |
  1
/3>1:r,*-9><: {rn njqmooooooooooooll miqhfffffffffffffh fqoooooooooooooong o n o o o nooo 90-(>-;@) V V V V |
  1
61+:8:-@>++-6=r1>2:@>++-6=r8:1r>++-6= {rn {rn {gfl {iif <0/& 4::/@4:/+ 6810-: h Y633:+j o |
  1
-:9@)+r:&:r>++-6= {rn {nnjh {gfk {hhf {k {j |
  1
<0:;8: {rn {nogk {nnjg {nohg {nnjf 90-(>-; {gfj {rn |
  1
<0:;8: {rn {gfh {nolm {nnio {nnin 90-(>-; {nomf {rn |
  1
300/ {rn {rn {nolm {fjf |
  1
/+36,+r:&:r>++-6= {rn {rn {rn {gfg |
  1
,+->687+r<*-): {rn rigqmoooooooooooonh miqhfffffffffffffh fqoooooooooooooong o o nooo V V |
  1
<0:;8: {rn {nomg {fnn {gff {noll -:):-,:; {nomf {rn |
  1
:;8: {nnim {nolg {nokm {gff {nnil 90-(>-; |
  1
<0:;8: {rn {nnik {foo {nnij {nnii 90-(>-; {noli {rn |
  1
<0:;8: {rn {foo {nnik {nnih {nnig -:):-,:; {noli {rn |
  1
300/ {rn {rn {nolk {nnif |
  1
/+36,+r:&:r>++-6= {rn {rn {rn {fon |
  1
):-+:' {rn {fon {nnho |
  1
,+->687+r<*-): {rn rigqhoooooooooooonh miqhfffffffffffffh nlqj o nooo o V V |
  1
<0:;8: {rn {fom {nnml {fok {nokj 90-(>-; {jil {rn |
  1
/+36,+r:&:r>++-6= {rn {rn {rn {fol |
  1
):-+:' {rn {noll {nnhn |
  1
,+->687+r<*-): {rn rigqhoooooooooooonh miqhfffffffffffffh fqoooooooooooooong o rnooo o V V |
  1
<0:;8: {rn {foj {fok {nnhm {nnhl -:):-,:; {foi {rn |
  1
:;8: {nnhk {nnhj {fog {noko {nnhi 90-(>-; |
  1
<0:;8: {rn {nnhh {nnij {foj {nokh -:):-,:; {noho {rn |
  1
:;8: {nnhg {nnhf {fof {foj {nngo 90-(>-; |
  1
/061+ {rn rigqhoooooooooooonh rmiqmoooooooooooool fqoooooooooooooong |
  1
/061+ {rn rigqhoooooooooooonh rmiqmoooooooooooool nlqj |
  1
/+36,+r:&:r>++-6= {rn {rn {rn {fnm |
  1
:336/,:r<*-): {rn rigqmoooooooooooonh miqmfffffffffffffh fqoooooooooooooong o o rn oqjooooooooooooookk o o n V V |
  1
/061+ {rn rigqmoooooooooooonh miqhfffffffffffffh fqoooooooooooooong |
  1
/+36,+r:&:r>++-6= {rn {rn {rn {fng |
  1
,+->687+r<*-): {rn igqhooooooooooookj miqhfffffffffffffh fqoooooooooooooong o nooo o V V |
  1
/061+ {rn igqhooooooooooookj miqmfffffffffffffh fqoooooooooooooong |
  1
61+:8:-@>++-6=r1>2:@>++-6=r8:1r>++-6= {rn {rn {fmi {ifl <0/& 4::/@4:/+ 6810-: h Y633:+j o |
  1
61+:8:-@>++-6=r1>2:@>++-6=r8:1r>++-6= {rn {rn {fmg {hoj <0/& 4::/@4:/+ 6810-: h Y633:+j o |
  1
61+:8:-@>++-6=r1>2:@>++-6=r8:1r>++-6= {rn {rn {flo {hno <0/& 4::/@4:/+ 6810-: h Y633:+j o |
  1
-:9@)+r:&:r>++-6= {rn {nngn {fln {gni {k {j |
  1
:;8: {nngm {noik {gjn {flk {nngl 90-(>-; |
  1
<0:;8: {rn {nngk {fli {nngj {nngi -:):-,:; {flm {rn |
  1
<0:;8: {rn {fli {nngk {fif {nnof -:):-,:; {flm {rn |
  1
/+36,+r:&:r>++-6= {rn {rn {rn {flh |
  1
):-+:' {rn {nngi {nngh |
  1
:336/,:r<*-): {rn igqmooooooooooookj miqmfffffffffffffh nlqj o rn o o o roqjooooooooooooookk n V V |
  1
61+:8:-@>++-6=r1>2:@>++-6=r8:1r>++-6= {rn {rn {flf {hng <0/& 4::/@4:/+ 6810-: h Y633:+j o |
  1
-:9@)+r:&:r>++-6= {rn {nngg {fko {gml {k {j |
  1
92:,7r:&:r>++-6= {rn {nngf {rn {fkn |
  1
9><: {nnfo {nnif {ffi {h {rn {nnfn 90-(>-; ,6183: |
  1
300/ {rn {rn {noki {fkn |
  1
,/7:-:r,*-9><: {rn rigqmoooooooooooonh rmiqmoooooooooooool nlqj oqj n o o o o n 90-(>-;@) V V V V |
  1
:;8: {nnfm {gjf {nohi {fgl {nnfl 90-(>-; |
  1
<0:;8: {rn {nnfk {nogm {fkk {nohk 90-(>-; {nnfj {rn |
  1
:;8: {nnfi {fjm {nnnf {nohl {nnfh 90-(>-; |
  1
/+36,+r:&:r>++-6= {rn {rn {rn {fkj |
  1
):-+:' {rn {nohm {nnfg |
  1
:336/,:r<*-): {rn nlqhfffffffffffffk rmiqmoooooooooooool nlqj o n o o o oqjooooooooooooookk n V V |
  1
<0:;8: {rn {fim {fki {nomh {nnjf -:):-,:; {hlf {rn |
  1
/+36,+r:&:r>++-6= {rn {rn {rn {fkh |
  1
:336/,:r<*-): {rn nlqhfffffffffffffk rmiqmoooooooooooool nlqj o o rn oqjooooooooooooookk o o n V V |
  1
<0:;8: {rn {fkf {fkg {nnhh {nnff -:):-,:; {gmk {rn |
  1
<0:;8: {rn {nohl {nmoo {fkg {nogl 90-(>-; {nnfj {rn |
  1
:;8: {nmon {nmom {fjm {nogm {nmol 90-(>-; |
  1
<0:;8: {rn {nnhm {nomh {fkf {nogj 90-(>-; {gfj {rn |
  1
:;8: {nmok {fjn {nnhf {nogk {nmoj 90-(>-; |
  1
/061+ {rn nlqhfffffffffffffk rmiqhoooooooooooool nlqj |
  1
/061+ {rn nlqhfffffffffffffk rmiqmoooooooooooool nk |
  1
61+:8:-@>++-6=r1>2:@>++-6=r8:1r>++-6= {rn {rn {fjh {hlg <0/& 4::/@4:/+ 6810-: h Y633:+j o |
  1
-:9@)+r:&:r>++-6= {rn {nmoi {fjg {glg {k {j |
  1
92:,7r:&:r>++-6= {rn {nmoh {rn {fjf |
  1
<01:r,*-9><: {rn rigqmoooooooooooonh miqmfffffffffffffh fqoooooooooooooong o o n oqjooooooooooooookk o o n V V o n oqjooooooooooooookk 90-(>-; V V V V |
  1
<0:;8: {rn {nnlh {nmog {fin {nofl 90-(>-; {nmof {rn |
  1
:;8: {nmno {nmnn {nnko {nofm {nmnm 90-(>-; |
  1
:;8: {nmnl {nofi {nmnk {ffm {nmnj 90-(>-; |
  1
/+36,+r:&:r>++-6= {rn {rn {rn {fik |
  1
):-+:' {rn {fik {nmni |
  1
,+->687+r<*-): {rn nkqmfffffffffffffk rmiqmoooooooooooool fqoooooooooooooong ro ro rnooo V V |
  1
<0:;8: {rn {nmog {nnlh {fij {noff 90-(>-; {nmof {rn |
  1
:;8: {nmnh {nnoh {nnok {nofg {nmng 90-(>-; |
  1
<0:;8: {rn {nnon {fii {nngk {nmnf 90-(>-; {nnom {rn |
  1
<0:;8: {rn {fii {nnoo {nmmo {nmmn -:):-,:; {nnom {rn |
  1
300/ {rn {rn {fii {noog |
  1
/+36,+r:&:r>++-6= {rn {rn {rn {fih |
  1
):-+:' {rn {fih {nmmm |
  1
:336/,:r<*-): {rn igqmooooooooooookj rmiqmoooooooooooool nlqj o o rn oqjooooooooooooookk o o n V V |
  1
/+36,+r:&:r>++-6= {rn {rn {rn {fig |
  1
):-+:' {rn {fig {nmml |
  1
:336/,:r<*-): {rn igqmooooooooooookj rmiqmoooooooooooool fqoooooooooooooong o o rn oqjooooooooooooookk o o n V V |
  1
:;8: {nmmk {fhg {fhm {fif {nmmj 90-(>-; |
  1
/061+ {rn igqhooooooooooookj rmiqmoooooooooooool nlqj |
  1
/061+ {rn igqhooooooooooookj rmiqmoooooooooooool fqoooooooooooooong |
  1
/+36,+r:&:r>++-6= {rn {rn {rn {fhi |
  1
,+->687+r<*-): {rn igqhooooooooooookj miqmfffffffffffffh fqoooooooooooooong o o nooo V V |
  1
/061+ {rn igqhooooooooooookj miqmfffffffffffffh nlqj |
  1
/+36,+r:&:r>++-6= {rn {rn {rn {fgn |
  1
,+->687+r<*-): {rn njqmooooooooooooll miqhfffffffffffffh nlqj nooo o o V V |
  1
<0:;8: {rn {fgh {ffj {nnfk {nmmi -:):-,:; {ffi {rn |
  1
/+36,+r:&:r>++-6= {rn {rn {rn {fgg |
  1
):-+:' {rn {nohk {nmmh |
  1
:336/,:r<*-): {rn nlqhffffffffffffhf miqmfffffffffffffh nlqj rn o o o o oqjooooooooooooookk n V V |
  1
/+36,+r:&:r>++-6= {rn {rn {rn {ffo |
  1
:336/,:r<*-): {rn nlqhffffffffffffhf miqmfffffffffffffh nlqj o n o o o oqjooooooooooooookk n V V |
  1
<0:;8: {rn {noko {ffm {nnjg {nmmg -:):-,:; {jil {rn |
  1
/+36,+r:&:r>++-6= {rn {rn {rn {ffl |
  1
,+->687+r<*-): {rn nkqmffffffffffffhf miqhfffffffffffffh fqoooooooooooooong rmqjflfhfomfkfgomfk:ronl nooo o V V |
  1
<0:;8: {rn {nnio {nnih {ffj {nnmh 90-(>-; {nmmf {rn |
  1
:;8: {nmlo {nmln {ffg {nnmi {nmlm 90-(>-; |
  1
/061+ {rn rigqmoooooooooooonh miqhfffffffffffffh nlqj |
  1
<0:;8: {rn {nmll {nnll {nooo {nnlo 90-(>-; {nmlk {rn |
  1
:;8: {nmlj {noom {nnkh {nnmf {nmli 90-(>-; |
  1
:;8: {nmlh {noik {noom {nnll {nmlg 90-(>-; |
  1
/061+ {rn njqhooooooooooooll miqmfffffffffffffh nk |
  1
<0:;8: {rn {nnmf {nngj {nook {nnln 90-(>-; {nmlk {rn |
  1
-:9@)+r:&:r>++-6= {rn {nmlf {nooh {ghj {k {j |
  1
92:,7r:&:r>++-6= {rn {nmko {rn {noog |
  1
,/7:-:r,*-9><: {rn igqmooooooooooookj rmiqmoooooooooooool nlqj oqj n o o o o n 90-(>-;@) V V V V |
  1
<0:;8: {rn {nofg {nofm {nono {nnlg 90-(>-; {nmof {rn |
  1
:;8: {nmkn {nnko {nnoh {nnlh {nmkm 90-(>-; |
  1
/+36,+r:&:r>++-6= {rn {rn {rn {nonm |
  1
):-+:' {rn {nofl {nmkl |
  1
:336/,:r<*-): {rn njqhooooooooooook rmiqmoooooooooooool fqoooooooooooooong o o rn oqjooooooooooooookk o o n V V |
  1
<0:;8: {rn {nnkk {nonh {nonl {nnkl -:):-,:; {nnkj {rn |
  1
:;8: {nmkk {nmnn {ggh {nonl {nmkj 90-(>-; |
  1
<0:;8: {rn {nonh {nnkm {nmki {nmkh 90-(>-; {nnkj {rn |
  1
300/ {rn {rn {nonh {nmkg |
  1
/+36,+r:&:r>++-6= {rn {rn {rn {nong |
  1
):-+:' {rn {nmkh {nmkf |
  1
:336/,:r<*-): {rn njqhooooooooooook rmiqmoooooooooooool nlqj o rn o o o roqjooooooooooooookk n V V |
  1
92:,7r:&:r>++-6= {rn {nmjo {rn {nonf |
  1
9><: {nmjn {nmkg {nmjm {h {rn {nmjl 90-(>-; ,6183: |
  1
<01:r,*-9><: {rn njqhoooooooooooolh mqolimhljlgnjjfjg:ronj nlqj nqmfifgfjnkhkfonkf:roni rn o oqjooooooooooooookk iqkgkfkhjhlhkjohki:ronh o n V V o n oqjooooooooooooookk 90-(>-; V V V V |
  1
61+:8:-@>++-6=r1>2:@>++-6=r8:1r>++-6= {rn {rn {nomn {hhl <0/& 4::/@4:/+ 6810-: h Y633:+j o |
  1
-:9@)+r:&:r>++-6= {rn {nmjk {nomm {gfo {k {j |
  1
92:,7r:&:r>++-6= {rn {nmjj {rn {noml |
  1
9><: {nmji {nmjh {nmof {h {rn {nmjg 90-(>-; ,6183: |
  1
/3>1:r,*-9><: {rn igqhooooooooooookj miqhfffffffffffffh fqoooooooooooooong n o o o o rnooo 90-(>-;@) V V V V |
  1
61+:8:-@>++-6=r1>2:@>++-6=r8:1r>++-6= {rn {rn {nomi {hhf <0/& 4::/@4:/+ 6810-: h Y633:+j o |
  1
<0:;8: {rn {nomh {nnhm {nnml {nmmg 90-(>-; {gfj {rn |
  1
:;8: {nmjf {nmnk {fjn {nomh {nmio 90-(>-; |
  1
<0:;8: {rn {nnih {nnmi {nomg {nnin -:):-,:; {nmmf {rn |
  1
:;8: {nmin {nolg {ffg {nomg {nmim 90-(>-; |
  1
/+36,+r:&:r>++-6= {rn {rn {rn {noll |
  1
,+->687+r<*-): {rn rigqhoooooooooooonh miqmfffffffffffffh fqoooooooooooooong ro ro rnooo V V |
  1
<0:;8: {rn {nolj {nolk {nmoo {nmil -:):-,:; {noli {rn |
  1
<0:;8: {rn {noki {nnhh {nolk {nnii -:):-,:; {noho {rn |
  1
:;8: {nmik {fof {nmom {nolk {nmij 90-(>-; |
  1
<0:;8: {rn {nnmi {nnio {nolj {nnig 90-(>-; {nmmf {rn |
  1
:;8: {nmii {nolg {nmln {nnih {nmih 90-(>-; |
  1
9><: {nmig {nmif {noli {h {rn {nmho 90-(>-; ,6183: |
  1
/061+ {rn rigqhoooooooooooonh miqmfffffffffffffh nlqj |
  1
/061+ {rn rigqhoooooooooooonh miqmfffffffffffffh fqoooooooooooooong |
  1
<0:;8: {rn {nnjg {nogk {nokk {nnhl 90-(>-; {gfj {rn |
  1
:;8: {nmhn {nnhf {nnhj {nnhm {nmhm 90-(>-; |
  1
/+36,+r:&:r>++-6= {rn {rn {rn {nokj |
  1
):-+:' {rn {nnhl {nmhl |
  1
:336/,:r<*-): {rn rigqmoooooooooooonh rmiqmoooooooooooool fqoooooooooooooong o o rn oqjooooooooooooookk o o n V V |
  1
<0:;8: {rn {nnij {noki {nogn {nnff 90-(>-; {noho {rn |
  1
/+36,+r:&:r>++-6= {rn {rn {rn {nokh |
  1
):-+:' {rn {nogj {nmhk |
  1
:336/,:r<*-): {rn rigqmoooooooooooonh rmiqmoooooooooooool nlqj ro ro rn oqjooooooooooooookk o o n V V |
  1
61+:8:-@>++-6=r1>2:@>++-6=r8:1r>++-6= {rn {rn {nojf {gni <0/& 4::/@4:/+ 6810-: h Y633:+j o |
  1
/+36,+r:&:r>++-6= {rn {rn {rn {noio |
  1
:336/,:r<*-): {rn igqmooooooooooookj miqmfffffffffffffh nlqj rn o o o o oqjooooooooooooookk n V V |
  1
<0:;8: {rn {noim {noin {nnoo {nmnf -:):-,:; {flm {rn |
  1
<0:;8: {rn {nnll {nmll {noin {nngi 90-(>-; {nmlk {rn |
  1
:;8: {nmhj {nmhi {noik {nngj {nmhh 90-(>-; |
  1
/061+ {rn igqmooooooooooookj miqmfffffffffffffh nk |
  1
61+:8:-@>++-6=r1>2:@>++-6=r8:1r>++-6= {rn {rn {noih {gml <0/& 4::/@4:/+ 6810-: h Y633:+j o |
  1
-:9@)+r:&:r>++-6= {rn {nmhg {noig {fkn {k {j |
  1
92:,7r:&:r>++-6= {rn {nmhf {rn {noif |
  1
<01:r,*-9><: {rn o miqmfffffffffffffh nlqj rn o o o o oqjooooooooooooookk n V V o n oqjooooooooooooookk 90-(>-; V V V V |
  1
/+36,+r:&:r>++-6= {rn {rn {rn {nohm |
  1
,+->687+r<*-): {rn nkqmffffffffffffhf miqhfffffffffffffh nlqj mqjflfhfomfkfgomff:ronl rnooo o V V |
  1
<0:;8: {rn {nmoo {nohl {nnnh {nmmi 90-(>-; {nnfj {rn |
  1
300/ {rn {rn {nohl {nmjh |
  1
/+36,+r:&:r>++-6= {rn {rn {rn {nohk |
  1
,+->687+r<*-): {rn nlqhffffffffffffgi lqjhfifnoiohohmhhn:ronj nk rmqjflfhfomfkfgomff:ronl nooo o V V |
  1
/061+ {rn nkqmfffffffffffffk rmiqmoooooooooooool nlqj |
  1
:;8: {nmgo {nnhf {nmom {nnhh {nmgn 90-(>-; |
  1
<0:;8: {rn {nogm {nnfk {nnik {nmil 90-(>-; {nnfj {rn |
  1
/+36,+r:&:r>++-6= {rn {rn {rn {nogl |
  1
):-+:' {rn {nmil {nmgm |
  1
,+->687+r<*-): {rn o rmiqmoooooooooooool nk nooo o o V V |
  1
/+36,+r:&:r>++-6= {rn {rn {rn {nogj |
  1
,+->687+r<*-): {rn rigqhoooooooooooonh rmiqhoooooooooooool nlqj rnooo ro ro V V |
  1
61+:8:-@>++-6=r1>2:@>++-6=r8:1r>++-6= {rn {rn {nogf {glg <0/& 4::/@4:/+ 6810-: h Y633:+j o |
  1
-:9@)+r:&:r>++-6= {rn {nmgl {nofo {fjf {k {j |
  1
<0:;8: {rn {nofm {nofg {nmgk {nmgj 90-(>-; {nmof {rn |
  1
300/ {rn {rn {nofg {nnjj |
  1
/+36,+r:&:r>++-6= {rn {rn {rn {nofl |
  1
):-+:' {rn {nmgj {nmgi |
  1
,+->687+r<*-): {rn njqhooooooooooook rmiqhoooooooooooool fqoooooooooooooong ro ro rnooo V V |
  1
/+36,+r:&:r>++-6= {rn {rn {rn {nofk |
  1
):-+:' {rn {nofk {nmgh |
  1
:336/,:r<*-): {rn nlqhfffffffffffffk rmiqmoooooooooooool fqoooooooooooooong o o rn oqjooooooooooooookk o o n V V |
  1
/061+ {rn nkqmfffffffffffffk rmiqmoooooooooooool fqoooooooooooooong |
  1
/+36,+r:&:r>++-6= {rn {rn {rn {noff |
  1
,+->687+r<*-): {rn igqmooooooooooookj rmiqhoooooooooooool fqoooooooooooooong o o nooo V V |
  1
:;8: {nmgg {fhm {nmhi {nnoo {nmgf 90-(>-; |
  1
<0:;8: {rn {nmfo {nmgk {nnon {nmmn 90-(>-; {nmjm {rn |
  1
:;8: {nmfn {nnok {nmhi {nmmo {nmfm 90-(>-; |
  1
/061+ {rn igqmooooooooooookj rmiqhoooooooooooool nlqj |
  1
/061+ {rn igqmooooooooooookj rmiqhoooooooooooool fqoooooooooooooong |
  1
/+36,+r:&:r>++-6= {rn {rn {rn {nnof |
  1
,+->687+r<*-): {rn igqhooooooooooookj miqhfffffffffffffh nlqj ro rnooo ro V V |
  1
:;8: {nmfl {nnnf {nmln {nnfk {nmfk 90-(>-; |
  1
/061+ {rn nlqhffffffffffffhf miqmfffffffffffffh nk |
  1
:;8: {nmfj {nnhj {nmnk {nnjg {nmfi 90-(>-; |
  1
300/ {rn {rn {nnmi {nmif |
  1
/+36,+r:&:r>++-6= {rn {rn {rn {nnmh |
  1
):-+:' {rn {nnig {nmfh |
  1
:336/,:r<*-): {rn rigqmoooooooooooonh miqmfffffffffffffh nlqj rn o o o o oqjooooooooooooookk n V V |
  1
<0:;8: {rn {nngj {nnmf {nmfo {nmfg 90-(>-; {nmlk {rn |
  1
300/ {rn {rn {nnll {nmff |
  1
/+36,+r:&:r>++-6= {rn {rn {rn {nnlo |
  1
,+->687+r<*-): {rn njqhoooooooooooolh mqolimhljlgnjjfjg:ronj nk nqmfifgfjnkhkfonj:ronl rnooo o V V |
  1
/+36,+r:&:r>++-6= {rn {rn {rn {nnln |
  1
,+->687+r<*-): {rn o miqmfffffffffffffh nk rnooo o o V V |
  1
61+:8:-@>++-6=r1>2:@>++-6=r8:1r>++-6= {rn {rn {nnlk {ghj <0/& 4::/@4:/+ 6810-: h Y633:+j o |
  1
-:9@)+r:&:r>++-6= {rn {nloo {nnlj {noog {k {j |
  1
/+36,+r:&:r>++-6= {rn {rn {rn {nnlg |
  1
,+->687+r<*-): {rn njqmooooooooooook rmiqhoooooooooooool fqoooooooooooooong nooo o o V V |
  1
/061+ {rn njqhooooooooooook rmiqhoooooooooooool fqoooooooooooooong |
  1
/+36,+r:&:r>++-6= {rn {rn {rn {nnkl |
  1
:336/,:r<*-): {rn njqhooooooooooook rmiqmoooooooooooool nlqj ro ro rn oqjooooooooooooookk o o n V V |
  1
<0:;8: {rn {nmgk {nmfo {nnkk {nmkh -:):-,:; {nmjm {rn |
  1
:;8: {nlon {nmnn {nnkh {nnkk {nlom 90-(>-; |
  1
9><: {nlol {imi {nnkj {h {rn {nlok 90-(>-; ,6183: |
  1
/061+ {rn njqhooooooooooook rmiqmoooooooooooool nk |
  1
-:9@)+r:&:r>++-6= {rn {nloj {nnkf {nonf {k {j |
  1
92:,7r:&:r>++-6= {rn {nloi {rn {nnjo |
  1
300/ {rn {rn {nmmo {nnjo |
  1
<01:r,*-9><: {rn o rmiqmoooooooooooool nlqj n o o o o roqjooooooooooooookk n V V o n oqjooooooooooooookk 90-(>-; V V V V |
  1
61+:8:-@>++-6=r1>2:@>++-6=r8:1r>++-6= {rn {rn {nnjl {gfo <0/& 4::/@4:/+ 6810-: h Y633:+j o |
  1
-:9@)+r:&:r>++-6= {rn {nloh {nnjk {noml {k {j |
  1
92:,7r:&:r>++-6= {rn {nlog {rn {nnjj |
  1
9><: {nlof {nmff {nnfj {h {rn {nlno 90-(>-; ,6183: |
  1
/3>1:r,*-9><: {rn njqmooooooooooook rmiqhoooooooooooool fqoooooooooooooong o rn o o o rnooo 90-(>-;@) V V V V |
  1
/+36,+r:&:r>++-6= {rn {rn {rn {nnjf |
  1
,+->687+r<*-): {rn nlqhfffffffffffffk rmiqhoooooooooooool fqoooooooooooooong o o nooo V V |
  1
/+36,+r:&:r>++-6= {rn {rn {rn {nnin |
  1
:336/,:r<*-): {rn rigqmoooooooooooonh miqmfffffffffffffh nlqj ro ro rn oqjooooooooooooookk o o n V V |
  1
:;8: {nlnn {nmln {nmom {nmoo {nlnm 90-(>-; |
  1
/+36,+r:&:r>++-6= {rn {rn {rn {nnii |
  1
:336/,:r<*-): {rn rigqmoooooooooooonh rmiqmoooooooooooool nlqj o n o o o oqjooooooooooooookk n V V |
  1
/+36,+r:&:r>++-6= {rn {rn {rn {nnig |
  1
:336/,:r<*-): {rn rigqmoooooooooooonh miqmfffffffffffffh nlqj o n o o o oqjooooooooooooookk n V V |
  1
92:,7r:&:r>++-6= {rn {nlnl {rn {nnif |
  1
9><: {nlnk {rn {nmmf {h {rn {nlnj 90-(>-; ,6183: |
  1
<01:r,*-9><: {rn rigqmoooooooooooonh o nlqj o rn o o o roqjooooooooooooookk n V V o n oqjooooooooooooookk 90-(>-; V V V V |
  1
/+36,+r:&:r>++-6= {rn {rn {rn {nnhl |
  1
,+->687+r<*-): {rn rigqmoooooooooooonh rmiqhoooooooooooool fqoooooooooooooong ro ro rnooo V V |
  1
/061+ {rn rigqmoooooooooooonh rmiqhoooooooooooool fqoooooooooooooong |
  1
/061+ {rn rigqmoooooooooooonh rmiqhoooooooooooool nlqj |
  1
/+36,+r:&:r>++-6= {rn {rn {rn {nngi |
  1
):-+:' {rn {nmfg {nlni |
  1
,+->687+r<*-): {rn igqmooooooooooookj o nk o nooo o V V |
  1
61+:8:-@>++-6=r1>2:@>++-6=r8:1r>++-6= {rn {rn {nngf {fkn <0/& 4::/@4:/+ 6810-: h Y633:+j o |
  1
-:9@)+r:&:r>++-6= {rn {nlnh {nnfo {noif {k {j |
  1
/+36,+r:&:r>++-6= {rn {rn {rn {nnff |
  1
:336/,:r<*-): {rn rigqmoooooooooooonh rmiqmoooooooooooool nlqj rn o o o o oqjooooooooooooookk n V V |
  1
/061+ {rn rigqmoooooooooooonh rmiqmoooooooooooool nk |
  1
61+:8:-@>++-6=r1>2:@>++-6=r8:1r>++-6= {rn {rn {nmoh {fjf <0/& 4::/@4:/+ 6810-: h Y633:+j o |
  1
<0:;8: {rn {nmmo {nmki {nmog {nmgj -:):-,:; {nmjm {rn |
  1
:;8: {nlng {nnok {nmnn {nmog {nlnf 90-(>-; |
  1
/061+ {rn njqhooooooooooook rmiqhoooooooooooool nlqj |
  1
/061+ {rn nlqhfffffffffffffk rmiqhoooooooooooool fqoooooooooooooong |
  1
/+36,+r:&:r>++-6= {rn {rn {rn {nmnf |
  1
:336/,:r<*-): {rn igqmooooooooooookj rmiqmoooooooooooool nlqj o rn o o o roqjooooooooooooookk n V V |
  1
<0:;8: {rn {nmki {nmmo {nmll {nmfg -:):-,:; {nmjm {rn |
  1
/+36,+r:&:r>++-6= {rn {rn {rn {nmmn |
  1
:336/,:r<*-): {rn igqmooooooooooookj rmiqmoooooooooooool nlqj rn o o o o oqjooooooooooooookk n V V |
  1
/+36,+r:&:r>++-6= {rn {rn {rn {nmmi |
  1
,+->687+r<*-): {rn o miqmfffffffffffffh nk rnooo o o V V |
  1
/+36,+r:&:r>++-6= {rn {rn {rn {nmmg |
  1
,+->687+r<*-): {rn rigqhoooooooooooonh rmiqhoooooooooooool fqoooooooooooooong nooo o o V V |
  1
/061+ {rn rigqmoooooooooooonh miqmfffffffffffffh nk |
  1
:;8: {nlmo {nnkh {nmhi {nmll {nlmn 90-(>-; |
  1
9><: {nlmm {fi {nmlk {h {rn {nlml 90-(>-; ,6183: |
  1
61+:8:-@>++-6=r1>2:@>++-6=r8:1r>++-6= {rn {rn {nmko {noog <0/& 4::/@4:/+ 6810-: h Y633:+j o |
  1
/+36,+r:&:r>++-6= {rn {rn {rn {nmkh |
  1
:336/,:r<*-): {rn njqhooooooooooook rmiqmoooooooooooool nlqj rn o o o o oqjooooooooooooookk n V V |
  1
92:,7r:&:r>++-6= {rn {nlmk {rn {nmkg |
  1
,/7:-:r,*-9><: {rn njqhooooooooooook rmiqmoooooooooooool nlqj oqj n o o o o n 90-(>-;@) V V V V |
  1
61+:8:-@>++-6=r1>2:@>++-6=r8:1r>++-6= {rn {rn {nmjo {nonf <0/& 4::/@4:/+ 6810-: h Y633:+j o |
  1
-:9@)+r:&:r>++-6= {rn {nlmj {nmjn {nnjo {k {j |
  1
61+:8:-@>++-6=r1>2:@>++-6=r8:1r>++-6= {rn {rn {nmjj {noml <0/& 4::/@4:/+ 6810-: h Y633:+j o |
  1
-:9@)+r:&:r>++-6= {rn {nlmi {nmji {nnjj {k {j |
  1
92:,7r:&:r>++-6= {rn {nlmh {rn {nmjh |
  1
/3>1:r,*-9><: {rn o o nk o o n nooo o o 90-(>-;@) V V V V |
  1
/+36,+r:&:r>++-6= {rn {rn {rn {nmil |
  1
,+->687+r<*-): {rn rigqmoooooooooooonh o nk o rnooo o V V |
  1
-:9@)+r:&:r>++-6= {rn {nlmg {nmig {nnif {k {j |
  1
92:,7r:&:r>++-6= {rn {nlmf {rn {nmif |
  1
,/7:-:r,*-9><: {rn rigqmoooooooooooonh miqmfffffffffffffh nlqj oqj n o o o o n 90-(>-;@) V V V V |
  1
/061+ {rn igqmooooooooooookj rmiqmoooooooooooool nk |
  1
61+:8:-@>++-6=r1>2:@>++-6=r8:1r>++-6= {rn {rn {nmhf {noif <0/& 4::/@4:/+ 6810-: h Y633:+j o |
  1
/+36,+r:&:r>++-6= {rn {rn {rn {nmgj |
  1
,+->687+r<*-): {rn njqmooooooooooook rmiqhoooooooooooool nlqj rnooo ro ro V V |
  1
/+36,+r:&:r>++-6= {rn {rn {rn {nmfg |
  1
,+->687+r<*-): {rn o rmiqmoooooooooooool nk nooo o o V V |
  1
92:,7r:&:r>++-6= {rn {nllo {rn {nmff |
  1
/3>1:r,*-9><: {rn o o nk o o n nooo o o 90-(>-;@) V V V V |
  1
-:9@)+r:&:r>++-6= {rn {nlln {nlol {nmkg {k {j |
  1
61+:8:-@>++-6=r1>2:@>++-6=r8:1r>++-6= {rn {rn {nloi {nnjo <0/& 4::/@4:/+ 6810-: h Y633:+j o |
  1
61+:8:-@>++-6=r1>2:@>++-6=r8:1r>++-6= {rn {rn {nlog {nnjj <0/& 4::/@4:/+ 6810-: h Y633:+j o |
  1
-:9@)+r:&:r>++-6= {rn {nllm {nlof {nmjh {k {j |
  1
61+:8:-@>++-6=r1>2:@>++-6=r8:1r>++-6= {rn {rn {nlnl {nnif <0/& 4::/@4:/+ 6810-: h Y633:+j o |
  1
-:9@)+r:&:r>++-6= {rn {nlll {nlnk {nmif {k {j |
  1
-:9@)+r:&:r>++-6= {rn {nllk {nlmm {nmff {k {j |
  1
61+:8:-@>++-6=r1>2:@>++-6=r8:1r>++-6= {rn {rn {nlmk {nmkg <0/& 4::/@4:/+ 6810-: h Y633:+j o |
  1
61+:8:-@>++-6=r1>2:@>++-6=r8:1r>++-6= {rn {rn {nlmh {nmjh <0/& 4::/@4:/+ 6810-: h Y633:+j o |
  1
61+:8:-@>++-6=r1>2:@>++-6=r8:1r>++-6= {rn {rn {nlmf {nmif <0/& 4::/@4:/+ 6810-: h Y633:+j o |
  1
61+:8:-@>++-6=r1>2:@>++-6=r8:1r>++-6= {rn {rn {nllo {nmff <0/& 4::/@4:/+ 6810-: h Y633:+j o |
1001
ACAD_OBJECT_CHANGE_GUID
1070
     1
1071
-160080503
1070
 23390
1070
 18797
1070
   168
1070
   247
1070
   231
1070
   235
1070
   198
1070
   112
1070
   116
1070
   243
  0
ENDSEC
  0
SECTION
  2
OBJECTS
  0
DICTIONARY
  5
C
330
0
100
AcDbDictionary
281
     1
  3
ACAD_2007HEADERVARS_RT
350
1146
  3
ACAD_BACKGROUND
350
10D0
  3
ACAD_CIP_PREVIOUS_PRODUCT_INFO
350
10B9
  3
ACAD_COLOR
350
EE6
  3
ACAD_DETAILVIEWSTYLE
350
10B1
  3
ACAD_GROUP
350
D
  3
ACAD_LAYOUT
350
1A
  3
ACAD_MATERIAL
350
EE5
  3
ACAD_MLEADERSTYLE
350
10AD
  3
ACAD_MLINESTYLE
350
17
  3
ACAD_PLOTSETTINGS
350
19
  3
ACAD_PLOTSTYLENAME
350
E
  3
ACAD_SCALELIST
350
109B
  3
ACAD_SECTIONVIEWSTYLE
350
10AF
  3
ACAD_TABLESTYLE
350
EE7
  3
ACAD_VISUALSTYLE
350
1082
  3
ACDB_RECOMPOSE_DATA
350
1144
  3
AcDbVariableDictionary
350
3D
  3
ASE_INDEX_DICTIONARY
350
1066
  3
DWGPROPS
350
1145
  0
DICTIONARY
  5
1051
330
2
100
AcDbDictionary
280
     1
281
     1
  3
ACAD_LAYERFILTERS
360
1065
  3
ACLYDICTIONARY
360
1064
  0
DICTIONARY
  5
10D3
330
10
100
AcDbDictionary
280
     1
281
     1
  3
ADSK_XREC_LAYER_RECONCILED
360
10D4
  0
DICTIONARY
  5
10D5
330
2F
100
AcDbDictionary
280
     1
281
     1
  3
ADSK_XREC_LAYER_RECONCILED
360
10D6
  0
DICTIONARY
  5
10D7
330
30
100
AcDbDictionary
280
     1
281
     1
  3
ADSK_XREC_LAYER_RECONCILED
360
10D8
  0
DICTIONARY
  5
10D9
330
31
100
AcDbDictionary
280
     1
281
     1
  3
ADSK_XREC_LAYER_RECONCILED
360
10DA
  0
DICTIONARY
  5
10DB
330
32
100
AcDbDictionary
280
     1
281
     1
  3
ADSK_XREC_LAYER_RECONCILED
360
10DC
  0
DICTIONARY
  5
10DD
330
33
100
AcDbDictionary
280
     1
281
     1
  3
ADSK_XREC_LAYER_RECONCILED
360
10DE
  0
DICTIONARY
  5
10DF
330
34
100
AcDbDictionary
280
     1
281
     1
  3
ADSK_XREC_LAYER_RECONCILED
360
10E0
  0
DICTIONARY
  5
10E1
330
35
100
AcDbDictionary
280
     1
281
     1
  3
ADSK_XREC_LAYER_RECONCILED
360
10E2
  0
DICTIONARY
  5
10E3
330
36
100
AcDbDictionary
280
     1
281
     1
  3
ADSK_XREC_LAYER_RECONCILED
360
10E4
  0
DICTIONARY
  5
10E5
330
37
100
AcDbDictionary
280
     1
281
     1
  3
ADSK_XREC_LAYER_RECONCILED
360
10E6
  0
DICTIONARY
  5
10E7
330
5D6
100
AcDbDictionary
280
     1
281
     1
  3
ADSK_XREC_LAYER_RECONCILED
360
10E8
  0
DICTIONARY
  5
10E9
330
8AF
100
AcDbDictionary
280
     1
281
     1
  3
ADSK_XREC_LAYER_RECONCILED
360
10EA
  0
DICTIONARY
  5
10EB
330
8F8
100
AcDbDictionary
280
     1
281
     1
  3
ADSK_XREC_LAYER_RECONCILED
360
10EC
  0
DICTIONARY
  5
10ED
330
91D
100
AcDbDictionary
280
     1
281
     1
  3
ADSK_XREC_LAYER_RECONCILED
360
10EE
  0
DICTIONARY
  5
10EF
330
C7B
100
AcDbDictionary
280
     1
281
     1
  3
ADSK_XREC_LAYER_RECONCILED
360
10F0
  0
DICTIONARY
  5
10F1
330
1060
100
AcDbDictionary
280
     1
281
     1
  3
ADSK_XREC_LAYER_RECONCILED
360
10F2
  0
DICTIONARY
  5
1146
102
{ACAD_REACTORS
330
C
102
}
330
C
100
AcDbDictionary
281
     1
  3
DIMJOGANG
350
1147
  0
DICTIONARY
  5
10D0
102
{ACAD_REACTORS
330
C
102
}
330
C
100
AcDbDictionary
281
     1
  0
XRECORD
  5
10B9
102
{ACAD_REACTORS
330
C
102
}
330
C
100
AcDbXrecord
280
     1
300
ACD
300
2013
300
ACD_F_S
  0
DICTIONARY
  5
EE6
102
{ACAD_REACTORS
330
C
102
}
330
C
100
AcDbDictionary
281
     1
  0
DICTIONARY
  5
10B1
102
{ACAD_REACTORS
330
C
102
}
330
C
100
AcDbDictionary
281
     1
  3
Metric50
350
10B2
  0
DICTIONARY
  5
D
102
{ACAD_REACTORS
330
C
102
}
330
C
100
AcDbDictionary
281
     1
  0
DICTIONARY
  5
1A
102
{ACAD_REACTORS
330
C
102
}
330
C
100
AcDbDictionary
281
     1
  3
Layout1
350
1E
  3
Layout2
350
26
  3
Model
350
22
  0
DICTIONARY
  5
EE5
102
{ACAD_REACTORS
330
C
102
}
330
C
100
AcDbDictionary
281
     1
  3
ByBlock
350
1072
  3
ByLayer
350
106A
  3
Global
350
107A
  0
DICTIONARY
  5
10AD
102
{ACAD_REACTORS
330
C
102
}
330
C
100
AcDbDictionary
281
     1
  3
Standard
350
10AE
  0
DICTIONARY
  5
17
102
{ACAD_REACTORS
330
C
102
}
330
C
100
AcDbDictionary
281
     1
  3
Standard
350
18
  0
DICTIONARY
  5
19
102
{ACAD_REACTORS
330
C
102
}
330
C
100
AcDbDictionary
281
     1
  0
ACDBDICTIONARYWDFLT
  5
E
102
{ACAD_REACTORS
330
C
102
}
330
C
100
AcDbDictionary
281
     1
  3
Normal
350
F
100
AcDbDictionaryWithDefault
340
F
  0
DICTIONARY
  5
109B
102
{ACAD_REACTORS
330
C
102
}
330
C
100
AcDbDictionary
281
     1
  3
A0
350
109C
  3
A1
350
109D
  3
A2
350
109E
  3
A3
350
109F
  3
A4
350
10A0
  3
A5
350
10A1
  3
A6
350
10A2
  3
A7
350
10A3
  3
A8
350
10A4
  3
A9
350
10A5
  3
B0
350
10A6
  3
B1
350
10A7
  3
B2
350
10A8
  3
B3
350
10A9
  3
B4
350
10AA
  3
B5
350
10AB
  3
B6
350
10AC
  0
DICTIONARY
  5
10AF
102
{ACAD_REACTORS
330
C
102
}
330
C
100
AcDbDictionary
281
     1
  3
Metric50
350
10B0
  0
DICTIONARY
  5
EE7
102
{ACAD_REACTORS
330
C
102
}
330
C
100
AcDbDictionary
281
     1
  3
Standard
350
EE8
  0
DICTIONARY
  5
1082
102
{ACAD_REACTORS
330
C
102
}
330
C
100
AcDbDictionary
281
     1
  3
*A1
350
10CD
  3
2dWireframe
350
1088
  3
Basic
350
1087
  3
Brighten
350
108E
  3
ColorChange
350
1092
  3
Conceptual
350
108B
  3
Dim
350
108D
  3
EdgeColorOff
350
109A
  3
Facepattern
350
1091
  3
Flat
350
1083
  3
FlatWithEdges
350
1084
  3
Gouraud
350
1085
  3
GouraudWithEdges
350
1086
  3
Hidden
350
108A
  3
JitterOff
350
1098
  3
Linepattern
350
1090
  3
OverhangOff
350
1099
  3
Realistic
350
108C
  3
Shaded
350
1097
  3
Shaded with edges
350
1096
  3
Shades of Gray
350
1093
  3
Sketchy
350
1094
  3
Thicken
350
108F
  3
Wireframe
350
1089
  3
X-Ray
350
1095
  0
XRECORD
  5
1144
102
{ACAD_REACTORS
330
C
102
}
330
C
100
AcDbXrecord
280
     1
 90
        1
330
EE8
  0
DICTIONARY
  5
3D
102
{ACAD_REACTORS
330
C
102
}
330
C
100
AcDbDictionary
281
     1
  3
CANNOSCALE
350
10C1
  3
CMLEADERSTYLE
350
10BD
  3
CTABLESTYLE
350
1049
  3
CVIEWDETAILSTYLE
350
10BE
  3
CVIEWSECTIONSTYLE
350
10BF
  3
DIMASSOC
350
3F
  3
HIDETEXT
350
3E
  3
INDEXCTL
350
1140
  3
LAYEREVAL
350
10C3
  3
LAYERNOTIFY
350
10C4
  3
LIGHTINGUNITS
350
10C2
  3
MSLTSCALE
350
10C0
  3
SORTENTS
350
113F
  3
XCLIPFRAME
350
1141
  0
DICTIONARY
  5
1066
102
{ACAD_REACTORS
330
C
102
}
330
C
100
AcDbDictionary
281
     1
  3
ASEBlockHierarchyIndexRecord
350
1067
1001
DCO15
1040
1602247867.484
  0
XRECORD
  5
1145
102
{ACAD_REACTORS
330
C
102
}
330
C
100
AcDbXrecord
280
     1
  1
DWGPROPS COOKIE
  2

  3

  4

  6

  7

  8
Julio
  9

300
=
301
=
302
=
303
=
304
=
305
=
306
=
307
=
308
=
309
=
 40
0.0016682060185185
 41
2458730.578005591
 42
2458730.579673599
  1

 90
        0
  0
DICTIONARY
  5
1065
102
{ACAD_REACTORS
330
1051
102
}
330
1051
100
AcDbDictionary
281
     1
  0
DICTIONARY
  5
1064
102
{ACAD_REACTORS
330
1051
102
}
330
1051
100
AcDbDictionary
281
     1
1001
ACAD
1000
<All
  0
XRECORD
  5
10D4
102
{ACAD_REACTORS
330
10D3
102
}
330
10D3
100
AcDbXrecord
280
     1
290
     1
  0
XRECORD
  5
10D6
102
{ACAD_REACTORS
330
10D5
102
}
330
10D5
100
AcDbXrecord
280
     1
290
     1
  0
XRECORD
  5
10D8
102
{ACAD_REACTORS
330
10D7
102
}
330
10D7
100
AcDbXrecord
280
     1
290
     1
  0
XRECORD
  5
10DA
102
{ACAD_REACTORS
330
10D9
102
}
330
10D9
100
AcDbXrecord
280
     1
290
     1
  0
XRECORD
  5
10DC
102
{ACAD_REACTORS
330
10DB
102
}
330
10DB
100
AcDbXrecord
280
     1
290
     1
  0
XRECORD
  5
10DE
102
{ACAD_REACTORS
330
10DD
102
}
330
10DD
100
AcDbXrecord
280
     1
290
     1
  0
XRECORD
  5
10E0
102
{ACAD_REACTORS
330
10DF
102
}
330
10DF
100
AcDbXrecord
280
     1
290
     1
  0
XRECORD
  5
10E2
102
{ACAD_REACTORS
330
10E1
102
}
330
10E1
100
AcDbXrecord
280
     1
290
     1
  0
XRECORD
  5
10E4
102
{ACAD_REACTORS
330
10E3
102
}
330
10E3
100
AcDbXrecord
280
     1
290
     1
  0
XRECORD
  5
10E6
102
{ACAD_REACTORS
330
10E5
102
}
330
10E5
100
AcDbXrecord
280
     1
290
     1
  0
XRECORD
  5
10E8
102
{ACAD_REACTORS
330
10E7
102
}
330
10E7
100
AcDbXrecord
280
     1
290
     1
  0
XRECORD
  5
10EA
102
{ACAD_REACTORS
330
10E9
102
}
330
10E9
100
AcDbXrecord
280
     1
290
     1
  0
XRECORD
  5
10EC
102
{ACAD_REACTORS
330
10EB
102
}
330
10EB
100
AcDbXrecord
280
     1
290
     1
  0
XRECORD
  5
10EE
102
{ACAD_REACTORS
330
10ED
102
}
330
10ED
100
AcDbXrecord
280
     1
290
     1
  0
XRECORD
  5
10F0
102
{ACAD_REACTORS
330
10EF
102
}
330
10EF
100
AcDbXrecord
280
     1
290
     1
  0
XRECORD
  5
10F2
102
{ACAD_REACTORS
330
10F1
102
}
330
10F1
100
AcDbXrecord
280
     1
290
     1
  0
XRECORD
  5
1147
102
{ACAD_REACTORS
330
1146
102
}
330
1146
100
AcDbXrecord
280
     1
 40
1.570796326794896
  0
ACDBDETAILVIEWSTYLE
  5
10B2
102
{ACAD_REACTORS
330
10B1
102
}
330
10B1
100
AcDbModelDocViewStyle
 70
     0
  3
Metric50
290
     0
100
AcDbDetailViewStyle
 70
     0
 71
     0
 90
        3
 71
     1
340
11
 40
5.0
340
0
 40
5.0
300

 40
0.0
280
     1
 71
     2
340
16
 90
       25
 71
     3
340
11
 40
5.0
 90
        0
 40
15.0
 90
        1
300
%<\AcVar ViewDetailId>% (%<\AcVar ViewScale \f "%sn">%)
 71
     4
340
16
 90
       25
340
16
 90
       25
280
     0
  0
LAYOUT
  5
1E
102
{ACAD_XDICTIONARY
360
1148
102
}
102
{ACAD_REACTORS
330
1A
102
}
330
1A
100
AcDbPlotSettings
  1

  2
Ploter HP500
  4

  6

 40
0.0
 41
0.0
 42
0.0
 43
0.0
 44
0.0
 45
0.0
 46
0.0
 47
0.0
 48
0.0
 49
0.0
140
0.0
141
0.0
142
1.0
143
1.0
 70
   688
 72
     0
 73
     0
 74
     5
  7
sanindusa.ctb
 75
    16
147
1.0
148
0.0
149
0.0
100
AcDbLayout
  1
Layout1
 70
     1
 71
     1
 10
0.0
 20
0.0
 11
420.0
 21
297.0
 12
0.0
 22
0.0
 32
0.0
 14
1.000000000000000E+20
 24
1.000000000000000E+20
 34
1.000000000000000E+20
 15
-1.000000000000000E+20
 25
-1.000000000000000E+20
 35
-1.000000000000000E+20
146
0.0
 13
0.0
 23
0.0
 33
0.0
 16
1.0
 26
0.0
 36
0.0
 17
0.0
 27
1.0
 37
0.0
 76
     0
330
1B
  0
LAYOUT
  5
26
102
{ACAD_XDICTIONARY
360
114C
102
}
102
{ACAD_REACTORS
330
1A
102
}
330
1A
100
AcDbPlotSettings
  1

  2
Ploter HP500
  4

  6

 40
0.0
 41
0.0
 42
0.0
 43
0.0
 44
0.0
 45
0.0
 46
0.0
 47
0.0
 48
0.0
 49
0.0
140
0.0
141
0.0
142
1.0
143
1.0
 70
   688
 72
     0
 73
     0
 74
     5
  7
sanindusa.ctb
 75
    16
147
1.0
148
0.0
149
0.0
100
AcDbLayout
  1
Layout2
 70
     1
 71
     2
 10
0.0
 20
0.0
 11
12.0
 21
9.0
 12
0.0
 22
0.0
 32
0.0
 14
0.0
 24
0.0
 34
0.0
 15
0.0
 25
0.0
 35
0.0
146
0.0
 13
0.0
 23
0.0
 33
0.0
 16
1.0
 26
0.0
 36
0.0
 17
0.0
 27
1.0
 37
0.0
 76
     0
330
23
  0
LAYOUT
  5
22
102
{ACAD_XDICTIONARY
360
114A
102
}
102
{ACAD_REACTORS
330
1A
102
}
330
1A
100
AcDbPlotSettings
  1

  2
Ploter HP500
  4
User268
  6

 40
4.995333194732666
 41
16.97565841674804
 42
4.995330810546875
 43
16.97567749023437
 44
209.9733276367187
 45
296.9259948730469
 46
0.0
 47
0.0
 48
0.0
 49
0.0
140
0.0
141
0.0
142
1.0
143
1.0
 70
 11952
 72
     1
 73
     1
 74
     0
  7
sanindusa.ctb
 75
     0
147
1.0
148
-427.5957866592534
149
7.362384574453926
100
AcDbLayout
  1
Model
 70
     1
 71
     0
 10
0.0
 20
0.0
 11
12.0
 21
9.0
 12
0.0
 22
0.0
 32
0.0
 14
0.0
 24
0.0
 34
0.0
 15
0.0
 25
0.0
 35
0.0
146
0.0
 13
0.0
 23
0.0
 33
0.0
 16
1.0
 26
0.0
 36
0.0
 17
0.0
 27
1.0
 37
0.0
 76
     0
330
1F
331
1068
  0
MATERIAL
  5
1072
102
{ACAD_XDICTIONARY
360
1073
102
}
102
{ACAD_REACTORS
330
EE5
102
}
330
EE5
100
AcDbMaterial
  1
ByBlock
 72
     0
 43
0.0008202099737533
 43
0.0
 43
0.0
 43
0.0
 43
0.0
 43
0.0008202099737533
 43
0.0
 43
0.0
 43
0.0
 43
0.0
 43
1.0
 43
0.0
 43
0.0
 43
0.0
 43
0.0
 43
1.0
 77
     0
 47
0.0008202099737533
 47
0.0
 47
0.0
 47
0.0
 47
0.0
 47
0.0008202099737533
 47
0.0
 47
0.0
 47
0.0
 47
0.0
 47
1.0
 47
0.0
 47
0.0
 47
0.0
 47
0.0
 47
1.0
171
     0
 49
0.0008202099737533
 49
0.0
 49
0.0
 49
0.0
 49
0.0
 49
0.0008202099737533
 49
0.0
 49
0.0
 49
0.0
 49
0.0
 49
1.0
 49
0.0
 49
0.0
 49
0.0
 49
0.0
 49
1.0
175
     0
142
0.0008202099737533
142
0.0
142
0.0
142
0.0
142
0.0
142
0.0008202099737533
142
0.0
142
0.0
142
0.0
142
0.0
142
1.0
142
0.0
142
0.0
142
0.0
142
0.0
142
1.0
179
     0
144
0.0008202099737533
144
0.0
144
0.0
144
0.0
144
0.0
144
0.0008202099737533
144
0.0
144
0.0
144
0.0
144
0.0
144
1.0
144
0.0
144
0.0
144
0.0
144
0.0
144
1.0
147
0.0008202099737533
147
0.0
147
0.0
147
0.0
147
0.0
147
0.0008202099737533
147
0.0
147
0.0
147
0.0
147
0.0
147
1.0
147
0.0
147
0.0
147
0.0
147
0.0
147
1.0
  0
MATERIAL
  5
106A
102
{ACAD_XDICTIONARY
360
106B
102
}
102
{ACAD_REACTORS
330
EE5
102
}
330
EE5
100
AcDbMaterial
  1
ByLayer
 72
     0
 43
0.0008202099737533
 43
0.0
 43
0.0
 43
0.0
 43
0.0
 43
0.0008202099737533
 43
0.0
 43
0.0
 43
0.0
 43
0.0
 43
1.0
 43
0.0
 43
0.0
 43
0.0
 43
0.0
 43
1.0
 77
     0
 47
0.0008202099737533
 47
0.0
 47
0.0
 47
0.0
 47
0.0
 47
0.0008202099737533
 47
0.0
 47
0.0
 47
0.0
 47
0.0
 47
1.0
 47
0.0
 47
0.0
 47
0.0
 47
0.0
 47
1.0
171
     0
 49
0.0008202099737533
 49
0.0
 49
0.0
 49
0.0
 49
0.0
 49
0.0008202099737533
 49
0.0
 49
0.0
 49
0.0
 49
0.0
 49
1.0
 49
0.0
 49
0.0
 49
0.0
 49
0.0
 49
1.0
175
     0
142
0.0008202099737533
142
0.0
142
0.0
142
0.0
142
0.0
142
0.0008202099737533
142
0.0
142
0.0
142
0.0
142
0.0
142
1.0
142
0.0
142
0.0
142
0.0
142
0.0
142
1.0
179
     0
144
0.0008202099737533
144
0.0
144
0.0
144
0.0
144
0.0
144
0.0008202099737533
144
0.0
144
0.0
144
0.0
144
0.0
144
1.0
144
0.0
144
0.0
144
0.0
144
0.0
144
1.0
147
0.0008202099737533
147
0.0
147
0.0
147
0.0
147
0.0
147
0.0008202099737533
147
0.0
147
0.0
147
0.0
147
0.0
147
1.0
147
0.0
147
0.0
147
0.0
147
0.0
147
1.0
  0
MATERIAL
  5
107A
102
{ACAD_XDICTIONARY
360
107B
102
}
102
{ACAD_REACTORS
330
EE5
102
}
330
EE5
100
AcDbMaterial
  1
Global
 72
     0
 43
0.0008202099737533
 43
0.0
 43
0.0
 43
0.0
 43
0.0
 43
0.0008202099737533
 43
0.0
 43
0.0
 43
0.0
 43
0.0
 43
1.0
 43
0.0
 43
0.0
 43
0.0
 43
0.0
 43
1.0
 77
     0
 47
0.0008202099737533
 47
0.0
 47
0.0
 47
0.0
 47
0.0
 47
0.0008202099737533
 47
0.0
 47
0.0
 47
0.0
 47
0.0
 47
1.0
 47
0.0
 47
0.0
 47
0.0
 47
0.0
 47
1.0
171
     0
 49
0.0008202099737533
 49
0.0
 49
0.0
 49
0.0
 49
0.0
 49
0.0008202099737533
 49
0.0
 49
0.0
 49
0.0
 49
0.0
 49
1.0
 49
0.0
 49
0.0
 49
0.0
 49
0.0
 49
1.0
175
     0
142
0.0008202099737533
142
0.0
142
0.0
142
0.0
142
0.0
142
0.0008202099737533
142
0.0
142
0.0
142
0.0
142
0.0
142
1.0
142
0.0
142
0.0
142
0.0
142
0.0
142
1.0
179
     0
144
0.0008202099737533
144
0.0
144
0.0
144
0.0
144
0.0
144
0.0008202099737533
144
0.0
144
0.0
144
0.0
144
0.0
144
1.0
144
0.0
144
0.0
144
0.0
144
0.0
144
1.0
147
0.0008202099737533
147
0.0
147
0.0
147
0.0
147
0.0
147
0.0008202099737533
147
0.0
147
0.0
147
0.0
147
0.0
147
1.0
147
0.0
147
0.0
147
0.0
147
0.0
147
1.0
  0
MLEADERSTYLE
  5
10AE
102
{ACAD_XDICTIONARY
360
1183
102
}
102
{ACAD_REACTORS
330
10AD
102
}
330
10AD
100
AcDbMLeaderStyle
170
     2
171
     1
172
     0
 90
        2
 40
0.0
 41
0.0
173
     1
 91
-1056964608
340
14
 92
       -2
290
     1
 42
2.0
291
     1
 43
0.36
  3
Standard
 44
4.0
300

342
11
174
     1
178
     6
175
     1
176
     0
 93
-1056964608
 45
4.0
292
     0
297
     0
 46
4.0
 94
-1056964608
 47
1.0
 49
1.0
140
1.0
293
     1
141
0.0
294
     1
177
     0
142
1.0
295
     0
296
     0
143
0.125
1001
ACAD_MLEADERVER
1070
     2
  0
MLINESTYLE
  5
18
102
{ACAD_REACTORS
330
17
102
}
330
17
100
AcDbMlineStyle
  2
STANDARD
 70
     0
  3

 62
   256
 51
90.0
 52
90.0
 71
     2
 49
0.5
 62
   256
  6
BYLAYER
 49
-0.5
 62
   256
  6
BYLAYER
  0
ACDBPLACEHOLDER
  5
F
102
{ACAD_REACTORS
330
E
102
}
330
E
  0
SCALE
  5
109C
102
{ACAD_REACTORS
330
109B
102
}
330
109B
100
AcDbScale
 70
     0
300
1:1
140
1.0
141
1.0
290
     1
  0
SCALE
  5
109D
102
{ACAD_REACTORS
330
109B
102
}
330
109B
100
AcDbScale
 70
     0
300
1:2
140
1.0
141
2.0
290
     0
  0
SCALE
  5
109E
102
{ACAD_REACTORS
330
109B
102
}
330
109B
100
AcDbScale
 70
     0
300
1:4
140
1.0
141
4.0
290
     0
  0
SCALE
  5
109F
102
{ACAD_REACTORS
330
109B
102
}
330
109B
100
AcDbScale
 70
     0
300
1:5
140
1.0
141
5.0
290
     0
  0
SCALE
  5
10A0
102
{ACAD_REACTORS
330
109B
102
}
330
109B
100
AcDbScale
 70
     0
300
1:8
140
1.0
141
8.0
290
     0
  0
SCALE
  5
10A1
102
{ACAD_REACTORS
330
109B
102
}
330
109B
100
AcDbScale
 70
     0
300
1:10
140
1.0
141
10.0
290
     0
  0
SCALE
  5
10A2
102
{ACAD_REACTORS
330
109B
102
}
330
109B
100
AcDbScale
 70
     0
300
1:16
140
1.0
141
16.0
290
     0
  0
SCALE
  5
10A3
102
{ACAD_REACTORS
330
109B
102
}
330
109B
100
AcDbScale
 70
     0
300
1:20
140
1.0
141
20.0
290
     0
  0
SCALE
  5
10A4
102
{ACAD_REACTORS
330
109B
102
}
330
109B
100
AcDbScale
 70
     0
300
1:30
140
1.0
141
30.0
290
     0
  0
SCALE
  5
10A5
102
{ACAD_REACTORS
330
109B
102
}
330
109B
100
AcDbScale
 70
     0
300
1:40
140
1.0
141
40.0
290
     0
  0
SCALE
  5
10A6
102
{ACAD_REACTORS
330
109B
102
}
330
109B
100
AcDbScale
 70
     0
300
1:50
140
1.0
141
50.0
290
     0
  0
SCALE
  5
10A7
102
{ACAD_REACTORS
330
109B
102
}
330
109B
100
AcDbScale
 70
     0
300
1:100
140
1.0
141
100.0
290
     0
  0
SCALE
  5
10A8
102
{ACAD_REACTORS
330
109B
102
}
330
109B
100
AcDbScale
 70
     0
300
2:1
140
2.0
141
1.0
290
     0
  0
SCALE
  5
10A9
102
{ACAD_REACTORS
330
109B
102
}
330
109B
100
AcDbScale
 70
     0
300
4:1
140
4.0
141
1.0
290
     0
  0
SCALE
  5
10AA
102
{ACAD_REACTORS
330
109B
102
}
330
109B
100
AcDbScale
 70
     0
300
8:1
140
8.0
141
1.0
290
     0
  0
SCALE
  5
10AB
102
{ACAD_REACTORS
330
109B
102
}
330
109B
100
AcDbScale
 70
     0
300
10:1
140
10.0
141
1.0
290
     0
  0
SCALE
  5
10AC
102
{ACAD_REACTORS
330
109B
102
}
330
109B
100
AcDbScale
 70
     0
300
100:1
140
100.0
141
1.0
290
     0
  0
ACDBSECTIONVIEWSTYLE
  5
10B0
102
{ACAD_REACTORS
330
10AF
102
}
330
10AF
100
AcDbModelDocViewStyle
 70
     0
  3
Metric50
290
     0
100
AcDbSectionViewStyle
 70
     0
 71
     0
 90
      102
 71
     1
340
11
 40
5.0
340
0
340
0
 40
5.0
300
I, O, Q, S, X, Z
 40
10.0
 90
        0
 40
2.5
 90
        0
 71
     2
340
16
 90
       25
340
16
 90
       50
 40
5.0
 40
2.5
 40
5.0
 71
     3
340
11
 40
5.0
 90
        0
 40
15.0
 90
        1
300
%<\AcVar ViewSectionStartId>%-%<\AcVar ViewSectionEndId>% (%<\AcVar ViewScale \f "%sn">%)
 71
     4
300
ANSI31
 40
1.0
 90
        0
290
     0
290
     0
 90
        6
 40
0.0
 40
1.570796326794896
 40
0.2617993877991494
 40
1.308996938995747
 40
-0.2617993877991494
 40
1.832595714594046
  0
TABLESTYLE
  5
EE8
102
{ACAD_XDICTIONARY
360
1142
102
}
102
{ACAD_REACTORS
330
EE7
102
}
330
EE7
100
AcDbTableStyle
  3
Standard
 70
     0
 71
     0
 40
1.5
 41
1.5
280
     0
281
     0
  7
Standard
140
4.5
170
     2
 62
     0
 63
     7
283
     0
274
    -2
284
     1
 64
     0
275
    -2
285
     1
 65
     0
276
    -2
286
     1
 66
     0
277
    -2
287
     1
 67
     0
278
    -2
288
     1
 68
     0
279
    -2
289
     1
 69
     0
  7
Standard
140
6.0
170
     5
 62
     0
 63
     7
283
     0
274
    -2
284
     1
 64
     0
275
    -2
285
     1
 65
     0
276
    -2
286
     1
 66
     0
277
    -2
287
     1
 67
     0
278
    -2
288
     1
 68
     0
279
    -2
289
     1
 69
     0
  7
Standard
140
4.5
170
     5
 62
     0
 63
     7
283
     0
274
    -2
284
     1
 64
     0
275
    -2
285
     1
 65
     0
276
    -2
286
     1
 66
     0
277
    -2
287
     1
 67
     0
278
    -2
288
     1
 68
     0
279
    -2
289
     1
 69
     0
  0
VISUALSTYLE
  5
10CD
102
{ACAD_XDICTIONARY
360
10CE
102
}
102
{ACAD_REACTORS
330
1082
102
}
330
1082
100
AcDbVisualStyle
  2
*
 70
    10
 71
     2
 72
     2
 73
     1
 90
        2
 40
-0.6
 41
30.0
 62
     5
 63
     7
 74
     0
 91
        0
 64
     7
 65
   257
 75
     1
175
     1
 42
1.0
 92
        8
 66
     7
 43
1.0
 76
     1
 77
     6
 78
     2
 67
     7
 79
     5
170
     0
171
     0
290
     0
174
     0
 93
        1
 44
0.0
173
     0
291
     0
 45
0.0
1001
ACAD
1000
AcDbSavedByObjectVersion
1070
     0
  0
VISUALSTYLE
  5
1088
102
{ACAD_XDICTIONARY
360
115C
102
}
102
{ACAD_REACTORS
330
1082
102
}
330
1082
100
AcDbVisualStyle
  2
2dWireframe
 70
     4
 71
     0
 72
     2
 73
     0
 90
        0
 40
-0.6
 41
-30.0
 62
     5
 63
     7
 74
     1
 91
        4
 64
     7
 65
   257
 75
     1
175
     1
 42
1.0
 92
        0
 66
   257
 43
1.0
 76
     1
 77
     6
 78
     2
 67
     7
 79
     5
170
     0
171
     0
290
     0
174
     0
 93
        1
 44
0.0
173
     0
291
     0
 45
0.0
1001
ACAD
1000
AcDbSavedByObjectVersion
1070
     0
  0
VISUALSTYLE
  5
1087
102
{ACAD_XDICTIONARY
360
115A
102
}
102
{ACAD_REACTORS
330
1082
102
}
330
1082
100
AcDbVisualStyle
  2
Basic
 70
     7
 71
     1
 72
     0
 73
     1
 90
        0
 40
-0.6
 41
-30.0
 62
     5
 63
     7
 74
     0
 91
        4
 64
     7
 65
   257
 75
     1
175
     1
 42
1.0
 92
        8
 66
     7
 43
1.0
 76
     1
 77
     6
 78
     2
 67
     7
 79
     5
170
     0
171
     0
290
     0
174
     0
 93
        1
 44
0.0
173
     0
291
     1
 45
0.0
1001
ACAD
1000
AcDbSavedByObjectVersion
1070
     0
  0
VISUALSTYLE
  5
108E
102
{ACAD_XDICTIONARY
360
1168
102
}
102
{ACAD_REACTORS
330
1082
102
}
330
1082
100
AcDbVisualStyle
  2
Brighten
 70
    12
 71
     2
 72
     2
 73
     0
 90
        0
 40
-0.6
 41
-30.0
 62
     5
 63
     7
 74
     1
 91
        4
 64
     7
 65
   257
 75
     1
175
     1
 42
1.0
 92
        8
 66
     7
 43
1.0
 76
     1
 77
     6
 78
     2
 67
     7
 79
     5
170
     0
171
     0
290
     0
174
     0
 93
        1
 44
50.0
173
     0
291
     1
 45
0.0
1001
ACAD
1000
AcDbSavedByObjectVersion
1070
     0
  0
VISUALSTYLE
  5
1092
102
{ACAD_XDICTIONARY
360
1170
102
}
102
{ACAD_REACTORS
330
1082
102
}
330
1082
100
AcDbVisualStyle
  2
ColorChange
 70
    16
 71
     2
 72
     2
 73
     3
 90
        0
 40
-0.6
 41
-30.0
 62
     5
 63
     8
 74
     1
 91
        4
 64
     7
 65
   257
 75
     1
175
     1
 42
1.0
 92
        8
 66
     8
 43
1.0
 76
     1
 77
     6
 78
     2
 67
     7
 79
     5
170
     0
171
     0
290
     0
174
     0
 93
        1
 44
0.0
173
     0
291
     1
 45
0.0
1001
ACAD
1000
AcDbSavedByObjectVersion
1070
     0
  0
VISUALSTYLE
  5
108B
102
{ACAD_XDICTIONARY
360
1162
102
}
102
{ACAD_REACTORS
330
1082
102
}
330
1082
100
AcDbVisualStyle
  2
Conceptual
 70
     9
 71
     3
 72
     2
 73
     0
 90
        0
 40
-0.6
 41
-30.0
 62
     5
 63
     7
 74
     2
 91
        2
 64
     7
 65
   257
 75
     1
175
     1
 42
179.0
 92
        8
 66
     7
 43
1.0
 76
     1
 77
     6
 78
     2
 67
     7
 79
     3
170
     0
171
     0
290
     0
174
     0
 93
        1
 44
0.0
173
     0
291
     0
 45
0.0
1001
ACAD
1000
AcDbSavedByObjectVersion
1070
     0
  0
VISUALSTYLE
  5
108D
102
{ACAD_XDICTIONARY
360
1166
102
}
102
{ACAD_REACTORS
330
1082
102
}
330
1082
100
AcDbVisualStyle
  2
Dim
 70
    11
 71
     2
 72
     2
 73
     0
 90
        0
 40
-0.6
 41
-30.0
 62
     5
 63
     7
 74
     1
 91
        4
 64
     7
 65
   257
 75
     1
175
     1
 42
1.0
 92
        8
 66
     7
 43
1.0
 76
     1
 77
     6
 78
     2
 67
     7
 79
     5
170
     0
171
     0
290
     0
174
     0
 93
        1
 44
-50.0
173
     0
291
     1
 45
0.0
1001
ACAD
1000
AcDbSavedByObjectVersion
1070
     0
  0
VISUALSTYLE
  5
109A
102
{ACAD_XDICTIONARY
360
1180
102
}
102
{ACAD_REACTORS
330
1082
102
}
330
1082
100
AcDbVisualStyle
  2
EdgeColorOff
 70
    22
 71
     2
 72
     2
 73
     0
 90
        0
 40
-0.6
 41
-30.0
 62
     5
 63
     7
 74
     1
 91
        4
 64
     7
 65
   257
 75
     1
175
     1
 42
1.0
 92
        8
 66
     7
 43
1.0
 76
     1
 77
     6
 78
     2
 67
     7
 79
     5
170
     0
171
     0
290
     0
174
     0
 93
        1
 44
0.0
173
     0
291
     1
 45
0.0
1001
ACAD
1000
AcDbSavedByObjectVersion
1070
     0
  0
VISUALSTYLE
  5
1091
102
{ACAD_XDICTIONARY
360
116E
102
}
102
{ACAD_REACTORS
330
1082
102
}
330
1082
100
AcDbVisualStyle
  2
Facepattern
 70
    15
 71
     2
 72
     2
 73
     0
 90
        0
 40
-0.6
 41
-30.0
 62
     5
 63
     7
 74
     1
 91
        4
 64
     7
 65
   257
 75
     1
175
     1
 42
1.0
 92
        8
 66
     7
 43
1.0
 76
     1
 77
     6
 78
     2
 67
     7
 79
     5
170
     0
171
     0
290
     0
174
     0
 93
        1
 44
0.0
173
     0
291
     1
 45
0.0
1001
ACAD
1000
AcDbSavedByObjectVersion
1070
     0
  0
VISUALSTYLE
  5
1083
102
{ACAD_XDICTIONARY
360
1152
102
}
102
{ACAD_REACTORS
330
1082
102
}
330
1082
100
AcDbVisualStyle
  2
Flat
 70
     0
 71
     2
 72
     1
 73
     1
 90
        2
 40
-0.6
 41
30.0
 62
     5
 63
     7
 74
     0
 91
        0
 64
     7
 65
   257
 75
     1
175
     1
 42
1.0
 92
        8
 66
     7
 43
1.0
 76
     1
 77
     6
 78
     2
 67
     7
 79
     5
170
     0
171
     0
290
     0
174
     0
 93
       13
 44
0.0
173
     0
291
     1
 45
0.0
1001
ACAD
1000
AcDbSavedByObjectVersion
1070
     0
  0
VISUALSTYLE
  5
1084
102
{ACAD_XDICTIONARY
360
1154
102
}
102
{ACAD_REACTORS
330
1082
102
}
330
1082
100
AcDbVisualStyle
  2
FlatWithEdges
 70
     1
 71
     2
 72
     1
 73
     1
 90
        2
 40
-0.6
 41
30.0
 62
     5
 63
     7
 74
     1
 91
        0
 64
     7
 65
   257
 75
     1
175
     1
 42
1.0
 92
        0
 66
   257
 43
1.0
 76
     1
 77
     6
 78
     2
 67
     7
 79
     5
170
     0
171
     0
290
     0
174
     0
 93
       13
 44
0.0
173
     0
291
     1
 45
0.0
1001
ACAD
1000
AcDbSavedByObjectVersion
1070
     0
  0
VISUALSTYLE
  5
1085
102
{ACAD_XDICTIONARY
360
1156
102
}
102
{ACAD_REACTORS
330
1082
102
}
330
1082
100
AcDbVisualStyle
  2
Gouraud
 70
     2
 71
     2
 72
     2
 73
     1
 90
        2
 40
-0.6
 41
30.0
 62
     5
 63
     7
 74
     0
 91
        0
 64
     7
 65
   257
 75
     1
175
     1
 42
1.0
 92
        0
 66
     7
 43
1.0
 76
     1
 77
     6
 78
     2
 67
     7
 79
     5
170
     0
171
     0
290
     0
174
     0
 93
       13
 44
0.0
173
     0
291
     1
 45
0.0
1001
ACAD
1000
AcDbSavedByObjectVersion
1070
     0
  0
VISUALSTYLE
  5
1086
102
{ACAD_XDICTIONARY
360
1158
102
}
102
{ACAD_REACTORS
330
1082
102
}
330
1082
100
AcDbVisualStyle
  2
GouraudWithEdges
 70
     3
 71
     2
 72
     2
 73
     1
 90
        2
 40
-0.6
 41
30.0
 62
     5
 63
     7
 74
     1
 91
        0
 64
     7
 65
   257
 75
     1
175
     1
 42
1.0
 92
        0
 66
   257
 43
1.0
 76
     1
 77
     6
 78
     2
 67
     7
 79
     5
170
     0
171
     0
290
     0
174
     0
 93
       13
 44
0.0
173
     0
291
     1
 45
0.0
1001
ACAD
1000
AcDbSavedByObjectVersion
1070
     0
  0
VISUALSTYLE
  5
108A
102
{ACAD_XDICTIONARY
360
1160
102
}
102
{ACAD_REACTORS
330
1082
102
}
330
1082
100
AcDbVisualStyle
  2
Hidden
 70
     6
 71
     1
 72
     2
 73
     2
 90
        0
 40
-0.6
 41
-30.0
 62
     5
 63
     7
 74
     2
 91
        2
 64
     7
 65
   257
 75
     2
175
     1
 42
40.0
 92
        0
 66
   257
 43
1.0
 76
     1
 77
     6
 78
     2
 67
     7
 79
     3
170
     0
171
     0
290
     0
174
     0
 93
        1
 44
0.0
173
     0
291
     0
 45
0.0
1001
ACAD
1000
AcDbSavedByObjectVersion
1070
     0
  0
VISUALSTYLE
  5
1098
102
{ACAD_XDICTIONARY
360
117C
102
}
102
{ACAD_REACTORS
330
1082
102
}
330
1082
100
AcDbVisualStyle
  2
JitterOff
 70
    20
 71
     2
 72
     2
 73
     0
 90
        0
 40
-0.6
 41
-30.0
 62
     5
 63
     7
 74
     1
 91
        4
 64
     7
 65
   257
 75
     1
175
     1
 42
1.0
 92
       10
 66
     7
 43
1.0
 76
     1
 77
     6
 78
     2
 67
     7
 79
     5
170
     0
171
     0
290
     0
174
     0
 93
        1
 44
0.0
173
     0
291
     1
 45
0.0
1001
ACAD
1000
AcDbSavedByObjectVersion
1070
     0
  0
VISUALSTYLE
  5
1090
102
{ACAD_XDICTIONARY
360
116C
102
}
102
{ACAD_REACTORS
330
1082
102
}
330
1082
100
AcDbVisualStyle
  2
Linepattern
 70
    14
 71
     2
 72
     2
 73
     0
 90
        0
 40
-0.6
 41
-30.0
 62
     5
 63
     7
 74
     1
 91
        4
 64
     7
 65
   257
 75
     7
175
     7
 42
1.0
 92
        8
 66
     7
 43
1.0
 76
     1
 77
     6
 78
     2
 67
     7
 79
     5
170
     0
171
     0
290
     0
174
     0
 93
        1
 44
0.0
173
     0
291
     1
 45
0.0
1001
ACAD
1000
AcDbSavedByObjectVersion
1070
     0
  0
VISUALSTYLE
  5
1099
102
{ACAD_XDICTIONARY
360
117E
102
}
102
{ACAD_REACTORS
330
1082
102
}
330
1082
100
AcDbVisualStyle
  2
OverhangOff
 70
    21
 71
     2
 72
     2
 73
     0
 90
        0
 40
-0.6
 41
-30.0
 62
     5
 63
     7
 74
     1
 91
        4
 64
     7
 65
   257
 75
     1
175
     1
 42
1.0
 92
        9
 66
     7
 43
1.0
 76
     1
 77
     6
 78
     2
 67
     7
 79
     5
170
     0
171
     0
290
     0
174
     0
 93
        1
 44
0.0
173
     0
291
     1
 45
0.0
1001
ACAD
1000
AcDbSavedByObjectVersion
1070
     0
  0
VISUALSTYLE
  5
108C
102
{ACAD_XDICTIONARY
360
1164
102
}
102
{ACAD_REACTORS
330
1082
102
}
330
1082
100
AcDbVisualStyle
  2
Realistic
 70
     8
 71
     2
 72
     3
 73
     0
 90
        2
 40
-0.6
 41
30.0
 62
     5
 63
     7
 74
     0
 91
        0
 64
     7
 65
   257
 75
     1
175
     1
 42
1.0
 92
        8
 66
   257
 43
1.0
 76
     1
 77
     6
 78
     2
 67
     7
 79
     3
170
     0
171
     0
290
     0
174
     0
 93
       13
 44
0.0
173
     0
291
     0
 45
0.0
1001
ACAD
1000
AcDbSavedByObjectVersion
1070
     0
  0
VISUALSTYLE
  5
1097
102
{ACAD_XDICTIONARY
360
117A
102
}
102
{ACAD_REACTORS
330
1082
102
}
330
1082
100
AcDbVisualStyle
  2
Shaded
 70
    27
 71
     2
 72
     2
 73
     1
 90
        2
 40
-0.6
 41
30.0
 62
     5
 63
     7
 74
     0
 91
        4
 64
     7
 65
   257
 75
     1
175
     1
 42
1.0
 92
        8
 66
   257
 43
1.0
 76
     1
 77
     6
 78
     2
 67
     8
 79
     3
170
     0
171
     0
290
     0
174
     0
 93
        5
 44
0.0
173
     0
291
     0
 45
0.0
1001
ACAD
1000
AcDbSavedByObjectVersion
1070
     0
  0
VISUALSTYLE
  5
1096
102
{ACAD_XDICTIONARY
360
1178
102
}
102
{ACAD_REACTORS
330
1082
102
}
330
1082
100
AcDbVisualStyle
  2
Shaded with edges
 70
    26
 71
     2
 72
     2
 73
     1
 90
        2
 40
-0.6
 41
30.0
 62
     5
 63
     7
 74
     1
 91
       10
 64
     7
 65
   257
 75
     2
175
     1
 42
1.0
 92
        8
 66
   257
 43
1.0
 76
     1
 77
     6
 78
     2
 67
     7
 79
     3
170
     0
171
     0
290
     0
174
     0
 93
        5
 44
0.0
173
     0
291
     0
 45
0.0
1001
ACAD
1000
AcDbSavedByObjectVersion
1070
     0
  0
VISUALSTYLE
  5
1093
102
{ACAD_XDICTIONARY
360
1172
102
}
102
{ACAD_REACTORS
330
1082
102
}
330
1082
100
AcDbVisualStyle
  2
Shades of Gray
 70
    23
 71
     2
 72
     2
 73
     3
 90
        0
 40
-0.6
 41
-30.0
 62
     5
 63
     7
 74
     2
 91
        2
 64
     7
 65
     7
 75
     1
175
     1
 42
40.0
 92
        8
 66
     7
 43
1.0
 76
     1
 77
     6
 78
     2
 67
     7
 79
     3
170
     0
171
     0
290
     0
174
     0
 93
        1
 44
0.0
173
     0
291
     0
 45
0.0
1001
ACAD
1000
AcDbSavedByObjectVersion
1070
     0
  0
VISUALSTYLE
  5
1094
102
{ACAD_XDICTIONARY
360
1174
102
}
102
{ACAD_REACTORS
330
1082
102
}
330
1082
100
AcDbVisualStyle
  2
Sketchy
 70
    24
 71
     1
 72
     2
 73
     2
 90
        0
 40
-0.6
 41
-30.0
 62
     5
 63
     7
 74
     2
 91
        2
 64
     7
 65
     7
 75
     1
175
     1
 42
40.0
 92
       11
 66
     7
 43
1.0
 76
     1
 77
     6
 78
     2
 67
     7
 79
     6
170
     0
171
     0
290
     0
174
     0
 93
        1
 44
0.0
173
     0
291
     0
 45
0.0
1001
ACAD
1000
AcDbSavedByObjectVersion
1070
     0
  0
VISUALSTYLE
  5
108F
102
{ACAD_XDICTIONARY
360
116A
102
}
102
{ACAD_REACTORS
330
1082
102
}
330
1082
100
AcDbVisualStyle
  2
Thicken
 70
    13
 71
     2
 72
     2
 73
     0
 90
        0
 40
-0.6
 41
-30.0
 62
     5
 63
     7
 74
     1
 91
        4
 64
     7
 65
   257
 75
     1
175
     1
 42
1.0
 92
       12
 66
     7
 43
1.0
 76
     1
 77
     6
 78
     2
 67
     7
 79
     5
170
     0
171
     0
290
     0
174
     0
 93
        1
 44
0.0
173
     0
291
     1
 45
0.0
1001
ACAD
1000
AcDbSavedByObjectVersion
1070
     0
  0
VISUALSTYLE
  5
1089
102
{ACAD_XDICTIONARY
360
115E
102
}
102
{ACAD_REACTORS
330
1082
102
}
330
1082
100
AcDbVisualStyle
  2
Wireframe
 70
     5
 71
     0
 72
     2
 73
     0
 90
        0
 40
-0.6
 41
-30.0
 62
     5
 63
     7
 74
     1
 91
        4
 64
     7
 65
   257
 75
     1
175
     1
 42
1.0
 92
        0
 66
   257
 43
1.0
 76
     1
 77
     6
 78
     2
 67
     7
 79
     3
170
     0
171
     0
290
     0
174
     0
 93
        1
 44
0.0
173
     0
291
     0
 45
0.0
1001
ACAD
1000
AcDbSavedByObjectVersion
1070
     0
  0
VISUALSTYLE
  5
1095
102
{ACAD_XDICTIONARY
360
1176
102
}
102
{ACAD_REACTORS
330
1082
102
}
330
1082
100
AcDbVisualStyle
  2
X-Ray
 70
    25
 71
     2
 72
     2
 73
     1
 90
        1
 40
0.5
 41
-30.0
 62
     5
 63
     7
 74
     1
 91
        0
 64
     7
 65
   257
 75
     1
175
     1
 42
1.0
 92
        8
 66
     7
 43
1.0
 76
     1
 77
     6
 78
     2
 67
     7
 79
     3
170
     0
171
     0
290
     0
174
     0
 93
       13
 44
0.0
173
     0
291
     0
 45
0.0
1001
ACAD
1000
AcDbSavedByObjectVersion
1070
     0
  0
DICTIONARYVAR
  5
10C1
102
{ACAD_REACTORS
330
3D
102
}
330
3D
100
DictionaryVariables
280
     0
  1
1:1
  0
DICTIONARYVAR
  5
10BD
102
{ACAD_REACTORS
330
3D
102
}
330
3D
100
DictionaryVariables
280
     0
  1
STANDARD
  0
DICTIONARYVAR
  5
1049
102
{ACAD_REACTORS
330
3D
102
}
330
3D
100
DictionaryVariables
280
     0
  1
STANDARD
  0
DICTIONARYVAR
  5
10BE
102
{ACAD_REACTORS
330
3D
102
}
330
3D
100
DictionaryVariables
280
     0
  1
Metric50
  0
DICTIONARYVAR
  5
10BF
102
{ACAD_REACTORS
330
3D
102
}
330
3D
100
DictionaryVariables
280
     0
  1
Metric50
  0
DICTIONARYVAR
  5
3F
102
{ACAD_REACTORS
330
3D
102
}
330
3D
100
DictionaryVariables
280
     0
  1
2
  0
DICTIONARYVAR
  5
3E
102
{ACAD_REACTORS
330
3D
102
}
330
3D
100
DictionaryVariables
280
     0
  1
1
  0
DICTIONARYVAR
  5
1140
102
{ACAD_REACTORS
330
3D
102
}
330
3D
100
DictionaryVariables
280
     0
  1
0
  0
DICTIONARYVAR
  5
10C3
102
{ACAD_REACTORS
330
3D
102
}
330
3D
100
DictionaryVariables
280
     0
  1
1
  0
DICTIONARYVAR
  5
10C4
102
{ACAD_REACTORS
330
3D
102
}
330
3D
100
DictionaryVariables
280
     0
  1
15
  0
DICTIONARYVAR
  5
10C2
102
{ACAD_REACTORS
330
3D
102
}
330
3D
100
DictionaryVariables
280
     0
  1
0
  0
DICTIONARYVAR
  5
10C0
102
{ACAD_REACTORS
330
3D
102
}
330
3D
100
DictionaryVariables
280
     0
  1
0
  0
DICTIONARYVAR
  5
113F
102
{ACAD_REACTORS
330
3D
102
}
330
3D
100
DictionaryVariables
280
     0
  1
127
  0
DICTIONARYVAR
  5
1141
102
{ACAD_REACTORS
330
3D
102
}
330
3D
100
DictionaryVariables
280
     0
  1
0
  0
XRECORD
  5
1067
102
{ACAD_REACTORS
330
1066
102
}
330
1066
100
AcDbXrecord
280
     1
  0
DICTIONARY
  5
1148
330
1E
100
AcDbDictionary
280
     1
281
     1
  3
ACAD_XREC_ROUNDTRIP
360
1149
  0
DICTIONARY
  5
114C
330
26
100
AcDbDictionary
280
     1
281
     1
  3
ACAD_XREC_ROUNDTRIP
360
114D
  0
DICTIONARY
  5
114A
330
22
100
AcDbDictionary
280
     1
281
     1
  3
ACAD_XREC_ROUNDTRIP
360
114B
  0
DICTIONARY
  5
1073
330
1072
100
AcDbDictionary
280
     1
281
     1
  3
ACAD_XREC_ROUNDTRIP
360
1150
  3
BUMPTILE
360
1075
  3
DIFFUSETILE
360
1074
  3
OPACITYTILE
360
1078
  3
REFLECTIONTILE
360
1077
  3
REFRACTIONTILE
360
1079
  3
SPECULARTILE
360
1076
  0
DICTIONARY
  5
106B
330
106A
100
AcDbDictionary
280
     1
281
     1
  3
ACAD_XREC_ROUNDTRIP
360
114F
  3
BUMPTILE
360
106D
  3
DIFFUSETILE
360
106C
  3
OPACITYTILE
360
1070
  3
REFLECTIONTILE
360
106F
  3
REFRACTIONTILE
360
1071
  3
SPECULARTILE
360
106E
  0
DICTIONARY
  5
107B
330
107A
100
AcDbDictionary
280
     1
281
     1
  3
ACAD_XREC_ROUNDTRIP
360
1151
  3
BUMPTILE
360
107D
  3
DIFFUSETILE
360
107C
  3
OPACITYTILE
360
1080
  3
REFLECTIONTILE
360
107F
  3
REFRACTIONTILE
360
1081
  3
SPECULARTILE
360
107E
  0
DICTIONARY
  5
1183
330
10AE
100
AcDbDictionary
280
     1
281
     1
  3
ACAD_XREC_ROUNDTRIP
360
1184
  0
DICTIONARY
  5
1142
330
EE8
100
AcDbDictionary
280
     1
281
     1
  3
ACAD_ROUNDTRIP_2008_TABLESTYLE_CELLSTYLEMAP
360
1143
  3
ACAD_XREC_ROUNDTRIP
360
114E
  0
DICTIONARY
  5
10CE
330
10CD
100
AcDbDictionary
280
     1
281
     1
  3
ACAD_XREC_ROUNDTRIP
360
1186
  3
LightingQuality
360
10CF
  0
DICTIONARY
  5
115C
330
1088
100
AcDbDictionary
280
     1
281
     1
  3
ACAD_XREC_ROUNDTRIP
360
115D
  0
DICTIONARY
  5
115A
330
1087
100
AcDbDictionary
280
     1
281
     1
  3
ACAD_XREC_ROUNDTRIP
360
115B
  0
DICTIONARY
  5
1168
330
108E
100
AcDbDictionary
280
     1
281
     1
  3
ACAD_XREC_ROUNDTRIP
360
1169
  0
DICTIONARY
  5
1170
330
1092
100
AcDbDictionary
280
     1
281
     1
  3
ACAD_XREC_ROUNDTRIP
360
1171
  0
DICTIONARY
  5
1162
330
108B
100
AcDbDictionary
280
     1
281
     1
  3
ACAD_XREC_ROUNDTRIP
360
1163
  0
DICTIONARY
  5
1166
330
108D
100
AcDbDictionary
280
     1
281
     1
  3
ACAD_XREC_ROUNDTRIP
360
1167
  0
DICTIONARY
  5
1180
330
109A
100
AcDbDictionary
280
     1
281
     1
  3
ACAD_XREC_ROUNDTRIP
360
1181
  0
DICTIONARY
  5
116E
330
1091
100
AcDbDictionary
280
     1
281
     1
  3
ACAD_XREC_ROUNDTRIP
360
116F
  0
DICTIONARY
  5
1152
330
1083
100
AcDbDictionary
280
     1
281
     1
  3
ACAD_XREC_ROUNDTRIP
360
1153
  0
DICTIONARY
  5
1154
330
1084
100
AcDbDictionary
280
     1
281
     1
  3
ACAD_XREC_ROUNDTRIP
360
1155
  0
DICTIONARY
  5
1156
330
1085
100
AcDbDictionary
280
     1
281
     1
  3
ACAD_XREC_ROUNDTRIP
360
1157
  0
DICTIONARY
  5
1158
330
1086
100
AcDbDictionary
280
     1
281
     1
  3
ACAD_XREC_ROUNDTRIP
360
1159
  0
DICTIONARY
  5
1160
330
108A
100
AcDbDictionary
280
     1
281
     1
  3
ACAD_XREC_ROUNDTRIP
360
1161
  0
DICTIONARY
  5
117C
330
1098
100
AcDbDictionary
280
     1
281
     1
  3
ACAD_XREC_ROUNDTRIP
360
117D
  0
DICTIONARY
  5
116C
330
1090
100
AcDbDictionary
280
     1
281
     1
  3
ACAD_XREC_ROUNDTRIP
360
116D
  0
DICTIONARY
  5
117E
330
1099
100
AcDbDictionary
280
     1
281
     1
  3
ACAD_XREC_ROUNDTRIP
360
117F
  0
DICTIONARY
  5
1164
330
108C
100
AcDbDictionary
280
     1
281
     1
  3
ACAD_XREC_ROUNDTRIP
360
1165
  0
DICTIONARY
  5
117A
330
1097
100
AcDbDictionary
280
     1
281
     1
  3
ACAD_XREC_ROUNDTRIP
360
117B
  0
DICTIONARY
  5
1178
330
1096
100
AcDbDictionary
280
     1
281
     1
  3
ACAD_XREC_ROUNDTRIP
360
1179
  0
DICTIONARY
  5
1172
330
1093
100
AcDbDictionary
280
     1
281
     1
  3
ACAD_XREC_ROUNDTRIP
360
1173
  0
DICTIONARY
  5
1174
330
1094
100
AcDbDictionary
280
     1
281
     1
  3
ACAD_XREC_ROUNDTRIP
360
1175
  0
DICTIONARY
  5
116A
330
108F
100
AcDbDictionary
280
     1
281
     1
  3
ACAD_XREC_ROUNDTRIP
360
116B
  0
DICTIONARY
  5
115E
330
1089
100
AcDbDictionary
280
     1
281
     1
  3
ACAD_XREC_ROUNDTRIP
360
115F
  0
DICTIONARY
  5
1176
330
1095
100
AcDbDictionary
280
     1
281
     1
  3
ACAD_XREC_ROUNDTRIP
360
1177
  0
XRECORD
  5
1149
102
{ACAD_REACTORS
330
1148
102
}
330
1148
100
AcDbXrecord
280
     1
102
SHADEPLOT
 70
     0
102
SHADEPLOTRESLEVEL
 70
     2
102
SHADEPLOTCUSTOMDPI
 70
   300
  0
XRECORD
  5
114D
102
{ACAD_REACTORS
330
114C
102
}
330
114C
100
AcDbXrecord
280
     1
102
SHADEPLOT
 70
     0
102
SHADEPLOTRESLEVEL
 70
     2
102
SHADEPLOTCUSTOMDPI
 70
   300
  0
XRECORD
  5
114B
102
{ACAD_REACTORS
330
114A
102
}
330
114A
100
AcDbXrecord
280
     1
102
SHADEPLOT
 70
     0
102
SHADEPLOTRESLEVEL
 70
     2
102
SHADEPLOTCUSTOMDPI
 70
   300
  0
XRECORD
  5
1150
102
{ACAD_REACTORS
330
1073
102
}
330
1073
100
AcDbXrecord
280
     1
102
MATERIAL
148
0.0
149
0.0
149
0.0
 93
        0
 94
      127
282
     0
 72
     0
 77
     0
171
     0
175
     0
179
     0
273
     0
  0
XRECORD
  5
1075
102
{ACAD_REACTORS
330
1073
102
}
330
1073
100
AcDbXrecord
280
     1
270
     1
271
     1
  0
XRECORD
  5
1074
102
{ACAD_REACTORS
330
1073
102
}
330
1073
100
AcDbXrecord
280
     1
270
     1
271
     1
  0
XRECORD
  5
1078
102
{ACAD_REACTORS
330
1073
102
}
330
1073
100
AcDbXrecord
280
     1
270
     1
271
     1
  0
XRECORD
  5
1077
102
{ACAD_REACTORS
330
1073
102
}
330
1073
100
AcDbXrecord
280
     1
270
     1
271
     1
  0
XRECORD
  5
1079
102
{ACAD_REACTORS
330
1073
102
}
330
1073
100
AcDbXrecord
280
     1
270
     1
271
     1
  0
XRECORD
  5
1076
102
{ACAD_REACTORS
330
1073
102
}
330
1073
100
AcDbXrecord
280
     1
270
     1
271
     1
  0
XRECORD
  5
114F
102
{ACAD_REACTORS
330
106B
102
}
330
106B
100
AcDbXrecord
280
     1
102
MATERIAL
148
0.0
149
0.0
149
0.0
 93
        0
 94
      127
282
     0
 72
     0
 77
     0
171
     0
175
     0
179
     0
273
     0
  0
XRECORD
  5
106D
102
{ACAD_REACTORS
330
106B
102
}
330
106B
100
AcDbXrecord
280
     1
270
     1
271
     1
  0
XRECORD
  5
106C
102
{ACAD_REACTORS
330
106B
102
}
330
106B
100
AcDbXrecord
280
     1
270
     1
271
     1
  0
XRECORD
  5
1070
102
{ACAD_REACTORS
330
106B
102
}
330
106B
100
AcDbXrecord
280
     1
270
     1
271
     1
  0
XRECORD
  5
106F
102
{ACAD_REACTORS
330
106B
102
}
330
106B
100
AcDbXrecord
280
     1
270
     1
271
     1
  0
XRECORD
  5
1071
102
{ACAD_REACTORS
330
106B
102
}
330
106B
100
AcDbXrecord
280
     1
270
     1
271
     1
  0
XRECORD
  5
106E
102
{ACAD_REACTORS
330
106B
102
}
330
106B
100
AcDbXrecord
280
     1
270
     1
271
     1
  0
XRECORD
  5
1151
102
{ACAD_REACTORS
330
107B
102
}
330
107B
100
AcDbXrecord
280
     1
102
MATERIAL
148
0.0
149
0.0
149
0.0
 93
        0
 94
      127
282
     0
 72
     0
 77
     0
171
     0
175
     0
179
     0
273
     0
  0
XRECORD
  5
107D
102
{ACAD_REACTORS
330
107B
102
}
330
107B
100
AcDbXrecord
280
     1
270
     1
271
     1
  0
XRECORD
  5
107C
102
{ACAD_REACTORS
330
107B
102
}
330
107B
100
AcDbXrecord
280
     1
270
     1
271
     1
  0
XRECORD
  5
1080
102
{ACAD_REACTORS
330
107B
102
}
330
107B
100
AcDbXrecord
280
     1
270
     1
271
     1
  0
XRECORD
  5
107F
102
{ACAD_REACTORS
330
107B
102
}
330
107B
100
AcDbXrecord
280
     1
270
     1
271
     1
  0
XRECORD
  5
1081
102
{ACAD_REACTORS
330
107B
102
}
330
107B
100
AcDbXrecord
280
     1
270
     1
271
     1
  0
XRECORD
  5
107E
102
{ACAD_REACTORS
330
107B
102
}
330
107B
100
AcDbXrecord
280
     1
270
     1
271
     1
  0
XRECORD
  5
1184
102
{ACAD_REACTORS
330
1183
102
}
330
1183
100
AcDbXrecord
280
     1
102
ACAD_ROUNDTRIP_2012_MLEADER_STYLE
298
     1
  0
CELLSTYLEMAP
  5
1143
102
{ACAD_REACTORS
330
1142
102
}
330
1142
100
AcDbCellStyleMap
 90
        3
300
CELLSTYLE
  1
TABLEFORMAT_BEGIN
 90
        5
170
     1
 91
        0
 92
    32768
 62
   257
 93
        1
300
CONTENTFORMAT
  1
CONTENTFORMAT_BEGIN
 90
        0
 91
        0
 92
        4
 93
        0
300

 40
0.0
140
1.0
 94
        5
 62
     0
340
11
144
6.0
309
CONTENTFORMAT_END
171
     1
301
MARGIN
  1
CELLMARGIN_BEGIN
 40
1.5
 40
1.5
 40
1.5
 40
1.5
 40
0.18
 40
0.18
309
CELLMARGIN_END
 94
        6
 95
        1
302
GRIDFORMAT
  1
GRIDFORMAT_BEGIN
 90
        0
 91
        1
 62
     0
 92
       -2
340
0
 93
        0
 40
0.045
309
GRIDFORMAT_END
 95
        2
302
GRIDFORMAT
  1
GRIDFORMAT_BEGIN
 90
        0
 91
        1
 62
     0
 92
       -2
340
0
 93
        0
 40
0.045
309
GRIDFORMAT_END
 95
        4
302
GRIDFORMAT
  1
GRIDFORMAT_BEGIN
 90
        0
 91
        1
 62
     0
 92
       -2
340
0
 93
        0
 40
0.045
309
GRIDFORMAT_END
 95
        8
302
GRIDFORMAT
  1
GRIDFORMAT_BEGIN
 90
        0
 91
        1
 62
     0
 92
       -2
340
0
 93
        0
 40
0.045
309
GRIDFORMAT_END
 95
       16
302
GRIDFORMAT
  1
GRIDFORMAT_BEGIN
 90
        0
 91
        1
 62
     0
 92
       -2
340
0
 93
        0
 40
0.045
309
GRIDFORMAT_END
 95
       32
302
GRIDFORMAT
  1
GRIDFORMAT_BEGIN
 90
        0
 91
        1
 62
     0
 92
       -2
340
0
 93
        0
 40
0.045
309
GRIDFORMAT_END
309
TABLEFORMAT_END
  1
CELLSTYLE_BEGIN
 90
        1
 91
        1
300
_TITLE
309
CELLSTYLE_END
300
CELLSTYLE
  1
TABLEFORMAT_BEGIN
 90
        5
170
     1
 91
        0
 92
        0
 62
   257
 93
        1
300
CONTENTFORMAT
  1
CONTENTFORMAT_BEGIN
 90
        0
 91
        0
 92
        4
 93
        0
300

 40
0.0
140
1.0
 94
        5
 62
     0
340
11
144
4.5
309
CONTENTFORMAT_END
171
     1
301
MARGIN
  1
CELLMARGIN_BEGIN
 40
1.5
 40
1.5
 40
1.5
 40
1.5
 40
0.18
 40
0.18
309
CELLMARGIN_END
 94
        6
 95
        1
302
GRIDFORMAT
  1
GRIDFORMAT_BEGIN
 90
        0
 91
        1
 62
     0
 92
       -2
340
0
 93
        0
 40
0.045
309
GRIDFORMAT_END
 95
        2
302
GRIDFORMAT
  1
GRIDFORMAT_BEGIN
 90
        0
 91
        1
 62
     0
 92
       -2
340
0
 93
        0
 40
0.045
309
GRIDFORMAT_END
 95
        4
302
GRIDFORMAT
  1
GRIDFORMAT_BEGIN
 90
        0
 91
        1
 62
     0
 92
       -2
340
0
 93
        0
 40
0.045
309
GRIDFORMAT_END
 95
        8
302
GRIDFORMAT
  1
GRIDFORMAT_BEGIN
 90
        0
 91
        1
 62
     0
 92
       -2
340
0
 93
        0
 40
0.045
309
GRIDFORMAT_END
 95
       16
302
GRIDFORMAT
  1
GRIDFORMAT_BEGIN
 90
        0
 91
        1
 62
     0
 92
       -2
340
0
 93
        0
 40
0.045
309
GRIDFORMAT_END
 95
       32
302
GRIDFORMAT
  1
GRIDFORMAT_BEGIN
 90
        0
 91
        1
 62
     0
 92
       -2
340
0
 93
        0
 40
0.045
309
GRIDFORMAT_END
309
TABLEFORMAT_END
  1
CELLSTYLE_BEGIN
 90
        2
 91
        1
300
_HEADER
309
CELLSTYLE_END
300
CELLSTYLE
  1
TABLEFORMAT_BEGIN
 90
        5
170
     1
 91
        0
 92
        0
 62
   257
 93
        1
300
CONTENTFORMAT
  1
CONTENTFORMAT_BEGIN
 90
        0
 91
        0
 92
        4
 93
        0
300

 40
0.0
140
1.0
 94
        2
 62
     0
340
11
144
4.5
309
CONTENTFORMAT_END
171
     1
301
MARGIN
  1
CELLMARGIN_BEGIN
 40
1.5
 40
1.5
 40
1.5
 40
1.5
 40
0.18
 40
0.18
309
CELLMARGIN_END
 94
        6
 95
        1
302
GRIDFORMAT
  1
GRIDFORMAT_BEGIN
 90
        0
 91
        1
 62
     0
 92
       -2
340
0
 93
        0
 40
0.045
309
GRIDFORMAT_END
 95
        2
302
GRIDFORMAT
  1
GRIDFORMAT_BEGIN
 90
        0
 91
        1
 62
     0
 92
       -2
340
0
 93
        0
 40
0.045
309
GRIDFORMAT_END
 95
        4
302
GRIDFORMAT
  1
GRIDFORMAT_BEGIN
 90
        0
 91
        1
 62
     0
 92
       -2
340
0
 93
        0
 40
0.045
309
GRIDFORMAT_END
 95
        8
302
GRIDFORMAT
  1
GRIDFORMAT_BEGIN
 90
        0
 91
        1
 62
     0
 92
       -2
340
0
 93
        0
 40
0.045
309
GRIDFORMAT_END
 95
       16
302
GRIDFORMAT
  1
GRIDFORMAT_BEGIN
 90
        0
 91
        1
 62
     0
 92
       -2
340
0
 93
        0
 40
0.045
309
GRIDFORMAT_END
 95
       32
302
GRIDFORMAT
  1
GRIDFORMAT_BEGIN
 90
        0
 91
        1
 62
     0
 92
       -2
340
0
 93
        0
 40
0.045
309
GRIDFORMAT_END
309
TABLEFORMAT_END
  1
CELLSTYLE_BEGIN
 90
        3
 91
        2
300
_DATA
309
CELLSTYLE_END
  0
XRECORD
  5
114E
102
{ACAD_REACTORS
330
1142
102
}
330
1142
100
AcDbXrecord
280
     1
102
ACAD_ROUNDTRIP_PRE2007_TABLESTYLE
 90
        4
 91
        0
  1

 92
        4
 93
        0
  2

 94
        4
 95
        0
  3

  0
XRECORD
  5
1186
102
{ACAD_REACTORS
330
10CE
102
}
330
10CE
100
AcDbXrecord
280
     1
102
RTVSPost2010Prop28
280
     0
102
RTVSPost2010PropOp28
 70
     1
102
RTVSPost2010Prop29
280
     1
102
RTVSPost2010PropOp29
 70
     1
102
RTVSPost2010Prop30
280
     1
102
RTVSPost2010PropOp30
 70
     1
102
RTVSPost2010Prop31
280
     0
102
RTVSPost2010PropOp31
 70
     1
102
RTVSPost2010Prop32
280
     0
102
RTVSPost2010PropOp32
 70
     1
102
RTVSPost2010Prop33
280
     0
102
RTVSPost2010PropOp33
 70
     1
102
RTVSPost2010Prop34
280
     0
102
RTVSPost2010PropOp34
 70
     1
102
RTVSPost2010Prop35
280
     0
102
RTVSPost2010PropOp35
 70
     1
102
RTVSPost2010Prop36
280
     0
102
RTVSPost2010PropOp36
 70
     1
102
RTVSPost2010Prop37
 90
       50
102
RTVSPost2010PropOp37
 70
     1
102
RTVSPost2010Prop38
140
0.0
102
RTVSPost2010PropOp38
 70
     1
102
RTVSPost2010Prop39
140
1.0
102
RTVSPost2010PropOp39
 70
     1
102
RTVSPost2010Prop40
 90
        0
102
RTVSPost2010PropOp40
 70
     1
102
RTVSPost2010Prop41ColorIndex
 90
       18
102
RTVSPost2010Prop41ColorRGB
 90
        0
102
RTVSPost2010PropOp41
 70
     1
102
RTVSPost2010Prop42
 90
       50
102
RTVSPost2010PropOp42
 70
     1
102
RTVSPost2010Prop43
 90
        3
102
RTVSPost2010PropOp43
 70
     1
102
RTVSPost2010Prop44ColorIndex
 90
        5
102
RTVSPost2010Prop44ColorRGB
 90
      255
102
RTVSPost2010PropOp44
 70
     1
102
RTVSPost2010Prop45
280
     0
102
RTVSPost2010PropOp45
 70
     1
102
RTVSPost2010Prop46
 90
       50
102
RTVSPost2010PropOp46
 70
     1
102
RTVSPost2010Prop47
 90
       50
102
RTVSPost2010PropOp47
 70
     1
102
RTVSPost2010Prop48
 90
       50
102
RTVSPost2010PropOp48
 70
     1
102
RTVSPost2010Prop49
280
     0
102
RTVSPost2010PropOp49
 70
     1
102
RTVSPost2010Prop50
 90
       50
102
RTVSPost2010PropOp50
 70
     1
102
RTVSPost2010Prop51ColorIndex
 90
      256
102
RTVSPost2010Prop51ColorRGB
 90
-16777216
102
RTVSPost2010PropOp51
 70
     0
102
RTVSPost2010Prop52
140
1.0
102
RTVSPost2010PropOp52
 70
     0
102
RTVSPost2010Prop53
 90
        2
102
RTVSPost2010PropOp53
 70
     1
102
RTVSPost2010Prop54
  1
strokes_ogs.tif
102
RTVSPost2010PropOp54
 70
     1
102
RTVSPost2010Prop55
280
     0
102
RTVSPost2010PropOp55
 70
     1
102
RTVSPost2010Prop56
140
1.0
102
RTVSPost2010PropOp56
 70
     1
102
RTVSPost2010Prop57
140
1.0
102
RTVSPost2010PropOp57
 70
     1
102
RTVSPropertyOp0
 70
     1
102
RTVSPropertyOp1
 70
     1
102
RTVSPropertyOp2
 70
     1
102
RTVSPropertyOp3
 70
     1
102
RTVSPropertyOp4
 70
     1
102
RTVSPropertyOp5
 70
     1
102
RTVSPropertyOp6
 70
     1
102
RTVSPropertyOp7
 70
     1
102
RTVSPropertyOp8
 70
     1
102
RTVSPropertyOp9
 70
     1
102
RTVSPropertyOp10
 70
     1
102
RTVSPropertyOp11
 70
     1
102
RTVSPropertyOp12
 70
     1
102
RTVSPropertyOp13
 70
     1
102
RTVSPropertyOp14
 70
     1
102
RTVSPropertyOp15
 70
     1
102
RTVSPropertyOp16
 70
     1
102
RTVSPropertyOp17
 70
     1
102
RTVSPropertyOp18
 70
     1
102
RTVSPropertyOp19
 70
     1
102
RTVSPropertyOp20
 70
     1
102
RTVSPropertyOp21
 70
     1
102
RTVSPropertyOp22
 70
     1
102
RTVSPropertyOp23
 70
     1
102
RTVSPropertyOp24
 70
     1
102
RTVSPropertyOp25
 70
     1
102
RTVSPropertyOp26
 70
     1
102
RTVSPropertyOp27
 70
     1
102
RTVSPropertyOp28
 70
     1
102
RTVSPropertyOp29
 70
     1
102
RTVSPropertyOp30
 70
     1
102
RTVSPropertyOp31
 70
     1
102
RTVSPropertyOp32
 70
     1
102
RTVSPropertyOp33
 70
     1
102
RTVSPropertyOp34
 70
     1
102
RTVSPropertyOp35
 70
     1
102
RTVSPropertyOp36
 70
     1
102
RTVSPropertyOp37
 70
     1
102
RTVSPropertyOp38
 70
     1
102
RTVSPropertyOp39
 70
     1
102
RTVSPropertyOp40
 70
     1
102
RTVSPropertyOp41
 70
     1
102
RTVSPropertyOp42
 70
     1
102
RTVSPropertyOp43
 70
     1
102
RTVSPropertyOp44
 70
     1
102
RTVSPropertyOp45
 70
     1
102
RTVSPropertyOp46
 70
     1
102
RTVSPropertyOp47
 70
     1
102
RTVSPropertyOp48
 70
     1
102
RTVSPropertyOp49
 70
     1
102
RTVSPropertyOp50
 70
     1
102
RTVSPropertyOp51
 70
     0
102
RTVSPropertyOp52
 70
     0
102
RTVSPropertyOp53
 70
     1
102
RTVSPropertyOp54
 70
     1
102
RTVSPropertyOp55
 70
     1
102
RTVSPropertyOp56
 70
     1
102
RTVSPropertyOp57
 70
     1
102
RTVSPropertyOp58
 70
     1
102
RTVSPropertyOp59
 70
     1
102
RTVSPropertyOp60
 70
     1
102
RTVSPropertyOp61
 70
     1
102
RTVSPropertyOp62
 70
     1
  0
XRECORD
  5
10CF
102
{ACAD_REACTORS
330
10CE
102
}
330
10CE
100
AcDbXrecord
280
     1
 90
        2
  0
XRECORD
  5
115D
102
{ACAD_REACTORS
330
115C
102
}
330
115C
100
AcDbXrecord
280
     1
102
RTVSPost2010Prop28
280
     1
102
RTVSPost2010PropOp28
 70
     1
102
RTVSPost2010Prop29
280
     1
102
RTVSPost2010PropOp29
 70
     1
102
RTVSPost2010Prop30
280
     0
102
RTVSPost2010PropOp30
 70
     1
102
RTVSPost2010Prop31
280
     0
102
RTVSPost2010PropOp31
 70
     1
102
RTVSPost2010Prop32
280
     0
102
RTVSPost2010PropOp32
 70
     1
102
RTVSPost2010Prop33
280
     0
102
RTVSPost2010PropOp33
 70
     1
102
RTVSPost2010Prop34
280
     0
102
RTVSPost2010PropOp34
 70
     1
102
RTVSPost2010Prop35
280
     0
102
RTVSPost2010PropOp35
 70
     1
102
RTVSPost2010Prop36
280
     0
102
RTVSPost2010PropOp36
 70
     1
102
RTVSPost2010Prop37
 90
       50
102
RTVSPost2010PropOp37
 70
     1
102
RTVSPost2010Prop38
140
0.0
102
RTVSPost2010PropOp38
 70
     1
102
RTVSPost2010Prop39
140
1.0
102
RTVSPost2010PropOp39
 70
     1
102
RTVSPost2010Prop40
 90
        0
102
RTVSPost2010PropOp40
 70
     1
102
RTVSPost2010Prop41ColorIndex
 90
       18
102
RTVSPost2010Prop41ColorRGB
 90
        0
102
RTVSPost2010PropOp41
 70
     1
102
RTVSPost2010Prop42
 90
       50
102
RTVSPost2010PropOp42
 70
     1
102
RTVSPost2010Prop43
 90
        3
102
RTVSPost2010PropOp43
 70
     1
102
RTVSPost2010Prop44ColorIndex
 90
        5
102
RTVSPost2010Prop44ColorRGB
 90
      255
102
RTVSPost2010PropOp44
 70
     1
102
RTVSPost2010Prop45
280
     0
102
RTVSPost2010PropOp45
 70
     1
102
RTVSPost2010Prop46
 90
       50
102
RTVSPost2010PropOp46
 70
     1
102
RTVSPost2010Prop47
 90
       50
102
RTVSPost2010PropOp47
 70
     1
102
RTVSPost2010Prop48
 90
       50
102
RTVSPost2010PropOp48
 70
     1
102
RTVSPost2010Prop49
280
     0
102
RTVSPost2010PropOp49
 70
     1
102
RTVSPost2010Prop50
 90
       50
102
RTVSPost2010PropOp50
 70
     1
102
RTVSPost2010Prop51ColorIndex
 90
      256
102
RTVSPost2010Prop51ColorRGB
 90
-16777216
102
RTVSPost2010PropOp51
 70
     0
102
RTVSPost2010Prop52
140
1.0
102
RTVSPost2010PropOp52
 70
     0
102
RTVSPost2010Prop53
 90
        2
102
RTVSPost2010PropOp53
 70
     1
102
RTVSPost2010Prop54
  1
strokes_ogs.tif
102
RTVSPost2010PropOp54
 70
     1
102
RTVSPost2010Prop55
280
     0
102
RTVSPost2010PropOp55
 70
     1
102
RTVSPost2010Prop56
140
1.0
102
RTVSPost2010PropOp56
 70
     1
102
RTVSPost2010Prop57
140
1.0
102
RTVSPost2010PropOp57
 70
     1
102
RTVSPropertyOp0
 70
     1
102
RTVSPropertyOp1
 70
     1
102
RTVSPropertyOp2
 70
     1
102
RTVSPropertyOp3
 70
     1
102
RTVSPropertyOp4
 70
     1
102
RTVSPropertyOp5
 70
     1
102
RTVSPropertyOp6
 70
     1
102
RTVSPropertyOp7
 70
     1
102
RTVSPropertyOp8
 70
     1
102
RTVSPropertyOp9
 70
     1
102
RTVSPropertyOp10
 70
     1
102
RTVSPropertyOp11
 70
     1
102
RTVSPropertyOp12
 70
     1
102
RTVSPropertyOp13
 70
     1
102
RTVSPropertyOp14
 70
     1
102
RTVSPropertyOp15
 70
     1
102
RTVSPropertyOp16
 70
     1
102
RTVSPropertyOp17
 70
     1
102
RTVSPropertyOp18
 70
     1
102
RTVSPropertyOp19
 70
     1
102
RTVSPropertyOp20
 70
     1
102
RTVSPropertyOp21
 70
     1
102
RTVSPropertyOp22
 70
     1
102
RTVSPropertyOp23
 70
     1
102
RTVSPropertyOp24
 70
     1
102
RTVSPropertyOp25
 70
     1
102
RTVSPropertyOp26
 70
     1
102
RTVSPropertyOp27
 70
     1
102
RTVSPropertyOp28
 70
     1
102
RTVSPropertyOp29
 70
     1
102
RTVSPropertyOp30
 70
     1
102
RTVSPropertyOp31
 70
     1
102
RTVSPropertyOp32
 70
     1
102
RTVSPropertyOp33
 70
     1
102
RTVSPropertyOp34
 70
     1
102
RTVSPropertyOp35
 70
     1
102
RTVSPropertyOp36
 70
     1
102
RTVSPropertyOp37
 70
     1
102
RTVSPropertyOp38
 70
     1
102
RTVSPropertyOp39
 70
     1
102
RTVSPropertyOp40
 70
     1
102
RTVSPropertyOp41
 70
     1
102
RTVSPropertyOp42
 70
     1
102
RTVSPropertyOp43
 70
     1
102
RTVSPropertyOp44
 70
     1
102
RTVSPropertyOp45
 70
     1
102
RTVSPropertyOp46
 70
     1
102
RTVSPropertyOp47
 70
     1
102
RTVSPropertyOp48
 70
     1
102
RTVSPropertyOp49
 70
     1
102
RTVSPropertyOp50
 70
     1
102
RTVSPropertyOp51
 70
     0
102
RTVSPropertyOp52
 70
     0
102
RTVSPropertyOp53
 70
     1
102
RTVSPropertyOp54
 70
     1
102
RTVSPropertyOp55
 70
     1
102
RTVSPropertyOp56
 70
     1
102
RTVSPropertyOp57
 70
     1
102
RTVSPropertyOp58
 70
     1
102
RTVSPropertyOp59
 70
     1
102
RTVSPropertyOp60
 70
     1
102
RTVSPropertyOp61
 70
     1
102
RTVSPropertyOp62
 70
     1
  0
XRECORD
  5
115B
102
{ACAD_REACTORS
330
115A
102
}
330
115A
100
AcDbXrecord
280
     1
102
RTVSPost2010Prop28
280
     0
102
RTVSPost2010PropOp28
 70
     1
102
RTVSPost2010Prop29
280
     1
102
RTVSPost2010PropOp29
 70
     1
102
RTVSPost2010Prop30
280
     1
102
RTVSPost2010PropOp30
 70
     1
102
RTVSPost2010Prop31
280
     0
102
RTVSPost2010PropOp31
 70
     1
102
RTVSPost2010Prop32
280
     0
102
RTVSPost2010PropOp32
 70
     1
102
RTVSPost2010Prop33
280
     0
102
RTVSPost2010PropOp33
 70
     1
102
RTVSPost2010Prop34
280
     0
102
RTVSPost2010PropOp34
 70
     1
102
RTVSPost2010Prop35
280
     0
102
RTVSPost2010PropOp35
 70
     1
102
RTVSPost2010Prop36
280
     0
102
RTVSPost2010PropOp36
 70
     1
102
RTVSPost2010Prop37
 90
       50
102
RTVSPost2010PropOp37
 70
     1
102
RTVSPost2010Prop38
140
0.0
102
RTVSPost2010PropOp38
 70
     1
102
RTVSPost2010Prop39
140
1.0
102
RTVSPost2010PropOp39
 70
     1
102
RTVSPost2010Prop40
 90
        0
102
RTVSPost2010PropOp40
 70
     1
102
RTVSPost2010Prop41ColorIndex
 90
       18
102
RTVSPost2010Prop41ColorRGB
 90
        0
102
RTVSPost2010PropOp41
 70
     1
102
RTVSPost2010Prop42
 90
       50
102
RTVSPost2010PropOp42
 70
     1
102
RTVSPost2010Prop43
 90
        3
102
RTVSPost2010PropOp43
 70
     1
102
RTVSPost2010Prop44ColorIndex
 90
        5
102
RTVSPost2010Prop44ColorRGB
 90
      255
102
RTVSPost2010PropOp44
 70
     1
102
RTVSPost2010Prop45
280
     0
102
RTVSPost2010PropOp45
 70
     1
102
RTVSPost2010Prop46
 90
       50
102
RTVSPost2010PropOp46
 70
     1
102
RTVSPost2010Prop47
 90
       50
102
RTVSPost2010PropOp47
 70
     1
102
RTVSPost2010Prop48
 90
       50
102
RTVSPost2010PropOp48
 70
     1
102
RTVSPost2010Prop49
280
     0
102
RTVSPost2010PropOp49
 70
     1
102
RTVSPost2010Prop50
 90
       50
102
RTVSPost2010PropOp50
 70
     1
102
RTVSPost2010Prop51ColorIndex
 90
      256
102
RTVSPost2010Prop51ColorRGB
 90
-16777216
102
RTVSPost2010PropOp51
 70
     0
102
RTVSPost2010Prop52
140
1.0
102
RTVSPost2010PropOp52
 70
     0
102
RTVSPost2010Prop53
 90
        2
102
RTVSPost2010PropOp53
 70
     1
102
RTVSPost2010Prop54
  1
strokes_ogs.tif
102
RTVSPost2010PropOp54
 70
     1
102
RTVSPost2010Prop55
280
     0
102
RTVSPost2010PropOp55
 70
     1
102
RTVSPost2010Prop56
140
1.0
102
RTVSPost2010PropOp56
 70
     1
102
RTVSPost2010Prop57
140
1.0
102
RTVSPost2010PropOp57
 70
     1
102
RTVSPropertyOp0
 70
     1
102
RTVSPropertyOp1
 70
     1
102
RTVSPropertyOp2
 70
     1
102
RTVSPropertyOp3
 70
     1
102
RTVSPropertyOp4
 70
     1
102
RTVSPropertyOp5
 70
     1
102
RTVSPropertyOp6
 70
     1
102
RTVSPropertyOp7
 70
     1
102
RTVSPropertyOp8
 70
     1
102
RTVSPropertyOp9
 70
     1
102
RTVSPropertyOp10
 70
     1
102
RTVSPropertyOp11
 70
     1
102
RTVSPropertyOp12
 70
     1
102
RTVSPropertyOp13
 70
     1
102
RTVSPropertyOp14
 70
     1
102
RTVSPropertyOp15
 70
     1
102
RTVSPropertyOp16
 70
     1
102
RTVSPropertyOp17
 70
     1
102
RTVSPropertyOp18
 70
     1
102
RTVSPropertyOp19
 70
     1
102
RTVSPropertyOp20
 70
     1
102
RTVSPropertyOp21
 70
     1
102
RTVSPropertyOp22
 70
     1
102
RTVSPropertyOp23
 70
     1
102
RTVSPropertyOp24
 70
     1
102
RTVSPropertyOp25
 70
     1
102
RTVSPropertyOp26
 70
     1
102
RTVSPropertyOp27
 70
     1
102
RTVSPropertyOp28
 70
     1
102
RTVSPropertyOp29
 70
     1
102
RTVSPropertyOp30
 70
     1
102
RTVSPropertyOp31
 70
     1
102
RTVSPropertyOp32
 70
     1
102
RTVSPropertyOp33
 70
     1
102
RTVSPropertyOp34
 70
     1
102
RTVSPropertyOp35
 70
     1
102
RTVSPropertyOp36
 70
     1
102
RTVSPropertyOp37
 70
     1
102
RTVSPropertyOp38
 70
     1
102
RTVSPropertyOp39
 70
     1
102
RTVSPropertyOp40
 70
     1
102
RTVSPropertyOp41
 70
     1
102
RTVSPropertyOp42
 70
     1
102
RTVSPropertyOp43
 70
     1
102
RTVSPropertyOp44
 70
     1
102
RTVSPropertyOp45
 70
     1
102
RTVSPropertyOp46
 70
     1
102
RTVSPropertyOp47
 70
     1
102
RTVSPropertyOp48
 70
     1
102
RTVSPropertyOp49
 70
     1
102
RTVSPropertyOp50
 70
     1
102
RTVSPropertyOp51
 70
     0
102
RTVSPropertyOp52
 70
     0
102
RTVSPropertyOp53
 70
     1
102
RTVSPropertyOp54
 70
     1
102
RTVSPropertyOp55
 70
     1
102
RTVSPropertyOp56
 70
     1
102
RTVSPropertyOp57
 70
     1
102
RTVSPropertyOp58
 70
     1
102
RTVSPropertyOp59
 70
     1
102
RTVSPropertyOp60
 70
     1
102
RTVSPropertyOp61
 70
     1
102
RTVSPropertyOp62
 70
     1
  0
XRECORD
  5
1169
102
{ACAD_REACTORS
330
1168
102
}
330
1168
100
AcDbXrecord
280
     1
102
RTVSPost2010Prop28
280
     0
102
RTVSPost2010PropOp28
 70
     1
102
RTVSPost2010Prop29
280
     1
102
RTVSPost2010PropOp29
 70
     1
102
RTVSPost2010Prop30
280
     1
102
RTVSPost2010PropOp30
 70
     1
102
RTVSPost2010Prop31
280
     0
102
RTVSPost2010PropOp31
 70
     1
102
RTVSPost2010Prop32
280
     0
102
RTVSPost2010PropOp32
 70
     1
102
RTVSPost2010Prop33
280
     0
102
RTVSPost2010PropOp33
 70
     1
102
RTVSPost2010Prop34
280
     0
102
RTVSPost2010PropOp34
 70
     1
102
RTVSPost2010Prop35
280
     0
102
RTVSPost2010PropOp35
 70
     1
102
RTVSPost2010Prop36
280
     0
102
RTVSPost2010PropOp36
 70
     1
102
RTVSPost2010Prop37
 90
       50
102
RTVSPost2010PropOp37
 70
     1
102
RTVSPost2010Prop38
140
0.0
102
RTVSPost2010PropOp38
 70
     1
102
RTVSPost2010Prop39
140
1.0
102
RTVSPost2010PropOp39
 70
     1
102
RTVSPost2010Prop40
 90
        0
102
RTVSPost2010PropOp40
 70
     1
102
RTVSPost2010Prop41ColorIndex
 90
       18
102
RTVSPost2010Prop41ColorRGB
 90
        0
102
RTVSPost2010PropOp41
 70
     1
102
RTVSPost2010Prop42
 90
       50
102
RTVSPost2010PropOp42
 70
     1
102
RTVSPost2010Prop43
 90
        3
102
RTVSPost2010PropOp43
 70
     1
102
RTVSPost2010Prop44ColorIndex
 90
        5
102
RTVSPost2010Prop44ColorRGB
 90
      255
102
RTVSPost2010PropOp44
 70
     1
102
RTVSPost2010Prop45
280
     0
102
RTVSPost2010PropOp45
 70
     1
102
RTVSPost2010Prop46
 90
       50
102
RTVSPost2010PropOp46
 70
     1
102
RTVSPost2010Prop47
 90
       50
102
RTVSPost2010PropOp47
 70
     1
102
RTVSPost2010Prop48
 90
       50
102
RTVSPost2010PropOp48
 70
     1
102
RTVSPost2010Prop49
280
     0
102
RTVSPost2010PropOp49
 70
     1
102
RTVSPost2010Prop50
 90
       50
102
RTVSPost2010PropOp50
 70
     1
102
RTVSPost2010Prop51ColorIndex
 90
      256
102
RTVSPost2010Prop51ColorRGB
 90
-16777216
102
RTVSPost2010PropOp51
 70
     0
102
RTVSPost2010Prop52
140
1.0
102
RTVSPost2010PropOp52
 70
     0
102
RTVSPost2010Prop53
 90
        2
102
RTVSPost2010PropOp53
 70
     1
102
RTVSPost2010Prop54
  1
strokes_ogs.tif
102
RTVSPost2010PropOp54
 70
     1
102
RTVSPost2010Prop55
280
     0
102
RTVSPost2010PropOp55
 70
     1
102
RTVSPost2010Prop56
140
1.0
102
RTVSPost2010PropOp56
 70
     1
102
RTVSPost2010Prop57
140
1.0
102
RTVSPost2010PropOp57
 70
     1
102
RTVSPropertyOp0
 70
     1
102
RTVSPropertyOp1
 70
     1
102
RTVSPropertyOp2
 70
     1
102
RTVSPropertyOp3
 70
     1
102
RTVSPropertyOp4
 70
     1
102
RTVSPropertyOp5
 70
     1
102
RTVSPropertyOp6
 70
     1
102
RTVSPropertyOp7
 70
     1
102
RTVSPropertyOp8
 70
     1
102
RTVSPropertyOp9
 70
     1
102
RTVSPropertyOp10
 70
     1
102
RTVSPropertyOp11
 70
     1
102
RTVSPropertyOp12
 70
     1
102
RTVSPropertyOp13
 70
     1
102
RTVSPropertyOp14
 70
     1
102
RTVSPropertyOp15
 70
     1
102
RTVSPropertyOp16
 70
     1
102
RTVSPropertyOp17
 70
     1
102
RTVSPropertyOp18
 70
     1
102
RTVSPropertyOp19
 70
     1
102
RTVSPropertyOp20
 70
     1
102
RTVSPropertyOp21
 70
     1
102
RTVSPropertyOp22
 70
     1
102
RTVSPropertyOp23
 70
     1
102
RTVSPropertyOp24
 70
     1
102
RTVSPropertyOp25
 70
     1
102
RTVSPropertyOp26
 70
     1
102
RTVSPropertyOp27
 70
     1
102
RTVSPropertyOp28
 70
     1
102
RTVSPropertyOp29
 70
     1
102
RTVSPropertyOp30
 70
     1
102
RTVSPropertyOp31
 70
     1
102
RTVSPropertyOp32
 70
     1
102
RTVSPropertyOp33
 70
     1
102
RTVSPropertyOp34
 70
     1
102
RTVSPropertyOp35
 70
     1
102
RTVSPropertyOp36
 70
     1
102
RTVSPropertyOp37
 70
     1
102
RTVSPropertyOp38
 70
     1
102
RTVSPropertyOp39
 70
     1
102
RTVSPropertyOp40
 70
     1
102
RTVSPropertyOp41
 70
     1
102
RTVSPropertyOp42
 70
     1
102
RTVSPropertyOp43
 70
     1
102
RTVSPropertyOp44
 70
     1
102
RTVSPropertyOp45
 70
     1
102
RTVSPropertyOp46
 70
     1
102
RTVSPropertyOp47
 70
     1
102
RTVSPropertyOp48
 70
     1
102
RTVSPropertyOp49
 70
     1
102
RTVSPropertyOp50
 70
     1
102
RTVSPropertyOp51
 70
     0
102
RTVSPropertyOp52
 70
     0
102
RTVSPropertyOp53
 70
     1
102
RTVSPropertyOp54
 70
     1
102
RTVSPropertyOp55
 70
     1
102
RTVSPropertyOp56
 70
     1
102
RTVSPropertyOp57
 70
     1
102
RTVSPropertyOp58
 70
     1
102
RTVSPropertyOp59
 70
     1
102
RTVSPropertyOp60
 70
     1
102
RTVSPropertyOp61
 70
     1
102
RTVSPropertyOp62
 70
     1
  0
XRECORD
  5
1171
102
{ACAD_REACTORS
330
1170
102
}
330
1170
100
AcDbXrecord
280
     1
102
RTVSPost2010Prop28
280
     0
102
RTVSPost2010PropOp28
 70
     1
102
RTVSPost2010Prop29
280
     1
102
RTVSPost2010PropOp29
 70
     1
102
RTVSPost2010Prop30
280
     1
102
RTVSPost2010PropOp30
 70
     1
102
RTVSPost2010Prop31
280
     0
102
RTVSPost2010PropOp31
 70
     1
102
RTVSPost2010Prop32
280
     0
102
RTVSPost2010PropOp32
 70
     1
102
RTVSPost2010Prop33
280
     0
102
RTVSPost2010PropOp33
 70
     1
102
RTVSPost2010Prop34
280
     0
102
RTVSPost2010PropOp34
 70
     1
102
RTVSPost2010Prop35
280
     0
102
RTVSPost2010PropOp35
 70
     1
102
RTVSPost2010Prop36
280
     0
102
RTVSPost2010PropOp36
 70
     1
102
RTVSPost2010Prop37
 90
       50
102
RTVSPost2010PropOp37
 70
     1
102
RTVSPost2010Prop38
140
0.0
102
RTVSPost2010PropOp38
 70
     1
102
RTVSPost2010Prop39
140
1.0
102
RTVSPost2010PropOp39
 70
     1
102
RTVSPost2010Prop40
 90
        0
102
RTVSPost2010PropOp40
 70
     1
102
RTVSPost2010Prop41ColorIndex
 90
       18
102
RTVSPost2010Prop41ColorRGB
 90
        0
102
RTVSPost2010PropOp41
 70
     1
102
RTVSPost2010Prop42
 90
       50
102
RTVSPost2010PropOp42
 70
     1
102
RTVSPost2010Prop43
 90
        3
102
RTVSPost2010PropOp43
 70
     1
102
RTVSPost2010Prop44ColorIndex
 90
        5
102
RTVSPost2010Prop44ColorRGB
 90
      255
102
RTVSPost2010PropOp44
 70
     1
102
RTVSPost2010Prop45
280
     0
102
RTVSPost2010PropOp45
 70
     1
102
RTVSPost2010Prop46
 90
       50
102
RTVSPost2010PropOp46
 70
     1
102
RTVSPost2010Prop47
 90
       50
102
RTVSPost2010PropOp47
 70
     1
102
RTVSPost2010Prop48
 90
       50
102
RTVSPost2010PropOp48
 70
     1
102
RTVSPost2010Prop49
280
     0
102
RTVSPost2010PropOp49
 70
     1
102
RTVSPost2010Prop50
 90
       50
102
RTVSPost2010PropOp50
 70
     1
102
RTVSPost2010Prop51ColorIndex
 90
      256
102
RTVSPost2010Prop51ColorRGB
 90
-16777216
102
RTVSPost2010PropOp51
 70
     0
102
RTVSPost2010Prop52
140
1.0
102
RTVSPost2010PropOp52
 70
     0
102
RTVSPost2010Prop53
 90
        2
102
RTVSPost2010PropOp53
 70
     1
102
RTVSPost2010Prop54
  1
strokes_ogs.tif
102
RTVSPost2010PropOp54
 70
     1
102
RTVSPost2010Prop55
280
     0
102
RTVSPost2010PropOp55
 70
     1
102
RTVSPost2010Prop56
140
1.0
102
RTVSPost2010PropOp56
 70
     1
102
RTVSPost2010Prop57
140
1.0
102
RTVSPost2010PropOp57
 70
     1
102
RTVSPropertyOp0
 70
     1
102
RTVSPropertyOp1
 70
     1
102
RTVSPropertyOp2
 70
     1
102
RTVSPropertyOp3
 70
     1
102
RTVSPropertyOp4
 70
     1
102
RTVSPropertyOp5
 70
     1
102
RTVSPropertyOp6
 70
     1
102
RTVSPropertyOp7
 70
     1
102
RTVSPropertyOp8
 70
     1
102
RTVSPropertyOp9
 70
     1
102
RTVSPropertyOp10
 70
     1
102
RTVSPropertyOp11
 70
     1
102
RTVSPropertyOp12
 70
     1
102
RTVSPropertyOp13
 70
     1
102
RTVSPropertyOp14
 70
     1
102
RTVSPropertyOp15
 70
     1
102
RTVSPropertyOp16
 70
     1
102
RTVSPropertyOp17
 70
     1
102
RTVSPropertyOp18
 70
     1
102
RTVSPropertyOp19
 70
     1
102
RTVSPropertyOp20
 70
     1
102
RTVSPropertyOp21
 70
     1
102
RTVSPropertyOp22
 70
     1
102
RTVSPropertyOp23
 70
     1
102
RTVSPropertyOp24
 70
     1
102
RTVSPropertyOp25
 70
     1
102
RTVSPropertyOp26
 70
     1
102
RTVSPropertyOp27
 70
     1
102
RTVSPropertyOp28
 70
     1
102
RTVSPropertyOp29
 70
     1
102
RTVSPropertyOp30
 70
     1
102
RTVSPropertyOp31
 70
     1
102
RTVSPropertyOp32
 70
     1
102
RTVSPropertyOp33
 70
     1
102
RTVSPropertyOp34
 70
     1
102
RTVSPropertyOp35
 70
     1
102
RTVSPropertyOp36
 70
     1
102
RTVSPropertyOp37
 70
     1
102
RTVSPropertyOp38
 70
     1
102
RTVSPropertyOp39
 70
     1
102
RTVSPropertyOp40
 70
     1
102
RTVSPropertyOp41
 70
     1
102
RTVSPropertyOp42
 70
     1
102
RTVSPropertyOp43
 70
     1
102
RTVSPropertyOp44
 70
     1
102
RTVSPropertyOp45
 70
     1
102
RTVSPropertyOp46
 70
     1
102
RTVSPropertyOp47
 70
     1
102
RTVSPropertyOp48
 70
     1
102
RTVSPropertyOp49
 70
     1
102
RTVSPropertyOp50
 70
     1
102
RTVSPropertyOp51
 70
     0
102
RTVSPropertyOp52
 70
     0
102
RTVSPropertyOp53
 70
     1
102
RTVSPropertyOp54
 70
     1
102
RTVSPropertyOp55
 70
     1
102
RTVSPropertyOp56
 70
     1
102
RTVSPropertyOp57
 70
     1
102
RTVSPropertyOp58
 70
     1
102
RTVSPropertyOp59
 70
     1
102
RTVSPropertyOp60
 70
     1
102
RTVSPropertyOp61
 70
     1
102
RTVSPropertyOp62
 70
     1
  0
XRECORD
  5
1163
102
{ACAD_REACTORS
330
1162
102
}
330
1162
100
AcDbXrecord
280
     1
102
RTVSPost2010Prop28
280
     0
102
RTVSPost2010PropOp28
 70
     1
102
RTVSPost2010Prop29
280
     1
102
RTVSPost2010PropOp29
 70
     1
102
RTVSPost2010Prop30
280
     1
102
RTVSPost2010PropOp30
 70
     1
102
RTVSPost2010Prop31
280
     0
102
RTVSPost2010PropOp31
 70
     1
102
RTVSPost2010Prop32
280
     0
102
RTVSPost2010PropOp32
 70
     1
102
RTVSPost2010Prop33
280
     0
102
RTVSPost2010PropOp33
 70
     1
102
RTVSPost2010Prop34
280
     0
102
RTVSPost2010PropOp34
 70
     1
102
RTVSPost2010Prop35
280
     0
102
RTVSPost2010PropOp35
 70
     1
102
RTVSPost2010Prop36
280
     0
102
RTVSPost2010PropOp36
 70
     1
102
RTVSPost2010Prop37
 90
       50
102
RTVSPost2010PropOp37
 70
     1
102
RTVSPost2010Prop38
140
0.0
102
RTVSPost2010PropOp38
 70
     1
102
RTVSPost2010Prop39
140
1.0
102
RTVSPost2010PropOp39
 70
     1
102
RTVSPost2010Prop40
 90
        0
102
RTVSPost2010PropOp40
 70
     1
102
RTVSPost2010Prop41ColorIndex
 90
       18
102
RTVSPost2010Prop41ColorRGB
 90
        0
102
RTVSPost2010PropOp41
 70
     1
102
RTVSPost2010Prop42
 90
       50
102
RTVSPost2010PropOp42
 70
     1
102
RTVSPost2010Prop43
 90
        3
102
RTVSPost2010PropOp43
 70
     1
102
RTVSPost2010Prop44ColorIndex
 90
        5
102
RTVSPost2010Prop44ColorRGB
 90
      255
102
RTVSPost2010PropOp44
 70
     1
102
RTVSPost2010Prop45
280
     0
102
RTVSPost2010PropOp45
 70
     1
102
RTVSPost2010Prop46
 90
       50
102
RTVSPost2010PropOp46
 70
     1
102
RTVSPost2010Prop47
 90
       50
102
RTVSPost2010PropOp47
 70
     1
102
RTVSPost2010Prop48
 90
       50
102
RTVSPost2010PropOp48
 70
     1
102
RTVSPost2010Prop49
280
     0
102
RTVSPost2010PropOp49
 70
     1
102
RTVSPost2010Prop50
 90
       50
102
RTVSPost2010PropOp50
 70
     1
102
RTVSPost2010Prop51ColorIndex
 90
      256
102
RTVSPost2010Prop51ColorRGB
 90
-16777216
102
RTVSPost2010PropOp51
 70
     0
102
RTVSPost2010Prop52
140
1.0
102
RTVSPost2010PropOp52
 70
     0
102
RTVSPost2010Prop53
 90
        2
102
RTVSPost2010PropOp53
 70
     1
102
RTVSPost2010Prop54
  1
strokes_ogs.tif
102
RTVSPost2010PropOp54
 70
     1
102
RTVSPost2010Prop55
280
     0
102
RTVSPost2010PropOp55
 70
     1
102
RTVSPost2010Prop56
140
1.0
102
RTVSPost2010PropOp56
 70
     1
102
RTVSPost2010Prop57
140
1.0
102
RTVSPost2010PropOp57
 70
     1
102
RTVSPropertyOp0
 70
     1
102
RTVSPropertyOp1
 70
     1
102
RTVSPropertyOp2
 70
     1
102
RTVSPropertyOp3
 70
     1
102
RTVSPropertyOp4
 70
     1
102
RTVSPropertyOp5
 70
     1
102
RTVSPropertyOp6
 70
     1
102
RTVSPropertyOp7
 70
     1
102
RTVSPropertyOp8
 70
     1
102
RTVSPropertyOp9
 70
     1
102
RTVSPropertyOp10
 70
     1
102
RTVSPropertyOp11
 70
     1
102
RTVSPropertyOp12
 70
     1
102
RTVSPropertyOp13
 70
     1
102
RTVSPropertyOp14
 70
     1
102
RTVSPropertyOp15
 70
     1
102
RTVSPropertyOp16
 70
     1
102
RTVSPropertyOp17
 70
     1
102
RTVSPropertyOp18
 70
     1
102
RTVSPropertyOp19
 70
     1
102
RTVSPropertyOp20
 70
     1
102
RTVSPropertyOp21
 70
     1
102
RTVSPropertyOp22
 70
     1
102
RTVSPropertyOp23
 70
     1
102
RTVSPropertyOp24
 70
     1
102
RTVSPropertyOp25
 70
     1
102
RTVSPropertyOp26
 70
     1
102
RTVSPropertyOp27
 70
     1
102
RTVSPropertyOp28
 70
     1
102
RTVSPropertyOp29
 70
     1
102
RTVSPropertyOp30
 70
     1
102
RTVSPropertyOp31
 70
     1
102
RTVSPropertyOp32
 70
     1
102
RTVSPropertyOp33
 70
     1
102
RTVSPropertyOp34
 70
     1
102
RTVSPropertyOp35
 70
     1
102
RTVSPropertyOp36
 70
     1
102
RTVSPropertyOp37
 70
     1
102
RTVSPropertyOp38
 70
     1
102
RTVSPropertyOp39
 70
     1
102
RTVSPropertyOp40
 70
     1
102
RTVSPropertyOp41
 70
     1
102
RTVSPropertyOp42
 70
     1
102
RTVSPropertyOp43
 70
     1
102
RTVSPropertyOp44
 70
     1
102
RTVSPropertyOp45
 70
     1
102
RTVSPropertyOp46
 70
     1
102
RTVSPropertyOp47
 70
     1
102
RTVSPropertyOp48
 70
     1
102
RTVSPropertyOp49
 70
     1
102
RTVSPropertyOp50
 70
     1
102
RTVSPropertyOp51
 70
     0
102
RTVSPropertyOp52
 70
     0
102
RTVSPropertyOp53
 70
     1
102
RTVSPropertyOp54
 70
     1
102
RTVSPropertyOp55
 70
     1
102
RTVSPropertyOp56
 70
     1
102
RTVSPropertyOp57
 70
     1
102
RTVSPropertyOp58
 70
     1
102
RTVSPropertyOp59
 70
     1
102
RTVSPropertyOp60
 70
     1
102
RTVSPropertyOp61
 70
     1
102
RTVSPropertyOp62
 70
     1
  0
XRECORD
  5
1167
102
{ACAD_REACTORS
330
1166
102
}
330
1166
100
AcDbXrecord
280
     1
102
RTVSPost2010Prop28
280
     0
102
RTVSPost2010PropOp28
 70
     1
102
RTVSPost2010Prop29
280
     1
102
RTVSPost2010PropOp29
 70
     1
102
RTVSPost2010Prop30
280
     1
102
RTVSPost2010PropOp30
 70
     1
102
RTVSPost2010Prop31
280
     0
102
RTVSPost2010PropOp31
 70
     1
102
RTVSPost2010Prop32
280
     0
102
RTVSPost2010PropOp32
 70
     1
102
RTVSPost2010Prop33
280
     0
102
RTVSPost2010PropOp33
 70
     1
102
RTVSPost2010Prop34
280
     0
102
RTVSPost2010PropOp34
 70
     1
102
RTVSPost2010Prop35
280
     0
102
RTVSPost2010PropOp35
 70
     1
102
RTVSPost2010Prop36
280
     0
102
RTVSPost2010PropOp36
 70
     1
102
RTVSPost2010Prop37
 90
       50
102
RTVSPost2010PropOp37
 70
     1
102
RTVSPost2010Prop38
140
0.0
102
RTVSPost2010PropOp38
 70
     1
102
RTVSPost2010Prop39
140
1.0
102
RTVSPost2010PropOp39
 70
     1
102
RTVSPost2010Prop40
 90
        0
102
RTVSPost2010PropOp40
 70
     1
102
RTVSPost2010Prop41ColorIndex
 90
       18
102
RTVSPost2010Prop41ColorRGB
 90
        0
102
RTVSPost2010PropOp41
 70
     1
102
RTVSPost2010Prop42
 90
       50
102
RTVSPost2010PropOp42
 70
     1
102
RTVSPost2010Prop43
 90
        3
102
RTVSPost2010PropOp43
 70
     1
102
RTVSPost2010Prop44ColorIndex
 90
        5
102
RTVSPost2010Prop44ColorRGB
 90
      255
102
RTVSPost2010PropOp44
 70
     1
102
RTVSPost2010Prop45
280
     0
102
RTVSPost2010PropOp45
 70
     1
102
RTVSPost2010Prop46
 90
       50
102
RTVSPost2010PropOp46
 70
     1
102
RTVSPost2010Prop47
 90
       50
102
RTVSPost2010PropOp47
 70
     1
102
RTVSPost2010Prop48
 90
       50
102
RTVSPost2010PropOp48
 70
     1
102
RTVSPost2010Prop49
280
     0
102
RTVSPost2010PropOp49
 70
     1
102
RTVSPost2010Prop50
 90
       50
102
RTVSPost2010PropOp50
 70
     1
102
RTVSPost2010Prop51ColorIndex
 90
      256
102
RTVSPost2010Prop51ColorRGB
 90
-16777216
102
RTVSPost2010PropOp51
 70
     0
102
RTVSPost2010Prop52
140
1.0
102
RTVSPost2010PropOp52
 70
     0
102
RTVSPost2010Prop53
 90
        2
102
RTVSPost2010PropOp53
 70
     1
102
RTVSPost2010Prop54
  1
strokes_ogs.tif
102
RTVSPost2010PropOp54
 70
     1
102
RTVSPost2010Prop55
280
     0
102
RTVSPost2010PropOp55
 70
     1
102
RTVSPost2010Prop56
140
1.0
102
RTVSPost2010PropOp56
 70
     1
102
RTVSPost2010Prop57
140
1.0
102
RTVSPost2010PropOp57
 70
     1
102
RTVSPropertyOp0
 70
     1
102
RTVSPropertyOp1
 70
     1
102
RTVSPropertyOp2
 70
     1
102
RTVSPropertyOp3
 70
     1
102
RTVSPropertyOp4
 70
     1
102
RTVSPropertyOp5
 70
     1
102
RTVSPropertyOp6
 70
     1
102
RTVSPropertyOp7
 70
     1
102
RTVSPropertyOp8
 70
     1
102
RTVSPropertyOp9
 70
     1
102
RTVSPropertyOp10
 70
     1
102
RTVSPropertyOp11
 70
     1
102
RTVSPropertyOp12
 70
     1
102
RTVSPropertyOp13
 70
     1
102
RTVSPropertyOp14
 70
     1
102
RTVSPropertyOp15
 70
     1
102
RTVSPropertyOp16
 70
     1
102
RTVSPropertyOp17
 70
     1
102
RTVSPropertyOp18
 70
     1
102
RTVSPropertyOp19
 70
     1
102
RTVSPropertyOp20
 70
     1
102
RTVSPropertyOp21
 70
     1
102
RTVSPropertyOp22
 70
     1
102
RTVSPropertyOp23
 70
     1
102
RTVSPropertyOp24
 70
     1
102
RTVSPropertyOp25
 70
     1
102
RTVSPropertyOp26
 70
     1
102
RTVSPropertyOp27
 70
     1
102
RTVSPropertyOp28
 70
     1
102
RTVSPropertyOp29
 70
     1
102
RTVSPropertyOp30
 70
     1
102
RTVSPropertyOp31
 70
     1
102
RTVSPropertyOp32
 70
     1
102
RTVSPropertyOp33
 70
     1
102
RTVSPropertyOp34
 70
     1
102
RTVSPropertyOp35
 70
     1
102
RTVSPropertyOp36
 70
     1
102
RTVSPropertyOp37
 70
     1
102
RTVSPropertyOp38
 70
     1
102
RTVSPropertyOp39
 70
     1
102
RTVSPropertyOp40
 70
     1
102
RTVSPropertyOp41
 70
     1
102
RTVSPropertyOp42
 70
     1
102
RTVSPropertyOp43
 70
     1
102
RTVSPropertyOp44
 70
     1
102
RTVSPropertyOp45
 70
     1
102
RTVSPropertyOp46
 70
     1
102
RTVSPropertyOp47
 70
     1
102
RTVSPropertyOp48
 70
     1
102
RTVSPropertyOp49
 70
     1
102
RTVSPropertyOp50
 70
     1
102
RTVSPropertyOp51
 70
     0
102
RTVSPropertyOp52
 70
     0
102
RTVSPropertyOp53
 70
     1
102
RTVSPropertyOp54
 70
     1
102
RTVSPropertyOp55
 70
     1
102
RTVSPropertyOp56
 70
     1
102
RTVSPropertyOp57
 70
     1
102
RTVSPropertyOp58
 70
     1
102
RTVSPropertyOp59
 70
     1
102
RTVSPropertyOp60
 70
     1
102
RTVSPropertyOp61
 70
     1
102
RTVSPropertyOp62
 70
     1
  0
XRECORD
  5
1181
102
{ACAD_REACTORS
330
1180
102
}
330
1180
100
AcDbXrecord
280
     1
102
RTVSPost2010Prop28
280
     0
102
RTVSPost2010PropOp28
 70
     0
102
RTVSPost2010Prop29
280
     1
102
RTVSPost2010PropOp29
 70
     0
102
RTVSPost2010Prop30
280
     1
102
RTVSPost2010PropOp30
 70
     0
102
RTVSPost2010Prop31
280
     0
102
RTVSPost2010PropOp31
 70
     0
102
RTVSPost2010Prop32
280
     0
102
RTVSPost2010PropOp32
 70
     0
102
RTVSPost2010Prop33
280
     0
102
RTVSPost2010PropOp33
 70
     0
102
RTVSPost2010Prop34
280
     0
102
RTVSPost2010PropOp34
 70
     0
102
RTVSPost2010Prop35
280
     0
102
RTVSPost2010PropOp35
 70
     0
102
RTVSPost2010Prop36
280
     0
102
RTVSPost2010PropOp36
 70
     0
102
RTVSPost2010Prop37
 90
       50
102
RTVSPost2010PropOp37
 70
     0
102
RTVSPost2010Prop38
140
0.0
102
RTVSPost2010PropOp38
 70
     0
102
RTVSPost2010Prop39
140
1.0
102
RTVSPost2010PropOp39
 70
     0
102
RTVSPost2010Prop40
 90
        0
102
RTVSPost2010PropOp40
 70
     0
102
RTVSPost2010Prop41ColorIndex
 90
       18
102
RTVSPost2010Prop41ColorRGB
 90
        0
102
RTVSPost2010PropOp41
 70
     0
102
RTVSPost2010Prop42
 90
       50
102
RTVSPost2010PropOp42
 70
     0
102
RTVSPost2010Prop43
 90
        3
102
RTVSPost2010PropOp43
 70
     0
102
RTVSPost2010Prop44ColorIndex
 90
        5
102
RTVSPost2010Prop44ColorRGB
 90
      255
102
RTVSPost2010PropOp44
 70
     0
102
RTVSPost2010Prop45
280
     0
102
RTVSPost2010PropOp45
 70
     0
102
RTVSPost2010Prop46
 90
       50
102
RTVSPost2010PropOp46
 70
     0
102
RTVSPost2010Prop47
 90
       50
102
RTVSPost2010PropOp47
 70
     0
102
RTVSPost2010Prop48
 90
       50
102
RTVSPost2010PropOp48
 70
     0
102
RTVSPost2010Prop49
280
     0
102
RTVSPost2010PropOp49
 70
     0
102
RTVSPost2010Prop50
 90
       50
102
RTVSPost2010PropOp50
 70
     0
102
RTVSPost2010Prop51ColorIndex
 90
      256
102
RTVSPost2010Prop51ColorRGB
 90
-16777216
102
RTVSPost2010PropOp51
 70
     0
102
RTVSPost2010Prop52
140
1.0
102
RTVSPost2010PropOp52
 70
     0
102
RTVSPost2010Prop53
 90
        2
102
RTVSPost2010PropOp53
 70
     0
102
RTVSPost2010Prop54
  1
strokes_ogs.tif
102
RTVSPost2010PropOp54
 70
     0
102
RTVSPost2010Prop55
280
     0
102
RTVSPost2010PropOp55
 70
     0
102
RTVSPost2010Prop56
140
1.0
102
RTVSPost2010PropOp56
 70
     0
102
RTVSPost2010Prop57
140
1.0
102
RTVSPost2010PropOp57
 70
     0
102
RTVSPropertyOp0
 70
     0
102
RTVSPropertyOp1
 70
     0
102
RTVSPropertyOp2
 70
     0
102
RTVSPropertyOp3
 70
     0
102
RTVSPropertyOp4
 70
     0
102
RTVSPropertyOp5
 70
     0
102
RTVSPropertyOp6
 70
     0
102
RTVSPropertyOp7
 70
     0
102
RTVSPropertyOp8
 70
     0
102
RTVSPropertyOp9
 70
     0
102
RTVSPropertyOp10
 70
     0
102
RTVSPropertyOp11
 70
     0
102
RTVSPropertyOp12
 70
     0
102
RTVSPropertyOp13
 70
     0
102
RTVSPropertyOp14
 70
     2
102
RTVSPropertyOp15
 70
     0
102
RTVSPropertyOp16
 70
     0
102
RTVSPropertyOp17
 70
     0
102
RTVSPropertyOp18
 70
     0
102
RTVSPropertyOp19
 70
     0
102
RTVSPropertyOp20
 70
     0
102
RTVSPropertyOp21
 70
     0
102
RTVSPropertyOp22
 70
     0
102
RTVSPropertyOp23
 70
     0
102
RTVSPropertyOp24
 70
     0
102
RTVSPropertyOp25
 70
     0
102
RTVSPropertyOp26
 70
     0
102
RTVSPropertyOp27
 70
     0
102
RTVSPropertyOp28
 70
     0
102
RTVSPropertyOp29
 70
     0
102
RTVSPropertyOp30
 70
     0
102
RTVSPropertyOp31
 70
     0
102
RTVSPropertyOp32
 70
     0
102
RTVSPropertyOp33
 70
     0
102
RTVSPropertyOp34
 70
     0
102
RTVSPropertyOp35
 70
     0
102
RTVSPropertyOp36
 70
     0
102
RTVSPropertyOp37
 70
     0
102
RTVSPropertyOp38
 70
     0
102
RTVSPropertyOp39
 70
     0
102
RTVSPropertyOp40
 70
     0
102
RTVSPropertyOp41
 70
     0
102
RTVSPropertyOp42
 70
     0
102
RTVSPropertyOp43
 70
     0
102
RTVSPropertyOp44
 70
     0
102
RTVSPropertyOp45
 70
     0
102
RTVSPropertyOp46
 70
     0
102
RTVSPropertyOp47
 70
     0
102
RTVSPropertyOp48
 70
     0
102
RTVSPropertyOp49
 70
     0
102
RTVSPropertyOp50
 70
     0
102
RTVSPropertyOp51
 70
     0
102
RTVSPropertyOp52
 70
     0
102
RTVSPropertyOp53
 70
     0
102
RTVSPropertyOp54
 70
     0
102
RTVSPropertyOp55
 70
     0
102
RTVSPropertyOp56
 70
     0
102
RTVSPropertyOp57
 70
     0
102
RTVSPropertyOp58
 70
     1
102
RTVSPropertyOp59
 70
     1
102
RTVSPropertyOp60
 70
     1
102
RTVSPropertyOp61
 70
     1
102
RTVSPropertyOp62
 70
     1
  0
XRECORD
  5
116F
102
{ACAD_REACTORS
330
116E
102
}
330
116E
100
AcDbXrecord
280
     1
102
RTVSPost2010Prop28
280
     0
102
RTVSPost2010PropOp28
 70
     1
102
RTVSPost2010Prop29
280
     1
102
RTVSPost2010PropOp29
 70
     1
102
RTVSPost2010Prop30
280
     1
102
RTVSPost2010PropOp30
 70
     1
102
RTVSPost2010Prop31
280
     0
102
RTVSPost2010PropOp31
 70
     1
102
RTVSPost2010Prop32
280
     0
102
RTVSPost2010PropOp32
 70
     1
102
RTVSPost2010Prop33
280
     0
102
RTVSPost2010PropOp33
 70
     1
102
RTVSPost2010Prop34
280
     0
102
RTVSPost2010PropOp34
 70
     1
102
RTVSPost2010Prop35
280
     0
102
RTVSPost2010PropOp35
 70
     1
102
RTVSPost2010Prop36
280
     0
102
RTVSPost2010PropOp36
 70
     1
102
RTVSPost2010Prop37
 90
       50
102
RTVSPost2010PropOp37
 70
     1
102
RTVSPost2010Prop38
140
0.0
102
RTVSPost2010PropOp38
 70
     1
102
RTVSPost2010Prop39
140
1.0
102
RTVSPost2010PropOp39
 70
     1
102
RTVSPost2010Prop40
 90
        0
102
RTVSPost2010PropOp40
 70
     1
102
RTVSPost2010Prop41ColorIndex
 90
       18
102
RTVSPost2010Prop41ColorRGB
 90
        0
102
RTVSPost2010PropOp41
 70
     1
102
RTVSPost2010Prop42
 90
       50
102
RTVSPost2010PropOp42
 70
     1
102
RTVSPost2010Prop43
 90
        3
102
RTVSPost2010PropOp43
 70
     1
102
RTVSPost2010Prop44ColorIndex
 90
        5
102
RTVSPost2010Prop44ColorRGB
 90
      255
102
RTVSPost2010PropOp44
 70
     1
102
RTVSPost2010Prop45
280
     0
102
RTVSPost2010PropOp45
 70
     1
102
RTVSPost2010Prop46
 90
       50
102
RTVSPost2010PropOp46
 70
     1
102
RTVSPost2010Prop47
 90
       50
102
RTVSPost2010PropOp47
 70
     1
102
RTVSPost2010Prop48
 90
       50
102
RTVSPost2010PropOp48
 70
     1
102
RTVSPost2010Prop49
280
     0
102
RTVSPost2010PropOp49
 70
     1
102
RTVSPost2010Prop50
 90
       50
102
RTVSPost2010PropOp50
 70
     1
102
RTVSPost2010Prop51ColorIndex
 90
      256
102
RTVSPost2010Prop51ColorRGB
 90
-16777216
102
RTVSPost2010PropOp51
 70
     0
102
RTVSPost2010Prop52
140
1.0
102
RTVSPost2010PropOp52
 70
     0
102
RTVSPost2010Prop53
 90
        2
102
RTVSPost2010PropOp53
 70
     1
102
RTVSPost2010Prop54
  1
strokes_ogs.tif
102
RTVSPost2010PropOp54
 70
     1
102
RTVSPost2010Prop55
280
     0
102
RTVSPost2010PropOp55
 70
     1
102
RTVSPost2010Prop56
140
1.0
102
RTVSPost2010PropOp56
 70
     1
102
RTVSPost2010Prop57
140
1.0
102
RTVSPost2010PropOp57
 70
     1
102
RTVSPropertyOp0
 70
     1
102
RTVSPropertyOp1
 70
     1
102
RTVSPropertyOp2
 70
     1
102
RTVSPropertyOp3
 70
     1
102
RTVSPropertyOp4
 70
     1
102
RTVSPropertyOp5
 70
     1
102
RTVSPropertyOp6
 70
     1
102
RTVSPropertyOp7
 70
     1
102
RTVSPropertyOp8
 70
     1
102
RTVSPropertyOp9
 70
     1
102
RTVSPropertyOp10
 70
     1
102
RTVSPropertyOp11
 70
     1
102
RTVSPropertyOp12
 70
     1
102
RTVSPropertyOp13
 70
     1
102
RTVSPropertyOp14
 70
     1
102
RTVSPropertyOp15
 70
     1
102
RTVSPropertyOp16
 70
     1
102
RTVSPropertyOp17
 70
     1
102
RTVSPropertyOp18
 70
     1
102
RTVSPropertyOp19
 70
     1
102
RTVSPropertyOp20
 70
     1
102
RTVSPropertyOp21
 70
     1
102
RTVSPropertyOp22
 70
     1
102
RTVSPropertyOp23
 70
     1
102
RTVSPropertyOp24
 70
     1
102
RTVSPropertyOp25
 70
     1
102
RTVSPropertyOp26
 70
     1
102
RTVSPropertyOp27
 70
     1
102
RTVSPropertyOp28
 70
     1
102
RTVSPropertyOp29
 70
     1
102
RTVSPropertyOp30
 70
     1
102
RTVSPropertyOp31
 70
     1
102
RTVSPropertyOp32
 70
     1
102
RTVSPropertyOp33
 70
     1
102
RTVSPropertyOp34
 70
     1
102
RTVSPropertyOp35
 70
     1
102
RTVSPropertyOp36
 70
     1
102
RTVSPropertyOp37
 70
     1
102
RTVSPropertyOp38
 70
     1
102
RTVSPropertyOp39
 70
     1
102
RTVSPropertyOp40
 70
     1
102
RTVSPropertyOp41
 70
     1
102
RTVSPropertyOp42
 70
     1
102
RTVSPropertyOp43
 70
     1
102
RTVSPropertyOp44
 70
     1
102
RTVSPropertyOp45
 70
     1
102
RTVSPropertyOp46
 70
     1
102
RTVSPropertyOp47
 70
     1
102
RTVSPropertyOp48
 70
     1
102
RTVSPropertyOp49
 70
     1
102
RTVSPropertyOp50
 70
     1
102
RTVSPropertyOp51
 70
     0
102
RTVSPropertyOp52
 70
     0
102
RTVSPropertyOp53
 70
     1
102
RTVSPropertyOp54
 70
     1
102
RTVSPropertyOp55
 70
     1
102
RTVSPropertyOp56
 70
     1
102
RTVSPropertyOp57
 70
     1
102
RTVSPropertyOp58
 70
     1
102
RTVSPropertyOp59
 70
     1
102
RTVSPropertyOp60
 70
     1
102
RTVSPropertyOp61
 70
     1
102
RTVSPropertyOp62
 70
     1
  0
XRECORD
  5
1153
102
{ACAD_REACTORS
330
1152
102
}
330
1152
100
AcDbXrecord
280
     1
102
RTVSPost2010Prop28
280
     0
102
RTVSPost2010PropOp28
 70
     1
102
RTVSPost2010Prop29
280
     1
102
RTVSPost2010PropOp29
 70
     1
102
RTVSPost2010Prop30
280
     1
102
RTVSPost2010PropOp30
 70
     1
102
RTVSPost2010Prop31
280
     0
102
RTVSPost2010PropOp31
 70
     1
102
RTVSPost2010Prop32
280
     0
102
RTVSPost2010PropOp32
 70
     1
102
RTVSPost2010Prop33
280
     0
102
RTVSPost2010PropOp33
 70
     1
102
RTVSPost2010Prop34
280
     0
102
RTVSPost2010PropOp34
 70
     1
102
RTVSPost2010Prop35
280
     0
102
RTVSPost2010PropOp35
 70
     1
102
RTVSPost2010Prop36
280
     0
102
RTVSPost2010PropOp36
 70
     1
102
RTVSPost2010Prop37
 90
       50
102
RTVSPost2010PropOp37
 70
     1
102
RTVSPost2010Prop38
140
0.0
102
RTVSPost2010PropOp38
 70
     1
102
RTVSPost2010Prop39
140
1.0
102
RTVSPost2010PropOp39
 70
     1
102
RTVSPost2010Prop40
 90
        0
102
RTVSPost2010PropOp40
 70
     1
102
RTVSPost2010Prop41ColorIndex
 90
       18
102
RTVSPost2010Prop41ColorRGB
 90
        0
102
RTVSPost2010PropOp41
 70
     1
102
RTVSPost2010Prop42
 90
       50
102
RTVSPost2010PropOp42
 70
     1
102
RTVSPost2010Prop43
 90
        3
102
RTVSPost2010PropOp43
 70
     1
102
RTVSPost2010Prop44ColorIndex
 90
        5
102
RTVSPost2010Prop44ColorRGB
 90
      255
102
RTVSPost2010PropOp44
 70
     1
102
RTVSPost2010Prop45
280
     0
102
RTVSPost2010PropOp45
 70
     1
102
RTVSPost2010Prop46
 90
       50
102
RTVSPost2010PropOp46
 70
     1
102
RTVSPost2010Prop47
 90
       50
102
RTVSPost2010PropOp47
 70
     1
102
RTVSPost2010Prop48
 90
       50
102
RTVSPost2010PropOp48
 70
     1
102
RTVSPost2010Prop49
280
     0
102
RTVSPost2010PropOp49
 70
     1
102
RTVSPost2010Prop50
 90
       50
102
RTVSPost2010PropOp50
 70
     1
102
RTVSPost2010Prop51ColorIndex
 90
      256
102
RTVSPost2010Prop51ColorRGB
 90
-16777216
102
RTVSPost2010PropOp51
 70
     0
102
RTVSPost2010Prop52
140
1.0
102
RTVSPost2010PropOp52
 70
     0
102
RTVSPost2010Prop53
 90
        2
102
RTVSPost2010PropOp53
 70
     1
102
RTVSPost2010Prop54
  1
strokes_ogs.tif
102
RTVSPost2010PropOp54
 70
     1
102
RTVSPost2010Prop55
280
     0
102
RTVSPost2010PropOp55
 70
     1
102
RTVSPost2010Prop56
140
1.0
102
RTVSPost2010PropOp56
 70
     1
102
RTVSPost2010Prop57
140
1.0
102
RTVSPost2010PropOp57
 70
     1
102
RTVSPropertyOp0
 70
     1
102
RTVSPropertyOp1
 70
     1
102
RTVSPropertyOp2
 70
     1
102
RTVSPropertyOp3
 70
     1
102
RTVSPropertyOp4
 70
     1
102
RTVSPropertyOp5
 70
     1
102
RTVSPropertyOp6
 70
     1
102
RTVSPropertyOp7
 70
     1
102
RTVSPropertyOp8
 70
     1
102
RTVSPropertyOp9
 70
     1
102
RTVSPropertyOp10
 70
     1
102
RTVSPropertyOp11
 70
     1
102
RTVSPropertyOp12
 70
     1
102
RTVSPropertyOp13
 70
     1
102
RTVSPropertyOp14
 70
     1
102
RTVSPropertyOp15
 70
     1
102
RTVSPropertyOp16
 70
     1
102
RTVSPropertyOp17
 70
     1
102
RTVSPropertyOp18
 70
     1
102
RTVSPropertyOp19
 70
     1
102
RTVSPropertyOp20
 70
     1
102
RTVSPropertyOp21
 70
     1
102
RTVSPropertyOp22
 70
     1
102
RTVSPropertyOp23
 70
     1
102
RTVSPropertyOp24
 70
     1
102
RTVSPropertyOp25
 70
     1
102
RTVSPropertyOp26
 70
     1
102
RTVSPropertyOp27
 70
     1
102
RTVSPropertyOp28
 70
     1
102
RTVSPropertyOp29
 70
     1
102
RTVSPropertyOp30
 70
     1
102
RTVSPropertyOp31
 70
     1
102
RTVSPropertyOp32
 70
     1
102
RTVSPropertyOp33
 70
     1
102
RTVSPropertyOp34
 70
     1
102
RTVSPropertyOp35
 70
     1
102
RTVSPropertyOp36
 70
     1
102
RTVSPropertyOp37
 70
     1
102
RTVSPropertyOp38
 70
     1
102
RTVSPropertyOp39
 70
     1
102
RTVSPropertyOp40
 70
     1
102
RTVSPropertyOp41
 70
     1
102
RTVSPropertyOp42
 70
     1
102
RTVSPropertyOp43
 70
     1
102
RTVSPropertyOp44
 70
     1
102
RTVSPropertyOp45
 70
     1
102
RTVSPropertyOp46
 70
     1
102
RTVSPropertyOp47
 70
     1
102
RTVSPropertyOp48
 70
     1
102
RTVSPropertyOp49
 70
     1
102
RTVSPropertyOp50
 70
     1
102
RTVSPropertyOp51
 70
     0
102
RTVSPropertyOp52
 70
     0
102
RTVSPropertyOp53
 70
     1
102
RTVSPropertyOp54
 70
     1
102
RTVSPropertyOp55
 70
     1
102
RTVSPropertyOp56
 70
     1
102
RTVSPropertyOp57
 70
     1
102
RTVSPropertyOp58
 70
     1
102
RTVSPropertyOp59
 70
     1
102
RTVSPropertyOp60
 70
     1
102
RTVSPropertyOp61
 70
     1
102
RTVSPropertyOp62
 70
     1
  0
XRECORD
  5
1155
102
{ACAD_REACTORS
330
1154
102
}
330
1154
100
AcDbXrecord
280
     1
102
RTVSPost2010Prop28
280
     0
102
RTVSPost2010PropOp28
 70
     1
102
RTVSPost2010Prop29
280
     1
102
RTVSPost2010PropOp29
 70
     1
102
RTVSPost2010Prop30
280
     1
102
RTVSPost2010PropOp30
 70
     1
102
RTVSPost2010Prop31
280
     0
102
RTVSPost2010PropOp31
 70
     1
102
RTVSPost2010Prop32
280
     0
102
RTVSPost2010PropOp32
 70
     1
102
RTVSPost2010Prop33
280
     0
102
RTVSPost2010PropOp33
 70
     1
102
RTVSPost2010Prop34
280
     0
102
RTVSPost2010PropOp34
 70
     1
102
RTVSPost2010Prop35
280
     0
102
RTVSPost2010PropOp35
 70
     1
102
RTVSPost2010Prop36
280
     0
102
RTVSPost2010PropOp36
 70
     1
102
RTVSPost2010Prop37
 90
       50
102
RTVSPost2010PropOp37
 70
     1
102
RTVSPost2010Prop38
140
0.0
102
RTVSPost2010PropOp38
 70
     1
102
RTVSPost2010Prop39
140
1.0
102
RTVSPost2010PropOp39
 70
     1
102
RTVSPost2010Prop40
 90
        0
102
RTVSPost2010PropOp40
 70
     1
102
RTVSPost2010Prop41ColorIndex
 90
       18
102
RTVSPost2010Prop41ColorRGB
 90
        0
102
RTVSPost2010PropOp41
 70
     1
102
RTVSPost2010Prop42
 90
       50
102
RTVSPost2010PropOp42
 70
     1
102
RTVSPost2010Prop43
 90
        3
102
RTVSPost2010PropOp43
 70
     1
102
RTVSPost2010Prop44ColorIndex
 90
        5
102
RTVSPost2010Prop44ColorRGB
 90
      255
102
RTVSPost2010PropOp44
 70
     1
102
RTVSPost2010Prop45
280
     0
102
RTVSPost2010PropOp45
 70
     1
102
RTVSPost2010Prop46
 90
       50
102
RTVSPost2010PropOp46
 70
     1
102
RTVSPost2010Prop47
 90
       50
102
RTVSPost2010PropOp47
 70
     1
102
RTVSPost2010Prop48
 90
       50
102
RTVSPost2010PropOp48
 70
     1
102
RTVSPost2010Prop49
280
     0
102
RTVSPost2010PropOp49
 70
     1
102
RTVSPost2010Prop50
 90
       50
102
RTVSPost2010PropOp50
 70
     1
102
RTVSPost2010Prop51ColorIndex
 90
      256
102
RTVSPost2010Prop51ColorRGB
 90
-16777216
102
RTVSPost2010PropOp51
 70
     0
102
RTVSPost2010Prop52
140
1.0
102
RTVSPost2010PropOp52
 70
     0
102
RTVSPost2010Prop53
 90
        2
102
RTVSPost2010PropOp53
 70
     1
102
RTVSPost2010Prop54
  1
strokes_ogs.tif
102
RTVSPost2010PropOp54
 70
     1
102
RTVSPost2010Prop55
280
     0
102
RTVSPost2010PropOp55
 70
     1
102
RTVSPost2010Prop56
140
1.0
102
RTVSPost2010PropOp56
 70
     1
102
RTVSPost2010Prop57
140
1.0
102
RTVSPost2010PropOp57
 70
     1
102
RTVSPropertyOp0
 70
     1
102
RTVSPropertyOp1
 70
     1
102
RTVSPropertyOp2
 70
     1
102
RTVSPropertyOp3
 70
     1
102
RTVSPropertyOp4
 70
     1
102
RTVSPropertyOp5
 70
     1
102
RTVSPropertyOp6
 70
     1
102
RTVSPropertyOp7
 70
     1
102
RTVSPropertyOp8
 70
     1
102
RTVSPropertyOp9
 70
     1
102
RTVSPropertyOp10
 70
     1
102
RTVSPropertyOp11
 70
     1
102
RTVSPropertyOp12
 70
     1
102
RTVSPropertyOp13
 70
     1
102
RTVSPropertyOp14
 70
     1
102
RTVSPropertyOp15
 70
     1
102
RTVSPropertyOp16
 70
     1
102
RTVSPropertyOp17
 70
     1
102
RTVSPropertyOp18
 70
     1
102
RTVSPropertyOp19
 70
     1
102
RTVSPropertyOp20
 70
     1
102
RTVSPropertyOp21
 70
     1
102
RTVSPropertyOp22
 70
     1
102
RTVSPropertyOp23
 70
     1
102
RTVSPropertyOp24
 70
     1
102
RTVSPropertyOp25
 70
     1
102
RTVSPropertyOp26
 70
     1
102
RTVSPropertyOp27
 70
     1
102
RTVSPropertyOp28
 70
     1
102
RTVSPropertyOp29
 70
     1
102
RTVSPropertyOp30
 70
     1
102
RTVSPropertyOp31
 70
     1
102
RTVSPropertyOp32
 70
     1
102
RTVSPropertyOp33
 70
     1
102
RTVSPropertyOp34
 70
     1
102
RTVSPropertyOp35
 70
     1
102
RTVSPropertyOp36
 70
     1
102
RTVSPropertyOp37
 70
     1
102
RTVSPropertyOp38
 70
     1
102
RTVSPropertyOp39
 70
     1
102
RTVSPropertyOp40
 70
     1
102
RTVSPropertyOp41
 70
     1
102
RTVSPropertyOp42
 70
     1
102
RTVSPropertyOp43
 70
     1
102
RTVSPropertyOp44
 70
     1
102
RTVSPropertyOp45
 70
     1
102
RTVSPropertyOp46
 70
     1
102
RTVSPropertyOp47
 70
     1
102
RTVSPropertyOp48
 70
     1
102
RTVSPropertyOp49
 70
     1
102
RTVSPropertyOp50
 70
     1
102
RTVSPropertyOp51
 70
     0
102
RTVSPropertyOp52
 70
     0
102
RTVSPropertyOp53
 70
     1
102
RTVSPropertyOp54
 70
     1
102
RTVSPropertyOp55
 70
     1
102
RTVSPropertyOp56
 70
     1
102
RTVSPropertyOp57
 70
     1
102
RTVSPropertyOp58
 70
     1
102
RTVSPropertyOp59
 70
     1
102
RTVSPropertyOp60
 70
     1
102
RTVSPropertyOp61
 70
     1
102
RTVSPropertyOp62
 70
     1
  0
XRECORD
  5
1157
102
{ACAD_REACTORS
330
1156
102
}
330
1156
100
AcDbXrecord
280
     1
102
RTVSPost2010Prop28
280
     0
102
RTVSPost2010PropOp28
 70
     1
102
RTVSPost2010Prop29
280
     1
102
RTVSPost2010PropOp29
 70
     1
102
RTVSPost2010Prop30
280
     1
102
RTVSPost2010PropOp30
 70
     1
102
RTVSPost2010Prop31
280
     0
102
RTVSPost2010PropOp31
 70
     1
102
RTVSPost2010Prop32
280
     0
102
RTVSPost2010PropOp32
 70
     1
102
RTVSPost2010Prop33
280
     0
102
RTVSPost2010PropOp33
 70
     1
102
RTVSPost2010Prop34
280
     0
102
RTVSPost2010PropOp34
 70
     1
102
RTVSPost2010Prop35
280
     0
102
RTVSPost2010PropOp35
 70
     1
102
RTVSPost2010Prop36
280
     0
102
RTVSPost2010PropOp36
 70
     1
102
RTVSPost2010Prop37
 90
       50
102
RTVSPost2010PropOp37
 70
     1
102
RTVSPost2010Prop38
140
0.0
102
RTVSPost2010PropOp38
 70
     1
102
RTVSPost2010Prop39
140
1.0
102
RTVSPost2010PropOp39
 70
     1
102
RTVSPost2010Prop40
 90
        0
102
RTVSPost2010PropOp40
 70
     1
102
RTVSPost2010Prop41ColorIndex
 90
       18
102
RTVSPost2010Prop41ColorRGB
 90
        0
102
RTVSPost2010PropOp41
 70
     1
102
RTVSPost2010Prop42
 90
       50
102
RTVSPost2010PropOp42
 70
     1
102
RTVSPost2010Prop43
 90
        3
102
RTVSPost2010PropOp43
 70
     1
102
RTVSPost2010Prop44ColorIndex
 90
        5
102
RTVSPost2010Prop44ColorRGB
 90
      255
102
RTVSPost2010PropOp44
 70
     1
102
RTVSPost2010Prop45
280
     0
102
RTVSPost2010PropOp45
 70
     1
102
RTVSPost2010Prop46
 90
       50
102
RTVSPost2010PropOp46
 70
     1
102
RTVSPost2010Prop47
 90
       50
102
RTVSPost2010PropOp47
 70
     1
102
RTVSPost2010Prop48
 90
       50
102
RTVSPost2010PropOp48
 70
     1
102
RTVSPost2010Prop49
280
     0
102
RTVSPost2010PropOp49
 70
     1
102
RTVSPost2010Prop50
 90
       50
102
RTVSPost2010PropOp50
 70
     1
102
RTVSPost2010Prop51ColorIndex
 90
      256
102
RTVSPost2010Prop51ColorRGB
 90
-16777216
102
RTVSPost2010PropOp51
 70
     0
102
RTVSPost2010Prop52
140
1.0
102
RTVSPost2010PropOp52
 70
     0
102
RTVSPost2010Prop53
 90
        2
102
RTVSPost2010PropOp53
 70
     1
102
RTVSPost2010Prop54
  1
strokes_ogs.tif
102
RTVSPost2010PropOp54
 70
     1
102
RTVSPost2010Prop55
280
     0
102
RTVSPost2010PropOp55
 70
     1
102
RTVSPost2010Prop56
140
1.0
102
RTVSPost2010PropOp56
 70
     1
102
RTVSPost2010Prop57
140
1.0
102
RTVSPost2010PropOp57
 70
     1
102
RTVSPropertyOp0
 70
     1
102
RTVSPropertyOp1
 70
     1
102
RTVSPropertyOp2
 70
     1
102
RTVSPropertyOp3
 70
     1
102
RTVSPropertyOp4
 70
     1
102
RTVSPropertyOp5
 70
     1
102
RTVSPropertyOp6
 70
     1
102
RTVSPropertyOp7
 70
     1
102
RTVSPropertyOp8
 70
     1
102
RTVSPropertyOp9
 70
     1
102
RTVSPropertyOp10
 70
     1
102
RTVSPropertyOp11
 70
     1
102
RTVSPropertyOp12
 70
     1
102
RTVSPropertyOp13
 70
     1
102
RTVSPropertyOp14
 70
     1
102
RTVSPropertyOp15
 70
     1
102
RTVSPropertyOp16
 70
     1
102
RTVSPropertyOp17
 70
     1
102
RTVSPropertyOp18
 70
     1
102
RTVSPropertyOp19
 70
     1
102
RTVSPropertyOp20
 70
     1
102
RTVSPropertyOp21
 70
     1
102
RTVSPropertyOp22
 70
     1
102
RTVSPropertyOp23
 70
     1
102
RTVSPropertyOp24
 70
     1
102
RTVSPropertyOp25
 70
     1
102
RTVSPropertyOp26
 70
     1
102
RTVSPropertyOp27
 70
     1
102
RTVSPropertyOp28
 70
     1
102
RTVSPropertyOp29
 70
     1
102
RTVSPropertyOp30
 70
     1
102
RTVSPropertyOp31
 70
     1
102
RTVSPropertyOp32
 70
     1
102
RTVSPropertyOp33
 70
     1
102
RTVSPropertyOp34
 70
     1
102
RTVSPropertyOp35
 70
     1
102
RTVSPropertyOp36
 70
     1
102
RTVSPropertyOp37
 70
     1
102
RTVSPropertyOp38
 70
     1
102
RTVSPropertyOp39
 70
     1
102
RTVSPropertyOp40
 70
     1
102
RTVSPropertyOp41
 70
     1
102
RTVSPropertyOp42
 70
     1
102
RTVSPropertyOp43
 70
     1
102
RTVSPropertyOp44
 70
     1
102
RTVSPropertyOp45
 70
     1
102
RTVSPropertyOp46
 70
     1
102
RTVSPropertyOp47
 70
     1
102
RTVSPropertyOp48
 70
     1
102
RTVSPropertyOp49
 70
     1
102
RTVSPropertyOp50
 70
     1
102
RTVSPropertyOp51
 70
     0
102
RTVSPropertyOp52
 70
     0
102
RTVSPropertyOp53
 70
     1
102
RTVSPropertyOp54
 70
     1
102
RTVSPropertyOp55
 70
     1
102
RTVSPropertyOp56
 70
     1
102
RTVSPropertyOp57
 70
     1
102
RTVSPropertyOp58
 70
     1
102
RTVSPropertyOp59
 70
     1
102
RTVSPropertyOp60
 70
     1
102
RTVSPropertyOp61
 70
     1
102
RTVSPropertyOp62
 70
     1
  0
XRECORD
  5
1159
102
{ACAD_REACTORS
330
1158
102
}
330
1158
100
AcDbXrecord
280
     1
102
RTVSPost2010Prop28
280
     0
102
RTVSPost2010PropOp28
 70
     1
102
RTVSPost2010Prop29
280
     1
102
RTVSPost2010PropOp29
 70
     1
102
RTVSPost2010Prop30
280
     1
102
RTVSPost2010PropOp30
 70
     1
102
RTVSPost2010Prop31
280
     0
102
RTVSPost2010PropOp31
 70
     1
102
RTVSPost2010Prop32
280
     0
102
RTVSPost2010PropOp32
 70
     1
102
RTVSPost2010Prop33
280
     0
102
RTVSPost2010PropOp33
 70
     1
102
RTVSPost2010Prop34
280
     0
102
RTVSPost2010PropOp34
 70
     1
102
RTVSPost2010Prop35
280
     0
102
RTVSPost2010PropOp35
 70
     1
102
RTVSPost2010Prop36
280
     0
102
RTVSPost2010PropOp36
 70
     1
102
RTVSPost2010Prop37
 90
       50
102
RTVSPost2010PropOp37
 70
     1
102
RTVSPost2010Prop38
140
0.0
102
RTVSPost2010PropOp38
 70
     1
102
RTVSPost2010Prop39
140
1.0
102
RTVSPost2010PropOp39
 70
     1
102
RTVSPost2010Prop40
 90
        0
102
RTVSPost2010PropOp40
 70
     1
102
RTVSPost2010Prop41ColorIndex
 90
       18
102
RTVSPost2010Prop41ColorRGB
 90
        0
102
RTVSPost2010PropOp41
 70
     1
102
RTVSPost2010Prop42
 90
       50
102
RTVSPost2010PropOp42
 70
     1
102
RTVSPost2010Prop43
 90
        3
102
RTVSPost2010PropOp43
 70
     1
102
RTVSPost2010Prop44ColorIndex
 90
        5
102
RTVSPost2010Prop44ColorRGB
 90
      255
102
RTVSPost2010PropOp44
 70
     1
102
RTVSPost2010Prop45
280
     0
102
RTVSPost2010PropOp45
 70
     1
102
RTVSPost2010Prop46
 90
       50
102
RTVSPost2010PropOp46
 70
     1
102
RTVSPost2010Prop47
 90
       50
102
RTVSPost2010PropOp47
 70
     1
102
RTVSPost2010Prop48
 90
       50
102
RTVSPost2010PropOp48
 70
     1
102
RTVSPost2010Prop49
280
     0
102
RTVSPost2010PropOp49
 70
     1
102
RTVSPost2010Prop50
 90
       50
102
RTVSPost2010PropOp50
 70
     1
102
RTVSPost2010Prop51ColorIndex
 90
      256
102
RTVSPost2010Prop51ColorRGB
 90
-16777216
102
RTVSPost2010PropOp51
 70
     0
102
RTVSPost2010Prop52
140
1.0
102
RTVSPost2010PropOp52
 70
     0
102
RTVSPost2010Prop53
 90
        2
102
RTVSPost2010PropOp53
 70
     1
102
RTVSPost2010Prop54
  1
strokes_ogs.tif
102
RTVSPost2010PropOp54
 70
     1
102
RTVSPost2010Prop55
280
     0
102
RTVSPost2010PropOp55
 70
     1
102
RTVSPost2010Prop56
140
1.0
102
RTVSPost2010PropOp56
 70
     1
102
RTVSPost2010Prop57
140
1.0
102
RTVSPost2010PropOp57
 70
     1
102
RTVSPropertyOp0
 70
     1
102
RTVSPropertyOp1
 70
     1
102
RTVSPropertyOp2
 70
     1
102
RTVSPropertyOp3
 70
     1
102
RTVSPropertyOp4
 70
     1
102
RTVSPropertyOp5
 70
     1
102
RTVSPropertyOp6
 70
     1
102
RTVSPropertyOp7
 70
     1
102
RTVSPropertyOp8
 70
     1
102
RTVSPropertyOp9
 70
     1
102
RTVSPropertyOp10
 70
     1
102
RTVSPropertyOp11
 70
     1
102
RTVSPropertyOp12
 70
     1
102
RTVSPropertyOp13
 70
     1
102
RTVSPropertyOp14
 70
     1
102
RTVSPropertyOp15
 70
     1
102
RTVSPropertyOp16
 70
     1
102
RTVSPropertyOp17
 70
     1
102
RTVSPropertyOp18
 70
     1
102
RTVSPropertyOp19
 70
     1
102
RTVSPropertyOp20
 70
     1
102
RTVSPropertyOp21
 70
     1
102
RTVSPropertyOp22
 70
     1
102
RTVSPropertyOp23
 70
     1
102
RTVSPropertyOp24
 70
     1
102
RTVSPropertyOp25
 70
     1
102
RTVSPropertyOp26
 70
     1
102
RTVSPropertyOp27
 70
     1
102
RTVSPropertyOp28
 70
     1
102
RTVSPropertyOp29
 70
     1
102
RTVSPropertyOp30
 70
     1
102
RTVSPropertyOp31
 70
     1
102
RTVSPropertyOp32
 70
     1
102
RTVSPropertyOp33
 70
     1
102
RTVSPropertyOp34
 70
     1
102
RTVSPropertyOp35
 70
     1
102
RTVSPropertyOp36
 70
     1
102
RTVSPropertyOp37
 70
     1
102
RTVSPropertyOp38
 70
     1
102
RTVSPropertyOp39
 70
     1
102
RTVSPropertyOp40
 70
     1
102
RTVSPropertyOp41
 70
     1
102
RTVSPropertyOp42
 70
     1
102
RTVSPropertyOp43
 70
     1
102
RTVSPropertyOp44
 70
     1
102
RTVSPropertyOp45
 70
     1
102
RTVSPropertyOp46
 70
     1
102
RTVSPropertyOp47
 70
     1
102
RTVSPropertyOp48
 70
     1
102
RTVSPropertyOp49
 70
     1
102
RTVSPropertyOp50
 70
     1
102
RTVSPropertyOp51
 70
     0
102
RTVSPropertyOp52
 70
     0
102
RTVSPropertyOp53
 70
     1
102
RTVSPropertyOp54
 70
     1
102
RTVSPropertyOp55
 70
     1
102
RTVSPropertyOp56
 70
     1
102
RTVSPropertyOp57
 70
     1
102
RTVSPropertyOp58
 70
     1
102
RTVSPropertyOp59
 70
     1
102
RTVSPropertyOp60
 70
     1
102
RTVSPropertyOp61
 70
     1
102
RTVSPropertyOp62
 70
     1
  0
XRECORD
  5
1161
102
{ACAD_REACTORS
330
1160
102
}
330
1160
100
AcDbXrecord
280
     1
102
RTVSPost2010Prop28
280
     0
102
RTVSPost2010PropOp28
 70
     1
102
RTVSPost2010Prop29
280
     1
102
RTVSPost2010PropOp29
 70
     1
102
RTVSPost2010Prop30
280
     1
102
RTVSPost2010PropOp30
 70
     1
102
RTVSPost2010Prop31
280
     0
102
RTVSPost2010PropOp31
 70
     1
102
RTVSPost2010Prop32
280
     0
102
RTVSPost2010PropOp32
 70
     1
102
RTVSPost2010Prop33
280
     0
102
RTVSPost2010PropOp33
 70
     1
102
RTVSPost2010Prop34
280
     0
102
RTVSPost2010PropOp34
 70
     1
102
RTVSPost2010Prop35
280
     0
102
RTVSPost2010PropOp35
 70
     1
102
RTVSPost2010Prop36
280
     0
102
RTVSPost2010PropOp36
 70
     1
102
RTVSPost2010Prop37
 90
       50
102
RTVSPost2010PropOp37
 70
     1
102
RTVSPost2010Prop38
140
0.0
102
RTVSPost2010PropOp38
 70
     1
102
RTVSPost2010Prop39
140
1.0
102
RTVSPost2010PropOp39
 70
     1
102
RTVSPost2010Prop40
 90
        0
102
RTVSPost2010PropOp40
 70
     1
102
RTVSPost2010Prop41ColorIndex
 90
       18
102
RTVSPost2010Prop41ColorRGB
 90
        0
102
RTVSPost2010PropOp41
 70
     1
102
RTVSPost2010Prop42
 90
       50
102
RTVSPost2010PropOp42
 70
     1
102
RTVSPost2010Prop43
 90
        3
102
RTVSPost2010PropOp43
 70
     1
102
RTVSPost2010Prop44ColorIndex
 90
        5
102
RTVSPost2010Prop44ColorRGB
 90
      255
102
RTVSPost2010PropOp44
 70
     1
102
RTVSPost2010Prop45
280
     0
102
RTVSPost2010PropOp45
 70
     1
102
RTVSPost2010Prop46
 90
       50
102
RTVSPost2010PropOp46
 70
     1
102
RTVSPost2010Prop47
 90
       50
102
RTVSPost2010PropOp47
 70
     1
102
RTVSPost2010Prop48
 90
       50
102
RTVSPost2010PropOp48
 70
     1
102
RTVSPost2010Prop49
280
     0
102
RTVSPost2010PropOp49
 70
     1
102
RTVSPost2010Prop50
 90
       50
102
RTVSPost2010PropOp50
 70
     1
102
RTVSPost2010Prop51ColorIndex
 90
      256
102
RTVSPost2010Prop51ColorRGB
 90
-16777216
102
RTVSPost2010PropOp51
 70
     0
102
RTVSPost2010Prop52
140
1.0
102
RTVSPost2010PropOp52
 70
     0
102
RTVSPost2010Prop53
 90
        2
102
RTVSPost2010PropOp53
 70
     1
102
RTVSPost2010Prop54
  1
strokes_ogs.tif
102
RTVSPost2010PropOp54
 70
     1
102
RTVSPost2010Prop55
280
     0
102
RTVSPost2010PropOp55
 70
     1
102
RTVSPost2010Prop56
140
1.0
102
RTVSPost2010PropOp56
 70
     1
102
RTVSPost2010Prop57
140
1.0
102
RTVSPost2010PropOp57
 70
     1
102
RTVSPropertyOp0
 70
     1
102
RTVSPropertyOp1
 70
     1
102
RTVSPropertyOp2
 70
     1
102
RTVSPropertyOp3
 70
     1
102
RTVSPropertyOp4
 70
     1
102
RTVSPropertyOp5
 70
     1
102
RTVSPropertyOp6
 70
     1
102
RTVSPropertyOp7
 70
     1
102
RTVSPropertyOp8
 70
     1
102
RTVSPropertyOp9
 70
     1
102
RTVSPropertyOp10
 70
     1
102
RTVSPropertyOp11
 70
     1
102
RTVSPropertyOp12
 70
     1
102
RTVSPropertyOp13
 70
     1
102
RTVSPropertyOp14
 70
     1
102
RTVSPropertyOp15
 70
     1
102
RTVSPropertyOp16
 70
     1
102
RTVSPropertyOp17
 70
     1
102
RTVSPropertyOp18
 70
     1
102
RTVSPropertyOp19
 70
     1
102
RTVSPropertyOp20
 70
     1
102
RTVSPropertyOp21
 70
     1
102
RTVSPropertyOp22
 70
     1
102
RTVSPropertyOp23
 70
     1
102
RTVSPropertyOp24
 70
     1
102
RTVSPropertyOp25
 70
     1
102
RTVSPropertyOp26
 70
     1
102
RTVSPropertyOp27
 70
     1
102
RTVSPropertyOp28
 70
     1
102
RTVSPropertyOp29
 70
     1
102
RTVSPropertyOp30
 70
     1
102
RTVSPropertyOp31
 70
     1
102
RTVSPropertyOp32
 70
     1
102
RTVSPropertyOp33
 70
     1
102
RTVSPropertyOp34
 70
     1
102
RTVSPropertyOp35
 70
     1
102
RTVSPropertyOp36
 70
     1
102
RTVSPropertyOp37
 70
     1
102
RTVSPropertyOp38
 70
     1
102
RTVSPropertyOp39
 70
     1
102
RTVSPropertyOp40
 70
     1
102
RTVSPropertyOp41
 70
     1
102
RTVSPropertyOp42
 70
     1
102
RTVSPropertyOp43
 70
     1
102
RTVSPropertyOp44
 70
     1
102
RTVSPropertyOp45
 70
     1
102
RTVSPropertyOp46
 70
     1
102
RTVSPropertyOp47
 70
     1
102
RTVSPropertyOp48
 70
     1
102
RTVSPropertyOp49
 70
     1
102
RTVSPropertyOp50
 70
     1
102
RTVSPropertyOp51
 70
     0
102
RTVSPropertyOp52
 70
     0
102
RTVSPropertyOp53
 70
     1
102
RTVSPropertyOp54
 70
     1
102
RTVSPropertyOp55
 70
     1
102
RTVSPropertyOp56
 70
     1
102
RTVSPropertyOp57
 70
     1
102
RTVSPropertyOp58
 70
     1
102
RTVSPropertyOp59
 70
     1
102
RTVSPropertyOp60
 70
     1
102
RTVSPropertyOp61
 70
     1
102
RTVSPropertyOp62
 70
     1
  0
XRECORD
  5
117D
102
{ACAD_REACTORS
330
117C
102
}
330
117C
100
AcDbXrecord
280
     1
102
RTVSPost2010Prop28
280
     0
102
RTVSPost2010PropOp28
 70
     0
102
RTVSPost2010Prop29
280
     1
102
RTVSPost2010PropOp29
 70
     0
102
RTVSPost2010Prop30
280
     1
102
RTVSPost2010PropOp30
 70
     0
102
RTVSPost2010Prop31
280
     0
102
RTVSPost2010PropOp31
 70
     0
102
RTVSPost2010Prop32
280
     0
102
RTVSPost2010PropOp32
 70
     0
102
RTVSPost2010Prop33
280
     0
102
RTVSPost2010PropOp33
 70
     0
102
RTVSPost2010Prop34
280
     0
102
RTVSPost2010PropOp34
 70
     0
102
RTVSPost2010Prop35
280
     0
102
RTVSPost2010PropOp35
 70
     0
102
RTVSPost2010Prop36
280
     0
102
RTVSPost2010PropOp36
 70
     0
102
RTVSPost2010Prop37
 90
       50
102
RTVSPost2010PropOp37
 70
     0
102
RTVSPost2010Prop38
140
0.0
102
RTVSPost2010PropOp38
 70
     0
102
RTVSPost2010Prop39
140
1.0
102
RTVSPost2010PropOp39
 70
     0
102
RTVSPost2010Prop40
 90
        0
102
RTVSPost2010PropOp40
 70
     0
102
RTVSPost2010Prop41ColorIndex
 90
       18
102
RTVSPost2010Prop41ColorRGB
 90
        0
102
RTVSPost2010PropOp41
 70
     0
102
RTVSPost2010Prop42
 90
       50
102
RTVSPost2010PropOp42
 70
     0
102
RTVSPost2010Prop43
 90
        3
102
RTVSPost2010PropOp43
 70
     0
102
RTVSPost2010Prop44ColorIndex
 90
        5
102
RTVSPost2010Prop44ColorRGB
 90
      255
102
RTVSPost2010PropOp44
 70
     0
102
RTVSPost2010Prop45
280
     0
102
RTVSPost2010PropOp45
 70
     0
102
RTVSPost2010Prop46
 90
       50
102
RTVSPost2010PropOp46
 70
     0
102
RTVSPost2010Prop47
 90
       50
102
RTVSPost2010PropOp47
 70
     0
102
RTVSPost2010Prop48
 90
       50
102
RTVSPost2010PropOp48
 70
     0
102
RTVSPost2010Prop49
280
     0
102
RTVSPost2010PropOp49
 70
     0
102
RTVSPost2010Prop50
 90
       50
102
RTVSPost2010PropOp50
 70
     0
102
RTVSPost2010Prop51ColorIndex
 90
      256
102
RTVSPost2010Prop51ColorRGB
 90
-16777216
102
RTVSPost2010PropOp51
 70
     0
102
RTVSPost2010Prop52
140
1.0
102
RTVSPost2010PropOp52
 70
     0
102
RTVSPost2010Prop53
 90
        2
102
RTVSPost2010PropOp53
 70
     0
102
RTVSPost2010Prop54
  1
strokes_ogs.tif
102
RTVSPost2010PropOp54
 70
     0
102
RTVSPost2010Prop55
280
     0
102
RTVSPost2010PropOp55
 70
     0
102
RTVSPost2010Prop56
140
1.0
102
RTVSPost2010PropOp56
 70
     0
102
RTVSPost2010Prop57
140
1.0
102
RTVSPost2010PropOp57
 70
     0
102
RTVSPropertyOp0
 70
     0
102
RTVSPropertyOp1
 70
     0
102
RTVSPropertyOp2
 70
     0
102
RTVSPropertyOp3
 70
     0
102
RTVSPropertyOp4
 70
     0
102
RTVSPropertyOp5
 70
     0
102
RTVSPropertyOp6
 70
     0
102
RTVSPropertyOp7
 70
     0
102
RTVSPropertyOp8
 70
     0
102
RTVSPropertyOp9
 70
     0
102
RTVSPropertyOp10
 70
     0
102
RTVSPropertyOp11
 70
     0
102
RTVSPropertyOp12
 70
     0
102
RTVSPropertyOp13
 70
     0
102
RTVSPropertyOp14
 70
     2
102
RTVSPropertyOp15
 70
     0
102
RTVSPropertyOp16
 70
     0
102
RTVSPropertyOp17
 70
     0
102
RTVSPropertyOp18
 70
     0
102
RTVSPropertyOp19
 70
     0
102
RTVSPropertyOp20
 70
     0
102
RTVSPropertyOp21
 70
     0
102
RTVSPropertyOp22
 70
     0
102
RTVSPropertyOp23
 70
     0
102
RTVSPropertyOp24
 70
     0
102
RTVSPropertyOp25
 70
     0
102
RTVSPropertyOp26
 70
     0
102
RTVSPropertyOp27
 70
     0
102
RTVSPropertyOp28
 70
     0
102
RTVSPropertyOp29
 70
     0
102
RTVSPropertyOp30
 70
     0
102
RTVSPropertyOp31
 70
     0
102
RTVSPropertyOp32
 70
     0
102
RTVSPropertyOp33
 70
     0
102
RTVSPropertyOp34
 70
     0
102
RTVSPropertyOp35
 70
     0
102
RTVSPropertyOp36
 70
     0
102
RTVSPropertyOp37
 70
     0
102
RTVSPropertyOp38
 70
     0
102
RTVSPropertyOp39
 70
     0
102
RTVSPropertyOp40
 70
     0
102
RTVSPropertyOp41
 70
     0
102
RTVSPropertyOp42
 70
     0
102
RTVSPropertyOp43
 70
     0
102
RTVSPropertyOp44
 70
     0
102
RTVSPropertyOp45
 70
     0
102
RTVSPropertyOp46
 70
     0
102
RTVSPropertyOp47
 70
     0
102
RTVSPropertyOp48
 70
     0
102
RTVSPropertyOp49
 70
     0
102
RTVSPropertyOp50
 70
     0
102
RTVSPropertyOp51
 70
     0
102
RTVSPropertyOp52
 70
     0
102
RTVSPropertyOp53
 70
     0
102
RTVSPropertyOp54
 70
     0
102
RTVSPropertyOp55
 70
     0
102
RTVSPropertyOp56
 70
     0
102
RTVSPropertyOp57
 70
     0
102
RTVSPropertyOp58
 70
     1
102
RTVSPropertyOp59
 70
     1
102
RTVSPropertyOp60
 70
     1
102
RTVSPropertyOp61
 70
     1
102
RTVSPropertyOp62
 70
     1
  0
XRECORD
  5
116D
102
{ACAD_REACTORS
330
116C
102
}
330
116C
100
AcDbXrecord
280
     1
102
RTVSPost2010Prop28
280
     0
102
RTVSPost2010PropOp28
 70
     1
102
RTVSPost2010Prop29
280
     1
102
RTVSPost2010PropOp29
 70
     1
102
RTVSPost2010Prop30
280
     1
102
RTVSPost2010PropOp30
 70
     1
102
RTVSPost2010Prop31
280
     0
102
RTVSPost2010PropOp31
 70
     1
102
RTVSPost2010Prop32
280
     0
102
RTVSPost2010PropOp32
 70
     1
102
RTVSPost2010Prop33
280
     0
102
RTVSPost2010PropOp33
 70
     1
102
RTVSPost2010Prop34
280
     0
102
RTVSPost2010PropOp34
 70
     1
102
RTVSPost2010Prop35
280
     0
102
RTVSPost2010PropOp35
 70
     1
102
RTVSPost2010Prop36
280
     0
102
RTVSPost2010PropOp36
 70
     1
102
RTVSPost2010Prop37
 90
       50
102
RTVSPost2010PropOp37
 70
     1
102
RTVSPost2010Prop38
140
0.0
102
RTVSPost2010PropOp38
 70
     1
102
RTVSPost2010Prop39
140
1.0
102
RTVSPost2010PropOp39
 70
     1
102
RTVSPost2010Prop40
 90
        0
102
RTVSPost2010PropOp40
 70
     1
102
RTVSPost2010Prop41ColorIndex
 90
       18
102
RTVSPost2010Prop41ColorRGB
 90
        0
102
RTVSPost2010PropOp41
 70
     1
102
RTVSPost2010Prop42
 90
       50
102
RTVSPost2010PropOp42
 70
     1
102
RTVSPost2010Prop43
 90
        3
102
RTVSPost2010PropOp43
 70
     1
102
RTVSPost2010Prop44ColorIndex
 90
        5
102
RTVSPost2010Prop44ColorRGB
 90
      255
102
RTVSPost2010PropOp44
 70
     1
102
RTVSPost2010Prop45
280
     0
102
RTVSPost2010PropOp45
 70
     1
102
RTVSPost2010Prop46
 90
       50
102
RTVSPost2010PropOp46
 70
     1
102
RTVSPost2010Prop47
 90
       50
102
RTVSPost2010PropOp47
 70
     1
102
RTVSPost2010Prop48
 90
       50
102
RTVSPost2010PropOp48
 70
     1
102
RTVSPost2010Prop49
280
     0
102
RTVSPost2010PropOp49
 70
     1
102
RTVSPost2010Prop50
 90
       50
102
RTVSPost2010PropOp50
 70
     1
102
RTVSPost2010Prop51ColorIndex
 90
      256
102
RTVSPost2010Prop51ColorRGB
 90
-16777216
102
RTVSPost2010PropOp51
 70
     0
102
RTVSPost2010Prop52
140
1.0
102
RTVSPost2010PropOp52
 70
     0
102
RTVSPost2010Prop53
 90
        2
102
RTVSPost2010PropOp53
 70
     1
102
RTVSPost2010Prop54
  1
strokes_ogs.tif
102
RTVSPost2010PropOp54
 70
     1
102
RTVSPost2010Prop55
280
     0
102
RTVSPost2010PropOp55
 70
     1
102
RTVSPost2010Prop56
140
1.0
102
RTVSPost2010PropOp56
 70
     1
102
RTVSPost2010Prop57
140
1.0
102
RTVSPost2010PropOp57
 70
     1
102
RTVSPropertyOp0
 70
     1
102
RTVSPropertyOp1
 70
     1
102
RTVSPropertyOp2
 70
     1
102
RTVSPropertyOp3
 70
     1
102
RTVSPropertyOp4
 70
     1
102
RTVSPropertyOp5
 70
     1
102
RTVSPropertyOp6
 70
     1
102
RTVSPropertyOp7
 70
     1
102
RTVSPropertyOp8
 70
     1
102
RTVSPropertyOp9
 70
     1
102
RTVSPropertyOp10
 70
     1
102
RTVSPropertyOp11
 70
     1
102
RTVSPropertyOp12
 70
     1
102
RTVSPropertyOp13
 70
     1
102
RTVSPropertyOp14
 70
     1
102
RTVSPropertyOp15
 70
     1
102
RTVSPropertyOp16
 70
     1
102
RTVSPropertyOp17
 70
     1
102
RTVSPropertyOp18
 70
     1
102
RTVSPropertyOp19
 70
     1
102
RTVSPropertyOp20
 70
     1
102
RTVSPropertyOp21
 70
     1
102
RTVSPropertyOp22
 70
     1
102
RTVSPropertyOp23
 70
     1
102
RTVSPropertyOp24
 70
     1
102
RTVSPropertyOp25
 70
     1
102
RTVSPropertyOp26
 70
     1
102
RTVSPropertyOp27
 70
     1
102
RTVSPropertyOp28
 70
     1
102
RTVSPropertyOp29
 70
     1
102
RTVSPropertyOp30
 70
     1
102
RTVSPropertyOp31
 70
     1
102
RTVSPropertyOp32
 70
     1
102
RTVSPropertyOp33
 70
     1
102
RTVSPropertyOp34
 70
     1
102
RTVSPropertyOp35
 70
     1
102
RTVSPropertyOp36
 70
     1
102
RTVSPropertyOp37
 70
     1
102
RTVSPropertyOp38
 70
     1
102
RTVSPropertyOp39
 70
     1
102
RTVSPropertyOp40
 70
     1
102
RTVSPropertyOp41
 70
     1
102
RTVSPropertyOp42
 70
     1
102
RTVSPropertyOp43
 70
     1
102
RTVSPropertyOp44
 70
     1
102
RTVSPropertyOp45
 70
     1
102
RTVSPropertyOp46
 70
     1
102
RTVSPropertyOp47
 70
     1
102
RTVSPropertyOp48
 70
     1
102
RTVSPropertyOp49
 70
     1
102
RTVSPropertyOp50
 70
     1
102
RTVSPropertyOp51
 70
     0
102
RTVSPropertyOp52
 70
     0
102
RTVSPropertyOp53
 70
     1
102
RTVSPropertyOp54
 70
     1
102
RTVSPropertyOp55
 70
     1
102
RTVSPropertyOp56
 70
     1
102
RTVSPropertyOp57
 70
     1
102
RTVSPropertyOp58
 70
     1
102
RTVSPropertyOp59
 70
     1
102
RTVSPropertyOp60
 70
     1
102
RTVSPropertyOp61
 70
     1
102
RTVSPropertyOp62
 70
     1
  0
XRECORD
  5
117F
102
{ACAD_REACTORS
330
117E
102
}
330
117E
100
AcDbXrecord
280
     1
102
RTVSPost2010Prop28
280
     0
102
RTVSPost2010PropOp28
 70
     0
102
RTVSPost2010Prop29
280
     1
102
RTVSPost2010PropOp29
 70
     0
102
RTVSPost2010Prop30
280
     1
102
RTVSPost2010PropOp30
 70
     0
102
RTVSPost2010Prop31
280
     0
102
RTVSPost2010PropOp31
 70
     0
102
RTVSPost2010Prop32
280
     0
102
RTVSPost2010PropOp32
 70
     0
102
RTVSPost2010Prop33
280
     0
102
RTVSPost2010PropOp33
 70
     0
102
RTVSPost2010Prop34
280
     0
102
RTVSPost2010PropOp34
 70
     0
102
RTVSPost2010Prop35
280
     0
102
RTVSPost2010PropOp35
 70
     0
102
RTVSPost2010Prop36
280
     0
102
RTVSPost2010PropOp36
 70
     0
102
RTVSPost2010Prop37
 90
       50
102
RTVSPost2010PropOp37
 70
     0
102
RTVSPost2010Prop38
140
0.0
102
RTVSPost2010PropOp38
 70
     0
102
RTVSPost2010Prop39
140
1.0
102
RTVSPost2010PropOp39
 70
     0
102
RTVSPost2010Prop40
 90
        0
102
RTVSPost2010PropOp40
 70
     0
102
RTVSPost2010Prop41ColorIndex
 90
       18
102
RTVSPost2010Prop41ColorRGB
 90
        0
102
RTVSPost2010PropOp41
 70
     0
102
RTVSPost2010Prop42
 90
       50
102
RTVSPost2010PropOp42
 70
     0
102
RTVSPost2010Prop43
 90
        3
102
RTVSPost2010PropOp43
 70
     0
102
RTVSPost2010Prop44ColorIndex
 90
        5
102
RTVSPost2010Prop44ColorRGB
 90
      255
102
RTVSPost2010PropOp44
 70
     0
102
RTVSPost2010Prop45
280
     0
102
RTVSPost2010PropOp45
 70
     0
102
RTVSPost2010Prop46
 90
       50
102
RTVSPost2010PropOp46
 70
     0
102
RTVSPost2010Prop47
 90
       50
102
RTVSPost2010PropOp47
 70
     0
102
RTVSPost2010Prop48
 90
       50
102
RTVSPost2010PropOp48
 70
     0
102
RTVSPost2010Prop49
280
     0
102
RTVSPost2010PropOp49
 70
     0
102
RTVSPost2010Prop50
 90
       50
102
RTVSPost2010PropOp50
 70
     0
102
RTVSPost2010Prop51ColorIndex
 90
      256
102
RTVSPost2010Prop51ColorRGB
 90
-16777216
102
RTVSPost2010PropOp51
 70
     0
102
RTVSPost2010Prop52
140
1.0
102
RTVSPost2010PropOp52
 70
     0
102
RTVSPost2010Prop53
 90
        2
102
RTVSPost2010PropOp53
 70
     0
102
RTVSPost2010Prop54
  1
strokes_ogs.tif
102
RTVSPost2010PropOp54
 70
     0
102
RTVSPost2010Prop55
280
     0
102
RTVSPost2010PropOp55
 70
     0
102
RTVSPost2010Prop56
140
1.0
102
RTVSPost2010PropOp56
 70
     0
102
RTVSPost2010Prop57
140
1.0
102
RTVSPost2010PropOp57
 70
     0
102
RTVSPropertyOp0
 70
     0
102
RTVSPropertyOp1
 70
     0
102
RTVSPropertyOp2
 70
     0
102
RTVSPropertyOp3
 70
     0
102
RTVSPropertyOp4
 70
     0
102
RTVSPropertyOp5
 70
     0
102
RTVSPropertyOp6
 70
     0
102
RTVSPropertyOp7
 70
     0
102
RTVSPropertyOp8
 70
     0
102
RTVSPropertyOp9
 70
     0
102
RTVSPropertyOp10
 70
     0
102
RTVSPropertyOp11
 70
     0
102
RTVSPropertyOp12
 70
     0
102
RTVSPropertyOp13
 70
     0
102
RTVSPropertyOp14
 70
     2
102
RTVSPropertyOp15
 70
     0
102
RTVSPropertyOp16
 70
     0
102
RTVSPropertyOp17
 70
     0
102
RTVSPropertyOp18
 70
     0
102
RTVSPropertyOp19
 70
     0
102
RTVSPropertyOp20
 70
     0
102
RTVSPropertyOp21
 70
     0
102
RTVSPropertyOp22
 70
     0
102
RTVSPropertyOp23
 70
     0
102
RTVSPropertyOp24
 70
     0
102
RTVSPropertyOp25
 70
     0
102
RTVSPropertyOp26
 70
     0
102
RTVSPropertyOp27
 70
     0
102
RTVSPropertyOp28
 70
     0
102
RTVSPropertyOp29
 70
     0
102
RTVSPropertyOp30
 70
     0
102
RTVSPropertyOp31
 70
     0
102
RTVSPropertyOp32
 70
     0
102
RTVSPropertyOp33
 70
     0
102
RTVSPropertyOp34
 70
     0
102
RTVSPropertyOp35
 70
     0
102
RTVSPropertyOp36
 70
     0
102
RTVSPropertyOp37
 70
     0
102
RTVSPropertyOp38
 70
     0
102
RTVSPropertyOp39
 70
     0
102
RTVSPropertyOp40
 70
     0
102
RTVSPropertyOp41
 70
     0
102
RTVSPropertyOp42
 70
     0
102
RTVSPropertyOp43
 70
     0
102
RTVSPropertyOp44
 70
     0
102
RTVSPropertyOp45
 70
     0
102
RTVSPropertyOp46
 70
     0
102
RTVSPropertyOp47
 70
     0
102
RTVSPropertyOp48
 70
     0
102
RTVSPropertyOp49
 70
     0
102
RTVSPropertyOp50
 70
     0
102
RTVSPropertyOp51
 70
     0
102
RTVSPropertyOp52
 70
     0
102
RTVSPropertyOp53
 70
     0
102
RTVSPropertyOp54
 70
     0
102
RTVSPropertyOp55
 70
     0
102
RTVSPropertyOp56
 70
     0
102
RTVSPropertyOp57
 70
     0
102
RTVSPropertyOp58
 70
     1
102
RTVSPropertyOp59
 70
     1
102
RTVSPropertyOp60
 70
     1
102
RTVSPropertyOp61
 70
     1
102
RTVSPropertyOp62
 70
     1
  0
XRECORD
  5
1165
102
{ACAD_REACTORS
330
1164
102
}
330
1164
100
AcDbXrecord
280
     1
102
RTVSPost2010Prop28
280
     0
102
RTVSPost2010PropOp28
 70
     1
102
RTVSPost2010Prop29
280
     1
102
RTVSPost2010PropOp29
 70
     1
102
RTVSPost2010Prop30
280
     1
102
RTVSPost2010PropOp30
 70
     1
102
RTVSPost2010Prop31
280
     0
102
RTVSPost2010PropOp31
 70
     1
102
RTVSPost2010Prop32
280
     0
102
RTVSPost2010PropOp32
 70
     1
102
RTVSPost2010Prop33
280
     0
102
RTVSPost2010PropOp33
 70
     1
102
RTVSPost2010Prop34
280
     0
102
RTVSPost2010PropOp34
 70
     1
102
RTVSPost2010Prop35
280
     0
102
RTVSPost2010PropOp35
 70
     1
102
RTVSPost2010Prop36
280
     0
102
RTVSPost2010PropOp36
 70
     1
102
RTVSPost2010Prop37
 90
       50
102
RTVSPost2010PropOp37
 70
     1
102
RTVSPost2010Prop38
140
0.0
102
RTVSPost2010PropOp38
 70
     1
102
RTVSPost2010Prop39
140
1.0
102
RTVSPost2010PropOp39
 70
     1
102
RTVSPost2010Prop40
 90
        0
102
RTVSPost2010PropOp40
 70
     1
102
RTVSPost2010Prop41ColorIndex
 90
       18
102
RTVSPost2010Prop41ColorRGB
 90
        0
102
RTVSPost2010PropOp41
 70
     1
102
RTVSPost2010Prop42
 90
       50
102
RTVSPost2010PropOp42
 70
     1
102
RTVSPost2010Prop43
 90
        3
102
RTVSPost2010PropOp43
 70
     1
102
RTVSPost2010Prop44ColorIndex
 90
        5
102
RTVSPost2010Prop44ColorRGB
 90
      255
102
RTVSPost2010PropOp44
 70
     1
102
RTVSPost2010Prop45
280
     0
102
RTVSPost2010PropOp45
 70
     1
102
RTVSPost2010Prop46
 90
       50
102
RTVSPost2010PropOp46
 70
     1
102
RTVSPost2010Prop47
 90
       50
102
RTVSPost2010PropOp47
 70
     1
102
RTVSPost2010Prop48
 90
       50
102
RTVSPost2010PropOp48
 70
     1
102
RTVSPost2010Prop49
280
     0
102
RTVSPost2010PropOp49
 70
     1
102
RTVSPost2010Prop50
 90
       50
102
RTVSPost2010PropOp50
 70
     1
102
RTVSPost2010Prop51ColorIndex
 90
      256
102
RTVSPost2010Prop51ColorRGB
 90
-16777216
102
RTVSPost2010PropOp51
 70
     0
102
RTVSPost2010Prop52
140
1.0
102
RTVSPost2010PropOp52
 70
     0
102
RTVSPost2010Prop53
 90
        2
102
RTVSPost2010PropOp53
 70
     1
102
RTVSPost2010Prop54
  1
strokes_ogs.tif
102
RTVSPost2010PropOp54
 70
     1
102
RTVSPost2010Prop55
280
     0
102
RTVSPost2010PropOp55
 70
     1
102
RTVSPost2010Prop56
140
1.0
102
RTVSPost2010PropOp56
 70
     1
102
RTVSPost2010Prop57
140
1.0
102
RTVSPost2010PropOp57
 70
     1
102
RTVSPropertyOp0
 70
     1
102
RTVSPropertyOp1
 70
     1
102
RTVSPropertyOp2
 70
     1
102
RTVSPropertyOp3
 70
     1
102
RTVSPropertyOp4
 70
     1
102
RTVSPropertyOp5
 70
     1
102
RTVSPropertyOp6
 70
     1
102
RTVSPropertyOp7
 70
     1
102
RTVSPropertyOp8
 70
     1
102
RTVSPropertyOp9
 70
     1
102
RTVSPropertyOp10
 70
     1
102
RTVSPropertyOp11
 70
     1
102
RTVSPropertyOp12
 70
     1
102
RTVSPropertyOp13
 70
     1
102
RTVSPropertyOp14
 70
     1
102
RTVSPropertyOp15
 70
     1
102
RTVSPropertyOp16
 70
     1
102
RTVSPropertyOp17
 70
     1
102
RTVSPropertyOp18
 70
     1
102
RTVSPropertyOp19
 70
     1
102
RTVSPropertyOp20
 70
     1
102
RTVSPropertyOp21
 70
     1
102
RTVSPropertyOp22
 70
     1
102
RTVSPropertyOp23
 70
     1
102
RTVSPropertyOp24
 70
     1
102
RTVSPropertyOp25
 70
     1
102
RTVSPropertyOp26
 70
     1
102
RTVSPropertyOp27
 70
     1
102
RTVSPropertyOp28
 70
     1
102
RTVSPropertyOp29
 70
     1
102
RTVSPropertyOp30
 70
     1
102
RTVSPropertyOp31
 70
     1
102
RTVSPropertyOp32
 70
     1
102
RTVSPropertyOp33
 70
     1
102
RTVSPropertyOp34
 70
     1
102
RTVSPropertyOp35
 70
     1
102
RTVSPropertyOp36
 70
     1
102
RTVSPropertyOp37
 70
     1
102
RTVSPropertyOp38
 70
     1
102
RTVSPropertyOp39
 70
     1
102
RTVSPropertyOp40
 70
     1
102
RTVSPropertyOp41
 70
     1
102
RTVSPropertyOp42
 70
     1
102
RTVSPropertyOp43
 70
     1
102
RTVSPropertyOp44
 70
     1
102
RTVSPropertyOp45
 70
     1
102
RTVSPropertyOp46
 70
     1
102
RTVSPropertyOp47
 70
     1
102
RTVSPropertyOp48
 70
     1
102
RTVSPropertyOp49
 70
     1
102
RTVSPropertyOp50
 70
     1
102
RTVSPropertyOp51
 70
     0
102
RTVSPropertyOp52
 70
     0
102
RTVSPropertyOp53
 70
     1
102
RTVSPropertyOp54
 70
     1
102
RTVSPropertyOp55
 70
     1
102
RTVSPropertyOp56
 70
     1
102
RTVSPropertyOp57
 70
     1
102
RTVSPropertyOp58
 70
     1
102
RTVSPropertyOp59
 70
     1
102
RTVSPropertyOp60
 70
     1
102
RTVSPropertyOp61
 70
     1
102
RTVSPropertyOp62
 70
     1
  0
XRECORD
  5
117B
102
{ACAD_REACTORS
330
117A
102
}
330
117A
100
AcDbXrecord
280
     1
102
RTVSPost2010Prop28
280
     0
102
RTVSPost2010PropOp28
 70
     1
102
RTVSPost2010Prop29
280
     1
102
RTVSPost2010PropOp29
 70
     1
102
RTVSPost2010Prop30
280
     1
102
RTVSPost2010PropOp30
 70
     1
102
RTVSPost2010Prop31
280
     0
102
RTVSPost2010PropOp31
 70
     1
102
RTVSPost2010Prop32
280
     0
102
RTVSPost2010PropOp32
 70
     1
102
RTVSPost2010Prop33
280
     0
102
RTVSPost2010PropOp33
 70
     1
102
RTVSPost2010Prop34
280
     0
102
RTVSPost2010PropOp34
 70
     1
102
RTVSPost2010Prop35
280
     0
102
RTVSPost2010PropOp35
 70
     1
102
RTVSPost2010Prop36
280
     0
102
RTVSPost2010PropOp36
 70
     1
102
RTVSPost2010Prop37
 90
       50
102
RTVSPost2010PropOp37
 70
     1
102
RTVSPost2010Prop38
140
0.0
102
RTVSPost2010PropOp38
 70
     1
102
RTVSPost2010Prop39
140
1.0
102
RTVSPost2010PropOp39
 70
     1
102
RTVSPost2010Prop40
 90
        0
102
RTVSPost2010PropOp40
 70
     1
102
RTVSPost2010Prop41ColorIndex
 90
       18
102
RTVSPost2010Prop41ColorRGB
 90
        0
102
RTVSPost2010PropOp41
 70
     1
102
RTVSPost2010Prop42
 90
       50
102
RTVSPost2010PropOp42
 70
     1
102
RTVSPost2010Prop43
 90
        3
102
RTVSPost2010PropOp43
 70
     1
102
RTVSPost2010Prop44ColorIndex
 90
        5
102
RTVSPost2010Prop44ColorRGB
 90
      255
102
RTVSPost2010PropOp44
 70
     1
102
RTVSPost2010Prop45
280
     0
102
RTVSPost2010PropOp45
 70
     1
102
RTVSPost2010Prop46
 90
       50
102
RTVSPost2010PropOp46
 70
     1
102
RTVSPost2010Prop47
 90
       50
102
RTVSPost2010PropOp47
 70
     1
102
RTVSPost2010Prop48
 90
       50
102
RTVSPost2010PropOp48
 70
     1
102
RTVSPost2010Prop49
280
     0
102
RTVSPost2010PropOp49
 70
     1
102
RTVSPost2010Prop50
 90
       50
102
RTVSPost2010PropOp50
 70
     1
102
RTVSPost2010Prop51ColorIndex
 90
      256
102
RTVSPost2010Prop51ColorRGB
 90
-16777216
102
RTVSPost2010PropOp51
 70
     0
102
RTVSPost2010Prop52
140
1.0
102
RTVSPost2010PropOp52
 70
     0
102
RTVSPost2010Prop53
 90
        2
102
RTVSPost2010PropOp53
 70
     1
102
RTVSPost2010Prop54
  1
strokes_ogs.tif
102
RTVSPost2010PropOp54
 70
     1
102
RTVSPost2010Prop55
280
     0
102
RTVSPost2010PropOp55
 70
     1
102
RTVSPost2010Prop56
140
1.0
102
RTVSPost2010PropOp56
 70
     1
102
RTVSPost2010Prop57
140
1.0
102
RTVSPost2010PropOp57
 70
     1
102
RTVSPropertyOp0
 70
     1
102
RTVSPropertyOp1
 70
     1
102
RTVSPropertyOp2
 70
     1
102
RTVSPropertyOp3
 70
     1
102
RTVSPropertyOp4
 70
     1
102
RTVSPropertyOp5
 70
     1
102
RTVSPropertyOp6
 70
     1
102
RTVSPropertyOp7
 70
     1
102
RTVSPropertyOp8
 70
     1
102
RTVSPropertyOp9
 70
     1
102
RTVSPropertyOp10
 70
     1
102
RTVSPropertyOp11
 70
     1
102
RTVSPropertyOp12
 70
     1
102
RTVSPropertyOp13
 70
     1
102
RTVSPropertyOp14
 70
     1
102
RTVSPropertyOp15
 70
     1
102
RTVSPropertyOp16
 70
     1
102
RTVSPropertyOp17
 70
     1
102
RTVSPropertyOp18
 70
     1
102
RTVSPropertyOp19
 70
     1
102
RTVSPropertyOp20
 70
     1
102
RTVSPropertyOp21
 70
     1
102
RTVSPropertyOp22
 70
     1
102
RTVSPropertyOp23
 70
     1
102
RTVSPropertyOp24
 70
     1
102
RTVSPropertyOp25
 70
     1
102
RTVSPropertyOp26
 70
     1
102
RTVSPropertyOp27
 70
     1
102
RTVSPropertyOp28
 70
     1
102
RTVSPropertyOp29
 70
     1
102
RTVSPropertyOp30
 70
     1
102
RTVSPropertyOp31
 70
     1
102
RTVSPropertyOp32
 70
     1
102
RTVSPropertyOp33
 70
     1
102
RTVSPropertyOp34
 70
     1
102
RTVSPropertyOp35
 70
     1
102
RTVSPropertyOp36
 70
     1
102
RTVSPropertyOp37
 70
     1
102
RTVSPropertyOp38
 70
     1
102
RTVSPropertyOp39
 70
     1
102
RTVSPropertyOp40
 70
     1
102
RTVSPropertyOp41
 70
     1
102
RTVSPropertyOp42
 70
     1
102
RTVSPropertyOp43
 70
     1
102
RTVSPropertyOp44
 70
     1
102
RTVSPropertyOp45
 70
     1
102
RTVSPropertyOp46
 70
     1
102
RTVSPropertyOp47
 70
     1
102
RTVSPropertyOp48
 70
     1
102
RTVSPropertyOp49
 70
     1
102
RTVSPropertyOp50
 70
     1
102
RTVSPropertyOp51
 70
     0
102
RTVSPropertyOp52
 70
     0
102
RTVSPropertyOp53
 70
     1
102
RTVSPropertyOp54
 70
     1
102
RTVSPropertyOp55
 70
     1
102
RTVSPropertyOp56
 70
     1
102
RTVSPropertyOp57
 70
     1
102
RTVSPropertyOp58
 70
     1
102
RTVSPropertyOp59
 70
     1
102
RTVSPropertyOp60
 70
     1
102
RTVSPropertyOp61
 70
     1
102
RTVSPropertyOp62
 70
     1
  0
XRECORD
  5
1179
102
{ACAD_REACTORS
330
1178
102
}
330
1178
100
AcDbXrecord
280
     1
102
RTVSPost2010Prop28
280
     0
102
RTVSPost2010PropOp28
 70
     1
102
RTVSPost2010Prop29
280
     1
102
RTVSPost2010PropOp29
 70
     1
102
RTVSPost2010Prop30
280
     1
102
RTVSPost2010PropOp30
 70
     1
102
RTVSPost2010Prop31
280
     0
102
RTVSPost2010PropOp31
 70
     1
102
RTVSPost2010Prop32
280
     0
102
RTVSPost2010PropOp32
 70
     1
102
RTVSPost2010Prop33
280
     0
102
RTVSPost2010PropOp33
 70
     1
102
RTVSPost2010Prop34
280
     0
102
RTVSPost2010PropOp34
 70
     1
102
RTVSPost2010Prop35
280
     0
102
RTVSPost2010PropOp35
 70
     1
102
RTVSPost2010Prop36
280
     0
102
RTVSPost2010PropOp36
 70
     1
102
RTVSPost2010Prop37
 90
       50
102
RTVSPost2010PropOp37
 70
     1
102
RTVSPost2010Prop38
140
0.0
102
RTVSPost2010PropOp38
 70
     1
102
RTVSPost2010Prop39
140
1.0
102
RTVSPost2010PropOp39
 70
     1
102
RTVSPost2010Prop40
 90
        0
102
RTVSPost2010PropOp40
 70
     1
102
RTVSPost2010Prop41ColorIndex
 90
       18
102
RTVSPost2010Prop41ColorRGB
 90
        0
102
RTVSPost2010PropOp41
 70
     1
102
RTVSPost2010Prop42
 90
       50
102
RTVSPost2010PropOp42
 70
     1
102
RTVSPost2010Prop43
 90
        3
102
RTVSPost2010PropOp43
 70
     1
102
RTVSPost2010Prop44ColorIndex
 90
        5
102
RTVSPost2010Prop44ColorRGB
 90
      255
102
RTVSPost2010PropOp44
 70
     1
102
RTVSPost2010Prop45
280
     0
102
RTVSPost2010PropOp45
 70
     1
102
RTVSPost2010Prop46
 90
       50
102
RTVSPost2010PropOp46
 70
     1
102
RTVSPost2010Prop47
 90
       50
102
RTVSPost2010PropOp47
 70
     1
102
RTVSPost2010Prop48
 90
       50
102
RTVSPost2010PropOp48
 70
     1
102
RTVSPost2010Prop49
280
     0
102
RTVSPost2010PropOp49
 70
     1
102
RTVSPost2010Prop50
 90
       50
102
RTVSPost2010PropOp50
 70
     1
102
RTVSPost2010Prop51ColorIndex
 90
      256
102
RTVSPost2010Prop51ColorRGB
 90
-16777216
102
RTVSPost2010PropOp51
 70
     0
102
RTVSPost2010Prop52
140
1.0
102
RTVSPost2010PropOp52
 70
     0
102
RTVSPost2010Prop53
 90
        2
102
RTVSPost2010PropOp53
 70
     1
102
RTVSPost2010Prop54
  1
strokes_ogs.tif
102
RTVSPost2010PropOp54
 70
     1
102
RTVSPost2010Prop55
280
     0
102
RTVSPost2010PropOp55
 70
     1
102
RTVSPost2010Prop56
140
1.0
102
RTVSPost2010PropOp56
 70
     1
102
RTVSPost2010Prop57
140
1.0
102
RTVSPost2010PropOp57
 70
     1
102
RTVSPropertyOp0
 70
     1
102
RTVSPropertyOp1
 70
     1
102
RTVSPropertyOp2
 70
     1
102
RTVSPropertyOp3
 70
     1
102
RTVSPropertyOp4
 70
     1
102
RTVSPropertyOp5
 70
     1
102
RTVSPropertyOp6
 70
     1
102
RTVSPropertyOp7
 70
     1
102
RTVSPropertyOp8
 70
     1
102
RTVSPropertyOp9
 70
     1
102
RTVSPropertyOp10
 70
     1
102
RTVSPropertyOp11
 70
     1
102
RTVSPropertyOp12
 70
     1
102
RTVSPropertyOp13
 70
     1
102
RTVSPropertyOp14
 70
     1
102
RTVSPropertyOp15
 70
     1
102
RTVSPropertyOp16
 70
     1
102
RTVSPropertyOp17
 70
     1
102
RTVSPropertyOp18
 70
     1
102
RTVSPropertyOp19
 70
     1
102
RTVSPropertyOp20
 70
     1
102
RTVSPropertyOp21
 70
     1
102
RTVSPropertyOp22
 70
     1
102
RTVSPropertyOp23
 70
     1
102
RTVSPropertyOp24
 70
     1
102
RTVSPropertyOp25
 70
     1
102
RTVSPropertyOp26
 70
     1
102
RTVSPropertyOp27
 70
     1
102
RTVSPropertyOp28
 70
     1
102
RTVSPropertyOp29
 70
     1
102
RTVSPropertyOp30
 70
     1
102
RTVSPropertyOp31
 70
     1
102
RTVSPropertyOp32
 70
     1
102
RTVSPropertyOp33
 70
     1
102
RTVSPropertyOp34
 70
     1
102
RTVSPropertyOp35
 70
     1
102
RTVSPropertyOp36
 70
     1
102
RTVSPropertyOp37
 70
     1
102
RTVSPropertyOp38
 70
     1
102
RTVSPropertyOp39
 70
     1
102
RTVSPropertyOp40
 70
     1
102
RTVSPropertyOp41
 70
     1
102
RTVSPropertyOp42
 70
     1
102
RTVSPropertyOp43
 70
     1
102
RTVSPropertyOp44
 70
     1
102
RTVSPropertyOp45
 70
     1
102
RTVSPropertyOp46
 70
     1
102
RTVSPropertyOp47
 70
     1
102
RTVSPropertyOp48
 70
     1
102
RTVSPropertyOp49
 70
     1
102
RTVSPropertyOp50
 70
     1
102
RTVSPropertyOp51
 70
     0
102
RTVSPropertyOp52
 70
     0
102
RTVSPropertyOp53
 70
     1
102
RTVSPropertyOp54
 70
     1
102
RTVSPropertyOp55
 70
     1
102
RTVSPropertyOp56
 70
     1
102
RTVSPropertyOp57
 70
     1
102
RTVSPropertyOp58
 70
     1
102
RTVSPropertyOp59
 70
     1
102
RTVSPropertyOp60
 70
     1
102
RTVSPropertyOp61
 70
     1
102
RTVSPropertyOp62
 70
     1
  0
XRECORD
  5
1173
102
{ACAD_REACTORS
330
1172
102
}
330
1172
100
AcDbXrecord
280
     1
102
RTVSPost2010Prop28
280
     0
102
RTVSPost2010PropOp28
 70
     1
102
RTVSPost2010Prop29
280
     1
102
RTVSPost2010PropOp29
 70
     1
102
RTVSPost2010Prop30
280
     1
102
RTVSPost2010PropOp30
 70
     1
102
RTVSPost2010Prop31
280
     0
102
RTVSPost2010PropOp31
 70
     1
102
RTVSPost2010Prop32
280
     0
102
RTVSPost2010PropOp32
 70
     1
102
RTVSPost2010Prop33
280
     0
102
RTVSPost2010PropOp33
 70
     1
102
RTVSPost2010Prop34
280
     0
102
RTVSPost2010PropOp34
 70
     1
102
RTVSPost2010Prop35
280
     0
102
RTVSPost2010PropOp35
 70
     1
102
RTVSPost2010Prop36
280
     0
102
RTVSPost2010PropOp36
 70
     1
102
RTVSPost2010Prop37
 90
       50
102
RTVSPost2010PropOp37
 70
     1
102
RTVSPost2010Prop38
140
0.0
102
RTVSPost2010PropOp38
 70
     1
102
RTVSPost2010Prop39
140
1.0
102
RTVSPost2010PropOp39
 70
     1
102
RTVSPost2010Prop40
 90
        0
102
RTVSPost2010PropOp40
 70
     1
102
RTVSPost2010Prop41ColorIndex
 90
       18
102
RTVSPost2010Prop41ColorRGB
 90
        0
102
RTVSPost2010PropOp41
 70
     1
102
RTVSPost2010Prop42
 90
       50
102
RTVSPost2010PropOp42
 70
     1
102
RTVSPost2010Prop43
 90
        3
102
RTVSPost2010PropOp43
 70
     1
102
RTVSPost2010Prop44ColorIndex
 90
        5
102
RTVSPost2010Prop44ColorRGB
 90
      255
102
RTVSPost2010PropOp44
 70
     1
102
RTVSPost2010Prop45
280
     0
102
RTVSPost2010PropOp45
 70
     1
102
RTVSPost2010Prop46
 90
       50
102
RTVSPost2010PropOp46
 70
     1
102
RTVSPost2010Prop47
 90
       50
102
RTVSPost2010PropOp47
 70
     1
102
RTVSPost2010Prop48
 90
       50
102
RTVSPost2010PropOp48
 70
     1
102
RTVSPost2010Prop49
280
     0
102
RTVSPost2010PropOp49
 70
     1
102
RTVSPost2010Prop50
 90
       50
102
RTVSPost2010PropOp50
 70
     1
102
RTVSPost2010Prop51ColorIndex
 90
      256
102
RTVSPost2010Prop51ColorRGB
 90
-16777216
102
RTVSPost2010PropOp51
 70
     0
102
RTVSPost2010Prop52
140
1.0
102
RTVSPost2010PropOp52
 70
     0
102
RTVSPost2010Prop53
 90
        2
102
RTVSPost2010PropOp53
 70
     1
102
RTVSPost2010Prop54
  1
strokes_ogs.tif
102
RTVSPost2010PropOp54
 70
     1
102
RTVSPost2010Prop55
280
     0
102
RTVSPost2010PropOp55
 70
     1
102
RTVSPost2010Prop56
140
1.0
102
RTVSPost2010PropOp56
 70
     1
102
RTVSPost2010Prop57
140
1.0
102
RTVSPost2010PropOp57
 70
     1
102
RTVSPropertyOp0
 70
     1
102
RTVSPropertyOp1
 70
     1
102
RTVSPropertyOp2
 70
     1
102
RTVSPropertyOp3
 70
     1
102
RTVSPropertyOp4
 70
     1
102
RTVSPropertyOp5
 70
     1
102
RTVSPropertyOp6
 70
     1
102
RTVSPropertyOp7
 70
     1
102
RTVSPropertyOp8
 70
     1
102
RTVSPropertyOp9
 70
     1
102
RTVSPropertyOp10
 70
     1
102
RTVSPropertyOp11
 70
     1
102
RTVSPropertyOp12
 70
     1
102
RTVSPropertyOp13
 70
     1
102
RTVSPropertyOp14
 70
     1
102
RTVSPropertyOp15
 70
     1
102
RTVSPropertyOp16
 70
     1
102
RTVSPropertyOp17
 70
     1
102
RTVSPropertyOp18
 70
     1
102
RTVSPropertyOp19
 70
     1
102
RTVSPropertyOp20
 70
     1
102
RTVSPropertyOp21
 70
     1
102
RTVSPropertyOp22
 70
     1
102
RTVSPropertyOp23
 70
     1
102
RTVSPropertyOp24
 70
     1
102
RTVSPropertyOp25
 70
     1
102
RTVSPropertyOp26
 70
     1
102
RTVSPropertyOp27
 70
     1
102
RTVSPropertyOp28
 70
     1
102
RTVSPropertyOp29
 70
     1
102
RTVSPropertyOp30
 70
     1
102
RTVSPropertyOp31
 70
     1
102
RTVSPropertyOp32
 70
     1
102
RTVSPropertyOp33
 70
     1
102
RTVSPropertyOp34
 70
     1
102
RTVSPropertyOp35
 70
     1
102
RTVSPropertyOp36
 70
     1
102
RTVSPropertyOp37
 70
     1
102
RTVSPropertyOp38
 70
     1
102
RTVSPropertyOp39
 70
     1
102
RTVSPropertyOp40
 70
     1
102
RTVSPropertyOp41
 70
     1
102
RTVSPropertyOp42
 70
     1
102
RTVSPropertyOp43
 70
     1
102
RTVSPropertyOp44
 70
     1
102
RTVSPropertyOp45
 70
     1
102
RTVSPropertyOp46
 70
     1
102
RTVSPropertyOp47
 70
     1
102
RTVSPropertyOp48
 70
     1
102
RTVSPropertyOp49
 70
     1
102
RTVSPropertyOp50
 70
     1
102
RTVSPropertyOp51
 70
     0
102
RTVSPropertyOp52
 70
     0
102
RTVSPropertyOp53
 70
     1
102
RTVSPropertyOp54
 70
     1
102
RTVSPropertyOp55
 70
     1
102
RTVSPropertyOp56
 70
     1
102
RTVSPropertyOp57
 70
     1
102
RTVSPropertyOp58
 70
     1
102
RTVSPropertyOp59
 70
     1
102
RTVSPropertyOp60
 70
     1
102
RTVSPropertyOp61
 70
     1
102
RTVSPropertyOp62
 70
     1
  0
XRECORD
  5
1175
102
{ACAD_REACTORS
330
1174
102
}
330
1174
100
AcDbXrecord
280
     1
102
RTVSPost2010Prop28
280
     0
102
RTVSPost2010PropOp28
 70
     1
102
RTVSPost2010Prop29
280
     1
102
RTVSPost2010PropOp29
 70
     1
102
RTVSPost2010Prop30
280
     1
102
RTVSPost2010PropOp30
 70
     1
102
RTVSPost2010Prop31
280
     0
102
RTVSPost2010PropOp31
 70
     1
102
RTVSPost2010Prop32
280
     0
102
RTVSPost2010PropOp32
 70
     1
102
RTVSPost2010Prop33
280
     0
102
RTVSPost2010PropOp33
 70
     1
102
RTVSPost2010Prop34
280
     0
102
RTVSPost2010PropOp34
 70
     1
102
RTVSPost2010Prop35
280
     0
102
RTVSPost2010PropOp35
 70
     1
102
RTVSPost2010Prop36
280
     0
102
RTVSPost2010PropOp36
 70
     1
102
RTVSPost2010Prop37
 90
       50
102
RTVSPost2010PropOp37
 70
     1
102
RTVSPost2010Prop38
140
0.0
102
RTVSPost2010PropOp38
 70
     1
102
RTVSPost2010Prop39
140
1.0
102
RTVSPost2010PropOp39
 70
     1
102
RTVSPost2010Prop40
 90
        0
102
RTVSPost2010PropOp40
 70
     1
102
RTVSPost2010Prop41ColorIndex
 90
       18
102
RTVSPost2010Prop41ColorRGB
 90
        0
102
RTVSPost2010PropOp41
 70
     1
102
RTVSPost2010Prop42
 90
       50
102
RTVSPost2010PropOp42
 70
     1
102
RTVSPost2010Prop43
 90
        3
102
RTVSPost2010PropOp43
 70
     1
102
RTVSPost2010Prop44ColorIndex
 90
        5
102
RTVSPost2010Prop44ColorRGB
 90
      255
102
RTVSPost2010PropOp44
 70
     1
102
RTVSPost2010Prop45
280
     0
102
RTVSPost2010PropOp45
 70
     1
102
RTVSPost2010Prop46
 90
       50
102
RTVSPost2010PropOp46
 70
     1
102
RTVSPost2010Prop47
 90
       50
102
RTVSPost2010PropOp47
 70
     1
102
RTVSPost2010Prop48
 90
       50
102
RTVSPost2010PropOp48
 70
     1
102
RTVSPost2010Prop49
280
     0
102
RTVSPost2010PropOp49
 70
     1
102
RTVSPost2010Prop50
 90
       50
102
RTVSPost2010PropOp50
 70
     1
102
RTVSPost2010Prop51ColorIndex
 90
      256
102
RTVSPost2010Prop51ColorRGB
 90
-16777216
102
RTVSPost2010PropOp51
 70
     0
102
RTVSPost2010Prop52
140
1.0
102
RTVSPost2010PropOp52
 70
     0
102
RTVSPost2010Prop53
 90
        2
102
RTVSPost2010PropOp53
 70
     1
102
RTVSPost2010Prop54
  1
strokes_ogs.tif
102
RTVSPost2010PropOp54
 70
     1
102
RTVSPost2010Prop55
280
     0
102
RTVSPost2010PropOp55
 70
     1
102
RTVSPost2010Prop56
140
1.0
102
RTVSPost2010PropOp56
 70
     1
102
RTVSPost2010Prop57
140
1.0
102
RTVSPost2010PropOp57
 70
     1
102
RTVSPropertyOp0
 70
     1
102
RTVSPropertyOp1
 70
     1
102
RTVSPropertyOp2
 70
     1
102
RTVSPropertyOp3
 70
     1
102
RTVSPropertyOp4
 70
     1
102
RTVSPropertyOp5
 70
     1
102
RTVSPropertyOp6
 70
     1
102
RTVSPropertyOp7
 70
     1
102
RTVSPropertyOp8
 70
     1
102
RTVSPropertyOp9
 70
     1
102
RTVSPropertyOp10
 70
     1
102
RTVSPropertyOp11
 70
     1
102
RTVSPropertyOp12
 70
     1
102
RTVSPropertyOp13
 70
     1
102
RTVSPropertyOp14
 70
     1
102
RTVSPropertyOp15
 70
     1
102
RTVSPropertyOp16
 70
     1
102
RTVSPropertyOp17
 70
     1
102
RTVSPropertyOp18
 70
     1
102
RTVSPropertyOp19
 70
     1
102
RTVSPropertyOp20
 70
     1
102
RTVSPropertyOp21
 70
     1
102
RTVSPropertyOp22
 70
     1
102
RTVSPropertyOp23
 70
     1
102
RTVSPropertyOp24
 70
     1
102
RTVSPropertyOp25
 70
     1
102
RTVSPropertyOp26
 70
     1
102
RTVSPropertyOp27
 70
     1
102
RTVSPropertyOp28
 70
     1
102
RTVSPropertyOp29
 70
     1
102
RTVSPropertyOp30
 70
     1
102
RTVSPropertyOp31
 70
     1
102
RTVSPropertyOp32
 70
     1
102
RTVSPropertyOp33
 70
     1
102
RTVSPropertyOp34
 70
     1
102
RTVSPropertyOp35
 70
     1
102
RTVSPropertyOp36
 70
     1
102
RTVSPropertyOp37
 70
     1
102
RTVSPropertyOp38
 70
     1
102
RTVSPropertyOp39
 70
     1
102
RTVSPropertyOp40
 70
     1
102
RTVSPropertyOp41
 70
     1
102
RTVSPropertyOp42
 70
     1
102
RTVSPropertyOp43
 70
     1
102
RTVSPropertyOp44
 70
     1
102
RTVSPropertyOp45
 70
     1
102
RTVSPropertyOp46
 70
     1
102
RTVSPropertyOp47
 70
     1
102
RTVSPropertyOp48
 70
     1
102
RTVSPropertyOp49
 70
     1
102
RTVSPropertyOp50
 70
     1
102
RTVSPropertyOp51
 70
     0
102
RTVSPropertyOp52
 70
     0
102
RTVSPropertyOp53
 70
     1
102
RTVSPropertyOp54
 70
     1
102
RTVSPropertyOp55
 70
     1
102
RTVSPropertyOp56
 70
     1
102
RTVSPropertyOp57
 70
     1
102
RTVSPropertyOp58
 70
     1
102
RTVSPropertyOp59
 70
     1
102
RTVSPropertyOp60
 70
     1
102
RTVSPropertyOp61
 70
     1
102
RTVSPropertyOp62
 70
     1
  0
XRECORD
  5
116B
102
{ACAD_REACTORS
330
116A
102
}
330
116A
100
AcDbXrecord
280
     1
102
RTVSPost2010Prop28
280
     0
102
RTVSPost2010PropOp28
 70
     1
102
RTVSPost2010Prop29
280
     1
102
RTVSPost2010PropOp29
 70
     1
102
RTVSPost2010Prop30
280
     1
102
RTVSPost2010PropOp30
 70
     1
102
RTVSPost2010Prop31
280
     0
102
RTVSPost2010PropOp31
 70
     1
102
RTVSPost2010Prop32
280
     0
102
RTVSPost2010PropOp32
 70
     1
102
RTVSPost2010Prop33
280
     0
102
RTVSPost2010PropOp33
 70
     1
102
RTVSPost2010Prop34
280
     0
102
RTVSPost2010PropOp34
 70
     1
102
RTVSPost2010Prop35
280
     0
102
RTVSPost2010PropOp35
 70
     1
102
RTVSPost2010Prop36
280
     0
102
RTVSPost2010PropOp36
 70
     1
102
RTVSPost2010Prop37
 90
       50
102
RTVSPost2010PropOp37
 70
     1
102
RTVSPost2010Prop38
140
0.0
102
RTVSPost2010PropOp38
 70
     1
102
RTVSPost2010Prop39
140
1.0
102
RTVSPost2010PropOp39
 70
     1
102
RTVSPost2010Prop40
 90
        0
102
RTVSPost2010PropOp40
 70
     1
102
RTVSPost2010Prop41ColorIndex
 90
       18
102
RTVSPost2010Prop41ColorRGB
 90
        0
102
RTVSPost2010PropOp41
 70
     1
102
RTVSPost2010Prop42
 90
       50
102
RTVSPost2010PropOp42
 70
     1
102
RTVSPost2010Prop43
 90
        3
102
RTVSPost2010PropOp43
 70
     1
102
RTVSPost2010Prop44ColorIndex
 90
        5
102
RTVSPost2010Prop44ColorRGB
 90
      255
102
RTVSPost2010PropOp44
 70
     1
102
RTVSPost2010Prop45
280
     0
102
RTVSPost2010PropOp45
 70
     1
102
RTVSPost2010Prop46
 90
       50
102
RTVSPost2010PropOp46
 70
     1
102
RTVSPost2010Prop47
 90
       50
102
RTVSPost2010PropOp47
 70
     1
102
RTVSPost2010Prop48
 90
       50
102
RTVSPost2010PropOp48
 70
     1
102
RTVSPost2010Prop49
280
     0
102
RTVSPost2010PropOp49
 70
     1
102
RTVSPost2010Prop50
 90
       50
102
RTVSPost2010PropOp50
 70
     1
102
RTVSPost2010Prop51ColorIndex
 90
      256
102
RTVSPost2010Prop51ColorRGB
 90
-16777216
102
RTVSPost2010PropOp51
 70
     0
102
RTVSPost2010Prop52
140
1.0
102
RTVSPost2010PropOp52
 70
     0
102
RTVSPost2010Prop53
 90
        2
102
RTVSPost2010PropOp53
 70
     1
102
RTVSPost2010Prop54
  1
strokes_ogs.tif
102
RTVSPost2010PropOp54
 70
     1
102
RTVSPost2010Prop55
280
     0
102
RTVSPost2010PropOp55
 70
     1
102
RTVSPost2010Prop56
140
1.0
102
RTVSPost2010PropOp56
 70
     1
102
RTVSPost2010Prop57
140
1.0
102
RTVSPost2010PropOp57
 70
     1
102
RTVSPropertyOp0
 70
     1
102
RTVSPropertyOp1
 70
     1
102
RTVSPropertyOp2
 70
     1
102
RTVSPropertyOp3
 70
     1
102
RTVSPropertyOp4
 70
     1
102
RTVSPropertyOp5
 70
     1
102
RTVSPropertyOp6
 70
     1
102
RTVSPropertyOp7
 70
     1
102
RTVSPropertyOp8
 70
     1
102
RTVSPropertyOp9
 70
     1
102
RTVSPropertyOp10
 70
     1
102
RTVSPropertyOp11
 70
     1
102
RTVSPropertyOp12
 70
     1
102
RTVSPropertyOp13
 70
     1
102
RTVSPropertyOp14
 70
     1
102
RTVSPropertyOp15
 70
     1
102
RTVSPropertyOp16
 70
     1
102
RTVSPropertyOp17
 70
     1
102
RTVSPropertyOp18
 70
     1
102
RTVSPropertyOp19
 70
     1
102
RTVSPropertyOp20
 70
     1
102
RTVSPropertyOp21
 70
     1
102
RTVSPropertyOp22
 70
     1
102
RTVSPropertyOp23
 70
     1
102
RTVSPropertyOp24
 70
     1
102
RTVSPropertyOp25
 70
     1
102
RTVSPropertyOp26
 70
     1
102
RTVSPropertyOp27
 70
     1
102
RTVSPropertyOp28
 70
     1
102
RTVSPropertyOp29
 70
     1
102
RTVSPropertyOp30
 70
     1
102
RTVSPropertyOp31
 70
     1
102
RTVSPropertyOp32
 70
     1
102
RTVSPropertyOp33
 70
     1
102
RTVSPropertyOp34
 70
     1
102
RTVSPropertyOp35
 70
     1
102
RTVSPropertyOp36
 70
     1
102
RTVSPropertyOp37
 70
     1
102
RTVSPropertyOp38
 70
     1
102
RTVSPropertyOp39
 70
     1
102
RTVSPropertyOp40
 70
     1
102
RTVSPropertyOp41
 70
     1
102
RTVSPropertyOp42
 70
     1
102
RTVSPropertyOp43
 70
     1
102
RTVSPropertyOp44
 70
     1
102
RTVSPropertyOp45
 70
     1
102
RTVSPropertyOp46
 70
     1
102
RTVSPropertyOp47
 70
     1
102
RTVSPropertyOp48
 70
     1
102
RTVSPropertyOp49
 70
     1
102
RTVSPropertyOp50
 70
     1
102
RTVSPropertyOp51
 70
     0
102
RTVSPropertyOp52
 70
     0
102
RTVSPropertyOp53
 70
     1
102
RTVSPropertyOp54
 70
     1
102
RTVSPropertyOp55
 70
     1
102
RTVSPropertyOp56
 70
     1
102
RTVSPropertyOp57
 70
     1
102
RTVSPropertyOp58
 70
     1
102
RTVSPropertyOp59
 70
     1
102
RTVSPropertyOp60
 70
     1
102
RTVSPropertyOp61
 70
     1
102
RTVSPropertyOp62
 70
     1
  0
XRECORD
  5
115F
102
{ACAD_REACTORS
330
115E
102
}
330
115E
100
AcDbXrecord
280
     1
102
RTVSPost2010Prop28
280
     0
102
RTVSPost2010PropOp28
 70
     1
102
RTVSPost2010Prop29
280
     1
102
RTVSPost2010PropOp29
 70
     1
102
RTVSPost2010Prop30
280
     1
102
RTVSPost2010PropOp30
 70
     1
102
RTVSPost2010Prop31
280
     0
102
RTVSPost2010PropOp31
 70
     1
102
RTVSPost2010Prop32
280
     0
102
RTVSPost2010PropOp32
 70
     1
102
RTVSPost2010Prop33
280
     0
102
RTVSPost2010PropOp33
 70
     1
102
RTVSPost2010Prop34
280
     0
102
RTVSPost2010PropOp34
 70
     1
102
RTVSPost2010Prop35
280
     0
102
RTVSPost2010PropOp35
 70
     1
102
RTVSPost2010Prop36
280
     0
102
RTVSPost2010PropOp36
 70
     1
102
RTVSPost2010Prop37
 90
       50
102
RTVSPost2010PropOp37
 70
     1
102
RTVSPost2010Prop38
140
0.0
102
RTVSPost2010PropOp38
 70
     1
102
RTVSPost2010Prop39
140
1.0
102
RTVSPost2010PropOp39
 70
     1
102
RTVSPost2010Prop40
 90
        0
102
RTVSPost2010PropOp40
 70
     1
102
RTVSPost2010Prop41ColorIndex
 90
       18
102
RTVSPost2010Prop41ColorRGB
 90
        0
102
RTVSPost2010PropOp41
 70
     1
102
RTVSPost2010Prop42
 90
       50
102
RTVSPost2010PropOp42
 70
     1
102
RTVSPost2010Prop43
 90
        3
102
RTVSPost2010PropOp43
 70
     1
102
RTVSPost2010Prop44ColorIndex
 90
        5
102
RTVSPost2010Prop44ColorRGB
 90
      255
102
RTVSPost2010PropOp44
 70
     1
102
RTVSPost2010Prop45
280
     0
102
RTVSPost2010PropOp45
 70
     1
102
RTVSPost2010Prop46
 90
       50
102
RTVSPost2010PropOp46
 70
     1
102
RTVSPost2010Prop47
 90
       50
102
RTVSPost2010PropOp47
 70
     1
102
RTVSPost2010Prop48
 90
       50
102
RTVSPost2010PropOp48
 70
     1
102
RTVSPost2010Prop49
280
     0
102
RTVSPost2010PropOp49
 70
     1
102
RTVSPost2010Prop50
 90
       50
102
RTVSPost2010PropOp50
 70
     1
102
RTVSPost2010Prop51ColorIndex
 90
      256
102
RTVSPost2010Prop51ColorRGB
 90
-16777216
102
RTVSPost2010PropOp51
 70
     0
102
RTVSPost2010Prop52
140
1.0
102
RTVSPost2010PropOp52
 70
     0
102
RTVSPost2010Prop53
 90
        2
102
RTVSPost2010PropOp53
 70
     1
102
RTVSPost2010Prop54
  1
strokes_ogs.tif
102
RTVSPost2010PropOp54
 70
     1
102
RTVSPost2010Prop55
280
     0
102
RTVSPost2010PropOp55
 70
     1
102
RTVSPost2010Prop56
140
1.0
102
RTVSPost2010PropOp56
 70
     1
102
RTVSPost2010Prop57
140
1.0
102
RTVSPost2010PropOp57
 70
     1
102
RTVSPropertyOp0
 70
     1
102
RTVSPropertyOp1
 70
     1
102
RTVSPropertyOp2
 70
     1
102
RTVSPropertyOp3
 70
     1
102
RTVSPropertyOp4
 70
     1
102
RTVSPropertyOp5
 70
     1
102
RTVSPropertyOp6
 70
     1
102
RTVSPropertyOp7
 70
     1
102
RTVSPropertyOp8
 70
     1
102
RTVSPropertyOp9
 70
     1
102
RTVSPropertyOp10
 70
     1
102
RTVSPropertyOp11
 70
     1
102
RTVSPropertyOp12
 70
     1
102
RTVSPropertyOp13
 70
     1
102
RTVSPropertyOp14
 70
     1
102
RTVSPropertyOp15
 70
     1
102
RTVSPropertyOp16
 70
     1
102
RTVSPropertyOp17
 70
     1
102
RTVSPropertyOp18
 70
     1
102
RTVSPropertyOp19
 70
     1
102
RTVSPropertyOp20
 70
     1
102
RTVSPropertyOp21
 70
     1
102
RTVSPropertyOp22
 70
     1
102
RTVSPropertyOp23
 70
     1
102
RTVSPropertyOp24
 70
     1
102
RTVSPropertyOp25
 70
     1
102
RTVSPropertyOp26
 70
     1
102
RTVSPropertyOp27
 70
     1
102
RTVSPropertyOp28
 70
     1
102
RTVSPropertyOp29
 70
     1
102
RTVSPropertyOp30
 70
     1
102
RTVSPropertyOp31
 70
     1
102
RTVSPropertyOp32
 70
     1
102
RTVSPropertyOp33
 70
     1
102
RTVSPropertyOp34
 70
     1
102
RTVSPropertyOp35
 70
     1
102
RTVSPropertyOp36
 70
     1
102
RTVSPropertyOp37
 70
     1
102
RTVSPropertyOp38
 70
     1
102
RTVSPropertyOp39
 70
     1
102
RTVSPropertyOp40
 70
     1
102
RTVSPropertyOp41
 70
     1
102
RTVSPropertyOp42
 70
     1
102
RTVSPropertyOp43
 70
     1
102
RTVSPropertyOp44
 70
     1
102
RTVSPropertyOp45
 70
     1
102
RTVSPropertyOp46
 70
     1
102
RTVSPropertyOp47
 70
     1
102
RTVSPropertyOp48
 70
     1
102
RTVSPropertyOp49
 70
     1
102
RTVSPropertyOp50
 70
     1
102
RTVSPropertyOp51
 70
     0
102
RTVSPropertyOp52
 70
     0
102
RTVSPropertyOp53
 70
     1
102
RTVSPropertyOp54
 70
     1
102
RTVSPropertyOp55
 70
     1
102
RTVSPropertyOp56
 70
     1
102
RTVSPropertyOp57
 70
     1
102
RTVSPropertyOp58
 70
     1
102
RTVSPropertyOp59
 70
     1
102
RTVSPropertyOp60
 70
     1
102
RTVSPropertyOp61
 70
     1
102
RTVSPropertyOp62
 70
     1
  0
XRECORD
  5
1177
102
{ACAD_REACTORS
330
1176
102
}
330
1176
100
AcDbXrecord
280
     1
102
RTVSPost2010Prop28
280
     0
102
RTVSPost2010PropOp28
 70
     1
102
RTVSPost2010Prop29
280
     1
102
RTVSPost2010PropOp29
 70
     1
102
RTVSPost2010Prop30
280
     1
102
RTVSPost2010PropOp30
 70
     1
102
RTVSPost2010Prop31
280
     0
102
RTVSPost2010PropOp31
 70
     1
102
RTVSPost2010Prop32
280
     0
102
RTVSPost2010PropOp32
 70
     1
102
RTVSPost2010Prop33
280
     0
102
RTVSPost2010PropOp33
 70
     1
102
RTVSPost2010Prop34
280
     0
102
RTVSPost2010PropOp34
 70
     1
102
RTVSPost2010Prop35
280
     0
102
RTVSPost2010PropOp35
 70
     1
102
RTVSPost2010Prop36
280
     0
102
RTVSPost2010PropOp36
 70
     1
102
RTVSPost2010Prop37
 90
       50
102
RTVSPost2010PropOp37
 70
     1
102
RTVSPost2010Prop38
140
0.0
102
RTVSPost2010PropOp38
 70
     1
102
RTVSPost2010Prop39
140
1.0
102
RTVSPost2010PropOp39
 70
     1
102
RTVSPost2010Prop40
 90
        0
102
RTVSPost2010PropOp40
 70
     1
102
RTVSPost2010Prop41ColorIndex
 90
       18
102
RTVSPost2010Prop41ColorRGB
 90
        0
102
RTVSPost2010PropOp41
 70
     1
102
RTVSPost2010Prop42
 90
       50
102
RTVSPost2010PropOp42
 70
     1
102
RTVSPost2010Prop43
 90
        3
102
RTVSPost2010PropOp43
 70
     1
102
RTVSPost2010Prop44ColorIndex
 90
        5
102
RTVSPost2010Prop44ColorRGB
 90
      255
102
RTVSPost2010PropOp44
 70
     1
102
RTVSPost2010Prop45
280
     0
102
RTVSPost2010PropOp45
 70
     1
102
RTVSPost2010Prop46
 90
       50
102
RTVSPost2010PropOp46
 70
     1
102
RTVSPost2010Prop47
 90
       50
102
RTVSPost2010PropOp47
 70
     1
102
RTVSPost2010Prop48
 90
       50
102
RTVSPost2010PropOp48
 70
     1
102
RTVSPost2010Prop49
280
     0
102
RTVSPost2010PropOp49
 70
     1
102
RTVSPost2010Prop50
 90
       50
102
RTVSPost2010PropOp50
 70
     1
102
RTVSPost2010Prop51ColorIndex
 90
      256
102
RTVSPost2010Prop51ColorRGB
 90
-16777216
102
RTVSPost2010PropOp51
 70
     0
102
RTVSPost2010Prop52
140
1.0
102
RTVSPost2010PropOp52
 70
     0
102
RTVSPost2010Prop53
 90
        2
102
RTVSPost2010PropOp53
 70
     1
102
RTVSPost2010Prop54
  1
strokes_ogs.tif
102
RTVSPost2010PropOp54
 70
     1
102
RTVSPost2010Prop55
280
     0
102
RTVSPost2010PropOp55
 70
     1
102
RTVSPost2010Prop56
140
1.0
102
RTVSPost2010PropOp56
 70
     1
102
RTVSPost2010Prop57
140
1.0
102
RTVSPost2010PropOp57
 70
     1
102
RTVSPropertyOp0
 70
     1
102
RTVSPropertyOp1
 70
     1
102
RTVSPropertyOp2
 70
     1
102
RTVSPropertyOp3
 70
     1
102
RTVSPropertyOp4
 70
     1
102
RTVSPropertyOp5
 70
     1
102
RTVSPropertyOp6
 70
     1
102
RTVSPropertyOp7
 70
     1
102
RTVSPropertyOp8
 70
     1
102
RTVSPropertyOp9
 70
     1
102
RTVSPropertyOp10
 70
     1
102
RTVSPropertyOp11
 70
     1
102
RTVSPropertyOp12
 70
     1
102
RTVSPropertyOp13
 70
     1
102
RTVSPropertyOp14
 70
     1
102
RTVSPropertyOp15
 70
     1
102
RTVSPropertyOp16
 70
     1
102
RTVSPropertyOp17
 70
     1
102
RTVSPropertyOp18
 70
     1
102
RTVSPropertyOp19
 70
     1
102
RTVSPropertyOp20
 70
     1
102
RTVSPropertyOp21
 70
     1
102
RTVSPropertyOp22
 70
     1
102
RTVSPropertyOp23
 70
     1
102
RTVSPropertyOp24
 70
     1
102
RTVSPropertyOp25
 70
     1
102
RTVSPropertyOp26
 70
     1
102
RTVSPropertyOp27
 70
     1
102
RTVSPropertyOp28
 70
     1
102
RTVSPropertyOp29
 70
     1
102
RTVSPropertyOp30
 70
     1
102
RTVSPropertyOp31
 70
     1
102
RTVSPropertyOp32
 70
     1
102
RTVSPropertyOp33
 70
     1
102
RTVSPropertyOp34
 70
     1
102
RTVSPropertyOp35
 70
     1
102
RTVSPropertyOp36
 70
     1
102
RTVSPropertyOp37
 70
     1
102
RTVSPropertyOp38
 70
     1
102
RTVSPropertyOp39
 70
     1
102
RTVSPropertyOp40
 70
     1
102
RTVSPropertyOp41
 70
     1
102
RTVSPropertyOp42
 70
     1
102
RTVSPropertyOp43
 70
     1
102
RTVSPropertyOp44
 70
     1
102
RTVSPropertyOp45
 70
     1
102
RTVSPropertyOp46
 70
     1
102
RTVSPropertyOp47
 70
     1
102
RTVSPropertyOp48
 70
     1
102
RTVSPropertyOp49
 70
     1
102
RTVSPropertyOp50
 70
     1
102
RTVSPropertyOp51
 70
     0
102
RTVSPropertyOp52
 70
     0
102
RTVSPropertyOp53
 70
     1
102
RTVSPropertyOp54
 70
     1
102
RTVSPropertyOp55
 70
     1
102
RTVSPropertyOp56
 70
     1
102
RTVSPropertyOp57
 70
     1
102
RTVSPropertyOp58
 70
     1
102
RTVSPropertyOp59
 70
     1
102
RTVSPropertyOp60
 70
     1
102
RTVSPropertyOp61
 70
     1
102
RTVSPropertyOp62
 70
     1
  0
ENDSEC
  0
EOF
