  0
SECTION
  2
HEADER
  9
$ACADVER
  1
AC1015
  9
$ACADMAINTVER
 70
    20
  9
$DWGCODEPAGE
  3
ANSI_1252
  9
$INSBASE
 10
0.0
 20
0.0
 30
0.0
  9
$EXTMIN
 10
-109.3962767561724
 20
-30.85727635206117
 30
0.0
  9
$EXTMAX
 10
210.6037232438276
 20
4.142723647938829
 30
98.0
  9
$LIMMIN
 10
0.0
 20
0.0
  9
$LIMMAX
 10
420.0
 20
297.0
  9
$ORTHOMODE
 70
     1
  9
$REGENMODE
 70
     1
  9
$FILLMODE
 70
     1
  9
$QTEXTMODE
 70
     0
  9
$MIRRTEXT
 70
     1
  9
$LTSCALE
 40
1.0
  9
$ATTMODE
 70
     1
  9
$TEXTSIZE
 40
2.5
  9
$TRACEWID
 40
1.0
  9
$TEXTSTYLE
  7
SANINDUSA
  9
$CLAYER
  8
cotas
  9
$CELTYPE
  6
ByLayer
  9
$CECOLOR
 62
   256
  9
$CELTSCALE
 40
1.0
  9
$DISPSILH
 70
     0
  9
$DIMSCALE
 40
1.0
  9
$DIMASZ
 40
2.0
  9
$DIMEXO
 40
1.0
  9
$DIMDLI
 40
1.0
  9
$DIMRND
 40
0.0
  9
$DIMDLE
 40
0.0
  9
$DIMEXE
 40
1.0
  9
$DIMTP
 40
0.0
  9
$DIMTM
 40
0.0
  9
$DIMTXT
 40
2.0
  9
$DIMCEN
 40
0.0
  9
$DIMTSZ
 40
0.0
  9
$DIMTOL
 70
     0
  9
$DIMLIM
 70
     0
  9
$DIMTIH
 70
     0
  9
$DIMTOH
 70
     0
  9
$DIMSE1
 70
     0
  9
$DIMSE2
 70
     0
  9
$DIMTAD
 70
     1
  9
$DIMZIN
 70
     8
  9
$DIMBLK
  1

  9
$DIMASO
 70
     1
  9
$DIMSHO
 70
     1
  9
$DIMPOST
  1

  9
$DIMAPOST
  1

  9
$DIMALT
 70
     0
  9
$DIMALTD
 70
     3
  9
$DIMALTF
 40
0.03937007874016
  9
$DIMLFAC
 40
1.0
  9
$DIMTOFL
 70
     1
  9
$DIMTVP
 40
0.0
  9
$DIMTIX
 70
     0
  9
$DIMSOXD
 70
     0
  9
$DIMSAH
 70
     0
  9
$DIMBLK1
  1

  9
$DIMBLK2
  1

  9
$DIMSTYLE
  2
SANINDUSA
  9
$DIMCLRD
 70
   256
  9
$DIMCLRE
 70
   256
  9
$DIMCLRT
 70
   256
  9
$DIMTFAC
 40
1.0
  9
$DIMGAP
 40
1.0
  9
$DIMJUST
 70
     0
  9
$DIMSD1
 70
     0
  9
$DIMSD2
 70
     0
  9
$DIMTOLJ
 70
     0
  9
$DIMTZIN
 70
     8
  9
$DIMALTZ
 70
     0
  9
$DIMALTTZ
 70
     0
  9
$DIMUPT
 70
     0
  9
$DIMDEC
 70
     1
  9
$DIMTDEC
 70
     1
  9
$DIMALTU
 70
     2
  9
$DIMALTTD
 70
     3
  9
$DIMTXSTY
  7
SANINDUSA
  9
$DIMAUNIT
 70
     0
  9
$DIMADEC
 70
     1
  9
$DIMALTRND
 40
0.0
  9
$DIMAZIN
 70
     0
  9
$DIMDSEP
 70
    44
  9
$DIMATFIT
 70
     3
  9
$DIMFRAC
 70
     0
  9
$DIMLDRBLK
  1

  9
$DIMLUNIT
 70
     2
  9
$DIMLWD
 70
    -1
  9
$DIMLWE
 70
    -1
  9
$DIMTMOVE
 70
     0
  9
$LUNITS
 70
     2
  9
$LUPREC
 70
     4
  9
$SKETCHINC
 40
1.0
  9
$FILLETRAD
 40
3.0
  9
$AUNITS
 70
     0
  9
$AUPREC
 70
     0
  9
$MENU
  1
.
  9
$ELEVATION
 40
0.0
  9
$PELEVATION
 40
0.0
  9
$THICKNESS
 40
0.0
  9
$LIMCHECK
 70
     0
  9
$CHAMFERA
 40
10.0
  9
$CHAMFERB
 40
10.0
  9
$CHAMFERC
 40
20.0
  9
$CHAMFERD
 40
0.0
  9
$SKPOLY
 70
     0
  9
$TDCREATE
 40
2453686.556222616
  9
$TDUCREATE
 40
2453686.514555950
  9
$TDUPDATE
 40
2456549.458147778
  9
$TDUUPDATE
 40
2456549.416481111
  9
$TDINDWG
 40
0.0030274537
  9
$TDUSRTIMER
 40
0.0030274537
  9
$USRTIMER
 70
     1
  9
$ANGBASE
 50
0.0
  9
$ANGDIR
 70
     0
  9
$PDMODE
 70
     0
  9
$PDSIZE
 40
0.0
  9
$PLINEWID
 40
0.0
  9
$SPLFRAME
 70
     0
  9
$SPLINETYPE
 70
     6
  9
$SPLINESEGS
 70
     8
  9
$HANDSEED
  5
C1E
  9
$SURFTAB1
 70
     6
  9
$SURFTAB2
 70
     6
  9
$SURFTYPE
 70
     6
  9
$SURFU
 70
     6
  9
$SURFV
 70
     6
  9
$UCSBASE
  2

  9
$UCSNAME
  2

  9
$UCSORG
 10
0.0
 20
0.0
 30
0.0
  9
$UCSXDIR
 10
1.0
 20
0.0
 30
0.0
  9
$UCSYDIR
 10
0.0
 20
1.0
 30
0.0
  9
$UCSORTHOREF
  2

  9
$UCSORTHOVIEW
 70
     0
  9
$UCSORGTOP
 10
0.0
 20
0.0
 30
0.0
  9
$UCSORGBOTTOM
 10
0.0
 20
0.0
 30
0.0
  9
$UCSORGLEFT
 10
0.0
 20
0.0
 30
0.0
  9
$UCSORGRIGHT
 10
0.0
 20
0.0
 30
0.0
  9
$UCSORGFRONT
 10
0.0
 20
0.0
 30
0.0
  9
$UCSORGBACK
 10
0.0
 20
0.0
 30
0.0
  9
$PUCSBASE
  2

  9
$PUCSNAME
  2

  9
$PUCSORG
 10
0.0
 20
0.0
 30
0.0
  9
$PUCSXDIR
 10
1.0
 20
0.0
 30
0.0
  9
$PUCSYDIR
 10
0.0
 20
1.0
 30
0.0
  9
$PUCSORTHOREF
  2

  9
$PUCSORTHOVIEW
 70
     0
  9
$PUCSORGTOP
 10
0.0
 20
0.0
 30
0.0
  9
$PUCSORGBOTTOM
 10
0.0
 20
0.0
 30
0.0
  9
$PUCSORGLEFT
 10
0.0
 20
0.0
 30
0.0
  9
$PUCSORGRIGHT
 10
0.0
 20
0.0
 30
0.0
  9
$PUCSORGFRONT
 10
0.0
 20
0.0
 30
0.0
  9
$PUCSORGBACK
 10
0.0
 20
0.0
 30
0.0
  9
$USERI1
 70
     0
  9
$USERI2
 70
     0
  9
$USERI3
 70
     0
  9
$USERI4
 70
     0
  9
$USERI5
 70
     0
  9
$USERR1
 40
0.0
  9
$USERR2
 40
0.0
  9
$USERR3
 40
0.0
  9
$USERR4
 40
0.0
  9
$USERR5
 40
0.0
  9
$WORLDVIEW
 70
     1
  9
$SHADEDGE
 70
     3
  9
$SHADEDIF
 70
    70
  9
$TILEMODE
 70
     1
  9
$MAXACTVP
 70
    64
  9
$PINSBASE
 10
0.0
 20
0.0
 30
0.0
  9
$PLIMCHECK
 70
     0
  9
$PEXTMIN
 10
1.000000000000000E+20
 20
1.000000000000000E+20
 30
1.000000000000000E+20
  9
$PEXTMAX
 10
-1.000000000000000E+20
 20
-1.000000000000000E+20
 30
-1.000000000000000E+20
  9
$PLIMMIN
 10
0.0
 20
0.0
  9
$PLIMMAX
 10
420.0
 20
297.0
  9
$UNITMODE
 70
     0
  9
$VISRETAIN
 70
     1
  9
$PLINEGEN
 70
     0
  9
$PSLTSCALE
 70
     1
  9
$TREEDEPTH
 70
  3020
  9
$CMLSTYLE
  2
Standard
  9
$CMLJUST
 70
     0
  9
$CMLSCALE
 40
20.0
  9
$PROXYGRAPHICS
 70
     1
  9
$MEASUREMENT
 70
     1
  9
$CELWEIGHT
370
    -1
  9
$ENDCAPS
280
     0
  9
$JOINSTYLE
280
     0
  9
$LWDISPLAY
290
     0
  9
$INSUNITS
 70
     4
  9
$HYPERLINKBASE
  1

  9
$STYLESHEET
  1
monochrome.ctb
  9
$XEDIT
290
     1
  9
$CEPSNTYPE
380
     0
  9
$PSTYLEMODE
290
     1
  9
$FINGERPRINTGUID
  2
{71D682BA-D9EA-46DD-A07C-793DAC4743F5}
  9
$VERSIONGUID
  2
{9A97DCE3-03A0-43DC-A762-549B8D56E0E2}
  9
$EXTNAMES
290
     1
  9
$PSVPSCALE
 40
0.0
  9
$OLESTARTUP
290
     0
  0
ENDSEC
  0
SECTION
  2
CLASSES
  0
CLASS
  1
ACDBDICTIONARYWDFLT
  2
AcDbDictionaryWithDefault
  3
ObjectDBX Classes
 90
        0
280
     0
281
     0
  0
CLASS
  1
ACDBPLACEHOLDER
  2
AcDbPlaceHolder
  3
ObjectDBX Classes
 90
        0
280
     0
281
     0
  0
CLASS
  1
LAYOUT
  2
AcDbLayout
  3
ObjectDBX Classes
 90
        0
280
     0
281
     0
  0
CLASS
  1
DICTIONARYVAR
  2
AcDbDictionaryVar
  3
ObjectDBX Classes
 90
        0
280
     0
281
     0
  0
CLASS
  1
DIMASSOC
  2
AcDbDimAssoc
  3
"AcDbDimAssoc|Product Desc:     AcDim ARX App For Dimension|Company:          Autodesk, Inc.|WEB Address:      www.autodesk.com"
 90
    32768
280
     0
281
     0
  0
CLASS
  1
TABLESTYLE
  2
AcDbTableStyle
  3
ObjectDBX Classes
 90
     4095
280
     0
281
     0
  0
CLASS
  1
MATERIAL
  2
AcDbMaterial
  3
ObjectDBX Classes
 90
     1153
280
     0
281
     0
  0
CLASS
  1
VISUALSTYLE
  2
AcDbVisualStyle
  3
ObjectDBX Classes
 90
     4095
280
     0
281
     0
  0
CLASS
  1
SCALE
  2
AcDbScale
  3
ObjectDBX Classes
 90
     1153
280
     0
281
     0
  0
CLASS
  1
MLEADERSTYLE
  2
AcDbMLeaderStyle
  3
ACDB_MLEADERSTYLE_CLASS
 90
     4095
280
     0
281
     0
  0
CLASS
  1
ACDBSECTIONVIEWSTYLE
  2
AcDbSectionViewStyle
  3
ObjectDBX Classes
 90
     1025
280
     0
281
     0
  0
CLASS
  1
ACDBDETAILVIEWSTYLE
  2
AcDbDetailViewStyle
  3
ObjectDBX Classes
 90
     1025
280
     0
281
     0
  0
CLASS
  1
SOLID_BACKGROUND
  2
AcDbSolidBackground
  3
SCENEOE
 90
     4095
280
     0
281
     0
  0
CLASS
  1
NPOCOLLECTION
  2
AcDbImpNonPersistentObjectsCollection
  3
ObjectDBX Classes
 90
     1153
280
     0
281
     0
  0
CLASS
  1
CELLSTYLEMAP
  2
AcDbCellStyleMap
  3
ObjectDBX Classes
 90
     1152
280
     0
281
     0
  0
ENDSEC
  0
SECTION
  2
TABLES
  0
TABLE
  2
VPORT
  5
8
330
0
100
AcDbSymbolTable
 70
     1
  0
VPORT
  5
B50
330
8
100
AcDbSymbolTableRecord
100
AcDbViewportTableRecord
  2
*Active
 70
     0
 10
0.0
 20
0.0
 11
1.0
 21
1.0
 12
6.365174981145202
 22
-41.33837938334186
 13
0.0
 23
0.0
 14
10.0
 24
10.0
 15
10.0
 25
10.0
 16
0.4237136516399663
 26
0.2987849436081893
 36
0.4934352255309364
 17
0.1451265222892652
 27
-0.0415232220370288
 37
0.0089392969662167
 40
187.0499719058448
 41
1.645464025026068
 42
50.0
 43
0.0
 44
0.0
 50
0.0
 51
115.9262216264959
 71
     0
 72
   100
 73
     1
 74
     2
 75
     0
 76
     0
 77
     0
 78
     0
281
     4
 65
     1
110
0.0
120
0.0
130
0.0
111
1.0
121
0.0
131
0.0
112
0.0
122
1.0
132
0.0
 79
     0
146
0.0
1001
ACAD_NAV_VCDISPLAY
1070
     3
  0
ENDTAB
  0
TABLE
  2
LTYPE
  5
5
330
0
100
AcDbSymbolTable
 70
     5
  0
LTYPE
  5
14
330
5
100
AcDbSymbolTableRecord
100
AcDbLinetypeTableRecord
  2
ByBlock
 70
     0
  3

 72
    65
 73
     0
 40
0.0
  0
LTYPE
  5
15
330
5
100
AcDbSymbolTableRecord
100
AcDbLinetypeTableRecord
  2
ByLayer
 70
     0
  3

 72
    65
 73
     0
 40
0.0
  0
LTYPE
  5
16
330
5
100
AcDbSymbolTableRecord
100
AcDbLinetypeTableRecord
  2
Continuous
 70
     0
  3
Solid line
 72
    65
 73
     0
 40
0.0
  0
LTYPE
  5
2D
330
5
100
AcDbSymbolTableRecord
100
AcDbLinetypeTableRecord
  2
DASHDOT
 70
     0
  3
Dash dot __ . __ . __ . __ . __ . __ . __ . __
 72
    65
 73
     4
 40
25.4
 49
12.7
 74
     0
 49
-6.349999999999999
 74
     0
 49
0.0
 74
     0
 49
-6.349999999999999
 74
     0
  0
LTYPE
  5
2E
330
5
100
AcDbSymbolTableRecord
100
AcDbLinetypeTableRecord
  2
HIDDEN
 70
     0
  3
Hidden __ __ __ __ __ __ __ __ __ __ __ __ __ _
 72
    65
 73
     2
 40
9.524999999999998
 49
6.349999999999999
 74
     0
 49
-3.174999999999999
 74
     0
  0
LTYPE
  5
44
330
5
100
AcDbSymbolTableRecord
100
AcDbLinetypeTableRecord
  2
SLDSECTION0
 70
     0
  3

 72
    65
 73
     4
 40
10.16
 49
6.349999999999999
 74
     0
 49
-1.27
 74
     0
 49
1.27
 74
     0
 49
-1.27
 74
     0
  0
ENDTAB
  0
TABLE
  2
LAYER
  5
2
330
0
100
AcDbSymbolTable
 70
    16
  0
LAYER
  5
10
102
{ACAD_XDICTIONARY
360
BB4
102
}
330
2
100
AcDbSymbolTableRecord
100
AcDbLayerTableRecord
  2
0
 70
     0
 62
     7
  6
Continuous
370
    -3
390
F
  0
LAYER
  5
2F
102
{ACAD_XDICTIONARY
360
BB6
102
}
330
2
100
AcDbSymbolTableRecord
100
AcDbLayerTableRecord
  2
1
 70
     0
 62
     1
  6
Continuous
370
    -3
390
F
  0
LAYER
  5
30
102
{ACAD_XDICTIONARY
360
BB8
102
}
330
2
100
AcDbSymbolTableRecord
100
AcDbLayerTableRecord
  2
2
 70
     0
 62
     2
  6
Continuous
370
    -3
390
F
  0
LAYER
  5
31
102
{ACAD_XDICTIONARY
360
BBA
102
}
330
2
100
AcDbSymbolTableRecord
100
AcDbLayerTableRecord
  2
3
 70
     0
 62
     3
  6
Continuous
370
    -3
390
F
  0
LAYER
  5
32
102
{ACAD_XDICTIONARY
360
BBC
102
}
330
2
100
AcDbSymbolTableRecord
100
AcDbLayerTableRecord
  2
4
 70
     0
 62
     4
  6
Continuous
370
    -3
390
F
  0
LAYER
  5
33
102
{ACAD_XDICTIONARY
360
BBE
102
}
330
2
100
AcDbSymbolTableRecord
100
AcDbLayerTableRecord
  2
5
 70
     0
 62
     5
  6
Continuous
370
    -3
390
F
  0
LAYER
  5
34
102
{ACAD_XDICTIONARY
360
BC0
102
}
330
2
100
AcDbSymbolTableRecord
100
AcDbLayerTableRecord
  2
6
 70
     0
 62
     6
  6
Continuous
370
    -3
390
F
  0
LAYER
  5
35
102
{ACAD_XDICTIONARY
360
BC2
102
}
330
2
100
AcDbSymbolTableRecord
100
AcDbLayerTableRecord
  2
7
 70
     0
 62
     7
  6
Continuous
370
    -3
390
F
  0
LAYER
  5
36
102
{ACAD_XDICTIONARY
360
BC4
102
}
330
2
100
AcDbSymbolTableRecord
100
AcDbLayerTableRecord
  2
cen
 70
     0
 62
     7
  6
DASHDOT
370
    -3
390
F
  0
LAYER
  5
37
102
{ACAD_XDICTIONARY
360
BC6
102
}
330
2
100
AcDbSymbolTableRecord
100
AcDbLayerTableRecord
  2
hid
 70
     0
 62
     7
  6
HIDDEN
370
    -3
390
F
  0
LAYER
  5
5D6
102
{ACAD_XDICTIONARY
360
BC8
102
}
330
2
100
AcDbSymbolTableRecord
100
AcDbLayerTableRecord
  2
hatch
 70
     0
 62
     9
  6
Continuous
370
    -3
390
F
  0
LAYER
  5
8AF
102
{ACAD_XDICTIONARY
360
BCA
102
}
330
2
100
AcDbSymbolTableRecord
100
AcDbLayerTableRecord
  2
9
 70
     0
 62
     9
  6
Continuous
370
    -3
390
F
  0
LAYER
  5
8F8
102
{ACAD_XDICTIONARY
360
BCC
102
}
330
2
100
AcDbSymbolTableRecord
100
AcDbLayerTableRecord
  2
leg fin
 70
     0
 62
     9
  6
Continuous
370
    -3
390
F
  0
LAYER
  5
91D
102
{ACAD_XDICTIONARY
360
BCE
102
}
330
2
100
AcDbSymbolTableRecord
100
AcDbLayerTableRecord
  2
cotas
 70
     0
 62
     1
  6
Continuous
370
    -3
390
F
  0
LAYER
  5
92F
330
2
100
AcDbSymbolTableRecord
100
AcDbLayerTableRecord
  2
Defpoints
 70
     0
 62
     7
  6
Continuous
290
     0
370
    -3
390
F
  0
LAYER
  5
B39
102
{ACAD_XDICTIONARY
360
BD0
102
}
330
2
100
AcDbSymbolTableRecord
100
AcDbLayerTableRecord
  2
ASHADE
 70
     4
 62
     7
  6
Continuous
370
    -3
390
F
  0
ENDTAB
  0
TABLE
  2
STYLE
  5
3
330
0
100
AcDbSymbolTable
 70
     7
  0
STYLE
  5
11
330
3
100
AcDbSymbolTableRecord
100
AcDbTextStyleTableRecord
  2
Standard
 70
     0
 40
0.0
 41
1.0
 50
0.0
 71
     0
 42
2.5
  3
Avgardn.ttf
  4

1001
ACAD
1000
AvantGarde Bk BT
1071
       34
  0
STYLE
  5
2C
330
3
100
AcDbSymbolTableRecord
100
AcDbTextStyleTableRecord
  2

 70
     1
 40
0.0
 41
1.0
 50
0.0
 71
     0
 42
2.5
  3
ltypeshp.shx
  4

  0
STYLE
  5
8F9
330
3
100
AcDbSymbolTableRecord
100
AcDbTextStyleTableRecord
  2
arial
 70
     0
 40
0.0
 41
1.0
 50
0.0
 71
     0
 42
2.5
  3
ARIAL.TTF
  4

1001
ACAD
1000
Arial
1071
       34
  0
STYLE
  5
8FA
330
3
100
AcDbSymbolTableRecord
100
AcDbTextStyleTableRecord
  2
futura
 70
     0
 40
0.0
 41
1.0
 50
0.0
 71
     0
 42
2.5
  3
futural.ttf
  4

1001
ACAD
1000
Futura Lt BT
1071
       34
  0
STYLE
  5
91E
330
3
100
AcDbSymbolTableRecord
100
AcDbTextStyleTableRecord
  2
ROMANS25
 70
     0
 40
0.025
 41
0.8
 50
0.0
 71
     0
 42
0.0193542837451872
  3
romans.shx
  4

  0
STYLE
  5
91F
330
3
100
AcDbSymbolTableRecord
100
AcDbTextStyleTableRecord
  2
SANINDUSA
 70
     0
 40
0.0
 41
1.0
 50
0.0
 71
     0
 42
2.5
  3
verdana.TTF
  4

1001
ACAD
1000
Verdana
1071
       34
  0
STYLE
  5
B36
330
3
100
AcDbSymbolTableRecord
100
AcDbTextStyleTableRecord
  2
ASHADE
 70
     0
 40
0.2
 41
1.0
 50
0.0
 71
     0
 42
2.5
  3
simplex
  4

  0
ENDTAB
  0
TABLE
  2
VIEW
  5
6
330
0
100
AcDbSymbolTable
 70
     0
  0
ENDTAB
  0
TABLE
  2
UCS
  5
7
330
0
100
AcDbSymbolTable
 70
     0
  0
ENDTAB
  0
TABLE
  2
APPID
  5
9
330
0
100
AcDbSymbolTable
 70
    10
  0
APPID
  5
12
330
9
100
AcDbSymbolTableRecord
100
AcDbRegAppTableRecord
  2
ACAD
 70
     0
  0
APPID
  5
3A
330
9
100
AcDbSymbolTableRecord
100
AcDbRegAppTableRecord
  2
DCO15
 70
     0
  0
APPID
  5
B37
330
9
100
AcDbSymbolTableRecord
100
AcDbRegAppTableRecord
  2
AVE_RENDER
 70
     0
  0
APPID
  5
B38
330
9
100
AcDbSymbolTableRecord
100
AcDbRegAppTableRecord
  2
AVE_ENTITY_MATERIAL
 70
     0
  0
APPID
  5
B45
330
9
100
AcDbSymbolTableRecord
100
AcDbRegAppTableRecord
  2
AVE_FINISH
 70
     0
  0
APPID
  5
B46
330
9
100
AcDbSymbolTableRecord
100
AcDbRegAppTableRecord
  2
AVE_MATERIAL
 70
     0
  0
APPID
  5
B47
330
9
100
AcDbSymbolTableRecord
100
AcDbRegAppTableRecord
  2
AVE_GLOBAL
 70
     0
  0
APPID
  5
BAD
330
9
100
AcDbSymbolTableRecord
100
AcDbRegAppTableRecord
  2
ACAD_EXEMPT_FROM_CAD_STANDARDS
 70
     0
  0
APPID
  5
BD9
330
9
100
AcDbSymbolTableRecord
100
AcDbRegAppTableRecord
  2
ACAD_NAV_VCDISPLAY
 70
     0
  0
APPID
  5
C1A
330
9
100
AcDbSymbolTableRecord
100
AcDbRegAppTableRecord
  2
ACAD_MLEADERVER
 70
     0
  0
ENDTAB
  0
TABLE
  2
DIMSTYLE
  5
A
330
0
100
AcDbSymbolTable
 70
     6
100
AcDbDimStyleTable
 71
     2
340
921
340
27
  0
DIMSTYLE
105
27
330
A
100
AcDbSymbolTableRecord
100
AcDbDimStyleTableRecord
  2
ISO-25
 70
     0
 41
2.5
 42
0.625
 43
3.75
 44
1.25
 73
     0
 74
     0
 77
     1
 78
     8
140
2.5
141
2.5
143
0.03937007874016
147
0.625
171
     3
172
     1
271
     2
272
     2
274
     3
278
    44
283
     0
284
     8
340
11
  0
DIMSTYLE
105
45
330
A
100
AcDbSymbolTableRecord
100
AcDbDimStyleTableRecord
  2
STANDARD
 70
     0
289
     0
340
11
  0
DIMSTYLE
105
920
330
A
100
AcDbSymbolTableRecord
100
AcDbDimStyleTableRecord
  2
INDUSA-10
 70
     0
 41
0.08
 42
0.05
 43
0.3
 44
0.025
 45
0.01
 46
0.025
 73
     0
 74
     0
 77
     1
 78
     1
141
0.0
143
1000.0
144
1000.0
146
0.5555555555555556
147
0.02
176
     5
177
     5
178
   256
271
     0
272
     0
279
     2
284
     1
285
     1
286
     1
340
91E
342
919
  0
DIMSTYLE
105
921
330
A
100
AcDbSymbolTableRecord
100
AcDbDimStyleTableRecord
  2
SANINDUSA
 70
     0
 41
2.0
 42
1.0
 43
1.0
 44
1.0
 73
     0
 74
     0
 77
     1
 78
     8
140
2.0
141
0.0
143
0.03937007874016
147
1.0
171
     3
172
     1
176
   256
177
   256
178
   256
179
     1
271
     1
272
     1
274
     3
278
    44
283
     0
284
     8
340
91F
371
    -1
372
    -1
  0
DIMSTYLE
105
AAF
330
A
100
AcDbSymbolTableRecord
100
AcDbDimStyleTableRecord
  2
SLDDIMSTYLE0
 70
     0
 41
6.0
 44
1.0
 78
    12
140
3.5
147
0.875
173
     1
176
   255
177
   255
178
   255
271
     2
284
    12
289
     0
340
11
341
AA8
343
AA8
344
AA8
  0
ENDTAB
  0
TABLE
  2
BLOCK_RECORD
  5
1
330
0
100
AcDbSymbolTable
 70
    11
  0
BLOCK_RECORD
  5
1F
330
1
100
AcDbSymbolTableRecord
100
AcDbBlockTableRecord
  2
*Model_Space
340
22
  0
BLOCK_RECORD
  5
1B
330
1
100
AcDbSymbolTableRecord
100
AcDbBlockTableRecord
  2
*Paper_Space
340
1E
  0
BLOCK_RECORD
  5
23
330
1
100
AcDbSymbolTableRecord
100
AcDbBlockTableRecord
  2
*Paper_Space0
340
26
  0
BLOCK_RECORD
  5
8B0
330
1
100
AcDbSymbolTableRecord
100
AcDbBlockTableRecord
  2
legenda sanindusa
340
0
102
{BLKREFS
331
90E
102
}
1001
ACAD
1000
DesignCenter Data
1002
{
1070
     1
1070
     4
1002
}
  0
BLOCK_RECORD
  5
8FB
330
1
100
AcDbSymbolTableRecord
100
AcDbBlockTableRecord
  2
a2 l rolo
340
0
1001
ACAD
1000
DesignCenter Data
1002
{
1070
     1
1070
     4
1002
}
  0
BLOCK_RECORD
  5
919
330
1
100
AcDbSymbolTableRecord
100
AcDbBlockTableRecord
  2
_DotSmall
340
0
  0
BLOCK_RECORD
  5
922
330
1
100
AcDbSymbolTableRecord
100
AcDbBlockTableRecord
  2
base para cotas
340
0
1001
ACAD
1000
DesignCenter Data
1002
{
1070
     1
1070
     4
1002
}
  0
BLOCK_RECORD
  5
A90
330
1
100
AcDbSymbolTableRecord
100
AcDbBlockTableRecord
  2
corte vertical
340
0
1001
ACAD
1000
DesignCenter Data
1002
{
1070
     1
1070
     4
1002
}
  0
BLOCK_RECORD
  5
AA8
330
1
100
AcDbSymbolTableRecord
100
AcDbBlockTableRecord
  2
_CLOSED
340
0
  0
BLOCK_RECORD
  5
AB0
330
1
100
AcDbSymbolTableRecord
100
AcDbBlockTableRecord
  2
pormenor
340
0
1001
ACAD
1000
DesignCenter Data
1002
{
1070
     1
1070
     4
1002
}
  0
BLOCK_RECORD
  5
B3A
330
1
100
AcDbSymbolTableRecord
100
AcDbBlockTableRecord
  2
AVE_RENDER
340
0
102
{BLKREFS
331
B3D
331
B3E
331
B3F
331
B40
331
B41
331
B42
331
B43
331
B44
102
}
  0
BLOCK_RECORD
  5
B48
330
1
100
AcDbSymbolTableRecord
100
AcDbBlockTableRecord
  2
AVE_GLOBAL
340
0
102
{BLKREFS
331
B4B
102
}
  0
ENDTAB
  0
ENDSEC
  0
SECTION
  2
BLOCKS
  0
BLOCK
  5
20
330
1F
100
AcDbEntity
  8
0
100
AcDbBlockBegin
  2
*Model_Space
 70
     0
 10
0.0
 20
0.0
 30
0.0
  3
*Model_Space
  1

  0
ENDBLK
  5
21
330
1F
100
AcDbEntity
  8
0
100
AcDbBlockEnd
  0
BLOCK
  5
1C
330
1B
100
AcDbEntity
 67
     1
  8
0
100
AcDbBlockBegin
  2
*Paper_Space
 70
     0
 10
0.0
 20
0.0
 30
0.0
  3
*Paper_Space
  1

  0
ENDBLK
  5
1D
330
1B
100
AcDbEntity
 67
     1
  8
0
100
AcDbBlockEnd
  0
BLOCK
  5
24
330
23
100
AcDbEntity
 67
     1
  8
0
100
AcDbBlockBegin
  2
*Paper_Space0
 70
     0
 10
0.0
 20
0.0
 30
0.0
  3
*Paper_Space0
  1

  0
ENDBLK
  5
25
330
23
100
AcDbEntity
 67
     1
  8
0
100
AcDbBlockEnd
  0
BLOCK
  5
8F6
330
8B0
100
AcDbEntity
  8
0
100
AcDbBlockBegin
  2
legenda sanindusa
 70
     0
 10
0.0
 20
0.0
 30
0.0
  3
legenda sanindusa
  1

  0
LINE
  5
8B1
330
8B0
100
AcDbEntity
  8
3
100
AcDbLine
 10
-185.0
 20
55.0
 30
0.0
 11
-45.0
 21
55.0
 31
0.0
  0
LINE
  5
8B2
330
8B0
100
AcDbEntity
  8
3
100
AcDbLine
 10
-140.0
 20
15.0
 30
0.0
 11
-5.0
 21
15.0
 31
0.0
  0
LINE
  5
8B3
330
8B0
100
AcDbEntity
  8
3
100
AcDbLine
 10
-185.0
 20
25.0
 30
0.0
 11
-5.0
 21
25.0
 31
0.0
  0
LINE
  5
8B4
330
8B0
100
AcDbEntity
  8
3
100
AcDbLine
 10
-185.0
 20
70.0
 30
0.0
 11
-5.0
 21
70.0
 31
0.0
  0
LINE
  5
8B5
330
8B0
100
AcDbEntity
  8
1
100
AcDbLine
 10
-155.0
 20
25.0
 30
0.0
 11
-155.0
 21
55.0
 31
0.0
  0
LINE
  5
8B6
330
8B0
100
AcDbEntity
  8
1
100
AcDbLine
 10
-175.0
 20
5.0
 30
0.0
 11
-175.0
 21
55.0
 31
0.0
  0
LINE
  5
8B7
330
8B0
100
AcDbEntity
  8
1
100
AcDbLine
 10
-165.0
 20
5.0
 30
0.0
 11
-165.0
 21
55.0
 31
0.0
  0
LINE
  5
8B8
330
8B0
100
AcDbEntity
  8
3
100
AcDbLine
 10
-185.0
 20
70.0
 30
0.0
 11
-185.0
 21
5.0
 31
0.0
  0
LINE
  5
8B9
330
8B0
100
AcDbEntity
  8
3
100
AcDbLine
 10
-140.0
 20
5.0
 30
0.0
 11
-140.0
 21
70.0
 31
0.0
  0
LINE
  5
8BA
330
8B0
100
AcDbEntity
  8
1
100
AcDbLine
 10
-185.0
 20
13.0
 30
0.0
 11
-140.0
 21
13.0
 31
0.0
  0
LINE
  5
8BB
330
8B0
100
AcDbEntity
  8
1
100
AcDbLine
 10
-185.0
 20
17.0
 30
0.0
 11
-140.0
 21
17.0
 31
0.0
  0
LINE
  5
8BC
330
8B0
100
AcDbEntity
  8
1
100
AcDbLine
 10
-185.0
 20
29.0
 30
0.0
 11
-140.0
 21
29.0
 31
0.0
  0
LINE
  5
8BD
330
8B0
100
AcDbEntity
  8
1
100
AcDbLine
 10
-185.0
 20
33.0
 30
0.0
 11
-140.0
 21
33.0
 31
0.0
  0
LINE
  5
8BE
330
8B0
100
AcDbEntity
  8
1
100
AcDbLine
 10
-185.0
 20
9.0
 30
0.0
 11
-140.0
 21
9.0
 31
0.0
  0
TEXT
  5
8BF
330
8B0
100
AcDbEntity
  8
1
100
AcDbText
 10
-182.4712106498431
 20
10.27752428818792
 30
0.0
 40
1.5
  1
Des.
  7
futura
100
AcDbText
  0
TEXT
  5
8C0
330
8B0
100
AcDbEntity
  8
1
100
AcDbText
 10
-182.4712106498431
 20
6.242758612376292
 30
0.0
 40
1.5
  1
Aprov.
  7
futura
100
AcDbText
  0
TEXT
  5
8C1
330
8B0
100
AcDbEntity
  8
1
100
AcDbText
 10
-182.4712106498431
 20
14.22644305608185
 30
0.0
 40
1.5
  1
Proj.
  7
futura
100
AcDbText
  0
TEXT
  5
8C2
330
8B0
100
AcDbEntity
  8
1
100
AcDbText
 10
-173.0255575332329
 20
20.14982120792286
 30
0.0
 40
1.5
  1
Data
  7
futura
100
AcDbText
  0
TEXT
  5
8C3
330
8B0
100
AcDbEntity
  8
1
100
AcDbText
 10
-162.4490686873317
 20
20.14982120792286
 30
0.0
 40
1.5
  1
Nome
  7
futura
100
AcDbText
  0
TEXT
  5
8C4
330
8B0
100
AcDbEntity
  8
1
100
AcDbText
 10
-137.6371215561847
 20
11.46433538467624
 30
0.0
 40
2.0
  1
Acabamento
  7
futura
100
AcDbText
  0
TEXT
  5
8C5
330
8B0
100
AcDbEntity
  8
1
100
AcDbText
 10
-120.9603734548351
 20
7.59099983359431
 30
0.0
 40
2.0
  1
.........
  7
futura
100
AcDbText
  0
TEXT
  5
8C6
330
8B0
100
AcDbEntity
  8
1
100
AcDbText
 10
-137.6371215561847
 20
20.8950644835171
 30
0.0
 40
2.0
  1
Material
  7
futura
100
AcDbText
  0
TEXT
  5
8C7
330
8B0
100
AcDbEntity
  8
1
100
AcDbText
 10
-120.9603734548351
 20
17.35854081031584
 30
0.0
 40
2.0
  1
.........
  7
futura
100
AcDbText
  0
TEXT
  5
8C8
330
8B0
100
AcDbEntity
  8
1
100
AcDbText
 10
-92.6604362203999
 20
11.46433538467624
 30
0.0
 40
2.0
  1
Cor
  7
futura
100
AcDbText
  0
LINE
  5
8C9
330
8B0
100
AcDbEntity
  8
1
100
AcDbLine
 10
-95.0
 20
5.0
 30
0.0
 11
-95.0
 21
15.0
 31
0.0
  0
LINE
  5
8CA
330
8B0
100
AcDbEntity
  8
1
100
AcDbLine
 10
-185.0
 20
37.0
 30
0.0
 11
-140.0
 21
37.0
 31
0.0
  0
LINE
  5
8CB
330
8B0
100
AcDbEntity
  8
1
100
AcDbLine
 10
-185.0
 20
41.0
 30
0.0
 11
-140.0
 21
41.0
 31
0.0
  0
LINE
  5
8CC
330
8B0
100
AcDbEntity
  8
1
100
AcDbLine
 10
-185.0
 20
45.0
 30
0.0
 11
-140.0
 21
45.0
 31
0.0
  0
LINE
  5
8CD
330
8B0
100
AcDbEntity
  8
1
100
AcDbLine
 10
-185.0
 20
49.0
 30
0.0
 11
-140.0
 21
49.0
 31
0.0
  0
TEXT
  5
8CE
330
8B0
100
AcDbEntity
  8
1
100
AcDbText
 10
-183.2876141356852
 20
65.52262263452473
 30
0.0
 40
2.0
  1
Observações
  7
futura
100
AcDbText
  0
TEXT
  5
8CF
330
8B0
100
AcDbEntity
  8
1
100
AcDbText
 10
-183.7749929297844
 20
51.22609686719716
 30
0.0
 40
1.5
  1
Revisão
  7
futura
100
AcDbText
  0
TEXT
  5
8D0
330
8B0
100
AcDbEntity
  8
1
100
AcDbText
 10
-173.0255575332329
 20
51.22609686719716
 30
0.0
 40
1.5
  1
Alt. n.º
  7
futura
100
AcDbText
  0
TEXT
  5
8D1
330
8B0
100
AcDbEntity
  8
1
100
AcDbText
 10
-162.4490686873317
 20
51.22609686719716
 30
0.0
 40
1.5
  1
Data
  7
futura
100
AcDbText
  0
TEXT
  5
8D2
330
8B0
100
AcDbEntity
  8
1
100
AcDbText
 10
-150.258410660428
 20
51.22609686719716
 30
0.0
 40
1.5
  1
Nome
  7
futura
100
AcDbText
  0
TEXT
  5
8D3
330
8B0
100
AcDbEntity
  8
1
100
AcDbText
 10
-166.4424144812065
 20
61.81769267420179
 30
0.0
 40
2.0
  1
.........
  7
futura
100
AcDbText
  0
TEXT
  5
8D4
330
8B0
100
AcDbEntity
  8
1
100
AcDbText
 10
-137.6371215561847
 20
50.53449929156204
 30
0.0
 40
2.0
  1
Legenda
  7
futura
100
AcDbText
  0
TEXT
  5
8D5
330
8B0
100
AcDbEntity
  8
1
100
AcDbText
 10
-120.9603734548351
 20
44.64029316955975
 30
0.0
 40
2.0
  1
.........
  7
futura
100
AcDbText
  0
TEXT
  5
8D6
330
8B0
100
AcDbEntity
  8
1
100
AcDbText
 10
-137.6371215561847
 20
65.52262263452473
 30
0.0
 40
2.0
  1
Designação de Projecto
  7
futura
100
AcDbText
  0
TEXT
  5
8D7
330
8B0
100
AcDbEntity
  8
1
100
AcDbText
 10
-101.1239778941614
 20
61.81769267420179
 30
0.0
 40
5.0
  1
.........
  7
futura
 72
     1
 11
-92.40190167865547
 21
61.81769267420179
 31
0.0
100
AcDbText
  0
LINE
  5
8D8
330
8B0
100
AcDbEntity
  8
3
100
AcDbLine
 10
-25.0
 20
37.5
 30
0.0
 11
-25.0
 21
25.0
 31
0.0
  0
LINE
  5
8D9
330
8B0
100
AcDbEntity
  8
3
100
AcDbLine
 10
-45.0
 20
5.0
 30
0.0
 11
-45.0
 21
70.0
 31
0.0
  0
TEXT
  5
8DA
330
8B0
100
AcDbEntity
  8
1
100
AcDbText
 10
-42.63019191635101
 20
34.03072354268113
 30
0.0
 40
2.0
  1
Escala
  7
futura
100
AcDbText
  0
TEXT
  5
8DB
330
8B0
100
AcDbEntity
  8
1
100
AcDbText
 10
-42.63019191635101
 20
11.29592979391725
 30
0.0
 40
2.0
  1
Substituido por
  7
futura
100
AcDbText
  0
TEXT
  5
8DC
330
8B0
100
AcDbEntity
  8
1
100
AcDbText
 10
-42.63019191635101
 20
21.56868893564092
 30
0.0
 40
2.0
  1
Substitui
  7
futura
100
AcDbText
  0
TEXT
  5
8DD
330
8B0
100
AcDbEntity
  8
1
100
AcDbText
 10
-73.45690863491824
 20
7.59099983359431
 30
0.0
 40
2.0
  1
.........
  7
futura
100
AcDbText
  0
TEXT
  5
8DE
330
8B0
100
AcDbEntity
  8
1
100
AcDbText
 10
-19.72071985003629
 20
7.59099983359431
 30
0.0
 40
2.0
  1
.........
  7
futura
100
AcDbText
  0
TEXT
  5
8DF
330
8B0
100
AcDbEntity
  8
1
100
AcDbText
 10
-38.90055376709904
 20
28.64173558568097
 30
0.0
 40
2.0
  1
1/xxx
  7
futura
 72
     1
 11
-35.99253799837368
 21
28.64173558568097
 31
0.0
100
AcDbText
  0
TEXT
  5
8E0
330
8B0
100
AcDbEntity
  8
1
100
AcDbText
 10
-19.72071985003629
 20
17.35854081031584
 30
0.0
 40
2.0
  1
.........
  7
futura
100
AcDbText
  0
TEXT
  5
8E1
330
8B0
100
AcDbEntity
  8
1
100
AcDbText
 10
-20.61474400535237
 20
28.81014048007717
 30
0.0
 40
2.0
  1
.........
  7
futura
 72
     1
 11
-17.12591351915
 21
28.81014048007717
 31
0.0
100
AcDbText
  0
TEXT
  5
8E2
330
8B0
100
AcDbEntity
  8
1
100
AcDbText
 10
-23.08975916221255
 20
34.03072354268113
 30
0.0
 40
2.0
  1
Folha
  7
futura
100
AcDbText
  0
TEXT
  5
8E3
330
8B0
100
AcDbEntity
  8
1
100
AcDbText
 10
-10.30222781109691
 20
38.30276906605366
 30
0.0
 40
2.0
  1
XX
  7
futura
 72
     1
 11
-8.999993908337387
 21
38.30276906605366
 31
0.0
100
AcDbText
  0
TEXT
  5
8E4
330
8B0
100
AcDbEntity
  8
1
100
AcDbText
 10
-11.97683359296288
 20
43.28420731542826
 30
0.0
 40
1.5
  1
revisão
  7
futura
 72
     1
 11
-8.999993908337387
 21
43.28420731542826
 31
0.0
100
AcDbText
  0
LINE
  5
8E5
330
8B0
100
AcDbEntity
  8
3
100
AcDbLine
 10
-45.0
 20
37.5
 30
0.0
 11
-5.0
 21
37.5
 31
0.0
  0
LINE
  5
8E6
330
8B0
100
AcDbEntity
  8
3
100
AcDbLine
 10
-45.0
 20
50.0
 30
0.0
 11
-5.0
 21
50.0
 31
0.0
  0
LINE
  5
8E7
330
8B0
100
AcDbEntity
  8
leg fin
100
AcDbLine
 10
-45.0
 20
44.79013347462376
 30
0.0
 11
-5.0
 21
44.79013347462376
 31
0.0
  0
LINE
  5
8E8
330
8B0
100
AcDbEntity
  8
leg fin
100
AcDbLine
 10
-45.0
 20
41.14699208324248
 30
0.0
 11
-5.0
 21
41.14699208324248
 31
0.0
  0
TEXT
  5
8E9
330
8B0
100
AcDbEntity
  8
1
100
AcDbText
 10
-42.58611490074676
 20
38.30276906605366
 30
0.0
 40
2.0
  1
XX
  7
futura
 72
     1
 11
-41.28388099798724
 21
38.30276906605366
 31
0.0
100
AcDbText
  0
TEXT
  5
8EA
330
8B0
100
AcDbEntity
  8
1
100
AcDbText
 10
-43.85549072947776
 20
46.5591951240201
 30
0.0
 40
2.0
  1
Desenho n.º
  7
futura
100
AcDbText
  0
TEXT
  5
8EB
330
8B0
100
AcDbEntity
  8
1
100
AcDbText
 10
-44.60221214121983
 20
43.28420731542826
 30
0.0
 40
1.5
  1
produto
  7
futura
 72
     1
 11
-41.28388099798724
 21
43.28420731542826
 31
0.0
100
AcDbText
  0
TEXT
  5
8EC
330
8B0
100
AcDbEntity
  8
5
100
AcDbText
 10
-39.44374636487351
 20
59.08644396973818
 30
0.0
 40
4.0
  1
SANINDUSA
  7
futura
100
AcDbText
  0
TEXT
  5
8ED
330
8B0
100
AcDbEntity
  8
1
100
AcDbText
 10
-26.8903308937576
 20
43.28420731542826
 30
0.0
 40
1.5
  1
características
  7
futura
 72
     1
 11
-20.99874088061699
 21
43.28420731542826
 31
0.0
100
AcDbText
  0
MTEXT
  5
8EE
102
{ACAD_XDICTIONARY
360
BE4
102
}
330
8B0
100
AcDbEntity
  8
5
100
AcDbMText
 10
-40.08966409678578
 20
57.7188695259631
 30
0.0
 40
1.7
 41
32.66072987405465
 71
     1
 72
     5
  1
 Ind\U+00FAstria de Sanit\U+00E1rios, S.A.
  7
arial
 73
     1
 44
1.0
1001
ACAD
1000
MTEXTBEGIN
1070
    73
1070
     1
1070
    44
1040
1.0
1070
    74
1070
     0
1000
MTEXTEND
  0
TEXT
  5
8EF
330
8B0
100
AcDbEntity
  8
1
100
AcDbText
 10
-35.11727283343903
 20
38.30276906605366
 30
0.0
 40
2.0
  1
XXX
  7
futura
 72
     1
 11
-33.16392197929975
 21
38.30276906605366
 31
0.0
100
AcDbText
  0
TEXT
  5
8F0
330
8B0
100
AcDbEntity
  8
1
100
AcDbText
 10
-35.10248965341276
 20
43.28420731542826
 30
0.0
 40
1.5
  1
série
  7
futura
 72
     1
 11
-33.16392197929975
 21
43.28420731542826
 31
0.0
100
AcDbText
  0
LINE
  5
8F1
330
8B0
100
AcDbEntity
  8
leg fin
100
AcDbLine
 10
-37.0
 20
37.5
 30
0.0
 11
-37.0
 21
44.79013347462376
 31
0.0
  0
LINE
  5
8F2
330
8B0
100
AcDbEntity
  8
leg fin
100
AcDbLine
 10
-29.0
 20
37.5
 30
0.0
 11
-29.0
 21
44.79013347462376
 31
0.0
  0
TEXT
  5
8F3
330
8B0
100
AcDbEntity
  8
1
100
AcDbText
 10
-24.7891482393555
 20
41.92821300454636
 30
0.0
 40
1.5
  1
especiais
  7
futura
 72
     1
 11
-20.99874088061699
 21
41.92821300454636
 31
0.0
100
AcDbText
  0
TEXT
  5
8F4
330
8B0
100
AcDbEntity
  8
1
100
AcDbText
 10
-25.55655954027534
 20
38.30276906605366
 30
0.0
 40
2.0
  1
XXXXXXX
  7
futura
 72
     1
 11
-20.99874088061699
 21
38.30276906605366
 31
0.0
100
AcDbText
  0
LINE
  5
8F5
330
8B0
100
AcDbEntity
  8
leg fin
100
AcDbLine
 10
-13.0
 20
37.5
 30
0.0
 11
-13.0
 21
44.79013347462376
 31
0.0
  0
ENDBLK
  5
8F7
330
8B0
100
AcDbEntity
  8
0
100
AcDbBlockEnd
  0
BLOCK
  5
90F
330
8FB
100
AcDbEntity
  8
0
100
AcDbBlockBegin
  2
a2 l rolo
 70
     0
 10
0.0
 20
0.0
 30
0.0
  3
a2 l rolo
  1

  0
LINE
  5
8FC
330
8FB
100
AcDbEntity
  8
1
100
AcDbLine
 10
0.0
 20
0.0
 30
0.0
 11
594.0
 21
0.0
 31
0.0
  0
LINE
  5
8FD
330
8FB
100
AcDbEntity
  8
1
100
AcDbLine
 10
594.0
 20
0.0
 30
0.0
 11
594.0
 21
420.0
 31
0.0
  0
LINE
  5
8FE
330
8FB
100
AcDbEntity
  8
4
100
AcDbLine
 10
25.0
 20
5.000000000000002
 30
0.0
 11
589.0
 21
4.999999999999999
 31
0.0
  0
LINE
  5
8FF
330
8FB
100
AcDbEntity
  8
4
100
AcDbLine
 10
589.0
 20
4.999999999999999
 30
0.0
 11
589.0
 21
415.0
 31
0.0
  0
LINE
  5
900
330
8FB
100
AcDbEntity
  8
1
100
AcDbLine
 10
0.0
 20
0.0
 30
0.0
 11
0.0
 21
420.0
 31
0.0
  0
LINE
  5
901
330
8FB
100
AcDbEntity
  8
1
100
AcDbLine
 10
0.0
 20
420.0
 30
0.0
 11
594.0
 21
420.0
 31
0.0
  0
LINE
  5
902
330
8FB
100
AcDbEntity
  8
4
100
AcDbLine
 10
25.0
 20
5.000000000000002
 30
0.0
 11
25.0
 21
415.0
 31
0.0
  0
LINE
  5
903
330
8FB
100
AcDbEntity
  8
4
100
AcDbLine
 10
25.0
 20
415.0
 30
0.0
 11
589.0
 21
415.0
 31
0.0
  0
LINE
  5
904
330
8FB
100
AcDbEntity
  8
1
100
AcDbLine
 10
409.0
 20
415.0
 30
0.0
 11
409.0
 21
419.9999999999999
 31
0.0
  0
LINE
  5
905
330
8FB
100
AcDbEntity
  8
1
100
AcDbLine
 10
281.0
 20
420.0
 30
0.0
 11
281.0
 21
415.0
 31
0.0
  0
LINE
  5
906
330
8FB
100
AcDbEntity
  8
1
100
AcDbLine
 10
217.0
 20
420.0
 30
0.0
 11
217.0
 21
415.0
 31
0.0
  0
LINE
  5
907
330
8FB
100
AcDbEntity
  8
1
100
AcDbLine
 10
153.0
 20
420.0
 30
0.0
 11
153.0
 21
415.0
 31
0.0
  0
LINE
  5
908
330
8FB
100
AcDbEntity
  8
1
100
AcDbLine
 10
153.0
 20
5.000000000000001
 30
0.0
 11
153.0
 21
0.0
 31
0.0
  0
LINE
  5
909
330
8FB
100
AcDbEntity
  8
1
100
AcDbLine
 10
217.0
 20
5.000000000000001
 30
0.0
 11
217.0
 21
0.0
 31
0.0
  0
LINE
  5
90A
330
8FB
100
AcDbEntity
  8
1
100
AcDbLine
 10
281.0
 20
5.0
 30
0.0
 11
281.0
 21
0.0
 31
0.0
  0
LINE
  5
90B
330
8FB
100
AcDbEntity
  8
1
100
AcDbLine
 10
0.0
 20
297.0
 30
0.0
 11
25.0
 21
297.0
 31
0.0
  0
LINE
  5
90C
330
8FB
100
AcDbEntity
  8
1
100
AcDbLine
 10
589.0
 20
297.0
 30
0.0
 11
594.0
 21
297.0
 31
0.0
  0
LINE
  5
90D
330
8FB
100
AcDbEntity
  8
1
100
AcDbLine
 10
0.0
 20
148.5
 30
0.0
 11
15.0
 21
148.5
 31
0.0
  0
INSERT
  5
90E
330
8FB
100
AcDbEntity
  8
1
100
AcDbBlockReference
  2
legenda sanindusa
 10
594.0
 20
0.0
 30
0.0
  0
ENDBLK
  5
910
330
8FB
100
AcDbEntity
  8
0
100
AcDbBlockEnd
  0
BLOCK
  5
91B
330
919
100
AcDbEntity
  8
0
100
AcDbBlockBegin
  2
_DotSmall
 70
     0
 10
0.0
 20
0.0
 30
0.0
  3
_DotSmall
  1

  0
LWPOLYLINE
  5
91A
330
919
100
AcDbEntity
  8
0
  6
ByBlock
 62
     0
100
AcDbPolyline
 90
        2
 70
     1
 43
0.5
 10
-0.0625
 20
0.0
 42
1.0
 10
0.0625
 20
0.0
 42
1.0
  0
ENDBLK
  5
91C
330
919
100
AcDbEntity
  8
0
100
AcDbBlockEnd
  0
BLOCK
  5
92A
330
922
100
AcDbEntity
  8
0
100
AcDbBlockBegin
  2
base para cotas
 70
     0
 10
0.0
 20
0.0
 30
0.0
  3
base para cotas
  1

  0
LINE
  5
923
330
922
100
AcDbEntity
  8
cotas
100
AcDbLine
 10
0.0
 20
-15.0
 30
0.0
 11
327.1260136525398
 21
-15.0
 31
0.0
  0
LINE
  5
924
330
922
100
AcDbEntity
  8
cotas
100
AcDbLine
 10
0.0
 20
-20.0
 30
0.0
 11
327.1260136525398
 21
-20.0
 31
0.0
  0
LINE
  5
925
330
922
100
AcDbEntity
  8
cotas
100
AcDbLine
 10
0.0
 20
-25.0
 30
0.0
 11
327.1260136525398
 21
-25.0
 31
0.0
  0
LINE
  5
926
330
922
100
AcDbEntity
  8
cotas
100
AcDbLine
 10
0.0
 20
-30.0
 30
0.0
 11
327.1260136525398
 21
-30.0
 31
0.0
  0
LINE
  5
927
330
922
100
AcDbEntity
  8
cotas
100
AcDbLine
 10
0.0
 20
-35.0
 30
0.0
 11
327.1260136525398
 21
-35.0
 31
0.0
  0
LINE
  5
928
330
922
100
AcDbEntity
  8
cotas
100
AcDbLine
 10
0.0
 20
0.0
 30
0.0
 11
0.0
 21
-35.0
 31
0.0
  0
LINE
  5
929
330
922
100
AcDbEntity
  8
cotas
100
AcDbLine
 10
327.1260136525398
 20
-35.0
 30
0.0
 11
327.1260136525398
 21
0.0
 31
0.0
  0
ENDBLK
  5
92B
330
922
100
AcDbEntity
  8
0
100
AcDbBlockEnd
  0
BLOCK
  5
A9A
330
A90
100
AcDbEntity
  8
0
100
AcDbBlockBegin
  2
corte vertical
 70
     0
 10
0.0
 20
0.0
 30
0.0
  3
corte vertical
  1

  0
LINE
  5
A91
330
A90
100
AcDbEntity
  8
1
100
AcDbLine
 10
0.0
 20
284.999999404
 30
0.0
 11
-41.62288541168004
 21
273.2368179762898
 31
0.0
  0
LINE
  5
A92
330
A90
100
AcDbEntity
  8
1
100
AcDbLine
 10
0.0
 20
284.999999404
 30
0.0
 11
-101.4084345532296
 21
284.999999404
 31
0.0
  0
LINE
  5
A93
330
A90
100
AcDbEntity
  8
1
100
AcDbLine
 10
-41.62288541168004
 20
273.2368179762898
 30
0.0
 11
-41.62288541168004
 21
284.999999404
 31
0.0
  0
MTEXT
  5
A94
330
A90
100
AcDbEntity
  8
1
100
AcDbMText
 10
-101.9051445599409
 20
308.6369936699544
 30
0.0
 40
20.0
 41
42.3864361813126
 71
     1
 72
     5
  1
A
  7
arial
 73
     1
 44
1.0
1001
ACAD
1000
MTEXTBEGIN
1070
    73
1070
     1
1070
    44
1040
1.0
1070
    74
1070
     0
1000
MTEXTEND
  0
LINE
  5
A95
330
A90
100
AcDbEntity
  8
1
100
AcDbLine
 10
0.0
 20
-334.999999404
 30
0.0
 11
0.0
 21
334.9999994040002
 31
0.0
  0
LINE
  5
A96
330
A90
100
AcDbEntity
  8
1
100
AcDbLine
 10
0.0
 20
-284.999999404
 30
0.0
 11
-101.4084345532296
 21
-284.999999404
 31
0.0
  0
LINE
  5
A97
330
A90
100
AcDbEntity
  8
1
100
AcDbLine
 10
0.0
 20
-284.999999404
 30
0.0
 11
-41.62288541168004
 21
-296.7631808317102
 31
0.0
  0
MTEXT
  5
A98
330
A90
100
AcDbEntity
  8
1
100
AcDbMText
 10
-101.9051445599409
 20
-296.0242847239235
 30
0.0
 40
20.0
 41
42.3864361813126
 71
     1
 72
     5
  1
A
  7
arial
 73
     1
 44
1.0
1001
ACAD
1000
MTEXTBEGIN
1070
    73
1070
     1
1070
    44
1040
1.0
1070
    74
1070
     0
1000
MTEXTEND
  0
LINE
  5
A99
330
A90
100
AcDbEntity
  8
1
100
AcDbLine
 10
-41.62288541168004
 20
-296.7631808317102
 30
0.0
 11
-41.62288541168004
 21
-284.999999404
 31
0.0
  0
ENDBLK
  5
A9B
330
A90
100
AcDbEntity
  8
0
100
AcDbBlockEnd
  0
BLOCK
  5
AAD
330
AA8
100
AcDbEntity
  8
0
100
AcDbBlockBegin
  2
_CLOSED
 70
     0
 10
0.0
 20
0.0
 30
0.0
  3
_CLOSED
  1

  0
LINE
  5
AA9
330
AA8
100
AcDbEntity
  8
0
100
AcDbLine
 10
-1.0
 20
0.166667
 30
0.0
 11
0.0
 21
0.0
 31
0.0
  0
LINE
  5
AAA
330
AA8
100
AcDbEntity
  8
0
100
AcDbLine
 10
0.0
 20
0.0
 30
0.0
 11
-1.0
 21
-0.166667
 31
0.0
  0
LINE
  5
AAB
330
AA8
100
AcDbEntity
  8
0
100
AcDbLine
 10
-1.0
 20
0.166667
 30
0.0
 11
-1.0
 21
-0.166667
 31
0.0
  0
LINE
  5
AAC
330
AA8
100
AcDbEntity
  8
0
100
AcDbLine
 10
0.0
 20
0.0
 30
0.0
 11
-1.0
 21
0.0
 31
0.0
  0
ENDBLK
  5
AAE
330
AA8
100
AcDbEntity
  8
0
100
AcDbBlockEnd
  0
BLOCK
  5
AB4
330
AB0
100
AcDbEntity
  8
0
100
AcDbBlockBegin
  2
pormenor
 70
     0
 10
0.0
 20
0.0
 30
0.0
  3
pormenor
  1

  0
MTEXT
  5
AB1
330
AB0
100
AcDbEntity
  8
1
100
AcDbMText
 10
-54.1094706180861
 20
-115.1790614039603
 30
0.0
 40
20.0
 41
147.553
 71
     1
 72
     5
  1
pormenor 1
  7
arial
 73
     1
 44
1.0
1001
ACAD
1000
MTEXTBEGIN
1070
    73
1070
     1
1070
    44
1040
1.0
1070
    74
1070
     0
1000
MTEXTEND
  0
MTEXT
  5
AB2
330
AB0
100
AcDbEntity
  8
1
100
AcDbMText
 10
5.000961237043611
 20
95.22868741843536
 30
0.0
 40
20.0
 41
147.553
 71
     1
 72
     5
  1
esc. 1/2
  7
arial
 73
     1
 44
1.0
1001
ACAD
1000
MTEXTBEGIN
1070
    73
1070
     1
1070
    44
1040
1.0
1070
    74
1070
     0
1000
MTEXTEND
  0
MTEXT
  5
AB3
330
AB0
100
AcDbEntity
  8
1
100
AcDbMText
 10
5.326665780298299
 20
124.2063593518467
 30
0.0
 40
20.0
 41
147.553
 71
     1
 72
     5
  1
pormenor 1
  7
arial
 73
     1
 44
1.0
1001
ACAD
1000
MTEXTBEGIN
1070
    73
1070
     1
1070
    44
1040
1.0
1070
    74
1070
     0
1000
MTEXTEND
  0
ENDBLK
  5
AB5
330
AB0
100
AcDbEntity
  8
0
100
AcDbBlockEnd
  0
BLOCK
  5
B3B
330
B3A
100
AcDbEntity
  8
ASHADE
100
AcDbBlockBegin
  2
AVE_RENDER
 70
     0
 10
0.0
 20
0.0
 30
0.0
  3
AVE_RENDER
  1
AVE_RENDER
  0
ENDBLK
  5
B3C
330
B3A
100
AcDbEntity
  8
0
100
AcDbBlockEnd
  0
BLOCK
  5
B49
330
B48
100
AcDbEntity
  8
ASHADE
100
AcDbBlockBegin
  2
AVE_GLOBAL
 70
     0
 10
0.0
 20
0.0
 30
0.0
  3
AVE_GLOBAL
  1
AVE_GLOBAL
  0
ENDBLK
  5
B4A
330
B48
100
AcDbEntity
  8
0
100
AcDbBlockEnd
  0
ENDSEC
  0
SECTION
  2
ENTITIES
  0
3DSOLID
  5
B31
330
1F
100
AcDbEntity
  8
0
100
AcDbModelerGeometry
 70
     1
  1
koo iom n o         
  1
ni ^ *+0;:,4 ^ *+0\^ [ nf ^ LR mngqoqoqjnni QK o  
  1
n fqfffffffffffffffj:rooh n:rono 
  1
=0;& {n {m {rn {rn |
  1
-:9@)+r:&:r>++-6= {rn {l {rn {o {k {j |
  1
3*2/ {i {rn {h {o |
  1
1>2:@>++-6=r8:1r>++-6= {rn {rn {n {o 4::/ 4::/@4:/+ 6810-: mo knmoinnroomrOorooroo |
  1
:&:@-:961:2:1+ {rn j 8-6;  n l +-6 n k ,*-9 o l >;5 o k 8->; o f /0,+<7:<4 o k ,+03 oqmmnfgnokgjglfgklg k 1+03 lo k ;,63 o g 93>+1:,, o h /6'>-:> o k 72>' o i 8-6;>- o j 28-6; looo j *8-6; o j )8-6; o no :1;@96:3;, |
  1
):-+:'@+:2/3>+: {rn l o n g |
  1
-:9@)+r:&:r>++-6= {rn {g {rn {m {k {j |
  1
,7:33 {f {rn {rn {no {rn {m |
  1
-8=@<030-r,+r>++-6= {rn {rn {i {m oqhjmfknnhikhojggmm oqhjmfknnhikhojggmm oqhjmfknnhikhojggmm |
  1
-:9@)+r:&:r>++-6= {rn {rn {rn {h {k {j |
  1
9><: {nn {nm {nl {h {rn {nk 90-(>-; ,6183: |
  1
92:,7r:&:r>++-6= {rn {nj {rn {no |
  1
9><: {ni {nh {ng {h {rn {nf 90-(>-; ,6183: |
  1
300/ {rn {rn {mo {no |
  1
+0-*,r,*-9><: {rn nggqnolhmlmklgmhjh rngqljhmhiljmoinnh gqfooooooooooooomn o o n oqfooooooooooooooom oqnooooooooooooooon n o o 90-(>-;@) V V V V |
  1
-:9@)+r:&:r>++-6= {rn {rn {nn {no {k {j |
  1
92:,7r:&:r>++-6= {rn {mn {rn {nm |
  1
9><: {mm {ml {mk {h {rn {mj 90-(>-; ,6183: |
  1
300/ {rn {mi {mh {nm |
  1
/3>1:r,*-9><: {rn nghqnolhmlmklgmhjh rnfqljhmhiljmoinnh fqoooooooooooooong o o n nooo o o 90-(>-;@) V V V V |
  1
<0:;8: {rn {mg {mf {lo {ln 90-(>-; {nl {rn |
  1
-:9@)+r:&:r>++-6= {rn {rn {ni {nm {k {j |
  1
92:,7r:&:r>++-6= {rn {lm {rn {nh |
  1
9><: {ll {lk {lj {h {rn {li 90-(>-; ,6183: |
  1
300/ {rn {rn {lh {nh |
  1
<01:r,*-9><: {rn nggqnolhmlmklgmhjh rngqljhmhiljmoinnh fqoooooooooooooong o o rn rn o o n V V o n n 90-(>-; V V V V |
  1
300/ {rn {rn {lg {nm |
  1
<0:;8: {rn {lf {lf {ko {kn -:):-,:; {ng {rn |
  1
<0:;8: {rn {km {mo {kl {kk -:):-,:; {nl {rn |
  1
<0:;8: {rn {mo {km {kj {ki -:):-,:; {nl {rn |
  1
<0:;8: {rn {kh {kg {mo {ln -:):-,:; {kf {rn |
  1
:;8: {jo {jn {jm {mo {jl 90-(>-; |
  1
-:9@)+r:&:r>++-6= {rn {rn {mm {nh {k {j |
  1
92:,7r:&:r>++-6= {rn {jk {rn {ml |
  1
9><: {jj {ji {kf {h {rn {jh 90-(>-; ,6183: |
  1
300/ {rn {rn {jg {ml |
  1
<01:r,*-9><: {rn nghqmolhmlmklgmhi rnfqljhmhiljmoinnh gqfooooooooooooomn rnqkkjiomgfiikhllfm:roni n o roqnoooooooooooooomi o o n V V o n oqnoooooooooooooomi 90-(>-; V V V V |
  1
<0:;8: {rn {kj {jf {io {in -:):-,:; {mk {rn |
  1
<0:;8: {rn {im {il {ik {ij 90-(>-; {mi {rn |
  1
<0:;8: {rn {mh {mh {ii {ih -:):-,:; {ng {rn |
  1
<0:;8: {rn {ig {if {mh {kn 90-(>-; {ho {rn |
  1
:;8: {hn {hm {hl {ko {hk 90-(>-; |
  1
<0:;8: {rn {mf {mg {jg {hj -:):-,:; {nl {rn |
  1
<0:;8: {rn {hi {hh {mg {kk 90-(>-; {mi {rn |
  1
:;8: {hg {hf {jm {kl {go 90-(>-; |
  1
<0:;8: {rn {gn {lh {mf {ki 90-(>-; {mk {rn |
  1
:;8: {gm {jn {gl {kj {gk 90-(>-; |
  1
<0:;8: {rn {gj {lo {gi {gh -:):-,:; {kf {rn |
  1
<0:;8: {rn {lo {gj {hi {gg -:):-,:; {kf {rn |
  1
300/ {rn {rn {gj {lk |
  1
/+36,+r:&:r>++-6= {rn {rn {rn {ln |
  1
):-+:' {rn {ki {gf |
  1
):-+:' {rn {gg {fo |
  1
:336/,:r<*-): {rn nggqnolhmlmklgmhjh rnfqmjhmhiljmoinnif gqfooooooooooooomn rn o o o o oqofffffffffffffflfj n V V |
  1
-:9@)+r:&:r>++-6= {rn {rn {ll {ml {k {j |
  1
92:,7r:&:r>++-6= {rn {fn {rn {lk |
  1
9><: {fm {fl {fk {h {rn {fj 90-(>-; ,6183: |
  1
<01:r,*-9><: {rn nghqnolhmlmklgmhjh rnfqmjhmhiljmoinnif gqfooooooooooooomn rn o o o o oqofffffffffffffflfj n V V o n oqofffffffffffffflfj 90-(>-; V V V V |
  1
<0:;8: {rn {fi {fh {km {hj 90-(>-; {lj {rn |
  1
<0:;8: {rn {lh {gn {fg {ff -:):-,:; {mk {rn |
  1
<0:;8: {rn {noo {gi {lh {in 90-(>-; {non {rn |
  1
:;8: {nom {jn {nol {io {nok 90-(>-; |
  1
<0:;8: {rn {hh {lg {noj {noi 90-(>-; {mi {rn |
  1
<0:;8: {rn {lg {noh {nog {nof 90-(>-; {mi {rn |
  1
<0:;8: {rn {nno {nnn {lg {ij -:):-,:; {nnm {rn |
  1
:;8: {nnl {nnk {nnj {lg {nni 90-(>-; |
  1
<0:;8: {rn {nnh {nng {lf {ih 90-(>-; {nnf {rn |
  1
:;8: {nmo {hl {hm {ii {nmn 90-(>-; |
  1
<0:;8: {rn {nmm {ko {nng {nml -:):-,:; {ho {rn |
  1
<0:;8: {rn {ko {nmm {nnh {nmk 90-(>-; {ho {rn |
  1
300/ {rn {rn {ig {nmj |
  1
/+36,+r:&:r>++-6= {rn {rn {rn {kn |
  1
):-+:' {rn {kn {nmi |
  1
):-+:' {rn {kn {nmh |
  1
:336/,:r<*-): {rn nflqnolhmlmklgmhil rnlqljhmhiljmoinnh fqoooooooooooooong o o n k o o n V V |
  1
:;8: {nmg {gl {hf {jg {nmf 90-(>-; |
  1
<0:;8: {rn {nlo {kl {kg {gg 90-(>-; {mi {rn |
  1
<0:;8: {rn {kl {im {fi {nln 90-(>-; {mi {rn |
  1
/+36,+r:&:r>++-6= {rn {rn {rn {kk |
  1
):-+:' {rn {nln {nlm |
  1
:336/,:r<*-): {rn nggqnolhmlmklgmhjh rngqljhmhiljmoinnh fqoooooooooooooong o o n oqgffffffffffffffg o o n V V |
  1
<0:;8: {rn {jf {kj {nll {nlk -:):-,:; {mk {rn |
  1
/+36,+r:&:r>++-6= {rn {rn {rn {ki |
  1
):-+:' {rn {ki {nlj |
  1
:336/,:r<*-): {rn nggqnolhmlmklgmhjh rngqljhmhiljmoinnh gqfooooooooooooomn o o rn n o o n V V |
  1
<0:;8: {rn {kg {kh {nli {nlh 90-(>-; {kf {rn |
  1
<0:;8: {rn {io {nlg {kh {gh 90-(>-; {non {rn |
  1
:;8: {nlf {nko {jn {gi {nkn 90-(>-; |
  1
:;8: {nkm {jm {nkl {hi {nkk 90-(>-; |
  1
/061+ {rn nggqnolhmlmklgmhjh rnfqljhmhiljmoinnh gqfooooooooooooomn |
  1
/061+ {rn nggqnolhmlmklgmhjh rnfqmjhmhiljmoinnif fqoooooooooooooong |
  1
-:9@)+r:&:r>++-6= {rn {rn {jj {lk {k {j |
  1
92:,7r:&:r>++-6= {rn {nkj {rn {ji |
  1
9><: {nki {nkh {nkg {h {rn {nkf 90-(>-; ,6183: |
  1
300/ {rn {rn {njo {ji |
  1
+0-*,r,*-9><: {rn nfgqnolhmlmklgmhil rgqljhmhiljmoinnhon gqfooooooooooooomn o o n oqfooooooooooooooom oqnooooooooooooooon n o o 90-(>-;@) V V V V |
  1
<0:;8: {rn {njn {jg {hh {nln -:):-,:; {lj {rn |
  1
<0:;8: {rn {jg {njn {njm {njl -:):-,:; {lj {rn |
  1
<0:;8: {rn {njk {njj {jf {ff 90-(>-; {nji {rn |
  1
:;8: {njh {nol {njg {fg {njf 90-(>-; |
  1
<0:;8: {rn {nlg {io {njj {nio 90-(>-; {non {rn |
  1
300/ {rn {rn {nlg {nin |
  1
/+36,+r:&:r>++-6= {rn {rn {rn {in |
  1
):-+:' {rn {in {nim |
  1
,+->687+r<*-): {rn nggqnolhmlmklgmhjh rnfqljhmhiljmoinnh fqoooooooooooooong o o rnooo V V |
  1
<0:;8: {rn {nil {nik {im {noi -:):-,:; {nij {rn |
  1
:;8: {nii {nnj {nih {im {nig 90-(>-; |
  1
<0:;8: {rn {il {nlo {nif {nho 90-(>-; {mi {rn |
  1
<0:;8: {rn {njo {nhn {il {nof -:):-,:; {fk {rn |
  1
:;8: {nhm {nhl {nnk {il {nhk 90-(>-; |
  1
<0:;8: {rn {nhj {ik {nhn {nhi 90-(>-; {nnm {rn |
  1
<0:;8: {rn {ik {nhj {nil {nhh -:):-,:; {nnm {rn |
  1
300/ {rn {rn {nno {nhg |
  1
/+36,+r:&:r>++-6= {rn {rn {rn {ij |
  1
):-+:' {rn {nhi {nhf |
  1
):-+:' {rn {nhh {ngo |
  1
,+->687+r<*-): {rn nggqnolhmlmklgmhjh rhqkjhmhiljmoinnifg fqoooooooooooooong rnooo o o V V |
  1
<0:;8: {rn {ngn {ii {if {nmk -:):-,:; {nnf {rn |
  1
<0:;8: {rn {ii {ngn {ig {nml 90-(>-; {nnf {rn |
  1
300/ {rn {rn {ngn {ngm |
  1
/+36,+r:&:r>++-6= {rn {rn {rn {ih |
  1
:336/,:r<*-): {rn nflqnolhmlmklgmhil rnlqljhmhiljmoinnh fqoooooooooooooong o o n k o o n V V |
  1
<0:;8: {rn {if {ig {ngl {ngk -:):-,:; {ho {rn |
  1
:;8: {ngj {ngi {hl {nng {ngh 90-(>-; |
  1
:;8: {ngg {ngf {hm {if {nfo 90-(>-; |
  1
9><: {nfn {ngm {ho {h {rn {nfm -:):-,:; ,6183: |
  1
/061+ {rn nfhqnolhmlmklgmhil rnlqljhmhiljmoinnh fqoooooooooooooong |
  1
/061+ {rn ngfqnolhmlmklgmhjh rnlqljhmhiljmoinnh fqoooooooooooooong |
  1
/+36,+r:&:r>++-6= {rn {rn {rn {hj |
  1
:336/,:r<*-): {rn nghqmolhmlmklgmhi rngqljhmhiljmoinnh gqfooooooooooooomn o n o o o oqofffffffffffffflfj n V V |
  1
<0:;8: {rn {noh {hi {nfl {nfk 90-(>-; {mi {rn |
  1
:;8: {nfj {nih {hf {hh {nfi 90-(>-; |
  1
/061+ {rn nghqmolhmlmklgmhi rngqljhmhiljmoinnh fqoooooooooooooong |
  1
<0:;8: {rn {njm {nfh {gn {nlk 90-(>-; {nfg {rn |
  1
:;8: {nff {njg {gl {nll {moo 90-(>-; |
  1
/061+ {rn nghqnolhmlmklgmhjh rngqljhmhiljmoinnh gqfooooooooooooomn |
  1
<0:;8: {rn {mon {nfl {gj {nlh -:):-,:; {mom {rn |
  1
:;8: {mol {nko {nkl {gj {mok 90-(>-; |
  1
<0:;8: {rn {gi {noo {moj {moi 90-(>-; {non {rn |
  1
/+36,+r:&:r>++-6= {rn {rn {rn {gh |
  1
):-+:' {rn {nlh {moh |
  1
,+->687+r<*-): {rn nggqnolhmlmklgmhjh rnfqljhmhiljmoinnh gqfooooooooooooomn rnooo o o V V |
  1
/+36,+r:&:r>++-6= {rn {rn {rn {gg |
  1
):-+:' {rn {nlh {mog |
  1
,+->687+r<*-): {rn nfgqnolhmlmklgmhil rnfqmjhmhiljmoinnif fqoooooooooooooong nooo o o V V |
  1
-:9@)+r:&:r>++-6= {rn {rn {fm {ji {k {j |
  1
92:,7r:&:r>++-6= {rn {mof {rn {fl |
  1
9><: {mno {nhg {nij {h {rn {mnn 90-(>-; ,6183: |
  1
300/ {rn {rn {mnm {fl |
  1
<01:r,*-9><: {rn nffqoolhmlmklgmhin rnfqljhmhiljmoinnh gqfooooooooooooomn hqmmgonkkglmliifjg:ronh rn o oqnoooooooooooooomi o o n V V o n oqnoooooooooooooomi 90-(>-; V V V V |
  1
<0:;8: {rn {mnl {nog {mnk {mnj 90-(>-; {fk {rn |
  1
<0:;8: {rn {fh {fi {nik {mni -:):-,:; {lj {rn |
  1
<0:;8: {rn {mnh {nll {fh {njl 90-(>-; {nfg {rn |
  1
:;8: {mng {gl {mnf {njm {mmo 90-(>-; |
  1
<0:;8: {rn {mmn {fg {nfh {mmm -:):-,:; {nji {rn |
  1
<0:;8: {rn {fg {mml {noo {nio -:):-,:; {nji {rn |
  1
300/ {rn {rn {njj {mmk |
  1
/+36,+r:&:r>++-6= {rn {rn {rn {ff |
  1
):-+:' {rn {nlk {mmj |
  1
:336/,:r<*-): {rn nggqnolhmlmklgmhjh rngqljhmhiljmoinnh g o o rn n o o n V V |
  1
:;8: {mmi {nol {mmh {noo {mmg 90-(>-; |
  1
9><: {mmf {mmk {non {h {rn {mlo -:):-,:; ,6183: |
  1
/061+ {rn nggqnolhmlmklgmhjh rnfqljhmhiljmoinnh g |
  1
<0:;8: {rn {mln {noj {nnn {nhh 90-(>-; {nij {rn |
  1
<0:;8: {rn {noj {mln {njn {mni 90-(>-; {nij {rn |
  1
300/ {rn {rn {nil {nkh |
  1
/+36,+r:&:r>++-6= {rn {rn {rn {noi |
  1
):-+:' {rn {mni {mlm |
  1
:336/,:r<*-): {rn nggqnolhmlmklgmhjh rgqljhmhiljmoinnhon fqoooooooooooooong o o n oqgffffffffffffffg o o n V V |
  1
<0:;8: {rn {mnm {mnk {noh {nho -:):-,:; {nkg {rn |
  1
:;8: {mll {mlk {nhl {noh {mlj 90-(>-; |
  1
<0:;8: {rn {nog {mnl {nno {nhi -:):-,:; {fk {rn |
  1
/+36,+r:&:r>++-6= {rn {rn {rn {nof |
  1
):-+:' {rn {nho {mli |
  1
:336/,:r<*-): {rn nfgqnolhmlmklgmhil rgqljhmhiljmoinnhon fqoooooooooooooong o o n oqgffffffffffffffg o o n V V |
  1
<0:;8: {rn {nnn {nno {mlh {mlg -:):-,:; {nnm {rn |
  1
:;8: {mlf {nnk {mko {nno {mkn 90-(>-; |
  1
:;8: {mkm {nnj {mkl {nil {mkk 90-(>-; |
  1
9><: {mkj {mki {nnm {h {rn {mkh 90-(>-; ,6183: |
  1
/061+ {rn nfgqnolhmlmklgmhil rhqkjhmhiljmoinnhoh fqoooooooooooooong |
  1
/061+ {rn nggqnolhmlmklgmhjh rhqkjhmhiljmoinnifg fqoooooooooooooong |
  1
<0:;8: {rn {nng {nnh {mkg {mkf -:):-,:; {nnf {rn |
  1
9><: {mjo {mjn {nnf {h {rn {mjm -:):-,:; ,6183: |
  1
<0:;8: {rn {mkg {mkg {nmm {ngk 90-(>-; {mjl {rn |
  1
:;8: {mjk {ngf {ngi {ngl {mjj 90-(>-; |
  1
/+36,+r:&:r>++-6= {rn {rn {rn {nml |
  1
):-+:' {rn {ngk {mji |
  1
,+->687+r<*-): {rn ngfqnolhmlmklgmhjh rnlqljhmhiljmoinnh o o o nooo V V |
  1
/+36,+r:&:r>++-6= {rn {rn {rn {nmk |
  1
):-+:' {rn {ngk {mjh |
  1
,+->687+r<*-): {rn nfhqnolhmlmklgmhil rnlqljhmhiljmoinnh o o o nooo V V |
  1
92:,7r:&:r>++-6= {rn {mjg {rn {nmj |
  1
<01:r,*-9><: {rn nflqnolhmlmklgmhil rnlqljhmhiljmoinnh o o o n k o o n V V o n k 90-(>-; V V V V |
  1
<0:;8: {rn {nli {mjf {nlo {nfk -:):-,:; {mom {rn |
  1
:;8: {mio {nkl {mlk {nlo {min 90-(>-; |
  1
/+36,+r:&:r>++-6= {rn {rn {rn {nln |
  1
,+->687+r<*-): {rn nghqmolhmlmklgmhi rngqljhmhiljmoinnh fqoooooooooooooong nqkkjiomgfiikhllfm:ronl rnooo o V V |
  1
<0:;8: {rn {nll {mnh {njk {mmm 90-(>-; {nfg {rn |
  1
300/ {rn {rn {nll {mjn |
  1
/+36,+r:&:r>++-6= {rn {rn {rn {nlk |
  1
,+->687+r<*-): {rn nghqnolhmlmklgmhjh rngqljhmhiljmoinnh fqoooooooooooooong o o nooo V V |
  1
<0:;8: {rn {mjf {nli {mim {mil -:):-,:; {mom {rn |
  1
300/ {rn {rn {nli {mki |
  1
/+36,+r:&:r>++-6= {rn {rn {rn {nlh |
  1
:336/,:r<*-): {rn nfgqnolhmlmklgmhil rnfqmjhmhiljmoinnif gqfooooooooooooomn rn o o o o oqofffffffffffffflfj n V V |
  1
<0:;8: {rn {mik {mim {nlg {moi -:):-,:; {mij {rn |
  1
:;8: {mii {mmh {nko {nlg {mih 90-(>-; |
  1
/061+ {rn nfgqnolhmlmklgmhil rnfqljhmhiljmoinnh gqfooooooooooooomn |
  1
/061+ {rn nfgqnolhmlmklgmhil rnfqmjhmhiljmoinnif fqoooooooooooooong |
  1
-:9@)+r:&:r>++-6= {rn {rn {nki {fl {k {j |
  1
92:,7r:&:r>++-6= {rn {mig {rn {nkh |
  1
+0-*,r,*-9><: {rn nggqnolhmlmklgmhjh rgqljhmhiljmoinnhon gqfooooooooooooomn o o n oqfooooooooooooooom oqnooooooooooooooon n o o 90-(>-;@) V V V V |
  1
<0:;8: {rn {mif {nif {mjf {mho 90-(>-; {nkg {rn |
  1
<0:;8: {rn {nhn {njo {mhn {mhm -:):-,:; {fk {rn |
  1
<0:;8: {rn {nif {mif {njo {mnj -:):-,:; {nkg {rn |
  1
:;8: {mhl {nhl {mhk {njo {mhj 90-(>-; |
  1
:;8: {mhi {mnf {nih {nik {mhh 90-(>-; |
  1
<0:;8: {rn {nfh {njm {mhg {mhf 90-(>-; {nfg {rn |
  1
/+36,+r:&:r>++-6= {rn {rn {rn {njl |
  1
):-+:' {rn {mni {mgo |
  1
,+->687+r<*-): {rn nghqnolhmlmklgmhjh rgqljhmhiljmoinnhon gqfooooooooooooomn rnqkkjiomgfiikhllfm:ronl nooo o V V |
  1
<0:;8: {rn {mgn {njk {mgm {mgl 90-(>-; {nji {rn |
  1
:;8: {mgk {mgj {njg {nfh {mgi 90-(>-; |
  1
<0:;8: {rn {njj {mgh {mik {mgg 90-(>-; {nji {rn |
  1
9><: {mgf {mfo {mfn {h {rn {mfm 90-(>-; ,6183: |
  1
/061+ {rn nghqnolhmlmklgmhjh rngqljhmhiljmoinnh g |
  1
/+36,+r:&:r>++-6= {rn {rn {rn {nio |
  1
):-+:' {rn {moi {mfl |
  1
,+->687+r<*-): {rn nghqnolhmlmklgmhjh rnfqljhmhiljmoinnh g nooo o o V V |
  1
92:,7r:&:r>++-6= {rn {mfk {rn {nin |
  1
/3>1:r,*-9><: {rn nghqnolhmlmklgmhjh rnfqljhmhiljmoinnh fqoooooooooooooong o n o o o nooo 90-(>-;@) V V V V |
  1
<0:;8: {rn {nik {nil {mfj {mfi -:):-,:; {nij {rn |
  1
/061+ {rn nghqmolhmlmklgmhi rgqljhmhiljmoinnhon fqoooooooooooooong |
  1
/+36,+r:&:r>++-6= {rn {rn {rn {nho |
  1
):-+:' {rn {mho {mfh |
  1
,+->687+r<*-): {rn nffqoolhmlmklgmhin rgqljhmhiljmoinnhon fqoooooooooooooong rhqmmgonkkglmliifjg:ronk nooo o V V |
  1
/061+ {rn nffqoolhmlmklgmhin rgqljhmhiljmoinnhon fqoooooooooooooong |
  1
<0:;8: {rn {mfg {mff {nhj {mlg 90-(>-; {loo {rn |
  1
:;8: {lon {mkl {mko {mlh {lom 90-(>-; |
  1
/+36,+r:&:r>++-6= {rn {rn {rn {nhi |
  1
):-+:' {rn {nhi {lol |
  1
:336/,:r<*-): {rn nfgqnolhmlmklgmhil rhqkjhmhiljmoinnhoh gqfooooooooooooomn rn o o o o oqofffffffffffffflfj n V V |
  1
/+36,+r:&:r>++-6= {rn {rn {rn {nhh |
  1
):-+:' {rn {nhh {lok |
  1
:336/,:r<*-): {rn nggqnolhmlmklgmhjh rhqkjhmhiljmoinnifg gqfooooooooooooomn rn o o o o oqofffffffffffffflfj n V V |
  1
92:,7r:&:r>++-6= {rn {loj {rn {nhg |
  1
9><: {loi {nmj {mom {h {rn {loh 90-(>-; ,6183: |
  1
<01:r,*-9><: {rn nghqnolhmlmklgmhjh rhqkjhmhiljmoinnifg gqfooooooooooooomn n o o o o roqofffffffffffffflfj n V V o n oqofffffffffffffflfj 90-(>-; V V V V |
  1
<0:;8: {rn {ngl {ngl {ngn {mkf 90-(>-; {mjl {rn |
  1
:;8: {log {ngi {ngf {mkg {lof 90-(>-; |
  1
92:,7r:&:r>++-6= {rn {lno {rn {ngm |
  1
9><: {lnn {nin {nfg {h {rn {lnm -:):-,:; ,6183: |
  1
<01:r,*-9><: {rn nflqnolhmlmklgmhil rnlqljhmhiljmoinnh o o o n k o o n V V o n k 90-(>-; V V V V |
  1
300/ {rn {lnl {ngl {lnk |
  1
/+36,+r:&:r>++-6= {rn {rn {rn {ngk |
  1
:336/,:r<*-): {rn nflqnolhmlmklgmhil rnlqljhmhiljmoinnh jqj o o n k o o n V V |
  1
/061+ {rn ngfqnolhmlmklgmhjh rnlqljhmhiljmoinnh jqj |
  1
/061+ {rn nfhqnolhmlmklgmhil rnlqljhmhiljmoinnh jqj |
  1
-:9@)+r:&:r>++-6= {rn {rn {nfn {nmj {k {j |
  1
<0:;8: {rn {nfl {mon {mnm {mho -:):-,:; {mom {rn |
  1
/+36,+r:&:r>++-6= {rn {rn {rn {nfk |
  1
:336/,:r<*-): {rn nfgqnolhmlmklgmhil rngqljhmhiljmoinnh fqoooooooooooooong o o n oqgffffffffffffffg o o n V V |
  1
<0:;8: {rn {moj {lnj {mon {mil 90-(>-; {mij {rn |
  1
:;8: {lni {lnh {nko {mim {lng 90-(>-; |
  1
<0:;8: {rn {lnj {moj {mml {mgg -:):-,:; {mij {rn |
  1
300/ {rn {rn {lnj {lnf |
  1
/+36,+r:&:r>++-6= {rn {rn {rn {moi |
  1
,+->687+r<*-): {rn nfgqnolhmlmklgmhil rnfqljhmhiljmoinnh fqoooooooooooooong o o nooo V V |
  1
-:9@)+r:&:r>++-6= {rn {rn {mno {nkh {k {j |
  1
<0:;8: {rn {mnk {mnm {lmo {lmn -:):-,:; {nkg {rn |
  1
:;8: {lmm {mlk {lnh {mnm {lml 90-(>-; |
  1
<0:;8: {rn {lmk {lmj {mnl {mhm 90-(>-; {lmi {rn |
  1
:;8: {lmh {mko {mhk {mhn {lmg 90-(>-; |
  1
/+36,+r:&:r>++-6= {rn {rn {rn {mnj |
  1
):-+:' {rn {mnj {lmf |
  1
:336/,:r<*-): {rn nffqoolhmlmklgmhin rgqljhmhiljmoinnhon gqfooooooooooooomn o n o o o oqofffffffffffffflfj n V V |
  1
/+36,+r:&:r>++-6= {rn {rn {rn {mni |
  1
:336/,:r<*-): {rn nghqmolhmlmklgmhi rgqljhmhiljmoinnhon gqfooooooooooooomn o n o o o oqofffffffffffffflfj n V V |
  1
<0:;8: {rn {mfj {mgm {mnh {mhf -:):-,:; {llo {rn |
  1
:;8: {lln {mnf {mgj {mnh {llm 90-(>-; |
  1
/061+ {rn nghqnolhmlmklgmhjh rgqljhmhiljmoinnhon gqfooooooooooooomn |
  1
<0:;8: {rn {lll {mmn {llk {llj -:):-,:; {nji {rn |
  1
<0:;8: {rn {mhg {lli {mmn {mgl -:):-,:; {llo {rn |
  1
:;8: {llh {mgj {llg {mmn {llf 90-(>-; |
  1
/+36,+r:&:r>++-6= {rn {rn {rn {mmm |
  1
):-+:' {rn {mhf {lko |
  1
,+->687+r<*-): {rn nghqnolhmlmklgmhjh rhqljhmhiljmoinnhon g nqkkjiomgfiikhllfm:ronl rnooo o V V |
  1
<0:;8: {rn {mml {lll {lkn {lkm -:):-,:; {nji {rn |
  1
:;8: {lkl {lkk {mmh {mml {lkj 90-(>-; |
  1
92:,7r:&:r>++-6= {rn {lki {rn {mmk |
  1
9><: {lkh {lkg {lmi {h {rn {lkf 90-(>-; ,6183: |
  1
300/ {rn {nji {ljo {mmk |
  1
/3>1:r,*-9><: {rn nhjqiolhmlmklgmhjh kqnkmhmlikhflggmil g o o n nooo o o 90-(>-;@) V V V V |
  1
/061+ {rn nfgqnolhmlmklgmhil rnfqljhmhiljmoinnh g |
  1
-:9@)+r:&:r>++-6= {rn {rn {mmf {nin {k {j |
  1
<0:;8: {rn {lli {mhg {mln {mfi 90-(>-; {llo {rn |
  1
:;8: {ljn {mnf {mkl {mfj {ljm 90-(>-; |
  1
/061+ {rn nffqoolhmlmklgmhin rngqljhmhiljmoinnh fqoooooooooooooong |
  1
<0:;8: {rn {llk {mlh {lmj {ljl 90-(>-; {loo {rn |
  1
<0:;8: {rn {mlh {llk {lli {ljk 90-(>-; {loo {rn |
  1
300/ {rn {rn {mff {ljj |
  1
/+36,+r:&:r>++-6= {rn {rn {rn {mlg |
  1
,+->687+r<*-): {rn nfgqnolhmlmklgmhil rhqljhmhiljmoinnhon gqfooooooooooooomn nooo o o V V |
  1
/061+ {rn nfgqnolhmlmklgmhil rhqljhmhiljmoinnhon gqfooooooooooooomn |
  1
/061+ {rn nggqnolhmlmklgmhjh rhqljhmhiljmoinnhon gqfooooooooooooomn |
  1
-:9@)+r:&:r>++-6= {rn {rn {mkj {nhg {k {j |
  1
92:,7r:&:r>++-6= {rn {lji {rn {mki |
  1
+0-*,r,*-9><: {rn nfgqnolhmlmklgmhil rngqljhmhiljmoinnh gqfooooooooooooomn o o n oqfooooooooooooooom oqnooooooooooooooon n o o 90-(>-;@) V V V V |
  1
/+36,+r:&:r>++-6= {rn {rn {rn {mkf |
  1
:336/,:r<*-): {rn nflqnolhmlmklgmhil rnlqljhmhiljmoinnh jqj o o n k o o n V V |
  1
-:9@)+r:&:r>++-6= {rn {rn {mjo {ngm {k {j |
  1
92:,7r:&:r>++-6= {rn {ljh {rn {mjn |
  1
/3>1:r,*-9><: {rn nghqnolhmlmklgmhjh rhqljhmhiljmoinnhon fqoooooooooooooong n nqkkjiomgfiikhllfm:roni o rnqkkjiomgfiikhllfm:ronl nooo o 90-(>-;@) V V V V |
  1
300/ {rn {rn {ljg {lnk |
  1
9><: {ljf {lio {mjl {h {rn {lin -:):-,:; ,6183: |
  1
<0:;8: {rn {mim {mik {lim {lil -:):-,:; {mij {rn |
  1
/+36,+r:&:r>++-6= {rn {rn {rn {mil |
  1
):-+:' {rn {mho {lik |
  1
:336/,:r<*-): {rn nfgqnolhmlmklgmhil rngqljhmhiljmoinnh gqfooooooooooooomn o o rn n o o n V V |
  1
9><: {lij {lnk {mij {h {rn {lii 90-(>-; ,6183: |
  1
<0:;8: {rn {lim {lih {mif {lmn 90-(>-; {lig {rn |
  1
:;8: {lif {mhk {lnh {lmo {lho 90-(>-; |
  1
/+36,+r:&:r>++-6= {rn {rn {rn {mho |
  1
:336/,:r<*-): {rn nffqoolhmlmklgmhin rngqljhmhiljmoinnh gqfooooooooooooomn o n o o o oqofffffffffffffflfj n V V |
  1
<0:;8: {rn {lhn {mhn {lih {lhm -:):-,:; {lmi {rn |
  1
<0:;8: {rn {mhn {lhn {mfg {ljl -:):-,:; {lmi {rn |
  1
300/ {rn {rn {lmj {mfo |
  1
/+36,+r:&:r>++-6= {rn {rn {rn {mhm |
  1
:336/,:r<*-): {rn nfgqnolhmlmklgmhil rgqljhmhiljmoinnhon gqfooooooooooooomn o o rn n o o n V V |
  1
/061+ {rn nffqnolhmlmklgmhil rgqljhmhiljmoinnhon gqfooooooooooooomn |
  1
300/ {rn {rn {mhg {lhl |
  1
/+36,+r:&:r>++-6= {rn {rn {rn {mhf |
  1
,+->687+r<*-): {rn nghqnolhmlmklgmhjh rgqljhmhiljmoinnhon fqoooooooooooooong o o rnooo V V |
  1
<0:;8: {rn {mgh {mgn {lhn {lhk 90-(>-; {nji {rn |
  1
<0:;8: {rn {mff {mfg {mgn {llj 90-(>-; {loo {rn |
  1
:;8: {lhj {lhi {llg {llk {lhh 90-(>-; |
  1
<0:;8: {rn {mgm {mfj {mff {ljk -:):-,:; {llo {rn |
  1
/+36,+r:&:r>++-6= {rn {rn {rn {mgl |
  1
):-+:' {rn {ljk {lhg |
  1
:336/,:r<*-): {rn nggqnolhmlmklgmhjh rgqljhmhiljmoinnhon g o o rn n o o n V V |
  1
/061+ {rn nghqnolhmlmklgmhjh rgqljhmhiljmoinnhon g |
  1
<0:;8: {rn {lih {lim {mgh {lkm 90-(>-; {lig {rn |
  1
:;8: {lhf {lkk {lgo {lkn {lgn 90-(>-; |
  1
/+36,+r:&:r>++-6= {rn {rn {rn {mgg |
  1
):-+:' {rn {lil {lgm |
  1
:336/,:r<*-): {rn nfgqnolhmlmklgmhil rngqljhmhiljmoinnh g o o rn n o o n V V |
  1
-:9@)+r:&:r>++-6= {rn {rn {mgf {mmk {k {j |
  1
92:,7r:&:r>++-6= {rn {lgl {rn {mfo |
  1
9><: {lgk {lhl {lig {h {rn {lgj -:):-,:; ,6183: |
  1
<01:r,*-9><: {rn nfgqnolhmlmklgmhil rgqljhmhiljmoinnhon fqoooooooooooooong o o rn rn o o n V V o n n 90-(>-; V V V V |
  1
<0:;8: {rn {lgi {lgh {lgg {lgf 90-(>-; {mfn {rn |
  1
/+36,+r:&:r>++-6= {rn {rn {rn {mfi |
  1
:336/,:r<*-): {rn nggqnolhmlmklgmhjh rgqljhmhiljmoinnhon gqfooooooooooooomn o o rn n o o n V V |
  1
:;8: {lfo {mko {lhi {mfg {lfn 90-(>-; |
  1
:;8: {lfm {llg {mkl {mff {lfl 90-(>-; |
  1
9><: {lfk {lnf {loo {h {rn {lfj -:):-,:; ,6183: |
  1
-:9@)+r:&:r>++-6= {rn {rn {loi {mki {k {j |
  1
-:9@)+r:&:r>++-6= {rn {rn {lnn {mjn {k {j |
  1
<0:;8: {rn {lfi {lfh {lfg {lff -:):-,:; {lnl {rn |
  1
92:,7r:&:r>++-6= {rn {koo {rn {lnk |
  1
9><: {kon {kom {kol {h {rn {kok -:):-,:; ,6183: |
  1
/3>1:r,*-9><: {rn nhjqiolhmlmklgmhjh kqnkmhmlikhflggmil jqj o o n nooo o o 90-(>-;@) V V V V |
  1
<0:;8: {rn {lkn {lmo {lnj {lil 90-(>-; {lig {rn |
  1
:;8: {koj {lnh {lkk {lim {koi 90-(>-; |
  1
/061+ {rn nffqnolhmlmklgmhil rngqljhmhiljmoinnh gqfooooooooooooomn |
  1
92:,7r:&:r>++-6= {rn {koh {rn {lnf |
  1
<01:r,*-9><: {rn nfgqnolhmlmklgmhil rngqljhmhiljmoinnh fqoooooooooooooong o o rn rn o o n V V o n n 90-(>-; V V V V |
  1
<0:;8: {rn {lmo {lkn {lmk {lhm 90-(>-; {lig {rn |
  1
300/ {rn {rn {lih {lkg |
  1
/+36,+r:&:r>++-6= {rn {rn {rn {lmn |
  1
,+->687+r<*-): {rn nffqnolhmlmklgmhil rngqljhmhiljmoinnh gqfooooooooooooomn hqmmgonkkglmliifjg:ronk rnooo o V V |
  1
<0:;8: {rn {lmj {lmk {lll {lhk -:):-,:; {lmi {rn |
  1
:;8: {kog {lgo {mhk {lih {kof 90-(>-; |
  1
9><: {kno {ljj {llo {h {rn {knn 90-(>-; ,6183: |
  1
:;8: {knm {lhi {lgo {lll {knl 90-(>-; |
  1
/+36,+r:&:r>++-6= {rn {rn {rn {llj |
  1
):-+:' {rn {ljl {knk |
  1
,+->687+r<*-): {rn nghqnolhmlmklgmhjh rhqljhmhiljmoinnhon g rnooo o o V V |
  1
/061+ {rn nggqnolhmlmklgmhjh rhqljhmhiljmoinnhon g |
  1
/+36,+r:&:r>++-6= {rn {rn {rn {lkm |
  1
):-+:' {rn {lhm {knj |
  1
,+->687+r<*-): {rn nffqnolhmlmklgmhil rhqljhmhiljmoinnhon g rhqmmgonkkglmliifjg:ronk nooo o V V |
  1
/061+ {rn nffqnolhmlmklgmhil rngqljhmhiljmoinnh g |
  1
-:9@)+r:&:r>++-6= {rn {rn {lkh {mfo {k {j |
  1
92:,7r:&:r>++-6= {rn {kni {rn {lkg |
  1
/3>1:r,*-9><: {rn nffqnolhmlmklgmhil rhqljhmhiljmoinnhon fqoooooooooooooong rn rhqmmgonkkglmliifjg:ronh o hqmmgonkkglmliifjg:ronk rnooo o 90-(>-;@) V V V V |
  1
<0:;8: {rn {knh {ljo {kng {knf 90-(>-; {mfn {rn |
  1
<0:;8: {rn {ljo {knh {kmo {kmn 90-(>-; {mfn {rn |
  1
<0:;8: {rn {kmm {kml {ljo {lgf -:):-,:; {kmk {rn |
  1
:;8: {kmj {kmi {kmh {ljo {kmg 90-(>-; |
  1
/+36,+r:&:r>++-6= {rn {rn {rn {ljl |
  1
,+->687+r<*-): {rn nfgqnolhmlmklgmhil rhqljhmhiljmoinnhon fqoooooooooooooong o o rnooo V V |
  1
/+36,+r:&:r>++-6= {rn {rn {rn {ljk |
  1
,+->687+r<*-): {rn nggqnolhmlmklgmhjh rhqljhmhiljmoinnhon fqoooooooooooooong o o nooo V V |
  1
92:,7r:&:r>++-6= {rn {kmf {rn {ljj |
  1
/3>1:r,*-9><: {rn nghqnolhmlmklgmhjh rhqljhmhiljmoinnhon fqoooooooooooooong o rn o o o rnooo 90-(>-;@) V V V V |
  1
<0:;8: {rn {klo {ljg {kln {klm -:):-,:; {lnl {rn |
  1
<0:;8: {rn {ljg {klo {kll {klk -:):-,:; {lnl {rn |
  1
<0:;8: {rn {klj {kli {ljg {lff 90-(>-; {klh {rn |
  1
:;8: {klg {klf {kko {lfg {kkn 90-(>-; |
  1
-:9@)+r:&:r>++-6= {rn {rn {ljf {lnk {k {j |
  1
92:,7r:&:r>++-6= {rn {kkm {rn {lio |
  1
9><: {kkl {kkk {kkj {h {rn {kki -:):-,:; ,6183: |
  1
300/ {rn {rn {kkh {lio |
  1
/3>1:r,*-9><: {rn mnoqiolhmlmklgmhil kqnkmhmlikhflggmff g rn rfqfnmhojjhhonolmjj:ronh o fqfnmhojjhhonolmjk:ronk rnooo o 90-(>-;@) V V V V |
  1
/+36,+r:&:r>++-6= {rn {rn {rn {lil |
  1
,+->687+r<*-): {rn nffqnolhmlmklgmhil rngqljhmhiljmoinnh fqoooooooooooooong o o rnooo V V |
  1
-:9@)+r:&:r>++-6= {rn {rn {lij {lnf {k {j |
  1
/+36,+r:&:r>++-6= {rn {rn {rn {lhm |
  1
,+->687+r<*-): {rn nffqnolhmlmklgmhil rgqljhmhiljmoinnhon fqoooooooooooooong o o nooo V V |
  1
92:,7r:&:r>++-6= {rn {kkg {rn {lhl |
  1
<01:r,*-9><: {rn nggqnolhmlmklgmhjh rgqljhmhiljmoinnhon fqoooooooooooooong o o rn rn o o n V V o n n 90-(>-; V V V V |
  1
/+36,+r:&:r>++-6= {rn {rn {rn {lhk |
  1
:336/,:r<*-): {rn nfgqnolhmlmklgmhil rgqljhmhiljmoinnhon g o o rn n o o n V V |
  1
/061+ {rn nfgqnolhmlmklgmhil rhqljhmhiljmoinnhon g |
  1
/061+ {rn nffqnolhmlmklgmhil rgqljhmhiljmoinnhon g |
  1
-:9@)+r:&:r>++-6= {rn {rn {lgk {lkg {k {j |
  1
<0:;8: {rn {lgh {lgi {kkf {kjo 90-(>-; {mfn {rn |
  1
<0:;8: {rn {kjn {kjm {lgi {knf -:):-,:; {kkj {rn |
  1
:;8: {kjl {kmh {kjk {lgi {kjj 90-(>-; |
  1
<0:;8: {rn {kji {kjh {lgh {kmn -:):-,:; {kjg {rn |
  1
:;8: {kjf {kio {kmi {lgh {kin 90-(>-; |
  1
<0:;8: {rn {kim {lgg {kjh {kil 90-(>-; {kmk {rn |
  1
<0:;8: {rn {lgg {kim {kjn {kik -:):-,:; {kmk {rn |
  1
300/ {rn {rn {kim {kij |
  1
/+36,+r:&:r>++-6= {rn {rn {rn {lgf |
  1
):-+:' {rn {kmn {kii |
  1
):-+:' {rn {kik {kih |
  1
,+->687+r<*-): {rn nhjqiolhmlmklgmhjh kqnkmhmlikhflggmil g fqfnmhojjhhonolmjk:ronk rnooo o V V |
  1
-:9@)+r:&:r>++-6= {rn {rn {lfk {ljj {k {j |
  1
<0:;8: {rn {lfh {lfi {kig {kif -:):-,:; {lnl {rn |
  1
<0:;8: {rn {kho {khn {lfi {klm 90-(>-; {khm {rn |
  1
:;8: {khl {khk {klf {kln {khj 90-(>-; |
  1
<0:;8: {rn {khi {khh {lfh {klk 90-(>-; {khg {rn |
  1
:;8: {khf {kko {kgo {kll {kgn 90-(>-; |
  1
<0:;8: {rn {kgm {lfg {khh {kgl 90-(>-; {klh {rn |
  1
<0:;8: {rn {lfg {kgm {kho {kgk -:):-,:; {klh {rn |
  1
300/ {rn {rn {kgm {kgj |
  1
/+36,+r:&:r>++-6= {rn {rn {rn {lff |
  1
):-+:' {rn {klm {kgi |
  1
):-+:' {rn {kgl {kgh |
  1
,+->687+r<*-): {rn nhgqnolhmlmklgmhjh kqnkmhmlikhflggmil jqj fqfnmhojjhhonolmjk:ronk rnooo o V V |
  1
-:9@)+r:&:r>++-6= {rn {rn {kon {lio {k {j |
  1
92:,7r:&:r>++-6= {rn {kgg {rn {kom |
  1
9><: {kgf {kij {kjg {h {rn {kfo -:):-,:; ,6183: |
  1
300/ {rn {rn {kfn {kom |
  1
/3>1:r,*-9><: {rn nhjqiolhmlmklgmhjh rloqgjhmhiljmoinnh g o n o o o nooo 90-(>-;@) V V V V |
  1
<0:;8: {rn {kfm {kfl {kfk {kfj 90-(>-; {kol {rn |
  1
-:9@)+r:&:r>++-6= {rn {rn {kno {lhl {k {j |
  1
<0:;8: {rn {kfl {kfm {knh {kjo -:):-,:; {kol {rn |
  1
:;8: {kfi {kjk {kio {knh {kfh 90-(>-; |
  1
<0:;8: {rn {kfn {kng {kml {kik 90-(>-; {kkj {rn |
  1
<0:;8: {rn {kng {kfn {kfl {kfg -:):-,:; {kkj {rn |
  1
/+36,+r:&:r>++-6= {rn {rn {rn {knf |
  1
):-+:' {rn {kfg {kff |
  1
,+->687+r<*-): {rn nhjqiolhmlmklgmhjh rloqgjhmhiljmoinnh g nooo o o V V |
  1
<0:;8: {rn {joo {kmo {kfm {jon 90-(>-; {kjg {rn |
  1
<0:;8: {rn {kmo {joo {kmm {kil -:):-,:; {kjg {rn |
  1
300/ {rn {rn {joo {kkk |
  1
/+36,+r:&:r>++-6= {rn {rn {rn {kmn |
  1
):-+:' {rn {jon {jom |
  1
,+->687+r<*-): {rn nhjqiolhmlmklgmhjh kqnkmhmlikhflggmil g rnooo rfqfnmhojjhhonolmjk:ronk o V V |
  1
<0:;8: {rn {kml {kmm {jol {jok 90-(>-; {kmk {rn |
  1
:;8: {joj {kmi {joi {kmm {joh 90-(>-; |
  1
:;8: {jog {kmh {jof {kjn {jno 90-(>-; |
  1
9><: {jnn {kgj {kmk {h {rn {jnm -:):-,:; ,6183: |
  1
/061+ {rn nhjqiolhmlmklgmhjh kqnkmhmlikhflggmil g |
  1
/061+ {rn nhjqiolhmlmklgmhjh rloqgjhmhiljmoinnh g |
  1
<0:;8: {rn {jnl {jnk {klo {kif 90-(>-; {jnj {rn |
  1
:;8: {jni {kgo {khk {kig {jnh 90-(>-; |
  1
<0:;8: {rn {jng {kln {kli {kgk 90-(>-; {khm {rn |
  1
<0:;8: {rn {kln {jng {jnl {jnf -:):-,:; {khm {rn |
  1
300/ {rn {rn {jng {jmo |
  1
/+36,+r:&:r>++-6= {rn {rn {rn {klm |
  1
):-+:' {rn {jnf {jmn |
  1
,+->687+r<*-): {rn nhjqiolhmlmklgmhjh nqikmhmlikhflggmgn jqj rnooo rfqfnmhojjhhonolmjk:ronk o V V |
  1
<0:;8: {rn {jmm {kll {jnk {jml 90-(>-; {khg {rn |
  1
<0:;8: {rn {kll {jmm {klj {kgl -:):-,:; {khg {rn |
  1
300/ {rn {rn {jmm {jmk |
  1
/+36,+r:&:r>++-6= {rn {rn {rn {klk |
  1
):-+:' {rn {klk {jmj |
  1
,+->687+r<*-): {rn nhjqiolhmlmklgmhjh rmgqljhmhiljmoinnh jqj nooo o o V V |
  1
<0:;8: {rn {kli {klj {jmi {jmh -:):-,:; {klh {rn |
  1
:;8: {jmg {kko {jmf {klj {jlo 90-(>-; |
  1
:;8: {jln {klf {jlm {kho {jll 90-(>-; |
  1
9><: {jlk {jmo {klh {h {rn {jlj 90-(>-; ,6183: |
  1
/061+ {rn nhgqnolhmlmklgmhjh nqikmhmlikhflggmgn jqj |
  1
/061+ {rn nhgqnolhmlmklgmhjh rmgqljhmhiljmoinnh jqj |
  1
-:9@)+r:&:r>++-6= {rn {rn {kkl {kom {k {j |
  1
92:,7r:&:r>++-6= {rn {jli {rn {kkk |
  1
/3>1:r,*-9><: {rn nhjqiolhmlmklgmhjh kqnkmhmlikhflggmil g fqfnmhojjhhonolmjj:ronh rn o nooo fqfnmhojjhhonolmjk:ronk o 90-(>-;@) V V V V |
  1
<0:;8: {rn {kjm {kjn {jlh {jlg 90-(>-; {kkj {rn |
  1
<0:;8: {rn {kkf {kkh {kji {jon -:):-,:; {kol {rn |
  1
<0:;8: {rn {kkh {kkf {kjm {kfg 90-(>-; {kol {rn |
  1
<0:;8: {rn {jlh {jlf {kkh {kfj -:):-,:; {jko {rn |
  1
:;8: {jkn {jkm {jkl {kkh {jkk 90-(>-; |
  1
/+36,+r:&:r>++-6= {rn {rn {rn {kjo |
  1
,+->687+r<*-): {rn mnoqiolhmlmklgmhil kqnkmhmlikhflggmff g rfqfnmhojjhhonolmjk:ronk nooo o V V |
  1
:;8: {jkj {kjk {jkm {kfl {jki 90-(>-; |
  1
/061+ {rn mnoqiolhmlmklgmhil rloqgjhmhiljmoinnh g |
  1
<0:;8: {rn {kjh {kji {jlf {jkh 90-(>-; {kjg {rn |
  1
:;8: {jkg {kio {jkl {kji {jkf 90-(>-; |
  1
/061+ {rn mnoqiolhmlmklgmhil kqnkmhmlikhflggmff g |
  1
<0:;8: {rn {jlf {jlh {kim {jok -:):-,:; {jko {rn |
  1
:;8: {jjo {joi {jof {kim {jjn 90-(>-; |
  1
/+36,+r:&:r>++-6= {rn {rn {rn {kil |
  1
):-+:' {rn {jok {jjm |
  1
,+->687+r<*-): {rn nhjqiolhmlmklgmhjh kqnkmhmlikhflggmil g o o rnooo V V |
  1
/+36,+r:&:r>++-6= {rn {rn {rn {kik |
  1
):-+:' {rn {jok {jjl |
  1
,+->687+r<*-): {rn nhjqiolhmlmklgmhjh rloqgjhmhiljmoinnh g o o rnooo V V |
  1
92:,7r:&:r>++-6= {rn {jjk {rn {kij |
  1
/3>1:r,*-9><: {rn nhjqiolhmlmklgmhjh kqnkmhmlikhflggmil g n fqfnmhojjhhonolmjj:ronh o rfqfnmhojjhhonolmjk:ronk nooo o 90-(>-;@) V V V V |
  1
<0:;8: {rn {jjj {kig {khn {jnf 90-(>-; {jnj {rn |
  1
<0:;8: {rn {kig {jjj {khi {jml -:):-,:; {jnj {rn |
  1
300/ {rn {rn {jjj {jji |
  1
/+36,+r:&:r>++-6= {rn {rn {rn {kif |
  1
,+->687+r<*-): {rn mogqnolhmlmklgmhil kqnkmhmlikhflggmff jqj rfqfnmhojjhhonolmjk:ronk nooo o V V |
  1
<0:;8: {rn {khn {kho {jjh {jjg -:):-,:; {khm {rn |
  1
:;8: {jjf {khk {jio {jnl {jin 90-(>-; |
  1
9><: {jim {jji {khm {h {rn {jil 90-(>-; ,6183: |
  1
/061+ {rn mogqnolhmlmklgmhil nqikmhmlikhflgglni jqj |
  1
<0:;8: {rn {khh {khi {jik {jij -:):-,:; {khg {rn |
  1
:;8: {jii {kgo {jih {khi {jig 90-(>-; |
  1
9><: {jif {jho {khg {h {rn {jhn 90-(>-; ,6183: |
  1
/061+ {rn mogqnolhmlmklgmhil rmgqljhmhiljmoinnh jqj |
  1
<0:;8: {rn {jik {jjh {kgm {jmh 90-(>-; {jhm {rn |
  1
:;8: {jhl {jlm {jmf {jmi {jhk 90-(>-; |
  1
/+36,+r:&:r>++-6= {rn {rn {rn {kgl |
  1
):-+:' {rn {kgl {jhj |
  1
,+->687+r<*-): {rn nhgqnolhmlmklgmhjh rmgqljhmhiljmoinnh g o o rnooo V V |
  1
/+36,+r:&:r>++-6= {rn {rn {rn {kgk |
  1
):-+:' {rn {jmh {jhi |
  1
,+->687+r<*-): {rn nhgqnolhmlmklgmhjh nqikmhmlikhflggmgn g o o rnooo V V |
  1
92:,7r:&:r>++-6= {rn {jhh {rn {kgj |
  1
/3>1:r,*-9><: {rn nhgqnolhmlmklgmhjh kqnkmhmlikhflggmil g n fqfnmhojjhhonolmjj:ronh o rfqfnmhojjhhonolmjk:ronk nooo o 90-(>-;@) V V V V |
  1
-:9@)+r:&:r>++-6= {rn {rn {kgf {kkk {k {j |
  1
<0:;8: {rn {jol {kfk {kfn {jlg -:):-,:; {jko {rn |
  1
:;8: {jhg {jof {jkm {kfn {jhf 90-(>-; |
  1
<0:;8: {rn {kfk {jol {joo {jkh -:):-,:; {jko {rn |
  1
300/ {rn {rn {jol {jho |
  1
/+36,+r:&:r>++-6= {rn {rn {rn {kfj |
  1
):-+:' {rn {kfg {jgo |
  1
):-+:' {rn {kfj {jgn |
  1
,+->687+r<*-): {rn mnoqiolhmlmklgmhil kqnkmhmlikhflggmff o rfqfnmhojjhhonolmjk:ronk nooo o V V |
  1
/+36,+r:&:r>++-6= {rn {rn {rn {kfg |
  1
,+->687+r<*-): {rn mnoqiolhmlmklgmhil rloqgjhmhiljmoinnh g o o rnooo V V |
  1
:;8: {jgm {jkl {joi {joo {jgl 90-(>-; |
  1
/+36,+r:&:r>++-6= {rn {rn {rn {jon |
  1
,+->687+r<*-): {rn mnoqiolhmlmklgmhil kqnkmhmlikhflggmff g o o rnooo V V |
  1
/+36,+r:&:r>++-6= {rn {rn {rn {jok |
  1
,+->687+r<*-): {rn nhjqiolhmlmklgmhjh kqnkmhmlikhflggmil o fqfnmhojjhhonolmjk:ronk rnooo o V V |
  1
/061+ {rn nhjqiolhmlmklgmhjh kqnkmhmlikhflggmil o |
  1
/061+ {rn nhjqiolhmlmklgmhjh rloqgjhmhiljmoinnh o |
  1
-:9@)+r:&:r>++-6= {rn {rn {jnn {kij {k {j |
  1
<0:;8: {rn {jnk {jnl {jgk {jgj -:):-,:; {jnj {rn |
  1
9><: {jgi {jmk {jnj {h {rn {jgh 90-(>-; ,6183: |
  1
<0:;8: {rn {jmi {jgk {jng {jjg 90-(>-; {jhm {rn |
  1
:;8: {jgg {jio {jlm {jjh {jgf 90-(>-; |
  1
/+36,+r:&:r>++-6= {rn {rn {rn {jnf |
  1
):-+:' {rn {jnf {jfo |
  1
,+->687+r<*-): {rn mogqnolhmlmklgmhil nqikmhmlikhflgglni g o o rnooo V V |
  1
92:,7r:&:r>++-6= {rn {jfn {rn {jmo |
  1
/3>1:r,*-9><: {rn nhjqiolhmlmklgmhjh nqikmhmlikhflggmgn g fqfnmhojjhhonolmjj:ronh rn o nooo fqfnmhojjhhonolmjk:ronk o 90-(>-;@) V V V V |
  1
<0:;8: {rn {jgk {jmi {jmm {jij 90-(>-; {jhm {rn |
  1
:;8: {jfm {jmf {jih {jik {jfl 90-(>-; |
  1
/+36,+r:&:r>++-6= {rn {rn {rn {jml |
  1
):-+:' {rn {jml {jfk |
  1
,+->687+r<*-): {rn mogqnolhmlmklgmhil rmgqljhmhiljmoinnh g o o rnooo V V |
  1
92:,7r:&:r>++-6= {rn {jfj {rn {jmk |
  1
9><: {jfi {rn {jhm {h {rn {jfh -:):-,:; ,6183: |
  1
/3>1:r,*-9><: {rn nhjqiolhmlmklgmhjh rmgqljhmhiljmoinnh g o n o o o nooo 90-(>-;@) V V V V |
  1
300/ {rn {jko {jjh {jho |
  1
/+36,+r:&:r>++-6= {rn {rn {rn {jmh |
  1
,+->687+r<*-): {rn nhgqnolhmlmklgmhjh kqnkmhmlikhflggmil o fqfnmhojjhhonolmjk:ronk rnooo o V V |
  1
/061+ {rn nhgqnolhmlmklgmhjh rmgqljhmhiljmoinnh o |
  1
/061+ {rn nhgqnolhmlmklgmhjh nqikmhmlikhflggmgn o |
  1
-:9@)+r:&:r>++-6= {rn {rn {jlk {kgj {k {j |
  1
/+36,+r:&:r>++-6= {rn {rn {rn {jlg |
  1
,+->687+r<*-): {rn nhjqiolhmlmklgmhjh rloqgjhmhiljmoinnh o nooo o o V V |
  1
/061+ {rn mnoqiolhmlmklgmhil rloqgjhmhiljmoinnh o |
  1
/061+ {rn mnoqiolhmlmklgmhil kqnkmhmlikhflggmff o |
  1
/+36,+r:&:r>++-6= {rn {rn {rn {jkh |
  1
,+->687+r<*-): {rn nhjqiolhmlmklgmhjh kqnkmhmlikhflggmil o rnooo rfqfnmhojjhhonolmjk:ronk o V V |
  1
<0:;8: {rn {jjh {jik {jjj {jgj 90-(>-; {jhm {rn |
  1
:;8: {jfg {jih {jio {jgk {jff 90-(>-; |
  1
92:,7r:&:r>++-6= {rn {ioo {rn {jji |
  1
/3>1:r,*-9><: {rn mogqnolhmlmklgmhil kqnkmhmlikhflggmff g rn rfqfnmhojjhhonolmjj:ronh o fqfnmhojjhhonolmjk:ronk rnooo o 90-(>-;@) V V V V |
  1
/+36,+r:&:r>++-6= {rn {rn {rn {jjg |
  1
,+->687+r<*-): {rn nhjqiolhmlmklgmhjh nqikmhmlikhflggmgn o rnooo rfqfnmhojjhhonolmjk:ronk o V V |
  1
/061+ {rn mogqnolhmlmklgmhil nqikmhmlikhflgglni o |
  1
-:9@)+r:&:r>++-6= {rn {rn {jim {jmo {k {j |
  1
/+36,+r:&:r>++-6= {rn {rn {rn {jij |
  1
,+->687+r<*-): {rn nhjqiolhmlmklgmhjh rmgqljhmhiljmoinnh o nooo o o V V |
  1
/061+ {rn mogqnolhmlmklgmhil rmgqljhmhiljmoinnh o |
  1
-:9@)+r:&:r>++-6= {rn {rn {jif {jmk {k {j |
  1
92:,7r:&:r>++-6= {rn {ion {rn {jho |
  1
/3>1:r,*-9><: {rn nhjqiolhmlmklgmhjh kqnkmhmlikhflggmil o o o n nooo o o 90-(>-;@) V V V V |
  1
/+36,+r:&:r>++-6= {rn {rn {rn {jgj |
  1
,+->687+r<*-): {rn mogqnolhmlmklgmhil kqnkmhmlikhflggmff o rfqfnmhojjhhonolmjk:ronk nooo o V V |
  1
-:9@)+r:&:r>++-6= {rn {rn {jgi {jji {k {j |
  1
-:9@)+r:&:r>++-6= {rn {rn {jfi {jho {k {j |
  0
3DSOLID
  5
B32
330
1F
100
AcDbEntity
  8
0
100
AcDbModelerGeometry
 70
     1
  1
koo koi n o         
  1
ni ^ *+0;:,4 ^ *+0\^ [ nf ^ LR mngqoqoqjnni QK o  
  1
n fqfffffffffffffffj:rooh n:rono 
  1
=0;& {n {m {rn {rn |
  1
-:9@)+r:&:r>++-6= {rn {l {rn {o {k {j |
  1
3*2/ {i {rn {h {o |
  1
1>2:@>++-6=r8:1r>++-6= {rn {rn {n {o 4::/ 4::/@4:/+ 6810-: mo knmoinnroonrOorooroo |
  1
:&:@-:961:2:1+ {rn j 8-6;  n l +-6 n k ,*-9 o l >;5 o k 8->; o f /0,+<7:<4 o k ,+03 oqmmnfgnokgjglfgklg k 1+03 lo k ;,63 o g 93>+1:,, o h /6'>-:> o k 72>' o i 8-6;>- o j 28-6; looo j *8-6; o j )8-6; o no :1;@96:3;, |
  1
):-+:'@+:2/3>+: {rn l o n g |
  1
-:9@)+r:&:r>++-6= {rn {g {rn {m {k {j |
  1
,7:33 {f {rn {rn {no {rn {m |
  1
-8=@<030-r,+r>++-6= {rn {rn {i {m oqhjmfknnhikhojggmm oqhjmfknnhikhojggmm oqhjmfknnhikhojggmm |
  1
-:9@)+r:&:r>++-6= {rn {rn {rn {h {k {j |
  1
9><: {nn {nm {nl {h {rn {nk 90-(>-; ,6183: |
  1
92:,7r:&:r>++-6= {rn {nj {rn {no |
  1
9><: {ni {nh {ng {h {rn {nf -:):-,:; ,6183: |
  1
300/ {rn {rn {mo {no |
  1
/3>1:r,*-9><: {rn rglqgfimhihjinhmlfg rhqljhmhiljmoinnhnf g o rn o o o rnooo 90-(>-;@) V V V V |
  1
-:9@)+r:&:r>++-6= {rn {rn {nn {no {k {j |
  1
92:,7r:&:r>++-6= {rn {mn {rn {nm |
  1
9><: {mm {ml {mk {h {rn {mj 90-(>-; ,6183: |
  1
300/ {rn {mi {mh {nm |
  1
/3>1:r,*-9><: {rn rfgqgfimhihjinhmlfg riqljhmhiljmoinnhn g o o n nooo o o 90-(>-;@) V V V V |
  1
<0:;8: {rn {mg {mf {lo {ln -:):-,:; {nl {rn |
  1
-:9@)+r:&:r>++-6= {rn {rn {ni {nm {k {j |
  1
92:,7r:&:r>++-6= {rn {lm {rn {nh |
  1
9><: {ll {lk {lj {h {rn {li 90-(>-; ,6183: |
  1
300/ {rn {rn {lh {nh |
  1
/3>1:r,*-9><: {rn rfhqgfimhihjinhmlfg riqljhmhiljmoinnhn g n o rlqoglfjmgkingoffog:roni rlqoglfjmgkingoffn:ronl o rnooo 90-(>-;@) V V V V |
  1
300/ {rn {rn {lg {nm |
  1
<0:;8: {rn {lf {ko {kn {km 90-(>-; {ng {rn |
  1
<0:;8: {rn {kl {mo {kk {kj -:):-,:; {nl {rn |
  1
<0:;8: {rn {mo {ki {kh {kg -:):-,:; {nl {rn |
  1
<0:;8: {rn {kf {jo {mo {ln 90-(>-; {mi {rn |
  1
:;8: {jn {jm {jl {lo {jk 90-(>-; |
  1
-:9@)+r:&:r>++-6= {rn {rn {mm {nh {k {j |
  1
92:,7r:&:r>++-6= {rn {jj {rn {ml |
  1
9><: {ji {jh {jg {h {rn {jf 90-(>-; ,6183: |
  1
300/ {rn {rn {io {ml |
  1
/3>1:r,*-9><: {rn rfgqgfimhihjinhmlif riqljhmhiljmoinnhn fh o o rn rnooo o o 90-(>-;@) V V V V |
  1
<0:;8: {rn {in {im {il {ik -:):-,:; {mk {rn |
  1
<0:;8: {rn {jo {kf {ij {ii -:):-,:; {mi {rn |
  1
<0:;8: {rn {ih {mh {ig {if -:):-,:; {ng {rn |
  1
<0:;8: {rn {mh {ih {ho {hn 90-(>-; {ng {rn |
  1
<0:;8: {rn {hm {hl {mh {km -:):-,:; {hk {rn |
  1
:;8: {hj {hi {hh {mh {hg 90-(>-; |
  1
<0:;8: {rn {hf {mg {go {gn -:):-,:; {nl {rn |
  1
<0:;8: {rn {gm {gl {mg {kj 90-(>-; {gk {rn |
  1
:;8: {gj {gi {jm {kk {gh 90-(>-; |
  1
<0:;8: {rn {mf {gg {gf {fo -:):-,:; {nl {rn |
  1
<0:;8: {rn {im {in {mf {kg 90-(>-; {mk {rn |
  1
:;8: {fn {jl {fm {kh {fl 90-(>-; |
  1
<0:;8: {rn {lg {lo {in {fk 90-(>-; {mi {rn |
  1
<0:;8: {rn {lo {lg {gm {fj -:):-,:; {mi {rn |
  1
/+36,+r:&:r>++-6= {rn {rn {rn {ln |
  1
):-+:' {rn {fj {fi |
  1
):-+:' {rn {fk {fh |
  1
,+->687+r<*-): {rn rglqgfimhihjinhmlfg rhqljhmhiljmoinnhnf g rnooo o o V V |
  1
-:9@)+r:&:r>++-6= {rn {rn {ll {ml {k {j |
  1
92:,7r:&:r>++-6= {rn {fg {rn {lk |
  1
9><: {ff {noo {non {h {rn {nom 90-(>-; ,6183: |
  1
300/ {rn {rn {nol {lk |
  1
/3>1:r,*-9><: {rn rglqgfimhihjinhmlfg riqljhmhiljmoinnhn glqfffffffffffffgi o o n nooo o o 90-(>-;@) V V V V |
  1
<0:;8: {rn {nok {noj {noi {noh -:):-,:; {lj {rn |
  1
<0:;8: {rn {kh {lh {kf {fk -:):-,:; {mk {rn |
  1
<0:;8: {rn {lh {kh {nok {nog 90-(>-; {mk {rn |
  1
<0:;8: {rn {noi {ij {lh {ik 90-(>-; {nof {rn |
  1
:;8: {nno {nnn {nnm {il {nnl 90-(>-; |
  1
<0:;8: {rn {il {nnk {lg {ii 90-(>-; {nof {rn |
  1
:;8: {nnj {nni {nnn {ij {nnh 90-(>-; |
  1
<0:;8: {rn {ko {lf {nng {nnf -:):-,:; {ng {rn |
  1
<0:;8: {rn {nmo {nmn {lf {if 90-(>-; {nmm {rn |
  1
:;8: {nml {nmk {hh {ig {nmj 90-(>-; |
  1
<0:;8: {rn {nmi {nmh {ko {hn -:):-,:; {nmg {rn |
  1
:;8: {nmf {nlo {hi {ko {nln 90-(>-; |
  1
<0:;8: {rn {nlm {kn {nmh {nll -:):-,:; {hk {rn |
  1
<0:;8: {rn {kn {nlk {nmo {nlj -:):-,:; {hk {rn |
  1
300/ {rn {rn {kn {nli |
  1
/+36,+r:&:r>++-6= {rn {rn {rn {km |
  1
):-+:' {rn {hn {nlh |
  1
):-+:' {rn {if {nlg |
  1
,+->687+r<*-): {rn rfgqgfimhihjinhmlfg rmnqljhmhiljmoinnh g rnooo o o V V |
  1
<0:;8: {rn {nlf {kl {nko {nkn -:):-,:; {nl {rn |
  1
<0:;8: {rn {nkm {nkl {kl {gn 90-(>-; {jg {rn |
  1
:;8: {nkk {nkj {gi {go {nki 90-(>-; |
  1
<0:;8: {rn {nkh {kk {jo {fj 90-(>-; {gk {rn |
  1
<0:;8: {rn {kk {nkh {nkm {nkg -:):-,:; {gk {rn |
  1
300/ {rn {rn {nkh {noo |
  1
/+36,+r:&:r>++-6= {rn {rn {rn {kj |
  1
):-+:' {rn {kj {nkf |
  1
,+->687+r<*-): {rn rgkqgfimhihjinhmlfg rhqljhmhiljmoinnhnf g o o rnooo V V |
  1
<0:;8: {rn {ki {nlf {njo {njn -:):-,:; {nl {rn |
  1
<0:;8: {rn {noj {nok {ki {fo 90-(>-; {lj {rn |
  1
:;8: {njm {fm {njl {gf {njk 90-(>-; |
  1
/+36,+r:&:r>++-6= {rn {rn {rn {kg |
  1
):-+:' {rn {fo {njj |
  1
,+->687+r<*-): {rn rfhqgfimhihjinhmlfg rhqljhmhiljmoinnhnf gqooooooooooooooli lqoglfjmgkingoffn:ronl o nooo V V |
  1
:;8: {nji {jl {nnn {kf {njh 90-(>-; |
  1
:;8: {njg {jm {nni {gm {njf 90-(>-; |
  1
/061+ {rn rgkqgfimhihjinhmlfg rhqljhmhiljmoinnhnf g |
  1
/061+ {rn rfhqgfimhihjinhmlfg rhqljhmhiljmoinnhnf g |
  1
-:9@)+r:&:r>++-6= {rn {rn {ji {lk {k {j |
  1
92:,7r:&:r>++-6= {rn {nio {rn {jh |
  1
9><: {nin {nim {gk {h {rn {nil 90-(>-; ,6183: |
  1
300/ {rn {rn {nik {jh |
  1
/3>1:r,*-9><: {rn mooqnolhmlmklgmhil riqljhmhiljmoinnhn fg rn o o o o nooo 90-(>-;@) V V V V |
  1
<0:;8: {rn {nkl {nkm {nij {nii -:):-,:; {jg {rn |
  1
<0:;8: {rn {gf {io {im {nog -:):-,:; {lj {rn |
  1
<0:;8: {rn {io {gf {nih {nig 90-(>-; {lj {rn |
  1
<0:;8: {rn {nif {il {io {noh 90-(>-; {nof {rn |
  1
:;8: {nho {nnm {nhn {noi {nhm 90-(>-; |
  1
:;8: {nhl {fm {nnm {im {nhk 90-(>-; |
  1
300/ {rn {rn {ij {nhj |
  1
/+36,+r:&:r>++-6= {rn {rn {rn {ik |
  1
):-+:' {rn {fk {nhi |
  1
):-+:' {rn {noh {nhh |
  1
,+->687+r<*-): {rn rfhqgfimhihjinhmlfg rmoqljhmhiljmoinnh gqooooooooooooooli lqoglfjmgkingoffn:ronl o nooo V V |
  1
<0:;8: {rn {ij {nij {nkh {nhg 90-(>-; {nof {rn |
  1
/+36,+r:&:r>++-6= {rn {rn {rn {ii |
  1
):-+:' {rn {fj {nhf |
  1
,+->687+r<*-): {rn rglqgfimhihjinhmlfg rmoqljhmhiljmoinnh g rnooo o o V V |
  1
<0:;8: {rn {ngo {ngn {ih {nnf 90-(>-; {ngm {rn |
  1
:;8: {ngl {nlo {nmk {nng {ngk 90-(>-; |
  1
<0:;8: {rn {ngj {ig {hl {nlj 90-(>-; {nmm {rn |
  1
<0:;8: {rn {ig {ngj {ngo {ngi -:):-,:; {nmm {rn |
  1
300/ {rn {rn {nmo {ngh |
  1
/+36,+r:&:r>++-6= {rn {rn {rn {if |
  1
):-+:' {rn {if {ngg |
  1
,+->687+r<*-): {rn rfgqgfimhihjinhmlfg riqljhmhiljmoinnhn g o rnooo o V V |
  1
<0:;8: {rn {ngf {ho {ngn {nfo -:):-,:; {nmg {rn |
  1
<0:;8: {rn {ho {ngf {hm {nll 90-(>-; {nmg {rn |
  1
300/ {rn {rn {nmh {nfn |
  1
/+36,+r:&:r>++-6= {rn {rn {rn {hn |
  1
):-+:' {rn {hn {nfm |
  1
,+->687+r<*-): {rn rglqgfimhihjinhmlfg riqljhmhiljmoinnhn g o rnooo o V V |
  1
<0:;8: {rn {nfl {hm {nfk {nfj -:):-,:; {hk {rn |
  1
:;8: {nfi {nfh {hi {nmh {nfg 90-(>-; |
  1
<0:;8: {rn {hl {nff {moo {mon -:):-,:; {hk {rn |
  1
:;8: {mom {hh {mol {nmo {mok 90-(>-; |
  1
9><: {moj {ngh {hk {h {rn {moi 90-(>-; ,6183: |
  1
/061+ {rn rglqgfimhihjinhmlfg rmnqljhmhiljmoinnh g |
  1
/061+ {rn rfgqgfimhihjinhmlfg rmnqljhmhiljmoinnh g |
  1
<0:;8: {rn {gg {hf {moh {mog -:):-,:; {nl {rn |
  1
<0:;8: {rn {mof {mno {hf {nkn 90-(>-; {mnn {rn |
  1
:;8: {mnm {mnl {nkj {nko {mnk 90-(>-; |
  1
<0:;8: {rn {nol {go {gl {nkg 90-(>-; {jg {rn |
  1
<0:;8: {rn {go {nol {mof {mnj -:):-,:; {jg {rn |
  1
/+36,+r:&:r>++-6= {rn {rn {rn {gn |
  1
):-+:' {rn {mnj {mni |
  1
,+->687+r<*-): {rn rglqgfimhihjinhmlfg rhqljhmhiljmoinnhnf glqfffffffffffffgi rnooo o o V V |
  1
<0:;8: {rn {gl {gm {nnk {nhg -:):-,:; {gk {rn |
  1
:;8: {mnh {gi {mng {nkm {mnf 90-(>-; |
  1
/061+ {rn rgkqgfimhihjinhmlfg rhqljhmhiljmoinnhnf glqfffffffffffffgi |
  1
<0:;8: {rn {mmo {nih {gg {njn 90-(>-; {non {rn |
  1
:;8: {mmn {njl {mmm {njo {mml 90-(>-; |
  1
/+36,+r:&:r>++-6= {rn {rn {rn {fo |
  1
):-+:' {rn {nig {mmk |
  1
,+->687+r<*-): {rn rglqgfimhihjinhmlfg rhqljhmhiljmoinnhnf fh nooo o o V V |
  1
/061+ {rn rfhqgfimhihjinhmlif rhqljhmhiljmoinnhnf fh |
  1
/+36,+r:&:r>++-6= {rn {rn {rn {fk |
  1
,+->687+r<*-): {rn rfhqgfimhihjinhmlfg riqljhmhiljmoinnhn g o rnooo o V V |
  1
/+36,+r:&:r>++-6= {rn {rn {rn {fj |
  1
,+->687+r<*-): {rn rgkqgfimhihjinhmlfg riqljhmhiljmoinnhn g o rnooo o V V |
  1
-:9@)+r:&:r>++-6= {rn {rn {ff {jh {k {j |
  1
92:,7r:&:r>++-6= {rn {mmj {rn {noo |
  1
9><: {mmi {mmh {mnn {h {rn {mmg 90-(>-; ,6183: |
  1
/3>1:r,*-9><: {rn rgkqgfimhihjinhmlfg riqljhmhiljmoinnhn g rn o o o o nooo 90-(>-;@) V V V V |
  1
<0:;8: {rn {nih {mmo {nif {mmf -:):-,:; {non {rn |
  1
<0:;8: {rn {nnk {mlo {nol {nii 90-(>-; {nof {rn |
  1
:;8: {mln {mlm {mng {nij {mll 90-(>-; |
  1
<0:;8: {rn {njo {nik {noj {nig -:):-,:; {non {rn |
  1
:;8: {mlk {njl {nhn {noj {mlj 90-(>-; |
  1
<0:;8: {rn {mli {noi {nik {mmf 90-(>-; {nof {rn |
  1
/+36,+r:&:r>++-6= {rn {rn {rn {noh |
  1
):-+:' {rn {nig {mlh |
  1
,+->687+r<*-): {rn rglqgfimhihjinhmlfg rmoqljhmhiljmoinnh fh nooo o o V V |
  1
/+36,+r:&:r>++-6= {rn {rn {rn {nog |
  1
,+->687+r<*-): {rn rfhqgfimhihjinhmlif riqljhmhiljmoinnhn fh o rnooo o V V |
  1
9><: {mlg {mlf {nof {h {rn {mko -:):-,:; ,6183: |
  1
/061+ {rn rfhqgfimhihjinhmlfg rmoqljhmhiljmoinnh g |
  1
/061+ {rn rfhqgfimhihjinhmlif rmoqljhmhiljmoinnh fh |
  1
:;8: {mkn {mng {nni {nnk {mkm 90-(>-; |
  1
/061+ {rn rgkqgfimhihjinhmlfg rmoqljhmhiljmoinnh g |
  1
<0:;8: {rn {mkl {nng {nmn {ngi 90-(>-; {ngm {rn |
  1
<0:;8: {rn {nng {mkk {nmi {nfo 90-(>-; {ngm {rn |
  1
300/ {rn {rn {nng {mkj |
  1
/+36,+r:&:r>++-6= {rn {rn {rn {nnf |
  1
,+->687+r<*-): {rn rfgqgfimhihjinhmlfg riqljhmhiljmoinnhn g rnooo o o V V |
  1
<0:;8: {rn {nmn {nmo {mki {mkh -:):-,:; {nmm {rn |
  1
:;8: {mkg {nmk {mkf {ngo {mjo 90-(>-; |
  1
9><: {mjn {nfn {nmm {h {rn {mjm -:):-,:; ,6183: |
  1
/061+ {rn rfgqgfimhihjinhmlfg riqljhmhiljmoinnhn g |
  1
<0:;8: {rn {nmh {nmi {mjl {mjk 90-(>-; {nmg {rn |
  1
:;8: {mjj {mji {nlo {ngn {mjh 90-(>-; |
  1
9><: {mjg {nhj {nmg {h {rn {mjf -:):-,:; ,6183: |
  1
/061+ {rn rglqgfimhihjinhmlfg riqljhmhiljmoinnhn g |
  1
<0:;8: {rn {mio {nlm {min {mim -:):-,:; {hk {rn |
  1
<0:;8: {rn {mjl {mil {nlm {nfj 90-(>-; {mik {rn |
  1
:;8: {mij {mii {nfh {nfk {mih 90-(>-; |
  1
/+36,+r:&:r>++-6= {rn {rn {rn {nll |
  1
):-+:' {rn {mjk {mig |
  1
,+->687+r<*-): {rn rglqgfimhihjinhmlfg rmnqljhmhiljmoinnh g o o rnooo V V |
  1
<0:;8: {rn {nlk {mio {mif {mho -:):-,:; {hk {rn |
  1
<0:;8: {rn {mhn {mki {nlk {mon 90-(>-; {mhm {rn |
  1
:;8: {mhl {mol {mhk {moo {mhj 90-(>-; |
  1
/+36,+r:&:r>++-6= {rn {rn {rn {nlj |
  1
):-+:' {rn {nlj {mhi |
  1
,+->687+r<*-): {rn rfgqgfimhihjinhmlfg rmnqljhmhiljmoinnh g lqoglfjmgkingoffn:ronl o nooo V V |
  1
92:,7r:&:r>++-6= {rn {mhh {rn {nli |
  1
/3>1:r,*-9><: {rn rglqgfimhihjinhmlfg rmnqljhmhiljmoinnh g o rn o o o rnooo 90-(>-;@) V V V V |
  1
<0:;8: {rn {mhg {mhf {nlf {mog 90-(>-; {mgo {rn |
  1
:;8: {mgn {mmm {mnl {moh {mgm 90-(>-; |
  1
<0:;8: {rn {mgl {nko {nkl {mnj 90-(>-; {mnn {rn |
  1
<0:;8: {rn {nko {mgl {mhg {mgk -:):-,:; {mnn {rn |
  1
300/ {rn {rn {mgl {nim |
  1
/+36,+r:&:r>++-6= {rn {rn {rn {nkn |
  1
):-+:' {rn {mog {mgj |
  1
,+->687+r<*-): {rn nghqnolhmlmklgmhjh rhqljhmhiljmoinnhnf gqoooooooooooononl rlqhoohklknjknhngfi:ronl o nooo V V |
  1
:;8: {mgi {nkj {mlm {mof {mgh 90-(>-; |
  1
/061+ {rn nghqnolhmlmklgmhjh rhqljhmhiljmoinnhnf glqfffffffffffffgi |
  1
/+36,+r:&:r>++-6= {rn {rn {rn {nkg |
  1
):-+:' {rn {nhg {mgg |
  1
,+->687+r<*-): {rn rgkqgfimhihjinhmlfg riqljhmhiljmoinnhn glqfffffffffffffgi o rnooo o V V |
  1
<0:;8: {rn {nik {njo {mhf {mgf 90-(>-; {non {rn |
  1
/+36,+r:&:r>++-6= {rn {rn {rn {njn |
  1
):-+:' {rn {mog {mfo |
  1
,+->687+r<*-): {rn mooqnolhmlmklgmhil rhqljhmhiljmoinnhnf g o o rnooo V V |
  1
/061+ {rn mooqnolhmlmklgmhil rhqljhmhiljmoinnhnf fh |
  1
-:9@)+r:&:r>++-6= {rn {rn {nin {noo {k {j |
  1
92:,7r:&:r>++-6= {rn {mfn {rn {nim |
  1
9><: {mfm {mkj {mfl {h {rn {mfk -:):-,:; ,6183: |
  1
/3>1:r,*-9><: {rn nghqnolhmlmklgmhjh riqljhmhiljmoinnhn gmqfffffffffffffgi n o lqhoohklknjknhngfi:roni lqhoohklknjknhngfi:ronl o rnooo 90-(>-;@) V V V V |
  1
:;8: {mfj {nhn {mfi {nif {mfh 90-(>-; |
  1
<0:;8: {rn {nij {mli {mgl {mfg 90-(>-; {nof {rn |
  1
/+36,+r:&:r>++-6= {rn {rn {rn {nii |
  1
):-+:' {rn {mnj {mff |
  1
,+->687+r<*-): {rn rglqgfimhihjinhmlfg rmoqljhmhiljmoinnh glqfffffffffffffgi rnooo o o V V |
  1
/+36,+r:&:r>++-6= {rn {rn {rn {nig |
  1
,+->687+r<*-): {rn mooqnolhmlmklgmhil riqljhmhiljmoinnhn fh o rnooo o V V |
  1
<0:;8: {rn {mlo {nif {loo {lon 90-(>-; {nof {rn |
  1
/061+ {rn mooqnolhmlmklgmhil rmoqljhmhiljmoinnh fh |
  1
92:,7r:&:r>++-6= {rn {lom {rn {nhj |
  1
9><: {lol {lok {loj {h {rn {loi -:):-,:; ,6183: |
  1
/3>1:r,*-9><: {rn rglqgfimhihjinhmlfg rmoqljhmhiljmoinnh g o rn o o o rnooo 90-(>-;@) V V V V |
  1
/+36,+r:&:r>++-6= {rn {rn {rn {nhg |
  1
,+->687+r<*-): {rn rgkqgfimhihjinhmlfg rmoqljhmhiljmoinnh g o o rnooo V V |
  1
<0:;8: {rn {loh {ngo {log {lof 90-(>-; {ngm {rn |
  1
<0:;8: {rn {ngn {lno {lnn {lnm 90-(>-; {ngm {rn |
  1
9><: {lnl {nli {ngm {h {rn {lnk -:):-,:; ,6183: |
  1
<0:;8: {rn {moo {log {ngj {mkh 90-(>-; {mhm {rn |
  1
:;8: {lnj {mkf {mol {mki {lni 90-(>-; |
  1
/+36,+r:&:r>++-6= {rn {rn {rn {ngi |
  1
):-+:' {rn {lof {lnh |
  1
,+->687+r<*-): {rn rfgqgfimhihjinhmlfg riqljhmhiljmoinnhn g lqoglfjmgkingoffn:ronl o nooo V V |
  1
92:,7r:&:r>++-6= {rn {lng {rn {ngh |
  1
/3>1:r,*-9><: {rn rfgqgfimhihjinhmlfg riqljhmhiljmoinnhn g n o rlqoglfjmgkingoffog:roni rlqoglfjmgkingoffn:ronl o rnooo 90-(>-;@) V V V V |
  1
<0:;8: {rn {lnn {nfk {ngf {mjk -:):-,:; {mik {rn |
  1
:;8: {lnf {mji {nfh {ngf {lmo 90-(>-; |
  1
/+36,+r:&:r>++-6= {rn {rn {rn {nfo |
  1
):-+:' {rn {lnm {lmn |
  1
,+->687+r<*-): {rn rglqgfimhihjinhmlfg riqljhmhiljmoinnhn g o o rnooo V V |
  1
92:,7r:&:r>++-6= {rn {lmm {rn {nfn |
  1
/3>1:r,*-9><: {rn rglqgfimhihjinhmlfg riqljhmhiljmoinnhn g rn o o o o nooo 90-(>-;@) V V V V |
  1
<0:;8: {rn {nff {nfl {lml {lmk -:):-,:; {hk {rn |
  1
<0:;8: {rn {lmj {lmi {nfl {mim 90-(>-; {lmh {rn |
  1
:;8: {lmg {lmf {mii {min {llo 90-(>-; |
  1
<0:;8: {rn {nfk {lnn {lmj {lln 90-(>-; {mik {rn |
  1
300/ {rn {rn {nfk {llm |
  1
/+36,+r:&:r>++-6= {rn {rn {rn {nfj |
  1
):-+:' {rn {nfj {lll |
  1
,+->687+r<*-): {rn rglqgfimhihjinhmlfg rmnqljhmhiljmoinnh gmqfffffffffffffgi rnooo o o V V |
  1
/061+ {rn rglqgfimhihjinhmlfg rmnqljhmhiljmoinnh gmqfffffffffffffgi |
  1
<0:;8: {rn {llk {llj {nff {mho 90-(>-; {loj {rn |
  1
:;8: {lli {mhk {llh {mif {llg 90-(>-; |
  1
<0:;8: {rn {log {moo {llj {llf -:):-,:; {mhm {rn |
  1
300/ {rn {rn {moo {lko |
  1
/+36,+r:&:r>++-6= {rn {rn {rn {mon |
  1
):-+:' {rn {mho {lkn |
  1
,+->687+r<*-): {rn rfgqgfimhihjinhmlif rmnqljhmhiljmoinnh fg nooo o o V V |
  1
/061+ {rn rfgqgfimhihjinhmlif rmnqljhmhiljmoinnh fg |
  1
-:9@)+r:&:r>++-6= {rn {rn {moj {nli {k {j |
  1
<0:;8: {rn {loo {moh {mno {mgk 90-(>-; {mgo {rn |
  1
<0:;8: {rn {moh {loo {mmo {mgf -:):-,:; {mgo {rn |
  1
300/ {rn {rn {loo {mmh |
  1
/+36,+r:&:r>++-6= {rn {rn {rn {mog |
  1
,+->687+r<*-): {rn rglqgfimhihjinhmlfg rhqljhmhiljmoinnhnf g rnooo o o V V |
  1
<0:;8: {rn {mno {mof {mlo {mfg -:):-,:; {mnn {rn |
  1
:;8: {lkm {mnl {lkl {mhg {lkk 90-(>-; |
  1
/061+ {rn nghqnolhmlmklgmhjh rhqljhmhiljmoinnhnf g |
  1
/+36,+r:&:r>++-6= {rn {rn {rn {mnj |
  1
,+->687+r<*-): {rn nghqnolhmlmklgmhjh riqljhmhiljmoinnhn glqfffffffffffffgi o rnooo o V V |
  1
/061+ {rn rgkqgfimhihjinhmlfg rmoqljhmhiljmoinnh glqfffffffffffffgi |
  1
:;8: {lkj {mmm {mfi {mmo {lki 90-(>-; |
  1
/061+ {rn mooqnolhmlmklgmhil rhqljhmhiljmoinnhnf g |
  1
-:9@)+r:&:r>++-6= {rn {rn {mmi {nim {k {j |
  1
92:,7r:&:r>++-6= {rn {lkh {rn {mmh |
  1
300/ {rn {mgo {lml {mmh |
  1
/3>1:r,*-9><: {rn ngiqnolhmlmklgmhjh riqljhmhiljmoinnhn g o o n nooo o o 90-(>-;@) V V V V |
  1
/+36,+r:&:r>++-6= {rn {rn {rn {mmf |
  1
):-+:' {rn {lon {lkg |
  1
,+->687+r<*-): {rn mooqnolhmlmklgmhil rmoqljhmhiljmoinnh g o o rnooo V V |
  1
:;8: {lkf {lkl {mlm {mlo {ljo 90-(>-; |
  1
/061+ {rn nghqnolhmlmklgmhjh rmoqljhmhiljmoinnh glqfffffffffffffgi |
  1
<0:;8: {rn {mhf {mhg {mli {lon -:):-,:; {mgo {rn |
  1
:;8: {ljn {mfi {lkl {mli {ljm 90-(>-; |
  1
-:9@)+r:&:r>++-6= {rn {rn {mlg {nhj {k {j |
  1
92:,7r:&:r>++-6= {rn {ljl {rn {mlf |
  1
9><: {ljk {lko {lmh {h {rn {ljj -:):-,:; ,6183: |
  1
300/ {rn {rn {mif {mlf |
  1
/3>1:r,*-9><: {rn monqnolhmlmklgmhil riqljhmhiljmoinnhn fg rn o o o o nooo 90-(>-;@) V V V V |
  1
<0:;8: {rn {lji {mkl {ljh {ljg 90-(>-; {ngm {rn |
  1
<0:;8: {rn {mki {mhn {mkl {lof -:):-,:; {mhm {rn |
  1
:;8: {ljf {mkf {lio {mkl {lin 90-(>-; |
  1
<0:;8: {rn {mkk {lji {lim {lil 90-(>-; {ngm {rn |
  1
<0:;8: {rn {mil {mjl {mkk {lnm -:):-,:; {mik {rn |
  1
:;8: {lik {lij {mji {mkk {lii 90-(>-; |
  1
92:,7r:&:r>++-6= {rn {lih {rn {mkj |
  1
/3>1:r,*-9><: {rn rglqgfimhihjinhmlfg riqljhmhiljmoinnhn g o rn o o o rnooo 90-(>-;@) V V V V |
  1
/+36,+r:&:r>++-6= {rn {rn {rn {mkh |
  1
,+->687+r<*-): {rn rfgqgfimhihjinhmlif riqljhmhiljmoinnhn fg o rnooo o V V |
  1
/061+ {rn rfgqgfimhihjinhmlif riqljhmhiljmoinnhn fg |
  1
-:9@)+r:&:r>++-6= {rn {rn {mjn {ngh {k {j |
  1
/+36,+r:&:r>++-6= {rn {rn {rn {mjk |
  1
,+->687+r<*-): {rn rglqgfimhihjinhmlfg riqljhmhiljmoinnhn gmqfffffffffffffgi o rnooo o V V |
  1
/061+ {rn rglqgfimhihjinhmlfg riqljhmhiljmoinnhn gmqfffffffffffffgi |
  1
-:9@)+r:&:r>++-6= {rn {rn {mjg {nfn {k {j |
  1
<0:;8: {rn {lig {lif {mio {lmk 90-(>-; {mfl {rn |
  1
:;8: {lho {llh {lmf {lml {lhn 90-(>-; |
  1
<0:;8: {rn {lim {min {mil {lln -:):-,:; {lmh {rn |
  1
<0:;8: {rn {min {lim {lig {lhm 90-(>-; {lmh {rn |
  1
300/ {rn {rn {min {lok |
  1
/+36,+r:&:r>++-6= {rn {rn {rn {mim |
  1
):-+:' {rn {lmk {lhl |
  1
,+->687+r<*-): {rn ngiqnolhmlmklgmhjh rmnqljhmhiljmoinnh gmqfffffffffffffgi rlqhoohklknjknhngfn:ronl o nooo V V |
  1
:;8: {lhk {lij {mii {mil {lhj 90-(>-; |
  1
9><: {lhi {rn {mik {h {rn {lhh -:):-,:; ,6183: |
  1
/061+ {rn ngiqnolhmlmklgmhjh rmnqljhmhiljmoinnh gmqfffffffffffffgi |
  1
<0:;8: {rn {ljh {mif {lif {lhg -:):-,:; {loj {rn |
  1
<0:;8: {rn {mif {ljh {mhn {llf 90-(>-; {loj {rn |
  1
/+36,+r:&:r>++-6= {rn {rn {rn {mho |
  1
):-+:' {rn {lmk {lhf |
  1
,+->687+r<*-): {rn monqnolhmlmklgmhil rmnqljhmhiljmoinnh fg o o rnooo V V |
  1
:;8: {lgo {lio {mhk {llj {lgn 90-(>-; |
  1
9><: {lgm {llm {mhm {h {rn {lgl -:):-,:; ,6183: |
  1
/061+ {rn monqnolhmlmklgmhil rmnqljhmhiljmoinnh fg |
  1
/+36,+r:&:r>++-6= {rn {rn {rn {mgk |
  1
):-+:' {rn {lon {lgk |
  1
,+->687+r<*-): {rn nghqnolhmlmklgmhjh riqljhmhiljmoinnhn g o rnooo o V V |
  1
/+36,+r:&:r>++-6= {rn {rn {rn {mgf |
  1
,+->687+r<*-): {rn mooqnolhmlmklgmhil riqljhmhiljmoinnhn g o rnooo o V V |
  1
-:9@)+r:&:r>++-6= {rn {rn {mfm {mmh {k {j |
  1
/061+ {rn mooqnolhmlmklgmhil rmoqljhmhiljmoinnh g |
  1
/+36,+r:&:r>++-6= {rn {rn {rn {mfg |
  1
,+->687+r<*-): {rn nghqnolhmlmklgmhjh rmoqljhmhiljmoinnh gqoooooooooooononl rlqhoohklknjknhngfi:ronl o nooo V V |
  1
/+36,+r:&:r>++-6= {rn {rn {rn {lon |
  1
,+->687+r<*-): {rn rglqgfimhihjinhmlfg rmoqljhmhiljmoinnh g rnooo o o V V |
  1
-:9@)+r:&:r>++-6= {rn {rn {lol {mlf {k {j |
  1
92:,7r:&:r>++-6= {rn {lgj {rn {lok |
  1
/3>1:r,*-9><: {rn ngiqnolhmlmklgmhjh riqljhmhiljmoinnhn gmqfffffffffffffgi n o lqhoohklknjknhngfi:roni lqhoohklknjknhngfi:ronl o rnooo 90-(>-;@) V V V V |
  1
<0:;8: {rn {lno {loh {lgi {lgh 90-(>-; {ngm {rn |
  1
<0:;8: {rn {llj {llk {loh {ljg -:):-,:; {loj {rn |
  1
:;8: {lgg {lio {lgf {loh {lfo 90-(>-; |
  1
/+36,+r:&:r>++-6= {rn {rn {rn {lof |
  1
):-+:' {rn {ljg {lfn |
  1
,+->687+r<*-): {rn rfgqgfimhihjinhmlif riqljhmhiljmoinnhn fg nooo o o V V |
  1
<0:;8: {rn {lmi {lmj {lno {lil -:):-,:; {lmh {rn |
  1
:;8: {lfm {lfl {lij {lno {lfk 90-(>-; |
  1
/+36,+r:&:r>++-6= {rn {rn {rn {lnm |
  1
):-+:' {rn {lnm {lfj |
  1
,+->687+r<*-): {rn rglqgfimhihjinhmlfg riqljhmhiljmoinnhn gmqfffffffffffffgi rnooo o o V V |
  1
-:9@)+r:&:r>++-6= {rn {rn {lnl {mkj {k {j |
  1
<0:;8: {rn {lgi {lml {lmi {lhm -:):-,:; {mfl {rn |
  1
<0:;8: {rn {lml {lgi {llk {lhg 90-(>-; {mfl {rn |
  1
/+36,+r:&:r>++-6= {rn {rn {rn {lmk |
  1
,+->687+r<*-): {rn ngiqnolhmlmklgmhjh rmnqljhmhiljmoinnh g rnooo o o V V |
  1
:;8: {lfi {lfl {lmf {lmi {lfh 90-(>-; |
  1
/061+ {rn ngiqnolhmlmklgmhjh rmnqljhmhiljmoinnh g |
  1
/+36,+r:&:r>++-6= {rn {rn {rn {lln |
  1
,+->687+r<*-): {rn ngiqnolhmlmklgmhjh riqljhmhiljmoinnhn gmqfffffffffffffgi o rnooo o V V |
  1
92:,7r:&:r>++-6= {rn {lfg {rn {llm |
  1
/3>1:r,*-9><: {rn rglqgfimhihjinhmlfg riqljhmhiljmoinnhn gmqfffffffffffffgi o o n nooo o o 90-(>-;@) V V V V |
  1
:;8: {lff {lgf {llh {lif {koo 90-(>-; |
  1
/061+ {rn monqnolhmlmklgmhil rmnqljhmhiljmoinnh g |
  1
/+36,+r:&:r>++-6= {rn {rn {rn {llf |
  1
,+->687+r<*-): {rn monqnolhmlmklgmhil riqljhmhiljmoinnhn fg o rnooo o V V |
  1
92:,7r:&:r>++-6= {rn {kon {rn {lko |
  1
/3>1:r,*-9><: {rn rfgqgfimhihjinhmlif riqljhmhiljmoinnhn fg o o rn rnooo o o 90-(>-;@) V V V V |
  1
/061+ {rn nghqnolhmlmklgmhjh rmoqljhmhiljmoinnh g |
  1
-:9@)+r:&:r>++-6= {rn {rn {ljk {lok {k {j |
  1
<0:;8: {rn {lif {lig {lji {lgh -:):-,:; {mfl {rn |
  1
:;8: {kom {lgf {lfl {lji {kol 90-(>-; |
  1
/+36,+r:&:r>++-6= {rn {rn {rn {ljg |
  1
):-+:' {rn {lhg {kok |
  1
,+->687+r<*-): {rn monqnolhmlmklgmhil riqljhmhiljmoinnhn fg o o rnooo V V |
  1
/061+ {rn monqnolhmlmklgmhil riqljhmhiljmoinnhn fg |
  1
/+36,+r:&:r>++-6= {rn {rn {rn {lil |
  1
):-+:' {rn {lhm {koj |
  1
,+->687+r<*-): {rn ngiqnolhmlmklgmhjh riqljhmhiljmoinnhn gmqfffffffffffffgi rlqhoohklknjknhngfn:ronl o nooo V V |
  1
/061+ {rn ngiqnolhmlmklgmhjh riqljhmhiljmoinnhn gmqfffffffffffffgi |
  1
/+36,+r:&:r>++-6= {rn {rn {rn {lhm |
  1
,+->687+r<*-): {rn ngiqnolhmlmklgmhjh riqljhmhiljmoinnhn g o rnooo o V V |
  1
-:9@)+r:&:r>++-6= {rn {rn {lhi {llm {k {j |
  1
/+36,+r:&:r>++-6= {rn {rn {rn {lhg |
  1
,+->687+r<*-): {rn monqnolhmlmklgmhil riqljhmhiljmoinnhn g o rnooo o V V |
  1
-:9@)+r:&:r>++-6= {rn {rn {lgm {lko {k {j |
  1
/+36,+r:&:r>++-6= {rn {rn {rn {lgh |
  1
,+->687+r<*-): {rn ngiqnolhmlmklgmhjh riqljhmhiljmoinnhn g rnooo o o V V |
  1
/061+ {rn monqnolhmlmklgmhil riqljhmhiljmoinnhn g |
  1
/061+ {rn ngiqnolhmlmklgmhjh riqljhmhiljmoinnhn g |
  0
3DSOLID
  5
B33
330
1F
100
AcDbEntity
  8
0
100
AcDbModelerGeometry
 70
     1
  1
koo iom n o         
  1
ni ^ *+0;:,4 ^ *+0\^ [ nf ^ LR mngqoqoqjnni QK o  
  1
n fqfffffffffffffffj:rooh n:rono 
  1
=0;& {n {m {rn {rn |
  1
-:9@)+r:&:r>++-6= {rn {l {rn {o {k {j |
  1
3*2/ {i {rn {h {o |
  1
1>2:@>++-6=r8:1r>++-6= {rn {rn {n {o 4::/ 4::/@4:/+ 6810-: mo knmoinnroomrOorooroo |
  1
:&:@-:961:2:1+ {rn j 8-6;  n l +-6 n k ,*-9 o l >;5 o k 8->; o f /0,+<7:<4 o k ,+03 oqmmnfgnokgjglfgklg k 1+03 lo k ;,63 o g 93>+1:,, o h /6'>-:> o k 72>' o i 8-6;>- o j 28-6; looo j *8-6; o j )8-6; o no :1;@96:3;, |
  1
):-+:'@+:2/3>+: {rn l o n g |
  1
-:9@)+r:&:r>++-6= {rn {g {rn {m {k {j |
  1
,7:33 {f {rn {rn {no {rn {m |
  1
-8=@<030-r,+r>++-6= {rn {rn {i {m oqhjmfknnhikhojggmm oqhjmfknnhikhojggmm oqhjmfknnhikhojggmm |
  1
-:9@)+r:&:r>++-6= {rn {rn {rn {h {k {j |
  1
9><: {nn {nm {nl {h {rn {nk -:):-,:; ,6183: |
  1
92:,7r:&:r>++-6= {rn {nj {rn {no |
  1
9><: {ni {nh {ng {h {rn {nf 90-(>-; ,6183: |
  1
300/ {rn {rn {mo {no |
  1
/3>1:r,*-9><: {rn rnofqlfimhihjinhmkl rloqgjhmhiljmoinnh g o n o o o nooo 90-(>-;@) V V V V |
  1
-:9@)+r:&:r>++-6= {rn {rn {nn {no {k {j |
  1
92:,7r:&:r>++-6= {rn {mn {rn {nm |
  1
9><: {mm {ml {mk {h {rn {mj -:):-,:; ,6183: |
  1
300/ {rn {mi {mh {nm |
  1
/3>1:r,*-9><: {rn rnofqlfimhihjinhmkl kqnkmhmlikhflggmil g o o n nooo o o 90-(>-;@) V V V V |
  1
<0:;8: {rn {mg {mf {lo {ln 90-(>-; {nl {rn |
  1
-:9@)+r:&:r>++-6= {rn {rn {ni {nm {k {j |
  1
92:,7r:&:r>++-6= {rn {lm {rn {nh |
  1
9><: {ll {lk {lj {h {rn {li -:):-,:; ,6183: |
  1
300/ {rn {rn {lh {nh |
  1
/3>1:r,*-9><: {rn rhkqlfimhihjinhmkmi kqnkmhmlikhflggmff g rn rfqfnmhojjhhonolmjj:ronh o fqfnmhojjhhonolmjk:ronk rnooo o 90-(>-;@) V V V V |
  1
300/ {rn {rn {lg {nm |
  1
<0:;8: {rn {lf {ko {kn {km 90-(>-; {ng {rn |
  1
<0:;8: {rn {kl {mo {kk {kj -:):-,:; {nl {rn |
  1
<0:;8: {rn {mo {kl {ki {kh 90-(>-; {nl {rn |
  1
<0:;8: {rn {kg {kf {mo {ln -:):-,:; {jo {rn |
  1
:;8: {jn {jm {jl {mo {jk 90-(>-; |
  1
-:9@)+r:&:r>++-6= {rn {rn {mm {nh {k {j |
  1
92:,7r:&:r>++-6= {rn {jj {rn {ml |
  1
9><: {ji {jh {jg {h {rn {jf -:):-,:; ,6183: |
  1
300/ {rn {jo {io {ml |
  1
/3>1:r,*-9><: {rn rnofqlfimhihjinhmkl kqnkmhmlikhflggmil o o o n nooo o o 90-(>-;@) V V V V |
  1
<0:;8: {rn {in {kk {kf {im 90-(>-; {mk {rn |
  1
<0:;8: {rn {il {ik {ij {ii -:):-,:; {mi {rn |
  1
<0:;8: {rn {ih {mh {kl {ig 90-(>-; {ng {rn |
  1
<0:;8: {rn {mh {ih {if {ho 90-(>-; {ng {rn |
  1
<0:;8: {rn {hn {ki {mh {km -:):-,:; {jg {rn |
  1
:;8: {hm {hl {hk {mh {hj 90-(>-; |
  1
<0:;8: {rn {mf {mg {lf {ig -:):-,:; {nl {rn |
  1
<0:;8: {rn {lh {hi {mg {kj 90-(>-; {mk {rn |
  1
:;8: {hh {hg {jl {kk {hf 90-(>-; |
  1
<0:;8: {rn {kn {go {mf {kh -:):-,:; {jg {rn |
  1
:;8: {gn {hk {jm {mf {gm 90-(>-; |
  1
<0:;8: {rn {gl {lo {go {gk -:):-,:; {jo {rn |
  1
<0:;8: {rn {lo {gl {lh {im -:):-,:; {jo {rn |
  1
300/ {rn {rn {kg {ml |
  1
/+36,+r:&:r>++-6= {rn {rn {rn {ln |
  1
):-+:' {rn {kh {gj |
  1
):-+:' {rn {im {gi |
  1
,+->687+r<*-): {rn rnofqlfimhihjinhmkl rloqgjhmhiljmoinnh o nooo o o V V |
  1
-:9@)+r:&:r>++-6= {rn {rn {ll {ml {k {j |
  1
92:,7r:&:r>++-6= {rn {gh {rn {lk |
  1
9><: {gg {gf {fo {h {rn {fn -:):-,:; ,6183: |
  1
300/ {rn {rn {go {lk |
  1
/3>1:r,*-9><: {rn rnofqlfimhihjinhmkl kqnkmhmlikhflggmil g n fqfnmhojjhhonolmjj:ronh o rfqfnmhojjhhonolmjk:ronk nooo o 90-(>-;@) V V V V |
  1
<0:;8: {rn {fm {fl {fk {fj 90-(>-; {lj {rn |
  1
<0:;8: {rn {hi {lh {fi {fh -:):-,:; {mk {rn |
  1
:;8: {fg {jl {ff {lh {noo 90-(>-; |
  1
<0:;8: {rn {non {lg {nom {nol 90-(>-; {mi {rn |
  1
<0:;8: {rn {lg {nok {noj {noi 90-(>-; {mi {rn |
  1
<0:;8: {rn {noh {nog {lg {ii 90-(>-; {nof {rn |
  1
:;8: {nno {nnn {nnm {ij {nnl 90-(>-; |
  1
<0:;8: {rn {ko {lf {hi {nnk 90-(>-; {ng {rn |
  1
:;8: {nnj {hk {hg {lf {nni 90-(>-; |
  1
<0:;8: {rn {fi {nnh {ko {ho -:):-,:; {nng {rn |
  1
:;8: {nnf {nmo {hl {ko {nmn 90-(>-; |
  1
<0:;8: {rn {go {kn {nnh {nmm 90-(>-; {jg {rn |
  1
/+36,+r:&:r>++-6= {rn {rn {rn {km |
  1
):-+:' {rn {km {nml |
  1
):-+:' {rn {kh {nmk |
  1
,+->687+r<*-): {rn rnofqlfimhihjinhmkl kqnkmhmlikhflggmil g fqfnmhojjhhonolmjk:ronk rnooo o V V |
  1
<0:;8: {rn {kk {in {ih {nnk -:):-,:; {mk {rn |
  1
/+36,+r:&:r>++-6= {rn {rn {rn {kj |
  1
):-+:' {rn {ig {nmj |
  1
,+->687+r<*-): {rn rhkqlfimhihjinhmkmi rloqgjhmhiljmoinnh g o o rnooo V V |
  1
<0:;8: {rn {ki {hn {kg {gk 90-(>-; {jg {rn |
  1
/+36,+r:&:r>++-6= {rn {rn {rn {kh |
  1
,+->687+r<*-): {rn rnofqlfimhihjinhmkl rloqgjhmhiljmoinnh g o o rnooo V V |
  1
<0:;8: {rn {kf {kg {nmi {nmh -:):-,:; {jo {rn |
  1
:;8: {nmg {nmf {jm {go {nlo 90-(>-; |
  1
/061+ {rn rnofqlfimhihjinhmkl rloqgjhmhiljmoinnh o |
  1
/061+ {rn rhkqlfimhihjinhmkmi rloqgjhmhiljmoinnh o |
  1
-:9@)+r:&:r>++-6= {rn {rn {ji {lk {k {j |
  1
92:,7r:&:r>++-6= {rn {nln {rn {jh |
  1
9><: {nlm {nll {nof {h {rn {nlk -:):-,:; ,6183: |
  1
300/ {rn {rn {nlj {jh |
  1
/3>1:r,*-9><: {rn rgjqgfimhihjinhmkmi rhqljhmhiljmoinnhon fqoooooooooooooong rn rhqmmgonkkglmliifjg:ronh o hqmmgonkkglmliifjg:ronk rnooo o 90-(>-;@) V V V V |
  1
<0:;8: {rn {nli {io {nlh {nlg 90-(>-; {lj {rn |
  1
<0:;8: {rn {io {nli {nlf {nko 90-(>-; {lj {rn |
  1
<0:;8: {rn {nkn {nkm {io {fj -:):-,:; {nkl {rn |
  1
:;8: {nkk {nkj {nki {io {nkh 90-(>-; |
  1
<0:;8: {rn {nmi {if {in {fh 90-(>-; {nng {rn |
  1
:;8: {nkg {nmo {ff {fi {nkf 90-(>-; |
  1
/+36,+r:&:r>++-6= {rn {rn {rn {im |
  1
):-+:' {rn {im {njo |
  1
,+->687+r<*-): {rn rhkqlfimhihjinhmkmi kqnkmhmlikhflggmff o rfqfnmhojjhhonolmjk:ronk nooo o V V |
  1
<0:;8: {rn {njn {il {njm {njl -:):-,:; {mi {rn |
  1
<0:;8: {rn {njk {njj {il {nol -:):-,:; {nji {rn |
  1
:;8: {njh {nnn {njg {il {njf 90-(>-; |
  1
<0:;8: {rn {ik {nio {nin {nim -:):-,:; {mi {rn |
  1
<0:;8: {rn {nil {nik {ik {noi -:):-,:; {nij {rn |
  1
:;8: {nii {nih {nnm {ik {nig 90-(>-; |
  1
<0:;8: {rn {nif {ij {nik {nho 90-(>-; {nof {rn |
  1
<0:;8: {rn {ij {nif {njk {nhn 90-(>-; {nof {rn |
  1
300/ {rn {rn {noh {gf |
  1
/+36,+r:&:r>++-6= {rn {rn {rn {ii |
  1
):-+:' {rn {nhn {nhm |
  1
):-+:' {rn {nho {nhl |
  1
,+->687+r<*-): {rn rfhqgfimhihjinhmkmi rnfqljhmhiljmoinnh g nooo o o V V |
  1
:;8: {nhk {hg {nmo {ih {nhj 90-(>-; |
  1
/+36,+r:&:r>++-6= {rn {rn {rn {ig |
  1
,+->687+r<*-): {rn rnofqlfimhihjinhmkl rloqgjhmhiljmoinnh g nooo o o V V |
  1
<0:;8: {rn {if {nmi {hn {nmm -:):-,:; {nng {rn |
  1
300/ {rn {rn {nmi {nll |
  1
/+36,+r:&:r>++-6= {rn {rn {rn {ho |
  1
):-+:' {rn {ho {nhi |
  1
,+->687+r<*-): {rn rnofqlfimhihjinhmkl kqnkmhmlikhflggmil g rnooo rfqfnmhojjhhonolmjk:ronk o V V |
  1
:;8: {nhh {hl {nmf {hn {nhg 90-(>-; |
  1
/061+ {rn rnofqlfimhihjinhmkl kqnkmhmlikhflggmil g |
  1
/061+ {rn rnofqlfimhihjinhmkl rloqgjhmhiljmoinnh g |
  1
/061+ {rn rhkqlfimhihjinhmkmi rloqgjhmhiljmoinnh g |
  1
<0:;8: {rn {nnh {fi {gl {nmh 90-(>-; {nng {rn |
  1
:;8: {nhf {ff {nmf {nmi {ngo 90-(>-; |
  1
/+36,+r:&:r>++-6= {rn {rn {rn {gk |
  1
):-+:' {rn {nmm {ngn |
  1
,+->687+r<*-): {rn rnofqlfimhihjinhmkl kqnkmhmlikhflggmil o fqfnmhojjhhonolmjk:ronk rnooo o V V |
  1
-:9@)+r:&:r>++-6= {rn {rn {gg {jh {k {j |
  1
92:,7r:&:r>++-6= {rn {ngm {rn {gf |
  1
9><: {ngl {ngk {nng {h {rn {ngj -:):-,:; ,6183: |
  1
/3>1:r,*-9><: {rn rfhqgfimhihjinhmkmi rnfqljhmhiljmoinnh fqoooooooooooooong o n o o o nooo 90-(>-;@) V V V V |
  1
<0:;8: {rn {ngi {nin {ngh {ngg 90-(>-; {fo {rn |
  1
<0:;8: {rn {fl {fm {ngf {nfo 90-(>-; {lj {rn |
  1
<0:;8: {rn {nfn {nfm {fm {nlg -:):-,:; {nfl {rn |
  1
:;8: {nfk {nki {nfj {fm {nfi 90-(>-; |
  1
<0:;8: {rn {nfh {nfg {fl {nko -:):-,:; {nff {rn |
  1
:;8: {moo {mon {nkj {fl {mom 90-(>-; |
  1
<0:;8: {rn {mol {fk {nfg {mok -:):-,:; {nkl {rn |
  1
<0:;8: {rn {fk {mol {nfn {moj 90-(>-; {nkl {rn |
  1
300/ {rn {rn {fk {moi |
  1
/+36,+r:&:r>++-6= {rn {rn {rn {fj |
  1
):-+:' {rn {mok {moh |
  1
):-+:' {rn {moj {mog |
  1
,+->687+r<*-): {rn rnofqlfimhihjinhmkl nqikmhmlikhflggmgn o rnooo rfqfnmhojjhhonolmjk:ronk o V V |
  1
/+36,+r:&:r>++-6= {rn {rn {rn {fh |
  1
,+->687+r<*-): {rn rhkqlfimhihjinhmkmi kqnkmhmlikhflggmff g o o rnooo V V |
  1
/061+ {rn rhkqlfimhihjinhmkmi kqnkmhmlikhflggmff o |
  1
<0:;8: {rn {mof {non {mno {mnn 90-(>-; {mi {rn |
  1
<0:;8: {rn {mnm {mnl {non {njl 90-(>-; {mnk {rn |
  1
:;8: {mnj {mni {njg {njm {mnh 90-(>-; |
  1
<0:;8: {rn {mng {nom {nog {nhn -:):-,:; {nji {rn |
  1
<0:;8: {rn {nom {mng {mnm {mnf -:):-,:; {nji {rn |
  1
300/ {rn {rn {njk {mmo |
  1
/+36,+r:&:r>++-6= {rn {rn {rn {nol |
  1
):-+:' {rn {mnf {mmn |
  1
:336/,:r<*-): {rn rfiqgfimhihjinhmkmi rngqljhmhiljmoinnh g o o rn n o o n V V |
  1
<0:;8: {rn {nok {mof {mmm {mml 90-(>-; {mi {rn |
  1
<0:;8: {rn {nlj {mmk {nok {nim 90-(>-; {fo {rn |
  1
:;8: {mmj {nih {mmi {nin {mmh 90-(>-; |
  1
<0:;8: {rn {mmg {noj {mmk {mmf -:):-,:; {nij {rn |
  1
<0:;8: {rn {noj {mmg {noh {nho -:):-,:; {nij {rn |
  1
300/ {rn {rn {nil {mlo |
  1
/+36,+r:&:r>++-6= {rn {rn {rn {noi |
  1
):-+:' {rn {mmf {mln |
  1
:336/,:r<*-): {rn rgiqgfimhihjinhmkmi rngqljhmhiljmoinnh g o o rn n o o n V V |
  1
<0:;8: {rn {nog {noh {mlm {mll 90-(>-; {nof {rn |
  1
:;8: {mlk {nnm {mlj {noh {mli 90-(>-; |
  1
:;8: {mlh {mlg {nnn {nog {mlf 90-(>-; |
  1
/061+ {rn rfiqgfimhihjinhmkmi rnfqljhmhiljmoinnh g |
  1
/061+ {rn rgiqgfimhihjinhmkmi rnfqljhmhiljmoinnh g |
  1
/+36,+r:&:r>++-6= {rn {rn {rn {nnk |
  1
,+->687+r<*-): {rn rhkqlfimhihjinhmkmi kqnkmhmlikhflggmff g rfqfnmhojjhhonolmjk:ronk nooo o V V |
  1
/061+ {rn rhkqlfimhihjinhmkmi kqnkmhmlikhflggmff g |
  1
/+36,+r:&:r>++-6= {rn {rn {rn {nmm |
  1
,+->687+r<*-): {rn rnofqlfimhihjinhmkl kqnkmhmlikhflggmil g o o rnooo V V |
  1
/+36,+r:&:r>++-6= {rn {rn {rn {nmh |
  1
,+->687+r<*-): {rn rnofqlfimhihjinhmkl kqnkmhmlikhflggmil o rnooo rfqfnmhojjhhonolmjk:ronk o V V |
  1
/061+ {rn rnofqlfimhihjinhmkl kqnkmhmlikhflggmil o |
  1
-:9@)+r:&:r>++-6= {rn {rn {nlm {gf {k {j |
  1
92:,7r:&:r>++-6= {rn {mko {rn {nll |
  1
9><: {mkn {mlo {mkm {h {rn {mkl -:):-,:; ,6183: |
  1
/3>1:r,*-9><: {rn rnofqlfimhihjinhmkl kqnkmhmlikhflggmil g fqfnmhojjhhonolmjj:ronh rn o nooo fqfnmhojjhhonolmjk:ronk o 90-(>-;@) V V V V |
  1
<0:;8: {rn {mmk {nlj {mkk {mkj 90-(>-; {fo {rn |
  1
<0:;8: {rn {mmm {mki {nlj {ngg -:):-,:; {mkh {rn |
  1
:;8: {mkg {mmi {mkf {nlj {mjo 90-(>-; |
  1
<0:;8: {rn {mjn {mjm {nli {nfo -:):-,:; {mjl {rn |
  1
:;8: {mjk {nfj {mon {nli {mjj 90-(>-; |
  1
<0:;8: {rn {mji {nlh {nkm {moj -:):-,:; {nfl {rn |
  1
<0:;8: {rn {nlh {mji {mjn {mjh 90-(>-; {nfl {rn |
  1
300/ {rn {rn {nlh {mjg |
  1
/+36,+r:&:r>++-6= {rn {rn {rn {nlg |
  1
):-+:' {rn {mjh {mjf |
  1
,+->687+r<*-): {rn rnoiqgfimhihjinhmkl kqnkmhmlikhflggmil o fqfnmhojjhhonolmjk:ronk rnooo o V V |
  1
<0:;8: {rn {mio {nlf {mjm {min -:):-,:; {nff {rn |
  1
<0:;8: {rn {nlf {mio {nkn {mok 90-(>-; {nff {rn |
  1
300/ {rn {rn {nlf {mim |
  1
/+36,+r:&:r>++-6= {rn {rn {rn {nko |
  1
):-+:' {rn {min {mil |
  1
,+->687+r<*-): {rn rhiqgfimhihjinhmkmi kqnkmhmlikhflggmff o rfqfnmhojjhhonolmjk:ronk nooo o V V |
  1
<0:;8: {rn {nkm {nkn {mik {mij 90-(>-; {nkl {rn |
  1
:;8: {mii {mih {nkj {nfg {mig 90-(>-; |
  1
:;8: {mif {mho {nki {nkm {mhn 90-(>-; |
  1
9><: {mhm {mjg {nkl {h {rn {mhl 90-(>-; ,6183: |
  1
/061+ {rn rhiqgfimhihjinhmkmi nqikmhmlikhflgglni o |
  1
/061+ {rn rnoiqgfimhihjinhmkl nqikmhmlikhflggmgn o |
  1
<0:;8: {rn {nio {njn {mhk {mhj -:):-,:; {mi {rn |
  1
<0:;8: {rn {mhi {mhh {njn {mnn -:):-,:; {mhg {rn |
  1
:;8: {mhf {mni {mgo {njn {mgn 90-(>-; |
  1
<0:;8: {rn {mgm {njm {njj {mnf 90-(>-; {mnk {rn |
  1
<0:;8: {rn {njm {mgm {mhi {mgl 90-(>-; {mnk {rn |
  1
300/ {rn {rn {mnm {mgk |
  1
/+36,+r:&:r>++-6= {rn {rn {rn {njl |
  1
):-+:' {rn {mgl {mgj |
  1
,+->687+r<*-): {rn rfhqgfimhihjinhmkmi rhqljhmhiljmoinnhon g nqkkjiomgfiikhllfm:ronl rnooo o V V |
  1
<0:;8: {rn {njj {njk {mgi {mgh 90-(>-; {nji {rn |
  1
:;8: {mgg {njg {mgf {mnm {mfo 90-(>-; |
  1
9><: {mfn {mim {nji {h {rn {mfm 90-(>-; ,6183: |
  1
/061+ {rn rfhqgfimhihjinhmkmi rngqljhmhiljmoinnh g |
  1
<0:;8: {rn {mfl {ngh {nio {mml -:):-,:; {mkh {rn |
  1
:;8: {mfk {mfj {mmi {nio {mfi 90-(>-; |
  1
<0:;8: {rn {nin {ngi {nil {mmf 90-(>-; {fo {rn |
  1
/+36,+r:&:r>++-6= {rn {rn {rn {nim |
  1
):-+:' {rn {ngg {mfh |
  1
,+->687+r<*-): {rn rgjqgfimhihjinhmkmi rhqljhmhiljmoinnhon g rhqmmgonkkglmliifjg:ronk nooo o V V |
  1
<0:;8: {rn {nik {nil {mfg {mff 90-(>-; {nij {rn |
  1
:;8: {loo {lon {nih {mmk {lom 90-(>-; |
  1
9><: {lol {lok {nij {h {rn {loj 90-(>-; ,6183: |
  1
/061+ {rn rgjqgfimhihjinhmkmi rngqljhmhiljmoinnh g |
  1
<0:;8: {rn {loi {loh {nif {mll -:):-,:; {log {rn |
  1
:;8: {lof {mlj {mlg {nif {lno 90-(>-; |
  1
/+36,+r:&:r>++-6= {rn {rn {rn {nho |
  1
):-+:' {rn {mll {lnn |
  1
,+->687+r<*-): {rn rgiqgfimhihjinhmkmi rnfqljhmhiljmoinnh fqoooooooooooooong o o nooo V V |
  1
/+36,+r:&:r>++-6= {rn {rn {rn {nhn |
  1
):-+:' {rn {mll {lnm |
  1
,+->687+r<*-): {rn rfiqgfimhihjinhmkmi rnfqljhmhiljmoinnh fqoooooooooooooong o o rnooo V V |
  1
-:9@)+r:&:r>++-6= {rn {rn {ngl {nll {k {j |
  1
92:,7r:&:r>++-6= {rn {lnl {rn {ngk |
  1
300/ {rn {rn {lnk {ngk |
  1
/3>1:r,*-9><: {rn rfhqgfimhihjinhmkmi rhqljhmhiljmoinnhon fqoooooooooooooong o rn o o o rnooo 90-(>-;@) V V V V |
  1
<0:;8: {rn {lnj {lni {ngi {mkj -:):-,:; {lnh {rn |
  1
:;8: {lng {mkf {lon {ngi {lnf 90-(>-; |
  1
<0:;8: {rn {ngh {mfl {lmo {lmn 90-(>-; {mkh {rn |
  1
300/ {rn {rn {mfl {lmm |
  1
/+36,+r:&:r>++-6= {rn {rn {rn {ngg |
  1
):-+:' {rn {mkj {lml |
  1
,+->687+r<*-): {rn rgjqgfimhihjinhmkmi rgqljhmhiljmoinnhon fqoooooooooooooong o o nooo V V |
  1
<0:;8: {rn {lmk {ngf {nfm {mjh -:):-,:; {mjl {rn |
  1
<0:;8: {rn {ngf {lmk {nfh {min 90-(>-; {mjl {rn |
  1
300/ {rn {rn {ngf {lmj |
  1
/+36,+r:&:r>++-6= {rn {rn {rn {nfo |
  1
,+->687+r<*-): {rn rnofqlfimhihjinhmkl rmgqljhmhiljmoinnh o nooo o o V V |
  1
<0:;8: {rn {nfm {nfn {lmi {lmh 90-(>-; {nfl {rn |
  1
:;8: {lmg {lmf {nfj {nfm {llo 90-(>-; |
  1
9><: {lln {llm {nfl {h {rn {lll 90-(>-; ,6183: |
  1
/061+ {rn rnoiqgfimhihjinhmkl rmgqljhmhiljmoinnh o |
  1
<0:;8: {rn {nfg {nfh {llk {llj 90-(>-; {nff {rn |
  1
:;8: {lli {llh {mon {mjm {llg 90-(>-; |
  1
9><: {llf {lmj {nff {h {rn {lko 90-(>-; ,6183: |
  1
/061+ {rn rhiqgfimhihjinhmknm rmgqljhmhiljmoinnh o |
  1
<0:;8: {rn {llk {lmi {mol {mij -:):-,:; {lkn {rn |
  1
:;8: {lkm {mih {mho {mol {lkl 90-(>-; |
  1
/+36,+r:&:r>++-6= {rn {rn {rn {mok |
  1
):-+:' {rn {mij {lkk |
  1
,+->687+r<*-): {rn rhiqgfimhihjinhmkmi nqikmhmlikhflgglni g o o rnooo V V |
  1
/+36,+r:&:r>++-6= {rn {rn {rn {moj |
  1
):-+:' {rn {mij {lkj |
  1
,+->687+r<*-): {rn rnoiqgfimhihjinhmkl nqikmhmlikhflggmgn g o o rnooo V V |
  1
92:,7r:&:r>++-6= {rn {lki {rn {moi |
  1
/3>1:r,*-9><: {rn rnofqlfimhihjinhmkl nqikmhmlikhflggmgn g fqfnmhojjhhonolmjj:ronh rn o nooo fqfnmhojjhhonolmjk:ronk o 90-(>-;@) V V V V |
  1
<0:;8: {rn {lnk {lkh {mof {mhj 90-(>-; {mkm {rn |
  1
:;8: {lkg {mfj {mgo {mhk {lkf 90-(>-; |
  1
<0:;8: {rn {ljo {mno {mnl {mgl -:):-,:; {mhg {rn |
  1
<0:;8: {rn {mno {ljo {lnk {ljn -:):-,:; {mhg {rn |
  1
300/ {rn {rn {mhi {lok |
  1
/+36,+r:&:r>++-6= {rn {rn {rn {mnn |
  1
):-+:' {rn {ljn {ljm |
  1
:336/,:r<*-): {rn rfiqgfimhihjinhmkmi rgqljhmhiljmoinnhon g o o rn n o o n V V |
  1
<0:;8: {rn {mnl {mnm {ljl {ljk 90-(>-; {mnk {rn |
  1
:;8: {ljj {lji {mni {mnl {ljh 90-(>-; |
  1
9><: {ljg {lmm {mnk {h {rn {ljf -:):-,:; ,6183: |
  1
/061+ {rn rfhqgfimhihjinhmkmi rgqljhmhiljmoinnhon g |
  1
<0:;8: {rn {lio {lin {mng {mgh -:):-,:; {lim {rn |
  1
:;8: {lil {mlg {mgf {mng {lik 90-(>-; |
  1
/+36,+r:&:r>++-6= {rn {rn {rn {mnf |
  1
):-+:' {rn {mnf {lij |
  1
,+->687+r<*-): {rn rfhqgfimhihjinhmkmi rngqljhmhiljmoinnh fqoooooooooooooong o o nooo V V |
  1
92:,7r:&:r>++-6= {rn {lii {rn {mmo |
  1
<01:r,*-9><: {rn rfiqgfimhihjinhmkmi rngqljhmhiljmoinnh fqoooooooooooooong o o rn rn o o n V V o n n 90-(>-; V V V V |
  1
<0:;8: {rn {mki {mmm {lkh {lih -:):-,:; {mkh {rn |
  1
/+36,+r:&:r>++-6= {rn {rn {rn {mml |
  1
):-+:' {rn {lih {lig |
  1
:336/,:r<*-): {rn rgiqgfimhihjinhmkmi rgqljhmhiljmoinnhon g o o rn n o o n V V |
  1
/061+ {rn rgjqgfimhihjinhmkmi rgqljhmhiljmoinnhon g |
  1
<0:;8: {rn {lif {lho {mmg {mff -:):-,:; {lhn {rn |
  1
:;8: {lhm {lon {mlj {mmg {lhl 90-(>-; |
  1
/+36,+r:&:r>++-6= {rn {rn {rn {mmf |
  1
):-+:' {rn {mkj {lhk |
  1
,+->687+r<*-): {rn rgjqgfimhihjinhmkmi rngqljhmhiljmoinnh fqoooooooooooooong o o rnooo V V |
  1
92:,7r:&:r>++-6= {rn {lhj {rn {mlo |
  1
9><: {lhi {mgk {mhg {h {rn {lhh 90-(>-; ,6183: |
  1
<01:r,*-9><: {rn rgiqgfimhihjinhmkmi rngqljhmhiljmoinnh fqoooooooooooooong o o rn rn o o n V V o n n 90-(>-; V V V V |
  1
<0:;8: {rn {lhg {mlm {lho {lhf 90-(>-; {log {rn |
  1
<0:;8: {rn {mlm {lhg {lio {lgo -:):-,:; {log {rn |
  1
300/ {rn {rn {loi {lgn |
  1
/+36,+r:&:r>++-6= {rn {rn {rn {mll |
  1
,+->687+r<*-): {rn rfiqgfimhihjinhmkmi rnfqljhmhiljmoinnh gqfooooooooooooomn rnooo o o V V |
  1
/061+ {rn rgiqgfimhihjinhmkmi rnfqljhmhiljmoinnh gqfooooooooooooomn |
  1
/061+ {rn rfiqgfimhihjinhmkmi rnfqljhmhiljmoinnh gqfooooooooooooomn |
  1
-:9@)+r:&:r>++-6= {rn {rn {mkn {ngk {k {j |
  1
<0:;8: {rn {lgm {mhk {mhh {ljn 90-(>-; {mkm {rn |
  1
<0:;8: {rn {lgl {mkk {lgk {lgj -:):-,:; {lnh {rn |
  1
<0:;8: {rn {mkk {lgl {lif {lgi 90-(>-; {lnh {rn |
  1
300/ {rn {rn {lni {llm |
  1
/+36,+r:&:r>++-6= {rn {rn {rn {mkj |
  1
,+->687+r<*-): {rn rgjqgfimhihjinhmkmi rngqljhmhiljmoinnh gqfooooooooooooomn hqmmgonkkglmliifjg:ronk rnooo o V V |
  1
<0:;8: {rn {lgh {lgk {mki {lmn -:):-,:; {lgg {rn |
  1
:;8: {lgf {lfo {mkf {mki {lfn 90-(>-; |
  1
9><: {lfm {mmo {mkh {h {rn {lfl 90-(>-; ,6183: |
  1
/061+ {rn rgjqgfimhihjinhmkmi rgqljhmhiljmoinnhon gqfooooooooooooomn |
  1
<0:;8: {rn {mjm {mjn {lfk {lfj 90-(>-; {mjl {rn |
  1
9><: {lfi {moi {mjl {h {rn {lfh 90-(>-; ,6183: |
  1
<0:;8: {rn {mik {lfk {mji {lmh -:):-,:; {lkn {rn |
  1
:;8: {lfg {mho {lmf {mji {lff 90-(>-; |
  1
/+36,+r:&:r>++-6= {rn {rn {rn {mjh |
  1
):-+:' {rn {lfj {koo |
  1
,+->687+r<*-): {rn rnoiqgfimhihjinhmkl rmgqljhmhiljmoinnh g o o rnooo V V |
  1
92:,7r:&:r>++-6= {rn {kon {rn {mjg |
  1
9><: {kom {lgn {lnh {h {rn {kol 90-(>-; ,6183: |
  1
/3>1:r,*-9><: {rn rnoiqgfimhihjinhmkl kqnkmhmlikhflggmil g n fqfnmhojjhhonolmjj:ronh o rfqfnmhojjhhonolmjk:ronk nooo o 90-(>-;@) V V V V |
  1
<0:;8: {rn {lfk {mik {mio {llj -:):-,:; {lkn {rn |
  1
:;8: {kok {llh {mih {mio {koj 90-(>-; |
  1
/+36,+r:&:r>++-6= {rn {rn {rn {min |
  1
):-+:' {rn {min {koi |
  1
,+->687+r<*-): {rn rhiqgfimhihjinhmknm rmgqljhmhiljmoinnh g o o rnooo V V |
  1
92:,7r:&:r>++-6= {rn {koh {rn {mim |
  1
/3>1:r,*-9><: {rn rhiqgfimhihjinhmkmi kqnkmhmlikhflggmff g rn rfqfnmhojjhhonolmjj:ronh o fqfnmhojjhhonolmjk:ronk rnooo o 90-(>-;@) V V V V |
  1
300/ {rn {rn {lmi {kog |
  1
/+36,+r:&:r>++-6= {rn {rn {rn {mij |
  1
,+->687+r<*-): {rn rnofqlfimhihjinhmkl nqikmhmlikhflggmgn jqj rnooo rfqfnmhojjhhonolmjk:ronk o V V |
  1
/061+ {rn rhiqgfimhihjinhmkmi nqikmhmlikhflgglni jqj |
  1
/061+ {rn rnoiqgfimhihjinhmkl nqikmhmlikhflggmgn jqj |
  1
-:9@)+r:&:r>++-6= {rn {rn {mhm {moi {k {j |
  1
<0:;8: {rn {mhk {lgm {mfl {lih 90-(>-; {mkm {rn |
  1
/+36,+r:&:r>++-6= {rn {rn {rn {mhj |
  1
,+->687+r<*-): {rn rfhqgfimhihjinhmkmi rhqljhmhiljmoinnhon g rnooo o o V V |
  1
<0:;8: {rn {mhh {mhi {kof {kno 90-(>-; {mhg {rn |
  1
:;8: {knn {mgo {knm {lnk {knl 90-(>-; |
  1
/061+ {rn rfiqgfimhihjinhmkmi rhqljhmhiljmoinnhon g |
  1
<0:;8: {rn {knk {knj {mgm {ljk -:):-,:; {kni {rn |
  1
:;8: {knh {mgf {lji {mgm {kng 90-(>-; |
  1
/+36,+r:&:r>++-6= {rn {rn {rn {mgl |
  1
):-+:' {rn {mgl {knf |
  1
,+->687+r<*-): {rn rfhqgfimhihjinhmkmi rgqljhmhiljmoinnhon fqoooooooooooooong o o rnooo V V |
  1
92:,7r:&:r>++-6= {rn {kmo {rn {mgk |
  1
/3>1:r,*-9><: {rn rfhqgfimhihjinhmkmi rhqljhmhiljmoinnhon fqoooooooooooooong n nqkkjiomgfiikhllfm:roni o rnqkkjiomgfiikhllfm:ronl nooo o 90-(>-;@) V V V V |
  1
<0:;8: {rn {kmn {mgi {loh {lgo 90-(>-; {lim {rn |
  1
<0:;8: {rn {mgi {kmn {knk {kmm -:):-,:; {lim {rn |
  1
300/ {rn {rn {lio {kml |
  1
/+36,+r:&:r>++-6= {rn {rn {rn {mgh |
  1
:336/,:r<*-): {rn rfiqgfimhihjinhmkmi rngqljhmhiljmoinnh gqfooooooooooooomn o o rn n o o n V V |
  1
/061+ {rn rfhqgfimhihjinhmkmi rngqljhmhiljmoinnh gqfooooooooooooomn |
  1
-:9@)+r:&:r>++-6= {rn {rn {mfn {mmo {k {j |
  1
:;8: {kmk {lfo {mfj {lkh {kmj 90-(>-; |
  1
/061+ {rn rgiqgfimhihjinhmkmi rhqljhmhiljmoinnhon g |
  1
<0:;8: {rn {kmi {mfg {lni {lgi -:):-,:; {lhn {rn |
  1
<0:;8: {rn {mfg {kmi {loi {lhf -:):-,:; {lhn {rn |
  1
300/ {rn {rn {lho {kmh |
  1
/+36,+r:&:r>++-6= {rn {rn {rn {mff |
  1
:336/,:r<*-): {rn rgiqgfimhihjinhmkmi rngqljhmhiljmoinnh gqfooooooooooooomn o o rn n o o n V V |
  1
/061+ {rn rgjqgfimhihjinhmkmi rngqljhmhiljmoinnh gqfooooooooooooomn |
  1
-:9@)+r:&:r>++-6= {rn {rn {lol {mlo {k {j |
  1
92:,7r:&:r>++-6= {rn {kmg {rn {lok |
  1
<01:r,*-9><: {rn rfiqgfimhihjinhmkmi rgqljhmhiljmoinnhon fqoooooooooooooong o o rn rn o o n V V o n n 90-(>-; V V V V |
  1
<0:;8: {rn {loh {loi {kmf {klo -:):-,:; {log {rn |
  1
:;8: {kln {mlj {klm {loi {kll 90-(>-; |
  1
:;8: {klk {mlg {klj {lio {kli 90-(>-; |
  1
9><: {klh {klg {log {h {rn {klf 90-(>-; ,6183: |
  1
<0:;8: {rn {lkh {lnk {kko {kkn 90-(>-; {mkm {rn |
  1
<0:;8: {rn {lni {lnj {kkm {kkl -:):-,:; {lnh {rn |
  1
<0:;8: {rn {lmo {kkk {lnj {lgj 90-(>-; {lgg {rn |
  1
:;8: {kkj {kki {mkf {lgk {kkh 90-(>-; |
  1
:;8: {kkg {kkf {lon {lni {kjo 90-(>-; |
  1
<0:;8: {rn {kkk {lmo {kjn {kjm -:):-,:; {lgg {rn |
  1
300/ {rn {rn {lgk {kjl |
  1
/+36,+r:&:r>++-6= {rn {rn {rn {lmn |
  1
):-+:' {rn {kkn {kjk |
  1
:336/,:r<*-): {rn rgiqgfimhihjinhmkmi rgqljhmhiljmoinnhon gqfooooooooooooomn o o rn n o o n V V |
  1
92:,7r:&:r>++-6= {rn {kjj {rn {lmm |
  1
<01:r,*-9><: {rn rgiqgfimhihjinhmkmi rgqljhmhiljmoinnhon fqoooooooooooooong o o rn rn o o n V V o n n 90-(>-; V V V V |
  1
<0:;8: {rn {lmi {llk {lmk {lfj -:):-,:; {lkn {rn |
  1
:;8: {kji {lmf {llh {lmk {kjh 90-(>-; |
  1
92:,7r:&:r>++-6= {rn {kjg {rn {lmj |
  1
/3>1:r,*-9><: {rn rnofqlfimhihjinhmkl rmgqljhmhiljmoinnh g o n o o o nooo 90-(>-;@) V V V V |
  1
/+36,+r:&:r>++-6= {rn {rn {rn {lmh |
  1
,+->687+r<*-): {rn rnoiqgfimhihjinhmkl kqnkmhmlikhflggmil jqj fqfnmhojjhhonolmjk:ronk rnooo o V V |
  1
/061+ {rn rnoiqgfimhihjinhmkl rmgqljhmhiljmoinnh jqj |
  1
-:9@)+r:&:r>++-6= {rn {rn {lln {mjg {k {j |
  1
92:,7r:&:r>++-6= {rn {kjf {rn {llm |
  1
<01:r,*-9><: {rn rgjqffimhihjinhmkmn rnfqljhmhiljmoinnh gqfooooooooooooomn hqmmgonkkglmliifjg:ronh rn o oqnoooooooooooooomi o o n V V o n oqnoooooooooooooomi 90-(>-; V V V V |
  1
/+36,+r:&:r>++-6= {rn {rn {rn {llj |
  1
,+->687+r<*-): {rn rhiqgfimhihjinhmkmi kqnkmhmlikhflggmff jqj rfqfnmhojjhhonolmjk:ronk nooo o V V |
  1
/061+ {rn rhiqgfimhihjinhmknm rmgqljhmhiljmoinnh jqj |
  1
-:9@)+r:&:r>++-6= {rn {rn {llf {mim {k {j |
  1
9><: {kio {kin {kim {h {rn {kil -:):-,:; ,6183: |
  1
<0:;8: {rn {kik {kij {ljo {kno -:):-,:; {kii {rn |
  1
:;8: {kih {lji {knm {ljo {kig 90-(>-; |
  1
/+36,+r:&:r>++-6= {rn {rn {rn {ljn |
  1
):-+:' {rn {kkn {kif |
  1
,+->687+r<*-): {rn rfiqgfimhihjinhmkmi rhqljhmhiljmoinnhon fqoooooooooooooong o o nooo V V |
  1
<0:;8: {rn {kho {ljl {lin {kmm 90-(>-; {kni {rn |
  1
<0:;8: {rn {ljl {kho {kik {khn -:):-,:; {kni {rn |
  1
300/ {rn {rn {knk {khm |
  1
/+36,+r:&:r>++-6= {rn {rn {rn {ljk |
  1
,+->687+r<*-): {rn rfhqgfimhihjinhmkmi rgqljhmhiljmoinnhon gqfooooooooooooomn rnqkkjiomgfiikhllfm:ronl nooo o V V |
  1
/061+ {rn rfhqgfimhihjinhmkmi rgqljhmhiljmoinnhon gqfooooooooooooomn |
  1
-:9@)+r:&:r>++-6= {rn {rn {ljg {mgk {k {j |
  1
<0:;8: {rn {lin {lio {khl {khk -:):-,:; {lim {rn |
  1
:;8: {khj {mgf {khi {knk {khh 90-(>-; |
  1
9><: {khg {kog {lim {h {rn {khf 90-(>-; ,6183: |
  1
/+36,+r:&:r>++-6= {rn {rn {rn {lih |
  1
,+->687+r<*-): {rn rgiqgfimhihjinhmkmi rhqljhmhiljmoinnhon fqoooooooooooooong o o rnooo V V |
  1
<0:;8: {rn {lho {lif {kgo {kgn -:):-,:; {lhn {rn |
  1
9><: {kgm {kgl {lhn {h {rn {kgk 90-(>-; ,6183: |
  1
-:9@)+r:&:r>++-6= {rn {rn {lhi {lok {k {j |
  1
<0:;8: {rn {kgo {khl {lhg {klo 90-(>-; {kgj {rn |
  1
:;8: {kgi {klj {klm {kmf {kgh 90-(>-; |
  1
/+36,+r:&:r>++-6= {rn {rn {rn {lhf |
  1
):-+:' {rn {kgn {kgg |
  1
:336/,:r<*-): {rn rgiqgfimhihjinhmkmi rnfqmjhmhiljmoinnif gqfooooooooooooomn rn o o o o oqofffffffffffffflfj n V V |
  1
/+36,+r:&:r>++-6= {rn {rn {rn {lgo |
  1
):-+:' {rn {klo {kgf |
  1
:336/,:r<*-): {rn rfiqgfimhihjinhmkmi rnfqmjhmhiljmoinnif gqfooooooooooooomn rn o o o o oqofffffffffffffflfj n V V |
  1
92:,7r:&:r>++-6= {rn {kfo {rn {lgn |
  1
9><: {kfn {kmh {kfm {h {rn {kfl 90-(>-; ,6183: |
  1
<01:r,*-9><: {rn rfhqgfimhihjinhmkmi rnfqmjhmhiljmoinnif gqfooooooooooooomn rn o o o o oqofffffffffffffflfj n V V o n oqofffffffffffffflfj 90-(>-; V V V V |
  1
<0:;8: {rn {kfk {kjn {lgm {kkn -:):-,:; {kfm {rn |
  1
:;8: {kfj {knm {lfo {lgm {kfi 90-(>-; |
  1
<0:;8: {rn {kfh {kgo {lgl {kkl 90-(>-; {kgj {rn |
  1
:;8: {kfg {kkf {kki {kkm {kff 90-(>-; |
  1
<0:;8: {rn {lgk {lgh {kfh {joo -:):-,:; {lgg {rn |
  1
/+36,+r:&:r>++-6= {rn {rn {rn {lgj |
  1
):-+:' {rn {kkl {jon |
  1
:336/,:r<*-): {rn rgjqffimhihjinhmkmn rgqljhmhiljmoinnhon gqfooooooooooooomn o n o o o oqofffffffffffffflfj n V V |
  1
/+36,+r:&:r>++-6= {rn {rn {rn {lgi |
  1
):-+:' {rn {kkl {jom |
  1
:336/,:r<*-): {rn rgjqffimhihjinhmkmn rngqljhmhiljmoinnh gqfooooooooooooomn o n o o o oqofffffffffffffflfj n V V |
  1
<0:;8: {rn {kko {jol {lgh {kjm 90-(>-; {kfm {rn |
  1
:;8: {jok {joj {lfo {kjn {joi 90-(>-; |
  1
9><: {joh {kml {lgg {h {rn {jog 90-(>-; ,6183: |
  1
/061+ {rn rgiqgfimhihjinhmkmi rhqljhmhiljmoinnhon gqfooooooooooooomn |
  1
-:9@)+r:&:r>++-6= {rn {rn {lfm {lmm {k {j |
  1
/+36,+r:&:r>++-6= {rn {rn {rn {lfj |
  1
,+->687+r<*-): {rn rnofqlfimhihjinhmkl rmgqljhmhiljmoinnh jqj nooo o o V V |
  1
-:9@)+r:&:r>++-6= {rn {rn {lfi {lmj {k {j |
  1
-:9@)+r:&:r>++-6= {rn {rn {kom {llm {k {j |
  1
92:,7r:&:r>++-6= {rn {jof {rn {kog |
  1
9><: {jno {jnn {jnm {h {rn {jnl 90-(>-; ,6183: |
  1
300/ {rn {lkn {jnk {kog |
  1
/3>1:r,*-9><: {rn rnofqlfimhihjinhmkl kqnkmhmlikhflggmil jqj o o n nooo o o 90-(>-;@) V V V V |
  1
<0:;8: {rn {jnj {kof {knj {khn 90-(>-; {kii {rn |
  1
<0:;8: {rn {kof {jnj {kfk {jni 90-(>-; {kii {rn |
  1
300/ {rn {rn {kij {kgl |
  1
/+36,+r:&:r>++-6= {rn {rn {rn {kno |
  1
:336/,:r<*-): {rn rfiqgfimhihjinhmkmi rgqljhmhiljmoinnhon gqfooooooooooooomn o o rn n o o n V V |
  1
/061+ {rn rfiqgfimhihjinhmkmi rhqljhmhiljmoinnhon gqfooooooooooooomn |
  1
<0:;8: {rn {knj {knk {jnh {jng -:):-,:; {kni {rn |
  1
:;8: {jnf {lji {jmo {kik {jmn 90-(>-; |
  1
9><: {jmm {kjl {kni {h {rn {jml 90-(>-; ,6183: |
  1
<0:;8: {rn {kmf {jnh {kmn {khk 90-(>-; {kgj {rn |
  1
:;8: {jmk {khi {klj {khl {jmj 90-(>-; |
  1
/+36,+r:&:r>++-6= {rn {rn {rn {kmm |
  1
):-+:' {rn {jng {jmi |
  1
:336/,:r<*-): {rn rfhqhfimhihjinhmklm rngqljhmhiljmoinnh gqfooooooooooooomn o n o o o oqofffffffffffffflfj n V V |
  1
92:,7r:&:r>++-6= {rn {jmh {rn {kml |
  1
+0-*,r,*-9><: {rn rfiqgfimhihjinhmkmi rngqljhmhiljmoinnh gqfooooooooooooomn o o n oqfooooooooooooooom oqnooooooooooooooon n o o 90-(>-;@) V V V V |
  1
<0:;8: {rn {kkm {kmf {kmi {kgn 90-(>-; {kgj {rn |
  1
:;8: {jmg {klm {kkf {kgo {jmf 90-(>-; |
  1
92:,7r:&:r>++-6= {rn {jlo {rn {kmh |
  1
9><: {jln {khm {kii {h {rn {jlm 90-(>-; ,6183: |
  1
+0-*,r,*-9><: {rn rgiqgfimhihjinhmkmi rngqljhmhiljmoinnh gqfooooooooooooomn o o n oqfooooooooooooooom oqnooooooooooooooon n o o 90-(>-;@) V V V V |
  1
300/ {rn {rn {jll {kin |
  1
/+36,+r:&:r>++-6= {rn {rn {rn {klo |
  1
,+->687+r<*-): {rn rgiqgfimhihjinhmkmi rnfqmjhmhiljmoinnif fqoooooooooooooong nooo o o V V |
  1
/061+ {rn rgiqgfimhihjinhmkmi rnfqmjhmhiljmoinnif fqoooooooooooooong |
  1
/061+ {rn rfiqgfimhihjinhmkmi rnfqmjhmhiljmoinnif fqoooooooooooooong |
  1
-:9@)+r:&:r>++-6= {rn {rn {klh {lgn {k {j |
  1
92:,7r:&:r>++-6= {rn {jlk {rn {klg |
  1
300/ {rn {rn {kjn {klg |
  1
<01:r,*-9><: {rn rfhqgfimhihjinhmkmi rhqkjhmhiljmoinnifg gqfooooooooooooomn n o o o o roqofffffffffffffflfj n V V o n oqofffffffffffffflfj 90-(>-; V V V V |
  1
<0:;8: {rn {jol {kko {kij {jni -:):-,:; {kfm {rn |
  1
/+36,+r:&:r>++-6= {rn {rn {rn {kkn |
  1
,+->687+r<*-): {rn rgiqgfimhihjinhmkmi rhqljhmhiljmoinnhon gqfooooooooooooomn nooo o o V V |
  1
<0:;8: {rn {jll {kkm {kkk {joo 90-(>-; {kgj {rn |
  1
/+36,+r:&:r>++-6= {rn {rn {rn {kkl |
  1
,+->687+r<*-): {rn rgjqffimhihjinhmkmn rgqljhmhiljmoinnhon fqoooooooooooooong rhqmmgonkkglmliifjg:ronk nooo o V V |
  1
:;8: {jlj {kki {joj {kfh {jli 90-(>-; |
  1
/061+ {rn rgjqffimhihjinhmkmn rgqljhmhiljmoinnhon fqoooooooooooooong |
  1
/061+ {rn rgjqffimhihjinhmkmn rngqljhmhiljmoinnh fqoooooooooooooong |
  1
<0:;8: {rn {kjn {kfk {jll {jlh -:):-,:; {kfm {rn |
  1
/+36,+r:&:r>++-6= {rn {rn {rn {kjm |
  1
):-+:' {rn {jlh {jlg |
  1
:336/,:r<*-): {rn rgiqgfimhihjinhmkmi rhqkjhmhiljmoinnhoh gqfooooooooooooomn rn o o o o oqofffffffffffffflfj n V V |
  1
92:,7r:&:r>++-6= {rn {jlf {rn {kjl |
  1
+0-*,r,*-9><: {rn rgiqgfimhihjinhmkmi rgqljhmhiljmoinnhon gqfooooooooooooomn o o n oqfooooooooooooooom oqnooooooooooooooon n o o 90-(>-;@) V V V V |
  1
-:9@)+r:&:r>++-6= {rn {rn {kio {kog {k {j |
  1
92:,7r:&:r>++-6= {rn {jko {rn {kin |
  1
9><: {jkn {jkm {jkl {h {rn {jkk -:):-,:; ,6183: |
  1
300/ {rn {kgj {jkj {kin |
  1
/3>1:r,*-9><: {rn rfhqgfimhihjinhmkmi rnfqljhmhiljmoinnh fqoooooooooooooong o o n nooo o o 90-(>-;@) V V V V |
  1
<0:;8: {rn {jki {jki {jkh {jkg 90-(>-; {kim {rn |
  1
<0:;8: {rn {kij {kik {jkf {jjo -:):-,:; {kii {rn |
  1
:;8: {jjn {jjm {knm {kij {jjl 90-(>-; |
  1
<0:;8: {rn {khl {jkf {kho {jng 90-(>-; {kgj {rn |
  1
:;8: {jjk {jmo {khi {jnh {jjj 90-(>-; |
  1
/+36,+r:&:r>++-6= {rn {rn {rn {khn |
  1
):-+:' {rn {jng {jji |
  1
:336/,:r<*-): {rn rfhqhfimhihjinhmklm rgqljhmhiljmoinnhon gqfooooooooooooomn o n o o o oqofffffffffffffflfj n V V |
  1
92:,7r:&:r>++-6= {rn {jjh {rn {khm |
  1
<01:r,*-9><: {rn rfhqhfimhihjinhmklm rnfqljhmhiljmoinnh gqfooooooooooooomn rnqkkjiomgfiikhllfm:roni n o roqnoooooooooooooomi o o n V V o n oqnoooooooooooooomi 90-(>-; V V V V |
  1
/+36,+r:&:r>++-6= {rn {rn {rn {khk |
  1
:336/,:r<*-): {rn rfiqgfimhihjinhmkmi rngqljhmhiljmoinnh fqoooooooooooooong o o n oqgffffffffffffffg o o n V V |
  1
/061+ {rn rfhqhfimhihjinhmklm rngqljhmhiljmoinnh fqoooooooooooooong |
  1
-:9@)+r:&:r>++-6= {rn {rn {khg {kml {k {j |
  1
/+36,+r:&:r>++-6= {rn {rn {rn {kgn |
  1
:336/,:r<*-): {rn rgiqgfimhihjinhmkmi rngqljhmhiljmoinnh fqoooooooooooooong o o n oqgffffffffffffffg o o n V V |
  1
-:9@)+r:&:r>++-6= {rn {rn {kgm {kmh {k {j |
  1
92:,7r:&:r>++-6= {rn {jjg {rn {kgl |
  1
+0-*,r,*-9><: {rn rfiqgfimhihjinhmkmi rgqljhmhiljmoinnhon gqfooooooooooooomn o o n oqfooooooooooooooom oqnooooooooooooooon n o o 90-(>-;@) V V V V |
  1
<0:;8: {rn {jkf {kfh {jol {jlh 90-(>-; {kgj {rn |
  1
-:9@)+r:&:r>++-6= {rn {rn {kfn {klg {k {j |
  1
/+36,+r:&:r>++-6= {rn {rn {rn {joo |
  1
:336/,:r<*-): {rn rgiqgfimhihjinhmkmi rgqljhmhiljmoinnhon fqoooooooooooooong o o n oqgffffffffffffffg o o n V V |
  1
:;8: {jjf {joj {jjm {jll {jio 90-(>-; |
  1
/061+ {rn rgiqgfimhihjinhmkmi rhqkjhmhiljmoinnhoh fqoooooooooooooong |
  1
-:9@)+r:&:r>++-6= {rn {rn {joh {kjl {k {j |
  1
-:9@)+r:&:r>++-6= {rn {rn {jno {kin {k {j |
  1
92:,7r:&:r>++-6= {rn {jin {rn {jnn |
  1
9><: {jim {rn {jil {h {rn {jik -:):-,:; ,6183: |
  1
300/ {rn {rn {jij {jnn |
  1
<01:r,*-9><: {rn rfnqgfimhihjinhmkmi rnlqljhmhiljmoinnh o o o n k o o n V V o n k 90-(>-; V V V V |
  1
<0:;8: {rn {jii {jii {jih {jig -:):-,:; {jnm {rn |
  1
<0:;8: {rn {jnk {jnk {jif {jho 90-(>-; {kim {rn |
  1
<0:;8: {rn {jhn {jij {jnk {jkg -:):-,:; {jkl {rn |
  1
:;8: {jhm {jhl {jhk {jnk {jhj 90-(>-; |
  1
<0:;8: {rn {jnh {jll {jnj {jjo 90-(>-; {kgj {rn |
  1
:;8: {jhi {jjm {jmo {jkf {jhh 90-(>-; |
  1
/+36,+r:&:r>++-6= {rn {rn {rn {jni |
  1
):-+:' {rn {jlh {jhg |
  1
:336/,:r<*-): {rn rfiqgfimhihjinhmkmi rhqkjhmhiljmoinnifg gqfooooooooooooomn rn o o o o oqofffffffffffffflfj n V V |
  1
/+36,+r:&:r>++-6= {rn {rn {rn {jng |
  1
,+->687+r<*-): {rn rfhqhfimhihjinhmklm rngqljhmhiljmoinnh fqoooooooooooooong nqkkjiomgfiikhllfm:ronl rnooo o V V |
  1
/061+ {rn rfhqhfimhihjinhmklm rgqljhmhiljmoinnhon fqoooooooooooooong |
  1
-:9@)+r:&:r>++-6= {rn {rn {jmm {khm {k {j |
  1
-:9@)+r:&:r>++-6= {rn {rn {jln {kgl {k {j |
  1
/+36,+r:&:r>++-6= {rn {rn {rn {jlh |
  1
,+->687+r<*-): {rn rfiqgfimhihjinhmkmi rhqkjhmhiljmoinnifg fqoooooooooooooong rnooo o o V V |
  1
-:9@)+r:&:r>++-6= {rn {rn {jkn {jnn {k {j |
  1
92:,7r:&:r>++-6= {rn {jhf {rn {jkm |
  1
300/ {rn {rn {jif {jkm |
  1
<01:r,*-9><: {rn rfnqgfimhihjinhmkmi rnlqljhmhiljmoinnh o o o n k o o n V V o n k 90-(>-; V V V V |
  1
<0:;8: {rn {jkh {jih {jgo {jgn -:):-,:; {jkl {rn |
  1
<0:;8: {rn {jkj {jkj {jgm {jgl -:):-,:; {jnm {rn |
  1
<0:;8: {rn {jij {jhn {jkj {jig 90-(>-; {jkl {rn |
  1
:;8: {jgk {jgj {jgi {jih {jgh 90-(>-; |
  1
<0:;8: {rn {jgo {jgg {jki {jho -:):-,:; {jil {rn |
  1
:;8: {jgf {jhk {jhl {jki {jfo 90-(>-; |
  1
<0:;8: {rn {jih {jkh {jgg {jfn 90-(>-; {jkl {rn |
  1
/+36,+r:&:r>++-6= {rn {rn {rn {jkg |
  1
):-+:' {rn {jkg {jfm |
  1
):-+:' {rn {jkg {jfl |
  1
:336/,:r<*-): {rn rfnqgfimhihjinhmkmi rnlqljhmhiljmoinnh jqj o o n k o o n V V |
  1
/+36,+r:&:r>++-6= {rn {rn {rn {jjo |
  1
:336/,:r<*-): {rn rfiqgfimhihjinhmkmi rgqljhmhiljmoinnhon fqoooooooooooooong o o n oqgffffffffffffffg o o n V V |
  1
/061+ {rn rfiqgfimhihjinhmkmi rhqkjhmhiljmoinnifg fqoooooooooooooong |
  1
-:9@)+r:&:r>++-6= {rn {rn {jim {jkm {k {j |
  1
<0:;8: {rn {jgm {jif {jij {jgn 90-(>-; {jil {rn |
  1
:;8: {jfk {jhk {jgi {jgo {jfj 90-(>-; |
  1
<0:;8: {rn {jgg {jgo {jii {jgl 90-(>-; {jil {rn |
  1
:;8: {jfi {jgi {jgj {jgm {jfh 90-(>-; |
  1
/+36,+r:&:r>++-6= {rn {rn {rn {jig |
  1
):-+:' {rn {jig {jfg |
  1
):-+:' {rn {jig {jff |
  1
:336/,:r<*-): {rn rfnqgfimhihjinhmkmi rnlqljhmhiljmoinnh fqoooooooooooooong o o n k o o n V V |
  1
<0:;8: {rn {jif {jgm {jhn {jfn -:):-,:; {jil {rn |
  1
/+36,+r:&:r>++-6= {rn {rn {rn {jho |
  1
:336/,:r<*-): {rn rfnqgfimhihjinhmkmi rnlqljhmhiljmoinnh jqj o o n k o o n V V |
  1
:;8: {ioo {jhl {jgj {jhn {ion 90-(>-; |
  1
/061+ {rn rghqgfimhihjinhmkmi rnlqljhmhiljmoinnh jqj |
  1
/061+ {rn rfjqgfimhihjinhmkmi rnlqljhmhiljmoinnh jqj |
  1
/+36,+r:&:r>++-6= {rn {rn {rn {jgn |
  1
,+->687+r<*-): {rn rfjqgfimhihjinhmkmi rnlqljhmhiljmoinnh o o o nooo V V |
  1
/+36,+r:&:r>++-6= {rn {rn {rn {jgl |
  1
:336/,:r<*-): {rn rfnqgfimhihjinhmkmi rnlqljhmhiljmoinnh fqoooooooooooooong o o n k o o n V V |
  1
/061+ {rn rghqgfimhihjinhmkmi rnlqljhmhiljmoinnh fqoooooooooooooong |
  1
/061+ {rn rfjqgfimhihjinhmkmi rnlqljhmhiljmoinnh fqoooooooooooooong |
  1
/+36,+r:&:r>++-6= {rn {rn {rn {jfn |
  1
,+->687+r<*-): {rn rghqgfimhihjinhmkmi rnlqljhmhiljmoinnh o o o nooo V V |
  0
INSERT
  5
B3D
330
1F
100
AcDbEntity
  8
ASHADE
 62
     1
100
AcDbBlockReference
  2
AVE_RENDER
 10
0.0
 20
0.0
 30
0.0
1001
AVE_RENDER
1002
{
1070
     7
1000
Pref
1070
    50
1070
    20
1070
     1
1070
     0
1000

1070
    10
1070
     1
1070
    10
1040
1.0
1070
     1
1040
0.7
1040
1.0
1040
0.0
1040
10.0
1010
-1.0
1020
-1.0
1030
-1.0
1040
0.3
1070
    49
1070
     0
1070
     0
1010
1.0
1020
1.0
1030
1.0
1040
45.0
1070
     1
1070
     0
1000
WCS
1040
0.0
1070
     0
1040
10.0
1002
}
  0
INSERT
  5
B3E
330
1F
100
AcDbEntity
  8
ASHADE
 62
     3
100
AcDbBlockReference
  2
AVE_RENDER
 10
0.0
 20
0.0
 30
0.0
1001
AVE_RENDER
1002
{
1070
     0
1000
Full Opt
1070
     0
1070
     1
1070
     1
1070
     1
1070
     0
1070
     0
1070
     0
1070
     1
1070
     1
1040
0.0001
1040
0.0001
1002
}
  0
INSERT
  5
B3F
330
1F
100
AcDbEntity
  8
ASHADE
 62
     4
100
AcDbBlockReference
  2
AVE_RENDER
 10
0.0
 20
0.0
 30
0.0
1001
AVE_RENDER
1002
{
1070
     0
1000
Quick Opt
1070
     0
1070
     1
1070
     1
1070
     1
1070
     0
1070
     0
1070
     1
1002
}
  0
INSERT
  5
B40
330
1F
100
AcDbEntity
  8
ASHADE
 62
     5
100
AcDbBlockReference
  2
AVE_RENDER
 10
0.0
 20
0.0
 30
0.0
1001
AVE_RENDER
1002
{
1070
     1
1000
Scanl Opt
1070
     2
1070
     0
1070
     2
1040
2.0
1040
4.0
1070
     0
1070
     1
1070
     0
1040
0.03
1002
}
  0
INSERT
  5
B41
330
1F
100
AcDbEntity
  8
ASHADE
 62
     6
100
AcDbBlockReference
  2
AVE_RENDER
 10
0.0
 20
0.0
 30
0.0
1001
AVE_RENDER
1002
{
1070
     2
1000
Raytr Opt
1070
     2
1070
     0
1070
     2
1040
2.0
1040
4.0
1070
     0
1070
     1
1070
     1
1040
0.03
1070
     3
1040
0.03
1002
}
  0
INSERT
  5
B42
330
1F
100
AcDbEntity
  8
ASHADE
 62
     7
100
AcDbBlockReference
  2
AVE_RENDER
 10
0.0
 20
0.0
 30
0.0
1001
AVE_RENDER
1002
{
1070
     0
1000
RFile Opt
1070
     1
1070
   640
1070
   480
1070
 10000
1070
     1
1070
     8
1070
     8
1070
     0
1070
     0
1070
     0
1070
     0
1070
     0
1070
     0
1070
     0
1002
}
  0
INSERT
  5
B43
330
1F
100
AcDbEntity
  8
ASHADE
 62
     8
100
AcDbBlockReference
  2
AVE_RENDER
 10
0.0
 20
0.0
 30
0.0
1001
AVE_RENDER
1002
{
1070
     0
1000
Fog Opt
1070
     0
1070
     0
1040
0.0
1040
1.0
1040
0.0
1040
1.0
1010
0.5
1020
0.5
1030
0.5
1002
}
  0
INSERT
  5
B44
330
1F
100
AcDbEntity
  8
ASHADE
 62
     9
100
AcDbBlockReference
  2
AVE_RENDER
 10
0.0
 20
0.0
 30
0.0
1001
AVE_RENDER
1002
{
1070
     0
1000
BG Opt
1070
     0
1070
     1
1010
0.0
1020
0.0
1030
0.0
1010
1.0
1020
0.0
1030
0.0
1010
0.0
1020
1.0
1030
0.0
1010
0.0
1020
0.0
1030
1.0
1040
0.5
1040
0.33
1040
0.0
1000

1070
     1
1000

1070
     1
1070
     1
1040
1.0
1040
1.0
1040
0.0
1040
0.0
1070
     0
1002
}
  0
INSERT
  5
B4B
330
1F
100
AcDbEntity
  8
ASHADE
 62
     1
100
AcDbBlockReference
  2
AVE_GLOBAL
 10
0.0
 20
0.0
 30
0.0
1001
AVE_MATERIAL
1002
{
1000
*GLOBAL*
1000
2
1000
Global finish.
1002
{
1002
}
1002
{
1070
    63
1002
{
1002
{
1010
-1.0
1020
-1.0
1030
-1.0
1002
}
1040
0.6999999880790711
1000

1040
0.0
1002
{
1002
}
1040
0.0
1002
{
1002
}
1040
0.0
1002
}
1002
{
1002
{
1010
-1.0
1020
-1.0
1030
-1.0
1002
}
1040
1.0
1000

1040
0.0
1002
{
1002
}
1040
0.0
1002
{
1002
}
1040
0.0
1002
}
1002
{
1002
{
1010
-1.0
1020
-1.0
1030
-1.0
1002
}
1040
0.2000000029802322
1000

1040
0.0
1002
{
1002
}
1040
0.0
1002
{
1002
}
1040
0.0
1002
}
1002
{
1070
     0
1002
{
1070
     1
1002
{
1040
1.0
1040
1.0
1000

1040
0.0
1002
{
1002
}
1040
0.0
1002
{
1002
}
1040
0.0
1002
}
1002
}
1040
1.0
1040
0.0
1040
0.0
1002
}
1002
{
1040
1.0
1040
1.0
1000

1040
0.0
1002
{
1002
}
1040
0.0
1002
{
1002
}
1040
0.0
1002
}
1002
{
1040
0.5
1040
1.0
1000

1040
0.0
1002
{
1002
}
1040
0.0
1002
{
1002
}
1040
0.0
1002
}
1002
{
1070
     0
1040
0.0
1002
{
1002
}
1040
1.0
1002
{
1002
}
1040
0.0
1002
}
1002
{
1040
0.0
1002
{
1002
{
1010
0.0
1020
0.0
1030
0.0
1002
}
1040
1.0
1000

1040
0.0
1002
{
1002
}
1040
0.0
1002
{
1002
}
1040
0.0
1002
}
1002
}
1002
{
1002
{
1070
     1
1002
{
1040
0.0
1040
1.0
1000

1040
0.0
1002
{
1002
}
1040
0.0
1002
{
1002
}
1040
0.0
1002
}
1002
}
1040
0.0
1002
{
1002
}
1010
1.0
1020
0.0
1030
0.0
1010
0.0
1020
1.0
1030
0.0
1010
0.0
1020
0.0
1030
1.0
1070
     0
1002
}
1002
{
1002
{
1040
1.0
1040
1.0
1002
{
1070
     1
1002
{
1040
1.0
1040
1.0
1000

1040
0.0
1002
{
1002
}
1040
0.0
1002
{
1002
}
1040
0.0
1002
}
1002
}
1002
}
1070
     0
1040
0.0
1002
{
1002
}
1002
}
1002
{
1002
}
1002
}
1002
{
1071
        3
1070
     3
1070
     0
1002
{
1070
     2
1070
     0
1070
     0
1040
0.0
1002
}
1070
     0
1070
     2
1002
{
1002
}
1002
}
1002
{
1040
8030.0
1040
190.3000030517578
1040
0.3050000071525574
1040
228.0
1040
545.0
1040
14.0
1040
17.39999961853027
1040
0.4560000002384186
1002
}
1000

1002
}
  0
ENDSEC
  0
SECTION
  2
OBJECTS
  0
DICTIONARY
  5
C
330
0
100
AcDbDictionary
281
     1
  3
ACAD_BACKGROUND
350
BAA
  3
ACAD_CIP_PREVIOUS_PRODUCT_INFO
350
BA4
  3
ACAD_COLOR
350
B27
  3
ACAD_DETAILVIEWSTYLE
350
B9A
  3
ACAD_GROUP
350
D
  3
ACAD_LAYOUT
350
1A
  3
ACAD_MATERIAL
350
B26
  3
ACAD_MLEADERSTYLE
350
B96
  3
ACAD_MLINESTYLE
350
17
  3
ACAD_PLOTSETTINGS
350
19
  3
ACAD_PLOTSTYLENAME
350
E
  3
ACAD_SCALELIST
350
B84
  3
ACAD_SECTIONVIEWSTYLE
350
B98
  3
ACAD_TABLESTYLE
350
B28
  3
ACAD_VISUALSTYLE
350
B6B
  3
ACDB_RECOMPOSE_DATA
350
BDC
  3
AcDbVariableDictionary
350
3D
  3
ASE_INDEX_DICTIONARY
350
B05
  3
AVE_ACITABLE
350
B4C
  3
DWGPROPS
350
BDD
  0
DICTIONARY
  5
BB4
330
10
100
AcDbDictionary
280
     1
281
     1
  3
ADSK_XREC_LAYER_RECONCILED
360
BB5
  0
DICTIONARY
  5
BB6
330
2F
100
AcDbDictionary
280
     1
281
     1
  3
ADSK_XREC_LAYER_RECONCILED
360
BB7
  0
DICTIONARY
  5
BB8
330
30
100
AcDbDictionary
280
     1
281
     1
  3
ADSK_XREC_LAYER_RECONCILED
360
BB9
  0
DICTIONARY
  5
BBA
330
31
100
AcDbDictionary
280
     1
281
     1
  3
ADSK_XREC_LAYER_RECONCILED
360
BBB
  0
DICTIONARY
  5
BBC
330
32
100
AcDbDictionary
280
     1
281
     1
  3
ADSK_XREC_LAYER_RECONCILED
360
BBD
  0
DICTIONARY
  5
BBE
330
33
100
AcDbDictionary
280
     1
281
     1
  3
ADSK_XREC_LAYER_RECONCILED
360
BBF
  0
DICTIONARY
  5
BC0
330
34
100
AcDbDictionary
280
     1
281
     1
  3
ADSK_XREC_LAYER_RECONCILED
360
BC1
  0
DICTIONARY
  5
BC2
330
35
100
AcDbDictionary
280
     1
281
     1
  3
ADSK_XREC_LAYER_RECONCILED
360
BC3
  0
DICTIONARY
  5
BC4
330
36
100
AcDbDictionary
280
     1
281
     1
  3
ADSK_XREC_LAYER_RECONCILED
360
BC5
  0
DICTIONARY
  5
BC6
330
37
100
AcDbDictionary
280
     1
281
     1
  3
ADSK_XREC_LAYER_RECONCILED
360
BC7
  0
DICTIONARY
  5
BC8
330
5D6
100
AcDbDictionary
280
     1
281
     1
  3
ADSK_XREC_LAYER_RECONCILED
360
BC9
  0
DICTIONARY
  5
BCA
330
8AF
100
AcDbDictionary
280
     1
281
     1
  3
ADSK_XREC_LAYER_RECONCILED
360
BCB
  0
DICTIONARY
  5
BCC
330
8F8
100
AcDbDictionary
280
     1
281
     1
  3
ADSK_XREC_LAYER_RECONCILED
360
BCD
  0
DICTIONARY
  5
BCE
330
91D
100
AcDbDictionary
280
     1
281
     1
  3
ADSK_XREC_LAYER_RECONCILED
360
BCF
  0
DICTIONARY
  5
BD0
330
B39
100
AcDbDictionary
280
     1
281
     1
  3
ADSK_XREC_LAYER_RECONCILED
360
BD1
  0
DICTIONARY
  5
BE4
330
8EE
100
AcDbDictionary
280
     1
281
     1
  3
ACAD_MTEXT_RT
360
BE5
  0
DICTIONARY
  5
BAA
102
{ACAD_REACTORS
330
C
102
}
330
C
100
AcDbDictionary
281
     1
  0
XRECORD
  5
BA4
102
{ACAD_REACTORS
330
C
102
}
330
C
100
AcDbXrecord
280
     1
300
ACD
300
2013
300
ACD_F_S
  0
DICTIONARY
  5
B27
102
{ACAD_REACTORS
330
C
102
}
330
C
100
AcDbDictionary
281
     1
  0
DICTIONARY
  5
B9A
102
{ACAD_REACTORS
330
C
102
}
330
C
100
AcDbDictionary
281
     1
  3
Metric50
350
B9B
  0
DICTIONARY
  5
D
102
{ACAD_REACTORS
330
C
102
}
330
C
100
AcDbDictionary
281
     1
  0
DICTIONARY
  5
1A
102
{ACAD_REACTORS
330
C
102
}
330
C
100
AcDbDictionary
281
     1
  3
Layout1
350
1E
  3
Layout2
350
26
  3
Model
350
22
  0
DICTIONARY
  5
B26
102
{ACAD_REACTORS
330
C
102
}
330
C
100
AcDbDictionary
281
     1
  3
ByBlock
350
B5B
  3
ByLayer
350
B53
  3
Global
350
B63
  0
DICTIONARY
  5
B96
102
{ACAD_REACTORS
330
C
102
}
330
C
100
AcDbDictionary
281
     1
  3
Standard
350
B97
  0
DICTIONARY
  5
17
102
{ACAD_REACTORS
330
C
102
}
330
C
100
AcDbDictionary
281
     1
  3
Standard
350
18
  0
DICTIONARY
  5
19
102
{ACAD_REACTORS
330
C
102
}
330
C
100
AcDbDictionary
281
     1
  0
ACDBDICTIONARYWDFLT
  5
E
102
{ACAD_REACTORS
330
C
102
}
330
C
100
AcDbDictionary
281
     1
  3
Normal
350
F
100
AcDbDictionaryWithDefault
340
F
  0
DICTIONARY
  5
B84
102
{ACAD_REACTORS
330
C
102
}
330
C
100
AcDbDictionary
281
     1
  3
A0
350
B85
  3
A1
350
B86
  3
A2
350
B87
  3
A3
350
B88
  3
A4
350
B89
  3
A5
350
B8A
  3
A6
350
B8B
  3
A7
350
B8C
  3
A8
350
B8D
  3
A9
350
B8E
  3
B0
350
B8F
  3
B1
350
B90
  3
B2
350
B91
  3
B3
350
B92
  3
B4
350
B93
  3
B5
350
B94
  3
B6
350
B95
  0
DICTIONARY
  5
B98
102
{ACAD_REACTORS
330
C
102
}
330
C
100
AcDbDictionary
281
     1
  3
Metric50
350
B99
  0
DICTIONARY
  5
B28
102
{ACAD_REACTORS
330
C
102
}
330
C
100
AcDbDictionary
281
     1
  3
Standard
350
B29
  0
DICTIONARY
  5
B6B
102
{ACAD_REACTORS
330
C
102
}
330
C
100
AcDbDictionary
281
     1
  3
*A1
350
BA7
  3
2dWireframe
350
B71
  3
Basic
350
B70
  3
Brighten
350
B77
  3
ColorChange
350
B7B
  3
Conceptual
350
B74
  3
Dim
350
B76
  3
EdgeColorOff
350
B83
  3
Facepattern
350
B7A
  3
Flat
350
B6C
  3
FlatWithEdges
350
B6D
  3
Gouraud
350
B6E
  3
GouraudWithEdges
350
B6F
  3
Hidden
350
B73
  3
JitterOff
350
B81
  3
Linepattern
350
B79
  3
OverhangOff
350
B82
  3
Realistic
350
B75
  3
Shaded
350
B80
  3
Shaded with edges
350
B7F
  3
Shades of Gray
350
B7C
  3
Sketchy
350
B7D
  3
Thicken
350
B78
  3
Wireframe
350
B72
  3
X-Ray
350
B7E
  0
XRECORD
  5
BDC
102
{ACAD_REACTORS
330
C
102
}
330
C
100
AcDbXrecord
280
     1
 90
        1
330
B29
  0
DICTIONARY
  5
3D
102
{ACAD_REACTORS
330
C
102
}
330
C
100
AcDbDictionary
281
     1
  3
CANNOSCALE
350
BD5
  3
CMLEADERSTYLE
350
BD2
  3
CTABLESTYLE
350
B51
  3
CVIEWDETAILSTYLE
350
BD3
  3
CVIEWSECTIONSTYLE
350
BD4
  3
DIMASSOC
350
3F
  3
HIDETEXT
350
3E
  3
INDEXCTL
350
BD7
  3
SORTENTS
350
BD6
  3
XCLIPFRAME
350
BD8
  0
DICTIONARY
  5
B05
102
{ACAD_REACTORS
330
C
102
}
330
C
100
AcDbDictionary
281
     1
  3
ASEBlockHierarchyIndexRecord
350
B06
1001
DCO15
1040
1461302068.219
  0
DICTIONARY
  5
B4C
102
{ACAD_REACTORS
330
C
102
}
330
C
100
AcDbDictionary
281
     1
  0
XRECORD
  5
BDD
102
{ACAD_REACTORS
330
C
102
}
330
C
100
AcDbXrecord
280
     1
  1
DWGPROPS COOKIE
  2

  3

  4

  6

  7

  8
Julio
  9

300
=
301
=
302
=
303
=
304
=
305
=
306
=
307
=
308
=
309
=
 40
0.0030251041666667
 41
2453686.556222616
 42
2456549.458147778
  1

 90
        0
  0
XRECORD
  5
BB5
102
{ACAD_REACTORS
330
BB4
102
}
330
BB4
100
AcDbXrecord
280
     1
290
     1
  0
XRECORD
  5
BB7
102
{ACAD_REACTORS
330
BB6
102
}
330
BB6
100
AcDbXrecord
280
     1
290
     1
  0
XRECORD
  5
BB9
102
{ACAD_REACTORS
330
BB8
102
}
330
BB8
100
AcDbXrecord
280
     1
290
     1
  0
XRECORD
  5
BBB
102
{ACAD_REACTORS
330
BBA
102
}
330
BBA
100
AcDbXrecord
280
     1
290
     1
  0
XRECORD
  5
BBD
102
{ACAD_REACTORS
330
BBC
102
}
330
BBC
100
AcDbXrecord
280
     1
290
     1
  0
XRECORD
  5
BBF
102
{ACAD_REACTORS
330
BBE
102
}
330
BBE
100
AcDbXrecord
280
     1
290
     1
  0
XRECORD
  5
BC1
102
{ACAD_REACTORS
330
BC0
102
}
330
BC0
100
AcDbXrecord
280
     1
290
     1
  0
XRECORD
  5
BC3
102
{ACAD_REACTORS
330
BC2
102
}
330
BC2
100
AcDbXrecord
280
     1
290
     1
  0
XRECORD
  5
BC5
102
{ACAD_REACTORS
330
BC4
102
}
330
BC4
100
AcDbXrecord
280
     1
290
     1
  0
XRECORD
  5
BC7
102
{ACAD_REACTORS
330
BC6
102
}
330
BC6
100
AcDbXrecord
280
     1
290
     1
  0
XRECORD
  5
BC9
102
{ACAD_REACTORS
330
BC8
102
}
330
BC8
100
AcDbXrecord
280
     1
290
     1
  0
XRECORD
  5
BCB
102
{ACAD_REACTORS
330
BCA
102
}
330
BCA
100
AcDbXrecord
280
     1
290
     1
  0
XRECORD
  5
BCD
102
{ACAD_REACTORS
330
BCC
102
}
330
BCC
100
AcDbXrecord
280
     1
290
     1
  0
XRECORD
  5
BCF
102
{ACAD_REACTORS
330
BCE
102
}
330
BCE
100
AcDbXrecord
280
     1
290
     1
  0
XRECORD
  5
BD1
102
{ACAD_REACTORS
330
BD0
102
}
330
BD0
100
AcDbXrecord
280
     1
290
     1
  0
XRECORD
  5
BE5
102
{ACAD_REACTORS
330
BE4
102
}
330
BE4
100
AcDbXrecord
280
     1
 40
69056.0
  1
 Indústria de Sanitários, S.A.
  0
ACDBDETAILVIEWSTYLE
  5
B9B
102
{ACAD_REACTORS
330
B9A
102
}
330
B9A
100
AcDbModelDocViewStyle
 70
     0
  3
Metric50
290
     0
100
AcDbDetailViewStyle
 70
     0
 71
     0
 90
        3
 71
     1
340
11
 40
5.0
340
0
 40
5.0
300

 40
0.0
280
     1
 71
     2
340
16
 90
       25
 71
     3
340
11
 40
5.0
 90
        0
 40
15.0
 90
        1
300
%<\AcVar ViewDetailId>% (%<\AcVar ViewScale \f "%sn">%)
 71
     4
340
16
 90
       25
340
16
 90
       25
280
     0
  0
LAYOUT
  5
1E
102
{ACAD_XDICTIONARY
360
BDE
102
}
102
{ACAD_REACTORS
330
1A
102
}
330
1A
100
AcDbPlotSettings
  1

  2
Ploter HP500
  4

  6

 40
0.0
 41
0.0
 42
0.0
 43
0.0
 44
0.0
 45
0.0
 46
0.0
 47
0.0
 48
0.0
 49
0.0
140
0.0
141
0.0
142
1.0
143
1.0
 70
   688
 72
     0
 73
     0
 74
     5
  7
monochrome.ctb
 75
    16
147
1.0
148
0.0
149
0.0
100
AcDbLayout
  1
Layout1
 70
     1
 71
     1
 10
0.0
 20
0.0
 11
420.0
 21
297.0
 12
0.0
 22
0.0
 32
0.0
 14
1.000000000000000E+20
 24
1.000000000000000E+20
 34
1.000000000000000E+20
 15
-1.000000000000000E+20
 25
-1.000000000000000E+20
 35
-1.000000000000000E+20
146
0.0
 13
0.0
 23
0.0
 33
0.0
 16
1.0
 26
0.0
 36
0.0
 17
0.0
 27
1.0
 37
0.0
 76
     0
330
1B
  0
LAYOUT
  5
26
102
{ACAD_XDICTIONARY
360
BE2
102
}
102
{ACAD_REACTORS
330
1A
102
}
330
1A
100
AcDbPlotSettings
  1

  2
Ploter HP500
  4

  6

 40
0.0
 41
0.0
 42
0.0
 43
0.0
 44
0.0
 45
0.0
 46
0.0
 47
0.0
 48
0.0
 49
0.0
140
0.0
141
0.0
142
1.0
143
1.0
 70
   688
 72
     0
 73
     0
 74
     5
  7
monochrome.ctb
 75
    16
147
1.0
148
0.0
149
0.0
100
AcDbLayout
  1
Layout2
 70
     1
 71
     2
 10
0.0
 20
0.0
 11
12.0
 21
9.0
 12
0.0
 22
0.0
 32
0.0
 14
0.0
 24
0.0
 34
0.0
 15
0.0
 25
0.0
 35
0.0
146
0.0
 13
0.0
 23
0.0
 33
0.0
 16
1.0
 26
0.0
 36
0.0
 17
0.0
 27
1.0
 37
0.0
 76
     0
330
23
  0
LAYOUT
  5
22
102
{ACAD_XDICTIONARY
360
BE0
102
}
102
{ACAD_REACTORS
330
1A
102
}
330
1A
100
AcDbPlotSettings
  1

  2
Ploter HP500
  4
User268
  6

 40
4.995333194732666
 41
16.97565841674804
 42
4.995330810546875
 43
16.97567749023437
 44
209.9733276367187
 45
296.9259948730469
 46
0.0
 47
0.0
 48
0.0
 49
0.0
140
0.0
141
0.0
142
1.0
143
1.0
 70
 11952
 72
     1
 73
     1
 74
     0
  7

 75
     0
147
1.0
148
-427.5957866592534
149
7.362384574453926
100
AcDbLayout
  1
Model
 70
     1
 71
     0
 10
0.0
 20
0.0
 11
12.0
 21
9.0
 12
0.0
 22
0.0
 32
0.0
 14
0.0
 24
0.0
 34
0.0
 15
0.0
 25
0.0
 35
0.0
146
0.0
 13
0.0
 23
0.0
 33
0.0
 16
1.0
 26
0.0
 36
0.0
 17
0.0
 27
1.0
 37
0.0
 76
     0
330
1F
331
B50
  0
MATERIAL
  5
B5B
102
{ACAD_XDICTIONARY
360
B5C
102
}
102
{ACAD_REACTORS
330
B26
102
}
330
B26
100
AcDbMaterial
  1
ByBlock
 72
     0
 43
0.0008202099737533
 43
0.0
 43
0.0
 43
0.0
 43
0.0
 43
0.0008202099737533
 43
0.0
 43
0.0
 43
0.0
 43
0.0
 43
1.0
 43
0.0
 43
0.0
 43
0.0
 43
0.0
 43
1.0
 77
     0
 47
0.0008202099737533
 47
0.0
 47
0.0
 47
0.0
 47
0.0
 47
0.0008202099737533
 47
0.0
 47
0.0
 47
0.0
 47
0.0
 47
1.0
 47
0.0
 47
0.0
 47
0.0
 47
0.0
 47
1.0
171
     0
 49
0.0008202099737533
 49
0.0
 49
0.0
 49
0.0
 49
0.0
 49
0.0008202099737533
 49
0.0
 49
0.0
 49
0.0
 49
0.0
 49
1.0
 49
0.0
 49
0.0
 49
0.0
 49
0.0
 49
1.0
175
     0
142
0.0008202099737533
142
0.0
142
0.0
142
0.0
142
0.0
142
0.0008202099737533
142
0.0
142
0.0
142
0.0
142
0.0
142
1.0
142
0.0
142
0.0
142
0.0
142
0.0
142
1.0
179
     0
144
0.0008202099737533
144
0.0
144
0.0
144
0.0
144
0.0
144
0.0008202099737533
144
0.0
144
0.0
144
0.0
144
0.0
144
1.0
144
0.0
144
0.0
144
0.0
144
0.0
144
1.0
147
0.0008202099737533
147
0.0
147
0.0
147
0.0
147
0.0
147
0.0008202099737533
147
0.0
147
0.0
147
0.0
147
0.0
147
1.0
147
0.0
147
0.0
147
0.0
147
0.0
147
1.0
  0
MATERIAL
  5
B53
102
{ACAD_XDICTIONARY
360
B54
102
}
102
{ACAD_REACTORS
330
B26
102
}
330
B26
100
AcDbMaterial
  1
ByLayer
 72
     0
 43
0.0008202099737533
 43
0.0
 43
0.0
 43
0.0
 43
0.0
 43
0.0008202099737533
 43
0.0
 43
0.0
 43
0.0
 43
0.0
 43
1.0
 43
0.0
 43
0.0
 43
0.0
 43
0.0
 43
1.0
 77
     0
 47
0.0008202099737533
 47
0.0
 47
0.0
 47
0.0
 47
0.0
 47
0.0008202099737533
 47
0.0
 47
0.0
 47
0.0
 47
0.0
 47
1.0
 47
0.0
 47
0.0
 47
0.0
 47
0.0
 47
1.0
171
     0
 49
0.0008202099737533
 49
0.0
 49
0.0
 49
0.0
 49
0.0
 49
0.0008202099737533
 49
0.0
 49
0.0
 49
0.0
 49
0.0
 49
1.0
 49
0.0
 49
0.0
 49
0.0
 49
0.0
 49
1.0
175
     0
142
0.0008202099737533
142
0.0
142
0.0
142
0.0
142
0.0
142
0.0008202099737533
142
0.0
142
0.0
142
0.0
142
0.0
142
1.0
142
0.0
142
0.0
142
0.0
142
0.0
142
1.0
179
     0
144
0.0008202099737533
144
0.0
144
0.0
144
0.0
144
0.0
144
0.0008202099737533
144
0.0
144
0.0
144
0.0
144
0.0
144
1.0
144
0.0
144
0.0
144
0.0
144
0.0
144
1.0
147
0.0008202099737533
147
0.0
147
0.0
147
0.0
147
0.0
147
0.0008202099737533
147
0.0
147
0.0
147
0.0
147
0.0
147
1.0
147
0.0
147
0.0
147
0.0
147
0.0
147
1.0
  0
MATERIAL
  5
B63
102
{ACAD_XDICTIONARY
360
B64
102
}
102
{ACAD_REACTORS
330
B26
102
}
330
B26
100
AcDbMaterial
  1
Global
 72
     0
 43
0.0008202099737533
 43
0.0
 43
0.0
 43
0.0
 43
0.0
 43
0.0008202099737533
 43
0.0
 43
0.0
 43
0.0
 43
0.0
 43
1.0
 43
0.0
 43
0.0
 43
0.0
 43
0.0
 43
1.0
 77
     0
 47
0.0008202099737533
 47
0.0
 47
0.0
 47
0.0
 47
0.0
 47
0.0008202099737533
 47
0.0
 47
0.0
 47
0.0
 47
0.0
 47
1.0
 47
0.0
 47
0.0
 47
0.0
 47
0.0
 47
1.0
171
     0
 49
0.0008202099737533
 49
0.0
 49
0.0
 49
0.0
 49
0.0
 49
0.0008202099737533
 49
0.0
 49
0.0
 49
0.0
 49
0.0
 49
1.0
 49
0.0
 49
0.0
 49
0.0
 49
0.0
 49
1.0
175
     0
142
0.0008202099737533
142
0.0
142
0.0
142
0.0
142
0.0
142
0.0008202099737533
142
0.0
142
0.0
142
0.0
142
0.0
142
1.0
142
0.0
142
0.0
142
0.0
142
0.0
142
1.0
179
     0
144
0.0008202099737533
144
0.0
144
0.0
144
0.0
144
0.0
144
0.0008202099737533
144
0.0
144
0.0
144
0.0
144
0.0
144
1.0
144
0.0
144
0.0
144
0.0
144
0.0
144
1.0
147
0.0008202099737533
147
0.0
147
0.0
147
0.0
147
0.0
147
0.0008202099737533
147
0.0
147
0.0
147
0.0
147
0.0
147
1.0
147
0.0
147
0.0
147
0.0
147
0.0
147
1.0
  0
MLEADERSTYLE
  5
B97
102
{ACAD_XDICTIONARY
360
C1B
102
}
102
{ACAD_REACTORS
330
B96
102
}
330
B96
100
AcDbMLeaderStyle
170
     2
171
     1
172
     0
 90
        2
 40
0.0
 41
0.0
173
     1
 91
-1056964608
340
14
 92
       -2
290
     1
 42
2.0
291
     1
 43
0.36
  3
Standard
 44
4.0
300

342
11
174
     1
178
     6
175
     1
176
     0
 93
-1056964608
 45
4.0
292
     0
297
     0
 46
4.0
 94
-1056964608
 47
1.0
 49
1.0
140
1.0
293
     1
141
0.0
294
     1
177
     0
142
1.0
295
     0
296
     0
143
0.125
1001
ACAD_MLEADERVER
1070
     2
  0
MLINESTYLE
  5
18
102
{ACAD_REACTORS
330
17
102
}
330
17
100
AcDbMlineStyle
  2
STANDARD
 70
     0
  3

 62
   256
 51
90.0
 52
90.0
 71
     2
 49
0.5
 62
   256
  6
BYLAYER
 49
-0.5
 62
   256
  6
BYLAYER
  0
ACDBPLACEHOLDER
  5
F
102
{ACAD_REACTORS
330
E
102
}
330
E
  0
SCALE
  5
B85
102
{ACAD_REACTORS
330
B84
102
}
330
B84
100
AcDbScale
 70
     0
300
1:1
140
1.0
141
1.0
290
     1
  0
SCALE
  5
B86
102
{ACAD_REACTORS
330
B84
102
}
330
B84
100
AcDbScale
 70
     0
300
1:2
140
1.0
141
2.0
290
     0
  0
SCALE
  5
B87
102
{ACAD_REACTORS
330
B84
102
}
330
B84
100
AcDbScale
 70
     0
300
1:4
140
1.0
141
4.0
290
     0
  0
SCALE
  5
B88
102
{ACAD_REACTORS
330
B84
102
}
330
B84
100
AcDbScale
 70
     0
300
1:5
140
1.0
141
5.0
290
     0
  0
SCALE
  5
B89
102
{ACAD_REACTORS
330
B84
102
}
330
B84
100
AcDbScale
 70
     0
300
1:8
140
1.0
141
8.0
290
     0
  0
SCALE
  5
B8A
102
{ACAD_REACTORS
330
B84
102
}
330
B84
100
AcDbScale
 70
     0
300
1:10
140
1.0
141
10.0
290
     0
  0
SCALE
  5
B8B
102
{ACAD_REACTORS
330
B84
102
}
330
B84
100
AcDbScale
 70
     0
300
1:16
140
1.0
141
16.0
290
     0
  0
SCALE
  5
B8C
102
{ACAD_REACTORS
330
B84
102
}
330
B84
100
AcDbScale
 70
     0
300
1:20
140
1.0
141
20.0
290
     0
  0
SCALE
  5
B8D
102
{ACAD_REACTORS
330
B84
102
}
330
B84
100
AcDbScale
 70
     0
300
1:30
140
1.0
141
30.0
290
     0
  0
SCALE
  5
B8E
102
{ACAD_REACTORS
330
B84
102
}
330
B84
100
AcDbScale
 70
     0
300
1:40
140
1.0
141
40.0
290
     0
  0
SCALE
  5
B8F
102
{ACAD_REACTORS
330
B84
102
}
330
B84
100
AcDbScale
 70
     0
300
1:50
140
1.0
141
50.0
290
     0
  0
SCALE
  5
B90
102
{ACAD_REACTORS
330
B84
102
}
330
B84
100
AcDbScale
 70
     0
300
1:100
140
1.0
141
100.0
290
     0
  0
SCALE
  5
B91
102
{ACAD_REACTORS
330
B84
102
}
330
B84
100
AcDbScale
 70
     0
300
2:1
140
2.0
141
1.0
290
     0
  0
SCALE
  5
B92
102
{ACAD_REACTORS
330
B84
102
}
330
B84
100
AcDbScale
 70
     0
300
4:1
140
4.0
141
1.0
290
     0
  0
SCALE
  5
B93
102
{ACAD_REACTORS
330
B84
102
}
330
B84
100
AcDbScale
 70
     0
300
8:1
140
8.0
141
1.0
290
     0
  0
SCALE
  5
B94
102
{ACAD_REACTORS
330
B84
102
}
330
B84
100
AcDbScale
 70
     0
300
10:1
140
10.0
141
1.0
290
     0
  0
SCALE
  5
B95
102
{ACAD_REACTORS
330
B84
102
}
330
B84
100
AcDbScale
 70
     0
300
100:1
140
100.0
141
1.0
290
     0
  0
ACDBSECTIONVIEWSTYLE
  5
B99
102
{ACAD_REACTORS
330
B98
102
}
330
B98
100
AcDbModelDocViewStyle
 70
     0
  3
Metric50
290
     0
100
AcDbSectionViewStyle
 70
     0
 71
     0
 90
      102
 71
     1
340
11
 40
5.0
340
0
340
0
 40
5.0
300
I, O, Q, S, X, Z
 40
10.0
 90
        0
 40
2.5
 90
        0
 71
     2
340
16
 90
       25
340
16
 90
       50
 40
5.0
 40
2.5
 40
5.0
 71
     3
340
11
 40
5.0
 90
        0
 40
15.0
 90
        1
300
%<\AcVar ViewSectionStartId>%-%<\AcVar ViewSectionEndId>% (%<\AcVar ViewScale \f "%sn">%)
 71
     4
300
ANSI31
 40
1.0
 90
        0
290
     0
290
     0
 90
        6
 40
0.0
 40
1.570796326794896
 40
0.2617993877991494
 40
1.308996938995747
 40
-0.2617993877991494
 40
1.832595714594046
  0
TABLESTYLE
  5
B29
102
{ACAD_XDICTIONARY
360
BDA
102
}
102
{ACAD_REACTORS
330
B28
102
}
330
B28
100
AcDbTableStyle
  3
Standard
 70
     0
 71
     0
 40
1.5
 41
1.5
280
     0
281
     0
  7
Standard
140
4.5
170
     2
 62
     0
 63
     7
283
     0
274
    -2
284
     1
 64
     0
275
    -2
285
     1
 65
     0
276
    -2
286
     1
 66
     0
277
    -2
287
     1
 67
     0
278
    -2
288
     1
 68
     0
279
    -2
289
     1
 69
     0
  7
Standard
140
6.0
170
     5
 62
     0
 63
     7
283
     0
274
    -2
284
     1
 64
     0
275
    -2
285
     1
 65
     0
276
    -2
286
     1
 66
     0
277
    -2
287
     1
 67
     0
278
    -2
288
     1
 68
     0
279
    -2
289
     1
 69
     0
  7
Standard
140
4.5
170
     5
 62
     0
 63
     7
283
     0
274
    -2
284
     1
 64
     0
275
    -2
285
     1
 65
     0
276
    -2
286
     1
 66
     0
277
    -2
287
     1
 67
     0
278
    -2
288
     1
 68
     0
279
    -2
289
     1
 69
     0
  0
VISUALSTYLE
  5
BA7
102
{ACAD_XDICTIONARY
360
BA8
102
}
102
{ACAD_REACTORS
330
B6B
102
}
330
B6B
100
AcDbVisualStyle
  2
*
 70
    10
 71
     2
 72
     2
 73
     1
 90
        2
 40
-0.6
 41
30.0
 62
     5
 63
     7
 74
     0
 91
        0
 64
     7
 65
   257
 75
     1
175
     1
 42
1.0
 92
        8
 66
     7
 43
1.0
 76
     1
 77
     6
 78
     2
 67
     7
 79
     5
170
     0
171
     0
290
     0
174
     0
 93
        1
 44
0.0
173
     0
291
     0
 45
0.0
1001
ACAD
1000
AcDbSavedByObjectVersion
1070
     0
  0
VISUALSTYLE
  5
B71
102
{ACAD_XDICTIONARY
360
BF4
102
}
102
{ACAD_REACTORS
330
B6B
102
}
330
B6B
100
AcDbVisualStyle
  2
2dWireframe
 70
     4
 71
     0
 72
     2
 73
     0
 90
        0
 40
-0.6
 41
-30.0
 62
     5
 63
     7
 74
     1
 91
        4
 64
     7
 65
   257
 75
     1
175
     1
 42
1.0
 92
        0
 66
   257
 43
1.0
 76
     1
 77
     6
 78
     2
 67
     7
 79
     5
170
     0
171
     0
290
     0
174
     0
 93
        1
 44
0.0
173
     0
291
     0
 45
0.0
1001
ACAD
1000
AcDbSavedByObjectVersion
1070
     0
  0
VISUALSTYLE
  5
B70
102
{ACAD_XDICTIONARY
360
BF2
102
}
102
{ACAD_REACTORS
330
B6B
102
}
330
B6B
100
AcDbVisualStyle
  2
Basic
 70
     7
 71
     1
 72
     0
 73
     1
 90
        0
 40
-0.6
 41
-30.0
 62
     5
 63
     7
 74
     0
 91
        4
 64
     7
 65
   257
 75
     1
175
     1
 42
1.0
 92
        8
 66
     7
 43
1.0
 76
     1
 77
     6
 78
     2
 67
     7
 79
     5
170
     0
171
     0
290
     0
174
     0
 93
        1
 44
0.0
173
     0
291
     1
 45
0.0
1001
ACAD
1000
AcDbSavedByObjectVersion
1070
     0
  0
VISUALSTYLE
  5
B77
102
{ACAD_XDICTIONARY
360
C00
102
}
102
{ACAD_REACTORS
330
B6B
102
}
330
B6B
100
AcDbVisualStyle
  2
Brighten
 70
    12
 71
     2
 72
     2
 73
     0
 90
        0
 40
-0.6
 41
-30.0
 62
     5
 63
     7
 74
     1
 91
        4
 64
     7
 65
   257
 75
     1
175
     1
 42
1.0
 92
        8
 66
     7
 43
1.0
 76
     1
 77
     6
 78
     2
 67
     7
 79
     5
170
     0
171
     0
290
     0
174
     0
 93
        1
 44
50.0
173
     0
291
     1
 45
0.0
1001
ACAD
1000
AcDbSavedByObjectVersion
1070
     0
  0
VISUALSTYLE
  5
B7B
102
{ACAD_XDICTIONARY
360
C08
102
}
102
{ACAD_REACTORS
330
B6B
102
}
330
B6B
100
AcDbVisualStyle
  2
ColorChange
 70
    16
 71
     2
 72
     2
 73
     3
 90
        0
 40
-0.6
 41
-30.0
 62
     5
 63
     8
 74
     1
 91
        4
 64
     7
 65
   257
 75
     1
175
     1
 42
1.0
 92
        8
 66
     8
 43
1.0
 76
     1
 77
     6
 78
     2
 67
     7
 79
     5
170
     0
171
     0
290
     0
174
     0
 93
        1
 44
0.0
173
     0
291
     1
 45
0.0
1001
ACAD
1000
AcDbSavedByObjectVersion
1070
     0
  0
VISUALSTYLE
  5
B74
102
{ACAD_XDICTIONARY
360
BFA
102
}
102
{ACAD_REACTORS
330
B6B
102
}
330
B6B
100
AcDbVisualStyle
  2
Conceptual
 70
     9
 71
     3
 72
     2
 73
     0
 90
        0
 40
-0.6
 41
-30.0
 62
     5
 63
     7
 74
     2
 91
        2
 64
     7
 65
   257
 75
     1
175
     1
 42
179.0
 92
        8
 66
     7
 43
1.0
 76
     1
 77
     6
 78
     2
 67
     7
 79
     3
170
     0
171
     0
290
     0
174
     0
 93
        1
 44
0.0
173
     0
291
     0
 45
0.0
1001
ACAD
1000
AcDbSavedByObjectVersion
1070
     0
  0
VISUALSTYLE
  5
B76
102
{ACAD_XDICTIONARY
360
BFE
102
}
102
{ACAD_REACTORS
330
B6B
102
}
330
B6B
100
AcDbVisualStyle
  2
Dim
 70
    11
 71
     2
 72
     2
 73
     0
 90
        0
 40
-0.6
 41
-30.0
 62
     5
 63
     7
 74
     1
 91
        4
 64
     7
 65
   257
 75
     1
175
     1
 42
1.0
 92
        8
 66
     7
 43
1.0
 76
     1
 77
     6
 78
     2
 67
     7
 79
     5
170
     0
171
     0
290
     0
174
     0
 93
        1
 44
-50.0
173
     0
291
     1
 45
0.0
1001
ACAD
1000
AcDbSavedByObjectVersion
1070
     0
  0
VISUALSTYLE
  5
B83
102
{ACAD_XDICTIONARY
360
C18
102
}
102
{ACAD_REACTORS
330
B6B
102
}
330
B6B
100
AcDbVisualStyle
  2
EdgeColorOff
 70
    22
 71
     2
 72
     2
 73
     0
 90
        0
 40
-0.6
 41
-30.0
 62
     5
 63
     7
 74
     1
 91
        4
 64
     7
 65
   257
 75
     1
175
     1
 42
1.0
 92
        8
 66
     7
 43
1.0
 76
     1
 77
     6
 78
     2
 67
     7
 79
     5
170
     0
171
     0
290
     0
174
     0
 93
        1
 44
0.0
173
     0
291
     1
 45
0.0
1001
ACAD
1000
AcDbSavedByObjectVersion
1070
     0
  0
VISUALSTYLE
  5
B7A
102
{ACAD_XDICTIONARY
360
C06
102
}
102
{ACAD_REACTORS
330
B6B
102
}
330
B6B
100
AcDbVisualStyle
  2
Facepattern
 70
    15
 71
     2
 72
     2
 73
     0
 90
        0
 40
-0.6
 41
-30.0
 62
     5
 63
     7
 74
     1
 91
        4
 64
     7
 65
   257
 75
     1
175
     1
 42
1.0
 92
        8
 66
     7
 43
1.0
 76
     1
 77
     6
 78
     2
 67
     7
 79
     5
170
     0
171
     0
290
     0
174
     0
 93
        1
 44
0.0
173
     0
291
     1
 45
0.0
1001
ACAD
1000
AcDbSavedByObjectVersion
1070
     0
  0
VISUALSTYLE
  5
B6C
102
{ACAD_XDICTIONARY
360
BEA
102
}
102
{ACAD_REACTORS
330
B6B
102
}
330
B6B
100
AcDbVisualStyle
  2
Flat
 70
     0
 71
     2
 72
     1
 73
     1
 90
        2
 40
-0.6
 41
30.0
 62
     5
 63
     7
 74
     0
 91
        0
 64
     7
 65
   257
 75
     1
175
     1
 42
1.0
 92
        8
 66
     7
 43
1.0
 76
     1
 77
     6
 78
     2
 67
     7
 79
     5
170
     0
171
     0
290
     0
174
     0
 93
       13
 44
0.0
173
     0
291
     1
 45
0.0
1001
ACAD
1000
AcDbSavedByObjectVersion
1070
     0
  0
VISUALSTYLE
  5
B6D
102
{ACAD_XDICTIONARY
360
BEC
102
}
102
{ACAD_REACTORS
330
B6B
102
}
330
B6B
100
AcDbVisualStyle
  2
FlatWithEdges
 70
     1
 71
     2
 72
     1
 73
     1
 90
        2
 40
-0.6
 41
30.0
 62
     5
 63
     7
 74
     1
 91
        0
 64
     7
 65
   257
 75
     1
175
     1
 42
1.0
 92
        0
 66
   257
 43
1.0
 76
     1
 77
     6
 78
     2
 67
     7
 79
     5
170
     0
171
     0
290
     0
174
     0
 93
       13
 44
0.0
173
     0
291
     1
 45
0.0
1001
ACAD
1000
AcDbSavedByObjectVersion
1070
     0
  0
VISUALSTYLE
  5
B6E
102
{ACAD_XDICTIONARY
360
BEE
102
}
102
{ACAD_REACTORS
330
B6B
102
}
330
B6B
100
AcDbVisualStyle
  2
Gouraud
 70
     2
 71
     2
 72
     2
 73
     1
 90
        2
 40
-0.6
 41
30.0
 62
     5
 63
     7
 74
     0
 91
        0
 64
     7
 65
   257
 75
     1
175
     1
 42
1.0
 92
        0
 66
     7
 43
1.0
 76
     1
 77
     6
 78
     2
 67
     7
 79
     5
170
     0
171
     0
290
     0
174
     0
 93
       13
 44
0.0
173
     0
291
     1
 45
0.0
1001
ACAD
1000
AcDbSavedByObjectVersion
1070
     0
  0
VISUALSTYLE
  5
B6F
102
{ACAD_XDICTIONARY
360
BF0
102
}
102
{ACAD_REACTORS
330
B6B
102
}
330
B6B
100
AcDbVisualStyle
  2
GouraudWithEdges
 70
     3
 71
     2
 72
     2
 73
     1
 90
        2
 40
-0.6
 41
30.0
 62
     5
 63
     7
 74
     1
 91
        0
 64
     7
 65
   257
 75
     1
175
     1
 42
1.0
 92
        0
 66
   257
 43
1.0
 76
     1
 77
     6
 78
     2
 67
     7
 79
     5
170
     0
171
     0
290
     0
174
     0
 93
       13
 44
0.0
173
     0
291
     1
 45
0.0
1001
ACAD
1000
AcDbSavedByObjectVersion
1070
     0
  0
VISUALSTYLE
  5
B73
102
{ACAD_XDICTIONARY
360
BF8
102
}
102
{ACAD_REACTORS
330
B6B
102
}
330
B6B
100
AcDbVisualStyle
  2
Hidden
 70
     6
 71
     1
 72
     2
 73
     2
 90
        0
 40
-0.6
 41
-30.0
 62
     5
 63
     7
 74
     2
 91
        2
 64
     7
 65
   257
 75
     2
175
     1
 42
40.0
 92
        0
 66
   257
 43
1.0
 76
     1
 77
     6
 78
     2
 67
     7
 79
     3
170
     0
171
     0
290
     0
174
     0
 93
        1
 44
0.0
173
     0
291
     0
 45
0.0
1001
ACAD
1000
AcDbSavedByObjectVersion
1070
     0
  0
VISUALSTYLE
  5
B81
102
{ACAD_XDICTIONARY
360
C14
102
}
102
{ACAD_REACTORS
330
B6B
102
}
330
B6B
100
AcDbVisualStyle
  2
JitterOff
 70
    20
 71
     2
 72
     2
 73
     0
 90
        0
 40
-0.6
 41
-30.0
 62
     5
 63
     7
 74
     1
 91
        4
 64
     7
 65
   257
 75
     1
175
     1
 42
1.0
 92
       10
 66
     7
 43
1.0
 76
     1
 77
     6
 78
     2
 67
     7
 79
     5
170
     0
171
     0
290
     0
174
     0
 93
        1
 44
0.0
173
     0
291
     1
 45
0.0
1001
ACAD
1000
AcDbSavedByObjectVersion
1070
     0
  0
VISUALSTYLE
  5
B79
102
{ACAD_XDICTIONARY
360
C04
102
}
102
{ACAD_REACTORS
330
B6B
102
}
330
B6B
100
AcDbVisualStyle
  2
Linepattern
 70
    14
 71
     2
 72
     2
 73
     0
 90
        0
 40
-0.6
 41
-30.0
 62
     5
 63
     7
 74
     1
 91
        4
 64
     7
 65
   257
 75
     7
175
     7
 42
1.0
 92
        8
 66
     7
 43
1.0
 76
     1
 77
     6
 78
     2
 67
     7
 79
     5
170
     0
171
     0
290
     0
174
     0
 93
        1
 44
0.0
173
     0
291
     1
 45
0.0
1001
ACAD
1000
AcDbSavedByObjectVersion
1070
     0
  0
VISUALSTYLE
  5
B82
102
{ACAD_XDICTIONARY
360
C16
102
}
102
{ACAD_REACTORS
330
B6B
102
}
330
B6B
100
AcDbVisualStyle
  2
OverhangOff
 70
    21
 71
     2
 72
     2
 73
     0
 90
        0
 40
-0.6
 41
-30.0
 62
     5
 63
     7
 74
     1
 91
        4
 64
     7
 65
   257
 75
     1
175
     1
 42
1.0
 92
        9
 66
     7
 43
1.0
 76
     1
 77
     6
 78
     2
 67
     7
 79
     5
170
     0
171
     0
290
     0
174
     0
 93
        1
 44
0.0
173
     0
291
     1
 45
0.0
1001
ACAD
1000
AcDbSavedByObjectVersion
1070
     0
  0
VISUALSTYLE
  5
B75
102
{ACAD_XDICTIONARY
360
BFC
102
}
102
{ACAD_REACTORS
330
B6B
102
}
330
B6B
100
AcDbVisualStyle
  2
Realistic
 70
     8
 71
     2
 72
     3
 73
     0
 90
        2
 40
-0.6
 41
30.0
 62
     5
 63
     7
 74
     0
 91
        0
 64
     7
 65
   257
 75
     1
175
     1
 42
1.0
 92
        8
 66
   257
 43
1.0
 76
     1
 77
     6
 78
     2
 67
     7
 79
     3
170
     0
171
     0
290
     0
174
     0
 93
       13
 44
0.0
173
     0
291
     0
 45
0.0
1001
ACAD
1000
AcDbSavedByObjectVersion
1070
     0
  0
VISUALSTYLE
  5
B80
102
{ACAD_XDICTIONARY
360
C12
102
}
102
{ACAD_REACTORS
330
B6B
102
}
330
B6B
100
AcDbVisualStyle
  2
Shaded
 70
    27
 71
     2
 72
     2
 73
     1
 90
        2
 40
-0.6
 41
30.0
 62
     5
 63
     7
 74
     0
 91
        4
 64
     7
 65
   257
 75
     1
175
     1
 42
1.0
 92
        8
 66
   257
 43
1.0
 76
     1
 77
     6
 78
     2
 67
     8
 79
     3
170
     0
171
     0
290
     0
174
     0
 93
        5
 44
0.0
173
     0
291
     0
 45
0.0
1001
ACAD
1000
AcDbSavedByObjectVersion
1070
     0
  0
VISUALSTYLE
  5
B7F
102
{ACAD_XDICTIONARY
360
C10
102
}
102
{ACAD_REACTORS
330
B6B
102
}
330
B6B
100
AcDbVisualStyle
  2
Shaded with edges
 70
    26
 71
     2
 72
     2
 73
     1
 90
        2
 40
-0.6
 41
30.0
 62
     5
 63
     7
 74
     1
 91
       10
 64
     7
 65
   257
 75
     2
175
     1
 42
1.0
 92
        8
 66
   257
 43
1.0
 76
     1
 77
     6
 78
     2
 67
     7
 79
     3
170
     0
171
     0
290
     0
174
     0
 93
        5
 44
0.0
173
     0
291
     0
 45
0.0
1001
ACAD
1000
AcDbSavedByObjectVersion
1070
     0
  0
VISUALSTYLE
  5
B7C
102
{ACAD_XDICTIONARY
360
C0A
102
}
102
{ACAD_REACTORS
330
B6B
102
}
330
B6B
100
AcDbVisualStyle
  2
Shades of Gray
 70
    23
 71
     2
 72
     2
 73
     3
 90
        0
 40
-0.6
 41
-30.0
 62
     5
 63
     7
 74
     2
 91
        2
 64
     7
 65
     7
 75
     1
175
     1
 42
40.0
 92
        8
 66
     7
 43
1.0
 76
     1
 77
     6
 78
     2
 67
     7
 79
     3
170
     0
171
     0
290
     0
174
     0
 93
        1
 44
0.0
173
     0
291
     0
 45
0.0
1001
ACAD
1000
AcDbSavedByObjectVersion
1070
     0
  0
VISUALSTYLE
  5
B7D
102
{ACAD_XDICTIONARY
360
C0C
102
}
102
{ACAD_REACTORS
330
B6B
102
}
330
B6B
100
AcDbVisualStyle
  2
Sketchy
 70
    24
 71
     1
 72
     2
 73
     2
 90
        0
 40
-0.6
 41
-30.0
 62
     5
 63
     7
 74
     2
 91
        2
 64
     7
 65
     7
 75
     1
175
     1
 42
40.0
 92
       11
 66
     7
 43
1.0
 76
     1
 77
     6
 78
     2
 67
     7
 79
     6
170
     0
171
     0
290
     0
174
     0
 93
        1
 44
0.0
173
     0
291
     0
 45
0.0
1001
ACAD
1000
AcDbSavedByObjectVersion
1070
     0
  0
VISUALSTYLE
  5
B78
102
{ACAD_XDICTIONARY
360
C02
102
}
102
{ACAD_REACTORS
330
B6B
102
}
330
B6B
100
AcDbVisualStyle
  2
Thicken
 70
    13
 71
     2
 72
     2
 73
     0
 90
        0
 40
-0.6
 41
-30.0
 62
     5
 63
     7
 74
     1
 91
        4
 64
     7
 65
   257
 75
     1
175
     1
 42
1.0
 92
       12
 66
     7
 43
1.0
 76
     1
 77
     6
 78
     2
 67
     7
 79
     5
170
     0
171
     0
290
     0
174
     0
 93
        1
 44
0.0
173
     0
291
     1
 45
0.0
1001
ACAD
1000
AcDbSavedByObjectVersion
1070
     0
  0
VISUALSTYLE
  5
B72
102
{ACAD_XDICTIONARY
360
BF6
102
}
102
{ACAD_REACTORS
330
B6B
102
}
330
B6B
100
AcDbVisualStyle
  2
Wireframe
 70
     5
 71
     0
 72
     2
 73
     0
 90
        0
 40
-0.6
 41
-30.0
 62
     5
 63
     7
 74
     1
 91
        4
 64
     7
 65
   257
 75
     1
175
     1
 42
1.0
 92
        0
 66
   257
 43
1.0
 76
     1
 77
     6
 78
     2
 67
     7
 79
     3
170
     0
171
     0
290
     0
174
     0
 93
        1
 44
0.0
173
     0
291
     0
 45
0.0
1001
ACAD
1000
AcDbSavedByObjectVersion
1070
     0
  0
VISUALSTYLE
  5
B7E
102
{ACAD_XDICTIONARY
360
C0E
102
}
102
{ACAD_REACTORS
330
B6B
102
}
330
B6B
100
AcDbVisualStyle
  2
X-Ray
 70
    25
 71
     2
 72
     2
 73
     1
 90
        1
 40
0.5
 41
-30.0
 62
     5
 63
     7
 74
     1
 91
        0
 64
     7
 65
   257
 75
     1
175
     1
 42
1.0
 92
        8
 66
     7
 43
1.0
 76
     1
 77
     6
 78
     2
 67
     7
 79
     3
170
     0
171
     0
290
     0
174
     0
 93
       13
 44
0.0
173
     0
291
     0
 45
0.0
1001
ACAD
1000
AcDbSavedByObjectVersion
1070
     0
  0
DICTIONARYVAR
  5
BD5
102
{ACAD_REACTORS
330
3D
102
}
330
3D
100
DictionaryVariables
280
     0
  1
1:1
  0
DICTIONARYVAR
  5
BD2
102
{ACAD_REACTORS
330
3D
102
}
330
3D
100
DictionaryVariables
280
     0
  1
STANDARD
  0
DICTIONARYVAR
  5
B51
102
{ACAD_REACTORS
330
3D
102
}
330
3D
100
DictionaryVariables
280
     0
  1
STANDARD
  0
DICTIONARYVAR
  5
BD3
102
{ACAD_REACTORS
330
3D
102
}
330
3D
100
DictionaryVariables
280
     0
  1
Metric50
  0
DICTIONARYVAR
  5
BD4
102
{ACAD_REACTORS
330
3D
102
}
330
3D
100
DictionaryVariables
280
     0
  1
Metric50
  0
DICTIONARYVAR
  5
3F
102
{ACAD_REACTORS
330
3D
102
}
330
3D
100
DictionaryVariables
280
     0
  1
2
  0
DICTIONARYVAR
  5
3E
102
{ACAD_REACTORS
330
3D
102
}
330
3D
100
DictionaryVariables
280
     0
  1
1
  0
DICTIONARYVAR
  5
BD7
102
{ACAD_REACTORS
330
3D
102
}
330
3D
100
DictionaryVariables
280
     0
  1
0
  0
DICTIONARYVAR
  5
BD6
102
{ACAD_REACTORS
330
3D
102
}
330
3D
100
DictionaryVariables
280
     0
  1
127
  0
DICTIONARYVAR
  5
BD8
102
{ACAD_REACTORS
330
3D
102
}
330
3D
100
DictionaryVariables
280
     0
  1
0
  0
XRECORD
  5
B06
102
{ACAD_REACTORS
330
B05
102
}
330
B05
100
AcDbXrecord
280
     1
330
90E
  0
DICTIONARY
  5
BDE
330
1E
100
AcDbDictionary
280
     1
281
     1
  3
ACAD_XREC_ROUNDTRIP
360
BDF
  0
DICTIONARY
  5
BE2
330
26
100
AcDbDictionary
280
     1
281
     1
  3
ACAD_XREC_ROUNDTRIP
360
BE3
  0
DICTIONARY
  5
BE0
330
22
100
AcDbDictionary
280
     1
281
     1
  3
ACAD_XREC_ROUNDTRIP
360
BE1
  0
DICTIONARY
  5
B5C
330
B5B
100
AcDbDictionary
280
     1
281
     1
  3
ACAD_XREC_ROUNDTRIP
360
BE8
  3
BUMPTILE
360
B5E
  3
DIFFUSETILE
360
B5D
  3
OPACITYTILE
360
B61
  3
REFLECTIONTILE
360
B60
  3
REFRACTIONTILE
360
B62
  3
SPECULARTILE
360
B5F
  0
DICTIONARY
  5
B54
330
B53
100
AcDbDictionary
280
     1
281
     1
  3
ACAD_XREC_ROUNDTRIP
360
BE7
  3
BUMPTILE
360
B56
  3
DIFFUSETILE
360
B55
  3
OPACITYTILE
360
B59
  3
REFLECTIONTILE
360
B58
  3
REFRACTIONTILE
360
B5A
  3
SPECULARTILE
360
B57
  0
DICTIONARY
  5
B64
330
B63
100
AcDbDictionary
280
     1
281
     1
  3
ACAD_XREC_ROUNDTRIP
360
BE9
  3
BUMPTILE
360
B66
  3
DIFFUSETILE
360
B65
  3
OPACITYTILE
360
B69
  3
REFLECTIONTILE
360
B68
  3
REFRACTIONTILE
360
B6A
  3
SPECULARTILE
360
B67
  0
DICTIONARY
  5
C1B
330
B97
100
AcDbDictionary
280
     1
281
     1
  3
ACAD_XREC_ROUNDTRIP
360
C1C
  0
DICTIONARY
  5
BDA
330
B29
100
AcDbDictionary
280
     1
281
     1
  3
ACAD_ROUNDTRIP_2008_TABLESTYLE_CELLSTYLEMAP
360
BDB
  3
ACAD_XREC_ROUNDTRIP
360
BE6
  0
DICTIONARY
  5
BA8
330
BA7
100
AcDbDictionary
280
     1
281
     1
  3
ACAD_XREC_ROUNDTRIP
360
C1D
  3
LightingQuality
360
BA9
  0
DICTIONARY
  5
BF4
330
B71
100
AcDbDictionary
280
     1
281
     1
  3
ACAD_XREC_ROUNDTRIP
360
BF5
  0
DICTIONARY
  5
BF2
330
B70
100
AcDbDictionary
280
     1
281
     1
  3
ACAD_XREC_ROUNDTRIP
360
BF3
  0
DICTIONARY
  5
C00
330
B77
100
AcDbDictionary
280
     1
281
     1
  3
ACAD_XREC_ROUNDTRIP
360
C01
  0
DICTIONARY
  5
C08
330
B7B
100
AcDbDictionary
280
     1
281
     1
  3
ACAD_XREC_ROUNDTRIP
360
C09
  0
DICTIONARY
  5
BFA
330
B74
100
AcDbDictionary
280
     1
281
     1
  3
ACAD_XREC_ROUNDTRIP
360
BFB
  0
DICTIONARY
  5
BFE
330
B76
100
AcDbDictionary
280
     1
281
     1
  3
ACAD_XREC_ROUNDTRIP
360
BFF
  0
DICTIONARY
  5
C18
330
B83
100
AcDbDictionary
280
     1
281
     1
  3
ACAD_XREC_ROUNDTRIP
360
C19
  0
DICTIONARY
  5
C06
330
B7A
100
AcDbDictionary
280
     1
281
     1
  3
ACAD_XREC_ROUNDTRIP
360
C07
  0
DICTIONARY
  5
BEA
330
B6C
100
AcDbDictionary
280
     1
281
     1
  3
ACAD_XREC_ROUNDTRIP
360
BEB
  0
DICTIONARY
  5
BEC
330
B6D
100
AcDbDictionary
280
     1
281
     1
  3
ACAD_XREC_ROUNDTRIP
360
BED
  0
DICTIONARY
  5
BEE
330
B6E
100
AcDbDictionary
280
     1
281
     1
  3
ACAD_XREC_ROUNDTRIP
360
BEF
  0
DICTIONARY
  5
BF0
330
B6F
100
AcDbDictionary
280
     1
281
     1
  3
ACAD_XREC_ROUNDTRIP
360
BF1
  0
DICTIONARY
  5
BF8
330
B73
100
AcDbDictionary
280
     1
281
     1
  3
ACAD_XREC_ROUNDTRIP
360
BF9
  0
DICTIONARY
  5
C14
330
B81
100
AcDbDictionary
280
     1
281
     1
  3
ACAD_XREC_ROUNDTRIP
360
C15
  0
DICTIONARY
  5
C04
330
B79
100
AcDbDictionary
280
     1
281
     1
  3
ACAD_XREC_ROUNDTRIP
360
C05
  0
DICTIONARY
  5
C16
330
B82
100
AcDbDictionary
280
     1
281
     1
  3
ACAD_XREC_ROUNDTRIP
360
C17
  0
DICTIONARY
  5
BFC
330
B75
100
AcDbDictionary
280
     1
281
     1
  3
ACAD_XREC_ROUNDTRIP
360
BFD
  0
DICTIONARY
  5
C12
330
B80
100
AcDbDictionary
280
     1
281
     1
  3
ACAD_XREC_ROUNDTRIP
360
C13
  0
DICTIONARY
  5
C10
330
B7F
100
AcDbDictionary
280
     1
281
     1
  3
ACAD_XREC_ROUNDTRIP
360
C11
  0
DICTIONARY
  5
C0A
330
B7C
100
AcDbDictionary
280
     1
281
     1
  3
ACAD_XREC_ROUNDTRIP
360
C0B
  0
DICTIONARY
  5
C0C
330
B7D
100
AcDbDictionary
280
     1
281
     1
  3
ACAD_XREC_ROUNDTRIP
360
C0D
  0
DICTIONARY
  5
C02
330
B78
100
AcDbDictionary
280
     1
281
     1
  3
ACAD_XREC_ROUNDTRIP
360
C03
  0
DICTIONARY
  5
BF6
330
B72
100
AcDbDictionary
280
     1
281
     1
  3
ACAD_XREC_ROUNDTRIP
360
BF7
  0
DICTIONARY
  5
C0E
330
B7E
100
AcDbDictionary
280
     1
281
     1
  3
ACAD_XREC_ROUNDTRIP
360
C0F
  0
XRECORD
  5
BDF
102
{ACAD_REACTORS
330
BDE
102
}
330
BDE
100
AcDbXrecord
280
     1
102
SHADEPLOT
 70
     0
102
SHADEPLOTRESLEVEL
 70
     2
102
SHADEPLOTCUSTOMDPI
 70
   300
  0
XRECORD
  5
BE3
102
{ACAD_REACTORS
330
BE2
102
}
330
BE2
100
AcDbXrecord
280
     1
102
SHADEPLOT
 70
     0
102
SHADEPLOTRESLEVEL
 70
     2
102
SHADEPLOTCUSTOMDPI
 70
   300
  0
XRECORD
  5
BE1
102
{ACAD_REACTORS
330
BE0
102
}
330
BE0
100
AcDbXrecord
280
     1
102
SHADEPLOT
 70
     0
102
SHADEPLOTRESLEVEL
 70
     2
102
SHADEPLOTCUSTOMDPI
 70
   300
  0
XRECORD
  5
BE8
102
{ACAD_REACTORS
330
B5C
102
}
330
B5C
100
AcDbXrecord
280
     1
102
MATERIAL
148
0.0
149
0.0
149
0.0
 93
        0
 94
      127
282
     0
 72
     0
 77
     0
171
     0
175
     0
179
     0
273
     0
  0
XRECORD
  5
B5E
102
{ACAD_REACTORS
330
B5C
102
}
330
B5C
100
AcDbXrecord
280
     1
270
     1
271
     1
  0
XRECORD
  5
B5D
102
{ACAD_REACTORS
330
B5C
102
}
330
B5C
100
AcDbXrecord
280
     1
270
     1
271
     1
  0
XRECORD
  5
B61
102
{ACAD_REACTORS
330
B5C
102
}
330
B5C
100
AcDbXrecord
280
     1
270
     1
271
     1
  0
XRECORD
  5
B60
102
{ACAD_REACTORS
330
B5C
102
}
330
B5C
100
AcDbXrecord
280
     1
270
     1
271
     1
  0
XRECORD
  5
B62
102
{ACAD_REACTORS
330
B5C
102
}
330
B5C
100
AcDbXrecord
280
     1
270
     1
271
     1
  0
XRECORD
  5
B5F
102
{ACAD_REACTORS
330
B5C
102
}
330
B5C
100
AcDbXrecord
280
     1
270
     1
271
     1
  0
XRECORD
  5
BE7
102
{ACAD_REACTORS
330
B54
102
}
330
B54
100
AcDbXrecord
280
     1
102
MATERIAL
148
0.0
149
0.0
149
0.0
 93
        0
 94
      127
282
     0
 72
     0
 77
     0
171
     0
175
     0
179
     0
273
     0
  0
XRECORD
  5
B56
102
{ACAD_REACTORS
330
B54
102
}
330
B54
100
AcDbXrecord
280
     1
270
     1
271
     1
  0
XRECORD
  5
B55
102
{ACAD_REACTORS
330
B54
102
}
330
B54
100
AcDbXrecord
280
     1
270
     1
271
     1
  0
XRECORD
  5
B59
102
{ACAD_REACTORS
330
B54
102
}
330
B54
100
AcDbXrecord
280
     1
270
     1
271
     1
  0
XRECORD
  5
B58
102
{ACAD_REACTORS
330
B54
102
}
330
B54
100
AcDbXrecord
280
     1
270
     1
271
     1
  0
XRECORD
  5
B5A
102
{ACAD_REACTORS
330
B54
102
}
330
B54
100
AcDbXrecord
280
     1
270
     1
271
     1
  0
XRECORD
  5
B57
102
{ACAD_REACTORS
330
B54
102
}
330
B54
100
AcDbXrecord
280
     1
270
     1
271
     1
  0
XRECORD
  5
BE9
102
{ACAD_REACTORS
330
B64
102
}
330
B64
100
AcDbXrecord
280
     1
102
MATERIAL
148
0.0
149
0.0
149
0.0
 93
        0
 94
      127
282
     0
 72
     0
 77
     0
171
     0
175
     0
179
     0
273
     0
  0
XRECORD
  5
B66
102
{ACAD_REACTORS
330
B64
102
}
330
B64
100
AcDbXrecord
280
     1
270
     1
271
     1
  0
XRECORD
  5
B65
102
{ACAD_REACTORS
330
B64
102
}
330
B64
100
AcDbXrecord
280
     1
270
     1
271
     1
  0
XRECORD
  5
B69
102
{ACAD_REACTORS
330
B64
102
}
330
B64
100
AcDbXrecord
280
     1
270
     1
271
     1
  0
XRECORD
  5
B68
102
{ACAD_REACTORS
330
B64
102
}
330
B64
100
AcDbXrecord
280
     1
270
     1
271
     1
  0
XRECORD
  5
B6A
102
{ACAD_REACTORS
330
B64
102
}
330
B64
100
AcDbXrecord
280
     1
270
     1
271
     1
  0
XRECORD
  5
B67
102
{ACAD_REACTORS
330
B64
102
}
330
B64
100
AcDbXrecord
280
     1
270
     1
271
     1
  0
XRECORD
  5
C1C
102
{ACAD_REACTORS
330
C1B
102
}
330
C1B
100
AcDbXrecord
280
     1
102
ACAD_ROUNDTRIP_2012_MLEADER_STYLE
298
     1
  0
CELLSTYLEMAP
  5
BDB
102
{ACAD_REACTORS
330
BDA
102
}
330
BDA
100
AcDbCellStyleMap
 90
        3
300
CELLSTYLE
  1
TABLEFORMAT_BEGIN
 90
        5
170
     1
 91
        0
 92
    32768
 62
   257
 93
        1
300
CONTENTFORMAT
  1
CONTENTFORMAT_BEGIN
 90
        0
 91
        0
 92
        4
 93
        0
300

 40
0.0
140
1.0
 94
        5
 62
     0
340
11
144
6.0
309
CONTENTFORMAT_END
171
     1
301
MARGIN
  1
CELLMARGIN_BEGIN
 40
1.5
 40
1.5
 40
1.5
 40
1.5
 40
0.18
 40
0.18
309
CELLMARGIN_END
 94
        6
 95
        1
302
GRIDFORMAT
  1
GRIDFORMAT_BEGIN
 90
        0
 91
        1
 62
     0
 92
       -2
340
0
 93
        0
 40
0.045
309
GRIDFORMAT_END
 95
        2
302
GRIDFORMAT
  1
GRIDFORMAT_BEGIN
 90
        0
 91
        1
 62
     0
 92
       -2
340
0
 93
        0
 40
0.045
309
GRIDFORMAT_END
 95
        4
302
GRIDFORMAT
  1
GRIDFORMAT_BEGIN
 90
        0
 91
        1
 62
     0
 92
       -2
340
0
 93
        0
 40
0.045
309
GRIDFORMAT_END
 95
        8
302
GRIDFORMAT
  1
GRIDFORMAT_BEGIN
 90
        0
 91
        1
 62
     0
 92
       -2
340
0
 93
        0
 40
0.045
309
GRIDFORMAT_END
 95
       16
302
GRIDFORMAT
  1
GRIDFORMAT_BEGIN
 90
        0
 91
        1
 62
     0
 92
       -2
340
0
 93
        0
 40
0.045
309
GRIDFORMAT_END
 95
       32
302
GRIDFORMAT
  1
GRIDFORMAT_BEGIN
 90
        0
 91
        1
 62
     0
 92
       -2
340
0
 93
        0
 40
0.045
309
GRIDFORMAT_END
309
TABLEFORMAT_END
  1
CELLSTYLE_BEGIN
 90
        1
 91
        1
300
_TITLE
309
CELLSTYLE_END
300
CELLSTYLE
  1
TABLEFORMAT_BEGIN
 90
        5
170
     1
 91
        0
 92
        0
 62
   257
 93
        1
300
CONTENTFORMAT
  1
CONTENTFORMAT_BEGIN
 90
        0
 91
        0
 92
        4
 93
        0
300

 40
0.0
140
1.0
 94
        5
 62
     0
340
11
144
4.5
309
CONTENTFORMAT_END
171
     1
301
MARGIN
  1
CELLMARGIN_BEGIN
 40
1.5
 40
1.5
 40
1.5
 40
1.5
 40
0.18
 40
0.18
309
CELLMARGIN_END
 94
        6
 95
        1
302
GRIDFORMAT
  1
GRIDFORMAT_BEGIN
 90
        0
 91
        1
 62
     0
 92
       -2
340
0
 93
        0
 40
0.045
309
GRIDFORMAT_END
 95
        2
302
GRIDFORMAT
  1
GRIDFORMAT_BEGIN
 90
        0
 91
        1
 62
     0
 92
       -2
340
0
 93
        0
 40
0.045
309
GRIDFORMAT_END
 95
        4
302
GRIDFORMAT
  1
GRIDFORMAT_BEGIN
 90
        0
 91
        1
 62
     0
 92
       -2
340
0
 93
        0
 40
0.045
309
GRIDFORMAT_END
 95
        8
302
GRIDFORMAT
  1
GRIDFORMAT_BEGIN
 90
        0
 91
        1
 62
     0
 92
       -2
340
0
 93
        0
 40
0.045
309
GRIDFORMAT_END
 95
       16
302
GRIDFORMAT
  1
GRIDFORMAT_BEGIN
 90
        0
 91
        1
 62
     0
 92
       -2
340
0
 93
        0
 40
0.045
309
GRIDFORMAT_END
 95
       32
302
GRIDFORMAT
  1
GRIDFORMAT_BEGIN
 90
        0
 91
        1
 62
     0
 92
       -2
340
0
 93
        0
 40
0.045
309
GRIDFORMAT_END
309
TABLEFORMAT_END
  1
CELLSTYLE_BEGIN
 90
        2
 91
        1
300
_HEADER
309
CELLSTYLE_END
300
CELLSTYLE
  1
TABLEFORMAT_BEGIN
 90
        5
170
     1
 91
        0
 92
        0
 62
   257
 93
        1
300
CONTENTFORMAT
  1
CONTENTFORMAT_BEGIN
 90
        0
 91
        0
 92
        4
 93
        0
300

 40
0.0
140
1.0
 94
        2
 62
     0
340
11
144
4.5
309
CONTENTFORMAT_END
171
     1
301
MARGIN
  1
CELLMARGIN_BEGIN
 40
1.5
 40
1.5
 40
1.5
 40
1.5
 40
0.18
 40
0.18
309
CELLMARGIN_END
 94
        6
 95
        1
302
GRIDFORMAT
  1
GRIDFORMAT_BEGIN
 90
        0
 91
        1
 62
     0
 92
       -2
340
0
 93
        0
 40
0.045
309
GRIDFORMAT_END
 95
        2
302
GRIDFORMAT
  1
GRIDFORMAT_BEGIN
 90
        0
 91
        1
 62
     0
 92
       -2
340
0
 93
        0
 40
0.045
309
GRIDFORMAT_END
 95
        4
302
GRIDFORMAT
  1
GRIDFORMAT_BEGIN
 90
        0
 91
        1
 62
     0
 92
       -2
340
0
 93
        0
 40
0.045
309
GRIDFORMAT_END
 95
        8
302
GRIDFORMAT
  1
GRIDFORMAT_BEGIN
 90
        0
 91
        1
 62
     0
 92
       -2
340
0
 93
        0
 40
0.045
309
GRIDFORMAT_END
 95
       16
302
GRIDFORMAT
  1
GRIDFORMAT_BEGIN
 90
        0
 91
        1
 62
     0
 92
       -2
340
0
 93
        0
 40
0.045
309
GRIDFORMAT_END
 95
       32
302
GRIDFORMAT
  1
GRIDFORMAT_BEGIN
 90
        0
 91
        1
 62
     0
 92
       -2
340
0
 93
        0
 40
0.045
309
GRIDFORMAT_END
309
TABLEFORMAT_END
  1
CELLSTYLE_BEGIN
 90
        3
 91
        2
300
_DATA
309
CELLSTYLE_END
  0
XRECORD
  5
BE6
102
{ACAD_REACTORS
330
BDA
102
}
330
BDA
100
AcDbXrecord
280
     1
102
ACAD_ROUNDTRIP_PRE2007_TABLESTYLE
 90
        4
 91
        0
  1

 92
        4
 93
        0
  2

 94
        4
 95
        0
  3

  0
XRECORD
  5
C1D
102
{ACAD_REACTORS
330
BA8
102
}
330
BA8
100
AcDbXrecord
280
     1
102
RTVSPost2010Prop28
280
     0
102
RTVSPost2010PropOp28
 70
     1
102
RTVSPost2010Prop29
280
     1
102
RTVSPost2010PropOp29
 70
     1
102
RTVSPost2010Prop30
280
     1
102
RTVSPost2010PropOp30
 70
     1
102
RTVSPost2010Prop31
280
     0
102
RTVSPost2010PropOp31
 70
     1
102
RTVSPost2010Prop32
280
     0
102
RTVSPost2010PropOp32
 70
     1
102
RTVSPost2010Prop33
280
     0
102
RTVSPost2010PropOp33
 70
     1
102
RTVSPost2010Prop34
280
     0
102
RTVSPost2010PropOp34
 70
     1
102
RTVSPost2010Prop35
280
     0
102
RTVSPost2010PropOp35
 70
     1
102
RTVSPost2010Prop36
280
     0
102
RTVSPost2010PropOp36
 70
     1
102
RTVSPost2010Prop37
 90
       50
102
RTVSPost2010PropOp37
 70
     1
102
RTVSPost2010Prop38
140
0.0
102
RTVSPost2010PropOp38
 70
     1
102
RTVSPost2010Prop39
140
1.0
102
RTVSPost2010PropOp39
 70
     1
102
RTVSPost2010Prop40
 90
        0
102
RTVSPost2010PropOp40
 70
     1
102
RTVSPost2010Prop41ColorIndex
 90
       18
102
RTVSPost2010Prop41ColorRGB
 90
        0
102
RTVSPost2010PropOp41
 70
     1
102
RTVSPost2010Prop42
 90
       50
102
RTVSPost2010PropOp42
 70
     1
102
RTVSPost2010Prop43
 90
        3
102
RTVSPost2010PropOp43
 70
     1
102
RTVSPost2010Prop44ColorIndex
 90
        5
102
RTVSPost2010Prop44ColorRGB
 90
      255
102
RTVSPost2010PropOp44
 70
     1
102
RTVSPost2010Prop45
280
     0
102
RTVSPost2010PropOp45
 70
     1
102
RTVSPost2010Prop46
 90
       50
102
RTVSPost2010PropOp46
 70
     1
102
RTVSPost2010Prop47
 90
       50
102
RTVSPost2010PropOp47
 70
     1
102
RTVSPost2010Prop48
 90
       50
102
RTVSPost2010PropOp48
 70
     1
102
RTVSPost2010Prop49
280
     0
102
RTVSPost2010PropOp49
 70
     1
102
RTVSPost2010Prop50
 90
       50
102
RTVSPost2010PropOp50
 70
     1
102
RTVSPost2010Prop51ColorIndex
 90
      256
102
RTVSPost2010Prop51ColorRGB
 90
-16777216
102
RTVSPost2010PropOp51
 70
     0
102
RTVSPost2010Prop52
140
1.0
102
RTVSPost2010PropOp52
 70
     0
102
RTVSPost2010Prop53
 90
        2
102
RTVSPost2010PropOp53
 70
     1
102
RTVSPost2010Prop54
  1
strokes_ogs.tif
102
RTVSPost2010PropOp54
 70
     1
102
RTVSPost2010Prop55
280
     0
102
RTVSPost2010PropOp55
 70
     1
102
RTVSPost2010Prop56
140
1.0
102
RTVSPost2010PropOp56
 70
     1
102
RTVSPost2010Prop57
140
1.0
102
RTVSPost2010PropOp57
 70
     1
102
RTVSPropertyOp0
 70
     1
102
RTVSPropertyOp1
 70
     1
102
RTVSPropertyOp2
 70
     1
102
RTVSPropertyOp3
 70
     1
102
RTVSPropertyOp4
 70
     1
102
RTVSPropertyOp5
 70
     1
102
RTVSPropertyOp6
 70
     1
102
RTVSPropertyOp7
 70
     1
102
RTVSPropertyOp8
 70
     1
102
RTVSPropertyOp9
 70
     1
102
RTVSPropertyOp10
 70
     1
102
RTVSPropertyOp11
 70
     1
102
RTVSPropertyOp12
 70
     1
102
RTVSPropertyOp13
 70
     1
102
RTVSPropertyOp14
 70
     1
102
RTVSPropertyOp15
 70
     1
102
RTVSPropertyOp16
 70
     1
102
RTVSPropertyOp17
 70
     1
102
RTVSPropertyOp18
 70
     1
102
RTVSPropertyOp19
 70
     1
102
RTVSPropertyOp20
 70
     1
102
RTVSPropertyOp21
 70
     1
102
RTVSPropertyOp22
 70
     1
102
RTVSPropertyOp23
 70
     1
102
RTVSPropertyOp24
 70
     1
102
RTVSPropertyOp25
 70
     1
102
RTVSPropertyOp26
 70
     1
102
RTVSPropertyOp27
 70
     1
102
RTVSPropertyOp28
 70
     1
102
RTVSPropertyOp29
 70
     1
102
RTVSPropertyOp30
 70
     1
102
RTVSPropertyOp31
 70
     1
102
RTVSPropertyOp32
 70
     1
102
RTVSPropertyOp33
 70
     1
102
RTVSPropertyOp34
 70
     1
102
RTVSPropertyOp35
 70
     1
102
RTVSPropertyOp36
 70
     1
102
RTVSPropertyOp37
 70
     1
102
RTVSPropertyOp38
 70
     1
102
RTVSPropertyOp39
 70
     1
102
RTVSPropertyOp40
 70
     1
102
RTVSPropertyOp41
 70
     1
102
RTVSPropertyOp42
 70
     1
102
RTVSPropertyOp43
 70
     1
102
RTVSPropertyOp44
 70
     1
102
RTVSPropertyOp45
 70
     1
102
RTVSPropertyOp46
 70
     1
102
RTVSPropertyOp47
 70
     1
102
RTVSPropertyOp48
 70
     1
102
RTVSPropertyOp49
 70
     1
102
RTVSPropertyOp50
 70
     1
102
RTVSPropertyOp51
 70
     0
102
RTVSPropertyOp52
 70
     0
102
RTVSPropertyOp53
 70
     1
102
RTVSPropertyOp54
 70
     1
102
RTVSPropertyOp55
 70
     1
102
RTVSPropertyOp56
 70
     1
102
RTVSPropertyOp57
 70
     1
102
RTVSPropertyOp58
 70
     1
102
RTVSPropertyOp59
 70
     1
102
RTVSPropertyOp60
 70
     1
102
RTVSPropertyOp61
 70
     1
102
RTVSPropertyOp62
 70
     1
  0
XRECORD
  5
BA9
102
{ACAD_REACTORS
330
BA8
102
}
330
BA8
100
AcDbXrecord
280
     1
 90
        2
  0
XRECORD
  5
BF5
102
{ACAD_REACTORS
330
BF4
102
}
330
BF4
100
AcDbXrecord
280
     1
102
RTVSPost2010Prop28
280
     1
102
RTVSPost2010PropOp28
 70
     1
102
RTVSPost2010Prop29
280
     1
102
RTVSPost2010PropOp29
 70
     1
102
RTVSPost2010Prop30
280
     0
102
RTVSPost2010PropOp30
 70
     1
102
RTVSPost2010Prop31
280
     0
102
RTVSPost2010PropOp31
 70
     1
102
RTVSPost2010Prop32
280
     0
102
RTVSPost2010PropOp32
 70
     1
102
RTVSPost2010Prop33
280
     0
102
RTVSPost2010PropOp33
 70
     1
102
RTVSPost2010Prop34
280
     0
102
RTVSPost2010PropOp34
 70
     1
102
RTVSPost2010Prop35
280
     0
102
RTVSPost2010PropOp35
 70
     1
102
RTVSPost2010Prop36
280
     0
102
RTVSPost2010PropOp36
 70
     1
102
RTVSPost2010Prop37
 90
       50
102
RTVSPost2010PropOp37
 70
     1
102
RTVSPost2010Prop38
140
0.0
102
RTVSPost2010PropOp38
 70
     1
102
RTVSPost2010Prop39
140
1.0
102
RTVSPost2010PropOp39
 70
     1
102
RTVSPost2010Prop40
 90
        0
102
RTVSPost2010PropOp40
 70
     1
102
RTVSPost2010Prop41ColorIndex
 90
       18
102
RTVSPost2010Prop41ColorRGB
 90
        0
102
RTVSPost2010PropOp41
 70
     1
102
RTVSPost2010Prop42
 90
       50
102
RTVSPost2010PropOp42
 70
     1
102
RTVSPost2010Prop43
 90
        3
102
RTVSPost2010PropOp43
 70
     1
102
RTVSPost2010Prop44ColorIndex
 90
        5
102
RTVSPost2010Prop44ColorRGB
 90
      255
102
RTVSPost2010PropOp44
 70
     1
102
RTVSPost2010Prop45
280
     0
102
RTVSPost2010PropOp45
 70
     1
102
RTVSPost2010Prop46
 90
       50
102
RTVSPost2010PropOp46
 70
     1
102
RTVSPost2010Prop47
 90
       50
102
RTVSPost2010PropOp47
 70
     1
102
RTVSPost2010Prop48
 90
       50
102
RTVSPost2010PropOp48
 70
     1
102
RTVSPost2010Prop49
280
     0
102
RTVSPost2010PropOp49
 70
     1
102
RTVSPost2010Prop50
 90
       50
102
RTVSPost2010PropOp50
 70
     1
102
RTVSPost2010Prop51ColorIndex
 90
      256
102
RTVSPost2010Prop51ColorRGB
 90
-16777216
102
RTVSPost2010PropOp51
 70
     0
102
RTVSPost2010Prop52
140
1.0
102
RTVSPost2010PropOp52
 70
     0
102
RTVSPost2010Prop53
 90
        2
102
RTVSPost2010PropOp53
 70
     1
102
RTVSPost2010Prop54
  1
strokes_ogs.tif
102
RTVSPost2010PropOp54
 70
     1
102
RTVSPost2010Prop55
280
     0
102
RTVSPost2010PropOp55
 70
     1
102
RTVSPost2010Prop56
140
1.0
102
RTVSPost2010PropOp56
 70
     1
102
RTVSPost2010Prop57
140
1.0
102
RTVSPost2010PropOp57
 70
     1
102
RTVSPropertyOp0
 70
     1
102
RTVSPropertyOp1
 70
     1
102
RTVSPropertyOp2
 70
     1
102
RTVSPropertyOp3
 70
     1
102
RTVSPropertyOp4
 70
     1
102
RTVSPropertyOp5
 70
     1
102
RTVSPropertyOp6
 70
     1
102
RTVSPropertyOp7
 70
     1
102
RTVSPropertyOp8
 70
     1
102
RTVSPropertyOp9
 70
     1
102
RTVSPropertyOp10
 70
     1
102
RTVSPropertyOp11
 70
     1
102
RTVSPropertyOp12
 70
     1
102
RTVSPropertyOp13
 70
     1
102
RTVSPropertyOp14
 70
     1
102
RTVSPropertyOp15
 70
     1
102
RTVSPropertyOp16
 70
     1
102
RTVSPropertyOp17
 70
     1
102
RTVSPropertyOp18
 70
     1
102
RTVSPropertyOp19
 70
     1
102
RTVSPropertyOp20
 70
     1
102
RTVSPropertyOp21
 70
     1
102
RTVSPropertyOp22
 70
     1
102
RTVSPropertyOp23
 70
     1
102
RTVSPropertyOp24
 70
     1
102
RTVSPropertyOp25
 70
     1
102
RTVSPropertyOp26
 70
     1
102
RTVSPropertyOp27
 70
     1
102
RTVSPropertyOp28
 70
     1
102
RTVSPropertyOp29
 70
     1
102
RTVSPropertyOp30
 70
     1
102
RTVSPropertyOp31
 70
     1
102
RTVSPropertyOp32
 70
     1
102
RTVSPropertyOp33
 70
     1
102
RTVSPropertyOp34
 70
     1
102
RTVSPropertyOp35
 70
     1
102
RTVSPropertyOp36
 70
     1
102
RTVSPropertyOp37
 70
     1
102
RTVSPropertyOp38
 70
     1
102
RTVSPropertyOp39
 70
     1
102
RTVSPropertyOp40
 70
     1
102
RTVSPropertyOp41
 70
     1
102
RTVSPropertyOp42
 70
     1
102
RTVSPropertyOp43
 70
     1
102
RTVSPropertyOp44
 70
     1
102
RTVSPropertyOp45
 70
     1
102
RTVSPropertyOp46
 70
     1
102
RTVSPropertyOp47
 70
     1
102
RTVSPropertyOp48
 70
     1
102
RTVSPropertyOp49
 70
     1
102
RTVSPropertyOp50
 70
     1
102
RTVSPropertyOp51
 70
     0
102
RTVSPropertyOp52
 70
     0
102
RTVSPropertyOp53
 70
     1
102
RTVSPropertyOp54
 70
     1
102
RTVSPropertyOp55
 70
     1
102
RTVSPropertyOp56
 70
     1
102
RTVSPropertyOp57
 70
     1
102
RTVSPropertyOp58
 70
     1
102
RTVSPropertyOp59
 70
     1
102
RTVSPropertyOp60
 70
     1
102
RTVSPropertyOp61
 70
     1
102
RTVSPropertyOp62
 70
     1
  0
XRECORD
  5
BF3
102
{ACAD_REACTORS
330
BF2
102
}
330
BF2
100
AcDbXrecord
280
     1
102
RTVSPost2010Prop28
280
     0
102
RTVSPost2010PropOp28
 70
     1
102
RTVSPost2010Prop29
280
     1
102
RTVSPost2010PropOp29
 70
     1
102
RTVSPost2010Prop30
280
     1
102
RTVSPost2010PropOp30
 70
     1
102
RTVSPost2010Prop31
280
     0
102
RTVSPost2010PropOp31
 70
     1
102
RTVSPost2010Prop32
280
     0
102
RTVSPost2010PropOp32
 70
     1
102
RTVSPost2010Prop33
280
     0
102
RTVSPost2010PropOp33
 70
     1
102
RTVSPost2010Prop34
280
     0
102
RTVSPost2010PropOp34
 70
     1
102
RTVSPost2010Prop35
280
     0
102
RTVSPost2010PropOp35
 70
     1
102
RTVSPost2010Prop36
280
     0
102
RTVSPost2010PropOp36
 70
     1
102
RTVSPost2010Prop37
 90
       50
102
RTVSPost2010PropOp37
 70
     1
102
RTVSPost2010Prop38
140
0.0
102
RTVSPost2010PropOp38
 70
     1
102
RTVSPost2010Prop39
140
1.0
102
RTVSPost2010PropOp39
 70
     1
102
RTVSPost2010Prop40
 90
        0
102
RTVSPost2010PropOp40
 70
     1
102
RTVSPost2010Prop41ColorIndex
 90
       18
102
RTVSPost2010Prop41ColorRGB
 90
        0
102
RTVSPost2010PropOp41
 70
     1
102
RTVSPost2010Prop42
 90
       50
102
RTVSPost2010PropOp42
 70
     1
102
RTVSPost2010Prop43
 90
        3
102
RTVSPost2010PropOp43
 70
     1
102
RTVSPost2010Prop44ColorIndex
 90
        5
102
RTVSPost2010Prop44ColorRGB
 90
      255
102
RTVSPost2010PropOp44
 70
     1
102
RTVSPost2010Prop45
280
     0
102
RTVSPost2010PropOp45
 70
     1
102
RTVSPost2010Prop46
 90
       50
102
RTVSPost2010PropOp46
 70
     1
102
RTVSPost2010Prop47
 90
       50
102
RTVSPost2010PropOp47
 70
     1
102
RTVSPost2010Prop48
 90
       50
102
RTVSPost2010PropOp48
 70
     1
102
RTVSPost2010Prop49
280
     0
102
RTVSPost2010PropOp49
 70
     1
102
RTVSPost2010Prop50
 90
       50
102
RTVSPost2010PropOp50
 70
     1
102
RTVSPost2010Prop51ColorIndex
 90
      256
102
RTVSPost2010Prop51ColorRGB
 90
-16777216
102
RTVSPost2010PropOp51
 70
     0
102
RTVSPost2010Prop52
140
1.0
102
RTVSPost2010PropOp52
 70
     0
102
RTVSPost2010Prop53
 90
        2
102
RTVSPost2010PropOp53
 70
     1
102
RTVSPost2010Prop54
  1
strokes_ogs.tif
102
RTVSPost2010PropOp54
 70
     1
102
RTVSPost2010Prop55
280
     0
102
RTVSPost2010PropOp55
 70
     1
102
RTVSPost2010Prop56
140
1.0
102
RTVSPost2010PropOp56
 70
     1
102
RTVSPost2010Prop57
140
1.0
102
RTVSPost2010PropOp57
 70
     1
102
RTVSPropertyOp0
 70
     1
102
RTVSPropertyOp1
 70
     1
102
RTVSPropertyOp2
 70
     1
102
RTVSPropertyOp3
 70
     1
102
RTVSPropertyOp4
 70
     1
102
RTVSPropertyOp5
 70
     1
102
RTVSPropertyOp6
 70
     1
102
RTVSPropertyOp7
 70
     1
102
RTVSPropertyOp8
 70
     1
102
RTVSPropertyOp9
 70
     1
102
RTVSPropertyOp10
 70
     1
102
RTVSPropertyOp11
 70
     1
102
RTVSPropertyOp12
 70
     1
102
RTVSPropertyOp13
 70
     1
102
RTVSPropertyOp14
 70
     1
102
RTVSPropertyOp15
 70
     1
102
RTVSPropertyOp16
 70
     1
102
RTVSPropertyOp17
 70
     1
102
RTVSPropertyOp18
 70
     1
102
RTVSPropertyOp19
 70
     1
102
RTVSPropertyOp20
 70
     1
102
RTVSPropertyOp21
 70
     1
102
RTVSPropertyOp22
 70
     1
102
RTVSPropertyOp23
 70
     1
102
RTVSPropertyOp24
 70
     1
102
RTVSPropertyOp25
 70
     1
102
RTVSPropertyOp26
 70
     1
102
RTVSPropertyOp27
 70
     1
102
RTVSPropertyOp28
 70
     1
102
RTVSPropertyOp29
 70
     1
102
RTVSPropertyOp30
 70
     1
102
RTVSPropertyOp31
 70
     1
102
RTVSPropertyOp32
 70
     1
102
RTVSPropertyOp33
 70
     1
102
RTVSPropertyOp34
 70
     1
102
RTVSPropertyOp35
 70
     1
102
RTVSPropertyOp36
 70
     1
102
RTVSPropertyOp37
 70
     1
102
RTVSPropertyOp38
 70
     1
102
RTVSPropertyOp39
 70
     1
102
RTVSPropertyOp40
 70
     1
102
RTVSPropertyOp41
 70
     1
102
RTVSPropertyOp42
 70
     1
102
RTVSPropertyOp43
 70
     1
102
RTVSPropertyOp44
 70
     1
102
RTVSPropertyOp45
 70
     1
102
RTVSPropertyOp46
 70
     1
102
RTVSPropertyOp47
 70
     1
102
RTVSPropertyOp48
 70
     1
102
RTVSPropertyOp49
 70
     1
102
RTVSPropertyOp50
 70
     1
102
RTVSPropertyOp51
 70
     0
102
RTVSPropertyOp52
 70
     0
102
RTVSPropertyOp53
 70
     1
102
RTVSPropertyOp54
 70
     1
102
RTVSPropertyOp55
 70
     1
102
RTVSPropertyOp56
 70
     1
102
RTVSPropertyOp57
 70
     1
102
RTVSPropertyOp58
 70
     1
102
RTVSPropertyOp59
 70
     1
102
RTVSPropertyOp60
 70
     1
102
RTVSPropertyOp61
 70
     1
102
RTVSPropertyOp62
 70
     1
  0
XRECORD
  5
C01
102
{ACAD_REACTORS
330
C00
102
}
330
C00
100
AcDbXrecord
280
     1
102
RTVSPost2010Prop28
280
     0
102
RTVSPost2010PropOp28
 70
     1
102
RTVSPost2010Prop29
280
     1
102
RTVSPost2010PropOp29
 70
     1
102
RTVSPost2010Prop30
280
     1
102
RTVSPost2010PropOp30
 70
     1
102
RTVSPost2010Prop31
280
     0
102
RTVSPost2010PropOp31
 70
     1
102
RTVSPost2010Prop32
280
     0
102
RTVSPost2010PropOp32
 70
     1
102
RTVSPost2010Prop33
280
     0
102
RTVSPost2010PropOp33
 70
     1
102
RTVSPost2010Prop34
280
     0
102
RTVSPost2010PropOp34
 70
     1
102
RTVSPost2010Prop35
280
     0
102
RTVSPost2010PropOp35
 70
     1
102
RTVSPost2010Prop36
280
     0
102
RTVSPost2010PropOp36
 70
     1
102
RTVSPost2010Prop37
 90
       50
102
RTVSPost2010PropOp37
 70
     1
102
RTVSPost2010Prop38
140
0.0
102
RTVSPost2010PropOp38
 70
     1
102
RTVSPost2010Prop39
140
1.0
102
RTVSPost2010PropOp39
 70
     1
102
RTVSPost2010Prop40
 90
        0
102
RTVSPost2010PropOp40
 70
     1
102
RTVSPost2010Prop41ColorIndex
 90
       18
102
RTVSPost2010Prop41ColorRGB
 90
        0
102
RTVSPost2010PropOp41
 70
     1
102
RTVSPost2010Prop42
 90
       50
102
RTVSPost2010PropOp42
 70
     1
102
RTVSPost2010Prop43
 90
        3
102
RTVSPost2010PropOp43
 70
     1
102
RTVSPost2010Prop44ColorIndex
 90
        5
102
RTVSPost2010Prop44ColorRGB
 90
      255
102
RTVSPost2010PropOp44
 70
     1
102
RTVSPost2010Prop45
280
     0
102
RTVSPost2010PropOp45
 70
     1
102
RTVSPost2010Prop46
 90
       50
102
RTVSPost2010PropOp46
 70
     1
102
RTVSPost2010Prop47
 90
       50
102
RTVSPost2010PropOp47
 70
     1
102
RTVSPost2010Prop48
 90
       50
102
RTVSPost2010PropOp48
 70
     1
102
RTVSPost2010Prop49
280
     0
102
RTVSPost2010PropOp49
 70
     1
102
RTVSPost2010Prop50
 90
       50
102
RTVSPost2010PropOp50
 70
     1
102
RTVSPost2010Prop51ColorIndex
 90
      256
102
RTVSPost2010Prop51ColorRGB
 90
-16777216
102
RTVSPost2010PropOp51
 70
     0
102
RTVSPost2010Prop52
140
1.0
102
RTVSPost2010PropOp52
 70
     0
102
RTVSPost2010Prop53
 90
        2
102
RTVSPost2010PropOp53
 70
     1
102
RTVSPost2010Prop54
  1
strokes_ogs.tif
102
RTVSPost2010PropOp54
 70
     1
102
RTVSPost2010Prop55
280
     0
102
RTVSPost2010PropOp55
 70
     1
102
RTVSPost2010Prop56
140
1.0
102
RTVSPost2010PropOp56
 70
     1
102
RTVSPost2010Prop57
140
1.0
102
RTVSPost2010PropOp57
 70
     1
102
RTVSPropertyOp0
 70
     1
102
RTVSPropertyOp1
 70
     1
102
RTVSPropertyOp2
 70
     1
102
RTVSPropertyOp3
 70
     1
102
RTVSPropertyOp4
 70
     1
102
RTVSPropertyOp5
 70
     1
102
RTVSPropertyOp6
 70
     1
102
RTVSPropertyOp7
 70
     1
102
RTVSPropertyOp8
 70
     1
102
RTVSPropertyOp9
 70
     1
102
RTVSPropertyOp10
 70
     1
102
RTVSPropertyOp11
 70
     1
102
RTVSPropertyOp12
 70
     1
102
RTVSPropertyOp13
 70
     1
102
RTVSPropertyOp14
 70
     1
102
RTVSPropertyOp15
 70
     1
102
RTVSPropertyOp16
 70
     1
102
RTVSPropertyOp17
 70
     1
102
RTVSPropertyOp18
 70
     1
102
RTVSPropertyOp19
 70
     1
102
RTVSPropertyOp20
 70
     1
102
RTVSPropertyOp21
 70
     1
102
RTVSPropertyOp22
 70
     1
102
RTVSPropertyOp23
 70
     1
102
RTVSPropertyOp24
 70
     1
102
RTVSPropertyOp25
 70
     1
102
RTVSPropertyOp26
 70
     1
102
RTVSPropertyOp27
 70
     1
102
RTVSPropertyOp28
 70
     1
102
RTVSPropertyOp29
 70
     1
102
RTVSPropertyOp30
 70
     1
102
RTVSPropertyOp31
 70
     1
102
RTVSPropertyOp32
 70
     1
102
RTVSPropertyOp33
 70
     1
102
RTVSPropertyOp34
 70
     1
102
RTVSPropertyOp35
 70
     1
102
RTVSPropertyOp36
 70
     1
102
RTVSPropertyOp37
 70
     1
102
RTVSPropertyOp38
 70
     1
102
RTVSPropertyOp39
 70
     1
102
RTVSPropertyOp40
 70
     1
102
RTVSPropertyOp41
 70
     1
102
RTVSPropertyOp42
 70
     1
102
RTVSPropertyOp43
 70
     1
102
RTVSPropertyOp44
 70
     1
102
RTVSPropertyOp45
 70
     1
102
RTVSPropertyOp46
 70
     1
102
RTVSPropertyOp47
 70
     1
102
RTVSPropertyOp48
 70
     1
102
RTVSPropertyOp49
 70
     1
102
RTVSPropertyOp50
 70
     1
102
RTVSPropertyOp51
 70
     0
102
RTVSPropertyOp52
 70
     0
102
RTVSPropertyOp53
 70
     1
102
RTVSPropertyOp54
 70
     1
102
RTVSPropertyOp55
 70
     1
102
RTVSPropertyOp56
 70
     1
102
RTVSPropertyOp57
 70
     1
102
RTVSPropertyOp58
 70
     1
102
RTVSPropertyOp59
 70
     1
102
RTVSPropertyOp60
 70
     1
102
RTVSPropertyOp61
 70
     1
102
RTVSPropertyOp62
 70
     1
  0
XRECORD
  5
C09
102
{ACAD_REACTORS
330
C08
102
}
330
C08
100
AcDbXrecord
280
     1
102
RTVSPost2010Prop28
280
     0
102
RTVSPost2010PropOp28
 70
     1
102
RTVSPost2010Prop29
280
     1
102
RTVSPost2010PropOp29
 70
     1
102
RTVSPost2010Prop30
280
     1
102
RTVSPost2010PropOp30
 70
     1
102
RTVSPost2010Prop31
280
     0
102
RTVSPost2010PropOp31
 70
     1
102
RTVSPost2010Prop32
280
     0
102
RTVSPost2010PropOp32
 70
     1
102
RTVSPost2010Prop33
280
     0
102
RTVSPost2010PropOp33
 70
     1
102
RTVSPost2010Prop34
280
     0
102
RTVSPost2010PropOp34
 70
     1
102
RTVSPost2010Prop35
280
     0
102
RTVSPost2010PropOp35
 70
     1
102
RTVSPost2010Prop36
280
     0
102
RTVSPost2010PropOp36
 70
     1
102
RTVSPost2010Prop37
 90
       50
102
RTVSPost2010PropOp37
 70
     1
102
RTVSPost2010Prop38
140
0.0
102
RTVSPost2010PropOp38
 70
     1
102
RTVSPost2010Prop39
140
1.0
102
RTVSPost2010PropOp39
 70
     1
102
RTVSPost2010Prop40
 90
        0
102
RTVSPost2010PropOp40
 70
     1
102
RTVSPost2010Prop41ColorIndex
 90
       18
102
RTVSPost2010Prop41ColorRGB
 90
        0
102
RTVSPost2010PropOp41
 70
     1
102
RTVSPost2010Prop42
 90
       50
102
RTVSPost2010PropOp42
 70
     1
102
RTVSPost2010Prop43
 90
        3
102
RTVSPost2010PropOp43
 70
     1
102
RTVSPost2010Prop44ColorIndex
 90
        5
102
RTVSPost2010Prop44ColorRGB
 90
      255
102
RTVSPost2010PropOp44
 70
     1
102
RTVSPost2010Prop45
280
     0
102
RTVSPost2010PropOp45
 70
     1
102
RTVSPost2010Prop46
 90
       50
102
RTVSPost2010PropOp46
 70
     1
102
RTVSPost2010Prop47
 90
       50
102
RTVSPost2010PropOp47
 70
     1
102
RTVSPost2010Prop48
 90
       50
102
RTVSPost2010PropOp48
 70
     1
102
RTVSPost2010Prop49
280
     0
102
RTVSPost2010PropOp49
 70
     1
102
RTVSPost2010Prop50
 90
       50
102
RTVSPost2010PropOp50
 70
     1
102
RTVSPost2010Prop51ColorIndex
 90
      256
102
RTVSPost2010Prop51ColorRGB
 90
-16777216
102
RTVSPost2010PropOp51
 70
     0
102
RTVSPost2010Prop52
140
1.0
102
RTVSPost2010PropOp52
 70
     0
102
RTVSPost2010Prop53
 90
        2
102
RTVSPost2010PropOp53
 70
     1
102
RTVSPost2010Prop54
  1
strokes_ogs.tif
102
RTVSPost2010PropOp54
 70
     1
102
RTVSPost2010Prop55
280
     0
102
RTVSPost2010PropOp55
 70
     1
102
RTVSPost2010Prop56
140
1.0
102
RTVSPost2010PropOp56
 70
     1
102
RTVSPost2010Prop57
140
1.0
102
RTVSPost2010PropOp57
 70
     1
102
RTVSPropertyOp0
 70
     1
102
RTVSPropertyOp1
 70
     1
102
RTVSPropertyOp2
 70
     1
102
RTVSPropertyOp3
 70
     1
102
RTVSPropertyOp4
 70
     1
102
RTVSPropertyOp5
 70
     1
102
RTVSPropertyOp6
 70
     1
102
RTVSPropertyOp7
 70
     1
102
RTVSPropertyOp8
 70
     1
102
RTVSPropertyOp9
 70
     1
102
RTVSPropertyOp10
 70
     1
102
RTVSPropertyOp11
 70
     1
102
RTVSPropertyOp12
 70
     1
102
RTVSPropertyOp13
 70
     1
102
RTVSPropertyOp14
 70
     1
102
RTVSPropertyOp15
 70
     1
102
RTVSPropertyOp16
 70
     1
102
RTVSPropertyOp17
 70
     1
102
RTVSPropertyOp18
 70
     1
102
RTVSPropertyOp19
 70
     1
102
RTVSPropertyOp20
 70
     1
102
RTVSPropertyOp21
 70
     1
102
RTVSPropertyOp22
 70
     1
102
RTVSPropertyOp23
 70
     1
102
RTVSPropertyOp24
 70
     1
102
RTVSPropertyOp25
 70
     1
102
RTVSPropertyOp26
 70
     1
102
RTVSPropertyOp27
 70
     1
102
RTVSPropertyOp28
 70
     1
102
RTVSPropertyOp29
 70
     1
102
RTVSPropertyOp30
 70
     1
102
RTVSPropertyOp31
 70
     1
102
RTVSPropertyOp32
 70
     1
102
RTVSPropertyOp33
 70
     1
102
RTVSPropertyOp34
 70
     1
102
RTVSPropertyOp35
 70
     1
102
RTVSPropertyOp36
 70
     1
102
RTVSPropertyOp37
 70
     1
102
RTVSPropertyOp38
 70
     1
102
RTVSPropertyOp39
 70
     1
102
RTVSPropertyOp40
 70
     1
102
RTVSPropertyOp41
 70
     1
102
RTVSPropertyOp42
 70
     1
102
RTVSPropertyOp43
 70
     1
102
RTVSPropertyOp44
 70
     1
102
RTVSPropertyOp45
 70
     1
102
RTVSPropertyOp46
 70
     1
102
RTVSPropertyOp47
 70
     1
102
RTVSPropertyOp48
 70
     1
102
RTVSPropertyOp49
 70
     1
102
RTVSPropertyOp50
 70
     1
102
RTVSPropertyOp51
 70
     0
102
RTVSPropertyOp52
 70
     0
102
RTVSPropertyOp53
 70
     1
102
RTVSPropertyOp54
 70
     1
102
RTVSPropertyOp55
 70
     1
102
RTVSPropertyOp56
 70
     1
102
RTVSPropertyOp57
 70
     1
102
RTVSPropertyOp58
 70
     1
102
RTVSPropertyOp59
 70
     1
102
RTVSPropertyOp60
 70
     1
102
RTVSPropertyOp61
 70
     1
102
RTVSPropertyOp62
 70
     1
  0
XRECORD
  5
BFB
102
{ACAD_REACTORS
330
BFA
102
}
330
BFA
100
AcDbXrecord
280
     1
102
RTVSPost2010Prop28
280
     0
102
RTVSPost2010PropOp28
 70
     1
102
RTVSPost2010Prop29
280
     1
102
RTVSPost2010PropOp29
 70
     1
102
RTVSPost2010Prop30
280
     1
102
RTVSPost2010PropOp30
 70
     1
102
RTVSPost2010Prop31
280
     0
102
RTVSPost2010PropOp31
 70
     1
102
RTVSPost2010Prop32
280
     0
102
RTVSPost2010PropOp32
 70
     1
102
RTVSPost2010Prop33
280
     0
102
RTVSPost2010PropOp33
 70
     1
102
RTVSPost2010Prop34
280
     0
102
RTVSPost2010PropOp34
 70
     1
102
RTVSPost2010Prop35
280
     0
102
RTVSPost2010PropOp35
 70
     1
102
RTVSPost2010Prop36
280
     0
102
RTVSPost2010PropOp36
 70
     1
102
RTVSPost2010Prop37
 90
       50
102
RTVSPost2010PropOp37
 70
     1
102
RTVSPost2010Prop38
140
0.0
102
RTVSPost2010PropOp38
 70
     1
102
RTVSPost2010Prop39
140
1.0
102
RTVSPost2010PropOp39
 70
     1
102
RTVSPost2010Prop40
 90
        0
102
RTVSPost2010PropOp40
 70
     1
102
RTVSPost2010Prop41ColorIndex
 90
       18
102
RTVSPost2010Prop41ColorRGB
 90
        0
102
RTVSPost2010PropOp41
 70
     1
102
RTVSPost2010Prop42
 90
       50
102
RTVSPost2010PropOp42
 70
     1
102
RTVSPost2010Prop43
 90
        3
102
RTVSPost2010PropOp43
 70
     1
102
RTVSPost2010Prop44ColorIndex
 90
        5
102
RTVSPost2010Prop44ColorRGB
 90
      255
102
RTVSPost2010PropOp44
 70
     1
102
RTVSPost2010Prop45
280
     0
102
RTVSPost2010PropOp45
 70
     1
102
RTVSPost2010Prop46
 90
       50
102
RTVSPost2010PropOp46
 70
     1
102
RTVSPost2010Prop47
 90
       50
102
RTVSPost2010PropOp47
 70
     1
102
RTVSPost2010Prop48
 90
       50
102
RTVSPost2010PropOp48
 70
     1
102
RTVSPost2010Prop49
280
     0
102
RTVSPost2010PropOp49
 70
     1
102
RTVSPost2010Prop50
 90
       50
102
RTVSPost2010PropOp50
 70
     1
102
RTVSPost2010Prop51ColorIndex
 90
      256
102
RTVSPost2010Prop51ColorRGB
 90
-16777216
102
RTVSPost2010PropOp51
 70
     0
102
RTVSPost2010Prop52
140
1.0
102
RTVSPost2010PropOp52
 70
     0
102
RTVSPost2010Prop53
 90
        2
102
RTVSPost2010PropOp53
 70
     1
102
RTVSPost2010Prop54
  1
strokes_ogs.tif
102
RTVSPost2010PropOp54
 70
     1
102
RTVSPost2010Prop55
280
     0
102
RTVSPost2010PropOp55
 70
     1
102
RTVSPost2010Prop56
140
1.0
102
RTVSPost2010PropOp56
 70
     1
102
RTVSPost2010Prop57
140
1.0
102
RTVSPost2010PropOp57
 70
     1
102
RTVSPropertyOp0
 70
     1
102
RTVSPropertyOp1
 70
     1
102
RTVSPropertyOp2
 70
     1
102
RTVSPropertyOp3
 70
     1
102
RTVSPropertyOp4
 70
     1
102
RTVSPropertyOp5
 70
     1
102
RTVSPropertyOp6
 70
     1
102
RTVSPropertyOp7
 70
     1
102
RTVSPropertyOp8
 70
     1
102
RTVSPropertyOp9
 70
     1
102
RTVSPropertyOp10
 70
     1
102
RTVSPropertyOp11
 70
     1
102
RTVSPropertyOp12
 70
     1
102
RTVSPropertyOp13
 70
     1
102
RTVSPropertyOp14
 70
     1
102
RTVSPropertyOp15
 70
     1
102
RTVSPropertyOp16
 70
     1
102
RTVSPropertyOp17
 70
     1
102
RTVSPropertyOp18
 70
     1
102
RTVSPropertyOp19
 70
     1
102
RTVSPropertyOp20
 70
     1
102
RTVSPropertyOp21
 70
     1
102
RTVSPropertyOp22
 70
     1
102
RTVSPropertyOp23
 70
     1
102
RTVSPropertyOp24
 70
     1
102
RTVSPropertyOp25
 70
     1
102
RTVSPropertyOp26
 70
     1
102
RTVSPropertyOp27
 70
     1
102
RTVSPropertyOp28
 70
     1
102
RTVSPropertyOp29
 70
     1
102
RTVSPropertyOp30
 70
     1
102
RTVSPropertyOp31
 70
     1
102
RTVSPropertyOp32
 70
     1
102
RTVSPropertyOp33
 70
     1
102
RTVSPropertyOp34
 70
     1
102
RTVSPropertyOp35
 70
     1
102
RTVSPropertyOp36
 70
     1
102
RTVSPropertyOp37
 70
     1
102
RTVSPropertyOp38
 70
     1
102
RTVSPropertyOp39
 70
     1
102
RTVSPropertyOp40
 70
     1
102
RTVSPropertyOp41
 70
     1
102
RTVSPropertyOp42
 70
     1
102
RTVSPropertyOp43
 70
     1
102
RTVSPropertyOp44
 70
     1
102
RTVSPropertyOp45
 70
     1
102
RTVSPropertyOp46
 70
     1
102
RTVSPropertyOp47
 70
     1
102
RTVSPropertyOp48
 70
     1
102
RTVSPropertyOp49
 70
     1
102
RTVSPropertyOp50
 70
     1
102
RTVSPropertyOp51
 70
     0
102
RTVSPropertyOp52
 70
     0
102
RTVSPropertyOp53
 70
     1
102
RTVSPropertyOp54
 70
     1
102
RTVSPropertyOp55
 70
     1
102
RTVSPropertyOp56
 70
     1
102
RTVSPropertyOp57
 70
     1
102
RTVSPropertyOp58
 70
     1
102
RTVSPropertyOp59
 70
     1
102
RTVSPropertyOp60
 70
     1
102
RTVSPropertyOp61
 70
     1
102
RTVSPropertyOp62
 70
     1
  0
XRECORD
  5
BFF
102
{ACAD_REACTORS
330
BFE
102
}
330
BFE
100
AcDbXrecord
280
     1
102
RTVSPost2010Prop28
280
     0
102
RTVSPost2010PropOp28
 70
     1
102
RTVSPost2010Prop29
280
     1
102
RTVSPost2010PropOp29
 70
     1
102
RTVSPost2010Prop30
280
     1
102
RTVSPost2010PropOp30
 70
     1
102
RTVSPost2010Prop31
280
     0
102
RTVSPost2010PropOp31
 70
     1
102
RTVSPost2010Prop32
280
     0
102
RTVSPost2010PropOp32
 70
     1
102
RTVSPost2010Prop33
280
     0
102
RTVSPost2010PropOp33
 70
     1
102
RTVSPost2010Prop34
280
     0
102
RTVSPost2010PropOp34
 70
     1
102
RTVSPost2010Prop35
280
     0
102
RTVSPost2010PropOp35
 70
     1
102
RTVSPost2010Prop36
280
     0
102
RTVSPost2010PropOp36
 70
     1
102
RTVSPost2010Prop37
 90
       50
102
RTVSPost2010PropOp37
 70
     1
102
RTVSPost2010Prop38
140
0.0
102
RTVSPost2010PropOp38
 70
     1
102
RTVSPost2010Prop39
140
1.0
102
RTVSPost2010PropOp39
 70
     1
102
RTVSPost2010Prop40
 90
        0
102
RTVSPost2010PropOp40
 70
     1
102
RTVSPost2010Prop41ColorIndex
 90
       18
102
RTVSPost2010Prop41ColorRGB
 90
        0
102
RTVSPost2010PropOp41
 70
     1
102
RTVSPost2010Prop42
 90
       50
102
RTVSPost2010PropOp42
 70
     1
102
RTVSPost2010Prop43
 90
        3
102
RTVSPost2010PropOp43
 70
     1
102
RTVSPost2010Prop44ColorIndex
 90
        5
102
RTVSPost2010Prop44ColorRGB
 90
      255
102
RTVSPost2010PropOp44
 70
     1
102
RTVSPost2010Prop45
280
     0
102
RTVSPost2010PropOp45
 70
     1
102
RTVSPost2010Prop46
 90
       50
102
RTVSPost2010PropOp46
 70
     1
102
RTVSPost2010Prop47
 90
       50
102
RTVSPost2010PropOp47
 70
     1
102
RTVSPost2010Prop48
 90
       50
102
RTVSPost2010PropOp48
 70
     1
102
RTVSPost2010Prop49
280
     0
102
RTVSPost2010PropOp49
 70
     1
102
RTVSPost2010Prop50
 90
       50
102
RTVSPost2010PropOp50
 70
     1
102
RTVSPost2010Prop51ColorIndex
 90
      256
102
RTVSPost2010Prop51ColorRGB
 90
-16777216
102
RTVSPost2010PropOp51
 70
     0
102
RTVSPost2010Prop52
140
1.0
102
RTVSPost2010PropOp52
 70
     0
102
RTVSPost2010Prop53
 90
        2
102
RTVSPost2010PropOp53
 70
     1
102
RTVSPost2010Prop54
  1
strokes_ogs.tif
102
RTVSPost2010PropOp54
 70
     1
102
RTVSPost2010Prop55
280
     0
102
RTVSPost2010PropOp55
 70
     1
102
RTVSPost2010Prop56
140
1.0
102
RTVSPost2010PropOp56
 70
     1
102
RTVSPost2010Prop57
140
1.0
102
RTVSPost2010PropOp57
 70
     1
102
RTVSPropertyOp0
 70
     1
102
RTVSPropertyOp1
 70
     1
102
RTVSPropertyOp2
 70
     1
102
RTVSPropertyOp3
 70
     1
102
RTVSPropertyOp4
 70
     1
102
RTVSPropertyOp5
 70
     1
102
RTVSPropertyOp6
 70
     1
102
RTVSPropertyOp7
 70
     1
102
RTVSPropertyOp8
 70
     1
102
RTVSPropertyOp9
 70
     1
102
RTVSPropertyOp10
 70
     1
102
RTVSPropertyOp11
 70
     1
102
RTVSPropertyOp12
 70
     1
102
RTVSPropertyOp13
 70
     1
102
RTVSPropertyOp14
 70
     1
102
RTVSPropertyOp15
 70
     1
102
RTVSPropertyOp16
 70
     1
102
RTVSPropertyOp17
 70
     1
102
RTVSPropertyOp18
 70
     1
102
RTVSPropertyOp19
 70
     1
102
RTVSPropertyOp20
 70
     1
102
RTVSPropertyOp21
 70
     1
102
RTVSPropertyOp22
 70
     1
102
RTVSPropertyOp23
 70
     1
102
RTVSPropertyOp24
 70
     1
102
RTVSPropertyOp25
 70
     1
102
RTVSPropertyOp26
 70
     1
102
RTVSPropertyOp27
 70
     1
102
RTVSPropertyOp28
 70
     1
102
RTVSPropertyOp29
 70
     1
102
RTVSPropertyOp30
 70
     1
102
RTVSPropertyOp31
 70
     1
102
RTVSPropertyOp32
 70
     1
102
RTVSPropertyOp33
 70
     1
102
RTVSPropertyOp34
 70
     1
102
RTVSPropertyOp35
 70
     1
102
RTVSPropertyOp36
 70
     1
102
RTVSPropertyOp37
 70
     1
102
RTVSPropertyOp38
 70
     1
102
RTVSPropertyOp39
 70
     1
102
RTVSPropertyOp40
 70
     1
102
RTVSPropertyOp41
 70
     1
102
RTVSPropertyOp42
 70
     1
102
RTVSPropertyOp43
 70
     1
102
RTVSPropertyOp44
 70
     1
102
RTVSPropertyOp45
 70
     1
102
RTVSPropertyOp46
 70
     1
102
RTVSPropertyOp47
 70
     1
102
RTVSPropertyOp48
 70
     1
102
RTVSPropertyOp49
 70
     1
102
RTVSPropertyOp50
 70
     1
102
RTVSPropertyOp51
 70
     0
102
RTVSPropertyOp52
 70
     0
102
RTVSPropertyOp53
 70
     1
102
RTVSPropertyOp54
 70
     1
102
RTVSPropertyOp55
 70
     1
102
RTVSPropertyOp56
 70
     1
102
RTVSPropertyOp57
 70
     1
102
RTVSPropertyOp58
 70
     1
102
RTVSPropertyOp59
 70
     1
102
RTVSPropertyOp60
 70
     1
102
RTVSPropertyOp61
 70
     1
102
RTVSPropertyOp62
 70
     1
  0
XRECORD
  5
C19
102
{ACAD_REACTORS
330
C18
102
}
330
C18
100
AcDbXrecord
280
     1
102
RTVSPost2010Prop28
280
     0
102
RTVSPost2010PropOp28
 70
     0
102
RTVSPost2010Prop29
280
     1
102
RTVSPost2010PropOp29
 70
     0
102
RTVSPost2010Prop30
280
     1
102
RTVSPost2010PropOp30
 70
     0
102
RTVSPost2010Prop31
280
     0
102
RTVSPost2010PropOp31
 70
     0
102
RTVSPost2010Prop32
280
     0
102
RTVSPost2010PropOp32
 70
     0
102
RTVSPost2010Prop33
280
     0
102
RTVSPost2010PropOp33
 70
     0
102
RTVSPost2010Prop34
280
     0
102
RTVSPost2010PropOp34
 70
     0
102
RTVSPost2010Prop35
280
     0
102
RTVSPost2010PropOp35
 70
     0
102
RTVSPost2010Prop36
280
     0
102
RTVSPost2010PropOp36
 70
     0
102
RTVSPost2010Prop37
 90
       50
102
RTVSPost2010PropOp37
 70
     0
102
RTVSPost2010Prop38
140
0.0
102
RTVSPost2010PropOp38
 70
     0
102
RTVSPost2010Prop39
140
1.0
102
RTVSPost2010PropOp39
 70
     0
102
RTVSPost2010Prop40
 90
        0
102
RTVSPost2010PropOp40
 70
     0
102
RTVSPost2010Prop41ColorIndex
 90
       18
102
RTVSPost2010Prop41ColorRGB
 90
        0
102
RTVSPost2010PropOp41
 70
     0
102
RTVSPost2010Prop42
 90
       50
102
RTVSPost2010PropOp42
 70
     0
102
RTVSPost2010Prop43
 90
        3
102
RTVSPost2010PropOp43
 70
     0
102
RTVSPost2010Prop44ColorIndex
 90
        5
102
RTVSPost2010Prop44ColorRGB
 90
      255
102
RTVSPost2010PropOp44
 70
     0
102
RTVSPost2010Prop45
280
     0
102
RTVSPost2010PropOp45
 70
     0
102
RTVSPost2010Prop46
 90
       50
102
RTVSPost2010PropOp46
 70
     0
102
RTVSPost2010Prop47
 90
       50
102
RTVSPost2010PropOp47
 70
     0
102
RTVSPost2010Prop48
 90
       50
102
RTVSPost2010PropOp48
 70
     0
102
RTVSPost2010Prop49
280
     0
102
RTVSPost2010PropOp49
 70
     0
102
RTVSPost2010Prop50
 90
       50
102
RTVSPost2010PropOp50
 70
     0
102
RTVSPost2010Prop51ColorIndex
 90
      256
102
RTVSPost2010Prop51ColorRGB
 90
-16777216
102
RTVSPost2010PropOp51
 70
     0
102
RTVSPost2010Prop52
140
1.0
102
RTVSPost2010PropOp52
 70
     0
102
RTVSPost2010Prop53
 90
        2
102
RTVSPost2010PropOp53
 70
     0
102
RTVSPost2010Prop54
  1
strokes_ogs.tif
102
RTVSPost2010PropOp54
 70
     0
102
RTVSPost2010Prop55
280
     0
102
RTVSPost2010PropOp55
 70
     0
102
RTVSPost2010Prop56
140
1.0
102
RTVSPost2010PropOp56
 70
     0
102
RTVSPost2010Prop57
140
1.0
102
RTVSPost2010PropOp57
 70
     0
102
RTVSPropertyOp0
 70
     0
102
RTVSPropertyOp1
 70
     0
102
RTVSPropertyOp2
 70
     0
102
RTVSPropertyOp3
 70
     0
102
RTVSPropertyOp4
 70
     0
102
RTVSPropertyOp5
 70
     0
102
RTVSPropertyOp6
 70
     0
102
RTVSPropertyOp7
 70
     0
102
RTVSPropertyOp8
 70
     0
102
RTVSPropertyOp9
 70
     0
102
RTVSPropertyOp10
 70
     0
102
RTVSPropertyOp11
 70
     0
102
RTVSPropertyOp12
 70
     0
102
RTVSPropertyOp13
 70
     0
102
RTVSPropertyOp14
 70
     2
102
RTVSPropertyOp15
 70
     0
102
RTVSPropertyOp16
 70
     0
102
RTVSPropertyOp17
 70
     0
102
RTVSPropertyOp18
 70
     0
102
RTVSPropertyOp19
 70
     0
102
RTVSPropertyOp20
 70
     0
102
RTVSPropertyOp21
 70
     0
102
RTVSPropertyOp22
 70
     0
102
RTVSPropertyOp23
 70
     0
102
RTVSPropertyOp24
 70
     0
102
RTVSPropertyOp25
 70
     0
102
RTVSPropertyOp26
 70
     0
102
RTVSPropertyOp27
 70
     0
102
RTVSPropertyOp28
 70
     0
102
RTVSPropertyOp29
 70
     0
102
RTVSPropertyOp30
 70
     0
102
RTVSPropertyOp31
 70
     0
102
RTVSPropertyOp32
 70
     0
102
RTVSPropertyOp33
 70
     0
102
RTVSPropertyOp34
 70
     0
102
RTVSPropertyOp35
 70
     0
102
RTVSPropertyOp36
 70
     0
102
RTVSPropertyOp37
 70
     0
102
RTVSPropertyOp38
 70
     0
102
RTVSPropertyOp39
 70
     0
102
RTVSPropertyOp40
 70
     0
102
RTVSPropertyOp41
 70
     0
102
RTVSPropertyOp42
 70
     0
102
RTVSPropertyOp43
 70
     0
102
RTVSPropertyOp44
 70
     0
102
RTVSPropertyOp45
 70
     0
102
RTVSPropertyOp46
 70
     0
102
RTVSPropertyOp47
 70
     0
102
RTVSPropertyOp48
 70
     0
102
RTVSPropertyOp49
 70
     0
102
RTVSPropertyOp50
 70
     0
102
RTVSPropertyOp51
 70
     0
102
RTVSPropertyOp52
 70
     0
102
RTVSPropertyOp53
 70
     0
102
RTVSPropertyOp54
 70
     0
102
RTVSPropertyOp55
 70
     0
102
RTVSPropertyOp56
 70
     0
102
RTVSPropertyOp57
 70
     0
102
RTVSPropertyOp58
 70
     0
102
RTVSPropertyOp59
 70
     0
102
RTVSPropertyOp60
 70
     0
102
RTVSPropertyOp61
 70
     0
102
RTVSPropertyOp62
 70
     0
  0
XRECORD
  5
C07
102
{ACAD_REACTORS
330
C06
102
}
330
C06
100
AcDbXrecord
280
     1
102
RTVSPost2010Prop28
280
     0
102
RTVSPost2010PropOp28
 70
     1
102
RTVSPost2010Prop29
280
     1
102
RTVSPost2010PropOp29
 70
     1
102
RTVSPost2010Prop30
280
     1
102
RTVSPost2010PropOp30
 70
     1
102
RTVSPost2010Prop31
280
     0
102
RTVSPost2010PropOp31
 70
     1
102
RTVSPost2010Prop32
280
     0
102
RTVSPost2010PropOp32
 70
     1
102
RTVSPost2010Prop33
280
     0
102
RTVSPost2010PropOp33
 70
     1
102
RTVSPost2010Prop34
280
     0
102
RTVSPost2010PropOp34
 70
     1
102
RTVSPost2010Prop35
280
     0
102
RTVSPost2010PropOp35
 70
     1
102
RTVSPost2010Prop36
280
     0
102
RTVSPost2010PropOp36
 70
     1
102
RTVSPost2010Prop37
 90
       50
102
RTVSPost2010PropOp37
 70
     1
102
RTVSPost2010Prop38
140
0.0
102
RTVSPost2010PropOp38
 70
     1
102
RTVSPost2010Prop39
140
1.0
102
RTVSPost2010PropOp39
 70
     1
102
RTVSPost2010Prop40
 90
        0
102
RTVSPost2010PropOp40
 70
     1
102
RTVSPost2010Prop41ColorIndex
 90
       18
102
RTVSPost2010Prop41ColorRGB
 90
        0
102
RTVSPost2010PropOp41
 70
     1
102
RTVSPost2010Prop42
 90
       50
102
RTVSPost2010PropOp42
 70
     1
102
RTVSPost2010Prop43
 90
        3
102
RTVSPost2010PropOp43
 70
     1
102
RTVSPost2010Prop44ColorIndex
 90
        5
102
RTVSPost2010Prop44ColorRGB
 90
      255
102
RTVSPost2010PropOp44
 70
     1
102
RTVSPost2010Prop45
280
     0
102
RTVSPost2010PropOp45
 70
     1
102
RTVSPost2010Prop46
 90
       50
102
RTVSPost2010PropOp46
 70
     1
102
RTVSPost2010Prop47
 90
       50
102
RTVSPost2010PropOp47
 70
     1
102
RTVSPost2010Prop48
 90
       50
102
RTVSPost2010PropOp48
 70
     1
102
RTVSPost2010Prop49
280
     0
102
RTVSPost2010PropOp49
 70
     1
102
RTVSPost2010Prop50
 90
       50
102
RTVSPost2010PropOp50
 70
     1
102
RTVSPost2010Prop51ColorIndex
 90
      256
102
RTVSPost2010Prop51ColorRGB
 90
-16777216
102
RTVSPost2010PropOp51
 70
     0
102
RTVSPost2010Prop52
140
1.0
102
RTVSPost2010PropOp52
 70
     0
102
RTVSPost2010Prop53
 90
        2
102
RTVSPost2010PropOp53
 70
     1
102
RTVSPost2010Prop54
  1
strokes_ogs.tif
102
RTVSPost2010PropOp54
 70
     1
102
RTVSPost2010Prop55
280
     0
102
RTVSPost2010PropOp55
 70
     1
102
RTVSPost2010Prop56
140
1.0
102
RTVSPost2010PropOp56
 70
     1
102
RTVSPost2010Prop57
140
1.0
102
RTVSPost2010PropOp57
 70
     1
102
RTVSPropertyOp0
 70
     1
102
RTVSPropertyOp1
 70
     1
102
RTVSPropertyOp2
 70
     1
102
RTVSPropertyOp3
 70
     1
102
RTVSPropertyOp4
 70
     1
102
RTVSPropertyOp5
 70
     1
102
RTVSPropertyOp6
 70
     1
102
RTVSPropertyOp7
 70
     1
102
RTVSPropertyOp8
 70
     1
102
RTVSPropertyOp9
 70
     1
102
RTVSPropertyOp10
 70
     1
102
RTVSPropertyOp11
 70
     1
102
RTVSPropertyOp12
 70
     1
102
RTVSPropertyOp13
 70
     1
102
RTVSPropertyOp14
 70
     1
102
RTVSPropertyOp15
 70
     1
102
RTVSPropertyOp16
 70
     1
102
RTVSPropertyOp17
 70
     1
102
RTVSPropertyOp18
 70
     1
102
RTVSPropertyOp19
 70
     1
102
RTVSPropertyOp20
 70
     1
102
RTVSPropertyOp21
 70
     1
102
RTVSPropertyOp22
 70
     1
102
RTVSPropertyOp23
 70
     1
102
RTVSPropertyOp24
 70
     1
102
RTVSPropertyOp25
 70
     1
102
RTVSPropertyOp26
 70
     1
102
RTVSPropertyOp27
 70
     1
102
RTVSPropertyOp28
 70
     1
102
RTVSPropertyOp29
 70
     1
102
RTVSPropertyOp30
 70
     1
102
RTVSPropertyOp31
 70
     1
102
RTVSPropertyOp32
 70
     1
102
RTVSPropertyOp33
 70
     1
102
RTVSPropertyOp34
 70
     1
102
RTVSPropertyOp35
 70
     1
102
RTVSPropertyOp36
 70
     1
102
RTVSPropertyOp37
 70
     1
102
RTVSPropertyOp38
 70
     1
102
RTVSPropertyOp39
 70
     1
102
RTVSPropertyOp40
 70
     1
102
RTVSPropertyOp41
 70
     1
102
RTVSPropertyOp42
 70
     1
102
RTVSPropertyOp43
 70
     1
102
RTVSPropertyOp44
 70
     1
102
RTVSPropertyOp45
 70
     1
102
RTVSPropertyOp46
 70
     1
102
RTVSPropertyOp47
 70
     1
102
RTVSPropertyOp48
 70
     1
102
RTVSPropertyOp49
 70
     1
102
RTVSPropertyOp50
 70
     1
102
RTVSPropertyOp51
 70
     0
102
RTVSPropertyOp52
 70
     0
102
RTVSPropertyOp53
 70
     1
102
RTVSPropertyOp54
 70
     1
102
RTVSPropertyOp55
 70
     1
102
RTVSPropertyOp56
 70
     1
102
RTVSPropertyOp57
 70
     1
102
RTVSPropertyOp58
 70
     1
102
RTVSPropertyOp59
 70
     1
102
RTVSPropertyOp60
 70
     1
102
RTVSPropertyOp61
 70
     1
102
RTVSPropertyOp62
 70
     1
  0
XRECORD
  5
BEB
102
{ACAD_REACTORS
330
BEA
102
}
330
BEA
100
AcDbXrecord
280
     1
102
RTVSPost2010Prop28
280
     0
102
RTVSPost2010PropOp28
 70
     1
102
RTVSPost2010Prop29
280
     1
102
RTVSPost2010PropOp29
 70
     1
102
RTVSPost2010Prop30
280
     1
102
RTVSPost2010PropOp30
 70
     1
102
RTVSPost2010Prop31
280
     0
102
RTVSPost2010PropOp31
 70
     1
102
RTVSPost2010Prop32
280
     0
102
RTVSPost2010PropOp32
 70
     1
102
RTVSPost2010Prop33
280
     0
102
RTVSPost2010PropOp33
 70
     1
102
RTVSPost2010Prop34
280
     0
102
RTVSPost2010PropOp34
 70
     1
102
RTVSPost2010Prop35
280
     0
102
RTVSPost2010PropOp35
 70
     1
102
RTVSPost2010Prop36
280
     0
102
RTVSPost2010PropOp36
 70
     1
102
RTVSPost2010Prop37
 90
       50
102
RTVSPost2010PropOp37
 70
     1
102
RTVSPost2010Prop38
140
0.0
102
RTVSPost2010PropOp38
 70
     1
102
RTVSPost2010Prop39
140
1.0
102
RTVSPost2010PropOp39
 70
     1
102
RTVSPost2010Prop40
 90
        0
102
RTVSPost2010PropOp40
 70
     1
102
RTVSPost2010Prop41ColorIndex
 90
       18
102
RTVSPost2010Prop41ColorRGB
 90
        0
102
RTVSPost2010PropOp41
 70
     1
102
RTVSPost2010Prop42
 90
       50
102
RTVSPost2010PropOp42
 70
     1
102
RTVSPost2010Prop43
 90
        3
102
RTVSPost2010PropOp43
 70
     1
102
RTVSPost2010Prop44ColorIndex
 90
        5
102
RTVSPost2010Prop44ColorRGB
 90
      255
102
RTVSPost2010PropOp44
 70
     1
102
RTVSPost2010Prop45
280
     0
102
RTVSPost2010PropOp45
 70
     1
102
RTVSPost2010Prop46
 90
       50
102
RTVSPost2010PropOp46
 70
     1
102
RTVSPost2010Prop47
 90
       50
102
RTVSPost2010PropOp47
 70
     1
102
RTVSPost2010Prop48
 90
       50
102
RTVSPost2010PropOp48
 70
     1
102
RTVSPost2010Prop49
280
     0
102
RTVSPost2010PropOp49
 70
     1
102
RTVSPost2010Prop50
 90
       50
102
RTVSPost2010PropOp50
 70
     1
102
RTVSPost2010Prop51ColorIndex
 90
      256
102
RTVSPost2010Prop51ColorRGB
 90
-16777216
102
RTVSPost2010PropOp51
 70
     0
102
RTVSPost2010Prop52
140
1.0
102
RTVSPost2010PropOp52
 70
     0
102
RTVSPost2010Prop53
 90
        2
102
RTVSPost2010PropOp53
 70
     1
102
RTVSPost2010Prop54
  1
strokes_ogs.tif
102
RTVSPost2010PropOp54
 70
     1
102
RTVSPost2010Prop55
280
     0
102
RTVSPost2010PropOp55
 70
     1
102
RTVSPost2010Prop56
140
1.0
102
RTVSPost2010PropOp56
 70
     1
102
RTVSPost2010Prop57
140
1.0
102
RTVSPost2010PropOp57
 70
     1
102
RTVSPropertyOp0
 70
     1
102
RTVSPropertyOp1
 70
     1
102
RTVSPropertyOp2
 70
     1
102
RTVSPropertyOp3
 70
     1
102
RTVSPropertyOp4
 70
     1
102
RTVSPropertyOp5
 70
     1
102
RTVSPropertyOp6
 70
     1
102
RTVSPropertyOp7
 70
     1
102
RTVSPropertyOp8
 70
     1
102
RTVSPropertyOp9
 70
     1
102
RTVSPropertyOp10
 70
     1
102
RTVSPropertyOp11
 70
     1
102
RTVSPropertyOp12
 70
     1
102
RTVSPropertyOp13
 70
     1
102
RTVSPropertyOp14
 70
     1
102
RTVSPropertyOp15
 70
     1
102
RTVSPropertyOp16
 70
     1
102
RTVSPropertyOp17
 70
     1
102
RTVSPropertyOp18
 70
     1
102
RTVSPropertyOp19
 70
     1
102
RTVSPropertyOp20
 70
     1
102
RTVSPropertyOp21
 70
     1
102
RTVSPropertyOp22
 70
     1
102
RTVSPropertyOp23
 70
     1
102
RTVSPropertyOp24
 70
     1
102
RTVSPropertyOp25
 70
     1
102
RTVSPropertyOp26
 70
     1
102
RTVSPropertyOp27
 70
     1
102
RTVSPropertyOp28
 70
     1
102
RTVSPropertyOp29
 70
     1
102
RTVSPropertyOp30
 70
     1
102
RTVSPropertyOp31
 70
     1
102
RTVSPropertyOp32
 70
     1
102
RTVSPropertyOp33
 70
     1
102
RTVSPropertyOp34
 70
     1
102
RTVSPropertyOp35
 70
     1
102
RTVSPropertyOp36
 70
     1
102
RTVSPropertyOp37
 70
     1
102
RTVSPropertyOp38
 70
     1
102
RTVSPropertyOp39
 70
     1
102
RTVSPropertyOp40
 70
     1
102
RTVSPropertyOp41
 70
     1
102
RTVSPropertyOp42
 70
     1
102
RTVSPropertyOp43
 70
     1
102
RTVSPropertyOp44
 70
     1
102
RTVSPropertyOp45
 70
     1
102
RTVSPropertyOp46
 70
     1
102
RTVSPropertyOp47
 70
     1
102
RTVSPropertyOp48
 70
     1
102
RTVSPropertyOp49
 70
     1
102
RTVSPropertyOp50
 70
     1
102
RTVSPropertyOp51
 70
     0
102
RTVSPropertyOp52
 70
     0
102
RTVSPropertyOp53
 70
     1
102
RTVSPropertyOp54
 70
     1
102
RTVSPropertyOp55
 70
     1
102
RTVSPropertyOp56
 70
     1
102
RTVSPropertyOp57
 70
     1
102
RTVSPropertyOp58
 70
     1
102
RTVSPropertyOp59
 70
     1
102
RTVSPropertyOp60
 70
     1
102
RTVSPropertyOp61
 70
     1
102
RTVSPropertyOp62
 70
     1
  0
XRECORD
  5
BED
102
{ACAD_REACTORS
330
BEC
102
}
330
BEC
100
AcDbXrecord
280
     1
102
RTVSPost2010Prop28
280
     0
102
RTVSPost2010PropOp28
 70
     1
102
RTVSPost2010Prop29
280
     1
102
RTVSPost2010PropOp29
 70
     1
102
RTVSPost2010Prop30
280
     1
102
RTVSPost2010PropOp30
 70
     1
102
RTVSPost2010Prop31
280
     0
102
RTVSPost2010PropOp31
 70
     1
102
RTVSPost2010Prop32
280
     0
102
RTVSPost2010PropOp32
 70
     1
102
RTVSPost2010Prop33
280
     0
102
RTVSPost2010PropOp33
 70
     1
102
RTVSPost2010Prop34
280
     0
102
RTVSPost2010PropOp34
 70
     1
102
RTVSPost2010Prop35
280
     0
102
RTVSPost2010PropOp35
 70
     1
102
RTVSPost2010Prop36
280
     0
102
RTVSPost2010PropOp36
 70
     1
102
RTVSPost2010Prop37
 90
       50
102
RTVSPost2010PropOp37
 70
     1
102
RTVSPost2010Prop38
140
0.0
102
RTVSPost2010PropOp38
 70
     1
102
RTVSPost2010Prop39
140
1.0
102
RTVSPost2010PropOp39
 70
     1
102
RTVSPost2010Prop40
 90
        0
102
RTVSPost2010PropOp40
 70
     1
102
RTVSPost2010Prop41ColorIndex
 90
       18
102
RTVSPost2010Prop41ColorRGB
 90
        0
102
RTVSPost2010PropOp41
 70
     1
102
RTVSPost2010Prop42
 90
       50
102
RTVSPost2010PropOp42
 70
     1
102
RTVSPost2010Prop43
 90
        3
102
RTVSPost2010PropOp43
 70
     1
102
RTVSPost2010Prop44ColorIndex
 90
        5
102
RTVSPost2010Prop44ColorRGB
 90
      255
102
RTVSPost2010PropOp44
 70
     1
102
RTVSPost2010Prop45
280
     0
102
RTVSPost2010PropOp45
 70
     1
102
RTVSPost2010Prop46
 90
       50
102
RTVSPost2010PropOp46
 70
     1
102
RTVSPost2010Prop47
 90
       50
102
RTVSPost2010PropOp47
 70
     1
102
RTVSPost2010Prop48
 90
       50
102
RTVSPost2010PropOp48
 70
     1
102
RTVSPost2010Prop49
280
     0
102
RTVSPost2010PropOp49
 70
     1
102
RTVSPost2010Prop50
 90
       50
102
RTVSPost2010PropOp50
 70
     1
102
RTVSPost2010Prop51ColorIndex
 90
      256
102
RTVSPost2010Prop51ColorRGB
 90
-16777216
102
RTVSPost2010PropOp51
 70
     0
102
RTVSPost2010Prop52
140
1.0
102
RTVSPost2010PropOp52
 70
     0
102
RTVSPost2010Prop53
 90
        2
102
RTVSPost2010PropOp53
 70
     1
102
RTVSPost2010Prop54
  1
strokes_ogs.tif
102
RTVSPost2010PropOp54
 70
     1
102
RTVSPost2010Prop55
280
     0
102
RTVSPost2010PropOp55
 70
     1
102
RTVSPost2010Prop56
140
1.0
102
RTVSPost2010PropOp56
 70
     1
102
RTVSPost2010Prop57
140
1.0
102
RTVSPost2010PropOp57
 70
     1
102
RTVSPropertyOp0
 70
     1
102
RTVSPropertyOp1
 70
     1
102
RTVSPropertyOp2
 70
     1
102
RTVSPropertyOp3
 70
     1
102
RTVSPropertyOp4
 70
     1
102
RTVSPropertyOp5
 70
     1
102
RTVSPropertyOp6
 70
     1
102
RTVSPropertyOp7
 70
     1
102
RTVSPropertyOp8
 70
     1
102
RTVSPropertyOp9
 70
     1
102
RTVSPropertyOp10
 70
     1
102
RTVSPropertyOp11
 70
     1
102
RTVSPropertyOp12
 70
     1
102
RTVSPropertyOp13
 70
     1
102
RTVSPropertyOp14
 70
     1
102
RTVSPropertyOp15
 70
     1
102
RTVSPropertyOp16
 70
     1
102
RTVSPropertyOp17
 70
     1
102
RTVSPropertyOp18
 70
     1
102
RTVSPropertyOp19
 70
     1
102
RTVSPropertyOp20
 70
     1
102
RTVSPropertyOp21
 70
     1
102
RTVSPropertyOp22
 70
     1
102
RTVSPropertyOp23
 70
     1
102
RTVSPropertyOp24
 70
     1
102
RTVSPropertyOp25
 70
     1
102
RTVSPropertyOp26
 70
     1
102
RTVSPropertyOp27
 70
     1
102
RTVSPropertyOp28
 70
     1
102
RTVSPropertyOp29
 70
     1
102
RTVSPropertyOp30
 70
     1
102
RTVSPropertyOp31
 70
     1
102
RTVSPropertyOp32
 70
     1
102
RTVSPropertyOp33
 70
     1
102
RTVSPropertyOp34
 70
     1
102
RTVSPropertyOp35
 70
     1
102
RTVSPropertyOp36
 70
     1
102
RTVSPropertyOp37
 70
     1
102
RTVSPropertyOp38
 70
     1
102
RTVSPropertyOp39
 70
     1
102
RTVSPropertyOp40
 70
     1
102
RTVSPropertyOp41
 70
     1
102
RTVSPropertyOp42
 70
     1
102
RTVSPropertyOp43
 70
     1
102
RTVSPropertyOp44
 70
     1
102
RTVSPropertyOp45
 70
     1
102
RTVSPropertyOp46
 70
     1
102
RTVSPropertyOp47
 70
     1
102
RTVSPropertyOp48
 70
     1
102
RTVSPropertyOp49
 70
     1
102
RTVSPropertyOp50
 70
     1
102
RTVSPropertyOp51
 70
     0
102
RTVSPropertyOp52
 70
     0
102
RTVSPropertyOp53
 70
     1
102
RTVSPropertyOp54
 70
     1
102
RTVSPropertyOp55
 70
     1
102
RTVSPropertyOp56
 70
     1
102
RTVSPropertyOp57
 70
     1
102
RTVSPropertyOp58
 70
     1
102
RTVSPropertyOp59
 70
     1
102
RTVSPropertyOp60
 70
     1
102
RTVSPropertyOp61
 70
     1
102
RTVSPropertyOp62
 70
     1
  0
XRECORD
  5
BEF
102
{ACAD_REACTORS
330
BEE
102
}
330
BEE
100
AcDbXrecord
280
     1
102
RTVSPost2010Prop28
280
     0
102
RTVSPost2010PropOp28
 70
     1
102
RTVSPost2010Prop29
280
     1
102
RTVSPost2010PropOp29
 70
     1
102
RTVSPost2010Prop30
280
     1
102
RTVSPost2010PropOp30
 70
     1
102
RTVSPost2010Prop31
280
     0
102
RTVSPost2010PropOp31
 70
     1
102
RTVSPost2010Prop32
280
     0
102
RTVSPost2010PropOp32
 70
     1
102
RTVSPost2010Prop33
280
     0
102
RTVSPost2010PropOp33
 70
     1
102
RTVSPost2010Prop34
280
     0
102
RTVSPost2010PropOp34
 70
     1
102
RTVSPost2010Prop35
280
     0
102
RTVSPost2010PropOp35
 70
     1
102
RTVSPost2010Prop36
280
     0
102
RTVSPost2010PropOp36
 70
     1
102
RTVSPost2010Prop37
 90
       50
102
RTVSPost2010PropOp37
 70
     1
102
RTVSPost2010Prop38
140
0.0
102
RTVSPost2010PropOp38
 70
     1
102
RTVSPost2010Prop39
140
1.0
102
RTVSPost2010PropOp39
 70
     1
102
RTVSPost2010Prop40
 90
        0
102
RTVSPost2010PropOp40
 70
     1
102
RTVSPost2010Prop41ColorIndex
 90
       18
102
RTVSPost2010Prop41ColorRGB
 90
        0
102
RTVSPost2010PropOp41
 70
     1
102
RTVSPost2010Prop42
 90
       50
102
RTVSPost2010PropOp42
 70
     1
102
RTVSPost2010Prop43
 90
        3
102
RTVSPost2010PropOp43
 70
     1
102
RTVSPost2010Prop44ColorIndex
 90
        5
102
RTVSPost2010Prop44ColorRGB
 90
      255
102
RTVSPost2010PropOp44
 70
     1
102
RTVSPost2010Prop45
280
     0
102
RTVSPost2010PropOp45
 70
     1
102
RTVSPost2010Prop46
 90
       50
102
RTVSPost2010PropOp46
 70
     1
102
RTVSPost2010Prop47
 90
       50
102
RTVSPost2010PropOp47
 70
     1
102
RTVSPost2010Prop48
 90
       50
102
RTVSPost2010PropOp48
 70
     1
102
RTVSPost2010Prop49
280
     0
102
RTVSPost2010PropOp49
 70
     1
102
RTVSPost2010Prop50
 90
       50
102
RTVSPost2010PropOp50
 70
     1
102
RTVSPost2010Prop51ColorIndex
 90
      256
102
RTVSPost2010Prop51ColorRGB
 90
-16777216
102
RTVSPost2010PropOp51
 70
     0
102
RTVSPost2010Prop52
140
1.0
102
RTVSPost2010PropOp52
 70
     0
102
RTVSPost2010Prop53
 90
        2
102
RTVSPost2010PropOp53
 70
     1
102
RTVSPost2010Prop54
  1
strokes_ogs.tif
102
RTVSPost2010PropOp54
 70
     1
102
RTVSPost2010Prop55
280
     0
102
RTVSPost2010PropOp55
 70
     1
102
RTVSPost2010Prop56
140
1.0
102
RTVSPost2010PropOp56
 70
     1
102
RTVSPost2010Prop57
140
1.0
102
RTVSPost2010PropOp57
 70
     1
102
RTVSPropertyOp0
 70
     1
102
RTVSPropertyOp1
 70
     1
102
RTVSPropertyOp2
 70
     1
102
RTVSPropertyOp3
 70
     1
102
RTVSPropertyOp4
 70
     1
102
RTVSPropertyOp5
 70
     1
102
RTVSPropertyOp6
 70
     1
102
RTVSPropertyOp7
 70
     1
102
RTVSPropertyOp8
 70
     1
102
RTVSPropertyOp9
 70
     1
102
RTVSPropertyOp10
 70
     1
102
RTVSPropertyOp11
 70
     1
102
RTVSPropertyOp12
 70
     1
102
RTVSPropertyOp13
 70
     1
102
RTVSPropertyOp14
 70
     1
102
RTVSPropertyOp15
 70
     1
102
RTVSPropertyOp16
 70
     1
102
RTVSPropertyOp17
 70
     1
102
RTVSPropertyOp18
 70
     1
102
RTVSPropertyOp19
 70
     1
102
RTVSPropertyOp20
 70
     1
102
RTVSPropertyOp21
 70
     1
102
RTVSPropertyOp22
 70
     1
102
RTVSPropertyOp23
 70
     1
102
RTVSPropertyOp24
 70
     1
102
RTVSPropertyOp25
 70
     1
102
RTVSPropertyOp26
 70
     1
102
RTVSPropertyOp27
 70
     1
102
RTVSPropertyOp28
 70
     1
102
RTVSPropertyOp29
 70
     1
102
RTVSPropertyOp30
 70
     1
102
RTVSPropertyOp31
 70
     1
102
RTVSPropertyOp32
 70
     1
102
RTVSPropertyOp33
 70
     1
102
RTVSPropertyOp34
 70
     1
102
RTVSPropertyOp35
 70
     1
102
RTVSPropertyOp36
 70
     1
102
RTVSPropertyOp37
 70
     1
102
RTVSPropertyOp38
 70
     1
102
RTVSPropertyOp39
 70
     1
102
RTVSPropertyOp40
 70
     1
102
RTVSPropertyOp41
 70
     1
102
RTVSPropertyOp42
 70
     1
102
RTVSPropertyOp43
 70
     1
102
RTVSPropertyOp44
 70
     1
102
RTVSPropertyOp45
 70
     1
102
RTVSPropertyOp46
 70
     1
102
RTVSPropertyOp47
 70
     1
102
RTVSPropertyOp48
 70
     1
102
RTVSPropertyOp49
 70
     1
102
RTVSPropertyOp50
 70
     1
102
RTVSPropertyOp51
 70
     0
102
RTVSPropertyOp52
 70
     0
102
RTVSPropertyOp53
 70
     1
102
RTVSPropertyOp54
 70
     1
102
RTVSPropertyOp55
 70
     1
102
RTVSPropertyOp56
 70
     1
102
RTVSPropertyOp57
 70
     1
102
RTVSPropertyOp58
 70
     1
102
RTVSPropertyOp59
 70
     1
102
RTVSPropertyOp60
 70
     1
102
RTVSPropertyOp61
 70
     1
102
RTVSPropertyOp62
 70
     1
  0
XRECORD
  5
BF1
102
{ACAD_REACTORS
330
BF0
102
}
330
BF0
100
AcDbXrecord
280
     1
102
RTVSPost2010Prop28
280
     0
102
RTVSPost2010PropOp28
 70
     1
102
RTVSPost2010Prop29
280
     1
102
RTVSPost2010PropOp29
 70
     1
102
RTVSPost2010Prop30
280
     1
102
RTVSPost2010PropOp30
 70
     1
102
RTVSPost2010Prop31
280
     0
102
RTVSPost2010PropOp31
 70
     1
102
RTVSPost2010Prop32
280
     0
102
RTVSPost2010PropOp32
 70
     1
102
RTVSPost2010Prop33
280
     0
102
RTVSPost2010PropOp33
 70
     1
102
RTVSPost2010Prop34
280
     0
102
RTVSPost2010PropOp34
 70
     1
102
RTVSPost2010Prop35
280
     0
102
RTVSPost2010PropOp35
 70
     1
102
RTVSPost2010Prop36
280
     0
102
RTVSPost2010PropOp36
 70
     1
102
RTVSPost2010Prop37
 90
       50
102
RTVSPost2010PropOp37
 70
     1
102
RTVSPost2010Prop38
140
0.0
102
RTVSPost2010PropOp38
 70
     1
102
RTVSPost2010Prop39
140
1.0
102
RTVSPost2010PropOp39
 70
     1
102
RTVSPost2010Prop40
 90
        0
102
RTVSPost2010PropOp40
 70
     1
102
RTVSPost2010Prop41ColorIndex
 90
       18
102
RTVSPost2010Prop41ColorRGB
 90
        0
102
RTVSPost2010PropOp41
 70
     1
102
RTVSPost2010Prop42
 90
       50
102
RTVSPost2010PropOp42
 70
     1
102
RTVSPost2010Prop43
 90
        3
102
RTVSPost2010PropOp43
 70
     1
102
RTVSPost2010Prop44ColorIndex
 90
        5
102
RTVSPost2010Prop44ColorRGB
 90
      255
102
RTVSPost2010PropOp44
 70
     1
102
RTVSPost2010Prop45
280
     0
102
RTVSPost2010PropOp45
 70
     1
102
RTVSPost2010Prop46
 90
       50
102
RTVSPost2010PropOp46
 70
     1
102
RTVSPost2010Prop47
 90
       50
102
RTVSPost2010PropOp47
 70
     1
102
RTVSPost2010Prop48
 90
       50
102
RTVSPost2010PropOp48
 70
     1
102
RTVSPost2010Prop49
280
     0
102
RTVSPost2010PropOp49
 70
     1
102
RTVSPost2010Prop50
 90
       50
102
RTVSPost2010PropOp50
 70
     1
102
RTVSPost2010Prop51ColorIndex
 90
      256
102
RTVSPost2010Prop51ColorRGB
 90
-16777216
102
RTVSPost2010PropOp51
 70
     0
102
RTVSPost2010Prop52
140
1.0
102
RTVSPost2010PropOp52
 70
     0
102
RTVSPost2010Prop53
 90
        2
102
RTVSPost2010PropOp53
 70
     1
102
RTVSPost2010Prop54
  1
strokes_ogs.tif
102
RTVSPost2010PropOp54
 70
     1
102
RTVSPost2010Prop55
280
     0
102
RTVSPost2010PropOp55
 70
     1
102
RTVSPost2010Prop56
140
1.0
102
RTVSPost2010PropOp56
 70
     1
102
RTVSPost2010Prop57
140
1.0
102
RTVSPost2010PropOp57
 70
     1
102
RTVSPropertyOp0
 70
     1
102
RTVSPropertyOp1
 70
     1
102
RTVSPropertyOp2
 70
     1
102
RTVSPropertyOp3
 70
     1
102
RTVSPropertyOp4
 70
     1
102
RTVSPropertyOp5
 70
     1
102
RTVSPropertyOp6
 70
     1
102
RTVSPropertyOp7
 70
     1
102
RTVSPropertyOp8
 70
     1
102
RTVSPropertyOp9
 70
     1
102
RTVSPropertyOp10
 70
     1
102
RTVSPropertyOp11
 70
     1
102
RTVSPropertyOp12
 70
     1
102
RTVSPropertyOp13
 70
     1
102
RTVSPropertyOp14
 70
     1
102
RTVSPropertyOp15
 70
     1
102
RTVSPropertyOp16
 70
     1
102
RTVSPropertyOp17
 70
     1
102
RTVSPropertyOp18
 70
     1
102
RTVSPropertyOp19
 70
     1
102
RTVSPropertyOp20
 70
     1
102
RTVSPropertyOp21
 70
     1
102
RTVSPropertyOp22
 70
     1
102
RTVSPropertyOp23
 70
     1
102
RTVSPropertyOp24
 70
     1
102
RTVSPropertyOp25
 70
     1
102
RTVSPropertyOp26
 70
     1
102
RTVSPropertyOp27
 70
     1
102
RTVSPropertyOp28
 70
     1
102
RTVSPropertyOp29
 70
     1
102
RTVSPropertyOp30
 70
     1
102
RTVSPropertyOp31
 70
     1
102
RTVSPropertyOp32
 70
     1
102
RTVSPropertyOp33
 70
     1
102
RTVSPropertyOp34
 70
     1
102
RTVSPropertyOp35
 70
     1
102
RTVSPropertyOp36
 70
     1
102
RTVSPropertyOp37
 70
     1
102
RTVSPropertyOp38
 70
     1
102
RTVSPropertyOp39
 70
     1
102
RTVSPropertyOp40
 70
     1
102
RTVSPropertyOp41
 70
     1
102
RTVSPropertyOp42
 70
     1
102
RTVSPropertyOp43
 70
     1
102
RTVSPropertyOp44
 70
     1
102
RTVSPropertyOp45
 70
     1
102
RTVSPropertyOp46
 70
     1
102
RTVSPropertyOp47
 70
     1
102
RTVSPropertyOp48
 70
     1
102
RTVSPropertyOp49
 70
     1
102
RTVSPropertyOp50
 70
     1
102
RTVSPropertyOp51
 70
     0
102
RTVSPropertyOp52
 70
     0
102
RTVSPropertyOp53
 70
     1
102
RTVSPropertyOp54
 70
     1
102
RTVSPropertyOp55
 70
     1
102
RTVSPropertyOp56
 70
     1
102
RTVSPropertyOp57
 70
     1
102
RTVSPropertyOp58
 70
     1
102
RTVSPropertyOp59
 70
     1
102
RTVSPropertyOp60
 70
     1
102
RTVSPropertyOp61
 70
     1
102
RTVSPropertyOp62
 70
     1
  0
XRECORD
  5
BF9
102
{ACAD_REACTORS
330
BF8
102
}
330
BF8
100
AcDbXrecord
280
     1
102
RTVSPost2010Prop28
280
     0
102
RTVSPost2010PropOp28
 70
     1
102
RTVSPost2010Prop29
280
     1
102
RTVSPost2010PropOp29
 70
     1
102
RTVSPost2010Prop30
280
     1
102
RTVSPost2010PropOp30
 70
     1
102
RTVSPost2010Prop31
280
     0
102
RTVSPost2010PropOp31
 70
     1
102
RTVSPost2010Prop32
280
     0
102
RTVSPost2010PropOp32
 70
     1
102
RTVSPost2010Prop33
280
     0
102
RTVSPost2010PropOp33
 70
     1
102
RTVSPost2010Prop34
280
     0
102
RTVSPost2010PropOp34
 70
     1
102
RTVSPost2010Prop35
280
     0
102
RTVSPost2010PropOp35
 70
     1
102
RTVSPost2010Prop36
280
     0
102
RTVSPost2010PropOp36
 70
     1
102
RTVSPost2010Prop37
 90
       50
102
RTVSPost2010PropOp37
 70
     1
102
RTVSPost2010Prop38
140
0.0
102
RTVSPost2010PropOp38
 70
     1
102
RTVSPost2010Prop39
140
1.0
102
RTVSPost2010PropOp39
 70
     1
102
RTVSPost2010Prop40
 90
        0
102
RTVSPost2010PropOp40
 70
     1
102
RTVSPost2010Prop41ColorIndex
 90
       18
102
RTVSPost2010Prop41ColorRGB
 90
        0
102
RTVSPost2010PropOp41
 70
     1
102
RTVSPost2010Prop42
 90
       50
102
RTVSPost2010PropOp42
 70
     1
102
RTVSPost2010Prop43
 90
        3
102
RTVSPost2010PropOp43
 70
     1
102
RTVSPost2010Prop44ColorIndex
 90
        5
102
RTVSPost2010Prop44ColorRGB
 90
      255
102
RTVSPost2010PropOp44
 70
     1
102
RTVSPost2010Prop45
280
     0
102
RTVSPost2010PropOp45
 70
     1
102
RTVSPost2010Prop46
 90
       50
102
RTVSPost2010PropOp46
 70
     1
102
RTVSPost2010Prop47
 90
       50
102
RTVSPost2010PropOp47
 70
     1
102
RTVSPost2010Prop48
 90
       50
102
RTVSPost2010PropOp48
 70
     1
102
RTVSPost2010Prop49
280
     0
102
RTVSPost2010PropOp49
 70
     1
102
RTVSPost2010Prop50
 90
       50
102
RTVSPost2010PropOp50
 70
     1
102
RTVSPost2010Prop51ColorIndex
 90
      256
102
RTVSPost2010Prop51ColorRGB
 90
-16777216
102
RTVSPost2010PropOp51
 70
     0
102
RTVSPost2010Prop52
140
1.0
102
RTVSPost2010PropOp52
 70
     0
102
RTVSPost2010Prop53
 90
        2
102
RTVSPost2010PropOp53
 70
     1
102
RTVSPost2010Prop54
  1
strokes_ogs.tif
102
RTVSPost2010PropOp54
 70
     1
102
RTVSPost2010Prop55
280
     0
102
RTVSPost2010PropOp55
 70
     1
102
RTVSPost2010Prop56
140
1.0
102
RTVSPost2010PropOp56
 70
     1
102
RTVSPost2010Prop57
140
1.0
102
RTVSPost2010PropOp57
 70
     1
102
RTVSPropertyOp0
 70
     1
102
RTVSPropertyOp1
 70
     1
102
RTVSPropertyOp2
 70
     1
102
RTVSPropertyOp3
 70
     1
102
RTVSPropertyOp4
 70
     1
102
RTVSPropertyOp5
 70
     1
102
RTVSPropertyOp6
 70
     1
102
RTVSPropertyOp7
 70
     1
102
RTVSPropertyOp8
 70
     1
102
RTVSPropertyOp9
 70
     1
102
RTVSPropertyOp10
 70
     1
102
RTVSPropertyOp11
 70
     1
102
RTVSPropertyOp12
 70
     1
102
RTVSPropertyOp13
 70
     1
102
RTVSPropertyOp14
 70
     1
102
RTVSPropertyOp15
 70
     1
102
RTVSPropertyOp16
 70
     1
102
RTVSPropertyOp17
 70
     1
102
RTVSPropertyOp18
 70
     1
102
RTVSPropertyOp19
 70
     1
102
RTVSPropertyOp20
 70
     1
102
RTVSPropertyOp21
 70
     1
102
RTVSPropertyOp22
 70
     1
102
RTVSPropertyOp23
 70
     1
102
RTVSPropertyOp24
 70
     1
102
RTVSPropertyOp25
 70
     1
102
RTVSPropertyOp26
 70
     1
102
RTVSPropertyOp27
 70
     1
102
RTVSPropertyOp28
 70
     1
102
RTVSPropertyOp29
 70
     1
102
RTVSPropertyOp30
 70
     1
102
RTVSPropertyOp31
 70
     1
102
RTVSPropertyOp32
 70
     1
102
RTVSPropertyOp33
 70
     1
102
RTVSPropertyOp34
 70
     1
102
RTVSPropertyOp35
 70
     1
102
RTVSPropertyOp36
 70
     1
102
RTVSPropertyOp37
 70
     1
102
RTVSPropertyOp38
 70
     1
102
RTVSPropertyOp39
 70
     1
102
RTVSPropertyOp40
 70
     1
102
RTVSPropertyOp41
 70
     1
102
RTVSPropertyOp42
 70
     1
102
RTVSPropertyOp43
 70
     1
102
RTVSPropertyOp44
 70
     1
102
RTVSPropertyOp45
 70
     1
102
RTVSPropertyOp46
 70
     1
102
RTVSPropertyOp47
 70
     1
102
RTVSPropertyOp48
 70
     1
102
RTVSPropertyOp49
 70
     1
102
RTVSPropertyOp50
 70
     1
102
RTVSPropertyOp51
 70
     0
102
RTVSPropertyOp52
 70
     0
102
RTVSPropertyOp53
 70
     1
102
RTVSPropertyOp54
 70
     1
102
RTVSPropertyOp55
 70
     1
102
RTVSPropertyOp56
 70
     1
102
RTVSPropertyOp57
 70
     1
102
RTVSPropertyOp58
 70
     1
102
RTVSPropertyOp59
 70
     1
102
RTVSPropertyOp60
 70
     1
102
RTVSPropertyOp61
 70
     1
102
RTVSPropertyOp62
 70
     1
  0
XRECORD
  5
C15
102
{ACAD_REACTORS
330
C14
102
}
330
C14
100
AcDbXrecord
280
     1
102
RTVSPost2010Prop28
280
     0
102
RTVSPost2010PropOp28
 70
     0
102
RTVSPost2010Prop29
280
     1
102
RTVSPost2010PropOp29
 70
     0
102
RTVSPost2010Prop30
280
     1
102
RTVSPost2010PropOp30
 70
     0
102
RTVSPost2010Prop31
280
     0
102
RTVSPost2010PropOp31
 70
     0
102
RTVSPost2010Prop32
280
     0
102
RTVSPost2010PropOp32
 70
     0
102
RTVSPost2010Prop33
280
     0
102
RTVSPost2010PropOp33
 70
     0
102
RTVSPost2010Prop34
280
     0
102
RTVSPost2010PropOp34
 70
     0
102
RTVSPost2010Prop35
280
     0
102
RTVSPost2010PropOp35
 70
     0
102
RTVSPost2010Prop36
280
     0
102
RTVSPost2010PropOp36
 70
     0
102
RTVSPost2010Prop37
 90
       50
102
RTVSPost2010PropOp37
 70
     0
102
RTVSPost2010Prop38
140
0.0
102
RTVSPost2010PropOp38
 70
     0
102
RTVSPost2010Prop39
140
1.0
102
RTVSPost2010PropOp39
 70
     0
102
RTVSPost2010Prop40
 90
        0
102
RTVSPost2010PropOp40
 70
     0
102
RTVSPost2010Prop41ColorIndex
 90
       18
102
RTVSPost2010Prop41ColorRGB
 90
        0
102
RTVSPost2010PropOp41
 70
     0
102
RTVSPost2010Prop42
 90
       50
102
RTVSPost2010PropOp42
 70
     0
102
RTVSPost2010Prop43
 90
        3
102
RTVSPost2010PropOp43
 70
     0
102
RTVSPost2010Prop44ColorIndex
 90
        5
102
RTVSPost2010Prop44ColorRGB
 90
      255
102
RTVSPost2010PropOp44
 70
     0
102
RTVSPost2010Prop45
280
     0
102
RTVSPost2010PropOp45
 70
     0
102
RTVSPost2010Prop46
 90
       50
102
RTVSPost2010PropOp46
 70
     0
102
RTVSPost2010Prop47
 90
       50
102
RTVSPost2010PropOp47
 70
     0
102
RTVSPost2010Prop48
 90
       50
102
RTVSPost2010PropOp48
 70
     0
102
RTVSPost2010Prop49
280
     0
102
RTVSPost2010PropOp49
 70
     0
102
RTVSPost2010Prop50
 90
       50
102
RTVSPost2010PropOp50
 70
     0
102
RTVSPost2010Prop51ColorIndex
 90
      256
102
RTVSPost2010Prop51ColorRGB
 90
-16777216
102
RTVSPost2010PropOp51
 70
     0
102
RTVSPost2010Prop52
140
1.0
102
RTVSPost2010PropOp52
 70
     0
102
RTVSPost2010Prop53
 90
        2
102
RTVSPost2010PropOp53
 70
     0
102
RTVSPost2010Prop54
  1
strokes_ogs.tif
102
RTVSPost2010PropOp54
 70
     0
102
RTVSPost2010Prop55
280
     0
102
RTVSPost2010PropOp55
 70
     0
102
RTVSPost2010Prop56
140
1.0
102
RTVSPost2010PropOp56
 70
     0
102
RTVSPost2010Prop57
140
1.0
102
RTVSPost2010PropOp57
 70
     0
102
RTVSPropertyOp0
 70
     0
102
RTVSPropertyOp1
 70
     0
102
RTVSPropertyOp2
 70
     0
102
RTVSPropertyOp3
 70
     0
102
RTVSPropertyOp4
 70
     0
102
RTVSPropertyOp5
 70
     0
102
RTVSPropertyOp6
 70
     0
102
RTVSPropertyOp7
 70
     0
102
RTVSPropertyOp8
 70
     0
102
RTVSPropertyOp9
 70
     0
102
RTVSPropertyOp10
 70
     0
102
RTVSPropertyOp11
 70
     0
102
RTVSPropertyOp12
 70
     0
102
RTVSPropertyOp13
 70
     0
102
RTVSPropertyOp14
 70
     2
102
RTVSPropertyOp15
 70
     0
102
RTVSPropertyOp16
 70
     0
102
RTVSPropertyOp17
 70
     0
102
RTVSPropertyOp18
 70
     0
102
RTVSPropertyOp19
 70
     0
102
RTVSPropertyOp20
 70
     0
102
RTVSPropertyOp21
 70
     0
102
RTVSPropertyOp22
 70
     0
102
RTVSPropertyOp23
 70
     0
102
RTVSPropertyOp24
 70
     0
102
RTVSPropertyOp25
 70
     0
102
RTVSPropertyOp26
 70
     0
102
RTVSPropertyOp27
 70
     0
102
RTVSPropertyOp28
 70
     0
102
RTVSPropertyOp29
 70
     0
102
RTVSPropertyOp30
 70
     0
102
RTVSPropertyOp31
 70
     0
102
RTVSPropertyOp32
 70
     0
102
RTVSPropertyOp33
 70
     0
102
RTVSPropertyOp34
 70
     0
102
RTVSPropertyOp35
 70
     0
102
RTVSPropertyOp36
 70
     0
102
RTVSPropertyOp37
 70
     0
102
RTVSPropertyOp38
 70
     0
102
RTVSPropertyOp39
 70
     0
102
RTVSPropertyOp40
 70
     0
102
RTVSPropertyOp41
 70
     0
102
RTVSPropertyOp42
 70
     0
102
RTVSPropertyOp43
 70
     0
102
RTVSPropertyOp44
 70
     0
102
RTVSPropertyOp45
 70
     0
102
RTVSPropertyOp46
 70
     0
102
RTVSPropertyOp47
 70
     0
102
RTVSPropertyOp48
 70
     0
102
RTVSPropertyOp49
 70
     0
102
RTVSPropertyOp50
 70
     0
102
RTVSPropertyOp51
 70
     0
102
RTVSPropertyOp52
 70
     0
102
RTVSPropertyOp53
 70
     0
102
RTVSPropertyOp54
 70
     0
102
RTVSPropertyOp55
 70
     0
102
RTVSPropertyOp56
 70
     0
102
RTVSPropertyOp57
 70
     0
102
RTVSPropertyOp58
 70
     0
102
RTVSPropertyOp59
 70
     0
102
RTVSPropertyOp60
 70
     0
102
RTVSPropertyOp61
 70
     0
102
RTVSPropertyOp62
 70
     0
  0
XRECORD
  5
C05
102
{ACAD_REACTORS
330
C04
102
}
330
C04
100
AcDbXrecord
280
     1
102
RTVSPost2010Prop28
280
     0
102
RTVSPost2010PropOp28
 70
     1
102
RTVSPost2010Prop29
280
     1
102
RTVSPost2010PropOp29
 70
     1
102
RTVSPost2010Prop30
280
     1
102
RTVSPost2010PropOp30
 70
     1
102
RTVSPost2010Prop31
280
     0
102
RTVSPost2010PropOp31
 70
     1
102
RTVSPost2010Prop32
280
     0
102
RTVSPost2010PropOp32
 70
     1
102
RTVSPost2010Prop33
280
     0
102
RTVSPost2010PropOp33
 70
     1
102
RTVSPost2010Prop34
280
     0
102
RTVSPost2010PropOp34
 70
     1
102
RTVSPost2010Prop35
280
     0
102
RTVSPost2010PropOp35
 70
     1
102
RTVSPost2010Prop36
280
     0
102
RTVSPost2010PropOp36
 70
     1
102
RTVSPost2010Prop37
 90
       50
102
RTVSPost2010PropOp37
 70
     1
102
RTVSPost2010Prop38
140
0.0
102
RTVSPost2010PropOp38
 70
     1
102
RTVSPost2010Prop39
140
1.0
102
RTVSPost2010PropOp39
 70
     1
102
RTVSPost2010Prop40
 90
        0
102
RTVSPost2010PropOp40
 70
     1
102
RTVSPost2010Prop41ColorIndex
 90
       18
102
RTVSPost2010Prop41ColorRGB
 90
        0
102
RTVSPost2010PropOp41
 70
     1
102
RTVSPost2010Prop42
 90
       50
102
RTVSPost2010PropOp42
 70
     1
102
RTVSPost2010Prop43
 90
        3
102
RTVSPost2010PropOp43
 70
     1
102
RTVSPost2010Prop44ColorIndex
 90
        5
102
RTVSPost2010Prop44ColorRGB
 90
      255
102
RTVSPost2010PropOp44
 70
     1
102
RTVSPost2010Prop45
280
     0
102
RTVSPost2010PropOp45
 70
     1
102
RTVSPost2010Prop46
 90
       50
102
RTVSPost2010PropOp46
 70
     1
102
RTVSPost2010Prop47
 90
       50
102
RTVSPost2010PropOp47
 70
     1
102
RTVSPost2010Prop48
 90
       50
102
RTVSPost2010PropOp48
 70
     1
102
RTVSPost2010Prop49
280
     0
102
RTVSPost2010PropOp49
 70
     1
102
RTVSPost2010Prop50
 90
       50
102
RTVSPost2010PropOp50
 70
     1
102
RTVSPost2010Prop51ColorIndex
 90
      256
102
RTVSPost2010Prop51ColorRGB
 90
-16777216
102
RTVSPost2010PropOp51
 70
     0
102
RTVSPost2010Prop52
140
1.0
102
RTVSPost2010PropOp52
 70
     0
102
RTVSPost2010Prop53
 90
        2
102
RTVSPost2010PropOp53
 70
     1
102
RTVSPost2010Prop54
  1
strokes_ogs.tif
102
RTVSPost2010PropOp54
 70
     1
102
RTVSPost2010Prop55
280
     0
102
RTVSPost2010PropOp55
 70
     1
102
RTVSPost2010Prop56
140
1.0
102
RTVSPost2010PropOp56
 70
     1
102
RTVSPost2010Prop57
140
1.0
102
RTVSPost2010PropOp57
 70
     1
102
RTVSPropertyOp0
 70
     1
102
RTVSPropertyOp1
 70
     1
102
RTVSPropertyOp2
 70
     1
102
RTVSPropertyOp3
 70
     1
102
RTVSPropertyOp4
 70
     1
102
RTVSPropertyOp5
 70
     1
102
RTVSPropertyOp6
 70
     1
102
RTVSPropertyOp7
 70
     1
102
RTVSPropertyOp8
 70
     1
102
RTVSPropertyOp9
 70
     1
102
RTVSPropertyOp10
 70
     1
102
RTVSPropertyOp11
 70
     1
102
RTVSPropertyOp12
 70
     1
102
RTVSPropertyOp13
 70
     1
102
RTVSPropertyOp14
 70
     1
102
RTVSPropertyOp15
 70
     1
102
RTVSPropertyOp16
 70
     1
102
RTVSPropertyOp17
 70
     1
102
RTVSPropertyOp18
 70
     1
102
RTVSPropertyOp19
 70
     1
102
RTVSPropertyOp20
 70
     1
102
RTVSPropertyOp21
 70
     1
102
RTVSPropertyOp22
 70
     1
102
RTVSPropertyOp23
 70
     1
102
RTVSPropertyOp24
 70
     1
102
RTVSPropertyOp25
 70
     1
102
RTVSPropertyOp26
 70
     1
102
RTVSPropertyOp27
 70
     1
102
RTVSPropertyOp28
 70
     1
102
RTVSPropertyOp29
 70
     1
102
RTVSPropertyOp30
 70
     1
102
RTVSPropertyOp31
 70
     1
102
RTVSPropertyOp32
 70
     1
102
RTVSPropertyOp33
 70
     1
102
RTVSPropertyOp34
 70
     1
102
RTVSPropertyOp35
 70
     1
102
RTVSPropertyOp36
 70
     1
102
RTVSPropertyOp37
 70
     1
102
RTVSPropertyOp38
 70
     1
102
RTVSPropertyOp39
 70
     1
102
RTVSPropertyOp40
 70
     1
102
RTVSPropertyOp41
 70
     1
102
RTVSPropertyOp42
 70
     1
102
RTVSPropertyOp43
 70
     1
102
RTVSPropertyOp44
 70
     1
102
RTVSPropertyOp45
 70
     1
102
RTVSPropertyOp46
 70
     1
102
RTVSPropertyOp47
 70
     1
102
RTVSPropertyOp48
 70
     1
102
RTVSPropertyOp49
 70
     1
102
RTVSPropertyOp50
 70
     1
102
RTVSPropertyOp51
 70
     0
102
RTVSPropertyOp52
 70
     0
102
RTVSPropertyOp53
 70
     1
102
RTVSPropertyOp54
 70
     1
102
RTVSPropertyOp55
 70
     1
102
RTVSPropertyOp56
 70
     1
102
RTVSPropertyOp57
 70
     1
102
RTVSPropertyOp58
 70
     1
102
RTVSPropertyOp59
 70
     1
102
RTVSPropertyOp60
 70
     1
102
RTVSPropertyOp61
 70
     1
102
RTVSPropertyOp62
 70
     1
  0
XRECORD
  5
C17
102
{ACAD_REACTORS
330
C16
102
}
330
C16
100
AcDbXrecord
280
     1
102
RTVSPost2010Prop28
280
     0
102
RTVSPost2010PropOp28
 70
     0
102
RTVSPost2010Prop29
280
     1
102
RTVSPost2010PropOp29
 70
     0
102
RTVSPost2010Prop30
280
     1
102
RTVSPost2010PropOp30
 70
     0
102
RTVSPost2010Prop31
280
     0
102
RTVSPost2010PropOp31
 70
     0
102
RTVSPost2010Prop32
280
     0
102
RTVSPost2010PropOp32
 70
     0
102
RTVSPost2010Prop33
280
     0
102
RTVSPost2010PropOp33
 70
     0
102
RTVSPost2010Prop34
280
     0
102
RTVSPost2010PropOp34
 70
     0
102
RTVSPost2010Prop35
280
     0
102
RTVSPost2010PropOp35
 70
     0
102
RTVSPost2010Prop36
280
     0
102
RTVSPost2010PropOp36
 70
     0
102
RTVSPost2010Prop37
 90
       50
102
RTVSPost2010PropOp37
 70
     0
102
RTVSPost2010Prop38
140
0.0
102
RTVSPost2010PropOp38
 70
     0
102
RTVSPost2010Prop39
140
1.0
102
RTVSPost2010PropOp39
 70
     0
102
RTVSPost2010Prop40
 90
        0
102
RTVSPost2010PropOp40
 70
     0
102
RTVSPost2010Prop41ColorIndex
 90
       18
102
RTVSPost2010Prop41ColorRGB
 90
        0
102
RTVSPost2010PropOp41
 70
     0
102
RTVSPost2010Prop42
 90
       50
102
RTVSPost2010PropOp42
 70
     0
102
RTVSPost2010Prop43
 90
        3
102
RTVSPost2010PropOp43
 70
     0
102
RTVSPost2010Prop44ColorIndex
 90
        5
102
RTVSPost2010Prop44ColorRGB
 90
      255
102
RTVSPost2010PropOp44
 70
     0
102
RTVSPost2010Prop45
280
     0
102
RTVSPost2010PropOp45
 70
     0
102
RTVSPost2010Prop46
 90
       50
102
RTVSPost2010PropOp46
 70
     0
102
RTVSPost2010Prop47
 90
       50
102
RTVSPost2010PropOp47
 70
     0
102
RTVSPost2010Prop48
 90
       50
102
RTVSPost2010PropOp48
 70
     0
102
RTVSPost2010Prop49
280
     0
102
RTVSPost2010PropOp49
 70
     0
102
RTVSPost2010Prop50
 90
       50
102
RTVSPost2010PropOp50
 70
     0
102
RTVSPost2010Prop51ColorIndex
 90
      256
102
RTVSPost2010Prop51ColorRGB
 90
-16777216
102
RTVSPost2010PropOp51
 70
     0
102
RTVSPost2010Prop52
140
1.0
102
RTVSPost2010PropOp52
 70
     0
102
RTVSPost2010Prop53
 90
        2
102
RTVSPost2010PropOp53
 70
     0
102
RTVSPost2010Prop54
  1
strokes_ogs.tif
102
RTVSPost2010PropOp54
 70
     0
102
RTVSPost2010Prop55
280
     0
102
RTVSPost2010PropOp55
 70
     0
102
RTVSPost2010Prop56
140
1.0
102
RTVSPost2010PropOp56
 70
     0
102
RTVSPost2010Prop57
140
1.0
102
RTVSPost2010PropOp57
 70
     0
102
RTVSPropertyOp0
 70
     0
102
RTVSPropertyOp1
 70
     0
102
RTVSPropertyOp2
 70
     0
102
RTVSPropertyOp3
 70
     0
102
RTVSPropertyOp4
 70
     0
102
RTVSPropertyOp5
 70
     0
102
RTVSPropertyOp6
 70
     0
102
RTVSPropertyOp7
 70
     0
102
RTVSPropertyOp8
 70
     0
102
RTVSPropertyOp9
 70
     0
102
RTVSPropertyOp10
 70
     0
102
RTVSPropertyOp11
 70
     0
102
RTVSPropertyOp12
 70
     0
102
RTVSPropertyOp13
 70
     0
102
RTVSPropertyOp14
 70
     2
102
RTVSPropertyOp15
 70
     0
102
RTVSPropertyOp16
 70
     0
102
RTVSPropertyOp17
 70
     0
102
RTVSPropertyOp18
 70
     0
102
RTVSPropertyOp19
 70
     0
102
RTVSPropertyOp20
 70
     0
102
RTVSPropertyOp21
 70
     0
102
RTVSPropertyOp22
 70
     0
102
RTVSPropertyOp23
 70
     0
102
RTVSPropertyOp24
 70
     0
102
RTVSPropertyOp25
 70
     0
102
RTVSPropertyOp26
 70
     0
102
RTVSPropertyOp27
 70
     0
102
RTVSPropertyOp28
 70
     0
102
RTVSPropertyOp29
 70
     0
102
RTVSPropertyOp30
 70
     0
102
RTVSPropertyOp31
 70
     0
102
RTVSPropertyOp32
 70
     0
102
RTVSPropertyOp33
 70
     0
102
RTVSPropertyOp34
 70
     0
102
RTVSPropertyOp35
 70
     0
102
RTVSPropertyOp36
 70
     0
102
RTVSPropertyOp37
 70
     0
102
RTVSPropertyOp38
 70
     0
102
RTVSPropertyOp39
 70
     0
102
RTVSPropertyOp40
 70
     0
102
RTVSPropertyOp41
 70
     0
102
RTVSPropertyOp42
 70
     0
102
RTVSPropertyOp43
 70
     0
102
RTVSPropertyOp44
 70
     0
102
RTVSPropertyOp45
 70
     0
102
RTVSPropertyOp46
 70
     0
102
RTVSPropertyOp47
 70
     0
102
RTVSPropertyOp48
 70
     0
102
RTVSPropertyOp49
 70
     0
102
RTVSPropertyOp50
 70
     0
102
RTVSPropertyOp51
 70
     0
102
RTVSPropertyOp52
 70
     0
102
RTVSPropertyOp53
 70
     0
102
RTVSPropertyOp54
 70
     0
102
RTVSPropertyOp55
 70
     0
102
RTVSPropertyOp56
 70
     0
102
RTVSPropertyOp57
 70
     0
102
RTVSPropertyOp58
 70
     0
102
RTVSPropertyOp59
 70
     0
102
RTVSPropertyOp60
 70
     0
102
RTVSPropertyOp61
 70
     0
102
RTVSPropertyOp62
 70
     0
  0
XRECORD
  5
BFD
102
{ACAD_REACTORS
330
BFC
102
}
330
BFC
100
AcDbXrecord
280
     1
102
RTVSPost2010Prop28
280
     0
102
RTVSPost2010PropOp28
 70
     1
102
RTVSPost2010Prop29
280
     1
102
RTVSPost2010PropOp29
 70
     1
102
RTVSPost2010Prop30
280
     1
102
RTVSPost2010PropOp30
 70
     1
102
RTVSPost2010Prop31
280
     0
102
RTVSPost2010PropOp31
 70
     1
102
RTVSPost2010Prop32
280
     0
102
RTVSPost2010PropOp32
 70
     1
102
RTVSPost2010Prop33
280
     0
102
RTVSPost2010PropOp33
 70
     1
102
RTVSPost2010Prop34
280
     0
102
RTVSPost2010PropOp34
 70
     1
102
RTVSPost2010Prop35
280
     0
102
RTVSPost2010PropOp35
 70
     1
102
RTVSPost2010Prop36
280
     0
102
RTVSPost2010PropOp36
 70
     1
102
RTVSPost2010Prop37
 90
       50
102
RTVSPost2010PropOp37
 70
     1
102
RTVSPost2010Prop38
140
0.0
102
RTVSPost2010PropOp38
 70
     1
102
RTVSPost2010Prop39
140
1.0
102
RTVSPost2010PropOp39
 70
     1
102
RTVSPost2010Prop40
 90
        0
102
RTVSPost2010PropOp40
 70
     1
102
RTVSPost2010Prop41ColorIndex
 90
       18
102
RTVSPost2010Prop41ColorRGB
 90
        0
102
RTVSPost2010PropOp41
 70
     1
102
RTVSPost2010Prop42
 90
       50
102
RTVSPost2010PropOp42
 70
     1
102
RTVSPost2010Prop43
 90
        3
102
RTVSPost2010PropOp43
 70
     1
102
RTVSPost2010Prop44ColorIndex
 90
        5
102
RTVSPost2010Prop44ColorRGB
 90
      255
102
RTVSPost2010PropOp44
 70
     1
102
RTVSPost2010Prop45
280
     0
102
RTVSPost2010PropOp45
 70
     1
102
RTVSPost2010Prop46
 90
       50
102
RTVSPost2010PropOp46
 70
     1
102
RTVSPost2010Prop47
 90
       50
102
RTVSPost2010PropOp47
 70
     1
102
RTVSPost2010Prop48
 90
       50
102
RTVSPost2010PropOp48
 70
     1
102
RTVSPost2010Prop49
280
     0
102
RTVSPost2010PropOp49
 70
     1
102
RTVSPost2010Prop50
 90
       50
102
RTVSPost2010PropOp50
 70
     1
102
RTVSPost2010Prop51ColorIndex
 90
      256
102
RTVSPost2010Prop51ColorRGB
 90
-16777216
102
RTVSPost2010PropOp51
 70
     0
102
RTVSPost2010Prop52
140
1.0
102
RTVSPost2010PropOp52
 70
     0
102
RTVSPost2010Prop53
 90
        2
102
RTVSPost2010PropOp53
 70
     1
102
RTVSPost2010Prop54
  1
strokes_ogs.tif
102
RTVSPost2010PropOp54
 70
     1
102
RTVSPost2010Prop55
280
     0
102
RTVSPost2010PropOp55
 70
     1
102
RTVSPost2010Prop56
140
1.0
102
RTVSPost2010PropOp56
 70
     1
102
RTVSPost2010Prop57
140
1.0
102
RTVSPost2010PropOp57
 70
     1
102
RTVSPropertyOp0
 70
     1
102
RTVSPropertyOp1
 70
     1
102
RTVSPropertyOp2
 70
     1
102
RTVSPropertyOp3
 70
     1
102
RTVSPropertyOp4
 70
     1
102
RTVSPropertyOp5
 70
     1
102
RTVSPropertyOp6
 70
     1
102
RTVSPropertyOp7
 70
     1
102
RTVSPropertyOp8
 70
     1
102
RTVSPropertyOp9
 70
     1
102
RTVSPropertyOp10
 70
     1
102
RTVSPropertyOp11
 70
     1
102
RTVSPropertyOp12
 70
     1
102
RTVSPropertyOp13
 70
     1
102
RTVSPropertyOp14
 70
     1
102
RTVSPropertyOp15
 70
     1
102
RTVSPropertyOp16
 70
     1
102
RTVSPropertyOp17
 70
     1
102
RTVSPropertyOp18
 70
     1
102
RTVSPropertyOp19
 70
     1
102
RTVSPropertyOp20
 70
     1
102
RTVSPropertyOp21
 70
     1
102
RTVSPropertyOp22
 70
     1
102
RTVSPropertyOp23
 70
     1
102
RTVSPropertyOp24
 70
     1
102
RTVSPropertyOp25
 70
     1
102
RTVSPropertyOp26
 70
     1
102
RTVSPropertyOp27
 70
     1
102
RTVSPropertyOp28
 70
     1
102
RTVSPropertyOp29
 70
     1
102
RTVSPropertyOp30
 70
     1
102
RTVSPropertyOp31
 70
     1
102
RTVSPropertyOp32
 70
     1
102
RTVSPropertyOp33
 70
     1
102
RTVSPropertyOp34
 70
     1
102
RTVSPropertyOp35
 70
     1
102
RTVSPropertyOp36
 70
     1
102
RTVSPropertyOp37
 70
     1
102
RTVSPropertyOp38
 70
     1
102
RTVSPropertyOp39
 70
     1
102
RTVSPropertyOp40
 70
     1
102
RTVSPropertyOp41
 70
     1
102
RTVSPropertyOp42
 70
     1
102
RTVSPropertyOp43
 70
     1
102
RTVSPropertyOp44
 70
     1
102
RTVSPropertyOp45
 70
     1
102
RTVSPropertyOp46
 70
     1
102
RTVSPropertyOp47
 70
     1
102
RTVSPropertyOp48
 70
     1
102
RTVSPropertyOp49
 70
     1
102
RTVSPropertyOp50
 70
     1
102
RTVSPropertyOp51
 70
     0
102
RTVSPropertyOp52
 70
     0
102
RTVSPropertyOp53
 70
     1
102
RTVSPropertyOp54
 70
     1
102
RTVSPropertyOp55
 70
     1
102
RTVSPropertyOp56
 70
     1
102
RTVSPropertyOp57
 70
     1
102
RTVSPropertyOp58
 70
     1
102
RTVSPropertyOp59
 70
     1
102
RTVSPropertyOp60
 70
     1
102
RTVSPropertyOp61
 70
     1
102
RTVSPropertyOp62
 70
     1
  0
XRECORD
  5
C13
102
{ACAD_REACTORS
330
C12
102
}
330
C12
100
AcDbXrecord
280
     1
102
RTVSPost2010Prop28
280
     0
102
RTVSPost2010PropOp28
 70
     1
102
RTVSPost2010Prop29
280
     1
102
RTVSPost2010PropOp29
 70
     1
102
RTVSPost2010Prop30
280
     1
102
RTVSPost2010PropOp30
 70
     1
102
RTVSPost2010Prop31
280
     0
102
RTVSPost2010PropOp31
 70
     1
102
RTVSPost2010Prop32
280
     0
102
RTVSPost2010PropOp32
 70
     1
102
RTVSPost2010Prop33
280
     0
102
RTVSPost2010PropOp33
 70
     1
102
RTVSPost2010Prop34
280
     0
102
RTVSPost2010PropOp34
 70
     1
102
RTVSPost2010Prop35
280
     0
102
RTVSPost2010PropOp35
 70
     1
102
RTVSPost2010Prop36
280
     0
102
RTVSPost2010PropOp36
 70
     1
102
RTVSPost2010Prop37
 90
       50
102
RTVSPost2010PropOp37
 70
     1
102
RTVSPost2010Prop38
140
0.0
102
RTVSPost2010PropOp38
 70
     1
102
RTVSPost2010Prop39
140
1.0
102
RTVSPost2010PropOp39
 70
     1
102
RTVSPost2010Prop40
 90
        0
102
RTVSPost2010PropOp40
 70
     1
102
RTVSPost2010Prop41ColorIndex
 90
       18
102
RTVSPost2010Prop41ColorRGB
 90
        0
102
RTVSPost2010PropOp41
 70
     1
102
RTVSPost2010Prop42
 90
       50
102
RTVSPost2010PropOp42
 70
     1
102
RTVSPost2010Prop43
 90
        3
102
RTVSPost2010PropOp43
 70
     1
102
RTVSPost2010Prop44ColorIndex
 90
        5
102
RTVSPost2010Prop44ColorRGB
 90
      255
102
RTVSPost2010PropOp44
 70
     1
102
RTVSPost2010Prop45
280
     0
102
RTVSPost2010PropOp45
 70
     1
102
RTVSPost2010Prop46
 90
       50
102
RTVSPost2010PropOp46
 70
     1
102
RTVSPost2010Prop47
 90
       50
102
RTVSPost2010PropOp47
 70
     1
102
RTVSPost2010Prop48
 90
       50
102
RTVSPost2010PropOp48
 70
     1
102
RTVSPost2010Prop49
280
     0
102
RTVSPost2010PropOp49
 70
     1
102
RTVSPost2010Prop50
 90
       50
102
RTVSPost2010PropOp50
 70
     1
102
RTVSPost2010Prop51ColorIndex
 90
      256
102
RTVSPost2010Prop51ColorRGB
 90
-16777216
102
RTVSPost2010PropOp51
 70
     0
102
RTVSPost2010Prop52
140
1.0
102
RTVSPost2010PropOp52
 70
     0
102
RTVSPost2010Prop53
 90
        2
102
RTVSPost2010PropOp53
 70
     1
102
RTVSPost2010Prop54
  1
strokes_ogs.tif
102
RTVSPost2010PropOp54
 70
     1
102
RTVSPost2010Prop55
280
     0
102
RTVSPost2010PropOp55
 70
     1
102
RTVSPost2010Prop56
140
1.0
102
RTVSPost2010PropOp56
 70
     1
102
RTVSPost2010Prop57
140
1.0
102
RTVSPost2010PropOp57
 70
     1
102
RTVSPropertyOp0
 70
     1
102
RTVSPropertyOp1
 70
     1
102
RTVSPropertyOp2
 70
     1
102
RTVSPropertyOp3
 70
     1
102
RTVSPropertyOp4
 70
     1
102
RTVSPropertyOp5
 70
     1
102
RTVSPropertyOp6
 70
     1
102
RTVSPropertyOp7
 70
     1
102
RTVSPropertyOp8
 70
     1
102
RTVSPropertyOp9
 70
     1
102
RTVSPropertyOp10
 70
     1
102
RTVSPropertyOp11
 70
     1
102
RTVSPropertyOp12
 70
     1
102
RTVSPropertyOp13
 70
     1
102
RTVSPropertyOp14
 70
     1
102
RTVSPropertyOp15
 70
     1
102
RTVSPropertyOp16
 70
     1
102
RTVSPropertyOp17
 70
     1
102
RTVSPropertyOp18
 70
     1
102
RTVSPropertyOp19
 70
     1
102
RTVSPropertyOp20
 70
     1
102
RTVSPropertyOp21
 70
     1
102
RTVSPropertyOp22
 70
     1
102
RTVSPropertyOp23
 70
     1
102
RTVSPropertyOp24
 70
     1
102
RTVSPropertyOp25
 70
     1
102
RTVSPropertyOp26
 70
     1
102
RTVSPropertyOp27
 70
     1
102
RTVSPropertyOp28
 70
     1
102
RTVSPropertyOp29
 70
     1
102
RTVSPropertyOp30
 70
     1
102
RTVSPropertyOp31
 70
     1
102
RTVSPropertyOp32
 70
     1
102
RTVSPropertyOp33
 70
     1
102
RTVSPropertyOp34
 70
     1
102
RTVSPropertyOp35
 70
     1
102
RTVSPropertyOp36
 70
     1
102
RTVSPropertyOp37
 70
     1
102
RTVSPropertyOp38
 70
     1
102
RTVSPropertyOp39
 70
     1
102
RTVSPropertyOp40
 70
     1
102
RTVSPropertyOp41
 70
     1
102
RTVSPropertyOp42
 70
     1
102
RTVSPropertyOp43
 70
     1
102
RTVSPropertyOp44
 70
     1
102
RTVSPropertyOp45
 70
     1
102
RTVSPropertyOp46
 70
     1
102
RTVSPropertyOp47
 70
     1
102
RTVSPropertyOp48
 70
     1
102
RTVSPropertyOp49
 70
     1
102
RTVSPropertyOp50
 70
     1
102
RTVSPropertyOp51
 70
     0
102
RTVSPropertyOp52
 70
     0
102
RTVSPropertyOp53
 70
     1
102
RTVSPropertyOp54
 70
     1
102
RTVSPropertyOp55
 70
     1
102
RTVSPropertyOp56
 70
     1
102
RTVSPropertyOp57
 70
     1
102
RTVSPropertyOp58
 70
     1
102
RTVSPropertyOp59
 70
     1
102
RTVSPropertyOp60
 70
     1
102
RTVSPropertyOp61
 70
     1
102
RTVSPropertyOp62
 70
     1
  0
XRECORD
  5
C11
102
{ACAD_REACTORS
330
C10
102
}
330
C10
100
AcDbXrecord
280
     1
102
RTVSPost2010Prop28
280
     0
102
RTVSPost2010PropOp28
 70
     1
102
RTVSPost2010Prop29
280
     1
102
RTVSPost2010PropOp29
 70
     1
102
RTVSPost2010Prop30
280
     1
102
RTVSPost2010PropOp30
 70
     1
102
RTVSPost2010Prop31
280
     0
102
RTVSPost2010PropOp31
 70
     1
102
RTVSPost2010Prop32
280
     0
102
RTVSPost2010PropOp32
 70
     1
102
RTVSPost2010Prop33
280
     0
102
RTVSPost2010PropOp33
 70
     1
102
RTVSPost2010Prop34
280
     0
102
RTVSPost2010PropOp34
 70
     1
102
RTVSPost2010Prop35
280
     0
102
RTVSPost2010PropOp35
 70
     1
102
RTVSPost2010Prop36
280
     0
102
RTVSPost2010PropOp36
 70
     1
102
RTVSPost2010Prop37
 90
       50
102
RTVSPost2010PropOp37
 70
     1
102
RTVSPost2010Prop38
140
0.0
102
RTVSPost2010PropOp38
 70
     1
102
RTVSPost2010Prop39
140
1.0
102
RTVSPost2010PropOp39
 70
     1
102
RTVSPost2010Prop40
 90
        0
102
RTVSPost2010PropOp40
 70
     1
102
RTVSPost2010Prop41ColorIndex
 90
       18
102
RTVSPost2010Prop41ColorRGB
 90
        0
102
RTVSPost2010PropOp41
 70
     1
102
RTVSPost2010Prop42
 90
       50
102
RTVSPost2010PropOp42
 70
     1
102
RTVSPost2010Prop43
 90
        3
102
RTVSPost2010PropOp43
 70
     1
102
RTVSPost2010Prop44ColorIndex
 90
        5
102
RTVSPost2010Prop44ColorRGB
 90
      255
102
RTVSPost2010PropOp44
 70
     1
102
RTVSPost2010Prop45
280
     0
102
RTVSPost2010PropOp45
 70
     1
102
RTVSPost2010Prop46
 90
       50
102
RTVSPost2010PropOp46
 70
     1
102
RTVSPost2010Prop47
 90
       50
102
RTVSPost2010PropOp47
 70
     1
102
RTVSPost2010Prop48
 90
       50
102
RTVSPost2010PropOp48
 70
     1
102
RTVSPost2010Prop49
280
     0
102
RTVSPost2010PropOp49
 70
     1
102
RTVSPost2010Prop50
 90
       50
102
RTVSPost2010PropOp50
 70
     1
102
RTVSPost2010Prop51ColorIndex
 90
      256
102
RTVSPost2010Prop51ColorRGB
 90
-16777216
102
RTVSPost2010PropOp51
 70
     0
102
RTVSPost2010Prop52
140
1.0
102
RTVSPost2010PropOp52
 70
     0
102
RTVSPost2010Prop53
 90
        2
102
RTVSPost2010PropOp53
 70
     1
102
RTVSPost2010Prop54
  1
strokes_ogs.tif
102
RTVSPost2010PropOp54
 70
     1
102
RTVSPost2010Prop55
280
     0
102
RTVSPost2010PropOp55
 70
     1
102
RTVSPost2010Prop56
140
1.0
102
RTVSPost2010PropOp56
 70
     1
102
RTVSPost2010Prop57
140
1.0
102
RTVSPost2010PropOp57
 70
     1
102
RTVSPropertyOp0
 70
     1
102
RTVSPropertyOp1
 70
     1
102
RTVSPropertyOp2
 70
     1
102
RTVSPropertyOp3
 70
     1
102
RTVSPropertyOp4
 70
     1
102
RTVSPropertyOp5
 70
     1
102
RTVSPropertyOp6
 70
     1
102
RTVSPropertyOp7
 70
     1
102
RTVSPropertyOp8
 70
     1
102
RTVSPropertyOp9
 70
     1
102
RTVSPropertyOp10
 70
     1
102
RTVSPropertyOp11
 70
     1
102
RTVSPropertyOp12
 70
     1
102
RTVSPropertyOp13
 70
     1
102
RTVSPropertyOp14
 70
     1
102
RTVSPropertyOp15
 70
     1
102
RTVSPropertyOp16
 70
     1
102
RTVSPropertyOp17
 70
     1
102
RTVSPropertyOp18
 70
     1
102
RTVSPropertyOp19
 70
     1
102
RTVSPropertyOp20
 70
     1
102
RTVSPropertyOp21
 70
     1
102
RTVSPropertyOp22
 70
     1
102
RTVSPropertyOp23
 70
     1
102
RTVSPropertyOp24
 70
     1
102
RTVSPropertyOp25
 70
     1
102
RTVSPropertyOp26
 70
     1
102
RTVSPropertyOp27
 70
     1
102
RTVSPropertyOp28
 70
     1
102
RTVSPropertyOp29
 70
     1
102
RTVSPropertyOp30
 70
     1
102
RTVSPropertyOp31
 70
     1
102
RTVSPropertyOp32
 70
     1
102
RTVSPropertyOp33
 70
     1
102
RTVSPropertyOp34
 70
     1
102
RTVSPropertyOp35
 70
     1
102
RTVSPropertyOp36
 70
     1
102
RTVSPropertyOp37
 70
     1
102
RTVSPropertyOp38
 70
     1
102
RTVSPropertyOp39
 70
     1
102
RTVSPropertyOp40
 70
     1
102
RTVSPropertyOp41
 70
     1
102
RTVSPropertyOp42
 70
     1
102
RTVSPropertyOp43
 70
     1
102
RTVSPropertyOp44
 70
     1
102
RTVSPropertyOp45
 70
     1
102
RTVSPropertyOp46
 70
     1
102
RTVSPropertyOp47
 70
     1
102
RTVSPropertyOp48
 70
     1
102
RTVSPropertyOp49
 70
     1
102
RTVSPropertyOp50
 70
     1
102
RTVSPropertyOp51
 70
     0
102
RTVSPropertyOp52
 70
     0
102
RTVSPropertyOp53
 70
     1
102
RTVSPropertyOp54
 70
     1
102
RTVSPropertyOp55
 70
     1
102
RTVSPropertyOp56
 70
     1
102
RTVSPropertyOp57
 70
     1
102
RTVSPropertyOp58
 70
     1
102
RTVSPropertyOp59
 70
     1
102
RTVSPropertyOp60
 70
     1
102
RTVSPropertyOp61
 70
     1
102
RTVSPropertyOp62
 70
     1
  0
XRECORD
  5
C0B
102
{ACAD_REACTORS
330
C0A
102
}
330
C0A
100
AcDbXrecord
280
     1
102
RTVSPost2010Prop28
280
     0
102
RTVSPost2010PropOp28
 70
     1
102
RTVSPost2010Prop29
280
     1
102
RTVSPost2010PropOp29
 70
     1
102
RTVSPost2010Prop30
280
     1
102
RTVSPost2010PropOp30
 70
     1
102
RTVSPost2010Prop31
280
     0
102
RTVSPost2010PropOp31
 70
     1
102
RTVSPost2010Prop32
280
     0
102
RTVSPost2010PropOp32
 70
     1
102
RTVSPost2010Prop33
280
     0
102
RTVSPost2010PropOp33
 70
     1
102
RTVSPost2010Prop34
280
     0
102
RTVSPost2010PropOp34
 70
     1
102
RTVSPost2010Prop35
280
     0
102
RTVSPost2010PropOp35
 70
     1
102
RTVSPost2010Prop36
280
     0
102
RTVSPost2010PropOp36
 70
     1
102
RTVSPost2010Prop37
 90
       50
102
RTVSPost2010PropOp37
 70
     1
102
RTVSPost2010Prop38
140
0.0
102
RTVSPost2010PropOp38
 70
     1
102
RTVSPost2010Prop39
140
1.0
102
RTVSPost2010PropOp39
 70
     1
102
RTVSPost2010Prop40
 90
        0
102
RTVSPost2010PropOp40
 70
     1
102
RTVSPost2010Prop41ColorIndex
 90
       18
102
RTVSPost2010Prop41ColorRGB
 90
        0
102
RTVSPost2010PropOp41
 70
     1
102
RTVSPost2010Prop42
 90
       50
102
RTVSPost2010PropOp42
 70
     1
102
RTVSPost2010Prop43
 90
        3
102
RTVSPost2010PropOp43
 70
     1
102
RTVSPost2010Prop44ColorIndex
 90
        5
102
RTVSPost2010Prop44ColorRGB
 90
      255
102
RTVSPost2010PropOp44
 70
     1
102
RTVSPost2010Prop45
280
     0
102
RTVSPost2010PropOp45
 70
     1
102
RTVSPost2010Prop46
 90
       50
102
RTVSPost2010PropOp46
 70
     1
102
RTVSPost2010Prop47
 90
       50
102
RTVSPost2010PropOp47
 70
     1
102
RTVSPost2010Prop48
 90
       50
102
RTVSPost2010PropOp48
 70
     1
102
RTVSPost2010Prop49
280
     0
102
RTVSPost2010PropOp49
 70
     1
102
RTVSPost2010Prop50
 90
       50
102
RTVSPost2010PropOp50
 70
     1
102
RTVSPost2010Prop51ColorIndex
 90
      256
102
RTVSPost2010Prop51ColorRGB
 90
-16777216
102
RTVSPost2010PropOp51
 70
     0
102
RTVSPost2010Prop52
140
1.0
102
RTVSPost2010PropOp52
 70
     0
102
RTVSPost2010Prop53
 90
        2
102
RTVSPost2010PropOp53
 70
     1
102
RTVSPost2010Prop54
  1
strokes_ogs.tif
102
RTVSPost2010PropOp54
 70
     1
102
RTVSPost2010Prop55
280
     0
102
RTVSPost2010PropOp55
 70
     1
102
RTVSPost2010Prop56
140
1.0
102
RTVSPost2010PropOp56
 70
     1
102
RTVSPost2010Prop57
140
1.0
102
RTVSPost2010PropOp57
 70
     1
102
RTVSPropertyOp0
 70
     1
102
RTVSPropertyOp1
 70
     1
102
RTVSPropertyOp2
 70
     1
102
RTVSPropertyOp3
 70
     1
102
RTVSPropertyOp4
 70
     1
102
RTVSPropertyOp5
 70
     1
102
RTVSPropertyOp6
 70
     1
102
RTVSPropertyOp7
 70
     1
102
RTVSPropertyOp8
 70
     1
102
RTVSPropertyOp9
 70
     1
102
RTVSPropertyOp10
 70
     1
102
RTVSPropertyOp11
 70
     1
102
RTVSPropertyOp12
 70
     1
102
RTVSPropertyOp13
 70
     1
102
RTVSPropertyOp14
 70
     1
102
RTVSPropertyOp15
 70
     1
102
RTVSPropertyOp16
 70
     1
102
RTVSPropertyOp17
 70
     1
102
RTVSPropertyOp18
 70
     1
102
RTVSPropertyOp19
 70
     1
102
RTVSPropertyOp20
 70
     1
102
RTVSPropertyOp21
 70
     1
102
RTVSPropertyOp22
 70
     1
102
RTVSPropertyOp23
 70
     1
102
RTVSPropertyOp24
 70
     1
102
RTVSPropertyOp25
 70
     1
102
RTVSPropertyOp26
 70
     1
102
RTVSPropertyOp27
 70
     1
102
RTVSPropertyOp28
 70
     1
102
RTVSPropertyOp29
 70
     1
102
RTVSPropertyOp30
 70
     1
102
RTVSPropertyOp31
 70
     1
102
RTVSPropertyOp32
 70
     1
102
RTVSPropertyOp33
 70
     1
102
RTVSPropertyOp34
 70
     1
102
RTVSPropertyOp35
 70
     1
102
RTVSPropertyOp36
 70
     1
102
RTVSPropertyOp37
 70
     1
102
RTVSPropertyOp38
 70
     1
102
RTVSPropertyOp39
 70
     1
102
RTVSPropertyOp40
 70
     1
102
RTVSPropertyOp41
 70
     1
102
RTVSPropertyOp42
 70
     1
102
RTVSPropertyOp43
 70
     1
102
RTVSPropertyOp44
 70
     1
102
RTVSPropertyOp45
 70
     1
102
RTVSPropertyOp46
 70
     1
102
RTVSPropertyOp47
 70
     1
102
RTVSPropertyOp48
 70
     1
102
RTVSPropertyOp49
 70
     1
102
RTVSPropertyOp50
 70
     1
102
RTVSPropertyOp51
 70
     0
102
RTVSPropertyOp52
 70
     0
102
RTVSPropertyOp53
 70
     1
102
RTVSPropertyOp54
 70
     1
102
RTVSPropertyOp55
 70
     1
102
RTVSPropertyOp56
 70
     1
102
RTVSPropertyOp57
 70
     1
102
RTVSPropertyOp58
 70
     1
102
RTVSPropertyOp59
 70
     1
102
RTVSPropertyOp60
 70
     1
102
RTVSPropertyOp61
 70
     1
102
RTVSPropertyOp62
 70
     1
  0
XRECORD
  5
C0D
102
{ACAD_REACTORS
330
C0C
102
}
330
C0C
100
AcDbXrecord
280
     1
102
RTVSPost2010Prop28
280
     0
102
RTVSPost2010PropOp28
 70
     1
102
RTVSPost2010Prop29
280
     1
102
RTVSPost2010PropOp29
 70
     1
102
RTVSPost2010Prop30
280
     1
102
RTVSPost2010PropOp30
 70
     1
102
RTVSPost2010Prop31
280
     0
102
RTVSPost2010PropOp31
 70
     1
102
RTVSPost2010Prop32
280
     0
102
RTVSPost2010PropOp32
 70
     1
102
RTVSPost2010Prop33
280
     0
102
RTVSPost2010PropOp33
 70
     1
102
RTVSPost2010Prop34
280
     0
102
RTVSPost2010PropOp34
 70
     1
102
RTVSPost2010Prop35
280
     0
102
RTVSPost2010PropOp35
 70
     1
102
RTVSPost2010Prop36
280
     0
102
RTVSPost2010PropOp36
 70
     1
102
RTVSPost2010Prop37
 90
       50
102
RTVSPost2010PropOp37
 70
     1
102
RTVSPost2010Prop38
140
0.0
102
RTVSPost2010PropOp38
 70
     1
102
RTVSPost2010Prop39
140
1.0
102
RTVSPost2010PropOp39
 70
     1
102
RTVSPost2010Prop40
 90
        0
102
RTVSPost2010PropOp40
 70
     1
102
RTVSPost2010Prop41ColorIndex
 90
       18
102
RTVSPost2010Prop41ColorRGB
 90
        0
102
RTVSPost2010PropOp41
 70
     1
102
RTVSPost2010Prop42
 90
       50
102
RTVSPost2010PropOp42
 70
     1
102
RTVSPost2010Prop43
 90
        3
102
RTVSPost2010PropOp43
 70
     1
102
RTVSPost2010Prop44ColorIndex
 90
        5
102
RTVSPost2010Prop44ColorRGB
 90
      255
102
RTVSPost2010PropOp44
 70
     1
102
RTVSPost2010Prop45
280
     0
102
RTVSPost2010PropOp45
 70
     1
102
RTVSPost2010Prop46
 90
       50
102
RTVSPost2010PropOp46
 70
     1
102
RTVSPost2010Prop47
 90
       50
102
RTVSPost2010PropOp47
 70
     1
102
RTVSPost2010Prop48
 90
       50
102
RTVSPost2010PropOp48
 70
     1
102
RTVSPost2010Prop49
280
     0
102
RTVSPost2010PropOp49
 70
     1
102
RTVSPost2010Prop50
 90
       50
102
RTVSPost2010PropOp50
 70
     1
102
RTVSPost2010Prop51ColorIndex
 90
      256
102
RTVSPost2010Prop51ColorRGB
 90
-16777216
102
RTVSPost2010PropOp51
 70
     0
102
RTVSPost2010Prop52
140
1.0
102
RTVSPost2010PropOp52
 70
     0
102
RTVSPost2010Prop53
 90
        2
102
RTVSPost2010PropOp53
 70
     1
102
RTVSPost2010Prop54
  1
strokes_ogs.tif
102
RTVSPost2010PropOp54
 70
     1
102
RTVSPost2010Prop55
280
     0
102
RTVSPost2010PropOp55
 70
     1
102
RTVSPost2010Prop56
140
1.0
102
RTVSPost2010PropOp56
 70
     1
102
RTVSPost2010Prop57
140
1.0
102
RTVSPost2010PropOp57
 70
     1
102
RTVSPropertyOp0
 70
     1
102
RTVSPropertyOp1
 70
     1
102
RTVSPropertyOp2
 70
     1
102
RTVSPropertyOp3
 70
     1
102
RTVSPropertyOp4
 70
     1
102
RTVSPropertyOp5
 70
     1
102
RTVSPropertyOp6
 70
     1
102
RTVSPropertyOp7
 70
     1
102
RTVSPropertyOp8
 70
     1
102
RTVSPropertyOp9
 70
     1
102
RTVSPropertyOp10
 70
     1
102
RTVSPropertyOp11
 70
     1
102
RTVSPropertyOp12
 70
     1
102
RTVSPropertyOp13
 70
     1
102
RTVSPropertyOp14
 70
     1
102
RTVSPropertyOp15
 70
     1
102
RTVSPropertyOp16
 70
     1
102
RTVSPropertyOp17
 70
     1
102
RTVSPropertyOp18
 70
     1
102
RTVSPropertyOp19
 70
     1
102
RTVSPropertyOp20
 70
     1
102
RTVSPropertyOp21
 70
     1
102
RTVSPropertyOp22
 70
     1
102
RTVSPropertyOp23
 70
     1
102
RTVSPropertyOp24
 70
     1
102
RTVSPropertyOp25
 70
     1
102
RTVSPropertyOp26
 70
     1
102
RTVSPropertyOp27
 70
     1
102
RTVSPropertyOp28
 70
     1
102
RTVSPropertyOp29
 70
     1
102
RTVSPropertyOp30
 70
     1
102
RTVSPropertyOp31
 70
     1
102
RTVSPropertyOp32
 70
     1
102
RTVSPropertyOp33
 70
     1
102
RTVSPropertyOp34
 70
     1
102
RTVSPropertyOp35
 70
     1
102
RTVSPropertyOp36
 70
     1
102
RTVSPropertyOp37
 70
     1
102
RTVSPropertyOp38
 70
     1
102
RTVSPropertyOp39
 70
     1
102
RTVSPropertyOp40
 70
     1
102
RTVSPropertyOp41
 70
     1
102
RTVSPropertyOp42
 70
     1
102
RTVSPropertyOp43
 70
     1
102
RTVSPropertyOp44
 70
     1
102
RTVSPropertyOp45
 70
     1
102
RTVSPropertyOp46
 70
     1
102
RTVSPropertyOp47
 70
     1
102
RTVSPropertyOp48
 70
     1
102
RTVSPropertyOp49
 70
     1
102
RTVSPropertyOp50
 70
     1
102
RTVSPropertyOp51
 70
     0
102
RTVSPropertyOp52
 70
     0
102
RTVSPropertyOp53
 70
     1
102
RTVSPropertyOp54
 70
     1
102
RTVSPropertyOp55
 70
     1
102
RTVSPropertyOp56
 70
     1
102
RTVSPropertyOp57
 70
     1
102
RTVSPropertyOp58
 70
     1
102
RTVSPropertyOp59
 70
     1
102
RTVSPropertyOp60
 70
     1
102
RTVSPropertyOp61
 70
     1
102
RTVSPropertyOp62
 70
     1
  0
XRECORD
  5
C03
102
{ACAD_REACTORS
330
C02
102
}
330
C02
100
AcDbXrecord
280
     1
102
RTVSPost2010Prop28
280
     0
102
RTVSPost2010PropOp28
 70
     1
102
RTVSPost2010Prop29
280
     1
102
RTVSPost2010PropOp29
 70
     1
102
RTVSPost2010Prop30
280
     1
102
RTVSPost2010PropOp30
 70
     1
102
RTVSPost2010Prop31
280
     0
102
RTVSPost2010PropOp31
 70
     1
102
RTVSPost2010Prop32
280
     0
102
RTVSPost2010PropOp32
 70
     1
102
RTVSPost2010Prop33
280
     0
102
RTVSPost2010PropOp33
 70
     1
102
RTVSPost2010Prop34
280
     0
102
RTVSPost2010PropOp34
 70
     1
102
RTVSPost2010Prop35
280
     0
102
RTVSPost2010PropOp35
 70
     1
102
RTVSPost2010Prop36
280
     0
102
RTVSPost2010PropOp36
 70
     1
102
RTVSPost2010Prop37
 90
       50
102
RTVSPost2010PropOp37
 70
     1
102
RTVSPost2010Prop38
140
0.0
102
RTVSPost2010PropOp38
 70
     1
102
RTVSPost2010Prop39
140
1.0
102
RTVSPost2010PropOp39
 70
     1
102
RTVSPost2010Prop40
 90
        0
102
RTVSPost2010PropOp40
 70
     1
102
RTVSPost2010Prop41ColorIndex
 90
       18
102
RTVSPost2010Prop41ColorRGB
 90
        0
102
RTVSPost2010PropOp41
 70
     1
102
RTVSPost2010Prop42
 90
       50
102
RTVSPost2010PropOp42
 70
     1
102
RTVSPost2010Prop43
 90
        3
102
RTVSPost2010PropOp43
 70
     1
102
RTVSPost2010Prop44ColorIndex
 90
        5
102
RTVSPost2010Prop44ColorRGB
 90
      255
102
RTVSPost2010PropOp44
 70
     1
102
RTVSPost2010Prop45
280
     0
102
RTVSPost2010PropOp45
 70
     1
102
RTVSPost2010Prop46
 90
       50
102
RTVSPost2010PropOp46
 70
     1
102
RTVSPost2010Prop47
 90
       50
102
RTVSPost2010PropOp47
 70
     1
102
RTVSPost2010Prop48
 90
       50
102
RTVSPost2010PropOp48
 70
     1
102
RTVSPost2010Prop49
280
     0
102
RTVSPost2010PropOp49
 70
     1
102
RTVSPost2010Prop50
 90
       50
102
RTVSPost2010PropOp50
 70
     1
102
RTVSPost2010Prop51ColorIndex
 90
      256
102
RTVSPost2010Prop51ColorRGB
 90
-16777216
102
RTVSPost2010PropOp51
 70
     0
102
RTVSPost2010Prop52
140
1.0
102
RTVSPost2010PropOp52
 70
     0
102
RTVSPost2010Prop53
 90
        2
102
RTVSPost2010PropOp53
 70
     1
102
RTVSPost2010Prop54
  1
strokes_ogs.tif
102
RTVSPost2010PropOp54
 70
     1
102
RTVSPost2010Prop55
280
     0
102
RTVSPost2010PropOp55
 70
     1
102
RTVSPost2010Prop56
140
1.0
102
RTVSPost2010PropOp56
 70
     1
102
RTVSPost2010Prop57
140
1.0
102
RTVSPost2010PropOp57
 70
     1
102
RTVSPropertyOp0
 70
     1
102
RTVSPropertyOp1
 70
     1
102
RTVSPropertyOp2
 70
     1
102
RTVSPropertyOp3
 70
     1
102
RTVSPropertyOp4
 70
     1
102
RTVSPropertyOp5
 70
     1
102
RTVSPropertyOp6
 70
     1
102
RTVSPropertyOp7
 70
     1
102
RTVSPropertyOp8
 70
     1
102
RTVSPropertyOp9
 70
     1
102
RTVSPropertyOp10
 70
     1
102
RTVSPropertyOp11
 70
     1
102
RTVSPropertyOp12
 70
     1
102
RTVSPropertyOp13
 70
     1
102
RTVSPropertyOp14
 70
     1
102
RTVSPropertyOp15
 70
     1
102
RTVSPropertyOp16
 70
     1
102
RTVSPropertyOp17
 70
     1
102
RTVSPropertyOp18
 70
     1
102
RTVSPropertyOp19
 70
     1
102
RTVSPropertyOp20
 70
     1
102
RTVSPropertyOp21
 70
     1
102
RTVSPropertyOp22
 70
     1
102
RTVSPropertyOp23
 70
     1
102
RTVSPropertyOp24
 70
     1
102
RTVSPropertyOp25
 70
     1
102
RTVSPropertyOp26
 70
     1
102
RTVSPropertyOp27
 70
     1
102
RTVSPropertyOp28
 70
     1
102
RTVSPropertyOp29
 70
     1
102
RTVSPropertyOp30
 70
     1
102
RTVSPropertyOp31
 70
     1
102
RTVSPropertyOp32
 70
     1
102
RTVSPropertyOp33
 70
     1
102
RTVSPropertyOp34
 70
     1
102
RTVSPropertyOp35
 70
     1
102
RTVSPropertyOp36
 70
     1
102
RTVSPropertyOp37
 70
     1
102
RTVSPropertyOp38
 70
     1
102
RTVSPropertyOp39
 70
     1
102
RTVSPropertyOp40
 70
     1
102
RTVSPropertyOp41
 70
     1
102
RTVSPropertyOp42
 70
     1
102
RTVSPropertyOp43
 70
     1
102
RTVSPropertyOp44
 70
     1
102
RTVSPropertyOp45
 70
     1
102
RTVSPropertyOp46
 70
     1
102
RTVSPropertyOp47
 70
     1
102
RTVSPropertyOp48
 70
     1
102
RTVSPropertyOp49
 70
     1
102
RTVSPropertyOp50
 70
     1
102
RTVSPropertyOp51
 70
     0
102
RTVSPropertyOp52
 70
     0
102
RTVSPropertyOp53
 70
     1
102
RTVSPropertyOp54
 70
     1
102
RTVSPropertyOp55
 70
     1
102
RTVSPropertyOp56
 70
     1
102
RTVSPropertyOp57
 70
     1
102
RTVSPropertyOp58
 70
     1
102
RTVSPropertyOp59
 70
     1
102
RTVSPropertyOp60
 70
     1
102
RTVSPropertyOp61
 70
     1
102
RTVSPropertyOp62
 70
     1
  0
XRECORD
  5
BF7
102
{ACAD_REACTORS
330
BF6
102
}
330
BF6
100
AcDbXrecord
280
     1
102
RTVSPost2010Prop28
280
     0
102
RTVSPost2010PropOp28
 70
     1
102
RTVSPost2010Prop29
280
     1
102
RTVSPost2010PropOp29
 70
     1
102
RTVSPost2010Prop30
280
     1
102
RTVSPost2010PropOp30
 70
     1
102
RTVSPost2010Prop31
280
     0
102
RTVSPost2010PropOp31
 70
     1
102
RTVSPost2010Prop32
280
     0
102
RTVSPost2010PropOp32
 70
     1
102
RTVSPost2010Prop33
280
     0
102
RTVSPost2010PropOp33
 70
     1
102
RTVSPost2010Prop34
280
     0
102
RTVSPost2010PropOp34
 70
     1
102
RTVSPost2010Prop35
280
     0
102
RTVSPost2010PropOp35
 70
     1
102
RTVSPost2010Prop36
280
     0
102
RTVSPost2010PropOp36
 70
     1
102
RTVSPost2010Prop37
 90
       50
102
RTVSPost2010PropOp37
 70
     1
102
RTVSPost2010Prop38
140
0.0
102
RTVSPost2010PropOp38
 70
     1
102
RTVSPost2010Prop39
140
1.0
102
RTVSPost2010PropOp39
 70
     1
102
RTVSPost2010Prop40
 90
        0
102
RTVSPost2010PropOp40
 70
     1
102
RTVSPost2010Prop41ColorIndex
 90
       18
102
RTVSPost2010Prop41ColorRGB
 90
        0
102
RTVSPost2010PropOp41
 70
     1
102
RTVSPost2010Prop42
 90
       50
102
RTVSPost2010PropOp42
 70
     1
102
RTVSPost2010Prop43
 90
        3
102
RTVSPost2010PropOp43
 70
     1
102
RTVSPost2010Prop44ColorIndex
 90
        5
102
RTVSPost2010Prop44ColorRGB
 90
      255
102
RTVSPost2010PropOp44
 70
     1
102
RTVSPost2010Prop45
280
     0
102
RTVSPost2010PropOp45
 70
     1
102
RTVSPost2010Prop46
 90
       50
102
RTVSPost2010PropOp46
 70
     1
102
RTVSPost2010Prop47
 90
       50
102
RTVSPost2010PropOp47
 70
     1
102
RTVSPost2010Prop48
 90
       50
102
RTVSPost2010PropOp48
 70
     1
102
RTVSPost2010Prop49
280
     0
102
RTVSPost2010PropOp49
 70
     1
102
RTVSPost2010Prop50
 90
       50
102
RTVSPost2010PropOp50
 70
     1
102
RTVSPost2010Prop51ColorIndex
 90
      256
102
RTVSPost2010Prop51ColorRGB
 90
-16777216
102
RTVSPost2010PropOp51
 70
     0
102
RTVSPost2010Prop52
140
1.0
102
RTVSPost2010PropOp52
 70
     0
102
RTVSPost2010Prop53
 90
        2
102
RTVSPost2010PropOp53
 70
     1
102
RTVSPost2010Prop54
  1
strokes_ogs.tif
102
RTVSPost2010PropOp54
 70
     1
102
RTVSPost2010Prop55
280
     0
102
RTVSPost2010PropOp55
 70
     1
102
RTVSPost2010Prop56
140
1.0
102
RTVSPost2010PropOp56
 70
     1
102
RTVSPost2010Prop57
140
1.0
102
RTVSPost2010PropOp57
 70
     1
102
RTVSPropertyOp0
 70
     1
102
RTVSPropertyOp1
 70
     1
102
RTVSPropertyOp2
 70
     1
102
RTVSPropertyOp3
 70
     1
102
RTVSPropertyOp4
 70
     1
102
RTVSPropertyOp5
 70
     1
102
RTVSPropertyOp6
 70
     1
102
RTVSPropertyOp7
 70
     1
102
RTVSPropertyOp8
 70
     1
102
RTVSPropertyOp9
 70
     1
102
RTVSPropertyOp10
 70
     1
102
RTVSPropertyOp11
 70
     1
102
RTVSPropertyOp12
 70
     1
102
RTVSPropertyOp13
 70
     1
102
RTVSPropertyOp14
 70
     1
102
RTVSPropertyOp15
 70
     1
102
RTVSPropertyOp16
 70
     1
102
RTVSPropertyOp17
 70
     1
102
RTVSPropertyOp18
 70
     1
102
RTVSPropertyOp19
 70
     1
102
RTVSPropertyOp20
 70
     1
102
RTVSPropertyOp21
 70
     1
102
RTVSPropertyOp22
 70
     1
102
RTVSPropertyOp23
 70
     1
102
RTVSPropertyOp24
 70
     1
102
RTVSPropertyOp25
 70
     1
102
RTVSPropertyOp26
 70
     1
102
RTVSPropertyOp27
 70
     1
102
RTVSPropertyOp28
 70
     1
102
RTVSPropertyOp29
 70
     1
102
RTVSPropertyOp30
 70
     1
102
RTVSPropertyOp31
 70
     1
102
RTVSPropertyOp32
 70
     1
102
RTVSPropertyOp33
 70
     1
102
RTVSPropertyOp34
 70
     1
102
RTVSPropertyOp35
 70
     1
102
RTVSPropertyOp36
 70
     1
102
RTVSPropertyOp37
 70
     1
102
RTVSPropertyOp38
 70
     1
102
RTVSPropertyOp39
 70
     1
102
RTVSPropertyOp40
 70
     1
102
RTVSPropertyOp41
 70
     1
102
RTVSPropertyOp42
 70
     1
102
RTVSPropertyOp43
 70
     1
102
RTVSPropertyOp44
 70
     1
102
RTVSPropertyOp45
 70
     1
102
RTVSPropertyOp46
 70
     1
102
RTVSPropertyOp47
 70
     1
102
RTVSPropertyOp48
 70
     1
102
RTVSPropertyOp49
 70
     1
102
RTVSPropertyOp50
 70
     1
102
RTVSPropertyOp51
 70
     0
102
RTVSPropertyOp52
 70
     0
102
RTVSPropertyOp53
 70
     1
102
RTVSPropertyOp54
 70
     1
102
RTVSPropertyOp55
 70
     1
102
RTVSPropertyOp56
 70
     1
102
RTVSPropertyOp57
 70
     1
102
RTVSPropertyOp58
 70
     1
102
RTVSPropertyOp59
 70
     1
102
RTVSPropertyOp60
 70
     1
102
RTVSPropertyOp61
 70
     1
102
RTVSPropertyOp62
 70
     1
  0
XRECORD
  5
C0F
102
{ACAD_REACTORS
330
C0E
102
}
330
C0E
100
AcDbXrecord
280
     1
102
RTVSPost2010Prop28
280
     0
102
RTVSPost2010PropOp28
 70
     1
102
RTVSPost2010Prop29
280
     1
102
RTVSPost2010PropOp29
 70
     1
102
RTVSPost2010Prop30
280
     1
102
RTVSPost2010PropOp30
 70
     1
102
RTVSPost2010Prop31
280
     0
102
RTVSPost2010PropOp31
 70
     1
102
RTVSPost2010Prop32
280
     0
102
RTVSPost2010PropOp32
 70
     1
102
RTVSPost2010Prop33
280
     0
102
RTVSPost2010PropOp33
 70
     1
102
RTVSPost2010Prop34
280
     0
102
RTVSPost2010PropOp34
 70
     1
102
RTVSPost2010Prop35
280
     0
102
RTVSPost2010PropOp35
 70
     1
102
RTVSPost2010Prop36
280
     0
102
RTVSPost2010PropOp36
 70
     1
102
RTVSPost2010Prop37
 90
       50
102
RTVSPost2010PropOp37
 70
     1
102
RTVSPost2010Prop38
140
0.0
102
RTVSPost2010PropOp38
 70
     1
102
RTVSPost2010Prop39
140
1.0
102
RTVSPost2010PropOp39
 70
     1
102
RTVSPost2010Prop40
 90
        0
102
RTVSPost2010PropOp40
 70
     1
102
RTVSPost2010Prop41ColorIndex
 90
       18
102
RTVSPost2010Prop41ColorRGB
 90
        0
102
RTVSPost2010PropOp41
 70
     1
102
RTVSPost2010Prop42
 90
       50
102
RTVSPost2010PropOp42
 70
     1
102
RTVSPost2010Prop43
 90
        3
102
RTVSPost2010PropOp43
 70
     1
102
RTVSPost2010Prop44ColorIndex
 90
        5
102
RTVSPost2010Prop44ColorRGB
 90
      255
102
RTVSPost2010PropOp44
 70
     1
102
RTVSPost2010Prop45
280
     0
102
RTVSPost2010PropOp45
 70
     1
102
RTVSPost2010Prop46
 90
       50
102
RTVSPost2010PropOp46
 70
     1
102
RTVSPost2010Prop47
 90
       50
102
RTVSPost2010PropOp47
 70
     1
102
RTVSPost2010Prop48
 90
       50
102
RTVSPost2010PropOp48
 70
     1
102
RTVSPost2010Prop49
280
     0
102
RTVSPost2010PropOp49
 70
     1
102
RTVSPost2010Prop50
 90
       50
102
RTVSPost2010PropOp50
 70
     1
102
RTVSPost2010Prop51ColorIndex
 90
      256
102
RTVSPost2010Prop51ColorRGB
 90
-16777216
102
RTVSPost2010PropOp51
 70
     0
102
RTVSPost2010Prop52
140
1.0
102
RTVSPost2010PropOp52
 70
     0
102
RTVSPost2010Prop53
 90
        2
102
RTVSPost2010PropOp53
 70
     1
102
RTVSPost2010Prop54
  1
strokes_ogs.tif
102
RTVSPost2010PropOp54
 70
     1
102
RTVSPost2010Prop55
280
     0
102
RTVSPost2010PropOp55
 70
     1
102
RTVSPost2010Prop56
140
1.0
102
RTVSPost2010PropOp56
 70
     1
102
RTVSPost2010Prop57
140
1.0
102
RTVSPost2010PropOp57
 70
     1
102
RTVSPropertyOp0
 70
     1
102
RTVSPropertyOp1
 70
     1
102
RTVSPropertyOp2
 70
     1
102
RTVSPropertyOp3
 70
     1
102
RTVSPropertyOp4
 70
     1
102
RTVSPropertyOp5
 70
     1
102
RTVSPropertyOp6
 70
     1
102
RTVSPropertyOp7
 70
     1
102
RTVSPropertyOp8
 70
     1
102
RTVSPropertyOp9
 70
     1
102
RTVSPropertyOp10
 70
     1
102
RTVSPropertyOp11
 70
     1
102
RTVSPropertyOp12
 70
     1
102
RTVSPropertyOp13
 70
     1
102
RTVSPropertyOp14
 70
     1
102
RTVSPropertyOp15
 70
     1
102
RTVSPropertyOp16
 70
     1
102
RTVSPropertyOp17
 70
     1
102
RTVSPropertyOp18
 70
     1
102
RTVSPropertyOp19
 70
     1
102
RTVSPropertyOp20
 70
     1
102
RTVSPropertyOp21
 70
     1
102
RTVSPropertyOp22
 70
     1
102
RTVSPropertyOp23
 70
     1
102
RTVSPropertyOp24
 70
     1
102
RTVSPropertyOp25
 70
     1
102
RTVSPropertyOp26
 70
     1
102
RTVSPropertyOp27
 70
     1
102
RTVSPropertyOp28
 70
     1
102
RTVSPropertyOp29
 70
     1
102
RTVSPropertyOp30
 70
     1
102
RTVSPropertyOp31
 70
     1
102
RTVSPropertyOp32
 70
     1
102
RTVSPropertyOp33
 70
     1
102
RTVSPropertyOp34
 70
     1
102
RTVSPropertyOp35
 70
     1
102
RTVSPropertyOp36
 70
     1
102
RTVSPropertyOp37
 70
     1
102
RTVSPropertyOp38
 70
     1
102
RTVSPropertyOp39
 70
     1
102
RTVSPropertyOp40
 70
     1
102
RTVSPropertyOp41
 70
     1
102
RTVSPropertyOp42
 70
     1
102
RTVSPropertyOp43
 70
     1
102
RTVSPropertyOp44
 70
     1
102
RTVSPropertyOp45
 70
     1
102
RTVSPropertyOp46
 70
     1
102
RTVSPropertyOp47
 70
     1
102
RTVSPropertyOp48
 70
     1
102
RTVSPropertyOp49
 70
     1
102
RTVSPropertyOp50
 70
     1
102
RTVSPropertyOp51
 70
     0
102
RTVSPropertyOp52
 70
     0
102
RTVSPropertyOp53
 70
     1
102
RTVSPropertyOp54
 70
     1
102
RTVSPropertyOp55
 70
     1
102
RTVSPropertyOp56
 70
     1
102
RTVSPropertyOp57
 70
     1
102
RTVSPropertyOp58
 70
     1
102
RTVSPropertyOp59
 70
     1
102
RTVSPropertyOp60
 70
     1
102
RTVSPropertyOp61
 70
     1
102
RTVSPropertyOp62
 70
     1
  0
ENDSEC
  0
EOF
