  0
SECTION
  2
HEADER
  9
$ACADVER
  1
AC1015
  9
$ACADMAINTVER
 70
    20
  9
$DWGCODEPAGE
  3
ANSI_1252
  9
$INSBASE
 10
0.0
 20
0.0
 30
0.0
  9
$EXTMIN
 10
11944.76555016285
 20
960.6424500176267
 30
0.0
  9
$EXTMAX
 10
11947.53582540793
 20
962.1463479413577
 30
0.0
  9
$LIMMIN
 10
0.0
 20
0.0
  9
$LIMMAX
 10
420.0
 20
297.0
  9
$ORTHOMODE
 70
     0
  9
$REGENMODE
 70
     1
  9
$FILLMODE
 70
     1
  9
$QTEXTMODE
 70
     0
  9
$MIRRTEXT
 70
     1
  9
$LTSCALE
 40
0.2
  9
$ATTMODE
 70
     1
  9
$TEXTSIZE
 40
2.5
  9
$TRACEWID
 40
1.0
  9
$TEXTSTYLE
  7
SANINDUSA
  9
$CLAYER
  8
0
  9
$CELTYPE
  6
ByLayer
  9
$CECOLOR
 62
   256
  9
$CELTSCALE
 40
1.0
  9
$DISPSILH
 70
     0
  9
$DIMSCALE
 40
12.0
  9
$DIMASZ
 40
2.0
  9
$DIMEXO
 40
1.0
  9
$DIMDLI
 40
1.0
  9
$DIMRND
 40
0.0
  9
$DIMDLE
 40
0.0
  9
$DIMEXE
 40
1.0
  9
$DIMTP
 40
0.0
  9
$DIMTM
 40
0.0
  9
$DIMTXT
 40
2.0
  9
$DIMCEN
 40
0.0
  9
$DIMTSZ
 40
0.0
  9
$DIMTOL
 70
     0
  9
$DIMLIM
 70
     0
  9
$DIMTIH
 70
     0
  9
$DIMTOH
 70
     0
  9
$DIMSE1
 70
     0
  9
$DIMSE2
 70
     0
  9
$DIMTAD
 70
     1
  9
$DIMZIN
 70
     8
  9
$DIMBLK
  1

  9
$DIMASO
 70
     1
  9
$DIMSHO
 70
     1
  9
$DIMPOST
  1

  9
$DIMAPOST
  1

  9
$DIMALT
 70
     0
  9
$DIMALTD
 70
     3
  9
$DIMALTF
 40
0.03937007874016
  9
$DIMLFAC
 40
1.0
  9
$DIMTOFL
 70
     1
  9
$DIMTVP
 40
0.0
  9
$DIMTIX
 70
     0
  9
$DIMSOXD
 70
     0
  9
$DIMSAH
 70
     0
  9
$DIMBLK1
  1

  9
$DIMBLK2
  1

  9
$DIMSTYLE
  2
SANINDUSA
  9
$DIMCLRD
 70
   256
  9
$DIMCLRE
 70
   256
  9
$DIMCLRT
 70
   256
  9
$DIMTFAC
 40
1.0
  9
$DIMGAP
 40
1.0
  9
$DIMJUST
 70
     0
  9
$DIMSD1
 70
     0
  9
$DIMSD2
 70
     0
  9
$DIMTOLJ
 70
     0
  9
$DIMTZIN
 70
     8
  9
$DIMALTZ
 70
     0
  9
$DIMALTTZ
 70
     0
  9
$DIMUPT
 70
     0
  9
$DIMDEC
 70
     0
  9
$DIMTDEC
 70
     0
  9
$DIMALTU
 70
     2
  9
$DIMALTTD
 70
     3
  9
$DIMTXSTY
  7
SANINDUSA
  9
$DIMAUNIT
 70
     0
  9
$DIMADEC
 70
     1
  9
$DIMALTRND
 40
0.0
  9
$DIMAZIN
 70
     0
  9
$DIMDSEP
 70
    44
  9
$DIMATFIT
 70
     3
  9
$DIMFRAC
 70
     0
  9
$DIMLDRBLK
  1

  9
$DIMLUNIT
 70
     2
  9
$DIMLWD
 70
    -1
  9
$DIMLWE
 70
    -1
  9
$DIMTMOVE
 70
     0
  9
$LUNITS
 70
     2
  9
$LUPREC
 70
     4
  9
$SKETCHINC
 40
1.0
  9
$FILLETRAD
 40
0.0
  9
$AUNITS
 70
     0
  9
$AUPREC
 70
     0
  9
$MENU
  1
.
  9
$ELEVATION
 40
0.0
  9
$PELEVATION
 40
0.0
  9
$THICKNESS
 40
0.0
  9
$LIMCHECK
 70
     0
  9
$CHAMFERA
 40
10.0
  9
$CHAMFERB
 40
10.0
  9
$CHAMFERC
 40
20.0
  9
$CHAMFERD
 40
0.0
  9
$SKPOLY
 70
     0
  9
$TDCREATE
 40
2453388.706751840
  9
$TDUCREATE
 40
2453388.665085174
  9
$TDUPDATE
 40
2455817.480135625
  9
$TDUUPDATE
 40
2455817.438468959
  9
$TDINDWG
 40
0.1021111921
  9
$TDUSRTIMER
 40
0.1021111921
  9
$USRTIMER
 70
     1
  9
$ANGBASE
 50
0.0
  9
$ANGDIR
 70
     0
  9
$PDMODE
 70
     0
  9
$PDSIZE
 40
0.0
  9
$PLINEWID
 40
0.0
  9
$SPLFRAME
 70
     0
  9
$SPLINETYPE
 70
     6
  9
$SPLINESEGS
 70
     8
  9
$HANDSEED
  5
3B03
  9
$SURFTAB1
 70
     6
  9
$SURFTAB2
 70
     6
  9
$SURFTYPE
 70
     6
  9
$SURFU
 70
     6
  9
$SURFV
 70
     6
  9
$UCSBASE
  2

  9
$UCSNAME
  2

  9
$UCSORG
 10
0.0
 20
0.0
 30
0.0
  9
$UCSXDIR
 10
1.0
 20
0.0
 30
0.0
  9
$UCSYDIR
 10
0.0
 20
1.0
 30
0.0
  9
$UCSORTHOREF
  2

  9
$UCSORTHOVIEW
 70
     0
  9
$UCSORGTOP
 10
0.0
 20
0.0
 30
0.0
  9
$UCSORGBOTTOM
 10
0.0
 20
0.0
 30
0.0
  9
$UCSORGLEFT
 10
0.0
 20
0.0
 30
0.0
  9
$UCSORGRIGHT
 10
0.0
 20
0.0
 30
0.0
  9
$UCSORGFRONT
 10
0.0
 20
0.0
 30
0.0
  9
$UCSORGBACK
 10
0.0
 20
0.0
 30
0.0
  9
$PUCSBASE
  2

  9
$PUCSNAME
  2

  9
$PUCSORG
 10
0.0
 20
0.0
 30
0.0
  9
$PUCSXDIR
 10
1.0
 20
0.0
 30
0.0
  9
$PUCSYDIR
 10
0.0
 20
1.0
 30
0.0
  9
$PUCSORTHOREF
  2

  9
$PUCSORTHOVIEW
 70
     0
  9
$PUCSORGTOP
 10
0.0
 20
0.0
 30
0.0
  9
$PUCSORGBOTTOM
 10
0.0
 20
0.0
 30
0.0
  9
$PUCSORGLEFT
 10
0.0
 20
0.0
 30
0.0
  9
$PUCSORGRIGHT
 10
0.0
 20
0.0
 30
0.0
  9
$PUCSORGFRONT
 10
0.0
 20
0.0
 30
0.0
  9
$PUCSORGBACK
 10
0.0
 20
0.0
 30
0.0
  9
$USERI1
 70
     0
  9
$USERI2
 70
     0
  9
$USERI3
 70
     0
  9
$USERI4
 70
     0
  9
$USERI5
 70
     0
  9
$USERR1
 40
0.0
  9
$USERR2
 40
0.0
  9
$USERR3
 40
0.0
  9
$USERR4
 40
0.0
  9
$USERR5
 40
0.0
  9
$WORLDVIEW
 70
     1
  9
$SHADEDGE
 70
     3
  9
$SHADEDIF
 70
    70
  9
$TILEMODE
 70
     1
  9
$MAXACTVP
 70
    64
  9
$PINSBASE
 10
0.0
 20
0.0
 30
0.0
  9
$PLIMCHECK
 70
     0
  9
$PEXTMIN
 10
1.000000000000000E+20
 20
1.000000000000000E+20
 30
1.000000000000000E+20
  9
$PEXTMAX
 10
-1.000000000000000E+20
 20
-1.000000000000000E+20
 30
-1.000000000000000E+20
  9
$PLIMMIN
 10
0.0
 20
0.0
  9
$PLIMMAX
 10
420.0
 20
297.0
  9
$UNITMODE
 70
     0
  9
$VISRETAIN
 70
     1
  9
$PLINEGEN
 70
     0
  9
$PSLTSCALE
 70
     1
  9
$TREEDEPTH
 70
  3020
  9
$CMLSTYLE
  2
Standard
  9
$CMLJUST
 70
     0
  9
$CMLSCALE
 40
20.0
  9
$PROXYGRAPHICS
 70
     1
  9
$MEASUREMENT
 70
     1
  9
$CELWEIGHT
370
    -1
  9
$ENDCAPS
280
     0
  9
$JOINSTYLE
280
     0
  9
$LWDISPLAY
290
     0
  9
$INSUNITS
 70
     4
  9
$HYPERLINKBASE
  1

  9
$STYLESHEET
  1
monochrome.ctb
  9
$XEDIT
290
     1
  9
$CEPSNTYPE
380
     0
  9
$PSTYLEMODE
290
     1
  9
$FINGERPRINTGUID
  2
{B98A73AA-52AA-4C10-B469-C0E7150AC31F}
  9
$VERSIONGUID
  2
{8A89EBFB-7B47-4CA2-AFF4-6DE945891A83}
  9
$EXTNAMES
290
     1
  9
$PSVPSCALE
 40
0.0
  9
$OLESTARTUP
290
     0
  0
ENDSEC
  0
SECTION
  2
CLASSES
  0
CLASS
  1
ACDBDICTIONARYWDFLT
  2
AcDbDictionaryWithDefault
  3
ObjectDBX Classes
 90
        0
280
     0
281
     0
  0
CLASS
  1
ACDBPLACEHOLDER
  2
AcDbPlaceHolder
  3
ObjectDBX Classes
 90
        0
280
     0
281
     0
  0
CLASS
  1
LAYOUT
  2
AcDbLayout
  3
ObjectDBX Classes
 90
        0
280
     0
281
     0
  0
CLASS
  1
DICTIONARYVAR
  2
AcDbDictionaryVar
  3
ObjectDBX Classes
 90
        0
280
     0
281
     0
  0
CLASS
  1
DIMASSOC
  2
AcDbDimAssoc
  3
"AcDbDimAssoc|Product Desc:     AcDim ARX App For Dimension|Company:          Autodesk, Inc.|WEB Address:      www.autodesk.com"
 90
    32768
280
     0
281
     0
  0
CLASS
  1
TABLESTYLE
  2
AcDbTableStyle
  3
ObjectDBX Classes
 90
     4095
280
     0
281
     0
  0
CLASS
  1
SORTENTSTABLE
  2
AcDbSortentsTable
  3
ObjectDBX Classes
 90
        0
280
     0
281
     0
  0
CLASS
  1
MATERIAL
  2
AcDbMaterial
  3
ObjectDBX Classes
 90
     1153
280
     0
281
     0
  0
CLASS
  1
VISUALSTYLE
  2
AcDbVisualStyle
  3
ObjectDBX Classes
 90
     4095
280
     0
281
     0
  0
CLASS
  1
SCALE
  2
AcDbScale
  3
ObjectDBX Classes
 90
     1153
280
     0
281
     0
  0
CLASS
  1
MLEADERSTYLE
  2
AcDbMLeaderStyle
  3
ACDB_MLEADERSTYLE_CLASS
 90
     4095
280
     0
281
     0
  0
CLASS
  1
AEC_REFEDIT_STATUS_TRACKER
  2
AecDbRefEditStatusTracker
  3
AecArchBase60|Product Desc: Autodesk Architectural Desktop 2007 |Company: Autodesk,Inc. |WEB Address: www.autodesk.com
 90
    32897
280
     0
281
     0
  0
CLASS
  1
NPOCOLLECTION
  2
AcDbImpNonPersistentObjectsCollection
  3
ObjectDBX Classes
 90
    33921
280
     0
281
     0
  0
CLASS
  1
CELLSTYLEMAP
  2
AcDbCellStyleMap
  3
ObjectDBX Classes
 90
     1152
280
     0
281
     0
  0
CLASS
  1
SOLID_BACKGROUND
  2
AcDbSolidBackground
  3
SCENEOE
 90
    36863
280
     0
281
     0
  0
ENDSEC
  0
SECTION
  2
TABLES
  0
TABLE
  2
VPORT
  5
8
102
{ACAD_XDICTIONARY
360
30F3
102
}
330
0
100
AcDbSymbolTable
 70
     1
  0
VPORT
  5
2C6B
330
8
100
AcDbSymbolTableRecord
100
AcDbViewportTableRecord
  2
*Active
 70
     0
 10
0.0
 20
0.0
 11
1.0
 21
1.0
 12
11946.15068778539
 22
961.3943989794922
 13
0.0
 23
0.0
 14
10.0
 24
10.0
 15
10.0
 25
10.0
 16
0.0
 26
0.0
 36
1.0
 17
0.0
 27
0.0
 37
0.0
 40
1.689977779206403
 41
1.645464025026068
 42
50.0
 43
0.0
 44
0.0
 50
0.0
 51
0.0
 71
     0
 72
   100
 73
     1
 74
     2
 75
     0
 76
     0
 77
     0
 78
     0
281
     0
 65
     1
110
0.0
120
0.0
130
0.0
111
1.0
121
0.0
131
0.0
112
0.0
122
1.0
132
0.0
 79
     0
146
0.0
  0
ENDTAB
  0
TABLE
  2
LTYPE
  5
5
330
0
100
AcDbSymbolTable
 70
     4
  0
LTYPE
  5
14
330
5
100
AcDbSymbolTableRecord
100
AcDbLinetypeTableRecord
  2
ByBlock
 70
     0
  3

 72
    65
 73
     0
 40
0.0
  0
LTYPE
  5
15
330
5
100
AcDbSymbolTableRecord
100
AcDbLinetypeTableRecord
  2
ByLayer
 70
     0
  3

 72
    65
 73
     0
 40
0.0
  0
LTYPE
  5
16
330
5
100
AcDbSymbolTableRecord
100
AcDbLinetypeTableRecord
  2
Continuous
 70
     0
  3
Solid line
 72
    65
 73
     0
 40
0.0
  0
LTYPE
  5
2D
330
5
100
AcDbSymbolTableRecord
100
AcDbLinetypeTableRecord
  2
DASHDOT
 70
     0
  3
Dash dot __ . __ . __ . __ . __ . __ . __ . __
 72
    65
 73
     4
 40
25.4
 49
12.7
 74
     0
 49
-6.349999999999999
 74
     0
 49
0.0
 74
     0
 49
-6.349999999999999
 74
     0
  0
LTYPE
  5
2E
330
5
100
AcDbSymbolTableRecord
100
AcDbLinetypeTableRecord
  2
HIDDEN
 70
     0
  3
Hidden __ __ __ __ __ __ __ __ __ __ __ __ __ _
 72
    65
 73
     2
 40
9.524999999999998
 49
6.349999999999999
 74
     0
 49
-3.174999999999999
 74
     0
  0
LTYPE
  5
1D6F
330
5
100
AcDbSymbolTableRecord
100
AcDbLinetypeTableRecord
  2
CENTER
 70
     0
  3
____ _ ____ _ ____ _ ____ _ ____ _ ____ _ ____ 
 72
    65
 73
     4
 40
2.0
 49
1.25
 74
     0
 49
-0.25
 74
     0
 49
0.25
 74
     0
 49
-0.25
 74
     0
  0
ENDTAB
  0
TABLE
  2
LAYER
  5
2
330
0
100
AcDbSymbolTable
 70
    17
  0
LAYER
  5
10
102
{ACAD_XDICTIONARY
360
30D1
102
}
330
2
100
AcDbSymbolTableRecord
100
AcDbLayerTableRecord
  2
0
 70
     0
 62
     7
  6
Continuous
370
    -3
390
F
  0
LAYER
  5
2F
102
{ACAD_XDICTIONARY
360
30D3
102
}
330
2
100
AcDbSymbolTableRecord
100
AcDbLayerTableRecord
  2
1
 70
     0
 62
     1
  6
Continuous
370
    -3
390
F
  0
LAYER
  5
30
102
{ACAD_XDICTIONARY
360
30D5
102
}
330
2
100
AcDbSymbolTableRecord
100
AcDbLayerTableRecord
  2
2
 70
     0
 62
     2
  6
Continuous
370
    -3
390
F
  0
LAYER
  5
31
102
{ACAD_XDICTIONARY
360
30D7
102
}
330
2
100
AcDbSymbolTableRecord
100
AcDbLayerTableRecord
  2
3
 70
     0
 62
     3
  6
Continuous
370
    -3
390
F
  0
LAYER
  5
32
102
{ACAD_XDICTIONARY
360
30D9
102
}
330
2
100
AcDbSymbolTableRecord
100
AcDbLayerTableRecord
  2
4
 70
     0
 62
     4
  6
Continuous
370
    -3
390
F
  0
LAYER
  5
33
102
{ACAD_XDICTIONARY
360
30DB
102
}
330
2
100
AcDbSymbolTableRecord
100
AcDbLayerTableRecord
  2
5
 70
     0
 62
     5
  6
Continuous
370
    -3
390
F
  0
LAYER
  5
34
102
{ACAD_XDICTIONARY
360
30DD
102
}
330
2
100
AcDbSymbolTableRecord
100
AcDbLayerTableRecord
  2
6
 70
     0
 62
     6
  6
Continuous
370
    -3
390
F
  0
LAYER
  5
35
102
{ACAD_XDICTIONARY
360
30DF
102
}
330
2
100
AcDbSymbolTableRecord
100
AcDbLayerTableRecord
  2
7
 70
     0
 62
     7
  6
Continuous
370
    -3
390
F
  0
LAYER
  5
36
102
{ACAD_XDICTIONARY
360
30E1
102
}
330
2
100
AcDbSymbolTableRecord
100
AcDbLayerTableRecord
  2
cen
 70
     0
 62
     7
  6
DASHDOT
370
    -3
390
F
  0
LAYER
  5
37
102
{ACAD_XDICTIONARY
360
30E3
102
}
330
2
100
AcDbSymbolTableRecord
100
AcDbLayerTableRecord
  2
hid
 70
     0
 62
     7
  6
HIDDEN
370
    -3
390
F
  0
LAYER
  5
5D6
102
{ACAD_XDICTIONARY
360
30E5
102
}
330
2
100
AcDbSymbolTableRecord
100
AcDbLayerTableRecord
  2
hatch
 70
     0
 62
     9
  6
Continuous
370
    -3
390
F
  0
LAYER
  5
8AF
102
{ACAD_XDICTIONARY
360
30E7
102
}
330
2
100
AcDbSymbolTableRecord
100
AcDbLayerTableRecord
  2
9
 70
     0
 62
     9
  6
Continuous
370
    -3
390
F
  0
LAYER
  5
8F8
102
{ACAD_XDICTIONARY
360
30E9
102
}
330
2
100
AcDbSymbolTableRecord
100
AcDbLayerTableRecord
  2
leg fin
 70
     0
 62
     9
  6
Continuous
370
    -3
390
F
  0
LAYER
  5
91D
102
{ACAD_XDICTIONARY
360
30EB
102
}
330
2
100
AcDbSymbolTableRecord
100
AcDbLayerTableRecord
  2
cotas
 70
     0
 62
     1
  6
Continuous
370
    -3
390
F
  0
LAYER
  5
92F
330
2
100
AcDbSymbolTableRecord
100
AcDbLayerTableRecord
  2
Defpoints
 70
     0
 62
     7
  6
Continuous
290
     0
370
    -3
390
F
  0
LAYER
  5
1D70
102
{ACAD_XDICTIONARY
360
30ED
102
}
330
2
100
AcDbSymbolTableRecord
100
AcDbLayerTableRecord
  2
QUOTE
 70
     0
 62
     1
  6
Continuous
370
    -3
390
F
  0
LAYER
  5
3997
330
2
100
AcDbSymbolTableRecord
100
AcDbLayerTableRecord
  2
SANINDUSA
 70
     0
 62
     3
  6
Continuous
370
    -3
390
F
  0
ENDTAB
  0
TABLE
  2
STYLE
  5
3
330
0
100
AcDbSymbolTable
 70
     4
  0
STYLE
  5
11
330
3
100
AcDbSymbolTableRecord
100
AcDbTextStyleTableRecord
  2
Standard
 70
     0
 40
0.0
 41
1.0
 50
0.0
 71
     0
 42
2.5
  3
Avgardn.ttf
  4

1001
ACAD
1000
AvantGarde Bk BT
1071
       34
  0
STYLE
  5
2C
330
3
100
AcDbSymbolTableRecord
100
AcDbTextStyleTableRecord
  2

 70
     1
 40
0.0
 41
1.0
 50
0.0
 71
     0
 42
2.5
  3
ltypeshp.shx
  4

  0
STYLE
  5
91F
330
3
100
AcDbSymbolTableRecord
100
AcDbTextStyleTableRecord
  2
SANINDUSA
 70
     0
 40
0.0
 41
1.0
 50
0.0
 71
     0
 42
2.5
  3
verdana.TTF
  4

1001
ACAD
1000
Verdana
1071
       34
  0
STYLE
  5
1D71
330
3
100
AcDbSymbolTableRecord
100
AcDbTextStyleTableRecord
  2
ROMANS
 70
     0
 40
2.5
 41
1.0
 50
0.0
 71
     0
 42
2.5
  3
romans
  4

  0
ENDTAB
  0
TABLE
  2
VIEW
  5
6
330
0
100
AcDbSymbolTable
 70
     0
  0
ENDTAB
  0
TABLE
  2
UCS
  5
7
330
0
100
AcDbSymbolTable
 70
     0
  0
ENDTAB
  0
TABLE
  2
APPID
  5
9
330
0
100
AcDbSymbolTable
 70
    12
  0
APPID
  5
12
330
9
100
AcDbSymbolTableRecord
100
AcDbRegAppTableRecord
  2
ACAD
 70
     0
  0
APPID
  5
3A
330
9
100
AcDbSymbolTableRecord
100
AcDbRegAppTableRecord
  2
DCO15
 70
     0
  0
APPID
  5
1709
330
9
100
AcDbSymbolTableRecord
100
AcDbRegAppTableRecord
  2
ACAD_DSTYLE_DIMTEXT_FILL
 70
     0
  0
APPID
  5
170A
330
9
100
AcDbSymbolTableRecord
100
AcDbRegAppTableRecord
  2
ACAD_DSTYLE_DIMEXT_LENGTH
 70
     0
  0
APPID
  5
170B
330
9
100
AcDbSymbolTableRecord
100
AcDbRegAppTableRecord
  2
ACAD_DSTYLE_DIMEXT_ENABLED
 70
     0
  0
APPID
  5
170C
330
9
100
AcDbSymbolTableRecord
100
AcDbRegAppTableRecord
  2
ACAD_DSTYLE_DIM_LINETYPE
 70
     0
  0
APPID
  5
170D
330
9
100
AcDbSymbolTableRecord
100
AcDbRegAppTableRecord
  2
ACAD_DSTYLE_DIM_EXT1_LINETYPE
 70
     0
  0
APPID
  5
170E
330
9
100
AcDbSymbolTableRecord
100
AcDbRegAppTableRecord
  2
ACAD_DSTYLE_DIM_EXT2_LINETYPE
 70
     0
  0
APPID
  5
17CA
330
9
100
AcDbSymbolTableRecord
100
AcDbRegAppTableRecord
  2
ACAD_DSTYLE_DIMJOGGED_JOGANGLE_SYMBOL
 70
     0
  0
APPID
  5
185E
330
9
100
AcDbSymbolTableRecord
100
AcDbRegAppTableRecord
  2
ACAD_DSTYLE_DIMARC_LENGTH_SYMBOL
 70
     0
  0
APPID
  5
2351
330
9
100
AcDbSymbolTableRecord
100
AcDbRegAppTableRecord
  2
ACAD_EXEMPT_FROM_CAD_STANDARDS
 70
     0
  0
APPID
  5
312B
330
9
100
AcDbSymbolTableRecord
100
AcDbRegAppTableRecord
  2
ACAD_MLEADERVER
 70
     0
  0
ENDTAB
  0
TABLE
  2
DIMSTYLE
  5
A
330
0
100
AcDbSymbolTable
 70
     2
100
AcDbDimStyleTable
 71
     1
340
921
  0
DIMSTYLE
105
45
330
A
100
AcDbSymbolTableRecord
100
AcDbDimStyleTableRecord
  2
STANDARD
 70
     0
289
     0
340
11
  0
DIMSTYLE
105
921
330
A
100
AcDbSymbolTableRecord
100
AcDbDimStyleTableRecord
  2
SANINDUSA
 70
     0
 41
2.0
 42
1.0
 43
1.0
 44
1.0
 73
     0
 74
     0
 77
     1
 78
     8
140
2.0
141
0.0
143
0.03937007874016
147
1.0
171
     3
172
     1
176
   256
177
   256
178
   256
179
     1
271
     1
272
     1
274
     3
278
    44
283
     0
284
     8
340
91F
371
    -1
372
    -1
  0
ENDTAB
  0
TABLE
  2
BLOCK_RECORD
  5
1
330
0
100
AcDbSymbolTable
 70
     4
  0
BLOCK_RECORD
  5
1F
102
{ACAD_XDICTIONARY
360
2607
102
}
330
1
100
AcDbSymbolTableRecord
100
AcDbBlockTableRecord
  2
*Model_Space
340
22
  0
BLOCK_RECORD
  5
1B
330
1
100
AcDbSymbolTableRecord
100
AcDbBlockTableRecord
  2
*Paper_Space
340
1E
  0
BLOCK_RECORD
  5
23
330
1
100
AcDbSymbolTableRecord
100
AcDbBlockTableRecord
  2
*Paper_Space0
340
26
  0
BLOCK_RECORD
  5
919
330
1
100
AcDbSymbolTableRecord
100
AcDbBlockTableRecord
  2
_DotSmall
340
0
  0
BLOCK_RECORD
  5
922
330
1
100
AcDbSymbolTableRecord
100
AcDbBlockTableRecord
  2
base para cotas
340
0
310
2800000020000000200000000100080000000000000400000000000000000000000000000000000000000000000080000080000000808000800000008000800080800000C0C0C000C0DCC000F0CAA6000020400000206000002080000020A0000020C0000020E00000400000004020000040400000406000004080000040A0
310
000040C0000040E00000600000006020000060400000606000006080000060A0000060C0000060E00000800000008020000080400000806000008080000080A0000080C0000080E00000A0000000A0200000A0400000A0600000A0800000A0A00000A0C00000A0E00000C0000000C0200000C0400000C0600000C0800000C0
310
A00000C0C00000C0E00000E0000000E0200000E0400000E0600000E0800000E0A00000E0C00000E0E00040000000400020004000400040006000400080004000A0004000C0004000E00040200000402020004020400040206000402080004020A0004020C0004020E000404000004040200040404000404060004040800040
310
40A0004040C0004040E00040600000406020004060400040606000406080004060A0004060C0004060E00040800000408020004080400040806000408080004080A0004080C0004080E00040A0000040A0200040A0400040A0600040A0800040A0A00040A0C00040A0E00040C0000040C0200040C0400040C0600040C08000
310
40C0A00040C0C00040C0E00040E0000040E0200040E0400040E0600040E0800040E0A00040E0C00040E0E00080000000800020008000400080006000800080008000A0008000C0008000E00080200000802020008020400080206000802080008020A0008020C0008020E00080400000804020008040400080406000804080
310
008040A0008040C0008040E00080600000806020008060400080606000806080008060A0008060C0008060E00080800000808020008080400080806000808080008080A0008080C0008080E00080A0000080A0200080A0400080A0600080A0800080A0A00080A0C00080A0E00080C0000080C0200080C0400080C0600080C0
310
800080C0A00080C0C00080C0E00080E0000080E0200080E0400080E0600080E0800080E0A00080E0C00080E0E000C0000000C0002000C0004000C0006000C0008000C000A000C000C000C000E000C0200000C0202000C0204000C0206000C0208000C020A000C020C000C020E000C0400000C0402000C0404000C0406000C0
310
408000C040A000C040C000C040E000C0600000C0602000C0604000C0606000C0608000C060A000C060C000C060E000C0800000C0802000C0804000C0806000C0808000C080A000C080C000C080E000C0A00000C0A02000C0A04000C0A06000C0A08000C0A0A000C0A0C000C0A0E000C0C00000C0C02000C0C04000C0C06000
310
C0C08000C0C0A000F0FBFF00A4A0A000808080000000FF0000FF000000FFFF00FF000000FF00FF00FFFF0000FFFFFF00A4A4A4A4A4A4A4A4A4A4A4A4A4A4A4A4A4A4A4A4A4A4A4A4A4A4A4A4A4A4A4A4A4A4A4A4A4A4A4A4A4A4A4A4A4A4A4A4A4A4A4A4A4A4A4A4A4A4A4A4A4A4A4A4A4A4A4A4A4A4A4A4A4A4A4A4A4A4A4
310
A4A4A4A4A4A4A4A4A4A4A4A4A4A4A4A4A4A4A4A4A4A4A4A4A4A4A4A4A4A4A4A4A4A4A4A4A4A4A4A4A4A4A4A4A4A4A4A4A4A4A4A4A4A4A4A4A4A4A4A4A4A4A4A4A4A4A4A4A4A4A4A4A4A4A4A4A4A4A4A4A4A4A4A4A4A4A4A4A4A4A4A4A4A4A4A4A4A4A4A4A4A4A4A4A4A4A4A4A4A4A4A4A4A4A4A4A4A4A4A4A4A4A4A4A4A4A4
310
A4A4A4A4A4A4A4A4A4A4A4A4A4A4A4A4A4A4A4A4A4A4A4A4A4A4A4A4A4A4A4A4A4A4A4A4A4A4A4A4A4A4A4A4A4A4A4A4A4A4A4A4A4A4A4A4A4A4A4A4A4A4A4A4A4A4A4A4A4A4A4A4A4A4A4A4A4A4A4A4A4A4A4A4A4A4A4A4A4A4A4A4A4A4A4A4A4A4A4A4A4A4A4A4A4A4A4A4A4A4A4A4A4A4A4A4A4A4A4A4A4A4A4A4A4A4A4
310
A4A4A4A4A4A4A4A4A4A4A4A4A4A4A4A4A4A4A4A4A4A4A4A4A4A4A4A4A4A4A4A4A4A4A4A4A4A4A4A4A4A4A4A4A4A4A4A4A4A4A4A4A4A4A4A4A4A4A4A4A4A4A4A4A4A4A4A4A4A4A4A4A4A4A4A4A4A4A4A4A4A4A4A4A4A4A4A4A4A4A4A4A4A4A4A4A4A4A4A4A4A4A4A4A4A4A4A4A4A4A4A4A4A4A4A4F9F9F9F9F9F9F9F9F9F9F9
310
F9F9F9F9F9F9F9F9F9F9F9F9F9F9F9F9F9F9F9A4A4F9F9F9F9F9F9F9F9F9F9F9F9F9F9F9F9F9F9F9F9F9F9F9F9F9F9F9F9F9F9A4A4F9F9F9F9F9F9F9F9F9F9F9F9F9F9F9F9F9F9F9F9F9F9F9F9F9F9F9F9F9F9A4A4F9A4A4A4A4A4A4A4A4A4A4A4A4A4A4A4A4A4A4A4A4A4A4A4A4A4A4A4A4F9A4A4A4A4A4A4A4A4A4A4A4A4
310
A4A4A4A4A4A4A4A4A4A4A4A4A4A4A4A4A4A4A4A4A4A4A4A4A4A4A4A4A4A4A4A4A4A4A4A4A4A4A4A4A4A4A4A4A4A4A4A4A4A4A4A4A4A4A4A4A4A4A4A4A4A4A4A4A4A4A4A4A4A4A4A4A4A4A4A4A4A4A4A4A4A4A4A4A4A4A4A4A4A4A4A4A4A4A4A4A4A4A4A4A4A4A4A4A4A4A4A4A4A4A4A4A4A4A4A4A4A4A4A4A4A4A4A4A4A4A4
310
A4A4A4A4A4A4A4A4A4A4A4A4A4A4A4A4A4A4A4A4A4A4A4A4A4A4A4A4A4A4A4A4A4A4A4A4A4A4A4A4A4A4A4A4A4A4A4A4A4A4A4A4A4A4A4A4A4A4A4A4A4A4A4A4A4A4A4A4A4A4A4A4A4A4A4A4A4A4A4A4A4A4A4A4A4A4A4A4A4A4A4A4A4A4A4A4A4A4A4A4A4A4A4A4A4A4A4A4A4A4A4A4A4A4A4A4A4A4A4A4A4A4A4A4A4A4A4
310
A4A4A4A4A4A4A4A4A4A4A4A4A4A4A4A4A4A4A4A4A4A4A4A4A4A4A4A4A4A4A4A4A4A4A4A4A4A4A4A4A4A4A4A4A4A4A4A4A4A4A4A4A4A4A4A4A4A4A4A4A4A4A4A4A4A4A4A4A4A4A4A4A4A4A4A4A4A4A4A4A4A4A4A4A4A4A4A4A4A4A4A4A4A4A4A4A4A4A4A4A4A4A4A4A4A4A4A4A4A4A4A4A4A4A4A4A4A4A4A4A4A4A4A4A4A4A4
310
A4A4A4A4A4A4A4A4A4A4A4A4A4A4A4A4A4A4A4A4A4A4A4A4A4A4A4A4A4A4A4A4A4A4A4A4A4A4A4A4A4A4A4A4A4A4A4A4A4A4A4A4A4A4A4A4
1001
ACAD
1000
DesignCenter Data
1002
{
1070
     1
1070
     4
1002
}
  0
BLOCK_RECORD
  5
AA8
330
1
100
AcDbSymbolTableRecord
100
AcDbBlockTableRecord
  2
_CLOSED
340
0
  0
ENDTAB
  0
ENDSEC
  0
SECTION
  2
BLOCKS
  0
BLOCK
  5
20
330
1F
100
AcDbEntity
  8
0
100
AcDbBlockBegin
  2
*Model_Space
 70
     0
 10
0.0
 20
0.0
 30
0.0
  3
*Model_Space
  1

  0
ENDBLK
  5
21
330
1F
100
AcDbEntity
  8
0
100
AcDbBlockEnd
  0
BLOCK
  5
1C
330
1B
100
AcDbEntity
 67
     1
  8
0
100
AcDbBlockBegin
  2
*Paper_Space
 70
     0
 10
0.0
 20
0.0
 30
0.0
  3
*Paper_Space
  1

  0
ENDBLK
  5
1D
330
1B
100
AcDbEntity
 67
     1
  8
0
100
AcDbBlockEnd
  0
BLOCK
  5
24
330
23
100
AcDbEntity
 67
     1
  8
0
100
AcDbBlockBegin
  2
*Paper_Space0
 70
     0
 10
0.0
 20
0.0
 30
0.0
  3
*Paper_Space0
  1

  0
ENDBLK
  5
25
330
23
100
AcDbEntity
 67
     1
  8
0
100
AcDbBlockEnd
  0
BLOCK
  5
91B
330
919
100
AcDbEntity
  8
0
100
AcDbBlockBegin
  2
_DotSmall
 70
     0
 10
0.0
 20
0.0
 30
0.0
  3
_DotSmall
  1

  0
LWPOLYLINE
  5
91A
330
919
100
AcDbEntity
  8
0
  6
ByBlock
 62
     0
100
AcDbPolyline
 90
        2
 70
     1
 43
0.5
 10
-0.0625
 20
0.0
 42
1.0
 10
0.0625
 20
0.0
 42
1.0
  0
ENDBLK
  5
91C
330
919
100
AcDbEntity
  8
0
100
AcDbBlockEnd
  0
BLOCK
  5
92A
330
922
100
AcDbEntity
  8
0
100
AcDbBlockBegin
  2
base para cotas
 70
     0
 10
0.0
 20
0.0
 30
0.0
  3
base para cotas
  1

  0
LINE
  5
B36
330
922
100
AcDbEntity
  8
cotas
100
AcDbLine
 10
0.0
 20
-30.0
 30
0.0
 11
327.1260136525398
 21
-30.0
 31
0.0
  0
LINE
  5
B37
330
922
100
AcDbEntity
  8
cotas
100
AcDbLine
 10
0.0
 20
-25.0
 30
0.0
 11
327.1260136525398
 21
-25.0
 31
0.0
  0
LINE
  5
B38
330
922
100
AcDbEntity
  8
cotas
100
AcDbLine
 10
0.0
 20
-20.0
 30
0.0
 11
327.1260136525398
 21
-20.0
 31
0.0
  0
LINE
  5
B39
330
922
100
AcDbEntity
  8
cotas
100
AcDbLine
 10
0.0
 20
-15.0
 30
0.0
 11
327.1260136525398
 21
-15.0
 31
0.0
  0
LINE
  5
B3A
330
922
100
AcDbEntity
  8
cotas
100
AcDbLine
 10
0.0
 20
-10.0
 30
0.0
 11
327.1260136525398
 21
-10.0
 31
0.0
  0
LINE
  5
B3B
330
922
100
AcDbEntity
  8
cotas
100
AcDbLine
 10
0.0
 20
0.0
 30
0.0
 11
0.0
 21
-30.0
 31
0.0
  0
LINE
  5
B3C
330
922
100
AcDbEntity
  8
cotas
100
AcDbLine
 10
327.1260136525398
 20
-30.0
 30
0.0
 11
327.1260136525398
 21
0.0
 31
0.0
  0
ENDBLK
  5
92B
330
922
100
AcDbEntity
  8
0
100
AcDbBlockEnd
  0
BLOCK
  5
AAD
330
AA8
100
AcDbEntity
  8
0
100
AcDbBlockBegin
  2
_CLOSED
 70
     0
 10
0.0
 20
0.0
 30
0.0
  3
_CLOSED
  1

  0
LINE
  5
AA9
330
AA8
100
AcDbEntity
  8
0
100
AcDbLine
 10
-1.0
 20
0.166667
 30
0.0
 11
0.0
 21
0.0
 31
0.0
  0
LINE
  5
AAA
330
AA8
100
AcDbEntity
  8
0
100
AcDbLine
 10
0.0
 20
0.0
 30
0.0
 11
-1.0
 21
-0.166667
 31
0.0
  0
LINE
  5
AAB
330
AA8
100
AcDbEntity
  8
0
100
AcDbLine
 10
-1.0
 20
0.166667
 30
0.0
 11
-1.0
 21
-0.166667
 31
0.0
  0
LINE
  5
AAC
330
AA8
100
AcDbEntity
  8
0
100
AcDbLine
 10
0.0
 20
0.0
 30
0.0
 11
-1.0
 21
0.0
 31
0.0
  0
ENDBLK
  5
AAE
330
AA8
100
AcDbEntity
  8
0
100
AcDbBlockEnd
  0
ENDSEC
  0
SECTION
  2
ENTITIES
  0
LWPOLYLINE
  5
3637
330
1F
100
AcDbEntity
  8
SANINDUSA
100
AcDbPolyline
 90
       16
 70
     0
 43
0.0
 10
11944.81362074536
 20
960.6463480413577
 10
11944.81354853108
 20
960.6463538913571
 10
11944.81347710966
 20
960.646371441356
 10
11944.81340725252
 20
960.6464004770684
 10
11944.81333975252
 20
960.6464406556371
 10
11944.81327531682
 20
960.6464915699195
 10
11944.81321465253
 20
960.6465526627726
 10
11944.81315846682
 20
960.6466232270534
 10
11944.81310731683
 20
960.6467025341911
 10
11944.81306182397
 20
960.6467896841854
 10
11944.81302243826
 20
960.6468837556077
 10
11944.81298958826
 20
960.6469836770296
 10
11944.81296368112
 20
960.6470883770226
 10
11944.81294497398
 20
960.6471966984438
 10
11944.81293365969
 20
960.6473074627222
 10
11944.81292986684
 20
960.6474194698575
  0
LINE
  5
3638
330
1F
100
AcDbEntity
  8
SANINDUSA
100
AcDbLine
 10
11945.39557509778
 20
960.6452766128576
 30
0.0
 11
11945.43845623778
 21
960.6452766128576
 31
0.0
  0
LINE
  5
3639
330
1F
100
AcDbEntity
  8
SANINDUSA
100
AcDbLine
 10
11944.79393892525
 20
960.6463480413577
 30
0.0
 11
11944.7832327831
 21
960.6463480413577
 31
0.0
  0
LINE
  5
363A
330
1F
100
AcDbEntity
  8
SANINDUSA
100
AcDbLine
 10
11944.78322871167
 20
960.6463480413577
 30
0.0
 11
11944.76555016285
 21
960.6463480413577
 31
0.0
  0
LINE
  5
363B
330
1F
100
AcDbEntity
  8
SANINDUSA
100
AcDbLine
 10
11944.79394299668
 20
960.6463480413577
 30
0.0
 11
11944.83776442232
 21
960.6463480413577
 31
0.0
  0
LINE
  5
363C
330
1F
100
AcDbEntity
  8
SANINDUSA
100
AcDbLine
 10
11944.80840726
 20
960.6474194698575
 30
0.0
 11
11944.83883585083
 21
960.6474194698575
 31
0.0
  0
LINE
  5
363D
330
1F
100
AcDbEntity
  8
SANINDUSA
100
AcDbLine
 10
11944.83422277256
 20
960.6613480403577
 30
0.0
 11
11944.8388356794
 21
960.6613480403577
 31
0.0
  0
LINE
  5
363E
330
1F
100
AcDbEntity
  8
SANINDUSA
100
AcDbLine
 10
11945.39832552306
 20
960.6613480403577
 30
0.0
 11
11945.42184301031
 21
960.6613480403577
 31
0.0
  0
LINE
  5
363F
330
1F
100
AcDbEntity
  8
SANINDUSA
100
AcDbLine
 10
11945.4384564092
 20
960.6613480403577
 30
0.0
 11
11945.9654564092
 21
960.6613480403577
 31
0.0
  0
LINE
  5
3640
330
1F
100
AcDbEntity
  8
SANINDUSA
100
AcDbLine
 10
11945.39832552306
 20
960.6624194688576
 30
0.0
 11
11944.83525976535
 21
960.6624194688576
 31
0.0
  0
LINE
  5
3641
330
1F
100
AcDbEntity
  8
SANINDUSA
100
AcDbLine
 10
11944.83525976535
 20
960.6725980396076
 30
0.0
 11
11944.81479850243
 21
960.6725980396076
 31
0.0
  0
LINE
  5
3642
330
1F
100
AcDbEntity
  8
SANINDUSA
100
AcDbLine
 10
11944.80840726
 20
960.6731337538576
 30
0.0
 11
11944.83561933675
 21
960.6731337538576
 31
0.0
  0
LWPOLYLINE
  5
3643
330
1F
100
AcDbEntity
  8
SANINDUSA
100
AcDbPolyline
 90
       14
 70
     0
 43
0.0
 10
11944.82532558744
 20
960.6663675543087
 10
11944.82609549453
 20
960.6659803186202
 10
11944.82685603734
 20
960.6655941115031
 10
11944.82760640157
 20
960.6652083758145
 10
11944.8283461801
 20
960.6648224044116
 10
11944.82907430148
 20
960.6644358115802
 10
11944.82978813
 20
960.6640490044632
 10
11944.83048502995
 20
960.6636624759175
 10
11944.83116281562
 20
960.6632765259433
 10
11944.83182039415
 20
960.6628908545404
 10
11944.83245667268
 20
960.6625052045661
 10
11944.83307021549
 20
960.6621194688777
 10
11944.83365939403
 20
960.661733733189
 10
11944.83422277256
 20
960.6613480403577
  0
LINE
  5
3644
330
1F
100
AcDbEntity
  8
SANINDUSA
100
AcDbLine
 10
11944.82066729489
 20
960.6686860184398
 30
0.0
 11
11944.82221302336
 21
960.667914975634
 31
0.0
  0
LINE
  5
3645
330
1F
100
AcDbEntity
  8
SANINDUSA
100
AcDbLine
 10
11944.82377008754
 20
960.6671425613999
 30
0.0
 11
11944.82532558744
 21
960.6663675543087
 31
0.0
  0
LINE
  5
3646
330
1F
100
AcDbEntity
  8
SANINDUSA
100
AcDbLine
 10
11944.82221302336
 20
960.667914975634
 30
0.0
 11
11944.82377008754
 21
960.6671425613999
 31
0.0
  0
LINE
  5
3647
330
1F
100
AcDbEntity
  8
SANINDUSA
100
AcDbLine
 10
11944.81407608105
 20
960.6731337538576
 30
0.0
 11
11944.81457626673
 21
960.6727584538827
 31
0.0
  0
LWPOLYLINE
  5
3648
330
1F
100
AcDbEntity
  8
SANINDUSA
100
AcDbPolyline
 90
        3
 70
     0
 43
0.0
 10
11944.81457626673
 20
960.6727584538827
 10
11944.81509693812
 20
960.6723825967648
 10
11944.81563698094
 20
960.6720061182185
  0
LWPOLYLINE
  5
3649
330
1F
100
AcDbEntity
  8
SANINDUSA
100
AcDbPolyline
 90
       10
 70
     0
 43
0.0
 10
11944.81563698094
 20
960.6720061182185
 10
11944.81619549519
 20
960.6716288896722
 10
11944.81677098087
 20
960.6712510611259
 10
11944.81736138083
 20
960.6708731254368
 10
11944.81796540936
 20
960.6704950826049
 10
11944.81858158789
 20
960.6701169326301
 10
11944.81920736642
 20
960.6697393397981
 10
11944.81984053781
 20
960.6693627755376
 10
11944.82048024491
 20
960.6689867684197
 10
11944.82112603772
 20
960.6686107398735
  0
LWPOLYLINE
  5
364A
330
1F
100
AcDbEntity
  8
SANINDUSA
100
AcDbPolyline
 90
       12
 70
     0
 43
0.0
 10
11944.81289778827
 20
960.6729756538681
 10
11944.81353912394
 20
960.6725678038953
 10
11944.81417293818
 20
960.6721798396355
 10
11944.814829831
 20
960.6717912325185
 10
11944.8155089881
 20
960.6714015968302
 10
11944.81620815948
 20
960.6710113182849
 10
11944.81692344514
 20
960.6706215968822
 10
11944.81765248795
 20
960.6702327111939
 10
11944.8183939379
 20
960.669844404077
 10
11944.81914515928
 20
960.6694570183885
 10
11944.81990325923
 20
960.6690710469857
 10
11944.82066729489
 20
960.6686860184398
  0
LWPOLYLINE
  5
364B
330
1F
100
AcDbEntity
  8
SANINDUSA
100
AcDbPolyline
 90
        9
 70
     0
 43
0.0
 10
11944.81289778827
 20
960.6729756538681
 10
11944.81286476684
 20
960.6729960538668
 10
11944.81283088827
 20
960.673016325294
 10
11944.81279617399
 20
960.6730364681498
 10
11944.81276068828
 20
960.6730565038628
 10
11944.81272455971
 20
960.6730762395757
 10
11944.81268783114
 20
960.6730956752887
 10
11944.81265056686
 20
960.6731148538589
 10
11944.81261283115
 20
960.6731337538576
  0
LWPOLYLINE
  5
364C
330
1F
100
AcDbEntity
  8
SANINDUSA
100
AcDbPolyline
 90
        3
 70
     0
 43
0.0
 10
11944.82112603772
 20
960.6686107398735
 10
11944.82243052335
 20
960.6678582327807
 10
11944.82308585187
 20
960.6674819685201
  0
LINE
  5
364D
330
1F
100
AcDbEntity
  8
SANINDUSA
100
AcDbLine
 10
11944.76555016285
 20
960.6463480413577
 30
0.0
 11
11944.76555016285
 21
962.1463479413575
 31
0.0
  0
LINE
  5
364E
330
1F
100
AcDbEntity
  8
SANINDUSA
100
AcDbLine
 10
11944.76629801995
 20
960.6463480413577
 30
0.0
 11
11944.76629801995
 21
962.1463479413575
 31
0.0
  0
LINE
  5
364F
330
1F
100
AcDbEntity
  8
SANINDUSA
100
AcDbLine
 10
11944.76844038409
 20
960.6463480413577
 30
0.0
 11
11944.76844038409
 21
962.1463479413575
 31
0.0
  0
LINE
  5
3650
330
1F
100
AcDbEntity
  8
SANINDUSA
100
AcDbLine
 10
11944.77119416962
 20
960.6463480413577
 30
0.0
 11
11944.77119416962
 21
962.1463479413575
 31
0.0
  0
LINE
  5
3651
330
1F
100
AcDbEntity
  8
SANINDUSA
100
AcDbLine
 10
11944.78560430872
 20
960.6463480413577
 30
0.0
 11
11944.78560430872
 21
962.1463479413575
 31
0.0
  0
LINE
  5
3652
330
1F
100
AcDbEntity
  8
SANINDUSA
100
AcDbLine
 10
11944.78861243047
 20
960.6463480413577
 30
0.0
 11
11944.78861243047
 21
962.1463479413575
 31
0.0
  0
LINE
  5
3653
330
1F
100
AcDbEntity
  8
SANINDUSA
100
AcDbLine
 10
11944.78871957332
 20
960.6463480413577
 30
0.0
 11
11944.78871957332
 21
962.1463479413575
 31
0.0
  0
LINE
  5
3654
330
1F
100
AcDbEntity
  8
SANINDUSA
100
AcDbLine
 10
11944.79383585382
 20
960.6463480413577
 30
0.0
 11
11944.79383585382
 21
962.1463479413575
 31
0.0
  0
LINE
  5
3655
330
1F
100
AcDbEntity
  8
SANINDUSA
100
AcDbLine
 10
11944.79394299668
 20
960.6463480413577
 30
0.0
 11
11944.79394299668
 21
962.1463479413575
 31
0.0
  0
LINE
  5
3656
330
1F
100
AcDbEntity
  8
SANINDUSA
100
AcDbLine
 10
11944.79406231095
 20
960.6463480413577
 30
0.0
 11
11944.79406231095
 21
962.1463479413575
 31
0.0
  0
LINE
  5
3657
330
1F
100
AcDbEntity
  8
SANINDUSA
100
AcDbLine
 10
11944.80809468145
 20
960.6463480413577
 30
0.0
 11
11944.80809468145
 21
962.1463479413575
 31
0.0
  0
LINE
  5
3658
330
1F
100
AcDbEntity
  8
SANINDUSA
100
AcDbLine
 10
11944.80840726
 20
960.6463480413577
 30
0.0
 11
11944.80840726
 21
962.1463479413575
 31
0.0
  0
LINE
  5
3659
330
1F
100
AcDbEntity
  8
SANINDUSA
100
AcDbLine
 10
11944.81223898831
 20
962.1195622288576
 30
0.0
 11
11944.81223898831
 21
962.1463479413575
 31
0.0
  0
LINE
  5
365A
330
1F
100
AcDbEntity
  8
SANINDUSA
100
AcDbLine
 10
11944.81223898831
 20
960.6463480413577
 30
0.0
 11
11944.81223898831
 21
960.6731337538576
 31
0.0
  0
LINE
  5
365B
330
1F
100
AcDbEntity
  8
SANINDUSA
100
AcDbLine
 10
11944.81292986684
 20
960.672955125298
 30
0.0
 11
11944.81292986684
 21
960.6474194698575
 31
0.0
  0
LINE
  5
365C
330
1F
100
AcDbEntity
  8
SANINDUSA
100
AcDbLine
 10
11944.81292986684
 20
962.1195622288576
 30
0.0
 11
11944.81292986684
 21
962.1452765128577
 31
0.0
  0
LINE
  5
365D
330
1F
100
AcDbEntity
  8
SANINDUSA
100
AcDbLine
 10
11944.81373615964
 20
962.1195622288576
 30
0.0
 11
11944.81373615964
 21
960.6731337538576
 31
0.0
  0
LINE
  5
365E
330
1F
100
AcDbEntity
  8
SANINDUSA
100
AcDbLine
 10
11944.81427187389
 20
962.1195622288576
 30
0.0
 11
11944.81427187389
 21
960.6731337538576
 31
0.0
  0
LINE
  5
365F
330
1F
100
AcDbEntity
  8
SANINDUSA
100
AcDbLine
 10
11944.83525976535
 20
960.6731337538576
 30
0.0
 11
11944.83525976535
 21
960.6624194688576
 31
0.0
  0
LINE
  5
3660
330
1F
100
AcDbEntity
  8
SANINDUSA
100
AcDbLine
 10
11944.83559246533
 20
960.6731337538576
 30
0.0
 11
11944.83559246533
 21
962.1136693721076
 31
0.0
  0
LINE
  5
3661
330
1F
100
AcDbEntity
  8
SANINDUSA
100
AcDbLine
 10
11944.83561933675
 20
960.6731337538576
 30
0.0
 11
11944.83561933675
 21
962.1136693721076
 31
0.0
  0
LINE
  5
3662
330
1F
100
AcDbEntity
  8
SANINDUSA
100
AcDbLine
 10
11944.83626442242
 20
962.1195622288576
 30
0.0
 11
11944.83626442242
 21
962.1136693721076
 31
0.0
  0
LINE
  5
3663
330
1F
100
AcDbEntity
  8
SANINDUSA
100
AcDbLine
 10
11944.83626442242
 20
960.6624194688576
 30
0.0
 11
11944.83626442242
 21
960.6613480403577
 31
0.0
  0
LINE
  5
3664
330
1F
100
AcDbEntity
  8
SANINDUSA
100
AcDbLine
 10
11944.83883585083
 20
960.6613480403577
 30
0.0
 11
11944.83883585083
 21
960.6474194698575
 31
0.0
  0
LINE
  5
3665
330
1F
100
AcDbEntity
  8
SANINDUSA
100
AcDbLine
 10
11944.83883585083
 20
962.1195622288576
 30
0.0
 11
11944.83883585083
 21
962.1452765128577
 31
0.0
  0
LINE
  5
3666
330
1F
100
AcDbEntity
  8
SANINDUSA
100
AcDbLine
 10
11945.6975992842
 20
962.1013479443575
 30
0.0
 11
11945.4384564092
 21
962.1013479443575
 31
0.0
  0
LINE
  5
3667
330
1F
100
AcDbEntity
  8
SANINDUSA
100
AcDbLine
 10
11944.83561933675
 20
962.1077765153575
 30
0.0
 11
11945.39832552306
 21
962.1077765153575
 31
0.0
  0
LINE
  5
3668
330
1F
100
AcDbEntity
  8
SANINDUSA
100
AcDbLine
 10
11945.39839115877
 20
962.1088479438576
 30
0.0
 11
11945.42159156747
 21
962.1088479438576
 31
0.0
  0
LINE
  5
3669
330
1F
100
AcDbEntity
  8
SANINDUSA
100
AcDbLine
 10
11945.4217158746
 20
962.1088479438576
 30
0.0
 11
11945.43845658063
 21
962.1088479438576
 31
0.0
  0
LINE
  5
366A
330
1F
100
AcDbEntity
  8
SANINDUSA
100
AcDbLine
 10
11944.81427187389
 20
962.1136693721076
 30
0.0
 11
11944.83626442242
 21
962.1136693721076
 31
0.0
  0
LINE
  5
366B
330
1F
100
AcDbEntity
  8
SANINDUSA
100
AcDbLine
 10
11944.80840726
 20
962.1195622288576
 30
0.0
 11
11944.83883561511
 21
962.1195622288576
 31
0.0
  0
LINE
  5
366C
330
1F
100
AcDbEntity
  8
SANINDUSA
100
AcDbLine
 10
11945.39832552306
 20
962.1249193713575
 30
0.0
 11
11945.4384564092
 21
962.1249193713575
 31
0.0
  0
LINE
  5
366D
330
1F
100
AcDbEntity
  8
SANINDUSA
100
AcDbLine
 10
11944.83883585083
 20
962.1452765128577
 30
0.0
 11
11944.80840726
 21
962.1452765128577
 31
0.0
  0
LINE
  5
366E
330
1F
100
AcDbEntity
  8
SANINDUSA
100
AcDbLine
 10
11944.83776422947
 20
962.1463479413575
 30
0.0
 11
11944.79394299668
 21
962.1463479413575
 31
0.0
  0
LINE
  5
366F
330
1F
100
AcDbEntity
  8
SANINDUSA
100
AcDbLine
 10
11944.79393892525
 20
962.1463479413575
 30
0.0
 11
11944.7832327831
 21
962.1463479413575
 31
0.0
  0
LINE
  5
3670
330
1F
100
AcDbEntity
  8
SANINDUSA
100
AcDbLine
 10
11944.78322871167
 20
962.1463479413575
 30
0.0
 11
11944.76555016285
 21
962.1463479413575
 31
0.0
  0
LWPOLYLINE
  5
3671
330
1F
100
AcDbEntity
  8
SANINDUSA
100
AcDbPolyline
 90
       16
 70
     0
 43
0.0
 10
11944.81362074536
 20
962.1463479413575
 10
11944.81354853108
 20
962.1463420699294
 10
11944.81347710966
 20
962.1463245199306
 10
11944.81340725252
 20
962.1462954842183
 10
11944.81333973109
 20
962.1462553056495
 10
11944.81327529539
 20
962.1462043699386
 10
11944.81321465253
 20
962.1461432985141
 10
11944.81315844539
 20
962.1460727128045
 10
11944.81310731683
 20
962.1459934270955
 10
11944.81306180254
 20
962.1459062556727
 10
11944.81302241683
 20
962.145812205679
 10
11944.81298958826
 20
962.1457122842571
 10
11944.81296368112
 20
962.145607584264
 10
11944.81294497398
 20
962.1454992628427
 10
11944.81293365969
 20
962.1453884985644
 10
11944.81292986684
 20
962.1452765128577
  0
LINE
  5
3672
330
1F
100
AcDbEntity
  8
SANINDUSA
100
AcDbLine
 10
11945.39832552306
 20
962.1249193713575
 30
0.0
 11
11945.39832552306
 21
960.6452766128576
 31
0.0
  0
LINE
  5
3673
330
1F
100
AcDbEntity
  8
SANINDUSA
100
AcDbLine
 10
11945.39839115877
 20
960.6452766128576
 30
0.0
 11
11945.39839115877
 21
962.1249193713575
 31
0.0
  0
LINE
  5
3674
330
1F
100
AcDbEntity
  8
SANINDUSA
100
AcDbLine
 10
11945.4108762539
 20
962.1088479438576
 30
0.0
 11
11945.4108762539
 21
960.6613480403577
 31
0.0
  0
LINE
  5
3675
330
1F
100
AcDbEntity
  8
SANINDUSA
100
AcDbLine
 10
11945.41100141818
 20
960.6452766128576
 30
0.0
 11
11945.41100141818
 21
962.1249193713575
 31
0.0
  0
LINE
  5
3676
330
1F
100
AcDbEntity
  8
SANINDUSA
100
AcDbLine
 10
11945.41110856103
 20
962.1088479438576
 30
0.0
 11
11945.41110856103
 21
960.6613480403577
 31
0.0
  0
LINE
  5
3677
330
1F
100
AcDbEntity
  8
SANINDUSA
100
AcDbLine
 10
11945.42160856033
 20
962.1088479438576
 30
0.0
 11
11945.42160856033
 21
960.6613480403577
 31
0.0
  0
LINE
  5
3678
330
1F
100
AcDbEntity
  8
SANINDUSA
100
AcDbLine
 10
11945.42171570318
 20
960.6452766128576
 30
0.0
 11
11945.42171570318
 21
962.1249193713575
 31
0.0
  0
LINE
  5
3679
330
1F
100
AcDbEntity
  8
SANINDUSA
100
AcDbLine
 10
11945.42184301031
 20
962.1088479438576
 30
0.0
 11
11945.42184301031
 21
960.6613480403577
 31
0.0
  0
LINE
  5
367A
330
1F
100
AcDbEntity
  8
SANINDUSA
100
AcDbLine
 10
11945.4383361735
 20
960.6452766128576
 30
0.0
 11
11945.4383361735
 21
962.1249193713575
 31
0.0
  0
LINE
  5
367B
330
1F
100
AcDbEntity
  8
SANINDUSA
100
AcDbLine
 10
11945.4384564092
 20
962.1249193713575
 30
0.0
 11
11945.4384564092
 21
960.6452766128576
 31
0.0
  0
LINE
  5
367C
330
1F
100
AcDbEntity
  8
SANINDUSA
100
AcDbLine
 10
11945.9654564092
 20
960.6613480403577
 30
0.0
 11
11945.9654564092
 21
961.8334908193576
 31
0.0
  0
ARC
  5
367D
330
1F
100
AcDbEntity
  8
SANINDUSA
100
AcDbCircle
 10
11945.40254240445
 20
960.6484908983576
 30
0.0
 40
0.006428571
100
AcDbArc
 50
209.9999999840511
 51
330.0000000159489
  0
ARC
  5
367E
330
1F
100
AcDbEntity
  8
SANINDUSA
100
AcDbCircle
 10
11944.83776442232
 20
962.1452765128577
 30
0.0
 40
0.0010714285
100
AcDbArc
 50
0.0
 51
90.0
  0
ARC
  5
367F
330
1F
100
AcDbEntity
  8
SANINDUSA
100
AcDbCircle
 10
11944.83776442232
 20
960.6474194698575
 30
0.0
 40
0.0010714285
100
AcDbArc
 50
270.0
 51
0.0
  0
ARC
  5
3680
330
1F
100
AcDbEntity
  8
SANINDUSA
100
AcDbCircle
 10
11945.6975992842
 20
961.8334908193576
 30
0.0
 40
0.267857125
100
AcDbArc
 50
0.0
 51
90.0
  0
POINT
  5
3681
330
1F
100
AcDbEntity
  8
SANINDUSA
100
AcDbPoint
 10
11944.76555016285
 20
960.6463480413577
 30
0.0
  0
LINE
  5
3682
330
1F
100
AcDbEntity
  8
SANINDUSA
100
AcDbLine
 10
11946.40173853212
 20
961.3382509686244
 30
0.0
 11
11946.43890803424
 21
961.3382509686244
 31
0.0
  0
LINE
  5
3683
330
1F
100
AcDbEntity
  8
SANINDUSA
100
AcDbLine
 10
11946.40127609156
 20
961.3322347251244
 30
0.0
 11
11946.43998850344
 21
961.3322347251244
 31
0.0
  0
LWPOLYLINE
  5
3684
330
1F
100
AcDbEntity
  8
SANINDUSA
100
AcDbPolyline
 90
        8
 70
     1
 43
0.0
 10
11946.40010118872
 20
961.3341398688996
 42
0.4142140000000001
 10
11946.3995998351
 20
961.3346412225245
 10
11946.39303824453
 20
961.3346412225245
 42
0.443866
 10
11946.39253940436
 20
961.3340897335369
 42
0.774767
 10
11946.41461208462
 20
961.3307018250521
 42
0.538397
 10
11946.41442774825
 20
961.3309813410621
 10
11946.40260795685
 20
961.3309813410621
 42
-0.4142140000000001
 10
11946.40010118872
 20
961.3334881091869
  0
LWPOLYLINE
  5
3685
330
1F
100
AcDbEntity
  8
SANINDUSA
100
AcDbPolyline
 90
       48
 70
     1
 43
0.0
 10
11946.40718362956
 20
961.3383982168526
 10
11946.40728380002
 20
961.338498387307
 10
11946.40948755001
 20
961.338498387307
 10
11946.40958772046
 20
961.3383982168526
 10
11946.40988823183
 20
961.3386987282154
 10
11946.41018874319
 20
961.3383982168526
 10
11946.41028891364
 20
961.338498387307
 10
11946.41249266364
 20
961.338498387307
 10
11946.41259283409
 20
961.3383982168526
 10
11946.41289334545
 20
961.3386987282154
 10
11946.41319385682
 20
961.3383982168526
 10
11946.41329402727
 20
961.338498387307
 10
11946.41544229413
 20
961.33850169223
 42
0.510286
 10
11946.41591772176
 20
961.3391598558996
 42
6.239652999999999
 10
11946.41591995445
 20
961.3313261065751
 42
0.510107
 10
11946.41544443725
 20
961.331983998845
 10
11946.41329402727
 20
961.331987307779
 10
11946.41319385682
 20
961.3320874782333
 10
11946.41289334545
 20
961.3317869668705
 10
11946.41259283409
 20
961.3320874782333
 10
11946.41249266364
 20
961.331987307779
 10
11946.41028891364
 20
961.331987307779
 10
11946.41018874319
 20
961.3320874782333
 10
11946.40988823183
 20
961.3317869668705
 10
11946.40958772046
 20
961.3320874782333
 10
11946.40948755001
 20
961.331987307779
 10
11946.40728380002
 20
961.331987307779
 10
11946.40718362956
 20
961.3320874782333
 10
11946.4068831182
 20
961.3317869668705
 10
11946.40658260684
 20
961.3320874782333
 10
11946.40648243638
 20
961.331987307779
 10
11946.40427868639
 20
961.331987307779
 10
11946.40417851593
 20
961.3320874782333
 10
11946.40387800457
 20
961.3317869668705
 10
11946.40357749321
 20
961.3320874782333
 10
11946.40347732275
 20
961.331987307779
 10
11946.40260795685
 20
961.331987307779
 42
-0.4142140000000001
 10
11946.40110389598
 20
961.3334913686541
 10
11946.40110389598
 20
961.336994326432
 42
-0.4142140000000001
 10
11946.40260795685
 20
961.338498387307
 10
11946.40347732275
 20
961.338498387307
 10
11946.40357749321
 20
961.3383982168526
 10
11946.40387800457
 20
961.3386987282154
 10
11946.40417851593
 20
961.3383982168526
 10
11946.40427868639
 20
961.338498387307
 10
11946.40648243638
 20
961.338498387307
 10
11946.40658260684
 20
961.3383982168526
 10
11946.4068831182
 20
961.3386987282154
  0
LWPOLYLINE
  5
3686
330
1F
100
AcDbEntity
  8
SANINDUSA
100
AcDbPolyline
 90
       34
 70
     1
 43
0.0
 10
11946.36440254183
 20
961.3254464812694
 10
11946.36440254183
 20
961.3326925345161
 42
-0.580626
 10
11946.36470505326
 20
961.3328652154107
 42
0.35562
 10
11946.36814804112
 20
961.3333853383787
 42
0.8476239999999998
 10
11946.36741626136
 20
961.334135356717
 42
0.9277429999999998
 10
11946.36694993832
 20
961.3337579109691
 42
-0.266788
 10
11946.36525175466
 20
961.3337651465046
 42
0.9153349999999999
 10
11946.36479432629
 20
961.3341523078172
 42
-0.362743
 10
11946.36480363944
 20
961.3363380171024
 42
0.9153349999999999
 10
11946.36526435
 20
961.3367212651827
 42
-0.266788
 10
11946.36696253366
 20
961.3367140296473
 42
0.9277429999999998
 10
11946.36742562398
 20
961.3363326238744
 42
0.8476239999999998
 10
11946.36816376892
 20
961.3370763786347
 42
0.358022
 10
11946.36470505326
 20
961.337613960741
 42
-0.580626
 10
11946.36440254183
 20
961.3377866429729
 10
11946.36440254183
 20
961.3450326962194
 42
-0.4142140000000001
 10
11946.36460308328
 20
961.3452332376693
 10
11946.39367370022
 20
961.3452332376693
 42
-0.6584750000000001
 10
11946.3938192746
 20
961.344894765147
 42
0.113179
 10
11946.39063067356
 20
961.3394905019575
 42
-0.326721
 10
11946.3904395482
 20
961.3393506884694
 10
11946.38621071193
 20
961.3393506884694
 42
0.236668
 10
11946.38580894719
 20
961.3391492352244
 10
11946.38499593744
 20
961.3380600758921
 42
-0.31539
 10
11946.38444961039
 20
961.3378799174752
 42
1.345489999999999
 10
11946.38444961039
 20
961.3325992600136
 42
-0.31539
 10
11946.38499593744
 20
961.3324191002599
 10
11946.38580894719
 20
961.3313299422646
 42
0.236668
 10
11946.38621071193
 20
961.3311284890194
 10
11946.3904395482
 20
961.3311284890194
 42
-0.326721
 10
11946.39063067356
 20
961.3309886741943
 42
0.113179
 10
11946.3938192746
 20
961.3255844123418
 42
-0.6584750000000001
 10
11946.39367370022
 20
961.3252459398195
 10
11946.36460308328
 20
961.3252459398195
 42
-0.4142140000000001
  0
LWPOLYLINE
  5
3687
330
1F
100
AcDbEntity
  8
SANINDUSA
100
AcDbPolyline
 90
       40
 70
     1
 43
0.0
 10
11946.38449731519
 20
961.3337579109691
 42
-0.9823030000000001
 10
11946.38498570315
 20
961.3341090710806
 10
11946.38640195093
 20
961.332211776498
 42
0.236668
 10
11946.38656265683
 20
961.3321311962694
 10
11946.38826697438
 20
961.3321311962694
 42
0.4142140000000001
 10
11946.38846751583
 20
961.3323317377194
 10
11946.38846751583
 20
961.3327328206194
 42
-1.0
 10
11946.38947022308
 20
961.3327328206194
 10
11946.38947022308
 20
961.3323317377194
 42
0.4142140000000001
 10
11946.38967076453
 20
961.3321311962694
 10
11946.39096310444
 20
961.3321311962694
 42
-0.337188
 10
11946.39144630372
 20
961.3317635369444
 42
0.155554
 10
11946.3957766768
 20
961.3251332890023
 42
-0.705638
 10
11946.39546003121
 20
961.3242432325694
 10
11946.35938900558
 20
961.3242432325694
 42
-1.0
 10
11946.35938900558
 20
961.3252459398195
 10
11946.36319929313
 20
961.3252459398195
 42
0.4142140000000001
 10
11946.36339983458
 20
961.3254464812694
 10
11946.36339983458
 20
961.3450326962194
 42
0.4142140000000001
 10
11946.36319929313
 20
961.3452332376693
 10
11946.35938900558
 20
961.3452332376693
 42
-1.0
 10
11946.35938900558
 20
961.3462359449195
 10
11946.39546003121
 20
961.3462359449195
 42
-0.705638
 10
11946.3957766768
 20
961.3453458871497
 42
0.155554
 10
11946.39144630372
 20
961.3387156405444
 42
-0.337188
 10
11946.39096310444
 20
961.3383479812195
 10
11946.38967076453
 20
961.3383479812195
 42
0.4142140000000001
 10
11946.38947022308
 20
961.3381474397694
 10
11946.38947022308
 20
961.3377463568694
 42
-1.0
 10
11946.38846751583
 20
961.3377463568694
 10
11946.38846751583
 20
961.3381474397694
 42
0.4142140000000001
 10
11946.38826697438
 20
961.3383479812195
 10
11946.38656265683
 20
961.3383479812195
 42
0.236668
 10
11946.38640195093
 20
961.338267399654
 10
11946.38498758021
 20
961.3363489974153
 42
-0.962241
 10
11946.38450991053
 20
961.3367140296473
 42
0.266788
 10
11946.38281172687
 20
961.3367212651827
 42
-0.9153349999999999
 10
11946.38235101632
 20
961.3363380171024
 42
0.362743
 10
11946.38234170317
 20
961.3341523078172
 42
-0.9153349999999999
 10
11946.38279913153
 20
961.3337651465046
 42
0.266788
  0
LWPOLYLINE
  5
3688
330
1F
100
AcDbEntity
  8
SANINDUSA
100
AcDbPolyline
 90
       82
 70
     0
 43
0.0
 10
11946.35788496744
 20
961.3229358507162
 42
-0.290181
 10
11946.3561611158
 20
961.3202156583584
 42
0.290181
 10
11946.35587955294
 20
961.3197713601127
 10
11946.35587955294
 20
961.3197491962718
 42
0.549295
 10
11946.35657944928
 20
961.3193043365102
 42
0.187401
 10
11946.35858439719
 20
961.3214058772118
 42
-0.407685
 10
11946.36116155804
 20
961.3225112910971
 42
0.063888
 10
11946.37231254103
 20
961.3197655043025
 42
0.447961
 10
11946.37242420117
 20
961.3198651252732
 10
11946.37242420117
 20
961.3201659387852
 42
-0.4142140000000001
 10
11946.37252447189
 20
961.3202662095101
 10
11946.38235100294
 20
961.3202662095101
 42
-0.4142140000000001
 10
11946.38245127367
 20
961.3201659387852
 10
11946.38245127367
 20
961.3198651199255
 42
0.447961
 10
11946.38256293381
 20
961.3197654989548
 42
0.07583
 10
11946.39569528772
 20
961.3233322262399
 42
0.296841
 10
11946.39598780951
 20
961.3237815353476
 10
11946.39598780951
 20
961.3237854459059
 42
0.4142140000000001
 10
11946.39549648296
 20
961.3242767724583
 10
11946.38846753856
 20
961.3242767724583
 42
1.0
 10
11946.38846753856
 20
961.3232740652085
 10
11946.3917479956
 20
961.3232740652085
 42
-0.846441
 10
11946.39181334003
 20
961.3228839265239
 42
-0.04816
 10
11946.38356818393
 20
961.3209041813295
 42
-0.455659
 10
11946.38345398092
 20
961.3210034787599
 10
11946.38345398092
 20
961.3211686460351
 42
0.4142140000000001
 10
11946.38335371019
 20
961.3212689167601
 10
11946.38114775425
 20
961.3212689167601
 42
-0.4142140000000001
 10
11946.3809472128
 20
961.3214694582101
 10
11946.38094723419
 20
961.3230735237584
 42
-0.4142140000000001
 10
11946.38114777564
 20
961.3232740652085
 10
11946.38245129506
 20
961.3232740652085
 42
1.0
 10
11946.38245129506
 20
961.3242767724583
 10
11946.37844046606
 20
961.3242767724583
 42
1.0
 10
11946.37844046606
 20
961.3232740652085
 10
11946.37974398549
 20
961.3232740652085
 42
-0.4142140000000001
 10
11946.37994452694
 20
961.3230735237584
 10
11946.37994452694
 20
961.3214694582101
 42
-0.4142140000000001
 10
11946.37974398549
 20
961.3212689167601
 10
11946.37152176465
 20
961.3212689167601
 42
0.4142140000000001
 10
11946.37142149392
 20
961.3211686460351
 10
11946.37142149392
 20
961.3210034854446
 42
-0.455659
 10
11946.37130728958
 20
961.3209041880141
 42
-0.012812
 10
11946.36907728737
 20
961.3212755760732
 42
-0.359414
 10
11946.36891474719
 20
961.3214724837121
 10
11946.36891474719
 20
961.3230735237584
 42
-0.4142140000000001
 10
11946.36911528864
 20
961.3232740652085
 10
11946.37092016169
 20
961.3232740652085
 42
1.0
 10
11946.37092016169
 20
961.3242767724583
 10
11946.36841339356
 20
961.3242767724583
 42
0.4142140000000001
 10
11946.36791203994
 20
961.3237754188334
 10
11946.36791203994
 20
961.3217672649373
 42
-0.48124
 10
11946.36766708658
 20
961.321571702263
 42
-0.036447
 10
11946.36152325192
 20
961.3234464907472
 42
0.203565
 10
11946.35917256654
 20
961.3233698170661
 42
-0.547941
 10
11946.35888765196
 20
961.3235517455958
 10
11946.35888765196
 20
961.3461368453565
 42
-0.414223
 10
11946.35908820009
 20
961.3463373868066
 10
11946.39548643851
 20
961.346336154145
 42
1.0
 10
11946.39548647327
 20
961.347338861395
 10
11946.35908818672
 20
961.3473400940565
 42
-0.414204
 10
11946.35888765196
 20
961.3475406355066
 10
11946.35888765196
 20
961.3476728712017
 42
0.29091
 10
11946.35657942522
 20
961.3513043840706
 42
0.549295
 10
11946.35587953021
 20
961.3508595243089
 10
11946.35587953021
 20
961.3508373618049
 42
0.290181
 10
11946.35616109308
 20
961.3503930635594
 42
-0.290181
 10
11946.35788494471
 20
961.3476728712017
 10
11946.35788494471
 20
961.3473401341648
 10
11946.35788494471
 20
961.3435295417918
 42
-0.4142140000000001
 10
11946.35768440326
 20
961.3433290003417
 10
11946.35688225751
 20
961.3433290003417
 42
1.0
 10
11946.35688225751
 20
961.3423262930918
 10
11946.35768440326
 20
961.3423262930918
 42
-0.4142140000000001
 10
11946.35788494471
 20
961.3421257516417
 10
11946.35788494471
 20
961.3284884062862
 42
-0.4142140000000001
 10
11946.35768440326
 20
961.3282878648362
 10
11946.35688225751
 20
961.3282878648362
 42
1.0
 10
11946.35688225751
 20
961.3272851575862
 10
11946.35768440326
 20
961.3272851575862
 42
-0.4142140000000001
 10
11946.35788494471
 20
961.3270846161363
 10
11946.35788494471
 20
961.3229240160967
  0
LWPOLYLINE
  5
3689
330
1F
100
AcDbEntity
  8
SANINDUSA
100
AcDbPolyline
 90
        8
 70
     1
 43
0.0
 10
11946.39253940436
 20
961.336395960212
 42
-0.774767
 10
11946.41461208462
 20
961.3397838686969
 42
-0.538397
 10
11946.41442774825
 20
961.3395043526871
 10
11946.40260795685
 20
961.3395043526871
 42
0.4142140000000001
 10
11946.40010118872
 20
961.3369975845619
 10
11946.40010118872
 20
961.3363458248496
 42
-0.4142140000000001
 10
11946.3995998351
 20
961.3358444712245
 10
11946.39303824453
 20
961.3358444712245
 42
-0.443866
  0
LWPOLYLINE
  5
368A
330
1F
100
AcDbEntity
  8
SANINDUSA
100
AcDbPolyline
 90
       25
 70
     1
 43
0.0
 10
11946.96893876585
 20
961.3324001985596
 42
-0.155972
 10
11946.96809877526
 20
961.3309460631469
 42
-0.8476239999999998
 10
11946.96734883179
 20
961.3316777693771
 42
-0.9277429999999998
 10
11946.9677262401
 20
961.3321440456287
 42
0.266788
 10
11946.96771900457
 20
961.3338420594985
 42
-0.9153349999999999
 10
11946.96733188203
 20
961.3342994424051
 42
0.362743
 10
11946.965146392
 20
961.3342901305971
 42
-0.9153349999999999
 10
11946.96476318136
 20
961.3338294654955
 42
0.266788
 10
11946.96477041689
 20
961.3321314516255
 42
-0.9277429999999998
 10
11946.96515178523
 20
961.3316684081022
 42
-0.8476239999999998
 10
11946.964408104
 20
961.3309303366866
 42
-0.068567
 10
11946.96392041928
 20
961.3315036338882
 42
0.449667
 10
11946.96362410191
 20
961.3315507490964
 42
-0.173581
 10
11946.96203334028
 20
961.3309813410621
 10
11946.95042213471
 20
961.3309813410621
 42
0.5903850000000001
 10
11946.95025248868
 20
961.3306738535305
 42
0.181456
 10
11946.96119604363
 20
961.3223664507032
 42
0.072703
 10
11946.96125344795
 20
961.3223580587119
 10
11946.97512522091
 20
961.3223580587119
 42
0.06939
 10
11946.97518008638
 20
961.3223657100368
 42
0.130293
 10
11946.98644420817
 20
961.3290603625342
 42
0.664579
 10
11946.98630099618
 20
961.3294012870099
 10
11946.97425728019
 20
961.3294012870099
 42
-0.185339
 10
11946.97157351285
 20
961.3304314884928
 10
11946.96926890521
 20
961.3325065670816
 42
0.5757060000000001
  0
ARC
  5
368B
330
1F
100
AcDbEntity
  8
SANINDUSA
100
AcDbCircle
 10
11946.96818480487
 20
961.346959237767
 30
0.0
 40
0.026571742125
100
AcDbArc
 50
281.0497759843311
 51
320.5837290176719
  0
ARC
  5
368C
330
1F
100
AcDbEntity
  8
SANINDUSA
100
AcDbCircle
 10
11946.96679286805
 20
961.3411011024833
 30
0.0
 40
0.020555498625
100
AcDbArc
 50
208.6607130045285
 51
259.4073419945581
  0
LINE
  5
368D
330
1F
100
AcDbEntity
  8
SANINDUSA
100
AcDbLine
 10
11946.96371069571
 20
961.3388604769273
 30
0.0
 11
11946.97224445502
 21
961.3311766457062
 31
0.0
  0
LINE
  5
368E
330
1F
100
AcDbEntity
  8
SANINDUSA
100
AcDbLine
 10
11946.96353740115
 20
961.3334881091869
 30
0.0
 11
11946.96353740115
 21
961.3369975845619
 31
0.0
  0
LINE
  5
368F
330
1F
100
AcDbEntity
  8
SANINDUSA
100
AcDbLine
 10
11946.95200593755
 20
961.3383975751199
 30
0.0
 11
11946.9517054556
 21
961.3386980557331
 31
0.0
  0
LINE
  5
3690
330
1F
100
AcDbEntity
  8
SANINDUSA
100
AcDbLine
 10
11946.9517054556
 20
961.3386980557331
 30
0.0
 11
11946.95140497499
 21
961.3383975751199
 31
0.0
  0
LINE
  5
3691
330
1F
100
AcDbEntity
  8
SANINDUSA
100
AcDbLine
 10
11946.95771508257
 20
961.3386980557331
 30
0.0
 11
11946.95741460062
 21
961.3383975751199
 31
0.0
  0
LINE
  5
3692
330
1F
100
AcDbEntity
  8
SANINDUSA
100
AcDbLine
 10
11946.95801556319
 20
961.3383975751199
 30
0.0
 11
11946.95771508257
 21
961.3386980557331
 31
0.0
  0
LINE
  5
3693
330
1F
100
AcDbEntity
  8
SANINDUSA
100
AcDbLine
 10
11946.95471026842
 20
961.3386980557331
 30
0.0
 11
11946.95440978781
 21
961.3383975751199
 31
0.0
  0
LINE
  5
3694
330
1F
100
AcDbEntity
  8
SANINDUSA
100
AcDbLine
 10
11946.95501075037
 20
961.3383975751199
 30
0.0
 11
11946.95471026842
 21
961.3386980557331
 31
0.0
  0
LINE
  5
3695
330
1F
100
AcDbEntity
  8
SANINDUSA
100
AcDbLine
 10
11946.96071989539
 20
961.3386980557331
 30
0.0
 11
11946.96041941344
 21
961.3383975751199
 31
0.0
  0
LINE
  5
3696
330
1F
100
AcDbEntity
  8
SANINDUSA
100
AcDbLine
 10
11946.961020376
 20
961.3383975751199
 30
0.0
 11
11946.96071989539
 21
961.3386980557331
 31
0.0
  0
LINE
  5
3697
330
1F
100
AcDbEntity
  8
SANINDUSA
100
AcDbLine
 10
11946.94919868748
 20
961.3395043526871
 30
0.0
 11
11946.96203334028
 21
961.3395043526871
 31
0.0
  0
LINE
  5
3698
330
1F
100
AcDbEntity
  8
SANINDUSA
100
AcDbLine
 10
11946.95140497499
 20
961.3383975751199
 30
0.0
 11
11946.95130090334
 21
961.3385016454371
 31
0.0
  0
LINE
  5
3699
330
1F
100
AcDbEntity
  8
SANINDUSA
100
AcDbLine
 10
11946.94919868748
 20
961.3385016454371
 30
0.0
 11
11946.95130090334
 21
961.3385016454371
 31
0.0
  0
LINE
  5
369A
330
1F
100
AcDbEntity
  8
SANINDUSA
100
AcDbLine
 10
11946.95210609731
 20
961.3384977348786
 30
0.0
 11
11946.95200593755
 21
961.3383975751199
 31
0.0
  0
LINE
  5
369B
330
1F
100
AcDbEntity
  8
SANINDUSA
100
AcDbLine
 10
11946.95511091013
 20
961.3384977348786
 30
0.0
 11
11946.95731443953
 21
961.3384977348786
 31
0.0
  0
LINE
  5
369C
330
1F
100
AcDbEntity
  8
SANINDUSA
100
AcDbLine
 10
11946.95741460062
 20
961.3383975751199
 30
0.0
 11
11946.95731443953
 21
961.3384977348786
 31
0.0
  0
LINE
  5
369D
330
1F
100
AcDbEntity
  8
SANINDUSA
100
AcDbLine
 10
11946.95440978781
 20
961.3383975751199
 30
0.0
 11
11946.95430962671
 21
961.3384977348786
 31
0.0
  0
LINE
  5
369E
330
1F
100
AcDbEntity
  8
SANINDUSA
100
AcDbLine
 10
11946.95511091013
 20
961.3384977348786
 30
0.0
 11
11946.95501075037
 21
961.3383975751199
 31
0.0
  0
LINE
  5
369F
330
1F
100
AcDbEntity
  8
SANINDUSA
100
AcDbLine
 10
11946.95430962671
 20
961.3384977348786
 30
0.0
 11
11946.95210609731
 21
961.3384977348786
 31
0.0
  0
LINE
  5
36A0
330
1F
100
AcDbEntity
  8
SANINDUSA
100
AcDbLine
 10
11946.95811572428
 20
961.3384977348786
 30
0.0
 11
11946.95801556319
 21
961.3383975751199
 31
0.0
  0
LINE
  5
36A1
330
1F
100
AcDbEntity
  8
SANINDUSA
100
AcDbLine
 10
11946.96041941344
 20
961.3383975751199
 30
0.0
 11
11946.96031925368
 21
961.3384977348786
 31
0.0
  0
LINE
  5
36A2
330
1F
100
AcDbEntity
  8
SANINDUSA
100
AcDbLine
 10
11946.9611205371
 20
961.3384977348786
 30
0.0
 11
11946.961020376
 21
961.3383975751199
 31
0.0
  0
LINE
  5
36A3
330
1F
100
AcDbEntity
  8
SANINDUSA
100
AcDbLine
 10
11946.9611205371
 20
961.3384977348786
 30
0.0
 11
11946.96203334028
 21
961.3385016454371
 31
0.0
  0
LINE
  5
36A4
330
1F
100
AcDbEntity
  8
SANINDUSA
100
AcDbLine
 10
11946.95811572428
 20
961.3384977348786
 30
0.0
 11
11946.96031925368
 21
961.3384977348786
 31
0.0
  0
LINE
  5
36A5
330
1F
100
AcDbEntity
  8
SANINDUSA
100
AcDbLine
 10
11946.95801556319
 20
961.332088118629
 30
0.0
 11
11946.95771508257
 21
961.3317876380159
 31
0.0
  0
LINE
  5
36A6
330
1F
100
AcDbEntity
  8
SANINDUSA
100
AcDbLine
 10
11946.95200593755
 20
961.332088118629
 30
0.0
 11
11946.9517054556
 21
961.3317876380159
 31
0.0
  0
LINE
  5
36A7
330
1F
100
AcDbEntity
  8
SANINDUSA
100
AcDbLine
 10
11946.9517054556
 20
961.3317876380159
 30
0.0
 11
11946.95140497499
 21
961.332088118629
 31
0.0
  0
LINE
  5
36A8
330
1F
100
AcDbEntity
  8
SANINDUSA
100
AcDbLine
 10
11946.95140497499
 20
961.332088118629
 30
0.0
 11
11946.95130090334
 21
961.331984048312
 31
0.0
  0
LINE
  5
36A9
330
1F
100
AcDbEntity
  8
SANINDUSA
100
AcDbLine
 10
11946.94919585182
 20
961.331984048312
 30
0.0
 11
11946.95130090334
 21
961.331984048312
 31
0.0
  0
LINE
  5
36AA
330
1F
100
AcDbEntity
  8
SANINDUSA
100
AcDbLine
 10
11946.95210609731
 20
961.3319879588702
 30
0.0
 11
11946.95200593755
 21
961.332088118629
 31
0.0
  0
LINE
  5
36AB
330
1F
100
AcDbEntity
  8
SANINDUSA
100
AcDbLine
 10
11946.95511091013
 20
961.3319879588702
 30
0.0
 11
11946.95731443953
 21
961.3319879588702
 31
0.0
  0
LINE
  5
36AC
330
1F
100
AcDbEntity
  8
SANINDUSA
100
AcDbLine
 10
11946.95771508257
 20
961.3317876380159
 30
0.0
 11
11946.95741460062
 21
961.332088118629
 31
0.0
  0
LINE
  5
36AD
330
1F
100
AcDbEntity
  8
SANINDUSA
100
AcDbLine
 10
11946.95741460062
 20
961.332088118629
 30
0.0
 11
11946.95731443953
 21
961.3319879588702
 31
0.0
  0
LINE
  5
36AE
330
1F
100
AcDbEntity
  8
SANINDUSA
100
AcDbLine
 10
11946.95471026842
 20
961.3317876380159
 30
0.0
 11
11946.95440978781
 21
961.332088118629
 31
0.0
  0
LINE
  5
36AF
330
1F
100
AcDbEntity
  8
SANINDUSA
100
AcDbLine
 10
11946.95440978781
 20
961.332088118629
 30
0.0
 11
11946.95430962671
 21
961.3319879588702
 31
0.0
  0
LINE
  5
36B0
330
1F
100
AcDbEntity
  8
SANINDUSA
100
AcDbLine
 10
11946.95511091013
 20
961.3319879588702
 30
0.0
 11
11946.95501075037
 21
961.332088118629
 31
0.0
  0
LINE
  5
36B1
330
1F
100
AcDbEntity
  8
SANINDUSA
100
AcDbLine
 10
11946.95501075037
 20
961.332088118629
 30
0.0
 11
11946.95471026842
 21
961.3317876380159
 31
0.0
  0
LINE
  5
36B2
330
1F
100
AcDbEntity
  8
SANINDUSA
100
AcDbLine
 10
11946.95430962671
 20
961.3319879588702
 30
0.0
 11
11946.95210609731
 21
961.3319879588702
 31
0.0
  0
LINE
  5
36B3
330
1F
100
AcDbEntity
  8
SANINDUSA
100
AcDbLine
 10
11946.95811572428
 20
961.3319879588702
 30
0.0
 11
11946.95801556319
 21
961.332088118629
 31
0.0
  0
LINE
  5
36B4
330
1F
100
AcDbEntity
  8
SANINDUSA
100
AcDbLine
 10
11946.96071989539
 20
961.3317876380159
 30
0.0
 11
11946.96041941344
 21
961.332088118629
 31
0.0
  0
LINE
  5
36B5
330
1F
100
AcDbEntity
  8
SANINDUSA
100
AcDbLine
 10
11946.96041941344
 20
961.332088118629
 30
0.0
 11
11946.96031925368
 21
961.3319879588702
 31
0.0
  0
LINE
  5
36B6
330
1F
100
AcDbEntity
  8
SANINDUSA
100
AcDbLine
 10
11946.9611205371
 20
961.3319879588702
 30
0.0
 11
11946.961020376
 21
961.332088118629
 31
0.0
  0
LINE
  5
36B7
330
1F
100
AcDbEntity
  8
SANINDUSA
100
AcDbLine
 10
11946.961020376
 20
961.332088118629
 30
0.0
 11
11946.96071989539
 21
961.3317876380159
 31
0.0
  0
LINE
  5
36B8
330
1F
100
AcDbEntity
  8
SANINDUSA
100
AcDbLine
 10
11946.9611205371
 20
961.3319879588702
 30
0.0
 11
11946.96203334028
 21
961.331984048312
 31
0.0
  0
LINE
  5
36B9
330
1F
100
AcDbEntity
  8
SANINDUSA
100
AcDbLine
 10
11946.95811572428
 20
961.3319879588702
 30
0.0
 11
11946.96031925368
 21
961.3319879588702
 31
0.0
  0
LINE
  5
36BA
330
1F
100
AcDbEntity
  8
SANINDUSA
100
AcDbLine
 10
11946.97425728019
 20
961.3304039942599
 30
0.0
 11
11946.98757977814
 21
961.3304039942599
 31
0.0
  0
ARC
  5
36BB
330
1F
100
AcDbEntity
  8
SANINDUSA
100
AcDbCircle
 10
11946.94919868748
 20
961.339002999062
 30
0.0
 40
0.000501353625
100
AcDbArc
 50
90.0
 51
270.0
  0
ARC
  5
36BC
330
1F
100
AcDbEntity
  8
SANINDUSA
100
AcDbCircle
 10
11946.96203334028
 20
961.3369975845619
 30
0.0
 40
0.001504060875
100
AcDbArc
 50
0.0
 51
90.0
  0
ARC
  5
36BD
330
1F
100
AcDbEntity
  8
SANINDUSA
100
AcDbCircle
 10
11946.96203334028
 20
961.3369975845619
 30
0.0
 40
0.002506768125
100
AcDbArc
 50
48.00000000800887
 51
90.0
  0
ARC
  5
36BE
330
1F
100
AcDbEntity
  8
SANINDUSA
100
AcDbCircle
 10
11946.94919585182
 20
961.331482694687
 30
0.0
 40
0.000501353625
100
AcDbArc
 50
90.0
 51
208.6607130045285
  0
ARC
  5
36BF
330
1F
100
AcDbEntity
  8
SANINDUSA
100
AcDbCircle
 10
11946.96203334028
 20
961.3334881091869
 30
0.0
 40
0.001504060875
100
AcDbArc
 50
270.0
 51
0.0
  0
ARC
  5
36C0
330
1F
100
AcDbEntity
  8
SANINDUSA
100
AcDbCircle
 10
11946.97425728019
 20
961.33341211601
 30
0.0
 40
0.00300812175
100
AcDbArc
 50
228.0000000080089
 51
270.0
  0
ARC
  5
36C1
330
1F
100
AcDbEntity
  8
SANINDUSA
100
AcDbCircle
 10
11946.96802676216
 20
961.346924386337
 30
0.0
 40
0.0256693056
100
AcDbArc
 50
320.1500620009003
 51
320.8571310179721
  0
ARC
  5
36C2
330
1F
100
AcDbEntity
  8
SANINDUSA
100
AcDbCircle
 10
11946.98832405431
 20
961.3304039942599
 30
0.0
 40
0.000501353625
100
AcDbArc
 50
320.8571310179721
 51
140.8571310179722
  0
ARC
  5
36C3
330
1F
100
AcDbEntity
  8
SANINDUSA
100
AcDbCircle
 10
11946.98757977814
 20
961.33060453571
 30
0.0
 40
0.00020054145
100
AcDbArc
 50
270.0
 51
320.1500620009003
  0
LINE
  5
36C4
330
1F
100
AcDbEntity
  8
SANINDUSA
100
AcDbLine
 10
11946.97305817601
 20
961.321355351462
 30
0.0
 11
11946.96323164496
 21
961.321355351462
 31
0.0
  0
LINE
  5
36C5
330
1F
100
AcDbEntity
  8
SANINDUSA
100
AcDbLine
 10
11946.96313137424
 20
961.321255080737
 30
0.0
 11
11946.96313137424
 21
961.3209947351528
 31
0.0
  0
LINE
  5
36C6
330
1F
100
AcDbEntity
  8
SANINDUSA
100
AcDbLine
 10
11946.97315844674
 20
961.3209785862183
 30
0.0
 11
11946.97315844674
 21
961.321255080737
 31
0.0
  0
ARC
  5
36C7
330
1F
100
AcDbEntity
  8
SANINDUSA
100
AcDbCircle
 10
11946.96303110351
 20
961.3209947351528
 30
0.0
 40
0.000100270725
100
AcDbArc
 50
260.3210319763835
 51
0.0
  0
ARC
  5
36C8
330
1F
100
AcDbEntity
  8
SANINDUSA
100
AcDbCircle
 10
11946.96323164496
 20
961.321255080737
 30
0.0
 40
0.000100270725
100
AcDbArc
 50
90.0
 51
180.0
  0
ARC
  5
36C9
330
1F
100
AcDbEntity
  8
SANINDUSA
100
AcDbCircle
 10
11946.97325871746
 20
961.3209785862183
 30
0.0
 40
0.000100270725
100
AcDbArc
 50
180.0
 51
280.8486389903544
  0
ARC
  5
36CA
330
1F
100
AcDbEntity
  8
SANINDUSA
100
AcDbCircle
 10
11946.97305817601
 20
961.321255080737
 30
0.0
 40
0.000100270725
100
AcDbArc
 50
0.0
 51
90.0
  0
POINT
  5
36CB
330
1F
100
AcDbEntity
  8
SANINDUSA
100
AcDbPoint
 10
11946.97327758975
 20
961.3208801069969
 30
0.0
 50
270.0
  0
LINE
  5
36CC
330
1F
100
AcDbEntity
  8
SANINDUSA
100
AcDbLine
 10
11946.43998850344
 20
961.3322347251244
 30
0.0
 11
11946.96286474121
 21
961.3322347251244
 31
0.0
  0
LINE
  5
36CD
330
1F
100
AcDbEntity
  8
SANINDUSA
100
AcDbLine
 10
11946.43890803424
 20
961.3382509686244
 30
0.0
 11
11946.96286474121
 21
961.3382509686244
 31
0.0
  0
LINE
  5
36D0
330
1F
100
AcDbEntity
  8
SANINDUSA
100
AcDbLine
 10
11946.35888765196
 20
961.3383152007141
 30
0.0
 11
11946.35788494471
 21
961.3383152007141
 31
0.0
  0
LINE
  5
36D1
330
1F
100
AcDbEntity
  8
SANINDUSA
100
AcDbLine
 10
11946.35888765196
 20
961.3322989572139
 30
0.0
 11
11946.35788494471
 21
961.3322989572139
 31
0.0
  0
LINE
  5
36D4
330
1F
100
AcDbEntity
  8
SANINDUSA
100
AcDbLine
 10
11946.96286474121
 20
961.3322347251244
 30
0.0
 11
11946.96286474121
 21
961.3382509686244
 31
0.0
  0
LINE
  5
36D5
330
1F
100
AcDbEntity
  8
SANINDUSA
100
AcDbLine
 10
11946.97515971805
 20
961.33842565226
 30
0.0
 11
11946.97525998878
 21
961.3383253815349
 31
0.0
  0
LINE
  5
36D6
330
1F
100
AcDbEntity
  8
SANINDUSA
100
AcDbLine
 10
11946.97525998878
 20
961.3383253815349
 30
0.0
 11
11946.97556080095
 21
961.3386261937099
 31
0.0
  0
LINE
  5
36D7
330
1F
100
AcDbEntity
  8
SANINDUSA
100
AcDbLine
 10
11946.97556080095
 20
961.3386261937099
 30
0.0
 11
11946.97586161313
 21
961.3383253815349
 31
0.0
  0
LINE
  5
36D8
330
1F
100
AcDbEntity
  8
SANINDUSA
100
AcDbLine
 10
11946.97586161313
 20
961.3383253815349
 30
0.0
 11
11946.97596188385
 21
961.33842565226
 31
0.0
  0
LINE
  5
36D9
330
1F
100
AcDbEntity
  8
SANINDUSA
100
AcDbLine
 10
11946.97596188385
 20
961.33842565226
 30
0.0
 11
11946.9781678398
 21
961.33842565226
 31
0.0
  0
LINE
  5
36DA
330
1F
100
AcDbEntity
  8
SANINDUSA
100
AcDbLine
 10
11946.9781678398
 20
961.33842565226
 30
0.0
 11
11946.97826811053
 21
961.3383253815349
 31
0.0
  0
LINE
  5
36DB
330
1F
100
AcDbEntity
  8
SANINDUSA
100
AcDbLine
 10
11946.97826811053
 20
961.3383253815349
 30
0.0
 11
11946.9785689227
 21
961.3386261937099
 31
0.0
  0
LINE
  5
36DC
330
1F
100
AcDbEntity
  8
SANINDUSA
100
AcDbLine
 10
11946.9785689227
 20
961.3386261937099
 30
0.0
 11
11946.97886973488
 21
961.3383253815349
 31
0.0
  0
LINE
  5
36DD
330
1F
100
AcDbEntity
  8
SANINDUSA
100
AcDbLine
 10
11946.97886973488
 20
961.3383253815349
 30
0.0
 11
11946.9789700056
 21
961.33842565226
 31
0.0
  0
LINE
  5
36DE
330
1F
100
AcDbEntity
  8
SANINDUSA
100
AcDbLine
 10
11946.9789700056
 20
961.33842565226
 30
0.0
 11
11946.98117596155
 21
961.33842565226
 31
0.0
  0
LINE
  5
36DF
330
1F
100
AcDbEntity
  8
SANINDUSA
100
AcDbLine
 10
11946.98117596155
 20
961.33842565226
 30
0.0
 11
11946.98127623228
 21
961.3383253815349
 31
0.0
  0
LINE
  5
36E0
330
1F
100
AcDbEntity
  8
SANINDUSA
100
AcDbLine
 10
11946.98127623228
 20
961.3383253815349
 30
0.0
 11
11946.98157704445
 21
961.3386261937099
 31
0.0
  0
LINE
  5
36E1
330
1F
100
AcDbEntity
  8
SANINDUSA
100
AcDbLine
 10
11946.98157704445
 20
961.3386261937099
 30
0.0
 11
11946.98187785663
 21
961.3383253815349
 31
0.0
  0
LINE
  5
36E2
330
1F
100
AcDbEntity
  8
SANINDUSA
100
AcDbLine
 10
11946.98187785663
 20
961.3383253815349
 30
0.0
 11
11946.98197812735
 21
961.33842565226
 31
0.0
  0
LINE
  5
36E3
330
1F
100
AcDbEntity
  8
SANINDUSA
100
AcDbLine
 10
11946.98197812735
 20
961.33842565226
 30
0.0
 11
11946.9841840833
 21
961.33842565226
 31
0.0
  0
LINE
  5
36E4
330
1F
100
AcDbEntity
  8
SANINDUSA
100
AcDbLine
 10
11946.9841840833
 20
961.33842565226
 30
0.0
 11
11946.98428435403
 21
961.3383253815349
 31
0.0
  0
LINE
  5
36E5
330
1F
100
AcDbEntity
  8
SANINDUSA
100
AcDbLine
 10
11946.98428435403
 20
961.3383253815349
 30
0.0
 11
11946.9845851662
 21
961.3386261937099
 31
0.0
  0
LINE
  5
36E6
330
1F
100
AcDbEntity
  8
SANINDUSA
100
AcDbLine
 10
11946.9845851662
 20
961.3386261937099
 30
0.0
 11
11946.98488597838
 21
961.3383253815349
 31
0.0
  0
LINE
  5
36E7
330
1F
100
AcDbEntity
  8
SANINDUSA
100
AcDbLine
 10
11946.98488597838
 20
961.3383253815349
 30
0.0
 11
11946.9849862491
 21
961.33842565226
 31
0.0
  0
LINE
  5
36E8
330
1F
100
AcDbEntity
  8
SANINDUSA
100
AcDbLine
 10
11946.9849862491
 20
961.33842565226
 30
0.0
 11
11946.98709193433
 21
961.33842565226
 31
0.0
  0
ARC
  5
36E9
330
1F
100
AcDbEntity
  8
SANINDUSA
100
AcDbCircle
 10
11946.98709193433
 20
961.3389270058849
 30
0.0
 40
0.000501353625
100
AcDbArc
 50
270.0
 51
30.94972301026279
  0
ARC
  5
36EA
330
1F
100
AcDbEntity
  8
SANINDUSA
100
AcDbCircle
 10
11946.95699400905
 20
961.3208782753849
 30
0.0
 40
0.035596107375
100
AcDbArc
 50
30.94972301026279
 51
90.0
  0
ARC
  5
36EB
330
1F
100
AcDbEntity
  8
SANINDUSA
100
AcDbCircle
 10
11946.95699400905
 20
961.3484527247599
 30
0.0
 40
0.008021658
100
AcDbArc
 50
90.0
 51
270.0
  0
LINE
  5
36EC
330
1F
100
AcDbEntity
  8
SANINDUSA
100
AcDbLine
 10
11946.95699400905
 20
961.3404310667599
 30
0.0
 11
11946.96156093013
 21
961.3404310667599
 31
0.0
  0
ARC
  5
36ED
330
1F
100
AcDbEntity
  8
SANINDUSA
100
AcDbCircle
 10
11946.96156093013
 20
961.33742294501
 30
0.0
 40
0.00300812175
100
AcDbArc
 50
48.00000000800887
 51
90.0
  0
LINE
  5
36EE
330
1F
100
AcDbEntity
  8
SANINDUSA
100
AcDbLine
 10
11946.96357375664
 20
961.3396584153136
 30
0.0
 11
11946.9725799261
 21
961.3315492249816
 31
0.0
  0
ARC
  5
36EF
330
1F
100
AcDbEntity
  8
SANINDUSA
100
AcDbCircle
 10
11946.97425728153
 20
961.33341211601
 30
0.0
 40
0.002506768125
100
AcDbArc
 50
228.0000000080089
 51
270.0
  0
LINE
  5
36F0
330
1F
100
AcDbEntity
  8
SANINDUSA
100
AcDbLine
 10
11946.97425728153
 20
961.3309053478849
 30
0.0
 11
11946.98709193433
 21
961.3309053478849
 31
0.0
  0
ARC
  5
36F1
330
1F
100
AcDbEntity
  8
SANINDUSA
100
AcDbCircle
 10
11946.98709193433
 20
961.33140670151
 30
0.0
 40
0.000501353625
100
AcDbArc
 50
270.0
 51
90.0
  0
LINE
  5
36F2
330
1F
100
AcDbEntity
  8
SANINDUSA
100
AcDbLine
 10
11946.98709193433
 20
961.3319080551349
 30
0.0
 11
11946.9849862491
 21
961.3319080551349
 31
0.0
  0
LINE
  5
36F3
330
1F
100
AcDbEntity
  8
SANINDUSA
100
AcDbLine
 10
11946.9849862491
 20
961.3319080551349
 30
0.0
 11
11946.98488597838
 21
961.3320083258599
 31
0.0
  0
LINE
  5
36F4
330
1F
100
AcDbEntity
  8
SANINDUSA
100
AcDbLine
 10
11946.98488597838
 20
961.3320083258599
 30
0.0
 11
11946.9845851662
 21
961.3317075136849
 31
0.0
  0
LINE
  5
36F5
330
1F
100
AcDbEntity
  8
SANINDUSA
100
AcDbLine
 10
11946.9845851662
 20
961.3317075136849
 30
0.0
 11
11946.98428435403
 21
961.3320083258599
 31
0.0
  0
LINE
  5
36F6
330
1F
100
AcDbEntity
  8
SANINDUSA
100
AcDbLine
 10
11946.98428435403
 20
961.3320083258599
 30
0.0
 11
11946.9841840833
 21
961.3319080551349
 31
0.0
  0
LINE
  5
36F7
330
1F
100
AcDbEntity
  8
SANINDUSA
100
AcDbLine
 10
11946.9841840833
 20
961.3319080551349
 30
0.0
 11
11946.98197812735
 21
961.3319080551349
 31
0.0
  0
LINE
  5
36F8
330
1F
100
AcDbEntity
  8
SANINDUSA
100
AcDbLine
 10
11946.98197812735
 20
961.3319080551349
 30
0.0
 11
11946.98187785663
 21
961.3320083258599
 31
0.0
  0
LINE
  5
36F9
330
1F
100
AcDbEntity
  8
SANINDUSA
100
AcDbLine
 10
11946.98187785663
 20
961.3320083258599
 30
0.0
 11
11946.98157704445
 21
961.3317075136849
 31
0.0
  0
LINE
  5
36FA
330
1F
100
AcDbEntity
  8
SANINDUSA
100
AcDbLine
 10
11946.98157704445
 20
961.3317075136849
 30
0.0
 11
11946.98127623228
 21
961.3320083258599
 31
0.0
  0
LINE
  5
36FB
330
1F
100
AcDbEntity
  8
SANINDUSA
100
AcDbLine
 10
11946.98127623228
 20
961.3320083258599
 30
0.0
 11
11946.98117596155
 21
961.3319080551349
 31
0.0
  0
LINE
  5
36FC
330
1F
100
AcDbEntity
  8
SANINDUSA
100
AcDbLine
 10
11946.98117596155
 20
961.3319080551349
 30
0.0
 11
11946.9789700056
 21
961.3319080551349
 31
0.0
  0
LINE
  5
36FD
330
1F
100
AcDbEntity
  8
SANINDUSA
100
AcDbLine
 10
11946.9789700056
 20
961.3319080551349
 30
0.0
 11
11946.97886973488
 21
961.3320083258599
 31
0.0
  0
LINE
  5
36FE
330
1F
100
AcDbEntity
  8
SANINDUSA
100
AcDbLine
 10
11946.97886973488
 20
961.3320083258599
 30
0.0
 11
11946.9785689227
 21
961.3317075136849
 31
0.0
  0
LINE
  5
36FF
330
1F
100
AcDbEntity
  8
SANINDUSA
100
AcDbLine
 10
11946.9785689227
 20
961.3317075136849
 30
0.0
 11
11946.97826811053
 21
961.3320083258599
 31
0.0
  0
LINE
  5
3700
330
1F
100
AcDbEntity
  8
SANINDUSA
100
AcDbLine
 10
11946.97826811053
 20
961.3320083258599
 30
0.0
 11
11946.9781678398
 21
961.3319080551349
 31
0.0
  0
LINE
  5
3701
330
1F
100
AcDbEntity
  8
SANINDUSA
100
AcDbLine
 10
11946.9781678398
 20
961.3319080551349
 30
0.0
 11
11946.97596188385
 21
961.3319080551349
 31
0.0
  0
LINE
  5
3702
330
1F
100
AcDbEntity
  8
SANINDUSA
100
AcDbLine
 10
11946.97596188385
 20
961.3319080551349
 30
0.0
 11
11946.97586161313
 21
961.3320083258599
 31
0.0
  0
LINE
  5
3703
330
1F
100
AcDbEntity
  8
SANINDUSA
100
AcDbLine
 10
11946.97586161313
 20
961.3320083258599
 30
0.0
 11
11946.97556080095
 21
961.3317075136849
 31
0.0
  0
LINE
  5
3704
330
1F
100
AcDbEntity
  8
SANINDUSA
100
AcDbLine
 10
11946.97556080095
 20
961.3317075136849
 30
0.0
 11
11946.97525998878
 21
961.3320083258599
 31
0.0
  0
LINE
  5
3705
330
1F
100
AcDbEntity
  8
SANINDUSA
100
AcDbLine
 10
11946.97525998878
 20
961.3320083258599
 30
0.0
 11
11946.97515971805
 21
961.3319080551349
 31
0.0
  0
LINE
  5
3706
330
1F
100
AcDbEntity
  8
SANINDUSA
100
AcDbLine
 10
11946.97515971805
 20
961.3319080551349
 30
0.0
 11
11946.97425728153
 21
961.3319080551349
 31
0.0
  0
ARC
  5
3707
330
1F
100
AcDbEntity
  8
SANINDUSA
100
AcDbCircle
 10
11946.97425728153
 20
961.33341211601
 30
0.0
 40
0.001504060875
100
AcDbArc
 50
180.0
 51
270.0
  0
LINE
  5
3708
330
1F
100
AcDbEntity
  8
SANINDUSA
100
AcDbLine
 10
11946.97275322065
 20
961.33341211601
 30
0.0
 11
11946.97275322065
 21
961.336921591385
 31
0.0
  0
ARC
  5
3709
330
1F
100
AcDbEntity
  8
SANINDUSA
100
AcDbCircle
 10
11946.97425728153
 20
961.336921591385
 30
0.0
 40
0.001504060875
100
AcDbArc
 50
90.0
 51
180.0
  0
LINE
  5
370A
330
1F
100
AcDbEntity
  8
SANINDUSA
100
AcDbLine
 10
11946.97425728153
 20
961.33842565226
 30
0.0
 11
11946.97515971805
 21
961.33842565226
 31
0.0
  0
LINE
  5
370B
330
1F
100
AcDbEntity
  8
SANINDUSA
100
AcDbLine
 10
11946.98582598434
 20
961.3394283595098
 30
0.0
 11
11946.97425728153
 21
961.3394283595098
 31
0.0
  0
ARC
  5
370C
330
1F
100
AcDbEntity
  8
SANINDUSA
100
AcDbCircle
 10
11946.97425728153
 20
961.336921591385
 30
0.0
 40
0.002506768125
100
AcDbArc
 50
90.0
 51
180.0
  0
LINE
  5
370D
330
1F
100
AcDbEntity
  8
SANINDUSA
100
AcDbLine
 10
11946.9717505134
 20
961.336921591385
 30
0.0
 11
11946.9717505134
 21
961.3340957310633
 31
0.0
  0
ARC
  5
370E
330
1F
100
AcDbEntity
  8
SANINDUSA
100
AcDbCircle
 10
11946.97154997195
 20
961.3340957310633
 30
0.0
 40
0.00020054145
100
AcDbArc
 50
228.0000000080089
 51
0.0
  0
LINE
  5
370F
330
1F
100
AcDbEntity
  8
SANINDUSA
100
AcDbLine
 10
11946.97141578298
 20
961.3339466993531
 30
0.0
 11
11946.96424469882
 21
961.3404035725272
 31
0.0
  0
ARC
  5
3710
330
1F
100
AcDbEntity
  8
SANINDUSA
100
AcDbCircle
 10
11946.96156093013
 20
961.33742294501
 30
0.0
 40
0.004010829
100
AcDbArc
 50
48.00000000800887
 51
90.0
  0
LINE
  5
3711
330
1F
100
AcDbEntity
  8
SANINDUSA
100
AcDbLine
 10
11946.96156093013
 20
961.3414337740099
 30
0.0
 11
11946.95699400905
 21
961.3414337740099
 31
0.0
  0
ARC
  5
3712
330
1F
100
AcDbEntity
  8
SANINDUSA
100
AcDbCircle
 10
11946.95699400905
 20
961.3484527247599
 30
0.0
 40
0.00701895075
100
AcDbArc
 50
90.0
 51
270.0
  0
ARC
  5
3713
330
1F
100
AcDbEntity
  8
SANINDUSA
100
AcDbCircle
 10
11946.95699400905
 20
961.3208782753849
 30
0.0
 40
0.034593400125
100
AcDbArc
 50
33.03761502599947
 51
90.0
  0
ARC
  5
3714
330
1F
100
AcDbEntity
  8
SANINDUSA
100
AcDbCircle
 10
11946.98582598434
 20
961.33962890096
 30
0.0
 40
0.00020054145
100
AcDbArc
 50
270.0
 51
33.03761502599947
  0
POINT
  5
3715
330
1F
100
AcDbEntity
  8
SANINDUSA
100
AcDbPoint
 10
11946.95699400905
 20
961.3404310667599
 30
0.0
 50
89.99999999999998
  0
CIRCLE
  5
3716
330
1F
100
AcDbEntity
  8
SANINDUSA
100
AcDbCircle
 10
11946.95699400905
 20
961.3484527247599
 30
0.0
 40
0.00157113530531
  0
LINE
  5
3717
330
1F
100
AcDbEntity
  8
SANINDUSA
100
AcDbLine
 10
11947.53582540793
 20
961.3322347251244
 30
0.0
 11
11947.53582540793
 21
961.3382509686244
 31
0.0
  0
LINE
  5
3718
330
1F
100
AcDbEntity
  8
SANINDUSA
100
AcDbLine
 10
11946.97355375095
 20
961.3322347251244
 30
0.0
 11
11947.53582540793
 21
961.3322347251244
 31
0.0
  0
LINE
  5
3719
330
1F
100
AcDbEntity
  8
SANINDUSA
100
AcDbLine
 10
11946.97355375095
 20
961.3382509686244
 30
0.0
 11
11947.53582540793
 21
961.3382509686244
 31
0.0
  0
LINE
  5
371A
330
1F
100
AcDbEntity
  8
SANINDUSA
100
AcDbLine
 10
11946.97355375095
 20
961.3382509686244
 30
0.0
 11
11946.97355375095
 21
961.3322347251244
 31
0.0
  0
CIRCLE
  5
375C
330
1F
100
AcDbEntity
  8
SANINDUSA
 48
3.0
100
AcDbCircle
 10
11946.95699400905
 20
961.3484527247599
 30
0.0
 40
0.00157113530531
  0
CIRCLE
  5
37A2
330
1F
100
AcDbEntity
  8
SANINDUSA
 48
3.0
100
AcDbCircle
 10
11946.95699400905
 20
961.3484527247599
 30
0.0
 40
0.00157113530531
  0
ENDSEC
  0
SECTION
  2
OBJECTS
  0
DICTIONARY
  5
C
330
0
100
AcDbDictionary
281
     1
  3
ACAD_BACKGROUND
350
3A5C
  3
ACAD_COLOR
350
16A7
  3
ACAD_GROUP
350
D
  3
ACAD_LAYOUT
350
1A
  3
ACAD_MATERIAL
350
16A6
  3
ACAD_MLEADERSTYLE
350
2CB2
  3
ACAD_MLINESTYLE
350
17
  3
ACAD_PLOTSETTINGS
350
19
  3
ACAD_PLOTSTYLENAME
350
E
  3
ACAD_SCALELIST
350
2CA0
  3
ACAD_TABLESTYLE
350
16A8
  3
ACAD_VISUALSTYLE
350
2C8C
  3
ACDB_RECOMPOSE_DATA
350
3AD1
  3
AcDbVariableDictionary
350
3D
  3
AEC_PROPERTY_SET_DEFS
350
3519
  3
ASE_INDEX_DICTIONARY
350
B91
  3
Autodesk_PNP
350
2CBA
  3
DWGPROPS
350
3AD2
  0
DICTIONARY
  5
30F3
330
8
100
AcDbDictionary
280
     1
281
     1
  0
DICTIONARY
  5
30D1
330
10
100
AcDbDictionary
280
     1
281
     1
  3
ADSK_XREC_LAYER_RECONCILED
360
30D2
  0
DICTIONARY
  5
30D3
330
2F
100
AcDbDictionary
280
     1
281
     1
  3
ADSK_XREC_LAYER_RECONCILED
360
30D4
  0
DICTIONARY
  5
30D5
330
30
100
AcDbDictionary
280
     1
281
     1
  3
ADSK_XREC_LAYER_RECONCILED
360
30D6
  0
DICTIONARY
  5
30D7
330
31
100
AcDbDictionary
280
     1
281
     1
  3
ADSK_XREC_LAYER_RECONCILED
360
30D8
  0
DICTIONARY
  5
30D9
330
32
100
AcDbDictionary
280
     1
281
     1
  3
ADSK_XREC_LAYER_RECONCILED
360
30DA
  0
DICTIONARY
  5
30DB
330
33
100
AcDbDictionary
280
     1
281
     1
  3
ADSK_XREC_LAYER_RECONCILED
360
30DC
  0
DICTIONARY
  5
30DD
330
34
100
AcDbDictionary
280
     1
281
     1
  3
ADSK_XREC_LAYER_RECONCILED
360
30DE
  0
DICTIONARY
  5
30DF
330
35
100
AcDbDictionary
280
     1
281
     1
  3
ADSK_XREC_LAYER_RECONCILED
360
30E0
  0
DICTIONARY
  5
30E1
330
36
100
AcDbDictionary
280
     1
281
     1
  3
ADSK_XREC_LAYER_RECONCILED
360
30E2
  0
DICTIONARY
  5
30E3
330
37
100
AcDbDictionary
280
     1
281
     1
  3
ADSK_XREC_LAYER_RECONCILED
360
30E4
  0
DICTIONARY
  5
30E5
330
5D6
100
AcDbDictionary
280
     1
281
     1
  3
ADSK_XREC_LAYER_RECONCILED
360
30E6
  0
DICTIONARY
  5
30E7
330
8AF
100
AcDbDictionary
280
     1
281
     1
  3
ADSK_XREC_LAYER_RECONCILED
360
30E8
  0
DICTIONARY
  5
30E9
330
8F8
100
AcDbDictionary
280
     1
281
     1
  3
ADSK_XREC_LAYER_RECONCILED
360
30EA
  0
DICTIONARY
  5
30EB
330
91D
100
AcDbDictionary
280
     1
281
     1
  3
ADSK_XREC_LAYER_RECONCILED
360
30EC
  0
DICTIONARY
  5
30ED
330
1D70
100
AcDbDictionary
280
     1
281
     1
  3
ADSK_XREC_LAYER_RECONCILED
360
30EE
  0
DICTIONARY
  5
2607
330
1F
100
AcDbDictionary
280
     1
281
     1
  3
ACAD_SORTENTS
360
2608
  0
DICTIONARY
  5
3A5C
102
{ACAD_REACTORS
330
C
102
}
330
C
100
AcDbDictionary
281
     1
  0
DICTIONARY
  5
16A7
102
{ACAD_REACTORS
330
C
102
}
330
C
100
AcDbDictionary
281
     1
  0
DICTIONARY
  5
D
102
{ACAD_REACTORS
330
C
102
}
330
C
100
AcDbDictionary
281
     1
  0
DICTIONARY
  5
1A
102
{ACAD_REACTORS
330
C
102
}
330
C
100
AcDbDictionary
281
     1
  3
Layout1
350
1E
  3
Layout2
350
26
  3
Model
350
22
  0
DICTIONARY
  5
16A6
102
{ACAD_REACTORS
330
C
102
}
330
C
100
AcDbDictionary
281
     1
  3
ByBlock
350
2C7C
  3
ByLayer
350
2C74
  3
Global
350
2C84
  0
DICTIONARY
  5
2CB2
102
{ACAD_REACTORS
330
C
102
}
330
C
100
AcDbDictionary
281
     1
  3
Standard
350
2CB3
  0
DICTIONARY
  5
17
102
{ACAD_REACTORS
330
C
102
}
330
C
100
AcDbDictionary
281
     1
  3
Standard
350
18
  0
DICTIONARY
  5
19
102
{ACAD_REACTORS
330
C
102
}
330
C
100
AcDbDictionary
281
     1
  0
ACDBDICTIONARYWDFLT
  5
E
102
{ACAD_REACTORS
330
C
102
}
330
C
100
AcDbDictionary
281
     1
  3
Normal
350
F
100
AcDbDictionaryWithDefault
340
F
  0
DICTIONARY
  5
2CA0
102
{ACAD_REACTORS
330
C
102
}
330
C
100
AcDbDictionary
281
     1
  3
A0
350
2CA1
  3
A1
350
2CA2
  3
A2
350
2CA3
  3
A3
350
2CA4
  3
A4
350
2CA5
  3
A5
350
2CA6
  3
A6
350
2CA7
  3
A7
350
2CA8
  3
A8
350
2CA9
  3
A9
350
2CAA
  3
B0
350
2CAB
  3
B1
350
2CAC
  3
B2
350
2CAD
  3
B3
350
2CAE
  3
B4
350
2CAF
  3
B5
350
2CB0
  3
B6
350
2CB1
  0
DICTIONARY
  5
16A8
102
{ACAD_REACTORS
330
C
102
}
330
C
100
AcDbDictionary
281
     1
  3
Standard
350
16A9
  0
DICTIONARY
  5
2C8C
102
{ACAD_REACTORS
330
C
102
}
330
C
100
AcDbDictionary
281
     1
  3
2dWireframe
350
2C92
  3
3D Hidden
350
2C94
  3
3dWireframe
350
2C93
  3
Basic
350
2C91
  3
Brighten
350
2C98
  3
ColorChange
350
2C9C
  3
Conceptual
350
2C95
  3
Dim
350
2C97
  3
EdgeColorOff
350
2C9F
  3
Facepattern
350
2C9B
  3
Flat
350
2C8D
  3
FlatWithEdges
350
2C8E
  3
Gouraud
350
2C8F
  3
GouraudWithEdges
350
2C90
  3
JitterOff
350
2C9D
  3
Linepattern
350
2C9A
  3
OverhangOff
350
2C9E
  3
Realistic
350
2C96
  3
Thicken
350
2C99
  0
XRECORD
  5
3AD1
102
{ACAD_REACTORS
330
C
102
}
330
C
100
AcDbXrecord
280
     1
 90
        1
330
16A9
  0
DICTIONARY
  5
3D
102
{ACAD_REACTORS
330
C
102
}
330
C
100
AcDbDictionary
281
     1
  3
CANNOSCALE
350
312D
  3
CMLEADERSTYLE
350
312C
  3
CTABLESTYLE
350
20BB
  3
DIMASSOC
350
3F
  3
HIDETEXT
350
3E
  3
INDEXCTL
350
312F
  3
PROJECTNAME
350
2C59
  3
SORTENTS
350
312E
  3
XCLIPFRAME
350
3ACF
  0
DICTIONARY
  5
3519
102
{ACAD_REACTORS
330
C
102
}
330
C
100
AcDbDictionary
281
     1
  0
DICTIONARY
  5
B91
102
{ACAD_REACTORS
330
C
102
}
330
C
100
AcDbDictionary
281
     1
  3
ASEBlockHierarchyIndexRecord
350
B92
1001
DCO15
1040
1485069952.593
  0
DICTIONARY
  5
2CBA
102
{ACAD_REACTORS
330
C
102
}
330
C
100
AcDbDictionary
281
     1
  0
XRECORD
  5
3AD2
102
{ACAD_REACTORS
330
C
102
}
330
C
100
AcDbXrecord
280
     1
  1
DWGPROPS COOKIE
  2

  3

  4

  6

  7

  8
Julio
  9

300
=
301
=
302
=
303
=
304
=
305
=
306
=
307
=
308
=
309
=
 40
0.1021110069444444
 41
2453388.70675184
 42
2455817.480135625
  1

 90
        0
  0
XRECORD
  5
30D2
102
{ACAD_REACTORS
330
30D1
102
}
330
30D1
100
AcDbXrecord
280
     1
290
     1
  0
XRECORD
  5
30D4
102
{ACAD_REACTORS
330
30D3
102
}
330
30D3
100
AcDbXrecord
280
     1
290
     1
  0
XRECORD
  5
30D6
102
{ACAD_REACTORS
330
30D5
102
}
330
30D5
100
AcDbXrecord
280
     1
290
     1
  0
XRECORD
  5
30D8
102
{ACAD_REACTORS
330
30D7
102
}
330
30D7
100
AcDbXrecord
280
     1
290
     1
  0
XRECORD
  5
30DA
102
{ACAD_REACTORS
330
30D9
102
}
330
30D9
100
AcDbXrecord
280
     1
290
     1
  0
XRECORD
  5
30DC
102
{ACAD_REACTORS
330
30DB
102
}
330
30DB
100
AcDbXrecord
280
     1
290
     1
  0
XRECORD
  5
30DE
102
{ACAD_REACTORS
330
30DD
102
}
330
30DD
100
AcDbXrecord
280
     1
290
     1
  0
XRECORD
  5
30E0
102
{ACAD_REACTORS
330
30DF
102
}
330
30DF
100
AcDbXrecord
280
     1
290
     1
  0
XRECORD
  5
30E2
102
{ACAD_REACTORS
330
30E1
102
}
330
30E1
100
AcDbXrecord
280
     1
290
     1
  0
XRECORD
  5
30E4
102
{ACAD_REACTORS
330
30E3
102
}
330
30E3
100
AcDbXrecord
280
     1
290
     1
  0
XRECORD
  5
30E6
102
{ACAD_REACTORS
330
30E5
102
}
330
30E5
100
AcDbXrecord
280
     1
290
     1
  0
XRECORD
  5
30E8
102
{ACAD_REACTORS
330
30E7
102
}
330
30E7
100
AcDbXrecord
280
     1
290
     1
  0
XRECORD
  5
30EA
102
{ACAD_REACTORS
330
30E9
102
}
330
30E9
100
AcDbXrecord
280
     1
290
     1
  0
XRECORD
  5
30EC
102
{ACAD_REACTORS
330
30EB
102
}
330
30EB
100
AcDbXrecord
280
     1
290
     1
  0
XRECORD
  5
30EE
102
{ACAD_REACTORS
330
30ED
102
}
330
30ED
100
AcDbXrecord
280
     1
290
     1
  0
SORTENTSTABLE
  5
2608
102
{ACAD_REACTORS
330
2607
102
}
330
2607
100
AcDbSortentsTable
330
1F
  0
LAYOUT
  5
1E
102
{ACAD_XDICTIONARY
360
3AD3
102
}
102
{ACAD_REACTORS
330
1A
102
}
330
1A
100
AcDbPlotSettings
  1

  2
Ploter HP500
  4

  6

 40
0.0
 41
0.0
 42
0.0
 43
0.0
 44
0.0
 45
0.0
 46
0.0
 47
0.0
 48
0.0
 49
0.0
140
0.0
141
0.0
142
1.0
143
1.0
 70
   688
 72
     0
 73
     0
 74
     5
  7
monochrome.ctb
 75
    16
147
1.0
148
0.0
149
0.0
100
AcDbLayout
  1
Layout1
 70
     1
 71
     1
 10
0.0
 20
0.0
 11
420.0
 21
297.0
 12
0.0
 22
0.0
 32
0.0
 14
1.000000000000000E+20
 24
1.000000000000000E+20
 34
1.000000000000000E+20
 15
-1.000000000000000E+20
 25
-1.000000000000000E+20
 35
-1.000000000000000E+20
146
0.0
 13
0.0
 23
0.0
 33
0.0
 16
1.0
 26
0.0
 36
0.0
 17
0.0
 27
1.0
 37
0.0
 76
     0
330
1B
  0
LAYOUT
  5
26
102
{ACAD_XDICTIONARY
360
3AD7
102
}
102
{ACAD_REACTORS
330
1A
102
}
330
1A
100
AcDbPlotSettings
  1

  2
Ploter HP500
  4

  6

 40
0.0
 41
0.0
 42
0.0
 43
0.0
 44
0.0
 45
0.0
 46
0.0
 47
0.0
 48
0.0
 49
0.0
140
0.0
141
0.0
142
1.0
143
1.0
 70
   688
 72
     0
 73
     0
 74
     5
  7
monochrome.ctb
 75
    16
147
1.0
148
0.0
149
0.0
100
AcDbLayout
  1
Layout2
 70
     1
 71
     2
 10
0.0
 20
0.0
 11
12.0
 21
9.0
 12
0.0
 22
0.0
 32
0.0
 14
0.0
 24
0.0
 34
0.0
 15
0.0
 25
0.0
 35
0.0
146
0.0
 13
0.0
 23
0.0
 33
0.0
 16
1.0
 26
0.0
 36
0.0
 17
0.0
 27
1.0
 37
0.0
 76
     0
330
23
  0
LAYOUT
  5
22
102
{ACAD_XDICTIONARY
360
3AD5
102
}
102
{ACAD_REACTORS
330
1A
102
}
330
1A
100
AcDbPlotSettings
  1

  2
Ploter HP500
  4
User268
  6

 40
4.995333194732666
 41
16.97565841674804
 42
4.995330810546875
 43
16.97567749023437
 44
209.9733276367187
 45
296.9259948730469
 46
0.0
 47
0.0
 48
0.0
 49
0.0
140
0.0
141
0.0
142
1.0
143
1.0
 70
 11952
 72
     1
 73
     1
 74
     0
  7

 75
     0
147
1.0
148
-427.5957866592534
149
7.362384574453926
100
AcDbLayout
  1
Model
 70
     1
 71
     0
 10
0.0
 20
0.0
 11
12.0
 21
9.0
 12
0.0
 22
0.0
 32
0.0
 14
0.0
 24
0.0
 34
0.0
 15
0.0
 25
0.0
 35
0.0
146
0.0
 13
0.0
 23
0.0
 33
0.0
 16
1.0
 26
0.0
 36
0.0
 17
0.0
 27
1.0
 37
0.0
 76
     0
330
1F
331
2C6B
  0
MATERIAL
  5
2C7C
102
{ACAD_XDICTIONARY
360
2C7D
102
}
102
{ACAD_REACTORS
330
16A6
102
}
330
16A6
100
AcDbMaterial
  1
ByBlock
 72
     0
 43
0.0008202099737533
 43
0.0
 43
0.0
 43
0.0
 43
0.0
 43
0.0008202099737533
 43
0.0
 43
0.0
 43
0.0
 43
0.0
 43
1.0
 43
0.0
 43
0.0
 43
0.0
 43
0.0
 43
1.0
 77
     0
 47
0.0008202099737533
 47
0.0
 47
0.0
 47
0.0
 47
0.0
 47
0.0008202099737533
 47
0.0
 47
0.0
 47
0.0
 47
0.0
 47
1.0
 47
0.0
 47
0.0
 47
0.0
 47
0.0
 47
1.0
171
     0
 49
0.0008202099737533
 49
0.0
 49
0.0
 49
0.0
 49
0.0
 49
0.0008202099737533
 49
0.0
 49
0.0
 49
0.0
 49
0.0
 49
1.0
 49
0.0
 49
0.0
 49
0.0
 49
0.0
 49
1.0
175
     0
142
0.0008202099737533
142
0.0
142
0.0
142
0.0
142
0.0
142
0.0008202099737533
142
0.0
142
0.0
142
0.0
142
0.0
142
1.0
142
0.0
142
0.0
142
0.0
142
0.0
142
1.0
179
     0
144
0.0008202099737533
144
0.0
144
0.0
144
0.0
144
0.0
144
0.0008202099737533
144
0.0
144
0.0
144
0.0
144
0.0
144
1.0
144
0.0
144
0.0
144
0.0
144
0.0
144
1.0
147
0.0008202099737533
147
0.0
147
0.0
147
0.0
147
0.0
147
0.0008202099737533
147
0.0
147
0.0
147
0.0
147
0.0
147
1.0
147
0.0
147
0.0
147
0.0
147
0.0
147
1.0
  0
MATERIAL
  5
2C74
102
{ACAD_XDICTIONARY
360
2C75
102
}
102
{ACAD_REACTORS
330
16A6
102
}
330
16A6
100
AcDbMaterial
  1
ByLayer
 72
     0
 43
0.0008202099737533
 43
0.0
 43
0.0
 43
0.0
 43
0.0
 43
0.0008202099737533
 43
0.0
 43
0.0
 43
0.0
 43
0.0
 43
1.0
 43
0.0
 43
0.0
 43
0.0
 43
0.0
 43
1.0
 77
     0
 47
0.0008202099737533
 47
0.0
 47
0.0
 47
0.0
 47
0.0
 47
0.0008202099737533
 47
0.0
 47
0.0
 47
0.0
 47
0.0
 47
1.0
 47
0.0
 47
0.0
 47
0.0
 47
0.0
 47
1.0
171
     0
 49
0.0008202099737533
 49
0.0
 49
0.0
 49
0.0
 49
0.0
 49
0.0008202099737533
 49
0.0
 49
0.0
 49
0.0
 49
0.0
 49
1.0
 49
0.0
 49
0.0
 49
0.0
 49
0.0
 49
1.0
175
     0
142
0.0008202099737533
142
0.0
142
0.0
142
0.0
142
0.0
142
0.0008202099737533
142
0.0
142
0.0
142
0.0
142
0.0
142
1.0
142
0.0
142
0.0
142
0.0
142
0.0
142
1.0
179
     0
144
0.0008202099737533
144
0.0
144
0.0
144
0.0
144
0.0
144
0.0008202099737533
144
0.0
144
0.0
144
0.0
144
0.0
144
1.0
144
0.0
144
0.0
144
0.0
144
0.0
144
1.0
147
0.0008202099737533
147
0.0
147
0.0
147
0.0
147
0.0
147
0.0008202099737533
147
0.0
147
0.0
147
0.0
147
0.0
147
1.0
147
0.0
147
0.0
147
0.0
147
0.0
147
1.0
  0
MATERIAL
  5
2C84
102
{ACAD_XDICTIONARY
360
2C85
102
}
102
{ACAD_REACTORS
330
16A6
102
}
330
16A6
100
AcDbMaterial
  1
Global
 72
     0
 43
0.0008202099737533
 43
0.0
 43
0.0
 43
0.0
 43
0.0
 43
0.0008202099737533
 43
0.0
 43
0.0
 43
0.0
 43
0.0
 43
1.0
 43
0.0
 43
0.0
 43
0.0
 43
0.0
 43
1.0
 77
     0
 47
0.0008202099737533
 47
0.0
 47
0.0
 47
0.0
 47
0.0
 47
0.0008202099737533
 47
0.0
 47
0.0
 47
0.0
 47
0.0
 47
1.0
 47
0.0
 47
0.0
 47
0.0
 47
0.0
 47
1.0
171
     0
 49
0.0008202099737533
 49
0.0
 49
0.0
 49
0.0
 49
0.0
 49
0.0008202099737533
 49
0.0
 49
0.0
 49
0.0
 49
0.0
 49
1.0
 49
0.0
 49
0.0
 49
0.0
 49
0.0
 49
1.0
175
     0
142
0.0008202099737533
142
0.0
142
0.0
142
0.0
142
0.0
142
0.0008202099737533
142
0.0
142
0.0
142
0.0
142
0.0
142
1.0
142
0.0
142
0.0
142
0.0
142
0.0
142
1.0
179
     0
144
0.0008202099737533
144
0.0
144
0.0
144
0.0
144
0.0
144
0.0008202099737533
144
0.0
144
0.0
144
0.0
144
0.0
144
1.0
144
0.0
144
0.0
144
0.0
144
0.0
144
1.0
147
0.0008202099737533
147
0.0
147
0.0
147
0.0
147
0.0
147
0.0008202099737533
147
0.0
147
0.0
147
0.0
147
0.0
147
1.0
147
0.0
147
0.0
147
0.0
147
0.0
147
1.0
  0
MLEADERSTYLE
  5
2CB3
102
{ACAD_REACTORS
330
2CB2
102
}
330
2CB2
100
AcDbMLeaderStyle
170
     2
171
     1
172
     0
 90
        2
 40
0.0
 41
0.0
173
     1
 91
-1056964608
340
14
 92
       -2
290
     1
 42
2.0
291
     1
 43
0.36
  3
Standard
 44
4.0
300

342
11
174
     1
178
     6
175
     1
176
     0
 93
-1056964608
 45
4.0
292
     0
297
     0
 46
4.0
 94
-1056964608
 47
1.0
 49
1.0
140
1.0
293
     1
141
0.0
294
     1
177
     0
142
1.0
295
     0
296
     0
143
0.125
1001
ACAD_MLEADERVER
1070
     2
  0
MLINESTYLE
  5
18
102
{ACAD_REACTORS
330
17
102
}
330
17
100
AcDbMlineStyle
  2
STANDARD
 70
     0
  3

 62
   256
 51
90.0
 52
90.0
 71
     2
 49
0.5
 62
   256
  6
BYLAYER
 49
-0.5
 62
   256
  6
BYLAYER
  0
ACDBPLACEHOLDER
  5
F
102
{ACAD_REACTORS
330
E
102
}
330
E
  0
SCALE
  5
2CA1
102
{ACAD_REACTORS
330
2CA0
102
}
330
2CA0
100
AcDbScale
 70
     0
300
1:1
140
1.0
141
1.0
290
     1
  0
SCALE
  5
2CA2
102
{ACAD_REACTORS
330
2CA0
102
}
330
2CA0
100
AcDbScale
 70
     0
300
1:2
140
1.0
141
2.0
290
     0
  0
SCALE
  5
2CA3
102
{ACAD_REACTORS
330
2CA0
102
}
330
2CA0
100
AcDbScale
 70
     0
300
1:4
140
1.0
141
4.0
290
     0
  0
SCALE
  5
2CA4
102
{ACAD_REACTORS
330
2CA0
102
}
330
2CA0
100
AcDbScale
 70
     0
300
1:5
140
1.0
141
5.0
290
     0
  0
SCALE
  5
2CA5
102
{ACAD_REACTORS
330
2CA0
102
}
330
2CA0
100
AcDbScale
 70
     0
300
1:8
140
1.0
141
8.0
290
     0
  0
SCALE
  5
2CA6
102
{ACAD_REACTORS
330
2CA0
102
}
330
2CA0
100
AcDbScale
 70
     0
300
1:10
140
1.0
141
10.0
290
     0
  0
SCALE
  5
2CA7
102
{ACAD_REACTORS
330
2CA0
102
}
330
2CA0
100
AcDbScale
 70
     0
300
1:16
140
1.0
141
16.0
290
     0
  0
SCALE
  5
2CA8
102
{ACAD_REACTORS
330
2CA0
102
}
330
2CA0
100
AcDbScale
 70
     0
300
1:20
140
1.0
141
20.0
290
     0
  0
SCALE
  5
2CA9
102
{ACAD_REACTORS
330
2CA0
102
}
330
2CA0
100
AcDbScale
 70
     0
300
1:30
140
1.0
141
30.0
290
     0
  0
SCALE
  5
2CAA
102
{ACAD_REACTORS
330
2CA0
102
}
330
2CA0
100
AcDbScale
 70
     0
300
1:40
140
1.0
141
40.0
290
     0
  0
SCALE
  5
2CAB
102
{ACAD_REACTORS
330
2CA0
102
}
330
2CA0
100
AcDbScale
 70
     0
300
1:50
140
1.0
141
50.0
290
     0
  0
SCALE
  5
2CAC
102
{ACAD_REACTORS
330
2CA0
102
}
330
2CA0
100
AcDbScale
 70
     0
300
1:100
140
1.0
141
100.0
290
     0
  0
SCALE
  5
2CAD
102
{ACAD_REACTORS
330
2CA0
102
}
330
2CA0
100
AcDbScale
 70
     0
300
2:1
140
2.0
141
1.0
290
     0
  0
SCALE
  5
2CAE
102
{ACAD_REACTORS
330
2CA0
102
}
330
2CA0
100
AcDbScale
 70
     0
300
4:1
140
4.0
141
1.0
290
     0
  0
SCALE
  5
2CAF
102
{ACAD_REACTORS
330
2CA0
102
}
330
2CA0
100
AcDbScale
 70
     0
300
8:1
140
8.0
141
1.0
290
     0
  0
SCALE
  5
2CB0
102
{ACAD_REACTORS
330
2CA0
102
}
330
2CA0
100
AcDbScale
 70
     0
300
10:1
140
10.0
141
1.0
290
     0
  0
SCALE
  5
2CB1
102
{ACAD_REACTORS
330
2CA0
102
}
330
2CA0
100
AcDbScale
 70
     0
300
100:1
140
100.0
141
1.0
290
     0
  0
TABLESTYLE
  5
16A9
102
{ACAD_XDICTIONARY
360
30EF
102
}
102
{ACAD_REACTORS
330
16A8
102
}
330
16A8
100
AcDbTableStyle
  3
Standard
 70
     0
 71
     0
 40
1.5
 41
1.5
280
     0
281
     0
  7
Standard
140
4.5
170
     2
 62
     0
 63
     7
283
     0
274
    -2
284
     1
 64
     0
275
    -2
285
     1
 65
     0
276
    -2
286
     1
 66
     0
277
    -2
287
     1
 67
     0
278
    -2
288
     1
 68
     0
279
    -2
289
     1
 69
     0
  7
Standard
140
6.0
170
     5
 62
     0
 63
     7
283
     0
274
    -2
284
     1
 64
     0
275
    -2
285
     1
 65
     0
276
    -2
286
     1
 66
     0
277
    -2
287
     1
 67
     0
278
    -2
288
     1
 68
     0
279
    -2
289
     1
 69
     0
  7
Standard
140
4.5
170
     5
 62
     0
 63
     7
283
     0
274
    -2
284
     1
 64
     0
275
    -2
285
     1
 65
     0
276
    -2
286
     1
 66
     0
277
    -2
287
     1
 67
     0
278
    -2
288
     1
 68
     0
279
    -2
289
     1
 69
     0
  0
VISUALSTYLE
  5
2C92
102
{ACAD_XDICTIONARY
360
3AE7
102
}
102
{ACAD_REACTORS
330
2C8C
102
}
330
2C8C
100
AcDbVisualStyle
  2
2dWireframe
 70
     4
 71
     0
 72
     2
 73
     0
 90
        0
 40
-0.6
 41
-30.0
 62
     5
 63
     7
 74
     1
 91
        4
 64
     7
 65
   257
 75
     1
175
     1
 42
1.0
 92
        0
 66
   257
 43
1.0
 76
     1
 77
     6
 78
     2
 67
     7
 79
     5
170
     0
171
     0
290
     0
174
     0
 93
        1
 44
0.0
173
     0
291
     0
 45
0.0
1001
ACAD
1000
AcDbSavedByObjectVersion
1070
     0
  0
VISUALSTYLE
  5
2C94
102
{ACAD_XDICTIONARY
360
3AEB
102
}
102
{ACAD_REACTORS
330
2C8C
102
}
330
2C8C
100
AcDbVisualStyle
  2
3D Hidden
 70
     6
 71
     1
 72
     2
 73
     2
 90
        0
 40
-0.6
 41
-30.0
 62
     5
 63
     7
 74
     2
 91
        2
 64
     7
 65
   257
 75
     2
175
     1
 42
179.0
 92
        0
 66
   257
 43
1.0
 76
     1
 77
     6
 78
     2
 67
     7
 79
     3
170
     0
171
     0
290
     0
174
     0
 93
        1
 44
0.0
173
     0
291
     0
 45
0.0
1001
ACAD
1000
AcDbSavedByObjectVersion
1070
     0
  0
VISUALSTYLE
  5
2C93
102
{ACAD_XDICTIONARY
360
3AE9
102
}
102
{ACAD_REACTORS
330
2C8C
102
}
330
2C8C
100
AcDbVisualStyle
  2
3dWireframe
 70
     5
 71
     0
 72
     2
 73
     0
 90
        0
 40
-0.6
 41
-30.0
 62
     5
 63
     7
 74
     1
 91
        4
 64
     7
 65
   257
 75
     1
175
     1
 42
1.0
 92
        0
 66
   257
 43
1.0
 76
     1
 77
     6
 78
     2
 67
     7
 79
     5
170
     0
171
     0
290
     0
174
     0
 93
        1
 44
0.0
173
     0
291
     0
 45
0.0
1001
ACAD
1000
AcDbSavedByObjectVersion
1070
     0
  0
VISUALSTYLE
  5
2C91
102
{ACAD_XDICTIONARY
360
3AE5
102
}
102
{ACAD_REACTORS
330
2C8C
102
}
330
2C8C
100
AcDbVisualStyle
  2
Basic
 70
     7
 71
     1
 72
     0
 73
     1
 90
        0
 40
-0.6
 41
-30.0
 62
     5
 63
     7
 74
     0
 91
        4
 64
     7
 65
   257
 75
     1
175
     1
 42
1.0
 92
        8
 66
     7
 43
1.0
 76
     1
 77
     6
 78
     2
 67
     7
 79
     5
170
     0
171
     0
290
     0
174
     0
 93
        1
 44
0.0
173
     0
291
     1
 45
0.0
1001
ACAD
1000
AcDbSavedByObjectVersion
1070
     0
  0
VISUALSTYLE
  5
2C98
102
{ACAD_XDICTIONARY
360
3AF3
102
}
102
{ACAD_REACTORS
330
2C8C
102
}
330
2C8C
100
AcDbVisualStyle
  2
Brighten
 70
    12
 71
     2
 72
     2
 73
     0
 90
        0
 40
-0.6
 41
-30.0
 62
     5
 63
     7
 74
     1
 91
        4
 64
     7
 65
   257
 75
     1
175
     1
 42
1.0
 92
        8
 66
     7
 43
1.0
 76
     1
 77
     6
 78
     2
 67
     7
 79
     5
170
     0
171
     0
290
     0
174
     0
 93
        1
 44
50.0
173
     0
291
     1
 45
0.0
1001
ACAD
1000
AcDbSavedByObjectVersion
1070
     0
  0
VISUALSTYLE
  5
2C9C
102
{ACAD_XDICTIONARY
360
3AFB
102
}
102
{ACAD_REACTORS
330
2C8C
102
}
330
2C8C
100
AcDbVisualStyle
  2
ColorChange
 70
    16
 71
     2
 72
     2
 73
     3
 90
        0
 40
-0.6
 41
-30.0
 62
     5
 63
     8
 74
     1
 91
        4
 64
     7
 65
   257
 75
     1
175
     1
 42
1.0
 92
        8
 66
     8
 43
1.0
 76
     1
 77
     6
 78
     2
 67
     7
 79
     5
170
     0
171
     0
290
     0
174
     0
 93
        1
 44
0.0
173
     0
291
     1
 45
0.0
1001
ACAD
1000
AcDbSavedByObjectVersion
1070
     0
  0
VISUALSTYLE
  5
2C95
102
{ACAD_XDICTIONARY
360
3AED
102
}
102
{ACAD_REACTORS
330
2C8C
102
}
330
2C8C
100
AcDbVisualStyle
  2
Conceptual
 70
     9
 71
     3
 72
     2
 73
     0
 90
        0
 40
-0.6
 41
-30.0
 62
     5
 63
     7
 74
     2
 91
        2
 64
     7
 65
   257
 75
     1
175
     1
 42
179.0
 92
        8
 66
     7
 43
1.0
 76
     1
 77
     6
 78
     2
 67
     7
 79
     3
170
     0
171
     0
290
     0
174
     0
 93
        1
 44
0.0
173
     0
291
     0
 45
0.0
1001
ACAD
1000
AcDbSavedByObjectVersion
1070
     0
  0
VISUALSTYLE
  5
2C97
102
{ACAD_XDICTIONARY
360
3AF1
102
}
102
{ACAD_REACTORS
330
2C8C
102
}
330
2C8C
100
AcDbVisualStyle
  2
Dim
 70
    11
 71
     2
 72
     2
 73
     0
 90
        0
 40
-0.6
 41
-30.0
 62
     5
 63
     7
 74
     1
 91
        4
 64
     7
 65
   257
 75
     1
175
     1
 42
1.0
 92
        8
 66
     7
 43
1.0
 76
     1
 77
     6
 78
     2
 67
     7
 79
     5
170
     0
171
     0
290
     0
174
     0
 93
        1
 44
-50.0
173
     0
291
     1
 45
0.0
1001
ACAD
1000
AcDbSavedByObjectVersion
1070
     0
  0
VISUALSTYLE
  5
2C9F
102
{ACAD_XDICTIONARY
360
3B01
102
}
102
{ACAD_REACTORS
330
2C8C
102
}
330
2C8C
100
AcDbVisualStyle
  2
EdgeColorOff
 70
    22
 71
     2
 72
     2
 73
     0
 90
        0
 40
-0.6
 41
-30.0
 62
     5
 63
     7
 74
     1
 91
        4
 64
     7
 65
   257
 75
     1
175
     1
 42
1.0
 92
        8
 66
     7
 43
1.0
 76
     1
 77
     6
 78
     2
 67
     7
 79
     5
170
     0
171
     0
290
     0
174
     0
 93
        1
 44
0.0
173
     0
291
     1
 45
0.0
1001
ACAD
1000
AcDbSavedByObjectVersion
1070
     0
  0
VISUALSTYLE
  5
2C9B
102
{ACAD_XDICTIONARY
360
3AF9
102
}
102
{ACAD_REACTORS
330
2C8C
102
}
330
2C8C
100
AcDbVisualStyle
  2
Facepattern
 70
    15
 71
     2
 72
     2
 73
     0
 90
        0
 40
-0.6
 41
-30.0
 62
     5
 63
     7
 74
     1
 91
        4
 64
     7
 65
   257
 75
     1
175
     1
 42
1.0
 92
        8
 66
     7
 43
1.0
 76
     1
 77
     6
 78
     2
 67
     7
 79
     5
170
     0
171
     0
290
     0
174
     0
 93
        1
 44
0.0
173
     0
291
     1
 45
0.0
1001
ACAD
1000
AcDbSavedByObjectVersion
1070
     0
  0
VISUALSTYLE
  5
2C8D
102
{ACAD_XDICTIONARY
360
3ADD
102
}
102
{ACAD_REACTORS
330
2C8C
102
}
330
2C8C
100
AcDbVisualStyle
  2
Flat
 70
     0
 71
     2
 72
     1
 73
     1
 90
        2
 40
-0.6
 41
30.0
 62
     5
 63
     7
 74
     0
 91
        4
 64
     7
 65
   257
 75
     1
175
     1
 42
1.0
 92
        8
 66
     7
 43
1.0
 76
     1
 77
     6
 78
     2
 67
     7
 79
     5
170
     0
171
     0
290
     0
174
     0
 93
       13
 44
0.0
173
     0
291
     1
 45
0.0
1001
ACAD
1000
AcDbSavedByObjectVersion
1070
     0
  0
VISUALSTYLE
  5
2C8E
102
{ACAD_XDICTIONARY
360
3ADF
102
}
102
{ACAD_REACTORS
330
2C8C
102
}
330
2C8C
100
AcDbVisualStyle
  2
FlatWithEdges
 70
     1
 71
     2
 72
     1
 73
     1
 90
        2
 40
-0.6
 41
30.0
 62
     5
 63
     7
 74
     1
 91
        4
 64
     7
 65
   257
 75
     1
175
     1
 42
1.0
 92
        0
 66
   257
 43
1.0
 76
     1
 77
     6
 78
     2
 67
     7
 79
     5
170
     0
171
     0
290
     0
174
     0
 93
       13
 44
0.0
173
     0
291
     1
 45
0.0
1001
ACAD
1000
AcDbSavedByObjectVersion
1070
     0
  0
VISUALSTYLE
  5
2C8F
102
{ACAD_XDICTIONARY
360
3AE1
102
}
102
{ACAD_REACTORS
330
2C8C
102
}
330
2C8C
100
AcDbVisualStyle
  2
Gouraud
 70
     2
 71
     2
 72
     2
 73
     1
 90
        2
 40
-0.6
 41
30.0
 62
     5
 63
     7
 74
     0
 91
        4
 64
     7
 65
   257
 75
     1
175
     1
 42
1.0
 92
        0
 66
     7
 43
1.0
 76
     1
 77
     6
 78
     2
 67
     7
 79
     5
170
     0
171
     0
290
     0
174
     0
 93
       13
 44
0.0
173
     0
291
     1
 45
0.0
1001
ACAD
1000
AcDbSavedByObjectVersion
1070
     0
  0
VISUALSTYLE
  5
2C90
102
{ACAD_XDICTIONARY
360
3AE3
102
}
102
{ACAD_REACTORS
330
2C8C
102
}
330
2C8C
100
AcDbVisualStyle
  2
GouraudWithEdges
 70
     3
 71
     2
 72
     2
 73
     1
 90
        2
 40
-0.6
 41
30.0
 62
     5
 63
     7
 74
     1
 91
        4
 64
     7
 65
   257
 75
     1
175
     1
 42
1.0
 92
        0
 66
   257
 43
1.0
 76
     1
 77
     6
 78
     2
 67
     7
 79
     5
170
     0
171
     0
290
     0
174
     0
 93
       13
 44
0.0
173
     0
291
     1
 45
0.0
1001
ACAD
1000
AcDbSavedByObjectVersion
1070
     0
  0
VISUALSTYLE
  5
2C9D
102
{ACAD_XDICTIONARY
360
3AFD
102
}
102
{ACAD_REACTORS
330
2C8C
102
}
330
2C8C
100
AcDbVisualStyle
  2
JitterOff
 70
    20
 71
     2
 72
     2
 73
     0
 90
        0
 40
-0.6
 41
-30.0
 62
     5
 63
     7
 74
     1
 91
        4
 64
     7
 65
   257
 75
     1
175
     1
 42
1.0
 92
       10
 66
     7
 43
1.0
 76
     1
 77
     6
 78
     2
 67
     7
 79
     5
170
     0
171
     0
290
     0
174
     0
 93
        1
 44
0.0
173
     0
291
     1
 45
0.0
1001
ACAD
1000
AcDbSavedByObjectVersion
1070
     0
  0
VISUALSTYLE
  5
2C9A
102
{ACAD_XDICTIONARY
360
3AF7
102
}
102
{ACAD_REACTORS
330
2C8C
102
}
330
2C8C
100
AcDbVisualStyle
  2
Linepattern
 70
    14
 71
     2
 72
     2
 73
     0
 90
        0
 40
-0.6
 41
-30.0
 62
     5
 63
     7
 74
     1
 91
        4
 64
     7
 65
   257
 75
     7
175
     7
 42
1.0
 92
        8
 66
     7
 43
1.0
 76
     1
 77
     6
 78
     2
 67
     7
 79
     5
170
     0
171
     0
290
     0
174
     0
 93
        1
 44
0.0
173
     0
291
     1
 45
0.0
1001
ACAD
1000
AcDbSavedByObjectVersion
1070
     0
  0
VISUALSTYLE
  5
2C9E
102
{ACAD_XDICTIONARY
360
3AFF
102
}
102
{ACAD_REACTORS
330
2C8C
102
}
330
2C8C
100
AcDbVisualStyle
  2
OverhangOff
 70
    21
 71
     2
 72
     2
 73
     0
 90
        0
 40
-0.6
 41
-30.0
 62
     5
 63
     7
 74
     1
 91
        4
 64
     7
 65
   257
 75
     1
175
     1
 42
1.0
 92
        9
 66
     7
 43
1.0
 76
     1
 77
     6
 78
     2
 67
     7
 79
     5
170
     0
171
     0
290
     0
174
     0
 93
        1
 44
0.0
173
     0
291
     1
 45
0.0
1001
ACAD
1000
AcDbSavedByObjectVersion
1070
     0
  0
VISUALSTYLE
  5
2C96
102
{ACAD_XDICTIONARY
360
3AEF
102
}
102
{ACAD_REACTORS
330
2C8C
102
}
330
2C8C
100
AcDbVisualStyle
  2
Realistic
 70
     8
 71
     2
 72
     2
 73
     0
 90
        0
 40
-0.6
 41
-30.0
 62
     5
 63
     7
 74
     1
 91
        0
 64
     7
 65
   257
 75
     1
175
     1
 42
1.0
 92
        8
 66
     8
 43
1.0
 76
     1
 77
     6
 78
     2
 67
     7
 79
     5
170
     0
171
     0
290
     0
174
     0
 93
       13
 44
0.0
173
     0
291
     0
 45
0.0
1001
ACAD
1000
AcDbSavedByObjectVersion
1070
     0
  0
VISUALSTYLE
  5
2C99
102
{ACAD_XDICTIONARY
360
3AF5
102
}
102
{ACAD_REACTORS
330
2C8C
102
}
330
2C8C
100
AcDbVisualStyle
  2
Thicken
 70
    13
 71
     2
 72
     2
 73
     0
 90
        0
 40
-0.6
 41
-30.0
 62
     5
 63
     7
 74
     1
 91
        4
 64
     7
 65
   257
 75
     1
175
     1
 42
1.0
 92
       12
 66
     7
 43
1.0
 76
     1
 77
     6
 78
     2
 67
     7
 79
     5
170
     0
171
     0
290
     0
174
     0
 93
        1
 44
0.0
173
     0
291
     1
 45
0.0
1001
ACAD
1000
AcDbSavedByObjectVersion
1070
     0
  0
DICTIONARYVAR
  5
312D
102
{ACAD_REACTORS
330
3D
102
}
330
3D
100
DictionaryVariables
280
     0
  1
1:1
  0
DICTIONARYVAR
  5
312C
102
{ACAD_REACTORS
330
3D
102
}
330
3D
100
DictionaryVariables
280
     0
  1
STANDARD
  0
DICTIONARYVAR
  5
20BB
102
{ACAD_REACTORS
330
3D
102
}
330
3D
100
DictionaryVariables
280
     0
  1
STANDARD
  0
DICTIONARYVAR
  5
3F
102
{ACAD_REACTORS
330
3D
102
}
330
3D
100
DictionaryVariables
280
     0
  1
2
  0
DICTIONARYVAR
  5
3E
102
{ACAD_REACTORS
330
3D
102
}
330
3D
100
DictionaryVariables
280
     0
  1
1
  0
DICTIONARYVAR
  5
312F
102
{ACAD_REACTORS
330
3D
102
}
330
3D
100
DictionaryVariables
280
     0
  1
0
  0
DICTIONARYVAR
  5
2C59
102
{ACAD_REACTORS
330
3D
102
}
330
3D
100
DictionaryVariables
280
     0
  1

  0
DICTIONARYVAR
  5
312E
102
{ACAD_REACTORS
330
3D
102
}
330
3D
100
DictionaryVariables
280
     0
  1
127
  0
DICTIONARYVAR
  5
3ACF
102
{ACAD_REACTORS
330
3D
102
}
330
3D
100
DictionaryVariables
280
     0
  1
2
  0
XRECORD
  5
B92
102
{ACAD_REACTORS
330
B91
102
}
330
B91
100
AcDbXrecord
280
     1
  0
DICTIONARY
  5
3AD3
330
1E
100
AcDbDictionary
280
     1
281
     1
  3
ACAD_XREC_ROUNDTRIP
360
3AD4
  0
DICTIONARY
  5
3AD7
330
26
100
AcDbDictionary
280
     1
281
     1
  3
ACAD_XREC_ROUNDTRIP
360
3AD8
  0
DICTIONARY
  5
3AD5
330
22
100
AcDbDictionary
280
     1
281
     1
  3
ACAD_XREC_ROUNDTRIP
360
3AD6
  0
DICTIONARY
  5
2C7D
330
2C7C
100
AcDbDictionary
280
     1
281
     1
  3
ACAD_XREC_ROUNDTRIP
360
3ADB
  3
BUMPTILE
360
2C7F
  3
DIFFUSETILE
360
2C7E
  3
OPACITYTILE
360
2C82
  3
REFLECTIONTILE
360
2C81
  3
REFRACTIONTILE
360
2C83
  3
SPECULARTILE
360
2C80
  0
DICTIONARY
  5
2C75
330
2C74
100
AcDbDictionary
280
     1
281
     1
  3
ACAD_XREC_ROUNDTRIP
360
3ADA
  3
BUMPTILE
360
2C77
  3
DIFFUSETILE
360
2C76
  3
OPACITYTILE
360
2C7A
  3
REFLECTIONTILE
360
2C79
  3
REFRACTIONTILE
360
2C7B
  3
SPECULARTILE
360
2C78
  0
DICTIONARY
  5
2C85
330
2C84
100
AcDbDictionary
280
     1
281
     1
  3
ACAD_XREC_ROUNDTRIP
360
3ADC
  3
BUMPTILE
360
2C87
  3
DIFFUSETILE
360
2C86
  3
OPACITYTILE
360
2C8A
  3
REFLECTIONTILE
360
2C89
  3
REFRACTIONTILE
360
2C8B
  3
SPECULARTILE
360
2C88
  0
DICTIONARY
  5
30EF
330
16A9
100
AcDbDictionary
280
     1
281
     1
  3
ACAD_ROUNDTRIP_2008_TABLESTYLE_CELLSTYLEMAP
360
3AD0
  3
ACAD_XREC_ROUNDTRIP
360
3AD9
  0
DICTIONARY
  5
3AE7
330
2C92
100
AcDbDictionary
280
     1
281
     1
  3
ACAD_XREC_ROUNDTRIP
360
3AE8
  0
DICTIONARY
  5
3AEB
330
2C94
100
AcDbDictionary
280
     1
281
     1
  3
ACAD_XREC_ROUNDTRIP
360
3AEC
  0
DICTIONARY
  5
3AE9
330
2C93
100
AcDbDictionary
280
     1
281
     1
  3
ACAD_XREC_ROUNDTRIP
360
3AEA
  0
DICTIONARY
  5
3AE5
330
2C91
100
AcDbDictionary
280
     1
281
     1
  3
ACAD_XREC_ROUNDTRIP
360
3AE6
  0
DICTIONARY
  5
3AF3
330
2C98
100
AcDbDictionary
280
     1
281
     1
  3
ACAD_XREC_ROUNDTRIP
360
3AF4
  0
DICTIONARY
  5
3AFB
330
2C9C
100
AcDbDictionary
280
     1
281
     1
  3
ACAD_XREC_ROUNDTRIP
360
3AFC
  0
DICTIONARY
  5
3AED
330
2C95
100
AcDbDictionary
280
     1
281
     1
  3
ACAD_XREC_ROUNDTRIP
360
3AEE
  0
DICTIONARY
  5
3AF1
330
2C97
100
AcDbDictionary
280
     1
281
     1
  3
ACAD_XREC_ROUNDTRIP
360
3AF2
  0
DICTIONARY
  5
3B01
330
2C9F
100
AcDbDictionary
280
     1
281
     1
  3
ACAD_XREC_ROUNDTRIP
360
3B02
  0
DICTIONARY
  5
3AF9
330
2C9B
100
AcDbDictionary
280
     1
281
     1
  3
ACAD_XREC_ROUNDTRIP
360
3AFA
  0
DICTIONARY
  5
3ADD
330
2C8D
100
AcDbDictionary
280
     1
281
     1
  3
ACAD_XREC_ROUNDTRIP
360
3ADE
  0
DICTIONARY
  5
3ADF
330
2C8E
100
AcDbDictionary
280
     1
281
     1
  3
ACAD_XREC_ROUNDTRIP
360
3AE0
  0
DICTIONARY
  5
3AE1
330
2C8F
100
AcDbDictionary
280
     1
281
     1
  3
ACAD_XREC_ROUNDTRIP
360
3AE2
  0
DICTIONARY
  5
3AE3
330
2C90
100
AcDbDictionary
280
     1
281
     1
  3
ACAD_XREC_ROUNDTRIP
360
3AE4
  0
DICTIONARY
  5
3AFD
330
2C9D
100
AcDbDictionary
280
     1
281
     1
  3
ACAD_XREC_ROUNDTRIP
360
3AFE
  0
DICTIONARY
  5
3AF7
330
2C9A
100
AcDbDictionary
280
     1
281
     1
  3
ACAD_XREC_ROUNDTRIP
360
3AF8
  0
DICTIONARY
  5
3AFF
330
2C9E
100
AcDbDictionary
280
     1
281
     1
  3
ACAD_XREC_ROUNDTRIP
360
3B00
  0
DICTIONARY
  5
3AEF
330
2C96
100
AcDbDictionary
280
     1
281
     1
  3
ACAD_XREC_ROUNDTRIP
360
3AF0
  0
DICTIONARY
  5
3AF5
330
2C99
100
AcDbDictionary
280
     1
281
     1
  3
ACAD_XREC_ROUNDTRIP
360
3AF6
  0
XRECORD
  5
3AD4
102
{ACAD_REACTORS
330
3AD3
102
}
330
3AD3
100
AcDbXrecord
280
     1
102
SHADEPLOT
 70
     0
102
SHADEPLOTRESLEVEL
 70
     2
102
SHADEPLOTCUSTOMDPI
 70
   300
  0
XRECORD
  5
3AD8
102
{ACAD_REACTORS
330
3AD7
102
}
330
3AD7
100
AcDbXrecord
280
     1
102
SHADEPLOT
 70
     0
102
SHADEPLOTRESLEVEL
 70
     2
102
SHADEPLOTCUSTOMDPI
 70
   300
  0
XRECORD
  5
3AD6
102
{ACAD_REACTORS
330
3AD5
102
}
330
3AD5
100
AcDbXrecord
280
     1
102
SHADEPLOT
 70
     0
102
SHADEPLOTRESLEVEL
 70
     2
102
SHADEPLOTCUSTOMDPI
 70
   300
  0
XRECORD
  5
3ADB
102
{ACAD_REACTORS
330
2C7D
102
}
330
2C7D
100
AcDbXrecord
280
     1
102
MATERIAL
148
0.0
149
0.0
149
0.0
 93
        0
 94
      127
282
     0
 72
     0
 77
     0
171
     0
175
     0
179
     0
273
     0
  0
XRECORD
  5
2C7F
102
{ACAD_REACTORS
330
2C7D
102
}
330
2C7D
100
AcDbXrecord
280
     1
270
     1
271
     1
  0
XRECORD
  5
2C7E
102
{ACAD_REACTORS
330
2C7D
102
}
330
2C7D
100
AcDbXrecord
280
     1
270
     1
271
     1
  0
XRECORD
  5
2C82
102
{ACAD_REACTORS
330
2C7D
102
}
330
2C7D
100
AcDbXrecord
280
     1
270
     1
271
     1
  0
XRECORD
  5
2C81
102
{ACAD_REACTORS
330
2C7D
102
}
330
2C7D
100
AcDbXrecord
280
     1
270
     1
271
     1
  0
XRECORD
  5
2C83
102
{ACAD_REACTORS
330
2C7D
102
}
330
2C7D
100
AcDbXrecord
280
     1
270
     1
271
     1
  0
XRECORD
  5
2C80
102
{ACAD_REACTORS
330
2C7D
102
}
330
2C7D
100
AcDbXrecord
280
     1
270
     1
271
     1
  0
XRECORD
  5
3ADA
102
{ACAD_REACTORS
330
2C75
102
}
330
2C75
100
AcDbXrecord
280
     1
102
MATERIAL
148
0.0
149
0.0
149
0.0
 93
        0
 94
      127
282
     0
 72
     0
 77
     0
171
     0
175
     0
179
     0
273
     0
  0
XRECORD
  5
2C77
102
{ACAD_REACTORS
330
2C75
102
}
330
2C75
100
AcDbXrecord
280
     1
270
     1
271
     1
  0
XRECORD
  5
2C76
102
{ACAD_REACTORS
330
2C75
102
}
330
2C75
100
AcDbXrecord
280
     1
270
     1
271
     1
  0
XRECORD
  5
2C7A
102
{ACAD_REACTORS
330
2C75
102
}
330
2C75
100
AcDbXrecord
280
     1
270
     1
271
     1
  0
XRECORD
  5
2C79
102
{ACAD_REACTORS
330
2C75
102
}
330
2C75
100
AcDbXrecord
280
     1
270
     1
271
     1
  0
XRECORD
  5
2C7B
102
{ACAD_REACTORS
330
2C75
102
}
330
2C75
100
AcDbXrecord
280
     1
270
     1
271
     1
  0
XRECORD
  5
2C78
102
{ACAD_REACTORS
330
2C75
102
}
330
2C75
100
AcDbXrecord
280
     1
270
     1
271
     1
  0
XRECORD
  5
3ADC
102
{ACAD_REACTORS
330
2C85
102
}
330
2C85
100
AcDbXrecord
280
     1
102
MATERIAL
148
0.0
149
0.0
149
0.0
 93
        0
 94
      127
282
     0
 72
     0
 77
     0
171
     0
175
     0
179
     0
273
     0
  0
XRECORD
  5
2C87
102
{ACAD_REACTORS
330
2C85
102
}
330
2C85
100
AcDbXrecord
280
     1
270
     1
271
     1
  0
XRECORD
  5
2C86
102
{ACAD_REACTORS
330
2C85
102
}
330
2C85
100
AcDbXrecord
280
     1
270
     1
271
     1
  0
XRECORD
  5
2C8A
102
{ACAD_REACTORS
330
2C85
102
}
330
2C85
100
AcDbXrecord
280
     1
270
     1
271
     1
  0
XRECORD
  5
2C89
102
{ACAD_REACTORS
330
2C85
102
}
330
2C85
100
AcDbXrecord
280
     1
270
     1
271
     1
  0
XRECORD
  5
2C8B
102
{ACAD_REACTORS
330
2C85
102
}
330
2C85
100
AcDbXrecord
280
     1
270
     1
271
     1
  0
XRECORD
  5
2C88
102
{ACAD_REACTORS
330
2C85
102
}
330
2C85
100
AcDbXrecord
280
     1
270
     1
271
     1
  0
CELLSTYLEMAP
  5
3AD0
102
{ACAD_REACTORS
330
30EF
102
}
330
30EF
100
AcDbCellStyleMap
 90
        3
300
CELLSTYLE
  1
TABLEFORMAT_BEGIN
 90
        5
170
     1
 91
        0
 92
    32768
 62
   257
 93
        1
300
CONTENTFORMAT
  1
CONTENTFORMAT_BEGIN
 90
        0
 91
        0
 92
        4
 93
        0
300

 40
0.0
140
1.0
 94
        5
 62
     0
340
11
144
6.0
309
CONTENTFORMAT_END
171
     1
301
MARGIN
  1
CELLMARGIN_BEGIN
 40
1.5
 40
1.5
 40
1.5
 40
1.5
 40
0.18
 40
0.18
309
CELLMARGIN_END
 94
        6
 95
        1
302
GRIDFORMAT
  1
GRIDFORMAT_BEGIN
 90
        0
 91
        1
 62
     0
 92
       -2
340
0
 93
        0
 40
0.045
309
GRIDFORMAT_END
 95
        2
302
GRIDFORMAT
  1
GRIDFORMAT_BEGIN
 90
        0
 91
        1
 62
     0
 92
       -2
340
0
 93
        0
 40
0.045
309
GRIDFORMAT_END
 95
        4
302
GRIDFORMAT
  1
GRIDFORMAT_BEGIN
 90
        0
 91
        1
 62
     0
 92
       -2
340
0
 93
        0
 40
0.045
309
GRIDFORMAT_END
 95
        8
302
GRIDFORMAT
  1
GRIDFORMAT_BEGIN
 90
        0
 91
        1
 62
     0
 92
       -2
340
0
 93
        0
 40
0.045
309
GRIDFORMAT_END
 95
       16
302
GRIDFORMAT
  1
GRIDFORMAT_BEGIN
 90
        0
 91
        1
 62
     0
 92
       -2
340
0
 93
        0
 40
0.045
309
GRIDFORMAT_END
 95
       32
302
GRIDFORMAT
  1
GRIDFORMAT_BEGIN
 90
        0
 91
        1
 62
     0
 92
       -2
340
0
 93
        0
 40
0.045
309
GRIDFORMAT_END
309
TABLEFORMAT_END
  1
CELLSTYLE_BEGIN
 90
        1
 91
        1
300
_TITLE
309
CELLSTYLE_END
300
CELLSTYLE
  1
TABLEFORMAT_BEGIN
 90
        5
170
     1
 91
        0
 92
        0
 62
   257
 93
        1
300
CONTENTFORMAT
  1
CONTENTFORMAT_BEGIN
 90
        0
 91
        0
 92
        4
 93
        0
300

 40
0.0
140
1.0
 94
        5
 62
     0
340
11
144
4.5
309
CONTENTFORMAT_END
171
     1
301
MARGIN
  1
CELLMARGIN_BEGIN
 40
1.5
 40
1.5
 40
1.5
 40
1.5
 40
0.18
 40
0.18
309
CELLMARGIN_END
 94
        6
 95
        1
302
GRIDFORMAT
  1
GRIDFORMAT_BEGIN
 90
        0
 91
        1
 62
     0
 92
       -2
340
0
 93
        0
 40
0.045
309
GRIDFORMAT_END
 95
        2
302
GRIDFORMAT
  1
GRIDFORMAT_BEGIN
 90
        0
 91
        1
 62
     0
 92
       -2
340
0
 93
        0
 40
0.045
309
GRIDFORMAT_END
 95
        4
302
GRIDFORMAT
  1
GRIDFORMAT_BEGIN
 90
        0
 91
        1
 62
     0
 92
       -2
340
0
 93
        0
 40
0.045
309
GRIDFORMAT_END
 95
        8
302
GRIDFORMAT
  1
GRIDFORMAT_BEGIN
 90
        0
 91
        1
 62
     0
 92
       -2
340
0
 93
        0
 40
0.045
309
GRIDFORMAT_END
 95
       16
302
GRIDFORMAT
  1
GRIDFORMAT_BEGIN
 90
        0
 91
        1
 62
     0
 92
       -2
340
0
 93
        0
 40
0.045
309
GRIDFORMAT_END
 95
       32
302
GRIDFORMAT
  1
GRIDFORMAT_BEGIN
 90
        0
 91
        1
 62
     0
 92
       -2
340
0
 93
        0
 40
0.045
309
GRIDFORMAT_END
309
TABLEFORMAT_END
  1
CELLSTYLE_BEGIN
 90
        2
 91
        1
300
_HEADER
309
CELLSTYLE_END
300
CELLSTYLE
  1
TABLEFORMAT_BEGIN
 90
        5
170
     1
 91
        0
 92
        0
 62
   257
 93
        1
300
CONTENTFORMAT
  1
CONTENTFORMAT_BEGIN
 90
        0
 91
        0
 92
        4
 93
        0
300

 40
0.0
140
1.0
 94
        2
 62
     0
340
11
144
4.5
309
CONTENTFORMAT_END
171
     1
301
MARGIN
  1
CELLMARGIN_BEGIN
 40
1.5
 40
1.5
 40
1.5
 40
1.5
 40
0.18
 40
0.18
309
CELLMARGIN_END
 94
        6
 95
        1
302
GRIDFORMAT
  1
GRIDFORMAT_BEGIN
 90
        0
 91
        1
 62
     0
 92
       -2
340
0
 93
        0
 40
0.045
309
GRIDFORMAT_END
 95
        2
302
GRIDFORMAT
  1
GRIDFORMAT_BEGIN
 90
        0
 91
        1
 62
     0
 92
       -2
340
0
 93
        0
 40
0.045
309
GRIDFORMAT_END
 95
        4
302
GRIDFORMAT
  1
GRIDFORMAT_BEGIN
 90
        0
 91
        1
 62
     0
 92
       -2
340
0
 93
        0
 40
0.045
309
GRIDFORMAT_END
 95
        8
302
GRIDFORMAT
  1
GRIDFORMAT_BEGIN
 90
        0
 91
        1
 62
     0
 92
       -2
340
0
 93
        0
 40
0.045
309
GRIDFORMAT_END
 95
       16
302
GRIDFORMAT
  1
GRIDFORMAT_BEGIN
 90
        0
 91
        1
 62
     0
 92
       -2
340
0
 93
        0
 40
0.045
309
GRIDFORMAT_END
 95
       32
302
GRIDFORMAT
  1
GRIDFORMAT_BEGIN
 90
        0
 91
        1
 62
     0
 92
       -2
340
0
 93
        0
 40
0.045
309
GRIDFORMAT_END
309
TABLEFORMAT_END
  1
CELLSTYLE_BEGIN
 90
        3
 91
        2
300
_DATA
309
CELLSTYLE_END
  0
XRECORD
  5
3AD9
102
{ACAD_REACTORS
330
30EF
102
}
330
30EF
100
AcDbXrecord
280
     1
102
ACAD_ROUNDTRIP_PRE2007_TABLESTYLE
 90
        4
 91
        0
  1

 92
        4
 93
        0
  2

 94
        4
 95
        0
  3

  0
XRECORD
  5
3AE8
102
{ACAD_REACTORS
330
3AE7
102
}
330
3AE7
100
AcDbXrecord
280
     1
102
RTVSPropertyOp0
 70
     1
102
RTVSPropertyOp1
 70
     1
102
RTVSPropertyOp2
 70
     1
102
RTVSPropertyOp3
 70
     1
102
RTVSPropertyOp4
 70
     1
102
RTVSPropertyOp5
 70
     1
102
RTVSPropertyOp6
 70
     1
102
RTVSPropertyOp7
 70
     1
102
RTVSPropertyOp8
 70
     1
102
RTVSPropertyOp9
 70
     1
102
RTVSPropertyOp10
 70
     1
102
RTVSPropertyOp11
 70
     1
102
RTVSPropertyOp12
 70
     1
102
RTVSPropertyOp13
 70
     1
102
RTVSPropertyOp14
 70
     1
102
RTVSPropertyOp15
 70
     1
102
RTVSPropertyOp16
 70
     1
102
RTVSPropertyOp17
 70
     1
102
RTVSPropertyOp18
 70
     1
102
RTVSPropertyOp19
 70
     1
102
RTVSPropertyOp20
 70
     1
102
RTVSPropertyOp21
 70
     1
102
RTVSPropertyOp22
 70
     1
102
RTVSPropertyOp23
 70
     1
102
RTVSPropertyOp24
 70
     1
102
RTVSPropertyOp25
 70
     1
102
RTVSPropertyOp26
 70
     1
102
RTVSPropertyOp27
 70
     1
  0
XRECORD
  5
3AEC
102
{ACAD_REACTORS
330
3AEB
102
}
330
3AEB
100
AcDbXrecord
280
     1
102
RTVSPropertyOp0
 70
     1
102
RTVSPropertyOp1
 70
     1
102
RTVSPropertyOp2
 70
     1
102
RTVSPropertyOp3
 70
     1
102
RTVSPropertyOp4
 70
     1
102
RTVSPropertyOp5
 70
     1
102
RTVSPropertyOp6
 70
     1
102
RTVSPropertyOp7
 70
     1
102
RTVSPropertyOp8
 70
     1
102
RTVSPropertyOp9
 70
     1
102
RTVSPropertyOp10
 70
     1
102
RTVSPropertyOp11
 70
     1
102
RTVSPropertyOp12
 70
     1
102
RTVSPropertyOp13
 70
     1
102
RTVSPropertyOp14
 70
     1
102
RTVSPropertyOp15
 70
     1
102
RTVSPropertyOp16
 70
     1
102
RTVSPropertyOp17
 70
     1
102
RTVSPropertyOp18
 70
     1
102
RTVSPropertyOp19
 70
     1
102
RTVSPropertyOp20
 70
     1
102
RTVSPropertyOp21
 70
     1
102
RTVSPropertyOp22
 70
     1
102
RTVSPropertyOp23
 70
     1
102
RTVSPropertyOp24
 70
     1
102
RTVSPropertyOp25
 70
     1
102
RTVSPropertyOp26
 70
     1
102
RTVSPropertyOp27
 70
     1
  0
XRECORD
  5
3AEA
102
{ACAD_REACTORS
330
3AE9
102
}
330
3AE9
100
AcDbXrecord
280
     1
102
RTVSPropertyOp0
 70
     1
102
RTVSPropertyOp1
 70
     1
102
RTVSPropertyOp2
 70
     1
102
RTVSPropertyOp3
 70
     1
102
RTVSPropertyOp4
 70
     1
102
RTVSPropertyOp5
 70
     1
102
RTVSPropertyOp6
 70
     1
102
RTVSPropertyOp7
 70
     1
102
RTVSPropertyOp8
 70
     1
102
RTVSPropertyOp9
 70
     1
102
RTVSPropertyOp10
 70
     1
102
RTVSPropertyOp11
 70
     1
102
RTVSPropertyOp12
 70
     1
102
RTVSPropertyOp13
 70
     1
102
RTVSPropertyOp14
 70
     1
102
RTVSPropertyOp15
 70
     1
102
RTVSPropertyOp16
 70
     1
102
RTVSPropertyOp17
 70
     1
102
RTVSPropertyOp18
 70
     1
102
RTVSPropertyOp19
 70
     1
102
RTVSPropertyOp20
 70
     1
102
RTVSPropertyOp21
 70
     1
102
RTVSPropertyOp22
 70
     1
102
RTVSPropertyOp23
 70
     1
102
RTVSPropertyOp24
 70
     1
102
RTVSPropertyOp25
 70
     1
102
RTVSPropertyOp26
 70
     1
102
RTVSPropertyOp27
 70
     1
  0
XRECORD
  5
3AE6
102
{ACAD_REACTORS
330
3AE5
102
}
330
3AE5
100
AcDbXrecord
280
     1
102
RTVSPropertyOp0
 70
     1
102
RTVSPropertyOp1
 70
     1
102
RTVSPropertyOp2
 70
     1
102
RTVSPropertyOp3
 70
     1
102
RTVSPropertyOp4
 70
     1
102
RTVSPropertyOp5
 70
     1
102
RTVSPropertyOp6
 70
     1
102
RTVSPropertyOp7
 70
     1
102
RTVSPropertyOp8
 70
     1
102
RTVSPropertyOp9
 70
     1
102
RTVSPropertyOp10
 70
     1
102
RTVSPropertyOp11
 70
     1
102
RTVSPropertyOp12
 70
     1
102
RTVSPropertyOp13
 70
     1
102
RTVSPropertyOp14
 70
     1
102
RTVSPropertyOp15
 70
     1
102
RTVSPropertyOp16
 70
     1
102
RTVSPropertyOp17
 70
     1
102
RTVSPropertyOp18
 70
     1
102
RTVSPropertyOp19
 70
     1
102
RTVSPropertyOp20
 70
     1
102
RTVSPropertyOp21
 70
     1
102
RTVSPropertyOp22
 70
     1
102
RTVSPropertyOp23
 70
     1
102
RTVSPropertyOp24
 70
     1
102
RTVSPropertyOp25
 70
     1
102
RTVSPropertyOp26
 70
     1
102
RTVSPropertyOp27
 70
     1
  0
XRECORD
  5
3AF4
102
{ACAD_REACTORS
330
3AF3
102
}
330
3AF3
100
AcDbXrecord
280
     1
102
RTVSPropertyOp0
 70
     1
102
RTVSPropertyOp1
 70
     1
102
RTVSPropertyOp2
 70
     1
102
RTVSPropertyOp3
 70
     1
102
RTVSPropertyOp4
 70
     1
102
RTVSPropertyOp5
 70
     1
102
RTVSPropertyOp6
 70
     1
102
RTVSPropertyOp7
 70
     1
102
RTVSPropertyOp8
 70
     1
102
RTVSPropertyOp9
 70
     1
102
RTVSPropertyOp10
 70
     1
102
RTVSPropertyOp11
 70
     1
102
RTVSPropertyOp12
 70
     1
102
RTVSPropertyOp13
 70
     1
102
RTVSPropertyOp14
 70
     1
102
RTVSPropertyOp15
 70
     1
102
RTVSPropertyOp16
 70
     1
102
RTVSPropertyOp17
 70
     1
102
RTVSPropertyOp18
 70
     1
102
RTVSPropertyOp19
 70
     1
102
RTVSPropertyOp20
 70
     1
102
RTVSPropertyOp21
 70
     1
102
RTVSPropertyOp22
 70
     1
102
RTVSPropertyOp23
 70
     1
102
RTVSPropertyOp24
 70
     1
102
RTVSPropertyOp25
 70
     1
102
RTVSPropertyOp26
 70
     1
102
RTVSPropertyOp27
 70
     1
  0
XRECORD
  5
3AFC
102
{ACAD_REACTORS
330
3AFB
102
}
330
3AFB
100
AcDbXrecord
280
     1
102
RTVSPropertyOp0
 70
     1
102
RTVSPropertyOp1
 70
     1
102
RTVSPropertyOp2
 70
     1
102
RTVSPropertyOp3
 70
     1
102
RTVSPropertyOp4
 70
     1
102
RTVSPropertyOp5
 70
     1
102
RTVSPropertyOp6
 70
     1
102
RTVSPropertyOp7
 70
     1
102
RTVSPropertyOp8
 70
     1
102
RTVSPropertyOp9
 70
     1
102
RTVSPropertyOp10
 70
     1
102
RTVSPropertyOp11
 70
     1
102
RTVSPropertyOp12
 70
     1
102
RTVSPropertyOp13
 70
     1
102
RTVSPropertyOp14
 70
     1
102
RTVSPropertyOp15
 70
     1
102
RTVSPropertyOp16
 70
     1
102
RTVSPropertyOp17
 70
     1
102
RTVSPropertyOp18
 70
     1
102
RTVSPropertyOp19
 70
     1
102
RTVSPropertyOp20
 70
     1
102
RTVSPropertyOp21
 70
     1
102
RTVSPropertyOp22
 70
     1
102
RTVSPropertyOp23
 70
     1
102
RTVSPropertyOp24
 70
     1
102
RTVSPropertyOp25
 70
     1
102
RTVSPropertyOp26
 70
     1
102
RTVSPropertyOp27
 70
     1
  0
XRECORD
  5
3AEE
102
{ACAD_REACTORS
330
3AED
102
}
330
3AED
100
AcDbXrecord
280
     1
102
RTVSPropertyOp0
 70
     1
102
RTVSPropertyOp1
 70
     1
102
RTVSPropertyOp2
 70
     1
102
RTVSPropertyOp3
 70
     1
102
RTVSPropertyOp4
 70
     1
102
RTVSPropertyOp5
 70
     1
102
RTVSPropertyOp6
 70
     1
102
RTVSPropertyOp7
 70
     1
102
RTVSPropertyOp8
 70
     1
102
RTVSPropertyOp9
 70
     1
102
RTVSPropertyOp10
 70
     1
102
RTVSPropertyOp11
 70
     1
102
RTVSPropertyOp12
 70
     1
102
RTVSPropertyOp13
 70
     1
102
RTVSPropertyOp14
 70
     1
102
RTVSPropertyOp15
 70
     1
102
RTVSPropertyOp16
 70
     1
102
RTVSPropertyOp17
 70
     1
102
RTVSPropertyOp18
 70
     1
102
RTVSPropertyOp19
 70
     1
102
RTVSPropertyOp20
 70
     1
102
RTVSPropertyOp21
 70
     1
102
RTVSPropertyOp22
 70
     1
102
RTVSPropertyOp23
 70
     1
102
RTVSPropertyOp24
 70
     1
102
RTVSPropertyOp25
 70
     1
102
RTVSPropertyOp26
 70
     1
102
RTVSPropertyOp27
 70
     1
  0
XRECORD
  5
3AF2
102
{ACAD_REACTORS
330
3AF1
102
}
330
3AF1
100
AcDbXrecord
280
     1
102
RTVSPropertyOp0
 70
     1
102
RTVSPropertyOp1
 70
     1
102
RTVSPropertyOp2
 70
     1
102
RTVSPropertyOp3
 70
     1
102
RTVSPropertyOp4
 70
     1
102
RTVSPropertyOp5
 70
     1
102
RTVSPropertyOp6
 70
     1
102
RTVSPropertyOp7
 70
     1
102
RTVSPropertyOp8
 70
     1
102
RTVSPropertyOp9
 70
     1
102
RTVSPropertyOp10
 70
     1
102
RTVSPropertyOp11
 70
     1
102
RTVSPropertyOp12
 70
     1
102
RTVSPropertyOp13
 70
     1
102
RTVSPropertyOp14
 70
     1
102
RTVSPropertyOp15
 70
     1
102
RTVSPropertyOp16
 70
     1
102
RTVSPropertyOp17
 70
     1
102
RTVSPropertyOp18
 70
     1
102
RTVSPropertyOp19
 70
     1
102
RTVSPropertyOp20
 70
     1
102
RTVSPropertyOp21
 70
     1
102
RTVSPropertyOp22
 70
     1
102
RTVSPropertyOp23
 70
     1
102
RTVSPropertyOp24
 70
     1
102
RTVSPropertyOp25
 70
     1
102
RTVSPropertyOp26
 70
     1
102
RTVSPropertyOp27
 70
     1
  0
XRECORD
  5
3B02
102
{ACAD_REACTORS
330
3B01
102
}
330
3B01
100
AcDbXrecord
280
     1
102
RTVSPropertyOp0
 70
     0
102
RTVSPropertyOp1
 70
     0
102
RTVSPropertyOp2
 70
     0
102
RTVSPropertyOp3
 70
     0
102
RTVSPropertyOp4
 70
     0
102
RTVSPropertyOp5
 70
     0
102
RTVSPropertyOp6
 70
     0
102
RTVSPropertyOp7
 70
     0
102
RTVSPropertyOp8
 70
     0
102
RTVSPropertyOp9
 70
     0
102
RTVSPropertyOp10
 70
     0
102
RTVSPropertyOp11
 70
     0
102
RTVSPropertyOp12
 70
     0
102
RTVSPropertyOp13
 70
     0
102
RTVSPropertyOp14
 70
     2
102
RTVSPropertyOp15
 70
     0
102
RTVSPropertyOp16
 70
     0
102
RTVSPropertyOp17
 70
     0
102
RTVSPropertyOp18
 70
     0
102
RTVSPropertyOp19
 70
     0
102
RTVSPropertyOp20
 70
     0
102
RTVSPropertyOp21
 70
     0
102
RTVSPropertyOp22
 70
     0
102
RTVSPropertyOp23
 70
     0
102
RTVSPropertyOp24
 70
     0
102
RTVSPropertyOp25
 70
     0
102
RTVSPropertyOp26
 70
     0
102
RTVSPropertyOp27
 70
     0
  0
XRECORD
  5
3AFA
102
{ACAD_REACTORS
330
3AF9
102
}
330
3AF9
100
AcDbXrecord
280
     1
102
RTVSPropertyOp0
 70
     1
102
RTVSPropertyOp1
 70
     1
102
RTVSPropertyOp2
 70
     1
102
RTVSPropertyOp3
 70
     1
102
RTVSPropertyOp4
 70
     1
102
RTVSPropertyOp5
 70
     1
102
RTVSPropertyOp6
 70
     1
102
RTVSPropertyOp7
 70
     1
102
RTVSPropertyOp8
 70
     1
102
RTVSPropertyOp9
 70
     1
102
RTVSPropertyOp10
 70
     1
102
RTVSPropertyOp11
 70
     1
102
RTVSPropertyOp12
 70
     1
102
RTVSPropertyOp13
 70
     1
102
RTVSPropertyOp14
 70
     1
102
RTVSPropertyOp15
 70
     1
102
RTVSPropertyOp16
 70
     1
102
RTVSPropertyOp17
 70
     1
102
RTVSPropertyOp18
 70
     1
102
RTVSPropertyOp19
 70
     1
102
RTVSPropertyOp20
 70
     1
102
RTVSPropertyOp21
 70
     1
102
RTVSPropertyOp22
 70
     1
102
RTVSPropertyOp23
 70
     1
102
RTVSPropertyOp24
 70
     1
102
RTVSPropertyOp25
 70
     1
102
RTVSPropertyOp26
 70
     1
102
RTVSPropertyOp27
 70
     1
  0
XRECORD
  5
3ADE
102
{ACAD_REACTORS
330
3ADD
102
}
330
3ADD
100
AcDbXrecord
280
     1
102
RTVSPropertyOp0
 70
     1
102
RTVSPropertyOp1
 70
     1
102
RTVSPropertyOp2
 70
     1
102
RTVSPropertyOp3
 70
     1
102
RTVSPropertyOp4
 70
     1
102
RTVSPropertyOp5
 70
     1
102
RTVSPropertyOp6
 70
     1
102
RTVSPropertyOp7
 70
     1
102
RTVSPropertyOp8
 70
     1
102
RTVSPropertyOp9
 70
     1
102
RTVSPropertyOp10
 70
     1
102
RTVSPropertyOp11
 70
     1
102
RTVSPropertyOp12
 70
     1
102
RTVSPropertyOp13
 70
     1
102
RTVSPropertyOp14
 70
     1
102
RTVSPropertyOp15
 70
     1
102
RTVSPropertyOp16
 70
     1
102
RTVSPropertyOp17
 70
     1
102
RTVSPropertyOp18
 70
     1
102
RTVSPropertyOp19
 70
     1
102
RTVSPropertyOp20
 70
     1
102
RTVSPropertyOp21
 70
     1
102
RTVSPropertyOp22
 70
     1
102
RTVSPropertyOp23
 70
     1
102
RTVSPropertyOp24
 70
     1
102
RTVSPropertyOp25
 70
     1
102
RTVSPropertyOp26
 70
     1
102
RTVSPropertyOp27
 70
     1
  0
XRECORD
  5
3AE0
102
{ACAD_REACTORS
330
3ADF
102
}
330
3ADF
100
AcDbXrecord
280
     1
102
RTVSPropertyOp0
 70
     1
102
RTVSPropertyOp1
 70
     1
102
RTVSPropertyOp2
 70
     1
102
RTVSPropertyOp3
 70
     1
102
RTVSPropertyOp4
 70
     1
102
RTVSPropertyOp5
 70
     1
102
RTVSPropertyOp6
 70
     1
102
RTVSPropertyOp7
 70
     1
102
RTVSPropertyOp8
 70
     1
102
RTVSPropertyOp9
 70
     1
102
RTVSPropertyOp10
 70
     1
102
RTVSPropertyOp11
 70
     1
102
RTVSPropertyOp12
 70
     1
102
RTVSPropertyOp13
 70
     1
102
RTVSPropertyOp14
 70
     1
102
RTVSPropertyOp15
 70
     1
102
RTVSPropertyOp16
 70
     1
102
RTVSPropertyOp17
 70
     1
102
RTVSPropertyOp18
 70
     1
102
RTVSPropertyOp19
 70
     1
102
RTVSPropertyOp20
 70
     1
102
RTVSPropertyOp21
 70
     1
102
RTVSPropertyOp22
 70
     1
102
RTVSPropertyOp23
 70
     1
102
RTVSPropertyOp24
 70
     1
102
RTVSPropertyOp25
 70
     1
102
RTVSPropertyOp26
 70
     1
102
RTVSPropertyOp27
 70
     1
  0
XRECORD
  5
3AE2
102
{ACAD_REACTORS
330
3AE1
102
}
330
3AE1
100
AcDbXrecord
280
     1
102
RTVSPropertyOp0
 70
     1
102
RTVSPropertyOp1
 70
     1
102
RTVSPropertyOp2
 70
     1
102
RTVSPropertyOp3
 70
     1
102
RTVSPropertyOp4
 70
     1
102
RTVSPropertyOp5
 70
     1
102
RTVSPropertyOp6
 70
     1
102
RTVSPropertyOp7
 70
     1
102
RTVSPropertyOp8
 70
     1
102
RTVSPropertyOp9
 70
     1
102
RTVSPropertyOp10
 70
     1
102
RTVSPropertyOp11
 70
     1
102
RTVSPropertyOp12
 70
     1
102
RTVSPropertyOp13
 70
     1
102
RTVSPropertyOp14
 70
     1
102
RTVSPropertyOp15
 70
     1
102
RTVSPropertyOp16
 70
     1
102
RTVSPropertyOp17
 70
     1
102
RTVSPropertyOp18
 70
     1
102
RTVSPropertyOp19
 70
     1
102
RTVSPropertyOp20
 70
     1
102
RTVSPropertyOp21
 70
     1
102
RTVSPropertyOp22
 70
     1
102
RTVSPropertyOp23
 70
     1
102
RTVSPropertyOp24
 70
     1
102
RTVSPropertyOp25
 70
     1
102
RTVSPropertyOp26
 70
     1
102
RTVSPropertyOp27
 70
     1
  0
XRECORD
  5
3AE4
102
{ACAD_REACTORS
330
3AE3
102
}
330
3AE3
100
AcDbXrecord
280
     1
102
RTVSPropertyOp0
 70
     1
102
RTVSPropertyOp1
 70
     1
102
RTVSPropertyOp2
 70
     1
102
RTVSPropertyOp3
 70
     1
102
RTVSPropertyOp4
 70
     1
102
RTVSPropertyOp5
 70
     1
102
RTVSPropertyOp6
 70
     1
102
RTVSPropertyOp7
 70
     1
102
RTVSPropertyOp8
 70
     1
102
RTVSPropertyOp9
 70
     1
102
RTVSPropertyOp10
 70
     1
102
RTVSPropertyOp11
 70
     1
102
RTVSPropertyOp12
 70
     1
102
RTVSPropertyOp13
 70
     1
102
RTVSPropertyOp14
 70
     1
102
RTVSPropertyOp15
 70
     1
102
RTVSPropertyOp16
 70
     1
102
RTVSPropertyOp17
 70
     1
102
RTVSPropertyOp18
 70
     1
102
RTVSPropertyOp19
 70
     1
102
RTVSPropertyOp20
 70
     1
102
RTVSPropertyOp21
 70
     1
102
RTVSPropertyOp22
 70
     1
102
RTVSPropertyOp23
 70
     1
102
RTVSPropertyOp24
 70
     1
102
RTVSPropertyOp25
 70
     1
102
RTVSPropertyOp26
 70
     1
102
RTVSPropertyOp27
 70
     1
  0
XRECORD
  5
3AFE
102
{ACAD_REACTORS
330
3AFD
102
}
330
3AFD
100
AcDbXrecord
280
     1
102
RTVSPropertyOp0
 70
     0
102
RTVSPropertyOp1
 70
     0
102
RTVSPropertyOp2
 70
     0
102
RTVSPropertyOp3
 70
     0
102
RTVSPropertyOp4
 70
     0
102
RTVSPropertyOp5
 70
     0
102
RTVSPropertyOp6
 70
     0
102
RTVSPropertyOp7
 70
     0
102
RTVSPropertyOp8
 70
     0
102
RTVSPropertyOp9
 70
     0
102
RTVSPropertyOp10
 70
     0
102
RTVSPropertyOp11
 70
     0
102
RTVSPropertyOp12
 70
     0
102
RTVSPropertyOp13
 70
     0
102
RTVSPropertyOp14
 70
     2
102
RTVSPropertyOp15
 70
     0
102
RTVSPropertyOp16
 70
     0
102
RTVSPropertyOp17
 70
     0
102
RTVSPropertyOp18
 70
     0
102
RTVSPropertyOp19
 70
     0
102
RTVSPropertyOp20
 70
     0
102
RTVSPropertyOp21
 70
     0
102
RTVSPropertyOp22
 70
     0
102
RTVSPropertyOp23
 70
     0
102
RTVSPropertyOp24
 70
     0
102
RTVSPropertyOp25
 70
     0
102
RTVSPropertyOp26
 70
     0
102
RTVSPropertyOp27
 70
     0
  0
XRECORD
  5
3AF8
102
{ACAD_REACTORS
330
3AF7
102
}
330
3AF7
100
AcDbXrecord
280
     1
102
RTVSPropertyOp0
 70
     1
102
RTVSPropertyOp1
 70
     1
102
RTVSPropertyOp2
 70
     1
102
RTVSPropertyOp3
 70
     1
102
RTVSPropertyOp4
 70
     1
102
RTVSPropertyOp5
 70
     1
102
RTVSPropertyOp6
 70
     1
102
RTVSPropertyOp7
 70
     1
102
RTVSPropertyOp8
 70
     1
102
RTVSPropertyOp9
 70
     1
102
RTVSPropertyOp10
 70
     1
102
RTVSPropertyOp11
 70
     1
102
RTVSPropertyOp12
 70
     1
102
RTVSPropertyOp13
 70
     1
102
RTVSPropertyOp14
 70
     1
102
RTVSPropertyOp15
 70
     1
102
RTVSPropertyOp16
 70
     1
102
RTVSPropertyOp17
 70
     1
102
RTVSPropertyOp18
 70
     1
102
RTVSPropertyOp19
 70
     1
102
RTVSPropertyOp20
 70
     1
102
RTVSPropertyOp21
 70
     1
102
RTVSPropertyOp22
 70
     1
102
RTVSPropertyOp23
 70
     1
102
RTVSPropertyOp24
 70
     1
102
RTVSPropertyOp25
 70
     1
102
RTVSPropertyOp26
 70
     1
102
RTVSPropertyOp27
 70
     1
  0
XRECORD
  5
3B00
102
{ACAD_REACTORS
330
3AFF
102
}
330
3AFF
100
AcDbXrecord
280
     1
102
RTVSPropertyOp0
 70
     0
102
RTVSPropertyOp1
 70
     0
102
RTVSPropertyOp2
 70
     0
102
RTVSPropertyOp3
 70
     0
102
RTVSPropertyOp4
 70
     0
102
RTVSPropertyOp5
 70
     0
102
RTVSPropertyOp6
 70
     0
102
RTVSPropertyOp7
 70
     0
102
RTVSPropertyOp8
 70
     0
102
RTVSPropertyOp9
 70
     0
102
RTVSPropertyOp10
 70
     0
102
RTVSPropertyOp11
 70
     0
102
RTVSPropertyOp12
 70
     0
102
RTVSPropertyOp13
 70
     0
102
RTVSPropertyOp14
 70
     2
102
RTVSPropertyOp15
 70
     0
102
RTVSPropertyOp16
 70
     0
102
RTVSPropertyOp17
 70
     0
102
RTVSPropertyOp18
 70
     0
102
RTVSPropertyOp19
 70
     0
102
RTVSPropertyOp20
 70
     0
102
RTVSPropertyOp21
 70
     0
102
RTVSPropertyOp22
 70
     0
102
RTVSPropertyOp23
 70
     0
102
RTVSPropertyOp24
 70
     0
102
RTVSPropertyOp25
 70
     0
102
RTVSPropertyOp26
 70
     0
102
RTVSPropertyOp27
 70
     0
  0
XRECORD
  5
3AF0
102
{ACAD_REACTORS
330
3AEF
102
}
330
3AEF
100
AcDbXrecord
280
     1
102
RTVSPropertyOp0
 70
     1
102
RTVSPropertyOp1
 70
     1
102
RTVSPropertyOp2
 70
     1
102
RTVSPropertyOp3
 70
     1
102
RTVSPropertyOp4
 70
     1
102
RTVSPropertyOp5
 70
     1
102
RTVSPropertyOp6
 70
     1
102
RTVSPropertyOp7
 70
     1
102
RTVSPropertyOp8
 70
     1
102
RTVSPropertyOp9
 70
     1
102
RTVSPropertyOp10
 70
     1
102
RTVSPropertyOp11
 70
     1
102
RTVSPropertyOp12
 70
     1
102
RTVSPropertyOp13
 70
     1
102
RTVSPropertyOp14
 70
     1
102
RTVSPropertyOp15
 70
     1
102
RTVSPropertyOp16
 70
     1
102
RTVSPropertyOp17
 70
     1
102
RTVSPropertyOp18
 70
     1
102
RTVSPropertyOp19
 70
     1
102
RTVSPropertyOp20
 70
     1
102
RTVSPropertyOp21
 70
     1
102
RTVSPropertyOp22
 70
     1
102
RTVSPropertyOp23
 70
     1
102
RTVSPropertyOp24
 70
     1
102
RTVSPropertyOp25
 70
     1
102
RTVSPropertyOp26
 70
     1
102
RTVSPropertyOp27
 70
     1
  0
XRECORD
  5
3AF6
102
{ACAD_REACTORS
330
3AF5
102
}
330
3AF5
100
AcDbXrecord
280
     1
102
RTVSPropertyOp0
 70
     1
102
RTVSPropertyOp1
 70
     1
102
RTVSPropertyOp2
 70
     1
102
RTVSPropertyOp3
 70
     1
102
RTVSPropertyOp4
 70
     1
102
RTVSPropertyOp5
 70
     1
102
RTVSPropertyOp6
 70
     1
102
RTVSPropertyOp7
 70
     1
102
RTVSPropertyOp8
 70
     1
102
RTVSPropertyOp9
 70
     1
102
RTVSPropertyOp10
 70
     1
102
RTVSPropertyOp11
 70
     1
102
RTVSPropertyOp12
 70
     1
102
RTVSPropertyOp13
 70
     1
102
RTVSPropertyOp14
 70
     1
102
RTVSPropertyOp15
 70
     1
102
RTVSPropertyOp16
 70
     1
102
RTVSPropertyOp17
 70
     1
102
RTVSPropertyOp18
 70
     1
102
RTVSPropertyOp19
 70
     1
102
RTVSPropertyOp20
 70
     1
102
RTVSPropertyOp21
 70
     1
102
RTVSPropertyOp22
 70
     1
102
RTVSPropertyOp23
 70
     1
102
RTVSPropertyOp24
 70
     1
102
RTVSPropertyOp25
 70
     1
102
RTVSPropertyOp26
 70
     1
102
RTVSPropertyOp27
 70
     1
  0
ENDSEC
  0
EOF
