  0
SECTION
  2
HEADER
  9
$ACADVER
  1
AC1015
  9
$ACADMAINTVER
 70
    20
  9
$DWGCODEPAGE
  3
ANSI_1252
  9
$INSBASE
 10
0.0
 20
0.0
 30
0.0
  9
$EXTMIN
 10
6158.775799720475
 20
2335.23886040498
 30
-0.0000000017937957
  9
$EXTMAX
 10
6162.173746400526
 20
2337.089099576624
 30
0.0000000001557791
  9
$LIMMIN
 10
0.0
 20
0.0
  9
$LIMMAX
 10
420.0
 20
297.0
  9
$ORTHOMODE
 70
     1
  9
$REGENMODE
 70
     1
  9
$FILLMODE
 70
     1
  9
$QTEXTMODE
 70
     0
  9
$MIRRTEXT
 70
     1
  9
$LTSCALE
 40
1.0
  9
$ATTMODE
 70
     1
  9
$TEXTSIZE
 40
2.5
  9
$TRACEWID
 40
1.0
  9
$TEXTSTYLE
  7
SANINDUSA
  9
$CLAYER
  8
7
  9
$CELTYPE
  6
ByLayer
  9
$CECOLOR
 62
   256
  9
$CELTSCALE
 40
1.0
  9
$DISPSILH
 70
     0
  9
$DIMSCALE
 40
10.0
  9
$DIMASZ
 40
2.0
  9
$DIMEXO
 40
1.0
  9
$DIMDLI
 40
1.0
  9
$DIMRND
 40
0.0
  9
$DIMDLE
 40
0.0
  9
$DIMEXE
 40
1.0
  9
$DIMTP
 40
0.0
  9
$DIMTM
 40
0.0
  9
$DIMTXT
 40
2.0
  9
$DIMCEN
 40
0.0
  9
$DIMTSZ
 40
0.0
  9
$DIMTOL
 70
     0
  9
$DIMLIM
 70
     0
  9
$DIMTIH
 70
     0
  9
$DIMTOH
 70
     0
  9
$DIMSE1
 70
     0
  9
$DIMSE2
 70
     0
  9
$DIMTAD
 70
     1
  9
$DIMZIN
 70
     8
  9
$DIMBLK
  1

  9
$DIMASO
 70
     1
  9
$DIMSHO
 70
     1
  9
$DIMPOST
  1

  9
$DIMAPOST
  1

  9
$DIMALT
 70
     0
  9
$DIMALTD
 70
     3
  9
$DIMALTF
 40
0.03937007874016
  9
$DIMLFAC
 40
1.0
  9
$DIMTOFL
 70
     1
  9
$DIMTVP
 40
0.0
  9
$DIMTIX
 70
     0
  9
$DIMSOXD
 70
     0
  9
$DIMSAH
 70
     0
  9
$DIMBLK1
  1

  9
$DIMBLK2
  1

  9
$DIMSTYLE
  2
SANINDUSA
  9
$DIMCLRD
 70
   256
  9
$DIMCLRE
 70
   256
  9
$DIMCLRT
 70
   256
  9
$DIMTFAC
 40
1.0
  9
$DIMGAP
 40
1.0
  9
$DIMJUST
 70
     0
  9
$DIMSD1
 70
     0
  9
$DIMSD2
 70
     0
  9
$DIMTOLJ
 70
     0
  9
$DIMTZIN
 70
     8
  9
$DIMALTZ
 70
     0
  9
$DIMALTTZ
 70
     0
  9
$DIMUPT
 70
     0
  9
$DIMDEC
 70
     1
  9
$DIMTDEC
 70
     1
  9
$DIMALTU
 70
     2
  9
$DIMALTTD
 70
     3
  9
$DIMTXSTY
  7
SANINDUSA
  9
$DIMAUNIT
 70
     0
  9
$DIMADEC
 70
     1
  9
$DIMALTRND
 40
0.0
  9
$DIMAZIN
 70
     0
  9
$DIMDSEP
 70
    44
  9
$DIMATFIT
 70
     3
  9
$DIMFRAC
 70
     0
  9
$DIMLDRBLK
  1

  9
$DIMLUNIT
 70
     2
  9
$DIMLWD
 70
    -1
  9
$DIMLWE
 70
    -1
  9
$DIMTMOVE
 70
     0
  9
$LUNITS
 70
     2
  9
$LUPREC
 70
     4
  9
$SKETCHINC
 40
1.0
  9
$FILLETRAD
 40
0.0
  9
$AUNITS
 70
     0
  9
$AUPREC
 70
     0
  9
$MENU
  1
.
  9
$ELEVATION
 40
0.0
  9
$PELEVATION
 40
0.0
  9
$THICKNESS
 40
0.0
  9
$LIMCHECK
 70
     0
  9
$CHAMFERA
 40
10.0
  9
$CHAMFERB
 40
10.0
  9
$CHAMFERC
 40
20.0
  9
$CHAMFERD
 40
0.0
  9
$SKPOLY
 70
     0
  9
$TDCREATE
 40
2454138.513543831
  9
$TDUCREATE
 40
2454138.471877164
  9
$TDUPDATE
 40
2455824.639361794
  9
$TDUUPDATE
 40
2455824.597695127
  9
$TDINDWG
 40
0.0149423032
  9
$TDUSRTIMER
 40
0.0149423032
  9
$USRTIMER
 70
     1
  9
$ANGBASE
 50
0.0
  9
$ANGDIR
 70
     0
  9
$PDMODE
 70
     0
  9
$PDSIZE
 40
0.0
  9
$PLINEWID
 40
0.0
  9
$SPLFRAME
 70
     0
  9
$SPLINETYPE
 70
     6
  9
$SPLINESEGS
 70
     8
  9
$HANDSEED
  5
24A8
  9
$SURFTAB1
 70
     6
  9
$SURFTAB2
 70
     6
  9
$SURFTYPE
 70
     6
  9
$SURFU
 70
     6
  9
$SURFV
 70
     6
  9
$UCSBASE
  2

  9
$UCSNAME
  2

  9
$UCSORG
 10
0.0
 20
0.0
 30
0.0
  9
$UCSXDIR
 10
1.0
 20
0.0
 30
0.0
  9
$UCSYDIR
 10
0.0
 20
1.0
 30
0.0
  9
$UCSORTHOREF
  2

  9
$UCSORTHOVIEW
 70
     0
  9
$UCSORGTOP
 10
0.0
 20
0.0
 30
0.0
  9
$UCSORGBOTTOM
 10
0.0
 20
0.0
 30
0.0
  9
$UCSORGLEFT
 10
0.0
 20
0.0
 30
0.0
  9
$UCSORGRIGHT
 10
0.0
 20
0.0
 30
0.0
  9
$UCSORGFRONT
 10
0.0
 20
0.0
 30
0.0
  9
$UCSORGBACK
 10
0.0
 20
0.0
 30
0.0
  9
$PUCSBASE
  2

  9
$PUCSNAME
  2

  9
$PUCSORG
 10
0.0
 20
0.0
 30
0.0
  9
$PUCSXDIR
 10
1.0
 20
0.0
 30
0.0
  9
$PUCSYDIR
 10
0.0
 20
1.0
 30
0.0
  9
$PUCSORTHOREF
  2

  9
$PUCSORTHOVIEW
 70
     0
  9
$PUCSORGTOP
 10
0.0
 20
0.0
 30
0.0
  9
$PUCSORGBOTTOM
 10
0.0
 20
0.0
 30
0.0
  9
$PUCSORGLEFT
 10
0.0
 20
0.0
 30
0.0
  9
$PUCSORGRIGHT
 10
0.0
 20
0.0
 30
0.0
  9
$PUCSORGFRONT
 10
0.0
 20
0.0
 30
0.0
  9
$PUCSORGBACK
 10
0.0
 20
0.0
 30
0.0
  9
$USERI1
 70
     0
  9
$USERI2
 70
     0
  9
$USERI3
 70
     0
  9
$USERI4
 70
     0
  9
$USERI5
 70
     0
  9
$USERR1
 40
0.0
  9
$USERR2
 40
0.0
  9
$USERR3
 40
0.0
  9
$USERR4
 40
0.0
  9
$USERR5
 40
0.0
  9
$WORLDVIEW
 70
     1
  9
$SHADEDGE
 70
     3
  9
$SHADEDIF
 70
    70
  9
$TILEMODE
 70
     1
  9
$MAXACTVP
 70
    64
  9
$PINSBASE
 10
0.0
 20
0.0
 30
0.0
  9
$PLIMCHECK
 70
     0
  9
$PEXTMIN
 10
1.000000000000000E+20
 20
1.000000000000000E+20
 30
1.000000000000000E+20
  9
$PEXTMAX
 10
-1.000000000000000E+20
 20
-1.000000000000000E+20
 30
-1.000000000000000E+20
  9
$PLIMMIN
 10
0.0
 20
0.0
  9
$PLIMMAX
 10
420.0
 20
297.0
  9
$UNITMODE
 70
     0
  9
$VISRETAIN
 70
     1
  9
$PLINEGEN
 70
     0
  9
$PSLTSCALE
 70
     1
  9
$TREEDEPTH
 70
  3020
  9
$CMLSTYLE
  2
Standard
  9
$CMLJUST
 70
     0
  9
$CMLSCALE
 40
20.0
  9
$PROXYGRAPHICS
 70
     1
  9
$MEASUREMENT
 70
     1
  9
$CELWEIGHT
370
    -1
  9
$ENDCAPS
280
     0
  9
$JOINSTYLE
280
     0
  9
$LWDISPLAY
290
     0
  9
$INSUNITS
 70
     4
  9
$HYPERLINKBASE
  1

  9
$STYLESHEET
  1
sanindusa.ctb
  9
$XEDIT
290
     1
  9
$CEPSNTYPE
380
     0
  9
$PSTYLEMODE
290
     1
  9
$FINGERPRINTGUID
  2
{61266F24-2214-45F5-A707-2F5E56B37604}
  9
$VERSIONGUID
  2
{95761641-BF82-4FE4-9119-54CF32CE3C91}
  9
$EXTNAMES
290
     1
  9
$PSVPSCALE
 40
0.0
  9
$OLESTARTUP
290
     0
  0
ENDSEC
  0
SECTION
  2
CLASSES
  0
CLASS
  1
ACDBDICTIONARYWDFLT
  2
AcDbDictionaryWithDefault
  3
ObjectDBX Classes
 90
        0
280
     0
281
     0
  0
CLASS
  1
ACDBPLACEHOLDER
  2
AcDbPlaceHolder
  3
ObjectDBX Classes
 90
        0
280
     0
281
     0
  0
CLASS
  1
LAYOUT
  2
AcDbLayout
  3
ObjectDBX Classes
 90
        0
280
     0
281
     0
  0
CLASS
  1
DICTIONARYVAR
  2
AcDbDictionaryVar
  3
ObjectDBX Classes
 90
        0
280
     0
281
     0
  0
CLASS
  1
DIMASSOC
  2
AcDbDimAssoc
  3
"AcDbDimAssoc|Product Desc:     AcDim ARX App For Dimension|Company:          Autodesk, Inc.|WEB Address:      www.autodesk.com"
 90
        0
280
     0
281
     0
  0
CLASS
  1
TABLESTYLE
  2
AcDbTableStyle
  3
ObjectDBX Classes
 90
     4095
280
     0
281
     0
  0
CLASS
  1
SORTENTSTABLE
  2
AcDbSortentsTable
  3
ObjectDBX Classes
 90
        0
280
     0
281
     0
  0
CLASS
  1
MATERIAL
  2
AcDbMaterial
  3
ObjectDBX Classes
 90
     1153
280
     0
281
     0
  0
CLASS
  1
VISUALSTYLE
  2
AcDbVisualStyle
  3
ObjectDBX Classes
 90
     4095
280
     0
281
     0
  0
CLASS
  1
SCALE
  2
AcDbScale
  3
ObjectDBX Classes
 90
     1153
280
     0
281
     0
  0
CLASS
  1
MLEADERSTYLE
  2
AcDbMLeaderStyle
  3
ACDB_MLEADERSTYLE_CLASS
 90
     4095
280
     0
281
     0
  0
CLASS
  1
CELLSTYLEMAP
  2
AcDbCellStyleMap
  3
ObjectDBX Classes
 90
     1152
280
     0
281
     0
  0
ENDSEC
  0
SECTION
  2
TABLES
  0
TABLE
  2
VPORT
  5
8
330
0
100
AcDbSymbolTable
 70
     1
  0
VPORT
  5
2393
330
8
100
AcDbSymbolTableRecord
100
AcDbViewportTableRecord
  2
*Active
 70
     0
 10
0.0
 20
0.0
 11
1.0
 21
1.0
 12
6160.4747730605
 22
2336.163979990801
 13
0.0
 23
0.0
 14
10.0
 24
10.0
 15
10.0
 25
10.0
 16
0.0
 26
0.0
 36
1.0
 17
0.0
 27
0.0
 37
0.0
 40
2.072882250385531
 41
1.645464025026068
 42
50.0
 43
0.0
 44
0.0
 50
0.0
 51
0.0
 71
     0
 72
   100
 73
     1
 74
     2
 75
     0
 76
     0
 77
     0
 78
     0
281
     0
 65
     1
110
0.0
120
0.0
130
0.0
111
1.0
121
0.0
131
0.0
112
0.0
122
1.0
132
0.0
 79
     0
146
0.0
  0
ENDTAB
  0
TABLE
  2
LTYPE
  5
5
330
0
100
AcDbSymbolTable
 70
     6
  0
LTYPE
  5
14
330
5
100
AcDbSymbolTableRecord
100
AcDbLinetypeTableRecord
  2
ByBlock
 70
     0
  3

 72
    65
 73
     0
 40
0.0
  0
LTYPE
  5
15
330
5
100
AcDbSymbolTableRecord
100
AcDbLinetypeTableRecord
  2
ByLayer
 70
     0
  3

 72
    65
 73
     0
 40
0.0
  0
LTYPE
  5
16
330
5
100
AcDbSymbolTableRecord
100
AcDbLinetypeTableRecord
  2
Continuous
 70
     0
  3
Solid line
 72
    65
 73
     0
 40
0.0
  0
LTYPE
  5
2D
330
5
100
AcDbSymbolTableRecord
100
AcDbLinetypeTableRecord
  2
DASHDOT
 70
     0
  3
Dash dot __ . __ . __ . __ . __ . __ . __ . __
 72
    65
 73
     4
 40
25.4
 49
12.7
 74
     0
 49
-6.349999999999999
 74
     0
 49
0.0
 74
     0
 49
-6.349999999999999
 74
     0
  0
LTYPE
  5
2E
330
5
100
AcDbSymbolTableRecord
100
AcDbLinetypeTableRecord
  2
HIDDEN
 70
     0
  3
Hidden __ __ __ __ __ __ __ __ __ __ __ __ __ _
 72
    65
 73
     2
 40
9.524999999999998
 49
6.349999999999999
 74
     0
 49
-3.174999999999999
 74
     0
  0
LTYPE
  5
C75
330
5
100
AcDbSymbolTableRecord
100
AcDbLinetypeTableRecord
  2
AM_ISO02W050
 70
     0
  3
__ __ __ __ __ __ __ __ __ __ __ __ __ __ __
 72
    65
 73
     2
 40
7.5
 49
6.0
 74
     0
 49
-1.5
 74
     0
  0
LTYPE
  5
C76
330
5
100
AcDbSymbolTableRecord
100
AcDbLinetypeTableRecord
  2
AM_ISO08W050
 70
     0
  3
____ . ____ . ____ . ____ . ____ . ____ . ____
 72
    65
 73
     4
 40
18.0
 49
12.0
 74
     0
 49
-1.5
 74
     0
 49
3.0
 74
     0
 49
-1.5
 74
     0
  0
ENDTAB
  0
TABLE
  2
LAYER
  5
2
102
{ACAD_XDICTIONARY
360
1051
102
}
330
0
100
AcDbSymbolTable
 70
    17
  0
LAYER
  5
10
102
{ACAD_XDICTIONARY
360
240A
102
}
330
2
100
AcDbSymbolTableRecord
100
AcDbLayerTableRecord
  2
0
 70
     0
 62
     7
  6
Continuous
370
    -3
390
F
  0
LAYER
  5
2F
102
{ACAD_XDICTIONARY
360
240C
102
}
330
2
100
AcDbSymbolTableRecord
100
AcDbLayerTableRecord
  2
1
 70
     0
 62
     1
  6
Continuous
370
    -3
390
F
  0
LAYER
  5
30
102
{ACAD_XDICTIONARY
360
240E
102
}
330
2
100
AcDbSymbolTableRecord
100
AcDbLayerTableRecord
  2
2
 70
     0
 62
     2
  6
Continuous
370
    -3
390
F
  0
LAYER
  5
31
102
{ACAD_XDICTIONARY
360
2410
102
}
330
2
100
AcDbSymbolTableRecord
100
AcDbLayerTableRecord
  2
3
 70
     0
 62
     3
  6
Continuous
370
    -3
390
F
  0
LAYER
  5
32
102
{ACAD_XDICTIONARY
360
2412
102
}
330
2
100
AcDbSymbolTableRecord
100
AcDbLayerTableRecord
  2
4
 70
     0
 62
     4
  6
Continuous
370
    -3
390
F
  0
LAYER
  5
33
102
{ACAD_XDICTIONARY
360
2414
102
}
330
2
100
AcDbSymbolTableRecord
100
AcDbLayerTableRecord
  2
5
 70
     0
 62
     5
  6
Continuous
370
    -3
390
F
  0
LAYER
  5
34
102
{ACAD_XDICTIONARY
360
2416
102
}
330
2
100
AcDbSymbolTableRecord
100
AcDbLayerTableRecord
  2
6
 70
     0
 62
     6
  6
Continuous
370
    -3
390
F
  0
LAYER
  5
35
102
{ACAD_XDICTIONARY
360
2418
102
}
330
2
100
AcDbSymbolTableRecord
100
AcDbLayerTableRecord
  2
7
 70
     0
 62
     7
  6
Continuous
370
    -3
390
F
  0
LAYER
  5
36
102
{ACAD_XDICTIONARY
360
241A
102
}
330
2
100
AcDbSymbolTableRecord
100
AcDbLayerTableRecord
  2
cen
 70
     0
 62
     7
  6
DASHDOT
370
    -3
390
F
  0
LAYER
  5
37
102
{ACAD_XDICTIONARY
360
241C
102
}
330
2
100
AcDbSymbolTableRecord
100
AcDbLayerTableRecord
  2
hid
 70
     0
 62
     7
  6
HIDDEN
370
    -3
390
F
  0
LAYER
  5
5D6
102
{ACAD_XDICTIONARY
360
241E
102
}
330
2
100
AcDbSymbolTableRecord
100
AcDbLayerTableRecord
  2
hatch
 70
     0
 62
     9
  6
Continuous
370
    -3
390
F
  0
LAYER
  5
8AF
102
{ACAD_XDICTIONARY
360
2420
102
}
330
2
100
AcDbSymbolTableRecord
100
AcDbLayerTableRecord
  2
9
 70
     0
 62
     9
  6
Continuous
370
    -3
390
F
  0
LAYER
  5
8F8
102
{ACAD_XDICTIONARY
360
2422
102
}
330
2
100
AcDbSymbolTableRecord
100
AcDbLayerTableRecord
  2
leg fin
 70
     0
 62
     9
  6
Continuous
370
    -3
390
F
  0
LAYER
  5
91D
102
{ACAD_XDICTIONARY
360
2424
102
}
330
2
100
AcDbSymbolTableRecord
100
AcDbLayerTableRecord
  2
cotas
 70
     0
 62
     1
  6
Continuous
370
    -3
390
F
  0
LAYER
  5
92F
330
2
100
AcDbSymbolTableRecord
100
AcDbLayerTableRecord
  2
Defpoints
 70
     0
 62
     7
  6
Continuous
290
     0
370
    -3
390
F
  0
LAYER
  5
C7B
102
{ACAD_XDICTIONARY
360
2426
102
}
330
2
100
AcDbSymbolTableRecord
100
AcDbLayerTableRecord
  2
SANINDUSA
 70
     0
 62
     3
  6
Continuous
370
    -3
390
F
  0
LAYER
  5
10DD
102
{ACAD_XDICTIONARY
360
2428
102
}
330
2
100
AcDbSymbolTableRecord
100
AcDbLayerTableRecord
  2
quote
 70
     0
 62
   250
  6
Continuous
370
     5
390
F
  0
ENDTAB
  0
TABLE
  2
STYLE
  5
3
330
0
100
AcDbSymbolTable
 70
     4
  0
STYLE
  5
11
330
3
100
AcDbSymbolTableRecord
100
AcDbTextStyleTableRecord
  2
Standard
 70
     0
 40
0.0
 41
1.0
 50
0.0
 71
     0
 42
2.5
  3
Avgardn.ttf
  4

1001
ACAD
1000
AvantGarde Bk BT
1071
       34
  0
STYLE
  5
2C
330
3
100
AcDbSymbolTableRecord
100
AcDbTextStyleTableRecord
  2

 70
     1
 40
0.0
 41
1.0
 50
0.0
 71
     0
 42
2.5
  3
ltypeshp.shx
  4

  0
STYLE
  5
91F
330
3
100
AcDbSymbolTableRecord
100
AcDbTextStyleTableRecord
  2
SANINDUSA
 70
     0
 40
0.0
 41
1.0
 50
0.0
 71
     0
 42
2.5
  3
verdana.TTF
  4

1001
ACAD
1000
Verdana
1071
       34
  0
STYLE
  5
C7C
330
3
100
AcDbSymbolTableRecord
100
AcDbTextStyleTableRecord
  2
futura
 70
     0
 40
0.0
 41
1.0
 50
0.0
 71
     0
 42
2.5
  3
ZURCHN.TTF
  4

1001
ACAD
1000
Zurich BT
1071
       34
  0
ENDTAB
  0
TABLE
  2
VIEW
  5
6
330
0
100
AcDbSymbolTable
 70
     0
  0
ENDTAB
  0
TABLE
  2
UCS
  5
7
330
0
100
AcDbSymbolTable
 70
     0
  0
ENDTAB
  0
TABLE
  2
APPID
  5
9
330
0
100
AcDbSymbolTable
 70
    15
  0
APPID
  5
12
330
9
100
AcDbSymbolTableRecord
100
AcDbRegAppTableRecord
  2
ACAD
 70
     0
  0
APPID
  5
3A
330
9
100
AcDbSymbolTableRecord
100
AcDbRegAppTableRecord
  2
DCO15
 70
     0
  0
APPID
  5
EEE
330
9
100
AcDbSymbolTableRecord
100
AcDbRegAppTableRecord
  2
ACAD_DSTYLE_DIMTEXT_FILL
 70
     0
  0
APPID
  5
EEF
330
9
100
AcDbSymbolTableRecord
100
AcDbRegAppTableRecord
  2
ACAD_DSTYLE_DIMEXT_LENGTH
 70
     0
  0
APPID
  5
EF0
330
9
100
AcDbSymbolTableRecord
100
AcDbRegAppTableRecord
  2
ACAD_DSTYLE_DIMEXT_ENABLED
 70
     0
  0
APPID
  5
EF1
330
9
100
AcDbSymbolTableRecord
100
AcDbRegAppTableRecord
  2
ACAD_DSTYLE_DIM_LINETYPE
 70
     0
  0
APPID
  5
EF2
330
9
100
AcDbSymbolTableRecord
100
AcDbRegAppTableRecord
  2
ACAD_DSTYLE_DIM_EXT1_LINETYPE
 70
     0
  0
APPID
  5
EF3
330
9
100
AcDbSymbolTableRecord
100
AcDbRegAppTableRecord
  2
ACAD_DSTYLE_DIM_EXT2_LINETYPE
 70
     0
  0
APPID
  5
FAF
330
9
100
AcDbSymbolTableRecord
100
AcDbRegAppTableRecord
  2
ACAD_DSTYLE_DIMJOGGED_JOGANGLE_SYMBOL
 70
     0
  0
APPID
  5
1013
330
9
100
AcDbSymbolTableRecord
100
AcDbRegAppTableRecord
  2
ACAD_DSTYLE_DIMARC_LENGTH_SYMBOL
 70
     0
  0
APPID
  5
10DE
330
9
100
AcDbSymbolTableRecord
100
AcDbRegAppTableRecord
  2
GENIUS_GENREC_14
 70
     0
  0
APPID
  5
10DF
330
9
100
AcDbSymbolTableRecord
100
AcDbRegAppTableRecord
  2
GENIUS_GENODEF_13
 70
     0
  0
APPID
  5
10E0
330
9
100
AcDbSymbolTableRecord
100
AcDbRegAppTableRecord
  2
GENIUS_GENOBJ-N-REC_13
 70
     0
  0
APPID
  5
2164
330
9
100
AcDbSymbolTableRecord
100
AcDbRegAppTableRecord
  2
ACAD_EXEMPT_FROM_CAD_STANDARDS
 70
     0
  0
APPID
  5
24A7
330
9
100
AcDbSymbolTableRecord
100
AcDbRegAppTableRecord
  2
ACAD_MLEADERVER
 70
     0
  0
ENDTAB
  0
TABLE
  2
DIMSTYLE
  5
A
330
0
100
AcDbSymbolTable
 70
     4
100
AcDbDimStyleTable
 71
     1
340
921
  0
DIMSTYLE
105
45
330
A
100
AcDbSymbolTableRecord
100
AcDbDimStyleTableRecord
  2
STANDARD
 70
     0
289
     0
340
11
  0
DIMSTYLE
105
921
330
A
100
AcDbSymbolTableRecord
100
AcDbDimStyleTableRecord
  2
SANINDUSA
 70
     0
 40
10.0
 41
2.0
 42
1.0
 43
1.0
 44
1.0
 73
     0
 74
     0
 77
     1
 78
     8
140
2.0
141
0.0
143
0.03937007874016
147
1.0
171
     3
172
     1
176
   256
177
   256
178
   256
179
     1
271
     1
272
     1
274
     3
278
    44
283
     0
284
     8
340
91F
371
    -1
372
    -1
1001
ACAD_DSTYLE_DIMJOGGED_JOGANGLE_SYMBOL
1070
   384
1040
1.570796326794896
  0
DIMSTYLE
105
C7D
330
A
100
AcDbSymbolTableRecord
100
AcDbDimStyleTableRecord
  2
AM_ISO
 70
     0
  4
"
 41
2.5
 42
1.0
 43
10.0
 44
1.0
 47
0.1
 48
0.1
 73
     0
 74
     0
 77
     1
 78
     8
 79
     2
140
3.5
141
0.0
143
0.0393701
146
0.71
147
1.5
172
     1
176
   256
177
   256
178
     2
271
     2
272
     3
274
     4
283
     0
284
     8
340
11
371
    -1
372
    -1
  0
ENDTAB
  0
TABLE
  2
BLOCK_RECORD
  5
1
330
0
100
AcDbSymbolTable
 70
    23
  0
BLOCK_RECORD
  5
1F
102
{ACAD_XDICTIONARY
360
223C
102
}
330
1
100
AcDbSymbolTableRecord
100
AcDbBlockTableRecord
  2
*Model_Space
340
22
  0
BLOCK_RECORD
  5
1B
330
1
100
AcDbSymbolTableRecord
100
AcDbBlockTableRecord
  2
*Paper_Space
340
1E
  0
BLOCK_RECORD
  5
23
330
1
100
AcDbSymbolTableRecord
100
AcDbBlockTableRecord
  2
*Paper_Space0
340
26
  0
BLOCK_RECORD
  5
919
330
1
100
AcDbSymbolTableRecord
100
AcDbBlockTableRecord
  2
_DotSmall
340
0
  0
BLOCK_RECORD
  5
922
330
1
100
AcDbSymbolTableRecord
100
AcDbBlockTableRecord
  2
base para cotas
340
0
310
2800000020000000200000000100080000000000000400000000000000000000000000000000000000000000000080000080000000808000800000008000800080800000C0C0C000C0DCC000F0CAA6000020400000206000002080000020A0000020C0000020E00000400000004020000040400000406000004080000040A0
310
000040C0000040E00000600000006020000060400000606000006080000060A0000060C0000060E00000800000008020000080400000806000008080000080A0000080C0000080E00000A0000000A0200000A0400000A0600000A0800000A0A00000A0C00000A0E00000C0000000C0200000C0400000C0600000C0800000C0
310
A00000C0C00000C0E00000E0000000E0200000E0400000E0600000E0800000E0A00000E0C00000E0E00040000000400020004000400040006000400080004000A0004000C0004000E00040200000402020004020400040206000402080004020A0004020C0004020E000404000004040200040404000404060004040800040
310
40A0004040C0004040E00040600000406020004060400040606000406080004060A0004060C0004060E00040800000408020004080400040806000408080004080A0004080C0004080E00040A0000040A0200040A0400040A0600040A0800040A0A00040A0C00040A0E00040C0000040C0200040C0400040C0600040C08000
310
40C0A00040C0C00040C0E00040E0000040E0200040E0400040E0600040E0800040E0A00040E0C00040E0E00080000000800020008000400080006000800080008000A0008000C0008000E00080200000802020008020400080206000802080008020A0008020C0008020E00080400000804020008040400080406000804080
310
008040A0008040C0008040E00080600000806020008060400080606000806080008060A0008060C0008060E00080800000808020008080400080806000808080008080A0008080C0008080E00080A0000080A0200080A0400080A0600080A0800080A0A00080A0C00080A0E00080C0000080C0200080C0400080C0600080C0
310
800080C0A00080C0C00080C0E00080E0000080E0200080E0400080E0600080E0800080E0A00080E0C00080E0E000C0000000C0002000C0004000C0006000C0008000C000A000C000C000C000E000C0200000C0202000C0204000C0206000C0208000C020A000C020C000C020E000C0400000C0402000C0404000C0406000C0
310
408000C040A000C040C000C040E000C0600000C0602000C0604000C0606000C0608000C060A000C060C000C060E000C0800000C0802000C0804000C0806000C0808000C080A000C080C000C080E000C0A00000C0A02000C0A04000C0A06000C0A08000C0A0A000C0A0C000C0A0E000C0C00000C0C02000C0C04000C0C06000
310
C0C08000C0C0A000F0FBFF00A4A0A000808080000000FF0000FF000000FFFF00FF000000FF00FF00FFFF0000FFFFFF00A4A4A4A4A4A4A4A4A4A4A4A4A4A4A4A4A4A4A4A4A4A4A4A4A4A4A4A4A4A4A4A4A4A4A4A4A4A4A4A4A4A4A4A4A4A4A4A4A4A4A4A4A4A4A4A4A4A4A4A4A4A4A4A4A4A4A4A4A4A4A4A4A4A4A4A4A4A4A4
310
A4A4A4A4A4A4A4A4A4A4A4A4A4A4A4A4A4A4A4A4A4A4A4A4A4A4A4A4A4A4A4A4A4A4A4A4A4A4A4A4A4A4A4A4A4A4A4A4A4A4A4A4A4A4A4A4A4A4A4A4A4A4A4A4A4A4A4A4A4A4A4A4A4A4A4A4A4A4A4A4A4A4A4A4A4A4A4A4A4A4A4A4A4A4A4A4A4A4A4A4A4A4A4A4A4A4A4A4A4A4A4A4A4A4A4A4A4A4A4A4A4A4A4A4A4A4A4
310
A4A4A4A4A4A4A4A4A4A4A4A4A4A4A4A4A4A4A4A4A4A4A4A4A4A4A4A4A4A4A4A4A4A4A4A4A4A4A4A4A4A4A4A4A4A4A4A4A4A4A4A4A4A4A4A4A4A4A4A4A4A4A4A4A4A4A4A4A4A4A4A4A4A4A4A4A4A4A4A4A4A4A4A4A4A4A4A4A4A4A4A4A4A4A4A4A4A4A4A4A4A4A4A4A4A4A4A4A4A4A4A4A4A4A4A4A4A4A4A4A4A4A4A4A4A4A4
310
A4A4A4A4A4A4A4A4A4A4A4A4A4A4A4A4A4A4A4A4A4A4A4A4A4A4A4A4A4A4A4A4A4A4A4A4A4A4A4A4A4A4A4A4A4A4A4A4A4A4A4A4A4A4A4A4A4A4A4A4A4A4A4A4A4A4A4A4A4A4A4A4A4A4A4A4A4A4A4A4A4A4A4A4A4A4A4A4A4A4A4A4A4A4A4A4A4A4A4A4A4A4A4A4A4A4A4A4A4A4A4A4A4A4A4A4F9F9F9F9F9F9F9F9F9F9F9
310
F9F9F9F9F9F9F9F9F9F9F9F9F9F9F9F9F9F9F9A4A4F9F9F9F9F9F9F9F9F9F9F9F9F9F9F9F9F9F9F9F9F9F9F9F9F9F9F9F9F9F9A4A4F9F9F9F9F9F9F9F9F9F9F9F9F9F9F9F9F9F9F9F9F9F9F9F9F9F9F9F9F9F9A4A4F9A4A4A4A4A4A4A4A4A4A4A4A4A4A4A4A4A4A4A4A4A4A4A4A4A4A4A4A4F9A4A4A4A4A4A4A4A4A4A4A4A4
310
A4A4A4A4A4A4A4A4A4A4A4A4A4A4A4A4A4A4A4A4A4A4A4A4A4A4A4A4A4A4A4A4A4A4A4A4A4A4A4A4A4A4A4A4A4A4A4A4A4A4A4A4A4A4A4A4A4A4A4A4A4A4A4A4A4A4A4A4A4A4A4A4A4A4A4A4A4A4A4A4A4A4A4A4A4A4A4A4A4A4A4A4A4A4A4A4A4A4A4A4A4A4A4A4A4A4A4A4A4A4A4A4A4A4A4A4A4A4A4A4A4A4A4A4A4A4A4
310
A4A4A4A4A4A4A4A4A4A4A4A4A4A4A4A4A4A4A4A4A4A4A4A4A4A4A4A4A4A4A4A4A4A4A4A4A4A4A4A4A4A4A4A4A4A4A4A4A4A4A4A4A4A4A4A4A4A4A4A4A4A4A4A4A4A4A4A4A4A4A4A4A4A4A4A4A4A4A4A4A4A4A4A4A4A4A4A4A4A4A4A4A4A4A4A4A4A4A4A4A4A4A4A4A4A4A4A4A4A4A4A4A4A4A4A4A4A4A4A4A4A4A4A4A4A4A4
310
A4A4A4A4A4A4A4A4A4A4A4A4A4A4A4A4A4A4A4A4A4A4A4A4A4A4A4A4A4A4A4A4A4A4A4A4A4A4A4A4A4A4A4A4A4A4A4A4A4A4A4A4A4A4A4A4A4A4A4A4A4A4A4A4A4A4A4A4A4A4A4A4A4A4A4A4A4A4A4A4A4A4A4A4A4A4A4A4A4A4A4A4A4A4A4A4A4A4A4A4A4A4A4A4A4A4A4A4A4A4A4A4A4A4A4A4A4A4A4A4A4A4A4A4A4A4A4
310
A4A4A4A4A4A4A4A4A4A4A4A4A4A4A4A4A4A4A4A4A4A4A4A4A4A4A4A4A4A4A4A4A4A4A4A4A4A4A4A4A4A4A4A4A4A4A4A4A4A4A4A4A4A4A4A4
1001
ACAD
1000
DesignCenter Data
1002
{
1070
     1
1070
     4
1002
}
  0
BLOCK_RECORD
  5
AA8
330
1
100
AcDbSymbolTableRecord
100
AcDbBlockTableRecord
  2
_CLOSED
340
0
  0
BLOCK_RECORD
  5
B79
330
1
100
AcDbSymbolTableRecord
100
AcDbBlockTableRecord
  2
nota revisoes
340
0
1001
ACAD
1000
DesignCenter Data
1002
{
1070
     1
1070
     4
1002
}
  0
BLOCK_RECORD
  5
B8E
330
1
100
AcDbSymbolTableRecord
100
AcDbBlockTableRecord
  2
a3l
340
0
1001
ACAD
1000
DesignCenter Data
1002
{
1070
     1
1070
     4
1002
}
  0
BLOCK_RECORD
  5
B9E
330
1
100
AcDbSymbolTableRecord
100
AcDbBlockTableRecord
  2
legenda desenvolvimento
340
0
1001
ACAD
1000
DesignCenter Data
1002
{
1070
     1
1070
     4
1002
}
  0
BLOCK_RECORD
  5
1060
330
1
100
AcDbSymbolTableRecord
100
AcDbBlockTableRecord
  2
guarnizione
340
0
102
{BLKREFS
331
1C77
102
}
  0
BLOCK_RECORD
  5
1D7A
330
1
100
AcDbSymbolTableRecord
100
AcDbBlockTableRecord
  2
*D8
340
0
  0
BLOCK_RECORD
  5
1D86
330
1
100
AcDbSymbolTableRecord
100
AcDbBlockTableRecord
  2
*D9
340
0
  0
BLOCK_RECORD
  5
1D9B
330
1
100
AcDbSymbolTableRecord
100
AcDbBlockTableRecord
  2
*D10
340
0
  0
BLOCK_RECORD
  5
1DA7
330
1
100
AcDbSymbolTableRecord
100
AcDbBlockTableRecord
  2
*D11
340
0
  0
BLOCK_RECORD
  5
1F9D
330
1
100
AcDbSymbolTableRecord
100
AcDbBlockTableRecord
  2
*D12
340
0
  0
BLOCK_RECORD
  5
20F6
330
1
100
AcDbSymbolTableRecord
100
AcDbBlockTableRecord
  2
*D13
340
0
  0
BLOCK_RECORD
  5
2102
330
1
100
AcDbSymbolTableRecord
100
AcDbBlockTableRecord
  2
*D14
340
0
  0
BLOCK_RECORD
  5
2110
330
1
100
AcDbSymbolTableRecord
100
AcDbBlockTableRecord
  2
*D15
340
0
  0
BLOCK_RECORD
  5
211C
330
1
100
AcDbSymbolTableRecord
100
AcDbBlockTableRecord
  2
*D16
340
0
  0
BLOCK_RECORD
  5
2128
330
1
100
AcDbSymbolTableRecord
100
AcDbBlockTableRecord
  2
*D17
340
0
  0
BLOCK_RECORD
  5
22E9
330
1
100
AcDbSymbolTableRecord
100
AcDbBlockTableRecord
  2
*D18
340
0
  0
BLOCK_RECORD
  5
233A
330
1
100
AcDbSymbolTableRecord
100
AcDbBlockTableRecord
  2
*D19
340
0
  0
BLOCK_RECORD
  5
2373
330
1
100
AcDbSymbolTableRecord
100
AcDbBlockTableRecord
  2
*D20
340
0
  0
BLOCK_RECORD
  5
23F3
330
1
100
AcDbSymbolTableRecord
100
AcDbBlockTableRecord
  2
*D22
340
0
  0
ENDTAB
  0
ENDSEC
  0
SECTION
  2
BLOCKS
  0
BLOCK
  5
20
330
1F
100
AcDbEntity
  8
0
100
AcDbBlockBegin
  2
*Model_Space
 70
     0
 10
0.0
 20
0.0
 30
0.0
  3
*Model_Space
  1

  0
ENDBLK
  5
21
330
1F
100
AcDbEntity
  8
0
100
AcDbBlockEnd
  0
BLOCK
  5
1C
330
1B
100
AcDbEntity
 67
     1
  8
0
100
AcDbBlockBegin
  2
*Paper_Space
 70
     0
 10
0.0
 20
0.0
 30
0.0
  3
*Paper_Space
  1

  0
ENDBLK
  5
1D
330
1B
100
AcDbEntity
 67
     1
  8
0
100
AcDbBlockEnd
  0
BLOCK
  5
24
330
23
100
AcDbEntity
 67
     1
  8
0
100
AcDbBlockBegin
  2
*Paper_Space0
 70
     0
 10
0.0
 20
0.0
 30
0.0
  3
*Paper_Space0
  1

  0
ENDBLK
  5
25
330
23
100
AcDbEntity
 67
     1
  8
0
100
AcDbBlockEnd
  0
BLOCK
  5
91B
330
919
100
AcDbEntity
  8
0
100
AcDbBlockBegin
  2
_DotSmall
 70
     0
 10
0.0
 20
0.0
 30
0.0
  3
_DotSmall
  1

  0
LWPOLYLINE
  5
91A
330
919
100
AcDbEntity
  8
0
  6
ByBlock
 62
     0
100
AcDbPolyline
 90
        2
 70
     1
 43
0.5
 10
-0.0625
 20
0.0
 42
1.0
 10
0.0625
 20
0.0
 42
1.0
  0
ENDBLK
  5
91C
330
919
100
AcDbEntity
  8
0
100
AcDbBlockEnd
  0
BLOCK
  5
92A
330
922
100
AcDbEntity
  8
0
100
AcDbBlockBegin
  2
base para cotas
 70
     0
 10
0.0
 20
0.0
 30
0.0
  3
base para cotas
  1

  0
LINE
  5
B36
330
922
100
AcDbEntity
  8
cotas
100
AcDbLine
 10
0.0
 20
-30.0
 30
0.0
 11
327.1260136525398
 21
-30.0
 31
0.0
  0
LINE
  5
B37
330
922
100
AcDbEntity
  8
cotas
100
AcDbLine
 10
0.0
 20
-25.0
 30
0.0
 11
327.1260136525398
 21
-25.0
 31
0.0
  0
LINE
  5
B38
330
922
100
AcDbEntity
  8
cotas
100
AcDbLine
 10
0.0
 20
-20.0
 30
0.0
 11
327.1260136525398
 21
-20.0
 31
0.0
  0
LINE
  5
B39
330
922
100
AcDbEntity
  8
cotas
100
AcDbLine
 10
0.0
 20
-15.0
 30
0.0
 11
327.1260136525398
 21
-15.0
 31
0.0
  0
LINE
  5
B3A
330
922
100
AcDbEntity
  8
cotas
100
AcDbLine
 10
0.0
 20
-10.0
 30
0.0
 11
327.1260136525398
 21
-10.0
 31
0.0
  0
LINE
  5
B3B
330
922
100
AcDbEntity
  8
cotas
100
AcDbLine
 10
0.0
 20
0.0
 30
0.0
 11
0.0
 21
-30.0
 31
0.0
  0
LINE
  5
B3C
330
922
100
AcDbEntity
  8
cotas
100
AcDbLine
 10
327.1260136525398
 20
-30.0
 30
0.0
 11
327.1260136525398
 21
0.0
 31
0.0
  0
ENDBLK
  5
92B
330
922
100
AcDbEntity
  8
0
100
AcDbBlockEnd
  0
BLOCK
  5
AAD
330
AA8
100
AcDbEntity
  8
0
100
AcDbBlockBegin
  2
_CLOSED
 70
     0
 10
0.0
 20
0.0
 30
0.0
  3
_CLOSED
  1

  0
LINE
  5
AA9
330
AA8
100
AcDbEntity
  8
0
100
AcDbLine
 10
-1.0
 20
0.166667
 30
0.0
 11
0.0
 21
0.0
 31
0.0
  0
LINE
  5
AAA
330
AA8
100
AcDbEntity
  8
0
100
AcDbLine
 10
0.0
 20
0.0
 30
0.0
 11
-1.0
 21
-0.166667
 31
0.0
  0
LINE
  5
AAB
330
AA8
100
AcDbEntity
  8
0
100
AcDbLine
 10
-1.0
 20
0.166667
 30
0.0
 11
-1.0
 21
-0.166667
 31
0.0
  0
LINE
  5
AAC
330
AA8
100
AcDbEntity
  8
0
100
AcDbLine
 10
0.0
 20
0.0
 30
0.0
 11
-1.0
 21
0.0
 31
0.0
  0
ENDBLK
  5
AAE
330
AA8
100
AcDbEntity
  8
0
100
AcDbBlockEnd
  0
BLOCK
  5
B7C
330
B79
100
AcDbEntity
  8
0
100
AcDbBlockBegin
  2
nota revisoes
 70
     0
 10
0.0
 20
0.0
 30
0.0
  3
nota revisoes
  1

  0
CIRCLE
  5
B7A
330
B79
100
AcDbEntity
  8
4
100
AcDbCircle
 10
0.0
 20
0.0
 30
0.0
 40
13.69426055101189
  0
TEXT
  5
B7B
330
B79
100
AcDbEntity
  8
4
100
AcDbText
 10
-5.496248358154345
 20
-5.354545554066362
 30
0.0
 40
12.0
  1
1
  7
SANINDUSA
 72
     1
 11
-0.249774214433728
 21
-5.354545554066362
 31
0.0
100
AcDbText
  0
ENDBLK
  5
B7D
330
B79
100
AcDbEntity
  8
0
100
AcDbBlockEnd
  0
BLOCK
  5
B9C
330
B8E
100
AcDbEntity
  8
0
100
AcDbBlockBegin
  2
a3l
 70
     0
 10
0.0
 20
0.0
 30
0.0
  3
a3l
  1

  0
LINE
  5
B8F
330
B8E
100
AcDbEntity
  8
1
100
AcDbLine
 10
-364.2925296599447
 20
-362.1188951399395
 30
0.0
 11
-364.2925296599447
 21
-65.11889513993946
 31
0.0
  0
LINE
  5
B90
330
B8E
100
AcDbEntity
  8
4
100
AcDbLine
 10
-369.2925296599447
 20
-357.1188951399395
 30
0.0
 11
-369.2925296599447
 21
-70.11889513993946
 31
0.0
  0
LINE
  5
B91
330
B8E
100
AcDbEntity
  8
1
100
AcDbLine
 10
-784.2925296599446
 20
-65.11889513993946
 30
0.0
 11
-784.2925296599446
 21
-362.1188951399395
 31
0.0
  0
LINE
  5
B92
330
B8E
100
AcDbEntity
  8
4
100
AcDbLine
 10
-759.2925296599446
 20
-357.1188951399395
 30
0.0
 11
-759.2925296599446
 21
-70.11889513993946
 31
0.0
  0
LINE
  5
B93
330
B8E
100
AcDbEntity
  8
1
100
AcDbLine
 10
-784.2925296599446
 20
-362.1188951399395
 30
0.0
 11
-364.2925296599447
 21
-362.1188951399395
 31
0.0
  0
LINE
  5
B94
330
B8E
100
AcDbEntity
  8
4
100
AcDbLine
 10
-759.2925296599446
 20
-357.1188951399395
 30
0.0
 11
-369.2925296599447
 21
-357.1188951399395
 31
0.0
  0
LINE
  5
B95
330
B8E
100
AcDbEntity
  8
1
100
AcDbLine
 10
-654.2925296599446
 20
-357.1188951399395
 30
0.0
 11
-654.2925296599446
 21
-362.1188951399395
 31
0.0
  0
LINE
  5
B96
330
B8E
100
AcDbEntity
  8
1
100
AcDbLine
 10
-364.2925296599447
 20
-65.11889513993946
 30
0.0
 11
-784.2925296599446
 21
-65.11889513993946
 31
0.0
  0
LINE
  5
B97
330
B8E
100
AcDbEntity
  8
4
100
AcDbLine
 10
-369.2925296599447
 20
-70.11889513993946
 30
0.0
 11
-759.2925296599446
 21
-70.11889513993946
 31
0.0
  0
LINE
  5
B98
330
B8E
100
AcDbEntity
  8
1
100
AcDbLine
 10
-654.2925296599446
 20
-65.11889513993946
 30
0.0
 11
-654.2925296599446
 21
-70.11889513993946
 31
0.0
  0
LINE
  5
B99
330
B8E
100
AcDbEntity
  8
1
100
AcDbLine
 10
-549.2925296599446
 20
-70.11889513993946
 30
0.0
 11
-549.2925296599446
 21
-65.11889513993946
 31
0.0
  0
LINE
  5
B9A
330
B8E
100
AcDbEntity
  8
1
100
AcDbLine
 10
-369.2925296599447
 20
-65.11889513993946
 30
0.0
 11
-364.2925296599447
 21
-65.11889513993946
 31
0.0
  0
LINE
  5
B9B
330
B8E
100
AcDbEntity
  8
1
100
AcDbLine
 10
-549.2925296599446
 20
-357.1188951399395
 30
0.0
 11
-549.2925296599446
 21
-362.1188951399395
 31
0.0
  0
ENDBLK
  5
B9D
330
B8E
100
AcDbEntity
  8
0
100
AcDbBlockEnd
  0
BLOCK
  5
C13
330
B9E
100
AcDbEntity
  8
0
100
AcDbBlockBegin
  2
legenda desenvolvimento
 70
     2
 10
0.0
 20
0.0
 30
0.0
  3
legenda desenvolvimento
  1

  0
ATTDEF
  5
B9F
330
B9E
100
AcDbEntity
  8
1
100
AcDbText
 10
-108.606245802552
 20
55.5
 30
0.0
 40
4.0
  1
XXXXXXXXXXXXXX
 41
0.8
  7
SANINDUSA
 72
     4
 11
-87.5
 21
57.5
 31
0.0
100
AcDbAttributeDefinition
  3
Nome do Produto:
  2
PRODUTO
 70
     0
  0
ATTDEF
  5
BA0
330
B9E
100
AcDbEntity
  8
1
100
AcDbText
 10
-97.9997966101695
 20
41.25
 30
0.0
 40
3.0
  1
XXXXXXXXX
 41
0.8
  7
futura
 72
     4
 11
-87.5
 21
42.75
 31
0.0
100
AcDbAttributeDefinition
  3
Nome da Peça:
  2
PECA
 70
     0
  0
ATTDEF
  5
BA1
330
B9E
100
AcDbEntity
  8
1
100
AcDbText
 10
-133.4422431161853
 20
21.11745296763252
 30
0.0
 40
2.5
  1
X
 41
0.8
  7
SANINDUSA
 72
     4
 11
-132.5
 21
22.36745296763252
 31
0.0
100
AcDbAttributeDefinition
  3
Cod. TESTE:
  2
TESTE
 70
     0
  0
ATTDEF
  5
BA2
330
B9E
100
AcDbEntity
  8
1
100
AcDbText
 10
-124.3844862323707
 20
21.11745296763252
 30
0.0
 40
2.5
  1
XX
 41
0.8
  7
SANINDUSA
 72
     4
 11
-122.5
 21
22.36745296763252
 31
0.0
100
AcDbAttributeDefinition
  3
Cod. Ano:
  2
ANO
 70
     0
  0
ATTDEF
  5
BA3
330
B9E
100
AcDbEntity
  8
1
100
AcDbText
 10
-112.526889953052
 20
21.11745296763252
 30
0.0
 40
2.5
  1
XXX
 41
0.8
  7
SANINDUSA
 72
     4
 11
-109.700160604496
 21
22.36745296763252
 31
0.0
100
AcDbAttributeDefinition
  3
Cod. Sequência:
  2
SEQUENCIA
 70
     0
  0
ATTDEF
  5
BA4
330
B9E
100
AcDbEntity
  8
1
100
AcDbText
 10
-99.35382430979316
 20
21.11745296763252
 30
0.0
 40
2.5
  1
XX
 41
0.8
  7
SANINDUSA
 72
     4
 11
-97.46933807742244
 21
22.36745296763252
 31
0.0
100
AcDbAttributeDefinition
  3
Cod. Tipo:
  2
TIPO
 70
     0
  0
ATTDEF
  5
BA5
330
B9E
100
AcDbEntity
  8
1
100
AcDbText
 10
-87.42035911468438
 20
21.11745296763252
 30
0.0
 40
2.5
  1
XXX
 41
0.8
  7
SANINDUSA
 72
     4
 11
-84.59362976612828
 21
22.36745296763252
 31
0.0
100
AcDbAttributeDefinition
  3
Cod. Produto:
  2
PRODUTO
 70
     0
  0
ATTDEF
  5
BA6
330
B9E
100
AcDbEntity
  8
1
100
AcDbText
 10
-74.62051971917853
 20
21.11745296763252
 30
0.0
 40
2.5
  1
XXX
 41
0.8
  7
SANINDUSA
 72
     4
 11
-71.79379037062244
 21
22.36745296763252
 31
0.0
100
AcDbAttributeDefinition
  3
Cod. Peça:
  2
PECA
 70
     0
  0
ATTDEF
  5
BA7
330
B9E
100
AcDbEntity
  8
1
100
AcDbText
 10
-61.10603446650329
 20
21.11745296763252
 30
0.0
 40
2.5
  1
XX
 41
0.8
  7
SANINDUSA
 72
     4
 11
-59.22154823413257
 21
22.36745296763252
 31
0.0
100
AcDbAttributeDefinition
  3
Cod. Revisão:
  2
REV
 70
     0
  0
ATTDEF
  5
BA8
330
B9E
100
AcDbEntity
  8
1
100
AcDbText
 10
-48.43615325006194
 20
21.11745296763252
 30
0.0
 40
2.5
  1
XX
 41
0.8
  7
SANINDUSA
 72
     4
 11
-46.55166701769121
 21
22.36745296763252
 31
0.0
100
AcDbAttributeDefinition
  3
Cod. Alteração:
  2
ALT
 70
     0
  0
ATTDEF
  5
BA9
330
B9E
100
AcDbEntity
  8
1
100
AcDbText
 10
-35.19086635325722
 20
23.98875083948959
 30
0.0
 40
3.0
  1
1/XXX
 41
0.8
  7
SANINDUSA
 72
     4
 11
-30.0
 21
25.25
 31
0.0
100
AcDbAttributeDefinition
  3
Escala geral:
  2
ESCALA
 70
     0
  0
ATTDEF
  5
BAA
330
B9E
100
AcDbEntity
  8
1
100
AcDbText
 10
-15.65345869711215
 20
23.75
 30
0.0
 40
3.0
  1
XXXXX
 41
0.8
  7
SANINDUSA
 72
     4
 11
-10.0
 21
25.25
 31
0.0
100
AcDbAttributeDefinition
  3
Folha:
  2
FOLHA
 70
     0
  0
ATTDEF
  5
BAB
330
B9E
100
AcDbEntity
  8
1
100
AcDbText
 10
-178.5146998822042
 20
56.9531347542807
 30
0.0
 40
2.0
  1
xx
 41
0.8
  7
SANINDUSA
 72
     4
 11
-177.2123493113513
 21
57.70330265219877
 31
0.0
100
AcDbAttributeDefinition
  3
revisão
  2
REV.
 70
     0
  0
ATTDEF
  5
BAC
330
B9E
100
AcDbEntity
  8
1
100
AcDbText
 10
-172.7849640077129
 20
56.9531347542807
 30
0.0
 40
2.0
  1
xx
 41
0.8
  7
SANINDUSA
 72
     4
 11
-171.48261343686
 21
57.70330265219877
 31
0.0
100
AcDbAttributeDefinition
  3
alteração
  2
ALT.
 70
     0
  0
ATTDEF
  5
BAD
330
B9E
100
AcDbEntity
  8
1
100
AcDbText
 10
-168.007199951307
 20
56.70330265219877
 30
0.0
 40
2.0
  1
xx/xx/xxxx
 41
0.8
  7
SANINDUSA
 11
-168.007199951307
 21
57.70330265219877
 31
0.0
100
AcDbAttributeDefinition
  3
data
  2
DATA
 70
     0
 74
     2
  0
ATTDEF
  5
BAE
330
B9E
100
AcDbEntity
  8
1
100
AcDbText
 10
-168.5396372253371
 20
13.15916722632639
 30
0.0
 40
2.0
  1
XX/XX/XXXX
 41
0.8
  7
SANINDUSA
 72
     4
 11
-161.5099528734231
 21
14.0
 31
0.0
100
AcDbAttributeDefinition
  3
Data projecto
  2
DATA_PROJ
 70
     0
  0
ATTDEF
  5
BAF
330
B9E
100
AcDbEntity
  8
1
100
AcDbText
 10
-150.8658110728766
 20
13.24983210208193
 30
0.0
 40
2.0
  1
xxxxxxxx
 41
0.8
  7
SANINDUSA
 72
     4
 11
-145.6564087894649
 21
14.0
 31
0.0
100
AcDbAttributeDefinition
  3
nome de quem projectou
  2
NOME
 70
     0
  0
ATTDEF
  5
BB0
330
B9E
100
AcDbEntity
  8
1
100
AcDbText
 10
-168.5396372253371
 20
9.159167226326394
 30
0.0
 40
2.0
  1
XX/XX/XXXX
 41
0.8
  7
SANINDUSA
 72
     4
 11
-161.5099528734231
 21
10.0
 31
0.0
100
AcDbAttributeDefinition
  3
Data desenhou
  2
DATA_DES
 70
     0
  0
ATTDEF
  5
BB1
330
B9E
100
AcDbEntity
  8
1
100
AcDbText
 10
-151.516986358303
 20
9.249832102081933
 30
0.0
 40
2.0
  1
xxxxxxxxx
 41
0.8
  7
SANINDUSA
 72
     4
 11
-145.6564087894649
 21
10.0
 31
0.0
100
AcDbAttributeDefinition
  3
nome
  2
NOME
 70
     0
  0
ATTDEF
  5
BB2
330
B9E
100
AcDbEntity
  8
1
100
AcDbText
 10
-127.2924214135946
 20
14.1979876583216
 30
0.0
 40
2.0
  1
Vitreous China
 41
0.8
  7
SANINDUSA
 72
     4
 11
-119.231709526422
 21
15.22216495852308
 31
0.0
100
AcDbAttributeDefinition
  3
Nome do Material:
  2
MATERIAL
 70
     0
  0
ATTDEF
  5
BB3
330
B9E
100
AcDbEntity
  8
1
100
AcDbText
 10
-103.1563452122093
 20
14.38019043949261
 30
0.0
 40
2.0
  1
Branco
 41
0.8
  7
SANINDUSA
 72
     4
 11
-99.33418268702462
 21
15.35937109765245
 31
0.0
100
AcDbAttributeDefinition
  3
cor da peça
  2
COR
 70
     0
  0
ATTDEF
  5
BB4
330
B9E
100
AcDbEntity
  8
1
100
AcDbText
 10
-116.7235057085292
 20
5.975822699798522
 30
0.0
 40
2.0
  1
Vidrado
 41
0.8
  7
SANINDUSA
 72
     4
 11
-112.5
 21
7.0
 31
0.0
100
AcDbAttributeDefinition
  3
Tipo de acabamento:
  2
ACABAMENTO
 70
     0
  0
ATTDEF
  5
BB5
330
B9E
100
AcDbEntity
  8
1
100
AcDbText
 10
-79.18527869967246
 20
16.65066409850533
 30
0.0
 40
2.0
  1
XXXXXXX
 41
0.8
  7
SANINDUSA
 72
     4
 11
-73.90871724903445
 21
17.65066409850533
 31
0.0
100
AcDbAttributeDefinition
  3
Normas
  2
NORMAS
 70
     0
  0
ATTDEF
  5
BB6
330
B9E
100
AcDbEntity
  8
1
100
AcDbText
 10
-30.55312290127603
 20
14.0
 30
0.0
 40
2.0
  1
XXXXXXXXXXXXXX
 41
0.8
  7
SANINDUSA
 72
     4
 11
-20.0
 21
15.0
 31
0.0
100
AcDbAttributeDefinition
  3
Substitui o desenho:
  2
SUBSTITUI
 70
     0
  0
ATTDEF
  5
BB7
330
B9E
100
AcDbEntity
  8
1
100
AcDbText
 10
-31.30691739422431
 20
6.0
 30
0.0
 40
2.0
  1
XXXXXXXXXXXXXXX
 41
0.8
  7
SANINDUSA
 72
     4
 11
-20.0
 21
7.0
 31
0.0
100
AcDbAttributeDefinition
  3
Substituido por:
  2
SUBSTITUIDO
 70
     0
  0
ATTDEF
  5
BB8
330
B9E
100
AcDbEntity
  8
1
100
AcDbText
 10
-110.0220608548302
 20
1.478208457928303
 30
0.0
 40
2.0
  1
XXXXXXXXXXXXXXXXXXXXXXXXXXXXXXXXXX
 41
0.8
  7
SANINDUSA
 11
-110.0220608548302
 21
2.478208457928303
 31
0.0
100
AcDbAttributeDefinition
  3
Localização do desenho:
  2
LOC-DWG
 70
     0
 74
     2
  0
LINE
  5
BB9
330
B9E
100
AcDbEntity
  8
3
100
AcDbLine
 10
-135.0
 20
4.0
 30
0.0
 11
0.0000000000004547
 21
4.0
 31
0.0
  0
LINE
  5
BBA
330
B9E
100
AcDbEntity
  8
3
100
AcDbLine
 10
-90.00000000000046
 20
12.0
 30
0.0
 11
-135.0
 21
12.0
 31
0.0
  0
LINE
  5
BBB
330
B9E
100
AcDbEntity
  8
3
100
AcDbLine
 10
-135.0
 20
32.5
 30
0.0
 11
-40.0
 21
32.5
 31
0.0
  0
TEXT
  5
BBC
330
B9E
100
AcDbEntity
  8
1
100
AcDbText
 10
-134.0
 20
1.25
 30
0.0
 40
2.0
  1
Localização do des.:
 41
0.8
  7
SANINDUSA
 11
-134.0
 21
2.25
 31
0.0
100
AcDbText
 73
     2
  0
LINE
  5
BBD
330
B9E
100
AcDbEntity
  8
3
100
AcDbLine
 10
-180.0
 20
65.0
 30
0.0
 11
0.0
 21
65.0
 31
0.0
  0
LINE
  5
BBE
330
B9E
100
AcDbEntity
  8
leg fin
100
AcDbLine
 10
-40.0
 20
25.05956924886846
 30
0.0
 11
-135.0
 21
25.05956924886846
 31
0.0
  0
LINE
  5
BBF
330
B9E
100
AcDbEntity
  8
leg fin
100
AcDbLine
 10
-40.0
 20
28.5
 30
0.0
 11
-135.0
 21
28.5
 31
0.0
  0
LINE
  5
BC0
330
B9E
100
AcDbEntity
  8
3
100
AcDbLine
 10
-135.0
 20
50.0
 30
0.0
 11
-40.0
 21
50.0
 31
0.0
  0
TEXT
  5
BC1
330
B9E
100
AcDbEntity
  8
1
100
AcDbText
 10
-134.0
 20
29.75
 30
0.0
 40
2.0
  1
Desenho nº:
 41
0.8
  7
SANINDUSA
 11
-134.0
 21
30.75
 31
0.0
100
AcDbText
 73
     2
  0
TEXT
  5
BC2
330
B9E
100
AcDbEntity
  8
1
100
AcDbText
 10
-134.0
 20
9.25
 30
0.0
 40
2.0
  1
Acabamento:
 41
0.8
  7
SANINDUSA
 11
-134.0
 21
10.25
 31
0.0
100
AcDbText
 73
     2
  0
LINE
  5
BC3
330
B9E
100
AcDbEntity
  8
3
100
AcDbLine
 10
-180.0
 20
20.0
 30
0.0
 11
0.0
 21
20.0
 31
0.0
  0
LINE
  5
BC4
330
B9E
100
AcDbEntity
  8
1
100
AcDbLine
 10
-174.5810776056337
 20
55.5
 30
0.0
 11
-174.5810776056337
 21
65.0
 31
0.0
  0
LINE
  5
BC5
330
B9E
100
AcDbEntity
  8
1
100
AcDbLine
 10
-168.9210461879161
 20
55.5
 30
0.0
 11
-168.9210461879161
 21
65.0
 31
0.0
  0
LINE
  5
BC6
330
B9E
100
AcDbEntity
  8
1
100
AcDbLine
 10
-154.0988595589306
 20
55.5
 30
0.0
 11
-154.0988595589306
 21
65.0
 31
0.0
  0
LINE
  5
BC7
330
B9E
100
AcDbEntity
  8
3
100
AcDbLine
 10
-180.0
 20
65.0
 30
0.0
 11
-180.0
 21
0.0
 31
0.0
  0
LINE
  5
BC8
330
B9E
100
AcDbEntity
  8
3
100
AcDbLine
 10
-135.0
 20
0.0
 30
0.0
 11
-135.0
 21
65.0
 31
0.0
  0
TEXT
  5
BC9
330
B9E
100
AcDbEntity
  8
1
100
AcDbText
 10
-179.0
 20
9.75
 30
0.0
 40
1.5
  1
Des.
 41
0.8
  7
SANINDUSA
 11
-179.0
 21
10.5
 31
0.0
100
AcDbText
 73
     2
  0
LINE
  5
BCA
330
B9E
100
AcDbEntity
  8
1
100
AcDbLine
 10
-168.9210461879161
 20
20.0
 30
0.0
 11
-168.9210461879161
 21
0.0
 31
0.0
  0
LINE
  5
BCB
330
B9E
100
AcDbEntity
  8
1
100
AcDbLine
 10
-154.0988595589306
 20
20.0
 30
0.0
 11
-154.0988595589306
 21
0.0
 31
0.0
  0
LINE
  5
BCC
330
B9E
100
AcDbEntity
  8
1
100
AcDbLine
 10
-180.0
 20
4.0
 30
0.0
 11
-135.0
 21
4.0
 31
0.0
  0
LINE
  5
BCD
330
B9E
100
AcDbEntity
  8
1
100
AcDbLine
 10
-180.0
 20
8.0
 30
0.0
 11
-135.0
 21
8.0
 31
0.0
  0
TEXT
  5
BCE
330
B9E
100
AcDbEntity
  8
1
100
AcDbText
 10
-179.0
 20
1.73257823687436
 30
0.0
 40
1.5
  1
Aprov.
 41
0.8
  7
SANINDUSA
 11
-179.0
 21
2.48257823687436
 31
0.0
100
AcDbText
 73
     2
  0
TEXT
  5
BCF
330
B9E
100
AcDbEntity
  8
1
100
AcDbText
 10
-179.0
 20
5.75
 30
0.0
 40
1.5
  1
Ver.
 41
0.8
  7
SANINDUSA
 11
-179.0
 21
6.5
 31
0.0
100
AcDbText
 73
     2
  0
LINE
  5
BD0
330
B9E
100
AcDbEntity
  8
1
100
AcDbLine
 10
-180.0
 20
16.0
 30
0.0
 11
-135.0
 21
16.0
 31
0.0
  0
LINE
  5
BD1
330
B9E
100
AcDbEntity
  8
1
100
AcDbLine
 10
-180.0
 20
12.0
 30
0.0
 11
-135.0
 21
12.0
 31
0.0
  0
TEXT
  5
BD2
330
B9E
100
AcDbEntity
  8
1
100
AcDbText
 10
-179.0
 20
13.75
 30
0.0
 40
1.5
  1
Proj.
 41
0.8
  7
SANINDUSA
 11
-179.0
 21
14.5
 31
0.0
100
AcDbText
 73
     2
  0
TEXT
  5
BD3
330
B9E
100
AcDbEntity
  8
1
100
AcDbText
 10
-167.9210461879161
 20
17.75
 30
0.0
 40
1.5
  1
Data
 41
0.8
  7
SANINDUSA
 11
-167.9210461879161
 21
18.5
 31
0.0
100
AcDbText
 73
     2
  0
TEXT
  5
BD4
330
B9E
100
AcDbEntity
  8
1
100
AcDbText
 10
-153.0988595589306
 20
17.75
 30
0.0
 40
1.5
  1
Nome
 41
0.8
  7
SANINDUSA
 11
-153.0988595589306
 21
18.5
 31
0.0
100
AcDbText
 73
     2
  0
LINE
  5
BD5
330
B9E
100
AcDbEntity
  8
leg fin
100
AcDbLine
 10
-130.0
 20
20.0
 30
0.0
 11
-130.0
 21
28.5
 31
0.0
  0
TEXT
  5
BD6
330
B9E
100
AcDbEntity
  8
1
100
AcDbText
 10
-134.0
 20
17.25
 30
0.0
 40
2.0
  1
Material:
 41
0.8
  7
SANINDUSA
 11
-134.0
 21
18.25
 31
0.0
100
AcDbText
 73
     2
  0
TEXT
  5
BD7
330
B9E
100
AcDbEntity
  8
1
100
AcDbText
 10
-129.0
 20
26.43288406845113
 30
0.0
 40
1.5
  1
Ano:
 41
0.8
  7
SANINDUSA
 11
-129.0
 21
27.18288406845113
 31
0.0
100
AcDbText
 73
     2
  0
LINE
  5
BD8
330
B9E
100
AcDbEntity
  8
1
100
AcDbLine
 10
-180.0
 20
55.5
 30
0.0
 11
-135.0
 21
55.5
 31
0.0
  0
TEXT
  5
BD9
330
B9E
100
AcDbEntity
  8
1
100
AcDbText
 10
-179.0
 20
52.67772246885193
 30
0.0
 40
1.5
  1
descrição
 41
0.8
  7
SANINDUSA
 11
-179.0
 21
53.42772246885193
 31
0.0
100
AcDbText
 73
     2
  0
TEXT
  5
BDA
330
B9E
100
AcDbEntity
  8
1
100
AcDbText
 10
-134.0
 20
47.25
 30
0.0
 40
2.0
  1
Peça:
 41
0.8
  7
SANINDUSA
 11
-134.0
 21
48.25
 31
0.0
100
AcDbText
 73
     2
  0
LINE
  5
BDB
330
B9E
100
AcDbEntity
  8
1
100
AcDbLine
 10
-180.0
 20
59.5
 30
0.0
 11
-135.0
 21
59.5
 31
0.0
  0
TEXT
  5
BDC
330
B9E
100
AcDbEntity
  8
1
100
AcDbText
 10
-173.5810776056337
 20
62.75
 30
0.0
 40
1.5
  1
Alt.
 41
0.8
  7
SANINDUSA
 11
-173.5810776056337
 21
63.5
 31
0.0
100
AcDbText
 73
     2
  0
TEXT
  5
BDD
330
B9E
100
AcDbEntity
  8
1
100
AcDbText
 10
-179.0
 20
62.75
 30
0.0
 40
1.5
  1
Rev.
 41
0.8
  7
SANINDUSA
 11
-179.0
 21
63.5
 31
0.0
100
AcDbText
 73
     2
  0
TEXT
  5
BDE
330
B9E
100
AcDbEntity
  8
1
100
AcDbText
 10
-167.9210461879161
 20
62.75
 30
0.0
 40
1.5
  1
Data
 41
0.8
  7
SANINDUSA
 11
-167.9210461879161
 21
63.5
 31
0.0
100
AcDbText
 73
     2
  0
TEXT
  5
BDF
330
B9E
100
AcDbEntity
  8
1
100
AcDbText
 10
-153.0988595589306
 20
62.75
 30
0.0
 40
1.5
  1
Nome
 41
0.8
  7
SANINDUSA
 11
-153.0988595589306
 21
63.5
 31
0.0
100
AcDbText
 73
     2
  0
TEXT
  5
BE0
330
B9E
100
AcDbEntity
  8
1
100
AcDbText
 10
-134.0
 20
62.25
 30
0.0
 40
2.0
  1
Produto:
 41
0.8
  7
SANINDUSA
 11
-134.0
 21
63.25
 31
0.0
100
AcDbText
 73
     2
  0
LINE
  5
BE1
330
B9E
100
AcDbEntity
  8
3
100
AcDbLine
 10
-40.0
 20
4.0
 30
0.0
 11
-40.0
 21
65.0
 31
0.0
  0
LWPOLYLINE
  5
BE2
102
{ACAD_REACTORS
330
BEC
102
}
330
B9E
100
AcDbEntity
  8
9
100
AcDbPolyline
 90
       12
 70
     1
 43
0.0
 10
-3.038714600644652
 20
58.90010174665076
 10
-5.726962862472191
 20
58.90010174665076
 10
-5.726962862472191
 20
58.5001017466509
 10
-3.038748516195028
 20
58.5001017466509
 42
-0.4142135623731731
 10
-2.638748516194482
 20
58.1001017466508
 10
-2.638748516194482
 20
57.42799728675596
 10
-5.21497371544865
 20
57.42799728675596
 42
0.4142135623731289
 10
-6.014973715448377
 20
56.627997286756
 10
-6.014973715448377
 20
55.92380871629643
 42
0.4142135623731132
 10
-5.21497371544865
 20
55.12380871629648
 10
-2.23871460064447
 20
55.12380871629648
 10
-2.23871460064447
 20
58.10010174665103
 42
0.4142135623730717
  0
LWPOLYLINE
  5
BE3
102
{ACAD_REACTORS
330
BEC
102
}
330
B9E
100
AcDbEntity
  8
9
100
AcDbPolyline
 90
       20
 70
     1
 43
0.0
 10
-10.01531287095122
 20
57.82799728675581
 10
-10.01531287095122
 20
58.10010174665103
 42
-0.4142135623730744
 10
-9.615312870951584
 20
58.5001017466509
 10
-6.92703069357276
 20
58.5001017466509
 10
-6.92703069357276
 20
58.90010174665076
 10
-9.615346786501959
 20
58.90010174665076
 42
0.4142135623730883
 10
-10.41534678650168
 20
58.1001017466508
 10
-10.41534678650168
 20
57.82796337120567
 42
0.4142135623730717
 10
-9.615346786501959
 20
57.02796337120571
 10
-7.423079531965413
 20
57.02796337120571
 42
-0.4142135623730847
 10
-7.023079531965322
 20
56.62796337120562
 10
-7.023079531965322
 20
55.90786840766487
 42
-0.4142135623730744
 10
-7.423079531965413
 20
55.507868407665
 10
-10.41534678650168
 20
55.507868407665
 10
-10.41534678650168
 20
55.12380871629648
 10
-7.445787917283723
 20
55.12380871629648
 42
0.4114777732064574
 10
-6.645822882998345
 20
55.9163291493976
 10
-6.639238813324936
 20
56.62051771985716
 42
0.4169546541682913
 10
-7.439203847610315
 20
57.42799728675596
 10
-9.615312870951584
 20
57.42799728675596
 42
-0.4142135623731576
  0
LWPOLYLINE
  5
BE4
102
{ACAD_REACTORS
330
BEC
102
}
330
B9E
100
AcDbEntity
  8
9
100
AcDbPolyline
 90
       12
 70
     1
 43
0.0
 10
-14.41561811090378
 20
58.90010174665076
 10
-14.79964388672215
 20
58.90010174665076
 10
-14.79964388672215
 20
55.92380871629643
 42
0.4142135623731133
 10
-13.99964388672242
 20
55.12380871629648
 10
-11.8233508563676
 20
55.12380871629648
 42
0.4142135623730872
 10
-11.02335085636741
 20
55.92380871629643
 10
-11.02335085636741
 20
58.90010174665076
 10
-11.42338477191788
 20
58.90010174665076
 10
-11.42338477191788
 20
55.91567577726095
 42
-0.4131711701795318
 10
-11.82196067063523
 20
55.51567831234956
 10
-14.0141940096214
 20
55.50787335710947
 42
-0.4152567234624407
 10
-14.41561811090378
 20
55.90787082202087
  0
LWPOLYLINE
  5
BE5
102
{ACAD_REACTORS
330
BEC
102
}
330
B9E
100
AcDbEntity
  8
9
100
AcDbPolyline
 90
        6
 70
     1
 43
0.0
 10
-15.80771578768872
 20
55.507868407665
 10
-18.39994912667453
 20
55.507868407665
 42
-0.4142135623731731
 10
-18.79994912667462
 20
55.90786840766487
 10
-18.79994912667462
 20
58.10010174665103
 42
-0.4142135623730744
 10
-18.39994912667453
 20
58.5001017466509
 10
-15.80771578768872
 20
58.5001017466509
  0
LWPOLYLINE
  5
BE6
102
{ACAD_REACTORS
330
BEC
102
}
330
B9E
100
AcDbEntity
  8
9
100
AcDbPolyline
 90
        8
 70
     1
 43
0.0
 10
-15.4236900118708
 20
59.87619128370352
 10
-15.80771578768872
 20
59.87619128370352
 10
-15.80771578768872
 20
58.90010174665076
 10
-18.39176256411201
 20
58.90010174665076
 42
0.4131164467977967
 10
-19.19175694739761
 20
58.1030995310698
 10
-19.1999120763262
 20
55.92680650071542
 42
0.4153115297271718
 10
-18.39991769304061
 20
55.12380871629648
 10
-15.4236900118708
 20
55.12380871629648
  0
LWPOLYLINE
  5
BE7
102
{ACAD_REACTORS
330
BEC
102
}
330
B9E
100
AcDbEntity
  8
9
100
AcDbPolyline
 90
       10
 70
     1
 43
0.0
 10
-20.59201288790928
 20
58.90010174665076
 10
-23.56830591826338
 20
58.90010174665076
 10
-23.56830591826338
 20
55.12380871629648
 10
-23.18424622689509
 20
55.12380871629648
 10
-23.18424622689509
 20
58.5001017466509
 10
-20.59204680345965
 20
58.5001017466509
 42
-0.4142135623730898
 10
-20.19204680345956
 20
58.1001017466508
 10
-20.19204680345956
 20
55.12380871629648
 10
-19.79201288790909
 20
55.12380871629648
 10
-19.79201288790909
 20
58.10010174665103
 42
0.4142135623731132
  0
LWPOLYLINE
  5
BE8
102
{ACAD_REACTORS
330
BEC
102
}
330
B9E
100
AcDbEntity
  8
9
100
AcDbPolyline
 90
        4
 70
     1
 43
0.0
 10
-24.19231812786165
 20
58.90010174665076
 10
-24.57637781922995
 20
58.90010174665076
 10
-24.57637781922995
 20
55.12380871629648
 10
-24.19231812786165
 20
55.12380871629648
  0
LWPOLYLINE
  5
BE9
102
{ACAD_REACTORS
330
BEC
102
}
330
B9E
100
AcDbEntity
  8
9
100
AcDbPolyline
 90
       10
 70
     1
 43
0.0
 10
-28.57661522808212
 20
58.5001017466509
 10
-25.98444972019706
 20
58.5001017466509
 42
-0.4142135623731731
 10
-25.58444972019652
 20
58.1001017466508
 10
-25.58444972019652
 20
55.12380871629648
 10
-25.2004239443786
 20
55.12380871629648
 10
-25.2004239443786
 20
58.10010174665103
 42
0.4142135623730717
 10
-26.00042394437833
 20
58.90010174665076
 10
-28.97664914363259
 20
58.90010174665076
 10
-28.97664914363259
 20
55.12380871629648
 10
-28.57661522808212
 20
55.12380871629648
  0
LWPOLYLINE
  5
BEA
102
{ACAD_REACTORS
330
BEC
102
}
330
B9E
100
AcDbEntity
  8
9
100
AcDbPolyline
 90
       12
 70
     1
 43
0.0
 10
-29.58465321349832
 20
58.10010174665103
 42
0.4142135623730716
 10
-30.3846532134985
 20
58.90010174665076
 10
-33.07296930642724
 20
58.90010174665076
 10
-33.07296930642724
 20
58.5001017466509
 10
-30.38468712904842
 20
58.5001017466509
 42
-0.4142135623730067
 10
-29.98468712904878
 20
58.1001017466508
 10
-29.98468712904878
 20
57.42799728675618
 10
-32.56098015940324
 20
57.42799728675596
 42
0.4142135623731289
 10
-33.36098015940343
 20
56.627997286756
 10
-33.36098015940343
 20
55.92380871629643
 42
0.4142135623731132
 10
-32.56098015940324
 20
55.12380871629648
 10
-29.58465321349832
 20
55.12380871629648
  0
LWPOLYLINE
  5
BEB
102
{ACAD_REACTORS
330
BEC
102
}
330
B9E
100
AcDbEntity
  8
9
100
AcDbPolyline
 90
       20
 70
     1
 43
0.0
 10
-34.7850262845518
 20
57.42799728675596
 10
-36.96125148380543
 20
57.42799728675596
 42
-0.4142135623730898
 10
-37.36125148380552
 20
57.82799728675604
 10
-37.36125148380552
 20
58.10010174665103
 42
-0.4142135623730744
 10
-36.96125148380543
 20
58.5001017466509
 10
-34.27303713752781
 20
58.50010174665067
 10
-34.27303713752781
 20
58.90010174665076
 10
-36.96128539935535
 20
58.90010174665076
 42
0.4142135623731289
 10
-37.76128539935553
 20
58.1001017466508
 10
-37.76128539935553
 20
57.82796337120567
 42
0.4142135623730716
 10
-36.9612853993558
 20
57.02796337120571
 10
-34.76901814481926
 20
57.02796337120571
 42
-0.414213562373168
 10
-34.36901814481962
 20
56.62796337120562
 10
-34.36901814481962
 20
55.90786840766487
 42
-0.4142135623730744
 10
-34.76901814481926
 20
55.507868407665
 10
-37.76128539935553
 20
55.507868407665
 10
-37.76128539935553
 20
55.12380871629648
 10
-34.7850262845518
 20
55.12380871629648
 42
0.4142135623731289
 10
-33.98502628455162
 20
55.92380871629643
 10
-33.98502628455162
 20
56.627997286756
 42
0.4142135623731132
  0
HATCH
  5
BEC
330
B9E
100
AcDbEntity
  8
9
100
AcDbHatch
 10
0.0
 20
0.0
 30
0.0
210
0.0
220
0.0
230
1.0
  2
SOLID
 70
     1
 71
     1
 91
       13
 92
        7
 72
     1
 73
     1
 93
       20
 10
-34.36901814481962
 20
55.90786840766487
 42
-0.414213562372991
 10
-34.76901814481926
 20
55.507868407665
 42
0.0
 10
-37.76128539935553
 20
55.507868407665
 42
0.0
 10
-37.76128539935553
 20
55.12380871629648
 42
0.0
 10
-34.7850262845518
 20
55.12380871629648
 42
0.4142135623731705
 10
-33.98502628455162
 20
55.92380871629666
 42
0.0
 10
-33.98502628455162
 20
56.627997286756
 42
0.4142135623731547
 10
-34.7850262845518
 20
57.42799728675596
 42
0.0
 10
-36.96125148380543
 20
57.42799728675596
 42
-0.4142135623730898
 10
-37.36125148380552
 20
57.82799728675604
 42
0.0
 10
-37.36125148380552
 20
58.1001017466508
 42
-0.4142135623731575
 10
-36.96125148380543
 20
58.5001017466509
 42
0.0
 10
-34.27303713752781
 20
58.50010174665067
 42
0.0
 10
-34.27303713752781
 20
58.90010174665076
 42
0.0
 10
-36.96128539935535
 20
58.90010174665076
 42
0.4142135623731705
 10
-37.76128539935553
 20
58.10010174665058
 42
0.0
 10
-37.76128539935553
 20
57.82796337120544
 42
0.4142135623730299
 10
-36.9612853993558
 20
57.02796337120571
 42
0.0
 10
-34.76901814481926
 20
57.02796337120571
 42
-0.4142135623730015
 10
-34.36901814481962
 20
56.62796337120608
 42
0.0
 97
        1
330
BEB
 92
        7
 72
     1
 73
     1
 93
       12
 10
-33.36098015940343
 20
55.92380871629666
 42
0.4142135623731547
 10
-32.56098015940324
 20
55.12380871629648
 42
0.0
 10
-29.58465321349877
 20
55.12380871629648
 42
0.0
 10
-29.58465321349832
 20
58.10010174665058
 42
0.4142135623731964
 10
-30.3846532134985
 20
58.90010174665076
 42
0.0
 10
-33.07296930642724
 20
58.90010174665076
 42
0.0
 10
-33.07296930642724
 20
58.50010174665067
 42
0.0
 10
-30.38468712904887
 20
58.5001017466509
 42
-0.4142135623732564
 10
-29.98468712904878
 20
58.10010174665103
 42
0.0
 10
-29.98468712904923
 20
57.42799728675596
 42
0.0
 10
-32.56098015940324
 20
57.42799728675596
 42
0.4142135623731705
 10
-33.36098015940343
 20
56.627997286756
 42
0.0
 97
        1
330
BEA
 92
       22
 72
     1
 73
     1
 93
        6
 10
-32.97692046803468
 20
56.62796337120562
 42
-0.4142135623731576
 10
-32.57692046803459
 20
57.02796337120571
 42
0.0
 10
-29.98468712904878
 20
57.02796337120571
 42
0.0
 10
-29.98468712904878
 20
55.507868407665
 42
0.0
 10
-32.57692046803459
 20
55.507868407665
 42
-0.4142135623731731
 10
-32.97692046803468
 20
55.90786840766487
 42
0.0
 97
        1
330
C11
 92
        7
 72
     1
 73
     1
 93
       10
 10
-28.57661522808212
 20
58.5001017466509
 42
0.0
 10
-25.98444972019661
 20
58.5001017466509
 42
-0.4142135623730067
 10
-25.58444972019652
 20
58.10010174665058
 42
0.0
 10
-25.58444972019606
 20
55.12380871629648
 42
0.0
 10
-25.20042394437906
 20
55.12380871629648
 42
0.0
 10
-25.2004239443786
 20
58.1001017466508
 42
0.4142135623731134
 10
-26.00042394437833
 20
58.90010174665076
 42
0.0
 10
-28.97664914363259
 20
58.90010174665076
 42
0.0
 10
-28.97664914363259
 20
55.12380871629648
 42
0.0
 10
-28.57661522808212
 20
55.12380871629648
 42
0.0
 97
        1
330
BE9
 92
        7
 72
     0
 73
     1
 93
        4
 10
-24.57637781922995
 20
55.12380871629648
 10
-24.19231812786165
 20
55.12380871629648
 10
-24.19231812786165
 20
58.90010174665076
 10
-24.57637781922995
 20
58.90010174665076
 97
        1
330
BE8
 92
        7
 72
     0
 73
     1
 93
        4
 10
-24.19231812786165
 20
59.87619128370352
 10
-24.5763778192304
 20
59.87619128370352
 10
-24.5763778192304
 20
59.28412752246913
 10
-24.1923181278612
 20
59.28412752246913
 97
        1
330
C12
 92
        7
 72
     1
 73
     1
 93
       10
 10
-23.18424622689509
 20
58.5001017466509
 42
0.0
 10
-20.59204680345965
 20
58.5001017466509
 42
-0.4142135623730898
 10
-20.19204680345956
 20
58.1001017466508
 42
0.0
 10
-20.19204680345956
 20
55.12380871629648
 42
0.0
 10
-19.79201288790909
 20
55.12380871629648
 42
0.0
 10
-19.79201288790909
 20
58.1001017466508
 42
0.4142135623731547
 10
-20.59201288790928
 20
58.90010174665076
 42
0.0
 10
-23.56830591826338
 20
58.90010174665076
 42
0.0
 10
-23.56830591826338
 20
55.12380871629648
 42
0.0
 10
-23.18424622689463
 20
55.12380871629648
 42
0.0
 97
        1
330
BE7
 92
        7
 72
     1
 73
     1
 93
        8
 10
-19.1999120763262
 20
55.92680650071542
 42
0.4153115297271299
 10
-18.39991769304061
 20
55.12380871629648
 42
0.0
 10
-15.4236900118708
 20
55.12380871629648
 42
0.0
 10
-15.4236900118708
 20
59.87619128370352
 42
0.0
 10
-15.80771578768872
 20
59.87619128370352
 42
0.0
 10
-15.80771578768872
 20
58.90010174665076
 42
0.0
 10
-18.39176256411201
 20
58.90010174665076
 42
0.4131164467977965
 10
-19.19175694739761
 20
58.1030995310698
 42
0.0
 97
        1
330
BE6
 92
       22
 72
     1
 73
     1
 93
        6
 10
-18.79994912667462
 20
58.1001017466508
 42
-0.4142135623731575
 10
-18.39994912667453
 20
58.5001017466509
 42
0.0
 10
-15.80771578768872
 20
58.50010174665067
 42
0.0
 10
-15.80771578768827
 20
55.507868407665
 42
0.0
 10
-18.39994912667453
 20
55.507868407665
 42
-0.4142135623731731
 10
-18.79994912667462
 20
55.90786840766487
 42
0.0
 97
        1
330
BE5
 92
        7
 72
     1
 73
     1
 93
       12
 10
-14.79964388672215
 20
55.92380871629621
 42
0.4142135623729885
 10
-13.99964388672242
 20
55.12380871629648
 42
0.0
 10
-11.8233508563676
 20
55.12380871629648
 42
0.4142135623731289
 10
-11.02335085636741
 20
55.92380871629666
 42
0.0
 10
-11.02335085636741
 20
58.90010174665076
 42
0.0
 10
-11.42338477191788
 20
58.90010174665076
 42
0.0
 10
-11.42338477191788
 20
55.91567577726095
 42
-0.4131711701795319
 10
-11.82196067063523
 20
55.51567831234956
 42
0.0
 10
-14.01419400962095
 20
55.50787335710947
 42
-0.4152567234626918
 10
-14.41561811090378
 20
55.90787082202087
 42
0.0
 10
-14.41561811090378
 20
58.90010174665076
 42
0.0
 10
-14.7996438867226
 20
58.90010174665076
 42
0.0
 97
        1
330
BE4
 92
        7
 72
     1
 73
     1
 93
       20
 10
-7.423079531965413
 20
57.02796337120571
 42
-0.414213562373168
 10
-7.023079531965322
 20
56.62796337120562
 42
0.0
 10
-7.023079531965322
 20
55.90786840766487
 42
-0.4142135623731575
 10
-7.423079531965413
 20
55.507868407665
 42
0.0
 10
-10.41534678650168
 20
55.507868407665
 42
0.0
 10
-10.41534678650168
 20
55.12380871629648
 42
0.0
 10
-7.445787917283723
 20
55.12380871629648
 42
0.4114777732065809
 10
-6.645822882998345
 20
55.91632914939783
 42
0.0
 10
-6.639238813324936
 20
56.62051771985716
 42
0.4169546541682913
 10
-7.439203847610315
 20
57.42799728675596
 42
0.0
 10
-9.615312870951584
 20
57.42799728675596
 42
-0.4142135623729911
 10
-10.01531287095122
 20
57.82799728675581
 42
0.0
 10
-10.01531287095122
 20
58.10010174665103
 42
-0.414213562372991
 10
-9.615312870951584
 20
58.5001017466509
 42
0.0
 10
-6.92703069357276
 20
58.50010174665067
 42
0.0
 10
-6.927030693572305
 20
58.90010174665076
 42
0.0
 10
-9.615346786501959
 20
58.90010174665076
 42
0.4142135623730467
 10
-10.41534678650168
 20
58.10010174665103
 42
0.0
 10
-10.41534678650168
 20
57.82796337120544
 42
0.4142135623730301
 10
-9.615346786501959
 20
57.02796337120571
 42
0.0
 97
        1
330
BE3
 92
        7
 72
     1
 73
     1
 93
       12
 10
-5.21497371544865
 20
57.42799728675596
 42
0.4142135623730871
 10
-6.014973715448377
 20
56.627997286756
 42
0.0
 10
-6.014973715448377
 20
55.92380871629621
 42
0.4142135623730715
 10
-5.21497371544865
 20
55.12380871629648
 42
0.0
 10
-2.23871460064447
 20
55.12380871629648
 42
0.0
 10
-2.23871460064447
 20
58.10010174665058
 42
0.414213562373155
 10
-3.038714600644652
 20
58.90010174665076
 42
0.0
 10
-5.726962862471737
 20
58.90010174665076
 42
0.0
 10
-5.726962862472191
 20
58.5001017466509
 42
0.0
 10
-3.038748516194573
 20
58.5001017466509
 42
-0.4142135623730067
 10
-2.638748516194482
 20
58.10010174665058
 42
0.0
 10
-2.638748516194482
 20
57.42799728675596
 42
0.0
 97
        1
330
BE2
 92
       22
 72
     1
 73
     1
 93
        6
 10
-2.638748516194937
 20
57.02796337120571
 42
0.0
 10
-2.638748516194482
 20
55.50786840766477
 42
0.0
 10
-5.21497371544865
 20
55.507868407665
 42
-0.4142135623731731
 10
-5.614973715448741
 20
55.90786840766509
 42
0.0
 10
-5.614973715448741
 20
56.62796337120562
 42
-0.4142135623731576
 10
-5.21497371544865
 20
57.02796337120571
 42
0.0
 97
        1
330
C0D
 75
     0
 76
     1
 47
0.0407044778999864
 98
       13
 10
-34.18710075113677
 20
56.16907953933765
 10
-33.12851374392494
 20
56.49471602641233
 10
-33.12851374392494
 20
56.49471602641233
 10
-28.77202873835904
 20
57.51232930166111
 10
-24.41554807250941
 20
57.91937341678636
 10
-24.41554807250941
 20
59.384734621186
 10
-23.31624584658039
 20
58.3264175319116
 10
-19.04119127844888
 20
57.75655517324913
 10
-19.04119127844888
 20
57.75655517324913
 10
-14.64399105416578
 20
57.43091868617466
 10
-8.048195057457178
 20
57.22739662861204
 10
-4.017427461911665
 20
57.18669281458665
 10
-4.017427461911665
 20
57.18669281458665
  0
TEXT
  5
BED
330
B9E
100
AcDbEntity
  8
leg fin
100
AcDbText
 10
3.391127401597259
 20
2.107634911895729
 30
0.0
 40
1.5
  1
Este desenho é propriedade da Sanindusa, S.A., e não pode ser copiado nem divulgado sem nossa autorização.
 50
90.0
 41
0.8
  7
SANINDUSA
100
AcDbText
  0
LINE
  5
BEE
330
B9E
100
AcDbEntity
  8
3
100
AcDbLine
 10
-90.0
 20
4.0
 30
0.0
 11
-90.0
 21
12.0
 31
0.0
  0
TEXT
  5
BEF
330
B9E
100
AcDbEntity
  8
1
100
AcDbText
 10
-39.0
 20
9.25
 30
0.0
 40
2.0
  1
Substituido por:
 41
0.8
  7
SANINDUSA
 11
-39.0
 21
10.25
 31
0.0
100
AcDbText
 73
     2
  0
POINT
  5
BF0
330
B9E
100
AcDbEntity
  8
SANINDUSA
100
AcDbPoint
 10
0.0
 20
0.0
 30
0.0
  0
TEXT
  5
BF1
330
B9E
100
AcDbEntity
  8
1
100
AcDbText
 10
-89.0
 20
16.74927010445663
 30
0.0
 40
2.0
  1
Normas:
 41
0.8
  7
SANINDUSA
 11
-89.0
 21
17.74927010445663
 31
0.0
100
AcDbText
 73
     2
  0
LINE
  5
BF2
330
B9E
100
AcDbEntity
  8
3
100
AcDbLine
 10
-90.0
 20
12.0
 30
0.0
 11
-90.0
 21
20.0
 31
0.0
  0
LINE
  5
BF3
330
B9E
100
AcDbEntity
  8
3
100
AcDbLine
 10
-110.546019464768
 20
12.0
 30
0.0
 11
-110.546019464768
 21
20.0
 31
0.0
  0
TEXT
  5
BF4
330
B9E
100
AcDbEntity
  8
1
100
AcDbText
 10
-109.6177520618648
 20
17.25
 30
0.0
 40
2.0
  1
Cor:
 41
0.8
  7
SANINDUSA
 11
-109.6177520618648
 21
18.25
 31
0.0
100
AcDbText
 73
     2
  0
LINE
  5
BF5
330
B9E
100
AcDbEntity
  8
leg fin
100
AcDbLine
 10
-91.42857142857156
 20
20.0
 30
0.0
 11
-91.42857142857156
 21
28.5
 31
0.0
  0
LINE
  5
BF6
330
B9E
100
AcDbEntity
  8
leg fin
100
AcDbLine
 10
-104.2857142857142
 20
20.0
 30
0.0
 11
-104.2857142857142
 21
28.5
 31
0.0
  0
LINE
  5
BF7
330
B9E
100
AcDbEntity
  8
leg fin
100
AcDbLine
 10
-117.1428571428573
 20
20.0
 30
0.0
 11
-117.1428571428573
 21
28.5
 31
0.0
  0
POINT
  5
BF8
330
B9E
100
AcDbEntity
  8
SANINDUSA
100
AcDbPoint
 10
-117.1428571428573
 20
28.5
 30
0.0
  0
POINT
  5
BF9
330
B9E
100
AcDbEntity
  8
SANINDUSA
100
AcDbPoint
 10
-104.2857142857142
 20
28.5
 30
0.0
  0
POINT
  5
BFA
330
B9E
100
AcDbEntity
  8
SANINDUSA
100
AcDbPoint
 10
-91.42857142857156
 20
28.5
 30
0.0
  0
TEXT
  5
BFB
330
B9E
100
AcDbEntity
  8
1
100
AcDbText
 10
-116.200160604496
 20
26.43288406845113
 30
0.0
 40
1.5
  1
Nº Seq.:
 41
0.8
  7
SANINDUSA
 11
-116.200160604496
 21
27.18288406845113
 31
0.0
100
AcDbText
 73
     2
  0
TEXT
  5
BFC
330
B9E
100
AcDbEntity
  8
1
100
AcDbText
 10
-103.2106584078738
 20
26.43288406845113
 30
0.0
 40
1.5
  1
Tipo:
 41
0.8
  7
SANINDUSA
 11
-103.2106584078738
 21
27.18288406845113
 31
0.0
100
AcDbText
 73
     2
  0
TEXT
  5
BFD
330
B9E
100
AcDbEntity
  8
1
100
AcDbText
 10
-90.22114672289353
 20
26.43288406845113
 30
0.0
 40
1.5
  1
Prod.:
 41
0.8
  7
SANINDUSA
 11
-90.22114672289353
 21
27.18288406845113
 31
0.0
100
AcDbText
 73
     2
  0
TEXT
  5
BFE
330
B9E
100
AcDbEntity
  8
1
100
AcDbText
 10
-64.77320576346574
 20
26.43288406845113
 30
0.0
 40
1.5
  1
Rev.:
 41
0.8
  7
SANINDUSA
 11
-64.77320576346574
 21
27.18288406845113
 31
0.0
100
AcDbText
 73
     2
  0
LINE
  5
BFF
330
B9E
100
AcDbEntity
  8
leg fin
100
AcDbLine
 10
-52.85714285714266
 20
20.0
 30
0.0
 11
-52.85714285714266
 21
28.5
 31
0.0
  0
LINE
  5
C00
330
B9E
100
AcDbEntity
  8
leg fin
100
AcDbLine
 10
-65.71428571428578
 20
20.0
 30
0.0
 11
-65.71428571428578
 21
28.5
 31
0.0
  0
LINE
  5
C01
330
B9E
100
AcDbEntity
  8
leg fin
100
AcDbLine
 10
-78.57142857142844
 20
20.0
 30
0.0
 11
-78.57142857142844
 21
28.5
 31
0.0
  0
POINT
  5
C02
330
B9E
100
AcDbEntity
  8
SANINDUSA
100
AcDbPoint
 10
-78.57142857142844
 20
28.5
 30
0.0
  0
POINT
  5
C03
330
B9E
100
AcDbEntity
  8
SANINDUSA
100
AcDbPoint
 10
-65.71428571428578
 20
28.5
 30
0.0
  0
POINT
  5
C04
330
B9E
100
AcDbEntity
  8
SANINDUSA
100
AcDbPoint
 10
-52.85714285714266
 20
28.5
 30
0.0
  0
TEXT
  5
C05
330
B9E
100
AcDbEntity
  8
1
100
AcDbText
 10
-77.61097961686573
 20
26.43288406845113
 30
0.0
 40
1.5
  1
Peça:
 41
0.8
  7
SANINDUSA
 11
-77.61097961686573
 21
27.18288406845113
 31
0.0
100
AcDbText
 73
     2
  0
TEXT
  5
C06
330
B9E
100
AcDbEntity
  8
1
100
AcDbText
 10
-52.06538060077036
 20
26.43288406845113
 30
0.0
 40
1.5
  1
Alt.:
 41
0.8
  7
SANINDUSA
 11
-52.06538060077036
 21
27.18288406845113
 31
0.0
100
AcDbText
 73
     2
  0
LINE
  5
C07
330
B9E
100
AcDbEntity
  8
3
100
AcDbLine
 10
0.0
 20
12.0
 30
0.0
 11
-40.0
 21
12.0
 31
0.0
  0
LINE
  5
C08
330
B9E
100
AcDbEntity
  8
3
100
AcDbLine
 10
-40.0
 20
32.5
 30
0.0
 11
0.0
 21
32.5
 31
0.0
  0
TEXT
  5
C09
330
B9E
100
AcDbEntity
  8
1
100
AcDbText
 10
-19.0
 20
29.75
 30
0.0
 40
2.0
  1
Folha:
 41
0.8
  7
SANINDUSA
 11
-19.0
 21
30.75
 31
0.0
100
AcDbText
 73
     2
  0
LINE
  5
C0A
330
B9E
100
AcDbEntity
  8
3
100
AcDbLine
 10
-20.0
 20
32.5
 30
0.0
 11
-20.0
 21
20.0
 31
0.0
  0
TEXT
  5
C0B
330
B9E
100
AcDbEntity
  8
1
100
AcDbText
 10
-39.0
 20
29.75
 30
0.0
 40
2.0
  1
Escala:
 41
0.8
  7
SANINDUSA
 11
-39.0
 21
30.75
 31
0.0
100
AcDbText
 73
     2
  0
TEXT
  5
C0C
330
B9E
100
AcDbEntity
  8
1
100
AcDbText
 10
-39.0
 20
17.25
 30
0.0
 40
2.0
  1
Substitui:
 41
0.8
  7
SANINDUSA
 11
-39.0
 21
18.25
 31
0.0
100
AcDbText
 73
     2
  0
LWPOLYLINE
  5
C0D
102
{ACAD_REACTORS
330
BEC
102
}
330
B9E
100
AcDbEntity
  8
9
100
AcDbPolyline
 90
        6
 70
     1
 43
0.0
 10
-2.638748516194482
 20
57.02796337120571
 10
-2.638748516194482
 20
55.50786840766477
 10
-5.21497371544865
 20
55.507868407665
 42
-0.4142135623730898
 10
-5.614973715448741
 20
55.90786840766487
 10
-5.614973715448741
 20
56.62796337120562
 42
-0.4142135623731576
 10
-5.21497371544865
 20
57.02796337120571
  0
LINE
  5
C0E
330
B9E
100
AcDbEntity
  8
3
100
AcDbLine
 10
-40.0
 20
50.0
 30
0.0
 11
0.0
 21
50.0
 31
0.0
  0
ATTDEF
  5
C0F
330
B9E
100
AcDbEntity
  8
1
100
AcDbText
 10
-31.30691739422431
 20
40.25
 30
0.0
 40
2.0
  1
XXXXXXXXXXXXXXX
 41
0.8
  7
SANINDUSA
 72
     4
 11
-20.0
 21
41.25
 31
0.0
100
AcDbAttributeDefinition
  3
Observações:
  2
OBS
 70
     0
  0
TEXT
  5
C10
330
B9E
100
AcDbEntity
  8
1
100
AcDbText
 10
-39.0
 20
47.25
 30
0.0
 40
2.0
  1
Observações:
 41
0.8
  7
SANINDUSA
 11
-39.0
 21
48.25
 31
0.0
100
AcDbText
 73
     2
  0
LWPOLYLINE
  5
C11
102
{ACAD_REACTORS
330
BEC
102
}
330
B9E
100
AcDbEntity
  8
9
100
AcDbPolyline
 90
        6
 70
     1
 43
0.0
 10
-29.98468712904878
 20
57.02796337120571
 10
-29.98468712904878
 20
55.507868407665
 10
-32.57692046803459
 20
55.507868407665
 42
-0.4142135623731731
 10
-32.97692046803468
 20
55.90786840766487
 10
-32.97692046803468
 20
56.62796337120562
 42
-0.4142135623731576
 10
-32.57692046803459
 20
57.02796337120571
  0
LWPOLYLINE
  5
C12
102
{ACAD_REACTORS
330
BEC
102
}
330
B9E
100
AcDbEntity
  8
9
100
AcDbPolyline
 90
        4
 70
     1
 43
0.0
 10
-24.19231812786165
 20
59.87619128370352
 10
-24.57637781922995
 20
59.87619128370352
 10
-24.57637781922995
 20
59.28412752246913
 10
-24.19231812786165
 20
59.28412752246913
  0
ENDBLK
  5
C14
330
B9E
100
AcDbEntity
  8
0
100
AcDbBlockEnd
  0
BLOCK
  5
1061
330
1060
100
AcDbEntity
  8
0
 62
     4
100
AcDbBlockBegin
  2
guarnizione
 70
     0
 10
0.0
 20
0.0
 30
0.0
  3
guarnizione
  1

  0
LINE
  5
1062
330
1060
100
AcDbEntity
  8
0
100
AcDbLine
 10
12.0
 20
3.179312414488776
 30
0.0
 11
12.0
 21
2.699999999999818
 31
0.0
  0
LINE
  5
1063
330
1060
100
AcDbEntity
  8
0
100
AcDbLine
 10
9.5
 20
3.130475008156281
 30
0.0
 11
9.440776269158959
 21
2.734883615801663
 31
0.0
  0
ARC
  5
1064
330
1060
100
AcDbEntity
  8
0
100
AcDbCircle
 10
11.19999999999891
 20
3.179312414488776
 30
0.0
 40
0.8
100
AcDbArc
 50
0.0
 51
81.48552156587461
  0
ARC
  5
1065
330
1060
100
AcDbEntity
  8
0
100
AcDbCircle
 10
8.753809903480942
 20
1.523241254200002
 30
0.0
 40
0.1999999999999504
100
AcDbArc
 50
171.485521565823
 51
351.485521565823
  0
LINE
  5
1066
330
1060
100
AcDbEntity
  8
0
100
AcDbLine
 10
11.65558220186904
 20
-2.403306455734309
 30
0.0
 11
9.440776269158959
 21
-2.734883615802573
 31
0.0
  0
ARC
  5
1067
330
1060
100
AcDbEntity
  8
0
100
AcDbCircle
 10
8.753809903480942
 20
-1.523241254200911
 30
0.0
 40
0.1999999999999504
100
AcDbArc
 50
8.514478434176927
 51
188.5144784341769
  0
LINE
  5
1068
330
1060
100
AcDbEntity
  8
0
100
AcDbLine
 10
9.5
 20
-3.130475008157191
 30
0.0
 11
9.440776269158959
 21
-2.734883615802573
 31
0.0
  0
ARC
  5
1069
330
1060
100
AcDbEntity
  8
0
100
AcDbCircle
 10
11.69999999999891
 20
-2.699999999999818
 30
0.0
 40
0.3
100
AcDbArc
 50
0.0
 51
98.51447843412536
  0
ARC
  5
106A
330
1060
100
AcDbEntity
  8
0
100
AcDbCircle
 10
11.69999999999891
 20
2.699999999999818
 30
0.0
 40
0.3
100
AcDbArc
 50
261.4855215658746
 51
0.0
  0
LINE
  5
106B
330
1060
100
AcDbEntity
  8
0
100
AcDbLine
 10
11.65558220186904
 20
2.4033064557334
 30
0.0
 11
9.440776269158959
 21
2.734883615801663
 31
0.0
  0
LINE
  5
106C
330
1060
100
AcDbEntity
  8
0
100
AcDbLine
 10
8.807715063378054
 20
3.234116537129011
 30
0.0
 11
8.556014207302723
 21
1.552853119620522
 31
0.0
  0
LINE
  5
106D
330
1060
100
AcDbEntity
  8
0
100
AcDbLine
 10
9.203306455732672
 20
3.174892806287971
 30
0.0
 11
8.951605599657341
 21
1.493629388779481
 31
0.0
  0
LINE
  5
106E
330
1060
100
AcDbEntity
  8
0
100
AcDbLine
 10
6.681411329471302
 20
3.552444090400967
 30
0.0
 11
6.622187598630262
 21
3.15685269804544
 31
0.0
  0
ARC
  5
106F
330
1060
100
AcDbEntity
  8
0
100
AcDbCircle
 10
0.2999999999992724
 20
3.800000000000181
 30
0.0
 40
0.3
100
AcDbArc
 50
81.48552156587461
 51
180.0
  0
ARC
  5
1070
330
1060
100
AcDbEntity
  8
0
100
AcDbCircle
 10
1.042400829128382
 20
4.699999999999818
 30
0.0
 40
0.8
100
AcDbArc
 50
81.48552156587461
 51
90.0
  0
LINE
  5
1071
330
1060
100
AcDbEntity
  8
0
100
AcDbLine
 10
1.5
 20
3.923692082123125
 30
0.0
 11
0.3444177981309622
 21
4.09669354426569
 31
0.0
  0
LINE
  5
1072
330
1060
100
AcDbEntity
  8
0
100
AcDbLine
 10
1.5
 20
3.923692082123125
 30
0.0
 11
1.5
 21
3.099999999999454
 31
0.0
  0
LINE
  5
1073
330
1060
100
AcDbEntity
  8
0
100
AcDbLine
 10
1.5
 20
3.099999999999454
 30
0.0
 11
2.699999999998908
 21
3.099999999999454
 31
0.0
  0
LINE
  5
1074
330
1060
100
AcDbEntity
  8
0
100
AcDbLine
 10
2.699999999998908
 20
3.744040860223321
 30
0.0
 11
2.699999999998908
 21
3.099999999999454
 31
0.0
  0
LINE
  5
1075
330
1060
100
AcDbEntity
  8
0
100
AcDbLine
 10
6.622187598630262
 20
3.15685269804544
 30
0.0
 11
2.699999999998908
 21
3.744040860223321
 31
0.0
  0
LINE
  5
1076
330
1060
100
AcDbEntity
  8
0
100
AcDbLine
 10
1.5
 20
-3.100000000000363
 30
0.0
 11
2.699999999998908
 21
-3.100000000000363
 31
0.0
  0
LINE
  5
1077
330
1060
100
AcDbEntity
  8
0
100
AcDbLine
 10
11.31844746168099
 20
3.970495199198012
 30
0.0
 11
1.160848290810463
 21
5.491182784709053
 31
0.0
  0
LINE
  5
1078
330
1060
100
AcDbEntity
  8
0
100
AcDbLine
 10
9.5
 20
3.130475008156281
 30
0.0
 11
6.681411329471302
 21
3.552444090400967
 31
0.0
  0
ARC
  5
1079
330
1060
100
AcDbEntity
  8
0
100
AcDbCircle
 10
11.19999999999891
 20
-3.179312414488776
 30
0.0
 40
0.8
100
AcDbArc
 50
278.5144784341254
 51
0.0
  0
LINE
  5
107A
330
1060
100
AcDbEntity
  8
0
100
AcDbLine
 10
6.681411329471302
 20
-3.552444090400967
 30
0.0
 11
6.622187598630262
 21
-3.15685269804635
 31
0.0
  0
ARC
  5
107B
330
1060
100
AcDbEntity
  8
0
100
AcDbCircle
 10
0.2999999999992724
 20
-3.800000000000181
 30
0.0
 40
0.3
100
AcDbArc
 50
180.0
 51
278.5144784341254
  0
ARC
  5
107C
330
1060
100
AcDbEntity
  8
0
100
AcDbCircle
 10
1.042400829128382
 20
-4.699999999999818
 30
0.0
 40
0.8
100
AcDbArc
 50
270.0
 51
278.5144784341254
  0
LINE
  5
107D
330
1060
100
AcDbEntity
  8
0
100
AcDbLine
 10
0.3444177981309622
 20
-4.096693544266599
 30
0.0
 11
1.5
 21
-3.923692082124034
 31
0.0
  0
LINE
  5
107E
330
1060
100
AcDbEntity
  8
0
100
AcDbLine
 10
6.622187598630262
 20
-3.15685269804635
 30
0.0
 11
2.699999999998908
 21
-3.744040860224231
 31
0.0
  0
LINE
  5
107F
330
1060
100
AcDbEntity
  8
0
100
AcDbLine
 10
1.160848290810463
 20
-5.491182784709963
 30
0.0
 11
11.31844746168099
 21
-3.970495199198921
 31
0.0
  0
LINE
  5
1080
330
1060
100
AcDbEntity
  8
0
100
AcDbLine
 10
0.0
 20
3.800000000000181
 30
0.0
 11
0.0
 21
-3.800000000000181
 31
0.0
  0
LINE
  5
1081
330
1060
100
AcDbEntity
  8
0
100
AcDbLine
 10
12.0
 20
-2.699999999999818
 30
0.0
 11
12.0
 21
-3.179312414488776
 31
0.0
  0
LINE
  5
1082
330
1060
100
AcDbEntity
  8
0
100
AcDbLine
 10
2.699999999998908
 20
-3.100000000000363
 30
0.0
 11
2.699999999998908
 21
-3.744040860224231
 31
0.0
  0
LINE
  5
1083
330
1060
100
AcDbEntity
  8
0
100
AcDbLine
 10
1.5
 20
-3.100000000000363
 30
0.0
 11
1.5
 21
-3.923692082124034
 31
0.0
  0
LINE
  5
1084
330
1060
100
AcDbEntity
  8
0
100
AcDbLine
 10
9.5
 20
-3.130475008157191
 30
0.0
 11
6.681411329471302
 21
-3.552444090400967
 31
0.0
  0
LINE
  5
1085
330
1060
100
AcDbEntity
  8
0
100
AcDbLine
 10
9.203306455732672
 20
-3.174892806287971
 30
0.0
 11
8.951605599657341
 21
-1.493629388780391
 31
0.0
  0
LINE
  5
1086
330
1060
100
AcDbEntity
  8
0
100
AcDbLine
 10
8.807715063378054
 20
-3.234116537129011
 30
0.0
 11
8.556014207302723
 21
-1.552853119621431
 31
0.0
  0
LINE
  5
1087
330
1060
100
AcDbEntity
  8
0
100
AcDbLine
 10
-1.5
 20
5.5
 30
0.0
 11
-3.757359312881817
 21
5.5
 31
0.0
  0
ARC
  5
1088
330
1060
100
AcDbEntity
  8
0
100
AcDbCircle
 10
-2.5
 20
3.5
 30
0.0
 40
1.0
100
AcDbArc
 50
0.0
 51
90.0
  0
ARC
  5
1089
330
1060
100
AcDbEntity
  8
0
100
AcDbCircle
 10
-3.769781102879278
 20
4.149978862833449
 30
0.0
 40
0.75
100
AcDbArc
 50
47.16775949949599
 51
90.19499109987526
  0
ARC
  5
108A
330
1060
100
AcDbEntity
  8
0
100
AcDbCircle
 10
-2.75
 20
5.25
 30
0.0
 40
0.75
100
AcDbArc
 50
227.167759499496
 51
270.0
  0
LINE
  5
108B
330
1060
100
AcDbEntity
  8
0
100
AcDbLine
 10
-2.75
 20
4.5
 30
0.0
 11
-2.5
 21
4.5
 31
0.0
  0
LINE
  5
108C
330
1060
100
AcDbEntity
  8
0
100
AcDbLine
 10
-7.415254325502246
 20
3.064644661409147
 30
0.0
 11
-6.868629150101696
 21
3.611269837220788
 31
0.0
  0
ARC
  5
108D
102
{ACAD_REACTORS
330
10A7
102
}
330
1060
100
AcDbEntity
  8
0
100
AcDbCircle
 10
-7.980939750059405
 20
2.569669913566031
 30
0.0
 40
0.2
100
AcDbArc
 50
45.0000001037625
 51
135.0000000719631
  0
ARC
  5
108E
330
1060
100
AcDbEntity
  8
0
100
AcDbCircle
 10
-3.757359312881817
 20
0.5
 30
0.0
 40
5.0
100
AcDbArc
 50
90.0
 51
135.0
  0
ARC
  5
108F
330
1060
100
AcDbEntity
  8
0
100
AcDbCircle
 10
-3.757359312881817
 20
0.5
 30
0.0
 40
4.4
100
AcDbArc
 50
90.19499109987526
 51
135.0
  0
ARC
  5
1090
330
1060
100
AcDbEntity
  8
0
100
AcDbCircle
 10
-6.814213563102384
 20
0.9786796633270569
 30
0.0
 40
0.75
100
AcDbArc
 50
314.9999999676111
 51
45.0
  0
ARC
  5
1091
102
{ACAD_REACTORS
330
10A7
102
}
330
1060
100
AcDbEntity
  8
0
100
AcDbCircle
 10
-6.814213563102384
 20
0.9786796633270569
 30
0.0
 40
0.5
100
AcDbArc
 50
314.9999999676111
 51
45.0
  0
ARC
  5
1092
330
1060
100
AcDbEntity
  8
0
100
AcDbCircle
 10
-7.203122291144609
 20
2.852512627053329
 30
0.0
 40
0.3
100
AcDbArc
 50
135.0
 51
225.0000001112794
  0
LINE
  5
1093
330
1060
100
AcDbEntity
  8
0
100
AcDbLine
 10
-8.051650430128574
 20
3.276776694619002
 30
0.0
 11
-6.283883477519339
 21
1.509009749524921
 31
0.0
  0
LINE
  5
1094
102
{ACAD_REACTORS
330
10A7
102
}
330
1060
100
AcDbEntity
  8
0
100
AcDbLine
 10
-7.839518394079277
 20
2.711091270059114
 30
0.0
 11
-6.460660172508141
 21
1.33223305392039
 31
0.0
  0
ARC
  5
1095
330
1060
100
AcDbEntity
  8
0
100
AcDbCircle
 10
-12.57713383280133
 20
-2.521498914058611
 30
0.0
 40
0.3
100
AcDbArc
 50
45.00000003552097
 51
135.0
  0
ARC
  5
1096
102
{ACAD_REACTORS
330
10A7
102
}
330
1060
100
AcDbEntity
  8
0
100
AcDbCircle
 10
-12.29429112059733
 20
-1.743681468243266
 30
0.0
 40
0.2
100
AcDbArc
 50
135.0000000660675
 51
225.0000002990173
  0
LINE
  5
1097
330
1060
100
AcDbEntity
  8
0
100
AcDbLine
 10
-12.9899494936617
 20
-2.510050506339212
 30
0.0
 11
-12.78926586715715
 21
-2.309366879702793
 31
0.0
  0
LINE
  5
1098
330
1060
100
AcDbEntity
  8
0
100
AcDbLine
 10
-13.41421356237333
 20
-2.085786437626666
 30
0.0
 11
-7.292893218815152
 21
4.035533905932425
 31
0.0
  0
LINE
  5
1099
102
{ACAD_REACTORS
330
10A7
102
}
330
1060
100
AcDbEntity
  8
0
100
AcDbLine
 10
-12.43571247699765
 20
-1.602260112168551
 30
0.0
 11
-8.122361106474272
 21
2.711091269625285
 31
0.0
  0
ARC
  5
109A
330
1060
100
AcDbEntity
  8
0
100
AcDbCircle
 10
-2.5
 20
-3.5
 30
0.0
 40
1.0
100
AcDbArc
 50
270.0
 51
0.0
  0
ARC
  5
109B
330
1060
100
AcDbEntity
  8
0
100
AcDbCircle
 10
-7.519803902720013
 20
-4.150000000000545
 30
0.0
 40
0.75
100
AcDbArc
 50
270.0
 51
312.8334280660476
  0
ARC
  5
109C
330
1060
100
AcDbEntity
  8
0
100
AcDbCircle
 10
-6.5
 20
-5.25
 30
0.0
 40
0.75
100
AcDbArc
 50
90.0
 51
132.8334280660476
  0
LINE
  5
109D
330
1060
100
AcDbEntity
  8
0
100
AcDbLine
 10
-2.5
 20
-4.5
 30
0.0
 11
-6.5
 21
-4.5
 31
0.0
  0
ARC
  5
109E
330
1060
100
AcDbEntity
  8
0
100
AcDbCircle
 10
-10.7033008647486
 20
-2.910407640086305
 30
0.0
 40
0.75
100
AcDbArc
 50
225.0
 51
315.0
  0
ARC
  5
109F
102
{ACAD_REACTORS
330
10A7
102
}
330
1060
100
AcDbEntity
  8
0
100
AcDbCircle
 10
-10.7033008647486
 20
-2.910407640086305
 30
0.0
 40
0.5
100
AcDbArc
 50
225.0
 51
315.0
  0
LINE
  5
10A0
330
1060
100
AcDbEntity
  8
0
100
AcDbLine
 10
-1.5
 20
-5.5
 30
0.0
 11
-12.0
 21
-5.5
 31
0.0
  0
LINE
  5
10A1
330
1060
100
AcDbEntity
  8
0
100
AcDbLine
 10
-7.519803902720013
 20
-4.900000000000545
 30
0.0
 11
-12.0
 21
-4.900000000000545
 31
0.0
  0
ARC
  5
10A2
330
1060
100
AcDbEntity
  8
0
100
AcDbCircle
 10
-12.0
 20
-3.5
 30
0.0
 40
2.0
100
AcDbArc
 50
135.0
 51
270.0
  0
LINE
  5
10A3
330
1060
100
AcDbEntity
  8
0
100
AcDbLine
 10
-10.17297077881812
 20
-3.440737725935832
 30
0.0
 11
-6.283883477372
 21
0.4483495772774404
 31
0.0
  0
ARC
  5
10A4
330
1060
100
AcDbEntity
  8
0
100
AcDbCircle
 10
-12.0
 20
-3.5
 30
0.0
 40
1.399999999999999
100
AcDbArc
 50
135.0
 51
270.0
  0
LINE
  5
10A5
330
1060
100
AcDbEntity
  8
0
100
AcDbLine
 10
-13.00139790187859
 20
-1.672970777132832
 30
0.0
 11
-11.23363095093009
 21
-3.440737725682993
 31
0.0
  0
LINE
  5
10A6
330
1060
100
AcDbEntity
  8
0
100
AcDbLine
 10
-1.5
 20
3.5
 30
0.0
 11
-1.5
 21
-3.5
 31
0.0
  0
HATCH
  5
10A7
330
1060
100
AcDbEntity
  8
0
100
AcDbHatch
 10
0.0
 20
0.0
 30
0.0
210
0.0
220
0.0
230
1.0
  2
ANSI31
 70
     0
 71
     1
 91
        1
 92
        7
 72
     1
 73
     1
 93
        8
 10
-6.460660173204814
 20
1.332233054616153
 42
0.0
 10
-7.839518394101105
 20
2.711091270081851
 42
0.414213562178905
 10
-8.122361106481548
 20
2.711091269618009
 42
0.0
 10
-12.43571247701766
 20
-1.602260112190379
 42
0.4142135636146872
 10
-12.43571247604996
 20
-1.885102825264766
 42
0.0
 10
-11.05685425338015
 20
-3.263961032639599
 42
0.4142135608152901
 10
-10.34974747407432
 20
-3.263961030598693
 42
0.0
 10
-6.460660172428106
 20
0.625126272813759
 42
0.4142135628833784
 97
        8
330
1094
330
108D
330
1099
330
1096
330
10A9
330
109F
330
10A8
330
1091
 75
     0
 76
     1
 52
45.0
 41
0.25
 77
     0
 78
     1
 53
90.0
 43
-276.1145346408611
 44
-395.2719013892401
 45
-0.79375
 46
0.0000000000000002
 79
     0
 47
0.0364805528584695
 98
        1
 10
-7.399477738399582
 20
0.8532363732892918
  0
LINE
  5
10A8
102
{ACAD_REACTORS
330
10A7
102
}
330
1060
100
AcDbEntity
  8
0
100
AcDbLine
 10
-10.34974747415435
 20
-3.263961030678729
 30
0.0
 11
-6.46066017270823
 21
0.6251262725336347
 31
0.0
  0
LINE
  5
10A9
102
{ACAD_REACTORS
330
10A7
102
}
330
1060
100
AcDbEntity
  8
0
100
AcDbLine
 10
-12.43571247609543
 20
-1.885102825218382
 30
0.0
 11
-11.05685425534102
 21
-3.263961030678729
 31
0.0
  0
LINE
  5
10AA
330
1060
100
AcDbEntity
  8
0
100
AcDbLine
 10
-1.5
 20
5.5
 30
0.0
 11
1.042400829128382
 21
5.5
 31
0.0
  0
LINE
  5
10AB
330
1060
100
AcDbEntity
  8
0
100
AcDbLine
 10
-1.5
 20
-5.5
 30
0.0
 11
1.042400829128382
 21
-5.5
 31
0.0
  0
ENDBLK
  5
10AC
330
1060
100
AcDbEntity
  8
0
 62
     4
100
AcDbBlockEnd
  0
BLOCK
  5
1D84
330
1D7A
100
AcDbEntity
  8
0
100
AcDbBlockBegin
  2
*D8
 70
     1
 10
0.0
 20
0.0
 30
0.0
  3
*D8
  1

  0
LINE
  5
2315
330
1D7A
100
AcDbEntity
  8
7
100
AcDbLine
 10
4578.86295889176
 20
2259.443834253155
 30
0.0
 11
4578.86295889176
 21
2191.01723344031
 31
0.0
  0
LINE
  5
2316
330
1D7A
100
AcDbEntity
  8
7
100
AcDbLine
 10
5378.862958891762
 20
2259.443834253158
 30
0.0
 11
5378.862958891762
 21
2191.01723344031
 31
0.0
  0
LINE
  5
2317
330
1D7A
100
AcDbEntity
  8
7
100
AcDbLine
 10
4598.862958891761
 20
2201.01723344031
 30
0.0
 11
5358.862958891761
 21
2201.01723344031
 31
0.0
  0
SOLID
  5
2318
330
1D7A
100
AcDbEntity
  8
7
100
AcDbTrace
 10
4598.862958891761
 20
2204.350566773643
 30
0.0
 11
4598.862958891761
 21
2197.683900106977
 31
0.0
 12
4578.86295889176
 22
2201.01723344031
 32
0.0
 13
4578.86295889176
 23
2201.01723344031
 33
0.0
  0
SOLID
  5
2319
330
1D7A
100
AcDbEntity
  8
7
100
AcDbTrace
 10
5358.862958891761
 20
2204.350566773643
 30
0.0
 11
5358.862958891761
 21
2197.683900106977
 31
0.0
 12
5378.862958891762
 22
2201.01723344031
 32
0.0
 13
5378.862958891762
 23
2201.01723344031
 33
0.0
  0
MTEXT
  5
231A
330
1D7A
100
AcDbEntity
  8
7
100
AcDbMText
 10
4978.862958891761
 20
2221.473915777449
 30
0.0
 40
20.0
 41
0.0
 71
     5
 72
     1
  1
800
  7
SANINDUSA
 73
     1
 44
1.0
1001
ACAD
1000
MTEXTBEGIN
1070
    73
1070
     1
1070
    44
1040
1.0
1070
    74
1070
     0
1000
MTEXTEND
  0
POINT
  5
231B
330
1D7A
100
AcDbEntity
  8
Defpoints
 62
     0
100
AcDbPoint
 10
4578.86295889176
 20
2269.443834253155
 30
0.0000001553314735
  0
POINT
  5
231C
330
1D7A
100
AcDbEntity
  8
Defpoints
 62
     0
100
AcDbPoint
 10
5378.862958891762
 20
2269.443834253157
 30
0.0000001479286265
  0
POINT
  5
231D
330
1D7A
100
AcDbEntity
  8
Defpoints
 62
     0
100
AcDbPoint
 10
5378.862958891762
 20
2201.01723344031
 30
0.0
  0
ENDBLK
  5
1D85
330
1D7A
100
AcDbEntity
  8
0
100
AcDbBlockEnd
  0
BLOCK
  5
1D90
330
1D86
100
AcDbEntity
  8
0
100
AcDbBlockBegin
  2
*D9
 70
     1
 10
0.0
 20
0.0
 30
0.0
  3
*D9
  1

  0
LINE
  5
23E3
330
1D86
100
AcDbEntity
  8
7
100
AcDbLine
 10
6114.899003350927
 20
2950.999133440315
 30
0.0
 11
6114.899003350927
 21
3020.234187945819
 31
0.0
  0
LINE
  5
23E4
330
1D86
100
AcDbEntity
  8
7
100
AcDbLine
 10
4514.903803350928
 20
2950.999133440317
 30
0.0
 11
4514.903803350928
 21
3020.234187945819
 31
0.0
  0
LINE
  5
23E5
330
1D86
100
AcDbEntity
  8
7
100
AcDbLine
 10
6094.899003350928
 20
3010.234187945819
 30
0.0
 11
4534.903803350927
 21
3010.234187945819
 31
0.0
  0
SOLID
  5
23E6
330
1D86
100
AcDbEntity
  8
7
100
AcDbTrace
 10
6094.899003350928
 20
3013.567521279153
 30
0.0
 11
6094.899003350928
 21
3006.900854612486
 31
0.0
 12
6114.899003350927
 22
3010.234187945819
 32
0.0
 13
6114.899003350927
 23
3010.234187945819
 33
0.0
  0
SOLID
  5
23E7
330
1D86
100
AcDbEntity
  8
7
100
AcDbTrace
 10
4534.903803350927
 20
3013.567521279153
 30
0.0
 11
4534.903803350927
 21
3006.900854612486
 31
0.0
 12
4514.903803350928
 22
3010.234187945819
 32
0.0
 13
4514.903803350928
 23
3010.234187945819
 33
0.0
  0
MTEXT
  5
23E8
330
1D86
100
AcDbEntity
  8
7
100
AcDbMText
 10
5314.901403350927
 20
3030.6438588659
 30
0.0
 40
20.0
 41
0.0
 71
     5
 72
     1
  1
1600
  7
SANINDUSA
 73
     1
 44
1.0
1001
ACAD
1000
MTEXTBEGIN
1070
    73
1070
     1
1070
    44
1040
1.0
1070
    74
1070
     0
1000
MTEXTEND
  0
POINT
  5
23E9
330
1D86
100
AcDbEntity
  8
Defpoints
 62
     0
100
AcDbPoint
 10
6114.899003350927
 20
2940.999133440315
 30
0.0
  0
POINT
  5
23EA
330
1D86
100
AcDbEntity
  8
Defpoints
 62
     0
100
AcDbPoint
 10
4514.903803350928
 20
2940.999133440317
 30
0.0
  0
POINT
  5
23EB
330
1D86
100
AcDbEntity
  8
Defpoints
 62
     0
100
AcDbPoint
 10
4514.903803350928
 20
3010.234187945819
 30
0.0
  0
ENDBLK
  5
1D91
330
1D86
100
AcDbEntity
  8
0
100
AcDbBlockEnd
  0
BLOCK
  5
1DA5
330
1D9B
100
AcDbEntity
  8
0
100
AcDbBlockBegin
  2
*D10
 70
     1
 10
0.0
 20
0.0
 30
0.0
  3
*D10
  1

  0
LINE
  5
2303
330
1D9B
100
AcDbEntity
  8
7
100
AcDbLine
 10
5381.526979591018
 20
2259.443838062754
 30
0.0
 11
5381.526979591018
 21
2191.01723344031
 31
0.0
  0
LINE
  5
2304
330
1D9B
100
AcDbEntity
  8
7
100
AcDbLine
 10
6070.526979591017
 20
2259.443838062754
 30
0.0
 11
6070.526979591017
 21
2191.01723344031
 31
0.0
  0
LINE
  5
2305
330
1D9B
100
AcDbEntity
  8
7
100
AcDbLine
 10
5401.526979591017
 20
2201.01723344031
 30
0.0
 11
6050.526979591017
 21
2201.01723344031
 31
0.0
  0
SOLID
  5
2306
330
1D9B
100
AcDbEntity
  8
7
100
AcDbTrace
 10
5401.526979591017
 20
2204.350566773643
 30
0.0
 11
5401.526979591017
 21
2197.683900106977
 31
0.0
 12
5381.526979591018
 22
2201.01723344031
 32
0.0
 13
5381.526979591018
 23
2201.01723344031
 33
0.0
  0
SOLID
  5
2307
330
1D9B
100
AcDbEntity
  8
7
100
AcDbTrace
 10
6050.526979591017
 20
2204.350566773643
 30
0.0
 11
6050.526979591017
 21
2197.683900106977
 31
0.0
 12
6070.526979591017
 22
2201.01723344031
 32
0.0
 13
6070.526979591017
 23
2201.01723344031
 33
0.0
  0
MTEXT
  5
2308
330
1D9B
100
AcDbEntity
  8
7
100
AcDbMText
 10
5726.026979591018
 20
2221.473915777449
 30
0.0
 40
20.0
 41
0.0
 71
     5
 72
     1
  1
689
  7
SANINDUSA
 73
     1
 44
1.0
1001
ACAD
1000
MTEXTBEGIN
1070
    73
1070
     1
1070
    44
1040
1.0
1070
    74
1070
     0
1000
MTEXTEND
  0
POINT
  5
2309
330
1D9B
100
AcDbEntity
  8
Defpoints
 62
     0
100
AcDbPoint
 10
5381.526979591018
 20
2269.443838062755
 30
0.0000001479284879
  0
POINT
  5
230A
330
1D9B
100
AcDbEntity
  8
Defpoints
 62
     0
100
AcDbPoint
 10
6070.526979591017
 20
2269.443838062755
 30
0.0000001479284879
  0
POINT
  5
230B
330
1D9B
100
AcDbEntity
  8
Defpoints
 62
     0
100
AcDbPoint
 10
6070.526979591017
 20
2201.01723344031
 30
0.0
  0
ENDBLK
  5
1DA6
330
1D9B
100
AcDbEntity
  8
0
100
AcDbBlockEnd
  0
BLOCK
  5
1DB1
330
1DA7
100
AcDbEntity
  8
0
100
AcDbBlockBegin
  2
*D11
 70
     1
 10
0.0
 20
0.0
 30
0.0
  3
*D11
  1

  0
LINE
  5
1FE5
330
1DA7
100
AcDbEntity
  8
7
100
AcDbLine
 10
4514.903803350928
 20
2251.017233440316
 30
0.0
 11
4442.004461712782
 21
2251.017233440316
 31
0.0
  0
LINE
  5
1FE6
330
1DA7
100
AcDbEntity
  8
7
100
AcDbLine
 10
4514.903803350928
 20
2950.999133440317
 30
0.0
 11
4442.004461712782
 21
2950.999133440317
 31
0.0
  0
LINE
  5
1FE7
330
1DA7
100
AcDbEntity
  8
7
100
AcDbLine
 10
4452.004461712782
 20
2271.017233440316
 30
0.0
 11
4452.004461712782
 21
2930.999133440317
 31
0.0
  0
SOLID
  5
1FE8
330
1DA7
100
AcDbEntity
  8
7
100
AcDbTrace
 10
4448.671128379449
 20
2271.017233440316
 30
0.0
 11
4455.337795046115
 21
2271.017233440316
 31
0.0
 12
4452.004461712782
 22
2251.017233440316
 32
0.0
 13
4452.004461712782
 23
2251.017233440316
 33
0.0
  0
SOLID
  5
1FE9
330
1DA7
100
AcDbEntity
  8
7
100
AcDbTrace
 10
4448.671128379449
 20
2930.999133440317
 30
0.0
 11
4455.337795046115
 21
2930.999133440317
 31
0.0
 12
4452.004461712782
 22
2950.999133440317
 32
0.0
 13
4452.004461712782
 23
2950.999133440317
 33
0.0
  0
MTEXT
  5
1FEA
330
1DA7
100
AcDbEntity
  8
7
100
AcDbMText
 10
4431.594790792701
 20
2601.008183440317
 30
0.0
 40
20.0
 41
0.0
 71
     5
 72
     1
  1
700
  7
SANINDUSA
 11
0.0000000000000001
 21
1.0
 31
0.0
 73
     1
 44
1.0
1001
ACAD
1000
MTEXTBEGIN
1070
    73
1070
     1
1070
    44
1040
1.0
1070
    74
1070
     0
1000
MTEXTEND
  0
POINT
  5
1FEB
330
1DA7
100
AcDbEntity
  8
Defpoints
 62
     0
100
AcDbPoint
 10
4524.903803350928
 20
2251.017233440316
 30
0.0
  0
POINT
  5
1FEC
330
1DA7
100
AcDbEntity
  8
Defpoints
 62
     0
100
AcDbPoint
 10
4524.903803350928
 20
2950.999133440317
 30
0.0
  0
POINT
  5
1FED
330
1DA7
100
AcDbEntity
  8
Defpoints
 62
     0
100
AcDbPoint
 10
4452.004461712782
 20
2950.999133440317
 30
0.0
  0
ENDBLK
  5
1DB2
330
1DA7
100
AcDbEntity
  8
0
100
AcDbBlockEnd
  0
BLOCK
  5
1FA8
330
1F9D
100
AcDbEntity
  8
0
100
AcDbBlockBegin
  2
*D12
 70
     1
 10
0.0
 20
0.0
 30
0.0
  3
*D12
  1

  0
LINE
  5
1FEE
330
1F9D
100
AcDbEntity
  8
7
100
AcDbLine
 10
4568.862958891761
 20
2269.443834253154
 30
0.0
 11
4563.589396885535
 21
2269.443834253154
 31
0.0
  0
ARC
  5
1FEF
330
1F9D
100
AcDbEntity
  8
7
100
AcDbCircle
 10
5362.96290278859
 20
2269.443834253155
 30
0.0
 40
789.3735059030534
100
AcDbArc
 50
181.4517161195754
 51
268.5482838804246
  0
SOLID
  5
1FF0
330
1F9D
100
AcDbEntity
  8
7
100
AcDbTrace
 10
4570.509696521738
 20
2249.403211588669
 30
0.0
 11
4577.175828216371
 21
2249.487666749841
 31
0.0
 12
4573.589396885537
 22
2269.443834253155
 32
0.0
 13
4573.589396885537
 23
2269.443834253155
 33
0.0
  0
SOLID
  5
1FF1
330
1F9D
100
AcDbEntity
  8
7
100
AcDbTrace
 10
5343.006735285275
 20
1483.656759680937
 30
0.0
 11
5342.922280124103
 21
1476.990627986303
 31
0.0
 12
5362.962902788588
 22
1480.070328350102
 32
0.0
 13
5362.962902788588
 23
1480.070328350102
 33
0.0
  0
MTEXT
  5
1FF2
102
{ACAD_XDICTIONARY
360
247C
102
}
330
1F9D
100
AcDbEntity
  8
7
100
AcDbMText
 10
4820.833227601855
 20
1727.314159066422
 30
0.0
 40
20.0
 41
0.0
 71
     5
 72
     1
  1
90,0\U+00B0
  7
SANINDUSA
 11
0.7071067811865476
 21
-0.7071067811865475
 31
0.0
 73
     1
 44
1.0
1001
ACAD
1000
MTEXTBEGIN
1070
    73
1070
     1
1070
    44
1040
1.0
1070
    74
1070
     0
1000
MTEXTEND
  0
POINT
  5
1FF3
330
1F9D
100
AcDbEntity
  8
Defpoints
 62
     0
100
AcDbPoint
 10
4679.34539360216
 20
1874.757081301629
 30
0.0
  0
POINT
  5
1FF4
330
1F9D
100
AcDbEntity
  8
Defpoints
 62
     0
100
AcDbPoint
 10
4578.86295889176
 20
2269.443834253155
 30
0.0000001553314735
  0
POINT
  5
1FF5
330
1F9D
100
AcDbEntity
  8
Defpoints
 62
     0
100
AcDbPoint
 10
5362.96290278859
 20
2256.543781959579
 30
0.0000001479284879
  0
POINT
  5
1FF6
330
1F9D
100
AcDbEntity
  8
Defpoints
 62
     0
100
AcDbPoint
 10
5362.96290278859
 20
1456.543781959578
 30
0.0000001479284879
  0
POINT
  5
1FF7
330
1F9D
100
AcDbEntity
  8
Defpoints
 62
     0
100
AcDbPoint
 10
5378.862958891762
 20
2269.443834253155
 30
0.0000001553314735
  0
ENDBLK
  5
1FA9
330
1F9D
100
AcDbEntity
  8
0
100
AcDbBlockEnd
  0
BLOCK
  5
2100
330
20F6
100
AcDbEntity
  8
0
100
AcDbBlockBegin
  2
*D13
 70
     1
 10
0.0
 20
0.0
 30
0.0
  3
*D13
  1

  0
LINE
  5
21E6
330
20F6
100
AcDbEntity
  8
7
100
AcDbLine
 10
7060.530669160098
 20
1484.967884428642
 30
0.0
 11
6947.449028331241
 21
1484.967884428642
 31
0.0
  0
LINE
  5
21E7
330
20F6
100
AcDbEntity
  8
7
100
AcDbLine
 10
6975.150527612931
 20
1199.967884428642
 30
0.0
 11
6947.449028331241
 21
1199.967884428642
 31
0.0
  0
LINE
  5
21E8
330
20F6
100
AcDbEntity
  8
7
100
AcDbLine
 10
6957.44902833124
 20
1464.967884428642
 30
0.0
 11
6957.44902833124
 21
1219.967884428642
 31
0.0
  0
SOLID
  5
21E9
330
20F6
100
AcDbEntity
  8
7
100
AcDbTrace
 10
6954.115694997907
 20
1464.967884428642
 30
0.0
 11
6960.782361664573
 21
1464.967884428642
 31
0.0
 12
6957.44902833124
 22
1484.967884428642
 32
0.0
 13
6957.44902833124
 23
1484.967884428642
 33
0.0
  0
SOLID
  5
21EA
330
20F6
100
AcDbEntity
  8
7
100
AcDbTrace
 10
6954.115694997907
 20
1219.967884428642
 30
0.0
 11
6960.782361664573
 21
1219.967884428642
 31
0.0
 12
6957.44902833124
 22
1199.967884428642
 32
0.0
 13
6957.44902833124
 23
1199.967884428642
 33
0.0
  0
MTEXT
  5
21EB
330
20F6
100
AcDbEntity
  8
7
100
AcDbMText
 10
6936.9923459941
 20
1342.467884428643
 30
0.0
 40
20.0
 41
0.0
 71
     5
 72
     1
  1
285
  7
SANINDUSA
 11
0.0000000000000001
 21
1.0
 31
0.0
 73
     1
 44
1.0
1001
ACAD
1000
MTEXTBEGIN
1070
    73
1070
     1
1070
    44
1040
1.0
1070
    74
1070
     0
1000
MTEXTEND
  0
POINT
  5
21EC
330
20F6
100
AcDbEntity
  8
Defpoints
 62
     0
100
AcDbPoint
 10
7070.530669160099
 20
1484.967884428642
 30
-0.0000017937957191
  0
POINT
  5
21ED
330
20F6
100
AcDbEntity
  8
Defpoints
 62
     0
100
AcDbPoint
 10
6985.150527612931
 20
1199.967884428642
 30
-0.0000017937957191
  0
POINT
  5
21EE
330
20F6
100
AcDbEntity
  8
Defpoints
 62
     0
100
AcDbPoint
 10
6957.44902833124
 20
1199.967884428642
 30
0.0
  0
ENDBLK
  5
2101
330
20F6
100
AcDbEntity
  8
0
100
AcDbBlockEnd
  0
BLOCK
  5
210E
330
2102
100
AcDbEntity
  8
0
100
AcDbBlockBegin
  2
*D14
 70
     1
 10
0.0
 20
0.0
 30
0.0
  3
*D14
  1

  0
LINE
  5
21EF
330
2102
100
AcDbEntity
  8
7
100
AcDbLine
 10
6665.734559865653
 20
1199.967884428646
 30
0.0
 11
6817.449028331239
 21
1199.967884428646
 31
0.0
  0
LINE
  5
21F0
330
2102
100
AcDbEntity
  8
7
100
AcDbLine
 10
6637.946214936906
 20
1189.967884428646
 30
0.0
 11
6817.449028331239
 21
1189.967884428646
 31
0.0
  0
LINE
  5
21F1
330
2102
100
AcDbEntity
  8
7
100
AcDbLine
 10
6807.44902833124
 20
1219.967884428646
 30
0.0
 11
6807.44902833124
 21
1239.967884428646
 31
0.0
  0
LINE
  5
21F2
330
2102
100
AcDbEntity
  8
7
100
AcDbLine
 10
6807.44902833124
 20
1169.967884428646
 30
0.0
 11
6807.44902833124
 21
1100.53873735007
 31
0.0
  0
LINE
  5
21F3
330
2102
100
AcDbEntity
  8
7
100
AcDbLine
 10
6807.44902833124
 20
1199.967884428646
 30
0.0
 11
6807.44902833124
 21
1189.967884428646
 31
0.0
  0
SOLID
  5
21F4
330
2102
100
AcDbEntity
  8
7
100
AcDbTrace
 10
6804.115694997907
 20
1219.967884428646
 30
0.0
 11
6810.782361664573
 21
1219.967884428646
 31
0.0
 12
6807.44902833124
 22
1199.967884428646
 32
0.0
 13
6807.44902833124
 23
1199.967884428646
 33
0.0
  0
SOLID
  5
21F5
330
2102
100
AcDbEntity
  8
7
100
AcDbTrace
 10
6804.115694997907
 20
1169.967884428646
 30
0.0
 11
6810.782361664573
 21
1169.967884428646
 31
0.0
 12
6807.44902833124
 22
1189.967884428646
 32
0.0
 13
6807.44902833124
 23
1189.967884428646
 33
0.0
  0
MTEXT
  5
21F6
330
2102
100
AcDbEntity
  8
7
100
AcDbMText
 10
6787.03935741116
 20
1125.253310889359
 30
0.0
 40
20.0
 41
0.0
 71
     5
 72
     1
  1
10
  7
SANINDUSA
 11
0.0000000000000001
 21
1.0
 31
0.0
 73
     1
 44
1.0
1001
ACAD
1000
MTEXTBEGIN
1070
    73
1070
     1
1070
    44
1040
1.0
1070
    74
1070
     0
1000
MTEXTEND
  0
POINT
  5
21F7
330
2102
100
AcDbEntity
  8
Defpoints
 62
     0
100
AcDbPoint
 10
6655.734559865653
 20
1199.967884428646
 30
-0.0000017937957191
  0
POINT
  5
21F8
330
2102
100
AcDbEntity
  8
Defpoints
 62
     0
100
AcDbPoint
 10
6627.946214936905
 20
1189.967884428646
 30
0.0
  0
POINT
  5
21F9
330
2102
100
AcDbEntity
  8
Defpoints
 62
     0
100
AcDbPoint
 10
6807.44902833124
 20
1189.967884428646
 30
0.0
  0
ENDBLK
  5
210F
330
2102
100
AcDbEntity
  8
0
100
AcDbBlockEnd
  0
BLOCK
  5
211A
330
2110
100
AcDbEntity
  8
0
100
AcDbBlockBegin
  2
*D15
 70
     1
 10
0.0
 20
0.0
 30
0.0
  3
*D15
  1

  0
LINE
  5
21FA
330
2110
100
AcDbEntity
  8
7
100
AcDbLine
 10
7315.281607987627
 20
1484.967884428634
 30
0.0
 11
7972.850483402545
 21
1484.967884428634
 31
0.0
  0
LINE
  5
21FB
330
2110
100
AcDbEntity
  8
7
100
AcDbLine
 10
7922.850483402545
 20
1189.967884428642
 30
0.0
 11
7972.850483402545
 21
1189.967884428642
 31
0.0
  0
LINE
  5
21FC
330
2110
100
AcDbEntity
  8
7
100
AcDbLine
 10
7962.850483402545
 20
1464.967884428634
 30
0.0
 11
7962.850483402545
 21
1209.967884428642
 31
0.0
  0
SOLID
  5
21FD
330
2110
100
AcDbEntity
  8
7
100
AcDbTrace
 10
7959.517150069212
 20
1464.967884428634
 30
0.0
 11
7966.183816735878
 21
1464.967884428634
 31
0.0
 12
7962.850483402545
 22
1484.967884428634
 32
0.0
 13
7962.850483402545
 23
1484.967884428634
 33
0.0
  0
SOLID
  5
21FE
330
2110
100
AcDbEntity
  8
7
100
AcDbTrace
 10
7959.517150069212
 20
1209.967884428642
 30
0.0
 11
7966.183816735878
 21
1209.967884428642
 31
0.0
 12
7962.850483402545
 22
1189.967884428642
 32
0.0
 13
7962.850483402545
 23
1189.967884428642
 33
0.0
  0
MTEXT
  5
21FF
330
2110
100
AcDbEntity
  8
7
100
AcDbMText
 10
7942.434096565742
 20
1337.467884428639
 30
0.0
 40
20.0
 41
0.0
 71
     5
 72
     1
  1
295
  7
SANINDUSA
 11
0.0000000000000001
 21
1.0
 31
0.0
 73
     1
 44
1.0
1001
ACAD
1000
MTEXTBEGIN
1070
    73
1070
     1
1070
    44
1040
1.0
1070
    74
1070
     0
1000
MTEXTEND
  0
POINT
  5
2200
330
2110
100
AcDbEntity
  8
Defpoints
 62
     0
100
AcDbPoint
 10
7305.281607987628
 20
1484.967884428634
 30
-0.0000017937957191
  0
POINT
  5
2201
330
2110
100
AcDbEntity
  8
Defpoints
 62
     0
100
AcDbPoint
 10
7912.850483402545
 20
1189.967884428642
 30
0.0
  0
POINT
  5
2202
330
2110
100
AcDbEntity
  8
Defpoints
 62
     0
100
AcDbPoint
 10
7962.850483402545
 20
1189.967884428642
 30
0.0
  0
ENDBLK
  5
211B
330
2110
100
AcDbEntity
  8
0
100
AcDbBlockEnd
  0
BLOCK
  5
2126
330
211C
100
AcDbEntity
  8
0
100
AcDbBlockBegin
  2
*D16
 70
     1
 10
0.0
 20
0.0
 30
0.0
  3
*D16
  1

  0
LINE
  5
2203
330
211C
100
AcDbEntity
  8
7
100
AcDbLine
 10
7922.850483402545
 20
3039.967884428642
 30
0.0
 11
7972.850483402545
 21
3039.967884428642
 31
0.0
  0
LINE
  5
2204
330
211C
100
AcDbEntity
  8
7
100
AcDbLine
 10
7344.45517046743
 20
2744.967884418972
 30
0.0
 11
7972.850483402545
 21
2744.967884418972
 31
0.0
  0
LINE
  5
2205
330
211C
100
AcDbEntity
  8
7
100
AcDbLine
 10
7962.850483402545
 20
3019.967884428642
 30
0.0
 11
7962.850483402545
 21
2764.967884418972
 31
0.0
  0
SOLID
  5
2206
330
211C
100
AcDbEntity
  8
7
100
AcDbTrace
 10
7959.517150069212
 20
3019.967884428642
 30
0.0
 11
7966.183816735878
 21
3019.967884428642
 31
0.0
 12
7962.850483402545
 22
3039.967884428642
 32
0.0
 13
7962.850483402545
 23
3039.967884428642
 33
0.0
  0
SOLID
  5
2207
330
211C
100
AcDbEntity
  8
7
100
AcDbTrace
 10
7959.517150069212
 20
2764.967884418972
 30
0.0
 11
7966.183816735878
 21
2764.967884418972
 31
0.0
 12
7962.850483402545
 22
2744.967884418972
 32
0.0
 13
7962.850483402545
 23
2744.967884418972
 33
0.0
  0
MTEXT
  5
2208
330
211C
100
AcDbEntity
  8
7
100
AcDbMText
 10
7942.43409656574
 20
2892.467884423809
 30
0.0
 40
20.0
 41
0.0
 71
     5
 72
     1
  1
295
  7
SANINDUSA
 11
0.0000000000000001
 21
1.0
 31
0.0
 73
     1
 44
1.0
1001
ACAD
1000
MTEXTBEGIN
1070
    73
1070
     1
1070
    44
1040
1.0
1070
    74
1070
     0
1000
MTEXTEND
  0
POINT
  5
2209
330
211C
100
AcDbEntity
  8
Defpoints
 62
     0
100
AcDbPoint
 10
7912.850483402545
 20
3039.967884428642
 30
0.0000017938277934
  0
POINT
  5
220A
330
211C
100
AcDbEntity
  8
Defpoints
 62
     0
100
AcDbPoint
 10
7334.45517046743
 20
2744.967884418972
 30
0.0000000000320743
  0
POINT
  5
220B
330
211C
100
AcDbEntity
  8
Defpoints
 62
     0
100
AcDbPoint
 10
7962.850483402545
 20
2744.967884418972
 30
0.0
  0
ENDBLK
  5
2127
330
211C
100
AcDbEntity
  8
0
100
AcDbBlockEnd
  0
BLOCK
  5
2132
330
2128
100
AcDbEntity
  8
0
100
AcDbBlockBegin
  2
*D17
 70
     1
 10
0.0
 20
0.0
 30
0.0
  3
*D17
  1

  0
LINE
  5
220C
330
2128
100
AcDbEntity
  8
7
100
AcDbLine
 10
6312.855283402546
 20
3039.967884428599
 30
0.0
 11
6252.526830662748
 21
3039.967884428599
 31
0.0
  0
LINE
  5
220D
330
2128
100
AcDbEntity
  8
7
100
AcDbLine
 10
6306.385427136141
 20
1189.967884428646
 30
0.0
 11
6252.526830662747
 21
1189.967884428646
 31
0.0
  0
LINE
  5
220E
330
2128
100
AcDbEntity
  8
7
100
AcDbLine
 10
6262.526830662747
 20
3019.967884428599
 30
0.0
 11
6262.526830662746
 21
1209.967884428646
 31
0.0
  0
SOLID
  5
220F
330
2128
100
AcDbEntity
  8
7
100
AcDbTrace
 10
6259.193497329415
 20
3019.967884428599
 30
0.0
 11
6265.86016399608
 21
3019.967884428599
 31
0.0
 12
6262.526830662747
 22
3039.967884428599
 32
0.0
 13
6262.526830662747
 23
3039.967884428599
 33
0.0
  0
SOLID
  5
2210
330
2128
100
AcDbEntity
  8
7
100
AcDbTrace
 10
6259.193497329413
 20
1209.967884428646
 30
0.0
 11
6265.86016399608
 21
1209.967884428646
 31
0.0
 12
6262.526830662746
 22
1189.967884428646
 32
0.0
 13
6262.526830662746
 23
1189.967884428646
 33
0.0
  0
MTEXT
  5
2211
330
2128
100
AcDbEntity
  8
7
100
AcDbMText
 10
6242.070148325608
 20
2114.967884428624
 30
0.0
 40
20.0
 41
0.0
 71
     5
 72
     1
  1
1850
  7
SANINDUSA
 11
0.0000000000000001
 21
1.0
 31
0.0
 73
     1
 44
1.0
1001
ACAD
1000
MTEXTBEGIN
1070
    73
1070
     1
1070
    44
1040
1.0
1070
    74
1070
     0
1000
MTEXTEND
  0
POINT
  5
2212
330
2128
100
AcDbEntity
  8
Defpoints
 62
     0
100
AcDbPoint
 10
6322.855283402546
 20
3039.967884428599
 30
0.0
  0
POINT
  5
2213
330
2128
100
AcDbEntity
  8
Defpoints
 62
     0
100
AcDbPoint
 10
6316.385427136141
 20
1189.967884428646
 30
0.0
  0
POINT
  5
2214
330
2128
100
AcDbEntity
  8
Defpoints
 62
     0
100
AcDbPoint
 10
6262.526830662746
 20
1189.967884428646
 30
0.0
  0
ENDBLK
  5
2133
330
2128
100
AcDbEntity
  8
0
100
AcDbBlockEnd
  0
BLOCK
  5
22F3
330
22E9
100
AcDbEntity
  8
0
100
AcDbBlockBegin
  2
*D18
 70
     1
 10
0.0
 20
0.0
 30
0.0
  3
*D18
  1

  0
LINE
  5
2330
330
22E9
100
AcDbEntity
  8
7
100
AcDbLine
 10
4514.903803350928
 20
2247.217335208606
 30
0.0
 11
4514.903803350928
 21
2141.017233440305
 31
0.0
  0
LINE
  5
2331
330
22E9
100
AcDbEntity
  8
7
100
AcDbLine
 10
6114.899003350927
 20
2247.217342827795
 30
0.0
 11
6114.899003350927
 21
2141.017233440305
 31
0.0
  0
LINE
  5
2332
330
22E9
100
AcDbEntity
  8
7
100
AcDbLine
 10
4534.903803350927
 20
2151.017233440304
 30
0.0
 11
6094.899003350928
 21
2151.017233440304
 31
0.0
  0
SOLID
  5
2333
330
22E9
100
AcDbEntity
  8
7
100
AcDbTrace
 10
4534.903803350927
 20
2154.350566773638
 30
0.0
 11
4534.903803350927
 21
2147.68390010697
 31
0.0
 12
4514.903803350928
 22
2151.017233440304
 32
0.0
 13
4514.903803350928
 23
2151.017233440304
 33
0.0
  0
SOLID
  5
2334
330
22E9
100
AcDbEntity
  8
7
100
AcDbTrace
 10
6094.899003350928
 20
2154.350566773638
 30
0.0
 11
6094.899003350928
 21
2147.68390010697
 31
0.0
 12
6114.899003350927
 22
2151.017233440304
 32
0.0
 13
6114.899003350927
 23
2151.017233440304
 33
0.0
  0
MTEXT
  5
2335
330
22E9
100
AcDbEntity
  8
7
100
AcDbMText
 10
5250.564902977385
 20
2171.473915777443
 30
0.0
 40
20.0
 41
0.0
 71
     5
 72
     1
  1
1580 - 1610
  7
SANINDUSA
 73
     1
 44
1.0
1001
ACAD
1000
MTEXTBEGIN
1070
    73
1070
     1
1070
    44
1040
1.0
1070
    74
1070
     0
1000
MTEXTEND
  0
POINT
  5
2336
330
22E9
100
AcDbEntity
  8
Defpoints
 62
     0
100
AcDbPoint
 10
4514.903803350928
 20
2257.217335208606
 30
0.0
  0
POINT
  5
2337
330
22E9
100
AcDbEntity
  8
Defpoints
 62
     0
100
AcDbPoint
 10
6114.899003350927
 20
2257.217342827795
 30
0.0
  0
POINT
  5
2338
330
22E9
100
AcDbEntity
  8
Defpoints
 62
     0
100
AcDbPoint
 10
6114.899003350927
 20
2151.017233440304
 30
0.0
  0
ENDBLK
  5
22F4
330
22E9
100
AcDbEntity
  8
0
100
AcDbBlockEnd
  0
BLOCK
  5
2344
330
233A
100
AcDbEntity
  8
0
100
AcDbBlockBegin
  2
*D19
 70
     1
 10
0.0
 20
0.0
 30
0.0
  3
*D19
  1

  0
LINE
  5
235B
330
233A
100
AcDbEntity
  8
7
100
AcDbLine
 10
6312.526830662747
 20
3049.967884428599
 30
0.0
 11
6312.526830662747
 21
3099.96788442864
 31
0.0
  0
LINE
  5
235C
330
233A
100
AcDbEntity
  8
7
100
AcDbLine
 10
7912.850483402545
 20
3049.967884428656
 30
0.0
 11
7912.850483402545
 21
3099.96788442864
 31
0.0
  0
LINE
  5
235D
330
233A
100
AcDbEntity
  8
7
100
AcDbLine
 10
6332.526830662747
 20
3089.96788442864
 30
0.0
 11
7892.850483402546
 21
3089.96788442864
 31
0.0
  0
SOLID
  5
235E
330
233A
100
AcDbEntity
  8
7
100
AcDbTrace
 10
6332.526830662747
 20
3093.301217761974
 30
0.0
 11
6332.526830662747
 21
3086.634551095307
 31
0.0
 12
6312.526830662747
 22
3089.96788442864
 32
0.0
 13
6312.526830662747
 23
3089.96788442864
 33
0.0
  0
SOLID
  5
235F
330
233A
100
AcDbEntity
  8
7
100
AcDbTrace
 10
7892.850483402546
 20
3093.301217761974
 30
0.0
 11
7892.850483402546
 21
3086.634551095307
 31
0.0
 12
7912.850483402545
 22
3089.96788442864
 32
0.0
 13
7912.850483402545
 23
3089.96788442864
 33
0.0
  0
MTEXT
  5
2360
330
233A
100
AcDbEntity
  8
7
100
AcDbMText
 10
7112.688657032646
 20
3110.424566765779
 30
0.0
 40
20.0
 41
0.0
 71
     5
 72
     1
  1
1580 - 1610
  7
SANINDUSA
 73
     1
 44
1.0
1001
ACAD
1000
MTEXTBEGIN
1070
    73
1070
     1
1070
    44
1040
1.0
1070
    74
1070
     0
1000
MTEXTEND
  0
POINT
  5
2361
330
233A
100
AcDbEntity
  8
Defpoints
 62
     0
100
AcDbPoint
 10
6312.526830662747
 20
3039.967884428599
 30
0.0
  0
POINT
  5
2362
330
233A
100
AcDbEntity
  8
Defpoints
 62
     0
100
AcDbPoint
 10
7912.850483402545
 20
3039.967884428655
 30
0.0
  0
POINT
  5
2363
330
233A
100
AcDbEntity
  8
Defpoints
 62
     0
100
AcDbPoint
 10
7912.850483402545
 20
3089.96788442864
 30
0.0
  0
ENDBLK
  5
2345
330
233A
100
AcDbEntity
  8
0
100
AcDbBlockEnd
  0
BLOCK
  5
237D
330
2373
100
AcDbEntity
  8
0
100
AcDbBlockBegin
  2
*D20
 70
     1
 10
0.0
 20
0.0
 30
0.0
  3
*D20
  1

  0
LINE
  5
238A
330
2373
100
AcDbEntity
  8
7
100
AcDbLine
 10
5590.875827110831
 20
2259.343834253159
 30
0.0
 11
5676.787551933235
 21
2259.343834253159
 31
0.0
  0
LINE
  5
238B
330
2373
100
AcDbEntity
  8
7
100
AcDbLine
 10
5583.375827110833
 20
2950.999133440316
 30
0.0
 11
5676.787551933235
 21
2950.999133440316
 31
0.0
  0
LINE
  5
238C
330
2373
100
AcDbEntity
  8
7
100
AcDbLine
 10
5666.787551933235
 20
2279.343834253159
 30
0.0
 11
5666.787551933235
 21
2930.999133440316
 31
0.0
  0
SOLID
  5
238D
330
2373
100
AcDbEntity
  8
7
100
AcDbTrace
 10
5663.454218599902
 20
2279.343834253159
 30
0.0
 11
5670.120885266568
 21
2279.343834253159
 31
0.0
 12
5666.787551933235
 22
2259.343834253159
 32
0.0
 13
5666.787551933235
 23
2259.343834253159
 33
0.0
  0
SOLID
  5
238E
330
2373
100
AcDbEntity
  8
7
100
AcDbTrace
 10
5663.454218599902
 20
2930.999133440316
 30
0.0
 11
5670.120885266568
 21
2930.999133440316
 31
0.0
 12
5666.787551933235
 22
2950.999133440316
 32
0.0
 13
5666.787551933235
 23
2950.999133440316
 33
0.0
  0
MTEXT
  5
238F
330
2373
100
AcDbEntity
  8
7
100
AcDbMText
 10
5646.37116509643
 20
2605.171483846739
 30
0.0
 40
20.0
 41
0.0
 71
     5
 72
     1
  1
420 - 720
  7
SANINDUSA
 11
0.0000000000000001
 21
1.0
 31
0.0
 73
     1
 44
1.0
1001
ACAD
1000
MTEXTBEGIN
1070
    73
1070
     1
1070
    44
1040
1.0
1070
    74
1070
     0
1000
MTEXTEND
  0
POINT
  5
2390
330
2373
100
AcDbEntity
  8
Defpoints
 62
     0
100
AcDbPoint
 10
5580.875827110831
 20
2259.343834253159
 30
0.0000001479286265
  0
POINT
  5
2391
330
2373
100
AcDbEntity
  8
Defpoints
 62
     0
100
AcDbPoint
 10
5573.375827110833
 20
2950.999133440316
 30
0.0
  0
POINT
  5
2392
330
2373
100
AcDbEntity
  8
Defpoints
 62
     0
100
AcDbPoint
 10
5666.787551933235
 20
2950.999133440316
 30
0.0
  0
ENDBLK
  5
237E
330
2373
100
AcDbEntity
  8
0
100
AcDbBlockEnd
  0
BLOCK
  5
23F4
330
23F3
100
AcDbEntity
  8
0
100
AcDbBlockBegin
  2
*D22
 70
     1
 10
0.0
 20
0.0
 30
0.0
  3
*D22
  1

  0
LINE
  5
2400
330
23F3
100
AcDbEntity
  8
7
100
AcDbLine
 10
7922.850483402545
 20
3039.967884428655
 30
0.0
 11
8402.331761260118
 21
3039.967884428655
 31
0.0
  0
LINE
  5
2401
330
23F3
100
AcDbEntity
  8
7
100
AcDbLine
 10
7922.850483402545
 20
1189.967884428634
 30
0.0
 11
8402.331761260118
 21
1189.967884428634
 31
0.0
  0
LINE
  5
2402
330
23F3
100
AcDbEntity
  8
7
100
AcDbLine
 10
8392.331761260116
 20
3019.967884428656
 30
0.0
 11
8392.331761260116
 21
1209.967884428635
 31
0.0
  0
SOLID
  5
2403
330
23F3
100
AcDbEntity
  8
7
100
AcDbTrace
 10
8388.998427926784
 20
3019.967884428656
 30
0.0
 11
8395.665094593452
 21
3019.967884428656
 31
0.0
 12
8392.331761260116
 22
3039.967884428655
 32
0.0
 13
8392.331761260116
 23
3039.967884428655
 33
0.0
  0
SOLID
  5
2404
330
23F3
100
AcDbEntity
  8
7
100
AcDbTrace
 10
8388.998427926784
 20
1209.967884428635
 30
0.0
 11
8395.665094593452
 21
1209.967884428635
 31
0.0
 12
8392.331761260116
 22
1189.967884428634
 32
0.0
 13
8392.331761260116
 23
1189.967884428634
 33
0.0
  0
MTEXT
  5
2405
330
23F3
100
AcDbEntity
  8
7
100
AcDbMText
 10
8371.875078922979
 20
2114.967884428646
 30
0.0
 40
20.0
 41
0.0
 71
     5
 72
     1
  1
1850
  7
SANINDUSA
 11
0.0000000000000001
 21
1.0
 31
0.0
 73
     1
 44
1.0
1001
ACAD
1000
MTEXTBEGIN
1070
    73
1070
     1
1070
    44
1040
1.0
1070
    74
1070
     0
1000
MTEXTEND
  0
POINT
  5
2406
330
23F3
100
AcDbEntity
  8
Defpoints
 62
     0
100
AcDbPoint
 10
7912.850483402545
 20
3039.967884428655
 30
0.0
  0
POINT
  5
2407
330
23F3
100
AcDbEntity
  8
Defpoints
 62
     0
100
AcDbPoint
 10
7912.850483402545
 20
1189.967884428634
 30
0.0
  0
POINT
  5
2408
330
23F3
100
AcDbEntity
  8
Defpoints
 62
     0
100
AcDbPoint
 10
8392.331761260116
 20
1189.967884428634
 30
0.0
  0
ENDBLK
  5
23F5
330
23F3
100
AcDbEntity
  8
0
100
AcDbBlockEnd
  0
ENDSEC
  0
SECTION
  2
ENTITIES
  0
LINE
  5
1B4D
330
1F
100
AcDbEntity
  8
SANINDUSA
100
AcDbLine
 10
6159.656258876015
 20
2335.886121133202
 30
0.0000000001479286
 11
6159.641258830419
 21
2335.886121133202
 31
0.0000000001479286
  0
LINE
  5
1B4E
330
1F
100
AcDbEntity
  8
SANINDUSA
100
AcDbLine
 10
6159.708258876015
 20
2335.878121133202
 30
0.0000000001479286
 11
6159.649258876015
 21
2335.878121133202
 31
0.0000000001479286
  0
LINE
  5
1B4F
330
1F
100
AcDbEntity
  8
SANINDUSA
100
AcDbLine
 10
6159.632369987126
 20
2335.878121133202
 30
0.0000000001479286
 11
6159.632369987126
 21
2335.886121185496
 31
0.0000000001479286
  0
CIRCLE
  5
1B50
330
1F
100
AcDbEntity
  8
SANINDUSA
100
AcDbCircle
 10
6159.641258876016
 20
2335.878121133202
 30
0.0000000001479286
 40
0.008
  0
LINE
  5
1B51
330
1F
100
AcDbEntity
  8
SANINDUSA
100
AcDbLine
 10
6159.650147764905
 20
2335.878121133202
 30
0.0000000001479286
 11
6159.650147764905
 21
2335.886121133202
 31
0.0000000001479286
  0
LINE
  5
1B52
330
1F
100
AcDbEntity
  8
SANINDUSA
100
AcDbLine
 10
6159.573258876015
 20
2335.888121185496
 30
0.0000000001479286
 11
6159.573258876015
 21
2335.879121133202
 31
0.0000000001479286
  0
LINE
  5
1B53
330
1F
100
AcDbEntity
  8
SANINDUSA
100
AcDbLine
 10
6159.632369987126
 20
2335.878121133202
 30
0.0000000001479286
 11
6159.574258876016
 21
2335.878121133202
 31
0.0000000001479286
  0
ARC
  5
1B54
330
1F
100
AcDbEntity
  8
SANINDUSA
100
AcDbCircle
 10
6159.574258876016
 20
2335.879121133202
 30
0.0000000001479286
 40
0.001
100
AcDbArc
 50
180.0
 51
270.0
  0
LINE
  5
1B55
330
1F
100
AcDbEntity
  8
SANINDUSA
100
AcDbLine
 10
6159.573258876015
 20
2335.888121185496
 30
0.0000000001479286
 11
6159.626258876016
 21
2335.888121185496
 31
0.0000000001479286
  0
LWPOLYLINE
  5
1B56
330
1F
100
AcDbEntity
  8
SANINDUSA
100
AcDbPolyline
 90
        2
 70
     0
 43
0.0
 38
0.0000000001479285
 10
6159.626258876016
 20
2335.889321185496
 10
6159.573258876015
 20
2335.889321185496
1001
GENIUS_GENREC_14
1002
{
1000
PYDIR
1011
6159.872541133095
1021
2334.855091329484
1031
0.0000000001479286
1002
}
1002
{
1000
PXDIR
1011
6159.925541133095
1021
2334.856091329484
1031
0.0000000001479286
1002
}
1002
{
1000
PORI
1011
6159.872541133095
1021
2334.856091329484
1031
0.0000000001479286
1002
}
1002
{
1000
PINS
1011
6159.872541133095
1021
2334.856091329484
1031
0.0000000001479286
1002
}
1002
{
1000
PINS2
1011
6159.925541133095
1021
2334.855091329484
1031
0.0000000001479286
1002
}
1002
{
1000
C
1070
     1
1002
}
1001
GENIUS_GENODEF_13
1002
{
1000
HIER
1070
     0
1002
}
1002
{
1000
MANEDIT
1070
     0
1002
}
1002
{
1000
NOSEL
1070
     0
1002
}
1002
{
1000
BEHIND
1070
     0
1002
}
1002
{
1000
REACTOR
1002
}
1001
GENIUS_GENOBJ-N-REC_13
1002
{
1000
OWNER
1000
GEN
1002
}
  0
LWPOLYLINE
  5
1B57
330
1F
100
AcDbEntity
  8
SANINDUSA
100
AcDbPolyline
 90
        2
 70
     0
 43
0.0
 38
0.0000000001479285
 10
6159.573258876015
 20
2335.888321185496
 10
6159.626258876016
 20
2335.888321185496
1001
GENIUS_GENREC_14
1002
{
1000
PYDIR
1011
6159.872541133095
1021
2334.855091329484
1031
0.0000000001479286
1002
}
1002
{
1000
PXDIR
1011
6159.925541133095
1021
2334.856091329484
1031
0.0000000001479286
1002
}
1002
{
1000
PORI
1011
6159.872541133095
1021
2334.856091329484
1031
0.0000000001479286
1002
}
1002
{
1000
PINS
1011
6159.872541133095
1021
2334.856091329484
1031
0.0000000001479286
1002
}
1002
{
1000
PINS2
1011
6159.925541133095
1021
2334.855091329484
1031
0.0000000001479286
1002
}
1002
{
1000
C
1070
     1
1002
}
1001
GENIUS_GENODEF_13
1002
{
1000
HIER
1070
     0
1002
}
1002
{
1000
MANEDIT
1070
     0
1002
}
1002
{
1000
NOSEL
1070
     0
1002
}
1002
{
1000
BEHIND
1070
     0
1002
}
1002
{
1000
REACTOR
1002
}
1001
GENIUS_GENOBJ-N-REC_13
1002
{
1000
OWNER
1000
GEN
1002
}
  0
LINE
  5
1B58
330
1F
100
AcDbEntity
  8
SANINDUSA
100
AcDbLine
 10
6159.574258876016
 20
2335.901921185496
 30
0.0000000001479286
 11
6159.625258876015
 21
2335.901921185496
 31
0.0000000001479286
  0
LINE
  5
1B59
330
1F
100
AcDbEntity
  8
SANINDUSA
100
AcDbLine
 10
6159.626258876016
 20
2335.896921185496
 30
0.0000000001479286
 11
6159.573258876015
 21
2335.896921185496
 31
0.0000000001479286
  0
LWPOLYLINE
  5
1B5A
330
1F
100
AcDbEntity
  8
SANINDUSA
100
AcDbPolyline
 90
        4
 70
     1
 43
0.0
 38
0.0000000001479285
 10
6159.573258876015
 20
2335.896721185496
 10
6159.626258876016
 20
2335.896721185496
 10
6159.626258876016
 20
2335.895721185496
 10
6159.573258876015
 20
2335.895721185496
1001
GENIUS_GENREC_14
1002
{
1000
PYDIR
1011
6159.872541133095
1021
2334.854891329483
1031
0.0000000001479286
1002
}
1002
{
1000
PXDIR
1011
6159.925541133095
1021
2334.855891329484
1031
0.0000000001479286
1002
}
1002
{
1000
PORI
1011
6159.872541133095
1021
2334.855891329484
1031
0.0000000001479286
1002
}
1002
{
1000
PINS
1011
6159.872541133095
1021
2334.855891329484
1031
0.0000000001479286
1002
}
1002
{
1000
PINS2
1011
6159.925541133095
1021
2334.854891329483
1031
0.0000000001479286
1002
}
1002
{
1000
C
1070
     1
1002
}
1001
GENIUS_GENODEF_13
1002
{
1000
HIER
1070
     0
1002
}
1002
{
1000
MANEDIT
1070
     0
1002
}
1002
{
1000
NOSEL
1070
     0
1002
}
1002
{
1000
BEHIND
1070
     0
1002
}
1002
{
1000
REACTOR
1002
}
1001
GENIUS_GENOBJ-N-REC_13
1002
{
1000
OWNER
1000
GEN
1002
}
  0
LINE
  5
1B5B
330
1F
100
AcDbEntity
  8
SANINDUSA
100
AcDbLine
 10
6159.573258876015
 20
2335.889321185496
 30
0.0000000001479286
 11
6159.573258876015
 21
2335.888321185496
 31
0.0000000001479286
1001
GENIUS_GENREC_14
1002
{
1000
PYDIR
1011
6159.573258876015
1021
2335.889321185496
1031
0.0000000001479286
1002
}
1002
{
1000
PXDIR
1011
6159.626258876016
1021
2335.888321185496
1031
0.0000000001479286
1002
}
1002
{
1000
PORI
1011
6159.573258876015
1021
2335.888321185496
1031
0.0000000001479286
1002
}
1002
{
1000
PINS
1011
6159.573258876015
1021
2335.888321185496
1031
0.0000000001479286
1002
}
1002
{
1000
PINS2
1011
6159.626258876016
1021
2335.889321185496
1031
0.0000000001479286
1002
}
1002
{
1000
C
1070
     1
1002
}
1001
GENIUS_GENODEF_13
1002
{
1000
HIER
1070
     0
1002
}
1002
{
1000
MANEDIT
1070
     0
1002
}
1002
{
1000
NOSEL
1070
     0
1002
}
1002
{
1000
BEHIND
1070
     0
1002
}
1002
{
1000
REACTOR
1002
}
1001
GENIUS_GENOBJ-N-REC_13
1002
{
1000
OWNER
1000
GEN
1002
}
  0
ARC
  5
1B5C
330
1F
100
AcDbEntity
  8
SANINDUSA
100
AcDbCircle
 10
6159.574258876016
 20
2335.900921185496
 30
0.0000000001479286
 40
0.001
100
AcDbArc
 50
90.0
 51
180.0
  0
LINE
  5
1B5D
330
1F
100
AcDbEntity
  8
SANINDUSA
100
AcDbLine
 10
6159.573258876015
 20
2335.896921185496
 30
0.0000000001479286
 11
6159.573258876015
 21
2335.900921185496
 31
0.0000000001479286
  0
LINE
  5
1B5E
330
1F
100
AcDbEntity
  8
SANINDUSA
100
AcDbLine
 10
6159.632909333019
 20
2335.895524970696
 30
0.0000000001479285
 11
6159.630833004664
 21
2335.895816779617
 31
0.0000000001479285
  0
LINE
  5
1B5F
330
1F
100
AcDbEntity
  8
SANINDUSA
100
AcDbLine
 10
6159.62790673667
 20
2335.895636823637
 30
0.0000000001479285
 11
6159.62790673667
 21
2335.894930068003
 31
0.0000000001479285
  0
ARC
  5
1B60
330
1F
100
AcDbEntity
  8
SANINDUSA
100
AcDbCircle
 10
6159.630801513585
 20
2335.895972679535
 30
0.0000000001479285
 40
0.0004999999999883
100
AcDbArc
 50
208.1263739549705
 51
261.9999999871818
  0
ARC
  5
1B61
330
1F
100
AcDbEntity
  8
SANINDUSA
100
AcDbCircle
 10
6159.630506736669
 20
2335.895155049658
 30
0.0000000001479285
 40
0.0006000000000005
100
AcDbArc
 50
104.1008917867584
 51
147.5305191993646
  0
ARC
  5
1B62
330
1F
100
AcDbEntity
  8
SANINDUSA
100
AcDbCircle
 10
6159.637367349536
 20
2335.895770919166
 30
0.0000000001479285
 40
0.00075
100
AcDbArc
 50
189.3408340964712
 51
9.340834096471271
  0
LINE
  5
1B63
330
1F
100
AcDbEntity
  8
SANINDUSA
100
AcDbLine
 10
6159.640906736669
 20
2335.898121189305
 30
0.0000000001479285
 11
6159.640906736669
 21
2335.886921189306
 31
0.0000000001479285
  0
LINE
  5
1B64
330
1F
100
AcDbEntity
  8
SANINDUSA
100
AcDbLine
 10
6159.639758876015
 20
2335.896217619756
 30
0.0000000001479285
 11
6159.639758876015
 21
2335.888824758855
 31
0.0000000001479285
  0
ARC
  5
1B65
330
1F
100
AcDbEntity
  8
SANINDUSA
100
AcDbCircle
 10
6159.641744428977
 20
2335.892521189306
 30
0.0000000001479285
 40
0.0056623076923077
100
AcDbArc
 50
261.4923271063257
 51
98.5076728936743
  0
ARC
  5
1B66
330
1F
100
AcDbEntity
  8
SANINDUSA
100
AcDbCircle
 10
6159.641744428977
 20
2335.892521189306
 30
0.0000000001479285
 40
0.0052623076923077
100
AcDbArc
 50
260.8402753414898
 51
99.15972465851021
  0
LINE
  5
1B67
330
1F
100
AcDbEntity
  8
SANINDUSA
100
AcDbLine
 10
6159.626258876016
 20
2335.886121185496
 30
0.0000000001479286
 11
6159.641258876016
 21
2335.886121133202
 31
0.0000000001479286
  0
LINE
  5
1B68
330
1F
100
AcDbEntity
  8
SANINDUSA
100
AcDbLine
 10
6159.626258876016
 20
2335.888321185496
 30
0.0000000001479286
 11
6159.626258876016
 21
2335.889321185496
 31
0.0000000001479286
1001
GENIUS_GENREC_14
1002
{
1000
PYDIR
1011
6159.573258876015
1021
2335.889321185496
1031
0.0000000001479286
1002
}
1002
{
1000
PXDIR
1011
6159.626258876016
1021
2335.888321185496
1031
0.0000000001479286
1002
}
1002
{
1000
PORI
1011
6159.573258876015
1021
2335.888321185496
1031
0.0000000001479286
1002
}
1002
{
1000
PINS
1011
6159.573258876015
1021
2335.888321185496
1031
0.0000000001479286
1002
}
1002
{
1000
PINS2
1011
6159.626258876016
1021
2335.889321185496
1031
0.0000000001479286
1002
}
1002
{
1000
C
1070
     1
1002
}
1001
GENIUS_GENODEF_13
1002
{
1000
HIER
1070
     0
1002
}
1002
{
1000
MANEDIT
1070
     0
1002
}
1002
{
1000
NOSEL
1070
     0
1002
}
1002
{
1000
BEHIND
1070
     0
1002
}
1002
{
1000
REACTOR
1002
}
1001
GENIUS_GENOBJ-N-REC_13
1002
{
1000
OWNER
1000
GEN
1002
}
  0
LINE
  5
1B69
330
1F
100
AcDbEntity
  8
SANINDUSA
100
AcDbLine
 10
6159.626258876016
 20
2335.888121185496
 30
0.0000000001479286
 11
6159.626258876016
 21
2335.886121185496
 31
0.0000000001479286
  0
LINE
  5
1B6A
330
1F
100
AcDbEntity
  8
SANINDUSA
100
AcDbLine
 10
6159.639758876015
 20
2335.895521189305
 30
0.0000000001479285
 11
6159.639758876015
 21
2335.889521189306
 31
0.0000000001479285
  0
LINE
  5
1B6B
330
1F
100
AcDbEntity
  8
SANINDUSA
100
AcDbLine
 10
6159.642422896715
 20
2335.895521185496
 30
0.0000000001479286
 11
6159.642422896715
 21
2335.889521185496
 31
0.0000000001479286
1001
GENIUS_GENREC_14
1002
{
1000
PYDIR
1011
6159.489422896715
1021
2335.889321185496
1031
0.0000000001479286
1002
}
1002
{
1000
PXDIR
1011
6159.639422896715
1021
2335.895321185496
1031
0.0000000001479286
1002
}
1002
{
1000
PORI
1011
6159.489422896715
1021
2335.895321185496
1031
0.0000000001479286
1002
}
1002
{
1000
PINS
1011
6159.489422896715
1021
2335.895321185496
1031
0.0000000001479286
1002
}
1002
{
1000
PINS2
1011
6159.639422896715
1021
2335.889521185496
1031
0.0000000001479286
1002
}
1002
{
1000
C
1070
     1
1002
}
1001
GENIUS_GENODEF_13
1002
{
1000
HIER
1070
     0
1002
}
1002
{
1000
MANEDIT
1070
     0
1002
}
1002
{
1000
NOSEL
1070
     0
1002
}
1002
{
1000
BEHIND
1070
     0
1002
}
1002
{
1000
REACTOR
1002
}
1001
GENIUS_GENOBJ-N-REC_13
1002
{
1000
OWNER
1000
GEN
1002
}
  0
LINE
  5
1B6C
330
1F
100
AcDbEntity
  8
SANINDUSA
100
AcDbLine
 10
6159.628409352408
 20
2335.888813510798
 30
0.0000000001479285
 11
6159.639913654092
 21
2335.886921189306
 31
0.0000000001479285
  0
LINE
  5
1B6D
330
1F
100
AcDbEntity
  8
SANINDUSA
100
AcDbLine
 10
6159.630833004664
 20
2335.889225598995
 30
0.0000000001479285
 11
6159.632909333019
 21
2335.889517407915
 31
0.0000000001479285
  0
LINE
  5
1B6E
330
1F
100
AcDbEntity
  8
SANINDUSA
100
AcDbLine
 10
6159.633209352408
 20
2335.88883471791
 30
0.0000000001479285
 11
6159.630833004664
 21
2335.889225598995
 31
0.0000000001479285
  0
LINE
  5
1B6F
330
1F
100
AcDbEntity
  8
SANINDUSA
100
AcDbLine
 10
6159.630731927034
 20
2335.8954775455
 30
0.0000000001479285
 11
6159.632860622434
 21
2335.895178376872
 31
0.0000000001479285
  0
LINE
  5
1B70
330
1F
100
AcDbEntity
  8
SANINDUSA
100
AcDbLine
 10
6159.632860622434
 20
2335.889864001739
 30
0.0000000001479285
 11
6159.630731927034
 21
2335.88956483311
 31
0.0000000001479285
  0
LINE
  5
1B71
330
1F
100
AcDbEntity
  8
SANINDUSA
100
AcDbLine
 10
6159.62790673667
 20
2335.894930068003
 30
0.0000000001479285
 11
6159.629591707902
 21
2335.895207225831
 31
0.0000000001479285
  0
ARC
  5
1B72
330
1F
100
AcDbEntity
  8
SANINDUSA
100
AcDbCircle
 10
6159.62949432364
 20
2335.895799270007
 30
0.0000000001479285
 40
0.0006
100
AcDbArc
 50
279.3408341221809
 51
327.5305191993646
  0
ARC
  5
1B73
330
1F
100
AcDbEntity
  8
SANINDUSA
100
AcDbCircle
 10
6159.62850673667
 20
2335.889405554974
 30
0.0000000001479285
 40
0.0006
100
AcDbArc
 50
180.0
 51
260.6591658778191
  0
ARC
  5
1B74
330
1F
100
AcDbEntity
  8
SANINDUSA
100
AcDbCircle
 10
6159.630506736669
 20
2335.889887328953
 30
0.0000000001479285
 40
0.0005999999999989
100
AcDbArc
 50
212.4694808006354
 51
255.8991082132415
  0
LINE
  5
1B75
330
1F
100
AcDbEntity
  8
SANINDUSA
100
AcDbLine
 10
6159.629591707902
 20
2335.889835152779
 30
0.0000000001479285
 11
6159.62790673667
 21
2335.890112310608
 31
0.0000000001479285
  0
LINE
  5
1B76
330
1F
100
AcDbEntity
  8
SANINDUSA
100
AcDbLine
 10
6159.62790673667
 20
2335.890112310608
 30
0.0000000001479285
 11
6159.62790673667
 21
2335.889405554974
 31
0.0000000001479285
  0
ARC
  5
1B77
330
1F
100
AcDbEntity
  8
SANINDUSA
100
AcDbCircle
 10
6159.62949432364
 20
2335.889243108604
 30
0.0000000001479285
 40
0.0006
100
AcDbArc
 50
32.46948080063537
 51
80.65916587781911
  0
ARC
  5
1B78
330
1F
100
AcDbEntity
  8
SANINDUSA
100
AcDbCircle
 10
6159.630801513585
 20
2335.889069699076
 30
0.0000000001479285
 40
0.0005
100
AcDbArc
 50
98.00000001281823
 51
151.8736260450294
  0
ARC
  5
1B79
330
1F
100
AcDbEntity
  8
SANINDUSA
100
AcDbCircle
 10
6159.632884977726
 20
2335.895351673784
 30
0.0000000001479285
 40
0.000175
100
AcDbArc
 50
261.9999999871818
 51
81.99999998718174
  0
ARC
  5
1B7A
330
1F
100
AcDbEntity
  8
SANINDUSA
100
AcDbCircle
 10
6159.638560198127
 20
2335.888821890495
 30
0.0000000001479285
 40
0.0005
100
AcDbArc
 50
170.6591659035287
 51
260.6591658778191
  0
ARC
  5
1B7B
330
1F
100
AcDbEntity
  8
SANINDUSA
100
AcDbCircle
 10
6159.634059458336
 20
2335.888492197967
 30
0.0000000001479285
 40
0.0006000000000005
100
AcDbArc
 50
80.65916587781911
 51
128.8488510053604
  0
LINE
  5
1B7C
330
1F
100
AcDbEntity
  8
SANINDUSA
100
AcDbLine
 10
6159.636036199536
 20
2335.888775110165
 30
0.0000000001479285
 11
6159.634156842597
 21
2335.889084242142
 31
0.0000000001479285
  0
LINE
  5
1B7D
330
1F
100
AcDbEntity
  8
SANINDUSA
100
AcDbLine
 10
6159.636627294317
 20
2335.889393189772
 30
0.0000000001479285
 11
6159.636586717542
 21
2335.889146504698
 31
0.0000000001479285
  0
LINE
  5
1B7E
330
1F
100
AcDbEntity
  8
SANINDUSA
100
AcDbLine
 10
6159.63806682798
 20
2335.888903044045
 30
0.0000000001479285
 11
6159.638107404756
 21
2335.889149729119
 31
0.0000000001479285
  0
ARC
  5
1B7F
330
1F
100
AcDbEntity
  8
SANINDUSA
100
AcDbCircle
 10
6159.636117353087
 20
2335.889268480311
 30
0.0000000001479285
 40
0.0005
100
AcDbArc
 50
260.6591658778191
 51
0.1365535742230598
  0
ARC
  5
1B80
330
1F
100
AcDbEntity
  8
SANINDUSA
100
AcDbCircle
 10
6159.637367349536
 20
2335.889271459445
 30
0.0000000001479285
 40
0.00075
100
AcDbArc
 50
350.6591659035287
 51
180.136553574223
  0
ARC
  5
1B81
330
1F
100
AcDbEntity
  8
SANINDUSA
100
AcDbCircle
 10
6159.632884977726
 20
2335.889690704826
 30
0.0000000001479285
 40
0.000175
100
AcDbArc
 50
278.0000000128183
 51
98.00000001281823
  0
ARC
  5
1B82
330
1F
100
AcDbEntity
  8
SANINDUSA
100
AcDbCircle
 10
6159.633306736669
 20
2335.889426762086
 30
0.0000000001479285
 40
0.0006
100
AcDbArc
 50
260.6591658778191
 51
308.8488510053605
  0
LINE
  5
1B83
330
1F
100
AcDbEntity
  8
SANINDUSA
100
AcDbLine
 10
6159.639913654092
 20
2335.886921189306
 30
0.0000000001479285
 11
6159.640906736669
 21
2335.886921189306
 31
0.0000000001479285
  0
LINE
  5
1B84
330
1F
100
AcDbEntity
  8
SANINDUSA
100
AcDbLine
 10
6159.639061491755
 20
2335.88823271468
 30
0.0000000001479285
 11
6159.638479044575
 21
2335.888328520349
 31
0.0000000001479285
  0
ARC
  5
1B85
330
1F
100
AcDbEntity
  8
SANINDUSA
100
AcDbCircle
 10
6159.639158876015
 20
2335.888824758855
 30
0.0000000001479285
 40
0.0006
100
AcDbArc
 50
260.6591658778191
 51
0.0
  0
ARC
  5
1B86
330
1F
100
AcDbEntity
  8
SANINDUSA
100
AcDbCircle
 10
6159.625258876015
 20
2335.900921185496
 30
0.0000000001479286
 40
0.001
100
AcDbArc
 50
0.0
 51
90.0
  0
ARC
  5
1B87
330
1F
100
AcDbEntity
  8
SANINDUSA
100
AcDbCircle
 10
6159.638560198127
 20
2335.896220488116
 30
0.0000000001479285
 40
0.0005
100
AcDbArc
 50
99.3408341221809
 51
189.3408340964712
  0
LINE
  5
1B88
330
1F
100
AcDbEntity
  8
SANINDUSA
100
AcDbLine
 10
6159.639913654092
 20
2335.898121189305
 30
0.0000000001479285
 11
6159.640906736669
 21
2335.898121189305
 31
0.0000000001479285
  0
LINE
  5
1B89
330
1F
100
AcDbEntity
  8
SANINDUSA
100
AcDbLine
 10
6159.638479044575
 20
2335.896713858263
 30
0.0000000001479285
 11
6159.639061491755
 21
2335.896809663931
 31
0.0000000001479285
  0
ARC
  5
1B8A
330
1F
100
AcDbEntity
  8
SANINDUSA
100
AcDbCircle
 10
6159.639158876015
 20
2335.896217619756
 30
0.0000000001479285
 40
0.0006
100
AcDbArc
 50
0.0
 51
99.3408341221809
  0
LINE
  5
1B8B
330
1F
100
AcDbEntity
  8
SANINDUSA
100
AcDbLine
 10
6159.630833004664
 20
2335.895816779617
 30
0.0000000001479285
 11
6159.633209352408
 21
2335.896207660701
 31
0.0000000001479285
  0
ARC
  5
1B8C
330
1F
100
AcDbEntity
  8
SANINDUSA
100
AcDbCircle
 10
6159.62850673667
 20
2335.895636823637
 30
0.0000000001479285
 40
0.0006
100
AcDbArc
 50
99.3408341221809
 51
180.0
  0
LINE
  5
1B8D
330
1F
100
AcDbEntity
  8
SANINDUSA
100
AcDbLine
 10
6159.638107404756
 20
2335.895892649492
 30
0.0000000001479285
 11
6159.63806682798
 21
2335.896139334565
 31
0.0000000001479285
  0
LINE
  5
1B8E
330
1F
100
AcDbEntity
  8
SANINDUSA
100
AcDbLine
 10
6159.636593887793
 20
2335.89585228262
 30
0.0000000001479285
 11
6159.636627294317
 21
2335.895649188839
 31
0.0000000001479285
  0
LINE
  5
1B8F
330
1F
100
AcDbEntity
  8
SANINDUSA
100
AcDbLine
 10
6159.634156842597
 20
2335.895958136468
 30
0.0000000001479285
 11
6159.636019364096
 21
2335.896264499216
 31
0.0000000001479285
  0
ARC
  5
1B90
330
1F
100
AcDbEntity
  8
SANINDUSA
100
AcDbCircle
 10
6159.634059458336
 20
2335.896550180644
 30
0.0000000001479285
 40
0.0006000000000005
100
AcDbArc
 50
231.1511489946395
 51
279.3408341221809
  0
ARC
  5
1B91
330
1F
100
AcDbEntity
  8
SANINDUSA
100
AcDbCircle
 10
6159.636100517647
 20
2335.895771129069
 30
0.0000000001479285
 40
0.0005
100
AcDbArc
 50
9.340834096471271
 51
99.3408341221809
  0
ARC
  5
1B92
330
1F
100
AcDbEntity
  8
SANINDUSA
100
AcDbCircle
 10
6159.633306736669
 20
2335.895615616525
 30
0.0000000001479285
 40
0.0006
100
AcDbArc
 50
51.15114899463955
 51
99.3408341221809
  0
LINE
  5
1B93
330
1F
100
AcDbEntity
  8
SANINDUSA
100
AcDbLine
 10
6159.639913654092
 20
2335.898121189305
 30
0.0000000001479285
 11
6159.628409352408
 21
2335.896228867812
 31
0.0000000001479285
  0
LINE
  5
1B94
330
1F
100
AcDbEntity
  8
SANINDUSA
100
AcDbLine
 10
6159.626258876016
 20
2335.896921185496
 30
0.0000000001479286
 11
6159.626258876016
 21
2335.900921185496
 31
0.0000000001479286
  0
LINE
  5
1B95
330
1F
100
AcDbEntity
  8
SANINDUSA
100
AcDbLine
 10
6159.709258876016
 20
2335.888121133202
 30
0.0000000001479286
 11
6159.709258876016
 21
2335.879121133202
 31
0.0000000001479286
  0
ARC
  5
1B96
330
1F
100
AcDbEntity
  8
SANINDUSA
100
AcDbCircle
 10
6159.708258876015
 20
2335.879121133202
 30
0.0000000001479286
 40
0.001
100
AcDbArc
 50
270.0
 51
0.0
  0
LINE
  5
1B97
330
1F
100
AcDbEntity
  8
SANINDUSA
100
AcDbLine
 10
6159.708258876015
 20
2335.901921185496
 30
0.0000000001479286
 11
6159.657258876015
 21
2335.901921185496
 31
0.0000000001479286
  0
LINE
  5
1B98
330
1F
100
AcDbEntity
  8
SANINDUSA
100
AcDbLine
 10
6159.656258876015
 20
2335.896921185496
 30
0.0000000001479286
 11
6159.709258876016
 21
2335.896921185496
 31
0.0000000001479286
  0
LINE
  5
1B99
330
1F
100
AcDbEntity
  8
SANINDUSA
100
AcDbLine
 10
6159.656258876016
 20
2335.888121133202
 30
0.0000000001479286
 11
6159.709258876016
 21
2335.888121133202
 31
0.0000000001479286
  0
LWPOLYLINE
  5
1B9A
330
1F
100
AcDbEntity
  8
SANINDUSA
100
AcDbPolyline
 90
        4
 70
     1
 43
0.0
 38
0.0000000001479285
 10
6159.709258876016
 20
2335.896721185496
 10
6159.656258876015
 20
2335.896721185496
 10
6159.656258876015
 20
2335.895721185496
 10
6159.709258876016
 20
2335.895721185496
1001
GENIUS_GENREC_14
1002
{
1000
PYDIR
1011
6159.573258876015
1021
2335.154173586563
1031
0.0000000001479286
1002
}
1002
{
1000
PXDIR
1011
6159.626258876016
1021
2335.155173586563
1031
0.0000000001479286
1002
}
1002
{
1000
PORI
1011
6159.573258876015
1021
2335.155173586563
1031
0.0000000001479286
1002
}
1002
{
1000
PINS
1011
6159.573258876015
1021
2335.155173586563
1031
0.0000000001479286
1002
}
1002
{
1000
PINS2
1011
6159.626258876016
1021
2335.154173586563
1031
0.0000000001479286
1002
}
1002
{
1000
C
1070
     1
1002
}
1001
GENIUS_GENODEF_13
1002
{
1000
HIER
1070
     0
1002
}
1002
{
1000
MANEDIT
1070
     0
1002
}
1002
{
1000
NOSEL
1070
     0
1002
}
1002
{
1000
BEHIND
1070
     0
1002
}
1002
{
1000
REACTOR
1002
}
1001
GENIUS_GENOBJ-N-REC_13
1002
{
1000
OWNER
1000
GEN
1002
}
  0
LWPOLYLINE
  5
1B9B
330
1F
100
AcDbEntity
  8
SANINDUSA
100
AcDbPolyline
 90
        2
 70
     0
 43
0.0
 38
0.0000000001479285
 10
6159.709258876016
 20
2335.888221185496
 10
6159.656258876015
 20
2335.888221185496
1001
GENIUS_GENREC_14
1002
{
1000
PYDIR
1011
6159.573258876015
1021
2335.154473586563
1031
0.0000000001479286
1002
}
1002
{
1000
PXDIR
1011
6159.626258876016
1021
2335.155473586563
1031
0.0000000001479286
1002
}
1002
{
1000
PORI
1011
6159.573258876015
1021
2335.155473586563
1031
0.0000000001479286
1002
}
1002
{
1000
PINS
1011
6159.573258876015
1021
2335.155473586563
1031
0.0000000001479286
1002
}
1002
{
1000
PINS2
1011
6159.626258876016
1021
2335.154473586563
1031
0.0000000001479286
1002
}
1002
{
1000
C
1070
     1
1002
}
1001
GENIUS_GENODEF_13
1002
{
1000
HIER
1070
     0
1002
}
1002
{
1000
MANEDIT
1070
     0
1002
}
1002
{
1000
NOSEL
1070
     0
1002
}
1002
{
1000
BEHIND
1070
     0
1002
}
1002
{
1000
REACTOR
1002
}
1001
GENIUS_GENOBJ-N-REC_13
1002
{
1000
OWNER
1000
GEN
1002
}
  0
LWPOLYLINE
  5
1B9C
330
1F
100
AcDbEntity
  8
SANINDUSA
100
AcDbPolyline
 90
        2
 70
     0
 43
0.0
 38
0.0000000001479285
 10
6159.656258876015
 20
2335.889221185496
 10
6159.709258876016
 20
2335.889221185496
1001
GENIUS_GENREC_14
1002
{
1000
PYDIR
1011
6159.573258876015
1021
2335.154473586563
1031
0.0000000001479286
1002
}
1002
{
1000
PXDIR
1011
6159.626258876016
1021
2335.155473586563
1031
0.0000000001479286
1002
}
1002
{
1000
PORI
1011
6159.573258876015
1021
2335.155473586563
1031
0.0000000001479286
1002
}
1002
{
1000
PINS
1011
6159.573258876015
1021
2335.155473586563
1031
0.0000000001479286
1002
}
1002
{
1000
PINS2
1011
6159.626258876016
1021
2335.154473586563
1031
0.0000000001479286
1002
}
1002
{
1000
C
1070
     1
1002
}
1001
GENIUS_GENODEF_13
1002
{
1000
HIER
1070
     0
1002
}
1002
{
1000
MANEDIT
1070
     0
1002
}
1002
{
1000
NOSEL
1070
     0
1002
}
1002
{
1000
BEHIND
1070
     0
1002
}
1002
{
1000
REACTOR
1002
}
1001
GENIUS_GENOBJ-N-REC_13
1002
{
1000
OWNER
1000
GEN
1002
}
  0
LINE
  5
1B9D
330
1F
100
AcDbEntity
  8
SANINDUSA
100
AcDbLine
 10
6159.656258876015
 20
2335.888221185496
 30
0.0000000001479286
 11
6159.656258876015
 21
2335.889221185496
 31
0.0000000001479286
1001
GENIUS_GENREC_14
1002
{
1000
PYDIR
1011
6159.573258876015
1021
2335.889221185496
1031
0.0000000001479286
1002
}
1002
{
1000
PXDIR
1011
6159.626258876016
1021
2335.888221185496
1031
0.0000000001479286
1002
}
1002
{
1000
PORI
1011
6159.573258876015
1021
2335.888221185496
1031
0.0000000001479286
1002
}
1002
{
1000
PINS
1011
6159.573258876015
1021
2335.888221185496
1031
0.0000000001479286
1002
}
1002
{
1000
PINS2
1011
6159.626258876016
1021
2335.889221185496
1031
0.0000000001479286
1002
}
1002
{
1000
C
1070
     1
1002
}
1001
GENIUS_GENODEF_13
1002
{
1000
HIER
1070
     0
1002
}
1002
{
1000
MANEDIT
1070
     0
1002
}
1002
{
1000
NOSEL
1070
     0
1002
}
1002
{
1000
BEHIND
1070
     0
1002
}
1002
{
1000
REACTOR
1002
}
1001
GENIUS_GENOBJ-N-REC_13
1002
{
1000
OWNER
1000
GEN
1002
}
  0
LINE
  5
1B9E
330
1F
100
AcDbEntity
  8
SANINDUSA
100
AcDbLine
 10
6159.656258876015
 20
2335.886121133202
 30
0.0000000001479286
 11
6159.656258876016
 21
2335.888121133202
 31
0.0000000001479286
  0
ARC
  5
1B9F
330
1F
100
AcDbEntity
  8
SANINDUSA
100
AcDbCircle
 10
6159.657258876015
 20
2335.900921185496
 30
0.0000000001479286
 40
0.001
100
AcDbArc
 50
90.0
 51
180.0
  0
LINE
  5
1BA0
330
1F
100
AcDbEntity
  8
SANINDUSA
100
AcDbLine
 10
6159.656258876015
 20
2335.896921185496
 30
0.0000000001479286
 11
6159.656258876015
 21
2335.900921185496
 31
0.0000000001479286
  0
LINE
  5
1BA1
330
1F
100
AcDbEntity
  8
SANINDUSA
100
AcDbLine
 10
6159.709258876016
 20
2335.889221185496
 30
0.0000000001479286
 11
6159.709258876016
 21
2335.888221185496
 31
0.0000000001479286
1001
GENIUS_GENREC_14
1002
{
1000
PYDIR
1011
6159.573258876015
1021
2335.889221185496
1031
0.0000000001479286
1002
}
1002
{
1000
PXDIR
1011
6159.626258876016
1021
2335.888221185496
1031
0.0000000001479286
1002
}
1002
{
1000
PORI
1011
6159.573258876015
1021
2335.888221185496
1031
0.0000000001479286
1002
}
1002
{
1000
PINS
1011
6159.573258876015
1021
2335.888221185496
1031
0.0000000001479286
1002
}
1002
{
1000
PINS2
1011
6159.626258876016
1021
2335.889221185496
1031
0.0000000001479286
1002
}
1002
{
1000
C
1070
     1
1002
}
1001
GENIUS_GENODEF_13
1002
{
1000
HIER
1070
     0
1002
}
1002
{
1000
MANEDIT
1070
     0
1002
}
1002
{
1000
NOSEL
1070
     0
1002
}
1002
{
1000
BEHIND
1070
     0
1002
}
1002
{
1000
REACTOR
1002
}
1001
GENIUS_GENOBJ-N-REC_13
1002
{
1000
OWNER
1000
GEN
1002
}
  0
ARC
  5
1BA2
330
1F
100
AcDbEntity
  8
SANINDUSA
100
AcDbCircle
 10
6159.708258876015
 20
2335.900921185496
 30
0.0000000001479286
 40
0.001
100
AcDbArc
 50
0.0
 51
90.0
  0
LINE
  5
1BA3
330
1F
100
AcDbEntity
  8
SANINDUSA
100
AcDbLine
 10
6159.709258876016
 20
2335.896921185496
 30
0.0000000001479286
 11
6159.709258876016
 21
2335.900921185496
 31
0.0000000001479286
  0
LINE
  5
1BA4
330
1F
100
AcDbEntity
  8
SANINDUSA
100
AcDbLine
 10
6160.331422896715
 20
2335.895521189305
 30
0.0000000001479285
 11
6160.331422896715
 21
2335.889521189306
 31
0.0000000001479285
  0
LINE
  5
1BA5
330
1F
100
AcDbEntity
  8
SANINDUSA
100
AcDbLine
 10
6158.839758876015
 20
2335.895521185496
 30
0.0000000001557791
 11
6158.839758876015
 21
2335.889521185496
 31
0.0000000001553315
  0
LINE
  5
1BAC
330
1F
100
AcDbEntity
  8
SANINDUSA
 48
2.0
100
AcDbLine
 10
6159.812771744235
 20
2335.932171185496
 30
0.0000000001479286
 11
6159.812771744235
 21
2336.531326484683
 31
0.0000000001479286
  0
LINE
  5
1BAD
330
1F
100
AcDbEntity
  8
SANINDUSA
 48
2.0
100
AcDbLine
 10
6159.825771744235
 20
2335.932171185496
 30
0.0000000001479286
 11
6159.825771744235
 21
2336.531326484683
 31
0.0000000001479286
  0
LINE
  5
1BAE
330
1F
100
AcDbEntity
  8
SANINDUSA
100
AcDbLine
 10
6159.810271744234
 20
2336.548826484683
 30
0.0
 11
6159.810271744234
 21
2336.566076484683
 31
0.0
  0
LINE
  5
1BAF
330
1F
100
AcDbEntity
  8
SANINDUSA
100
AcDbLine
 10
6159.828271744235
 20
2336.548826484683
 30
0.0
 11
6159.828271744235
 21
2336.566076484683
 31
0.0
  0
LINE
  5
1BB0
330
1F
100
AcDbEntity
  8
SANINDUSA
100
AcDbLine
 10
6159.819910744236
 20
2336.551796484683
 30
0.0
 11
6159.818632744235
 21
2336.551796484683
 31
0.0
  0
LINE
  5
1BB1
330
1F
100
AcDbEntity
  8
SANINDUSA
100
AcDbLine
 10
6159.819271744234
 20
2336.548826484683
 30
0.0
 11
6159.818632744235
 21
2336.548826484683
 31
0.0
  0
LINE
  5
1BB2
330
1F
100
AcDbEntity
  8
SANINDUSA
100
AcDbLine
 10
6159.819271744234
 20
2336.548826484683
 30
0.0
 11
6159.818632744235
 21
2336.548187484683
 31
0.0
  0
LINE
  5
1BB3
330
1F
100
AcDbEntity
  8
SANINDUSA
100
AcDbLine
 10
6159.818632744235
 20
2336.549465484683
 30
0.0
 11
6159.819271744234
 21
2336.548826484683
 31
0.0
  0
LINE
  5
1BB4
330
1F
100
AcDbEntity
  8
SANINDUSA
100
AcDbLine
 10
6159.818632744235
 20
2336.548187484683
 30
0.0
 11
6159.819910744236
 21
2336.548187484683
 31
0.0
  0
LINE
  5
1BB5
330
1F
100
AcDbEntity
  8
SANINDUSA
100
AcDbLine
 10
6159.819910744236
 20
2336.549465484683
 30
0.0
 11
6159.818632744235
 21
2336.549465484683
 31
0.0
  0
LINE
  5
1BB6
330
1F
100
AcDbEntity
  8
SANINDUSA
100
AcDbLine
 10
6159.818632744235
 20
2336.548187484683
 30
0.0
 11
6159.818632744235
 21
2336.549465484683
 31
0.0
  0
LINE
  5
1BB7
330
1F
100
AcDbEntity
  8
SANINDUSA
100
AcDbLine
 10
6159.816301744236
 20
2336.549465484683
 30
0.0
 11
6159.816301744236
 21
2336.548187484683
 31
0.0
  0
LINE
  5
1BB8
330
1F
100
AcDbEntity
  8
SANINDUSA
100
AcDbLine
 10
6159.816301744236
 20
2336.548187484683
 30
0.0
 11
6159.818152797417
 21
2336.548187484683
 31
0.0
  0
LINE
  5
1BB9
330
1F
100
AcDbEntity
  8
SANINDUSA
100
AcDbLine
 10
6159.818152797417
 20
2336.549465484683
 30
0.0
 11
6159.816301744236
 21
2336.549465484683
 31
0.0
  0
LINE
  5
1BBA
330
1F
100
AcDbEntity
  8
SANINDUSA
100
AcDbLine
 10
6159.818632744235
 20
2336.548187484683
 30
0.0
 11
6159.818152797417
 21
2336.548187484683
 31
0.0
  0
LINE
  5
1BBB
330
1F
100
AcDbEntity
  8
SANINDUSA
100
AcDbLine
 10
6159.818632744235
 20
2336.549465484683
 30
0.0
 11
6159.818632744235
 21
2336.5499454315
 31
0.0
  0
LINE
  5
1BBC
330
1F
100
AcDbEntity
  8
SANINDUSA
100
AcDbLine
 10
6159.818632744235
 20
2336.5499454315
 30
0.0
 11
6159.817171637094
 21
2336.550926591823
 31
0.0
  0
LINE
  5
1BBD
330
1F
100
AcDbEntity
  8
SANINDUSA
100
AcDbLine
 10
6159.818152797417
 20
2336.549465484683
 30
0.0
 11
6159.818632744235
 21
2336.549465484683
 31
0.0
  0
LINE
  5
1BBE
330
1F
100
AcDbEntity
  8
SANINDUSA
100
AcDbLine
 10
6159.817171637094
 20
2336.550926591823
 30
0.0
 11
6159.818632744235
 21
2336.549465484683
 31
0.0
  0
LINE
  5
1BBF
330
1F
100
AcDbEntity
  8
SANINDUSA
100
AcDbLine
 10
6159.817171637094
 20
2336.550926591823
 30
0.0
 11
6159.818152797417
 21
2336.549465484683
 31
0.0
  0
LINE
  5
1BC0
330
1F
100
AcDbEntity
  8
SANINDUSA
100
AcDbLine
 10
6159.819910744236
 20
2336.548826484683
 30
0.0
 11
6159.819271744234
 21
2336.548826484683
 31
0.0
  0
LINE
  5
1BC1
330
1F
100
AcDbEntity
  8
SANINDUSA
100
AcDbLine
 10
6159.819271744234
 20
2336.548826484683
 30
0.0
 11
6159.819271744234
 21
2336.548187484683
 31
0.0
  0
LINE
  5
1BC2
330
1F
100
AcDbEntity
  8
SANINDUSA
100
AcDbLine
 10
6159.819910744236
 20
2336.548187484683
 30
0.0
 11
6159.819271744234
 21
2336.548826484683
 31
0.0
  0
LINE
  5
1BC3
330
1F
100
AcDbEntity
  8
SANINDUSA
100
AcDbLine
 10
6159.819910744236
 20
2336.549465484683
 30
0.0
 11
6159.819910744236
 21
2336.548187484683
 31
0.0
  0
LINE
  5
1BC4
330
1F
100
AcDbEntity
  8
SANINDUSA
100
AcDbLine
 10
6159.819271744234
 20
2336.549465484683
 30
0.0
 11
6159.819271744234
 21
2336.548826484683
 31
0.0
  0
LINE
  5
1BC5
330
1F
100
AcDbEntity
  8
SANINDUSA
100
AcDbLine
 10
6159.819271744234
 20
2336.548826484683
 30
0.0
 11
6159.819910744236
 21
2336.549465484683
 31
0.0
  0
LINE
  5
1BC6
330
1F
100
AcDbEntity
  8
SANINDUSA
100
AcDbLine
 10
6159.819910744236
 20
2336.549465484683
 30
0.0
 11
6159.820390691052
 21
2336.549465484683
 31
0.0
  0
LINE
  5
1BC7
330
1F
100
AcDbEntity
  8
SANINDUSA
100
AcDbLine
 10
6159.820390691052
 20
2336.549465484683
 30
0.0
 11
6159.821371851375
 21
2336.550926591823
 31
0.0
  0
LINE
  5
1BC8
330
1F
100
AcDbEntity
  8
SANINDUSA
100
AcDbLine
 10
6159.819910744236
 20
2336.5499454315
 30
0.0
 11
6159.819910744236
 21
2336.549465484683
 31
0.0
  0
LINE
  5
1BC9
330
1F
100
AcDbEntity
  8
SANINDUSA
100
AcDbLine
 10
6159.821371851375
 20
2336.550926591823
 30
0.0
 11
6159.819910744236
 21
2336.549465484683
 31
0.0
  0
LINE
  5
1BCA
330
1F
100
AcDbEntity
  8
SANINDUSA
100
AcDbLine
 10
6159.821371851375
 20
2336.550926591823
 30
0.0
 11
6159.819910744236
 21
2336.5499454315
 31
0.0
  0
LINE
  5
1BCB
330
1F
100
AcDbEntity
  8
SANINDUSA
100
AcDbLine
 10
6159.820390691052
 20
2336.548187484683
 30
0.0
 11
6159.819910744236
 21
2336.548187484683
 31
0.0
  0
LINE
  5
1BCC
330
1F
100
AcDbEntity
  8
SANINDUSA
100
AcDbLine
 10
6159.822241744235
 20
2336.548187484683
 30
0.0
 11
6159.822241744235
 21
2336.549465484683
 31
0.0
  0
LINE
  5
1BCD
330
1F
100
AcDbEntity
  8
SANINDUSA
100
AcDbLine
 10
6159.822241744235
 20
2336.549465484683
 30
0.0
 11
6159.820390691052
 21
2336.549465484683
 31
0.0
  0
LINE
  5
1BCE
330
1F
100
AcDbEntity
  8
SANINDUSA
100
AcDbLine
 10
6159.820390691052
 20
2336.548187484683
 30
0.0
 11
6159.822241744235
 21
2336.548187484683
 31
0.0
  0
LINE
  5
1BCF
330
1F
100
AcDbEntity
  8
SANINDUSA
100
AcDbLine
 10
6159.818632744235
 20
2336.551796484683
 30
0.0
 11
6159.818632744235
 21
2336.5499454315
 31
0.0
  0
LINE
  5
1BD0
330
1F
100
AcDbEntity
  8
SANINDUSA
100
AcDbLine
 10
6159.819910744236
 20
2336.5499454315
 30
0.0
 11
6159.819910744236
 21
2336.551796484683
 31
0.0
  0
LINE
  5
1BD1
330
1F
100
AcDbEntity
  8
SANINDUSA
100
AcDbLine
 10
6159.818632744235
 20
2336.545856484683
 30
0.0
 11
6159.819910744236
 21
2336.545856484683
 31
0.0
  0
LINE
  5
1BD2
330
1F
100
AcDbEntity
  8
SANINDUSA
100
AcDbLine
 10
6159.827271744235
 20
2336.531326484683
 30
0.0
 11
6159.827271744235
 21
2336.544703379058
 31
0.0
  0
LINE
  5
1BD3
330
1F
100
AcDbEntity
  8
SANINDUSA
100
AcDbLine
 10
6159.818632744235
 20
2336.547707537866
 30
0.0
 11
6159.818632744235
 21
2336.545856484683
 31
0.0
  0
LINE
  5
1BD4
330
1F
100
AcDbEntity
  8
SANINDUSA
100
AcDbLine
 10
6159.817171637094
 20
2336.546726377543
 30
0.0
 11
6159.818632744235
 21
2336.547707537866
 31
0.0
  0
LINE
  5
1BD5
330
1F
100
AcDbEntity
  8
SANINDUSA
100
AcDbLine
 10
6159.811271744235
 20
2336.538326484683
 30
0.0
 11
6159.827271744235
 21
2336.538326484683
 31
0.0
  0
LINE
  5
1BD6
330
1F
100
AcDbEntity
  8
SANINDUSA
100
AcDbLine
 10
6159.819910744236
 20
2336.545856484683
 30
0.0
 11
6159.819910744236
 21
2336.547707537866
 31
0.0
  0
LINE
  5
1BD7
330
1F
100
AcDbEntity
  8
SANINDUSA
100
AcDbLine
 10
6159.819910744236
 20
2336.547707537866
 30
0.0
 11
6159.821371851375
 21
2336.546726377543
 31
0.0
  0
LINE
  5
1BD8
330
1F
100
AcDbEntity
  8
SANINDUSA
100
AcDbLine
 10
6159.811271744235
 20
2336.531326484683
 30
0.0
 11
6159.827271744235
 21
2336.531326484683
 31
0.0
  0
LINE
  5
1BD9
330
1F
100
AcDbEntity
  8
SANINDUSA
100
AcDbLine
 10
6159.818152797417
 20
2336.548187484683
 30
0.0
 11
6159.817171637094
 21
2336.546726377543
 31
0.0
  0
LINE
  5
1BDA
330
1F
100
AcDbEntity
  8
SANINDUSA
100
AcDbLine
 10
6159.818632744235
 20
2336.547707537866
 30
0.0
 11
6159.818632744235
 21
2336.548187484683
 31
0.0
  0
LINE
  5
1BDB
330
1F
100
AcDbEntity
  8
SANINDUSA
100
AcDbLine
 10
6159.817171637094
 20
2336.546726377543
 30
0.0
 11
6159.818632744235
 21
2336.548187484683
 31
0.0
  0
LINE
  5
1BDC
330
1F
100
AcDbEntity
  8
SANINDUSA
100
AcDbLine
 10
6159.819910744236
 20
2336.548187484683
 30
0.0
 11
6159.819910744236
 21
2336.547707537866
 31
0.0
  0
LINE
  5
1BDD
330
1F
100
AcDbEntity
  8
SANINDUSA
100
AcDbLine
 10
6159.821371851375
 20
2336.546726377543
 30
0.0
 11
6159.819910744236
 21
2336.548187484683
 31
0.0
  0
LINE
  5
1BDE
330
1F
100
AcDbEntity
  8
SANINDUSA
100
AcDbLine
 10
6159.821371851375
 20
2336.546726377543
 30
0.0
 11
6159.820390691052
 21
2336.548187484683
 31
0.0
  0
ARC
  5
1BDF
330
1F
100
AcDbEntity
  8
SANINDUSA
100
AcDbCircle
 10
6159.819271744234
 20
2336.548826484683
 30
0.0
 40
0.009
100
AcDbArc
 50
180.0
 51
0.0
  0
LINE
  5
1BE0
330
1F
100
AcDbEntity
  8
SANINDUSA
100
AcDbLine
 10
6159.811271744235
 20
2336.531326484683
 30
0.0
 11
6159.811271744235
 21
2336.544703379058
 31
0.0
  0
CIRCLE
  5
1BE1
330
1F
100
AcDbEntity
  8
SANINDUSA
100
AcDbCircle
 10
6159.819271744234
 20
2336.548826484683
 30
0.0
 40
0.005085
  0
LINE
  5
1BE2
330
1F
100
AcDbEntity
  8
SANINDUSA
100
AcDbLine
 10
6159.834271744235
 20
2336.571076484683
 30
0.0
 11
6159.834271744235
 21
2336.568076484683
 31
0.0
  0
LINE
  5
1BE3
330
1F
100
AcDbEntity
  8
SANINDUSA
100
AcDbLine
 10
6159.804271744235
 20
2336.568076484683
 30
0.0
 11
6159.804271744235
 21
2336.571076484683
 31
0.0
  0
LINE
  5
1BE4
330
1F
100
AcDbEntity
  8
SANINDUSA
100
AcDbLine
 10
6159.832271744234
 20
2336.566076484683
 30
0.0
 11
6159.806271744234
 21
2336.566076484683
 31
0.0
  0
ARC
  5
1BE5
330
1F
100
AcDbEntity
  8
SANINDUSA
100
AcDbCircle
 10
6159.806271744234
 20
2336.568076484683
 30
0.0
 40
0.002
100
AcDbArc
 50
180.0
 51
270.0
  0
ARC
  5
1BE6
330
1F
100
AcDbEntity
  8
SANINDUSA
100
AcDbCircle
 10
6159.832271744234
 20
2336.568076484683
 30
0.0
 40
0.002
100
AcDbArc
 50
270.0
 51
0.0
  0
LINE
  5
1BE7
330
1F
100
AcDbEntity
  8
SANINDUSA
100
AcDbLine
 10
6159.804271744235
 20
2336.571076484683
 30
0.0
 11
6159.834271744235
 21
2336.571076484683
 31
0.0
  0
LINE
  5
1BE8
330
1F
100
AcDbEntity
  8
SANINDUSA
100
AcDbLine
 10
6159.810271744234
 20
2335.914671185496
 30
0.0000000001479286
 11
6159.810271744234
 21
2335.897421185496
 31
0.0000000001479286
  0
LINE
  5
1BE9
330
1F
100
AcDbEntity
  8
SANINDUSA
100
AcDbLine
 10
6159.811271744235
 20
2335.932171185496
 30
0.0000000001479286
 11
6159.811271744235
 21
2335.918794291122
 31
0.0000000001479286
  0
LINE
  5
1BEA
330
1F
100
AcDbEntity
  8
SANINDUSA
100
AcDbLine
 10
6159.821371851375
 20
2335.912571078356
 30
0.0000000001479286
 11
6159.819910744236
 21
2335.913552238679
 31
0.0000000001479286
  0
LINE
  5
1BEB
330
1F
100
AcDbEntity
  8
SANINDUSA
100
AcDbLine
 10
6159.818152797417
 20
2335.915310185496
 30
0.0000000001479286
 11
6159.817171637094
 21
2335.916771292636
 31
0.0000000001479286
  0
LINE
  5
1BEC
330
1F
100
AcDbEntity
  8
SANINDUSA
100
AcDbLine
 10
6159.819271744234
 20
2335.914671185496
 30
0.0000000001479286
 11
6159.818632744235
 21
2335.914671185496
 31
0.0000000001479286
  0
LINE
  5
1BED
330
1F
100
AcDbEntity
  8
SANINDUSA
100
AcDbLine
 10
6159.818632744235
 20
2335.915310185496
 30
0.0000000001479286
 11
6159.818632744235
 21
2335.914032185496
 31
0.0000000001479286
  0
LINE
  5
1BEE
330
1F
100
AcDbEntity
  8
SANINDUSA
100
AcDbLine
 10
6159.818632744235
 20
2335.914032185496
 30
0.0000000001479286
 11
6159.819271744234
 21
2335.914671185496
 31
0.0000000001479286
  0
LINE
  5
1BEF
330
1F
100
AcDbEntity
  8
SANINDUSA
100
AcDbLine
 10
6159.819271744234
 20
2335.914032185496
 30
0.0000000001479286
 11
6159.819271744234
 21
2335.914671185496
 31
0.0000000001479286
  0
LINE
  5
1BF0
330
1F
100
AcDbEntity
  8
SANINDUSA
100
AcDbLine
 10
6159.819910744236
 20
2335.914032185496
 30
0.0000000001479286
 11
6159.818632744235
 21
2335.914032185496
 31
0.0000000001479286
  0
LINE
  5
1BF1
330
1F
100
AcDbEntity
  8
SANINDUSA
100
AcDbLine
 10
6159.818632744235
 20
2335.915310185496
 30
0.0000000001479286
 11
6159.818152797417
 21
2335.915310185496
 31
0.0000000001479286
  0
LINE
  5
1BF2
330
1F
100
AcDbEntity
  8
SANINDUSA
100
AcDbLine
 10
6159.819910744236
 20
2335.913552238679
 30
0.0000000001479286
 11
6159.819910744236
 21
2335.914032185496
 31
0.0000000001479286
  0
LINE
  5
1BF3
330
1F
100
AcDbEntity
  8
SANINDUSA
100
AcDbLine
 10
6159.828271744235
 20
2335.914671185496
 30
0.0000000001479286
 11
6159.828271744235
 21
2335.897421185496
 31
0.0000000001479286
  0
CIRCLE
  5
1BF4
330
1F
100
AcDbEntity
  8
SANINDUSA
100
AcDbCircle
 10
6159.819271744234
 20
2335.914671185496
 30
0.0000000001479286
 40
0.005085
  0
ARC
  5
1BF5
330
1F
100
AcDbEntity
  8
SANINDUSA
100
AcDbCircle
 10
6159.819271744234
 20
2335.914671185496
 30
0.0000000001479286
 40
0.009
100
AcDbArc
 50
0.0
 51
180.0
  0
LINE
  5
1BF6
330
1F
100
AcDbEntity
  8
SANINDUSA
100
AcDbLine
 10
6159.819910744236
 20
2335.911701185496
 30
0.0000000001479286
 11
6159.818632744235
 21
2335.911701185496
 31
0.0000000001479286
  0
LINE
  5
1BF7
330
1F
100
AcDbEntity
  8
SANINDUSA
100
AcDbLine
 10
6159.819910744236
 20
2335.913552238679
 30
0.0000000001479286
 11
6159.819910744236
 21
2335.911701185496
 31
0.0000000001479286
  0
LINE
  5
1BF8
330
1F
100
AcDbEntity
  8
SANINDUSA
100
AcDbLine
 10
6159.796771744234
 20
2335.897421185496
 30
0.0000000001479286
 11
6159.841771744234
 21
2335.897421185496
 31
0.0000000001479286
  0
LINE
  5
1BF9
330
1F
100
AcDbEntity
  8
SANINDUSA
100
AcDbLine
 10
6159.796771744234
 20
2335.879421185496
 30
0.0000000001479286
 11
6159.841771744234
 21
2335.879421185496
 31
0.0000000001479286
  0
LINE
  5
1BFA
330
1F
100
AcDbEntity
  8
SANINDUSA
100
AcDbLine
 10
6159.841771744234
 20
2335.897421185496
 30
0.0000000001479286
 11
6159.841771744234
 21
2335.879421185496
 31
0.0000000001479286
  0
LINE
  5
1BFB
330
1F
100
AcDbEntity
  8
SANINDUSA
100
AcDbLine
 10
6159.818632744235
 20
2335.911701185496
 30
0.0000000001479286
 11
6159.818632744235
 21
2335.913552238679
 31
0.0000000001479286
  0
LINE
  5
1BFC
330
1F
100
AcDbEntity
  8
SANINDUSA
100
AcDbLine
 10
6159.816301744236
 20
2335.914032185496
 30
0.0000000001479286
 11
6159.816301744236
 21
2335.915310185496
 31
0.0000000001479286
  0
LINE
  5
1BFD
330
1F
100
AcDbEntity
  8
SANINDUSA
100
AcDbLine
 10
6159.816301744236
 20
2335.915310185496
 30
0.0000000001479286
 11
6159.818152797417
 21
2335.915310185496
 31
0.0000000001479286
  0
LINE
  5
1BFE
330
1F
100
AcDbEntity
  8
SANINDUSA
100
AcDbLine
 10
6159.818152797417
 20
2335.914032185496
 30
0.0000000001479286
 11
6159.816301744236
 21
2335.914032185496
 31
0.0000000001479286
  0
LINE
  5
1BFF
330
1F
100
AcDbEntity
  8
SANINDUSA
100
AcDbLine
 10
6159.818632744235
 20
2335.914032185496
 30
0.0000000001479286
 11
6159.818632744235
 21
2335.913552238679
 31
0.0000000001479286
  0
LINE
  5
1C00
330
1F
100
AcDbEntity
  8
SANINDUSA
100
AcDbLine
 10
6159.818632744235
 20
2335.913552238679
 30
0.0000000001479286
 11
6159.817171637094
 21
2335.912571078356
 31
0.0000000001479286
  0
LINE
  5
1C01
330
1F
100
AcDbEntity
  8
SANINDUSA
100
AcDbLine
 10
6159.818152797417
 20
2335.914032185496
 30
0.0000000001479286
 11
6159.818632744235
 21
2335.914032185496
 31
0.0000000001479286
  0
LINE
  5
1C02
330
1F
100
AcDbEntity
  8
SANINDUSA
100
AcDbLine
 10
6159.817171637094
 20
2335.912571078356
 30
0.0000000001479286
 11
6159.818632744235
 21
2335.914032185496
 31
0.0000000001479286
  0
LINE
  5
1C03
330
1F
100
AcDbEntity
  8
SANINDUSA
100
AcDbLine
 10
6159.817171637094
 20
2335.912571078356
 30
0.0000000001479286
 11
6159.818152797417
 21
2335.914032185496
 31
0.0000000001479286
  0
LINE
  5
1C04
330
1F
100
AcDbEntity
  8
SANINDUSA
100
AcDbLine
 10
6159.796771744234
 20
2335.897421185496
 30
0.0000000001479286
 11
6159.796771744234
 21
2335.879421185496
 31
0.0000000001479286
  0
LINE
  5
1C05
330
1F
100
AcDbEntity
  8
SANINDUSA
100
AcDbLine
 10
6159.822241744235
 20
2335.915310185496
 30
0.0000000001479286
 11
6159.822241744235
 21
2335.914032185496
 31
0.0000000001479286
  0
LINE
  5
1C06
330
1F
100
AcDbEntity
  8
SANINDUSA
100
AcDbLine
 10
6159.820390691052
 20
2335.914032185496
 30
0.0000000001479286
 11
6159.821371851375
 21
2335.912571078356
 31
0.0000000001479286
  0
LINE
  5
1C07
330
1F
100
AcDbEntity
  8
SANINDUSA
100
AcDbLine
 10
6159.821371851375
 20
2335.912571078356
 30
0.0000000001479286
 11
6159.819910744236
 21
2335.914032185496
 31
0.0000000001479286
  0
LINE
  5
1C08
330
1F
100
AcDbEntity
  8
SANINDUSA
100
AcDbLine
 10
6159.822241744235
 20
2335.914032185496
 30
0.0000000001479286
 11
6159.820390691052
 21
2335.914032185496
 31
0.0000000001479286
  0
LINE
  5
1C09
330
1F
100
AcDbEntity
  8
SANINDUSA
100
AcDbLine
 10
6159.827271744235
 20
2335.932171185496
 30
0.0000000001479286
 11
6159.827271744235
 21
2335.918794291122
 31
0.0000000001479286
  0
LINE
  5
1C0A
330
1F
100
AcDbEntity
  8
SANINDUSA
100
AcDbLine
 10
6159.811271744235
 20
2335.932171185496
 30
0.0000000001479286
 11
6159.827271744235
 21
2335.932171185496
 31
0.0000000001479286
  0
LINE
  5
1C0B
330
1F
100
AcDbEntity
  8
SANINDUSA
100
AcDbLine
 10
6159.819910744236
 20
2335.917641185496
 30
0.0000000001479286
 11
6159.819910744236
 21
2335.915790132313
 31
0.0000000001479286
  0
LINE
  5
1C0C
330
1F
100
AcDbEntity
  8
SANINDUSA
100
AcDbLine
 10
6159.819910744236
 20
2335.915790132313
 30
0.0000000001479286
 11
6159.821371851375
 21
2335.916771292636
 31
0.0000000001479286
  0
LINE
  5
1C0D
330
1F
100
AcDbEntity
  8
SANINDUSA
100
AcDbLine
 10
6159.821371851375
 20
2335.916771292636
 30
0.0000000001479286
 11
6159.819910744236
 21
2335.915310185496
 31
0.0000000001479286
  0
LINE
  5
1C0E
330
1F
100
AcDbEntity
  8
SANINDUSA
100
AcDbLine
 10
6159.821371851375
 20
2335.916771292636
 30
0.0000000001479286
 11
6159.820390691052
 21
2335.915310185496
 31
0.0000000001479286
  0
LINE
  5
1C0F
330
1F
100
AcDbEntity
  8
SANINDUSA
100
AcDbLine
 10
6159.820390691052
 20
2335.915310185496
 30
0.0000000001479286
 11
6159.822241744235
 21
2335.915310185496
 31
0.0000000001479286
  0
LINE
  5
1C10
330
1F
100
AcDbEntity
  8
SANINDUSA
100
AcDbLine
 10
6159.819910744236
 20
2335.915310185496
 30
0.0000000001479286
 11
6159.819910744236
 21
2335.915790132313
 31
0.0000000001479286
  0
LINE
  5
1C11
330
1F
100
AcDbEntity
  8
SANINDUSA
100
AcDbLine
 10
6159.820390691052
 20
2335.915310185496
 30
0.0000000001479286
 11
6159.819910744236
 21
2335.915310185496
 31
0.0000000001479286
  0
LINE
  5
1C12
330
1F
100
AcDbEntity
  8
SANINDUSA
100
AcDbLine
 10
6159.818632744235
 20
2335.917641185496
 30
0.0000000001479286
 11
6159.819910744236
 21
2335.917641185496
 31
0.0000000001479286
  0
LINE
  5
1C13
330
1F
100
AcDbEntity
  8
SANINDUSA
100
AcDbLine
 10
6159.817171637094
 20
2335.916771292636
 30
0.0000000001479286
 11
6159.818632744235
 21
2335.915310185496
 31
0.0000000001479286
  0
LINE
  5
1C14
330
1F
100
AcDbEntity
  8
SANINDUSA
100
AcDbLine
 10
6159.817171637094
 20
2335.916771292636
 30
0.0000000001479286
 11
6159.818632744235
 21
2335.915790132313
 31
0.0000000001479286
  0
LINE
  5
1C15
330
1F
100
AcDbEntity
  8
SANINDUSA
100
AcDbLine
 10
6159.819910744236
 20
2335.914671185496
 30
0.0000000001479286
 11
6159.819271744234
 21
2335.914671185496
 31
0.0000000001479286
  0
LINE
  5
1C16
330
1F
100
AcDbEntity
  8
SANINDUSA
100
AcDbLine
 10
6159.819271744234
 20
2335.914671185496
 30
0.0000000001479286
 11
6159.818632744235
 21
2335.915310185496
 31
0.0000000001479286
  0
LINE
  5
1C17
330
1F
100
AcDbEntity
  8
SANINDUSA
100
AcDbLine
 10
6159.819271744234
 20
2335.914671185496
 30
0.0000000001479286
 11
6159.819271744234
 21
2335.915310185496
 31
0.0000000001479286
  0
LINE
  5
1C18
330
1F
100
AcDbEntity
  8
SANINDUSA
100
AcDbLine
 10
6159.819271744234
 20
2335.914671185496
 30
0.0000000001479286
 11
6159.819910744236
 21
2335.914032185496
 31
0.0000000001479286
  0
LINE
  5
1C19
330
1F
100
AcDbEntity
  8
SANINDUSA
100
AcDbLine
 10
6159.818632744235
 20
2335.915790132313
 30
0.0000000001479286
 11
6159.818632744235
 21
2335.915310185496
 31
0.0000000001479286
  0
LINE
  5
1C1A
330
1F
100
AcDbEntity
  8
SANINDUSA
100
AcDbLine
 10
6159.819910744236
 20
2335.914032185496
 30
0.0000000001479286
 11
6159.820390691052
 21
2335.914032185496
 31
0.0000000001479286
  0
LINE
  5
1C1B
330
1F
100
AcDbEntity
  8
SANINDUSA
100
AcDbLine
 10
6159.818632744235
 20
2335.915790132313
 30
0.0000000001479286
 11
6159.818632744235
 21
2335.917641185496
 31
0.0000000001479286
  0
LINE
  5
1C1C
330
1F
100
AcDbEntity
  8
SANINDUSA
100
AcDbLine
 10
6159.819910744236
 20
2335.915310185496
 30
0.0000000001479286
 11
6159.819271744234
 21
2335.914671185496
 31
0.0000000001479286
  0
LINE
  5
1C1D
330
1F
100
AcDbEntity
  8
SANINDUSA
100
AcDbLine
 10
6159.819910744236
 20
2335.914032185496
 30
0.0000000001479286
 11
6159.819910744236
 21
2335.915310185496
 31
0.0000000001479286
  0
LINE
  5
1C1E
330
1F
100
AcDbEntity
  8
SANINDUSA
100
AcDbLine
 10
6159.818632744235
 20
2335.915310185496
 30
0.0000000001479286
 11
6159.819910744236
 21
2335.915310185496
 31
0.0000000001479286
  0
LINE
  5
1C1F
330
1F
100
AcDbEntity
  8
SANINDUSA
100
AcDbLine
 10
6159.811271744235
 20
2335.925171185496
 30
0.0000000001479286
 11
6159.827271744235
 21
2335.925171185496
 31
0.0000000001479286
  0
CIRCLE
  5
1C24
330
1F
100
AcDbEntity
  8
SANINDUSA
100
AcDbCircle
 10
6159.641258876016
 20
2335.878121133202
 30
0.0000000001479286
 40
0.008
  0
INSERT
  5
1C77
330
1F
100
AcDbEntity
  8
SANINDUSA
100
AcDbBlockReference
  2
guarnizione
 10
6158.839758876015
 20
2335.892521185496
 30
0.0000000001555553
 41
0.001
 42
0.001
 43
0.001
  0
HATCH
  5
1C79
330
1F
100
AcDbEntity
  8
SANINDUSA
100
AcDbHatch
 10
0.0
 20
0.0
 30
0.0000000001555553
210
0.0
220
0.0
230
1.0
  2
ANSI31
 70
     0
 71
     0
 91
        1
 92
        1
 93
        8
 72
     1
 10
6158.829679782814
 20
2335.897825404964
 11
6158.828972676033
 21
2335.898532511745
 72
     1
 10
6158.828972676033
 20
2335.898532511744
 11
6158.824022928565
 21
2335.893582764276
 72
     1
 10
6158.824022928565
 20
2335.893582764276
 11
6158.824730035346
 21
2335.892875657495
 72
     1
 10
6158.824730035346
 20
2335.892875657495
 11
6158.825437142127
 21
2335.893582764276
 72
     1
 10
6158.825437142127
 20
2335.893582764276
 11
6158.826497802299
 21
2335.892522104105
 72
     1
 10
6158.826497802299
 20
2335.892522104105
 11
6158.830033336204
 21
2335.896057638011
 72
     1
 10
6158.830033336204
 20
2335.896057638011
 11
6158.828972676033
 21
2335.897118298182
 72
     1
 10
6158.828972676033
 20
2335.897118298182
 11
6158.829679782814
 21
2335.897825404964
 97
        0
 75
     0
 76
     1
 52
-0.0000000000000127
 41
0.00025
 77
     0
 78
     1
 53
360.0
 43
6158.824034258623
 44
2335.898521181686
 45
-0.0000000000000002
 46
0.00079375
 79
     0
 98
        1
 10
6158.824034258623
 20
2335.898521181686
  0
LINE
  5
1C7A
330
1F
100
AcDbEntity
  8
SANINDUSA
100
AcDbLine
 10
6158.839758876015
 20
2335.895521185496
 30
0.0000000001557791
 11
6159.639758876015
 21
2335.895521185496
 31
0.0000000001557791
  0
LINE
  5
1C7B
330
1F
100
AcDbEntity
  8
SANINDUSA
100
AcDbLine
 10
6158.839758876015
 20
2335.889521185496
 30
0.0000000001553315
 11
6159.639758876015
 21
2335.889521185496
 31
0.0000000001553315
  0
LINE
  5
1C7C
330
1F
100
AcDbEntity
  8
SANINDUSA
100
AcDbLine
 10
6160.331422896715
 20
2335.895521189305
 30
0.0000000001479285
 11
6159.642422896715
 21
2335.895521189305
 31
0.0000000001479285
  0
LINE
  5
1C7D
330
1F
100
AcDbEntity
  8
SANINDUSA
100
AcDbLine
 10
6160.331422896715
 20
2335.889521189306
 30
0.0000000001479285
 11
6159.642422896715
 21
2335.889521189306
 31
0.0000000001479285
  0
LINE
  5
1C7E
330
1F
100
AcDbEntity
  8
SANINDUSA
100
AcDbLine
 10
6159.639758876015
 20
2335.889521189306
 30
0.0000000001479285
 11
6159.639758876015
 21
2335.895521189305
 31
0.0000000001479285
  0
ARC
  5
2099
330
1F
100
AcDbEntity
  8
SANINDUSA
100
AcDbCircle
 10
6161.506363612399
 20
2336.810599576614
 30
-0.0000000017937957
 40
0.001
100
AcDbArc
 50
0.0
 51
90.0
  0
LINE
  5
209A
330
1F
100
AcDbEntity
  8
SANINDUSA
100
AcDbLine
 10
6161.431363612399
 20
2336.811599576614
 30
-0.0000000017937957
 11
6161.372363612398
 21
2336.811599576614
 31
-0.0000000017937957
  0
ARC
  5
209B
330
1F
100
AcDbEntity
  8
SANINDUSA
100
AcDbCircle
 10
6161.372363612398
 20
2336.810599576614
 30
-0.0000000017937957
 40
0.001
100
AcDbArc
 50
90.0
 51
180.0
  0
ARC
  5
209C
330
1F
100
AcDbEntity
  8
SANINDUSA
100
AcDbCircle
 10
6161.432363612399
 20
2336.817099576614
 30
-0.0000000017937957
 40
0.001
100
AcDbArc
 50
90.0
 51
180.0
  0
LINE
  5
209D
330
1F
100
AcDbEntity
  8
SANINDUSA
100
AcDbLine
 10
6161.431363612399
 20
2336.817099576614
 30
-0.0000000017937957
 11
6161.431363612399
 21
2336.811599576614
 31
-0.0000000017937957
  0
LINE
  5
209E
330
1F
100
AcDbEntity
  8
SANINDUSA
100
AcDbLine
 10
6161.431863612399
 20
2336.796099576615
 30
-0.0000000017937957
 11
6161.431863612399
 21
2336.792099576614
 31
-0.0000000017937957
  0
LINE
  5
209F
330
1F
100
AcDbEntity
  8
SANINDUSA
100
AcDbLine
 10
6161.431363612399
 20
2336.811599576614
 30
-0.0000000017937957
 11
6161.431363612399
 21
2336.796099576615
 31
-0.0000000017937957
  0
ARC
  5
20A0
330
1F
100
AcDbEntity
  8
SANINDUSA
100
AcDbCircle
 10
6161.446363612399
 20
2336.817099576614
 30
-0.0000000017937957
 40
0.001
100
AcDbArc
 50
0.0
 51
90.0
  0
LINE
  5
20A1
330
1F
100
AcDbEntity
  8
SANINDUSA
100
AcDbLine
 10
6161.446363612399
 20
2336.818099576614
 30
-0.0000000017937957
 11
6161.432363612399
 21
2336.818099576614
 31
-0.0000000017937957
  0
LINE
  5
20A2
330
1F
100
AcDbEntity
  8
SANINDUSA
100
AcDbLine
 10
6161.4468636124
 20
2336.796099576615
 30
-0.0000000017937957
 11
6161.4468636124
 21
2336.792099576614
 31
-0.0000000017937957
  0
LINE
  5
20A3
330
1F
100
AcDbEntity
  8
SANINDUSA
100
AcDbLine
 10
6161.447363612399
 20
2336.792099576614
 30
-0.0000000017937957
 11
6161.448252501288
 21
2336.792099576614
 31
-0.0000000017937957
  0
LINE
  5
20A4
330
1F
100
AcDbEntity
  8
SANINDUSA
100
AcDbLine
 10
6161.43047472351
 20
2336.796099576615
 30
-0.0000000017937957
 11
6161.447363612399
 21
2336.796099576615
 31
-0.0000000017937957
  0
LINE
  5
20A5
330
1F
100
AcDbEntity
  8
SANINDUSA
100
AcDbLine
 10
6161.447363612399
 20
2336.792099576614
 30
-0.0000000017937957
 11
6161.431363612399
 21
2336.792099576614
 31
-0.0000000017937957
  0
LINE
  5
20A6
330
1F
100
AcDbEntity
  8
SANINDUSA
100
AcDbLine
 10
6161.447363612399
 20
2336.796099576615
 30
-0.0000000017937957
 11
6161.447363612399
 21
2336.817099576614
 31
-0.0000000017937957
  0
LINE
  5
20A7
330
1F
100
AcDbEntity
  8
SANINDUSA
100
AcDbLine
 10
6161.448252501288
 20
2336.792099576614
 30
-0.0000000017937957
 11
6161.448252501288
 21
2336.811599576614
 31
-0.0000000017937957
  0
LINE
  5
20A8
330
1F
100
AcDbEntity
  8
SANINDUSA
100
AcDbLine
 10
6161.448252501288
 20
2336.811599576614
 30
-0.0000000017937957
 11
6161.506363612399
 21
2336.811599576614
 31
-0.0000000017937957
  0
ARC
  5
20A9
330
1F
100
AcDbEntity
  8
SANINDUSA
100
AcDbCircle
 10
6161.506363612399
 20
2336.777599576614
 30
-0.0000000017937957
 40
0.001
100
AcDbArc
 50
270.0
 51
0.0
  0
ARC
  5
20AA
330
1F
100
AcDbEntity
  8
SANINDUSA
100
AcDbCircle
 10
6161.432363612399
 20
2336.771099576614
 30
-0.0000000017937957
 40
0.001
100
AcDbArc
 50
180.0
 51
270.0
  0
ARC
  5
20AB
330
1F
100
AcDbEntity
  8
SANINDUSA
100
AcDbCircle
 10
6161.446363612399
 20
2336.771099576614
 30
-0.0000000017937957
 40
0.001
100
AcDbArc
 50
270.0
 51
0.0
  0
LINE
  5
20AC
330
1F
100
AcDbEntity
  8
SANINDUSA
100
AcDbLine
 10
6161.432363612399
 20
2336.770099576614
 30
-0.0000000017937957
 11
6161.446363612399
 21
2336.770099576614
 31
-0.0000000017937957
  0
LINE
  5
20AD
330
1F
100
AcDbEntity
  8
SANINDUSA
100
AcDbLine
 10
6161.372363612398
 20
2336.776599576614
 30
-0.0000000017937957
 11
6161.43047472351
 21
2336.776599576614
 31
-0.0000000017937957
  0
ARC
  5
20AE
330
1F
100
AcDbEntity
  8
SANINDUSA
100
AcDbCircle
 10
6161.372363612398
 20
2336.777599576614
 30
-0.0000000017937957
 40
0.001
100
AcDbArc
 50
180.0
 51
270.0
  0
LINE
  5
20AF
330
1F
100
AcDbEntity
  8
SANINDUSA
100
AcDbLine
 10
6161.506363612399
 20
2336.776599576614
 30
-0.0000000017937957
 11
6161.447363612399
 21
2336.776599576614
 31
-0.0000000017937957
  0
LINE
  5
20B0
330
1F
100
AcDbEntity
  8
SANINDUSA
100
AcDbLine
 10
6161.431363612399
 20
2336.792099576614
 30
-0.0000000017937957
 11
6161.431363612399
 21
2336.771099576614
 31
-0.0000000017937957
  0
LINE
  5
20B1
330
1F
100
AcDbEntity
  8
SANINDUSA
100
AcDbLine
 10
6161.447363612399
 20
2336.771099576614
 30
-0.0000000017937957
 11
6161.447363612399
 21
2336.792099576614
 31
-0.0000000017937957
  0
LINE
  5
20B2
330
1F
100
AcDbEntity
  8
SANINDUSA
100
AcDbLine
 10
6161.371363612399
 20
2336.810599576614
 30
-0.0000000017937957
 11
6161.371363612399
 21
2336.777599576614
 31
-0.0000000017937957
  0
LINE
  5
20B3
330
1F
100
AcDbEntity
  8
SANINDUSA
100
AcDbLine
 10
6161.43047472351
 20
2336.776599576614
 30
-0.0000000017937957
 11
6161.43047472351
 21
2336.796099576615
 31
-0.0000000017937957
  0
LINE
  5
20B4
330
1F
100
AcDbEntity
  8
SANINDUSA
100
AcDbLine
 10
6161.507363612399
 20
2336.810599576614
 30
-0.0000000017937957
 11
6161.507363612399
 21
2336.777599576614
 31
-0.0000000017937957
  0
ARC
  5
20B6
330
1F
100
AcDbEntity
  8
SANINDUSA
100
AcDbCircle
 10
6161.506363612399
 20
2335.550599576624
 30
-0.0000000017937957
 40
0.001
100
AcDbArc
 50
0.0
 51
90.0
  0
LINE
  5
20B7
330
1F
100
AcDbEntity
  8
SANINDUSA
100
AcDbLine
 10
6161.507363612399
 20
2335.550599576624
 30
-0.0000000017937957
 11
6161.507363612399
 21
2335.517599576624
 31
-0.0000000017937957
  0
ARC
  5
20B8
330
1F
100
AcDbEntity
  8
SANINDUSA
100
AcDbCircle
 10
6161.506363612399
 20
2335.517599576624
 30
-0.0000000017937957
 40
0.001
100
AcDbArc
 50
270.0
 51
0.0
  0
ARC
  5
20B9
330
1F
100
AcDbEntity
  8
SANINDUSA
100
AcDbCircle
 10
6161.432363612399
 20
2335.557099576624
 30
-0.0000000017937957
 40
0.001
100
AcDbArc
 50
90.0
 51
180.0
  0
ARC
  5
20BA
330
1F
100
AcDbEntity
  8
SANINDUSA
100
AcDbCircle
 10
6161.446363612399
 20
2335.557099576624
 30
-0.0000000017937957
 40
0.001
100
AcDbArc
 50
0.0
 51
90.0
  0
LINE
  5
20BB
330
1F
100
AcDbEntity
  8
SANINDUSA
100
AcDbLine
 10
6161.431363612399
 20
2335.551599576624
 30
-0.0000000017937957
 11
6161.372363612398
 21
2335.551599576624
 31
-0.0000000017937957
  0
LINE
  5
20BC
330
1F
100
AcDbEntity
  8
SANINDUSA
100
AcDbLine
 10
6161.372363612398
 20
2335.516599576624
 30
-0.0000000017937957
 11
6161.43047472351
 21
2335.516599576624
 31
-0.0000000017937957
  0
ARC
  5
20BD
330
1F
100
AcDbEntity
  8
SANINDUSA
100
AcDbCircle
 10
6161.372363612398
 20
2335.550599576624
 30
-0.0000000017937957
 40
0.001
100
AcDbArc
 50
90.0
 51
180.0
  0
ARC
  5
20BE
330
1F
100
AcDbEntity
  8
SANINDUSA
100
AcDbCircle
 10
6161.372363612398
 20
2335.517599576624
 30
-0.0000000017937957
 40
0.001
100
AcDbArc
 50
180.0
 51
270.0
  0
LINE
  5
20BF
330
1F
100
AcDbEntity
  8
SANINDUSA
100
AcDbLine
 10
6161.371363612399
 20
2335.550599576624
 30
-0.0000000017937957
 11
6161.371363612399
 21
2335.517599576624
 31
-0.0000000017937957
  0
LINE
  5
20C0
330
1F
100
AcDbEntity
  8
SANINDUSA
100
AcDbLine
 10
6161.431363612399
 20
2335.557099576624
 30
-0.0000000017937957
 11
6161.431363612399
 21
2335.551599576624
 31
-0.0000000017937957
  0
LINE
  5
20C1
330
1F
100
AcDbEntity
  8
SANINDUSA
100
AcDbLine
 10
6161.431363612399
 20
2335.532099576624
 30
-0.0000000017937957
 11
6161.431363612399
 21
2335.511099576624
 31
-0.0000000017937957
  0
LINE
  5
20C2
330
1F
100
AcDbEntity
  8
SANINDUSA
100
AcDbLine
 10
6161.43047472351
 20
2335.516599576624
 30
-0.0000000017937957
 11
6161.43047472351
 21
2335.536099576624
 31
-0.0000000017937957
  0
ARC
  5
20C3
330
1F
100
AcDbEntity
  8
SANINDUSA
100
AcDbCircle
 10
6161.432363612399
 20
2335.511099576624
 30
-0.0000000017937957
 40
0.001
100
AcDbArc
 50
180.0
 51
270.0
  0
LINE
  5
20C4
330
1F
100
AcDbEntity
  8
SANINDUSA
100
AcDbLine
 10
6161.431863612399
 20
2335.536099576624
 30
-0.0000000017937957
 11
6161.431863612399
 21
2335.532099576624
 31
-0.0000000017937957
  0
LINE
  5
20C5
330
1F
100
AcDbEntity
  8
SANINDUSA
100
AcDbLine
 10
6161.431363612399
 20
2335.551599576624
 30
-0.0000000017937957
 11
6161.431363612399
 21
2335.536099576624
 31
-0.0000000017937957
  0
LINE
  5
20C6
330
1F
100
AcDbEntity
  8
SANINDUSA
100
AcDbLine
 10
6161.446363612399
 20
2335.558099576624
 30
-0.0000000017937957
 11
6161.432363612399
 21
2335.558099576624
 31
-0.0000000017937957
  0
LINE
  5
20C7
330
1F
100
AcDbEntity
  8
SANINDUSA
100
AcDbLine
 10
6161.447363612399
 20
2335.511099576624
 30
-0.0000000017937957
 11
6161.447363612399
 21
2335.532099576624
 31
-0.0000000017937957
  0
ARC
  5
20C8
330
1F
100
AcDbEntity
  8
SANINDUSA
100
AcDbCircle
 10
6161.446363612399
 20
2335.511099576624
 30
-0.0000000017937957
 40
0.001
100
AcDbArc
 50
270.0
 51
0.0
  0
LINE
  5
20C9
330
1F
100
AcDbEntity
  8
SANINDUSA
100
AcDbLine
 10
6161.4468636124
 20
2335.536099576624
 30
-0.0000000017937957
 11
6161.4468636124
 21
2335.532099576624
 31
-0.0000000017937957
  0
LINE
  5
20CA
330
1F
100
AcDbEntity
  8
SANINDUSA
100
AcDbLine
 10
6161.447363612399
 20
2335.532099576624
 30
-0.0000000017937957
 11
6161.448252501288
 21
2335.532099576624
 31
-0.0000000017937957
  0
LINE
  5
20CB
330
1F
100
AcDbEntity
  8
SANINDUSA
100
AcDbLine
 10
6161.432363612399
 20
2335.510099576624
 30
-0.0000000017937957
 11
6161.446363612399
 21
2335.510099576624
 31
-0.0000000017937957
  0
LINE
  5
20CC
330
1F
100
AcDbEntity
  8
SANINDUSA
100
AcDbLine
 10
6161.43047472351
 20
2335.536099576624
 30
-0.0000000017937957
 11
6161.447363612399
 21
2335.536099576624
 31
-0.0000000017937957
  0
LINE
  5
20CD
330
1F
100
AcDbEntity
  8
SANINDUSA
100
AcDbLine
 10
6161.447363612399
 20
2335.532099576624
 30
-0.0000000017937957
 11
6161.431363612399
 21
2335.532099576624
 31
-0.0000000017937957
  0
LINE
  5
20CE
330
1F
100
AcDbEntity
  8
SANINDUSA
100
AcDbLine
 10
6161.447363612399
 20
2335.536099576624
 30
-0.0000000017937957
 11
6161.447363612399
 21
2335.557099576624
 31
-0.0000000017937957
  0
LINE
  5
20CF
330
1F
100
AcDbEntity
  8
SANINDUSA
100
AcDbLine
 10
6161.448252501288
 20
2335.532099576624
 30
-0.0000000017937957
 11
6161.448252501288
 21
2335.551599576624
 31
-0.0000000017937957
  0
LINE
  5
20D0
330
1F
100
AcDbEntity
  8
SANINDUSA
100
AcDbLine
 10
6161.448252501288
 20
2335.551599576624
 30
-0.0000000017937957
 11
6161.506363612399
 21
2335.551599576624
 31
-0.0000000017937957
  0
LINE
  5
20D1
330
1F
100
AcDbEntity
  8
SANINDUSA
100
AcDbLine
 10
6161.506363612399
 20
2335.516599576624
 30
-0.0000000017937957
 11
6161.447363612399
 21
2335.516599576624
 31
-0.0000000017937957
  0
LINE
  5
20D7
330
1F
100
AcDbEntity
  8
SANINDUSA
100
AcDbLine
 10
6161.2378636124
 20
2337.089099576624
 30
0.0
 11
6160.597422747787
 21
2337.089099576624
 31
0.0
  0
LINE
  5
20D8
330
1F
100
AcDbEntity
  8
SANINDUSA
100
AcDbLine
 10
6161.437863612399
 20
2335.249099576624
 30
0.0
 11
6160.613459389614
 21
2335.249099576624
 31
0.0
  0
LINE
  5
20DA
330
1F
100
AcDbEntity
  8
SANINDUSA
100
AcDbLine
 10
6162.173746400526
 20
2335.239099576624
 30
0.0
 11
6160.573422747787
 21
2335.239099576624
 31
0.0
  0
LINE
  5
20DB
330
1F
100
AcDbEntity
  8
SANINDUSA
100
AcDbLine
 10
6160.623710356067
 20
2335.249099576624
 30
0.0
 11
6160.623710356067
 21
2337.089099576624
 31
0.0
  0
LINE
  5
20DC
330
1F
100
AcDbEntity
  8
SANINDUSA
100
AcDbLine
 10
6160.591722747787
 20
2335.249099576624
 30
0.0
 11
6160.591722747787
 21
2337.089099576624
 31
0.0
  0
LINE
  5
20DD
330
1F
100
AcDbEntity
  8
SANINDUSA
100
AcDbLine
 10
6160.585722747786
 20
2335.249099576624
 30
0.0
 11
6160.585722747786
 21
2337.089099576624
 31
0.0
  0
LINE
  5
20DE
330
1F
100
AcDbEntity
  8
SANINDUSA
100
AcDbLine
 10
6160.573422747787
 20
2335.239099576624
 30
0.0
 11
6160.573422747787
 21
2337.089099576624
 31
0.0
  0
LINE
  5
20DF
330
1F
100
AcDbEntity
  8
SANINDUSA
100
AcDbLine
 10
6160.613124414144
 20
2335.239099576624
 30
0.0
 11
6160.613124414144
 21
2337.089099576624
 31
0.0
  0
LINE
  5
20E4
330
1F
100
AcDbEntity
  8
SANINDUSA
100
AcDbLine
 10
6160.591722747787
 20
2335.249099576624
 30
0.0
 11
6160.585722747786
 21
2335.249099576624
 31
0.0
  0
LINE
  5
20E5
330
1F
100
AcDbEntity
  8
SANINDUSA
100
AcDbLine
 10
6160.597422747787
 20
2337.089099576624
 30
0.0
 11
6160.573422747787
 21
2337.089099576624
 31
0.0
  0
LINE
  5
20E6
330
1F
100
AcDbEntity
  8
SANINDUSA
100
AcDbLine
 10
6161.437863612399
 20
2335.558099576624
 30
0.0
 11
6161.437863612399
 21
2336.770099576614
 31
0.0
  0
LINE
  5
20E7
330
1F
100
AcDbEntity
  8
SANINDUSA
100
AcDbLine
 10
6161.440863612399
 20
2335.558099576624
 30
0.0
 11
6161.440863612399
 21
2336.770099576614
 31
0.0
  0
LINE
  5
20E8
330
1F
100
AcDbEntity
  8
SANINDUSA
100
AcDbLine
 10
6162.118896400527
 20
2335.239099576624
 30
0.0
 11
6162.118896400527
 21
2337.089099576624
 31
0.0
  0
LINE
  5
20E9
330
1F
100
AcDbEntity
  8
SANINDUSA
100
AcDbLine
 10
6162.173746400526
 20
2335.239099576624
 30
0.0
 11
6162.173746400526
 21
2337.089099576624
 31
0.0
  0
LINE
  5
20EE
330
1F
100
AcDbEntity
  8
SANINDUSA
100
AcDbLine
 10
6161.440863612399
 20
2335.239099576624
 30
0.0
 11
6161.440863612399
 21
2335.510099576624
 31
0.0
  0
LINE
  5
20EF
330
1F
100
AcDbEntity
  8
SANINDUSA
100
AcDbLine
 10
6161.437863612399
 20
2335.249099576624
 30
0.0
 11
6161.437863612399
 21
2335.510099576624
 31
0.0
  0
LINE
  5
20F1
330
1F
100
AcDbEntity
  8
SANINDUSA
100
AcDbLine
 10
6162.173746400526
 20
2337.089099576624
 30
0.0
 11
6161.240863612399
 21
2337.089099576624
 31
0.0
  0
LINE
  5
20F2
330
1F
100
AcDbEntity
  8
SANINDUSA
100
AcDbLine
 10
6161.440863612399
 20
2336.818099576614
 30
0.0
 11
6161.440863612399
 21
2337.089099576624
 31
0.0
  0
LINE
  5
20F3
330
1F
100
AcDbEntity
  8
SANINDUSA
100
AcDbLine
 10
6161.437863612399
 20
2336.818099576614
 30
0.0
 11
6161.437863612399
 21
2337.089099576624
 31
0.0
  0
LINE
  5
20F4
330
1F
100
AcDbEntity
  8
SANINDUSA
100
AcDbLine
 10
6160.575753432821
 20
2337.089099576624
 30
0.0
 11
6160.575753432821
 21
2335.23886040498
 31
0.0
  0
LINE
  5
20F5
330
1F
100
AcDbEntity
  8
SANINDUSA
100
AcDbLine
 10
6160.649710356067
 20
2337.089099576624
 30
0.0000000001555553
 11
6160.649710356067
 21
2335.249099576624
 31
0.0000000001555553
  0
ARC
  5
221E
330
1F
100
AcDbEntity
  8
SANINDUSA
100
AcDbCircle
 10
6158.779149720475
 20
2335.900221181686
 30
0.0
 40
0.0009999999999999
100
AcDbArc
 50
90.0
 51
180.0
  0
LINE
  5
221F
330
1F
100
AcDbEntity
  8
SANINDUSA
100
AcDbLine
 10
6158.778149720475
 20
2335.899235395249
 30
0.0
 11
6158.778149720475
 21
2335.900221181686
 31
0.0
  0
LINE
  5
2220
330
1F
100
AcDbEntity
  8
SANINDUSA
100
AcDbLine
 10
6158.779149720475
 20
2335.901221181686
 30
0.0
 11
6158.814173024607
 21
2335.901221181686
 31
0.0
  0
ARC
  5
2221
330
1F
100
AcDbEntity
  8
SANINDUSA
100
AcDbCircle
 10
6158.779149720475
 20
2335.899235395249
 30
0.0
 40
0.0010000000000003
100
AcDbArc
 50
180.0
 51
225.0
  0
ARC
  5
2222
330
1F
100
AcDbEntity
  8
SANINDUSA
100
AcDbCircle
 10
6158.814173024607
 20
2335.900221181686
 30
0.0
 40
0.001
100
AcDbArc
 50
270.0
 51
90.0
  0
LINE
  5
2223
330
1F
100
AcDbEntity
  8
SANINDUSA
100
AcDbLine
 10
6158.779356827256
 20
2335.897614074905
 30
0.0
 11
6158.778442613694
 21
2335.898528288467
 31
0.0
  0
LINE
  5
2224
330
1F
100
AcDbEntity
  8
SANINDUSA
100
AcDbLine
 10
6158.814173024607
 20
2335.899221181686
 30
0.0
 11
6158.782649720475
 21
2335.899221181686
 31
0.0
  0
ARC
  5
2225
330
1F
100
AcDbEntity
  8
SANINDUSA
100
AcDbCircle
 10
6158.778649720475
 20
2335.896906968124
 30
0.0
 40
0.0010000000000003
100
AcDbArc
 50
0.0
 51
45.0
  0
ARC
  5
2226
330
1F
100
AcDbEntity
  8
SANINDUSA
100
AcDbCircle
 10
6158.782649720475
 20
2335.898221181686
 30
0.0
 40
0.001
100
AcDbArc
 50
90.0
 51
180.0
  0
LINE
  5
2227
330
1F
100
AcDbEntity
  8
SANINDUSA
100
AcDbLine
 10
6158.779649720475
 20
2335.893531841858
 30
0.0
 11
6158.779649720475
 21
2335.896906968124
 31
0.0
  0
LINE
  5
2228
330
1F
100
AcDbEntity
  8
SANINDUSA
100
AcDbLine
 10
6158.781649720475
 20
2335.898221181686
 30
0.0
 11
6158.781649720475
 21
2335.880361995409
 31
0.0
  0
ARC
  5
2229
330
1F
100
AcDbEntity
  8
SANINDUSA
100
AcDbCircle
 10
6158.779899720475
 20
2335.893531841858
 30
0.0
 40
0.0002500000000003
100
AcDbArc
 50
180.0
 51
225.0
  0
ARC
  5
222A
330
1F
100
AcDbEntity
  8
SANINDUSA
100
AcDbCircle
 10
6158.782649720475
 20
2335.880361995409
 30
0.0
 40
0.001
100
AcDbArc
 50
180.0
 51
272.1494579411624
  0
LINE
  5
222B
330
1F
100
AcDbEntity
  8
SANINDUSA
100
AcDbLine
 10
6158.780203273866
 20
2335.892874735077
 30
0.0
 11
6158.77972294378
 21
2335.893355065163
 31
0.0
  0
ARC
  5
222C
330
1F
100
AcDbEntity
  8
SANINDUSA
100
AcDbCircle
 10
6158.779059612037
 20
2335.976014741331
 30
0.0
 40
0.0967200954923435
100
AcDbArc
 50
272.1494579411624
 51
285.5601696204736
  0
ARC
  5
222D
330
1F
100
AcDbEntity
  8
SANINDUSA
100
AcDbCircle
 10
6158.779849720475
 20
2335.892521181686
 30
0.0
 40
0.0005
100
AcDbArc
 50
315.0
 51
45.0
  0
ARC
  5
222E
330
1F
100
AcDbEntity
  8
SANINDUSA
100
AcDbCircle
 10
6158.804870671234
 20
2335.883321181686
 30
0.0
 40
0.0005
100
AcDbArc
 50
285.5601696204736
 51
90.0
  0
LINE
  5
222F
330
1F
100
AcDbEntity
  8
SANINDUSA
100
AcDbLine
 10
6158.77972294378
 20
2335.89168729821
 30
0.0
 11
6158.780203273866
 21
2335.892167628296
 31
0.0
  0
LINE
  5
2230
330
1F
100
AcDbEntity
  8
SANINDUSA
100
AcDbLine
 10
6158.804870671234
 20
2335.883821181687
 30
0.0
 11
6158.792173024608
 21
2335.883821181687
 31
0.0
  0
ARC
  5
2231
330
1F
100
AcDbEntity
  8
SANINDUSA
100
AcDbCircle
 10
6158.779899720475
 20
2335.891510521515
 30
0.0
 40
0.00025
100
AcDbArc
 50
135.0
 51
180.0
  0
ARC
  5
2232
330
1F
100
AcDbEntity
  8
SANINDUSA
100
AcDbCircle
 10
6158.792173024608
 20
2335.884821181686
 30
0.0
 40
0.001
100
AcDbArc
 50
90.0
 51
270.0
  0
LINE
  5
2233
330
1F
100
AcDbEntity
  8
SANINDUSA
100
AcDbLine
 10
6158.779649720475
 20
2335.881321158025
 30
0.0
 11
6158.779649720475
 21
2335.891510521515
 31
0.0
  0
LINE
  5
2234
330
1F
100
AcDbEntity
  8
SANINDUSA
100
AcDbLine
 10
6158.792173024608
 20
2335.885821181687
 30
0.0
 11
6158.814173024607
 21
2335.885821181687
 31
0.0
  0
ARC
  5
2235
330
1F
100
AcDbEntity
  8
SANINDUSA
100
AcDbCircle
 10
6158.778649720475
 20
2335.881321158025
 30
0.0
 40
0.0010000000000003
100
AcDbArc
 50
314.9106959289493
 51
0.0
  0
ARC
  5
2236
330
1F
100
AcDbEntity
  8
SANINDUSA
100
AcDbCircle
 10
6158.814173024607
 20
2335.884821181686
 30
0.0
 40
0.001
100
AcDbArc
 50
291.0588352713053
 51
90.0
  0
LINE
  5
2237
330
1F
100
AcDbEntity
  8
SANINDUSA
100
AcDbLine
 10
6158.778449285155
 20
2335.879709332107
 30
0.0
 11
6158.779355724266
 21
2335.880612949971
 31
0.0
  0
ARC
  5
2238
330
1F
100
AcDbEntity
  8
SANINDUSA
100
AcDbCircle
 10
6158.779059612037
 20
2335.976014741331
 30
0.0
 40
0.0987200954923432
100
AcDbArc
 50
270.0522365823832
 51
291.0588352713053
  0
ARC
  5
2239
330
1F
100
AcDbEntity
  8
SANINDUSA
100
AcDbCircle
 10
6158.779155288946
 20
2335.879001124053
 30
0.0
 40
0.0010000000000003
100
AcDbArc
 50
134.9106959289492
 51
179.4659008829362
  0
ARC
  5
223A
330
1F
100
AcDbEntity
  8
SANINDUSA
100
AcDbCircle
 10
6158.779148703494
 20
2335.878294686451
 30
0.0
 40
0.001
100
AcDbArc
 50
179.4659008829362
 51
270.0522365823832
  0
LINE
  5
223B
330
1F
100
AcDbEntity
  8
SANINDUSA
100
AcDbLine
 10
6158.778148746941
 20
2335.878304008105
 30
0.0
 11
6158.778155332393
 21
2335.879010445707
 31
0.0
  0
ARC
  5
223E
330
1F
100
AcDbEntity
  8
SANINDUSA
100
AcDbCircle
 10
6158.82129907423
 20
2335.888521181686
 30
0.0000000001555553
 40
0.0019999999999982
100
AcDbArc
 50
270.0
 51
315.000000073695
  0
LINE
  5
223F
330
1F
100
AcDbEntity
  8
SANINDUSA
100
AcDbLine
 10
6158.822713287793
 20
2335.887106968125
 30
0.0000000001555553
 11
6158.831060778978
 21
2335.89545445931
 31
0.0000000001555553
  0
ARC
  5
2240
330
1F
100
AcDbEntity
  8
SANINDUSA
100
AcDbCircle
 10
6158.829646565415
 20
2335.896868672871
 30
0.0000000001555553
 40
0.0020000000000003
100
AcDbArc
 50
315.000000073695
 51
45.00000036847482
  0
LINE
  5
2241
330
1F
100
AcDbEntity
  8
SANINDUSA
100
AcDbLine
 10
6158.831060778967
 20
2335.898282886442
 30
0.0000000001555553
 11
6158.828708270142
 21
2335.900635395253
 31
0.0000000001555553
  0
ARC
  5
2242
330
1F
100
AcDbEntity
  8
SANINDUSA
100
AcDbCircle
 10
6158.827294056585
 20
2335.899221181686
 30
0.0000000001555553
 40
0.002000000000001
100
AcDbArc
 50
45.00000016581366
 51
90.0
  0
LINE
  5
2243
330
1F
100
AcDbEntity
  8
SANINDUSA
100
AcDbLine
 10
6158.827294056585
 20
2335.901221181686
 30
0.0000000001555553
 11
6158.821873024606
 21
2335.901221181686
 31
0.0000000001555553
  0
ARC
  5
2244
330
1F
100
AcDbEntity
  8
SANINDUSA
100
AcDbCircle
 10
6158.821873024606
 20
2335.900221181686
 30
0.0000000001555553
 40
0.001
100
AcDbArc
 50
90.0
 51
180.0
  0
ARC
  5
2245
330
1F
100
AcDbEntity
  8
SANINDUSA
100
AcDbCircle
 10
6158.819173024607
 20
2335.900221181686
 30
0.0000000001555553
 40
0.0016999999999989
100
AcDbArc
 50
270.0
 51
0.0
  0
LINE
  5
2246
330
1F
100
AcDbEntity
  8
SANINDUSA
100
AcDbLine
 10
6158.819173024607
 20
2335.898521181686
 30
0.0000000001555553
 11
6158.788449720475
 21
2335.898521181686
 31
0.0000000001555553
  0
ARC
  5
2247
330
1F
100
AcDbEntity
  8
SANINDUSA
100
AcDbCircle
 10
6158.788449720475
 20
2335.897221181686
 30
0.0000000001555553
 40
0.0013000000000002
100
AcDbArc
 50
90.0
 51
180.0
  0
LINE
  5
2248
330
1F
100
AcDbEntity
  8
SANINDUSA
100
AcDbLine
 10
6158.787149720475
 20
2335.897221181686
 30
0.0000000001555553
 11
6158.787149720475
 21
2335.887821181687
 31
0.0000000001555553
  0
ARC
  5
2249
330
1F
100
AcDbEntity
  8
SANINDUSA
100
AcDbCircle
 10
6158.788449720475
 20
2335.887821181687
 30
0.0000000001555553
 40
0.0013000000000002
100
AcDbArc
 50
180.0
 51
270.0
  0
LINE
  5
224A
330
1F
100
AcDbEntity
  8
SANINDUSA
100
AcDbLine
 10
6158.788449720475
 20
2335.886521181687
 30
0.0000000001555553
 11
6158.82129907423
 21
2335.886521181687
 31
0.0000000001555553
  0
ARC
  5
224B
330
1F
100
AcDbEntity
  8
SANINDUSA
100
AcDbCircle
 10
6158.822157986918
 20
2335.899921181686
 30
0.0000000001555553
 40
0.0002999999999992
100
AcDbArc
 50
90.0
 51
174.2608295133397
  0
ARC
  5
224C
330
1F
100
AcDbEntity
  8
SANINDUSA
100
AcDbCircle
 10
6158.822157986918
 20
2335.899921181686
 30
0.0000000001555553
 40
0.0002999999999993
100
AcDbArc
 50
90.0
 51
174.2608295133397
  0
ARC
  5
224D
330
1F
100
AcDbEntity
  8
SANINDUSA
100
AcDbCircle
 10
6158.819173024607
 20
2335.900221181686
 30
0.0000000001555553
 40
0.0027000000000004
100
AcDbArc
 50
270.0
 51
354.2608295133397
  0
LINE
  5
224E
330
1F
100
AcDbEntity
  8
SANINDUSA
100
AcDbLine
 10
6158.819173024607
 20
2335.897521181687
 30
0.0000000001555553
 11
6158.788449720475
 21
2335.897521181687
 31
0.0000000001555553
  0
ARC
  5
224F
330
1F
100
AcDbEntity
  8
SANINDUSA
100
AcDbCircle
 10
6158.788449720475
 20
2335.897221181686
 30
0.0000000001555553
 40
0.0003000000000006
100
AcDbArc
 50
90.0
 51
180.0
  0
LINE
  5
2250
330
1F
100
AcDbEntity
  8
SANINDUSA
100
AcDbLine
 10
6158.788149720475
 20
2335.897221181686
 30
0.0000000001555553
 11
6158.788149720475
 21
2335.887821181687
 31
0.0000000001555553
  0
ARC
  5
2251
330
1F
100
AcDbEntity
  8
SANINDUSA
100
AcDbCircle
 10
6158.788449720475
 20
2335.887821181687
 30
0.0000000001555553
 40
0.0003000000000002
100
AcDbArc
 50
180.0
 51
270.0
  0
LINE
  5
2252
330
1F
100
AcDbEntity
  8
SANINDUSA
100
AcDbLine
 10
6158.788449720475
 20
2335.887521181686
 30
0.0000000001555553
 11
6158.821506181012
 21
2335.887521181686
 31
0.0000000001555553
  0
ARC
  5
2253
330
1F
100
AcDbEntity
  8
SANINDUSA
100
AcDbCircle
 10
6158.821506181012
 20
2335.888021181686
 30
0.0000000001555553
 40
0.0005000000000009
100
AcDbArc
 50
270.0
 51
315.000000073695
  0
LINE
  5
2254
330
1F
100
AcDbEntity
  8
SANINDUSA
100
AcDbLine
 10
6158.821859734403
 20
2335.887667628296
 30
0.0000000001555553
 11
6158.824626107257
 21
2335.890434001157
 31
0.0000000001555553
  0
ARC
  5
2255
330
1F
100
AcDbEntity
  8
SANINDUSA
100
AcDbCircle
 10
6158.824272553868
 20
2335.890787554545
 30
0.0000000001555553
 40
0.0004999999977743
100
AcDbArc
 50
315.0000000921187
 51
44.99999955783022
  0
LINE
  5
2256
330
1F
100
AcDbEntity
  8
SANINDUSA
100
AcDbLine
 10
6158.824626107259
 20
2335.891141107931
 30
0.0000000001555553
 11
6158.823211893704
 21
2335.892555321514
 31
0.0000000001555553
  0
ARC
  5
2257
330
1F
100
AcDbEntity
  8
SANINDUSA
100
AcDbCircle
 10
6158.824272553875
 20
2335.893615981686
 30
0.0000000001555553
 40
0.0014999999999996
100
AcDbArc
 50
135.0
 51
225.0000000552712
  0
LINE
  5
2258
330
1F
100
AcDbEntity
  8
SANINDUSA
100
AcDbLine
 10
6158.823211893703
 20
2335.894676641858
 30
0.0000000001555553
 11
6158.824198526918
 21
2335.89566327506
 31
0.0000000001555553
  0
ARC
  5
2259
330
1F
100
AcDbEntity
  8
SANINDUSA
100
AcDbCircle
 10
6158.824552080309
 20
2335.895309721669
 30
0.0000000001555553
 40
0.0005000000000001
100
AcDbArc
 50
315.0
 51
135.0
  0
LINE
  5
225A
330
1F
100
AcDbEntity
  8
SANINDUSA
100
AcDbLine
 10
6158.8249056337
 20
2335.894956168279
 30
0.0000000001555553
 11
6158.823919000484
 21
2335.893969535064
 31
0.0000000001555553
  0
ARC
  5
225B
330
1F
100
AcDbEntity
  8
SANINDUSA
100
AcDbCircle
 10
6158.824272553875
 20
2335.893615981673
 30
0.0000000001555553
 40
0.0004999999999988
100
AcDbArc
 50
135.0
 51
225.0000000552712
  0
LINE
  5
225C
330
1F
100
AcDbEntity
  8
SANINDUSA
100
AcDbLine
 10
6158.823919000484
 20
2335.893262428282
 30
0.0000000001555553
 11
6158.824555396588
 21
2335.89262603218
 31
0.0000000001555553
  0
ARC
  5
225D
330
1F
100
AcDbEntity
  8
SANINDUSA
100
AcDbCircle
 10
6158.824908949979
 20
2335.892979585571
 30
0.0000000001555553
 40
0.0005000000000239
100
AcDbArc
 50
225.0000000184237
 51
315.0
  0
LINE
  5
225E
330
1F
100
AcDbEntity
  8
SANINDUSA
100
AcDbLine
 10
6158.82526250337
 20
2335.89262603218
 30
0.0000000001555553
 11
6158.825545346083
 21
2335.892908874895
 31
0.0000000001555553
  0
ARC
  5
225F
330
1F
100
AcDbEntity
  8
SANINDUSA
100
AcDbCircle
 10
6158.82568676744
 20
2335.892767453538
 30
0.0000000001555553
 40
0.0002000000000003
100
AcDbArc
 50
45.0
 51
135.0
  0
LINE
  5
2260
330
1F
100
AcDbEntity
  8
SANINDUSA
100
AcDbLine
 10
6158.825828188796
 20
2335.892908874895
 30
0.0000000001555553
 11
6158.826252452865
 21
2335.892484610826
 31
0.0000000001555553
  0
ARC
  5
2261
330
1F
100
AcDbEntity
  8
SANINDUSA
100
AcDbCircle
 10
6158.826606006255
 20
2335.892838164216
 30
0.0000000001555553
 40
0.0005000000000001
100
AcDbArc
 50
225.0
 51
315.0
  0
LINE
  5
2262
330
1F
100
AcDbEntity
  8
SANINDUSA
100
AcDbLine
 10
6158.826959559646
 20
2335.892484610826
 30
0.0000000001555553
 11
6158.830070829483
 21
2335.895595880663
 31
0.0000000001555553
  0
ARC
  5
2263
330
1F
100
AcDbEntity
  8
SANINDUSA
100
AcDbCircle
 10
6158.829717276092
 20
2335.895949434054
 30
0.0000000001555553
 40
0.0004999999999994
100
AcDbArc
 50
315.0
 51
45.0
  0
LINE
  5
2264
330
1F
100
AcDbEntity
  8
SANINDUSA
100
AcDbLine
 10
6158.830070829483
 20
2335.896302987444
 30
0.0000000001555553
 11
6158.829646565415
 21
2335.896727251511
 31
0.0000000001555553
  0
ARC
  5
2265
330
1F
100
AcDbEntity
  8
SANINDUSA
100
AcDbCircle
 10
6158.82978798677
 20
2335.896868672868
 30
0.0000000001555553
 40
0.0002000000000003
100
AcDbArc
 50
134.9999998710338
 51
225.0
  0
LINE
  5
2266
330
1F
100
AcDbEntity
  8
SANINDUSA
100
AcDbLine
 10
6158.829646565415
 20
2335.897010094224
 30
0.0000000001555553
 11
6158.829929408128
 21
2335.897292936937
 31
0.0000000001555553
  0
ARC
  5
2267
330
1F
100
AcDbEntity
  8
SANINDUSA
100
AcDbCircle
 10
6158.829575854737
 20
2335.897646490327
 30
0.0000000001555553
 40
0.0005000000000001
100
AcDbArc
 50
315.0
 51
44.99999977891511
  0
LINE
  5
2268
330
1F
100
AcDbEntity
  8
SANINDUSA
100
AcDbLine
 10
6158.829929408128
 20
2335.898000043716
 30
0.0000000001555553
 11
6158.829293012029
 21
2335.898636439822
 31
0.0000000001555553
  0
ARC
  5
2269
330
1F
100
AcDbEntity
  8
SANINDUSA
100
AcDbCircle
 10
6158.828939458638
 20
2335.898282886432
 30
0.0000000001555553
 40
0.0004999999999994
100
AcDbArc
 50
45.0
 51
135.0
  0
LINE
  5
226A
330
1F
100
AcDbEntity
  8
SANINDUSA
100
AcDbLine
 10
6158.828585905247
 20
2335.898636439822
 30
0.0000000001555553
 11
6158.827599695587
 21
2335.897650230163
 31
0.0000000001555553
  0
ARC
  5
226B
330
1F
100
AcDbEntity
  8
SANINDUSA
100
AcDbCircle
 10
6158.827246142196
 20
2335.898003783553
 30
0.0000000001555553
 40
0.0004999999999994
100
AcDbArc
 50
135.0
 51
315.0
  0
LINE
  5
226C
330
1F
100
AcDbEntity
  8
SANINDUSA
100
AcDbLine
 10
6158.826892588805
 20
2335.898357336944
 30
0.0000000001555553
 11
6158.827902880158
 21
2335.899367628296
 31
0.0000000001555553
  0
ARC
  5
226D
330
1F
100
AcDbEntity
  8
SANINDUSA
100
AcDbCircle
 10
6158.827549326767
 20
2335.899721181686
 30
0.0000000001555553
 40
0.0004999999999994
100
AcDbArc
 50
315.0
 51
90.0
  0
LINE
  5
226E
330
1F
100
AcDbEntity
  8
SANINDUSA
100
AcDbLine
 10
6158.827549326767
 20
2335.900221181686
 30
0.0000000001555553
 11
6158.822157986918
 21
2335.900221181686
 31
0.0000000001555553
  0
LINE
  5
226F
330
1F
100
AcDbEntity
  8
SANINDUSA
100
AcDbLine
 10
6158.775799720475
 20
2335.877294686452
 30
0.0
 11
6158.775799720475
 21
2335.901221181686
 31
0.0
  0
LINE
  5
2270
330
1F
100
AcDbEntity
  8
SANINDUSA
100
AcDbLine
 10
6158.775799720475
 20
2335.877294686452
 30
0.0
 11
6158.776798601387
 21
2335.877294686452
 31
0.0
  0
LINE
  5
2271
330
1F
100
AcDbEntity
  8
SANINDUSA
100
AcDbLine
 10
6158.776799720475
 20
2335.901221181686
 30
0.0
 11
6158.775799720475
 21
2335.901221181686
 31
0.0
  0
ARC
  5
2272
330
1F
100
AcDbEntity
  8
SANINDUSA
100
AcDbCircle
 10
6158.776798601387
 20
2335.878294686451
 30
0.0
 40
0.0009999999999999
100
AcDbArc
 50
270.0
 51
359.4659008829362
  0
ARC
  5
2273
330
1F
100
AcDbEntity
  8
SANINDUSA
100
AcDbCircle
 10
6158.776799720475
 20
2335.900221181686
 30
0.0
 40
0.0009999999999999
100
AcDbArc
 50
0.0
 51
90.0
  0
LINE
  5
2274
330
1F
100
AcDbEntity
  8
SANINDUSA
100
AcDbLine
 10
6158.77779855794
 20
2335.878285364798
 30
0.0
 11
6158.7778053476
 21
2335.879013708285
 31
0.0
  0
LINE
  5
2275
330
1F
100
AcDbEntity
  8
SANINDUSA
100
AcDbLine
 10
6158.777799720475
 20
2335.899235395249
 30
0.0
 11
6158.777799720475
 21
2335.900221181686
 31
0.0
  0
ARC
  5
2276
330
1F
100
AcDbEntity
  8
SANINDUSA
100
AcDbCircle
 10
6158.779155288946
 20
2335.879001124053
 30
0.0
 40
0.00135
100
AcDbArc
 50
134.9106959289492
 51
179.4659008829362
  0
ARC
  5
2277
330
1F
100
AcDbEntity
  8
SANINDUSA
100
AcDbCircle
 10
6158.779149720475
 20
2335.899235395249
 30
0.0
 40
0.0013499999999998
100
AcDbArc
 50
180.0
 51
225.0
  0
LINE
  5
2278
330
1F
100
AcDbEntity
  8
SANINDUSA
100
AcDbLine
 10
6158.778202183828
 20
2335.879957204926
 30
0.0
 11
6158.779108622939
 21
2335.88086082279
 31
0.0
  0
LINE
  5
2279
330
1F
100
AcDbEntity
  8
SANINDUSA
100
AcDbLine
 10
6158.779109339882
 20
2335.897366587531
 30
0.0
 11
6158.77819512632
 21
2335.898280801094
 31
0.0
  0
ARC
  5
227A
330
1F
100
AcDbEntity
  8
SANINDUSA
100
AcDbCircle
 10
6158.778649720475
 20
2335.881321158025
 30
0.0
 40
0.0006500000000003
100
AcDbArc
 50
314.9106959289493
 51
0.0
  0
ARC
  5
227B
330
1F
100
AcDbEntity
  8
SANINDUSA
100
AcDbCircle
 10
6158.778649720475
 20
2335.896906968124
 30
0.0
 40
0.0006500000000003
100
AcDbArc
 50
0.0
 51
45.0
  0
LINE
  5
227C
330
1F
100
AcDbEntity
  8
SANINDUSA
100
AcDbLine
 10
6158.779299720475
 20
2335.881321158025
 30
0.0
 11
6158.779299720475
 21
2335.896906968124
 31
0.0
  0
LINE
  5
227D
330
1F
100
AcDbEntity
  8
SANINDUSA
100
AcDbLine
 10
6158.829679782814
 20
2335.897825404964
 30
0.0000000001555553
 11
6158.828972676033
 21
2335.898532511744
 31
0.0000000001555553
  0
LINE
  5
227E
330
1F
100
AcDbEntity
  8
SANINDUSA
100
AcDbLine
 10
6158.828972676033
 20
2335.898532511744
 30
0.0000000001555553
 11
6158.824022928565
 21
2335.893582764276
 31
0.0000000001555553
  0
LINE
  5
227F
330
1F
100
AcDbEntity
  8
SANINDUSA
100
AcDbLine
 10
6158.828972676033
 20
2335.897118298182
 30
0.0000000001555553
 11
6158.829679782814
 21
2335.897825404964
 31
0.0000000001555553
  0
LINE
  5
2280
330
1F
100
AcDbEntity
  8
SANINDUSA
100
AcDbLine
 10
6158.824022928565
 20
2335.893582764276
 30
0.0000000001555553
 11
6158.824730035346
 21
2335.892875657495
 31
0.0000000001555553
  0
LINE
  5
2281
330
1F
100
AcDbEntity
  8
SANINDUSA
100
AcDbLine
 10
6158.830033336204
 20
2335.896057638011
 30
0.0000000001555553
 11
6158.828972676033
 21
2335.897118298182
 31
0.0000000001555553
  0
LINE
  5
2282
330
1F
100
AcDbEntity
  8
SANINDUSA
100
AcDbLine
 10
6158.824730035346
 20
2335.892875657495
 30
0.0000000001555553
 11
6158.825437142127
 21
2335.893582764276
 31
0.0000000001555553
  0
LINE
  5
2283
330
1F
100
AcDbEntity
  8
SANINDUSA
100
AcDbLine
 10
6158.826497802299
 20
2335.892522104105
 30
0.0000000001555553
 11
6158.830033336204
 21
2335.896057638011
 31
0.0000000001555553
  0
LINE
  5
2284
330
1F
100
AcDbEntity
  8
SANINDUSA
100
AcDbLine
 10
6158.825437142127
 20
2335.893582764276
 30
0.0000000001555553
 11
6158.826497802299
 21
2335.892522104105
 31
0.0000000001555553
  0
LINE
  5
2285
330
1F
100
AcDbEntity
  8
SANINDUSA
100
AcDbLine
 10
6160.375794920475
 20
2335.87729469407
 30
0.0
 11
6160.375794920475
 21
2335.901221189306
 31
0.0
  0
LINE
  5
2286
330
1F
100
AcDbEntity
  8
SANINDUSA
100
AcDbLine
 10
6160.374794920475
 20
2335.901221189306
 30
0.0
 11
6160.375794920475
 21
2335.901221189306
 31
0.0
  0
LINE
  5
2287
330
1F
100
AcDbEntity
  8
SANINDUSA
100
AcDbLine
 10
6160.375794920475
 20
2335.87729469407
 30
0.0
 11
6160.374796039562
 21
2335.87729469407
 31
0.0
  0
ARC
  5
2288
330
1F
100
AcDbEntity
  8
SANINDUSA
100
AcDbCircle
 10
6160.374794920475
 20
2335.900221189305
 30
0.0
 40
0.0009999999999999
100
AcDbArc
 50
90.0
 51
180.0
  0
ARC
  5
2289
330
1F
100
AcDbEntity
  8
SANINDUSA
100
AcDbCircle
 10
6160.374796039562
 20
2335.878294694071
 30
0.0
 40
0.0009999999999999
100
AcDbArc
 50
180.5340991170638
 51
270.0
  0
LINE
  5
228A
330
1F
100
AcDbEntity
  8
SANINDUSA
100
AcDbLine
 10
6160.373794920475
 20
2335.899235402868
 30
0.0
 11
6160.373794920475
 21
2335.900221189305
 31
0.0
  0
LINE
  5
228B
330
1F
100
AcDbEntity
  8
SANINDUSA
100
AcDbLine
 10
6160.37379608301
 20
2335.878285372418
 30
0.0
 11
6160.373789293349
 21
2335.879013715905
 31
0.0
  0
ARC
  5
228C
330
1F
100
AcDbEntity
  8
SANINDUSA
100
AcDbCircle
 10
6160.372444920475
 20
2335.899235402868
 30
0.0
 40
0.0013499999999998
100
AcDbArc
 50
315.0
 51
0.0
  0
ARC
  5
228D
330
1F
100
AcDbEntity
  8
SANINDUSA
100
AcDbCircle
 10
6160.372439352005
 20
2335.879001131673
 30
0.0
 40
0.00135
100
AcDbArc
 50
0.5340991170638115
 51
45.08930407105075
  0
LINE
  5
228E
330
1F
100
AcDbEntity
  8
SANINDUSA
100
AcDbLine
 10
6160.372485301067
 20
2335.897366595151
 30
0.0
 11
6160.373399514629
 21
2335.898280808713
 31
0.0
  0
LINE
  5
228F
330
1F
100
AcDbEntity
  8
SANINDUSA
100
AcDbLine
 10
6160.373392457121
 20
2335.879957212545
 30
0.0
 11
6160.372486018011
 21
2335.880860830409
 31
0.0
  0
ARC
  5
2290
330
1F
100
AcDbEntity
  8
SANINDUSA
100
AcDbCircle
 10
6160.372944920474
 20
2335.896906975743
 30
0.0
 40
0.0006500000000003
100
AcDbArc
 50
135.0
 51
180.0
  0
ARC
  5
2291
330
1F
100
AcDbEntity
  8
SANINDUSA
100
AcDbCircle
 10
6160.372944920474
 20
2335.881321165644
 30
0.0
 40
0.0006500000000003
100
AcDbArc
 50
180.0
 51
225.0893040710507
  0
LINE
  5
2292
330
1F
100
AcDbEntity
  8
SANINDUSA
100
AcDbLine
 10
6160.372294920475
 20
2335.881321165644
 30
0.0
 11
6160.372294920475
 21
2335.896906975743
 31
0.0
  0
ARC
  5
2293
330
1F
100
AcDbEntity
  8
SANINDUSA
100
AcDbCircle
 10
6160.372444920475
 20
2335.900221189305
 30
0.0
 40
0.0009999999999999
100
AcDbArc
 50
0.0
 51
90.0
  0
LINE
  5
2294
330
1F
100
AcDbEntity
  8
SANINDUSA
100
AcDbLine
 10
6160.372444920475
 20
2335.901221189306
 30
0.0
 11
6160.337421616343
 21
2335.901221189306
 31
0.0
  0
LINE
  5
2295
330
1F
100
AcDbEntity
  8
SANINDUSA
100
AcDbLine
 10
6160.373444920475
 20
2335.899235402868
 30
0.0
 11
6160.373444920475
 21
2335.900221189305
 31
0.0
  0
ARC
  5
2296
330
1F
100
AcDbEntity
  8
SANINDUSA
100
AcDbCircle
 10
6160.337421616343
 20
2335.900221189305
 30
0.0
 40
0.001
100
AcDbArc
 50
90.0
 51
270.0
  0
ARC
  5
2297
330
1F
100
AcDbEntity
  8
SANINDUSA
100
AcDbCircle
 10
6160.372444920475
 20
2335.899235402868
 30
0.0
 40
0.0010000000000003
100
AcDbArc
 50
315.0
 51
0.0
  0
LINE
  5
2298
330
1F
100
AcDbEntity
  8
SANINDUSA
100
AcDbLine
 10
6160.337421616343
 20
2335.899221189306
 30
0.0
 11
6160.368944920475
 21
2335.899221189306
 31
0.0
  0
LINE
  5
2299
330
1F
100
AcDbEntity
  8
SANINDUSA
100
AcDbLine
 10
6160.372237813693
 20
2335.897614082524
 30
0.0
 11
6160.373152027256
 21
2335.898528296087
 31
0.0
  0
ARC
  5
229A
330
1F
100
AcDbEntity
  8
SANINDUSA
100
AcDbCircle
 10
6160.368944920475
 20
2335.898221189305
 30
0.0
 40
0.001
100
AcDbArc
 50
0.0
 51
90.0
  0
ARC
  5
229B
330
1F
100
AcDbEntity
  8
SANINDUSA
100
AcDbCircle
 10
6160.372944920474
 20
2335.896906975743
 30
0.0
 40
0.0010000000000003
100
AcDbArc
 50
135.0
 51
180.0
  0
LINE
  5
229C
330
1F
100
AcDbEntity
  8
SANINDUSA
100
AcDbLine
 10
6160.369944920475
 20
2335.898221189305
 30
0.0
 11
6160.369944920475
 21
2335.880362003028
 31
0.0
  0
LINE
  5
229D
330
1F
100
AcDbEntity
  8
SANINDUSA
100
AcDbLine
 10
6160.371944920474
 20
2335.893531849477
 30
0.0
 11
6160.371944920474
 21
2335.896906975743
 31
0.0
  0
ARC
  5
229E
330
1F
100
AcDbEntity
  8
SANINDUSA
100
AcDbCircle
 10
6160.368944920475
 20
2335.880362003028
 30
0.0
 40
0.001
100
AcDbArc
 50
267.8505420588376
 51
0.0
  0
ARC
  5
229F
330
1F
100
AcDbEntity
  8
SANINDUSA
100
AcDbCircle
 10
6160.371694920474
 20
2335.893531849477
 30
0.0
 40
0.0002500000000003
100
AcDbArc
 50
315.0
 51
0.0
  0
ARC
  5
22A0
330
1F
100
AcDbEntity
  8
SANINDUSA
100
AcDbCircle
 10
6160.372535028912
 20
2335.976014748951
 30
0.0
 40
0.0967200954923435
100
AcDbArc
 50
254.4398303795264
 51
267.8505420588376
  0
LINE
  5
22A1
330
1F
100
AcDbEntity
  8
SANINDUSA
100
AcDbLine
 10
6160.371391367085
 20
2335.892874742696
 30
0.0
 11
6160.37187169717
 21
2335.893355072782
 31
0.0
  0
ARC
  5
22A2
330
1F
100
AcDbEntity
  8
SANINDUSA
100
AcDbCircle
 10
6160.346723969716
 20
2335.883321189306
 30
0.0
 40
0.0005
100
AcDbArc
 50
90.0
 51
254.4398303795264
  0
ARC
  5
22A3
330
1F
100
AcDbEntity
  8
SANINDUSA
100
AcDbCircle
 10
6160.371744920475
 20
2335.892521189306
 30
0.0
 40
0.0005
100
AcDbArc
 50
135.0
 51
225.0
  0
LINE
  5
22A4
330
1F
100
AcDbEntity
  8
SANINDUSA
100
AcDbLine
 10
6160.346723969716
 20
2335.883821189305
 30
0.0
 11
6160.359421616343
 21
2335.883821189305
 31
0.0
  0
LINE
  5
22A5
330
1F
100
AcDbEntity
  8
SANINDUSA
100
AcDbLine
 10
6160.37187169717
 20
2335.891687305829
 30
0.0
 11
6160.371391367085
 21
2335.892167635915
 31
0.0
  0
ARC
  5
22A6
330
1F
100
AcDbEntity
  8
SANINDUSA
100
AcDbCircle
 10
6160.359421616343
 20
2335.884821189305
 30
0.0
 40
0.001
100
AcDbArc
 50
270.0
 51
90.0
  0
ARC
  5
22A7
330
1F
100
AcDbEntity
  8
SANINDUSA
100
AcDbCircle
 10
6160.371694920474
 20
2335.891510529133
 30
0.0
 40
0.00025
100
AcDbArc
 50
0.0
 51
45.0
  0
LINE
  5
22A8
330
1F
100
AcDbEntity
  8
SANINDUSA
100
AcDbLine
 10
6160.359421616343
 20
2335.885821189306
 30
0.0
 11
6160.337421616343
 21
2335.885821189306
 31
0.0
  0
LINE
  5
22A9
330
1F
100
AcDbEntity
  8
SANINDUSA
100
AcDbLine
 10
6160.371944920474
 20
2335.881321165644
 30
0.0
 11
6160.371944920474
 21
2335.891510529133
 31
0.0
  0
ARC
  5
22AA
330
1F
100
AcDbEntity
  8
SANINDUSA
100
AcDbCircle
 10
6160.337421616343
 20
2335.884821189305
 30
0.0
 40
0.001
100
AcDbArc
 50
90.0
 51
248.9411647286947
  0
ARC
  5
22AB
330
1F
100
AcDbEntity
  8
SANINDUSA
100
AcDbCircle
 10
6160.372944920474
 20
2335.881321165644
 30
0.0
 40
0.0010000000000003
100
AcDbArc
 50
180.0
 51
225.0893040710507
  0
ARC
  5
22AC
330
1F
100
AcDbEntity
  8
SANINDUSA
100
AcDbCircle
 10
6160.372535028912
 20
2335.976014748951
 30
0.0
 40
0.0987200954923432
100
AcDbArc
 50
248.9411647286947
 51
269.9477634176168
  0
LINE
  5
22AD
330
1F
100
AcDbEntity
  8
SANINDUSA
100
AcDbLine
 10
6160.373145355794
 20
2335.879709339727
 30
0.0
 11
6160.372238916684
 21
2335.88061295759
 31
0.0
  0
ARC
  5
22AE
330
1F
100
AcDbEntity
  8
SANINDUSA
100
AcDbCircle
 10
6160.372445937456
 20
2335.878294694071
 30
0.0
 40
0.001
100
AcDbArc
 50
269.9477634176168
 51
0.5340991170638115
  0
ARC
  5
22AF
330
1F
100
AcDbEntity
  8
SANINDUSA
100
AcDbCircle
 10
6160.372439352005
 20
2335.879001131673
 30
0.0
 40
0.0010000000000003
100
AcDbArc
 50
0.5340991170638115
 51
45.08930407105075
  0
LINE
  5
22B0
330
1F
100
AcDbEntity
  8
SANINDUSA
100
AcDbLine
 10
6160.373445894009
 20
2335.878304015724
 30
0.0
 11
6160.373439308556
 21
2335.879010453326
 31
0.0
  0
LINE
  5
22B1
330
1F
100
AcDbEntity
  8
SANINDUSA
100
AcDbLine
 10
6160.323819693183
 20
2335.896521189306
 30
0.0
 11
6160.326508306333
 21
2335.896521189306
 31
0.0
  0
ARC
  5
22B2
330
1F
100
AcDbEntity
  8
SANINDUSA
100
AcDbCircle
 10
6160.326508306333
 20
2335.896021189306
 30
0.0
 40
0.0005
100
AcDbArc
 50
19.47122063801706
 51
90.0
  0
ARC
  5
22B3
330
1F
100
AcDbEntity
  8
SANINDUSA
100
AcDbCircle
 10
6160.323819693183
 20
2335.896021189306
 30
0.0
 40
0.0005000000000001
100
AcDbArc
 50
90.0
 51
156.4218215197019
  0
ARC
  5
22B4
330
1F
100
AcDbEntity
  8
SANINDUSA
100
AcDbCircle
 10
6160.327922519896
 20
2335.896521189306
 30
0.0
 40
0.001
100
AcDbArc
 50
199.471220638017
 51
340.5287793619829
  0
ARC
  5
22B5
330
1F
100
AcDbEntity
  8
SANINDUSA
100
AcDbCircle
 10
6160.322444920474
 20
2335.896621189306
 30
0.0
 40
0.0009999999999999
100
AcDbArc
 50
180.0
 51
336.4218215197019
  0
ARC
  5
22B6
330
1F
100
AcDbEntity
  8
SANINDUSA
100
AcDbCircle
 10
6160.329336733457
 20
2335.896021189306
 30
0.0
 40
0.0004999999999999
100
AcDbArc
 50
90.0
 51
160.5287793619829
  0
LINE
  5
22B7
330
1F
100
AcDbEntity
  8
SANINDUSA
100
AcDbLine
 10
6160.321444920476
 20
2335.896621189306
 30
0.0
 11
6160.321444920476
 21
2335.897521189306
 31
0.0
  0
LINE
  5
22B8
330
1F
100
AcDbEntity
  8
SANINDUSA
100
AcDbLine
 10
6160.329336733457
 20
2335.896521189306
 30
0.0
 11
6160.330922896715
 21
2335.896521189306
 31
0.0
  0
ARC
  5
22B9
330
1F
100
AcDbEntity
  8
SANINDUSA
100
AcDbCircle
 10
6160.322444920474
 20
2335.897521189306
 30
0.0
 40
0.0009999999999999
100
AcDbArc
 50
90.0
 51
180.0
  0
ARC
  5
22BA
330
1F
100
AcDbEntity
  8
SANINDUSA
100
AcDbCircle
 10
6160.330922896715
 20
2335.896021189306
 30
0.0
 40
0.0005
100
AcDbArc
 50
0.0
 51
90.0
  0
LINE
  5
22BB
330
1F
100
AcDbEntity
  8
SANINDUSA
100
AcDbLine
 10
6160.322444920474
 20
2335.898521189306
 30
0.0
 11
6160.353944920474
 21
2335.898521189306
 31
0.0
  0
LINE
  5
22BC
330
1F
100
AcDbEntity
  8
SANINDUSA
100
AcDbLine
 10
6160.331422896715
 20
2335.896021189306
 30
0.0
 11
6160.331422896715
 21
2335.889021189306
 31
0.0
  0
ARC
  5
22BD
330
1F
100
AcDbEntity
  8
SANINDUSA
100
AcDbCircle
 10
6160.353944920474
 20
2335.897521189306
 30
0.0
 40
0.001
100
AcDbArc
 50
270.0
 51
90.0
  0
ARC
  5
22BE
330
1F
100
AcDbEntity
  8
SANINDUSA
100
AcDbCircle
 10
6160.330922896715
 20
2335.889021189306
 30
0.0
 40
0.0005
100
AcDbArc
 50
270.0
 51
0.0
  0
LINE
  5
22BF
330
1F
100
AcDbEntity
  8
SANINDUSA
100
AcDbLine
 10
6160.353944920474
 20
2335.896521189306
 30
0.0
 11
6160.333922896715
 21
2335.896521189306
 31
0.0
  0
LINE
  5
22C0
330
1F
100
AcDbEntity
  8
SANINDUSA
100
AcDbLine
 10
6160.330922896715
 20
2335.888521189305
 30
0.0
 11
6160.329336733457
 21
2335.888521189305
 31
0.0
  0
ARC
  5
22C1
330
1F
100
AcDbEntity
  8
SANINDUSA
100
AcDbCircle
 10
6160.333922896715
 20
2335.896021189306
 30
0.0
 40
0.0005000000000001
100
AcDbArc
 50
90.0
 51
180.0
  0
ARC
  5
22C2
330
1F
100
AcDbEntity
  8
SANINDUSA
100
AcDbCircle
 10
6160.329336733457
 20
2335.889021189306
 30
0.0
 40
0.0005
100
AcDbArc
 50
199.471220638017
 51
270.0
  0
LINE
  5
22C3
330
1F
100
AcDbEntity
  8
SANINDUSA
100
AcDbLine
 10
6160.333422896715
 20
2335.896021189306
 30
0.0
 11
6160.333422896715
 21
2335.889021189306
 31
0.0
  0
ARC
  5
22C4
330
1F
100
AcDbEntity
  8
SANINDUSA
100
AcDbCircle
 10
6160.327922519896
 20
2335.888521189305
 30
0.0
 40
0.001
100
AcDbArc
 50
19.47122063801706
 51
160.5287793619829
  0
ARC
  5
22C5
330
1F
100
AcDbEntity
  8
SANINDUSA
100
AcDbCircle
 10
6160.333922896715
 20
2335.889021189306
 30
0.0
 40
0.0005000000000001
100
AcDbArc
 50
180.0
 51
270.0
  0
ARC
  5
22C6
330
1F
100
AcDbEntity
  8
SANINDUSA
100
AcDbCircle
 10
6160.326508306333
 20
2335.889021189306
 30
0.0
 40
0.0005
100
AcDbArc
 50
270.0
 51
340.5287793619829
  0
LINE
  5
22C7
330
1F
100
AcDbEntity
  8
SANINDUSA
100
AcDbLine
 10
6160.333922896715
 20
2335.888521189305
 30
0.0
 11
6160.353944920474
 21
2335.888521189305
 31
0.0
  0
LINE
  5
22C8
330
1F
100
AcDbEntity
  8
SANINDUSA
100
AcDbLine
 10
6160.326508306333
 20
2335.888521189305
 30
0.0
 11
6160.323819693183
 21
2335.888521189305
 31
0.0
  0
ARC
  5
22C9
330
1F
100
AcDbEntity
  8
SANINDUSA
100
AcDbCircle
 10
6160.353944920474
 20
2335.887521189306
 30
0.0
 40
0.001
100
AcDbArc
 50
270.0
 51
90.0
  0
ARC
  5
22CA
330
1F
100
AcDbEntity
  8
SANINDUSA
100
AcDbCircle
 10
6160.323819693183
 20
2335.889021189306
 30
0.0
 40
0.0005000000000001
100
AcDbArc
 50
203.5781784802981
 51
270.0
  0
LINE
  5
22CB
330
1F
100
AcDbEntity
  8
SANINDUSA
100
AcDbLine
 10
6160.353944920474
 20
2335.886521189305
 30
0.0
 11
6160.322444920474
 21
2335.886521189305
 31
0.0
  0
ARC
  5
22CC
330
1F
100
AcDbEntity
  8
SANINDUSA
100
AcDbCircle
 10
6160.322444920474
 20
2335.888421189306
 30
0.0
 40
0.0009999999999999
100
AcDbArc
 50
23.57817848029807
 51
180.0
  0
ARC
  5
22CD
330
1F
100
AcDbEntity
  8
SANINDUSA
100
AcDbCircle
 10
6160.322444920474
 20
2335.887521189306
 30
0.0
 40
0.0010000000000001
100
AcDbArc
 50
180.0
 51
270.0
  0
LINE
  5
22CE
330
1F
100
AcDbEntity
  8
SANINDUSA
100
AcDbLine
 10
6160.321444920476
 20
2335.887521189306
 30
0.0
 11
6160.321444920476
 21
2335.888421189306
 31
0.0
  0
ENDSEC
  0
SECTION
  2
OBJECTS
  0
DICTIONARY
  5
C
330
0
100
AcDbDictionary
281
     1
  3
ACAD_2007HEADERVARS_RT
350
2473
  3
ACAD_COLOR
350
EE6
  3
ACAD_GROUP
350
D
  3
ACAD_LAYOUT
350
1A
  3
ACAD_MATERIAL
350
EE5
  3
ACAD_MLEADERSTYLE
350
23DA
  3
ACAD_MLINESTYLE
350
17
  3
ACAD_PLOTSETTINGS
350
19
  3
ACAD_PLOTSTYLENAME
350
E
  3
ACAD_SCALELIST
350
23C8
  3
ACAD_TABLESTYLE
350
EE7
  3
ACAD_VISUALSTYLE
350
23B4
  3
ACDB_RECOMPOSE_DATA
350
2471
  3
AcDbVariableDictionary
350
3D
  3
ASE_INDEX_DICTIONARY
350
E77
  3
DWGPROPS
350
2472
  0
DICTIONARY
  5
1051
330
2
100
AcDbDictionary
280
     1
281
     1
  3
ACAD_LAYERFILTERS
360
1057
  3
ACLYDICTIONARY
360
1056
  0
DICTIONARY
  5
240A
330
10
100
AcDbDictionary
280
     1
281
     1
  3
ADSK_XREC_LAYER_RECONCILED
360
240B
  0
DICTIONARY
  5
240C
330
2F
100
AcDbDictionary
280
     1
281
     1
  3
ADSK_XREC_LAYER_RECONCILED
360
240D
  0
DICTIONARY
  5
240E
330
30
100
AcDbDictionary
280
     1
281
     1
  3
ADSK_XREC_LAYER_RECONCILED
360
240F
  0
DICTIONARY
  5
2410
330
31
100
AcDbDictionary
280
     1
281
     1
  3
ADSK_XREC_LAYER_RECONCILED
360
2411
  0
DICTIONARY
  5
2412
330
32
100
AcDbDictionary
280
     1
281
     1
  3
ADSK_XREC_LAYER_RECONCILED
360
2413
  0
DICTIONARY
  5
2414
330
33
100
AcDbDictionary
280
     1
281
     1
  3
ADSK_XREC_LAYER_RECONCILED
360
2415
  0
DICTIONARY
  5
2416
330
34
100
AcDbDictionary
280
     1
281
     1
  3
ADSK_XREC_LAYER_RECONCILED
360
2417
  0
DICTIONARY
  5
2418
330
35
100
AcDbDictionary
280
     1
281
     1
  3
ADSK_XREC_LAYER_RECONCILED
360
2419
  0
DICTIONARY
  5
241A
330
36
100
AcDbDictionary
280
     1
281
     1
  3
ADSK_XREC_LAYER_RECONCILED
360
241B
  0
DICTIONARY
  5
241C
330
37
100
AcDbDictionary
280
     1
281
     1
  3
ADSK_XREC_LAYER_RECONCILED
360
241D
  0
DICTIONARY
  5
241E
330
5D6
100
AcDbDictionary
280
     1
281
     1
  3
ADSK_XREC_LAYER_RECONCILED
360
241F
  0
DICTIONARY
  5
2420
330
8AF
100
AcDbDictionary
280
     1
281
     1
  3
ADSK_XREC_LAYER_RECONCILED
360
2421
  0
DICTIONARY
  5
2422
330
8F8
100
AcDbDictionary
280
     1
281
     1
  3
ADSK_XREC_LAYER_RECONCILED
360
2423
  0
DICTIONARY
  5
2424
330
91D
100
AcDbDictionary
280
     1
281
     1
  3
ADSK_XREC_LAYER_RECONCILED
360
2425
  0
DICTIONARY
  5
2426
330
C7B
100
AcDbDictionary
280
     1
281
     1
  3
ADSK_XREC_LAYER_RECONCILED
360
2427
  0
DICTIONARY
  5
2428
330
10DD
100
AcDbDictionary
280
     1
281
     1
  3
ADSK_XREC_LAYER_RECONCILED
360
2429
  0
DICTIONARY
  5
223C
330
1F
100
AcDbDictionary
280
     1
281
     1
  3
ACAD_SORTENTS
360
223D
  0
DICTIONARY
  5
247C
330
1FF2
100
AcDbDictionary
280
     1
281
     1
  3
ACAD_MTEXT_RT
360
247D
  0
DICTIONARY
  5
2473
102
{ACAD_REACTORS
330
C
102
}
330
C
100
AcDbDictionary
281
     1
  3
DIMJOGANG
350
2474
  0
DICTIONARY
  5
EE6
102
{ACAD_REACTORS
330
C
102
}
330
C
100
AcDbDictionary
281
     1
  0
DICTIONARY
  5
D
102
{ACAD_REACTORS
330
C
102
}
330
C
100
AcDbDictionary
281
     1
  0
DICTIONARY
  5
1A
102
{ACAD_REACTORS
330
C
102
}
330
C
100
AcDbDictionary
281
     1
  3
Layout1
350
1E
  3
Layout2
350
26
  3
Model
350
22
  0
DICTIONARY
  5
EE5
102
{ACAD_REACTORS
330
C
102
}
330
C
100
AcDbDictionary
281
     1
  3
ByBlock
350
23A4
  3
ByLayer
350
239C
  3
Global
350
23AC
  0
DICTIONARY
  5
23DA
102
{ACAD_REACTORS
330
C
102
}
330
C
100
AcDbDictionary
281
     1
  3
Standard
350
23DB
  0
DICTIONARY
  5
17
102
{ACAD_REACTORS
330
C
102
}
330
C
100
AcDbDictionary
281
     1
  3
Standard
350
18
  0
DICTIONARY
  5
19
102
{ACAD_REACTORS
330
C
102
}
330
C
100
AcDbDictionary
281
     1
  0
ACDBDICTIONARYWDFLT
  5
E
102
{ACAD_REACTORS
330
C
102
}
330
C
100
AcDbDictionary
281
     1
  3
Normal
350
F
100
AcDbDictionaryWithDefault
340
F
  0
DICTIONARY
  5
23C8
102
{ACAD_REACTORS
330
C
102
}
330
C
100
AcDbDictionary
281
     1
  3
A0
350
23C9
  3
A1
350
23CA
  3
A2
350
23CB
  3
A3
350
23CC
  3
A4
350
23CD
  3
A5
350
23CE
  3
A6
350
23CF
  3
A7
350
23D0
  3
A8
350
23D1
  3
A9
350
23D2
  3
B0
350
23D3
  3
B1
350
23D4
  3
B2
350
23D5
  3
B3
350
23D6
  3
B4
350
23D7
  3
B5
350
23D8
  3
B6
350
23D9
  0
DICTIONARY
  5
EE7
102
{ACAD_REACTORS
330
C
102
}
330
C
100
AcDbDictionary
281
     1
  3
Standard
350
EE8
  0
DICTIONARY
  5
23B4
102
{ACAD_REACTORS
330
C
102
}
330
C
100
AcDbDictionary
281
     1
  3
2dWireframe
350
23BA
  3
3D Hidden
350
23BC
  3
3dWireframe
350
23BB
  3
Basic
350
23B9
  3
Brighten
350
23C0
  3
ColorChange
350
23C4
  3
Conceptual
350
23BD
  3
Dim
350
23BF
  3
EdgeColorOff
350
23C7
  3
Facepattern
350
23C3
  3
Flat
350
23B5
  3
FlatWithEdges
350
23B6
  3
Gouraud
350
23B7
  3
GouraudWithEdges
350
23B8
  3
JitterOff
350
23C5
  3
Linepattern
350
23C2
  3
OverhangOff
350
23C6
  3
Realistic
350
23BE
  3
Thicken
350
23C1
  0
XRECORD
  5
2471
102
{ACAD_REACTORS
330
C
102
}
330
C
100
AcDbXrecord
280
     1
 90
        1
330
EE8
  0
DICTIONARY
  5
3D
102
{ACAD_REACTORS
330
C
102
}
330
C
100
AcDbDictionary
281
     1
  3
CANNOSCALE
350
246B
  3
CMLEADERSTYLE
350
246A
  3
CTABLESTYLE
350
1049
  3
DIMASSOC
350
3F
  3
HIDETEXT
350
3E
  3
INDEXCTL
350
246D
  3
PROJECTNAME
350
22E1
  3
SORTENTS
350
246C
  3
XCLIPFRAME
350
246E
  0
DICTIONARY
  5
E77
102
{ACAD_REACTORS
330
C
102
}
330
C
100
AcDbDictionary
281
     1
  3
ASEBlockHierarchyIndexRecord
350
E78
1001
DCO15
1040
1552647238.734
  0
XRECORD
  5
2472
102
{ACAD_REACTORS
330
C
102
}
330
C
100
AcDbXrecord
280
     1
  1
DWGPROPS COOKIE
  2

  3

  4

  6

  7

  8
Julio
  9

300
=
301
=
302
=
303
=
304
=
305
=
306
=
307
=
308
=
309
=
 40
0.0149421296296296
 41
2454138.513543831
 42
2455824.639361794
  1

 90
        0
  0
DICTIONARY
  5
1057
102
{ACAD_REACTORS
330
1051
102
}
330
1051
100
AcDbDictionary
281
     1
  0
DICTIONARY
  5
1056
102
{ACAD_REACTORS
330
1051
102
}
330
1051
100
AcDbDictionary
281
     1
1001
ACAD
1000
<All
  0
XRECORD
  5
240B
102
{ACAD_REACTORS
330
240A
102
}
330
240A
100
AcDbXrecord
280
     1
290
     1
  0
XRECORD
  5
240D
102
{ACAD_REACTORS
330
240C
102
}
330
240C
100
AcDbXrecord
280
     1
290
     1
  0
XRECORD
  5
240F
102
{ACAD_REACTORS
330
240E
102
}
330
240E
100
AcDbXrecord
280
     1
290
     1
  0
XRECORD
  5
2411
102
{ACAD_REACTORS
330
2410
102
}
330
2410
100
AcDbXrecord
280
     1
290
     1
  0
XRECORD
  5
2413
102
{ACAD_REACTORS
330
2412
102
}
330
2412
100
AcDbXrecord
280
     1
290
     1
  0
XRECORD
  5
2415
102
{ACAD_REACTORS
330
2414
102
}
330
2414
100
AcDbXrecord
280
     1
290
     1
  0
XRECORD
  5
2417
102
{ACAD_REACTORS
330
2416
102
}
330
2416
100
AcDbXrecord
280
     1
290
     1
  0
XRECORD
  5
2419
102
{ACAD_REACTORS
330
2418
102
}
330
2418
100
AcDbXrecord
280
     1
290
     1
  0
XRECORD
  5
241B
102
{ACAD_REACTORS
330
241A
102
}
330
241A
100
AcDbXrecord
280
     1
290
     1
  0
XRECORD
  5
241D
102
{ACAD_REACTORS
330
241C
102
}
330
241C
100
AcDbXrecord
280
     1
290
     1
  0
XRECORD
  5
241F
102
{ACAD_REACTORS
330
241E
102
}
330
241E
100
AcDbXrecord
280
     1
290
     1
  0
XRECORD
  5
2421
102
{ACAD_REACTORS
330
2420
102
}
330
2420
100
AcDbXrecord
280
     1
290
     1
  0
XRECORD
  5
2423
102
{ACAD_REACTORS
330
2422
102
}
330
2422
100
AcDbXrecord
280
     1
290
     1
  0
XRECORD
  5
2425
102
{ACAD_REACTORS
330
2424
102
}
330
2424
100
AcDbXrecord
280
     1
290
     1
  0
XRECORD
  5
2427
102
{ACAD_REACTORS
330
2426
102
}
330
2426
100
AcDbXrecord
280
     1
290
     1
  0
XRECORD
  5
2429
102
{ACAD_REACTORS
330
2428
102
}
330
2428
100
AcDbXrecord
280
     1
290
     1
  0
SORTENTSTABLE
  5
223D
102
{ACAD_REACTORS
330
223C
102
}
330
223C
100
AcDbSortentsTable
330
1F
331
1BBD
  5
1C07
331
1B7F
  5
1B7F
331
1B9E
  5
1B9E
331
2259
  5
1CFF
331
223A
  5
1CE1
331
1C7A
  5
1D2C
331
1B8E
  5
1B8E
331
1B6F
  5
1B6F
331
1BAD
  5
1BF7
331
1BCC
  5
1C16
331
20E7
  5
22C0
331
2268
  5
1D0E
331
222A
  5
1CD0
331
2249
  5
1D20
331
1BBC
  5
1C06
331
1B9D
  5
1B9D
331
1B7E
  5
1B7E
331
2277
  5
1CEB
331
2239
  5
1CE0
331
2258
  5
1CFE
331
1C79
  5
1D2B
331
1BAC
  5
1BF6
331
1B6E
  5
1B6E
331
1B8D
  5
1B8D
331
1BCB
  5
1C15
331
20E6
  5
22BF
331
2267
  5
1D0D
331
2248
  5
1D1F
331
2229
  5
1CCF
331
1BBB
  5
1C05
331
1B7D
  5
1B7D
331
1B9C
  5
1B9C
331
2257
  5
1CFD
331
2238
  5
1CDF
331
2276
  5
1CEA
331
20F5
  5
22CE
331
1B8C
  5
1B8C
331
1B6D
  5
1B6D
331
1BCA
  5
1C14
331
20E5
  5
22BE
331
2266
  5
1D0C
331
2247
  5
1D1E
331
2228
  5
1CCE
331
1BBA
  5
1C04
331
1B9B
  5
1B9B
331
1C17
  5
1C61
331
1B7C
  5
1B7C
331
2275
  5
1CE9
331
2237
  5
1CDE
331
2256
  5
1CFC
331
20F4
  5
22CD
331
1C77
  5
1D22
331
1C07
  5
1C51
331
1B6C
  5
1B6C
331
1B8B
  5
1B8B
331
1BC9
  5
1C13
331
20E4
  5
22BD
331
2246
  5
1D1D
331
2227
  5
1CCD
331
2265
  5
1D0B
331
1BB9
  5
1C03
331
1B9A
  5
1B9A
331
1C16
  5
1C60
331
1B7B
  5
1B7B
331
1BF7
  5
1C41
331
2255
  5
1CFB
331
2236
  5
1CDD
331
2274
  5
1CE8
331
20F3
  5
22CC
331
1B8A
  5
1B8A
331
1C06
  5
1C50
331
1BE7
  5
1C31
331
1B6B
  5
1B6B
331
1BC8
  5
1C12
331
2264
  5
1D0A
331
2226
  5
1CCC
331
2245
  5
1D1C
331
1BB8
  5
1C02
331
1B99
  5
1B99
331
1C15
  5
1C5F
331
1B7A
  5
1B7A
331
1BD7
  5
1C21
331
1BF6
  5
1C40
331
2273
  5
1CE7
331
2235
  5
1CDC
331
2254
  5
1CFA
331
20F2
  5
22CB
331
1B89
  5
1B89
331
1C05
  5
1C4F
331
1BE6
  5
1C30
331
1C24
  5
1C70
331
1B6A
  5
1B6A
331
1BC7
  5
1C11
331
20D7
  5
22B0
331
2244
  5
1D1B
331
2225
  5
1CCB
331
2263
  5
1D09
331
1BD6
  5
1C20
331
1B98
  5
1B98
331
1C14
  5
1C5E
331
1B79
  5
1B79
331
1BB7
  5
1C01
331
1BF5
  5
1C3F
331
20C7
  5
22A0
331
2253
  5
1CF9
331
2234
  5
1CDB
331
2272
  5
1CE6
331
20F1
  5
22CA
331
1B88
  5
1B88
331
1BE5
  5
1C2F
331
1C04
  5
1C4E
331
1B69
  5
1B69
331
1BC6
  5
1C10
331
20B7
  5
2290
331
2262
  5
1D08
331
2224
  5
1CCA
331
2243
  5
1D1A
331
1B97
  5
1B97
331
1C13
  5
1C5D
331
1B78
  5
1B78
331
1BB6
  5
1C00
331
1BD5
  5
1C1F
331
1BF4
  5
1C3E
331
20C6
  5
229F
331
20A7
  5
2280
331
2271
  5
1CE5
331
2233
  5
1CDA
331
2252
  5
1CF8
331
1B87
  5
1B87
331
1C03
  5
1C4D
331
1BE4
  5
1C2E
331
1B68
  5
1B68
331
1BC5
  5
1C0F
331
20B6
  5
228F
331
2242
  5
1D19
331
2223
  5
1CC9
331
2261
  5
1D07
331
1BD4
  5
1C1E
331
1B96
  5
1B96
331
1C12
  5
1C5C
331
1B77
  5
1B77
331
1BB5
  5
1BFF
331
1BF3
  5
1C3D
331
20A6
  5
227F
331
20C5
  5
229E
331
2251
  5
1CF7
331
2232
  5
1CD9
331
2270
  5
1CE4
331
1B86
  5
1B86
331
1BE3
  5
1C2D
331
1C02
  5
1C4C
331
1B67
  5
1B67
331
1BA5
  5
1BA5
331
1BC4
  5
1C0E
331
2260
  5
1D06
331
2222
  5
1CC8
331
2241
  5
1D18
331
1B76
  5
1B76
331
1B95
  5
1B95
331
1BB4
  5
1BFE
331
1BD3
  5
1C1D
331
1C11
  5
1C5B
331
1BF2
  5
1C3C
331
20C4
  5
229D
331
20A5
  5
227E
331
2231
  5
1CD7
331
2250
  5
1CF6
331
1B57
  5
1B57
331
1B85
  5
1B85
331
1C01
  5
1C4B
331
20B4
  5
228D
331
1BE2
  5
1C2C
331
1B66
  5
1B66
331
1BA4
  5
1BA4
331
1BC3
  5
1C0D
331
2240
  5
1D17
331
2221
  5
1CC7
331
1BD2
  5
1C1C
331
1B94
  5
1B94
331
1B75
  5
1B75
331
1BB3
  5
1BFD
331
1C10
  5
1C5A
331
1BF1
  5
1C3B
331
20A4
  5
227D
331
20C3
  5
229C
331
2230
  5
1CD6
331
1B56
  5
1B56
331
1BA3
  5
1BA3
331
1C1F
  5
1C6B
331
20B3
  5
228C
331
1BE1
  5
1C2B
331
1C00
  5
1C4A
331
1B65
  5
1B65
331
1B84
  5
1B84
331
1BC2
  5
1C0C
331
2220
  5
1CC6
331
22C7
  5
1BDF
331
1B74
  5
1B74
331
1B93
  5
1B93
331
1BB2
  5
1BFC
331
1BD1
  5
1C1B
331
1C0F
  5
1C59
331
1BF0
  5
1C3A
331
20C2
  5
229B
331
20A3
  5
227C
331
22B7
  5
1BCF
331
1B55
  5
1B55
331
1B83
  5
1B83
331
1BFF
  5
1C49
331
20D1
  5
22AA
331
20B2
  5
228B
331
1BE0
  5
1C2A
331
1C1E
  5
1C68
331
1B64
  5
1B64
331
1BA2
  5
1BA2
331
1BC1
  5
1C0B
331
22C6
  5
1BDE
331
22A7
  5
1BBE
331
1BD0
  5
1C1A
331
1B92
  5
1B92
331
1B73
  5
1B73
331
1BB1
  5
1BFB
331
1C0E
  5
1C58
331
1BEF
  5
1C39
331
20A2
  5
227B
331
20C1
  5
229A
331
2297
  5
1BAE
331
22B6
  5
1BCE
331
1B54
  5
1B54
331
1BC0
  5
1C0A
331
1BA1
  5
1BA1
331
1B82
  5
1B82
331
1B63
  5
1B63
331
1C1D
  5
1C67
331
20B1
  5
228A
331
20D0
  5
22A9
331
1BDF
  5
1C29
331
1BFE
  5
1C48
331
22A6
  5
1BBD
331
2287
  5
1BE9
331
22C5
  5
1BDD
331
1B72
  5
1B72
331
1B91
  5
1B91
331
1BB0
  5
1BFA
331
1C0D
  5
1C57
331
1BEE
  5
1C38
331
20C0
  5
2299
331
20A1
  5
227A
331
20DF
  5
22B8
331
22B5
  5
1BCD
331
2296
  5
1BAD
331
1B53
  5
1B53
331
1BA0
  5
1BA0
331
1B81
  5
1B81
331
1B62
  5
1B62
331
1BFD
  5
1C47
331
20CF
  5
22A8
331
20B0
  5
2289
331
1BDE
  5
1C28
331
1C1C
  5
1C66
331
22C4
  5
1BDC
331
2286
  5
1BE8
331
22A5
  5
1BBC
331
1B90
  5
1B90
331
1B71
  5
1B71
331
1C0C
  5
1C56
331
1BED
  5
1C37
331
20DE
  5
22B7
331
20A0
  5
2279
331
20BF
  5
2298
331
2295
  5
1BAC
331
22B4
  5
1BCC
331
1B52
  5
1B52
331
1B80
  5
1B80
331
1B61
  5
1B61
331
1C1B
  5
1C65
331
20AF
  5
2288
331
20CE
  5
22A7
331
1BDD
  5
1C27
331
1BFC
  5
1C46
331
22A4
  5
1BBB
331
2285
  5
1BE7
331
22C3
  5
1BDB
331
1B70
  5
1B70
331
1C0B
  5
1C55
331
1BEC
  5
1C36
331
20BE
  5
2297
331
209F
  5
2278
331
20DD
  5
22B6
331
22B3
  5
1BCB
331
2294
  5
1BA9
331
1B51
  5
1B51
331
1B60
  5
1B60
331
1BFB
  5
1C45
331
20CD
  5
22A6
331
20AE
  5
2287
331
1BDC
  5
1C26
331
1C1A
  5
1C64
331
22C2
  5
1BDA
331
2284
  5
1D2A
331
22A3
  5
1BBA
331
1C0A
  5
1C54
331
1BEB
  5
1C35
331
20DC
  5
22B5
331
209E
  5
2277
331
20BD
  5
2296
331
2293
  5
1BA7
331
22B2
  5
1BCA
331
1B50
  5
1B50
331
1C19
  5
1C63
331
20AD
  5
2286
331
20CC
  5
22A5
331
1BDB
  5
1C25
331
1BFA
  5
1C44
331
22A2
  5
1BB9
331
2283
  5
1D29
331
22C1
  5
1BD9
331
1B5F
  5
1B5F
331
1C09
  5
1C53
331
1BEA
  5
1C34
331
20BC
  5
2295
331
209D
  5
2276
331
20DB
  5
22B4
331
22B1
  5
1BC9
331
2292
  5
1BF4
331
1B4F
  5
1B4F
331
1BF9
  5
1C43
331
20CB
  5
22A4
331
20AC
  5
2285
331
1BDA
  5
1C24
331
1C18
  5
1C62
331
22C0
  5
1BD8
331
2282
  5
1D28
331
22A1
  5
1BB8
331
1B5E
  5
1B5E
331
1C08
  5
1C52
331
1BE9
  5
1C33
331
20DA
  5
22B3
331
20BB
  5
2294
331
209C
  5
2275
331
2291
  5
1BF3
331
22B0
  5
1BC7
331
1B4E
  5
1B4E
331
1BF8
  5
1C42
331
20AB
  5
2284
331
20CA
  5
22A3
331
1BD9
  5
1C23
331
22A0
  5
1BB7
331
2281
  5
1D27
331
22BF
  5
1BD7
331
1B5D
  5
1B5D
331
1BE8
  5
1C32
331
20BA
  5
2293
331
209B
  5
2274
331
22AF
  5
1BC6
331
2290
  5
1BF2
331
22CE
  5
1BE6
331
1B4D
  5
1B4D
331
20C9
  5
22A2
331
20AA
  5
2283
331
1BD8
  5
1C22
331
22BE
  5
1BD6
331
2280
  5
1D26
331
229F
  5
1BB6
331
1B5C
  5
1B5C
331
20B9
  5
2292
331
209A
  5
2273
331
20D8
  5
22B1
331
228F
  5
1BF1
331
22AE
  5
1BC5
331
22CD
  5
1BE5
331
20A9
  5
2282
331
20C8
  5
22A1
331
227F
  5
1D25
331
229E
  5
1BB5
331
22BD
  5
1BD5
331
1B5B
  5
1B5B
331
20B8
  5
2291
331
2099
  5
2272
331
22AD
  5
1BC4
331
228E
  5
1BF0
331
22CC
  5
1BE4
331
20A8
  5
2281
331
227E
  5
1D24
331
229D
  5
1BB4
331
22BC
  5
1BD4
331
1B5A
  5
1B5A
331
228D
  5
1BEF
331
22AC
  5
1BC3
331
22CB
  5
1BE3
331
227D
  5
1D23
331
229C
  5
1BB3
331
22BB
  5
1BD3
331
1B59
  5
1B59
331
22CA
  5
1BE2
331
228C
  5
1BEE
331
22AB
  5
1BC2
331
227C
  5
1CF0
331
229B
  5
1BB2
331
22BA
  5
1BD2
331
1B58
  5
1B58
331
228B
  5
1BED
331
22AA
  5
1BC1
331
22C9
  5
1BE1
331
20EF
  5
22C8
331
22B9
  5
1BD1
331
227B
  5
1CEF
331
229A
  5
1BB1
331
22C8
  5
1BE0
331
228A
  5
1BEC
331
22A9
  5
1BC0
331
226F
  5
1CE3
331
20EE
  5
22C7
331
227A
  5
1CEE
331
2299
  5
1BB0
331
22B8
  5
1BD0
331
225F
  5
1D05
331
22A8
  5
1BBF
331
2289
  5
1BEB
331
224F
  5
1CF5
331
226E
  5
1D14
331
2279
  5
1CED
331
2298
  5
1BAF
331
223F
  5
1D16
331
225E
  5
1D04
331
2288
  5
1BEA
331
222F
  5
1CD5
331
224E
  5
1CF4
331
226D
  5
1D13
331
2278
  5
1CEC
331
223E
  5
1D15
331
221F
  5
1CC5
331
225D
  5
1D03
331
1C7E
  5
1D30
331
226C
  5
1D12
331
222E
  5
1CD4
331
224D
  5
1CF3
331
221E
  5
1CC4
331
225C
  5
1D02
331
1C7D
  5
1D2F
331
1BCF
  5
1C19
331
222D
  5
1CD3
331
224C
  5
1CF2
331
226B
  5
1D11
331
1BBF
  5
1C09
331
225B
  5
1D01
331
1C7C
  5
1D2E
331
1BAF
  5
1BF9
331
1BCE
  5
1C18
331
20E9
  5
22C2
331
226A
  5
1D10
331
222C
  5
1CD2
331
224B
  5
1CF1
331
1BBE
  5
1C08
331
1B9F
  5
1B9F
331
223B
  5
1CE2
331
225A
  5
1D00
331
1C7B
  5
1D2D
331
1BAE
  5
1BF8
331
1B8F
  5
1B8F
331
1BCD
  5
1C17
331
20E8
  5
22C1
331
224A
  5
1D21
331
222B
  5
1CD1
331
2269
  5
1D0F
  0
XRECORD
  5
247D
102
{ACAD_REACTORS
330
247C
102
}
330
247C
100
AcDbXrecord
280
     1
 40
3752.0
  1
90,0°
  0
XRECORD
  5
2474
102
{ACAD_REACTORS
330
2473
102
}
330
2473
100
AcDbXrecord
280
     1
 40
1.570796326794896
  0
LAYOUT
  5
1E
102
{ACAD_XDICTIONARY
360
2475
102
}
102
{ACAD_REACTORS
330
1A
102
}
330
1A
100
AcDbPlotSettings
  1

  2
Ploter HP500
  4

  6

 40
0.0
 41
0.0
 42
0.0
 43
0.0
 44
0.0
 45
0.0
 46
0.0
 47
0.0
 48
0.0
 49
0.0
140
0.0
141
0.0
142
1.0
143
1.0
 70
   688
 72
     0
 73
     0
 74
     5
  7
sanindusa.ctb
 75
    16
147
1.0
148
0.0
149
0.0
100
AcDbLayout
  1
Layout1
 70
     1
 71
     1
 10
0.0
 20
0.0
 11
420.0
 21
297.0
 12
0.0
 22
0.0
 32
0.0
 14
1.000000000000000E+20
 24
1.000000000000000E+20
 34
1.000000000000000E+20
 15
-1.000000000000000E+20
 25
-1.000000000000000E+20
 35
-1.000000000000000E+20
146
0.0
 13
0.0
 23
0.0
 33
0.0
 16
1.0
 26
0.0
 36
0.0
 17
0.0
 27
1.0
 37
0.0
 76
     0
330
1B
  0
LAYOUT
  5
26
102
{ACAD_XDICTIONARY
360
2479
102
}
102
{ACAD_REACTORS
330
1A
102
}
330
1A
100
AcDbPlotSettings
  1

  2
Ploter HP500
  4

  6

 40
0.0
 41
0.0
 42
0.0
 43
0.0
 44
0.0
 45
0.0
 46
0.0
 47
0.0
 48
0.0
 49
0.0
140
0.0
141
0.0
142
1.0
143
1.0
 70
   688
 72
     0
 73
     0
 74
     5
  7
sanindusa.ctb
 75
    16
147
1.0
148
0.0
149
0.0
100
AcDbLayout
  1
Layout2
 70
     1
 71
     2
 10
0.0
 20
0.0
 11
12.0
 21
9.0
 12
0.0
 22
0.0
 32
0.0
 14
0.0
 24
0.0
 34
0.0
 15
0.0
 25
0.0
 35
0.0
146
0.0
 13
0.0
 23
0.0
 33
0.0
 16
1.0
 26
0.0
 36
0.0
 17
0.0
 27
1.0
 37
0.0
 76
     0
330
23
  0
LAYOUT
  5
22
102
{ACAD_XDICTIONARY
360
2477
102
}
102
{ACAD_REACTORS
330
1A
102
}
330
1A
100
AcDbPlotSettings
  1

  2
Ploter HP500
  4
User268
  6

 40
4.995333194732666
 41
16.97565841674804
 42
4.995330810546875
 43
16.97567749023437
 44
209.9733276367187
 45
296.9259948730469
 46
0.0
 47
0.0
 48
0.0
 49
0.0
140
0.0
141
0.0
142
1.0
143
1.0
 70
 11952
 72
     1
 73
     1
 74
     0
  7
sanindusa.ctb
 75
     0
147
1.0
148
-427.5957866592534
149
7.362384574453926
100
AcDbLayout
  1
Model
 70
     1
 71
     0
 10
0.0
 20
0.0
 11
12.0
 21
9.0
 12
0.0
 22
0.0
 32
0.0
 14
0.0
 24
0.0
 34
0.0
 15
0.0
 25
0.0
 35
0.0
146
0.0
 13
0.0
 23
0.0
 33
0.0
 16
1.0
 26
0.0
 36
0.0
 17
0.0
 27
1.0
 37
0.0
 76
     0
330
1F
331
2393
  0
MATERIAL
  5
23A4
102
{ACAD_XDICTIONARY
360
23A5
102
}
102
{ACAD_REACTORS
330
EE5
102
}
330
EE5
100
AcDbMaterial
  1
ByBlock
 72
     0
 43
0.0008202099737533
 43
0.0
 43
0.0
 43
0.0
 43
0.0
 43
0.0008202099737533
 43
0.0
 43
0.0
 43
0.0
 43
0.0
 43
1.0
 43
0.0
 43
0.0
 43
0.0
 43
0.0
 43
1.0
 77
     0
 47
0.0008202099737533
 47
0.0
 47
0.0
 47
0.0
 47
0.0
 47
0.0008202099737533
 47
0.0
 47
0.0
 47
0.0
 47
0.0
 47
1.0
 47
0.0
 47
0.0
 47
0.0
 47
0.0
 47
1.0
171
     0
 49
0.0008202099737533
 49
0.0
 49
0.0
 49
0.0
 49
0.0
 49
0.0008202099737533
 49
0.0
 49
0.0
 49
0.0
 49
0.0
 49
1.0
 49
0.0
 49
0.0
 49
0.0
 49
0.0
 49
1.0
175
     0
142
0.0008202099737533
142
0.0
142
0.0
142
0.0
142
0.0
142
0.0008202099737533
142
0.0
142
0.0
142
0.0
142
0.0
142
1.0
142
0.0
142
0.0
142
0.0
142
0.0
142
1.0
179
     0
144
0.0008202099737533
144
0.0
144
0.0
144
0.0
144
0.0
144
0.0008202099737533
144
0.0
144
0.0
144
0.0
144
0.0
144
1.0
144
0.0
144
0.0
144
0.0
144
0.0
144
1.0
147
0.0008202099737533
147
0.0
147
0.0
147
0.0
147
0.0
147
0.0008202099737533
147
0.0
147
0.0
147
0.0
147
0.0
147
1.0
147
0.0
147
0.0
147
0.0
147
0.0
147
1.0
  0
MATERIAL
  5
239C
102
{ACAD_XDICTIONARY
360
239D
102
}
102
{ACAD_REACTORS
330
EE5
102
}
330
EE5
100
AcDbMaterial
  1
ByLayer
 72
     0
 43
0.0008202099737533
 43
0.0
 43
0.0
 43
0.0
 43
0.0
 43
0.0008202099737533
 43
0.0
 43
0.0
 43
0.0
 43
0.0
 43
1.0
 43
0.0
 43
0.0
 43
0.0
 43
0.0
 43
1.0
 77
     0
 47
0.0008202099737533
 47
0.0
 47
0.0
 47
0.0
 47
0.0
 47
0.0008202099737533
 47
0.0
 47
0.0
 47
0.0
 47
0.0
 47
1.0
 47
0.0
 47
0.0
 47
0.0
 47
0.0
 47
1.0
171
     0
 49
0.0008202099737533
 49
0.0
 49
0.0
 49
0.0
 49
0.0
 49
0.0008202099737533
 49
0.0
 49
0.0
 49
0.0
 49
0.0
 49
1.0
 49
0.0
 49
0.0
 49
0.0
 49
0.0
 49
1.0
175
     0
142
0.0008202099737533
142
0.0
142
0.0
142
0.0
142
0.0
142
0.0008202099737533
142
0.0
142
0.0
142
0.0
142
0.0
142
1.0
142
0.0
142
0.0
142
0.0
142
0.0
142
1.0
179
     0
144
0.0008202099737533
144
0.0
144
0.0
144
0.0
144
0.0
144
0.0008202099737533
144
0.0
144
0.0
144
0.0
144
0.0
144
1.0
144
0.0
144
0.0
144
0.0
144
0.0
144
1.0
147
0.0008202099737533
147
0.0
147
0.0
147
0.0
147
0.0
147
0.0008202099737533
147
0.0
147
0.0
147
0.0
147
0.0
147
1.0
147
0.0
147
0.0
147
0.0
147
0.0
147
1.0
  0
MATERIAL
  5
23AC
102
{ACAD_XDICTIONARY
360
23AD
102
}
102
{ACAD_REACTORS
330
EE5
102
}
330
EE5
100
AcDbMaterial
  1
Global
 72
     0
 43
0.0008202099737533
 43
0.0
 43
0.0
 43
0.0
 43
0.0
 43
0.0008202099737533
 43
0.0
 43
0.0
 43
0.0
 43
0.0
 43
1.0
 43
0.0
 43
0.0
 43
0.0
 43
0.0
 43
1.0
 77
     0
 47
0.0008202099737533
 47
0.0
 47
0.0
 47
0.0
 47
0.0
 47
0.0008202099737533
 47
0.0
 47
0.0
 47
0.0
 47
0.0
 47
1.0
 47
0.0
 47
0.0
 47
0.0
 47
0.0
 47
1.0
171
     0
 49
0.0008202099737533
 49
0.0
 49
0.0
 49
0.0
 49
0.0
 49
0.0008202099737533
 49
0.0
 49
0.0
 49
0.0
 49
0.0
 49
1.0
 49
0.0
 49
0.0
 49
0.0
 49
0.0
 49
1.0
175
     0
142
0.0008202099737533
142
0.0
142
0.0
142
0.0
142
0.0
142
0.0008202099737533
142
0.0
142
0.0
142
0.0
142
0.0
142
1.0
142
0.0
142
0.0
142
0.0
142
0.0
142
1.0
179
     0
144
0.0008202099737533
144
0.0
144
0.0
144
0.0
144
0.0
144
0.0008202099737533
144
0.0
144
0.0
144
0.0
144
0.0
144
1.0
144
0.0
144
0.0
144
0.0
144
0.0
144
1.0
147
0.0008202099737533
147
0.0
147
0.0
147
0.0
147
0.0
147
0.0008202099737533
147
0.0
147
0.0
147
0.0
147
0.0
147
1.0
147
0.0
147
0.0
147
0.0
147
0.0
147
1.0
  0
MLEADERSTYLE
  5
23DB
102
{ACAD_REACTORS
330
23DA
102
}
330
23DA
100
AcDbMLeaderStyle
170
     2
171
     1
172
     0
 90
        2
 40
0.0
 41
0.0
173
     1
 91
-1056964608
340
14
 92
       -2
290
     1
 42
2.0
291
     1
 43
0.36
  3
Standard
 44
4.0
300

342
11
174
     1
178
     6
175
     1
176
     0
 93
-1056964608
 45
4.0
292
     0
297
     0
 46
4.0
 94
-1056964608
 47
1.0
 49
1.0
140
1.0
293
     1
141
0.0
294
     1
177
     0
142
1.0
295
     0
296
     0
143
0.125
1001
ACAD_MLEADERVER
1070
     2
  0
MLINESTYLE
  5
18
102
{ACAD_REACTORS
330
17
102
}
330
17
100
AcDbMlineStyle
  2
STANDARD
 70
     0
  3

 62
   256
 51
90.0
 52
90.0
 71
     2
 49
0.5
 62
   256
  6
BYLAYER
 49
-0.5
 62
   256
  6
BYLAYER
  0
ACDBPLACEHOLDER
  5
F
102
{ACAD_REACTORS
330
E
102
}
330
E
  0
SCALE
  5
23C9
102
{ACAD_REACTORS
330
23C8
102
}
330
23C8
100
AcDbScale
 70
     0
300
1:1
140
1.0
141
1.0
290
     1
  0
SCALE
  5
23CA
102
{ACAD_REACTORS
330
23C8
102
}
330
23C8
100
AcDbScale
 70
     0
300
1:2
140
1.0
141
2.0
290
     0
  0
SCALE
  5
23CB
102
{ACAD_REACTORS
330
23C8
102
}
330
23C8
100
AcDbScale
 70
     0
300
1:4
140
1.0
141
4.0
290
     0
  0
SCALE
  5
23CC
102
{ACAD_REACTORS
330
23C8
102
}
330
23C8
100
AcDbScale
 70
     0
300
1:5
140
1.0
141
5.0
290
     0
  0
SCALE
  5
23CD
102
{ACAD_REACTORS
330
23C8
102
}
330
23C8
100
AcDbScale
 70
     0
300
1:8
140
1.0
141
8.0
290
     0
  0
SCALE
  5
23CE
102
{ACAD_REACTORS
330
23C8
102
}
330
23C8
100
AcDbScale
 70
     0
300
1:10
140
1.0
141
10.0
290
     0
  0
SCALE
  5
23CF
102
{ACAD_REACTORS
330
23C8
102
}
330
23C8
100
AcDbScale
 70
     0
300
1:16
140
1.0
141
16.0
290
     0
  0
SCALE
  5
23D0
102
{ACAD_REACTORS
330
23C8
102
}
330
23C8
100
AcDbScale
 70
     0
300
1:20
140
1.0
141
20.0
290
     0
  0
SCALE
  5
23D1
102
{ACAD_REACTORS
330
23C8
102
}
330
23C8
100
AcDbScale
 70
     0
300
1:30
140
1.0
141
30.0
290
     0
  0
SCALE
  5
23D2
102
{ACAD_REACTORS
330
23C8
102
}
330
23C8
100
AcDbScale
 70
     0
300
1:40
140
1.0
141
40.0
290
     0
  0
SCALE
  5
23D3
102
{ACAD_REACTORS
330
23C8
102
}
330
23C8
100
AcDbScale
 70
     0
300
1:50
140
1.0
141
50.0
290
     0
  0
SCALE
  5
23D4
102
{ACAD_REACTORS
330
23C8
102
}
330
23C8
100
AcDbScale
 70
     0
300
1:100
140
1.0
141
100.0
290
     0
  0
SCALE
  5
23D5
102
{ACAD_REACTORS
330
23C8
102
}
330
23C8
100
AcDbScale
 70
     0
300
2:1
140
2.0
141
1.0
290
     0
  0
SCALE
  5
23D6
102
{ACAD_REACTORS
330
23C8
102
}
330
23C8
100
AcDbScale
 70
     0
300
4:1
140
4.0
141
1.0
290
     0
  0
SCALE
  5
23D7
102
{ACAD_REACTORS
330
23C8
102
}
330
23C8
100
AcDbScale
 70
     0
300
8:1
140
8.0
141
1.0
290
     0
  0
SCALE
  5
23D8
102
{ACAD_REACTORS
330
23C8
102
}
330
23C8
100
AcDbScale
 70
     0
300
10:1
140
10.0
141
1.0
290
     0
  0
SCALE
  5
23D9
102
{ACAD_REACTORS
330
23C8
102
}
330
23C8
100
AcDbScale
 70
     0
300
100:1
140
100.0
141
1.0
290
     0
  0
TABLESTYLE
  5
EE8
102
{ACAD_XDICTIONARY
360
246F
102
}
102
{ACAD_REACTORS
330
EE7
102
}
330
EE7
100
AcDbTableStyle
  3
Standard
 70
     0
 71
     0
 40
1.5
 41
1.5
280
     0
281
     0
  7
Standard
140
4.5
170
     2
 62
     0
 63
     7
283
     0
274
    -2
284
     1
 64
     0
275
    -2
285
     1
 65
     0
276
    -2
286
     1
 66
     0
277
    -2
287
     1
 67
     0
278
    -2
288
     1
 68
     0
279
    -2
289
     1
 69
     0
  7
Standard
140
6.0
170
     5
 62
     0
 63
     7
283
     0
274
    -2
284
     1
 64
     0
275
    -2
285
     1
 65
     0
276
    -2
286
     1
 66
     0
277
    -2
287
     1
 67
     0
278
    -2
288
     1
 68
     0
279
    -2
289
     1
 69
     0
  7
Standard
140
4.5
170
     5
 62
     0
 63
     7
283
     0
274
    -2
284
     1
 64
     0
275
    -2
285
     1
 65
     0
276
    -2
286
     1
 66
     0
277
    -2
287
     1
 67
     0
278
    -2
288
     1
 68
     0
279
    -2
289
     1
 69
     0
  0
VISUALSTYLE
  5
23BA
102
{ACAD_XDICTIONARY
360
248B
102
}
102
{ACAD_REACTORS
330
23B4
102
}
330
23B4
100
AcDbVisualStyle
  2
2dWireframe
 70
     4
 71
     0
 72
     2
 73
     0
 90
        0
 40
-0.6
 41
-30.0
 62
     5
 63
     7
 74
     1
 91
        4
 64
     7
 65
   257
 75
     1
175
     1
 42
1.0
 92
        0
 66
   257
 43
1.0
 76
     1
 77
     6
 78
     2
 67
     7
 79
     5
170
     0
171
     0
290
     0
174
     0
 93
        1
 44
0.0
173
     0
291
     0
 45
0.0
1001
ACAD
1000
AcDbSavedByObjectVersion
1070
     0
  0
VISUALSTYLE
  5
23BC
102
{ACAD_XDICTIONARY
360
248F
102
}
102
{ACAD_REACTORS
330
23B4
102
}
330
23B4
100
AcDbVisualStyle
  2
3D Hidden
 70
     6
 71
     1
 72
     2
 73
     2
 90
        0
 40
-0.6
 41
-30.0
 62
     5
 63
     7
 74
     2
 91
        2
 64
     7
 65
   257
 75
     2
175
     1
 42
179.0
 92
        0
 66
   257
 43
1.0
 76
     1
 77
     6
 78
     2
 67
     7
 79
     3
170
     0
171
     0
290
     0
174
     0
 93
        1
 44
0.0
173
     0
291
     0
 45
0.0
1001
ACAD
1000
AcDbSavedByObjectVersion
1070
     0
  0
VISUALSTYLE
  5
23BB
102
{ACAD_XDICTIONARY
360
248D
102
}
102
{ACAD_REACTORS
330
23B4
102
}
330
23B4
100
AcDbVisualStyle
  2
3dWireframe
 70
     5
 71
     0
 72
     2
 73
     0
 90
        0
 40
-0.6
 41
-30.0
 62
     5
 63
     7
 74
     1
 91
        4
 64
     7
 65
   257
 75
     1
175
     1
 42
1.0
 92
        0
 66
   257
 43
1.0
 76
     1
 77
     6
 78
     2
 67
     7
 79
     5
170
     0
171
     0
290
     0
174
     0
 93
        1
 44
0.0
173
     0
291
     0
 45
0.0
1001
ACAD
1000
AcDbSavedByObjectVersion
1070
     0
  0
VISUALSTYLE
  5
23B9
102
{ACAD_XDICTIONARY
360
2489
102
}
102
{ACAD_REACTORS
330
23B4
102
}
330
23B4
100
AcDbVisualStyle
  2
Basic
 70
     7
 71
     1
 72
     0
 73
     1
 90
        0
 40
-0.6
 41
-30.0
 62
     5
 63
     7
 74
     0
 91
        4
 64
     7
 65
   257
 75
     1
175
     1
 42
1.0
 92
        8
 66
     7
 43
1.0
 76
     1
 77
     6
 78
     2
 67
     7
 79
     5
170
     0
171
     0
290
     0
174
     0
 93
        1
 44
0.0
173
     0
291
     1
 45
0.0
1001
ACAD
1000
AcDbSavedByObjectVersion
1070
     0
  0
VISUALSTYLE
  5
23C0
102
{ACAD_XDICTIONARY
360
2497
102
}
102
{ACAD_REACTORS
330
23B4
102
}
330
23B4
100
AcDbVisualStyle
  2
Brighten
 70
    12
 71
     2
 72
     2
 73
     0
 90
        0
 40
-0.6
 41
-30.0
 62
     5
 63
     7
 74
     1
 91
        4
 64
     7
 65
   257
 75
     1
175
     1
 42
1.0
 92
        8
 66
     7
 43
1.0
 76
     1
 77
     6
 78
     2
 67
     7
 79
     5
170
     0
171
     0
290
     0
174
     0
 93
        1
 44
50.0
173
     0
291
     1
 45
0.0
1001
ACAD
1000
AcDbSavedByObjectVersion
1070
     0
  0
VISUALSTYLE
  5
23C4
102
{ACAD_XDICTIONARY
360
249F
102
}
102
{ACAD_REACTORS
330
23B4
102
}
330
23B4
100
AcDbVisualStyle
  2
ColorChange
 70
    16
 71
     2
 72
     2
 73
     3
 90
        0
 40
-0.6
 41
-30.0
 62
     5
 63
     8
 74
     1
 91
        4
 64
     7
 65
   257
 75
     1
175
     1
 42
1.0
 92
        8
 66
     8
 43
1.0
 76
     1
 77
     6
 78
     2
 67
     7
 79
     5
170
     0
171
     0
290
     0
174
     0
 93
        1
 44
0.0
173
     0
291
     1
 45
0.0
1001
ACAD
1000
AcDbSavedByObjectVersion
1070
     0
  0
VISUALSTYLE
  5
23BD
102
{ACAD_XDICTIONARY
360
2491
102
}
102
{ACAD_REACTORS
330
23B4
102
}
330
23B4
100
AcDbVisualStyle
  2
Conceptual
 70
     9
 71
     3
 72
     2
 73
     0
 90
        0
 40
-0.6
 41
-30.0
 62
     5
 63
     7
 74
     2
 91
        2
 64
     7
 65
   257
 75
     1
175
     1
 42
179.0
 92
        8
 66
     7
 43
1.0
 76
     1
 77
     6
 78
     2
 67
     7
 79
     3
170
     0
171
     0
290
     0
174
     0
 93
        1
 44
0.0
173
     0
291
     0
 45
0.0
1001
ACAD
1000
AcDbSavedByObjectVersion
1070
     0
  0
VISUALSTYLE
  5
23BF
102
{ACAD_XDICTIONARY
360
2495
102
}
102
{ACAD_REACTORS
330
23B4
102
}
330
23B4
100
AcDbVisualStyle
  2
Dim
 70
    11
 71
     2
 72
     2
 73
     0
 90
        0
 40
-0.6
 41
-30.0
 62
     5
 63
     7
 74
     1
 91
        4
 64
     7
 65
   257
 75
     1
175
     1
 42
1.0
 92
        8
 66
     7
 43
1.0
 76
     1
 77
     6
 78
     2
 67
     7
 79
     5
170
     0
171
     0
290
     0
174
     0
 93
        1
 44
-50.0
173
     0
291
     1
 45
0.0
1001
ACAD
1000
AcDbSavedByObjectVersion
1070
     0
  0
VISUALSTYLE
  5
23C7
102
{ACAD_XDICTIONARY
360
24A5
102
}
102
{ACAD_REACTORS
330
23B4
102
}
330
23B4
100
AcDbVisualStyle
  2
EdgeColorOff
 70
    22
 71
     2
 72
     2
 73
     0
 90
        0
 40
-0.6
 41
-30.0
 62
     5
 63
     7
 74
     1
 91
        4
 64
     7
 65
   257
 75
     1
175
     1
 42
1.0
 92
        8
 66
     7
 43
1.0
 76
     1
 77
     6
 78
     2
 67
     7
 79
     5
170
     0
171
     0
290
     0
174
     0
 93
        1
 44
0.0
173
     0
291
     1
 45
0.0
1001
ACAD
1000
AcDbSavedByObjectVersion
1070
     0
  0
VISUALSTYLE
  5
23C3
102
{ACAD_XDICTIONARY
360
249D
102
}
102
{ACAD_REACTORS
330
23B4
102
}
330
23B4
100
AcDbVisualStyle
  2
Facepattern
 70
    15
 71
     2
 72
     2
 73
     0
 90
        0
 40
-0.6
 41
-30.0
 62
     5
 63
     7
 74
     1
 91
        4
 64
     7
 65
   257
 75
     1
175
     1
 42
1.0
 92
        8
 66
     7
 43
1.0
 76
     1
 77
     6
 78
     2
 67
     7
 79
     5
170
     0
171
     0
290
     0
174
     0
 93
        1
 44
0.0
173
     0
291
     1
 45
0.0
1001
ACAD
1000
AcDbSavedByObjectVersion
1070
     0
  0
VISUALSTYLE
  5
23B5
102
{ACAD_XDICTIONARY
360
2481
102
}
102
{ACAD_REACTORS
330
23B4
102
}
330
23B4
100
AcDbVisualStyle
  2
Flat
 70
     0
 71
     2
 72
     1
 73
     1
 90
        2
 40
-0.6
 41
30.0
 62
     5
 63
     7
 74
     0
 91
        4
 64
     7
 65
   257
 75
     1
175
     1
 42
1.0
 92
        8
 66
     7
 43
1.0
 76
     1
 77
     6
 78
     2
 67
     7
 79
     5
170
     0
171
     0
290
     0
174
     0
 93
       13
 44
0.0
173
     0
291
     1
 45
0.0
1001
ACAD
1000
AcDbSavedByObjectVersion
1070
     0
  0
VISUALSTYLE
  5
23B6
102
{ACAD_XDICTIONARY
360
2483
102
}
102
{ACAD_REACTORS
330
23B4
102
}
330
23B4
100
AcDbVisualStyle
  2
FlatWithEdges
 70
     1
 71
     2
 72
     1
 73
     1
 90
        2
 40
-0.6
 41
30.0
 62
     5
 63
     7
 74
     1
 91
        4
 64
     7
 65
   257
 75
     1
175
     1
 42
1.0
 92
        0
 66
   257
 43
1.0
 76
     1
 77
     6
 78
     2
 67
     7
 79
     5
170
     0
171
     0
290
     0
174
     0
 93
       13
 44
0.0
173
     0
291
     1
 45
0.0
1001
ACAD
1000
AcDbSavedByObjectVersion
1070
     0
  0
VISUALSTYLE
  5
23B7
102
{ACAD_XDICTIONARY
360
2485
102
}
102
{ACAD_REACTORS
330
23B4
102
}
330
23B4
100
AcDbVisualStyle
  2
Gouraud
 70
     2
 71
     2
 72
     2
 73
     1
 90
        2
 40
-0.6
 41
30.0
 62
     5
 63
     7
 74
     0
 91
        4
 64
     7
 65
   257
 75
     1
175
     1
 42
1.0
 92
        0
 66
     7
 43
1.0
 76
     1
 77
     6
 78
     2
 67
     7
 79
     5
170
     0
171
     0
290
     0
174
     0
 93
       13
 44
0.0
173
     0
291
     1
 45
0.0
1001
ACAD
1000
AcDbSavedByObjectVersion
1070
     0
  0
VISUALSTYLE
  5
23B8
102
{ACAD_XDICTIONARY
360
2487
102
}
102
{ACAD_REACTORS
330
23B4
102
}
330
23B4
100
AcDbVisualStyle
  2
GouraudWithEdges
 70
     3
 71
     2
 72
     2
 73
     1
 90
        2
 40
-0.6
 41
30.0
 62
     5
 63
     7
 74
     1
 91
        4
 64
     7
 65
   257
 75
     1
175
     1
 42
1.0
 92
        0
 66
   257
 43
1.0
 76
     1
 77
     6
 78
     2
 67
     7
 79
     5
170
     0
171
     0
290
     0
174
     0
 93
       13
 44
0.0
173
     0
291
     1
 45
0.0
1001
ACAD
1000
AcDbSavedByObjectVersion
1070
     0
  0
VISUALSTYLE
  5
23C5
102
{ACAD_XDICTIONARY
360
24A1
102
}
102
{ACAD_REACTORS
330
23B4
102
}
330
23B4
100
AcDbVisualStyle
  2
JitterOff
 70
    20
 71
     2
 72
     2
 73
     0
 90
        0
 40
-0.6
 41
-30.0
 62
     5
 63
     7
 74
     1
 91
        4
 64
     7
 65
   257
 75
     1
175
     1
 42
1.0
 92
       10
 66
     7
 43
1.0
 76
     1
 77
     6
 78
     2
 67
     7
 79
     5
170
     0
171
     0
290
     0
174
     0
 93
        1
 44
0.0
173
     0
291
     1
 45
0.0
1001
ACAD
1000
AcDbSavedByObjectVersion
1070
     0
  0
VISUALSTYLE
  5
23C2
102
{ACAD_XDICTIONARY
360
249B
102
}
102
{ACAD_REACTORS
330
23B4
102
}
330
23B4
100
AcDbVisualStyle
  2
Linepattern
 70
    14
 71
     2
 72
     2
 73
     0
 90
        0
 40
-0.6
 41
-30.0
 62
     5
 63
     7
 74
     1
 91
        4
 64
     7
 65
   257
 75
     7
175
     7
 42
1.0
 92
        8
 66
     7
 43
1.0
 76
     1
 77
     6
 78
     2
 67
     7
 79
     5
170
     0
171
     0
290
     0
174
     0
 93
        1
 44
0.0
173
     0
291
     1
 45
0.0
1001
ACAD
1000
AcDbSavedByObjectVersion
1070
     0
  0
VISUALSTYLE
  5
23C6
102
{ACAD_XDICTIONARY
360
24A3
102
}
102
{ACAD_REACTORS
330
23B4
102
}
330
23B4
100
AcDbVisualStyle
  2
OverhangOff
 70
    21
 71
     2
 72
     2
 73
     0
 90
        0
 40
-0.6
 41
-30.0
 62
     5
 63
     7
 74
     1
 91
        4
 64
     7
 65
   257
 75
     1
175
     1
 42
1.0
 92
        9
 66
     7
 43
1.0
 76
     1
 77
     6
 78
     2
 67
     7
 79
     5
170
     0
171
     0
290
     0
174
     0
 93
        1
 44
0.0
173
     0
291
     1
 45
0.0
1001
ACAD
1000
AcDbSavedByObjectVersion
1070
     0
  0
VISUALSTYLE
  5
23BE
102
{ACAD_XDICTIONARY
360
2493
102
}
102
{ACAD_REACTORS
330
23B4
102
}
330
23B4
100
AcDbVisualStyle
  2
Realistic
 70
     8
 71
     2
 72
     2
 73
     0
 90
        0
 40
-0.6
 41
-30.0
 62
     5
 63
     7
 74
     1
 91
        0
 64
     7
 65
   257
 75
     1
175
     1
 42
1.0
 92
        8
 66
     8
 43
1.0
 76
     1
 77
     6
 78
     2
 67
     7
 79
     5
170
     0
171
     0
290
     0
174
     0
 93
       13
 44
0.0
173
     0
291
     0
 45
0.0
1001
ACAD
1000
AcDbSavedByObjectVersion
1070
     0
  0
VISUALSTYLE
  5
23C1
102
{ACAD_XDICTIONARY
360
2499
102
}
102
{ACAD_REACTORS
330
23B4
102
}
330
23B4
100
AcDbVisualStyle
  2
Thicken
 70
    13
 71
     2
 72
     2
 73
     0
 90
        0
 40
-0.6
 41
-30.0
 62
     5
 63
     7
 74
     1
 91
        4
 64
     7
 65
   257
 75
     1
175
     1
 42
1.0
 92
       12
 66
     7
 43
1.0
 76
     1
 77
     6
 78
     2
 67
     7
 79
     5
170
     0
171
     0
290
     0
174
     0
 93
        1
 44
0.0
173
     0
291
     1
 45
0.0
1001
ACAD
1000
AcDbSavedByObjectVersion
1070
     0
  0
DICTIONARYVAR
  5
246B
102
{ACAD_REACTORS
330
3D
102
}
330
3D
100
DictionaryVariables
280
     0
  1
1:1
  0
DICTIONARYVAR
  5
246A
102
{ACAD_REACTORS
330
3D
102
}
330
3D
100
DictionaryVariables
280
     0
  1
STANDARD
  0
DICTIONARYVAR
  5
1049
102
{ACAD_REACTORS
330
3D
102
}
330
3D
100
DictionaryVariables
280
     0
  1
STANDARD
  0
DICTIONARYVAR
  5
3F
102
{ACAD_REACTORS
330
3D
102
}
330
3D
100
DictionaryVariables
280
     0
  1
2
  0
DICTIONARYVAR
  5
3E
102
{ACAD_REACTORS
330
3D
102
}
330
3D
100
DictionaryVariables
280
     0
  1
1
  0
DICTIONARYVAR
  5
246D
102
{ACAD_REACTORS
330
3D
102
}
330
3D
100
DictionaryVariables
280
     0
  1
0
  0
DICTIONARYVAR
  5
22E1
102
{ACAD_REACTORS
330
3D
102
}
330
3D
100
DictionaryVariables
280
     0
  1

  0
DICTIONARYVAR
  5
246C
102
{ACAD_REACTORS
330
3D
102
}
330
3D
100
DictionaryVariables
280
     0
  1
127
  0
DICTIONARYVAR
  5
246E
102
{ACAD_REACTORS
330
3D
102
}
330
3D
100
DictionaryVariables
280
     0
  1
2
  0
XRECORD
  5
E78
102
{ACAD_REACTORS
330
E77
102
}
330
E77
100
AcDbXrecord
280
     1
330
0
330
0
  0
DICTIONARY
  5
2475
330
1E
100
AcDbDictionary
280
     1
281
     1
  3
ACAD_XREC_ROUNDTRIP
360
2476
  0
DICTIONARY
  5
2479
330
26
100
AcDbDictionary
280
     1
281
     1
  3
ACAD_XREC_ROUNDTRIP
360
247A
  0
DICTIONARY
  5
2477
330
22
100
AcDbDictionary
280
     1
281
     1
  3
ACAD_XREC_ROUNDTRIP
360
2478
  0
DICTIONARY
  5
23A5
330
23A4
100
AcDbDictionary
280
     1
281
     1
  3
ACAD_XREC_ROUNDTRIP
360
247F
  3
BUMPTILE
360
23A7
  3
DIFFUSETILE
360
23A6
  3
OPACITYTILE
360
23AA
  3
REFLECTIONTILE
360
23A9
  3
REFRACTIONTILE
360
23AB
  3
SPECULARTILE
360
23A8
  0
DICTIONARY
  5
239D
330
239C
100
AcDbDictionary
280
     1
281
     1
  3
ACAD_XREC_ROUNDTRIP
360
247E
  3
BUMPTILE
360
239F
  3
DIFFUSETILE
360
239E
  3
OPACITYTILE
360
23A2
  3
REFLECTIONTILE
360
23A1
  3
REFRACTIONTILE
360
23A3
  3
SPECULARTILE
360
23A0
  0
DICTIONARY
  5
23AD
330
23AC
100
AcDbDictionary
280
     1
281
     1
  3
ACAD_XREC_ROUNDTRIP
360
2480
  3
BUMPTILE
360
23AF
  3
DIFFUSETILE
360
23AE
  3
OPACITYTILE
360
23B2
  3
REFLECTIONTILE
360
23B1
  3
REFRACTIONTILE
360
23B3
  3
SPECULARTILE
360
23B0
  0
DICTIONARY
  5
246F
330
EE8
100
AcDbDictionary
280
     1
281
     1
  3
ACAD_ROUNDTRIP_2008_TABLESTYLE_CELLSTYLEMAP
360
2470
  3
ACAD_XREC_ROUNDTRIP
360
247B
  0
DICTIONARY
  5
248B
330
23BA
100
AcDbDictionary
280
     1
281
     1
  3
ACAD_XREC_ROUNDTRIP
360
248C
  0
DICTIONARY
  5
248F
330
23BC
100
AcDbDictionary
280
     1
281
     1
  3
ACAD_XREC_ROUNDTRIP
360
2490
  0
DICTIONARY
  5
248D
330
23BB
100
AcDbDictionary
280
     1
281
     1
  3
ACAD_XREC_ROUNDTRIP
360
248E
  0
DICTIONARY
  5
2489
330
23B9
100
AcDbDictionary
280
     1
281
     1
  3
ACAD_XREC_ROUNDTRIP
360
248A
  0
DICTIONARY
  5
2497
330
23C0
100
AcDbDictionary
280
     1
281
     1
  3
ACAD_XREC_ROUNDTRIP
360
2498
  0
DICTIONARY
  5
249F
330
23C4
100
AcDbDictionary
280
     1
281
     1
  3
ACAD_XREC_ROUNDTRIP
360
24A0
  0
DICTIONARY
  5
2491
330
23BD
100
AcDbDictionary
280
     1
281
     1
  3
ACAD_XREC_ROUNDTRIP
360
2492
  0
DICTIONARY
  5
2495
330
23BF
100
AcDbDictionary
280
     1
281
     1
  3
ACAD_XREC_ROUNDTRIP
360
2496
  0
DICTIONARY
  5
24A5
330
23C7
100
AcDbDictionary
280
     1
281
     1
  3
ACAD_XREC_ROUNDTRIP
360
24A6
  0
DICTIONARY
  5
249D
330
23C3
100
AcDbDictionary
280
     1
281
     1
  3
ACAD_XREC_ROUNDTRIP
360
249E
  0
DICTIONARY
  5
2481
330
23B5
100
AcDbDictionary
280
     1
281
     1
  3
ACAD_XREC_ROUNDTRIP
360
2482
  0
DICTIONARY
  5
2483
330
23B6
100
AcDbDictionary
280
     1
281
     1
  3
ACAD_XREC_ROUNDTRIP
360
2484
  0
DICTIONARY
  5
2485
330
23B7
100
AcDbDictionary
280
     1
281
     1
  3
ACAD_XREC_ROUNDTRIP
360
2486
  0
DICTIONARY
  5
2487
330
23B8
100
AcDbDictionary
280
     1
281
     1
  3
ACAD_XREC_ROUNDTRIP
360
2488
  0
DICTIONARY
  5
24A1
330
23C5
100
AcDbDictionary
280
     1
281
     1
  3
ACAD_XREC_ROUNDTRIP
360
24A2
  0
DICTIONARY
  5
249B
330
23C2
100
AcDbDictionary
280
     1
281
     1
  3
ACAD_XREC_ROUNDTRIP
360
249C
  0
DICTIONARY
  5
24A3
330
23C6
100
AcDbDictionary
280
     1
281
     1
  3
ACAD_XREC_ROUNDTRIP
360
24A4
  0
DICTIONARY
  5
2493
330
23BE
100
AcDbDictionary
280
     1
281
     1
  3
ACAD_XREC_ROUNDTRIP
360
2494
  0
DICTIONARY
  5
2499
330
23C1
100
AcDbDictionary
280
     1
281
     1
  3
ACAD_XREC_ROUNDTRIP
360
249A
  0
XRECORD
  5
2476
102
{ACAD_REACTORS
330
2475
102
}
330
2475
100
AcDbXrecord
280
     1
102
SHADEPLOT
 70
     0
102
SHADEPLOTRESLEVEL
 70
     2
102
SHADEPLOTCUSTOMDPI
 70
   300
  0
XRECORD
  5
247A
102
{ACAD_REACTORS
330
2479
102
}
330
2479
100
AcDbXrecord
280
     1
102
SHADEPLOT
 70
     0
102
SHADEPLOTRESLEVEL
 70
     2
102
SHADEPLOTCUSTOMDPI
 70
   300
  0
XRECORD
  5
2478
102
{ACAD_REACTORS
330
2477
102
}
330
2477
100
AcDbXrecord
280
     1
102
SHADEPLOT
 70
     0
102
SHADEPLOTRESLEVEL
 70
     2
102
SHADEPLOTCUSTOMDPI
 70
   300
  0
XRECORD
  5
247F
102
{ACAD_REACTORS
330
23A5
102
}
330
23A5
100
AcDbXrecord
280
     1
102
MATERIAL
148
0.0
149
0.0
149
0.0
 93
        0
 94
      127
282
     0
 72
     0
 77
     0
171
     0
175
     0
179
     0
273
     0
  0
XRECORD
  5
23A7
102
{ACAD_REACTORS
330
23A5
102
}
330
23A5
100
AcDbXrecord
280
     1
270
     1
271
     1
  0
XRECORD
  5
23A6
102
{ACAD_REACTORS
330
23A5
102
}
330
23A5
100
AcDbXrecord
280
     1
270
     1
271
     1
  0
XRECORD
  5
23AA
102
{ACAD_REACTORS
330
23A5
102
}
330
23A5
100
AcDbXrecord
280
     1
270
     1
271
     1
  0
XRECORD
  5
23A9
102
{ACAD_REACTORS
330
23A5
102
}
330
23A5
100
AcDbXrecord
280
     1
270
     1
271
     1
  0
XRECORD
  5
23AB
102
{ACAD_REACTORS
330
23A5
102
}
330
23A5
100
AcDbXrecord
280
     1
270
     1
271
     1
  0
XRECORD
  5
23A8
102
{ACAD_REACTORS
330
23A5
102
}
330
23A5
100
AcDbXrecord
280
     1
270
     1
271
     1
  0
XRECORD
  5
247E
102
{ACAD_REACTORS
330
239D
102
}
330
239D
100
AcDbXrecord
280
     1
102
MATERIAL
148
0.0
149
0.0
149
0.0
 93
        0
 94
      127
282
     0
 72
     0
 77
     0
171
     0
175
     0
179
     0
273
     0
  0
XRECORD
  5
239F
102
{ACAD_REACTORS
330
239D
102
}
330
239D
100
AcDbXrecord
280
     1
270
     1
271
     1
  0
XRECORD
  5
239E
102
{ACAD_REACTORS
330
239D
102
}
330
239D
100
AcDbXrecord
280
     1
270
     1
271
     1
  0
XRECORD
  5
23A2
102
{ACAD_REACTORS
330
239D
102
}
330
239D
100
AcDbXrecord
280
     1
270
     1
271
     1
  0
XRECORD
  5
23A1
102
{ACAD_REACTORS
330
239D
102
}
330
239D
100
AcDbXrecord
280
     1
270
     1
271
     1
  0
XRECORD
  5
23A3
102
{ACAD_REACTORS
330
239D
102
}
330
239D
100
AcDbXrecord
280
     1
270
     1
271
     1
  0
XRECORD
  5
23A0
102
{ACAD_REACTORS
330
239D
102
}
330
239D
100
AcDbXrecord
280
     1
270
     1
271
     1
  0
XRECORD
  5
2480
102
{ACAD_REACTORS
330
23AD
102
}
330
23AD
100
AcDbXrecord
280
     1
102
MATERIAL
148
0.0
149
0.0
149
0.0
 93
        0
 94
      127
282
     0
 72
     0
 77
     0
171
     0
175
     0
179
     0
273
     0
  0
XRECORD
  5
23AF
102
{ACAD_REACTORS
330
23AD
102
}
330
23AD
100
AcDbXrecord
280
     1
270
     1
271
     1
  0
XRECORD
  5
23AE
102
{ACAD_REACTORS
330
23AD
102
}
330
23AD
100
AcDbXrecord
280
     1
270
     1
271
     1
  0
XRECORD
  5
23B2
102
{ACAD_REACTORS
330
23AD
102
}
330
23AD
100
AcDbXrecord
280
     1
270
     1
271
     1
  0
XRECORD
  5
23B1
102
{ACAD_REACTORS
330
23AD
102
}
330
23AD
100
AcDbXrecord
280
     1
270
     1
271
     1
  0
XRECORD
  5
23B3
102
{ACAD_REACTORS
330
23AD
102
}
330
23AD
100
AcDbXrecord
280
     1
270
     1
271
     1
  0
XRECORD
  5
23B0
102
{ACAD_REACTORS
330
23AD
102
}
330
23AD
100
AcDbXrecord
280
     1
270
     1
271
     1
  0
CELLSTYLEMAP
  5
2470
102
{ACAD_REACTORS
330
246F
102
}
330
246F
100
AcDbCellStyleMap
 90
        3
300
CELLSTYLE
  1
TABLEFORMAT_BEGIN
 90
        5
170
     1
 91
        0
 92
    32768
 62
   257
 93
        1
300
CONTENTFORMAT
  1
CONTENTFORMAT_BEGIN
 90
        0
 91
        0
 92
        4
 93
        0
300

 40
0.0
140
1.0
 94
        5
 62
     0
340
11
144
6.0
309
CONTENTFORMAT_END
171
     1
301
MARGIN
  1
CELLMARGIN_BEGIN
 40
1.5
 40
1.5
 40
1.5
 40
1.5
 40
0.18
 40
0.18
309
CELLMARGIN_END
 94
        6
 95
        1
302
GRIDFORMAT
  1
GRIDFORMAT_BEGIN
 90
        0
 91
        1
 62
     0
 92
       -2
340
0
 93
        0
 40
0.045
309
GRIDFORMAT_END
 95
        2
302
GRIDFORMAT
  1
GRIDFORMAT_BEGIN
 90
        0
 91
        1
 62
     0
 92
       -2
340
0
 93
        0
 40
0.045
309
GRIDFORMAT_END
 95
        4
302
GRIDFORMAT
  1
GRIDFORMAT_BEGIN
 90
        0
 91
        1
 62
     0
 92
       -2
340
0
 93
        0
 40
0.045
309
GRIDFORMAT_END
 95
        8
302
GRIDFORMAT
  1
GRIDFORMAT_BEGIN
 90
        0
 91
        1
 62
     0
 92
       -2
340
0
 93
        0
 40
0.045
309
GRIDFORMAT_END
 95
       16
302
GRIDFORMAT
  1
GRIDFORMAT_BEGIN
 90
        0
 91
        1
 62
     0
 92
       -2
340
0
 93
        0
 40
0.045
309
GRIDFORMAT_END
 95
       32
302
GRIDFORMAT
  1
GRIDFORMAT_BEGIN
 90
        0
 91
        1
 62
     0
 92
       -2
340
0
 93
        0
 40
0.045
309
GRIDFORMAT_END
309
TABLEFORMAT_END
  1
CELLSTYLE_BEGIN
 90
        1
 91
        1
300
_TITLE
309
CELLSTYLE_END
300
CELLSTYLE
  1
TABLEFORMAT_BEGIN
 90
        5
170
     1
 91
        0
 92
        0
 62
   257
 93
        1
300
CONTENTFORMAT
  1
CONTENTFORMAT_BEGIN
 90
        0
 91
        0
 92
        4
 93
        0
300

 40
0.0
140
1.0
 94
        5
 62
     0
340
11
144
4.5
309
CONTENTFORMAT_END
171
     1
301
MARGIN
  1
CELLMARGIN_BEGIN
 40
1.5
 40
1.5
 40
1.5
 40
1.5
 40
0.18
 40
0.18
309
CELLMARGIN_END
 94
        6
 95
        1
302
GRIDFORMAT
  1
GRIDFORMAT_BEGIN
 90
        0
 91
        1
 62
     0
 92
       -2
340
0
 93
        0
 40
0.045
309
GRIDFORMAT_END
 95
        2
302
GRIDFORMAT
  1
GRIDFORMAT_BEGIN
 90
        0
 91
        1
 62
     0
 92
       -2
340
0
 93
        0
 40
0.045
309
GRIDFORMAT_END
 95
        4
302
GRIDFORMAT
  1
GRIDFORMAT_BEGIN
 90
        0
 91
        1
 62
     0
 92
       -2
340
0
 93
        0
 40
0.045
309
GRIDFORMAT_END
 95
        8
302
GRIDFORMAT
  1
GRIDFORMAT_BEGIN
 90
        0
 91
        1
 62
     0
 92
       -2
340
0
 93
        0
 40
0.045
309
GRIDFORMAT_END
 95
       16
302
GRIDFORMAT
  1
GRIDFORMAT_BEGIN
 90
        0
 91
        1
 62
     0
 92
       -2
340
0
 93
        0
 40
0.045
309
GRIDFORMAT_END
 95
       32
302
GRIDFORMAT
  1
GRIDFORMAT_BEGIN
 90
        0
 91
        1
 62
     0
 92
       -2
340
0
 93
        0
 40
0.045
309
GRIDFORMAT_END
309
TABLEFORMAT_END
  1
CELLSTYLE_BEGIN
 90
        2
 91
        1
300
_HEADER
309
CELLSTYLE_END
300
CELLSTYLE
  1
TABLEFORMAT_BEGIN
 90
        5
170
     1
 91
        0
 92
        0
 62
   257
 93
        1
300
CONTENTFORMAT
  1
CONTENTFORMAT_BEGIN
 90
        0
 91
        0
 92
        4
 93
        0
300

 40
0.0
140
1.0
 94
        2
 62
     0
340
11
144
4.5
309
CONTENTFORMAT_END
171
     1
301
MARGIN
  1
CELLMARGIN_BEGIN
 40
1.5
 40
1.5
 40
1.5
 40
1.5
 40
0.18
 40
0.18
309
CELLMARGIN_END
 94
        6
 95
        1
302
GRIDFORMAT
  1
GRIDFORMAT_BEGIN
 90
        0
 91
        1
 62
     0
 92
       -2
340
0
 93
        0
 40
0.045
309
GRIDFORMAT_END
 95
        2
302
GRIDFORMAT
  1
GRIDFORMAT_BEGIN
 90
        0
 91
        1
 62
     0
 92
       -2
340
0
 93
        0
 40
0.045
309
GRIDFORMAT_END
 95
        4
302
GRIDFORMAT
  1
GRIDFORMAT_BEGIN
 90
        0
 91
        1
 62
     0
 92
       -2
340
0
 93
        0
 40
0.045
309
GRIDFORMAT_END
 95
        8
302
GRIDFORMAT
  1
GRIDFORMAT_BEGIN
 90
        0
 91
        1
 62
     0
 92
       -2
340
0
 93
        0
 40
0.045
309
GRIDFORMAT_END
 95
       16
302
GRIDFORMAT
  1
GRIDFORMAT_BEGIN
 90
        0
 91
        1
 62
     0
 92
       -2
340
0
 93
        0
 40
0.045
309
GRIDFORMAT_END
 95
       32
302
GRIDFORMAT
  1
GRIDFORMAT_BEGIN
 90
        0
 91
        1
 62
     0
 92
       -2
340
0
 93
        0
 40
0.045
309
GRIDFORMAT_END
309
TABLEFORMAT_END
  1
CELLSTYLE_BEGIN
 90
        3
 91
        2
300
_DATA
309
CELLSTYLE_END
  0
XRECORD
  5
247B
102
{ACAD_REACTORS
330
246F
102
}
330
246F
100
AcDbXrecord
280
     1
102
ACAD_ROUNDTRIP_PRE2007_TABLESTYLE
 90
        4
 91
        0
  1

 92
        4
 93
        0
  2

 94
        4
 95
        0
  3

  0
XRECORD
  5
248C
102
{ACAD_REACTORS
330
248B
102
}
330
248B
100
AcDbXrecord
280
     1
102
RTVSPropertyOp0
 70
     1
102
RTVSPropertyOp1
 70
     1
102
RTVSPropertyOp2
 70
     1
102
RTVSPropertyOp3
 70
     1
102
RTVSPropertyOp4
 70
     1
102
RTVSPropertyOp5
 70
     1
102
RTVSPropertyOp6
 70
     1
102
RTVSPropertyOp7
 70
     1
102
RTVSPropertyOp8
 70
     1
102
RTVSPropertyOp9
 70
     1
102
RTVSPropertyOp10
 70
     1
102
RTVSPropertyOp11
 70
     1
102
RTVSPropertyOp12
 70
     1
102
RTVSPropertyOp13
 70
     1
102
RTVSPropertyOp14
 70
     1
102
RTVSPropertyOp15
 70
     1
102
RTVSPropertyOp16
 70
     1
102
RTVSPropertyOp17
 70
     1
102
RTVSPropertyOp18
 70
     1
102
RTVSPropertyOp19
 70
     1
102
RTVSPropertyOp20
 70
     1
102
RTVSPropertyOp21
 70
     1
102
RTVSPropertyOp22
 70
     1
102
RTVSPropertyOp23
 70
     1
102
RTVSPropertyOp24
 70
     1
102
RTVSPropertyOp25
 70
     1
102
RTVSPropertyOp26
 70
     1
102
RTVSPropertyOp27
 70
     1
  0
XRECORD
  5
2490
102
{ACAD_REACTORS
330
248F
102
}
330
248F
100
AcDbXrecord
280
     1
102
RTVSPropertyOp0
 70
     1
102
RTVSPropertyOp1
 70
     1
102
RTVSPropertyOp2
 70
     1
102
RTVSPropertyOp3
 70
     1
102
RTVSPropertyOp4
 70
     1
102
RTVSPropertyOp5
 70
     1
102
RTVSPropertyOp6
 70
     1
102
RTVSPropertyOp7
 70
     1
102
RTVSPropertyOp8
 70
     1
102
RTVSPropertyOp9
 70
     1
102
RTVSPropertyOp10
 70
     1
102
RTVSPropertyOp11
 70
     1
102
RTVSPropertyOp12
 70
     1
102
RTVSPropertyOp13
 70
     1
102
RTVSPropertyOp14
 70
     1
102
RTVSPropertyOp15
 70
     1
102
RTVSPropertyOp16
 70
     1
102
RTVSPropertyOp17
 70
     1
102
RTVSPropertyOp18
 70
     1
102
RTVSPropertyOp19
 70
     1
102
RTVSPropertyOp20
 70
     1
102
RTVSPropertyOp21
 70
     1
102
RTVSPropertyOp22
 70
     1
102
RTVSPropertyOp23
 70
     1
102
RTVSPropertyOp24
 70
     1
102
RTVSPropertyOp25
 70
     1
102
RTVSPropertyOp26
 70
     1
102
RTVSPropertyOp27
 70
     1
  0
XRECORD
  5
248E
102
{ACAD_REACTORS
330
248D
102
}
330
248D
100
AcDbXrecord
280
     1
102
RTVSPropertyOp0
 70
     1
102
RTVSPropertyOp1
 70
     1
102
RTVSPropertyOp2
 70
     1
102
RTVSPropertyOp3
 70
     1
102
RTVSPropertyOp4
 70
     1
102
RTVSPropertyOp5
 70
     1
102
RTVSPropertyOp6
 70
     1
102
RTVSPropertyOp7
 70
     1
102
RTVSPropertyOp8
 70
     1
102
RTVSPropertyOp9
 70
     1
102
RTVSPropertyOp10
 70
     1
102
RTVSPropertyOp11
 70
     1
102
RTVSPropertyOp12
 70
     1
102
RTVSPropertyOp13
 70
     1
102
RTVSPropertyOp14
 70
     1
102
RTVSPropertyOp15
 70
     1
102
RTVSPropertyOp16
 70
     1
102
RTVSPropertyOp17
 70
     1
102
RTVSPropertyOp18
 70
     1
102
RTVSPropertyOp19
 70
     1
102
RTVSPropertyOp20
 70
     1
102
RTVSPropertyOp21
 70
     1
102
RTVSPropertyOp22
 70
     1
102
RTVSPropertyOp23
 70
     1
102
RTVSPropertyOp24
 70
     1
102
RTVSPropertyOp25
 70
     1
102
RTVSPropertyOp26
 70
     1
102
RTVSPropertyOp27
 70
     1
  0
XRECORD
  5
248A
102
{ACAD_REACTORS
330
2489
102
}
330
2489
100
AcDbXrecord
280
     1
102
RTVSPropertyOp0
 70
     1
102
RTVSPropertyOp1
 70
     1
102
RTVSPropertyOp2
 70
     1
102
RTVSPropertyOp3
 70
     1
102
RTVSPropertyOp4
 70
     1
102
RTVSPropertyOp5
 70
     1
102
RTVSPropertyOp6
 70
     1
102
RTVSPropertyOp7
 70
     1
102
RTVSPropertyOp8
 70
     1
102
RTVSPropertyOp9
 70
     1
102
RTVSPropertyOp10
 70
     1
102
RTVSPropertyOp11
 70
     1
102
RTVSPropertyOp12
 70
     1
102
RTVSPropertyOp13
 70
     1
102
RTVSPropertyOp14
 70
     1
102
RTVSPropertyOp15
 70
     1
102
RTVSPropertyOp16
 70
     1
102
RTVSPropertyOp17
 70
     1
102
RTVSPropertyOp18
 70
     1
102
RTVSPropertyOp19
 70
     1
102
RTVSPropertyOp20
 70
     1
102
RTVSPropertyOp21
 70
     1
102
RTVSPropertyOp22
 70
     1
102
RTVSPropertyOp23
 70
     1
102
RTVSPropertyOp24
 70
     1
102
RTVSPropertyOp25
 70
     1
102
RTVSPropertyOp26
 70
     1
102
RTVSPropertyOp27
 70
     1
  0
XRECORD
  5
2498
102
{ACAD_REACTORS
330
2497
102
}
330
2497
100
AcDbXrecord
280
     1
102
RTVSPropertyOp0
 70
     1
102
RTVSPropertyOp1
 70
     1
102
RTVSPropertyOp2
 70
     1
102
RTVSPropertyOp3
 70
     1
102
RTVSPropertyOp4
 70
     1
102
RTVSPropertyOp5
 70
     1
102
RTVSPropertyOp6
 70
     1
102
RTVSPropertyOp7
 70
     1
102
RTVSPropertyOp8
 70
     1
102
RTVSPropertyOp9
 70
     1
102
RTVSPropertyOp10
 70
     1
102
RTVSPropertyOp11
 70
     1
102
RTVSPropertyOp12
 70
     1
102
RTVSPropertyOp13
 70
     1
102
RTVSPropertyOp14
 70
     1
102
RTVSPropertyOp15
 70
     1
102
RTVSPropertyOp16
 70
     1
102
RTVSPropertyOp17
 70
     1
102
RTVSPropertyOp18
 70
     1
102
RTVSPropertyOp19
 70
     1
102
RTVSPropertyOp20
 70
     1
102
RTVSPropertyOp21
 70
     1
102
RTVSPropertyOp22
 70
     1
102
RTVSPropertyOp23
 70
     1
102
RTVSPropertyOp24
 70
     1
102
RTVSPropertyOp25
 70
     1
102
RTVSPropertyOp26
 70
     1
102
RTVSPropertyOp27
 70
     1
  0
XRECORD
  5
24A0
102
{ACAD_REACTORS
330
249F
102
}
330
249F
100
AcDbXrecord
280
     1
102
RTVSPropertyOp0
 70
     1
102
RTVSPropertyOp1
 70
     1
102
RTVSPropertyOp2
 70
     1
102
RTVSPropertyOp3
 70
     1
102
RTVSPropertyOp4
 70
     1
102
RTVSPropertyOp5
 70
     1
102
RTVSPropertyOp6
 70
     1
102
RTVSPropertyOp7
 70
     1
102
RTVSPropertyOp8
 70
     1
102
RTVSPropertyOp9
 70
     1
102
RTVSPropertyOp10
 70
     1
102
RTVSPropertyOp11
 70
     1
102
RTVSPropertyOp12
 70
     1
102
RTVSPropertyOp13
 70
     1
102
RTVSPropertyOp14
 70
     1
102
RTVSPropertyOp15
 70
     1
102
RTVSPropertyOp16
 70
     1
102
RTVSPropertyOp17
 70
     1
102
RTVSPropertyOp18
 70
     1
102
RTVSPropertyOp19
 70
     1
102
RTVSPropertyOp20
 70
     1
102
RTVSPropertyOp21
 70
     1
102
RTVSPropertyOp22
 70
     1
102
RTVSPropertyOp23
 70
     1
102
RTVSPropertyOp24
 70
     1
102
RTVSPropertyOp25
 70
     1
102
RTVSPropertyOp26
 70
     1
102
RTVSPropertyOp27
 70
     1
  0
XRECORD
  5
2492
102
{ACAD_REACTORS
330
2491
102
}
330
2491
100
AcDbXrecord
280
     1
102
RTVSPropertyOp0
 70
     1
102
RTVSPropertyOp1
 70
     1
102
RTVSPropertyOp2
 70
     1
102
RTVSPropertyOp3
 70
     1
102
RTVSPropertyOp4
 70
     1
102
RTVSPropertyOp5
 70
     1
102
RTVSPropertyOp6
 70
     1
102
RTVSPropertyOp7
 70
     1
102
RTVSPropertyOp8
 70
     1
102
RTVSPropertyOp9
 70
     1
102
RTVSPropertyOp10
 70
     1
102
RTVSPropertyOp11
 70
     1
102
RTVSPropertyOp12
 70
     1
102
RTVSPropertyOp13
 70
     1
102
RTVSPropertyOp14
 70
     1
102
RTVSPropertyOp15
 70
     1
102
RTVSPropertyOp16
 70
     1
102
RTVSPropertyOp17
 70
     1
102
RTVSPropertyOp18
 70
     1
102
RTVSPropertyOp19
 70
     1
102
RTVSPropertyOp20
 70
     1
102
RTVSPropertyOp21
 70
     1
102
RTVSPropertyOp22
 70
     1
102
RTVSPropertyOp23
 70
     1
102
RTVSPropertyOp24
 70
     1
102
RTVSPropertyOp25
 70
     1
102
RTVSPropertyOp26
 70
     1
102
RTVSPropertyOp27
 70
     1
  0
XRECORD
  5
2496
102
{ACAD_REACTORS
330
2495
102
}
330
2495
100
AcDbXrecord
280
     1
102
RTVSPropertyOp0
 70
     1
102
RTVSPropertyOp1
 70
     1
102
RTVSPropertyOp2
 70
     1
102
RTVSPropertyOp3
 70
     1
102
RTVSPropertyOp4
 70
     1
102
RTVSPropertyOp5
 70
     1
102
RTVSPropertyOp6
 70
     1
102
RTVSPropertyOp7
 70
     1
102
RTVSPropertyOp8
 70
     1
102
RTVSPropertyOp9
 70
     1
102
RTVSPropertyOp10
 70
     1
102
RTVSPropertyOp11
 70
     1
102
RTVSPropertyOp12
 70
     1
102
RTVSPropertyOp13
 70
     1
102
RTVSPropertyOp14
 70
     1
102
RTVSPropertyOp15
 70
     1
102
RTVSPropertyOp16
 70
     1
102
RTVSPropertyOp17
 70
     1
102
RTVSPropertyOp18
 70
     1
102
RTVSPropertyOp19
 70
     1
102
RTVSPropertyOp20
 70
     1
102
RTVSPropertyOp21
 70
     1
102
RTVSPropertyOp22
 70
     1
102
RTVSPropertyOp23
 70
     1
102
RTVSPropertyOp24
 70
     1
102
RTVSPropertyOp25
 70
     1
102
RTVSPropertyOp26
 70
     1
102
RTVSPropertyOp27
 70
     1
  0
XRECORD
  5
24A6
102
{ACAD_REACTORS
330
24A5
102
}
330
24A5
100
AcDbXrecord
280
     1
102
RTVSPropertyOp0
 70
     0
102
RTVSPropertyOp1
 70
     0
102
RTVSPropertyOp2
 70
     0
102
RTVSPropertyOp3
 70
     0
102
RTVSPropertyOp4
 70
     0
102
RTVSPropertyOp5
 70
     0
102
RTVSPropertyOp6
 70
     0
102
RTVSPropertyOp7
 70
     0
102
RTVSPropertyOp8
 70
     0
102
RTVSPropertyOp9
 70
     0
102
RTVSPropertyOp10
 70
     0
102
RTVSPropertyOp11
 70
     0
102
RTVSPropertyOp12
 70
     0
102
RTVSPropertyOp13
 70
     0
102
RTVSPropertyOp14
 70
     2
102
RTVSPropertyOp15
 70
     0
102
RTVSPropertyOp16
 70
     0
102
RTVSPropertyOp17
 70
     0
102
RTVSPropertyOp18
 70
     0
102
RTVSPropertyOp19
 70
     0
102
RTVSPropertyOp20
 70
     0
102
RTVSPropertyOp21
 70
     0
102
RTVSPropertyOp22
 70
     0
102
RTVSPropertyOp23
 70
     0
102
RTVSPropertyOp24
 70
     0
102
RTVSPropertyOp25
 70
     0
102
RTVSPropertyOp26
 70
     0
102
RTVSPropertyOp27
 70
     0
  0
XRECORD
  5
249E
102
{ACAD_REACTORS
330
249D
102
}
330
249D
100
AcDbXrecord
280
     1
102
RTVSPropertyOp0
 70
     1
102
RTVSPropertyOp1
 70
     1
102
RTVSPropertyOp2
 70
     1
102
RTVSPropertyOp3
 70
     1
102
RTVSPropertyOp4
 70
     1
102
RTVSPropertyOp5
 70
     1
102
RTVSPropertyOp6
 70
     1
102
RTVSPropertyOp7
 70
     1
102
RTVSPropertyOp8
 70
     1
102
RTVSPropertyOp9
 70
     1
102
RTVSPropertyOp10
 70
     1
102
RTVSPropertyOp11
 70
     1
102
RTVSPropertyOp12
 70
     1
102
RTVSPropertyOp13
 70
     1
102
RTVSPropertyOp14
 70
     1
102
RTVSPropertyOp15
 70
     1
102
RTVSPropertyOp16
 70
     1
102
RTVSPropertyOp17
 70
     1
102
RTVSPropertyOp18
 70
     1
102
RTVSPropertyOp19
 70
     1
102
RTVSPropertyOp20
 70
     1
102
RTVSPropertyOp21
 70
     1
102
RTVSPropertyOp22
 70
     1
102
RTVSPropertyOp23
 70
     1
102
RTVSPropertyOp24
 70
     1
102
RTVSPropertyOp25
 70
     1
102
RTVSPropertyOp26
 70
     1
102
RTVSPropertyOp27
 70
     1
  0
XRECORD
  5
2482
102
{ACAD_REACTORS
330
2481
102
}
330
2481
100
AcDbXrecord
280
     1
102
RTVSPropertyOp0
 70
     1
102
RTVSPropertyOp1
 70
     1
102
RTVSPropertyOp2
 70
     1
102
RTVSPropertyOp3
 70
     1
102
RTVSPropertyOp4
 70
     1
102
RTVSPropertyOp5
 70
     1
102
RTVSPropertyOp6
 70
     1
102
RTVSPropertyOp7
 70
     1
102
RTVSPropertyOp8
 70
     1
102
RTVSPropertyOp9
 70
     1
102
RTVSPropertyOp10
 70
     1
102
RTVSPropertyOp11
 70
     1
102
RTVSPropertyOp12
 70
     1
102
RTVSPropertyOp13
 70
     1
102
RTVSPropertyOp14
 70
     1
102
RTVSPropertyOp15
 70
     1
102
RTVSPropertyOp16
 70
     1
102
RTVSPropertyOp17
 70
     1
102
RTVSPropertyOp18
 70
     1
102
RTVSPropertyOp19
 70
     1
102
RTVSPropertyOp20
 70
     1
102
RTVSPropertyOp21
 70
     1
102
RTVSPropertyOp22
 70
     1
102
RTVSPropertyOp23
 70
     1
102
RTVSPropertyOp24
 70
     1
102
RTVSPropertyOp25
 70
     1
102
RTVSPropertyOp26
 70
     1
102
RTVSPropertyOp27
 70
     1
  0
XRECORD
  5
2484
102
{ACAD_REACTORS
330
2483
102
}
330
2483
100
AcDbXrecord
280
     1
102
RTVSPropertyOp0
 70
     1
102
RTVSPropertyOp1
 70
     1
102
RTVSPropertyOp2
 70
     1
102
RTVSPropertyOp3
 70
     1
102
RTVSPropertyOp4
 70
     1
102
RTVSPropertyOp5
 70
     1
102
RTVSPropertyOp6
 70
     1
102
RTVSPropertyOp7
 70
     1
102
RTVSPropertyOp8
 70
     1
102
RTVSPropertyOp9
 70
     1
102
RTVSPropertyOp10
 70
     1
102
RTVSPropertyOp11
 70
     1
102
RTVSPropertyOp12
 70
     1
102
RTVSPropertyOp13
 70
     1
102
RTVSPropertyOp14
 70
     1
102
RTVSPropertyOp15
 70
     1
102
RTVSPropertyOp16
 70
     1
102
RTVSPropertyOp17
 70
     1
102
RTVSPropertyOp18
 70
     1
102
RTVSPropertyOp19
 70
     1
102
RTVSPropertyOp20
 70
     1
102
RTVSPropertyOp21
 70
     1
102
RTVSPropertyOp22
 70
     1
102
RTVSPropertyOp23
 70
     1
102
RTVSPropertyOp24
 70
     1
102
RTVSPropertyOp25
 70
     1
102
RTVSPropertyOp26
 70
     1
102
RTVSPropertyOp27
 70
     1
  0
XRECORD
  5
2486
102
{ACAD_REACTORS
330
2485
102
}
330
2485
100
AcDbXrecord
280
     1
102
RTVSPropertyOp0
 70
     1
102
RTVSPropertyOp1
 70
     1
102
RTVSPropertyOp2
 70
     1
102
RTVSPropertyOp3
 70
     1
102
RTVSPropertyOp4
 70
     1
102
RTVSPropertyOp5
 70
     1
102
RTVSPropertyOp6
 70
     1
102
RTVSPropertyOp7
 70
     1
102
RTVSPropertyOp8
 70
     1
102
RTVSPropertyOp9
 70
     1
102
RTVSPropertyOp10
 70
     1
102
RTVSPropertyOp11
 70
     1
102
RTVSPropertyOp12
 70
     1
102
RTVSPropertyOp13
 70
     1
102
RTVSPropertyOp14
 70
     1
102
RTVSPropertyOp15
 70
     1
102
RTVSPropertyOp16
 70
     1
102
RTVSPropertyOp17
 70
     1
102
RTVSPropertyOp18
 70
     1
102
RTVSPropertyOp19
 70
     1
102
RTVSPropertyOp20
 70
     1
102
RTVSPropertyOp21
 70
     1
102
RTVSPropertyOp22
 70
     1
102
RTVSPropertyOp23
 70
     1
102
RTVSPropertyOp24
 70
     1
102
RTVSPropertyOp25
 70
     1
102
RTVSPropertyOp26
 70
     1
102
RTVSPropertyOp27
 70
     1
  0
XRECORD
  5
2488
102
{ACAD_REACTORS
330
2487
102
}
330
2487
100
AcDbXrecord
280
     1
102
RTVSPropertyOp0
 70
     1
102
RTVSPropertyOp1
 70
     1
102
RTVSPropertyOp2
 70
     1
102
RTVSPropertyOp3
 70
     1
102
RTVSPropertyOp4
 70
     1
102
RTVSPropertyOp5
 70
     1
102
RTVSPropertyOp6
 70
     1
102
RTVSPropertyOp7
 70
     1
102
RTVSPropertyOp8
 70
     1
102
RTVSPropertyOp9
 70
     1
102
RTVSPropertyOp10
 70
     1
102
RTVSPropertyOp11
 70
     1
102
RTVSPropertyOp12
 70
     1
102
RTVSPropertyOp13
 70
     1
102
RTVSPropertyOp14
 70
     1
102
RTVSPropertyOp15
 70
     1
102
RTVSPropertyOp16
 70
     1
102
RTVSPropertyOp17
 70
     1
102
RTVSPropertyOp18
 70
     1
102
RTVSPropertyOp19
 70
     1
102
RTVSPropertyOp20
 70
     1
102
RTVSPropertyOp21
 70
     1
102
RTVSPropertyOp22
 70
     1
102
RTVSPropertyOp23
 70
     1
102
RTVSPropertyOp24
 70
     1
102
RTVSPropertyOp25
 70
     1
102
RTVSPropertyOp26
 70
     1
102
RTVSPropertyOp27
 70
     1
  0
XRECORD
  5
24A2
102
{ACAD_REACTORS
330
24A1
102
}
330
24A1
100
AcDbXrecord
280
     1
102
RTVSPropertyOp0
 70
     0
102
RTVSPropertyOp1
 70
     0
102
RTVSPropertyOp2
 70
     0
102
RTVSPropertyOp3
 70
     0
102
RTVSPropertyOp4
 70
     0
102
RTVSPropertyOp5
 70
     0
102
RTVSPropertyOp6
 70
     0
102
RTVSPropertyOp7
 70
     0
102
RTVSPropertyOp8
 70
     0
102
RTVSPropertyOp9
 70
     0
102
RTVSPropertyOp10
 70
     0
102
RTVSPropertyOp11
 70
     0
102
RTVSPropertyOp12
 70
     0
102
RTVSPropertyOp13
 70
     0
102
RTVSPropertyOp14
 70
     2
102
RTVSPropertyOp15
 70
     0
102
RTVSPropertyOp16
 70
     0
102
RTVSPropertyOp17
 70
     0
102
RTVSPropertyOp18
 70
     0
102
RTVSPropertyOp19
 70
     0
102
RTVSPropertyOp20
 70
     0
102
RTVSPropertyOp21
 70
     0
102
RTVSPropertyOp22
 70
     0
102
RTVSPropertyOp23
 70
     0
102
RTVSPropertyOp24
 70
     0
102
RTVSPropertyOp25
 70
     0
102
RTVSPropertyOp26
 70
     0
102
RTVSPropertyOp27
 70
     0
  0
XRECORD
  5
249C
102
{ACAD_REACTORS
330
249B
102
}
330
249B
100
AcDbXrecord
280
     1
102
RTVSPropertyOp0
 70
     1
102
RTVSPropertyOp1
 70
     1
102
RTVSPropertyOp2
 70
     1
102
RTVSPropertyOp3
 70
     1
102
RTVSPropertyOp4
 70
     1
102
RTVSPropertyOp5
 70
     1
102
RTVSPropertyOp6
 70
     1
102
RTVSPropertyOp7
 70
     1
102
RTVSPropertyOp8
 70
     1
102
RTVSPropertyOp9
 70
     1
102
RTVSPropertyOp10
 70
     1
102
RTVSPropertyOp11
 70
     1
102
RTVSPropertyOp12
 70
     1
102
RTVSPropertyOp13
 70
     1
102
RTVSPropertyOp14
 70
     1
102
RTVSPropertyOp15
 70
     1
102
RTVSPropertyOp16
 70
     1
102
RTVSPropertyOp17
 70
     1
102
RTVSPropertyOp18
 70
     1
102
RTVSPropertyOp19
 70
     1
102
RTVSPropertyOp20
 70
     1
102
RTVSPropertyOp21
 70
     1
102
RTVSPropertyOp22
 70
     1
102
RTVSPropertyOp23
 70
     1
102
RTVSPropertyOp24
 70
     1
102
RTVSPropertyOp25
 70
     1
102
RTVSPropertyOp26
 70
     1
102
RTVSPropertyOp27
 70
     1
  0
XRECORD
  5
24A4
102
{ACAD_REACTORS
330
24A3
102
}
330
24A3
100
AcDbXrecord
280
     1
102
RTVSPropertyOp0
 70
     0
102
RTVSPropertyOp1
 70
     0
102
RTVSPropertyOp2
 70
     0
102
RTVSPropertyOp3
 70
     0
102
RTVSPropertyOp4
 70
     0
102
RTVSPropertyOp5
 70
     0
102
RTVSPropertyOp6
 70
     0
102
RTVSPropertyOp7
 70
     0
102
RTVSPropertyOp8
 70
     0
102
RTVSPropertyOp9
 70
     0
102
RTVSPropertyOp10
 70
     0
102
RTVSPropertyOp11
 70
     0
102
RTVSPropertyOp12
 70
     0
102
RTVSPropertyOp13
 70
     0
102
RTVSPropertyOp14
 70
     2
102
RTVSPropertyOp15
 70
     0
102
RTVSPropertyOp16
 70
     0
102
RTVSPropertyOp17
 70
     0
102
RTVSPropertyOp18
 70
     0
102
RTVSPropertyOp19
 70
     0
102
RTVSPropertyOp20
 70
     0
102
RTVSPropertyOp21
 70
     0
102
RTVSPropertyOp22
 70
     0
102
RTVSPropertyOp23
 70
     0
102
RTVSPropertyOp24
 70
     0
102
RTVSPropertyOp25
 70
     0
102
RTVSPropertyOp26
 70
     0
102
RTVSPropertyOp27
 70
     0
  0
XRECORD
  5
2494
102
{ACAD_REACTORS
330
2493
102
}
330
2493
100
AcDbXrecord
280
     1
102
RTVSPropertyOp0
 70
     1
102
RTVSPropertyOp1
 70
     1
102
RTVSPropertyOp2
 70
     1
102
RTVSPropertyOp3
 70
     1
102
RTVSPropertyOp4
 70
     1
102
RTVSPropertyOp5
 70
     1
102
RTVSPropertyOp6
 70
     1
102
RTVSPropertyOp7
 70
     1
102
RTVSPropertyOp8
 70
     1
102
RTVSPropertyOp9
 70
     1
102
RTVSPropertyOp10
 70
     1
102
RTVSPropertyOp11
 70
     1
102
RTVSPropertyOp12
 70
     1
102
RTVSPropertyOp13
 70
     1
102
RTVSPropertyOp14
 70
     1
102
RTVSPropertyOp15
 70
     1
102
RTVSPropertyOp16
 70
     1
102
RTVSPropertyOp17
 70
     1
102
RTVSPropertyOp18
 70
     1
102
RTVSPropertyOp19
 70
     1
102
RTVSPropertyOp20
 70
     1
102
RTVSPropertyOp21
 70
     1
102
RTVSPropertyOp22
 70
     1
102
RTVSPropertyOp23
 70
     1
102
RTVSPropertyOp24
 70
     1
102
RTVSPropertyOp25
 70
     1
102
RTVSPropertyOp26
 70
     1
102
RTVSPropertyOp27
 70
     1
  0
XRECORD
  5
249A
102
{ACAD_REACTORS
330
2499
102
}
330
2499
100
AcDbXrecord
280
     1
102
RTVSPropertyOp0
 70
     1
102
RTVSPropertyOp1
 70
     1
102
RTVSPropertyOp2
 70
     1
102
RTVSPropertyOp3
 70
     1
102
RTVSPropertyOp4
 70
     1
102
RTVSPropertyOp5
 70
     1
102
RTVSPropertyOp6
 70
     1
102
RTVSPropertyOp7
 70
     1
102
RTVSPropertyOp8
 70
     1
102
RTVSPropertyOp9
 70
     1
102
RTVSPropertyOp10
 70
     1
102
RTVSPropertyOp11
 70
     1
102
RTVSPropertyOp12
 70
     1
102
RTVSPropertyOp13
 70
     1
102
RTVSPropertyOp14
 70
     1
102
RTVSPropertyOp15
 70
     1
102
RTVSPropertyOp16
 70
     1
102
RTVSPropertyOp17
 70
     1
102
RTVSPropertyOp18
 70
     1
102
RTVSPropertyOp19
 70
     1
102
RTVSPropertyOp20
 70
     1
102
RTVSPropertyOp21
 70
     1
102
RTVSPropertyOp22
 70
     1
102
RTVSPropertyOp23
 70
     1
102
RTVSPropertyOp24
 70
     1
102
RTVSPropertyOp25
 70
     1
102
RTVSPropertyOp26
 70
     1
102
RTVSPropertyOp27
 70
     1
  0
ENDSEC
  0
EOF
