  0
SECTION
  2
HEADER
  9
$ACADVER
  1
AC1015
  9
$ACADMAINTVER
 70
    20
  9
$DWGCODEPAGE
  3
ANSI_1252
  9
$INSBASE
 10
0.0
 20
0.0
 30
0.0
  9
$EXTMIN
 10
8788.824611811133
 20
2024.019698404261
 30
-0.0000000017937957
  9
$EXTMAX
 10
8791.766784614031
 20
2025.869937575905
 30
0.0000000001557791
  9
$LIMMIN
 10
0.0
 20
0.0
  9
$LIMMAX
 10
420.0
 20
297.0
  9
$ORTHOMODE
 70
     1
  9
$REGENMODE
 70
     1
  9
$FILLMODE
 70
     1
  9
$QTEXTMODE
 70
     0
  9
$MIRRTEXT
 70
     1
  9
$LTSCALE
 40
1.0
  9
$ATTMODE
 70
     1
  9
$TEXTSIZE
 40
2.5
  9
$TRACEWID
 40
1.0
  9
$TEXTSTYLE
  7
SANINDUSA
  9
$CLAYER
  8
0
  9
$CELTYPE
  6
ByLayer
  9
$CECOLOR
 62
   256
  9
$CELTSCALE
 40
1.0
  9
$DISPSILH
 70
     0
  9
$DIMSCALE
 40
10.0
  9
$DIMASZ
 40
2.0
  9
$DIMEXO
 40
1.0
  9
$DIMDLI
 40
1.0
  9
$DIMRND
 40
0.0
  9
$DIMDLE
 40
0.0
  9
$DIMEXE
 40
1.0
  9
$DIMTP
 40
0.0
  9
$DIMTM
 40
0.0
  9
$DIMTXT
 40
2.0
  9
$DIMCEN
 40
0.0
  9
$DIMTSZ
 40
0.0
  9
$DIMTOL
 70
     0
  9
$DIMLIM
 70
     0
  9
$DIMTIH
 70
     0
  9
$DIMTOH
 70
     0
  9
$DIMSE1
 70
     0
  9
$DIMSE2
 70
     0
  9
$DIMTAD
 70
     1
  9
$DIMZIN
 70
     8
  9
$DIMBLK
  1

  9
$DIMASO
 70
     1
  9
$DIMSHO
 70
     1
  9
$DIMPOST
  1

  9
$DIMAPOST
  1

  9
$DIMALT
 70
     0
  9
$DIMALTD
 70
     3
  9
$DIMALTF
 40
0.03937007874016
  9
$DIMLFAC
 40
1.0
  9
$DIMTOFL
 70
     1
  9
$DIMTVP
 40
0.0
  9
$DIMTIX
 70
     0
  9
$DIMSOXD
 70
     0
  9
$DIMSAH
 70
     0
  9
$DIMBLK1
  1

  9
$DIMBLK2
  1

  9
$DIMSTYLE
  2
SANINDUSA
  9
$DIMCLRD
 70
   256
  9
$DIMCLRE
 70
   256
  9
$DIMCLRT
 70
   256
  9
$DIMTFAC
 40
1.0
  9
$DIMGAP
 40
1.0
  9
$DIMJUST
 70
     0
  9
$DIMSD1
 70
     0
  9
$DIMSD2
 70
     0
  9
$DIMTOLJ
 70
     0
  9
$DIMTZIN
 70
     8
  9
$DIMALTZ
 70
     0
  9
$DIMALTTZ
 70
     0
  9
$DIMUPT
 70
     0
  9
$DIMDEC
 70
     1
  9
$DIMTDEC
 70
     1
  9
$DIMALTU
 70
     2
  9
$DIMALTTD
 70
     3
  9
$DIMTXSTY
  7
SANINDUSA
  9
$DIMAUNIT
 70
     0
  9
$DIMADEC
 70
     1
  9
$DIMALTRND
 40
0.0
  9
$DIMAZIN
 70
     0
  9
$DIMDSEP
 70
    44
  9
$DIMATFIT
 70
     3
  9
$DIMFRAC
 70
     0
  9
$DIMLDRBLK
  1

  9
$DIMLUNIT
 70
     2
  9
$DIMLWD
 70
    -1
  9
$DIMLWE
 70
    -1
  9
$DIMTMOVE
 70
     0
  9
$LUNITS
 70
     2
  9
$LUPREC
 70
     4
  9
$SKETCHINC
 40
1.0
  9
$FILLETRAD
 40
0.0
  9
$AUNITS
 70
     0
  9
$AUPREC
 70
     0
  9
$MENU
  1
.
  9
$ELEVATION
 40
0.0
  9
$PELEVATION
 40
0.0
  9
$THICKNESS
 40
0.0
  9
$LIMCHECK
 70
     0
  9
$CHAMFERA
 40
10.0
  9
$CHAMFERB
 40
10.0
  9
$CHAMFERC
 40
20.0
  9
$CHAMFERD
 40
0.0
  9
$SKPOLY
 70
     0
  9
$TDCREATE
 40
2454138.432731481
  9
$TDUCREATE
 40
2454138.391064815
  9
$TDUPDATE
 40
2455824.627937998
  9
$TDUUPDATE
 40
2455824.586271331
  9
$TDINDWG
 40
0.0898415741
  9
$TDUSRTIMER
 40
0.0898415741
  9
$USRTIMER
 70
     1
  9
$ANGBASE
 50
0.0
  9
$ANGDIR
 70
     0
  9
$PDMODE
 70
     0
  9
$PDSIZE
 40
0.0
  9
$PLINEWID
 40
0.0
  9
$SPLFRAME
 70
     0
  9
$SPLINETYPE
 70
     6
  9
$SPLINESEGS
 70
     8
  9
$HANDSEED
  5
2AE8
  9
$SURFTAB1
 70
     6
  9
$SURFTAB2
 70
     6
  9
$SURFTYPE
 70
     6
  9
$SURFU
 70
     6
  9
$SURFV
 70
     6
  9
$UCSBASE
  2

  9
$UCSNAME
  2

  9
$UCSORG
 10
0.0
 20
0.0
 30
0.0
  9
$UCSXDIR
 10
1.0
 20
0.0
 30
0.0
  9
$UCSYDIR
 10
0.0
 20
1.0
 30
0.0
  9
$UCSORTHOREF
  2

  9
$UCSORTHOVIEW
 70
     0
  9
$UCSORGTOP
 10
0.0
 20
0.0
 30
0.0
  9
$UCSORGBOTTOM
 10
0.0
 20
0.0
 30
0.0
  9
$UCSORGLEFT
 10
0.0
 20
0.0
 30
0.0
  9
$UCSORGRIGHT
 10
0.0
 20
0.0
 30
0.0
  9
$UCSORGFRONT
 10
0.0
 20
0.0
 30
0.0
  9
$UCSORGBACK
 10
0.0
 20
0.0
 30
0.0
  9
$PUCSBASE
  2

  9
$PUCSNAME
  2

  9
$PUCSORG
 10
0.0
 20
0.0
 30
0.0
  9
$PUCSXDIR
 10
1.0
 20
0.0
 30
0.0
  9
$PUCSYDIR
 10
0.0
 20
1.0
 30
0.0
  9
$PUCSORTHOREF
  2

  9
$PUCSORTHOVIEW
 70
     0
  9
$PUCSORGTOP
 10
0.0
 20
0.0
 30
0.0
  9
$PUCSORGBOTTOM
 10
0.0
 20
0.0
 30
0.0
  9
$PUCSORGLEFT
 10
0.0
 20
0.0
 30
0.0
  9
$PUCSORGRIGHT
 10
0.0
 20
0.0
 30
0.0
  9
$PUCSORGFRONT
 10
0.0
 20
0.0
 30
0.0
  9
$PUCSORGBACK
 10
0.0
 20
0.0
 30
0.0
  9
$USERI1
 70
     0
  9
$USERI2
 70
     0
  9
$USERI3
 70
     0
  9
$USERI4
 70
     0
  9
$USERI5
 70
     0
  9
$USERR1
 40
0.0
  9
$USERR2
 40
0.0
  9
$USERR3
 40
0.0
  9
$USERR4
 40
0.0
  9
$USERR5
 40
0.0
  9
$WORLDVIEW
 70
     1
  9
$SHADEDGE
 70
     3
  9
$SHADEDIF
 70
    70
  9
$TILEMODE
 70
     1
  9
$MAXACTVP
 70
    64
  9
$PINSBASE
 10
0.0
 20
0.0
 30
0.0
  9
$PLIMCHECK
 70
     0
  9
$PEXTMIN
 10
1.000000000000000E+20
 20
1.000000000000000E+20
 30
1.000000000000000E+20
  9
$PEXTMAX
 10
-1.000000000000000E+20
 20
-1.000000000000000E+20
 30
-1.000000000000000E+20
  9
$PLIMMIN
 10
0.0
 20
0.0
  9
$PLIMMAX
 10
420.0
 20
297.0
  9
$UNITMODE
 70
     0
  9
$VISRETAIN
 70
     1
  9
$PLINEGEN
 70
     0
  9
$PSLTSCALE
 70
     1
  9
$TREEDEPTH
 70
  3020
  9
$CMLSTYLE
  2
Standard
  9
$CMLJUST
 70
     0
  9
$CMLSCALE
 40
20.0
  9
$PROXYGRAPHICS
 70
     1
  9
$MEASUREMENT
 70
     1
  9
$CELWEIGHT
370
    -1
  9
$ENDCAPS
280
     0
  9
$JOINSTYLE
280
     0
  9
$LWDISPLAY
290
     0
  9
$INSUNITS
 70
     4
  9
$HYPERLINKBASE
  1

  9
$STYLESHEET
  1
sanindusa.ctb
  9
$XEDIT
290
     1
  9
$CEPSNTYPE
380
     0
  9
$PSTYLEMODE
290
     1
  9
$FINGERPRINTGUID
  2
{968EACF4-A062-4DA7-83BC-38C003016EAC}
  9
$VERSIONGUID
  2
{9F5A074F-8CCF-431B-8966-78962A76C6B7}
  9
$EXTNAMES
290
     1
  9
$PSVPSCALE
 40
0.0
  9
$OLESTARTUP
290
     0
  0
ENDSEC
  0
SECTION
  2
CLASSES
  0
CLASS
  1
ACDBDICTIONARYWDFLT
  2
AcDbDictionaryWithDefault
  3
ObjectDBX Classes
 90
        0
280
     0
281
     0
  0
CLASS
  1
ACDBPLACEHOLDER
  2
AcDbPlaceHolder
  3
ObjectDBX Classes
 90
        0
280
     0
281
     0
  0
CLASS
  1
LAYOUT
  2
AcDbLayout
  3
ObjectDBX Classes
 90
        0
280
     0
281
     0
  0
CLASS
  1
DICTIONARYVAR
  2
AcDbDictionaryVar
  3
ObjectDBX Classes
 90
        0
280
     0
281
     0
  0
CLASS
  1
DIMASSOC
  2
AcDbDimAssoc
  3
"AcDbDimAssoc|Product Desc:     AcDim ARX App For Dimension|Company:          Autodesk, Inc.|WEB Address:      www.autodesk.com"
 90
        0
280
     0
281
     0
  0
CLASS
  1
TABLESTYLE
  2
AcDbTableStyle
  3
ObjectDBX Classes
 90
     4095
280
     0
281
     0
  0
CLASS
  1
SORTENTSTABLE
  2
AcDbSortentsTable
  3
ObjectDBX Classes
 90
        0
280
     0
281
     0
  0
CLASS
  1
MATERIAL
  2
AcDbMaterial
  3
ObjectDBX Classes
 90
     1153
280
     0
281
     0
  0
CLASS
  1
VISUALSTYLE
  2
AcDbVisualStyle
  3
ObjectDBX Classes
 90
     4095
280
     0
281
     0
  0
CLASS
  1
SCALE
  2
AcDbScale
  3
ObjectDBX Classes
 90
     1153
280
     0
281
     0
  0
CLASS
  1
MLEADERSTYLE
  2
AcDbMLeaderStyle
  3
ACDB_MLEADERSTYLE_CLASS
 90
     4095
280
     0
281
     0
  0
CLASS
  1
AEC_REFEDIT_STATUS_TRACKER
  2
AecDbRefEditStatusTracker
  3
AecArchBase60|Product Desc: Autodesk Architectural Desktop 2007 |Company: Autodesk,Inc. |WEB Address: www.autodesk.com
 90
      129
280
     0
281
     0
  0
CLASS
  1
NPOCOLLECTION
  2
AcDbImpNonPersistentObjectsCollection
  3
ObjectDBX Classes
 90
     1153
280
     0
281
     0
  0
CLASS
  1
CELLSTYLEMAP
  2
AcDbCellStyleMap
  3
ObjectDBX Classes
 90
     1152
280
     0
281
     0
  0
ENDSEC
  0
SECTION
  2
TABLES
  0
TABLE
  2
VPORT
  5
8
330
0
100
AcDbSymbolTable
 70
     1
  0
VPORT
  5
29CD
330
8
100
AcDbSymbolTableRecord
100
AcDbViewportTableRecord
  2
*Active
 70
     0
 10
0.0
 20
0.0
 11
1.0
 21
1.0
 12
8790.295698212586
 22
2024.944817990082
 13
0.0
 23
0.0
 14
10.0
 24
10.0
 15
10.0
 25
10.0
 16
0.0
 26
0.0
 36
1.0
 17
0.0
 27
0.0
 37
0.0
 40
1.861803166466643
 41
1.645464025026068
 42
50.0
 43
0.0
 44
0.0
 50
0.0
 51
0.0
 71
     0
 72
   100
 73
     1
 74
     2
 75
     0
 76
     0
 77
     0
 78
     0
281
     0
 65
     1
110
0.0
120
0.0
130
0.0
111
1.0
121
0.0
131
0.0
112
0.0
122
1.0
132
0.0
 79
     0
146
0.0
  0
ENDTAB
  0
TABLE
  2
LTYPE
  5
5
330
0
100
AcDbSymbolTable
 70
     6
  0
LTYPE
  5
14
330
5
100
AcDbSymbolTableRecord
100
AcDbLinetypeTableRecord
  2
ByBlock
 70
     0
  3

 72
    65
 73
     0
 40
0.0
  0
LTYPE
  5
15
330
5
100
AcDbSymbolTableRecord
100
AcDbLinetypeTableRecord
  2
ByLayer
 70
     0
  3

 72
    65
 73
     0
 40
0.0
  0
LTYPE
  5
16
330
5
100
AcDbSymbolTableRecord
100
AcDbLinetypeTableRecord
  2
Continuous
 70
     0
  3
Solid line
 72
    65
 73
     0
 40
0.0
  0
LTYPE
  5
2D
330
5
100
AcDbSymbolTableRecord
100
AcDbLinetypeTableRecord
  2
DASHDOT
 70
     0
  3
Dash dot __ . __ . __ . __ . __ . __ . __ . __
 72
    65
 73
     4
 40
25.4
 49
12.7
 74
     0
 49
-6.349999999999999
 74
     0
 49
0.0
 74
     0
 49
-6.349999999999999
 74
     0
  0
LTYPE
  5
2E
330
5
100
AcDbSymbolTableRecord
100
AcDbLinetypeTableRecord
  2
HIDDEN
 70
     0
  3
Hidden __ __ __ __ __ __ __ __ __ __ __ __ __ _
 72
    65
 73
     2
 40
9.524999999999998
 49
6.349999999999999
 74
     0
 49
-3.174999999999999
 74
     0
  0
LTYPE
  5
C75
330
5
100
AcDbSymbolTableRecord
100
AcDbLinetypeTableRecord
  2
AM_ISO02W050
 70
     0
  3
__ __ __ __ __ __ __ __ __ __ __ __ __ __ __
 72
    65
 73
     2
 40
7.5
 49
6.0
 74
     0
 49
-1.5
 74
     0
  0
LTYPE
  5
C76
330
5
100
AcDbSymbolTableRecord
100
AcDbLinetypeTableRecord
  2
AM_ISO08W050
 70
     0
  3
____ . ____ . ____ . ____ . ____ . ____ . ____
 72
    65
 73
     4
 40
18.0
 49
12.0
 74
     0
 49
-1.5
 74
     0
 49
3.0
 74
     0
 49
-1.5
 74
     0
  0
ENDTAB
  0
TABLE
  2
LAYER
  5
2
102
{ACAD_XDICTIONARY
360
1051
102
}
330
0
100
AcDbSymbolTable
 70
    17
  0
LAYER
  5
10
102
{ACAD_XDICTIONARY
360
2A4A
102
}
330
2
100
AcDbSymbolTableRecord
100
AcDbLayerTableRecord
  2
0
 70
     0
 62
     7
  6
Continuous
370
    -3
390
F
  0
LAYER
  5
2F
102
{ACAD_XDICTIONARY
360
2A4C
102
}
330
2
100
AcDbSymbolTableRecord
100
AcDbLayerTableRecord
  2
1
 70
     0
 62
     1
  6
Continuous
370
    -3
390
F
  0
LAYER
  5
30
102
{ACAD_XDICTIONARY
360
2A4E
102
}
330
2
100
AcDbSymbolTableRecord
100
AcDbLayerTableRecord
  2
2
 70
     0
 62
     2
  6
Continuous
370
    -3
390
F
  0
LAYER
  5
31
102
{ACAD_XDICTIONARY
360
2A50
102
}
330
2
100
AcDbSymbolTableRecord
100
AcDbLayerTableRecord
  2
3
 70
     0
 62
     3
  6
Continuous
370
    -3
390
F
  0
LAYER
  5
32
102
{ACAD_XDICTIONARY
360
2A52
102
}
330
2
100
AcDbSymbolTableRecord
100
AcDbLayerTableRecord
  2
4
 70
     0
 62
     4
  6
Continuous
370
    -3
390
F
  0
LAYER
  5
33
102
{ACAD_XDICTIONARY
360
2A54
102
}
330
2
100
AcDbSymbolTableRecord
100
AcDbLayerTableRecord
  2
5
 70
     0
 62
     5
  6
Continuous
370
    -3
390
F
  0
LAYER
  5
34
102
{ACAD_XDICTIONARY
360
2A56
102
}
330
2
100
AcDbSymbolTableRecord
100
AcDbLayerTableRecord
  2
6
 70
     0
 62
     6
  6
Continuous
370
    -3
390
F
  0
LAYER
  5
35
102
{ACAD_XDICTIONARY
360
2A58
102
}
330
2
100
AcDbSymbolTableRecord
100
AcDbLayerTableRecord
  2
7
 70
     0
 62
     7
  6
Continuous
370
    -3
390
F
  0
LAYER
  5
36
102
{ACAD_XDICTIONARY
360
2A5A
102
}
330
2
100
AcDbSymbolTableRecord
100
AcDbLayerTableRecord
  2
cen
 70
     0
 62
     7
  6
DASHDOT
370
    -3
390
F
  0
LAYER
  5
37
102
{ACAD_XDICTIONARY
360
2A5C
102
}
330
2
100
AcDbSymbolTableRecord
100
AcDbLayerTableRecord
  2
hid
 70
     0
 62
     7
  6
HIDDEN
370
    -3
390
F
  0
LAYER
  5
5D6
102
{ACAD_XDICTIONARY
360
2A5E
102
}
330
2
100
AcDbSymbolTableRecord
100
AcDbLayerTableRecord
  2
hatch
 70
     0
 62
     9
  6
Continuous
370
    -3
390
F
  0
LAYER
  5
8AF
102
{ACAD_XDICTIONARY
360
2A60
102
}
330
2
100
AcDbSymbolTableRecord
100
AcDbLayerTableRecord
  2
9
 70
     0
 62
     9
  6
Continuous
370
    -3
390
F
  0
LAYER
  5
8F8
102
{ACAD_XDICTIONARY
360
2A62
102
}
330
2
100
AcDbSymbolTableRecord
100
AcDbLayerTableRecord
  2
leg fin
 70
     0
 62
     9
  6
Continuous
370
    -3
390
F
  0
LAYER
  5
91D
102
{ACAD_XDICTIONARY
360
2A64
102
}
330
2
100
AcDbSymbolTableRecord
100
AcDbLayerTableRecord
  2
cotas
 70
     0
 62
     1
  6
Continuous
370
    -3
390
F
  0
LAYER
  5
92F
330
2
100
AcDbSymbolTableRecord
100
AcDbLayerTableRecord
  2
Defpoints
 70
     0
 62
     7
  6
Continuous
290
     0
370
    -3
390
F
  0
LAYER
  5
C7B
102
{ACAD_XDICTIONARY
360
2A66
102
}
330
2
100
AcDbSymbolTableRecord
100
AcDbLayerTableRecord
  2
SANINDUSA
 70
     0
 62
     3
  6
Continuous
370
    -3
390
F
  0
LAYER
  5
10DD
102
{ACAD_XDICTIONARY
360
2A68
102
}
330
2
100
AcDbSymbolTableRecord
100
AcDbLayerTableRecord
  2
quote
 70
     0
 62
   250
  6
Continuous
370
     5
390
F
  0
ENDTAB
  0
TABLE
  2
STYLE
  5
3
330
0
100
AcDbSymbolTable
 70
     4
  0
STYLE
  5
11
330
3
100
AcDbSymbolTableRecord
100
AcDbTextStyleTableRecord
  2
Standard
 70
     0
 40
0.0
 41
1.0
 50
0.0
 71
     0
 42
2.5
  3
Avgardn.ttf
  4

1001
ACAD
1000
AvantGarde Bk BT
1071
       34
  0
STYLE
  5
2C
330
3
100
AcDbSymbolTableRecord
100
AcDbTextStyleTableRecord
  2

 70
     1
 40
0.0
 41
1.0
 50
0.0
 71
     0
 42
2.5
  3
ltypeshp.shx
  4

  0
STYLE
  5
91F
330
3
100
AcDbSymbolTableRecord
100
AcDbTextStyleTableRecord
  2
SANINDUSA
 70
     0
 40
0.0
 41
1.0
 50
0.0
 71
     0
 42
2.5
  3
verdana.TTF
  4

1001
ACAD
1000
Verdana
1071
       34
  0
STYLE
  5
C7C
330
3
100
AcDbSymbolTableRecord
100
AcDbTextStyleTableRecord
  2
futura
 70
     0
 40
0.0
 41
1.0
 50
0.0
 71
     0
 42
2.5
  3
ZURCHN.TTF
  4

1001
ACAD
1000
Zurich BT
1071
       34
  0
ENDTAB
  0
TABLE
  2
VIEW
  5
6
330
0
100
AcDbSymbolTable
 70
     0
  0
ENDTAB
  0
TABLE
  2
UCS
  5
7
330
0
100
AcDbSymbolTable
 70
     0
  0
ENDTAB
  0
TABLE
  2
APPID
  5
9
330
0
100
AcDbSymbolTable
 70
    15
  0
APPID
  5
12
330
9
100
AcDbSymbolTableRecord
100
AcDbRegAppTableRecord
  2
ACAD
 70
     0
  0
APPID
  5
3A
330
9
100
AcDbSymbolTableRecord
100
AcDbRegAppTableRecord
  2
DCO15
 70
     0
  0
APPID
  5
EEE
330
9
100
AcDbSymbolTableRecord
100
AcDbRegAppTableRecord
  2
ACAD_DSTYLE_DIMTEXT_FILL
 70
     0
  0
APPID
  5
EEF
330
9
100
AcDbSymbolTableRecord
100
AcDbRegAppTableRecord
  2
ACAD_DSTYLE_DIMEXT_LENGTH
 70
     0
  0
APPID
  5
EF0
330
9
100
AcDbSymbolTableRecord
100
AcDbRegAppTableRecord
  2
ACAD_DSTYLE_DIMEXT_ENABLED
 70
     0
  0
APPID
  5
EF1
330
9
100
AcDbSymbolTableRecord
100
AcDbRegAppTableRecord
  2
ACAD_DSTYLE_DIM_LINETYPE
 70
     0
  0
APPID
  5
EF2
330
9
100
AcDbSymbolTableRecord
100
AcDbRegAppTableRecord
  2
ACAD_DSTYLE_DIM_EXT1_LINETYPE
 70
     0
  0
APPID
  5
EF3
330
9
100
AcDbSymbolTableRecord
100
AcDbRegAppTableRecord
  2
ACAD_DSTYLE_DIM_EXT2_LINETYPE
 70
     0
  0
APPID
  5
FAF
330
9
100
AcDbSymbolTableRecord
100
AcDbRegAppTableRecord
  2
ACAD_DSTYLE_DIMJOGGED_JOGANGLE_SYMBOL
 70
     0
  0
APPID
  5
1013
330
9
100
AcDbSymbolTableRecord
100
AcDbRegAppTableRecord
  2
ACAD_DSTYLE_DIMARC_LENGTH_SYMBOL
 70
     0
  0
APPID
  5
10DE
330
9
100
AcDbSymbolTableRecord
100
AcDbRegAppTableRecord
  2
GENIUS_GENREC_14
 70
     0
  0
APPID
  5
10DF
330
9
100
AcDbSymbolTableRecord
100
AcDbRegAppTableRecord
  2
GENIUS_GENODEF_13
 70
     0
  0
APPID
  5
10E0
330
9
100
AcDbSymbolTableRecord
100
AcDbRegAppTableRecord
  2
GENIUS_GENOBJ-N-REC_13
 70
     0
  0
APPID
  5
1DBF
330
9
100
AcDbSymbolTableRecord
100
AcDbRegAppTableRecord
  2
ACAD_EXEMPT_FROM_CAD_STANDARDS
 70
     0
  0
APPID
  5
2AE7
330
9
100
AcDbSymbolTableRecord
100
AcDbRegAppTableRecord
  2
ACAD_MLEADERVER
 70
     0
  0
ENDTAB
  0
TABLE
  2
DIMSTYLE
  5
A
330
0
100
AcDbSymbolTable
 70
     4
100
AcDbDimStyleTable
 71
     1
340
921
  0
DIMSTYLE
105
45
330
A
100
AcDbSymbolTableRecord
100
AcDbDimStyleTableRecord
  2
STANDARD
 70
     0
289
     0
340
11
  0
DIMSTYLE
105
921
330
A
100
AcDbSymbolTableRecord
100
AcDbDimStyleTableRecord
  2
SANINDUSA
 70
     0
 40
10.0
 41
2.0
 42
1.0
 43
1.0
 44
1.0
 73
     0
 74
     0
 77
     1
 78
     8
140
2.0
141
0.0
143
0.03937007874016
147
1.0
171
     3
172
     1
176
   256
177
   256
178
   256
179
     1
271
     1
272
     1
274
     3
278
    44
283
     0
284
     8
340
91F
371
    -1
372
    -1
1001
ACAD_DSTYLE_DIMJOGGED_JOGANGLE_SYMBOL
1070
   384
1040
1.570796326794896
  0
DIMSTYLE
105
C7D
330
A
100
AcDbSymbolTableRecord
100
AcDbDimStyleTableRecord
  2
AM_ISO
 70
     0
  4
"
 41
2.5
 42
1.0
 43
10.0
 44
1.0
 47
0.1
 48
0.1
 73
     0
 74
     0
 77
     1
 78
     8
 79
     2
140
3.5
141
0.0
143
0.0393701
146
0.71
147
1.5
172
     1
176
   256
177
   256
178
     2
271
     2
272
     3
274
     4
283
     0
284
     8
340
11
371
    -1
372
    -1
  0
ENDTAB
  0
TABLE
  2
BLOCK_RECORD
  5
1
330
0
100
AcDbSymbolTable
 70
    23
  0
BLOCK_RECORD
  5
1F
102
{ACAD_XDICTIONARY
360
288A
102
}
330
1
100
AcDbSymbolTableRecord
100
AcDbBlockTableRecord
  2
*Model_Space
340
22
  0
BLOCK_RECORD
  5
1B
330
1
100
AcDbSymbolTableRecord
100
AcDbBlockTableRecord
  2
*Paper_Space
340
1E
  0
BLOCK_RECORD
  5
23
330
1
100
AcDbSymbolTableRecord
100
AcDbBlockTableRecord
  2
*Paper_Space0
340
26
  0
BLOCK_RECORD
  5
919
330
1
100
AcDbSymbolTableRecord
100
AcDbBlockTableRecord
  2
_DotSmall
340
0
  0
BLOCK_RECORD
  5
922
330
1
100
AcDbSymbolTableRecord
100
AcDbBlockTableRecord
  2
base para cotas
340
0
310
2800000020000000200000000100080000000000000400000000000000000000000000000000000000000000000080000080000000808000800000008000800080800000C0C0C000C0DCC000F0CAA6000020400000206000002080000020A0000020C0000020E00000400000004020000040400000406000004080000040A0
310
000040C0000040E00000600000006020000060400000606000006080000060A0000060C0000060E00000800000008020000080400000806000008080000080A0000080C0000080E00000A0000000A0200000A0400000A0600000A0800000A0A00000A0C00000A0E00000C0000000C0200000C0400000C0600000C0800000C0
310
A00000C0C00000C0E00000E0000000E0200000E0400000E0600000E0800000E0A00000E0C00000E0E00040000000400020004000400040006000400080004000A0004000C0004000E00040200000402020004020400040206000402080004020A0004020C0004020E000404000004040200040404000404060004040800040
310
40A0004040C0004040E00040600000406020004060400040606000406080004060A0004060C0004060E00040800000408020004080400040806000408080004080A0004080C0004080E00040A0000040A0200040A0400040A0600040A0800040A0A00040A0C00040A0E00040C0000040C0200040C0400040C0600040C08000
310
40C0A00040C0C00040C0E00040E0000040E0200040E0400040E0600040E0800040E0A00040E0C00040E0E00080000000800020008000400080006000800080008000A0008000C0008000E00080200000802020008020400080206000802080008020A0008020C0008020E00080400000804020008040400080406000804080
310
008040A0008040C0008040E00080600000806020008060400080606000806080008060A0008060C0008060E00080800000808020008080400080806000808080008080A0008080C0008080E00080A0000080A0200080A0400080A0600080A0800080A0A00080A0C00080A0E00080C0000080C0200080C0400080C0600080C0
310
800080C0A00080C0C00080C0E00080E0000080E0200080E0400080E0600080E0800080E0A00080E0C00080E0E000C0000000C0002000C0004000C0006000C0008000C000A000C000C000C000E000C0200000C0202000C0204000C0206000C0208000C020A000C020C000C020E000C0400000C0402000C0404000C0406000C0
310
408000C040A000C040C000C040E000C0600000C0602000C0604000C0606000C0608000C060A000C060C000C060E000C0800000C0802000C0804000C0806000C0808000C080A000C080C000C080E000C0A00000C0A02000C0A04000C0A06000C0A08000C0A0A000C0A0C000C0A0E000C0C00000C0C02000C0C04000C0C06000
310
C0C08000C0C0A000F0FBFF00A4A0A000808080000000FF0000FF000000FFFF00FF000000FF00FF00FFFF0000FFFFFF00A4A4A4A4A4A4A4A4A4A4A4A4A4A4A4A4A4A4A4A4A4A4A4A4A4A4A4A4A4A4A4A4A4A4A4A4A4A4A4A4A4A4A4A4A4A4A4A4A4A4A4A4A4A4A4A4A4A4A4A4A4A4A4A4A4A4A4A4A4A4A4A4A4A4A4A4A4A4A4
310
A4A4A4A4A4A4A4A4A4A4A4A4A4A4A4A4A4A4A4A4A4A4A4A4A4A4A4A4A4A4A4A4A4A4A4A4A4A4A4A4A4A4A4A4A4A4A4A4A4A4A4A4A4A4A4A4A4A4A4A4A4A4A4A4A4A4A4A4A4A4A4A4A4A4A4A4A4A4A4A4A4A4A4A4A4A4A4A4A4A4A4A4A4A4A4A4A4A4A4A4A4A4A4A4A4A4A4A4A4A4A4A4A4A4A4A4A4A4A4A4A4A4A4A4A4A4A4
310
A4A4A4A4A4A4A4A4A4A4A4A4A4A4A4A4A4A4A4A4A4A4A4A4A4A4A4A4A4A4A4A4A4A4A4A4A4A4A4A4A4A4A4A4A4A4A4A4A4A4A4A4A4A4A4A4A4A4A4A4A4A4A4A4A4A4A4A4A4A4A4A4A4A4A4A4A4A4A4A4A4A4A4A4A4A4A4A4A4A4A4A4A4A4A4A4A4A4A4A4A4A4A4A4A4A4A4A4A4A4A4A4A4A4A4A4A4A4A4A4A4A4A4A4A4A4A4
310
A4A4A4A4A4A4A4A4A4A4A4A4A4A4A4A4A4A4A4A4A4A4A4A4A4A4A4A4A4A4A4A4A4A4A4A4A4A4A4A4A4A4A4A4A4A4A4A4A4A4A4A4A4A4A4A4A4A4A4A4A4A4A4A4A4A4A4A4A4A4A4A4A4A4A4A4A4A4A4A4A4A4A4A4A4A4A4A4A4A4A4A4A4A4A4A4A4A4A4A4A4A4A4A4A4A4A4A4A4A4A4A4A4A4A4A4F9F9F9F9F9F9F9F9F9F9F9
310
F9F9F9F9F9F9F9F9F9F9F9F9F9F9F9F9F9F9F9A4A4F9F9F9F9F9F9F9F9F9F9F9F9F9F9F9F9F9F9F9F9F9F9F9F9F9F9F9F9F9F9A4A4F9F9F9F9F9F9F9F9F9F9F9F9F9F9F9F9F9F9F9F9F9F9F9F9F9F9F9F9F9F9A4A4F9A4A4A4A4A4A4A4A4A4A4A4A4A4A4A4A4A4A4A4A4A4A4A4A4A4A4A4A4F9A4A4A4A4A4A4A4A4A4A4A4A4
310
A4A4A4A4A4A4A4A4A4A4A4A4A4A4A4A4A4A4A4A4A4A4A4A4A4A4A4A4A4A4A4A4A4A4A4A4A4A4A4A4A4A4A4A4A4A4A4A4A4A4A4A4A4A4A4A4A4A4A4A4A4A4A4A4A4A4A4A4A4A4A4A4A4A4A4A4A4A4A4A4A4A4A4A4A4A4A4A4A4A4A4A4A4A4A4A4A4A4A4A4A4A4A4A4A4A4A4A4A4A4A4A4A4A4A4A4A4A4A4A4A4A4A4A4A4A4A4
310
A4A4A4A4A4A4A4A4A4A4A4A4A4A4A4A4A4A4A4A4A4A4A4A4A4A4A4A4A4A4A4A4A4A4A4A4A4A4A4A4A4A4A4A4A4A4A4A4A4A4A4A4A4A4A4A4A4A4A4A4A4A4A4A4A4A4A4A4A4A4A4A4A4A4A4A4A4A4A4A4A4A4A4A4A4A4A4A4A4A4A4A4A4A4A4A4A4A4A4A4A4A4A4A4A4A4A4A4A4A4A4A4A4A4A4A4A4A4A4A4A4A4A4A4A4A4A4
310
A4A4A4A4A4A4A4A4A4A4A4A4A4A4A4A4A4A4A4A4A4A4A4A4A4A4A4A4A4A4A4A4A4A4A4A4A4A4A4A4A4A4A4A4A4A4A4A4A4A4A4A4A4A4A4A4A4A4A4A4A4A4A4A4A4A4A4A4A4A4A4A4A4A4A4A4A4A4A4A4A4A4A4A4A4A4A4A4A4A4A4A4A4A4A4A4A4A4A4A4A4A4A4A4A4A4A4A4A4A4A4A4A4A4A4A4A4A4A4A4A4A4A4A4A4A4A4
310
A4A4A4A4A4A4A4A4A4A4A4A4A4A4A4A4A4A4A4A4A4A4A4A4A4A4A4A4A4A4A4A4A4A4A4A4A4A4A4A4A4A4A4A4A4A4A4A4A4A4A4A4A4A4A4A4
1001
ACAD
1000
DesignCenter Data
1002
{
1070
     1
1070
     4
1002
}
  0
BLOCK_RECORD
  5
AA8
330
1
100
AcDbSymbolTableRecord
100
AcDbBlockTableRecord
  2
_CLOSED
340
0
  0
BLOCK_RECORD
  5
B79
330
1
100
AcDbSymbolTableRecord
100
AcDbBlockTableRecord
  2
nota revisoes
340
0
1001
ACAD
1000
DesignCenter Data
1002
{
1070
     1
1070
     4
1002
}
  0
BLOCK_RECORD
  5
B8E
330
1
100
AcDbSymbolTableRecord
100
AcDbBlockTableRecord
  2
a3l
340
0
1001
ACAD
1000
DesignCenter Data
1002
{
1070
     1
1070
     4
1002
}
  0
BLOCK_RECORD
  5
B9E
330
1
100
AcDbSymbolTableRecord
100
AcDbBlockTableRecord
  2
legenda desenvolvimento
340
0
1001
ACAD
1000
DesignCenter Data
1002
{
1070
     1
1070
     4
1002
}
  0
BLOCK_RECORD
  5
1060
330
1
100
AcDbSymbolTableRecord
100
AcDbBlockTableRecord
  2
guarnizione
340
0
102
{BLKREFS
331
22DE
102
}
  0
BLOCK_RECORD
  5
2770
330
1
100
AcDbSymbolTableRecord
100
AcDbBlockTableRecord
  2
*D8
340
0
  0
BLOCK_RECORD
  5
277C
330
1
100
AcDbSymbolTableRecord
100
AcDbBlockTableRecord
  2
*D9
340
0
  0
BLOCK_RECORD
  5
2788
330
1
100
AcDbSymbolTableRecord
100
AcDbBlockTableRecord
  2
*D10
340
0
  0
BLOCK_RECORD
  5
2794
330
1
100
AcDbSymbolTableRecord
100
AcDbBlockTableRecord
  2
*D11
340
0
  0
BLOCK_RECORD
  5
27A0
330
1
100
AcDbSymbolTableRecord
100
AcDbBlockTableRecord
  2
*D12
340
0
  0
BLOCK_RECORD
  5
27AE
330
1
100
AcDbSymbolTableRecord
100
AcDbBlockTableRecord
  2
*D13
340
0
  0
BLOCK_RECORD
  5
27BA
330
1
100
AcDbSymbolTableRecord
100
AcDbBlockTableRecord
  2
*D14
340
0
  0
BLOCK_RECORD
  5
27C6
330
1
100
AcDbSymbolTableRecord
100
AcDbBlockTableRecord
  2
*D15
340
0
  0
BLOCK_RECORD
  5
27D2
330
1
100
AcDbSymbolTableRecord
100
AcDbBlockTableRecord
  2
*D16
340
0
  0
BLOCK_RECORD
  5
27F1
330
1
100
AcDbSymbolTableRecord
100
AcDbBlockTableRecord
  2
*D17
340
0
  0
BLOCK_RECORD
  5
292D
330
1
100
AcDbSymbolTableRecord
100
AcDbBlockTableRecord
  2
*D18
340
0
  0
BLOCK_RECORD
  5
2974
330
1
100
AcDbSymbolTableRecord
100
AcDbBlockTableRecord
  2
*D19
340
0
  0
BLOCK_RECORD
  5
29AD
330
1
100
AcDbSymbolTableRecord
100
AcDbBlockTableRecord
  2
*D20
340
0
  0
BLOCK_RECORD
  5
2A2D
330
1
100
AcDbSymbolTableRecord
100
AcDbBlockTableRecord
  2
*D22
340
0
  0
ENDTAB
  0
ENDSEC
  0
SECTION
  2
BLOCKS
  0
BLOCK
  5
20
330
1F
100
AcDbEntity
  8
0
100
AcDbBlockBegin
  2
*Model_Space
 70
     0
 10
0.0
 20
0.0
 30
0.0
  3
*Model_Space
  1

  0
ENDBLK
  5
21
330
1F
100
AcDbEntity
  8
0
100
AcDbBlockEnd
  0
BLOCK
  5
1C
330
1B
100
AcDbEntity
 67
     1
  8
0
100
AcDbBlockBegin
  2
*Paper_Space
 70
     0
 10
0.0
 20
0.0
 30
0.0
  3
*Paper_Space
  1

  0
ENDBLK
  5
1D
330
1B
100
AcDbEntity
 67
     1
  8
0
100
AcDbBlockEnd
  0
BLOCK
  5
24
330
23
100
AcDbEntity
 67
     1
  8
0
100
AcDbBlockBegin
  2
*Paper_Space0
 70
     0
 10
0.0
 20
0.0
 30
0.0
  3
*Paper_Space0
  1

  0
ENDBLK
  5
25
330
23
100
AcDbEntity
 67
     1
  8
0
100
AcDbBlockEnd
  0
BLOCK
  5
91B
330
919
100
AcDbEntity
  8
0
100
AcDbBlockBegin
  2
_DotSmall
 70
     0
 10
0.0
 20
0.0
 30
0.0
  3
_DotSmall
  1

  0
LWPOLYLINE
  5
91A
330
919
100
AcDbEntity
  8
0
  6
ByBlock
 62
     0
100
AcDbPolyline
 90
        2
 70
     1
 43
0.5
 10
-0.0625
 20
0.0
 42
1.0
 10
0.0625
 20
0.0
 42
1.0
  0
ENDBLK
  5
91C
330
919
100
AcDbEntity
  8
0
100
AcDbBlockEnd
  0
BLOCK
  5
92A
330
922
100
AcDbEntity
  8
0
100
AcDbBlockBegin
  2
base para cotas
 70
     0
 10
0.0
 20
0.0
 30
0.0
  3
base para cotas
  1

  0
LINE
  5
B36
330
922
100
AcDbEntity
  8
cotas
100
AcDbLine
 10
0.0
 20
-30.0
 30
0.0
 11
327.1260136525398
 21
-30.0
 31
0.0
  0
LINE
  5
B37
330
922
100
AcDbEntity
  8
cotas
100
AcDbLine
 10
0.0
 20
-25.0
 30
0.0
 11
327.1260136525398
 21
-25.0
 31
0.0
  0
LINE
  5
B38
330
922
100
AcDbEntity
  8
cotas
100
AcDbLine
 10
0.0
 20
-20.0
 30
0.0
 11
327.1260136525398
 21
-20.0
 31
0.0
  0
LINE
  5
B39
330
922
100
AcDbEntity
  8
cotas
100
AcDbLine
 10
0.0
 20
-15.0
 30
0.0
 11
327.1260136525398
 21
-15.0
 31
0.0
  0
LINE
  5
B3A
330
922
100
AcDbEntity
  8
cotas
100
AcDbLine
 10
0.0
 20
-10.0
 30
0.0
 11
327.1260136525398
 21
-10.0
 31
0.0
  0
LINE
  5
B3B
330
922
100
AcDbEntity
  8
cotas
100
AcDbLine
 10
0.0
 20
0.0
 30
0.0
 11
0.0
 21
-30.0
 31
0.0
  0
LINE
  5
B3C
330
922
100
AcDbEntity
  8
cotas
100
AcDbLine
 10
327.1260136525398
 20
-30.0
 30
0.0
 11
327.1260136525398
 21
0.0
 31
0.0
  0
ENDBLK
  5
92B
330
922
100
AcDbEntity
  8
0
100
AcDbBlockEnd
  0
BLOCK
  5
AAD
330
AA8
100
AcDbEntity
  8
0
100
AcDbBlockBegin
  2
_CLOSED
 70
     0
 10
0.0
 20
0.0
 30
0.0
  3
_CLOSED
  1

  0
LINE
  5
AA9
330
AA8
100
AcDbEntity
  8
0
100
AcDbLine
 10
-1.0
 20
0.166667
 30
0.0
 11
0.0
 21
0.0
 31
0.0
  0
LINE
  5
AAA
330
AA8
100
AcDbEntity
  8
0
100
AcDbLine
 10
0.0
 20
0.0
 30
0.0
 11
-1.0
 21
-0.166667
 31
0.0
  0
LINE
  5
AAB
330
AA8
100
AcDbEntity
  8
0
100
AcDbLine
 10
-1.0
 20
0.166667
 30
0.0
 11
-1.0
 21
-0.166667
 31
0.0
  0
LINE
  5
AAC
330
AA8
100
AcDbEntity
  8
0
100
AcDbLine
 10
0.0
 20
0.0
 30
0.0
 11
-1.0
 21
0.0
 31
0.0
  0
ENDBLK
  5
AAE
330
AA8
100
AcDbEntity
  8
0
100
AcDbBlockEnd
  0
BLOCK
  5
B7C
330
B79
100
AcDbEntity
  8
0
100
AcDbBlockBegin
  2
nota revisoes
 70
     0
 10
0.0
 20
0.0
 30
0.0
  3
nota revisoes
  1

  0
CIRCLE
  5
B7A
330
B79
100
AcDbEntity
  8
4
100
AcDbCircle
 10
0.0
 20
0.0
 30
0.0
 40
13.69426055101189
  0
TEXT
  5
B7B
330
B79
100
AcDbEntity
  8
4
100
AcDbText
 10
-5.496248358154345
 20
-5.354545554066362
 30
0.0
 40
12.0
  1
1
  7
SANINDUSA
 72
     1
 11
-0.249774214433728
 21
-5.354545554066362
 31
0.0
100
AcDbText
  0
ENDBLK
  5
B7D
330
B79
100
AcDbEntity
  8
0
100
AcDbBlockEnd
  0
BLOCK
  5
B9C
330
B8E
100
AcDbEntity
  8
0
100
AcDbBlockBegin
  2
a3l
 70
     0
 10
0.0
 20
0.0
 30
0.0
  3
a3l
  1

  0
LINE
  5
B8F
330
B8E
100
AcDbEntity
  8
1
100
AcDbLine
 10
-364.2925296599447
 20
-362.1188951399395
 30
0.0
 11
-364.2925296599447
 21
-65.11889513993946
 31
0.0
  0
LINE
  5
B90
330
B8E
100
AcDbEntity
  8
4
100
AcDbLine
 10
-369.2925296599447
 20
-357.1188951399395
 30
0.0
 11
-369.2925296599447
 21
-70.11889513993946
 31
0.0
  0
LINE
  5
B91
330
B8E
100
AcDbEntity
  8
1
100
AcDbLine
 10
-784.2925296599446
 20
-65.11889513993946
 30
0.0
 11
-784.2925296599446
 21
-362.1188951399395
 31
0.0
  0
LINE
  5
B92
330
B8E
100
AcDbEntity
  8
4
100
AcDbLine
 10
-759.2925296599446
 20
-357.1188951399395
 30
0.0
 11
-759.2925296599446
 21
-70.11889513993946
 31
0.0
  0
LINE
  5
B93
330
B8E
100
AcDbEntity
  8
1
100
AcDbLine
 10
-784.2925296599446
 20
-362.1188951399395
 30
0.0
 11
-364.2925296599447
 21
-362.1188951399395
 31
0.0
  0
LINE
  5
B94
330
B8E
100
AcDbEntity
  8
4
100
AcDbLine
 10
-759.2925296599446
 20
-357.1188951399395
 30
0.0
 11
-369.2925296599447
 21
-357.1188951399395
 31
0.0
  0
LINE
  5
B95
330
B8E
100
AcDbEntity
  8
1
100
AcDbLine
 10
-654.2925296599446
 20
-357.1188951399395
 30
0.0
 11
-654.2925296599446
 21
-362.1188951399395
 31
0.0
  0
LINE
  5
B96
330
B8E
100
AcDbEntity
  8
1
100
AcDbLine
 10
-364.2925296599447
 20
-65.11889513993946
 30
0.0
 11
-784.2925296599446
 21
-65.11889513993946
 31
0.0
  0
LINE
  5
B97
330
B8E
100
AcDbEntity
  8
4
100
AcDbLine
 10
-369.2925296599447
 20
-70.11889513993946
 30
0.0
 11
-759.2925296599446
 21
-70.11889513993946
 31
0.0
  0
LINE
  5
B98
330
B8E
100
AcDbEntity
  8
1
100
AcDbLine
 10
-654.2925296599446
 20
-65.11889513993946
 30
0.0
 11
-654.2925296599446
 21
-70.11889513993946
 31
0.0
  0
LINE
  5
B99
330
B8E
100
AcDbEntity
  8
1
100
AcDbLine
 10
-549.2925296599446
 20
-70.11889513993946
 30
0.0
 11
-549.2925296599446
 21
-65.11889513993946
 31
0.0
  0
LINE
  5
B9A
330
B8E
100
AcDbEntity
  8
1
100
AcDbLine
 10
-369.2925296599447
 20
-65.11889513993946
 30
0.0
 11
-364.2925296599447
 21
-65.11889513993946
 31
0.0
  0
LINE
  5
B9B
330
B8E
100
AcDbEntity
  8
1
100
AcDbLine
 10
-549.2925296599446
 20
-357.1188951399395
 30
0.0
 11
-549.2925296599446
 21
-362.1188951399395
 31
0.0
  0
ENDBLK
  5
B9D
330
B8E
100
AcDbEntity
  8
0
100
AcDbBlockEnd
  0
BLOCK
  5
C13
330
B9E
100
AcDbEntity
  8
0
100
AcDbBlockBegin
  2
legenda desenvolvimento
 70
     2
 10
0.0
 20
0.0
 30
0.0
  3
legenda desenvolvimento
  1

  0
ATTDEF
  5
B9F
330
B9E
100
AcDbEntity
  8
1
100
AcDbText
 10
-108.606245802552
 20
55.5
 30
0.0
 40
4.0
  1
XXXXXXXXXXXXXX
 41
0.8
  7
SANINDUSA
 72
     4
 11
-87.5
 21
57.5
 31
0.0
100
AcDbAttributeDefinition
  3
Nome do Produto:
  2
PRODUTO
 70
     0
  0
ATTDEF
  5
BA0
330
B9E
100
AcDbEntity
  8
1
100
AcDbText
 10
-97.9997966101695
 20
41.25
 30
0.0
 40
3.0
  1
XXXXXXXXX
 41
0.8
  7
futura
 72
     4
 11
-87.5
 21
42.75
 31
0.0
100
AcDbAttributeDefinition
  3
Nome da Peça:
  2
PECA
 70
     0
  0
ATTDEF
  5
BA1
330
B9E
100
AcDbEntity
  8
1
100
AcDbText
 10
-133.4422431161853
 20
21.11745296763252
 30
0.0
 40
2.5
  1
X
 41
0.8
  7
SANINDUSA
 72
     4
 11
-132.5
 21
22.36745296763252
 31
0.0
100
AcDbAttributeDefinition
  3
Cod. TESTE:
  2
TESTE
 70
     0
  0
ATTDEF
  5
BA2
330
B9E
100
AcDbEntity
  8
1
100
AcDbText
 10
-124.3844862323707
 20
21.11745296763252
 30
0.0
 40
2.5
  1
XX
 41
0.8
  7
SANINDUSA
 72
     4
 11
-122.5
 21
22.36745296763252
 31
0.0
100
AcDbAttributeDefinition
  3
Cod. Ano:
  2
ANO
 70
     0
  0
ATTDEF
  5
BA3
330
B9E
100
AcDbEntity
  8
1
100
AcDbText
 10
-112.526889953052
 20
21.11745296763252
 30
0.0
 40
2.5
  1
XXX
 41
0.8
  7
SANINDUSA
 72
     4
 11
-109.700160604496
 21
22.36745296763252
 31
0.0
100
AcDbAttributeDefinition
  3
Cod. Sequência:
  2
SEQUENCIA
 70
     0
  0
ATTDEF
  5
BA4
330
B9E
100
AcDbEntity
  8
1
100
AcDbText
 10
-99.35382430979316
 20
21.11745296763252
 30
0.0
 40
2.5
  1
XX
 41
0.8
  7
SANINDUSA
 72
     4
 11
-97.46933807742244
 21
22.36745296763252
 31
0.0
100
AcDbAttributeDefinition
  3
Cod. Tipo:
  2
TIPO
 70
     0
  0
ATTDEF
  5
BA5
330
B9E
100
AcDbEntity
  8
1
100
AcDbText
 10
-87.42035911468438
 20
21.11745296763252
 30
0.0
 40
2.5
  1
XXX
 41
0.8
  7
SANINDUSA
 72
     4
 11
-84.59362976612828
 21
22.36745296763252
 31
0.0
100
AcDbAttributeDefinition
  3
Cod. Produto:
  2
PRODUTO
 70
     0
  0
ATTDEF
  5
BA6
330
B9E
100
AcDbEntity
  8
1
100
AcDbText
 10
-74.62051971917853
 20
21.11745296763252
 30
0.0
 40
2.5
  1
XXX
 41
0.8
  7
SANINDUSA
 72
     4
 11
-71.79379037062244
 21
22.36745296763252
 31
0.0
100
AcDbAttributeDefinition
  3
Cod. Peça:
  2
PECA
 70
     0
  0
ATTDEF
  5
BA7
330
B9E
100
AcDbEntity
  8
1
100
AcDbText
 10
-61.10603446650329
 20
21.11745296763252
 30
0.0
 40
2.5
  1
XX
 41
0.8
  7
SANINDUSA
 72
     4
 11
-59.22154823413257
 21
22.36745296763252
 31
0.0
100
AcDbAttributeDefinition
  3
Cod. Revisão:
  2
REV
 70
     0
  0
ATTDEF
  5
BA8
330
B9E
100
AcDbEntity
  8
1
100
AcDbText
 10
-48.43615325006194
 20
21.11745296763252
 30
0.0
 40
2.5
  1
XX
 41
0.8
  7
SANINDUSA
 72
     4
 11
-46.55166701769121
 21
22.36745296763252
 31
0.0
100
AcDbAttributeDefinition
  3
Cod. Alteração:
  2
ALT
 70
     0
  0
ATTDEF
  5
BA9
330
B9E
100
AcDbEntity
  8
1
100
AcDbText
 10
-35.19086635325722
 20
23.98875083948959
 30
0.0
 40
3.0
  1
1/XXX
 41
0.8
  7
SANINDUSA
 72
     4
 11
-30.0
 21
25.25
 31
0.0
100
AcDbAttributeDefinition
  3
Escala geral:
  2
ESCALA
 70
     0
  0
ATTDEF
  5
BAA
330
B9E
100
AcDbEntity
  8
1
100
AcDbText
 10
-15.65345869711215
 20
23.75
 30
0.0
 40
3.0
  1
XXXXX
 41
0.8
  7
SANINDUSA
 72
     4
 11
-10.0
 21
25.25
 31
0.0
100
AcDbAttributeDefinition
  3
Folha:
  2
FOLHA
 70
     0
  0
ATTDEF
  5
BAB
330
B9E
100
AcDbEntity
  8
1
100
AcDbText
 10
-178.5146998822042
 20
56.9531347542807
 30
0.0
 40
2.0
  1
xx
 41
0.8
  7
SANINDUSA
 72
     4
 11
-177.2123493113513
 21
57.70330265219877
 31
0.0
100
AcDbAttributeDefinition
  3
revisão
  2
REV.
 70
     0
  0
ATTDEF
  5
BAC
330
B9E
100
AcDbEntity
  8
1
100
AcDbText
 10
-172.7849640077129
 20
56.9531347542807
 30
0.0
 40
2.0
  1
xx
 41
0.8
  7
SANINDUSA
 72
     4
 11
-171.48261343686
 21
57.70330265219877
 31
0.0
100
AcDbAttributeDefinition
  3
alteração
  2
ALT.
 70
     0
  0
ATTDEF
  5
BAD
330
B9E
100
AcDbEntity
  8
1
100
AcDbText
 10
-168.007199951307
 20
56.70330265219877
 30
0.0
 40
2.0
  1
xx/xx/xxxx
 41
0.8
  7
SANINDUSA
 11
-168.007199951307
 21
57.70330265219877
 31
0.0
100
AcDbAttributeDefinition
  3
data
  2
DATA
 70
     0
 74
     2
  0
ATTDEF
  5
BAE
330
B9E
100
AcDbEntity
  8
1
100
AcDbText
 10
-168.5396372253371
 20
13.15916722632639
 30
0.0
 40
2.0
  1
XX/XX/XXXX
 41
0.8
  7
SANINDUSA
 72
     4
 11
-161.5099528734231
 21
14.0
 31
0.0
100
AcDbAttributeDefinition
  3
Data projecto
  2
DATA_PROJ
 70
     0
  0
ATTDEF
  5
BAF
330
B9E
100
AcDbEntity
  8
1
100
AcDbText
 10
-150.8658110728766
 20
13.24983210208193
 30
0.0
 40
2.0
  1
xxxxxxxx
 41
0.8
  7
SANINDUSA
 72
     4
 11
-145.6564087894649
 21
14.0
 31
0.0
100
AcDbAttributeDefinition
  3
nome de quem projectou
  2
NOME
 70
     0
  0
ATTDEF
  5
BB0
330
B9E
100
AcDbEntity
  8
1
100
AcDbText
 10
-168.5396372253371
 20
9.159167226326394
 30
0.0
 40
2.0
  1
XX/XX/XXXX
 41
0.8
  7
SANINDUSA
 72
     4
 11
-161.5099528734231
 21
10.0
 31
0.0
100
AcDbAttributeDefinition
  3
Data desenhou
  2
DATA_DES
 70
     0
  0
ATTDEF
  5
BB1
330
B9E
100
AcDbEntity
  8
1
100
AcDbText
 10
-151.516986358303
 20
9.249832102081933
 30
0.0
 40
2.0
  1
xxxxxxxxx
 41
0.8
  7
SANINDUSA
 72
     4
 11
-145.6564087894649
 21
10.0
 31
0.0
100
AcDbAttributeDefinition
  3
nome
  2
NOME
 70
     0
  0
ATTDEF
  5
BB2
330
B9E
100
AcDbEntity
  8
1
100
AcDbText
 10
-127.2924214135946
 20
14.1979876583216
 30
0.0
 40
2.0
  1
Vitreous China
 41
0.8
  7
SANINDUSA
 72
     4
 11
-119.231709526422
 21
15.22216495852308
 31
0.0
100
AcDbAttributeDefinition
  3
Nome do Material:
  2
MATERIAL
 70
     0
  0
ATTDEF
  5
BB3
330
B9E
100
AcDbEntity
  8
1
100
AcDbText
 10
-103.1563452122093
 20
14.38019043949261
 30
0.0
 40
2.0
  1
Branco
 41
0.8
  7
SANINDUSA
 72
     4
 11
-99.33418268702462
 21
15.35937109765245
 31
0.0
100
AcDbAttributeDefinition
  3
cor da peça
  2
COR
 70
     0
  0
ATTDEF
  5
BB4
330
B9E
100
AcDbEntity
  8
1
100
AcDbText
 10
-116.7235057085292
 20
5.975822699798522
 30
0.0
 40
2.0
  1
Vidrado
 41
0.8
  7
SANINDUSA
 72
     4
 11
-112.5
 21
7.0
 31
0.0
100
AcDbAttributeDefinition
  3
Tipo de acabamento:
  2
ACABAMENTO
 70
     0
  0
ATTDEF
  5
BB5
330
B9E
100
AcDbEntity
  8
1
100
AcDbText
 10
-79.18527869967246
 20
16.65066409850533
 30
0.0
 40
2.0
  1
XXXXXXX
 41
0.8
  7
SANINDUSA
 72
     4
 11
-73.90871724903445
 21
17.65066409850533
 31
0.0
100
AcDbAttributeDefinition
  3
Normas
  2
NORMAS
 70
     0
  0
ATTDEF
  5
BB6
330
B9E
100
AcDbEntity
  8
1
100
AcDbText
 10
-30.55312290127603
 20
14.0
 30
0.0
 40
2.0
  1
XXXXXXXXXXXXXX
 41
0.8
  7
SANINDUSA
 72
     4
 11
-20.0
 21
15.0
 31
0.0
100
AcDbAttributeDefinition
  3
Substitui o desenho:
  2
SUBSTITUI
 70
     0
  0
ATTDEF
  5
BB7
330
B9E
100
AcDbEntity
  8
1
100
AcDbText
 10
-31.30691739422431
 20
6.0
 30
0.0
 40
2.0
  1
XXXXXXXXXXXXXXX
 41
0.8
  7
SANINDUSA
 72
     4
 11
-20.0
 21
7.0
 31
0.0
100
AcDbAttributeDefinition
  3
Substituido por:
  2
SUBSTITUIDO
 70
     0
  0
ATTDEF
  5
BB8
330
B9E
100
AcDbEntity
  8
1
100
AcDbText
 10
-110.0220608548302
 20
1.478208457928303
 30
0.0
 40
2.0
  1
XXXXXXXXXXXXXXXXXXXXXXXXXXXXXXXXXX
 41
0.8
  7
SANINDUSA
 11
-110.0220608548302
 21
2.478208457928303
 31
0.0
100
AcDbAttributeDefinition
  3
Localização do desenho:
  2
LOC-DWG
 70
     0
 74
     2
  0
LINE
  5
BB9
330
B9E
100
AcDbEntity
  8
3
100
AcDbLine
 10
-135.0
 20
4.0
 30
0.0
 11
0.0000000000004547
 21
4.0
 31
0.0
  0
LINE
  5
BBA
330
B9E
100
AcDbEntity
  8
3
100
AcDbLine
 10
-90.00000000000046
 20
12.0
 30
0.0
 11
-135.0
 21
12.0
 31
0.0
  0
LINE
  5
BBB
330
B9E
100
AcDbEntity
  8
3
100
AcDbLine
 10
-135.0
 20
32.5
 30
0.0
 11
-40.0
 21
32.5
 31
0.0
  0
TEXT
  5
BBC
330
B9E
100
AcDbEntity
  8
1
100
AcDbText
 10
-134.0
 20
1.25
 30
0.0
 40
2.0
  1
Localização do des.:
 41
0.8
  7
SANINDUSA
 11
-134.0
 21
2.25
 31
0.0
100
AcDbText
 73
     2
  0
LINE
  5
BBD
330
B9E
100
AcDbEntity
  8
3
100
AcDbLine
 10
-180.0
 20
65.0
 30
0.0
 11
0.0
 21
65.0
 31
0.0
  0
LINE
  5
BBE
330
B9E
100
AcDbEntity
  8
leg fin
100
AcDbLine
 10
-40.0
 20
25.05956924886846
 30
0.0
 11
-135.0
 21
25.05956924886846
 31
0.0
  0
LINE
  5
BBF
330
B9E
100
AcDbEntity
  8
leg fin
100
AcDbLine
 10
-40.0
 20
28.5
 30
0.0
 11
-135.0
 21
28.5
 31
0.0
  0
LINE
  5
BC0
330
B9E
100
AcDbEntity
  8
3
100
AcDbLine
 10
-135.0
 20
50.0
 30
0.0
 11
-40.0
 21
50.0
 31
0.0
  0
TEXT
  5
BC1
330
B9E
100
AcDbEntity
  8
1
100
AcDbText
 10
-134.0
 20
29.75
 30
0.0
 40
2.0
  1
Desenho nº:
 41
0.8
  7
SANINDUSA
 11
-134.0
 21
30.75
 31
0.0
100
AcDbText
 73
     2
  0
TEXT
  5
BC2
330
B9E
100
AcDbEntity
  8
1
100
AcDbText
 10
-134.0
 20
9.25
 30
0.0
 40
2.0
  1
Acabamento:
 41
0.8
  7
SANINDUSA
 11
-134.0
 21
10.25
 31
0.0
100
AcDbText
 73
     2
  0
LINE
  5
BC3
330
B9E
100
AcDbEntity
  8
3
100
AcDbLine
 10
-180.0
 20
20.0
 30
0.0
 11
0.0
 21
20.0
 31
0.0
  0
LINE
  5
BC4
330
B9E
100
AcDbEntity
  8
1
100
AcDbLine
 10
-174.5810776056337
 20
55.5
 30
0.0
 11
-174.5810776056337
 21
65.0
 31
0.0
  0
LINE
  5
BC5
330
B9E
100
AcDbEntity
  8
1
100
AcDbLine
 10
-168.9210461879161
 20
55.5
 30
0.0
 11
-168.9210461879161
 21
65.0
 31
0.0
  0
LINE
  5
BC6
330
B9E
100
AcDbEntity
  8
1
100
AcDbLine
 10
-154.0988595589306
 20
55.5
 30
0.0
 11
-154.0988595589306
 21
65.0
 31
0.0
  0
LINE
  5
BC7
330
B9E
100
AcDbEntity
  8
3
100
AcDbLine
 10
-180.0
 20
65.0
 30
0.0
 11
-180.0
 21
0.0
 31
0.0
  0
LINE
  5
BC8
330
B9E
100
AcDbEntity
  8
3
100
AcDbLine
 10
-135.0
 20
0.0
 30
0.0
 11
-135.0
 21
65.0
 31
0.0
  0
TEXT
  5
BC9
330
B9E
100
AcDbEntity
  8
1
100
AcDbText
 10
-179.0
 20
9.75
 30
0.0
 40
1.5
  1
Des.
 41
0.8
  7
SANINDUSA
 11
-179.0
 21
10.5
 31
0.0
100
AcDbText
 73
     2
  0
LINE
  5
BCA
330
B9E
100
AcDbEntity
  8
1
100
AcDbLine
 10
-168.9210461879161
 20
20.0
 30
0.0
 11
-168.9210461879161
 21
0.0
 31
0.0
  0
LINE
  5
BCB
330
B9E
100
AcDbEntity
  8
1
100
AcDbLine
 10
-154.0988595589306
 20
20.0
 30
0.0
 11
-154.0988595589306
 21
0.0
 31
0.0
  0
LINE
  5
BCC
330
B9E
100
AcDbEntity
  8
1
100
AcDbLine
 10
-180.0
 20
4.0
 30
0.0
 11
-135.0
 21
4.0
 31
0.0
  0
LINE
  5
BCD
330
B9E
100
AcDbEntity
  8
1
100
AcDbLine
 10
-180.0
 20
8.0
 30
0.0
 11
-135.0
 21
8.0
 31
0.0
  0
TEXT
  5
BCE
330
B9E
100
AcDbEntity
  8
1
100
AcDbText
 10
-179.0
 20
1.73257823687436
 30
0.0
 40
1.5
  1
Aprov.
 41
0.8
  7
SANINDUSA
 11
-179.0
 21
2.48257823687436
 31
0.0
100
AcDbText
 73
     2
  0
TEXT
  5
BCF
330
B9E
100
AcDbEntity
  8
1
100
AcDbText
 10
-179.0
 20
5.75
 30
0.0
 40
1.5
  1
Ver.
 41
0.8
  7
SANINDUSA
 11
-179.0
 21
6.5
 31
0.0
100
AcDbText
 73
     2
  0
LINE
  5
BD0
330
B9E
100
AcDbEntity
  8
1
100
AcDbLine
 10
-180.0
 20
16.0
 30
0.0
 11
-135.0
 21
16.0
 31
0.0
  0
LINE
  5
BD1
330
B9E
100
AcDbEntity
  8
1
100
AcDbLine
 10
-180.0
 20
12.0
 30
0.0
 11
-135.0
 21
12.0
 31
0.0
  0
TEXT
  5
BD2
330
B9E
100
AcDbEntity
  8
1
100
AcDbText
 10
-179.0
 20
13.75
 30
0.0
 40
1.5
  1
Proj.
 41
0.8
  7
SANINDUSA
 11
-179.0
 21
14.5
 31
0.0
100
AcDbText
 73
     2
  0
TEXT
  5
BD3
330
B9E
100
AcDbEntity
  8
1
100
AcDbText
 10
-167.9210461879161
 20
17.75
 30
0.0
 40
1.5
  1
Data
 41
0.8
  7
SANINDUSA
 11
-167.9210461879161
 21
18.5
 31
0.0
100
AcDbText
 73
     2
  0
TEXT
  5
BD4
330
B9E
100
AcDbEntity
  8
1
100
AcDbText
 10
-153.0988595589306
 20
17.75
 30
0.0
 40
1.5
  1
Nome
 41
0.8
  7
SANINDUSA
 11
-153.0988595589306
 21
18.5
 31
0.0
100
AcDbText
 73
     2
  0
LINE
  5
BD5
330
B9E
100
AcDbEntity
  8
leg fin
100
AcDbLine
 10
-130.0
 20
20.0
 30
0.0
 11
-130.0
 21
28.5
 31
0.0
  0
TEXT
  5
BD6
330
B9E
100
AcDbEntity
  8
1
100
AcDbText
 10
-134.0
 20
17.25
 30
0.0
 40
2.0
  1
Material:
 41
0.8
  7
SANINDUSA
 11
-134.0
 21
18.25
 31
0.0
100
AcDbText
 73
     2
  0
TEXT
  5
BD7
330
B9E
100
AcDbEntity
  8
1
100
AcDbText
 10
-129.0
 20
26.43288406845113
 30
0.0
 40
1.5
  1
Ano:
 41
0.8
  7
SANINDUSA
 11
-129.0
 21
27.18288406845113
 31
0.0
100
AcDbText
 73
     2
  0
LINE
  5
BD8
330
B9E
100
AcDbEntity
  8
1
100
AcDbLine
 10
-180.0
 20
55.5
 30
0.0
 11
-135.0
 21
55.5
 31
0.0
  0
TEXT
  5
BD9
330
B9E
100
AcDbEntity
  8
1
100
AcDbText
 10
-179.0
 20
52.67772246885193
 30
0.0
 40
1.5
  1
descrição
 41
0.8
  7
SANINDUSA
 11
-179.0
 21
53.42772246885193
 31
0.0
100
AcDbText
 73
     2
  0
TEXT
  5
BDA
330
B9E
100
AcDbEntity
  8
1
100
AcDbText
 10
-134.0
 20
47.25
 30
0.0
 40
2.0
  1
Peça:
 41
0.8
  7
SANINDUSA
 11
-134.0
 21
48.25
 31
0.0
100
AcDbText
 73
     2
  0
LINE
  5
BDB
330
B9E
100
AcDbEntity
  8
1
100
AcDbLine
 10
-180.0
 20
59.5
 30
0.0
 11
-135.0
 21
59.5
 31
0.0
  0
TEXT
  5
BDC
330
B9E
100
AcDbEntity
  8
1
100
AcDbText
 10
-173.5810776056337
 20
62.75
 30
0.0
 40
1.5
  1
Alt.
 41
0.8
  7
SANINDUSA
 11
-173.5810776056337
 21
63.5
 31
0.0
100
AcDbText
 73
     2
  0
TEXT
  5
BDD
330
B9E
100
AcDbEntity
  8
1
100
AcDbText
 10
-179.0
 20
62.75
 30
0.0
 40
1.5
  1
Rev.
 41
0.8
  7
SANINDUSA
 11
-179.0
 21
63.5
 31
0.0
100
AcDbText
 73
     2
  0
TEXT
  5
BDE
330
B9E
100
AcDbEntity
  8
1
100
AcDbText
 10
-167.9210461879161
 20
62.75
 30
0.0
 40
1.5
  1
Data
 41
0.8
  7
SANINDUSA
 11
-167.9210461879161
 21
63.5
 31
0.0
100
AcDbText
 73
     2
  0
TEXT
  5
BDF
330
B9E
100
AcDbEntity
  8
1
100
AcDbText
 10
-153.0988595589306
 20
62.75
 30
0.0
 40
1.5
  1
Nome
 41
0.8
  7
SANINDUSA
 11
-153.0988595589306
 21
63.5
 31
0.0
100
AcDbText
 73
     2
  0
TEXT
  5
BE0
330
B9E
100
AcDbEntity
  8
1
100
AcDbText
 10
-134.0
 20
62.25
 30
0.0
 40
2.0
  1
Produto:
 41
0.8
  7
SANINDUSA
 11
-134.0
 21
63.25
 31
0.0
100
AcDbText
 73
     2
  0
LINE
  5
BE1
330
B9E
100
AcDbEntity
  8
3
100
AcDbLine
 10
-40.0
 20
4.0
 30
0.0
 11
-40.0
 21
65.0
 31
0.0
  0
LWPOLYLINE
  5
BE2
102
{ACAD_REACTORS
330
BEC
102
}
330
B9E
100
AcDbEntity
  8
9
100
AcDbPolyline
 90
       12
 70
     1
 43
0.0
 10
-3.038714600644652
 20
58.90010174665076
 10
-5.726962862472191
 20
58.90010174665076
 10
-5.726962862472191
 20
58.5001017466509
 10
-3.038748516195028
 20
58.5001017466509
 42
-0.4142135623731731
 10
-2.638748516194482
 20
58.1001017466508
 10
-2.638748516194482
 20
57.42799728675596
 10
-5.21497371544865
 20
57.42799728675596
 42
0.4142135623731289
 10
-6.014973715448377
 20
56.627997286756
 10
-6.014973715448377
 20
55.92380871629643
 42
0.4142135623731132
 10
-5.21497371544865
 20
55.12380871629648
 10
-2.23871460064447
 20
55.12380871629648
 10
-2.23871460064447
 20
58.10010174665103
 42
0.4142135623730717
  0
LWPOLYLINE
  5
BE3
102
{ACAD_REACTORS
330
BEC
102
}
330
B9E
100
AcDbEntity
  8
9
100
AcDbPolyline
 90
       20
 70
     1
 43
0.0
 10
-10.01531287095122
 20
57.82799728675581
 10
-10.01531287095122
 20
58.10010174665103
 42
-0.4142135623730744
 10
-9.615312870951584
 20
58.5001017466509
 10
-6.92703069357276
 20
58.5001017466509
 10
-6.92703069357276
 20
58.90010174665076
 10
-9.615346786501959
 20
58.90010174665076
 42
0.4142135623730883
 10
-10.41534678650168
 20
58.1001017466508
 10
-10.41534678650168
 20
57.82796337120567
 42
0.4142135623730717
 10
-9.615346786501959
 20
57.02796337120571
 10
-7.423079531965413
 20
57.02796337120571
 42
-0.4142135623730847
 10
-7.023079531965322
 20
56.62796337120562
 10
-7.023079531965322
 20
55.90786840766487
 42
-0.4142135623730744
 10
-7.423079531965413
 20
55.507868407665
 10
-10.41534678650168
 20
55.507868407665
 10
-10.41534678650168
 20
55.12380871629648
 10
-7.445787917283723
 20
55.12380871629648
 42
0.4114777732064574
 10
-6.645822882998345
 20
55.9163291493976
 10
-6.639238813324936
 20
56.62051771985716
 42
0.4169546541682913
 10
-7.439203847610315
 20
57.42799728675596
 10
-9.615312870951584
 20
57.42799728675596
 42
-0.4142135623731576
  0
LWPOLYLINE
  5
BE4
102
{ACAD_REACTORS
330
BEC
102
}
330
B9E
100
AcDbEntity
  8
9
100
AcDbPolyline
 90
       12
 70
     1
 43
0.0
 10
-14.41561811090378
 20
58.90010174665076
 10
-14.79964388672215
 20
58.90010174665076
 10
-14.79964388672215
 20
55.92380871629643
 42
0.4142135623731133
 10
-13.99964388672242
 20
55.12380871629648
 10
-11.8233508563676
 20
55.12380871629648
 42
0.4142135623730872
 10
-11.02335085636741
 20
55.92380871629643
 10
-11.02335085636741
 20
58.90010174665076
 10
-11.42338477191788
 20
58.90010174665076
 10
-11.42338477191788
 20
55.91567577726095
 42
-0.4131711701795318
 10
-11.82196067063523
 20
55.51567831234956
 10
-14.0141940096214
 20
55.50787335710947
 42
-0.4152567234624407
 10
-14.41561811090378
 20
55.90787082202087
  0
LWPOLYLINE
  5
BE5
102
{ACAD_REACTORS
330
BEC
102
}
330
B9E
100
AcDbEntity
  8
9
100
AcDbPolyline
 90
        6
 70
     1
 43
0.0
 10
-15.80771578768872
 20
55.507868407665
 10
-18.39994912667453
 20
55.507868407665
 42
-0.4142135623731731
 10
-18.79994912667462
 20
55.90786840766487
 10
-18.79994912667462
 20
58.10010174665103
 42
-0.4142135623730744
 10
-18.39994912667453
 20
58.5001017466509
 10
-15.80771578768872
 20
58.5001017466509
  0
LWPOLYLINE
  5
BE6
102
{ACAD_REACTORS
330
BEC
102
}
330
B9E
100
AcDbEntity
  8
9
100
AcDbPolyline
 90
        8
 70
     1
 43
0.0
 10
-15.4236900118708
 20
59.87619128370352
 10
-15.80771578768872
 20
59.87619128370352
 10
-15.80771578768872
 20
58.90010174665076
 10
-18.39176256411201
 20
58.90010174665076
 42
0.4131164467977967
 10
-19.19175694739761
 20
58.1030995310698
 10
-19.1999120763262
 20
55.92680650071542
 42
0.4153115297271718
 10
-18.39991769304061
 20
55.12380871629648
 10
-15.4236900118708
 20
55.12380871629648
  0
LWPOLYLINE
  5
BE7
102
{ACAD_REACTORS
330
BEC
102
}
330
B9E
100
AcDbEntity
  8
9
100
AcDbPolyline
 90
       10
 70
     1
 43
0.0
 10
-20.59201288790928
 20
58.90010174665076
 10
-23.56830591826338
 20
58.90010174665076
 10
-23.56830591826338
 20
55.12380871629648
 10
-23.18424622689509
 20
55.12380871629648
 10
-23.18424622689509
 20
58.5001017466509
 10
-20.59204680345965
 20
58.5001017466509
 42
-0.4142135623730898
 10
-20.19204680345956
 20
58.1001017466508
 10
-20.19204680345956
 20
55.12380871629648
 10
-19.79201288790909
 20
55.12380871629648
 10
-19.79201288790909
 20
58.10010174665103
 42
0.4142135623731132
  0
LWPOLYLINE
  5
BE8
102
{ACAD_REACTORS
330
BEC
102
}
330
B9E
100
AcDbEntity
  8
9
100
AcDbPolyline
 90
        4
 70
     1
 43
0.0
 10
-24.19231812786165
 20
58.90010174665076
 10
-24.57637781922995
 20
58.90010174665076
 10
-24.57637781922995
 20
55.12380871629648
 10
-24.19231812786165
 20
55.12380871629648
  0
LWPOLYLINE
  5
BE9
102
{ACAD_REACTORS
330
BEC
102
}
330
B9E
100
AcDbEntity
  8
9
100
AcDbPolyline
 90
       10
 70
     1
 43
0.0
 10
-28.57661522808212
 20
58.5001017466509
 10
-25.98444972019706
 20
58.5001017466509
 42
-0.4142135623731731
 10
-25.58444972019652
 20
58.1001017466508
 10
-25.58444972019652
 20
55.12380871629648
 10
-25.2004239443786
 20
55.12380871629648
 10
-25.2004239443786
 20
58.10010174665103
 42
0.4142135623730717
 10
-26.00042394437833
 20
58.90010174665076
 10
-28.97664914363259
 20
58.90010174665076
 10
-28.97664914363259
 20
55.12380871629648
 10
-28.57661522808212
 20
55.12380871629648
  0
LWPOLYLINE
  5
BEA
102
{ACAD_REACTORS
330
BEC
102
}
330
B9E
100
AcDbEntity
  8
9
100
AcDbPolyline
 90
       12
 70
     1
 43
0.0
 10
-29.58465321349832
 20
58.10010174665103
 42
0.4142135623730716
 10
-30.3846532134985
 20
58.90010174665076
 10
-33.07296930642724
 20
58.90010174665076
 10
-33.07296930642724
 20
58.5001017466509
 10
-30.38468712904842
 20
58.5001017466509
 42
-0.4142135623730067
 10
-29.98468712904878
 20
58.1001017466508
 10
-29.98468712904878
 20
57.42799728675618
 10
-32.56098015940324
 20
57.42799728675596
 42
0.4142135623731289
 10
-33.36098015940343
 20
56.627997286756
 10
-33.36098015940343
 20
55.92380871629643
 42
0.4142135623731132
 10
-32.56098015940324
 20
55.12380871629648
 10
-29.58465321349832
 20
55.12380871629648
  0
LWPOLYLINE
  5
BEB
102
{ACAD_REACTORS
330
BEC
102
}
330
B9E
100
AcDbEntity
  8
9
100
AcDbPolyline
 90
       20
 70
     1
 43
0.0
 10
-34.7850262845518
 20
57.42799728675596
 10
-36.96125148380543
 20
57.42799728675596
 42
-0.4142135623730898
 10
-37.36125148380552
 20
57.82799728675604
 10
-37.36125148380552
 20
58.10010174665103
 42
-0.4142135623730744
 10
-36.96125148380543
 20
58.5001017466509
 10
-34.27303713752781
 20
58.50010174665067
 10
-34.27303713752781
 20
58.90010174665076
 10
-36.96128539935535
 20
58.90010174665076
 42
0.4142135623731289
 10
-37.76128539935553
 20
58.1001017466508
 10
-37.76128539935553
 20
57.82796337120567
 42
0.4142135623730716
 10
-36.9612853993558
 20
57.02796337120571
 10
-34.76901814481926
 20
57.02796337120571
 42
-0.414213562373168
 10
-34.36901814481962
 20
56.62796337120562
 10
-34.36901814481962
 20
55.90786840766487
 42
-0.4142135623730744
 10
-34.76901814481926
 20
55.507868407665
 10
-37.76128539935553
 20
55.507868407665
 10
-37.76128539935553
 20
55.12380871629648
 10
-34.7850262845518
 20
55.12380871629648
 42
0.4142135623731289
 10
-33.98502628455162
 20
55.92380871629643
 10
-33.98502628455162
 20
56.627997286756
 42
0.4142135623731132
  0
HATCH
  5
BEC
330
B9E
100
AcDbEntity
  8
9
100
AcDbHatch
 10
0.0
 20
0.0
 30
0.0
210
0.0
220
0.0
230
1.0
  2
SOLID
 70
     1
 71
     1
 91
       13
 92
        7
 72
     1
 73
     1
 93
       20
 10
-34.36901814481962
 20
55.90786840766487
 42
-0.414213562372991
 10
-34.76901814481926
 20
55.507868407665
 42
0.0
 10
-37.76128539935553
 20
55.507868407665
 42
0.0
 10
-37.76128539935553
 20
55.12380871629648
 42
0.0
 10
-34.7850262845518
 20
55.12380871629648
 42
0.4142135623731705
 10
-33.98502628455162
 20
55.92380871629666
 42
0.0
 10
-33.98502628455162
 20
56.627997286756
 42
0.4142135623731547
 10
-34.7850262845518
 20
57.42799728675596
 42
0.0
 10
-36.96125148380543
 20
57.42799728675596
 42
-0.4142135623730898
 10
-37.36125148380552
 20
57.82799728675604
 42
0.0
 10
-37.36125148380552
 20
58.1001017466508
 42
-0.4142135623731575
 10
-36.96125148380543
 20
58.5001017466509
 42
0.0
 10
-34.27303713752781
 20
58.50010174665067
 42
0.0
 10
-34.27303713752781
 20
58.90010174665076
 42
0.0
 10
-36.96128539935535
 20
58.90010174665076
 42
0.4142135623731705
 10
-37.76128539935553
 20
58.10010174665058
 42
0.0
 10
-37.76128539935553
 20
57.82796337120544
 42
0.4142135623730299
 10
-36.9612853993558
 20
57.02796337120571
 42
0.0
 10
-34.76901814481926
 20
57.02796337120571
 42
-0.4142135623730015
 10
-34.36901814481962
 20
56.62796337120608
 42
0.0
 97
        1
330
BEB
 92
        7
 72
     1
 73
     1
 93
       12
 10
-33.36098015940343
 20
55.92380871629666
 42
0.4142135623731547
 10
-32.56098015940324
 20
55.12380871629648
 42
0.0
 10
-29.58465321349877
 20
55.12380871629648
 42
0.0
 10
-29.58465321349832
 20
58.10010174665058
 42
0.4142135623731964
 10
-30.3846532134985
 20
58.90010174665076
 42
0.0
 10
-33.07296930642724
 20
58.90010174665076
 42
0.0
 10
-33.07296930642724
 20
58.50010174665067
 42
0.0
 10
-30.38468712904887
 20
58.5001017466509
 42
-0.4142135623732564
 10
-29.98468712904878
 20
58.10010174665103
 42
0.0
 10
-29.98468712904923
 20
57.42799728675596
 42
0.0
 10
-32.56098015940324
 20
57.42799728675596
 42
0.4142135623731705
 10
-33.36098015940343
 20
56.627997286756
 42
0.0
 97
        1
330
BEA
 92
       22
 72
     1
 73
     1
 93
        6
 10
-32.97692046803468
 20
56.62796337120562
 42
-0.4142135623731576
 10
-32.57692046803459
 20
57.02796337120571
 42
0.0
 10
-29.98468712904878
 20
57.02796337120571
 42
0.0
 10
-29.98468712904878
 20
55.507868407665
 42
0.0
 10
-32.57692046803459
 20
55.507868407665
 42
-0.4142135623731731
 10
-32.97692046803468
 20
55.90786840766487
 42
0.0
 97
        1
330
C11
 92
        7
 72
     1
 73
     1
 93
       10
 10
-28.57661522808212
 20
58.5001017466509
 42
0.0
 10
-25.98444972019661
 20
58.5001017466509
 42
-0.4142135623730067
 10
-25.58444972019652
 20
58.10010174665058
 42
0.0
 10
-25.58444972019606
 20
55.12380871629648
 42
0.0
 10
-25.20042394437906
 20
55.12380871629648
 42
0.0
 10
-25.2004239443786
 20
58.1001017466508
 42
0.4142135623731134
 10
-26.00042394437833
 20
58.90010174665076
 42
0.0
 10
-28.97664914363259
 20
58.90010174665076
 42
0.0
 10
-28.97664914363259
 20
55.12380871629648
 42
0.0
 10
-28.57661522808212
 20
55.12380871629648
 42
0.0
 97
        1
330
BE9
 92
        7
 72
     0
 73
     1
 93
        4
 10
-24.57637781922995
 20
55.12380871629648
 10
-24.19231812786165
 20
55.12380871629648
 10
-24.19231812786165
 20
58.90010174665076
 10
-24.57637781922995
 20
58.90010174665076
 97
        1
330
BE8
 92
        7
 72
     0
 73
     1
 93
        4
 10
-24.19231812786165
 20
59.87619128370352
 10
-24.5763778192304
 20
59.87619128370352
 10
-24.5763778192304
 20
59.28412752246913
 10
-24.1923181278612
 20
59.28412752246913
 97
        1
330
C12
 92
        7
 72
     1
 73
     1
 93
       10
 10
-23.18424622689509
 20
58.5001017466509
 42
0.0
 10
-20.59204680345965
 20
58.5001017466509
 42
-0.4142135623730898
 10
-20.19204680345956
 20
58.1001017466508
 42
0.0
 10
-20.19204680345956
 20
55.12380871629648
 42
0.0
 10
-19.79201288790909
 20
55.12380871629648
 42
0.0
 10
-19.79201288790909
 20
58.1001017466508
 42
0.4142135623731547
 10
-20.59201288790928
 20
58.90010174665076
 42
0.0
 10
-23.56830591826338
 20
58.90010174665076
 42
0.0
 10
-23.56830591826338
 20
55.12380871629648
 42
0.0
 10
-23.18424622689463
 20
55.12380871629648
 42
0.0
 97
        1
330
BE7
 92
        7
 72
     1
 73
     1
 93
        8
 10
-19.1999120763262
 20
55.92680650071542
 42
0.4153115297271299
 10
-18.39991769304061
 20
55.12380871629648
 42
0.0
 10
-15.4236900118708
 20
55.12380871629648
 42
0.0
 10
-15.4236900118708
 20
59.87619128370352
 42
0.0
 10
-15.80771578768872
 20
59.87619128370352
 42
0.0
 10
-15.80771578768872
 20
58.90010174665076
 42
0.0
 10
-18.39176256411201
 20
58.90010174665076
 42
0.4131164467977965
 10
-19.19175694739761
 20
58.1030995310698
 42
0.0
 97
        1
330
BE6
 92
       22
 72
     1
 73
     1
 93
        6
 10
-18.79994912667462
 20
58.1001017466508
 42
-0.4142135623731575
 10
-18.39994912667453
 20
58.5001017466509
 42
0.0
 10
-15.80771578768872
 20
58.50010174665067
 42
0.0
 10
-15.80771578768827
 20
55.507868407665
 42
0.0
 10
-18.39994912667453
 20
55.507868407665
 42
-0.4142135623731731
 10
-18.79994912667462
 20
55.90786840766487
 42
0.0
 97
        1
330
BE5
 92
        7
 72
     1
 73
     1
 93
       12
 10
-14.79964388672215
 20
55.92380871629621
 42
0.4142135623729885
 10
-13.99964388672242
 20
55.12380871629648
 42
0.0
 10
-11.8233508563676
 20
55.12380871629648
 42
0.4142135623731289
 10
-11.02335085636741
 20
55.92380871629666
 42
0.0
 10
-11.02335085636741
 20
58.90010174665076
 42
0.0
 10
-11.42338477191788
 20
58.90010174665076
 42
0.0
 10
-11.42338477191788
 20
55.91567577726095
 42
-0.4131711701795319
 10
-11.82196067063523
 20
55.51567831234956
 42
0.0
 10
-14.01419400962095
 20
55.50787335710947
 42
-0.4152567234626918
 10
-14.41561811090378
 20
55.90787082202087
 42
0.0
 10
-14.41561811090378
 20
58.90010174665076
 42
0.0
 10
-14.7996438867226
 20
58.90010174665076
 42
0.0
 97
        1
330
BE4
 92
        7
 72
     1
 73
     1
 93
       20
 10
-7.423079531965413
 20
57.02796337120571
 42
-0.414213562373168
 10
-7.023079531965322
 20
56.62796337120562
 42
0.0
 10
-7.023079531965322
 20
55.90786840766487
 42
-0.4142135623731575
 10
-7.423079531965413
 20
55.507868407665
 42
0.0
 10
-10.41534678650168
 20
55.507868407665
 42
0.0
 10
-10.41534678650168
 20
55.12380871629648
 42
0.0
 10
-7.445787917283723
 20
55.12380871629648
 42
0.4114777732065809
 10
-6.645822882998345
 20
55.91632914939783
 42
0.0
 10
-6.639238813324936
 20
56.62051771985716
 42
0.4169546541682913
 10
-7.439203847610315
 20
57.42799728675596
 42
0.0
 10
-9.615312870951584
 20
57.42799728675596
 42
-0.4142135623729911
 10
-10.01531287095122
 20
57.82799728675581
 42
0.0
 10
-10.01531287095122
 20
58.10010174665103
 42
-0.414213562372991
 10
-9.615312870951584
 20
58.5001017466509
 42
0.0
 10
-6.92703069357276
 20
58.50010174665067
 42
0.0
 10
-6.927030693572305
 20
58.90010174665076
 42
0.0
 10
-9.615346786501959
 20
58.90010174665076
 42
0.4142135623730467
 10
-10.41534678650168
 20
58.10010174665103
 42
0.0
 10
-10.41534678650168
 20
57.82796337120544
 42
0.4142135623730301
 10
-9.615346786501959
 20
57.02796337120571
 42
0.0
 97
        1
330
BE3
 92
        7
 72
     1
 73
     1
 93
       12
 10
-5.21497371544865
 20
57.42799728675596
 42
0.4142135623730871
 10
-6.014973715448377
 20
56.627997286756
 42
0.0
 10
-6.014973715448377
 20
55.92380871629621
 42
0.4142135623730715
 10
-5.21497371544865
 20
55.12380871629648
 42
0.0
 10
-2.23871460064447
 20
55.12380871629648
 42
0.0
 10
-2.23871460064447
 20
58.10010174665058
 42
0.414213562373155
 10
-3.038714600644652
 20
58.90010174665076
 42
0.0
 10
-5.726962862471737
 20
58.90010174665076
 42
0.0
 10
-5.726962862472191
 20
58.5001017466509
 42
0.0
 10
-3.038748516194573
 20
58.5001017466509
 42
-0.4142135623730067
 10
-2.638748516194482
 20
58.10010174665058
 42
0.0
 10
-2.638748516194482
 20
57.42799728675596
 42
0.0
 97
        1
330
BE2
 92
       22
 72
     1
 73
     1
 93
        6
 10
-2.638748516194937
 20
57.02796337120571
 42
0.0
 10
-2.638748516194482
 20
55.50786840766477
 42
0.0
 10
-5.21497371544865
 20
55.507868407665
 42
-0.4142135623731731
 10
-5.614973715448741
 20
55.90786840766509
 42
0.0
 10
-5.614973715448741
 20
56.62796337120562
 42
-0.4142135623731576
 10
-5.21497371544865
 20
57.02796337120571
 42
0.0
 97
        1
330
C0D
 75
     0
 76
     1
 47
0.0407044778999864
 98
       13
 10
-34.18710075113677
 20
56.16907953933765
 10
-33.12851374392494
 20
56.49471602641233
 10
-33.12851374392494
 20
56.49471602641233
 10
-28.77202873835904
 20
57.51232930166111
 10
-24.41554807250941
 20
57.91937341678636
 10
-24.41554807250941
 20
59.384734621186
 10
-23.31624584658039
 20
58.3264175319116
 10
-19.04119127844888
 20
57.75655517324913
 10
-19.04119127844888
 20
57.75655517324913
 10
-14.64399105416578
 20
57.43091868617466
 10
-8.048195057457178
 20
57.22739662861204
 10
-4.017427461911665
 20
57.18669281458665
 10
-4.017427461911665
 20
57.18669281458665
  0
TEXT
  5
BED
330
B9E
100
AcDbEntity
  8
leg fin
100
AcDbText
 10
3.391127401597259
 20
2.107634911895729
 30
0.0
 40
1.5
  1
Este desenho é propriedade da Sanindusa, S.A., e não pode ser copiado nem divulgado sem nossa autorização.
 50
90.0
 41
0.8
  7
SANINDUSA
100
AcDbText
  0
LINE
  5
BEE
330
B9E
100
AcDbEntity
  8
3
100
AcDbLine
 10
-90.0
 20
4.0
 30
0.0
 11
-90.0
 21
12.0
 31
0.0
  0
TEXT
  5
BEF
330
B9E
100
AcDbEntity
  8
1
100
AcDbText
 10
-39.0
 20
9.25
 30
0.0
 40
2.0
  1
Substituido por:
 41
0.8
  7
SANINDUSA
 11
-39.0
 21
10.25
 31
0.0
100
AcDbText
 73
     2
  0
POINT
  5
BF0
330
B9E
100
AcDbEntity
  8
SANINDUSA
100
AcDbPoint
 10
0.0
 20
0.0
 30
0.0
  0
TEXT
  5
BF1
330
B9E
100
AcDbEntity
  8
1
100
AcDbText
 10
-89.0
 20
16.74927010445663
 30
0.0
 40
2.0
  1
Normas:
 41
0.8
  7
SANINDUSA
 11
-89.0
 21
17.74927010445663
 31
0.0
100
AcDbText
 73
     2
  0
LINE
  5
BF2
330
B9E
100
AcDbEntity
  8
3
100
AcDbLine
 10
-90.0
 20
12.0
 30
0.0
 11
-90.0
 21
20.0
 31
0.0
  0
LINE
  5
BF3
330
B9E
100
AcDbEntity
  8
3
100
AcDbLine
 10
-110.546019464768
 20
12.0
 30
0.0
 11
-110.546019464768
 21
20.0
 31
0.0
  0
TEXT
  5
BF4
330
B9E
100
AcDbEntity
  8
1
100
AcDbText
 10
-109.6177520618648
 20
17.25
 30
0.0
 40
2.0
  1
Cor:
 41
0.8
  7
SANINDUSA
 11
-109.6177520618648
 21
18.25
 31
0.0
100
AcDbText
 73
     2
  0
LINE
  5
BF5
330
B9E
100
AcDbEntity
  8
leg fin
100
AcDbLine
 10
-91.42857142857156
 20
20.0
 30
0.0
 11
-91.42857142857156
 21
28.5
 31
0.0
  0
LINE
  5
BF6
330
B9E
100
AcDbEntity
  8
leg fin
100
AcDbLine
 10
-104.2857142857142
 20
20.0
 30
0.0
 11
-104.2857142857142
 21
28.5
 31
0.0
  0
LINE
  5
BF7
330
B9E
100
AcDbEntity
  8
leg fin
100
AcDbLine
 10
-117.1428571428573
 20
20.0
 30
0.0
 11
-117.1428571428573
 21
28.5
 31
0.0
  0
POINT
  5
BF8
330
B9E
100
AcDbEntity
  8
SANINDUSA
100
AcDbPoint
 10
-117.1428571428573
 20
28.5
 30
0.0
  0
POINT
  5
BF9
330
B9E
100
AcDbEntity
  8
SANINDUSA
100
AcDbPoint
 10
-104.2857142857142
 20
28.5
 30
0.0
  0
POINT
  5
BFA
330
B9E
100
AcDbEntity
  8
SANINDUSA
100
AcDbPoint
 10
-91.42857142857156
 20
28.5
 30
0.0
  0
TEXT
  5
BFB
330
B9E
100
AcDbEntity
  8
1
100
AcDbText
 10
-116.200160604496
 20
26.43288406845113
 30
0.0
 40
1.5
  1
Nº Seq.:
 41
0.8
  7
SANINDUSA
 11
-116.200160604496
 21
27.18288406845113
 31
0.0
100
AcDbText
 73
     2
  0
TEXT
  5
BFC
330
B9E
100
AcDbEntity
  8
1
100
AcDbText
 10
-103.2106584078738
 20
26.43288406845113
 30
0.0
 40
1.5
  1
Tipo:
 41
0.8
  7
SANINDUSA
 11
-103.2106584078738
 21
27.18288406845113
 31
0.0
100
AcDbText
 73
     2
  0
TEXT
  5
BFD
330
B9E
100
AcDbEntity
  8
1
100
AcDbText
 10
-90.22114672289353
 20
26.43288406845113
 30
0.0
 40
1.5
  1
Prod.:
 41
0.8
  7
SANINDUSA
 11
-90.22114672289353
 21
27.18288406845113
 31
0.0
100
AcDbText
 73
     2
  0
TEXT
  5
BFE
330
B9E
100
AcDbEntity
  8
1
100
AcDbText
 10
-64.77320576346574
 20
26.43288406845113
 30
0.0
 40
1.5
  1
Rev.:
 41
0.8
  7
SANINDUSA
 11
-64.77320576346574
 21
27.18288406845113
 31
0.0
100
AcDbText
 73
     2
  0
LINE
  5
BFF
330
B9E
100
AcDbEntity
  8
leg fin
100
AcDbLine
 10
-52.85714285714266
 20
20.0
 30
0.0
 11
-52.85714285714266
 21
28.5
 31
0.0
  0
LINE
  5
C00
330
B9E
100
AcDbEntity
  8
leg fin
100
AcDbLine
 10
-65.71428571428578
 20
20.0
 30
0.0
 11
-65.71428571428578
 21
28.5
 31
0.0
  0
LINE
  5
C01
330
B9E
100
AcDbEntity
  8
leg fin
100
AcDbLine
 10
-78.57142857142844
 20
20.0
 30
0.0
 11
-78.57142857142844
 21
28.5
 31
0.0
  0
POINT
  5
C02
330
B9E
100
AcDbEntity
  8
SANINDUSA
100
AcDbPoint
 10
-78.57142857142844
 20
28.5
 30
0.0
  0
POINT
  5
C03
330
B9E
100
AcDbEntity
  8
SANINDUSA
100
AcDbPoint
 10
-65.71428571428578
 20
28.5
 30
0.0
  0
POINT
  5
C04
330
B9E
100
AcDbEntity
  8
SANINDUSA
100
AcDbPoint
 10
-52.85714285714266
 20
28.5
 30
0.0
  0
TEXT
  5
C05
330
B9E
100
AcDbEntity
  8
1
100
AcDbText
 10
-77.61097961686573
 20
26.43288406845113
 30
0.0
 40
1.5
  1
Peça:
 41
0.8
  7
SANINDUSA
 11
-77.61097961686573
 21
27.18288406845113
 31
0.0
100
AcDbText
 73
     2
  0
TEXT
  5
C06
330
B9E
100
AcDbEntity
  8
1
100
AcDbText
 10
-52.06538060077036
 20
26.43288406845113
 30
0.0
 40
1.5
  1
Alt.:
 41
0.8
  7
SANINDUSA
 11
-52.06538060077036
 21
27.18288406845113
 31
0.0
100
AcDbText
 73
     2
  0
LINE
  5
C07
330
B9E
100
AcDbEntity
  8
3
100
AcDbLine
 10
0.0
 20
12.0
 30
0.0
 11
-40.0
 21
12.0
 31
0.0
  0
LINE
  5
C08
330
B9E
100
AcDbEntity
  8
3
100
AcDbLine
 10
-40.0
 20
32.5
 30
0.0
 11
0.0
 21
32.5
 31
0.0
  0
TEXT
  5
C09
330
B9E
100
AcDbEntity
  8
1
100
AcDbText
 10
-19.0
 20
29.75
 30
0.0
 40
2.0
  1
Folha:
 41
0.8
  7
SANINDUSA
 11
-19.0
 21
30.75
 31
0.0
100
AcDbText
 73
     2
  0
LINE
  5
C0A
330
B9E
100
AcDbEntity
  8
3
100
AcDbLine
 10
-20.0
 20
32.5
 30
0.0
 11
-20.0
 21
20.0
 31
0.0
  0
TEXT
  5
C0B
330
B9E
100
AcDbEntity
  8
1
100
AcDbText
 10
-39.0
 20
29.75
 30
0.0
 40
2.0
  1
Escala:
 41
0.8
  7
SANINDUSA
 11
-39.0
 21
30.75
 31
0.0
100
AcDbText
 73
     2
  0
TEXT
  5
C0C
330
B9E
100
AcDbEntity
  8
1
100
AcDbText
 10
-39.0
 20
17.25
 30
0.0
 40
2.0
  1
Substitui:
 41
0.8
  7
SANINDUSA
 11
-39.0
 21
18.25
 31
0.0
100
AcDbText
 73
     2
  0
LWPOLYLINE
  5
C0D
102
{ACAD_REACTORS
330
BEC
102
}
330
B9E
100
AcDbEntity
  8
9
100
AcDbPolyline
 90
        6
 70
     1
 43
0.0
 10
-2.638748516194482
 20
57.02796337120571
 10
-2.638748516194482
 20
55.50786840766477
 10
-5.21497371544865
 20
55.507868407665
 42
-0.4142135623730898
 10
-5.614973715448741
 20
55.90786840766487
 10
-5.614973715448741
 20
56.62796337120562
 42
-0.4142135623731576
 10
-5.21497371544865
 20
57.02796337120571
  0
LINE
  5
C0E
330
B9E
100
AcDbEntity
  8
3
100
AcDbLine
 10
-40.0
 20
50.0
 30
0.0
 11
0.0
 21
50.0
 31
0.0
  0
ATTDEF
  5
C0F
330
B9E
100
AcDbEntity
  8
1
100
AcDbText
 10
-31.30691739422431
 20
40.25
 30
0.0
 40
2.0
  1
XXXXXXXXXXXXXXX
 41
0.8
  7
SANINDUSA
 72
     4
 11
-20.0
 21
41.25
 31
0.0
100
AcDbAttributeDefinition
  3
Observações:
  2
OBS
 70
     0
  0
TEXT
  5
C10
330
B9E
100
AcDbEntity
  8
1
100
AcDbText
 10
-39.0
 20
47.25
 30
0.0
 40
2.0
  1
Observações:
 41
0.8
  7
SANINDUSA
 11
-39.0
 21
48.25
 31
0.0
100
AcDbText
 73
     2
  0
LWPOLYLINE
  5
C11
102
{ACAD_REACTORS
330
BEC
102
}
330
B9E
100
AcDbEntity
  8
9
100
AcDbPolyline
 90
        6
 70
     1
 43
0.0
 10
-29.98468712904878
 20
57.02796337120571
 10
-29.98468712904878
 20
55.507868407665
 10
-32.57692046803459
 20
55.507868407665
 42
-0.4142135623731731
 10
-32.97692046803468
 20
55.90786840766487
 10
-32.97692046803468
 20
56.62796337120562
 42
-0.4142135623731576
 10
-32.57692046803459
 20
57.02796337120571
  0
LWPOLYLINE
  5
C12
102
{ACAD_REACTORS
330
BEC
102
}
330
B9E
100
AcDbEntity
  8
9
100
AcDbPolyline
 90
        4
 70
     1
 43
0.0
 10
-24.19231812786165
 20
59.87619128370352
 10
-24.57637781922995
 20
59.87619128370352
 10
-24.57637781922995
 20
59.28412752246913
 10
-24.19231812786165
 20
59.28412752246913
  0
ENDBLK
  5
C14
330
B9E
100
AcDbEntity
  8
0
100
AcDbBlockEnd
  0
BLOCK
  5
1061
330
1060
100
AcDbEntity
  8
0
 62
     4
100
AcDbBlockBegin
  2
guarnizione
 70
     0
 10
0.0
 20
0.0
 30
0.0
  3
guarnizione
  1

  0
LINE
  5
1062
330
1060
100
AcDbEntity
  8
0
100
AcDbLine
 10
12.0
 20
3.179312414488776
 30
0.0
 11
12.0
 21
2.699999999999818
 31
0.0
  0
LINE
  5
1063
330
1060
100
AcDbEntity
  8
0
100
AcDbLine
 10
9.5
 20
3.130475008156281
 30
0.0
 11
9.440776269158959
 21
2.734883615801663
 31
0.0
  0
ARC
  5
1064
330
1060
100
AcDbEntity
  8
0
100
AcDbCircle
 10
11.19999999999891
 20
3.179312414488776
 30
0.0
 40
0.8
100
AcDbArc
 50
0.0
 51
81.48552156587461
  0
ARC
  5
1065
330
1060
100
AcDbEntity
  8
0
100
AcDbCircle
 10
8.753809903480942
 20
1.523241254200002
 30
0.0
 40
0.1999999999999504
100
AcDbArc
 50
171.485521565823
 51
351.485521565823
  0
LINE
  5
1066
330
1060
100
AcDbEntity
  8
0
100
AcDbLine
 10
11.65558220186904
 20
-2.403306455734309
 30
0.0
 11
9.440776269158959
 21
-2.734883615802573
 31
0.0
  0
ARC
  5
1067
330
1060
100
AcDbEntity
  8
0
100
AcDbCircle
 10
8.753809903480942
 20
-1.523241254200911
 30
0.0
 40
0.1999999999999504
100
AcDbArc
 50
8.514478434176927
 51
188.5144784341769
  0
LINE
  5
1068
330
1060
100
AcDbEntity
  8
0
100
AcDbLine
 10
9.5
 20
-3.130475008157191
 30
0.0
 11
9.440776269158959
 21
-2.734883615802573
 31
0.0
  0
ARC
  5
1069
330
1060
100
AcDbEntity
  8
0
100
AcDbCircle
 10
11.69999999999891
 20
-2.699999999999818
 30
0.0
 40
0.3
100
AcDbArc
 50
0.0
 51
98.51447843412536
  0
ARC
  5
106A
330
1060
100
AcDbEntity
  8
0
100
AcDbCircle
 10
11.69999999999891
 20
2.699999999999818
 30
0.0
 40
0.3
100
AcDbArc
 50
261.4855215658746
 51
0.0
  0
LINE
  5
106B
330
1060
100
AcDbEntity
  8
0
100
AcDbLine
 10
11.65558220186904
 20
2.4033064557334
 30
0.0
 11
9.440776269158959
 21
2.734883615801663
 31
0.0
  0
LINE
  5
106C
330
1060
100
AcDbEntity
  8
0
100
AcDbLine
 10
8.807715063378054
 20
3.234116537129011
 30
0.0
 11
8.556014207302723
 21
1.552853119620522
 31
0.0
  0
LINE
  5
106D
330
1060
100
AcDbEntity
  8
0
100
AcDbLine
 10
9.203306455732672
 20
3.174892806287971
 30
0.0
 11
8.951605599657341
 21
1.493629388779481
 31
0.0
  0
LINE
  5
106E
330
1060
100
AcDbEntity
  8
0
100
AcDbLine
 10
6.681411329471302
 20
3.552444090400967
 30
0.0
 11
6.622187598630262
 21
3.15685269804544
 31
0.0
  0
ARC
  5
106F
330
1060
100
AcDbEntity
  8
0
100
AcDbCircle
 10
0.2999999999992724
 20
3.800000000000181
 30
0.0
 40
0.3
100
AcDbArc
 50
81.48552156587461
 51
180.0
  0
ARC
  5
1070
330
1060
100
AcDbEntity
  8
0
100
AcDbCircle
 10
1.042400829128382
 20
4.699999999999818
 30
0.0
 40
0.8
100
AcDbArc
 50
81.48552156587461
 51
90.0
  0
LINE
  5
1071
330
1060
100
AcDbEntity
  8
0
100
AcDbLine
 10
1.5
 20
3.923692082123125
 30
0.0
 11
0.3444177981309622
 21
4.09669354426569
 31
0.0
  0
LINE
  5
1072
330
1060
100
AcDbEntity
  8
0
100
AcDbLine
 10
1.5
 20
3.923692082123125
 30
0.0
 11
1.5
 21
3.099999999999454
 31
0.0
  0
LINE
  5
1073
330
1060
100
AcDbEntity
  8
0
100
AcDbLine
 10
1.5
 20
3.099999999999454
 30
0.0
 11
2.699999999998908
 21
3.099999999999454
 31
0.0
  0
LINE
  5
1074
330
1060
100
AcDbEntity
  8
0
100
AcDbLine
 10
2.699999999998908
 20
3.744040860223321
 30
0.0
 11
2.699999999998908
 21
3.099999999999454
 31
0.0
  0
LINE
  5
1075
330
1060
100
AcDbEntity
  8
0
100
AcDbLine
 10
6.622187598630262
 20
3.15685269804544
 30
0.0
 11
2.699999999998908
 21
3.744040860223321
 31
0.0
  0
LINE
  5
1076
330
1060
100
AcDbEntity
  8
0
100
AcDbLine
 10
1.5
 20
-3.100000000000363
 30
0.0
 11
2.699999999998908
 21
-3.100000000000363
 31
0.0
  0
LINE
  5
1077
330
1060
100
AcDbEntity
  8
0
100
AcDbLine
 10
11.31844746168099
 20
3.970495199198012
 30
0.0
 11
1.160848290810463
 21
5.491182784709053
 31
0.0
  0
LINE
  5
1078
330
1060
100
AcDbEntity
  8
0
100
AcDbLine
 10
9.5
 20
3.130475008156281
 30
0.0
 11
6.681411329471302
 21
3.552444090400967
 31
0.0
  0
ARC
  5
1079
330
1060
100
AcDbEntity
  8
0
100
AcDbCircle
 10
11.19999999999891
 20
-3.179312414488776
 30
0.0
 40
0.8
100
AcDbArc
 50
278.5144784341254
 51
0.0
  0
LINE
  5
107A
330
1060
100
AcDbEntity
  8
0
100
AcDbLine
 10
6.681411329471302
 20
-3.552444090400967
 30
0.0
 11
6.622187598630262
 21
-3.15685269804635
 31
0.0
  0
ARC
  5
107B
330
1060
100
AcDbEntity
  8
0
100
AcDbCircle
 10
0.2999999999992724
 20
-3.800000000000181
 30
0.0
 40
0.3
100
AcDbArc
 50
180.0
 51
278.5144784341254
  0
ARC
  5
107C
330
1060
100
AcDbEntity
  8
0
100
AcDbCircle
 10
1.042400829128382
 20
-4.699999999999818
 30
0.0
 40
0.8
100
AcDbArc
 50
270.0
 51
278.5144784341254
  0
LINE
  5
107D
330
1060
100
AcDbEntity
  8
0
100
AcDbLine
 10
0.3444177981309622
 20
-4.096693544266599
 30
0.0
 11
1.5
 21
-3.923692082124034
 31
0.0
  0
LINE
  5
107E
330
1060
100
AcDbEntity
  8
0
100
AcDbLine
 10
6.622187598630262
 20
-3.15685269804635
 30
0.0
 11
2.699999999998908
 21
-3.744040860224231
 31
0.0
  0
LINE
  5
107F
330
1060
100
AcDbEntity
  8
0
100
AcDbLine
 10
1.160848290810463
 20
-5.491182784709963
 30
0.0
 11
11.31844746168099
 21
-3.970495199198921
 31
0.0
  0
LINE
  5
1080
330
1060
100
AcDbEntity
  8
0
100
AcDbLine
 10
0.0
 20
3.800000000000181
 30
0.0
 11
0.0
 21
-3.800000000000181
 31
0.0
  0
LINE
  5
1081
330
1060
100
AcDbEntity
  8
0
100
AcDbLine
 10
12.0
 20
-2.699999999999818
 30
0.0
 11
12.0
 21
-3.179312414488776
 31
0.0
  0
LINE
  5
1082
330
1060
100
AcDbEntity
  8
0
100
AcDbLine
 10
2.699999999998908
 20
-3.100000000000363
 30
0.0
 11
2.699999999998908
 21
-3.744040860224231
 31
0.0
  0
LINE
  5
1083
330
1060
100
AcDbEntity
  8
0
100
AcDbLine
 10
1.5
 20
-3.100000000000363
 30
0.0
 11
1.5
 21
-3.923692082124034
 31
0.0
  0
LINE
  5
1084
330
1060
100
AcDbEntity
  8
0
100
AcDbLine
 10
9.5
 20
-3.130475008157191
 30
0.0
 11
6.681411329471302
 21
-3.552444090400967
 31
0.0
  0
LINE
  5
1085
330
1060
100
AcDbEntity
  8
0
100
AcDbLine
 10
9.203306455732672
 20
-3.174892806287971
 30
0.0
 11
8.951605599657341
 21
-1.493629388780391
 31
0.0
  0
LINE
  5
1086
330
1060
100
AcDbEntity
  8
0
100
AcDbLine
 10
8.807715063378054
 20
-3.234116537129011
 30
0.0
 11
8.556014207302723
 21
-1.552853119621431
 31
0.0
  0
LINE
  5
1087
330
1060
100
AcDbEntity
  8
0
100
AcDbLine
 10
-1.5
 20
5.5
 30
0.0
 11
-3.757359312881817
 21
5.5
 31
0.0
  0
ARC
  5
1088
330
1060
100
AcDbEntity
  8
0
100
AcDbCircle
 10
-2.5
 20
3.5
 30
0.0
 40
1.0
100
AcDbArc
 50
0.0
 51
90.0
  0
ARC
  5
1089
330
1060
100
AcDbEntity
  8
0
100
AcDbCircle
 10
-3.769781102879278
 20
4.149978862833449
 30
0.0
 40
0.75
100
AcDbArc
 50
47.16775949949599
 51
90.19499109987526
  0
ARC
  5
108A
330
1060
100
AcDbEntity
  8
0
100
AcDbCircle
 10
-2.75
 20
5.25
 30
0.0
 40
0.75
100
AcDbArc
 50
227.167759499496
 51
270.0
  0
LINE
  5
108B
330
1060
100
AcDbEntity
  8
0
100
AcDbLine
 10
-2.75
 20
4.5
 30
0.0
 11
-2.5
 21
4.5
 31
0.0
  0
LINE
  5
108C
330
1060
100
AcDbEntity
  8
0
100
AcDbLine
 10
-7.415254325502246
 20
3.064644661409147
 30
0.0
 11
-6.868629150101696
 21
3.611269837220788
 31
0.0
  0
ARC
  5
108D
102
{ACAD_REACTORS
330
10A7
102
}
330
1060
100
AcDbEntity
  8
0
100
AcDbCircle
 10
-7.980939750059405
 20
2.569669913566031
 30
0.0
 40
0.2
100
AcDbArc
 50
45.0000001037625
 51
135.0000000719631
  0
ARC
  5
108E
330
1060
100
AcDbEntity
  8
0
100
AcDbCircle
 10
-3.757359312881817
 20
0.5
 30
0.0
 40
5.0
100
AcDbArc
 50
90.0
 51
135.0
  0
ARC
  5
108F
330
1060
100
AcDbEntity
  8
0
100
AcDbCircle
 10
-3.757359312881817
 20
0.5
 30
0.0
 40
4.4
100
AcDbArc
 50
90.19499109987526
 51
135.0
  0
ARC
  5
1090
330
1060
100
AcDbEntity
  8
0
100
AcDbCircle
 10
-6.814213563102384
 20
0.9786796633270569
 30
0.0
 40
0.75
100
AcDbArc
 50
314.9999999676111
 51
45.0
  0
ARC
  5
1091
102
{ACAD_REACTORS
330
10A7
102
}
330
1060
100
AcDbEntity
  8
0
100
AcDbCircle
 10
-6.814213563102384
 20
0.9786796633270569
 30
0.0
 40
0.5
100
AcDbArc
 50
314.9999999676111
 51
45.0
  0
ARC
  5
1092
330
1060
100
AcDbEntity
  8
0
100
AcDbCircle
 10
-7.203122291144609
 20
2.852512627053329
 30
0.0
 40
0.3
100
AcDbArc
 50
135.0
 51
225.0000001112794
  0
LINE
  5
1093
330
1060
100
AcDbEntity
  8
0
100
AcDbLine
 10
-8.051650430128574
 20
3.276776694619002
 30
0.0
 11
-6.283883477519339
 21
1.509009749524921
 31
0.0
  0
LINE
  5
1094
102
{ACAD_REACTORS
330
10A7
102
}
330
1060
100
AcDbEntity
  8
0
100
AcDbLine
 10
-7.839518394079277
 20
2.711091270059114
 30
0.0
 11
-6.460660172508141
 21
1.33223305392039
 31
0.0
  0
ARC
  5
1095
330
1060
100
AcDbEntity
  8
0
100
AcDbCircle
 10
-12.57713383280133
 20
-2.521498914058611
 30
0.0
 40
0.3
100
AcDbArc
 50
45.00000003552097
 51
135.0
  0
ARC
  5
1096
102
{ACAD_REACTORS
330
10A7
102
}
330
1060
100
AcDbEntity
  8
0
100
AcDbCircle
 10
-12.29429112059733
 20
-1.743681468243266
 30
0.0
 40
0.2
100
AcDbArc
 50
135.0000000660675
 51
225.0000002990173
  0
LINE
  5
1097
330
1060
100
AcDbEntity
  8
0
100
AcDbLine
 10
-12.9899494936617
 20
-2.510050506339212
 30
0.0
 11
-12.78926586715715
 21
-2.309366879702793
 31
0.0
  0
LINE
  5
1098
330
1060
100
AcDbEntity
  8
0
100
AcDbLine
 10
-13.41421356237333
 20
-2.085786437626666
 30
0.0
 11
-7.292893218815152
 21
4.035533905932425
 31
0.0
  0
LINE
  5
1099
102
{ACAD_REACTORS
330
10A7
102
}
330
1060
100
AcDbEntity
  8
0
100
AcDbLine
 10
-12.43571247699765
 20
-1.602260112168551
 30
0.0
 11
-8.122361106474272
 21
2.711091269625285
 31
0.0
  0
ARC
  5
109A
330
1060
100
AcDbEntity
  8
0
100
AcDbCircle
 10
-2.5
 20
-3.5
 30
0.0
 40
1.0
100
AcDbArc
 50
270.0
 51
0.0
  0
ARC
  5
109B
330
1060
100
AcDbEntity
  8
0
100
AcDbCircle
 10
-7.519803902720013
 20
-4.150000000000545
 30
0.0
 40
0.75
100
AcDbArc
 50
270.0
 51
312.8334280660476
  0
ARC
  5
109C
330
1060
100
AcDbEntity
  8
0
100
AcDbCircle
 10
-6.5
 20
-5.25
 30
0.0
 40
0.75
100
AcDbArc
 50
90.0
 51
132.8334280660476
  0
LINE
  5
109D
330
1060
100
AcDbEntity
  8
0
100
AcDbLine
 10
-2.5
 20
-4.5
 30
0.0
 11
-6.5
 21
-4.5
 31
0.0
  0
ARC
  5
109E
330
1060
100
AcDbEntity
  8
0
100
AcDbCircle
 10
-10.7033008647486
 20
-2.910407640086305
 30
0.0
 40
0.75
100
AcDbArc
 50
225.0
 51
315.0
  0
ARC
  5
109F
102
{ACAD_REACTORS
330
10A7
102
}
330
1060
100
AcDbEntity
  8
0
100
AcDbCircle
 10
-10.7033008647486
 20
-2.910407640086305
 30
0.0
 40
0.5
100
AcDbArc
 50
225.0
 51
315.0
  0
LINE
  5
10A0
330
1060
100
AcDbEntity
  8
0
100
AcDbLine
 10
-1.5
 20
-5.5
 30
0.0
 11
-12.0
 21
-5.5
 31
0.0
  0
LINE
  5
10A1
330
1060
100
AcDbEntity
  8
0
100
AcDbLine
 10
-7.519803902720013
 20
-4.900000000000545
 30
0.0
 11
-12.0
 21
-4.900000000000545
 31
0.0
  0
ARC
  5
10A2
330
1060
100
AcDbEntity
  8
0
100
AcDbCircle
 10
-12.0
 20
-3.5
 30
0.0
 40
2.0
100
AcDbArc
 50
135.0
 51
270.0
  0
LINE
  5
10A3
330
1060
100
AcDbEntity
  8
0
100
AcDbLine
 10
-10.17297077881812
 20
-3.440737725935832
 30
0.0
 11
-6.283883477372
 21
0.4483495772774404
 31
0.0
  0
ARC
  5
10A4
330
1060
100
AcDbEntity
  8
0
100
AcDbCircle
 10
-12.0
 20
-3.5
 30
0.0
 40
1.399999999999999
100
AcDbArc
 50
135.0
 51
270.0
  0
LINE
  5
10A5
330
1060
100
AcDbEntity
  8
0
100
AcDbLine
 10
-13.00139790187859
 20
-1.672970777132832
 30
0.0
 11
-11.23363095093009
 21
-3.440737725682993
 31
0.0
  0
LINE
  5
10A6
330
1060
100
AcDbEntity
  8
0
100
AcDbLine
 10
-1.5
 20
3.5
 30
0.0
 11
-1.5
 21
-3.5
 31
0.0
  0
HATCH
  5
10A7
330
1060
100
AcDbEntity
  8
0
100
AcDbHatch
 10
0.0
 20
0.0
 30
0.0
210
0.0
220
0.0
230
1.0
  2
ANSI31
 70
     0
 71
     1
 91
        1
 92
        7
 72
     1
 73
     1
 93
        8
 10
-6.460660173204814
 20
1.332233054616153
 42
0.0
 10
-7.839518394101105
 20
2.711091270081851
 42
0.414213562178905
 10
-8.122361106481548
 20
2.711091269618009
 42
0.0
 10
-12.43571247701766
 20
-1.602260112190379
 42
0.4142135636146872
 10
-12.43571247604996
 20
-1.885102825264766
 42
0.0
 10
-11.05685425338015
 20
-3.263961032639599
 42
0.4142135608152901
 10
-10.34974747407432
 20
-3.263961030598693
 42
0.0
 10
-6.460660172428106
 20
0.625126272813759
 42
0.4142135628833784
 97
        8
330
1094
330
108D
330
1099
330
1096
330
10A9
330
109F
330
10A8
330
1091
 75
     0
 76
     1
 52
45.0
 41
0.25
 77
     0
 78
     1
 53
90.0
 43
-276.1145346408611
 44
-395.2719013892401
 45
-0.79375
 46
0.0000000000000002
 79
     0
 47
0.0364805528584695
 98
        1
 10
-7.399477738399582
 20
0.8532363732892918
  0
LINE
  5
10A8
102
{ACAD_REACTORS
330
10A7
102
}
330
1060
100
AcDbEntity
  8
0
100
AcDbLine
 10
-10.34974747415435
 20
-3.263961030678729
 30
0.0
 11
-6.46066017270823
 21
0.6251262725336347
 31
0.0
  0
LINE
  5
10A9
102
{ACAD_REACTORS
330
10A7
102
}
330
1060
100
AcDbEntity
  8
0
100
AcDbLine
 10
-12.43571247609543
 20
-1.885102825218382
 30
0.0
 11
-11.05685425534102
 21
-3.263961030678729
 31
0.0
  0
LINE
  5
10AA
330
1060
100
AcDbEntity
  8
0
100
AcDbLine
 10
-1.5
 20
5.5
 30
0.0
 11
1.042400829128382
 21
5.5
 31
0.0
  0
LINE
  5
10AB
330
1060
100
AcDbEntity
  8
0
100
AcDbLine
 10
-1.5
 20
-5.5
 30
0.0
 11
1.042400829128382
 21
-5.5
 31
0.0
  0
ENDBLK
  5
10AC
330
1060
100
AcDbEntity
  8
0
 62
     4
100
AcDbBlockEnd
  0
BLOCK
  5
277A
330
2770
100
AcDbEntity
  8
0
100
AcDbBlockBegin
  2
*D8
 70
     1
 10
0.0
 20
0.0
 30
0.0
  3
*D8
  1

  0
LINE
  5
2835
330
2770
100
AcDbEntity
  8
7
100
AcDbLine
 10
5643.223933547939
 20
2720.801142340862
 30
0.0
 11
5643.223933547939
 21
2780.801142340865
 31
0.0
  0
LINE
  5
2836
330
2770
100
AcDbEntity
  8
7
100
AcDbLine
 10
7043.219133547937
 20
2720.801142340864
 30
0.0
 11
7043.219133547937
 21
2780.801142340865
 31
0.0
  0
LINE
  5
2837
330
2770
100
AcDbEntity
  8
7
100
AcDbLine
 10
5663.223933547939
 20
2770.801142340864
 30
0.0
 11
7023.219133547937
 21
2770.801142340864
 31
0.0
  0
SOLID
  5
2838
330
2770
100
AcDbEntity
  8
7
100
AcDbTrace
 10
5663.223933547939
 20
2774.134475674198
 30
0.0
 11
5663.223933547939
 21
2767.467809007531
 31
0.0
 12
5643.223933547939
 22
2770.801142340864
 32
0.0
 13
5643.223933547939
 23
2770.801142340864
 33
0.0
  0
SOLID
  5
2839
330
2770
100
AcDbEntity
  8
7
100
AcDbTrace
 10
7023.219133547937
 20
2774.134475674198
 30
0.0
 11
7023.219133547937
 21
2767.467809007531
 31
0.0
 12
7043.219133547937
 22
2770.801142340864
 32
0.0
 13
7043.219133547937
 23
2770.801142340864
 33
0.0
  0
MTEXT
  5
283A
330
2770
100
AcDbEntity
  8
7
100
AcDbMText
 10
6343.221533547938
 20
2791.210813260945
 30
0.0
 40
20.0
 41
0.0
 71
     5
 72
     1
  1
1400
  7
SANINDUSA
 73
     1
 44
1.0
1001
ACAD
1000
MTEXTBEGIN
1070
    73
1070
     1
1070
    44
1040
1.0
1070
    74
1070
     0
1000
MTEXTEND
  0
POINT
  5
283B
330
2770
100
AcDbEntity
  8
Defpoints
 62
     0
100
AcDbPoint
 10
5643.223933547939
 20
2710.801142340863
 30
0.0
  0
POINT
  5
283C
330
2770
100
AcDbEntity
  8
Defpoints
 62
     0
100
AcDbPoint
 10
7043.219133547937
 20
2710.801142340864
 30
0.0
  0
POINT
  5
283D
330
2770
100
AcDbEntity
  8
Defpoints
 62
     0
100
AcDbPoint
 10
7043.219133547937
 20
2770.801142340864
 30
0.0
  0
ENDBLK
  5
277B
330
2770
100
AcDbEntity
  8
0
100
AcDbBlockEnd
  0
BLOCK
  5
2786
330
277C
100
AcDbEntity
  8
0
100
AcDbBlockBegin
  2
*D9
 70
     1
 10
0.0
 20
0.0
 30
0.0
  3
*D9
  1

  0
LINE
  5
283E
330
277C
100
AcDbEntity
  8
7
100
AcDbLine
 10
6979.259978007103
 20
2029.245843153702
 30
0.0
 11
6979.259978007103
 21
1960.819242340863
 31
0.0
  0
LINE
  5
283F
330
277C
100
AcDbEntity
  8
7
100
AcDbLine
 10
6379.249178007103
 20
2029.245846963302
 30
0.0
 11
6379.249178007103
 21
1960.819242340863
 31
0.0
  0
LINE
  5
2840
330
277C
100
AcDbEntity
  8
7
100
AcDbLine
 10
6959.259978007104
 20
1970.819242340864
 30
0.0
 11
6399.249178007103
 21
1970.819242340864
 31
0.0
  0
SOLID
  5
2841
330
277C
100
AcDbEntity
  8
7
100
AcDbTrace
 10
6959.259978007104
 20
1974.152575674197
 30
0.0
 11
6959.259978007104
 21
1967.48590900753
 31
0.0
 12
6979.259978007103
 22
1970.819242340864
 32
0.0
 13
6979.259978007103
 23
1970.819242340864
 33
0.0
  0
SOLID
  5
2842
330
277C
100
AcDbEntity
  8
7
100
AcDbTrace
 10
6399.249178007103
 20
1974.152575674197
 30
0.0
 11
6399.249178007103
 21
1967.48590900753
 31
0.0
 12
6379.249178007103
 22
1970.819242340864
 32
0.0
 13
6379.249178007103
 23
1970.819242340864
 33
0.0
  0
MTEXT
  5
2843
330
277C
100
AcDbEntity
  8
7
100
AcDbMText
 10
6679.254578007103
 20
1991.228913260944
 30
0.0
 40
20.0
 41
0.0
 71
     5
 72
     1
  1
600
  7
SANINDUSA
 73
     1
 44
1.0
1001
ACAD
1000
MTEXTBEGIN
1070
    73
1070
     1
1070
    44
1040
1.0
1070
    74
1070
     0
1000
MTEXTEND
  0
POINT
  5
2844
330
277C
100
AcDbEntity
  8
Defpoints
 62
     0
100
AcDbPoint
 10
6979.259978007103
 20
2039.245843153703
 30
0.0000001553314735
  0
POINT
  5
2845
330
277C
100
AcDbEntity
  8
Defpoints
 62
     0
100
AcDbPoint
 10
6379.249178007103
 20
2039.245846963302
 30
0.0000001479284879
  0
POINT
  5
2846
330
277C
100
AcDbEntity
  8
Defpoints
 62
     0
100
AcDbPoint
 10
6379.249178007103
 20
1970.819242340864
 30
0.0
  0
ENDBLK
  5
2787
330
277C
100
AcDbEntity
  8
0
100
AcDbBlockEnd
  0
BLOCK
  5
2792
330
2788
100
AcDbEntity
  8
0
100
AcDbBlockBegin
  2
*D10
 70
     1
 10
0.0
 20
0.0
 30
0.0
  3
*D10
  1

  0
LINE
  5
2850
330
2788
100
AcDbEntity
  8
7
100
AcDbLine
 10
7043.219133547937
 20
2020.819242340864
 30
0.0
 11
7103.219133547935
 21
2020.819242340864
 31
0.0
  0
LINE
  5
2851
330
2788
100
AcDbEntity
  8
7
100
AcDbLine
 10
7043.219133547937
 20
2720.801142340864
 30
0.0
 11
7103.219133547937
 21
2720.801142340864
 31
0.0
  0
LINE
  5
2852
330
2788
100
AcDbEntity
  8
7
100
AcDbLine
 10
7093.219133547936
 20
2040.819242340864
 30
0.0
 11
7093.219133547937
 21
2700.801142340865
 31
0.0
  0
SOLID
  5
2853
330
2788
100
AcDbEntity
  8
7
100
AcDbTrace
 10
7089.885800214602
 20
2040.819242340864
 30
0.0
 11
7096.552466881269
 21
2040.819242340864
 31
0.0
 12
7093.219133547936
 22
2020.819242340864
 32
0.0
 13
7093.219133547936
 23
2020.819242340864
 33
0.0
  0
SOLID
  5
2854
330
2788
100
AcDbEntity
  8
7
100
AcDbTrace
 10
7089.885800214604
 20
2700.801142340865
 30
0.0
 11
7096.552466881269
 21
2700.801142340865
 31
0.0
 12
7093.219133547937
 22
2720.801142340864
 32
0.0
 13
7093.219133547937
 23
2720.801142340864
 33
0.0
  0
MTEXT
  5
2855
330
2788
100
AcDbEntity
  8
7
100
AcDbMText
 10
7072.809462627855
 20
2370.810192340865
 30
0.0
 40
20.0
 41
0.0
 71
     5
 72
     1
  1
700
  7
SANINDUSA
 11
0.0000000000000001
 21
1.0
 31
0.0
 73
     1
 44
1.0
1001
ACAD
1000
MTEXTBEGIN
1070
    73
1070
     1
1070
    44
1040
1.0
1070
    74
1070
     0
1000
MTEXTEND
  0
POINT
  5
2856
330
2788
100
AcDbEntity
  8
Defpoints
 62
     0
100
AcDbPoint
 10
7033.219133547937
 20
2020.819242340864
 30
0.0
  0
POINT
  5
2857
330
2788
100
AcDbEntity
  8
Defpoints
 62
     0
100
AcDbPoint
 10
7033.219133547937
 20
2720.801142340864
 30
0.0
  0
POINT
  5
2858
330
2788
100
AcDbEntity
  8
Defpoints
 62
     0
100
AcDbPoint
 10
7093.219133547937
 20
2720.801142340864
 30
0.0
  0
ENDBLK
  5
2793
330
2788
100
AcDbEntity
  8
0
100
AcDbBlockEnd
  0
BLOCK
  5
279E
330
2794
100
AcDbEntity
  8
0
100
AcDbBlockBegin
  2
*D11
 70
     1
 10
0.0
 20
0.0
 30
0.0
  3
*D11
  1

  0
LINE
  5
2806
330
2794
100
AcDbEntity
  8
7
100
AcDbLine
 10
8130.671382307708
 20
1404.87996963427
 30
0.0
 11
8243.753023136568
 21
1404.87996963427
 31
0.0
  0
LINE
  5
2807
330
2794
100
AcDbEntity
  8
7
100
AcDbLine
 10
8216.051523854877
 20
1119.87996963427
 30
0.0
 11
8243.753023136568
 21
1119.87996963427
 31
0.0
  0
LINE
  5
2808
330
2794
100
AcDbEntity
  8
7
100
AcDbLine
 10
8233.753023136568
 20
1384.87996963427
 30
0.0
 11
8233.753023136568
 21
1139.87996963427
 31
0.0
  0
SOLID
  5
2809
330
2794
100
AcDbEntity
  8
7
100
AcDbTrace
 10
8230.419689803232
 20
1384.87996963427
 30
0.0
 11
8237.0863564699
 21
1384.87996963427
 31
0.0
 12
8233.753023136568
 22
1404.87996963427
 32
0.0
 13
8233.753023136568
 23
1404.87996963427
 33
0.0
  0
SOLID
  5
280A
330
2794
100
AcDbEntity
  8
7
100
AcDbTrace
 10
8230.419689803232
 20
1139.87996963427
 30
0.0
 11
8237.0863564699
 21
1139.87996963427
 31
0.0
 12
8233.753023136568
 22
1119.87996963427
 32
0.0
 13
8233.753023136568
 23
1119.87996963427
 33
0.0
  0
MTEXT
  5
280B
330
2794
100
AcDbEntity
  8
7
100
AcDbMText
 10
8213.296340799429
 20
1262.379969634271
 30
0.0
 40
20.0
 41
0.0
 71
     5
 72
     1
  1
285
  7
SANINDUSA
 11
0.0000000000000001
 21
1.0
 31
0.0
 73
     1
 44
1.0
1001
ACAD
1000
MTEXTBEGIN
1070
    73
1070
     1
1070
    44
1040
1.0
1070
    74
1070
     0
1000
MTEXTEND
  0
POINT
  5
280C
330
2794
100
AcDbEntity
  8
Defpoints
 62
     0
100
AcDbPoint
 10
8120.671382307707
 20
1404.87996963427
 30
-0.0000017937957191
  0
POINT
  5
280D
330
2794
100
AcDbEntity
  8
Defpoints
 62
     0
100
AcDbPoint
 10
8206.051523854876
 20
1119.87996963427
 30
-0.0000017937957191
  0
POINT
  5
280E
330
2794
100
AcDbEntity
  8
Defpoints
 62
     0
100
AcDbPoint
 10
8233.753023136568
 20
1119.87996963427
 30
0.0
  0
ENDBLK
  5
279F
330
2794
100
AcDbEntity
  8
0
100
AcDbBlockEnd
  0
BLOCK
  5
27AC
330
27A0
100
AcDbEntity
  8
0
100
AcDbBlockBegin
  2
*D12
 70
     1
 10
0.0
 20
0.0
 30
0.0
  3
*D12
  1

  0
LINE
  5
280F
330
27A0
100
AcDbEntity
  8
7
100
AcDbLine
 10
8325.467491602154
 20
1119.87996963427
 30
0.0
 11
8173.753023136567
 21
1119.87996963427
 31
0.0
  0
LINE
  5
2810
330
27A0
100
AcDbEntity
  8
7
100
AcDbLine
 10
8353.255836530902
 20
1109.87996963427
 30
0.0
 11
8173.753023136567
 21
1109.87996963427
 31
0.0
  0
LINE
  5
2811
330
27A0
100
AcDbEntity
  8
7
100
AcDbLine
 10
8183.753023136565
 20
1139.87996963427
 30
0.0
 11
8183.753023136565
 21
1159.87996963427
 31
0.0
  0
LINE
  5
2812
330
27A0
100
AcDbEntity
  8
7
100
AcDbLine
 10
8183.753023136565
 20
1089.87996963427
 30
0.0
 11
8183.753023136565
 21
1020.450822555694
 31
0.0
  0
LINE
  5
2813
330
27A0
100
AcDbEntity
  8
7
100
AcDbLine
 10
8183.753023136565
 20
1119.87996963427
 30
0.0
 11
8183.753023136565
 21
1109.87996963427
 31
0.0
  0
SOLID
  5
2814
330
27A0
100
AcDbEntity
  8
7
100
AcDbTrace
 10
8180.419689803233
 20
1139.87996963427
 30
0.0
 11
8187.086356469899
 21
1139.87996963427
 31
0.0
 12
8183.753023136565
 22
1119.87996963427
 32
0.0
 13
8183.753023136565
 23
1119.87996963427
 33
0.0
  0
SOLID
  5
2815
330
27A0
100
AcDbEntity
  8
7
100
AcDbTrace
 10
8180.419689803233
 20
1089.87996963427
 30
0.0
 11
8187.086356469899
 21
1089.87996963427
 31
0.0
 12
8183.753023136565
 22
1109.87996963427
 32
0.0
 13
8183.753023136565
 23
1109.87996963427
 33
0.0
  0
MTEXT
  5
2816
330
27A0
100
AcDbEntity
  8
7
100
AcDbMText
 10
8163.343352216486
 20
1045.165396094984
 30
0.0
 40
20.0
 41
0.0
 71
     5
 72
     1
  1
10
  7
SANINDUSA
 11
0.0000000000000001
 21
1.0
 31
0.0
 73
     1
 44
1.0
1001
ACAD
1000
MTEXTBEGIN
1070
    73
1070
     1
1070
    44
1040
1.0
1070
    74
1070
     0
1000
MTEXTEND
  0
POINT
  5
2817
330
27A0
100
AcDbEntity
  8
Defpoints
 62
     0
100
AcDbPoint
 10
8335.467491602154
 20
1119.87996963427
 30
-0.0000017937957191
  0
POINT
  5
2818
330
27A0
100
AcDbEntity
  8
Defpoints
 62
     0
100
AcDbPoint
 10
8363.255836530901
 20
1109.87996963427
 30
0.0
  0
POINT
  5
2819
330
27A0
100
AcDbEntity
  8
Defpoints
 62
     0
100
AcDbPoint
 10
8183.753023136565
 20
1109.87996963427
 30
0.0
  0
ENDBLK
  5
27AD
330
27A0
100
AcDbEntity
  8
0
100
AcDbBlockEnd
  0
BLOCK
  5
27B8
330
27AE
100
AcDbEntity
  8
0
100
AcDbBlockBegin
  2
*D13
 70
     1
 10
0.0
 20
0.0
 30
0.0
  3
*D13
  1

  0
LINE
  5
281A
330
27AE
100
AcDbEntity
  8
7
100
AcDbLine
 10
7875.920443480179
 20
1404.879969634263
 30
0.0
 11
7218.351568065262
 21
1404.879969634263
 31
0.0
  0
LINE
  5
281B
330
27AE
100
AcDbEntity
  8
7
100
AcDbLine
 10
7268.351568065262
 20
1109.87996963427
 30
0.0
 11
7218.351568065262
 21
1109.87996963427
 31
0.0
  0
LINE
  5
281C
330
27AE
100
AcDbEntity
  8
7
100
AcDbLine
 10
7228.351568065261
 20
1384.879969634263
 30
0.0
 11
7228.351568065261
 21
1129.87996963427
 31
0.0
  0
SOLID
  5
281D
330
27AE
100
AcDbEntity
  8
7
100
AcDbTrace
 10
7225.01823473193
 20
1384.879969634263
 30
0.0
 11
7231.684901398594
 21
1384.879969634263
 31
0.0
 12
7228.351568065261
 22
1404.879969634263
 32
0.0
 13
7228.351568065261
 23
1404.879969634263
 33
0.0
  0
SOLID
  5
281E
330
27AE
100
AcDbEntity
  8
7
100
AcDbTrace
 10
7225.01823473193
 20
1129.87996963427
 30
0.0
 11
7231.684901398594
 21
1129.87996963427
 31
0.0
 12
7228.351568065261
 22
1109.87996963427
 32
0.0
 13
7228.351568065261
 23
1109.87996963427
 33
0.0
  0
MTEXT
  5
281F
330
27AE
100
AcDbEntity
  8
7
100
AcDbMText
 10
7207.935181228458
 20
1257.379969634268
 30
0.0
 40
20.0
 41
0.0
 71
     5
 72
     1
  1
295
  7
SANINDUSA
 11
0.0000000000000001
 21
1.0
 31
0.0
 73
     1
 44
1.0
1001
ACAD
1000
MTEXTBEGIN
1070
    73
1070
     1
1070
    44
1040
1.0
1070
    74
1070
     0
1000
MTEXTEND
  0
POINT
  5
2820
330
27AE
100
AcDbEntity
  8
Defpoints
 62
     0
100
AcDbPoint
 10
7885.920443480178
 20
1404.879969634263
 30
-0.0000017937957191
  0
POINT
  5
2821
330
27AE
100
AcDbEntity
  8
Defpoints
 62
     0
100
AcDbPoint
 10
7278.351568065261
 20
1109.87996963427
 30
0.0
  0
POINT
  5
2822
330
27AE
100
AcDbEntity
  8
Defpoints
 62
     0
100
AcDbPoint
 10
7228.351568065261
 20
1109.87996963427
 30
0.0
  0
ENDBLK
  5
27B9
330
27AE
100
AcDbEntity
  8
0
100
AcDbBlockEnd
  0
BLOCK
  5
27C4
330
27BA
100
AcDbEntity
  8
0
100
AcDbBlockBegin
  2
*D14
 70
     1
 10
0.0
 20
0.0
 30
0.0
  3
*D14
  1

  0
LINE
  5
2823
330
27BA
100
AcDbEntity
  8
7
100
AcDbLine
 10
7268.351568065262
 20
2959.87996963427
 30
0.0
 11
7218.351568065262
 21
2959.87996963427
 31
0.0
  0
LINE
  5
2824
330
27BA
100
AcDbEntity
  8
7
100
AcDbLine
 10
7846.746881000377
 20
2664.879969624601
 30
0.0
 11
7218.351568065262
 21
2664.879969624601
 31
0.0
  0
LINE
  5
2825
330
27BA
100
AcDbEntity
  8
7
100
AcDbLine
 10
7228.351568065261
 20
2939.879969634271
 30
0.0
 11
7228.351568065261
 21
2684.879969624601
 31
0.0
  0
SOLID
  5
2826
330
27BA
100
AcDbEntity
  8
7
100
AcDbTrace
 10
7225.01823473193
 20
2939.879969634271
 30
0.0
 11
7231.684901398594
 21
2939.879969634271
 31
0.0
 12
7228.351568065261
 22
2959.87996963427
 32
0.0
 13
7228.351568065261
 23
2959.87996963427
 33
0.0
  0
SOLID
  5
2827
330
27BA
100
AcDbEntity
  8
7
100
AcDbTrace
 10
7225.01823473193
 20
2684.879969624601
 30
0.0
 11
7231.684901398594
 21
2684.879969624601
 31
0.0
 12
7228.351568065261
 22
2664.879969624601
 32
0.0
 13
7228.351568065261
 23
2664.879969624601
 33
0.0
  0
MTEXT
  5
2828
330
27BA
100
AcDbEntity
  8
7
100
AcDbMText
 10
7207.935181228457
 20
2812.379969629437
 30
0.0
 40
20.0
 41
0.0
 71
     5
 72
     1
  1
295
  7
SANINDUSA
 11
0.0000000000000001
 21
1.0
 31
0.0
 73
     1
 44
1.0
1001
ACAD
1000
MTEXTBEGIN
1070
    73
1070
     1
1070
    44
1040
1.0
1070
    74
1070
     0
1000
MTEXTEND
  0
POINT
  5
2829
330
27BA
100
AcDbEntity
  8
Defpoints
 62
     0
100
AcDbPoint
 10
7278.351568065261
 20
2959.87996963427
 30
0.0000017938277934
  0
POINT
  5
282A
330
27BA
100
AcDbEntity
  8
Defpoints
 62
     0
100
AcDbPoint
 10
7856.746881000377
 20
2664.879969624601
 30
0.0000000000320743
  0
POINT
  5
282B
330
27BA
100
AcDbEntity
  8
Defpoints
 62
     0
100
AcDbPoint
 10
7228.351568065261
 20
2664.879969624601
 30
0.0
  0
ENDBLK
  5
27C5
330
27BA
100
AcDbEntity
  8
0
100
AcDbBlockEnd
  0
BLOCK
  5
27D0
330
27C6
100
AcDbEntity
  8
0
100
AcDbBlockBegin
  2
*D15
 70
     1
 10
0.0
 20
0.0
 30
0.0
  3
*D15
  1

  0
LINE
  5
282C
330
27C6
100
AcDbEntity
  8
7
100
AcDbLine
 10
8678.34676806526
 20
2959.879969634223
 30
0.0
 11
8738.675220805061
 21
2959.879969634223
 31
0.0
  0
LINE
  5
282D
330
27C6
100
AcDbEntity
  8
7
100
AcDbLine
 10
8684.816624331666
 20
1109.87996963427
 30
0.0
 11
8738.675220805061
 21
1109.87996963427
 31
0.0
  0
LINE
  5
282E
330
27C6
100
AcDbEntity
  8
7
100
AcDbLine
 10
8728.67522080506
 20
2939.879969634223
 30
0.0
 11
8728.67522080506
 21
1129.87996963427
 31
0.0
  0
SOLID
  5
282F
330
27C6
100
AcDbEntity
  8
7
100
AcDbTrace
 10
8725.341887471726
 20
2939.879969634223
 30
0.0
 11
8732.008554138394
 21
2939.879969634223
 31
0.0
 12
8728.67522080506
 22
2959.879969634223
 32
0.0
 13
8728.67522080506
 23
2959.879969634223
 33
0.0
  0
SOLID
  5
2830
330
27C6
100
AcDbEntity
  8
7
100
AcDbTrace
 10
8725.341887471726
 20
1129.87996963427
 30
0.0
 11
8732.008554138394
 21
1129.87996963427
 31
0.0
 12
8728.67522080506
 22
1109.87996963427
 32
0.0
 13
8728.67522080506
 23
1109.87996963427
 33
0.0
  0
MTEXT
  5
2831
330
27C6
100
AcDbEntity
  8
7
100
AcDbMText
 10
8708.218538467923
 20
2034.879969634248
 30
0.0
 40
20.0
 41
0.0
 71
     5
 72
     1
  1
1850
  7
SANINDUSA
 11
0.0000000000000001
 21
1.0
 31
0.0
 73
     1
 44
1.0
1001
ACAD
1000
MTEXTBEGIN
1070
    73
1070
     1
1070
    44
1040
1.0
1070
    74
1070
     0
1000
MTEXTEND
  0
POINT
  5
2832
330
27C6
100
AcDbEntity
  8
Defpoints
 62
     0
100
AcDbPoint
 10
8668.34676806526
 20
2959.879969634223
 30
0.0
  0
POINT
  5
2833
330
27C6
100
AcDbEntity
  8
Defpoints
 62
     0
100
AcDbPoint
 10
8674.816624331667
 20
1109.87996963427
 30
0.0
  0
POINT
  5
2834
330
27C6
100
AcDbEntity
  8
Defpoints
 62
     0
100
AcDbPoint
 10
8728.67522080506
 20
1109.87996963427
 30
0.0
  0
ENDBLK
  5
27D1
330
27C6
100
AcDbEntity
  8
0
100
AcDbBlockEnd
  0
BLOCK
  5
27DD
330
27D2
100
AcDbEntity
  8
0
100
AcDbBlockBegin
  2
*D16
 70
     1
 10
0.0
 20
0.0
 30
0.0
  3
*D16
  1

  0
LINE
  5
2859
330
27D2
100
AcDbEntity
  8
7
100
AcDbLine
 10
6989.259978007104
 20
2039.245843153702
 30
0.0
 11
6996.52482072723
 21
2039.245843153703
 31
0.0
  0
ARC
  5
285A
330
27D2
100
AcDbEntity
  8
7
100
AcDbCircle
 10
6395.149234110275
 20
2039.245843153703
 30
0.0
 40
591.3755866169541
100
AcDbArc
 50
271.937804389507
 51
358.0621956104929
  0
SOLID
  5
285B
330
27D2
100
AcDbEntity
  8
7
100
AcDbTrace
 10
6415.202740275235
 20
1444.875594351621
 30
0.0
 11
6415.090008758792
 21
1451.541307820533
 31
0.0
 12
6395.149234110275
 22
1447.870256536748
 32
0.0
 13
6395.149234110275
 23
1447.870256536748
 33
0.0
  0
SOLID
  5
285C
330
27D2
100
AcDbEntity
  8
7
100
AcDbTrace
 10
6982.853769443443
 20
2019.305068505185
 30
0.0
 11
6989.519482912358
 21
2019.192336988743
 31
0.0
 12
6986.524820727229
 22
2039.245843153703
 32
0.0
 13
6986.524820727229
 23
2039.245843153703
 33
0.0
  0
MTEXT
  5
285D
102
{ACAD_XDICTIONARY
360
2ABC
102
}
330
27D2
100
AcDbEntity
  8
7
100
AcDbMText
 10
6797.273237908983
 20
1637.121839354995
 30
0.0
 40
20.0
 41
0.0
 71
     5
 72
     1
  1
90,0\U+00B0
  7
SANINDUSA
 11
0.7071067811865476
 21
0.7071067811865475
 31
0.0
 73
     1
 44
1.0
1001
ACAD
1000
MTEXTBEGIN
1070
    73
1070
     1
1070
    44
1040
1.0
1070
    74
1070
     0
1000
MTEXTEND
  0
POINT
  5
285E
330
27D2
100
AcDbEntity
  8
Defpoints
 62
     0
100
AcDbPoint
 10
6690.837027418751
 20
1527.099561965495
 30
0.0
  0
POINT
  5
285F
330
27D2
100
AcDbEntity
  8
Defpoints
 62
     0
100
AcDbPoint
 10
6979.259978007103
 20
2039.245843153702
 30
0.0000001553314735
  0
POINT
  5
2860
330
27D2
100
AcDbEntity
  8
Defpoints
 62
     0
100
AcDbPoint
 10
6395.149234110275
 20
2026.345790860128
 30
0.0000001479284879
  0
POINT
  5
2861
330
27D2
100
AcDbEntity
  8
Defpoints
 62
     0
100
AcDbPoint
 10
6395.149234110275
 20
1426.345790860126
 30
0.0000001479284879
  0
POINT
  5
2862
330
27D2
100
AcDbEntity
  8
Defpoints
 62
     0
100
AcDbPoint
 10
6379.249178007103
 20
2039.245843153702
 30
0.0000001553314735
  0
ENDBLK
  5
27DE
330
27D2
100
AcDbEntity
  8
0
100
AcDbBlockEnd
  0
BLOCK
  5
27FB
330
27F1
100
AcDbEntity
  8
0
100
AcDbBlockBegin
  2
*D17
 70
     1
 10
0.0
 20
0.0
 30
0.0
  3
*D17
  1

  0
LINE
  5
2847
330
27F1
100
AcDbEntity
  8
7
100
AcDbLine
 10
6376.585157307847
 20
2029.245846963302
 30
0.0
 11
6376.585157307847
 21
1960.819242340862
 31
0.0
  0
LINE
  5
2848
330
27F1
100
AcDbEntity
  8
7
100
AcDbLine
 10
5687.595957307848
 20
2029.245846963302
 30
0.0
 11
5687.595957307848
 21
1960.819242340862
 31
0.0
  0
LINE
  5
2849
330
27F1
100
AcDbEntity
  8
7
100
AcDbLine
 10
6356.585157307847
 20
1970.819242340863
 30
0.0
 11
5707.595957307847
 21
1970.819242340863
 31
0.0
  0
SOLID
  5
284A
330
27F1
100
AcDbEntity
  8
7
100
AcDbTrace
 10
6356.585157307847
 20
1974.152575674196
 30
0.0
 11
6356.585157307847
 21
1967.485909007529
 31
0.0
 12
6376.585157307847
 22
1970.819242340863
 32
0.0
 13
6376.585157307847
 23
1970.819242340863
 33
0.0
  0
SOLID
  5
284B
330
27F1
100
AcDbEntity
  8
7
100
AcDbTrace
 10
5707.595957307847
 20
1974.152575674196
 30
0.0
 11
5707.595957307847
 21
1967.485909007529
 31
0.0
 12
5687.595957307848
 22
1970.819242340863
 32
0.0
 13
5687.595957307848
 23
1970.819242340863
 33
0.0
  0
MTEXT
  5
284C
330
27F1
100
AcDbEntity
  8
7
100
AcDbMText
 10
6032.090557307847
 20
1991.275924678001
 30
0.0
 40
20.0
 41
0.0
 71
     5
 72
     1
  1
689
  7
SANINDUSA
 73
     1
 44
1.0
1001
ACAD
1000
MTEXTBEGIN
1070
    73
1070
     1
1070
    44
1040
1.0
1070
    74
1070
     0
1000
MTEXTEND
  0
POINT
  5
284D
330
27F1
100
AcDbEntity
  8
Defpoints
 62
     0
100
AcDbPoint
 10
6376.585157307847
 20
2039.245846963302
 30
0.0000001479284879
  0
POINT
  5
284E
330
27F1
100
AcDbEntity
  8
Defpoints
 62
     0
100
AcDbPoint
 10
5687.595957307848
 20
2039.245846963302
 30
0.0000001479284879
  0
POINT
  5
284F
330
27F1
100
AcDbEntity
  8
Defpoints
 62
     0
100
AcDbPoint
 10
5687.595957307848
 20
1970.819242340863
 30
0.0
  0
ENDBLK
  5
27FC
330
27F1
100
AcDbEntity
  8
0
100
AcDbBlockEnd
  0
BLOCK
  5
2937
330
292D
100
AcDbEntity
  8
0
100
AcDbBlockBegin
  2
*D18
 70
     1
 10
0.0
 20
0.0
 30
0.0
  3
*D18
  1

  0
LINE
  5
296A
330
292D
100
AcDbEntity
  8
0
100
AcDbLine
 10
5643.223933547937
 20
2017.019351728342
 30
0.0
 11
5643.223933547937
 21
1910.819242340863
 31
0.0
  0
LINE
  5
296B
330
292D
100
AcDbEntity
  8
0
100
AcDbLine
 10
7043.219133547937
 20
2017.019344109153
 30
0.0
 11
7043.219133547937
 21
1910.819242340863
 31
0.0
  0
LINE
  5
296C
330
292D
100
AcDbEntity
  8
0
100
AcDbLine
 10
5663.223933547937
 20
1920.819242340863
 30
0.0
 11
7023.219133547937
 21
1920.819242340863
 31
0.0
  0
SOLID
  5
296D
330
292D
100
AcDbEntity
  8
0
100
AcDbTrace
 10
5663.223933547937
 20
1924.152575674196
 30
0.0
 11
5663.223933547937
 21
1917.485909007529
 31
0.0
 12
5643.223933547937
 22
1920.819242340863
 32
0.0
 13
5643.223933547937
 23
1920.819242340863
 33
0.0
  0
SOLID
  5
296E
330
292D
100
AcDbEntity
  8
0
100
AcDbTrace
 10
7023.219133547937
 20
1924.152575674196
 30
0.0
 11
7023.219133547937
 21
1917.485909007529
 31
0.0
 12
7043.219133547937
 22
1920.819242340863
 32
0.0
 13
7043.219133547937
 23
1920.819242340863
 33
0.0
  0
MTEXT
  5
296F
330
292D
100
AcDbEntity
  8
0
100
AcDbMText
 10
6272.114428694522
 20
1941.275924678001
 30
0.0
 40
20.0
 41
0.0
 71
     5
 72
     1
  1
1380 - 1410
  7
SANINDUSA
 73
     1
 44
1.0
1001
ACAD
1000
MTEXTBEGIN
1070
    73
1070
     1
1070
    44
1040
1.0
1070
    74
1070
     0
1000
MTEXTEND
  0
POINT
  5
2970
330
292D
100
AcDbEntity
  8
Defpoints
 62
     0
100
AcDbPoint
 10
5643.223933547937
 20
2027.019351728343
 30
0.0
  0
POINT
  5
2971
330
292D
100
AcDbEntity
  8
Defpoints
 62
     0
100
AcDbPoint
 10
7043.219133547937
 20
2027.019344109153
 30
0.0
  0
POINT
  5
2972
330
292D
100
AcDbEntity
  8
Defpoints
 62
     0
100
AcDbPoint
 10
7043.219133547937
 20
1920.819242340863
 30
0.0
  0
ENDBLK
  5
2938
330
292D
100
AcDbEntity
  8
0
100
AcDbBlockEnd
  0
BLOCK
  5
297E
330
2974
100
AcDbEntity
  8
0
100
AcDbBlockBegin
  2
*D19
 70
     1
 10
0.0
 20
0.0
 30
0.0
  3
*D19
  1

  0
LINE
  5
2995
330
2974
100
AcDbEntity
  8
0
100
AcDbLine
 10
7278.351568065261
 20
2969.879969634275
 30
0.0
 11
7278.351568065261
 21
3019.879969634263
 31
0.0
  0
LINE
  5
2996
330
2974
100
AcDbEntity
  8
0
100
AcDbLine
 10
8678.675220805059
 20
2969.879969634223
 30
0.0
 11
8678.675220805059
 21
3019.879969634263
 31
0.0
  0
LINE
  5
2997
330
2974
100
AcDbEntity
  8
0
100
AcDbLine
 10
7298.351568065261
 20
3009.879969634263
 30
0.0
 11
8658.67522080506
 21
3009.879969634263
 31
0.0
  0
SOLID
  5
2998
330
2974
100
AcDbEntity
  8
0
100
AcDbTrace
 10
7298.351568065261
 20
3013.213302967597
 30
0.0
 11
7298.351568065261
 21
3006.54663630093
 31
0.0
 12
7278.351568065261
 22
3009.879969634263
 32
0.0
 13
7278.351568065261
 23
3009.879969634263
 33
0.0
  0
SOLID
  5
2999
330
2974
100
AcDbEntity
  8
0
100
AcDbTrace
 10
8658.67522080506
 20
3013.213302967597
 30
0.0
 11
8658.67522080506
 21
3006.54663630093
 31
0.0
 12
8678.675220805059
 22
3009.879969634263
 32
0.0
 13
8678.675220805059
 23
3009.879969634263
 33
0.0
  0
MTEXT
  5
299A
330
2974
100
AcDbEntity
  8
0
100
AcDbMText
 10
7978.513394435161
 20
3030.336651971402
 30
0.0
 40
20.0
 41
0.0
 71
     5
 72
     1
  1
1380 - 1410
  7
SANINDUSA
 73
     1
 44
1.0
1001
ACAD
1000
MTEXTBEGIN
1070
    73
1070
     1
1070
    44
1040
1.0
1070
    74
1070
     0
1000
MTEXTEND
  0
POINT
  5
299B
330
2974
100
AcDbEntity
  8
Defpoints
 62
     0
100
AcDbPoint
 10
7278.351568065261
 20
2959.879969634275
 30
0.0
  0
POINT
  5
299C
330
2974
100
AcDbEntity
  8
Defpoints
 62
     0
100
AcDbPoint
 10
8678.675220805059
 20
2959.879969634223
 30
0.0
  0
POINT
  5
299D
330
2974
100
AcDbEntity
  8
Defpoints
 62
     0
100
AcDbPoint
 10
8678.675220805059
 20
3009.879969634263
 30
0.0
  0
ENDBLK
  5
297F
330
2974
100
AcDbEntity
  8
0
100
AcDbBlockEnd
  0
BLOCK
  5
29B7
330
29AD
100
AcDbEntity
  8
0
100
AcDbBlockBegin
  2
*D20
 70
     1
 10
0.0
 20
0.0
 30
0.0
  3
*D20
  1

  0
LINE
  5
29C4
330
29AD
100
AcDbEntity
  8
0
100
AcDbLine
 10
6167.236309788037
 20
2029.145843153707
 30
0.0
 11
6143.855566871485
 21
2029.145843153707
 31
0.0
  0
LINE
  5
29C5
330
29AD
100
AcDbEntity
  8
0
100
AcDbLine
 10
6174.736309788034
 20
2720.801142340863
 30
0.0
 11
6143.855566871486
 21
2720.801142340863
 31
0.0
  0
LINE
  5
29C6
330
29AD
100
AcDbEntity
  8
0
100
AcDbLine
 10
6153.855566871485
 20
2049.145843153707
 30
0.0
 11
6153.855566871485
 21
2700.801142340863
 31
0.0
  0
SOLID
  5
29C7
330
29AD
100
AcDbEntity
  8
0
100
AcDbTrace
 10
6150.522233538152
 20
2049.145843153707
 30
0.0
 11
6157.188900204818
 21
2049.145843153707
 31
0.0
 12
6153.855566871484
 22
2029.145843153707
 32
0.0
 13
6153.855566871484
 23
2029.145843153707
 33
0.0
  0
SOLID
  5
29C8
330
29AD
100
AcDbEntity
  8
0
100
AcDbTrace
 10
6150.522233538152
 20
2700.801142340863
 30
0.0
 11
6157.188900204818
 21
2700.801142340863
 31
0.0
 12
6153.855566871485
 22
2720.801142340863
 32
0.0
 13
6153.855566871485
 23
2720.801142340863
 33
0.0
  0
MTEXT
  5
29C9
330
29AD
100
AcDbEntity
  8
0
100
AcDbMText
 10
6133.439180034681
 20
2374.973492747286
 30
0.0
 40
20.0
 41
0.0
 71
     5
 72
     1
  1
420 - 720
  7
SANINDUSA
 11
0.0000000000000001
 21
1.0
 31
0.0
 73
     1
 44
1.0
1001
ACAD
1000
MTEXTBEGIN
1070
    73
1070
     1
1070
    44
1040
1.0
1070
    74
1070
     0
1000
MTEXTEND
  0
POINT
  5
29CA
330
29AD
100
AcDbEntity
  8
Defpoints
 62
     0
100
AcDbPoint
 10
6177.236309788037
 20
2029.145843153707
 30
0.0000001479286265
  0
POINT
  5
29CB
330
29AD
100
AcDbEntity
  8
Defpoints
 62
     0
100
AcDbPoint
 10
6184.736309788033
 20
2720.801142340863
 30
0.0
  0
POINT
  5
29CC
330
29AD
100
AcDbEntity
  8
Defpoints
 62
     0
100
AcDbPoint
 10
6153.855566871485
 20
2720.801142340863
 30
0.0
  0
ENDBLK
  5
29B8
330
29AD
100
AcDbEntity
  8
0
100
AcDbBlockEnd
  0
BLOCK
  5
2A2E
330
2A2D
100
AcDbEntity
  8
0
100
AcDbBlockBegin
  2
*D22
 70
     1
 10
0.0
 20
0.0
 30
0.0
  3
*D22
  1

  0
LINE
  5
2A3A
330
2A2D
100
AcDbEntity
  8
0
100
AcDbLine
 10
7268.351568065262
 20
2959.879969634275
 30
0.0
 11
7037.966040877212
 21
2959.879969634275
 31
0.0
  0
LINE
  5
2A3B
330
2A2D
100
AcDbEntity
  8
0
100
AcDbLine
 10
7268.351568065262
 20
1109.879969634263
 30
0.0
 11
7037.966040877211
 21
1109.879969634263
 31
0.0
  0
LINE
  5
2A3C
330
2A2D
100
AcDbEntity
  8
0
100
AcDbLine
 10
7047.966040877212
 20
2939.879969634275
 30
0.0
 11
7047.966040877212
 21
1129.879969634263
 31
0.0
  0
SOLID
  5
2A3D
330
2A2D
100
AcDbEntity
  8
0
100
AcDbTrace
 10
7044.63270754388
 20
2939.879969634275
 30
0.0
 11
7051.299374210545
 21
2939.879969634275
 31
0.0
 12
7047.966040877212
 22
2959.879969634275
 32
0.0
 13
7047.966040877212
 23
2959.879969634275
 33
0.0
  0
SOLID
  5
2A3E
330
2A2D
100
AcDbEntity
  8
0
100
AcDbTrace
 10
7044.632707543879
 20
1129.879969634263
 30
0.0
 11
7051.299374210545
 21
1129.879969634263
 31
0.0
 12
7047.966040877212
 22
1109.879969634263
 32
0.0
 13
7047.966040877212
 23
1109.879969634263
 33
0.0
  0
MTEXT
  5
2A3F
330
2A2D
100
AcDbEntity
  8
0
100
AcDbMText
 10
7027.509358540072
 20
2034.87996963427
 30
0.0
 40
20.0
 41
0.0
 71
     5
 72
     1
  1
1850
  7
SANINDUSA
 11
0.0000000000000001
 21
1.0
 31
0.0
 73
     1
 44
1.0
1001
ACAD
1000
MTEXTBEGIN
1070
    73
1070
     1
1070
    44
1040
1.0
1070
    74
1070
     0
1000
MTEXTEND
  0
POINT
  5
2A40
330
2A2D
100
AcDbEntity
  8
Defpoints
 62
     0
100
AcDbPoint
 10
7278.351568065261
 20
2959.879969634275
 30
0.0
  0
POINT
  5
2A41
330
2A2D
100
AcDbEntity
  8
Defpoints
 62
     0
100
AcDbPoint
 10
7278.351568065261
 20
1109.879969634263
 30
0.0
  0
POINT
  5
2A42
330
2A2D
100
AcDbEntity
  8
Defpoints
 62
     0
100
AcDbPoint
 10
7047.966040877212
 20
1109.879969634263
 30
0.0
  0
ENDBLK
  5
2A2F
330
2A2D
100
AcDbEntity
  8
0
100
AcDbBlockEnd
  0
ENDSEC
  0
SECTION
  2
ENTITIES
  0
LINE
  5
21BE
330
1F
100
AcDbEntity
  8
SANINDUSA
100
AcDbLine
 10
8791.086314658491
 20
2024.744239114524
 30
0.0000000001479286
 11
8791.101314704089
 21
2024.744239114524
 31
0.0000000001479286
  0
LINE
  5
21BF
330
1F
100
AcDbEntity
  8
SANINDUSA
100
AcDbLine
 10
8791.034314658491
 20
2024.736239114524
 30
0.0000000001479286
 11
8791.093314658493
 21
2024.736239114524
 31
0.0000000001479286
  0
LINE
  5
21C0
330
1F
100
AcDbEntity
  8
SANINDUSA
100
AcDbLine
 10
8791.110203547381
 20
2024.736239114524
 30
0.0000000001479286
 11
8791.110203547381
 21
2024.744239166818
 31
0.0000000001479286
  0
CIRCLE
  5
21C1
330
1F
100
AcDbEntity
  8
SANINDUSA
100
AcDbCircle
 10
8791.101314658492
 20
2024.736239114524
 30
0.0000000001479286
 40
0.008
  0
LINE
  5
21C2
330
1F
100
AcDbEntity
  8
SANINDUSA
100
AcDbLine
 10
8791.092425769603
 20
2024.736239114524
 30
0.0000000001479286
 11
8791.092425769603
 21
2024.744239114524
 31
0.0000000001479286
  0
LINE
  5
21C3
330
1F
100
AcDbEntity
  8
SANINDUSA
100
AcDbLine
 10
8791.169314658491
 20
2024.746239166818
 30
0.0000000001479286
 11
8791.169314658491
 21
2024.737239114524
 31
0.0000000001479286
  0
LINE
  5
21C4
330
1F
100
AcDbEntity
  8
SANINDUSA
100
AcDbLine
 10
8791.110203547381
 20
2024.736239114524
 30
0.0000000001479286
 11
8791.16831465849
 21
2024.736239114524
 31
0.0000000001479286
  0
ARC
  5
21C5
330
1F
100
AcDbEntity
  8
SANINDUSA
100
AcDbCircle
 10
8791.16831465849
 20
2024.737239114524
 30
0.0000000001479286
 40
0.001
100
AcDbArc
 50
270.0
 51
0.0
  0
LINE
  5
21C6
330
1F
100
AcDbEntity
  8
SANINDUSA
100
AcDbLine
 10
8791.169314658491
 20
2024.746239166818
 30
0.0000000001479286
 11
8791.116314658491
 21
2024.746239166818
 31
0.0000000001479286
  0
LWPOLYLINE
  5
21C7
330
1F
100
AcDbEntity
  8
SANINDUSA
100
AcDbPolyline
 90
        2
 70
     0
 43
0.0
 38
0.0000000001479285
 10
8791.116314658491
 20
2024.747439166818
 10
8791.169314658491
 20
2024.747439166818
1001
GENIUS_GENREC_14
1002
{
1000
PYDIR
1011
8790.870032401413
1021
2023.713209310805
1031
0.0000000001479286
1002
}
1002
{
1000
PXDIR
1011
8790.817032401411
1021
2023.714209310805
1031
0.0000000001479286
1002
}
1002
{
1000
PORI
1011
8790.870032401413
1021
2023.714209310805
1031
0.0000000001479286
1002
}
1002
{
1000
PINS
1011
8790.870032401413
1021
2023.714209310805
1031
0.0000000001479286
1002
}
1002
{
1000
PINS2
1011
8790.817032401411
1021
2023.713209310805
1031
0.0000000001479286
1002
}
1002
{
1000
C
1070
     1
1002
}
1001
GENIUS_GENODEF_13
1002
{
1000
HIER
1070
     0
1002
}
1002
{
1000
MANEDIT
1070
     0
1002
}
1002
{
1000
NOSEL
1070
     0
1002
}
1002
{
1000
BEHIND
1070
     0
1002
}
1002
{
1000
REACTOR
1002
}
1001
GENIUS_GENOBJ-N-REC_13
1002
{
1000
OWNER
1000
GEN
1002
}
  0
LWPOLYLINE
  5
21C8
330
1F
100
AcDbEntity
  8
SANINDUSA
100
AcDbPolyline
 90
        2
 70
     0
 43
0.0
 38
0.0000000001479285
 10
8791.169314658491
 20
2024.746439166817
 10
8791.116314658491
 20
2024.746439166817
1001
GENIUS_GENREC_14
1002
{
1000
PYDIR
1011
8790.870032401413
1021
2023.713209310805
1031
0.0000000001479286
1002
}
1002
{
1000
PXDIR
1011
8790.817032401411
1021
2023.714209310805
1031
0.0000000001479286
1002
}
1002
{
1000
PORI
1011
8790.870032401413
1021
2023.714209310805
1031
0.0000000001479286
1002
}
1002
{
1000
PINS
1011
8790.870032401413
1021
2023.714209310805
1031
0.0000000001479286
1002
}
1002
{
1000
PINS2
1011
8790.817032401411
1021
2023.713209310805
1031
0.0000000001479286
1002
}
1002
{
1000
C
1070
     1
1002
}
1001
GENIUS_GENODEF_13
1002
{
1000
HIER
1070
     0
1002
}
1002
{
1000
MANEDIT
1070
     0
1002
}
1002
{
1000
NOSEL
1070
     0
1002
}
1002
{
1000
BEHIND
1070
     0
1002
}
1002
{
1000
REACTOR
1002
}
1001
GENIUS_GENOBJ-N-REC_13
1002
{
1000
OWNER
1000
GEN
1002
}
  0
LINE
  5
21C9
330
1F
100
AcDbEntity
  8
SANINDUSA
100
AcDbLine
 10
8791.16831465849
 20
2024.760039166817
 30
0.0000000001479286
 11
8791.117314658491
 21
2024.760039166817
 31
0.0000000001479286
  0
LINE
  5
21CA
330
1F
100
AcDbEntity
  8
SANINDUSA
100
AcDbLine
 10
8791.116314658491
 20
2024.755039166818
 30
0.0000000001479286
 11
8791.169314658491
 21
2024.755039166818
 31
0.0000000001479286
  0
LWPOLYLINE
  5
21CB
330
1F
100
AcDbEntity
  8
SANINDUSA
100
AcDbPolyline
 90
        4
 70
     1
 43
0.0
 38
0.0000000001479285
 10
8791.169314658491
 20
2024.754839166817
 10
8791.116314658491
 20
2024.754839166817
 10
8791.116314658491
 20
2024.753839166818
 10
8791.169314658491
 20
2024.753839166818
1001
GENIUS_GENREC_14
1002
{
1000
PYDIR
1011
8790.870032401413
1021
2023.713009310805
1031
0.0000000001479286
1002
}
1002
{
1000
PXDIR
1011
8790.817032401411
1021
2023.714009310805
1031
0.0000000001479286
1002
}
1002
{
1000
PORI
1011
8790.870032401413
1021
2023.714009310805
1031
0.0000000001479286
1002
}
1002
{
1000
PINS
1011
8790.870032401413
1021
2023.714009310805
1031
0.0000000001479286
1002
}
1002
{
1000
PINS2
1011
8790.817032401411
1021
2023.713009310805
1031
0.0000000001479286
1002
}
1002
{
1000
C
1070
     1
1002
}
1001
GENIUS_GENODEF_13
1002
{
1000
HIER
1070
     0
1002
}
1002
{
1000
MANEDIT
1070
     0
1002
}
1002
{
1000
NOSEL
1070
     0
1002
}
1002
{
1000
BEHIND
1070
     0
1002
}
1002
{
1000
REACTOR
1002
}
1001
GENIUS_GENOBJ-N-REC_13
1002
{
1000
OWNER
1000
GEN
1002
}
  0
LINE
  5
21CC
330
1F
100
AcDbEntity
  8
SANINDUSA
100
AcDbLine
 10
8791.169314658491
 20
2024.747439166818
 30
0.0000000001479286
 11
8791.169314658491
 21
2024.746439166817
 31
0.0000000001479286
1001
GENIUS_GENREC_14
1002
{
1000
PYDIR
1011
8791.169314658491
1021
2024.747439166818
1031
0.0000000001479286
1002
}
1002
{
1000
PXDIR
1011
8791.116314658491
1021
2024.746439166817
1031
0.0000000001479286
1002
}
1002
{
1000
PORI
1011
8791.169314658491
1021
2024.746439166817
1031
0.0000000001479286
1002
}
1002
{
1000
PINS
1011
8791.169314658491
1021
2024.746439166817
1031
0.0000000001479286
1002
}
1002
{
1000
PINS2
1011
8791.116314658491
1021
2024.747439166818
1031
0.0000000001479286
1002
}
1002
{
1000
C
1070
     1
1002
}
1001
GENIUS_GENODEF_13
1002
{
1000
HIER
1070
     0
1002
}
1002
{
1000
MANEDIT
1070
     0
1002
}
1002
{
1000
NOSEL
1070
     0
1002
}
1002
{
1000
BEHIND
1070
     0
1002
}
1002
{
1000
REACTOR
1002
}
1001
GENIUS_GENOBJ-N-REC_13
1002
{
1000
OWNER
1000
GEN
1002
}
  0
ARC
  5
21CD
330
1F
100
AcDbEntity
  8
SANINDUSA
100
AcDbCircle
 10
8791.16831465849
 20
2024.759039166818
 30
0.0000000001479286
 40
0.001
100
AcDbArc
 50
0.0
 51
90.0
  0
LINE
  5
21CE
330
1F
100
AcDbEntity
  8
SANINDUSA
100
AcDbLine
 10
8791.169314658491
 20
2024.755039166818
 30
0.0000000001479286
 11
8791.169314658491
 21
2024.759039166818
 31
0.0000000001479286
  0
LINE
  5
21CF
330
1F
100
AcDbEntity
  8
SANINDUSA
100
AcDbLine
 10
8791.109664201487
 20
2024.753642952018
 30
0.0000000001479285
 11
8791.111740529842
 21
2024.753934760938
 31
0.0000000001479285
  0
LINE
  5
21D0
330
1F
100
AcDbEntity
  8
SANINDUSA
100
AcDbLine
 10
8791.114666797836
 20
2024.753754804959
 30
0.0000000001479285
 11
8791.114666797836
 21
2024.753048049324
 31
0.0000000001479285
  0
ARC
  5
21D1
330
1F
100
AcDbEntity
  8
SANINDUSA
100
AcDbCircle
 10
8791.111772020922
 20
2024.754090660857
 30
0.0000000001479285
 40
0.0004999999999883
100
AcDbArc
 50
277.9999999594021
 51
331.8736260450295
  0
ARC
  5
21D2
330
1F
100
AcDbEntity
  8
SANINDUSA
100
AcDbCircle
 10
8791.112066797838
 20
2024.75327303098
 30
0.0000000001479285
 40
0.0006000000000005
100
AcDbArc
 50
32.46948080063537
 51
75.89910821324153
  0
ARC
  5
21D3
330
1F
100
AcDbEntity
  8
SANINDUSA
100
AcDbCircle
 10
8791.105206184971
 20
2024.753888900487
 30
0.0000000001479285
 40
0.00075
100
AcDbArc
 50
170.6591658991318
 51
350.6591658991318
  0
LINE
  5
21D4
330
1F
100
AcDbEntity
  8
SANINDUSA
100
AcDbLine
 10
8791.101666797839
 20
2024.756239170627
 30
0.0000000001479285
 11
8791.101666797839
 21
2024.745039170627
 31
0.0000000001479285
  0
LINE
  5
21D5
330
1F
100
AcDbEntity
  8
SANINDUSA
100
AcDbLine
 10
8791.102814658492
 20
2024.754335601077
 30
0.0000000001479285
 11
8791.102814658492
 21
2024.746942740177
 31
0.0000000001479285
  0
ARC
  5
21D6
330
1F
100
AcDbEntity
  8
SANINDUSA
100
AcDbCircle
 10
8791.100829105529
 20
2024.750639170627
 30
0.0000000001479285
 40
0.0056623076923077
100
AcDbArc
 50
81.49232715978982
 51
278.5076728402101
  0
ARC
  5
21D7
330
1F
100
AcDbEntity
  8
SANINDUSA
100
AcDbCircle
 10
8791.100829105529
 20
2024.750639170627
 30
0.0000000001479285
 40
0.0052623076923077
100
AcDbArc
 50
80.8402753435636
 51
279.1597246564364
  0
LINE
  5
21D8
330
1F
100
AcDbEntity
  8
SANINDUSA
100
AcDbLine
 10
8791.116314658491
 20
2024.744239166818
 30
0.0000000001479286
 11
8791.101314658492
 21
2024.744239114524
 31
0.0000000001479286
  0
LINE
  5
21D9
330
1F
100
AcDbEntity
  8
SANINDUSA
100
AcDbLine
 10
8791.116314658491
 20
2024.746439166817
 30
0.0000000001479286
 11
8791.116314658491
 21
2024.747439166818
 31
0.0000000001479286
1001
GENIUS_GENREC_14
1002
{
1000
PYDIR
1011
8791.169314658491
1021
2024.747439166818
1031
0.0000000001479286
1002
}
1002
{
1000
PXDIR
1011
8791.116314658491
1021
2024.746439166817
1031
0.0000000001479286
1002
}
1002
{
1000
PORI
1011
8791.169314658491
1021
2024.746439166817
1031
0.0000000001479286
1002
}
1002
{
1000
PINS
1011
8791.169314658491
1021
2024.746439166817
1031
0.0000000001479286
1002
}
1002
{
1000
PINS2
1011
8791.116314658491
1021
2024.747439166818
1031
0.0000000001479286
1002
}
1002
{
1000
C
1070
     1
1002
}
1001
GENIUS_GENODEF_13
1002
{
1000
HIER
1070
     0
1002
}
1002
{
1000
MANEDIT
1070
     0
1002
}
1002
{
1000
NOSEL
1070
     0
1002
}
1002
{
1000
BEHIND
1070
     0
1002
}
1002
{
1000
REACTOR
1002
}
1001
GENIUS_GENOBJ-N-REC_13
1002
{
1000
OWNER
1000
GEN
1002
}
  0
LINE
  5
21DA
330
1F
100
AcDbEntity
  8
SANINDUSA
100
AcDbLine
 10
8791.116314658491
 20
2024.746239166818
 30
0.0000000001479286
 11
8791.116314658491
 21
2024.744239166818
 31
0.0000000001479286
  0
LINE
  5
21DB
330
1F
100
AcDbEntity
  8
SANINDUSA
100
AcDbLine
 10
8791.102814658492
 20
2024.753639170628
 30
0.0000000001479285
 11
8791.102814658492
 21
2024.747639170627
 31
0.0000000001479285
  0
LINE
  5
21DC
330
1F
100
AcDbEntity
  8
SANINDUSA
100
AcDbLine
 10
8791.100150637793
 20
2024.753639166817
 30
0.0000000001479286
 11
8791.100150637793
 21
2024.747639166818
 31
0.0000000001479286
1001
GENIUS_GENREC_14
1002
{
1000
PYDIR
1011
8791.253150637793
1021
2024.747439166818
1031
0.0000000001479286
1002
}
1002
{
1000
PXDIR
1011
8791.103150637793
1021
2024.753439166818
1031
0.0000000001479286
1002
}
1002
{
1000
PORI
1011
8791.253150637793
1021
2024.753439166818
1031
0.0000000001479286
1002
}
1002
{
1000
PINS
1011
8791.253150637793
1021
2024.753439166818
1031
0.0000000001479286
1002
}
1002
{
1000
PINS2
1011
8791.103150637793
1021
2024.747639166818
1031
0.0000000001479286
1002
}
1002
{
1000
C
1070
     1
1002
}
1001
GENIUS_GENODEF_13
1002
{
1000
HIER
1070
     0
1002
}
1002
{
1000
MANEDIT
1070
     0
1002
}
1002
{
1000
NOSEL
1070
     0
1002
}
1002
{
1000
BEHIND
1070
     0
1002
}
1002
{
1000
REACTOR
1002
}
1001
GENIUS_GENOBJ-N-REC_13
1002
{
1000
OWNER
1000
GEN
1002
}
  0
LINE
  5
21DD
330
1F
100
AcDbEntity
  8
SANINDUSA
100
AcDbLine
 10
8791.114164182101
 20
2024.74693149212
 30
0.0000000001479285
 11
8791.102659880417
 21
2024.745039170627
 31
0.0000000001479285
  0
LINE
  5
21DE
330
1F
100
AcDbEntity
  8
SANINDUSA
100
AcDbLine
 10
8791.111740529842
 20
2024.747343580316
 30
0.0000000001479285
 11
8791.109664201487
 21
2024.747635389236
 31
0.0000000001479285
  0
LINE
  5
21DF
330
1F
100
AcDbEntity
  8
SANINDUSA
100
AcDbLine
 10
8791.1093641821
 20
2024.746952699232
 30
0.0000000001479285
 11
8791.111740529842
 21
2024.747343580316
 31
0.0000000001479285
  0
LINE
  5
21E0
330
1F
100
AcDbEntity
  8
SANINDUSA
100
AcDbLine
 10
8791.111841607472
 20
2024.753595526822
 30
0.0000000001479285
 11
8791.109712912072
 21
2024.753296358194
 31
0.0000000001479285
  0
LINE
  5
21E1
330
1F
100
AcDbEntity
  8
SANINDUSA
100
AcDbLine
 10
8791.109712912072
 20
2024.74798198306
 30
0.0000000001479285
 11
8791.111841607472
 21
2024.747682814432
 31
0.0000000001479285
  0
LINE
  5
21E2
330
1F
100
AcDbEntity
  8
SANINDUSA
100
AcDbLine
 10
8791.114666797836
 20
2024.753048049324
 30
0.0000000001479285
 11
8791.112981826605
 21
2024.753325207154
 31
0.0000000001479285
  0
ARC
  5
21E3
330
1F
100
AcDbEntity
  8
SANINDUSA
100
AcDbCircle
 10
8791.113079210866
 20
2024.753917251329
 30
0.0000000001479285
 40
0.0006
100
AcDbArc
 50
212.4694808006354
 51
260.6591658799336
  0
ARC
  5
21E4
330
1F
100
AcDbEntity
  8
SANINDUSA
100
AcDbCircle
 10
8791.114066797838
 20
2024.747523536296
 30
0.0000000001479285
 40
0.0006
100
AcDbArc
 50
279.3408341200664
 51
0.0
  0
ARC
  5
21E5
330
1F
100
AcDbEntity
  8
SANINDUSA
100
AcDbCircle
 10
8791.112066797838
 20
2024.748005310275
 30
0.0000000001479285
 40
0.0005999999999989
100
AcDbArc
 50
284.1008917867585
 51
327.5305191993646
  0
LINE
  5
21E6
330
1F
100
AcDbEntity
  8
SANINDUSA
100
AcDbLine
 10
8791.112981826605
 20
2024.747953134101
 30
0.0000000001479285
 11
8791.114666797836
 21
2024.74823029193
 31
0.0000000001479285
  0
LINE
  5
21E7
330
1F
100
AcDbEntity
  8
SANINDUSA
100
AcDbLine
 10
8791.114666797836
 20
2024.74823029193
 30
0.0000000001479285
 11
8791.114666797836
 21
2024.747523536296
 31
0.0000000001479285
  0
ARC
  5
21E8
330
1F
100
AcDbEntity
  8
SANINDUSA
100
AcDbCircle
 10
8791.113079210866
 20
2024.747361089926
 30
0.0000000001479285
 40
0.0006
100
AcDbArc
 50
99.34083412006643
 51
147.5305191993646
  0
ARC
  5
21E9
330
1F
100
AcDbEntity
  8
SANINDUSA
100
AcDbCircle
 10
8791.111772020922
 20
2024.747187680398
 30
0.0000000001479285
 40
0.0005
100
AcDbArc
 50
28.12637395497053
 51
82.00000004059791
  0
ARC
  5
21EA
330
1F
100
AcDbEntity
  8
SANINDUSA
100
AcDbCircle
 10
8791.10968855678
 20
2024.753469655106
 30
0.0000000001479285
 40
0.000175
100
AcDbArc
 50
97.99999995940209
 51
277.9999999594021
  0
ARC
  5
21EB
330
1F
100
AcDbEntity
  8
SANINDUSA
100
AcDbCircle
 10
8791.104013336381
 20
2024.746939871817
 30
0.0000000001479285
 40
0.0005
100
AcDbArc
 50
279.3408341200664
 51
9.340834100868224
  0
ARC
  5
21EC
330
1F
100
AcDbEntity
  8
SANINDUSA
100
AcDbCircle
 10
8791.108514076171
 20
2024.746610179288
 30
0.0000000001479285
 40
0.0006000000000005
100
AcDbArc
 50
51.15114902705139
 51
99.34083412006643
  0
LINE
  5
21ED
330
1F
100
AcDbEntity
  8
SANINDUSA
100
AcDbLine
 10
8791.106537334973
 20
2024.746893091487
 30
0.0000000001479285
 11
8791.10841669191
 21
2024.747202223464
 31
0.0000000001479285
  0
LINE
  5
21EE
330
1F
100
AcDbEntity
  8
SANINDUSA
100
AcDbLine
 10
8791.10594624019
 20
2024.747511171093
 30
0.0000000001479285
 11
8791.105986816965
 21
2024.74726448602
 31
0.0000000001479285
  0
LINE
  5
21EF
330
1F
100
AcDbEntity
  8
SANINDUSA
100
AcDbLine
 10
8791.104506706526
 20
2024.747021025367
 30
0.0000000001479285
 11
8791.10446612975
 21
2024.747267710441
 31
0.0000000001479285
  0
ARC
  5
21F0
330
1F
100
AcDbEntity
  8
SANINDUSA
100
AcDbCircle
 10
8791.10645618142
 20
2024.747386461633
 30
0.0000000001479285
 40
0.0005
100
AcDbArc
 50
179.8634464259011
 51
279.3408341200664
  0
ARC
  5
21F1
330
1F
100
AcDbEntity
  8
SANINDUSA
100
AcDbCircle
 10
8791.105206184971
 20
2024.747389440767
 30
0.0000000001479285
 40
0.00075
100
AcDbArc
 50
359.8634464259011
 51
189.3408341008682
  0
ARC
  5
21F2
330
1F
100
AcDbEntity
  8
SANINDUSA
100
AcDbCircle
 10
8791.10968855678
 20
2024.747808686148
 30
0.0000000001479285
 40
0.000175
100
AcDbArc
 50
82.00000004059791
 51
262.0000000405979
  0
ARC
  5
21F3
330
1F
100
AcDbEntity
  8
SANINDUSA
100
AcDbCircle
 10
8791.109266797837
 20
2024.747544743408
 30
0.0000000001479285
 40
0.0006
100
AcDbArc
 50
231.1511490270514
 51
279.3408341200664
  0
LINE
  5
21F4
330
1F
100
AcDbEntity
  8
SANINDUSA
100
AcDbLine
 10
8791.102659880417
 20
2024.745039170627
 30
0.0000000001479285
 11
8791.101666797839
 21
2024.745039170627
 31
0.0000000001479285
  0
LINE
  5
21F5
330
1F
100
AcDbEntity
  8
SANINDUSA
100
AcDbLine
 10
8791.103512042752
 20
2024.746350696002
 30
0.0000000001479285
 11
8791.104094489933
 21
2024.74644650167
 31
0.0000000001479285
  0
ARC
  5
21F6
330
1F
100
AcDbEntity
  8
SANINDUSA
100
AcDbCircle
 10
8791.103414658492
 20
2024.746942740177
 30
0.0000000001479285
 40
0.0006
100
AcDbArc
 50
180.0
 51
279.3408341200664
  0
ARC
  5
21F7
330
1F
100
AcDbEntity
  8
SANINDUSA
100
AcDbCircle
 10
8791.117314658491
 20
2024.759039166818
 30
0.0000000001479286
 40
0.001
100
AcDbArc
 50
90.0
 51
180.0
  0
ARC
  5
21F8
330
1F
100
AcDbEntity
  8
SANINDUSA
100
AcDbCircle
 10
8791.104013336381
 20
2024.754338469438
 30
0.0000000001479285
 40
0.0005
100
AcDbArc
 50
350.6591658991318
 51
80.65916587993356
  0
LINE
  5
21F9
330
1F
100
AcDbEntity
  8
SANINDUSA
100
AcDbLine
 10
8791.102659880417
 20
2024.756239170627
 30
0.0000000001479285
 11
8791.101666797839
 21
2024.756239170627
 31
0.0000000001479285
  0
LINE
  5
21FA
330
1F
100
AcDbEntity
  8
SANINDUSA
100
AcDbLine
 10
8791.104094489933
 20
2024.754831839584
 30
0.0000000001479285
 11
8791.103512042752
 21
2024.754927645253
 31
0.0000000001479285
  0
ARC
  5
21FB
330
1F
100
AcDbEntity
  8
SANINDUSA
100
AcDbCircle
 10
8791.103414658492
 20
2024.754335601077
 30
0.0000000001479285
 40
0.0006
100
AcDbArc
 50
80.65916587993356
 51
180.0
  0
LINE
  5
21FC
330
1F
100
AcDbEntity
  8
SANINDUSA
100
AcDbLine
 10
8791.111740529842
 20
2024.753934760938
 30
0.0000000001479285
 11
8791.1093641821
 21
2024.754325642022
 31
0.0000000001479285
  0
ARC
  5
21FD
330
1F
100
AcDbEntity
  8
SANINDUSA
100
AcDbCircle
 10
8791.114066797838
 20
2024.753754804959
 30
0.0000000001479285
 40
0.0006
100
AcDbArc
 50
0.0
 51
80.65916587993356
  0
LINE
  5
21FE
330
1F
100
AcDbEntity
  8
SANINDUSA
100
AcDbLine
 10
8791.10446612975
 20
2024.754010630814
 30
0.0000000001479285
 11
8791.104506706526
 21
2024.754257315887
 31
0.0000000001479285
  0
LINE
  5
21FF
330
1F
100
AcDbEntity
  8
SANINDUSA
100
AcDbLine
 10
8791.105979646713
 20
2024.753970263942
 30
0.0000000001479285
 11
8791.10594624019
 21
2024.753767170161
 31
0.0000000001479285
  0
LINE
  5
2200
330
1F
100
AcDbEntity
  8
SANINDUSA
100
AcDbLine
 10
8791.10841669191
 20
2024.75407611779
 30
0.0000000001479285
 11
8791.10655417041
 21
2024.754382480537
 31
0.0000000001479285
  0
ARC
  5
2201
330
1F
100
AcDbEntity
  8
SANINDUSA
100
AcDbCircle
 10
8791.108514076171
 20
2024.754668161966
 30
0.0000000001479285
 40
0.0006000000000005
100
AcDbArc
 50
260.6591658799336
 51
308.8488509729486
  0
ARC
  5
2202
330
1F
100
AcDbEntity
  8
SANINDUSA
100
AcDbCircle
 10
8791.10647301686
 20
2024.753889110391
 30
0.0000000001479285
 40
0.0005
100
AcDbArc
 50
80.65916587993356
 51
170.6591658991318
  0
ARC
  5
2203
330
1F
100
AcDbEntity
  8
SANINDUSA
100
AcDbCircle
 10
8791.109266797837
 20
2024.753733597847
 30
0.0000000001479285
 40
0.0006
100
AcDbArc
 50
80.65916587993356
 51
128.8488509729486
  0
LINE
  5
2204
330
1F
100
AcDbEntity
  8
SANINDUSA
100
AcDbLine
 10
8791.102659880417
 20
2024.756239170627
 30
0.0000000001479285
 11
8791.114164182101
 21
2024.754346849134
 31
0.0000000001479285
  0
LINE
  5
2205
330
1F
100
AcDbEntity
  8
SANINDUSA
100
AcDbLine
 10
8791.116314658491
 20
2024.755039166818
 30
0.0000000001479286
 11
8791.116314658491
 21
2024.759039166818
 31
0.0000000001479286
  0
LINE
  5
2206
330
1F
100
AcDbEntity
  8
SANINDUSA
100
AcDbLine
 10
8791.03331465849
 20
2024.746239114524
 30
0.0000000001479286
 11
8791.03331465849
 21
2024.737239114523
 31
0.0000000001479286
  0
ARC
  5
2207
330
1F
100
AcDbEntity
  8
SANINDUSA
100
AcDbCircle
 10
8791.034314658491
 20
2024.737239114523
 30
0.0000000001479286
 40
0.001
100
AcDbArc
 50
180.0
 51
270.0
  0
LINE
  5
2208
330
1F
100
AcDbEntity
  8
SANINDUSA
100
AcDbLine
 10
8791.034314658491
 20
2024.760039166817
 30
0.0000000001479286
 11
8791.085314658493
 21
2024.760039166817
 31
0.0000000001479286
  0
LINE
  5
2209
330
1F
100
AcDbEntity
  8
SANINDUSA
100
AcDbLine
 10
8791.086314658491
 20
2024.755039166818
 30
0.0000000001479286
 11
8791.03331465849
 21
2024.755039166818
 31
0.0000000001479286
  0
LINE
  5
220A
330
1F
100
AcDbEntity
  8
SANINDUSA
100
AcDbLine
 10
8791.086314658491
 20
2024.746239114524
 30
0.0000000001479286
 11
8791.03331465849
 21
2024.746239114524
 31
0.0000000001479286
  0
LWPOLYLINE
  5
220B
330
1F
100
AcDbEntity
  8
SANINDUSA
100
AcDbPolyline
 90
        4
 70
     1
 43
0.0
 38
0.0000000001479285
 10
8791.03331465849
 20
2024.754839166817
 10
8791.086314658491
 20
2024.754839166817
 10
8791.086314658491
 20
2024.753839166818
 10
8791.03331465849
 20
2024.753839166818
1001
GENIUS_GENREC_14
1002
{
1000
PYDIR
1011
8791.169314658491
1021
2024.012291567885
1031
0.0000000001479286
1002
}
1002
{
1000
PXDIR
1011
8791.116314658491
1021
2024.013291567885
1031
0.0000000001479286
1002
}
1002
{
1000
PORI
1011
8791.169314658491
1021
2024.013291567885
1031
0.0000000001479286
1002
}
1002
{
1000
PINS
1011
8791.169314658491
1021
2024.013291567885
1031
0.0000000001479286
1002
}
1002
{
1000
PINS2
1011
8791.116314658491
1021
2024.012291567885
1031
0.0000000001479286
1002
}
1002
{
1000
C
1070
     1
1002
}
1001
GENIUS_GENODEF_13
1002
{
1000
HIER
1070
     0
1002
}
1002
{
1000
MANEDIT
1070
     0
1002
}
1002
{
1000
NOSEL
1070
     0
1002
}
1002
{
1000
BEHIND
1070
     0
1002
}
1002
{
1000
REACTOR
1002
}
1001
GENIUS_GENOBJ-N-REC_13
1002
{
1000
OWNER
1000
GEN
1002
}
  0
LWPOLYLINE
  5
220C
330
1F
100
AcDbEntity
  8
SANINDUSA
100
AcDbPolyline
 90
        2
 70
     0
 43
0.0
 38
0.0000000001479285
 10
8791.03331465849
 20
2024.746339166818
 10
8791.086314658491
 20
2024.746339166818
1001
GENIUS_GENREC_14
1002
{
1000
PYDIR
1011
8791.169314658491
1021
2024.012591567884
1031
0.0000000001479286
1002
}
1002
{
1000
PXDIR
1011
8791.116314658491
1021
2024.013591567884
1031
0.0000000001479286
1002
}
1002
{
1000
PORI
1011
8791.169314658491
1021
2024.013591567884
1031
0.0000000001479286
1002
}
1002
{
1000
PINS
1011
8791.169314658491
1021
2024.013591567884
1031
0.0000000001479286
1002
}
1002
{
1000
PINS2
1011
8791.116314658491
1021
2024.012591567884
1031
0.0000000001479286
1002
}
1002
{
1000
C
1070
     1
1002
}
1001
GENIUS_GENODEF_13
1002
{
1000
HIER
1070
     0
1002
}
1002
{
1000
MANEDIT
1070
     0
1002
}
1002
{
1000
NOSEL
1070
     0
1002
}
1002
{
1000
BEHIND
1070
     0
1002
}
1002
{
1000
REACTOR
1002
}
1001
GENIUS_GENOBJ-N-REC_13
1002
{
1000
OWNER
1000
GEN
1002
}
  0
LWPOLYLINE
  5
220D
330
1F
100
AcDbEntity
  8
SANINDUSA
100
AcDbPolyline
 90
        2
 70
     0
 43
0.0
 38
0.0000000001479285
 10
8791.086314658491
 20
2024.747339166818
 10
8791.03331465849
 20
2024.747339166818
1001
GENIUS_GENREC_14
1002
{
1000
PYDIR
1011
8791.169314658491
1021
2024.012591567884
1031
0.0000000001479286
1002
}
1002
{
1000
PXDIR
1011
8791.116314658491
1021
2024.013591567884
1031
0.0000000001479286
1002
}
1002
{
1000
PORI
1011
8791.169314658491
1021
2024.013591567884
1031
0.0000000001479286
1002
}
1002
{
1000
PINS
1011
8791.169314658491
1021
2024.013591567884
1031
0.0000000001479286
1002
}
1002
{
1000
PINS2
1011
8791.116314658491
1021
2024.012591567884
1031
0.0000000001479286
1002
}
1002
{
1000
C
1070
     1
1002
}
1001
GENIUS_GENODEF_13
1002
{
1000
HIER
1070
     0
1002
}
1002
{
1000
MANEDIT
1070
     0
1002
}
1002
{
1000
NOSEL
1070
     0
1002
}
1002
{
1000
BEHIND
1070
     0
1002
}
1002
{
1000
REACTOR
1002
}
1001
GENIUS_GENOBJ-N-REC_13
1002
{
1000
OWNER
1000
GEN
1002
}
  0
LINE
  5
220E
330
1F
100
AcDbEntity
  8
SANINDUSA
100
AcDbLine
 10
8791.086314658491
 20
2024.746339166818
 30
0.0000000001479286
 11
8791.086314658491
 21
2024.747339166818
 31
0.0000000001479286
1001
GENIUS_GENREC_14
1002
{
1000
PYDIR
1011
8791.169314658491
1021
2024.747339166818
1031
0.0000000001479286
1002
}
1002
{
1000
PXDIR
1011
8791.116314658491
1021
2024.746339166818
1031
0.0000000001479286
1002
}
1002
{
1000
PORI
1011
8791.169314658491
1021
2024.746339166818
1031
0.0000000001479286
1002
}
1002
{
1000
PINS
1011
8791.169314658491
1021
2024.746339166818
1031
0.0000000001479286
1002
}
1002
{
1000
PINS2
1011
8791.116314658491
1021
2024.747339166818
1031
0.0000000001479286
1002
}
1002
{
1000
C
1070
     1
1002
}
1001
GENIUS_GENODEF_13
1002
{
1000
HIER
1070
     0
1002
}
1002
{
1000
MANEDIT
1070
     0
1002
}
1002
{
1000
NOSEL
1070
     0
1002
}
1002
{
1000
BEHIND
1070
     0
1002
}
1002
{
1000
REACTOR
1002
}
1001
GENIUS_GENOBJ-N-REC_13
1002
{
1000
OWNER
1000
GEN
1002
}
  0
LINE
  5
220F
330
1F
100
AcDbEntity
  8
SANINDUSA
100
AcDbLine
 10
8791.086314658491
 20
2024.744239114524
 30
0.0000000001479286
 11
8791.086314658491
 21
2024.746239114524
 31
0.0000000001479286
  0
ARC
  5
2210
330
1F
100
AcDbEntity
  8
SANINDUSA
100
AcDbCircle
 10
8791.085314658493
 20
2024.759039166818
 30
0.0000000001479286
 40
0.001
100
AcDbArc
 50
0.0
 51
90.0
  0
LINE
  5
2211
330
1F
100
AcDbEntity
  8
SANINDUSA
100
AcDbLine
 10
8791.086314658491
 20
2024.755039166818
 30
0.0000000001479286
 11
8791.086314658491
 21
2024.759039166818
 31
0.0000000001479286
  0
LINE
  5
2212
330
1F
100
AcDbEntity
  8
SANINDUSA
100
AcDbLine
 10
8791.03331465849
 20
2024.747339166818
 30
0.0000000001479286
 11
8791.03331465849
 21
2024.746339166818
 31
0.0000000001479286
1001
GENIUS_GENREC_14
1002
{
1000
PYDIR
1011
8791.169314658491
1021
2024.747339166818
1031
0.0000000001479286
1002
}
1002
{
1000
PXDIR
1011
8791.116314658491
1021
2024.746339166818
1031
0.0000000001479286
1002
}
1002
{
1000
PORI
1011
8791.169314658491
1021
2024.746339166818
1031
0.0000000001479286
1002
}
1002
{
1000
PINS
1011
8791.169314658491
1021
2024.746339166818
1031
0.0000000001479286
1002
}
1002
{
1000
PINS2
1011
8791.116314658491
1021
2024.747339166818
1031
0.0000000001479286
1002
}
1002
{
1000
C
1070
     1
1002
}
1001
GENIUS_GENODEF_13
1002
{
1000
HIER
1070
     0
1002
}
1002
{
1000
MANEDIT
1070
     0
1002
}
1002
{
1000
NOSEL
1070
     0
1002
}
1002
{
1000
BEHIND
1070
     0
1002
}
1002
{
1000
REACTOR
1002
}
1001
GENIUS_GENOBJ-N-REC_13
1002
{
1000
OWNER
1000
GEN
1002
}
  0
ARC
  5
2213
330
1F
100
AcDbEntity
  8
SANINDUSA
100
AcDbCircle
 10
8791.034314658491
 20
2024.759039166818
 30
0.0000000001479286
 40
0.001
100
AcDbArc
 50
90.0
 51
180.0
  0
LINE
  5
2214
330
1F
100
AcDbEntity
  8
SANINDUSA
100
AcDbLine
 10
8791.03331465849
 20
2024.755039166818
 30
0.0000000001479286
 11
8791.03331465849
 21
2024.759039166818
 31
0.0000000001479286
  0
LINE
  5
2215
330
1F
100
AcDbEntity
  8
SANINDUSA
100
AcDbLine
 10
8790.411161437793
 20
2024.753639170628
 30
0.0000000001479285
 11
8790.411161437793
 21
2024.747639170627
 31
0.0000000001479285
  0
LINE
  5
2216
330
1F
100
AcDbEntity
  8
SANINDUSA
100
AcDbLine
 10
8791.702825458491
 20
2024.753639166817
 30
0.0000000001557791
 11
8791.702825458491
 21
2024.747639166818
 31
0.0000000001553315
  0
LINE
  5
221B
330
1F
100
AcDbEntity
  8
SANINDUSA
 48
2.0
100
AcDbLine
 10
8790.929801790273
 20
2024.790289166817
 30
0.0000000001479286
 11
8790.929801790273
 21
2025.389444466005
 31
0.0000000001479286
  0
LINE
  5
221C
330
1F
100
AcDbEntity
  8
SANINDUSA
 48
2.0
100
AcDbLine
 10
8790.916801790272
 20
2024.790289166817
 30
0.0000000001479286
 11
8790.916801790272
 21
2025.389444466005
 31
0.0000000001479286
  0
LINE
  5
221D
330
1F
100
AcDbEntity
  8
SANINDUSA
100
AcDbLine
 10
8790.932301790272
 20
2025.406944466005
 30
0.0
 11
8790.932301790272
 21
2025.424194466005
 31
0.0
  0
LINE
  5
221E
330
1F
100
AcDbEntity
  8
SANINDUSA
100
AcDbLine
 10
8790.914301790271
 20
2025.406944466005
 30
0.0
 11
8790.914301790271
 21
2025.424194466005
 31
0.0
  0
LINE
  5
221F
330
1F
100
AcDbEntity
  8
SANINDUSA
100
AcDbLine
 10
8790.922662790272
 20
2025.409914466004
 30
0.0
 11
8790.923940790273
 21
2025.409914466004
 31
0.0
  0
LINE
  5
2220
330
1F
100
AcDbEntity
  8
SANINDUSA
100
AcDbLine
 10
8790.923301790272
 20
2025.406944466005
 30
0.0
 11
8790.923940790273
 21
2025.406944466005
 31
0.0
  0
LINE
  5
2221
330
1F
100
AcDbEntity
  8
SANINDUSA
100
AcDbLine
 10
8790.923301790272
 20
2025.406944466005
 30
0.0
 11
8790.923940790273
 21
2025.406305466005
 31
0.0
  0
LINE
  5
2222
330
1F
100
AcDbEntity
  8
SANINDUSA
100
AcDbLine
 10
8790.923940790273
 20
2025.407583466005
 30
0.0
 11
8790.923301790272
 21
2025.406944466005
 31
0.0
  0
LINE
  5
2223
330
1F
100
AcDbEntity
  8
SANINDUSA
100
AcDbLine
 10
8790.923940790273
 20
2025.406305466005
 30
0.0
 11
8790.922662790272
 21
2025.406305466005
 31
0.0
  0
LINE
  5
2224
330
1F
100
AcDbEntity
  8
SANINDUSA
100
AcDbLine
 10
8790.922662790272
 20
2025.407583466005
 30
0.0
 11
8790.923940790273
 21
2025.407583466005
 31
0.0
  0
LINE
  5
2225
330
1F
100
AcDbEntity
  8
SANINDUSA
100
AcDbLine
 10
8790.923940790273
 20
2025.406305466005
 30
0.0
 11
8790.923940790273
 21
2025.407583466005
 31
0.0
  0
LINE
  5
2226
330
1F
100
AcDbEntity
  8
SANINDUSA
100
AcDbLine
 10
8790.926271790274
 20
2025.407583466005
 30
0.0
 11
8790.926271790274
 21
2025.406305466005
 31
0.0
  0
LINE
  5
2227
330
1F
100
AcDbEntity
  8
SANINDUSA
100
AcDbLine
 10
8790.926271790274
 20
2025.406305466005
 30
0.0
 11
8790.92442073709
 21
2025.406305466005
 31
0.0
  0
LINE
  5
2228
330
1F
100
AcDbEntity
  8
SANINDUSA
100
AcDbLine
 10
8790.92442073709
 20
2025.407583466005
 30
0.0
 11
8790.926271790274
 21
2025.407583466005
 31
0.0
  0
LINE
  5
2229
330
1F
100
AcDbEntity
  8
SANINDUSA
100
AcDbLine
 10
8790.923940790273
 20
2025.406305466005
 30
0.0
 11
8790.92442073709
 21
2025.406305466005
 31
0.0
  0
LINE
  5
222A
330
1F
100
AcDbEntity
  8
SANINDUSA
100
AcDbLine
 10
8790.923940790273
 20
2025.407583466005
 30
0.0
 11
8790.923940790273
 21
2025.408063412822
 31
0.0
  0
LINE
  5
222B
330
1F
100
AcDbEntity
  8
SANINDUSA
100
AcDbLine
 10
8790.923940790273
 20
2025.408063412822
 30
0.0
 11
8790.925401897414
 21
2025.409044573144
 31
0.0
  0
LINE
  5
222C
330
1F
100
AcDbEntity
  8
SANINDUSA
100
AcDbLine
 10
8790.92442073709
 20
2025.407583466005
 30
0.0
 11
8790.923940790273
 21
2025.407583466005
 31
0.0
  0
LINE
  5
222D
330
1F
100
AcDbEntity
  8
SANINDUSA
100
AcDbLine
 10
8790.925401897414
 20
2025.409044573144
 30
0.0
 11
8790.923940790273
 21
2025.407583466005
 31
0.0
  0
LINE
  5
222E
330
1F
100
AcDbEntity
  8
SANINDUSA
100
AcDbLine
 10
8790.925401897414
 20
2025.409044573144
 30
0.0
 11
8790.92442073709
 21
2025.407583466005
 31
0.0
  0
LINE
  5
222F
330
1F
100
AcDbEntity
  8
SANINDUSA
100
AcDbLine
 10
8790.922662790272
 20
2025.406944466005
 30
0.0
 11
8790.923301790272
 21
2025.406944466005
 31
0.0
  0
LINE
  5
2230
330
1F
100
AcDbEntity
  8
SANINDUSA
100
AcDbLine
 10
8790.923301790272
 20
2025.406944466005
 30
0.0
 11
8790.923301790272
 21
2025.406305466005
 31
0.0
  0
LINE
  5
2231
330
1F
100
AcDbEntity
  8
SANINDUSA
100
AcDbLine
 10
8790.922662790272
 20
2025.406305466005
 30
0.0
 11
8790.923301790272
 21
2025.406944466005
 31
0.0
  0
LINE
  5
2232
330
1F
100
AcDbEntity
  8
SANINDUSA
100
AcDbLine
 10
8790.922662790272
 20
2025.407583466005
 30
0.0
 11
8790.922662790272
 21
2025.406305466005
 31
0.0
  0
LINE
  5
2233
330
1F
100
AcDbEntity
  8
SANINDUSA
100
AcDbLine
 10
8790.923301790272
 20
2025.407583466005
 30
0.0
 11
8790.923301790272
 21
2025.406944466005
 31
0.0
  0
LINE
  5
2234
330
1F
100
AcDbEntity
  8
SANINDUSA
100
AcDbLine
 10
8790.923301790272
 20
2025.406944466005
 30
0.0
 11
8790.922662790272
 21
2025.407583466005
 31
0.0
  0
LINE
  5
2235
330
1F
100
AcDbEntity
  8
SANINDUSA
100
AcDbLine
 10
8790.922662790272
 20
2025.407583466005
 30
0.0
 11
8790.922182843456
 21
2025.407583466005
 31
0.0
  0
LINE
  5
2236
330
1F
100
AcDbEntity
  8
SANINDUSA
100
AcDbLine
 10
8790.922182843456
 20
2025.407583466005
 30
0.0
 11
8790.921201683131
 21
2025.409044573144
 31
0.0
  0
LINE
  5
2237
330
1F
100
AcDbEntity
  8
SANINDUSA
100
AcDbLine
 10
8790.922662790272
 20
2025.408063412822
 30
0.0
 11
8790.922662790272
 21
2025.407583466005
 31
0.0
  0
LINE
  5
2238
330
1F
100
AcDbEntity
  8
SANINDUSA
100
AcDbLine
 10
8790.921201683131
 20
2025.409044573144
 30
0.0
 11
8790.922662790272
 21
2025.407583466005
 31
0.0
  0
LINE
  5
2239
330
1F
100
AcDbEntity
  8
SANINDUSA
100
AcDbLine
 10
8790.921201683131
 20
2025.409044573144
 30
0.0
 11
8790.922662790272
 21
2025.408063412822
 31
0.0
  0
LINE
  5
223A
330
1F
100
AcDbEntity
  8
SANINDUSA
100
AcDbLine
 10
8790.922182843456
 20
2025.406305466005
 30
0.0
 11
8790.922662790272
 21
2025.406305466005
 31
0.0
  0
LINE
  5
223B
330
1F
100
AcDbEntity
  8
SANINDUSA
100
AcDbLine
 10
8790.920331790273
 20
2025.406305466005
 30
0.0
 11
8790.920331790273
 21
2025.407583466005
 31
0.0
  0
LINE
  5
223C
330
1F
100
AcDbEntity
  8
SANINDUSA
100
AcDbLine
 10
8790.920331790273
 20
2025.407583466005
 30
0.0
 11
8790.922182843456
 21
2025.407583466005
 31
0.0
  0
LINE
  5
223D
330
1F
100
AcDbEntity
  8
SANINDUSA
100
AcDbLine
 10
8790.922182843456
 20
2025.406305466005
 30
0.0
 11
8790.920331790273
 21
2025.406305466005
 31
0.0
  0
LINE
  5
223E
330
1F
100
AcDbEntity
  8
SANINDUSA
100
AcDbLine
 10
8790.923940790273
 20
2025.409914466004
 30
0.0
 11
8790.923940790273
 21
2025.408063412822
 31
0.0
  0
LINE
  5
223F
330
1F
100
AcDbEntity
  8
SANINDUSA
100
AcDbLine
 10
8790.922662790272
 20
2025.408063412822
 30
0.0
 11
8790.922662790272
 21
2025.409914466004
 31
0.0
  0
LINE
  5
2240
330
1F
100
AcDbEntity
  8
SANINDUSA
100
AcDbLine
 10
8790.923940790273
 20
2025.403974466005
 30
0.0
 11
8790.922662790272
 21
2025.403974466005
 31
0.0
  0
LINE
  5
2241
330
1F
100
AcDbEntity
  8
SANINDUSA
100
AcDbLine
 10
8790.915301790272
 20
2025.389444466005
 30
0.0
 11
8790.915301790272
 21
2025.402821360379
 31
0.0
  0
LINE
  5
2242
330
1F
100
AcDbEntity
  8
SANINDUSA
100
AcDbLine
 10
8790.923940790273
 20
2025.405825519188
 30
0.0
 11
8790.923940790273
 21
2025.403974466005
 31
0.0
  0
LINE
  5
2243
330
1F
100
AcDbEntity
  8
SANINDUSA
100
AcDbLine
 10
8790.925401897414
 20
2025.404844358865
 30
0.0
 11
8790.923940790273
 21
2025.405825519188
 31
0.0
  0
LINE
  5
2244
330
1F
100
AcDbEntity
  8
SANINDUSA
100
AcDbLine
 10
8790.931301790273
 20
2025.396444466005
 30
0.0
 11
8790.915301790272
 21
2025.396444466005
 31
0.0
  0
LINE
  5
2245
330
1F
100
AcDbEntity
  8
SANINDUSA
100
AcDbLine
 10
8790.922662790272
 20
2025.403974466005
 30
0.0
 11
8790.922662790272
 21
2025.405825519188
 31
0.0
  0
LINE
  5
2246
330
1F
100
AcDbEntity
  8
SANINDUSA
100
AcDbLine
 10
8790.922662790272
 20
2025.405825519188
 30
0.0
 11
8790.921201683131
 21
2025.404844358865
 31
0.0
  0
LINE
  5
2247
330
1F
100
AcDbEntity
  8
SANINDUSA
100
AcDbLine
 10
8790.931301790273
 20
2025.389444466005
 30
0.0
 11
8790.915301790272
 21
2025.389444466005
 31
0.0
  0
LINE
  5
2248
330
1F
100
AcDbEntity
  8
SANINDUSA
100
AcDbLine
 10
8790.92442073709
 20
2025.406305466005
 30
0.0
 11
8790.925401897414
 21
2025.404844358865
 31
0.0
  0
LINE
  5
2249
330
1F
100
AcDbEntity
  8
SANINDUSA
100
AcDbLine
 10
8790.923940790273
 20
2025.405825519188
 30
0.0
 11
8790.923940790273
 21
2025.406305466005
 31
0.0
  0
LINE
  5
224A
330
1F
100
AcDbEntity
  8
SANINDUSA
100
AcDbLine
 10
8790.925401897414
 20
2025.404844358865
 30
0.0
 11
8790.923940790273
 21
2025.406305466005
 31
0.0
  0
LINE
  5
224B
330
1F
100
AcDbEntity
  8
SANINDUSA
100
AcDbLine
 10
8790.922662790272
 20
2025.406305466005
 30
0.0
 11
8790.922662790272
 21
2025.405825519188
 31
0.0
  0
LINE
  5
224C
330
1F
100
AcDbEntity
  8
SANINDUSA
100
AcDbLine
 10
8790.921201683131
 20
2025.404844358865
 30
0.0
 11
8790.922662790272
 21
2025.406305466005
 31
0.0
  0
LINE
  5
224D
330
1F
100
AcDbEntity
  8
SANINDUSA
100
AcDbLine
 10
8790.921201683131
 20
2025.404844358865
 30
0.0
 11
8790.922182843456
 21
2025.406305466005
 31
0.0
  0
ARC
  5
224E
330
1F
100
AcDbEntity
  8
SANINDUSA
100
AcDbCircle
 10
8790.923301790272
 20
2025.406944466005
 30
0.0
 40
0.009
100
AcDbArc
 50
180.0
 51
0.0
  0
LINE
  5
224F
330
1F
100
AcDbEntity
  8
SANINDUSA
100
AcDbLine
 10
8790.931301790273
 20
2025.389444466005
 30
0.0
 11
8790.931301790273
 21
2025.402821360379
 31
0.0
  0
CIRCLE
  5
2250
330
1F
100
AcDbEntity
  8
SANINDUSA
100
AcDbCircle
 10
8790.923301790272
 20
2025.406944466005
 30
0.0
 40
0.005085
  0
LINE
  5
2251
330
1F
100
AcDbEntity
  8
SANINDUSA
100
AcDbLine
 10
8790.908301790272
 20
2025.429194466005
 30
0.0
 11
8790.908301790272
 21
2025.426194466005
 31
0.0
  0
LINE
  5
2252
330
1F
100
AcDbEntity
  8
SANINDUSA
100
AcDbLine
 10
8790.938301790273
 20
2025.426194466005
 30
0.0
 11
8790.938301790273
 21
2025.429194466005
 31
0.0
  0
LINE
  5
2253
330
1F
100
AcDbEntity
  8
SANINDUSA
100
AcDbLine
 10
8790.910301790272
 20
2025.424194466005
 30
0.0
 11
8790.936301790273
 21
2025.424194466005
 31
0.0
  0
ARC
  5
2254
330
1F
100
AcDbEntity
  8
SANINDUSA
100
AcDbCircle
 10
8790.936301790273
 20
2025.426194466005
 30
0.0
 40
0.002
100
AcDbArc
 50
270.0
 51
0.0
  0
ARC
  5
2255
330
1F
100
AcDbEntity
  8
SANINDUSA
100
AcDbCircle
 10
8790.910301790272
 20
2025.426194466005
 30
0.0
 40
0.002
100
AcDbArc
 50
180.0
 51
270.0
  0
LINE
  5
2256
330
1F
100
AcDbEntity
  8
SANINDUSA
100
AcDbLine
 10
8790.938301790273
 20
2025.429194466005
 30
0.0
 11
8790.908301790272
 21
2025.429194466005
 31
0.0
  0
LINE
  5
2257
330
1F
100
AcDbEntity
  8
SANINDUSA
100
AcDbLine
 10
8790.932301790272
 20
2024.772789166818
 30
0.0000000001479286
 11
8790.932301790272
 21
2024.755539166818
 31
0.0000000001479286
  0
LINE
  5
2258
330
1F
100
AcDbEntity
  8
SANINDUSA
100
AcDbLine
 10
8790.931301790273
 20
2024.790289166817
 30
0.0000000001479286
 11
8790.931301790273
 21
2024.776912272443
 31
0.0000000001479286
  0
LINE
  5
2259
330
1F
100
AcDbEntity
  8
SANINDUSA
100
AcDbLine
 10
8790.921201683131
 20
2024.770689059677
 30
0.0000000001479286
 11
8790.922662790272
 21
2024.771670220001
 31
0.0000000001479286
  0
LINE
  5
225A
330
1F
100
AcDbEntity
  8
SANINDUSA
100
AcDbLine
 10
8790.92442073709
 20
2024.773428166818
 30
0.0000000001479286
 11
8790.925401897414
 21
2024.774889273958
 31
0.0000000001479286
  0
LINE
  5
225B
330
1F
100
AcDbEntity
  8
SANINDUSA
100
AcDbLine
 10
8790.923301790272
 20
2024.772789166818
 30
0.0000000001479286
 11
8790.923940790273
 21
2024.772789166818
 31
0.0000000001479286
  0
LINE
  5
225C
330
1F
100
AcDbEntity
  8
SANINDUSA
100
AcDbLine
 10
8790.923940790273
 20
2024.773428166818
 30
0.0000000001479286
 11
8790.923940790273
 21
2024.772150166818
 31
0.0000000001479286
  0
LINE
  5
225D
330
1F
100
AcDbEntity
  8
SANINDUSA
100
AcDbLine
 10
8790.923940790273
 20
2024.772150166818
 30
0.0000000001479286
 11
8790.923301790272
 21
2024.772789166818
 31
0.0000000001479286
  0
LINE
  5
225E
330
1F
100
AcDbEntity
  8
SANINDUSA
100
AcDbLine
 10
8790.923301790272
 20
2024.772150166818
 30
0.0000000001479286
 11
8790.923301790272
 21
2024.772789166818
 31
0.0000000001479286
  0
LINE
  5
225F
330
1F
100
AcDbEntity
  8
SANINDUSA
100
AcDbLine
 10
8790.922662790272
 20
2024.772150166818
 30
0.0000000001479286
 11
8790.923940790273
 21
2024.772150166818
 31
0.0000000001479286
  0
LINE
  5
2260
330
1F
100
AcDbEntity
  8
SANINDUSA
100
AcDbLine
 10
8790.923940790273
 20
2024.773428166818
 30
0.0000000001479286
 11
8790.92442073709
 21
2024.773428166818
 31
0.0000000001479286
  0
LINE
  5
2261
330
1F
100
AcDbEntity
  8
SANINDUSA
100
AcDbLine
 10
8790.922662790272
 20
2024.771670220001
 30
0.0000000001479286
 11
8790.922662790272
 21
2024.772150166818
 31
0.0000000001479286
  0
LINE
  5
2262
330
1F
100
AcDbEntity
  8
SANINDUSA
100
AcDbLine
 10
8790.914301790271
 20
2024.772789166818
 30
0.0000000001479286
 11
8790.914301790271
 21
2024.755539166818
 31
0.0000000001479286
  0
CIRCLE
  5
2263
330
1F
100
AcDbEntity
  8
SANINDUSA
100
AcDbCircle
 10
8790.923301790272
 20
2024.772789166818
 30
0.0000000001479286
 40
0.005085
  0
ARC
  5
2264
330
1F
100
AcDbEntity
  8
SANINDUSA
100
AcDbCircle
 10
8790.923301790272
 20
2024.772789166818
 30
0.0000000001479286
 40
0.009
100
AcDbArc
 50
0.0
 51
180.0
  0
LINE
  5
2265
330
1F
100
AcDbEntity
  8
SANINDUSA
100
AcDbLine
 10
8790.922662790272
 20
2024.769819166817
 30
0.0000000001479286
 11
8790.923940790273
 21
2024.769819166817
 31
0.0000000001479286
  0
LINE
  5
2266
330
1F
100
AcDbEntity
  8
SANINDUSA
100
AcDbLine
 10
8790.922662790272
 20
2024.771670220001
 30
0.0000000001479286
 11
8790.922662790272
 21
2024.769819166817
 31
0.0000000001479286
  0
LINE
  5
2267
330
1F
100
AcDbEntity
  8
SANINDUSA
100
AcDbLine
 10
8790.945801790272
 20
2024.755539166818
 30
0.0000000001479286
 11
8790.900801790272
 21
2024.755539166818
 31
0.0000000001479286
  0
LINE
  5
2268
330
1F
100
AcDbEntity
  8
SANINDUSA
100
AcDbLine
 10
8790.945801790272
 20
2024.737539166817
 30
0.0000000001479286
 11
8790.900801790272
 21
2024.737539166817
 31
0.0000000001479286
  0
LINE
  5
2269
330
1F
100
AcDbEntity
  8
SANINDUSA
100
AcDbLine
 10
8790.900801790272
 20
2024.755539166818
 30
0.0000000001479286
 11
8790.900801790272
 21
2024.737539166817
 31
0.0000000001479286
  0
LINE
  5
226A
330
1F
100
AcDbEntity
  8
SANINDUSA
100
AcDbLine
 10
8790.923940790273
 20
2024.769819166817
 30
0.0000000001479286
 11
8790.923940790273
 21
2024.771670220001
 31
0.0000000001479286
  0
LINE
  5
226B
330
1F
100
AcDbEntity
  8
SANINDUSA
100
AcDbLine
 10
8790.926271790274
 20
2024.772150166818
 30
0.0000000001479286
 11
8790.926271790274
 21
2024.773428166818
 31
0.0000000001479286
  0
LINE
  5
226C
330
1F
100
AcDbEntity
  8
SANINDUSA
100
AcDbLine
 10
8790.926271790274
 20
2024.773428166818
 30
0.0000000001479286
 11
8790.92442073709
 21
2024.773428166818
 31
0.0000000001479286
  0
LINE
  5
226D
330
1F
100
AcDbEntity
  8
SANINDUSA
100
AcDbLine
 10
8790.92442073709
 20
2024.772150166818
 30
0.0000000001479286
 11
8790.926271790274
 21
2024.772150166818
 31
0.0000000001479286
  0
LINE
  5
226E
330
1F
100
AcDbEntity
  8
SANINDUSA
100
AcDbLine
 10
8790.923940790273
 20
2024.772150166818
 30
0.0000000001479286
 11
8790.923940790273
 21
2024.771670220001
 31
0.0000000001479286
  0
LINE
  5
226F
330
1F
100
AcDbEntity
  8
SANINDUSA
100
AcDbLine
 10
8790.923940790273
 20
2024.771670220001
 30
0.0000000001479286
 11
8790.925401897414
 21
2024.770689059677
 31
0.0000000001479286
  0
LINE
  5
2270
330
1F
100
AcDbEntity
  8
SANINDUSA
100
AcDbLine
 10
8790.92442073709
 20
2024.772150166818
 30
0.0000000001479286
 11
8790.923940790273
 21
2024.772150166818
 31
0.0000000001479286
  0
LINE
  5
2271
330
1F
100
AcDbEntity
  8
SANINDUSA
100
AcDbLine
 10
8790.925401897414
 20
2024.770689059677
 30
0.0000000001479286
 11
8790.923940790273
 21
2024.772150166818
 31
0.0000000001479286
  0
LINE
  5
2272
330
1F
100
AcDbEntity
  8
SANINDUSA
100
AcDbLine
 10
8790.925401897414
 20
2024.770689059677
 30
0.0000000001479286
 11
8790.92442073709
 21
2024.772150166818
 31
0.0000000001479286
  0
LINE
  5
2273
330
1F
100
AcDbEntity
  8
SANINDUSA
100
AcDbLine
 10
8790.945801790272
 20
2024.755539166818
 30
0.0000000001479286
 11
8790.945801790272
 21
2024.737539166817
 31
0.0000000001479286
  0
LINE
  5
2274
330
1F
100
AcDbEntity
  8
SANINDUSA
100
AcDbLine
 10
8790.920331790273
 20
2024.773428166818
 30
0.0000000001479286
 11
8790.920331790273
 21
2024.772150166818
 31
0.0000000001479286
  0
LINE
  5
2275
330
1F
100
AcDbEntity
  8
SANINDUSA
100
AcDbLine
 10
8790.922182843456
 20
2024.772150166818
 30
0.0000000001479286
 11
8790.921201683131
 21
2024.770689059677
 31
0.0000000001479286
  0
LINE
  5
2276
330
1F
100
AcDbEntity
  8
SANINDUSA
100
AcDbLine
 10
8790.921201683131
 20
2024.770689059677
 30
0.0000000001479286
 11
8790.922662790272
 21
2024.772150166818
 31
0.0000000001479286
  0
LINE
  5
2277
330
1F
100
AcDbEntity
  8
SANINDUSA
100
AcDbLine
 10
8790.920331790273
 20
2024.772150166818
 30
0.0000000001479286
 11
8790.922182843456
 21
2024.772150166818
 31
0.0000000001479286
  0
LINE
  5
2278
330
1F
100
AcDbEntity
  8
SANINDUSA
100
AcDbLine
 10
8790.915301790272
 20
2024.790289166817
 30
0.0000000001479286
 11
8790.915301790272
 21
2024.776912272443
 31
0.0000000001479286
  0
LINE
  5
2279
330
1F
100
AcDbEntity
  8
SANINDUSA
100
AcDbLine
 10
8790.931301790273
 20
2024.790289166817
 30
0.0000000001479286
 11
8790.915301790272
 21
2024.790289166817
 31
0.0000000001479286
  0
LINE
  5
227A
330
1F
100
AcDbEntity
  8
SANINDUSA
100
AcDbLine
 10
8790.922662790272
 20
2024.775759166818
 30
0.0000000001479286
 11
8790.922662790272
 21
2024.773908113635
 31
0.0000000001479286
  0
LINE
  5
227B
330
1F
100
AcDbEntity
  8
SANINDUSA
100
AcDbLine
 10
8790.922662790272
 20
2024.773908113635
 30
0.0000000001479286
 11
8790.921201683131
 21
2024.774889273958
 31
0.0000000001479286
  0
LINE
  5
227C
330
1F
100
AcDbEntity
  8
SANINDUSA
100
AcDbLine
 10
8790.921201683131
 20
2024.774889273958
 30
0.0000000001479286
 11
8790.922662790272
 21
2024.773428166818
 31
0.0000000001479286
  0
LINE
  5
227D
330
1F
100
AcDbEntity
  8
SANINDUSA
100
AcDbLine
 10
8790.921201683131
 20
2024.774889273958
 30
0.0000000001479286
 11
8790.922182843456
 21
2024.773428166818
 31
0.0000000001479286
  0
LINE
  5
227E
330
1F
100
AcDbEntity
  8
SANINDUSA
100
AcDbLine
 10
8790.922182843456
 20
2024.773428166818
 30
0.0000000001479286
 11
8790.920331790273
 21
2024.773428166818
 31
0.0000000001479286
  0
LINE
  5
227F
330
1F
100
AcDbEntity
  8
SANINDUSA
100
AcDbLine
 10
8790.922662790272
 20
2024.773428166818
 30
0.0000000001479286
 11
8790.922662790272
 21
2024.773908113635
 31
0.0000000001479286
  0
LINE
  5
2280
330
1F
100
AcDbEntity
  8
SANINDUSA
100
AcDbLine
 10
8790.922182843456
 20
2024.773428166818
 30
0.0000000001479286
 11
8790.922662790272
 21
2024.773428166818
 31
0.0000000001479286
  0
LINE
  5
2281
330
1F
100
AcDbEntity
  8
SANINDUSA
100
AcDbLine
 10
8790.923940790273
 20
2024.775759166818
 30
0.0000000001479286
 11
8790.922662790272
 21
2024.775759166818
 31
0.0000000001479286
  0
LINE
  5
2282
330
1F
100
AcDbEntity
  8
SANINDUSA
100
AcDbLine
 10
8790.925401897414
 20
2024.774889273958
 30
0.0000000001479286
 11
8790.923940790273
 21
2024.773428166818
 31
0.0000000001479286
  0
LINE
  5
2283
330
1F
100
AcDbEntity
  8
SANINDUSA
100
AcDbLine
 10
8790.925401897414
 20
2024.774889273958
 30
0.0000000001479286
 11
8790.923940790273
 21
2024.773908113635
 31
0.0000000001479286
  0
LINE
  5
2284
330
1F
100
AcDbEntity
  8
SANINDUSA
100
AcDbLine
 10
8790.922662790272
 20
2024.772789166818
 30
0.0000000001479286
 11
8790.923301790272
 21
2024.772789166818
 31
0.0000000001479286
  0
LINE
  5
2285
330
1F
100
AcDbEntity
  8
SANINDUSA
100
AcDbLine
 10
8790.923301790272
 20
2024.772789166818
 30
0.0000000001479286
 11
8790.923940790273
 21
2024.773428166818
 31
0.0000000001479286
  0
LINE
  5
2286
330
1F
100
AcDbEntity
  8
SANINDUSA
100
AcDbLine
 10
8790.923301790272
 20
2024.772789166818
 30
0.0000000001479286
 11
8790.923301790272
 21
2024.773428166818
 31
0.0000000001479286
  0
LINE
  5
2287
330
1F
100
AcDbEntity
  8
SANINDUSA
100
AcDbLine
 10
8790.923301790272
 20
2024.772789166818
 30
0.0000000001479286
 11
8790.922662790272
 21
2024.772150166818
 31
0.0000000001479286
  0
LINE
  5
2288
330
1F
100
AcDbEntity
  8
SANINDUSA
100
AcDbLine
 10
8790.923940790273
 20
2024.773908113635
 30
0.0000000001479286
 11
8790.923940790273
 21
2024.773428166818
 31
0.0000000001479286
  0
LINE
  5
2289
330
1F
100
AcDbEntity
  8
SANINDUSA
100
AcDbLine
 10
8790.922662790272
 20
2024.772150166818
 30
0.0000000001479286
 11
8790.922182843456
 21
2024.772150166818
 31
0.0000000001479286
  0
LINE
  5
228A
330
1F
100
AcDbEntity
  8
SANINDUSA
100
AcDbLine
 10
8790.923940790273
 20
2024.773908113635
 30
0.0000000001479286
 11
8790.923940790273
 21
2024.775759166818
 31
0.0000000001479286
  0
LINE
  5
228B
330
1F
100
AcDbEntity
  8
SANINDUSA
100
AcDbLine
 10
8790.922662790272
 20
2024.773428166818
 30
0.0000000001479286
 11
8790.923301790272
 21
2024.772789166818
 31
0.0000000001479286
  0
LINE
  5
228C
330
1F
100
AcDbEntity
  8
SANINDUSA
100
AcDbLine
 10
8790.922662790272
 20
2024.772150166818
 30
0.0000000001479286
 11
8790.922662790272
 21
2024.773428166818
 31
0.0000000001479286
  0
LINE
  5
228D
330
1F
100
AcDbEntity
  8
SANINDUSA
100
AcDbLine
 10
8790.923940790273
 20
2024.773428166818
 30
0.0000000001479286
 11
8790.922662790272
 21
2024.773428166818
 31
0.0000000001479286
  0
LINE
  5
228E
330
1F
100
AcDbEntity
  8
SANINDUSA
100
AcDbLine
 10
8790.931301790273
 20
2024.783289166817
 30
0.0000000001479286
 11
8790.915301790272
 21
2024.783289166817
 31
0.0000000001479286
  0
CIRCLE
  5
2293
330
1F
100
AcDbEntity
  8
SANINDUSA
100
AcDbCircle
 10
8791.101314658492
 20
2024.736239114524
 30
0.0000000001479286
 40
0.008
  0
INSERT
  5
22DE
330
1F
100
AcDbEntity
  8
SANINDUSA
100
AcDbBlockReference
  2
guarnizione
 10
8791.702825458491
 20
2024.750639166818
 30
0.0000000001555553
 41
-0.001
 42
0.001
 43
0.001
  0
HATCH
  5
22E0
330
1F
100
AcDbEntity
  8
SANINDUSA
100
AcDbHatch
 10
0.0
 20
0.0
 30
0.0000000001555553
210
0.0
220
0.0
230
1.0
  2
ANSI31
 70
     0
 71
     0
 91
        1
 92
        1
 93
        8
 72
     1
 10
8791.713611658472
 20
2024.756650493066
 11
8791.712904551692
 21
2024.755943386285
 72
     1
 10
8791.712904551692
 20
2024.755943386285
 11
8791.713611658472
 21
2024.755236279504
 72
     1
 10
8791.713611658472
 20
2024.755236279504
 11
8791.712550998303
 21
2024.754175619332
 72
     1
 10
8791.712550998303
 20
2024.754175619332
 11
8791.716086532208
 21
2024.750640085426
 72
     1
 10
8791.716086532208
 20
2024.750640085426
 11
8791.717147192379
 21
2024.751700745598
 72
     1
 10
8791.717147192379
 20
2024.751700745598
 11
8791.717854299161
 21
2024.750993638817
 72
     1
 10
8791.717854299161
 20
2024.750993638817
 11
8791.718561405941
 21
2024.751700745598
 72
     1
 10
8791.718561405941
 20
2024.751700745598
 11
8791.713611658472
 21
2024.756650493066
 97
        0
 75
     0
 76
     1
 52
-0.0000000000000127
 41
0.00025
 77
     0
 78
     1
 53
180.0
 43
8791.718550075884
 44
2024.756639163008
 45
0.0000000000000002
 46
0.00079375
 79
     0
 98
        1
 10
8791.718550075884
 20
2024.756639163008
  0
LINE
  5
22E1
330
1F
100
AcDbEntity
  8
SANINDUSA
100
AcDbLine
 10
8791.702825458491
 20
2024.753639166817
 30
0.0000000001557791
 11
8791.102814658492
 21
2024.753639166817
 31
0.0000000001557791
  0
LINE
  5
22E2
330
1F
100
AcDbEntity
  8
SANINDUSA
100
AcDbLine
 10
8791.702825458491
 20
2024.747639166818
 30
0.0000000001553315
 11
8791.102814658492
 21
2024.747639166818
 31
0.0000000001553315
  0
LINE
  5
22E3
330
1F
100
AcDbEntity
  8
SANINDUSA
100
AcDbLine
 10
8790.411161437793
 20
2024.753639170628
 30
0.0000000001479285
 11
8791.100150637793
 21
2024.753639170628
 31
0.0000000001479285
  0
LINE
  5
22E4
330
1F
100
AcDbEntity
  8
SANINDUSA
100
AcDbLine
 10
8790.411161437793
 20
2024.747639170627
 30
0.0000000001479285
 11
8791.100150637793
 21
2024.747639170627
 31
0.0000000001479285
  0
LINE
  5
22E5
330
1F
100
AcDbEntity
  8
SANINDUSA
100
AcDbLine
 10
8791.102814658492
 20
2024.747639170627
 30
0.0000000001479285
 11
8791.102814658492
 21
2024.753639170628
 31
0.0000000001479285
  0
ARC
  5
2713
330
1F
100
AcDbEntity
  8
SANINDUSA
100
AcDbCircle
 10
8789.491994599261
 20
2025.591437575895
 30
-0.0000000017937957
 40
0.001
100
AcDbArc
 50
90.0
 51
180.0
  0
LINE
  5
2714
330
1F
100
AcDbEntity
  8
SANINDUSA
100
AcDbLine
 10
8789.56699459926
 20
2025.592437575895
 30
-0.0000000017937957
 11
8789.62599459926
 21
2025.592437575895
 31
-0.0000000017937957
  0
ARC
  5
2715
330
1F
100
AcDbEntity
  8
SANINDUSA
100
AcDbCircle
 10
8789.62599459926
 20
2025.591437575895
 30
-0.0000000017937957
 40
0.001
100
AcDbArc
 50
0.0
 51
90.0
  0
ARC
  5
2716
330
1F
100
AcDbEntity
  8
SANINDUSA
100
AcDbCircle
 10
8789.565994599259
 20
2025.597937575895
 30
-0.0000000017937957
 40
0.001
100
AcDbArc
 50
0.0
 51
90.0
  0
LINE
  5
2717
330
1F
100
AcDbEntity
  8
SANINDUSA
100
AcDbLine
 10
8789.56699459926
 20
2025.597937575895
 30
-0.0000000017937957
 11
8789.56699459926
 21
2025.592437575895
 31
-0.0000000017937957
  0
LINE
  5
2718
330
1F
100
AcDbEntity
  8
SANINDUSA
100
AcDbLine
 10
8789.566494599259
 20
2025.576937575895
 30
-0.0000000017937957
 11
8789.566494599259
 21
2025.572937575895
 31
-0.0000000017937957
  0
LINE
  5
2719
330
1F
100
AcDbEntity
  8
SANINDUSA
100
AcDbLine
 10
8789.56699459926
 20
2025.592437575895
 30
-0.0000000017937957
 11
8789.56699459926
 21
2025.576937575895
 31
-0.0000000017937957
  0
ARC
  5
271A
330
1F
100
AcDbEntity
  8
SANINDUSA
100
AcDbCircle
 10
8789.551994599261
 20
2025.597937575895
 30
-0.0000000017937957
 40
0.001
100
AcDbArc
 50
90.0
 51
180.0
  0
LINE
  5
271B
330
1F
100
AcDbEntity
  8
SANINDUSA
100
AcDbLine
 10
8789.551994599261
 20
2025.598937575895
 30
-0.0000000017937957
 11
8789.565994599259
 21
2025.598937575895
 31
-0.0000000017937957
  0
LINE
  5
271C
330
1F
100
AcDbEntity
  8
SANINDUSA
100
AcDbLine
 10
8789.55149459926
 20
2025.576937575895
 30
-0.0000000017937957
 11
8789.55149459926
 21
2025.572937575895
 31
-0.0000000017937957
  0
LINE
  5
271D
330
1F
100
AcDbEntity
  8
SANINDUSA
100
AcDbLine
 10
8789.55099459926
 20
2025.572937575895
 30
-0.0000000017937957
 11
8789.55010571037
 21
2025.572937575895
 31
-0.0000000017937957
  0
LINE
  5
271E
330
1F
100
AcDbEntity
  8
SANINDUSA
100
AcDbLine
 10
8789.56788348815
 20
2025.576937575895
 30
-0.0000000017937957
 11
8789.55099459926
 21
2025.576937575895
 31
-0.0000000017937957
  0
LINE
  5
271F
330
1F
100
AcDbEntity
  8
SANINDUSA
100
AcDbLine
 10
8789.55099459926
 20
2025.572937575895
 30
-0.0000000017937957
 11
8789.56699459926
 21
2025.572937575895
 31
-0.0000000017937957
  0
LINE
  5
2720
330
1F
100
AcDbEntity
  8
SANINDUSA
100
AcDbLine
 10
8789.55099459926
 20
2025.576937575895
 30
-0.0000000017937957
 11
8789.55099459926
 21
2025.597937575895
 31
-0.0000000017937957
  0
LINE
  5
2721
330
1F
100
AcDbEntity
  8
SANINDUSA
100
AcDbLine
 10
8789.55010571037
 20
2025.572937575895
 30
-0.0000000017937957
 11
8789.55010571037
 21
2025.592437575895
 31
-0.0000000017937957
  0
LINE
  5
2722
330
1F
100
AcDbEntity
  8
SANINDUSA
100
AcDbLine
 10
8789.55010571037
 20
2025.592437575895
 30
-0.0000000017937957
 11
8789.491994599261
 21
2025.592437575895
 31
-0.0000000017937957
  0
ARC
  5
2723
330
1F
100
AcDbEntity
  8
SANINDUSA
100
AcDbCircle
 10
8789.491994599261
 20
2025.558437575895
 30
-0.0000000017937957
 40
0.001
100
AcDbArc
 50
180.0
 51
270.0
  0
ARC
  5
2724
330
1F
100
AcDbEntity
  8
SANINDUSA
100
AcDbCircle
 10
8789.565994599259
 20
2025.551937575895
 30
-0.0000000017937957
 40
0.001
100
AcDbArc
 50
270.0
 51
0.0
  0
ARC
  5
2725
330
1F
100
AcDbEntity
  8
SANINDUSA
100
AcDbCircle
 10
8789.551994599261
 20
2025.551937575895
 30
-0.0000000017937957
 40
0.001
100
AcDbArc
 50
180.0
 51
270.0
  0
LINE
  5
2726
330
1F
100
AcDbEntity
  8
SANINDUSA
100
AcDbLine
 10
8789.565994599259
 20
2025.550937575895
 30
-0.0000000017937957
 11
8789.551994599261
 21
2025.550937575895
 31
-0.0000000017937957
  0
LINE
  5
2727
330
1F
100
AcDbEntity
  8
SANINDUSA
100
AcDbLine
 10
8789.62599459926
 20
2025.557437575895
 30
-0.0000000017937957
 11
8789.56788348815
 21
2025.557437575895
 31
-0.0000000017937957
  0
ARC
  5
2728
330
1F
100
AcDbEntity
  8
SANINDUSA
100
AcDbCircle
 10
8789.62599459926
 20
2025.558437575895
 30
-0.0000000017937957
 40
0.001
100
AcDbArc
 50
270.0
 51
0.0
  0
LINE
  5
2729
330
1F
100
AcDbEntity
  8
SANINDUSA
100
AcDbLine
 10
8789.491994599261
 20
2025.557437575895
 30
-0.0000000017937957
 11
8789.55099459926
 21
2025.557437575895
 31
-0.0000000017937957
  0
LINE
  5
272A
330
1F
100
AcDbEntity
  8
SANINDUSA
100
AcDbLine
 10
8789.56699459926
 20
2025.572937575895
 30
-0.0000000017937957
 11
8789.56699459926
 21
2025.551937575895
 31
-0.0000000017937957
  0
LINE
  5
272B
330
1F
100
AcDbEntity
  8
SANINDUSA
100
AcDbLine
 10
8789.55099459926
 20
2025.551937575895
 30
-0.0000000017937957
 11
8789.55099459926
 21
2025.572937575895
 31
-0.0000000017937957
  0
LINE
  5
272C
330
1F
100
AcDbEntity
  8
SANINDUSA
100
AcDbLine
 10
8789.626994599258
 20
2025.591437575895
 30
-0.0000000017937957
 11
8789.626994599258
 21
2025.558437575895
 31
-0.0000000017937957
  0
LINE
  5
272D
330
1F
100
AcDbEntity
  8
SANINDUSA
100
AcDbLine
 10
8789.56788348815
 20
2025.557437575895
 30
-0.0000000017937957
 11
8789.56788348815
 21
2025.576937575895
 31
-0.0000000017937957
  0
LINE
  5
272E
330
1F
100
AcDbEntity
  8
SANINDUSA
100
AcDbLine
 10
8789.49099459926
 20
2025.591437575895
 30
-0.0000000017937957
 11
8789.49099459926
 21
2025.558437575895
 31
-0.0000000017937957
  0
ARC
  5
2730
330
1F
100
AcDbEntity
  8
SANINDUSA
100
AcDbCircle
 10
8789.491994599261
 20
2024.331437575904
 30
-0.0000000017937957
 40
0.001
100
AcDbArc
 50
90.0
 51
180.0
  0
LINE
  5
2731
330
1F
100
AcDbEntity
  8
SANINDUSA
100
AcDbLine
 10
8789.49099459926
 20
2024.331437575904
 30
-0.0000000017937957
 11
8789.49099459926
 21
2024.298437575905
 31
-0.0000000017937957
  0
ARC
  5
2732
330
1F
100
AcDbEntity
  8
SANINDUSA
100
AcDbCircle
 10
8789.491994599261
 20
2024.298437575905
 30
-0.0000000017937957
 40
0.001
100
AcDbArc
 50
180.0
 51
270.0
  0
ARC
  5
2733
330
1F
100
AcDbEntity
  8
SANINDUSA
100
AcDbCircle
 10
8789.565994599259
 20
2024.337937575904
 30
-0.0000000017937957
 40
0.001
100
AcDbArc
 50
0.0
 51
90.0
  0
ARC
  5
2734
330
1F
100
AcDbEntity
  8
SANINDUSA
100
AcDbCircle
 10
8789.551994599261
 20
2024.337937575904
 30
-0.0000000017937957
 40
0.001
100
AcDbArc
 50
90.0
 51
180.0
  0
LINE
  5
2735
330
1F
100
AcDbEntity
  8
SANINDUSA
100
AcDbLine
 10
8789.56699459926
 20
2024.332437575905
 30
-0.0000000017937957
 11
8789.62599459926
 21
2024.332437575905
 31
-0.0000000017937957
  0
LINE
  5
2736
330
1F
100
AcDbEntity
  8
SANINDUSA
100
AcDbLine
 10
8789.62599459926
 20
2024.297437575905
 30
-0.0000000017937957
 11
8789.56788348815
 21
2024.297437575905
 31
-0.0000000017937957
  0
ARC
  5
2737
330
1F
100
AcDbEntity
  8
SANINDUSA
100
AcDbCircle
 10
8789.62599459926
 20
2024.331437575904
 30
-0.0000000017937957
 40
0.001
100
AcDbArc
 50
0.0
 51
90.0
  0
ARC
  5
2738
330
1F
100
AcDbEntity
  8
SANINDUSA
100
AcDbCircle
 10
8789.62599459926
 20
2024.298437575905
 30
-0.0000000017937957
 40
0.001
100
AcDbArc
 50
270.0
 51
0.0
  0
LINE
  5
2739
330
1F
100
AcDbEntity
  8
SANINDUSA
100
AcDbLine
 10
8789.626994599258
 20
2024.331437575904
 30
-0.0000000017937957
 11
8789.626994599258
 21
2024.298437575905
 31
-0.0000000017937957
  0
LINE
  5
273A
330
1F
100
AcDbEntity
  8
SANINDUSA
100
AcDbLine
 10
8789.56699459926
 20
2024.337937575904
 30
-0.0000000017937957
 11
8789.56699459926
 21
2024.332437575905
 31
-0.0000000017937957
  0
LINE
  5
273B
330
1F
100
AcDbEntity
  8
SANINDUSA
100
AcDbLine
 10
8789.56699459926
 20
2024.312937575905
 30
-0.0000000017937957
 11
8789.56699459926
 21
2024.291937575904
 31
-0.0000000017937957
  0
LINE
  5
273C
330
1F
100
AcDbEntity
  8
SANINDUSA
100
AcDbLine
 10
8789.56788348815
 20
2024.297437575905
 30
-0.0000000017937957
 11
8789.56788348815
 21
2024.316937575905
 31
-0.0000000017937957
  0
ARC
  5
273D
330
1F
100
AcDbEntity
  8
SANINDUSA
100
AcDbCircle
 10
8789.565994599259
 20
2024.291937575904
 30
-0.0000000017937957
 40
0.001
100
AcDbArc
 50
270.0
 51
0.0
  0
LINE
  5
273E
330
1F
100
AcDbEntity
  8
SANINDUSA
100
AcDbLine
 10
8789.566494599259
 20
2024.316937575905
 30
-0.0000000017937957
 11
8789.566494599259
 21
2024.312937575905
 31
-0.0000000017937957
  0
LINE
  5
273F
330
1F
100
AcDbEntity
  8
SANINDUSA
100
AcDbLine
 10
8789.56699459926
 20
2024.332437575905
 30
-0.0000000017937957
 11
8789.56699459926
 21
2024.316937575905
 31
-0.0000000017937957
  0
LINE
  5
2740
330
1F
100
AcDbEntity
  8
SANINDUSA
100
AcDbLine
 10
8789.551994599261
 20
2024.338937575905
 30
-0.0000000017937957
 11
8789.565994599259
 21
2024.338937575905
 31
-0.0000000017937957
  0
LINE
  5
2741
330
1F
100
AcDbEntity
  8
SANINDUSA
100
AcDbLine
 10
8789.55099459926
 20
2024.291937575904
 30
-0.0000000017937957
 11
8789.55099459926
 21
2024.312937575905
 31
-0.0000000017937957
  0
ARC
  5
2742
330
1F
100
AcDbEntity
  8
SANINDUSA
100
AcDbCircle
 10
8789.551994599261
 20
2024.291937575904
 30
-0.0000000017937957
 40
0.001
100
AcDbArc
 50
180.0
 51
270.0
  0
LINE
  5
2743
330
1F
100
AcDbEntity
  8
SANINDUSA
100
AcDbLine
 10
8789.55149459926
 20
2024.316937575905
 30
-0.0000000017937957
 11
8789.55149459926
 21
2024.312937575905
 31
-0.0000000017937957
  0
LINE
  5
2744
330
1F
100
AcDbEntity
  8
SANINDUSA
100
AcDbLine
 10
8789.55099459926
 20
2024.312937575905
 30
-0.0000000017937957
 11
8789.55010571037
 21
2024.312937575905
 31
-0.0000000017937957
  0
LINE
  5
2745
330
1F
100
AcDbEntity
  8
SANINDUSA
100
AcDbLine
 10
8789.565994599259
 20
2024.290937575905
 30
-0.0000000017937957
 11
8789.551994599261
 21
2024.290937575905
 31
-0.0000000017937957
  0
LINE
  5
2746
330
1F
100
AcDbEntity
  8
SANINDUSA
100
AcDbLine
 10
8789.56788348815
 20
2024.316937575905
 30
-0.0000000017937957
 11
8789.55099459926
 21
2024.316937575905
 31
-0.0000000017937957
  0
LINE
  5
2747
330
1F
100
AcDbEntity
  8
SANINDUSA
100
AcDbLine
 10
8789.55099459926
 20
2024.312937575905
 30
-0.0000000017937957
 11
8789.56699459926
 21
2024.312937575905
 31
-0.0000000017937957
  0
LINE
  5
2748
330
1F
100
AcDbEntity
  8
SANINDUSA
100
AcDbLine
 10
8789.55099459926
 20
2024.316937575905
 30
-0.0000000017937957
 11
8789.55099459926
 21
2024.337937575904
 31
-0.0000000017937957
  0
LINE
  5
2749
330
1F
100
AcDbEntity
  8
SANINDUSA
100
AcDbLine
 10
8789.55010571037
 20
2024.312937575905
 30
-0.0000000017937957
 11
8789.55010571037
 21
2024.332437575905
 31
-0.0000000017937957
  0
LINE
  5
274A
330
1F
100
AcDbEntity
  8
SANINDUSA
100
AcDbLine
 10
8789.55010571037
 20
2024.332437575905
 30
-0.0000000017937957
 11
8789.491994599261
 21
2024.332437575905
 31
-0.0000000017937957
  0
LINE
  5
274B
330
1F
100
AcDbEntity
  8
SANINDUSA
100
AcDbLine
 10
8789.491994599261
 20
2024.297437575905
 30
-0.0000000017937957
 11
8789.55099459926
 21
2024.297437575905
 31
-0.0000000017937957
  0
LINE
  5
2751
330
1F
100
AcDbEntity
  8
SANINDUSA
  6
Continuous
100
AcDbLine
 10
8789.56049459926
 20
2025.869937575905
 30
0.0
 11
8790.200935463872
 21
2025.869937575905
 31
0.0
  0
LINE
  5
2752
330
1F
100
AcDbEntity
  8
SANINDUSA
100
AcDbLine
 10
8789.56049459926
 20
2024.029937575904
 30
0.0
 11
8790.184898822046
 21
2024.029937575904
 31
0.0
  0
LINE
  5
2754
330
1F
100
AcDbEntity
  8
SANINDUSA
  6
Continuous
100
AcDbLine
 10
8788.824611811133
 20
2024.019937575904
 30
0.0
 11
8790.224935463871
 21
2024.019937575904
 31
0.0
  0
LINE
  5
2755
330
1F
100
AcDbEntity
  8
SANINDUSA
100
AcDbLine
 10
8790.174647855591
 20
2024.029937575904
 30
0.0
 11
8790.174647855591
 21
2025.869937575905
 31
0.0
  0
LINE
  5
2756
330
1F
100
AcDbEntity
  8
SANINDUSA
100
AcDbLine
 10
8790.206635463873
 20
2024.029937575904
 30
0.0
 11
8790.206635463873
 21
2025.869937575905
 31
0.0
  0
LINE
  5
2757
330
1F
100
AcDbEntity
  8
SANINDUSA
100
AcDbLine
 10
8790.212635463872
 20
2024.029937575904
 30
0.0
 11
8790.212635463872
 21
2025.869937575905
 31
0.0
  0
LINE
  5
2758
330
1F
100
AcDbEntity
  8
SANINDUSA
100
AcDbLine
 10
8790.224935463871
 20
2024.019937575904
 30
0.0
 11
8790.224935463871
 21
2025.869937575905
 31
0.0
  0
LINE
  5
2759
330
1F
100
AcDbEntity
  8
SANINDUSA
100
AcDbLine
 10
8790.185233797513
 20
2024.019937575904
 30
0.0
 11
8790.185233797513
 21
2025.869937575905
 31
0.0
  0
LINE
  5
275E
330
1F
100
AcDbEntity
  8
SANINDUSA
100
AcDbLine
 10
8790.206635463873
 20
2024.029937575904
 30
0.0
 11
8790.212635463872
 21
2024.029937575904
 31
0.0
  0
LINE
  5
275F
330
1F
100
AcDbEntity
  8
SANINDUSA
100
AcDbLine
 10
8790.200935463872
 20
2025.869937575905
 30
0.0
 11
8790.224935463871
 21
2025.869937575905
 31
0.0
  0
LINE
  5
2760
330
1F
100
AcDbEntity
  8
SANINDUSA
  6
Continuous
100
AcDbLine
 10
8789.56049459926
 20
2024.338937575905
 30
0.0
 11
8789.56049459926
 21
2025.550937575895
 31
0.0
  0
LINE
  5
2761
330
1F
100
AcDbEntity
  8
SANINDUSA
  6
Continuous
100
AcDbLine
 10
8789.557494599259
 20
2024.338937575905
 30
0.0
 11
8789.557494599259
 21
2025.550937575895
 31
0.0
  0
LINE
  5
2762
330
1F
100
AcDbEntity
  8
SANINDUSA
  6
Continuous
100
AcDbLine
 10
8788.879461811132
 20
2024.019937575904
 30
0.0
 11
8788.879461811132
 21
2025.869937575905
 31
0.0
  0
LINE
  5
2763
330
1F
100
AcDbEntity
  8
SANINDUSA
  6
Continuous
100
AcDbLine
 10
8788.824611811133
 20
2024.019937575904
 30
0.0
 11
8788.824611811133
 21
2025.869937575905
 31
0.0
  0
LINE
  5
2768
330
1F
100
AcDbEntity
  8
SANINDUSA
  6
Continuous
100
AcDbLine
 10
8789.557494599259
 20
2024.019937575904
 30
0.0
 11
8789.557494599259
 21
2024.290937575905
 31
0.0
  0
LINE
  5
2769
330
1F
100
AcDbEntity
  8
SANINDUSA
  6
Continuous
100
AcDbLine
 10
8789.56049459926
 20
2024.029937575904
 30
0.0
 11
8789.56049459926
 21
2024.290937575905
 31
0.0
  0
LINE
  5
276B
330
1F
100
AcDbEntity
  8
SANINDUSA
  6
Continuous
100
AcDbLine
 10
8788.824611811133
 20
2025.869937575905
 30
0.0
 11
8789.557494599259
 21
2025.869937575905
 31
0.0
  0
LINE
  5
276C
330
1F
100
AcDbEntity
  8
SANINDUSA
  6
Continuous
100
AcDbLine
 10
8789.557494599259
 20
2025.598937575895
 30
0.0
 11
8789.557494599259
 21
2025.869937575905
 31
0.0
  0
LINE
  5
276D
330
1F
100
AcDbEntity
  8
SANINDUSA
  6
Continuous
100
AcDbLine
 10
8789.56049459926
 20
2025.598937575895
 30
0.0
 11
8789.56049459926
 21
2025.869937575905
 31
0.0
  0
LINE
  5
276E
330
1F
100
AcDbEntity
  8
SANINDUSA
100
AcDbLine
 10
8790.222604778838
 20
2025.869937575905
 30
0.0
 11
8790.222604778838
 21
2024.019698404261
 31
0.0
  0
LINE
  5
276F
330
1F
100
AcDbEntity
  8
SANINDUSA
100
AcDbLine
 10
8790.148647855591
 20
2025.869937575905
 30
0.0000000001555553
 11
8790.148647855591
 21
2024.029937575904
 31
0.0000000001555553
  0
ARC
  5
286C
330
1F
100
AcDbEntity
  8
SANINDUSA
100
AcDbCircle
 10
8790.370139414031
 20
2024.758339170627
 30
0.0
 40
0.0009999999999999
100
AcDbArc
 50
90.0
 51
180.0
  0
LINE
  5
286D
330
1F
100
AcDbEntity
  8
SANINDUSA
100
AcDbLine
 10
8790.36913941403
 20
2024.75735338419
 30
0.0
 11
8790.36913941403
 21
2024.758339170627
 31
0.0
  0
LINE
  5
286E
330
1F
100
AcDbEntity
  8
SANINDUSA
100
AcDbLine
 10
8790.370139414031
 20
2024.759339170627
 30
0.0
 11
8790.405162718164
 21
2024.759339170627
 31
0.0
  0
ARC
  5
286F
330
1F
100
AcDbEntity
  8
SANINDUSA
100
AcDbCircle
 10
8790.370139414031
 20
2024.75735338419
 30
0.0
 40
0.0010000000000003
100
AcDbArc
 50
180.0
 51
225.0
  0
ARC
  5
2870
330
1F
100
AcDbEntity
  8
SANINDUSA
100
AcDbCircle
 10
8790.405162718164
 20
2024.758339170627
 30
0.0
 40
0.001
100
AcDbArc
 50
270.0
 51
90.0
  0
LINE
  5
2871
330
1F
100
AcDbEntity
  8
SANINDUSA
100
AcDbLine
 10
8790.370346520813
 20
2024.755732063846
 30
0.0
 11
8790.369432307249
 21
2024.756646277408
 31
0.0
  0
LINE
  5
2872
330
1F
100
AcDbEntity
  8
SANINDUSA
100
AcDbLine
 10
8790.405162718164
 20
2024.757339170627
 30
0.0
 11
8790.373639414033
 21
2024.757339170627
 31
0.0
  0
ARC
  5
2873
330
1F
100
AcDbEntity
  8
SANINDUSA
100
AcDbCircle
 10
8790.369639414031
 20
2024.755024957065
 30
0.0
 40
0.0010000000000003
100
AcDbArc
 50
0.0
 51
45.0
  0
ARC
  5
2874
330
1F
100
AcDbEntity
  8
SANINDUSA
100
AcDbCircle
 10
8790.373639414033
 20
2024.756339170627
 30
0.0
 40
0.001
100
AcDbArc
 50
90.0
 51
180.0
  0
LINE
  5
2875
330
1F
100
AcDbEntity
  8
SANINDUSA
100
AcDbLine
 10
8790.370639414032
 20
2024.751649830799
 30
0.0
 11
8790.370639414032
 21
2024.755024957065
 31
0.0
  0
LINE
  5
2876
330
1F
100
AcDbEntity
  8
SANINDUSA
100
AcDbLine
 10
8790.372639414032
 20
2024.756339170627
 30
0.0
 11
8790.372639414032
 21
2024.73847998435
 31
0.0
  0
ARC
  5
2877
330
1F
100
AcDbEntity
  8
SANINDUSA
100
AcDbCircle
 10
8790.370889414033
 20
2024.751649830799
 30
0.0
 40
0.0002500000000003
100
AcDbArc
 50
180.0
 51
225.0
  0
ARC
  5
2878
330
1F
100
AcDbEntity
  8
SANINDUSA
100
AcDbCircle
 10
8790.373639414033
 20
2024.73847998435
 30
0.0
 40
0.001
100
AcDbArc
 50
180.0
 51
272.1494579411624
  0
LINE
  5
2879
330
1F
100
AcDbEntity
  8
SANINDUSA
100
AcDbLine
 10
8790.371192967423
 20
2024.750992724018
 30
0.0
 11
8790.370712637338
 21
2024.751473054104
 31
0.0
  0
ARC
  5
287A
330
1F
100
AcDbEntity
  8
SANINDUSA
100
AcDbCircle
 10
8790.370049305595
 20
2024.834132730272
 30
0.0
 40
0.0967200954923435
100
AcDbArc
 50
272.1494579411624
 51
285.5601696169789
  0
ARC
  5
287B
330
1F
100
AcDbEntity
  8
SANINDUSA
100
AcDbCircle
 10
8790.370839414032
 20
2024.750639170627
 30
0.0
 40
0.0005
100
AcDbArc
 50
315.0
 51
45.0
  0
ARC
  5
287C
330
1F
100
AcDbEntity
  8
SANINDUSA
100
AcDbCircle
 10
8790.395860364792
 20
2024.741439170627
 30
0.0
 40
0.0005
100
AcDbArc
 50
285.5601696169789
 51
90.0
  0
LINE
  5
287D
330
1F
100
AcDbEntity
  8
SANINDUSA
100
AcDbLine
 10
8790.370712637338
 20
2024.749805287151
 30
0.0
 11
8790.371192967423
 21
2024.750285617237
 31
0.0
  0
LINE
  5
287E
330
1F
100
AcDbEntity
  8
SANINDUSA
100
AcDbLine
 10
8790.395860364792
 20
2024.741939170627
 30
0.0
 11
8790.383162718164
 21
2024.741939170627
 31
0.0
  0
ARC
  5
287F
330
1F
100
AcDbEntity
  8
SANINDUSA
100
AcDbCircle
 10
8790.370889414033
 20
2024.749628510456
 30
0.0
 40
0.00025
100
AcDbArc
 50
135.0
 51
180.0
  0
ARC
  5
2880
330
1F
100
AcDbEntity
  8
SANINDUSA
100
AcDbCircle
 10
8790.383162718164
 20
2024.742939170627
 30
0.0
 40
0.001
100
AcDbArc
 50
90.0
 51
270.0
  0
LINE
  5
2881
330
1F
100
AcDbEntity
  8
SANINDUSA
100
AcDbLine
 10
8790.370639414032
 20
2024.739439146966
 30
0.0
 11
8790.370639414032
 21
2024.749628510456
 31
0.0
  0
LINE
  5
2882
330
1F
100
AcDbEntity
  8
SANINDUSA
100
AcDbLine
 10
8790.383162718164
 20
2024.743939170627
 30
0.0
 11
8790.405162718164
 21
2024.743939170627
 31
0.0
  0
ARC
  5
2883
330
1F
100
AcDbEntity
  8
SANINDUSA
100
AcDbCircle
 10
8790.369639414031
 20
2024.739439146966
 30
0.0
 40
0.0010000000000003
100
AcDbArc
 50
314.9106959750516
 51
0.0
  0
ARC
  5
2884
330
1F
100
AcDbEntity
  8
SANINDUSA
100
AcDbCircle
 10
8790.405162718164
 20
2024.742939170627
 30
0.0
 40
0.001
100
AcDbArc
 50
291.0588352226754
 51
90.0
  0
LINE
  5
2885
330
1F
100
AcDbEntity
  8
SANINDUSA
100
AcDbLine
 10
8790.369438978713
 20
2024.737827321049
 30
0.0
 11
8790.370345417823
 21
2024.738730938912
 31
0.0
  0
ARC
  5
2886
330
1F
100
AcDbEntity
  8
SANINDUSA
100
AcDbCircle
 10
8790.370049305595
 20
2024.834132730272
 30
0.0
 40
0.0987200954923432
100
AcDbArc
 50
270.0522366345053
 51
291.0588352226754
  0
ARC
  5
2887
330
1F
100
AcDbEntity
  8
SANINDUSA
100
AcDbCircle
 10
8790.370144982503
 20
2024.737119112995
 30
0.0
 40
0.0010000000000003
100
AcDbArc
 50
134.9106959750516
 51
179.4659008954774
  0
ARC
  5
2888
330
1F
100
AcDbEntity
  8
SANINDUSA
100
AcDbCircle
 10
8790.370138397051
 20
2024.736412675392
 30
0.0
 40
0.001
100
AcDbArc
 50
179.4659008954774
 51
270.0522366345053
  0
LINE
  5
2889
330
1F
100
AcDbEntity
  8
SANINDUSA
100
AcDbLine
 10
8790.3691384405
 20
2024.736421997046
 30
0.0
 11
8790.36914502595
 21
2024.737128434647
 31
0.0
  0
LINE
  5
288C
330
1F
100
AcDbEntity
  8
SANINDUSA
100
AcDbLine
 10
8790.366789414033
 20
2024.735412675392
 30
0.0
 11
8790.366789414033
 21
2024.759339170627
 31
0.0
  0
LINE
  5
288D
330
1F
100
AcDbEntity
  8
SANINDUSA
100
AcDbLine
 10
8790.366789414033
 20
2024.735412675392
 30
0.0
 11
8790.367788294945
 21
2024.735412675392
 31
0.0
  0
LINE
  5
288E
330
1F
100
AcDbEntity
  8
SANINDUSA
100
AcDbLine
 10
8790.367789414032
 20
2024.759339170627
 30
0.0
 11
8790.366789414033
 21
2024.759339170627
 31
0.0
  0
ARC
  5
288F
330
1F
100
AcDbEntity
  8
SANINDUSA
100
AcDbCircle
 10
8790.367788294945
 20
2024.736412675392
 30
0.0
 40
0.0009999999999999
100
AcDbArc
 50
270.0
 51
359.4659008954774
  0
ARC
  5
2890
330
1F
100
AcDbEntity
  8
SANINDUSA
100
AcDbCircle
 10
8790.367789414032
 20
2024.758339170627
 30
0.0
 40
0.0009999999999999
100
AcDbArc
 50
0.0
 51
90.0
  0
LINE
  5
2891
330
1F
100
AcDbEntity
  8
SANINDUSA
100
AcDbLine
 10
8790.368788251496
 20
2024.736403353739
 30
0.0
 11
8790.368795041157
 21
2024.737131697226
 31
0.0
  0
LINE
  5
2892
330
1F
100
AcDbEntity
  8
SANINDUSA
100
AcDbLine
 10
8790.368789414033
 20
2024.75735338419
 30
0.0
 11
8790.368789414033
 21
2024.758339170627
 31
0.0
  0
ARC
  5
2893
330
1F
100
AcDbEntity
  8
SANINDUSA
100
AcDbCircle
 10
8790.370144982503
 20
2024.737119112995
 30
0.0
 40
0.00135
100
AcDbArc
 50
134.9106959750516
 51
179.4659008954774
  0
ARC
  5
2894
330
1F
100
AcDbEntity
  8
SANINDUSA
100
AcDbCircle
 10
8790.370139414031
 20
2024.75735338419
 30
0.0
 40
0.0013499999999998
100
AcDbArc
 50
180.0
 51
225.0
  0
LINE
  5
2895
330
1F
100
AcDbEntity
  8
SANINDUSA
100
AcDbLine
 10
8790.369191877386
 20
2024.738075193867
 30
0.0
 11
8790.370098316497
 21
2024.738978811731
 31
0.0
  0
LINE
  5
2896
330
1F
100
AcDbEntity
  8
SANINDUSA
100
AcDbLine
 10
8790.37009903344
 20
2024.755484576473
 30
0.0
 11
8790.369184819878
 21
2024.756398790035
 31
0.0
  0
ARC
  5
2897
330
1F
100
AcDbEntity
  8
SANINDUSA
100
AcDbCircle
 10
8790.369639414031
 20
2024.739439146966
 30
0.0
 40
0.0006500000000003
100
AcDbArc
 50
314.9106959750516
 51
0.0
  0
ARC
  5
2898
330
1F
100
AcDbEntity
  8
SANINDUSA
100
AcDbCircle
 10
8790.369639414031
 20
2024.755024957065
 30
0.0
 40
0.0006500000000003
100
AcDbArc
 50
0.0
 51
45.0
  0
LINE
  5
2899
330
1F
100
AcDbEntity
  8
SANINDUSA
100
AcDbLine
 10
8790.370289414033
 20
2024.739439146966
 30
0.0
 11
8790.370289414033
 21
2024.755024957065
 31
0.0
  0
LINE
  5
289A
330
1F
100
AcDbEntity
  8
SANINDUSA
100
AcDbLine
 10
8790.418764641323
 20
2024.754639170627
 30
0.0
 11
8790.416076028174
 21
2024.754639170627
 31
0.0
  0
ARC
  5
289B
330
1F
100
AcDbEntity
  8
SANINDUSA
100
AcDbCircle
 10
8790.418764641323
 20
2024.754139170627
 30
0.0
 40
0.0005000000000001
100
AcDbArc
 50
23.57817848029807
 51
90.0
  0
ARC
  5
289C
330
1F
100
AcDbEntity
  8
SANINDUSA
100
AcDbCircle
 10
8790.416076028174
 20
2024.754139170627
 30
0.0
 40
0.0005
100
AcDbArc
 50
90.0
 51
160.5287793619829
  0
ARC
  5
289D
330
1F
100
AcDbEntity
  8
SANINDUSA
100
AcDbCircle
 10
8790.420139414033
 20
2024.754739170627
 30
0.0
 40
0.0009999999999999
100
AcDbArc
 50
203.5781784802981
 51
0.0
  0
ARC
  5
289E
330
1F
100
AcDbEntity
  8
SANINDUSA
100
AcDbCircle
 10
8790.414661814612
 20
2024.754639170627
 30
0.0
 40
0.001
100
AcDbArc
 50
199.471220638017
 51
340.5287793619829
  0
LINE
  5
289F
330
1F
100
AcDbEntity
  8
SANINDUSA
100
AcDbLine
 10
8790.421139414034
 20
2024.754739170627
 30
0.0
 11
8790.421139414034
 21
2024.755639170627
 31
0.0
  0
ARC
  5
28A0
330
1F
100
AcDbEntity
  8
SANINDUSA
100
AcDbCircle
 10
8790.413247601049
 20
2024.754139170627
 30
0.0
 40
0.0004999999999999
100
AcDbArc
 50
19.47122063801706
 51
90.0
  0
ARC
  5
28A1
330
1F
100
AcDbEntity
  8
SANINDUSA
100
AcDbCircle
 10
8790.420139414033
 20
2024.755639170627
 30
0.0
 40
0.0009999999999999
100
AcDbArc
 50
0.0
 51
90.0
  0
LINE
  5
28A2
330
1F
100
AcDbEntity
  8
SANINDUSA
100
AcDbLine
 10
8790.413247601049
 20
2024.754639170627
 30
0.0
 11
8790.411661437792
 21
2024.754639170627
 31
0.0
  0
LINE
  5
28A3
330
1F
100
AcDbEntity
  8
SANINDUSA
100
AcDbLine
 10
8790.420139414033
 20
2024.756639170627
 30
0.0
 11
8790.388639414031
 21
2024.756639170627
 31
0.0
  0
ARC
  5
28A4
330
1F
100
AcDbEntity
  8
SANINDUSA
100
AcDbCircle
 10
8790.411661437792
 20
2024.754139170627
 30
0.0
 40
0.0005
100
AcDbArc
 50
90.0
 51
180.0
  0
ARC
  5
28A5
330
1F
100
AcDbEntity
  8
SANINDUSA
100
AcDbCircle
 10
8790.388639414031
 20
2024.755639170627
 30
0.0
 40
0.001
100
AcDbArc
 50
90.0
 51
270.0
  0
LINE
  5
28A6
330
1F
100
AcDbEntity
  8
SANINDUSA
100
AcDbLine
 10
8790.411161437793
 20
2024.754139170627
 30
0.0
 11
8790.411161437793
 21
2024.747139170627
 31
0.0
  0
LINE
  5
28A7
330
1F
100
AcDbEntity
  8
SANINDUSA
100
AcDbLine
 10
8790.388639414031
 20
2024.754639170627
 30
0.0
 11
8790.408661437792
 21
2024.754639170627
 31
0.0
  0
ARC
  5
28A8
330
1F
100
AcDbEntity
  8
SANINDUSA
100
AcDbCircle
 10
8790.411661437792
 20
2024.747139170627
 30
0.0
 40
0.0005
100
AcDbArc
 50
180.0
 51
270.0
  0
ARC
  5
28A9
330
1F
100
AcDbEntity
  8
SANINDUSA
100
AcDbCircle
 10
8790.408661437792
 20
2024.754139170627
 30
0.0
 40
0.0005000000000001
100
AcDbArc
 50
0.0
 51
90.0
  0
LINE
  5
28AA
330
1F
100
AcDbEntity
  8
SANINDUSA
100
AcDbLine
 10
8790.411661437792
 20
2024.746639170627
 30
0.0
 11
8790.413247601049
 21
2024.746639170627
 31
0.0
  0
LINE
  5
28AB
330
1F
100
AcDbEntity
  8
SANINDUSA
100
AcDbLine
 10
8790.409161437791
 20
2024.754139170627
 30
0.0
 11
8790.409161437791
 21
2024.747139170627
 31
0.0
  0
ARC
  5
28AC
330
1F
100
AcDbEntity
  8
SANINDUSA
100
AcDbCircle
 10
8790.413247601049
 20
2024.747139170627
 30
0.0
 40
0.0005
100
AcDbArc
 50
270.0
 51
340.5287793619829
  0
ARC
  5
28AD
330
1F
100
AcDbEntity
  8
SANINDUSA
100
AcDbCircle
 10
8790.408661437792
 20
2024.747139170627
 30
0.0
 40
0.0005000000000001
100
AcDbArc
 50
270.0
 51
0.0
  0
ARC
  5
28AE
330
1F
100
AcDbEntity
  8
SANINDUSA
100
AcDbCircle
 10
8790.414661814612
 20
2024.746639170627
 30
0.0
 40
0.001
100
AcDbArc
 50
19.47122063801706
 51
160.5287793619829
  0
LINE
  5
28AF
330
1F
100
AcDbEntity
  8
SANINDUSA
100
AcDbLine
 10
8790.408661437792
 20
2024.746639170627
 30
0.0
 11
8790.388639414031
 21
2024.746639170627
 31
0.0
  0
ARC
  5
28B0
330
1F
100
AcDbEntity
  8
SANINDUSA
100
AcDbCircle
 10
8790.416076028174
 20
2024.747139170627
 30
0.0
 40
0.0005
100
AcDbArc
 50
199.471220638017
 51
270.0
  0
ARC
  5
28B1
330
1F
100
AcDbEntity
  8
SANINDUSA
100
AcDbCircle
 10
8790.388639414031
 20
2024.745639170627
 30
0.0
 40
0.001
100
AcDbArc
 50
90.0
 51
270.0
  0
LINE
  5
28B2
330
1F
100
AcDbEntity
  8
SANINDUSA
100
AcDbLine
 10
8790.416076028174
 20
2024.746639170627
 30
0.0
 11
8790.418764641323
 21
2024.746639170627
 31
0.0
  0
LINE
  5
28B3
330
1F
100
AcDbEntity
  8
SANINDUSA
100
AcDbLine
 10
8790.388639414031
 20
2024.744639170627
 30
0.0
 11
8790.420139414033
 21
2024.744639170627
 31
0.0
  0
ARC
  5
28B4
330
1F
100
AcDbEntity
  8
SANINDUSA
100
AcDbCircle
 10
8790.418764641323
 20
2024.747139170627
 30
0.0
 40
0.0005000000000001
100
AcDbArc
 50
270.0
 51
336.4218215197019
  0
ARC
  5
28B5
330
1F
100
AcDbEntity
  8
SANINDUSA
100
AcDbCircle
 10
8790.420139414033
 20
2024.745639170627
 30
0.0
 40
0.0010000000000001
100
AcDbArc
 50
270.0
 51
0.0
  0
ARC
  5
28B6
330
1F
100
AcDbEntity
  8
SANINDUSA
100
AcDbCircle
 10
8790.420139414033
 20
2024.746539170627
 30
0.0
 40
0.0009999999999999
100
AcDbArc
 50
0.0
 51
156.4218215197019
  0
LINE
  5
28B7
330
1F
100
AcDbEntity
  8
SANINDUSA
100
AcDbLine
 10
8790.421139414034
 20
2024.745639170627
 30
0.0
 11
8790.421139414034
 21
2024.746539170627
 31
0.0
  0
ARC
  5
28B8
330
1F
100
AcDbEntity
  8
SANINDUSA
100
AcDbCircle
 10
8791.763434614033
 20
2024.758339163008
 30
0.0
 40
0.0009999999999999
100
AcDbArc
 50
0.0
 51
90.0
  0
LINE
  5
28B9
330
1F
100
AcDbEntity
  8
SANINDUSA
100
AcDbLine
 10
8791.763434614033
 20
2024.759339163008
 30
0.0
 11
8791.7284113099
 21
2024.759339163008
 31
0.0
  0
LINE
  5
28BA
330
1F
100
AcDbEntity
  8
SANINDUSA
100
AcDbLine
 10
8791.764434614032
 20
2024.75735337657
 30
0.0
 11
8791.764434614032
 21
2024.758339163008
 31
0.0
  0
ARC
  5
28BB
330
1F
100
AcDbEntity
  8
SANINDUSA
100
AcDbCircle
 10
8791.7284113099
 20
2024.758339163008
 30
0.0
 40
0.001
100
AcDbArc
 50
90.0
 51
270.0
  0
ARC
  5
28BC
330
1F
100
AcDbEntity
  8
SANINDUSA
100
AcDbCircle
 10
8791.763434614033
 20
2024.75735337657
 30
0.0
 40
0.0010000000000003
100
AcDbArc
 50
315.0
 51
0.0
  0
LINE
  5
28BD
330
1F
100
AcDbEntity
  8
SANINDUSA
100
AcDbLine
 10
8791.7284113099
 20
2024.757339163008
 30
0.0
 11
8791.759934614033
 21
2024.757339163008
 31
0.0
  0
LINE
  5
28BE
330
1F
100
AcDbEntity
  8
SANINDUSA
100
AcDbLine
 10
8791.763227507251
 20
2024.755732056227
 30
0.0
 11
8791.764141720815
 21
2024.756646269789
 31
0.0
  0
ARC
  5
28BF
330
1F
100
AcDbEntity
  8
SANINDUSA
100
AcDbCircle
 10
8791.759934614033
 20
2024.756339163008
 30
0.0
 40
0.001
100
AcDbArc
 50
0.0
 51
90.0
  0
ARC
  5
28C0
330
1F
100
AcDbEntity
  8
SANINDUSA
100
AcDbCircle
 10
8791.763934614033
 20
2024.755024949445
 30
0.0
 40
0.0010000000000003
100
AcDbArc
 50
135.0
 51
180.0
  0
LINE
  5
28C1
330
1F
100
AcDbEntity
  8
SANINDUSA
100
AcDbLine
 10
8791.760934614032
 20
2024.756339163008
 30
0.0
 11
8791.760934614032
 21
2024.738479976731
 31
0.0
  0
LINE
  5
28C2
330
1F
100
AcDbEntity
  8
SANINDUSA
100
AcDbLine
 10
8791.762934614032
 20
2024.75164982318
 30
0.0
 11
8791.762934614032
 21
2024.755024949445
 31
0.0
  0
ARC
  5
28C3
330
1F
100
AcDbEntity
  8
SANINDUSA
100
AcDbCircle
 10
8791.759934614033
 20
2024.738479976731
 30
0.0
 40
0.001
100
AcDbArc
 50
267.8505420588376
 51
0.0
  0
ARC
  5
28C4
330
1F
100
AcDbEntity
  8
SANINDUSA
100
AcDbCircle
 10
8791.762684614033
 20
2024.75164982318
 30
0.0
 40
0.0002500000000003
100
AcDbArc
 50
315.0
 51
0.0
  0
ARC
  5
28C5
330
1F
100
AcDbEntity
  8
SANINDUSA
100
AcDbCircle
 10
8791.763524722469
 20
2024.834132722653
 30
0.0
 40
0.0967200954923435
100
AcDbArc
 50
254.439830383021
 51
267.8505420588376
  0
LINE
  5
28C6
330
1F
100
AcDbEntity
  8
SANINDUSA
100
AcDbLine
 10
8791.762381060641
 20
2024.750992716398
 30
0.0
 11
8791.762861390727
 21
2024.751473046484
 31
0.0
  0
ARC
  5
28C7
330
1F
100
AcDbEntity
  8
SANINDUSA
100
AcDbCircle
 10
8791.737713663273
 20
2024.741439163008
 30
0.0
 40
0.0005
100
AcDbArc
 50
90.0
 51
254.439830383021
  0
ARC
  5
28C8
330
1F
100
AcDbEntity
  8
SANINDUSA
100
AcDbCircle
 10
8791.762734614032
 20
2024.750639163008
 30
0.0
 40
0.0005
100
AcDbArc
 50
135.0
 51
225.0
  0
LINE
  5
28C9
330
1F
100
AcDbEntity
  8
SANINDUSA
100
AcDbLine
 10
8791.737713663273
 20
2024.741939163008
 30
0.0
 11
8791.7504113099
 21
2024.741939163008
 31
0.0
  0
LINE
  5
28CA
330
1F
100
AcDbEntity
  8
SANINDUSA
100
AcDbLine
 10
8791.762861390727
 20
2024.749805279531
 30
0.0
 11
8791.762381060641
 21
2024.750285609617
 31
0.0
  0
ARC
  5
28CB
330
1F
100
AcDbEntity
  8
SANINDUSA
100
AcDbCircle
 10
8791.7504113099
 20
2024.742939163008
 30
0.0
 40
0.001
100
AcDbArc
 50
270.0
 51
90.0
  0
ARC
  5
28CC
330
1F
100
AcDbEntity
  8
SANINDUSA
100
AcDbCircle
 10
8791.762684614033
 20
2024.749628502836
 30
0.0
 40
0.00025
100
AcDbArc
 50
0.0
 51
45.0
  0
LINE
  5
28CD
330
1F
100
AcDbEntity
  8
SANINDUSA
100
AcDbLine
 10
8791.7504113099
 20
2024.743939163008
 30
0.0
 11
8791.7284113099
 21
2024.743939163008
 31
0.0
  0
LINE
  5
28CE
330
1F
100
AcDbEntity
  8
SANINDUSA
100
AcDbLine
 10
8791.762934614032
 20
2024.739439139346
 30
0.0
 11
8791.762934614032
 21
2024.749628502836
 31
0.0
  0
ARC
  5
28CF
330
1F
100
AcDbEntity
  8
SANINDUSA
100
AcDbCircle
 10
8791.7284113099
 20
2024.742939163008
 30
0.0
 40
0.001
100
AcDbArc
 50
90.0
 51
248.9411647773246
  0
ARC
  5
28D0
330
1F
100
AcDbEntity
  8
SANINDUSA
100
AcDbCircle
 10
8791.763934614033
 20
2024.739439139346
 30
0.0
 40
0.0010000000000003
100
AcDbArc
 50
180.0
 51
225.0893040249484
  0
ARC
  5
28D1
330
1F
100
AcDbEntity
  8
SANINDUSA
100
AcDbCircle
 10
8791.763524722469
 20
2024.834132722653
 30
0.0
 40
0.0987200954923432
100
AcDbArc
 50
248.9411647773246
 51
269.9477633654947
  0
LINE
  5
28D2
330
1F
100
AcDbEntity
  8
SANINDUSA
100
AcDbLine
 10
8791.764135049353
 20
2024.737827313429
 30
0.0
 11
8791.763228610241
 21
2024.738730931293
 31
0.0
  0
ARC
  5
28D3
330
1F
100
AcDbEntity
  8
SANINDUSA
100
AcDbCircle
 10
8791.763435631013
 20
2024.736412667773
 30
0.0
 40
0.001
100
AcDbArc
 50
269.9477633654947
 51
0.5340991045225789
  0
ARC
  5
28D4
330
1F
100
AcDbEntity
  8
SANINDUSA
100
AcDbCircle
 10
8791.763429045561
 20
2024.737119105376
 30
0.0
 40
0.0010000000000003
100
AcDbArc
 50
0.5340991045225789
 51
45.08930402494838
  0
LINE
  5
28D5
330
1F
100
AcDbEntity
  8
SANINDUSA
100
AcDbLine
 10
8791.764435587564
 20
2024.736421989426
 30
0.0
 11
8791.764429002114
 21
2024.737128427029
 31
0.0
  0
LINE
  5
28D6
330
1F
100
AcDbEntity
  8
SANINDUSA
100
AcDbLine
 10
8791.766784614031
 20
2024.735412667773
 30
0.0
 11
8791.766784614031
 21
2024.759339163008
 31
0.0
  0
LINE
  5
28D7
330
1F
100
AcDbEntity
  8
SANINDUSA
100
AcDbLine
 10
8791.765784614032
 20
2024.759339163008
 30
0.0
 11
8791.766784614031
 21
2024.759339163008
 31
0.0
  0
LINE
  5
28D8
330
1F
100
AcDbEntity
  8
SANINDUSA
100
AcDbLine
 10
8791.766784614031
 20
2024.735412667773
 30
0.0
 11
8791.765785733119
 21
2024.735412667773
 31
0.0
  0
ARC
  5
28D9
330
1F
100
AcDbEntity
  8
SANINDUSA
100
AcDbCircle
 10
8791.765784614032
 20
2024.758339163008
 30
0.0
 40
0.0009999999999999
100
AcDbArc
 50
90.0
 51
180.0
  0
ARC
  5
28DA
330
1F
100
AcDbEntity
  8
SANINDUSA
100
AcDbCircle
 10
8791.765785733119
 20
2024.736412667773
 30
0.0
 40
0.0009999999999999
100
AcDbArc
 50
180.5340991045226
 51
270.0
  0
LINE
  5
28DB
330
1F
100
AcDbEntity
  8
SANINDUSA
100
AcDbLine
 10
8791.764784614031
 20
2024.75735337657
 30
0.0
 11
8791.764784614031
 21
2024.758339163008
 31
0.0
  0
LINE
  5
28DC
330
1F
100
AcDbEntity
  8
SANINDUSA
100
AcDbLine
 10
8791.764785776569
 20
2024.73640334612
 30
0.0
 11
8791.764778986907
 21
2024.737131689607
 31
0.0
  0
ARC
  5
28DD
330
1F
100
AcDbEntity
  8
SANINDUSA
100
AcDbCircle
 10
8791.763434614033
 20
2024.75735337657
 30
0.0
 40
0.0013499999999998
100
AcDbArc
 50
315.0
 51
0.0
  0
ARC
  5
28DE
330
1F
100
AcDbEntity
  8
SANINDUSA
100
AcDbCircle
 10
8791.763429045561
 20
2024.737119105376
 30
0.0
 40
0.00135
100
AcDbArc
 50
0.5340991045225789
 51
45.08930402494838
  0
LINE
  5
28DF
330
1F
100
AcDbEntity
  8
SANINDUSA
100
AcDbLine
 10
8791.763474994624
 20
2024.755484568853
 30
0.0
 11
8791.764389208188
 21
2024.756398782416
 31
0.0
  0
LINE
  5
28E0
330
1F
100
AcDbEntity
  8
SANINDUSA
100
AcDbLine
 10
8791.764382150679
 20
2024.738075186248
 30
0.0
 11
8791.763475711569
 21
2024.738978804112
 31
0.0
  0
ARC
  5
28E1
330
1F
100
AcDbEntity
  8
SANINDUSA
100
AcDbCircle
 10
8791.763934614033
 20
2024.755024949445
 30
0.0
 40
0.0006500000000003
100
AcDbArc
 50
135.0
 51
180.0
  0
ARC
  5
28E2
330
1F
100
AcDbEntity
  8
SANINDUSA
100
AcDbCircle
 10
8791.763934614033
 20
2024.739439139346
 30
0.0
 40
0.0006500000000003
100
AcDbArc
 50
180.0
 51
225.0893040249484
  0
LINE
  5
28E3
330
1F
100
AcDbEntity
  8
SANINDUSA
100
AcDbLine
 10
8791.763284614033
 20
2024.739439139346
 30
0.0
 11
8791.763284614033
 21
2024.755024949445
 31
0.0
  0
ARC
  5
28E4
330
1F
100
AcDbEntity
  8
SANINDUSA
100
AcDbCircle
 10
8791.721285260278
 20
2024.746639163008
 30
0.0000000001555553
 40
0.0020000000000002
100
AcDbArc
 50
224.9999999723644
 51
270.0
  0
LINE
  5
28E5
330
1F
100
AcDbEntity
  8
SANINDUSA
100
AcDbLine
 10
8791.719871046714
 20
2024.745224949447
 30
0.0000000001555553
 11
8791.711523555528
 21
2024.753572440632
 31
0.0000000001555553
  0
ARC
  5
28E6
330
1F
100
AcDbEntity
  8
SANINDUSA
100
AcDbCircle
 10
8791.712937769093
 20
2024.754986654192
 30
0.0000000001555553
 40
0.0020000000000003
100
AcDbArc
 50
134.9999995854658
 51
224.9999999723644
  0
LINE
  5
28E7
330
1F
100
AcDbEntity
  8
SANINDUSA
100
AcDbLine
 10
8791.711523555539
 20
2024.756400867764
 30
0.0000000001555553
 11
8791.713876064365
 21
2024.758753376575
 31
0.0000000001555553
  0
ARC
  5
28E8
330
1F
100
AcDbEntity
  8
SANINDUSA
100
AcDbCircle
 10
8791.715290277924
 20
2024.757339163008
 30
0.0000000001555553
 40
0.002000000000001
100
AcDbArc
 50
90.0
 51
134.9999998341863
  0
LINE
  5
28E9
330
1F
100
AcDbEntity
  8
SANINDUSA
100
AcDbLine
 10
8791.715290277924
 20
2024.759339163008
 30
0.0000000001555553
 11
8791.720711309901
 21
2024.759339163008
 31
0.0000000001555553
  0
ARC
  5
28EA
330
1F
100
AcDbEntity
  8
SANINDUSA
100
AcDbCircle
 10
8791.720711309901
 20
2024.758339163008
 30
0.0000000001555553
 40
0.001
100
AcDbArc
 50
0.0
 51
90.0
  0
ARC
  5
28EB
330
1F
100
AcDbEntity
  8
SANINDUSA
100
AcDbCircle
 10
8791.7234113099
 20
2024.758339163008
 30
0.0000000001555553
 40
0.0016999999999998
100
AcDbArc
 50
180.0
 51
270.0
  0
LINE
  5
28EC
330
1F
100
AcDbEntity
  8
SANINDUSA
100
AcDbLine
 10
8791.7234113099
 20
2024.756639163008
 30
0.0000000001555553
 11
8791.754134614031
 21
2024.756639163008
 31
0.0000000001555553
  0
ARC
  5
28ED
330
1F
100
AcDbEntity
  8
SANINDUSA
100
AcDbCircle
 10
8791.754134614031
 20
2024.755339163008
 30
0.0000000001555553
 40
0.0013000000000011
100
AcDbArc
 50
0.0
 51
90.0
  0
LINE
  5
28EE
330
1F
100
AcDbEntity
  8
SANINDUSA
100
AcDbLine
 10
8791.755434614032
 20
2024.755339163008
 30
0.0000000001555553
 11
8791.755434614032
 21
2024.745939163008
 31
0.0000000001555553
  0
ARC
  5
28EF
330
1F
100
AcDbEntity
  8
SANINDUSA
100
AcDbCircle
 10
8791.754134614031
 20
2024.745939163008
 30
0.0000000001555553
 40
0.0013000000000011
100
AcDbArc
 50
270.0
 51
0.0
  0
LINE
  5
28F0
330
1F
100
AcDbEntity
  8
SANINDUSA
100
AcDbLine
 10
8791.754134614031
 20
2024.744639163008
 30
0.0000000001555553
 11
8791.721285260278
 21
2024.744639163008
 31
0.0000000001555553
  0
ARC
  5
28F1
330
1F
100
AcDbEntity
  8
SANINDUSA
100
AcDbCircle
 10
8791.720426347589
 20
2024.758039163008
 30
0.0000000001555553
 40
0.0002999999999992
100
AcDbArc
 50
5.739170478909057
 51
90.0
  0
ARC
  5
28F2
330
1F
100
AcDbEntity
  8
SANINDUSA
100
AcDbCircle
 10
8791.720426347589
 20
2024.758039163008
 30
0.0000000001555553
 40
0.0002999999999993
100
AcDbArc
 50
5.739170478909057
 51
90.0
  0
ARC
  5
28F3
330
1F
100
AcDbEntity
  8
SANINDUSA
100
AcDbCircle
 10
8791.7234113099
 20
2024.758339163008
 30
0.0000000001555553
 40
0.0027000000000004
100
AcDbArc
 50
185.7391704789091
 51
270.0
  0
LINE
  5
28F4
330
1F
100
AcDbEntity
  8
SANINDUSA
100
AcDbLine
 10
8791.7234113099
 20
2024.755639163008
 30
0.0000000001555553
 11
8791.754134614031
 21
2024.755639163008
 31
0.0000000001555553
  0
ARC
  5
28F5
330
1F
100
AcDbEntity
  8
SANINDUSA
100
AcDbCircle
 10
8791.754134614031
 20
2024.755339163008
 30
0.0000000001555553
 40
0.0003000000000006
100
AcDbArc
 50
0.0
 51
90.0
  0
LINE
  5
28F6
330
1F
100
AcDbEntity
  8
SANINDUSA
100
AcDbLine
 10
8791.754434614032
 20
2024.755339163008
 30
0.0000000001555553
 11
8791.754434614032
 21
2024.745939163008
 31
0.0000000001555553
  0
ARC
  5
28F7
330
1F
100
AcDbEntity
  8
SANINDUSA
100
AcDbCircle
 10
8791.754134614031
 20
2024.745939163008
 30
0.0000000001555553
 40
0.0003000000000002
100
AcDbArc
 50
270.0
 51
0.0
  0
LINE
  5
28F8
330
1F
100
AcDbEntity
  8
SANINDUSA
100
AcDbLine
 10
8791.754134614031
 20
2024.745639163008
 30
0.0000000001555553
 11
8791.721078153496
 21
2024.745639163008
 31
0.0000000001555553
  0
ARC
  5
28F9
330
1F
100
AcDbEntity
  8
SANINDUSA
100
AcDbCircle
 10
8791.721078153496
 20
2024.746139163008
 30
0.0000000001555553
 40
0.0005000000000007
100
AcDbArc
 50
224.9999999631525
 51
270.0
  0
LINE
  5
28FA
330
1F
100
AcDbEntity
  8
SANINDUSA
100
AcDbLine
 10
8791.720724600104
 20
2024.745785609618
 30
0.0000000001555553
 11
8791.71795822725
 21
2024.748551982479
 31
0.0000000001555553
  0
ARC
  5
28FB
330
1F
100
AcDbEntity
  8
SANINDUSA
100
AcDbCircle
 10
8791.718311780639
 20
2024.748905535867
 30
0.0000000001555553
 40
0.0004999999977743
100
AcDbArc
 50
135.0000004513816
 51
224.9999998710338
  0
LINE
  5
28FC
330
1F
100
AcDbEntity
  8
SANINDUSA
100
AcDbLine
 10
8791.717958227248
 20
2024.749259089253
 30
0.0000000001555553
 11
8791.719372440802
 21
2024.750673302835
 31
0.0000000001555553
  0
ARC
  5
28FD
330
1F
100
AcDbEntity
  8
SANINDUSA
100
AcDbCircle
 10
8791.718311780632
 20
2024.751733963008
 30
0.0000000001555553
 40
0.0014999999999996
100
AcDbArc
 50
314.9999999723644
 51
45.0
  0
LINE
  5
28FE
330
1F
100
AcDbEntity
  8
SANINDUSA
100
AcDbLine
 10
8791.719372440805
 20
2024.75279462318
 30
0.0000000001555553
 11
8791.718385807589
 21
2024.753781256382
 31
0.0000000001555553
  0
ARC
  5
28FF
330
1F
100
AcDbEntity
  8
SANINDUSA
100
AcDbCircle
 10
8791.7180322542
 20
2024.753427702991
 30
0.0000000001555553
 40
0.0005000000000001
100
AcDbArc
 50
45.0
 51
225.0
  0
LINE
  5
2900
330
1F
100
AcDbEntity
  8
SANINDUSA
100
AcDbLine
 10
8791.717678700809
 20
2024.753074149601
 30
0.0000000001555553
 11
8791.718665334023
 21
2024.752087516386
 31
0.0000000001555553
  0
ARC
  5
2901
330
1F
100
AcDbEntity
  8
SANINDUSA
100
AcDbCircle
 10
8791.718311780632
 20
2024.751733962995
 30
0.0000000001555553
 40
0.0004999999999988
100
AcDbArc
 50
314.9999999815762
 51
45.0
  0
LINE
  5
2902
330
1F
100
AcDbEntity
  8
SANINDUSA
100
AcDbLine
 10
8791.718665334023
 20
2024.751380409604
 30
0.0000000001555553
 11
8791.718028937919
 21
2024.750744013501
 31
0.0000000001555553
  0
ARC
  5
2903
330
1F
100
AcDbEntity
  8
SANINDUSA
100
AcDbCircle
 10
8791.717675384528
 20
2024.751097566892
 30
0.0000000001555553
 40
0.000500000000024
100
AcDbArc
 50
225.0
 51
314.9999999815762
  0
LINE
  5
2904
330
1F
100
AcDbEntity
  8
SANINDUSA
100
AcDbLine
 10
8791.717321831139
 20
2024.750744013502
 30
0.0000000001555553
 11
8791.717038988423
 21
2024.751026856216
 31
0.0000000001555553
  0
ARC
  5
2905
330
1F
100
AcDbEntity
  8
SANINDUSA
100
AcDbCircle
 10
8791.716897567066
 20
2024.75088543486
 30
0.0000000001555553
 40
0.0002000000000003
100
AcDbArc
 50
45.0
 51
135.0
  0
LINE
  5
2906
330
1F
100
AcDbEntity
  8
SANINDUSA
100
AcDbLine
 10
8791.716756145712
 20
2024.751026856216
 30
0.0000000001555553
 11
8791.716331881643
 21
2024.750602592147
 31
0.0000000001555553
  0
ARC
  5
2907
330
1F
100
AcDbEntity
  8
SANINDUSA
100
AcDbCircle
 10
8791.715978328252
 20
2024.750956145538
 30
0.0000000001555553
 40
0.0005000000000001
100
AcDbArc
 50
225.0
 51
315.0
  0
LINE
  5
2908
330
1F
100
AcDbEntity
  8
SANINDUSA
100
AcDbLine
 10
8791.715624774861
 20
2024.750602592147
 30
0.0000000001555553
 11
8791.712513505023
 21
2024.753713861985
 31
0.0000000001555553
  0
ARC
  5
2909
330
1F
100
AcDbEntity
  8
SANINDUSA
100
AcDbCircle
 10
8791.712867058414
 20
2024.754067415376
 30
0.0000000001555553
 40
0.0004999999999994
100
AcDbArc
 50
135.0
 51
225.0
  0
LINE
  5
290A
330
1F
100
AcDbEntity
  8
SANINDUSA
100
AcDbLine
 10
8791.712513505023
 20
2024.754420968766
 30
0.0000000001555553
 11
8791.712937769093
 21
2024.754845232833
 31
0.0000000001555553
  0
ARC
  5
290B
330
1F
100
AcDbEntity
  8
SANINDUSA
100
AcDbCircle
 10
8791.712796347736
 20
2024.754986654189
 30
0.0000000001555553
 40
0.0002000000000003
100
AcDbArc
 50
315.0
 51
45.00000013817804
  0
LINE
  5
290C
330
1F
100
AcDbEntity
  8
SANINDUSA
100
AcDbLine
 10
8791.712937769093
 20
2024.755128075546
 30
0.0000000001555553
 11
8791.71265492638
 21
2024.755410918258
 31
0.0000000001555553
  0
ARC
  5
290D
330
1F
100
AcDbEntity
  8
SANINDUSA
100
AcDbCircle
 10
8791.713008479771
 20
2024.755764471649
 30
0.0000000001555553
 40
0.0005000000000001
100
AcDbArc
 50
135.0000001750255
 51
225.0
  0
LINE
  5
290E
330
1F
100
AcDbEntity
  8
SANINDUSA
100
AcDbLine
 10
8791.71265492638
 20
2024.756118025038
 30
0.0000000001555553
 11
8791.713291322478
 21
2024.756754421144
 31
0.0000000001555553
  0
ARC
  5
290F
330
1F
100
AcDbEntity
  8
SANINDUSA
100
AcDbCircle
 10
8791.713644875867
 20
2024.756400867753
 30
0.0000000001555553
 40
0.0005000000000007
100
AcDbArc
 50
45.0
 51
135.0
  0
LINE
  5
2910
330
1F
100
AcDbEntity
  8
SANINDUSA
100
AcDbLine
 10
8791.713998429258
 20
2024.756754421144
 30
0.0000000001555553
 11
8791.71498463892
 21
2024.755768211484
 31
0.0000000001555553
  0
ARC
  5
2911
330
1F
100
AcDbEntity
  8
SANINDUSA
100
AcDbCircle
 10
8791.715338192311
 20
2024.756121764875
 30
0.0000000001555553
 40
0.0004999999999994
100
AcDbArc
 50
225.0
 51
45.0
  0
LINE
  5
2912
330
1F
100
AcDbEntity
  8
SANINDUSA
100
AcDbLine
 10
8791.715691745702
 20
2024.756475318266
 30
0.0000000001555553
 11
8791.714681454349
 21
2024.757485609617
 31
0.0000000001555553
  0
ARC
  5
2913
330
1F
100
AcDbEntity
  8
SANINDUSA
100
AcDbCircle
 10
8791.715035007738
 20
2024.757839163008
 30
0.0000000001555553
 40
0.0005000000000001
100
AcDbArc
 50
90.0
 51
225.0
  0
LINE
  5
2914
330
1F
100
AcDbEntity
  8
SANINDUSA
100
AcDbLine
 10
8791.715035007738
 20
2024.758339163008
 30
0.0000000001555553
 11
8791.720426347589
 21
2024.758339163008
 31
0.0000000001555553
  0
LINE
  5
2915
330
1F
100
AcDbEntity
  8
SANINDUSA
100
AcDbLine
 10
8791.712904551692
 20
2024.755943386285
 30
0.0000000001555553
 11
8791.713611658472
 21
2024.756650493066
 31
0.0000000001555553
  0
LINE
  5
2916
330
1F
100
AcDbEntity
  8
SANINDUSA
100
AcDbLine
 10
8791.713611658472
 20
2024.755236279504
 30
0.0000000001555553
 11
8791.712904551692
 21
2024.755943386285
 31
0.0000000001555553
  0
LINE
  5
2917
330
1F
100
AcDbEntity
  8
SANINDUSA
100
AcDbLine
 10
8791.713611658472
 20
2024.756650493066
 30
0.0000000001555553
 11
8791.718561405941
 21
2024.751700745598
 31
0.0000000001555553
  0
LINE
  5
2918
330
1F
100
AcDbEntity
  8
SANINDUSA
100
AcDbLine
 10
8791.712550998303
 20
2024.754175619332
 30
0.0000000001555553
 11
8791.713611658472
 21
2024.755236279504
 31
0.0000000001555553
  0
LINE
  5
2919
330
1F
100
AcDbEntity
  8
SANINDUSA
100
AcDbLine
 10
8791.718561405941
 20
2024.751700745598
 30
0.0000000001555553
 11
8791.717854299161
 21
2024.750993638817
 31
0.0000000001555553
  0
LINE
  5
291A
330
1F
100
AcDbEntity
  8
SANINDUSA
100
AcDbLine
 10
8791.716086532208
 20
2024.750640085426
 30
0.0000000001555553
 11
8791.712550998303
 21
2024.754175619332
 31
0.0000000001555553
  0
LINE
  5
291B
330
1F
100
AcDbEntity
  8
SANINDUSA
100
AcDbLine
 10
8791.717854299161
 20
2024.750993638817
 30
0.0000000001555553
 11
8791.717147192379
 21
2024.751700745598
 31
0.0000000001555553
  0
LINE
  5
291C
330
1F
100
AcDbEntity
  8
SANINDUSA
100
AcDbLine
 10
8791.717147192379
 20
2024.751700745598
 30
0.0000000001555553
 11
8791.716086532208
 21
2024.750640085426
 31
0.0000000001555553
  0
ENDSEC
  0
SECTION
  2
OBJECTS
  0
DICTIONARY
  5
C
330
0
100
AcDbDictionary
281
     1
  3
ACAD_2007HEADERVARS_RT
350
2AB3
  3
ACAD_COLOR
350
EE6
  3
ACAD_GROUP
350
D
  3
ACAD_LAYOUT
350
1A
  3
ACAD_MATERIAL
350
EE5
  3
ACAD_MLEADERSTYLE
350
2A14
  3
ACAD_MLINESTYLE
350
17
  3
ACAD_PLOTSETTINGS
350
19
  3
ACAD_PLOTSTYLENAME
350
E
  3
ACAD_SCALELIST
350
2A02
  3
ACAD_TABLESTYLE
350
EE7
  3
ACAD_VISUALSTYLE
350
29EE
  3
ACDB_RECOMPOSE_DATA
350
2AB1
  3
AcDbVariableDictionary
350
3D
  3
ASE_INDEX_DICTIONARY
350
E77
  3
DWGPROPS
350
2AB2
  0
DICTIONARY
  5
1051
330
2
100
AcDbDictionary
280
     1
281
     1
  3
ACAD_LAYERFILTERS
360
1057
  3
ACLYDICTIONARY
360
1056
  0
DICTIONARY
  5
2A4A
330
10
100
AcDbDictionary
280
     1
281
     1
  3
ADSK_XREC_LAYER_RECONCILED
360
2A4B
  0
DICTIONARY
  5
2A4C
330
2F
100
AcDbDictionary
280
     1
281
     1
  3
ADSK_XREC_LAYER_RECONCILED
360
2A4D
  0
DICTIONARY
  5
2A4E
330
30
100
AcDbDictionary
280
     1
281
     1
  3
ADSK_XREC_LAYER_RECONCILED
360
2A4F
  0
DICTIONARY
  5
2A50
330
31
100
AcDbDictionary
280
     1
281
     1
  3
ADSK_XREC_LAYER_RECONCILED
360
2A51
  0
DICTIONARY
  5
2A52
330
32
100
AcDbDictionary
280
     1
281
     1
  3
ADSK_XREC_LAYER_RECONCILED
360
2A53
  0
DICTIONARY
  5
2A54
330
33
100
AcDbDictionary
280
     1
281
     1
  3
ADSK_XREC_LAYER_RECONCILED
360
2A55
  0
DICTIONARY
  5
2A56
330
34
100
AcDbDictionary
280
     1
281
     1
  3
ADSK_XREC_LAYER_RECONCILED
360
2A57
  0
DICTIONARY
  5
2A58
330
35
100
AcDbDictionary
280
     1
281
     1
  3
ADSK_XREC_LAYER_RECONCILED
360
2A59
  0
DICTIONARY
  5
2A5A
330
36
100
AcDbDictionary
280
     1
281
     1
  3
ADSK_XREC_LAYER_RECONCILED
360
2A5B
  0
DICTIONARY
  5
2A5C
330
37
100
AcDbDictionary
280
     1
281
     1
  3
ADSK_XREC_LAYER_RECONCILED
360
2A5D
  0
DICTIONARY
  5
2A5E
330
5D6
100
AcDbDictionary
280
     1
281
     1
  3
ADSK_XREC_LAYER_RECONCILED
360
2A5F
  0
DICTIONARY
  5
2A60
330
8AF
100
AcDbDictionary
280
     1
281
     1
  3
ADSK_XREC_LAYER_RECONCILED
360
2A61
  0
DICTIONARY
  5
2A62
330
8F8
100
AcDbDictionary
280
     1
281
     1
  3
ADSK_XREC_LAYER_RECONCILED
360
2A63
  0
DICTIONARY
  5
2A64
330
91D
100
AcDbDictionary
280
     1
281
     1
  3
ADSK_XREC_LAYER_RECONCILED
360
2A65
  0
DICTIONARY
  5
2A66
330
C7B
100
AcDbDictionary
280
     1
281
     1
  3
ADSK_XREC_LAYER_RECONCILED
360
2A67
  0
DICTIONARY
  5
2A68
330
10DD
100
AcDbDictionary
280
     1
281
     1
  3
ADSK_XREC_LAYER_RECONCILED
360
2A69
  0
DICTIONARY
  5
288A
330
1F
100
AcDbDictionary
280
     1
281
     1
  3
ACAD_SORTENTS
360
288B
  0
DICTIONARY
  5
2ABC
330
285D
100
AcDbDictionary
280
     1
281
     1
  3
ACAD_MTEXT_RT
360
2ABD
  0
DICTIONARY
  5
2AB3
102
{ACAD_REACTORS
330
C
102
}
330
C
100
AcDbDictionary
281
     1
  3
DIMJOGANG
350
2AB4
  0
DICTIONARY
  5
EE6
102
{ACAD_REACTORS
330
C
102
}
330
C
100
AcDbDictionary
281
     1
  0
DICTIONARY
  5
D
102
{ACAD_REACTORS
330
C
102
}
330
C
100
AcDbDictionary
281
     1
  0
DICTIONARY
  5
1A
102
{ACAD_REACTORS
330
C
102
}
330
C
100
AcDbDictionary
281
     1
  3
Layout1
350
1E
  3
Layout2
350
26
  3
Model
350
22
  0
DICTIONARY
  5
EE5
102
{ACAD_REACTORS
330
C
102
}
330
C
100
AcDbDictionary
281
     1
  3
ByBlock
350
29DE
  3
ByLayer
350
29D6
  3
Global
350
29E6
  0
DICTIONARY
  5
2A14
102
{ACAD_REACTORS
330
C
102
}
330
C
100
AcDbDictionary
281
     1
  3
Standard
350
2A15
  0
DICTIONARY
  5
17
102
{ACAD_REACTORS
330
C
102
}
330
C
100
AcDbDictionary
281
     1
  3
Standard
350
18
  0
DICTIONARY
  5
19
102
{ACAD_REACTORS
330
C
102
}
330
C
100
AcDbDictionary
281
     1
  0
ACDBDICTIONARYWDFLT
  5
E
102
{ACAD_REACTORS
330
C
102
}
330
C
100
AcDbDictionary
281
     1
  3
Normal
350
F
100
AcDbDictionaryWithDefault
340
F
  0
DICTIONARY
  5
2A02
102
{ACAD_REACTORS
330
C
102
}
330
C
100
AcDbDictionary
281
     1
  3
A0
350
2A03
  3
A1
350
2A04
  3
A2
350
2A05
  3
A3
350
2A06
  3
A4
350
2A07
  3
A5
350
2A08
  3
A6
350
2A09
  3
A7
350
2A0A
  3
A8
350
2A0B
  3
A9
350
2A0C
  3
B0
350
2A0D
  3
B1
350
2A0E
  3
B2
350
2A0F
  3
B3
350
2A10
  3
B4
350
2A11
  3
B5
350
2A12
  3
B6
350
2A13
  0
DICTIONARY
  5
EE7
102
{ACAD_REACTORS
330
C
102
}
330
C
100
AcDbDictionary
281
     1
  3
Standard
350
EE8
  0
DICTIONARY
  5
29EE
102
{ACAD_REACTORS
330
C
102
}
330
C
100
AcDbDictionary
281
     1
  3
2dWireframe
350
29F4
  3
3D Hidden
350
29F6
  3
3dWireframe
350
29F5
  3
Basic
350
29F3
  3
Brighten
350
29FA
  3
ColorChange
350
29FE
  3
Conceptual
350
29F7
  3
Dim
350
29F9
  3
EdgeColorOff
350
2A01
  3
Facepattern
350
29FD
  3
Flat
350
29EF
  3
FlatWithEdges
350
29F0
  3
Gouraud
350
29F1
  3
GouraudWithEdges
350
29F2
  3
JitterOff
350
29FF
  3
Linepattern
350
29FC
  3
OverhangOff
350
2A00
  3
Realistic
350
29F8
  3
Thicken
350
29FB
  0
XRECORD
  5
2AB1
102
{ACAD_REACTORS
330
C
102
}
330
C
100
AcDbXrecord
280
     1
 90
        1
330
EE8
  0
DICTIONARY
  5
3D
102
{ACAD_REACTORS
330
C
102
}
330
C
100
AcDbDictionary
281
     1
  3
CANNOSCALE
350
2AAB
  3
CMLEADERSTYLE
350
2AAA
  3
CTABLESTYLE
350
1049
  3
DIMASSOC
350
3F
  3
HIDETEXT
350
3E
  3
INDEXCTL
350
2AAD
  3
PROJECTNAME
350
2925
  3
SORTENTS
350
2AAC
  3
XCLIPFRAME
350
2AAE
  0
DICTIONARY
  5
E77
102
{ACAD_REACTORS
330
C
102
}
330
C
100
AcDbDictionary
281
     1
  3
ASEBlockHierarchyIndexRecord
350
E78
1001
DCO15
1040
1552647238.734
  0
XRECORD
  5
2AB2
102
{ACAD_REACTORS
330
C
102
}
330
C
100
AcDbXrecord
280
     1
  1
DWGPROPS COOKIE
  2

  3

  4

  6

  7

  8
Julio
  9

300
=
301
=
302
=
303
=
304
=
305
=
306
=
307
=
308
=
309
=
 40
0.0898413888888889
 41
2454138.432731481
 42
2455824.627937998
  1

 90
        0
  0
DICTIONARY
  5
1057
102
{ACAD_REACTORS
330
1051
102
}
330
1051
100
AcDbDictionary
281
     1
  0
DICTIONARY
  5
1056
102
{ACAD_REACTORS
330
1051
102
}
330
1051
100
AcDbDictionary
281
     1
1001
ACAD
1000
<All
  0
XRECORD
  5
2A4B
102
{ACAD_REACTORS
330
2A4A
102
}
330
2A4A
100
AcDbXrecord
280
     1
290
     1
  0
XRECORD
  5
2A4D
102
{ACAD_REACTORS
330
2A4C
102
}
330
2A4C
100
AcDbXrecord
280
     1
290
     1
  0
XRECORD
  5
2A4F
102
{ACAD_REACTORS
330
2A4E
102
}
330
2A4E
100
AcDbXrecord
280
     1
290
     1
  0
XRECORD
  5
2A51
102
{ACAD_REACTORS
330
2A50
102
}
330
2A50
100
AcDbXrecord
280
     1
290
     1
  0
XRECORD
  5
2A53
102
{ACAD_REACTORS
330
2A52
102
}
330
2A52
100
AcDbXrecord
280
     1
290
     1
  0
XRECORD
  5
2A55
102
{ACAD_REACTORS
330
2A54
102
}
330
2A54
100
AcDbXrecord
280
     1
290
     1
  0
XRECORD
  5
2A57
102
{ACAD_REACTORS
330
2A56
102
}
330
2A56
100
AcDbXrecord
280
     1
290
     1
  0
XRECORD
  5
2A59
102
{ACAD_REACTORS
330
2A58
102
}
330
2A58
100
AcDbXrecord
280
     1
290
     1
  0
XRECORD
  5
2A5B
102
{ACAD_REACTORS
330
2A5A
102
}
330
2A5A
100
AcDbXrecord
280
     1
290
     1
  0
XRECORD
  5
2A5D
102
{ACAD_REACTORS
330
2A5C
102
}
330
2A5C
100
AcDbXrecord
280
     1
290
     1
  0
XRECORD
  5
2A5F
102
{ACAD_REACTORS
330
2A5E
102
}
330
2A5E
100
AcDbXrecord
280
     1
290
     1
  0
XRECORD
  5
2A61
102
{ACAD_REACTORS
330
2A60
102
}
330
2A60
100
AcDbXrecord
280
     1
290
     1
  0
XRECORD
  5
2A63
102
{ACAD_REACTORS
330
2A62
102
}
330
2A62
100
AcDbXrecord
280
     1
290
     1
  0
XRECORD
  5
2A65
102
{ACAD_REACTORS
330
2A64
102
}
330
2A64
100
AcDbXrecord
280
     1
290
     1
  0
XRECORD
  5
2A67
102
{ACAD_REACTORS
330
2A66
102
}
330
2A66
100
AcDbXrecord
280
     1
290
     1
  0
XRECORD
  5
2A69
102
{ACAD_REACTORS
330
2A68
102
}
330
2A68
100
AcDbXrecord
280
     1
290
     1
  0
SORTENTSTABLE
  5
288B
102
{ACAD_REACTORS
330
288A
102
}
330
288A
100
AcDbSortentsTable
330
1F
331
2729
  5
28D6
331
227D
  5
22C7
331
223F
  5
2289
331
225E
  5
22A8
331
2738
  5
28E5
331
2719
  5
28C6
331
228C
  5
22D6
331
2757
  5
2904
331
222F
  5
2279
331
224E
  5
2298
331
226D
  5
22B7
331
2747
  5
28F4
331
2728
  5
28D5
331
223E
  5
2288
331
225D
  5
22A7
331
227C
  5
22C6
331
2737
  5
28E4
331
2718
  5
28C5
331
226C
  5
22B6
331
2756
  5
2903
331
222E
  5
2278
331
224D
  5
2297
331
228B
  5
22D5
331
2746
  5
28F3
331
2727
  5
28D4
331
227B
  5
22C5
331
223D
  5
2287
331
225C
  5
22A6
331
2736
  5
28E3
331
2717
  5
28C4
331
228A
  5
22D4
331
2755
  5
2902
331
222D
  5
2277
331
224C
  5
2296
331
226B
  5
22B5
331
2745
  5
28F2
331
2726
  5
28D3
331
223C
  5
2286
331
225B
  5
22A5
331
227A
  5
22C4
331
2735
  5
28E2
331
2716
  5
28C3
331
226A
  5
22B4
331
2754
  5
2901
331
222C
  5
2276
331
224B
  5
2295
331
2289
  5
22D3
331
2744
  5
28F1
331
2725
  5
28D2
331
2279
  5
22C3
331
223B
  5
2285
331
225A
  5
22A4
331
2763
  5
2910
331
2734
  5
28E1
331
2715
  5
28C2
331
2288
  5
22D2
331
22E5
  5
2394
331
222B
  5
2275
331
224A
  5
2294
331
2269
  5
22B3
331
2743
  5
28F0
331
2724
  5
28D1
331
223A
  5
2284
331
2259
  5
22A3
331
2278
  5
22C2
331
2762
  5
290F
331
2733
  5
28E0
331
2714
  5
28C1
331
2287
  5
22D1
331
2268
  5
22B2
331
2752
  5
28FF
331
22E4
  5
2393
331
222A
  5
2274
331
2249
  5
2293
331
28C7
  5
2334
331
2742
  5
28EF
331
2723
  5
28D0
331
2277
  5
22C1
331
2239
  5
2283
331
2258
  5
22A2
331
2761
  5
290E
331
28B7
  5
2255
331
2732
  5
28DF
331
2713
  5
28C0
331
2267
  5
22B1
331
2248
  5
2292
331
2751
  5
28FE
331
22E3
  5
2392
331
2229
  5
2273
331
2286
  5
22D0
331
28A7
  5
2245
331
28C6
  5
2333
331
2741
  5
28EE
331
2722
  5
28CF
331
2238
  5
2282
331
2257
  5
22A1
331
2276
  5
22C0
331
2760
  5
290D
331
2897
  5
2261
331
28B6
  5
2254
331
2731
  5
28DE
331
2266
  5
22B0
331
276F
  5
291C
331
22E2
  5
2391
331
2228
  5
2272
331
2247
  5
2291
331
2285
  5
22CF
331
28A6
  5
2244
331
2887
  5
2233
331
28C5
  5
2332
331
2740
  5
28ED
331
2721
  5
28CE
331
275F
  5
290C
331
2237
  5
2281
331
2256
  5
22A0
331
2275
  5
22BF
331
28B5
  5
2253
331
2877
  5
2223
331
2896
  5
2260
331
2730
  5
28DD
331
2265
  5
22AF
331
276E
  5
291B
331
2246
  5
2290
331
22E1
  5
2390
331
2227
  5
2271
331
2284
  5
22CE
331
28C4
  5
2331
331
2886
  5
2232
331
28A5
  5
2243
331
2720
  5
28CD
331
2293
  5
22DF
331
275E
  5
290B
331
2236
  5
2280
331
2255
  5
229F
331
2274
  5
22BE
331
2876
  5
2222
331
2895
  5
225F
331
28B4
  5
2252
331
2283
  5
22CD
331
2264
  5
22AE
331
276D
  5
291A
331
22E0
  5
238F
331
2226
  5
2270
331
2245
  5
228F
331
28A4
  5
2242
331
2885
  5
2231
331
28C3
  5
2330
331
2235
  5
227F
331
2254
  5
229E
331
2273
  5
22BD
331
28B3
  5
2251
331
2875
  5
2221
331
2894
  5
225E
331
2263
  5
22AD
331
276C
  5
2919
331
2244
  5
228E
331
2225
  5
226F
331
2282
  5
22CC
331
28C2
  5
232F
331
2884
  5
2230
331
28A3
  5
2241
331
2272
  5
22BC
331
2234
  5
227E
331
2253
  5
229D
331
2874
  5
2220
331
2893
  5
225D
331
28B2
  5
2250
331
2281
  5
22CB
331
2262
  5
22AC
331
276B
  5
2918
331
22DE
  5
2385
331
2224
  5
226E
331
2243
  5
228D
331
28A2
  5
2240
331
2883
  5
222F
331
28C1
  5
232E
331
2233
  5
227D
331
2252
  5
229C
331
2271
  5
22BB
331
28B1
  5
224F
331
2873
  5
221F
331
2892
  5
225C
331
2261
  5
22AB
331
274B
  5
28F8
331
2223
  5
226D
331
2242
  5
228C
331
2280
  5
22CA
331
28C0
  5
232D
331
2882
  5
222E
331
28A1
  5
223F
331
2270
  5
22BA
331
2232
  5
227C
331
2251
  5
229B
331
28CF
  5
233C
331
2872
  5
221E
331
2891
  5
225B
331
28B0
  5
224E
331
2260
  5
22AA
331
2769
  5
2916
331
274A
  5
28F7
331
2222
  5
226C
331
2241
  5
228B
331
28A0
  5
223E
331
2881
  5
222D
331
28BF
  5
232C
331
2759
  5
2906
331
2231
  5
227B
331
2250
  5
229A
331
2207
  5
2207
331
28AF
  5
224D
331
2871
  5
221D
331
2890
  5
225A
331
28CE
  5
233B
331
2768
  5
2915
331
2749
  5
28F6
331
2221
  5
226B
331
2240
  5
228A
331
2216
  5
2216
331
21F7
  5
21F7
331
28BE
  5
232B
331
2880
  5
222C
331
289F
  5
223D
331
2758
  5
2905
331
2230
  5
227A
331
290F
  5
2372
331
21E7
  5
21E7
331
2206
  5
2206
331
28CD
  5
233A
331
2870
  5
221C
331
288F
  5
2259
331
28AE
  5
224C
331
2748
  5
28F5
331
2220
  5
226A
331
28FF
  5
2362
331
2215
  5
2215
331
21D7
  5
21D7
331
21F6
  5
21F6
331
287F
  5
222B
331
289E
  5
223C
331
28BD
  5
232A
331
28EF
  5
2383
331
290E
  5
2371
331
2205
  5
2205
331
21C7
  5
21C7
331
21E6
  5
21E6
331
28AD
  5
224B
331
286F
  5
221B
331
288E
  5
2258
331
28CC
  5
2339
331
28FE
  5
2361
331
28DF
  5
234D
331
2214
  5
2214
331
21D6
  5
21D6
331
21F5
  5
21F5
331
28BC
  5
2329
331
287E
  5
222A
331
289D
  5
223B
331
28EE
  5
2382
331
290D
  5
2370
331
21C6
  5
21C6
331
21E5
  5
21E5
331
2204
  5
2204
331
28CB
  5
2338
331
286E
  5
221A
331
288D
  5
2257
331
28AC
  5
224A
331
291C
  5
238E
331
28FD
  5
2360
331
28DE
  5
234C
331
2213
  5
2213
331
21F4
  5
21F4
331
21D5
  5
21D5
331
28BB
  5
2328
331
287D
  5
2229
331
289C
  5
223A
331
28ED
  5
2381
331
290C
  5
236F
331
2203
  5
2203
331
21C5
  5
21C5
331
21E4
  5
21E4
331
28AB
  5
2249
331
288C
  5
2256
331
286D
  5
2219
331
28CA
  5
2337
331
28FC
  5
235F
331
28DD
  5
234B
331
291B
  5
238D
331
2212
  5
2212
331
21D4
  5
21D4
331
21F3
  5
21F3
331
28BA
  5
2327
331
287C
  5
2228
331
289B
  5
2239
331
28EC
  5
2380
331
290B
  5
236E
331
21C4
  5
21C4
331
21E3
  5
21E3
331
2202
  5
2202
331
28C9
  5
2336
331
28AA
  5
2248
331
286C
  5
2218
331
291A
  5
238C
331
28FB
  5
235E
331
28DC
  5
234A
331
2211
  5
2211
331
21F2
  5
21F2
331
21D3
  5
21D3
331
28B9
  5
2326
331
287B
  5
2227
331
289A
  5
2238
331
28EB
  5
237F
331
290A
  5
236D
331
2201
  5
2201
331
21C3
  5
21C3
331
21E2
  5
21E2
331
28A9
  5
2247
331
28C8
  5
2335
331
2919
  5
238B
331
28FA
  5
235D
331
28DB
  5
2349
331
2210
  5
2210
331
21D2
  5
21D2
331
21F1
  5
21F1
331
28B8
  5
2325
331
287A
  5
2226
331
2899
  5
2263
331
28EA
  5
237E
331
2909
  5
236C
331
221F
  5
2269
331
21C2
  5
21C2
331
21E1
  5
21E1
331
2200
  5
2200
331
28A8
  5
2246
331
2889
  5
2235
331
2918
  5
238A
331
28F9
  5
235C
331
28DA
  5
2348
331
220F
  5
220F
331
21F0
  5
21F0
331
21D1
  5
21D1
331
2879
  5
2225
331
2898
  5
2262
331
28E9
  5
237D
331
2908
  5
236B
331
21FF
  5
21FF
331
21C1
  5
21C1
331
21E0
  5
21E0
331
221E
  5
2268
331
2888
  5
2234
331
28F8
  5
235B
331
28D9
  5
2347
331
2917
  5
2389
331
220E
  5
220E
331
21EF
  5
21EF
331
21D0
  5
21D0
331
2878
  5
2224
331
28E8
  5
237C
331
2907
  5
236A
331
221D
  5
2267
331
21C0
  5
21C0
331
21DF
  5
21DF
331
21FE
  5
21FE
331
28F7
  5
235A
331
28D8
  5
2346
331
2916
  5
2388
331
21EE
  5
21EE
331
21CF
  5
21CF
331
220D
  5
220D
331
28E7
  5
237B
331
2906
  5
2369
331
21FD
  5
21FD
331
21BF
  5
21BF
331
21DE
  5
21DE
331
221C
  5
2266
331
28D7
  5
2345
331
28F6
  5
2359
331
2915
  5
2387
331
220C
  5
220C
331
21ED
  5
21ED
331
21CE
  5
21CE
331
28E6
  5
237A
331
2905
  5
2368
331
221B
  5
2265
331
21BE
  5
21BE
331
21DD
  5
21DD
331
21FC
  5
21FC
331
273F
  5
28EC
331
28F5
  5
2358
331
28D6
  5
2344
331
2914
  5
2377
331
21EC
  5
21EC
331
21CD
  5
21CD
331
220B
  5
220B
331
28E5
  5
2379
331
2904
  5
2367
331
21FB
  5
21FB
331
21DC
  5
21DC
331
273E
  5
28EB
331
271F
  5
28CC
331
28D5
  5
2342
331
28F4
  5
2357
331
2913
  5
2376
331
220A
  5
220A
331
21CC
  5
21CC
331
21EB
  5
21EB
331
272E
  5
28DB
331
28E4
  5
2378
331
2903
  5
2366
331
21DB
  5
21DB
331
21FA
  5
21FA
331
273D
  5
28EA
331
271E
  5
28CB
331
28F3
  5
2356
331
28D4
  5
2341
331
2912
  5
2375
331
21CB
  5
21CB
331
21EA
  5
21EA
331
2209
  5
2209
331
272D
  5
28DA
331
28E3
  5
2351
331
2902
  5
2365
331
21F9
  5
21F9
331
21DA
  5
21DA
331
273C
  5
28E9
331
271D
  5
28CA
331
28D3
  5
2340
331
28F2
  5
2355
331
2911
  5
2374
331
21CA
  5
21CA
331
21E9
  5
21E9
331
2208
  5
2208
331
272C
  5
28D9
331
28E2
  5
2350
331
2901
  5
2364
331
21D9
  5
21D9
331
21F8
  5
21F8
331
273B
  5
28E8
331
271C
  5
28C9
331
28F1
  5
2354
331
28D2
  5
233F
331
2910
  5
2373
331
21C9
  5
21C9
331
21E8
  5
21E8
331
227F
  5
22C9
331
272B
  5
28D8
331
28E1
  5
234F
331
2900
  5
2363
331
21D8
  5
21D8
331
273A
  5
28E7
331
271B
  5
28C8
331
228E
  5
22DA
331
226F
  5
22B9
331
28D1
  5
233E
331
28F0
  5
2384
331
21C8
  5
21C8
331
225F
  5
22A9
331
227E
  5
22C8
331
272A
  5
28D7
331
28E0
  5
234E
331
2739
  5
28E6
331
271A
  5
28C7
331
226E
  5
22B8
331
224F
  5
2299
331
228D
  5
22D7
331
28D0
  5
233D
  0
XRECORD
  5
2ABD
102
{ACAD_REACTORS
330
2ABC
102
}
330
2ABC
100
AcDbXrecord
280
     1
 40
3752.0
  1
90,0°
  0
XRECORD
  5
2AB4
102
{ACAD_REACTORS
330
2AB3
102
}
330
2AB3
100
AcDbXrecord
280
     1
 40
1.570796326794896
  0
LAYOUT
  5
1E
102
{ACAD_XDICTIONARY
360
2AB5
102
}
102
{ACAD_REACTORS
330
1A
102
}
330
1A
100
AcDbPlotSettings
  1

  2
Ploter HP500
  4

  6

 40
0.0
 41
0.0
 42
0.0
 43
0.0
 44
0.0
 45
0.0
 46
0.0
 47
0.0
 48
0.0
 49
0.0
140
0.0
141
0.0
142
1.0
143
1.0
 70
   688
 72
     0
 73
     0
 74
     5
  7
sanindusa.ctb
 75
    16
147
1.0
148
0.0
149
0.0
100
AcDbLayout
  1
Layout1
 70
     1
 71
     1
 10
0.0
 20
0.0
 11
420.0
 21
297.0
 12
0.0
 22
0.0
 32
0.0
 14
1.000000000000000E+20
 24
1.000000000000000E+20
 34
1.000000000000000E+20
 15
-1.000000000000000E+20
 25
-1.000000000000000E+20
 35
-1.000000000000000E+20
146
0.0
 13
0.0
 23
0.0
 33
0.0
 16
1.0
 26
0.0
 36
0.0
 17
0.0
 27
1.0
 37
0.0
 76
     0
330
1B
  0
LAYOUT
  5
26
102
{ACAD_XDICTIONARY
360
2AB9
102
}
102
{ACAD_REACTORS
330
1A
102
}
330
1A
100
AcDbPlotSettings
  1

  2
Ploter HP500
  4

  6

 40
0.0
 41
0.0
 42
0.0
 43
0.0
 44
0.0
 45
0.0
 46
0.0
 47
0.0
 48
0.0
 49
0.0
140
0.0
141
0.0
142
1.0
143
1.0
 70
   688
 72
     0
 73
     0
 74
     5
  7
sanindusa.ctb
 75
    16
147
1.0
148
0.0
149
0.0
100
AcDbLayout
  1
Layout2
 70
     1
 71
     2
 10
0.0
 20
0.0
 11
12.0
 21
9.0
 12
0.0
 22
0.0
 32
0.0
 14
0.0
 24
0.0
 34
0.0
 15
0.0
 25
0.0
 35
0.0
146
0.0
 13
0.0
 23
0.0
 33
0.0
 16
1.0
 26
0.0
 36
0.0
 17
0.0
 27
1.0
 37
0.0
 76
     0
330
23
  0
LAYOUT
  5
22
102
{ACAD_XDICTIONARY
360
2AB7
102
}
102
{ACAD_REACTORS
330
1A
102
}
330
1A
100
AcDbPlotSettings
  1

  2
Ploter HP500
  4
User268
  6

 40
4.995333194732666
 41
16.97565841674804
 42
4.995330810546875
 43
16.97567749023437
 44
209.9733276367187
 45
296.9259948730469
 46
0.0
 47
0.0
 48
0.0
 49
0.0
140
0.0
141
0.0
142
1.0
143
1.0
 70
 11952
 72
     1
 73
     1
 74
     0
  7
sanindusa.ctb
 75
     0
147
1.0
148
-427.5957866592534
149
7.362384574453926
100
AcDbLayout
  1
Model
 70
     1
 71
     0
 10
0.0
 20
0.0
 11
12.0
 21
9.0
 12
0.0
 22
0.0
 32
0.0
 14
0.0
 24
0.0
 34
0.0
 15
0.0
 25
0.0
 35
0.0
146
0.0
 13
0.0
 23
0.0
 33
0.0
 16
1.0
 26
0.0
 36
0.0
 17
0.0
 27
1.0
 37
0.0
 76
     0
330
1F
331
29CD
  0
MATERIAL
  5
29DE
102
{ACAD_XDICTIONARY
360
29DF
102
}
102
{ACAD_REACTORS
330
EE5
102
}
330
EE5
100
AcDbMaterial
  1
ByBlock
 72
     0
 43
0.0008202099737533
 43
0.0
 43
0.0
 43
0.0
 43
0.0
 43
0.0008202099737533
 43
0.0
 43
0.0
 43
0.0
 43
0.0
 43
1.0
 43
0.0
 43
0.0
 43
0.0
 43
0.0
 43
1.0
 77
     0
 47
0.0008202099737533
 47
0.0
 47
0.0
 47
0.0
 47
0.0
 47
0.0008202099737533
 47
0.0
 47
0.0
 47
0.0
 47
0.0
 47
1.0
 47
0.0
 47
0.0
 47
0.0
 47
0.0
 47
1.0
171
     0
 49
0.0008202099737533
 49
0.0
 49
0.0
 49
0.0
 49
0.0
 49
0.0008202099737533
 49
0.0
 49
0.0
 49
0.0
 49
0.0
 49
1.0
 49
0.0
 49
0.0
 49
0.0
 49
0.0
 49
1.0
175
     0
142
0.0008202099737533
142
0.0
142
0.0
142
0.0
142
0.0
142
0.0008202099737533
142
0.0
142
0.0
142
0.0
142
0.0
142
1.0
142
0.0
142
0.0
142
0.0
142
0.0
142
1.0
179
     0
144
0.0008202099737533
144
0.0
144
0.0
144
0.0
144
0.0
144
0.0008202099737533
144
0.0
144
0.0
144
0.0
144
0.0
144
1.0
144
0.0
144
0.0
144
0.0
144
0.0
144
1.0
147
0.0008202099737533
147
0.0
147
0.0
147
0.0
147
0.0
147
0.0008202099737533
147
0.0
147
0.0
147
0.0
147
0.0
147
1.0
147
0.0
147
0.0
147
0.0
147
0.0
147
1.0
  0
MATERIAL
  5
29D6
102
{ACAD_XDICTIONARY
360
29D7
102
}
102
{ACAD_REACTORS
330
EE5
102
}
330
EE5
100
AcDbMaterial
  1
ByLayer
 72
     0
 43
0.0008202099737533
 43
0.0
 43
0.0
 43
0.0
 43
0.0
 43
0.0008202099737533
 43
0.0
 43
0.0
 43
0.0
 43
0.0
 43
1.0
 43
0.0
 43
0.0
 43
0.0
 43
0.0
 43
1.0
 77
     0
 47
0.0008202099737533
 47
0.0
 47
0.0
 47
0.0
 47
0.0
 47
0.0008202099737533
 47
0.0
 47
0.0
 47
0.0
 47
0.0
 47
1.0
 47
0.0
 47
0.0
 47
0.0
 47
0.0
 47
1.0
171
     0
 49
0.0008202099737533
 49
0.0
 49
0.0
 49
0.0
 49
0.0
 49
0.0008202099737533
 49
0.0
 49
0.0
 49
0.0
 49
0.0
 49
1.0
 49
0.0
 49
0.0
 49
0.0
 49
0.0
 49
1.0
175
     0
142
0.0008202099737533
142
0.0
142
0.0
142
0.0
142
0.0
142
0.0008202099737533
142
0.0
142
0.0
142
0.0
142
0.0
142
1.0
142
0.0
142
0.0
142
0.0
142
0.0
142
1.0
179
     0
144
0.0008202099737533
144
0.0
144
0.0
144
0.0
144
0.0
144
0.0008202099737533
144
0.0
144
0.0
144
0.0
144
0.0
144
1.0
144
0.0
144
0.0
144
0.0
144
0.0
144
1.0
147
0.0008202099737533
147
0.0
147
0.0
147
0.0
147
0.0
147
0.0008202099737533
147
0.0
147
0.0
147
0.0
147
0.0
147
1.0
147
0.0
147
0.0
147
0.0
147
0.0
147
1.0
  0
MATERIAL
  5
29E6
102
{ACAD_XDICTIONARY
360
29E7
102
}
102
{ACAD_REACTORS
330
EE5
102
}
330
EE5
100
AcDbMaterial
  1
Global
 72
     0
 43
0.0008202099737533
 43
0.0
 43
0.0
 43
0.0
 43
0.0
 43
0.0008202099737533
 43
0.0
 43
0.0
 43
0.0
 43
0.0
 43
1.0
 43
0.0
 43
0.0
 43
0.0
 43
0.0
 43
1.0
 77
     0
 47
0.0008202099737533
 47
0.0
 47
0.0
 47
0.0
 47
0.0
 47
0.0008202099737533
 47
0.0
 47
0.0
 47
0.0
 47
0.0
 47
1.0
 47
0.0
 47
0.0
 47
0.0
 47
0.0
 47
1.0
171
     0
 49
0.0008202099737533
 49
0.0
 49
0.0
 49
0.0
 49
0.0
 49
0.0008202099737533
 49
0.0
 49
0.0
 49
0.0
 49
0.0
 49
1.0
 49
0.0
 49
0.0
 49
0.0
 49
0.0
 49
1.0
175
     0
142
0.0008202099737533
142
0.0
142
0.0
142
0.0
142
0.0
142
0.0008202099737533
142
0.0
142
0.0
142
0.0
142
0.0
142
1.0
142
0.0
142
0.0
142
0.0
142
0.0
142
1.0
179
     0
144
0.0008202099737533
144
0.0
144
0.0
144
0.0
144
0.0
144
0.0008202099737533
144
0.0
144
0.0
144
0.0
144
0.0
144
1.0
144
0.0
144
0.0
144
0.0
144
0.0
144
1.0
147
0.0008202099737533
147
0.0
147
0.0
147
0.0
147
0.0
147
0.0008202099737533
147
0.0
147
0.0
147
0.0
147
0.0
147
1.0
147
0.0
147
0.0
147
0.0
147
0.0
147
1.0
  0
MLEADERSTYLE
  5
2A15
102
{ACAD_REACTORS
330
2A14
102
}
330
2A14
100
AcDbMLeaderStyle
170
     2
171
     1
172
     0
 90
        2
 40
0.0
 41
0.0
173
     1
 91
-1056964608
340
14
 92
       -2
290
     1
 42
2.0
291
     1
 43
0.36
  3
Standard
 44
4.0
300

342
11
174
     1
178
     6
175
     1
176
     0
 93
-1056964608
 45
4.0
292
     0
297
     0
 46
4.0
 94
-1056964608
 47
1.0
 49
1.0
140
1.0
293
     1
141
0.0
294
     1
177
     0
142
1.0
295
     0
296
     0
143
0.125
1001
ACAD_MLEADERVER
1070
     2
  0
MLINESTYLE
  5
18
102
{ACAD_REACTORS
330
17
102
}
330
17
100
AcDbMlineStyle
  2
STANDARD
 70
     0
  3

 62
   256
 51
90.0
 52
90.0
 71
     2
 49
0.5
 62
   256
  6
BYLAYER
 49
-0.5
 62
   256
  6
BYLAYER
  0
ACDBPLACEHOLDER
  5
F
102
{ACAD_REACTORS
330
E
102
}
330
E
  0
SCALE
  5
2A03
102
{ACAD_REACTORS
330
2A02
102
}
330
2A02
100
AcDbScale
 70
     0
300
1:1
140
1.0
141
1.0
290
     1
  0
SCALE
  5
2A04
102
{ACAD_REACTORS
330
2A02
102
}
330
2A02
100
AcDbScale
 70
     0
300
1:2
140
1.0
141
2.0
290
     0
  0
SCALE
  5
2A05
102
{ACAD_REACTORS
330
2A02
102
}
330
2A02
100
AcDbScale
 70
     0
300
1:4
140
1.0
141
4.0
290
     0
  0
SCALE
  5
2A06
102
{ACAD_REACTORS
330
2A02
102
}
330
2A02
100
AcDbScale
 70
     0
300
1:5
140
1.0
141
5.0
290
     0
  0
SCALE
  5
2A07
102
{ACAD_REACTORS
330
2A02
102
}
330
2A02
100
AcDbScale
 70
     0
300
1:8
140
1.0
141
8.0
290
     0
  0
SCALE
  5
2A08
102
{ACAD_REACTORS
330
2A02
102
}
330
2A02
100
AcDbScale
 70
     0
300
1:10
140
1.0
141
10.0
290
     0
  0
SCALE
  5
2A09
102
{ACAD_REACTORS
330
2A02
102
}
330
2A02
100
AcDbScale
 70
     0
300
1:16
140
1.0
141
16.0
290
     0
  0
SCALE
  5
2A0A
102
{ACAD_REACTORS
330
2A02
102
}
330
2A02
100
AcDbScale
 70
     0
300
1:20
140
1.0
141
20.0
290
     0
  0
SCALE
  5
2A0B
102
{ACAD_REACTORS
330
2A02
102
}
330
2A02
100
AcDbScale
 70
     0
300
1:30
140
1.0
141
30.0
290
     0
  0
SCALE
  5
2A0C
102
{ACAD_REACTORS
330
2A02
102
}
330
2A02
100
AcDbScale
 70
     0
300
1:40
140
1.0
141
40.0
290
     0
  0
SCALE
  5
2A0D
102
{ACAD_REACTORS
330
2A02
102
}
330
2A02
100
AcDbScale
 70
     0
300
1:50
140
1.0
141
50.0
290
     0
  0
SCALE
  5
2A0E
102
{ACAD_REACTORS
330
2A02
102
}
330
2A02
100
AcDbScale
 70
     0
300
1:100
140
1.0
141
100.0
290
     0
  0
SCALE
  5
2A0F
102
{ACAD_REACTORS
330
2A02
102
}
330
2A02
100
AcDbScale
 70
     0
300
2:1
140
2.0
141
1.0
290
     0
  0
SCALE
  5
2A10
102
{ACAD_REACTORS
330
2A02
102
}
330
2A02
100
AcDbScale
 70
     0
300
4:1
140
4.0
141
1.0
290
     0
  0
SCALE
  5
2A11
102
{ACAD_REACTORS
330
2A02
102
}
330
2A02
100
AcDbScale
 70
     0
300
8:1
140
8.0
141
1.0
290
     0
  0
SCALE
  5
2A12
102
{ACAD_REACTORS
330
2A02
102
}
330
2A02
100
AcDbScale
 70
     0
300
10:1
140
10.0
141
1.0
290
     0
  0
SCALE
  5
2A13
102
{ACAD_REACTORS
330
2A02
102
}
330
2A02
100
AcDbScale
 70
     0
300
100:1
140
100.0
141
1.0
290
     0
  0
TABLESTYLE
  5
EE8
102
{ACAD_XDICTIONARY
360
2AAF
102
}
102
{ACAD_REACTORS
330
EE7
102
}
330
EE7
100
AcDbTableStyle
  3
Standard
 70
     0
 71
     0
 40
1.5
 41
1.5
280
     0
281
     0
  7
Standard
140
4.5
170
     2
 62
     0
 63
     7
283
     0
274
    -2
284
     1
 64
     0
275
    -2
285
     1
 65
     0
276
    -2
286
     1
 66
     0
277
    -2
287
     1
 67
     0
278
    -2
288
     1
 68
     0
279
    -2
289
     1
 69
     0
  7
Standard
140
6.0
170
     5
 62
     0
 63
     7
283
     0
274
    -2
284
     1
 64
     0
275
    -2
285
     1
 65
     0
276
    -2
286
     1
 66
     0
277
    -2
287
     1
 67
     0
278
    -2
288
     1
 68
     0
279
    -2
289
     1
 69
     0
  7
Standard
140
4.5
170
     5
 62
     0
 63
     7
283
     0
274
    -2
284
     1
 64
     0
275
    -2
285
     1
 65
     0
276
    -2
286
     1
 66
     0
277
    -2
287
     1
 67
     0
278
    -2
288
     1
 68
     0
279
    -2
289
     1
 69
     0
  0
VISUALSTYLE
  5
29F4
102
{ACAD_XDICTIONARY
360
2ACB
102
}
102
{ACAD_REACTORS
330
29EE
102
}
330
29EE
100
AcDbVisualStyle
  2
2dWireframe
 70
     4
 71
     0
 72
     2
 73
     0
 90
        0
 40
-0.6
 41
-30.0
 62
     5
 63
     7
 74
     1
 91
        4
 64
     7
 65
   257
 75
     1
175
     1
 42
1.0
 92
        0
 66
   257
 43
1.0
 76
     1
 77
     6
 78
     2
 67
     7
 79
     5
170
     0
171
     0
290
     0
174
     0
 93
        1
 44
0.0
173
     0
291
     0
 45
0.0
1001
ACAD
1000
AcDbSavedByObjectVersion
1070
     0
  0
VISUALSTYLE
  5
29F6
102
{ACAD_XDICTIONARY
360
2ACF
102
}
102
{ACAD_REACTORS
330
29EE
102
}
330
29EE
100
AcDbVisualStyle
  2
3D Hidden
 70
     6
 71
     1
 72
     2
 73
     2
 90
        0
 40
-0.6
 41
-30.0
 62
     5
 63
     7
 74
     2
 91
        2
 64
     7
 65
   257
 75
     2
175
     1
 42
179.0
 92
        0
 66
   257
 43
1.0
 76
     1
 77
     6
 78
     2
 67
     7
 79
     3
170
     0
171
     0
290
     0
174
     0
 93
        1
 44
0.0
173
     0
291
     0
 45
0.0
1001
ACAD
1000
AcDbSavedByObjectVersion
1070
     0
  0
VISUALSTYLE
  5
29F5
102
{ACAD_XDICTIONARY
360
2ACD
102
}
102
{ACAD_REACTORS
330
29EE
102
}
330
29EE
100
AcDbVisualStyle
  2
3dWireframe
 70
     5
 71
     0
 72
     2
 73
     0
 90
        0
 40
-0.6
 41
-30.0
 62
     5
 63
     7
 74
     1
 91
        4
 64
     7
 65
   257
 75
     1
175
     1
 42
1.0
 92
        0
 66
   257
 43
1.0
 76
     1
 77
     6
 78
     2
 67
     7
 79
     5
170
     0
171
     0
290
     0
174
     0
 93
        1
 44
0.0
173
     0
291
     0
 45
0.0
1001
ACAD
1000
AcDbSavedByObjectVersion
1070
     0
  0
VISUALSTYLE
  5
29F3
102
{ACAD_XDICTIONARY
360
2AC9
102
}
102
{ACAD_REACTORS
330
29EE
102
}
330
29EE
100
AcDbVisualStyle
  2
Basic
 70
     7
 71
     1
 72
     0
 73
     1
 90
        0
 40
-0.6
 41
-30.0
 62
     5
 63
     7
 74
     0
 91
        4
 64
     7
 65
   257
 75
     1
175
     1
 42
1.0
 92
        8
 66
     7
 43
1.0
 76
     1
 77
     6
 78
     2
 67
     7
 79
     5
170
     0
171
     0
290
     0
174
     0
 93
        1
 44
0.0
173
     0
291
     1
 45
0.0
1001
ACAD
1000
AcDbSavedByObjectVersion
1070
     0
  0
VISUALSTYLE
  5
29FA
102
{ACAD_XDICTIONARY
360
2AD7
102
}
102
{ACAD_REACTORS
330
29EE
102
}
330
29EE
100
AcDbVisualStyle
  2
Brighten
 70
    12
 71
     2
 72
     2
 73
     0
 90
        0
 40
-0.6
 41
-30.0
 62
     5
 63
     7
 74
     1
 91
        4
 64
     7
 65
   257
 75
     1
175
     1
 42
1.0
 92
        8
 66
     7
 43
1.0
 76
     1
 77
     6
 78
     2
 67
     7
 79
     5
170
     0
171
     0
290
     0
174
     0
 93
        1
 44
50.0
173
     0
291
     1
 45
0.0
1001
ACAD
1000
AcDbSavedByObjectVersion
1070
     0
  0
VISUALSTYLE
  5
29FE
102
{ACAD_XDICTIONARY
360
2ADF
102
}
102
{ACAD_REACTORS
330
29EE
102
}
330
29EE
100
AcDbVisualStyle
  2
ColorChange
 70
    16
 71
     2
 72
     2
 73
     3
 90
        0
 40
-0.6
 41
-30.0
 62
     5
 63
     8
 74
     1
 91
        4
 64
     7
 65
   257
 75
     1
175
     1
 42
1.0
 92
        8
 66
     8
 43
1.0
 76
     1
 77
     6
 78
     2
 67
     7
 79
     5
170
     0
171
     0
290
     0
174
     0
 93
        1
 44
0.0
173
     0
291
     1
 45
0.0
1001
ACAD
1000
AcDbSavedByObjectVersion
1070
     0
  0
VISUALSTYLE
  5
29F7
102
{ACAD_XDICTIONARY
360
2AD1
102
}
102
{ACAD_REACTORS
330
29EE
102
}
330
29EE
100
AcDbVisualStyle
  2
Conceptual
 70
     9
 71
     3
 72
     2
 73
     0
 90
        0
 40
-0.6
 41
-30.0
 62
     5
 63
     7
 74
     2
 91
        2
 64
     7
 65
   257
 75
     1
175
     1
 42
179.0
 92
        8
 66
     7
 43
1.0
 76
     1
 77
     6
 78
     2
 67
     7
 79
     3
170
     0
171
     0
290
     0
174
     0
 93
        1
 44
0.0
173
     0
291
     0
 45
0.0
1001
ACAD
1000
AcDbSavedByObjectVersion
1070
     0
  0
VISUALSTYLE
  5
29F9
102
{ACAD_XDICTIONARY
360
2AD5
102
}
102
{ACAD_REACTORS
330
29EE
102
}
330
29EE
100
AcDbVisualStyle
  2
Dim
 70
    11
 71
     2
 72
     2
 73
     0
 90
        0
 40
-0.6
 41
-30.0
 62
     5
 63
     7
 74
     1
 91
        4
 64
     7
 65
   257
 75
     1
175
     1
 42
1.0
 92
        8
 66
     7
 43
1.0
 76
     1
 77
     6
 78
     2
 67
     7
 79
     5
170
     0
171
     0
290
     0
174
     0
 93
        1
 44
-50.0
173
     0
291
     1
 45
0.0
1001
ACAD
1000
AcDbSavedByObjectVersion
1070
     0
  0
VISUALSTYLE
  5
2A01
102
{ACAD_XDICTIONARY
360
2AE5
102
}
102
{ACAD_REACTORS
330
29EE
102
}
330
29EE
100
AcDbVisualStyle
  2
EdgeColorOff
 70
    22
 71
     2
 72
     2
 73
     0
 90
        0
 40
-0.6
 41
-30.0
 62
     5
 63
     7
 74
     1
 91
        4
 64
     7
 65
   257
 75
     1
175
     1
 42
1.0
 92
        8
 66
     7
 43
1.0
 76
     1
 77
     6
 78
     2
 67
     7
 79
     5
170
     0
171
     0
290
     0
174
     0
 93
        1
 44
0.0
173
     0
291
     1
 45
0.0
1001
ACAD
1000
AcDbSavedByObjectVersion
1070
     0
  0
VISUALSTYLE
  5
29FD
102
{ACAD_XDICTIONARY
360
2ADD
102
}
102
{ACAD_REACTORS
330
29EE
102
}
330
29EE
100
AcDbVisualStyle
  2
Facepattern
 70
    15
 71
     2
 72
     2
 73
     0
 90
        0
 40
-0.6
 41
-30.0
 62
     5
 63
     7
 74
     1
 91
        4
 64
     7
 65
   257
 75
     1
175
     1
 42
1.0
 92
        8
 66
     7
 43
1.0
 76
     1
 77
     6
 78
     2
 67
     7
 79
     5
170
     0
171
     0
290
     0
174
     0
 93
        1
 44
0.0
173
     0
291
     1
 45
0.0
1001
ACAD
1000
AcDbSavedByObjectVersion
1070
     0
  0
VISUALSTYLE
  5
29EF
102
{ACAD_XDICTIONARY
360
2AC1
102
}
102
{ACAD_REACTORS
330
29EE
102
}
330
29EE
100
AcDbVisualStyle
  2
Flat
 70
     0
 71
     2
 72
     1
 73
     1
 90
        2
 40
-0.6
 41
30.0
 62
     5
 63
     7
 74
     0
 91
        4
 64
     7
 65
   257
 75
     1
175
     1
 42
1.0
 92
        8
 66
     7
 43
1.0
 76
     1
 77
     6
 78
     2
 67
     7
 79
     5
170
     0
171
     0
290
     0
174
     0
 93
       13
 44
0.0
173
     0
291
     1
 45
0.0
1001
ACAD
1000
AcDbSavedByObjectVersion
1070
     0
  0
VISUALSTYLE
  5
29F0
102
{ACAD_XDICTIONARY
360
2AC3
102
}
102
{ACAD_REACTORS
330
29EE
102
}
330
29EE
100
AcDbVisualStyle
  2
FlatWithEdges
 70
     1
 71
     2
 72
     1
 73
     1
 90
        2
 40
-0.6
 41
30.0
 62
     5
 63
     7
 74
     1
 91
        4
 64
     7
 65
   257
 75
     1
175
     1
 42
1.0
 92
        0
 66
   257
 43
1.0
 76
     1
 77
     6
 78
     2
 67
     7
 79
     5
170
     0
171
     0
290
     0
174
     0
 93
       13
 44
0.0
173
     0
291
     1
 45
0.0
1001
ACAD
1000
AcDbSavedByObjectVersion
1070
     0
  0
VISUALSTYLE
  5
29F1
102
{ACAD_XDICTIONARY
360
2AC5
102
}
102
{ACAD_REACTORS
330
29EE
102
}
330
29EE
100
AcDbVisualStyle
  2
Gouraud
 70
     2
 71
     2
 72
     2
 73
     1
 90
        2
 40
-0.6
 41
30.0
 62
     5
 63
     7
 74
     0
 91
        4
 64
     7
 65
   257
 75
     1
175
     1
 42
1.0
 92
        0
 66
     7
 43
1.0
 76
     1
 77
     6
 78
     2
 67
     7
 79
     5
170
     0
171
     0
290
     0
174
     0
 93
       13
 44
0.0
173
     0
291
     1
 45
0.0
1001
ACAD
1000
AcDbSavedByObjectVersion
1070
     0
  0
VISUALSTYLE
  5
29F2
102
{ACAD_XDICTIONARY
360
2AC7
102
}
102
{ACAD_REACTORS
330
29EE
102
}
330
29EE
100
AcDbVisualStyle
  2
GouraudWithEdges
 70
     3
 71
     2
 72
     2
 73
     1
 90
        2
 40
-0.6
 41
30.0
 62
     5
 63
     7
 74
     1
 91
        4
 64
     7
 65
   257
 75
     1
175
     1
 42
1.0
 92
        0
 66
   257
 43
1.0
 76
     1
 77
     6
 78
     2
 67
     7
 79
     5
170
     0
171
     0
290
     0
174
     0
 93
       13
 44
0.0
173
     0
291
     1
 45
0.0
1001
ACAD
1000
AcDbSavedByObjectVersion
1070
     0
  0
VISUALSTYLE
  5
29FF
102
{ACAD_XDICTIONARY
360
2AE1
102
}
102
{ACAD_REACTORS
330
29EE
102
}
330
29EE
100
AcDbVisualStyle
  2
JitterOff
 70
    20
 71
     2
 72
     2
 73
     0
 90
        0
 40
-0.6
 41
-30.0
 62
     5
 63
     7
 74
     1
 91
        4
 64
     7
 65
   257
 75
     1
175
     1
 42
1.0
 92
       10
 66
     7
 43
1.0
 76
     1
 77
     6
 78
     2
 67
     7
 79
     5
170
     0
171
     0
290
     0
174
     0
 93
        1
 44
0.0
173
     0
291
     1
 45
0.0
1001
ACAD
1000
AcDbSavedByObjectVersion
1070
     0
  0
VISUALSTYLE
  5
29FC
102
{ACAD_XDICTIONARY
360
2ADB
102
}
102
{ACAD_REACTORS
330
29EE
102
}
330
29EE
100
AcDbVisualStyle
  2
Linepattern
 70
    14
 71
     2
 72
     2
 73
     0
 90
        0
 40
-0.6
 41
-30.0
 62
     5
 63
     7
 74
     1
 91
        4
 64
     7
 65
   257
 75
     7
175
     7
 42
1.0
 92
        8
 66
     7
 43
1.0
 76
     1
 77
     6
 78
     2
 67
     7
 79
     5
170
     0
171
     0
290
     0
174
     0
 93
        1
 44
0.0
173
     0
291
     1
 45
0.0
1001
ACAD
1000
AcDbSavedByObjectVersion
1070
     0
  0
VISUALSTYLE
  5
2A00
102
{ACAD_XDICTIONARY
360
2AE3
102
}
102
{ACAD_REACTORS
330
29EE
102
}
330
29EE
100
AcDbVisualStyle
  2
OverhangOff
 70
    21
 71
     2
 72
     2
 73
     0
 90
        0
 40
-0.6
 41
-30.0
 62
     5
 63
     7
 74
     1
 91
        4
 64
     7
 65
   257
 75
     1
175
     1
 42
1.0
 92
        9
 66
     7
 43
1.0
 76
     1
 77
     6
 78
     2
 67
     7
 79
     5
170
     0
171
     0
290
     0
174
     0
 93
        1
 44
0.0
173
     0
291
     1
 45
0.0
1001
ACAD
1000
AcDbSavedByObjectVersion
1070
     0
  0
VISUALSTYLE
  5
29F8
102
{ACAD_XDICTIONARY
360
2AD3
102
}
102
{ACAD_REACTORS
330
29EE
102
}
330
29EE
100
AcDbVisualStyle
  2
Realistic
 70
     8
 71
     2
 72
     2
 73
     0
 90
        0
 40
-0.6
 41
-30.0
 62
     5
 63
     7
 74
     1
 91
        0
 64
     7
 65
   257
 75
     1
175
     1
 42
1.0
 92
        8
 66
     8
 43
1.0
 76
     1
 77
     6
 78
     2
 67
     7
 79
     5
170
     0
171
     0
290
     0
174
     0
 93
       13
 44
0.0
173
     0
291
     0
 45
0.0
1001
ACAD
1000
AcDbSavedByObjectVersion
1070
     0
  0
VISUALSTYLE
  5
29FB
102
{ACAD_XDICTIONARY
360
2AD9
102
}
102
{ACAD_REACTORS
330
29EE
102
}
330
29EE
100
AcDbVisualStyle
  2
Thicken
 70
    13
 71
     2
 72
     2
 73
     0
 90
        0
 40
-0.6
 41
-30.0
 62
     5
 63
     7
 74
     1
 91
        4
 64
     7
 65
   257
 75
     1
175
     1
 42
1.0
 92
       12
 66
     7
 43
1.0
 76
     1
 77
     6
 78
     2
 67
     7
 79
     5
170
     0
171
     0
290
     0
174
     0
 93
        1
 44
0.0
173
     0
291
     1
 45
0.0
1001
ACAD
1000
AcDbSavedByObjectVersion
1070
     0
  0
DICTIONARYVAR
  5
2AAB
102
{ACAD_REACTORS
330
3D
102
}
330
3D
100
DictionaryVariables
280
     0
  1
1:1
  0
DICTIONARYVAR
  5
2AAA
102
{ACAD_REACTORS
330
3D
102
}
330
3D
100
DictionaryVariables
280
     0
  1
STANDARD
  0
DICTIONARYVAR
  5
1049
102
{ACAD_REACTORS
330
3D
102
}
330
3D
100
DictionaryVariables
280
     0
  1
STANDARD
  0
DICTIONARYVAR
  5
3F
102
{ACAD_REACTORS
330
3D
102
}
330
3D
100
DictionaryVariables
280
     0
  1
2
  0
DICTIONARYVAR
  5
3E
102
{ACAD_REACTORS
330
3D
102
}
330
3D
100
DictionaryVariables
280
     0
  1
1
  0
DICTIONARYVAR
  5
2AAD
102
{ACAD_REACTORS
330
3D
102
}
330
3D
100
DictionaryVariables
280
     0
  1
0
  0
DICTIONARYVAR
  5
2925
102
{ACAD_REACTORS
330
3D
102
}
330
3D
100
DictionaryVariables
280
     0
  1

  0
DICTIONARYVAR
  5
2AAC
102
{ACAD_REACTORS
330
3D
102
}
330
3D
100
DictionaryVariables
280
     0
  1
127
  0
DICTIONARYVAR
  5
2AAE
102
{ACAD_REACTORS
330
3D
102
}
330
3D
100
DictionaryVariables
280
     0
  1
2
  0
XRECORD
  5
E78
102
{ACAD_REACTORS
330
E77
102
}
330
E77
100
AcDbXrecord
280
     1
330
0
330
0
  0
DICTIONARY
  5
2AB5
330
1E
100
AcDbDictionary
280
     1
281
     1
  3
ACAD_XREC_ROUNDTRIP
360
2AB6
  0
DICTIONARY
  5
2AB9
330
26
100
AcDbDictionary
280
     1
281
     1
  3
ACAD_XREC_ROUNDTRIP
360
2ABA
  0
DICTIONARY
  5
2AB7
330
22
100
AcDbDictionary
280
     1
281
     1
  3
ACAD_XREC_ROUNDTRIP
360
2AB8
  0
DICTIONARY
  5
29DF
330
29DE
100
AcDbDictionary
280
     1
281
     1
  3
ACAD_XREC_ROUNDTRIP
360
2ABF
  3
BUMPTILE
360
29E1
  3
DIFFUSETILE
360
29E0
  3
OPACITYTILE
360
29E4
  3
REFLECTIONTILE
360
29E3
  3
REFRACTIONTILE
360
29E5
  3
SPECULARTILE
360
29E2
  0
DICTIONARY
  5
29D7
330
29D6
100
AcDbDictionary
280
     1
281
     1
  3
ACAD_XREC_ROUNDTRIP
360
2ABE
  3
BUMPTILE
360
29D9
  3
DIFFUSETILE
360
29D8
  3
OPACITYTILE
360
29DC
  3
REFLECTIONTILE
360
29DB
  3
REFRACTIONTILE
360
29DD
  3
SPECULARTILE
360
29DA
  0
DICTIONARY
  5
29E7
330
29E6
100
AcDbDictionary
280
     1
281
     1
  3
ACAD_XREC_ROUNDTRIP
360
2AC0
  3
BUMPTILE
360
29E9
  3
DIFFUSETILE
360
29E8
  3
OPACITYTILE
360
29EC
  3
REFLECTIONTILE
360
29EB
  3
REFRACTIONTILE
360
29ED
  3
SPECULARTILE
360
29EA
  0
DICTIONARY
  5
2AAF
330
EE8
100
AcDbDictionary
280
     1
281
     1
  3
ACAD_ROUNDTRIP_2008_TABLESTYLE_CELLSTYLEMAP
360
2AB0
  3
ACAD_XREC_ROUNDTRIP
360
2ABB
  0
DICTIONARY
  5
2ACB
330
29F4
100
AcDbDictionary
280
     1
281
     1
  3
ACAD_XREC_ROUNDTRIP
360
2ACC
  0
DICTIONARY
  5
2ACF
330
29F6
100
AcDbDictionary
280
     1
281
     1
  3
ACAD_XREC_ROUNDTRIP
360
2AD0
  0
DICTIONARY
  5
2ACD
330
29F5
100
AcDbDictionary
280
     1
281
     1
  3
ACAD_XREC_ROUNDTRIP
360
2ACE
  0
DICTIONARY
  5
2AC9
330
29F3
100
AcDbDictionary
280
     1
281
     1
  3
ACAD_XREC_ROUNDTRIP
360
2ACA
  0
DICTIONARY
  5
2AD7
330
29FA
100
AcDbDictionary
280
     1
281
     1
  3
ACAD_XREC_ROUNDTRIP
360
2AD8
  0
DICTIONARY
  5
2ADF
330
29FE
100
AcDbDictionary
280
     1
281
     1
  3
ACAD_XREC_ROUNDTRIP
360
2AE0
  0
DICTIONARY
  5
2AD1
330
29F7
100
AcDbDictionary
280
     1
281
     1
  3
ACAD_XREC_ROUNDTRIP
360
2AD2
  0
DICTIONARY
  5
2AD5
330
29F9
100
AcDbDictionary
280
     1
281
     1
  3
ACAD_XREC_ROUNDTRIP
360
2AD6
  0
DICTIONARY
  5
2AE5
330
2A01
100
AcDbDictionary
280
     1
281
     1
  3
ACAD_XREC_ROUNDTRIP
360
2AE6
  0
DICTIONARY
  5
2ADD
330
29FD
100
AcDbDictionary
280
     1
281
     1
  3
ACAD_XREC_ROUNDTRIP
360
2ADE
  0
DICTIONARY
  5
2AC1
330
29EF
100
AcDbDictionary
280
     1
281
     1
  3
ACAD_XREC_ROUNDTRIP
360
2AC2
  0
DICTIONARY
  5
2AC3
330
29F0
100
AcDbDictionary
280
     1
281
     1
  3
ACAD_XREC_ROUNDTRIP
360
2AC4
  0
DICTIONARY
  5
2AC5
330
29F1
100
AcDbDictionary
280
     1
281
     1
  3
ACAD_XREC_ROUNDTRIP
360
2AC6
  0
DICTIONARY
  5
2AC7
330
29F2
100
AcDbDictionary
280
     1
281
     1
  3
ACAD_XREC_ROUNDTRIP
360
2AC8
  0
DICTIONARY
  5
2AE1
330
29FF
100
AcDbDictionary
280
     1
281
     1
  3
ACAD_XREC_ROUNDTRIP
360
2AE2
  0
DICTIONARY
  5
2ADB
330
29FC
100
AcDbDictionary
280
     1
281
     1
  3
ACAD_XREC_ROUNDTRIP
360
2ADC
  0
DICTIONARY
  5
2AE3
330
2A00
100
AcDbDictionary
280
     1
281
     1
  3
ACAD_XREC_ROUNDTRIP
360
2AE4
  0
DICTIONARY
  5
2AD3
330
29F8
100
AcDbDictionary
280
     1
281
     1
  3
ACAD_XREC_ROUNDTRIP
360
2AD4
  0
DICTIONARY
  5
2AD9
330
29FB
100
AcDbDictionary
280
     1
281
     1
  3
ACAD_XREC_ROUNDTRIP
360
2ADA
  0
XRECORD
  5
2AB6
102
{ACAD_REACTORS
330
2AB5
102
}
330
2AB5
100
AcDbXrecord
280
     1
102
SHADEPLOT
 70
     0
102
SHADEPLOTRESLEVEL
 70
     2
102
SHADEPLOTCUSTOMDPI
 70
   300
  0
XRECORD
  5
2ABA
102
{ACAD_REACTORS
330
2AB9
102
}
330
2AB9
100
AcDbXrecord
280
     1
102
SHADEPLOT
 70
     0
102
SHADEPLOTRESLEVEL
 70
     2
102
SHADEPLOTCUSTOMDPI
 70
   300
  0
XRECORD
  5
2AB8
102
{ACAD_REACTORS
330
2AB7
102
}
330
2AB7
100
AcDbXrecord
280
     1
102
SHADEPLOT
 70
     0
102
SHADEPLOTRESLEVEL
 70
     2
102
SHADEPLOTCUSTOMDPI
 70
   300
  0
XRECORD
  5
2ABF
102
{ACAD_REACTORS
330
29DF
102
}
330
29DF
100
AcDbXrecord
280
     1
102
MATERIAL
148
0.0
149
0.0
149
0.0
 93
        0
 94
      127
282
     0
 72
     0
 77
     0
171
     0
175
     0
179
     0
273
     0
  0
XRECORD
  5
29E1
102
{ACAD_REACTORS
330
29DF
102
}
330
29DF
100
AcDbXrecord
280
     1
270
     1
271
     1
  0
XRECORD
  5
29E0
102
{ACAD_REACTORS
330
29DF
102
}
330
29DF
100
AcDbXrecord
280
     1
270
     1
271
     1
  0
XRECORD
  5
29E4
102
{ACAD_REACTORS
330
29DF
102
}
330
29DF
100
AcDbXrecord
280
     1
270
     1
271
     1
  0
XRECORD
  5
29E3
102
{ACAD_REACTORS
330
29DF
102
}
330
29DF
100
AcDbXrecord
280
     1
270
     1
271
     1
  0
XRECORD
  5
29E5
102
{ACAD_REACTORS
330
29DF
102
}
330
29DF
100
AcDbXrecord
280
     1
270
     1
271
     1
  0
XRECORD
  5
29E2
102
{ACAD_REACTORS
330
29DF
102
}
330
29DF
100
AcDbXrecord
280
     1
270
     1
271
     1
  0
XRECORD
  5
2ABE
102
{ACAD_REACTORS
330
29D7
102
}
330
29D7
100
AcDbXrecord
280
     1
102
MATERIAL
148
0.0
149
0.0
149
0.0
 93
        0
 94
      127
282
     0
 72
     0
 77
     0
171
     0
175
     0
179
     0
273
     0
  0
XRECORD
  5
29D9
102
{ACAD_REACTORS
330
29D7
102
}
330
29D7
100
AcDbXrecord
280
     1
270
     1
271
     1
  0
XRECORD
  5
29D8
102
{ACAD_REACTORS
330
29D7
102
}
330
29D7
100
AcDbXrecord
280
     1
270
     1
271
     1
  0
XRECORD
  5
29DC
102
{ACAD_REACTORS
330
29D7
102
}
330
29D7
100
AcDbXrecord
280
     1
270
     1
271
     1
  0
XRECORD
  5
29DB
102
{ACAD_REACTORS
330
29D7
102
}
330
29D7
100
AcDbXrecord
280
     1
270
     1
271
     1
  0
XRECORD
  5
29DD
102
{ACAD_REACTORS
330
29D7
102
}
330
29D7
100
AcDbXrecord
280
     1
270
     1
271
     1
  0
XRECORD
  5
29DA
102
{ACAD_REACTORS
330
29D7
102
}
330
29D7
100
AcDbXrecord
280
     1
270
     1
271
     1
  0
XRECORD
  5
2AC0
102
{ACAD_REACTORS
330
29E7
102
}
330
29E7
100
AcDbXrecord
280
     1
102
MATERIAL
148
0.0
149
0.0
149
0.0
 93
        0
 94
      127
282
     0
 72
     0
 77
     0
171
     0
175
     0
179
     0
273
     0
  0
XRECORD
  5
29E9
102
{ACAD_REACTORS
330
29E7
102
}
330
29E7
100
AcDbXrecord
280
     1
270
     1
271
     1
  0
XRECORD
  5
29E8
102
{ACAD_REACTORS
330
29E7
102
}
330
29E7
100
AcDbXrecord
280
     1
270
     1
271
     1
  0
XRECORD
  5
29EC
102
{ACAD_REACTORS
330
29E7
102
}
330
29E7
100
AcDbXrecord
280
     1
270
     1
271
     1
  0
XRECORD
  5
29EB
102
{ACAD_REACTORS
330
29E7
102
}
330
29E7
100
AcDbXrecord
280
     1
270
     1
271
     1
  0
XRECORD
  5
29ED
102
{ACAD_REACTORS
330
29E7
102
}
330
29E7
100
AcDbXrecord
280
     1
270
     1
271
     1
  0
XRECORD
  5
29EA
102
{ACAD_REACTORS
330
29E7
102
}
330
29E7
100
AcDbXrecord
280
     1
270
     1
271
     1
  0
CELLSTYLEMAP
  5
2AB0
102
{ACAD_REACTORS
330
2AAF
102
}
330
2AAF
100
AcDbCellStyleMap
 90
        3
300
CELLSTYLE
  1
TABLEFORMAT_BEGIN
 90
        5
170
     1
 91
        0
 92
    32768
 62
   257
 93
        1
300
CONTENTFORMAT
  1
CONTENTFORMAT_BEGIN
 90
        0
 91
        0
 92
        4
 93
        0
300

 40
0.0
140
1.0
 94
        5
 62
     0
340
11
144
6.0
309
CONTENTFORMAT_END
171
     1
301
MARGIN
  1
CELLMARGIN_BEGIN
 40
1.5
 40
1.5
 40
1.5
 40
1.5
 40
0.18
 40
0.18
309
CELLMARGIN_END
 94
        6
 95
        1
302
GRIDFORMAT
  1
GRIDFORMAT_BEGIN
 90
        0
 91
        1
 62
     0
 92
       -2
340
0
 93
        0
 40
0.045
309
GRIDFORMAT_END
 95
        2
302
GRIDFORMAT
  1
GRIDFORMAT_BEGIN
 90
        0
 91
        1
 62
     0
 92
       -2
340
0
 93
        0
 40
0.045
309
GRIDFORMAT_END
 95
        4
302
GRIDFORMAT
  1
GRIDFORMAT_BEGIN
 90
        0
 91
        1
 62
     0
 92
       -2
340
0
 93
        0
 40
0.045
309
GRIDFORMAT_END
 95
        8
302
GRIDFORMAT
  1
GRIDFORMAT_BEGIN
 90
        0
 91
        1
 62
     0
 92
       -2
340
0
 93
        0
 40
0.045
309
GRIDFORMAT_END
 95
       16
302
GRIDFORMAT
  1
GRIDFORMAT_BEGIN
 90
        0
 91
        1
 62
     0
 92
       -2
340
0
 93
        0
 40
0.045
309
GRIDFORMAT_END
 95
       32
302
GRIDFORMAT
  1
GRIDFORMAT_BEGIN
 90
        0
 91
        1
 62
     0
 92
       -2
340
0
 93
        0
 40
0.045
309
GRIDFORMAT_END
309
TABLEFORMAT_END
  1
CELLSTYLE_BEGIN
 90
        1
 91
        1
300
_TITLE
309
CELLSTYLE_END
300
CELLSTYLE
  1
TABLEFORMAT_BEGIN
 90
        5
170
     1
 91
        0
 92
        0
 62
   257
 93
        1
300
CONTENTFORMAT
  1
CONTENTFORMAT_BEGIN
 90
        0
 91
        0
 92
        4
 93
        0
300

 40
0.0
140
1.0
 94
        5
 62
     0
340
11
144
4.5
309
CONTENTFORMAT_END
171
     1
301
MARGIN
  1
CELLMARGIN_BEGIN
 40
1.5
 40
1.5
 40
1.5
 40
1.5
 40
0.18
 40
0.18
309
CELLMARGIN_END
 94
        6
 95
        1
302
GRIDFORMAT
  1
GRIDFORMAT_BEGIN
 90
        0
 91
        1
 62
     0
 92
       -2
340
0
 93
        0
 40
0.045
309
GRIDFORMAT_END
 95
        2
302
GRIDFORMAT
  1
GRIDFORMAT_BEGIN
 90
        0
 91
        1
 62
     0
 92
       -2
340
0
 93
        0
 40
0.045
309
GRIDFORMAT_END
 95
        4
302
GRIDFORMAT
  1
GRIDFORMAT_BEGIN
 90
        0
 91
        1
 62
     0
 92
       -2
340
0
 93
        0
 40
0.045
309
GRIDFORMAT_END
 95
        8
302
GRIDFORMAT
  1
GRIDFORMAT_BEGIN
 90
        0
 91
        1
 62
     0
 92
       -2
340
0
 93
        0
 40
0.045
309
GRIDFORMAT_END
 95
       16
302
GRIDFORMAT
  1
GRIDFORMAT_BEGIN
 90
        0
 91
        1
 62
     0
 92
       -2
340
0
 93
        0
 40
0.045
309
GRIDFORMAT_END
 95
       32
302
GRIDFORMAT
  1
GRIDFORMAT_BEGIN
 90
        0
 91
        1
 62
     0
 92
       -2
340
0
 93
        0
 40
0.045
309
GRIDFORMAT_END
309
TABLEFORMAT_END
  1
CELLSTYLE_BEGIN
 90
        2
 91
        1
300
_HEADER
309
CELLSTYLE_END
300
CELLSTYLE
  1
TABLEFORMAT_BEGIN
 90
        5
170
     1
 91
        0
 92
        0
 62
   257
 93
        1
300
CONTENTFORMAT
  1
CONTENTFORMAT_BEGIN
 90
        0
 91
        0
 92
        4
 93
        0
300

 40
0.0
140
1.0
 94
        2
 62
     0
340
11
144
4.5
309
CONTENTFORMAT_END
171
     1
301
MARGIN
  1
CELLMARGIN_BEGIN
 40
1.5
 40
1.5
 40
1.5
 40
1.5
 40
0.18
 40
0.18
309
CELLMARGIN_END
 94
        6
 95
        1
302
GRIDFORMAT
  1
GRIDFORMAT_BEGIN
 90
        0
 91
        1
 62
     0
 92
       -2
340
0
 93
        0
 40
0.045
309
GRIDFORMAT_END
 95
        2
302
GRIDFORMAT
  1
GRIDFORMAT_BEGIN
 90
        0
 91
        1
 62
     0
 92
       -2
340
0
 93
        0
 40
0.045
309
GRIDFORMAT_END
 95
        4
302
GRIDFORMAT
  1
GRIDFORMAT_BEGIN
 90
        0
 91
        1
 62
     0
 92
       -2
340
0
 93
        0
 40
0.045
309
GRIDFORMAT_END
 95
        8
302
GRIDFORMAT
  1
GRIDFORMAT_BEGIN
 90
        0
 91
        1
 62
     0
 92
       -2
340
0
 93
        0
 40
0.045
309
GRIDFORMAT_END
 95
       16
302
GRIDFORMAT
  1
GRIDFORMAT_BEGIN
 90
        0
 91
        1
 62
     0
 92
       -2
340
0
 93
        0
 40
0.045
309
GRIDFORMAT_END
 95
       32
302
GRIDFORMAT
  1
GRIDFORMAT_BEGIN
 90
        0
 91
        1
 62
     0
 92
       -2
340
0
 93
        0
 40
0.045
309
GRIDFORMAT_END
309
TABLEFORMAT_END
  1
CELLSTYLE_BEGIN
 90
        3
 91
        2
300
_DATA
309
CELLSTYLE_END
  0
XRECORD
  5
2ABB
102
{ACAD_REACTORS
330
2AAF
102
}
330
2AAF
100
AcDbXrecord
280
     1
102
ACAD_ROUNDTRIP_PRE2007_TABLESTYLE
 90
        4
 91
        0
  1

 92
        4
 93
        0
  2

 94
        4
 95
        0
  3

  0
XRECORD
  5
2ACC
102
{ACAD_REACTORS
330
2ACB
102
}
330
2ACB
100
AcDbXrecord
280
     1
102
RTVSPropertyOp0
 70
     1
102
RTVSPropertyOp1
 70
     1
102
RTVSPropertyOp2
 70
     1
102
RTVSPropertyOp3
 70
     1
102
RTVSPropertyOp4
 70
     1
102
RTVSPropertyOp5
 70
     1
102
RTVSPropertyOp6
 70
     1
102
RTVSPropertyOp7
 70
     1
102
RTVSPropertyOp8
 70
     1
102
RTVSPropertyOp9
 70
     1
102
RTVSPropertyOp10
 70
     1
102
RTVSPropertyOp11
 70
     1
102
RTVSPropertyOp12
 70
     1
102
RTVSPropertyOp13
 70
     1
102
RTVSPropertyOp14
 70
     1
102
RTVSPropertyOp15
 70
     1
102
RTVSPropertyOp16
 70
     1
102
RTVSPropertyOp17
 70
     1
102
RTVSPropertyOp18
 70
     1
102
RTVSPropertyOp19
 70
     1
102
RTVSPropertyOp20
 70
     1
102
RTVSPropertyOp21
 70
     1
102
RTVSPropertyOp22
 70
     1
102
RTVSPropertyOp23
 70
     1
102
RTVSPropertyOp24
 70
     1
102
RTVSPropertyOp25
 70
     1
102
RTVSPropertyOp26
 70
     1
102
RTVSPropertyOp27
 70
     1
  0
XRECORD
  5
2AD0
102
{ACAD_REACTORS
330
2ACF
102
}
330
2ACF
100
AcDbXrecord
280
     1
102
RTVSPropertyOp0
 70
     1
102
RTVSPropertyOp1
 70
     1
102
RTVSPropertyOp2
 70
     1
102
RTVSPropertyOp3
 70
     1
102
RTVSPropertyOp4
 70
     1
102
RTVSPropertyOp5
 70
     1
102
RTVSPropertyOp6
 70
     1
102
RTVSPropertyOp7
 70
     1
102
RTVSPropertyOp8
 70
     1
102
RTVSPropertyOp9
 70
     1
102
RTVSPropertyOp10
 70
     1
102
RTVSPropertyOp11
 70
     1
102
RTVSPropertyOp12
 70
     1
102
RTVSPropertyOp13
 70
     1
102
RTVSPropertyOp14
 70
     1
102
RTVSPropertyOp15
 70
     1
102
RTVSPropertyOp16
 70
     1
102
RTVSPropertyOp17
 70
     1
102
RTVSPropertyOp18
 70
     1
102
RTVSPropertyOp19
 70
     1
102
RTVSPropertyOp20
 70
     1
102
RTVSPropertyOp21
 70
     1
102
RTVSPropertyOp22
 70
     1
102
RTVSPropertyOp23
 70
     1
102
RTVSPropertyOp24
 70
     1
102
RTVSPropertyOp25
 70
     1
102
RTVSPropertyOp26
 70
     1
102
RTVSPropertyOp27
 70
     1
  0
XRECORD
  5
2ACE
102
{ACAD_REACTORS
330
2ACD
102
}
330
2ACD
100
AcDbXrecord
280
     1
102
RTVSPropertyOp0
 70
     1
102
RTVSPropertyOp1
 70
     1
102
RTVSPropertyOp2
 70
     1
102
RTVSPropertyOp3
 70
     1
102
RTVSPropertyOp4
 70
     1
102
RTVSPropertyOp5
 70
     1
102
RTVSPropertyOp6
 70
     1
102
RTVSPropertyOp7
 70
     1
102
RTVSPropertyOp8
 70
     1
102
RTVSPropertyOp9
 70
     1
102
RTVSPropertyOp10
 70
     1
102
RTVSPropertyOp11
 70
     1
102
RTVSPropertyOp12
 70
     1
102
RTVSPropertyOp13
 70
     1
102
RTVSPropertyOp14
 70
     1
102
RTVSPropertyOp15
 70
     1
102
RTVSPropertyOp16
 70
     1
102
RTVSPropertyOp17
 70
     1
102
RTVSPropertyOp18
 70
     1
102
RTVSPropertyOp19
 70
     1
102
RTVSPropertyOp20
 70
     1
102
RTVSPropertyOp21
 70
     1
102
RTVSPropertyOp22
 70
     1
102
RTVSPropertyOp23
 70
     1
102
RTVSPropertyOp24
 70
     1
102
RTVSPropertyOp25
 70
     1
102
RTVSPropertyOp26
 70
     1
102
RTVSPropertyOp27
 70
     1
  0
XRECORD
  5
2ACA
102
{ACAD_REACTORS
330
2AC9
102
}
330
2AC9
100
AcDbXrecord
280
     1
102
RTVSPropertyOp0
 70
     1
102
RTVSPropertyOp1
 70
     1
102
RTVSPropertyOp2
 70
     1
102
RTVSPropertyOp3
 70
     1
102
RTVSPropertyOp4
 70
     1
102
RTVSPropertyOp5
 70
     1
102
RTVSPropertyOp6
 70
     1
102
RTVSPropertyOp7
 70
     1
102
RTVSPropertyOp8
 70
     1
102
RTVSPropertyOp9
 70
     1
102
RTVSPropertyOp10
 70
     1
102
RTVSPropertyOp11
 70
     1
102
RTVSPropertyOp12
 70
     1
102
RTVSPropertyOp13
 70
     1
102
RTVSPropertyOp14
 70
     1
102
RTVSPropertyOp15
 70
     1
102
RTVSPropertyOp16
 70
     1
102
RTVSPropertyOp17
 70
     1
102
RTVSPropertyOp18
 70
     1
102
RTVSPropertyOp19
 70
     1
102
RTVSPropertyOp20
 70
     1
102
RTVSPropertyOp21
 70
     1
102
RTVSPropertyOp22
 70
     1
102
RTVSPropertyOp23
 70
     1
102
RTVSPropertyOp24
 70
     1
102
RTVSPropertyOp25
 70
     1
102
RTVSPropertyOp26
 70
     1
102
RTVSPropertyOp27
 70
     1
  0
XRECORD
  5
2AD8
102
{ACAD_REACTORS
330
2AD7
102
}
330
2AD7
100
AcDbXrecord
280
     1
102
RTVSPropertyOp0
 70
     1
102
RTVSPropertyOp1
 70
     1
102
RTVSPropertyOp2
 70
     1
102
RTVSPropertyOp3
 70
     1
102
RTVSPropertyOp4
 70
     1
102
RTVSPropertyOp5
 70
     1
102
RTVSPropertyOp6
 70
     1
102
RTVSPropertyOp7
 70
     1
102
RTVSPropertyOp8
 70
     1
102
RTVSPropertyOp9
 70
     1
102
RTVSPropertyOp10
 70
     1
102
RTVSPropertyOp11
 70
     1
102
RTVSPropertyOp12
 70
     1
102
RTVSPropertyOp13
 70
     1
102
RTVSPropertyOp14
 70
     1
102
RTVSPropertyOp15
 70
     1
102
RTVSPropertyOp16
 70
     1
102
RTVSPropertyOp17
 70
     1
102
RTVSPropertyOp18
 70
     1
102
RTVSPropertyOp19
 70
     1
102
RTVSPropertyOp20
 70
     1
102
RTVSPropertyOp21
 70
     1
102
RTVSPropertyOp22
 70
     1
102
RTVSPropertyOp23
 70
     1
102
RTVSPropertyOp24
 70
     1
102
RTVSPropertyOp25
 70
     1
102
RTVSPropertyOp26
 70
     1
102
RTVSPropertyOp27
 70
     1
  0
XRECORD
  5
2AE0
102
{ACAD_REACTORS
330
2ADF
102
}
330
2ADF
100
AcDbXrecord
280
     1
102
RTVSPropertyOp0
 70
     1
102
RTVSPropertyOp1
 70
     1
102
RTVSPropertyOp2
 70
     1
102
RTVSPropertyOp3
 70
     1
102
RTVSPropertyOp4
 70
     1
102
RTVSPropertyOp5
 70
     1
102
RTVSPropertyOp6
 70
     1
102
RTVSPropertyOp7
 70
     1
102
RTVSPropertyOp8
 70
     1
102
RTVSPropertyOp9
 70
     1
102
RTVSPropertyOp10
 70
     1
102
RTVSPropertyOp11
 70
     1
102
RTVSPropertyOp12
 70
     1
102
RTVSPropertyOp13
 70
     1
102
RTVSPropertyOp14
 70
     1
102
RTVSPropertyOp15
 70
     1
102
RTVSPropertyOp16
 70
     1
102
RTVSPropertyOp17
 70
     1
102
RTVSPropertyOp18
 70
     1
102
RTVSPropertyOp19
 70
     1
102
RTVSPropertyOp20
 70
     1
102
RTVSPropertyOp21
 70
     1
102
RTVSPropertyOp22
 70
     1
102
RTVSPropertyOp23
 70
     1
102
RTVSPropertyOp24
 70
     1
102
RTVSPropertyOp25
 70
     1
102
RTVSPropertyOp26
 70
     1
102
RTVSPropertyOp27
 70
     1
  0
XRECORD
  5
2AD2
102
{ACAD_REACTORS
330
2AD1
102
}
330
2AD1
100
AcDbXrecord
280
     1
102
RTVSPropertyOp0
 70
     1
102
RTVSPropertyOp1
 70
     1
102
RTVSPropertyOp2
 70
     1
102
RTVSPropertyOp3
 70
     1
102
RTVSPropertyOp4
 70
     1
102
RTVSPropertyOp5
 70
     1
102
RTVSPropertyOp6
 70
     1
102
RTVSPropertyOp7
 70
     1
102
RTVSPropertyOp8
 70
     1
102
RTVSPropertyOp9
 70
     1
102
RTVSPropertyOp10
 70
     1
102
RTVSPropertyOp11
 70
     1
102
RTVSPropertyOp12
 70
     1
102
RTVSPropertyOp13
 70
     1
102
RTVSPropertyOp14
 70
     1
102
RTVSPropertyOp15
 70
     1
102
RTVSPropertyOp16
 70
     1
102
RTVSPropertyOp17
 70
     1
102
RTVSPropertyOp18
 70
     1
102
RTVSPropertyOp19
 70
     1
102
RTVSPropertyOp20
 70
     1
102
RTVSPropertyOp21
 70
     1
102
RTVSPropertyOp22
 70
     1
102
RTVSPropertyOp23
 70
     1
102
RTVSPropertyOp24
 70
     1
102
RTVSPropertyOp25
 70
     1
102
RTVSPropertyOp26
 70
     1
102
RTVSPropertyOp27
 70
     1
  0
XRECORD
  5
2AD6
102
{ACAD_REACTORS
330
2AD5
102
}
330
2AD5
100
AcDbXrecord
280
     1
102
RTVSPropertyOp0
 70
     1
102
RTVSPropertyOp1
 70
     1
102
RTVSPropertyOp2
 70
     1
102
RTVSPropertyOp3
 70
     1
102
RTVSPropertyOp4
 70
     1
102
RTVSPropertyOp5
 70
     1
102
RTVSPropertyOp6
 70
     1
102
RTVSPropertyOp7
 70
     1
102
RTVSPropertyOp8
 70
     1
102
RTVSPropertyOp9
 70
     1
102
RTVSPropertyOp10
 70
     1
102
RTVSPropertyOp11
 70
     1
102
RTVSPropertyOp12
 70
     1
102
RTVSPropertyOp13
 70
     1
102
RTVSPropertyOp14
 70
     1
102
RTVSPropertyOp15
 70
     1
102
RTVSPropertyOp16
 70
     1
102
RTVSPropertyOp17
 70
     1
102
RTVSPropertyOp18
 70
     1
102
RTVSPropertyOp19
 70
     1
102
RTVSPropertyOp20
 70
     1
102
RTVSPropertyOp21
 70
     1
102
RTVSPropertyOp22
 70
     1
102
RTVSPropertyOp23
 70
     1
102
RTVSPropertyOp24
 70
     1
102
RTVSPropertyOp25
 70
     1
102
RTVSPropertyOp26
 70
     1
102
RTVSPropertyOp27
 70
     1
  0
XRECORD
  5
2AE6
102
{ACAD_REACTORS
330
2AE5
102
}
330
2AE5
100
AcDbXrecord
280
     1
102
RTVSPropertyOp0
 70
     0
102
RTVSPropertyOp1
 70
     0
102
RTVSPropertyOp2
 70
     0
102
RTVSPropertyOp3
 70
     0
102
RTVSPropertyOp4
 70
     0
102
RTVSPropertyOp5
 70
     0
102
RTVSPropertyOp6
 70
     0
102
RTVSPropertyOp7
 70
     0
102
RTVSPropertyOp8
 70
     0
102
RTVSPropertyOp9
 70
     0
102
RTVSPropertyOp10
 70
     0
102
RTVSPropertyOp11
 70
     0
102
RTVSPropertyOp12
 70
     0
102
RTVSPropertyOp13
 70
     0
102
RTVSPropertyOp14
 70
     2
102
RTVSPropertyOp15
 70
     0
102
RTVSPropertyOp16
 70
     0
102
RTVSPropertyOp17
 70
     0
102
RTVSPropertyOp18
 70
     0
102
RTVSPropertyOp19
 70
     0
102
RTVSPropertyOp20
 70
     0
102
RTVSPropertyOp21
 70
     0
102
RTVSPropertyOp22
 70
     0
102
RTVSPropertyOp23
 70
     0
102
RTVSPropertyOp24
 70
     0
102
RTVSPropertyOp25
 70
     0
102
RTVSPropertyOp26
 70
     0
102
RTVSPropertyOp27
 70
     0
  0
XRECORD
  5
2ADE
102
{ACAD_REACTORS
330
2ADD
102
}
330
2ADD
100
AcDbXrecord
280
     1
102
RTVSPropertyOp0
 70
     1
102
RTVSPropertyOp1
 70
     1
102
RTVSPropertyOp2
 70
     1
102
RTVSPropertyOp3
 70
     1
102
RTVSPropertyOp4
 70
     1
102
RTVSPropertyOp5
 70
     1
102
RTVSPropertyOp6
 70
     1
102
RTVSPropertyOp7
 70
     1
102
RTVSPropertyOp8
 70
     1
102
RTVSPropertyOp9
 70
     1
102
RTVSPropertyOp10
 70
     1
102
RTVSPropertyOp11
 70
     1
102
RTVSPropertyOp12
 70
     1
102
RTVSPropertyOp13
 70
     1
102
RTVSPropertyOp14
 70
     1
102
RTVSPropertyOp15
 70
     1
102
RTVSPropertyOp16
 70
     1
102
RTVSPropertyOp17
 70
     1
102
RTVSPropertyOp18
 70
     1
102
RTVSPropertyOp19
 70
     1
102
RTVSPropertyOp20
 70
     1
102
RTVSPropertyOp21
 70
     1
102
RTVSPropertyOp22
 70
     1
102
RTVSPropertyOp23
 70
     1
102
RTVSPropertyOp24
 70
     1
102
RTVSPropertyOp25
 70
     1
102
RTVSPropertyOp26
 70
     1
102
RTVSPropertyOp27
 70
     1
  0
XRECORD
  5
2AC2
102
{ACAD_REACTORS
330
2AC1
102
}
330
2AC1
100
AcDbXrecord
280
     1
102
RTVSPropertyOp0
 70
     1
102
RTVSPropertyOp1
 70
     1
102
RTVSPropertyOp2
 70
     1
102
RTVSPropertyOp3
 70
     1
102
RTVSPropertyOp4
 70
     1
102
RTVSPropertyOp5
 70
     1
102
RTVSPropertyOp6
 70
     1
102
RTVSPropertyOp7
 70
     1
102
RTVSPropertyOp8
 70
     1
102
RTVSPropertyOp9
 70
     1
102
RTVSPropertyOp10
 70
     1
102
RTVSPropertyOp11
 70
     1
102
RTVSPropertyOp12
 70
     1
102
RTVSPropertyOp13
 70
     1
102
RTVSPropertyOp14
 70
     1
102
RTVSPropertyOp15
 70
     1
102
RTVSPropertyOp16
 70
     1
102
RTVSPropertyOp17
 70
     1
102
RTVSPropertyOp18
 70
     1
102
RTVSPropertyOp19
 70
     1
102
RTVSPropertyOp20
 70
     1
102
RTVSPropertyOp21
 70
     1
102
RTVSPropertyOp22
 70
     1
102
RTVSPropertyOp23
 70
     1
102
RTVSPropertyOp24
 70
     1
102
RTVSPropertyOp25
 70
     1
102
RTVSPropertyOp26
 70
     1
102
RTVSPropertyOp27
 70
     1
  0
XRECORD
  5
2AC4
102
{ACAD_REACTORS
330
2AC3
102
}
330
2AC3
100
AcDbXrecord
280
     1
102
RTVSPropertyOp0
 70
     1
102
RTVSPropertyOp1
 70
     1
102
RTVSPropertyOp2
 70
     1
102
RTVSPropertyOp3
 70
     1
102
RTVSPropertyOp4
 70
     1
102
RTVSPropertyOp5
 70
     1
102
RTVSPropertyOp6
 70
     1
102
RTVSPropertyOp7
 70
     1
102
RTVSPropertyOp8
 70
     1
102
RTVSPropertyOp9
 70
     1
102
RTVSPropertyOp10
 70
     1
102
RTVSPropertyOp11
 70
     1
102
RTVSPropertyOp12
 70
     1
102
RTVSPropertyOp13
 70
     1
102
RTVSPropertyOp14
 70
     1
102
RTVSPropertyOp15
 70
     1
102
RTVSPropertyOp16
 70
     1
102
RTVSPropertyOp17
 70
     1
102
RTVSPropertyOp18
 70
     1
102
RTVSPropertyOp19
 70
     1
102
RTVSPropertyOp20
 70
     1
102
RTVSPropertyOp21
 70
     1
102
RTVSPropertyOp22
 70
     1
102
RTVSPropertyOp23
 70
     1
102
RTVSPropertyOp24
 70
     1
102
RTVSPropertyOp25
 70
     1
102
RTVSPropertyOp26
 70
     1
102
RTVSPropertyOp27
 70
     1
  0
XRECORD
  5
2AC6
102
{ACAD_REACTORS
330
2AC5
102
}
330
2AC5
100
AcDbXrecord
280
     1
102
RTVSPropertyOp0
 70
     1
102
RTVSPropertyOp1
 70
     1
102
RTVSPropertyOp2
 70
     1
102
RTVSPropertyOp3
 70
     1
102
RTVSPropertyOp4
 70
     1
102
RTVSPropertyOp5
 70
     1
102
RTVSPropertyOp6
 70
     1
102
RTVSPropertyOp7
 70
     1
102
RTVSPropertyOp8
 70
     1
102
RTVSPropertyOp9
 70
     1
102
RTVSPropertyOp10
 70
     1
102
RTVSPropertyOp11
 70
     1
102
RTVSPropertyOp12
 70
     1
102
RTVSPropertyOp13
 70
     1
102
RTVSPropertyOp14
 70
     1
102
RTVSPropertyOp15
 70
     1
102
RTVSPropertyOp16
 70
     1
102
RTVSPropertyOp17
 70
     1
102
RTVSPropertyOp18
 70
     1
102
RTVSPropertyOp19
 70
     1
102
RTVSPropertyOp20
 70
     1
102
RTVSPropertyOp21
 70
     1
102
RTVSPropertyOp22
 70
     1
102
RTVSPropertyOp23
 70
     1
102
RTVSPropertyOp24
 70
     1
102
RTVSPropertyOp25
 70
     1
102
RTVSPropertyOp26
 70
     1
102
RTVSPropertyOp27
 70
     1
  0
XRECORD
  5
2AC8
102
{ACAD_REACTORS
330
2AC7
102
}
330
2AC7
100
AcDbXrecord
280
     1
102
RTVSPropertyOp0
 70
     1
102
RTVSPropertyOp1
 70
     1
102
RTVSPropertyOp2
 70
     1
102
RTVSPropertyOp3
 70
     1
102
RTVSPropertyOp4
 70
     1
102
RTVSPropertyOp5
 70
     1
102
RTVSPropertyOp6
 70
     1
102
RTVSPropertyOp7
 70
     1
102
RTVSPropertyOp8
 70
     1
102
RTVSPropertyOp9
 70
     1
102
RTVSPropertyOp10
 70
     1
102
RTVSPropertyOp11
 70
     1
102
RTVSPropertyOp12
 70
     1
102
RTVSPropertyOp13
 70
     1
102
RTVSPropertyOp14
 70
     1
102
RTVSPropertyOp15
 70
     1
102
RTVSPropertyOp16
 70
     1
102
RTVSPropertyOp17
 70
     1
102
RTVSPropertyOp18
 70
     1
102
RTVSPropertyOp19
 70
     1
102
RTVSPropertyOp20
 70
     1
102
RTVSPropertyOp21
 70
     1
102
RTVSPropertyOp22
 70
     1
102
RTVSPropertyOp23
 70
     1
102
RTVSPropertyOp24
 70
     1
102
RTVSPropertyOp25
 70
     1
102
RTVSPropertyOp26
 70
     1
102
RTVSPropertyOp27
 70
     1
  0
XRECORD
  5
2AE2
102
{ACAD_REACTORS
330
2AE1
102
}
330
2AE1
100
AcDbXrecord
280
     1
102
RTVSPropertyOp0
 70
     0
102
RTVSPropertyOp1
 70
     0
102
RTVSPropertyOp2
 70
     0
102
RTVSPropertyOp3
 70
     0
102
RTVSPropertyOp4
 70
     0
102
RTVSPropertyOp5
 70
     0
102
RTVSPropertyOp6
 70
     0
102
RTVSPropertyOp7
 70
     0
102
RTVSPropertyOp8
 70
     0
102
RTVSPropertyOp9
 70
     0
102
RTVSPropertyOp10
 70
     0
102
RTVSPropertyOp11
 70
     0
102
RTVSPropertyOp12
 70
     0
102
RTVSPropertyOp13
 70
     0
102
RTVSPropertyOp14
 70
     2
102
RTVSPropertyOp15
 70
     0
102
RTVSPropertyOp16
 70
     0
102
RTVSPropertyOp17
 70
     0
102
RTVSPropertyOp18
 70
     0
102
RTVSPropertyOp19
 70
     0
102
RTVSPropertyOp20
 70
     0
102
RTVSPropertyOp21
 70
     0
102
RTVSPropertyOp22
 70
     0
102
RTVSPropertyOp23
 70
     0
102
RTVSPropertyOp24
 70
     0
102
RTVSPropertyOp25
 70
     0
102
RTVSPropertyOp26
 70
     0
102
RTVSPropertyOp27
 70
     0
  0
XRECORD
  5
2ADC
102
{ACAD_REACTORS
330
2ADB
102
}
330
2ADB
100
AcDbXrecord
280
     1
102
RTVSPropertyOp0
 70
     1
102
RTVSPropertyOp1
 70
     1
102
RTVSPropertyOp2
 70
     1
102
RTVSPropertyOp3
 70
     1
102
RTVSPropertyOp4
 70
     1
102
RTVSPropertyOp5
 70
     1
102
RTVSPropertyOp6
 70
     1
102
RTVSPropertyOp7
 70
     1
102
RTVSPropertyOp8
 70
     1
102
RTVSPropertyOp9
 70
     1
102
RTVSPropertyOp10
 70
     1
102
RTVSPropertyOp11
 70
     1
102
RTVSPropertyOp12
 70
     1
102
RTVSPropertyOp13
 70
     1
102
RTVSPropertyOp14
 70
     1
102
RTVSPropertyOp15
 70
     1
102
RTVSPropertyOp16
 70
     1
102
RTVSPropertyOp17
 70
     1
102
RTVSPropertyOp18
 70
     1
102
RTVSPropertyOp19
 70
     1
102
RTVSPropertyOp20
 70
     1
102
RTVSPropertyOp21
 70
     1
102
RTVSPropertyOp22
 70
     1
102
RTVSPropertyOp23
 70
     1
102
RTVSPropertyOp24
 70
     1
102
RTVSPropertyOp25
 70
     1
102
RTVSPropertyOp26
 70
     1
102
RTVSPropertyOp27
 70
     1
  0
XRECORD
  5
2AE4
102
{ACAD_REACTORS
330
2AE3
102
}
330
2AE3
100
AcDbXrecord
280
     1
102
RTVSPropertyOp0
 70
     0
102
RTVSPropertyOp1
 70
     0
102
RTVSPropertyOp2
 70
     0
102
RTVSPropertyOp3
 70
     0
102
RTVSPropertyOp4
 70
     0
102
RTVSPropertyOp5
 70
     0
102
RTVSPropertyOp6
 70
     0
102
RTVSPropertyOp7
 70
     0
102
RTVSPropertyOp8
 70
     0
102
RTVSPropertyOp9
 70
     0
102
RTVSPropertyOp10
 70
     0
102
RTVSPropertyOp11
 70
     0
102
RTVSPropertyOp12
 70
     0
102
RTVSPropertyOp13
 70
     0
102
RTVSPropertyOp14
 70
     2
102
RTVSPropertyOp15
 70
     0
102
RTVSPropertyOp16
 70
     0
102
RTVSPropertyOp17
 70
     0
102
RTVSPropertyOp18
 70
     0
102
RTVSPropertyOp19
 70
     0
102
RTVSPropertyOp20
 70
     0
102
RTVSPropertyOp21
 70
     0
102
RTVSPropertyOp22
 70
     0
102
RTVSPropertyOp23
 70
     0
102
RTVSPropertyOp24
 70
     0
102
RTVSPropertyOp25
 70
     0
102
RTVSPropertyOp26
 70
     0
102
RTVSPropertyOp27
 70
     0
  0
XRECORD
  5
2AD4
102
{ACAD_REACTORS
330
2AD3
102
}
330
2AD3
100
AcDbXrecord
280
     1
102
RTVSPropertyOp0
 70
     1
102
RTVSPropertyOp1
 70
     1
102
RTVSPropertyOp2
 70
     1
102
RTVSPropertyOp3
 70
     1
102
RTVSPropertyOp4
 70
     1
102
RTVSPropertyOp5
 70
     1
102
RTVSPropertyOp6
 70
     1
102
RTVSPropertyOp7
 70
     1
102
RTVSPropertyOp8
 70
     1
102
RTVSPropertyOp9
 70
     1
102
RTVSPropertyOp10
 70
     1
102
RTVSPropertyOp11
 70
     1
102
RTVSPropertyOp12
 70
     1
102
RTVSPropertyOp13
 70
     1
102
RTVSPropertyOp14
 70
     1
102
RTVSPropertyOp15
 70
     1
102
RTVSPropertyOp16
 70
     1
102
RTVSPropertyOp17
 70
     1
102
RTVSPropertyOp18
 70
     1
102
RTVSPropertyOp19
 70
     1
102
RTVSPropertyOp20
 70
     1
102
RTVSPropertyOp21
 70
     1
102
RTVSPropertyOp22
 70
     1
102
RTVSPropertyOp23
 70
     1
102
RTVSPropertyOp24
 70
     1
102
RTVSPropertyOp25
 70
     1
102
RTVSPropertyOp26
 70
     1
102
RTVSPropertyOp27
 70
     1
  0
XRECORD
  5
2ADA
102
{ACAD_REACTORS
330
2AD9
102
}
330
2AD9
100
AcDbXrecord
280
     1
102
RTVSPropertyOp0
 70
     1
102
RTVSPropertyOp1
 70
     1
102
RTVSPropertyOp2
 70
     1
102
RTVSPropertyOp3
 70
     1
102
RTVSPropertyOp4
 70
     1
102
RTVSPropertyOp5
 70
     1
102
RTVSPropertyOp6
 70
     1
102
RTVSPropertyOp7
 70
     1
102
RTVSPropertyOp8
 70
     1
102
RTVSPropertyOp9
 70
     1
102
RTVSPropertyOp10
 70
     1
102
RTVSPropertyOp11
 70
     1
102
RTVSPropertyOp12
 70
     1
102
RTVSPropertyOp13
 70
     1
102
RTVSPropertyOp14
 70
     1
102
RTVSPropertyOp15
 70
     1
102
RTVSPropertyOp16
 70
     1
102
RTVSPropertyOp17
 70
     1
102
RTVSPropertyOp18
 70
     1
102
RTVSPropertyOp19
 70
     1
102
RTVSPropertyOp20
 70
     1
102
RTVSPropertyOp21
 70
     1
102
RTVSPropertyOp22
 70
     1
102
RTVSPropertyOp23
 70
     1
102
RTVSPropertyOp24
 70
     1
102
RTVSPropertyOp25
 70
     1
102
RTVSPropertyOp26
 70
     1
102
RTVSPropertyOp27
 70
     1
  0
ENDSEC
  0
EOF
