  0
SECTION
  2
HEADER
  9
$ACADVER
  1
AC1015
  9
$ACADMAINTVER
 70
    20
  9
$DWGCODEPAGE
  3
ANSI_1252
  9
$INSBASE
 10
0.0
 20
0.0
 30
0.0
  9
$EXTMIN
 10
5365.869959490947
 20
2001.697257913129
 30
-0.0000000017937957
  9
$EXTMAX
 10
5368.839699437035
 20
2003.547497084773
 30
0.0000000001557791
  9
$LIMMIN
 10
0.0
 20
0.0
  9
$LIMMAX
 10
420.0
 20
297.0
  9
$ORTHOMODE
 70
     1
  9
$REGENMODE
 70
     1
  9
$FILLMODE
 70
     1
  9
$QTEXTMODE
 70
     0
  9
$MIRRTEXT
 70
     1
  9
$LTSCALE
 40
1.0
  9
$ATTMODE
 70
     1
  9
$TEXTSIZE
 40
2.5
  9
$TRACEWID
 40
1.0
  9
$TEXTSTYLE
  7
SANINDUSA
  9
$CLAYER
  8
0
  9
$CELTYPE
  6
ByLayer
  9
$CECOLOR
 62
   256
  9
$CELTSCALE
 40
1.0
  9
$DISPSILH
 70
     0
  9
$DIMSCALE
 40
10.0
  9
$DIMASZ
 40
2.0
  9
$DIMEXO
 40
1.0
  9
$DIMDLI
 40
1.0
  9
$DIMRND
 40
0.0
  9
$DIMDLE
 40
0.0
  9
$DIMEXE
 40
1.0
  9
$DIMTP
 40
0.0
  9
$DIMTM
 40
0.0
  9
$DIMTXT
 40
2.0
  9
$DIMCEN
 40
0.0
  9
$DIMTSZ
 40
0.0
  9
$DIMTOL
 70
     0
  9
$DIMLIM
 70
     0
  9
$DIMTIH
 70
     0
  9
$DIMTOH
 70
     0
  9
$DIMSE1
 70
     0
  9
$DIMSE2
 70
     0
  9
$DIMTAD
 70
     1
  9
$DIMZIN
 70
     8
  9
$DIMBLK
  1

  9
$DIMASO
 70
     1
  9
$DIMSHO
 70
     1
  9
$DIMPOST
  1

  9
$DIMAPOST
  1

  9
$DIMALT
 70
     0
  9
$DIMALTD
 70
     3
  9
$DIMALTF
 40
0.03937007874016
  9
$DIMLFAC
 40
1.0
  9
$DIMTOFL
 70
     1
  9
$DIMTVP
 40
0.0
  9
$DIMTIX
 70
     0
  9
$DIMSOXD
 70
     0
  9
$DIMSAH
 70
     0
  9
$DIMBLK1
  1

  9
$DIMBLK2
  1

  9
$DIMSTYLE
  2
SANINDUSA
  9
$DIMCLRD
 70
   256
  9
$DIMCLRE
 70
   256
  9
$DIMCLRT
 70
   256
  9
$DIMTFAC
 40
1.0
  9
$DIMGAP
 40
1.0
  9
$DIMJUST
 70
     0
  9
$DIMSD1
 70
     0
  9
$DIMSD2
 70
     0
  9
$DIMTOLJ
 70
     0
  9
$DIMTZIN
 70
     8
  9
$DIMALTZ
 70
     0
  9
$DIMALTTZ
 70
     0
  9
$DIMUPT
 70
     0
  9
$DIMDEC
 70
     1
  9
$DIMTDEC
 70
     1
  9
$DIMALTU
 70
     2
  9
$DIMALTTD
 70
     3
  9
$DIMTXSTY
  7
SANINDUSA
  9
$DIMAUNIT
 70
     0
  9
$DIMADEC
 70
     1
  9
$DIMALTRND
 40
0.0
  9
$DIMAZIN
 70
     0
  9
$DIMDSEP
 70
    44
  9
$DIMATFIT
 70
     3
  9
$DIMFRAC
 70
     0
  9
$DIMLDRBLK
  1

  9
$DIMLUNIT
 70
     2
  9
$DIMLWD
 70
    -1
  9
$DIMLWE
 70
    -1
  9
$DIMTMOVE
 70
     0
  9
$LUNITS
 70
     2
  9
$LUPREC
 70
     4
  9
$SKETCHINC
 40
1.0
  9
$FILLETRAD
 40
0.0
  9
$AUNITS
 70
     0
  9
$AUPREC
 70
     0
  9
$MENU
  1
.
  9
$ELEVATION
 40
0.0
  9
$PELEVATION
 40
0.0
  9
$THICKNESS
 40
0.0
  9
$LIMCHECK
 70
     0
  9
$CHAMFERA
 40
10.0
  9
$CHAMFERB
 40
10.0
  9
$CHAMFERC
 40
20.0
  9
$CHAMFERD
 40
0.0
  9
$SKPOLY
 70
     0
  9
$TDCREATE
 40
2454138.432731481
  9
$TDUCREATE
 40
2454138.391064815
  9
$TDUPDATE
 40
2455824.615788658
  9
$TDUUPDATE
 40
2455824.574121991
  9
$TDINDWG
 40
0.0831432639
  9
$TDUSRTIMER
 40
0.0831432639
  9
$USRTIMER
 70
     1
  9
$ANGBASE
 50
0.0
  9
$ANGDIR
 70
     0
  9
$PDMODE
 70
     0
  9
$PDSIZE
 40
0.0
  9
$PLINEWID
 40
0.0
  9
$SPLFRAME
 70
     0
  9
$SPLINETYPE
 70
     6
  9
$SPLINESEGS
 70
     8
  9
$HANDSEED
  5
24BE
  9
$SURFTAB1
 70
     6
  9
$SURFTAB2
 70
     6
  9
$SURFTYPE
 70
     6
  9
$SURFU
 70
     6
  9
$SURFV
 70
     6
  9
$UCSBASE
  2

  9
$UCSNAME
  2

  9
$UCSORG
 10
0.0
 20
0.0
 30
0.0
  9
$UCSXDIR
 10
1.0
 20
0.0
 30
0.0
  9
$UCSYDIR
 10
0.0
 20
1.0
 30
0.0
  9
$UCSORTHOREF
  2

  9
$UCSORTHOVIEW
 70
     0
  9
$UCSORGTOP
 10
0.0
 20
0.0
 30
0.0
  9
$UCSORGBOTTOM
 10
0.0
 20
0.0
 30
0.0
  9
$UCSORGLEFT
 10
0.0
 20
0.0
 30
0.0
  9
$UCSORGRIGHT
 10
0.0
 20
0.0
 30
0.0
  9
$UCSORGFRONT
 10
0.0
 20
0.0
 30
0.0
  9
$UCSORGBACK
 10
0.0
 20
0.0
 30
0.0
  9
$PUCSBASE
  2

  9
$PUCSNAME
  2

  9
$PUCSORG
 10
0.0
 20
0.0
 30
0.0
  9
$PUCSXDIR
 10
1.0
 20
0.0
 30
0.0
  9
$PUCSYDIR
 10
0.0
 20
1.0
 30
0.0
  9
$PUCSORTHOREF
  2

  9
$PUCSORTHOVIEW
 70
     0
  9
$PUCSORGTOP
 10
0.0
 20
0.0
 30
0.0
  9
$PUCSORGBOTTOM
 10
0.0
 20
0.0
 30
0.0
  9
$PUCSORGLEFT
 10
0.0
 20
0.0
 30
0.0
  9
$PUCSORGRIGHT
 10
0.0
 20
0.0
 30
0.0
  9
$PUCSORGFRONT
 10
0.0
 20
0.0
 30
0.0
  9
$PUCSORGBACK
 10
0.0
 20
0.0
 30
0.0
  9
$USERI1
 70
     0
  9
$USERI2
 70
     0
  9
$USERI3
 70
     0
  9
$USERI4
 70
     0
  9
$USERI5
 70
     0
  9
$USERR1
 40
0.0
  9
$USERR2
 40
0.0
  9
$USERR3
 40
0.0
  9
$USERR4
 40
0.0
  9
$USERR5
 40
0.0
  9
$WORLDVIEW
 70
     1
  9
$SHADEDGE
 70
     3
  9
$SHADEDIF
 70
    70
  9
$TILEMODE
 70
     1
  9
$MAXACTVP
 70
    64
  9
$PINSBASE
 10
0.0
 20
0.0
 30
0.0
  9
$PLIMCHECK
 70
     0
  9
$PEXTMIN
 10
1.000000000000000E+20
 20
1.000000000000000E+20
 30
1.000000000000000E+20
  9
$PEXTMAX
 10
-1.000000000000000E+20
 20
-1.000000000000000E+20
 30
-1.000000000000000E+20
  9
$PLIMMIN
 10
0.0
 20
0.0
  9
$PLIMMAX
 10
420.0
 20
297.0
  9
$UNITMODE
 70
     0
  9
$VISRETAIN
 70
     1
  9
$PLINEGEN
 70
     0
  9
$PSLTSCALE
 70
     1
  9
$TREEDEPTH
 70
  3020
  9
$CMLSTYLE
  2
Standard
  9
$CMLJUST
 70
     0
  9
$CMLSCALE
 40
20.0
  9
$PROXYGRAPHICS
 70
     1
  9
$MEASUREMENT
 70
     1
  9
$CELWEIGHT
370
    -1
  9
$ENDCAPS
280
     0
  9
$JOINSTYLE
280
     0
  9
$LWDISPLAY
290
     0
  9
$INSUNITS
 70
     4
  9
$HYPERLINKBASE
  1

  9
$STYLESHEET
  1
sanindusa.ctb
  9
$XEDIT
290
     1
  9
$CEPSNTYPE
380
     0
  9
$PSTYLEMODE
290
     1
  9
$FINGERPRINTGUID
  2
{968EACF4-A062-4DA7-83BC-38C003016EAC}
  9
$VERSIONGUID
  2
{2C9E16F7-D6BB-4AFE-B2FF-92586188F7A2}
  9
$EXTNAMES
290
     1
  9
$PSVPSCALE
 40
0.0
  9
$OLESTARTUP
290
     0
  0
ENDSEC
  0
SECTION
  2
CLASSES
  0
CLASS
  1
ACDBDICTIONARYWDFLT
  2
AcDbDictionaryWithDefault
  3
ObjectDBX Classes
 90
        0
280
     0
281
     0
  0
CLASS
  1
ACDBPLACEHOLDER
  2
AcDbPlaceHolder
  3
ObjectDBX Classes
 90
        0
280
     0
281
     0
  0
CLASS
  1
LAYOUT
  2
AcDbLayout
  3
ObjectDBX Classes
 90
        0
280
     0
281
     0
  0
CLASS
  1
DICTIONARYVAR
  2
AcDbDictionaryVar
  3
ObjectDBX Classes
 90
        0
280
     0
281
     0
  0
CLASS
  1
DIMASSOC
  2
AcDbDimAssoc
  3
"AcDbDimAssoc|Product Desc:     AcDim ARX App For Dimension|Company:          Autodesk, Inc.|WEB Address:      www.autodesk.com"
 90
        0
280
     0
281
     0
  0
CLASS
  1
TABLESTYLE
  2
AcDbTableStyle
  3
ObjectDBX Classes
 90
     4095
280
     0
281
     0
  0
CLASS
  1
SORTENTSTABLE
  2
AcDbSortentsTable
  3
ObjectDBX Classes
 90
        0
280
     0
281
     0
  0
CLASS
  1
MATERIAL
  2
AcDbMaterial
  3
ObjectDBX Classes
 90
     1153
280
     0
281
     0
  0
CLASS
  1
VISUALSTYLE
  2
AcDbVisualStyle
  3
ObjectDBX Classes
 90
     4095
280
     0
281
     0
  0
CLASS
  1
SCALE
  2
AcDbScale
  3
ObjectDBX Classes
 90
     1153
280
     0
281
     0
  0
CLASS
  1
MLEADERSTYLE
  2
AcDbMLeaderStyle
  3
ACDB_MLEADERSTYLE_CLASS
 90
     4095
280
     0
281
     0
  0
CLASS
  1
CELLSTYLEMAP
  2
AcDbCellStyleMap
  3
ObjectDBX Classes
 90
     1152
280
     0
281
     0
  0
ENDSEC
  0
SECTION
  2
TABLES
  0
TABLE
  2
VPORT
  5
8
330
0
100
AcDbSymbolTable
 70
     1
  0
VPORT
  5
2391
330
8
100
AcDbSymbolTableRecord
100
AcDbViewportTableRecord
  2
*Active
 70
     0
 10
0.0
 20
0.0
 11
1.0
 21
1.0
 12
5367.354829463991
 22
2002.62237749895
 13
0.0
 23
0.0
 14
10.0
 24
10.0
 15
10.0
 25
10.0
 16
0.0
 26
0.0
 36
1.0
 17
0.0
 27
0.0
 37
0.0
 40
1.861803166466643
 41
1.645464025026068
 42
50.0
 43
0.0
 44
0.0
 50
0.0
 51
0.0
 71
     0
 72
   100
 73
     1
 74
     2
 75
     0
 76
     0
 77
     0
 78
     0
281
     0
 65
     1
110
0.0
120
0.0
130
0.0
111
1.0
121
0.0
131
0.0
112
0.0
122
1.0
132
0.0
 79
     0
146
0.0
  0
ENDTAB
  0
TABLE
  2
LTYPE
  5
5
330
0
100
AcDbSymbolTable
 70
     5
  0
LTYPE
  5
14
330
5
100
AcDbSymbolTableRecord
100
AcDbLinetypeTableRecord
  2
ByBlock
 70
     0
  3

 72
    65
 73
     0
 40
0.0
  0
LTYPE
  5
15
330
5
100
AcDbSymbolTableRecord
100
AcDbLinetypeTableRecord
  2
ByLayer
 70
     0
  3

 72
    65
 73
     0
 40
0.0
  0
LTYPE
  5
16
330
5
100
AcDbSymbolTableRecord
100
AcDbLinetypeTableRecord
  2
Continuous
 70
     0
  3
Solid line
 72
    65
 73
     0
 40
0.0
  0
LTYPE
  5
2D
330
5
100
AcDbSymbolTableRecord
100
AcDbLinetypeTableRecord
  2
DASHDOT
 70
     0
  3
Dash dot __ . __ . __ . __ . __ . __ . __ . __
 72
    65
 73
     4
 40
25.4
 49
12.7
 74
     0
 49
-6.349999999999999
 74
     0
 49
0.0
 74
     0
 49
-6.349999999999999
 74
     0
  0
LTYPE
  5
2E
330
5
100
AcDbSymbolTableRecord
100
AcDbLinetypeTableRecord
  2
HIDDEN
 70
     0
  3
Hidden __ __ __ __ __ __ __ __ __ __ __ __ __ _
 72
    65
 73
     2
 40
9.524999999999998
 49
6.349999999999999
 74
     0
 49
-3.174999999999999
 74
     0
  0
LTYPE
  5
C75
330
5
100
AcDbSymbolTableRecord
100
AcDbLinetypeTableRecord
  2
AM_ISO02W050
 70
     0
  3
__ __ __ __ __ __ __ __ __ __ __ __ __ __ __
 72
    65
 73
     2
 40
7.5
 49
6.0
 74
     0
 49
-1.5
 74
     0
  0
LTYPE
  5
C76
330
5
100
AcDbSymbolTableRecord
100
AcDbLinetypeTableRecord
  2
AM_ISO08W050
 70
     0
  3
____ . ____ . ____ . ____ . ____ . ____ . ____
 72
    65
 73
     4
 40
18.0
 49
12.0
 74
     0
 49
-1.5
 74
     0
 49
3.0
 74
     0
 49
-1.5
 74
     0
  0
ENDTAB
  0
TABLE
  2
LAYER
  5
2
102
{ACAD_XDICTIONARY
360
1051
102
}
330
0
100
AcDbSymbolTable
 70
    17
  0
LAYER
  5
10
102
{ACAD_XDICTIONARY
360
2420
102
}
330
2
100
AcDbSymbolTableRecord
100
AcDbLayerTableRecord
  2
0
 70
     0
 62
     7
  6
Continuous
370
    -3
390
F
  0
LAYER
  5
2F
102
{ACAD_XDICTIONARY
360
2422
102
}
330
2
100
AcDbSymbolTableRecord
100
AcDbLayerTableRecord
  2
1
 70
     0
 62
     1
  6
Continuous
370
    -3
390
F
  0
LAYER
  5
30
102
{ACAD_XDICTIONARY
360
2424
102
}
330
2
100
AcDbSymbolTableRecord
100
AcDbLayerTableRecord
  2
2
 70
     0
 62
     2
  6
Continuous
370
    -3
390
F
  0
LAYER
  5
31
102
{ACAD_XDICTIONARY
360
2426
102
}
330
2
100
AcDbSymbolTableRecord
100
AcDbLayerTableRecord
  2
3
 70
     0
 62
     3
  6
Continuous
370
    -3
390
F
  0
LAYER
  5
32
102
{ACAD_XDICTIONARY
360
2428
102
}
330
2
100
AcDbSymbolTableRecord
100
AcDbLayerTableRecord
  2
4
 70
     0
 62
     4
  6
Continuous
370
    -3
390
F
  0
LAYER
  5
33
102
{ACAD_XDICTIONARY
360
242A
102
}
330
2
100
AcDbSymbolTableRecord
100
AcDbLayerTableRecord
  2
5
 70
     0
 62
     5
  6
Continuous
370
    -3
390
F
  0
LAYER
  5
34
102
{ACAD_XDICTIONARY
360
242C
102
}
330
2
100
AcDbSymbolTableRecord
100
AcDbLayerTableRecord
  2
6
 70
     0
 62
     6
  6
Continuous
370
    -3
390
F
  0
LAYER
  5
35
102
{ACAD_XDICTIONARY
360
242E
102
}
330
2
100
AcDbSymbolTableRecord
100
AcDbLayerTableRecord
  2
7
 70
     0
 62
     7
  6
Continuous
370
    -3
390
F
  0
LAYER
  5
36
102
{ACAD_XDICTIONARY
360
2430
102
}
330
2
100
AcDbSymbolTableRecord
100
AcDbLayerTableRecord
  2
cen
 70
     0
 62
     7
  6
DASHDOT
370
    -3
390
F
  0
LAYER
  5
37
102
{ACAD_XDICTIONARY
360
2432
102
}
330
2
100
AcDbSymbolTableRecord
100
AcDbLayerTableRecord
  2
hid
 70
     0
 62
     7
  6
HIDDEN
370
    -3
390
F
  0
LAYER
  5
5D6
102
{ACAD_XDICTIONARY
360
2434
102
}
330
2
100
AcDbSymbolTableRecord
100
AcDbLayerTableRecord
  2
hatch
 70
     0
 62
     9
  6
Continuous
370
    -3
390
F
  0
LAYER
  5
8AF
102
{ACAD_XDICTIONARY
360
2436
102
}
330
2
100
AcDbSymbolTableRecord
100
AcDbLayerTableRecord
  2
9
 70
     0
 62
     9
  6
Continuous
370
    -3
390
F
  0
LAYER
  5
8F8
102
{ACAD_XDICTIONARY
360
2438
102
}
330
2
100
AcDbSymbolTableRecord
100
AcDbLayerTableRecord
  2
leg fin
 70
     0
 62
     9
  6
Continuous
370
    -3
390
F
  0
LAYER
  5
91D
102
{ACAD_XDICTIONARY
360
243A
102
}
330
2
100
AcDbSymbolTableRecord
100
AcDbLayerTableRecord
  2
cotas
 70
     0
 62
     1
  6
Continuous
370
    -3
390
F
  0
LAYER
  5
92F
330
2
100
AcDbSymbolTableRecord
100
AcDbLayerTableRecord
  2
Defpoints
 70
     0
 62
     7
  6
Continuous
290
     0
370
    -3
390
F
  0
LAYER
  5
C7B
102
{ACAD_XDICTIONARY
360
243C
102
}
330
2
100
AcDbSymbolTableRecord
100
AcDbLayerTableRecord
  2
SANINDUSA
 70
     0
 62
     3
  6
Continuous
370
    -3
390
F
  0
LAYER
  5
10DD
102
{ACAD_XDICTIONARY
360
243E
102
}
330
2
100
AcDbSymbolTableRecord
100
AcDbLayerTableRecord
  2
quote
 70
     0
 62
   250
  6
Continuous
370
     5
390
F
  0
ENDTAB
  0
TABLE
  2
STYLE
  5
3
330
0
100
AcDbSymbolTable
 70
     4
  0
STYLE
  5
11
330
3
100
AcDbSymbolTableRecord
100
AcDbTextStyleTableRecord
  2
Standard
 70
     0
 40
0.0
 41
1.0
 50
0.0
 71
     0
 42
2.5
  3
Avgardn.ttf
  4

1001
ACAD
1000
AvantGarde Bk BT
1071
       34
  0
STYLE
  5
2C
330
3
100
AcDbSymbolTableRecord
100
AcDbTextStyleTableRecord
  2

 70
     1
 40
0.0
 41
1.0
 50
0.0
 71
     0
 42
2.5
  3
ltypeshp.shx
  4

  0
STYLE
  5
91F
330
3
100
AcDbSymbolTableRecord
100
AcDbTextStyleTableRecord
  2
SANINDUSA
 70
     0
 40
0.0
 41
1.0
 50
0.0
 71
     0
 42
2.5
  3
verdana.TTF
  4

1001
ACAD
1000
Verdana
1071
       34
  0
STYLE
  5
C7C
330
3
100
AcDbSymbolTableRecord
100
AcDbTextStyleTableRecord
  2
futura
 70
     0
 40
0.0
 41
1.0
 50
0.0
 71
     0
 42
2.5
  3
ZURCHN.TTF
  4

1001
ACAD
1000
Zurich BT
1071
       34
  0
ENDTAB
  0
TABLE
  2
VIEW
  5
6
330
0
100
AcDbSymbolTable
 70
     0
  0
ENDTAB
  0
TABLE
  2
UCS
  5
7
330
0
100
AcDbSymbolTable
 70
     0
  0
ENDTAB
  0
TABLE
  2
APPID
  5
9
330
0
100
AcDbSymbolTable
 70
    15
  0
APPID
  5
12
330
9
100
AcDbSymbolTableRecord
100
AcDbRegAppTableRecord
  2
ACAD
 70
     0
  0
APPID
  5
3A
330
9
100
AcDbSymbolTableRecord
100
AcDbRegAppTableRecord
  2
DCO15
 70
     0
  0
APPID
  5
EEE
330
9
100
AcDbSymbolTableRecord
100
AcDbRegAppTableRecord
  2
ACAD_DSTYLE_DIMTEXT_FILL
 70
     0
  0
APPID
  5
EEF
330
9
100
AcDbSymbolTableRecord
100
AcDbRegAppTableRecord
  2
ACAD_DSTYLE_DIMEXT_LENGTH
 70
     0
  0
APPID
  5
EF0
330
9
100
AcDbSymbolTableRecord
100
AcDbRegAppTableRecord
  2
ACAD_DSTYLE_DIMEXT_ENABLED
 70
     0
  0
APPID
  5
EF1
330
9
100
AcDbSymbolTableRecord
100
AcDbRegAppTableRecord
  2
ACAD_DSTYLE_DIM_LINETYPE
 70
     0
  0
APPID
  5
EF2
330
9
100
AcDbSymbolTableRecord
100
AcDbRegAppTableRecord
  2
ACAD_DSTYLE_DIM_EXT1_LINETYPE
 70
     0
  0
APPID
  5
EF3
330
9
100
AcDbSymbolTableRecord
100
AcDbRegAppTableRecord
  2
ACAD_DSTYLE_DIM_EXT2_LINETYPE
 70
     0
  0
APPID
  5
FAF
330
9
100
AcDbSymbolTableRecord
100
AcDbRegAppTableRecord
  2
ACAD_DSTYLE_DIMJOGGED_JOGANGLE_SYMBOL
 70
     0
  0
APPID
  5
1013
330
9
100
AcDbSymbolTableRecord
100
AcDbRegAppTableRecord
  2
ACAD_DSTYLE_DIMARC_LENGTH_SYMBOL
 70
     0
  0
APPID
  5
10DE
330
9
100
AcDbSymbolTableRecord
100
AcDbRegAppTableRecord
  2
GENIUS_GENREC_14
 70
     0
  0
APPID
  5
10DF
330
9
100
AcDbSymbolTableRecord
100
AcDbRegAppTableRecord
  2
GENIUS_GENODEF_13
 70
     0
  0
APPID
  5
10E0
330
9
100
AcDbSymbolTableRecord
100
AcDbRegAppTableRecord
  2
GENIUS_GENOBJ-N-REC_13
 70
     0
  0
APPID
  5
1DBF
330
9
100
AcDbSymbolTableRecord
100
AcDbRegAppTableRecord
  2
ACAD_EXEMPT_FROM_CAD_STANDARDS
 70
     0
  0
APPID
  5
24BD
330
9
100
AcDbSymbolTableRecord
100
AcDbRegAppTableRecord
  2
ACAD_MLEADERVER
 70
     0
  0
ENDTAB
  0
TABLE
  2
DIMSTYLE
  5
A
330
0
100
AcDbSymbolTable
 70
     3
100
AcDbDimStyleTable
 71
     1
340
921
  0
DIMSTYLE
105
45
330
A
100
AcDbSymbolTableRecord
100
AcDbDimStyleTableRecord
  2
STANDARD
 70
     0
289
     0
340
11
  0
DIMSTYLE
105
921
330
A
100
AcDbSymbolTableRecord
100
AcDbDimStyleTableRecord
  2
SANINDUSA
 70
     0
 40
10.0
 41
2.0
 42
1.0
 43
1.0
 44
1.0
 73
     0
 74
     0
 77
     1
 78
     8
140
2.0
141
0.0
143
0.03937007874016
147
1.0
171
     3
172
     1
176
   256
177
   256
178
   256
179
     1
271
     1
272
     1
274
     3
278
    44
283
     0
284
     8
340
91F
371
    -1
372
    -1
1001
ACAD_DSTYLE_DIMJOGGED_JOGANGLE_SYMBOL
1070
   384
1040
1.570796326794896
  0
DIMSTYLE
105
C7D
330
A
100
AcDbSymbolTableRecord
100
AcDbDimStyleTableRecord
  2
AM_ISO
 70
     0
  4
"
 41
2.5
 42
1.0
 43
10.0
 44
1.0
 47
0.1
 48
0.1
 73
     0
 74
     0
 77
     1
 78
     8
 79
     2
140
3.5
141
0.0
143
0.0393701
146
0.71
147
1.5
172
     1
176
   256
177
   256
178
     2
271
     2
272
     3
274
     4
283
     0
284
     8
340
11
371
    -1
372
    -1
  0
ENDTAB
  0
TABLE
  2
BLOCK_RECORD
  5
1
330
0
100
AcDbSymbolTable
 70
    23
  0
BLOCK_RECORD
  5
1F
102
{ACAD_XDICTIONARY
360
21DF
102
}
330
1
100
AcDbSymbolTableRecord
100
AcDbBlockTableRecord
  2
*Model_Space
340
22
  0
BLOCK_RECORD
  5
1B
330
1
100
AcDbSymbolTableRecord
100
AcDbBlockTableRecord
  2
*Paper_Space
340
1E
  0
BLOCK_RECORD
  5
23
330
1
100
AcDbSymbolTableRecord
100
AcDbBlockTableRecord
  2
*Paper_Space0
340
26
  0
BLOCK_RECORD
  5
919
330
1
100
AcDbSymbolTableRecord
100
AcDbBlockTableRecord
  2
_DotSmall
340
0
  0
BLOCK_RECORD
  5
922
330
1
100
AcDbSymbolTableRecord
100
AcDbBlockTableRecord
  2
base para cotas
340
0
310
2800000020000000200000000100080000000000000400000000000000000000000000000000000000000000000080000080000000808000800000008000800080800000C0C0C000C0DCC000F0CAA6000020400000206000002080000020A0000020C0000020E00000400000004020000040400000406000004080000040A0
310
000040C0000040E00000600000006020000060400000606000006080000060A0000060C0000060E00000800000008020000080400000806000008080000080A0000080C0000080E00000A0000000A0200000A0400000A0600000A0800000A0A00000A0C00000A0E00000C0000000C0200000C0400000C0600000C0800000C0
310
A00000C0C00000C0E00000E0000000E0200000E0400000E0600000E0800000E0A00000E0C00000E0E00040000000400020004000400040006000400080004000A0004000C0004000E00040200000402020004020400040206000402080004020A0004020C0004020E000404000004040200040404000404060004040800040
310
40A0004040C0004040E00040600000406020004060400040606000406080004060A0004060C0004060E00040800000408020004080400040806000408080004080A0004080C0004080E00040A0000040A0200040A0400040A0600040A0800040A0A00040A0C00040A0E00040C0000040C0200040C0400040C0600040C08000
310
40C0A00040C0C00040C0E00040E0000040E0200040E0400040E0600040E0800040E0A00040E0C00040E0E00080000000800020008000400080006000800080008000A0008000C0008000E00080200000802020008020400080206000802080008020A0008020C0008020E00080400000804020008040400080406000804080
310
008040A0008040C0008040E00080600000806020008060400080606000806080008060A0008060C0008060E00080800000808020008080400080806000808080008080A0008080C0008080E00080A0000080A0200080A0400080A0600080A0800080A0A00080A0C00080A0E00080C0000080C0200080C0400080C0600080C0
310
800080C0A00080C0C00080C0E00080E0000080E0200080E0400080E0600080E0800080E0A00080E0C00080E0E000C0000000C0002000C0004000C0006000C0008000C000A000C000C000C000E000C0200000C0202000C0204000C0206000C0208000C020A000C020C000C020E000C0400000C0402000C0404000C0406000C0
310
408000C040A000C040C000C040E000C0600000C0602000C0604000C0606000C0608000C060A000C060C000C060E000C0800000C0802000C0804000C0806000C0808000C080A000C080C000C080E000C0A00000C0A02000C0A04000C0A06000C0A08000C0A0A000C0A0C000C0A0E000C0C00000C0C02000C0C04000C0C06000
310
C0C08000C0C0A000F0FBFF00A4A0A000808080000000FF0000FF000000FFFF00FF000000FF00FF00FFFF0000FFFFFF00A4A4A4A4A4A4A4A4A4A4A4A4A4A4A4A4A4A4A4A4A4A4A4A4A4A4A4A4A4A4A4A4A4A4A4A4A4A4A4A4A4A4A4A4A4A4A4A4A4A4A4A4A4A4A4A4A4A4A4A4A4A4A4A4A4A4A4A4A4A4A4A4A4A4A4A4A4A4A4
310
A4A4A4A4A4A4A4A4A4A4A4A4A4A4A4A4A4A4A4A4A4A4A4A4A4A4A4A4A4A4A4A4A4A4A4A4A4A4A4A4A4A4A4A4A4A4A4A4A4A4A4A4A4A4A4A4A4A4A4A4A4A4A4A4A4A4A4A4A4A4A4A4A4A4A4A4A4A4A4A4A4A4A4A4A4A4A4A4A4A4A4A4A4A4A4A4A4A4A4A4A4A4A4A4A4A4A4A4A4A4A4A4A4A4A4A4A4A4A4A4A4A4A4A4A4A4A4
310
A4A4A4A4A4A4A4A4A4A4A4A4A4A4A4A4A4A4A4A4A4A4A4A4A4A4A4A4A4A4A4A4A4A4A4A4A4A4A4A4A4A4A4A4A4A4A4A4A4A4A4A4A4A4A4A4A4A4A4A4A4A4A4A4A4A4A4A4A4A4A4A4A4A4A4A4A4A4A4A4A4A4A4A4A4A4A4A4A4A4A4A4A4A4A4A4A4A4A4A4A4A4A4A4A4A4A4A4A4A4A4A4A4A4A4A4A4A4A4A4A4A4A4A4A4A4A4
310
A4A4A4A4A4A4A4A4A4A4A4A4A4A4A4A4A4A4A4A4A4A4A4A4A4A4A4A4A4A4A4A4A4A4A4A4A4A4A4A4A4A4A4A4A4A4A4A4A4A4A4A4A4A4A4A4A4A4A4A4A4A4A4A4A4A4A4A4A4A4A4A4A4A4A4A4A4A4A4A4A4A4A4A4A4A4A4A4A4A4A4A4A4A4A4A4A4A4A4A4A4A4A4A4A4A4A4A4A4A4A4A4A4A4A4A4F9F9F9F9F9F9F9F9F9F9F9
310
F9F9F9F9F9F9F9F9F9F9F9F9F9F9F9F9F9F9F9A4A4F9F9F9F9F9F9F9F9F9F9F9F9F9F9F9F9F9F9F9F9F9F9F9F9F9F9F9F9F9F9A4A4F9F9F9F9F9F9F9F9F9F9F9F9F9F9F9F9F9F9F9F9F9F9F9F9F9F9F9F9F9F9A4A4F9A4A4A4A4A4A4A4A4A4A4A4A4A4A4A4A4A4A4A4A4A4A4A4A4A4A4A4A4F9A4A4A4A4A4A4A4A4A4A4A4A4
310
A4A4A4A4A4A4A4A4A4A4A4A4A4A4A4A4A4A4A4A4A4A4A4A4A4A4A4A4A4A4A4A4A4A4A4A4A4A4A4A4A4A4A4A4A4A4A4A4A4A4A4A4A4A4A4A4A4A4A4A4A4A4A4A4A4A4A4A4A4A4A4A4A4A4A4A4A4A4A4A4A4A4A4A4A4A4A4A4A4A4A4A4A4A4A4A4A4A4A4A4A4A4A4A4A4A4A4A4A4A4A4A4A4A4A4A4A4A4A4A4A4A4A4A4A4A4A4
310
A4A4A4A4A4A4A4A4A4A4A4A4A4A4A4A4A4A4A4A4A4A4A4A4A4A4A4A4A4A4A4A4A4A4A4A4A4A4A4A4A4A4A4A4A4A4A4A4A4A4A4A4A4A4A4A4A4A4A4A4A4A4A4A4A4A4A4A4A4A4A4A4A4A4A4A4A4A4A4A4A4A4A4A4A4A4A4A4A4A4A4A4A4A4A4A4A4A4A4A4A4A4A4A4A4A4A4A4A4A4A4A4A4A4A4A4A4A4A4A4A4A4A4A4A4A4A4
310
A4A4A4A4A4A4A4A4A4A4A4A4A4A4A4A4A4A4A4A4A4A4A4A4A4A4A4A4A4A4A4A4A4A4A4A4A4A4A4A4A4A4A4A4A4A4A4A4A4A4A4A4A4A4A4A4A4A4A4A4A4A4A4A4A4A4A4A4A4A4A4A4A4A4A4A4A4A4A4A4A4A4A4A4A4A4A4A4A4A4A4A4A4A4A4A4A4A4A4A4A4A4A4A4A4A4A4A4A4A4A4A4A4A4A4A4A4A4A4A4A4A4A4A4A4A4A4
310
A4A4A4A4A4A4A4A4A4A4A4A4A4A4A4A4A4A4A4A4A4A4A4A4A4A4A4A4A4A4A4A4A4A4A4A4A4A4A4A4A4A4A4A4A4A4A4A4A4A4A4A4A4A4A4A4
1001
ACAD
1000
DesignCenter Data
1002
{
1070
     1
1070
     4
1002
}
  0
BLOCK_RECORD
  5
AA8
330
1
100
AcDbSymbolTableRecord
100
AcDbBlockTableRecord
  2
_CLOSED
340
0
  0
BLOCK_RECORD
  5
B79
330
1
100
AcDbSymbolTableRecord
100
AcDbBlockTableRecord
  2
nota revisoes
340
0
1001
ACAD
1000
DesignCenter Data
1002
{
1070
     1
1070
     4
1002
}
  0
BLOCK_RECORD
  5
B8E
330
1
100
AcDbSymbolTableRecord
100
AcDbBlockTableRecord
  2
a3l
340
0
1001
ACAD
1000
DesignCenter Data
1002
{
1070
     1
1070
     4
1002
}
  0
BLOCK_RECORD
  5
B9E
330
1
100
AcDbSymbolTableRecord
100
AcDbBlockTableRecord
  2
legenda desenvolvimento
340
0
1001
ACAD
1000
DesignCenter Data
1002
{
1070
     1
1070
     4
1002
}
  0
BLOCK_RECORD
  5
1060
330
1
100
AcDbSymbolTableRecord
100
AcDbBlockTableRecord
  2
guarnizione
340
0
  0
BLOCK_RECORD
  5
1B92
330
1
100
AcDbSymbolTableRecord
100
AcDbBlockTableRecord
  2
*D8
340
0
  0
BLOCK_RECORD
  5
1B9E
330
1
100
AcDbSymbolTableRecord
100
AcDbBlockTableRecord
  2
*D9
340
0
  0
BLOCK_RECORD
  5
1BAA
330
1
100
AcDbSymbolTableRecord
100
AcDbBlockTableRecord
  2
*D10
340
0
  0
BLOCK_RECORD
  5
1BC8
330
1
100
AcDbSymbolTableRecord
100
AcDbBlockTableRecord
  2
*D11
340
0
  0
BLOCK_RECORD
  5
1DA3
330
1
100
AcDbSymbolTableRecord
100
AcDbBlockTableRecord
  2
*D12
340
0
  0
BLOCK_RECORD
  5
1FC8
330
1
100
AcDbSymbolTableRecord
100
AcDbBlockTableRecord
  2
*D13
340
0
  0
BLOCK_RECORD
  5
1FD6
330
1
100
AcDbSymbolTableRecord
100
AcDbBlockTableRecord
  2
*D14
340
0
  0
BLOCK_RECORD
  5
1FE4
330
1
100
AcDbSymbolTableRecord
100
AcDbBlockTableRecord
  2
*D15
340
0
  0
BLOCK_RECORD
  5
1FF2
330
1
100
AcDbSymbolTableRecord
100
AcDbBlockTableRecord
  2
*D16
340
0
  0
BLOCK_RECORD
  5
2000
330
1
100
AcDbSymbolTableRecord
100
AcDbBlockTableRecord
  2
*D17
340
0
  0
BLOCK_RECORD
  5
22CB
330
1
100
AcDbSymbolTableRecord
100
AcDbBlockTableRecord
  2
*D18
340
0
  0
BLOCK_RECORD
  5
2313
330
1
100
AcDbSymbolTableRecord
100
AcDbBlockTableRecord
  2
*D19
340
0
  0
BLOCK_RECORD
  5
2356
330
1
100
AcDbSymbolTableRecord
100
AcDbBlockTableRecord
  2
*D20
340
0
  0
BLOCK_RECORD
  5
23E2
330
1
100
AcDbSymbolTableRecord
100
AcDbBlockTableRecord
  2
*D21
340
0
  0
BLOCK_RECORD
  5
23FA
330
1
100
AcDbSymbolTableRecord
100
AcDbBlockTableRecord
  2
*D22
340
0
  0
ENDTAB
  0
ENDSEC
  0
SECTION
  2
BLOCKS
  0
BLOCK
  5
20
330
1F
100
AcDbEntity
  8
0
100
AcDbBlockBegin
  2
*Model_Space
 70
     0
 10
0.0
 20
0.0
 30
0.0
  3
*Model_Space
  1

  0
ENDBLK
  5
21
330
1F
100
AcDbEntity
  8
0
100
AcDbBlockEnd
  0
BLOCK
  5
1C
330
1B
100
AcDbEntity
 67
     1
  8
0
100
AcDbBlockBegin
  2
*Paper_Space
 70
     0
 10
0.0
 20
0.0
 30
0.0
  3
*Paper_Space
  1

  0
ENDBLK
  5
1D
330
1B
100
AcDbEntity
 67
     1
  8
0
100
AcDbBlockEnd
  0
BLOCK
  5
24
330
23
100
AcDbEntity
 67
     1
  8
0
100
AcDbBlockBegin
  2
*Paper_Space0
 70
     0
 10
0.0
 20
0.0
 30
0.0
  3
*Paper_Space0
  1

  0
ENDBLK
  5
25
330
23
100
AcDbEntity
 67
     1
  8
0
100
AcDbBlockEnd
  0
BLOCK
  5
91B
330
919
100
AcDbEntity
  8
0
100
AcDbBlockBegin
  2
_DotSmall
 70
     0
 10
0.0
 20
0.0
 30
0.0
  3
_DotSmall
  1

  0
LWPOLYLINE
  5
91A
330
919
100
AcDbEntity
  8
0
  6
ByBlock
 62
     0
100
AcDbPolyline
 90
        2
 70
     1
 43
0.5
 10
-0.0625
 20
0.0
 42
1.0
 10
0.0625
 20
0.0
 42
1.0
  0
ENDBLK
  5
91C
330
919
100
AcDbEntity
  8
0
100
AcDbBlockEnd
  0
BLOCK
  5
92A
330
922
100
AcDbEntity
  8
0
100
AcDbBlockBegin
  2
base para cotas
 70
     0
 10
0.0
 20
0.0
 30
0.0
  3
base para cotas
  1

  0
LINE
  5
B36
330
922
100
AcDbEntity
  8
cotas
100
AcDbLine
 10
0.0
 20
-30.0
 30
0.0
 11
327.1260136525398
 21
-30.0
 31
0.0
  0
LINE
  5
B37
330
922
100
AcDbEntity
  8
cotas
100
AcDbLine
 10
0.0
 20
-25.0
 30
0.0
 11
327.1260136525398
 21
-25.0
 31
0.0
  0
LINE
  5
B38
330
922
100
AcDbEntity
  8
cotas
100
AcDbLine
 10
0.0
 20
-20.0
 30
0.0
 11
327.1260136525398
 21
-20.0
 31
0.0
  0
LINE
  5
B39
330
922
100
AcDbEntity
  8
cotas
100
AcDbLine
 10
0.0
 20
-15.0
 30
0.0
 11
327.1260136525398
 21
-15.0
 31
0.0
  0
LINE
  5
B3A
330
922
100
AcDbEntity
  8
cotas
100
AcDbLine
 10
0.0
 20
-10.0
 30
0.0
 11
327.1260136525398
 21
-10.0
 31
0.0
  0
LINE
  5
B3B
330
922
100
AcDbEntity
  8
cotas
100
AcDbLine
 10
0.0
 20
0.0
 30
0.0
 11
0.0
 21
-30.0
 31
0.0
  0
LINE
  5
B3C
330
922
100
AcDbEntity
  8
cotas
100
AcDbLine
 10
327.1260136525398
 20
-30.0
 30
0.0
 11
327.1260136525398
 21
0.0
 31
0.0
  0
ENDBLK
  5
92B
330
922
100
AcDbEntity
  8
0
100
AcDbBlockEnd
  0
BLOCK
  5
AAD
330
AA8
100
AcDbEntity
  8
0
100
AcDbBlockBegin
  2
_CLOSED
 70
     0
 10
0.0
 20
0.0
 30
0.0
  3
_CLOSED
  1

  0
LINE
  5
AA9
330
AA8
100
AcDbEntity
  8
0
100
AcDbLine
 10
-1.0
 20
0.166667
 30
0.0
 11
0.0
 21
0.0
 31
0.0
  0
LINE
  5
AAA
330
AA8
100
AcDbEntity
  8
0
100
AcDbLine
 10
0.0
 20
0.0
 30
0.0
 11
-1.0
 21
-0.166667
 31
0.0
  0
LINE
  5
AAB
330
AA8
100
AcDbEntity
  8
0
100
AcDbLine
 10
-1.0
 20
0.166667
 30
0.0
 11
-1.0
 21
-0.166667
 31
0.0
  0
LINE
  5
AAC
330
AA8
100
AcDbEntity
  8
0
100
AcDbLine
 10
0.0
 20
0.0
 30
0.0
 11
-1.0
 21
0.0
 31
0.0
  0
ENDBLK
  5
AAE
330
AA8
100
AcDbEntity
  8
0
100
AcDbBlockEnd
  0
BLOCK
  5
B7C
330
B79
100
AcDbEntity
  8
0
100
AcDbBlockBegin
  2
nota revisoes
 70
     0
 10
0.0
 20
0.0
 30
0.0
  3
nota revisoes
  1

  0
CIRCLE
  5
B7A
330
B79
100
AcDbEntity
  8
4
100
AcDbCircle
 10
0.0
 20
0.0
 30
0.0
 40
13.69426055101189
  0
TEXT
  5
B7B
330
B79
100
AcDbEntity
  8
4
100
AcDbText
 10
-5.496248358154345
 20
-5.354545554066362
 30
0.0
 40
12.0
  1
1
  7
SANINDUSA
 72
     1
 11
-0.249774214433728
 21
-5.354545554066362
 31
0.0
100
AcDbText
  0
ENDBLK
  5
B7D
330
B79
100
AcDbEntity
  8
0
100
AcDbBlockEnd
  0
BLOCK
  5
B9C
330
B8E
100
AcDbEntity
  8
0
100
AcDbBlockBegin
  2
a3l
 70
     0
 10
0.0
 20
0.0
 30
0.0
  3
a3l
  1

  0
LINE
  5
B8F
330
B8E
100
AcDbEntity
  8
1
100
AcDbLine
 10
-364.2925296599447
 20
-362.1188951399395
 30
0.0
 11
-364.2925296599447
 21
-65.11889513993946
 31
0.0
  0
LINE
  5
B90
330
B8E
100
AcDbEntity
  8
4
100
AcDbLine
 10
-369.2925296599447
 20
-357.1188951399395
 30
0.0
 11
-369.2925296599447
 21
-70.11889513993946
 31
0.0
  0
LINE
  5
B91
330
B8E
100
AcDbEntity
  8
1
100
AcDbLine
 10
-784.2925296599446
 20
-65.11889513993946
 30
0.0
 11
-784.2925296599446
 21
-362.1188951399395
 31
0.0
  0
LINE
  5
B92
330
B8E
100
AcDbEntity
  8
4
100
AcDbLine
 10
-759.2925296599446
 20
-357.1188951399395
 30
0.0
 11
-759.2925296599446
 21
-70.11889513993946
 31
0.0
  0
LINE
  5
B93
330
B8E
100
AcDbEntity
  8
1
100
AcDbLine
 10
-784.2925296599446
 20
-362.1188951399395
 30
0.0
 11
-364.2925296599447
 21
-362.1188951399395
 31
0.0
  0
LINE
  5
B94
330
B8E
100
AcDbEntity
  8
4
100
AcDbLine
 10
-759.2925296599446
 20
-357.1188951399395
 30
0.0
 11
-369.2925296599447
 21
-357.1188951399395
 31
0.0
  0
LINE
  5
B95
330
B8E
100
AcDbEntity
  8
1
100
AcDbLine
 10
-654.2925296599446
 20
-357.1188951399395
 30
0.0
 11
-654.2925296599446
 21
-362.1188951399395
 31
0.0
  0
LINE
  5
B96
330
B8E
100
AcDbEntity
  8
1
100
AcDbLine
 10
-364.2925296599447
 20
-65.11889513993946
 30
0.0
 11
-784.2925296599446
 21
-65.11889513993946
 31
0.0
  0
LINE
  5
B97
330
B8E
100
AcDbEntity
  8
4
100
AcDbLine
 10
-369.2925296599447
 20
-70.11889513993946
 30
0.0
 11
-759.2925296599446
 21
-70.11889513993946
 31
0.0
  0
LINE
  5
B98
330
B8E
100
AcDbEntity
  8
1
100
AcDbLine
 10
-654.2925296599446
 20
-65.11889513993946
 30
0.0
 11
-654.2925296599446
 21
-70.11889513993946
 31
0.0
  0
LINE
  5
B99
330
B8E
100
AcDbEntity
  8
1
100
AcDbLine
 10
-549.2925296599446
 20
-70.11889513993946
 30
0.0
 11
-549.2925296599446
 21
-65.11889513993946
 31
0.0
  0
LINE
  5
B9A
330
B8E
100
AcDbEntity
  8
1
100
AcDbLine
 10
-369.2925296599447
 20
-65.11889513993946
 30
0.0
 11
-364.2925296599447
 21
-65.11889513993946
 31
0.0
  0
LINE
  5
B9B
330
B8E
100
AcDbEntity
  8
1
100
AcDbLine
 10
-549.2925296599446
 20
-357.1188951399395
 30
0.0
 11
-549.2925296599446
 21
-362.1188951399395
 31
0.0
  0
ENDBLK
  5
B9D
330
B8E
100
AcDbEntity
  8
0
100
AcDbBlockEnd
  0
BLOCK
  5
C13
330
B9E
100
AcDbEntity
  8
0
100
AcDbBlockBegin
  2
legenda desenvolvimento
 70
     2
 10
0.0
 20
0.0
 30
0.0
  3
legenda desenvolvimento
  1

  0
ATTDEF
  5
B9F
330
B9E
100
AcDbEntity
  8
1
100
AcDbText
 10
-108.606245802552
 20
55.5
 30
0.0
 40
4.0
  1
XXXXXXXXXXXXXX
 41
0.8
  7
SANINDUSA
 72
     4
 11
-87.5
 21
57.5
 31
0.0
100
AcDbAttributeDefinition
  3
Nome do Produto:
  2
PRODUTO
 70
     0
  0
ATTDEF
  5
BA0
330
B9E
100
AcDbEntity
  8
1
100
AcDbText
 10
-97.9997966101695
 20
41.25
 30
0.0
 40
3.0
  1
XXXXXXXXX
 41
0.8
  7
futura
 72
     4
 11
-87.5
 21
42.75
 31
0.0
100
AcDbAttributeDefinition
  3
Nome da Peça:
  2
PECA
 70
     0
  0
ATTDEF
  5
BA1
330
B9E
100
AcDbEntity
  8
1
100
AcDbText
 10
-133.4422431161853
 20
21.11745296763252
 30
0.0
 40
2.5
  1
X
 41
0.8
  7
SANINDUSA
 72
     4
 11
-132.5
 21
22.36745296763252
 31
0.0
100
AcDbAttributeDefinition
  3
Cod. TESTE:
  2
TESTE
 70
     0
  0
ATTDEF
  5
BA2
330
B9E
100
AcDbEntity
  8
1
100
AcDbText
 10
-124.3844862323707
 20
21.11745296763252
 30
0.0
 40
2.5
  1
XX
 41
0.8
  7
SANINDUSA
 72
     4
 11
-122.5
 21
22.36745296763252
 31
0.0
100
AcDbAttributeDefinition
  3
Cod. Ano:
  2
ANO
 70
     0
  0
ATTDEF
  5
BA3
330
B9E
100
AcDbEntity
  8
1
100
AcDbText
 10
-112.526889953052
 20
21.11745296763252
 30
0.0
 40
2.5
  1
XXX
 41
0.8
  7
SANINDUSA
 72
     4
 11
-109.700160604496
 21
22.36745296763252
 31
0.0
100
AcDbAttributeDefinition
  3
Cod. Sequência:
  2
SEQUENCIA
 70
     0
  0
ATTDEF
  5
BA4
330
B9E
100
AcDbEntity
  8
1
100
AcDbText
 10
-99.35382430979316
 20
21.11745296763252
 30
0.0
 40
2.5
  1
XX
 41
0.8
  7
SANINDUSA
 72
     4
 11
-97.46933807742244
 21
22.36745296763252
 31
0.0
100
AcDbAttributeDefinition
  3
Cod. Tipo:
  2
TIPO
 70
     0
  0
ATTDEF
  5
BA5
330
B9E
100
AcDbEntity
  8
1
100
AcDbText
 10
-87.42035911468438
 20
21.11745296763252
 30
0.0
 40
2.5
  1
XXX
 41
0.8
  7
SANINDUSA
 72
     4
 11
-84.59362976612828
 21
22.36745296763252
 31
0.0
100
AcDbAttributeDefinition
  3
Cod. Produto:
  2
PRODUTO
 70
     0
  0
ATTDEF
  5
BA6
330
B9E
100
AcDbEntity
  8
1
100
AcDbText
 10
-74.62051971917853
 20
21.11745296763252
 30
0.0
 40
2.5
  1
XXX
 41
0.8
  7
SANINDUSA
 72
     4
 11
-71.79379037062244
 21
22.36745296763252
 31
0.0
100
AcDbAttributeDefinition
  3
Cod. Peça:
  2
PECA
 70
     0
  0
ATTDEF
  5
BA7
330
B9E
100
AcDbEntity
  8
1
100
AcDbText
 10
-61.10603446650329
 20
21.11745296763252
 30
0.0
 40
2.5
  1
XX
 41
0.8
  7
SANINDUSA
 72
     4
 11
-59.22154823413257
 21
22.36745296763252
 31
0.0
100
AcDbAttributeDefinition
  3
Cod. Revisão:
  2
REV
 70
     0
  0
ATTDEF
  5
BA8
330
B9E
100
AcDbEntity
  8
1
100
AcDbText
 10
-48.43615325006194
 20
21.11745296763252
 30
0.0
 40
2.5
  1
XX
 41
0.8
  7
SANINDUSA
 72
     4
 11
-46.55166701769121
 21
22.36745296763252
 31
0.0
100
AcDbAttributeDefinition
  3
Cod. Alteração:
  2
ALT
 70
     0
  0
ATTDEF
  5
BA9
330
B9E
100
AcDbEntity
  8
1
100
AcDbText
 10
-35.19086635325722
 20
23.98875083948959
 30
0.0
 40
3.0
  1
1/XXX
 41
0.8
  7
SANINDUSA
 72
     4
 11
-30.0
 21
25.25
 31
0.0
100
AcDbAttributeDefinition
  3
Escala geral:
  2
ESCALA
 70
     0
  0
ATTDEF
  5
BAA
330
B9E
100
AcDbEntity
  8
1
100
AcDbText
 10
-15.65345869711215
 20
23.75
 30
0.0
 40
3.0
  1
XXXXX
 41
0.8
  7
SANINDUSA
 72
     4
 11
-10.0
 21
25.25
 31
0.0
100
AcDbAttributeDefinition
  3
Folha:
  2
FOLHA
 70
     0
  0
ATTDEF
  5
BAB
330
B9E
100
AcDbEntity
  8
1
100
AcDbText
 10
-178.5146998822042
 20
56.9531347542807
 30
0.0
 40
2.0
  1
xx
 41
0.8
  7
SANINDUSA
 72
     4
 11
-177.2123493113513
 21
57.70330265219877
 31
0.0
100
AcDbAttributeDefinition
  3
revisão
  2
REV.
 70
     0
  0
ATTDEF
  5
BAC
330
B9E
100
AcDbEntity
  8
1
100
AcDbText
 10
-172.7849640077129
 20
56.9531347542807
 30
0.0
 40
2.0
  1
xx
 41
0.8
  7
SANINDUSA
 72
     4
 11
-171.48261343686
 21
57.70330265219877
 31
0.0
100
AcDbAttributeDefinition
  3
alteração
  2
ALT.
 70
     0
  0
ATTDEF
  5
BAD
330
B9E
100
AcDbEntity
  8
1
100
AcDbText
 10
-168.007199951307
 20
56.70330265219877
 30
0.0
 40
2.0
  1
xx/xx/xxxx
 41
0.8
  7
SANINDUSA
 11
-168.007199951307
 21
57.70330265219877
 31
0.0
100
AcDbAttributeDefinition
  3
data
  2
DATA
 70
     0
 74
     2
  0
ATTDEF
  5
BAE
330
B9E
100
AcDbEntity
  8
1
100
AcDbText
 10
-168.5396372253371
 20
13.15916722632639
 30
0.0
 40
2.0
  1
XX/XX/XXXX
 41
0.8
  7
SANINDUSA
 72
     4
 11
-161.5099528734231
 21
14.0
 31
0.0
100
AcDbAttributeDefinition
  3
Data projecto
  2
DATA_PROJ
 70
     0
  0
ATTDEF
  5
BAF
330
B9E
100
AcDbEntity
  8
1
100
AcDbText
 10
-150.8658110728766
 20
13.24983210208193
 30
0.0
 40
2.0
  1
xxxxxxxx
 41
0.8
  7
SANINDUSA
 72
     4
 11
-145.6564087894649
 21
14.0
 31
0.0
100
AcDbAttributeDefinition
  3
nome de quem projectou
  2
NOME
 70
     0
  0
ATTDEF
  5
BB0
330
B9E
100
AcDbEntity
  8
1
100
AcDbText
 10
-168.5396372253371
 20
9.159167226326394
 30
0.0
 40
2.0
  1
XX/XX/XXXX
 41
0.8
  7
SANINDUSA
 72
     4
 11
-161.5099528734231
 21
10.0
 31
0.0
100
AcDbAttributeDefinition
  3
Data desenhou
  2
DATA_DES
 70
     0
  0
ATTDEF
  5
BB1
330
B9E
100
AcDbEntity
  8
1
100
AcDbText
 10
-151.516986358303
 20
9.249832102081933
 30
0.0
 40
2.0
  1
xxxxxxxxx
 41
0.8
  7
SANINDUSA
 72
     4
 11
-145.6564087894649
 21
10.0
 31
0.0
100
AcDbAttributeDefinition
  3
nome
  2
NOME
 70
     0
  0
ATTDEF
  5
BB2
330
B9E
100
AcDbEntity
  8
1
100
AcDbText
 10
-127.2924214135946
 20
14.1979876583216
 30
0.0
 40
2.0
  1
Vitreous China
 41
0.8
  7
SANINDUSA
 72
     4
 11
-119.231709526422
 21
15.22216495852308
 31
0.0
100
AcDbAttributeDefinition
  3
Nome do Material:
  2
MATERIAL
 70
     0
  0
ATTDEF
  5
BB3
330
B9E
100
AcDbEntity
  8
1
100
AcDbText
 10
-103.1563452122093
 20
14.38019043949261
 30
0.0
 40
2.0
  1
Branco
 41
0.8
  7
SANINDUSA
 72
     4
 11
-99.33418268702462
 21
15.35937109765245
 31
0.0
100
AcDbAttributeDefinition
  3
cor da peça
  2
COR
 70
     0
  0
ATTDEF
  5
BB4
330
B9E
100
AcDbEntity
  8
1
100
AcDbText
 10
-116.7235057085292
 20
5.975822699798522
 30
0.0
 40
2.0
  1
Vidrado
 41
0.8
  7
SANINDUSA
 72
     4
 11
-112.5
 21
7.0
 31
0.0
100
AcDbAttributeDefinition
  3
Tipo de acabamento:
  2
ACABAMENTO
 70
     0
  0
ATTDEF
  5
BB5
330
B9E
100
AcDbEntity
  8
1
100
AcDbText
 10
-79.18527869967246
 20
16.65066409850533
 30
0.0
 40
2.0
  1
XXXXXXX
 41
0.8
  7
SANINDUSA
 72
     4
 11
-73.90871724903445
 21
17.65066409850533
 31
0.0
100
AcDbAttributeDefinition
  3
Normas
  2
NORMAS
 70
     0
  0
ATTDEF
  5
BB6
330
B9E
100
AcDbEntity
  8
1
100
AcDbText
 10
-30.55312290127603
 20
14.0
 30
0.0
 40
2.0
  1
XXXXXXXXXXXXXX
 41
0.8
  7
SANINDUSA
 72
     4
 11
-20.0
 21
15.0
 31
0.0
100
AcDbAttributeDefinition
  3
Substitui o desenho:
  2
SUBSTITUI
 70
     0
  0
ATTDEF
  5
BB7
330
B9E
100
AcDbEntity
  8
1
100
AcDbText
 10
-31.30691739422431
 20
6.0
 30
0.0
 40
2.0
  1
XXXXXXXXXXXXXXX
 41
0.8
  7
SANINDUSA
 72
     4
 11
-20.0
 21
7.0
 31
0.0
100
AcDbAttributeDefinition
  3
Substituido por:
  2
SUBSTITUIDO
 70
     0
  0
ATTDEF
  5
BB8
330
B9E
100
AcDbEntity
  8
1
100
AcDbText
 10
-110.0220608548302
 20
1.478208457928303
 30
0.0
 40
2.0
  1
XXXXXXXXXXXXXXXXXXXXXXXXXXXXXXXXXX
 41
0.8
  7
SANINDUSA
 11
-110.0220608548302
 21
2.478208457928303
 31
0.0
100
AcDbAttributeDefinition
  3
Localização do desenho:
  2
LOC-DWG
 70
     0
 74
     2
  0
LINE
  5
BB9
330
B9E
100
AcDbEntity
  8
3
100
AcDbLine
 10
-135.0
 20
4.0
 30
0.0
 11
0.0000000000004547
 21
4.0
 31
0.0
  0
LINE
  5
BBA
330
B9E
100
AcDbEntity
  8
3
100
AcDbLine
 10
-90.00000000000046
 20
12.0
 30
0.0
 11
-135.0
 21
12.0
 31
0.0
  0
LINE
  5
BBB
330
B9E
100
AcDbEntity
  8
3
100
AcDbLine
 10
-135.0
 20
32.5
 30
0.0
 11
-40.0
 21
32.5
 31
0.0
  0
TEXT
  5
BBC
330
B9E
100
AcDbEntity
  8
1
100
AcDbText
 10
-134.0
 20
1.25
 30
0.0
 40
2.0
  1
Localização do des.:
 41
0.8
  7
SANINDUSA
 11
-134.0
 21
2.25
 31
0.0
100
AcDbText
 73
     2
  0
LINE
  5
BBD
330
B9E
100
AcDbEntity
  8
3
100
AcDbLine
 10
-180.0
 20
65.0
 30
0.0
 11
0.0
 21
65.0
 31
0.0
  0
LINE
  5
BBE
330
B9E
100
AcDbEntity
  8
leg fin
100
AcDbLine
 10
-40.0
 20
25.05956924886846
 30
0.0
 11
-135.0
 21
25.05956924886846
 31
0.0
  0
LINE
  5
BBF
330
B9E
100
AcDbEntity
  8
leg fin
100
AcDbLine
 10
-40.0
 20
28.5
 30
0.0
 11
-135.0
 21
28.5
 31
0.0
  0
LINE
  5
BC0
330
B9E
100
AcDbEntity
  8
3
100
AcDbLine
 10
-135.0
 20
50.0
 30
0.0
 11
-40.0
 21
50.0
 31
0.0
  0
TEXT
  5
BC1
330
B9E
100
AcDbEntity
  8
1
100
AcDbText
 10
-134.0
 20
29.75
 30
0.0
 40
2.0
  1
Desenho nº:
 41
0.8
  7
SANINDUSA
 11
-134.0
 21
30.75
 31
0.0
100
AcDbText
 73
     2
  0
TEXT
  5
BC2
330
B9E
100
AcDbEntity
  8
1
100
AcDbText
 10
-134.0
 20
9.25
 30
0.0
 40
2.0
  1
Acabamento:
 41
0.8
  7
SANINDUSA
 11
-134.0
 21
10.25
 31
0.0
100
AcDbText
 73
     2
  0
LINE
  5
BC3
330
B9E
100
AcDbEntity
  8
3
100
AcDbLine
 10
-180.0
 20
20.0
 30
0.0
 11
0.0
 21
20.0
 31
0.0
  0
LINE
  5
BC4
330
B9E
100
AcDbEntity
  8
1
100
AcDbLine
 10
-174.5810776056337
 20
55.5
 30
0.0
 11
-174.5810776056337
 21
65.0
 31
0.0
  0
LINE
  5
BC5
330
B9E
100
AcDbEntity
  8
1
100
AcDbLine
 10
-168.9210461879161
 20
55.5
 30
0.0
 11
-168.9210461879161
 21
65.0
 31
0.0
  0
LINE
  5
BC6
330
B9E
100
AcDbEntity
  8
1
100
AcDbLine
 10
-154.0988595589306
 20
55.5
 30
0.0
 11
-154.0988595589306
 21
65.0
 31
0.0
  0
LINE
  5
BC7
330
B9E
100
AcDbEntity
  8
3
100
AcDbLine
 10
-180.0
 20
65.0
 30
0.0
 11
-180.0
 21
0.0
 31
0.0
  0
LINE
  5
BC8
330
B9E
100
AcDbEntity
  8
3
100
AcDbLine
 10
-135.0
 20
0.0
 30
0.0
 11
-135.0
 21
65.0
 31
0.0
  0
TEXT
  5
BC9
330
B9E
100
AcDbEntity
  8
1
100
AcDbText
 10
-179.0
 20
9.75
 30
0.0
 40
1.5
  1
Des.
 41
0.8
  7
SANINDUSA
 11
-179.0
 21
10.5
 31
0.0
100
AcDbText
 73
     2
  0
LINE
  5
BCA
330
B9E
100
AcDbEntity
  8
1
100
AcDbLine
 10
-168.9210461879161
 20
20.0
 30
0.0
 11
-168.9210461879161
 21
0.0
 31
0.0
  0
LINE
  5
BCB
330
B9E
100
AcDbEntity
  8
1
100
AcDbLine
 10
-154.0988595589306
 20
20.0
 30
0.0
 11
-154.0988595589306
 21
0.0
 31
0.0
  0
LINE
  5
BCC
330
B9E
100
AcDbEntity
  8
1
100
AcDbLine
 10
-180.0
 20
4.0
 30
0.0
 11
-135.0
 21
4.0
 31
0.0
  0
LINE
  5
BCD
330
B9E
100
AcDbEntity
  8
1
100
AcDbLine
 10
-180.0
 20
8.0
 30
0.0
 11
-135.0
 21
8.0
 31
0.0
  0
TEXT
  5
BCE
330
B9E
100
AcDbEntity
  8
1
100
AcDbText
 10
-179.0
 20
1.73257823687436
 30
0.0
 40
1.5
  1
Aprov.
 41
0.8
  7
SANINDUSA
 11
-179.0
 21
2.48257823687436
 31
0.0
100
AcDbText
 73
     2
  0
TEXT
  5
BCF
330
B9E
100
AcDbEntity
  8
1
100
AcDbText
 10
-179.0
 20
5.75
 30
0.0
 40
1.5
  1
Ver.
 41
0.8
  7
SANINDUSA
 11
-179.0
 21
6.5
 31
0.0
100
AcDbText
 73
     2
  0
LINE
  5
BD0
330
B9E
100
AcDbEntity
  8
1
100
AcDbLine
 10
-180.0
 20
16.0
 30
0.0
 11
-135.0
 21
16.0
 31
0.0
  0
LINE
  5
BD1
330
B9E
100
AcDbEntity
  8
1
100
AcDbLine
 10
-180.0
 20
12.0
 30
0.0
 11
-135.0
 21
12.0
 31
0.0
  0
TEXT
  5
BD2
330
B9E
100
AcDbEntity
  8
1
100
AcDbText
 10
-179.0
 20
13.75
 30
0.0
 40
1.5
  1
Proj.
 41
0.8
  7
SANINDUSA
 11
-179.0
 21
14.5
 31
0.0
100
AcDbText
 73
     2
  0
TEXT
  5
BD3
330
B9E
100
AcDbEntity
  8
1
100
AcDbText
 10
-167.9210461879161
 20
17.75
 30
0.0
 40
1.5
  1
Data
 41
0.8
  7
SANINDUSA
 11
-167.9210461879161
 21
18.5
 31
0.0
100
AcDbText
 73
     2
  0
TEXT
  5
BD4
330
B9E
100
AcDbEntity
  8
1
100
AcDbText
 10
-153.0988595589306
 20
17.75
 30
0.0
 40
1.5
  1
Nome
 41
0.8
  7
SANINDUSA
 11
-153.0988595589306
 21
18.5
 31
0.0
100
AcDbText
 73
     2
  0
LINE
  5
BD5
330
B9E
100
AcDbEntity
  8
leg fin
100
AcDbLine
 10
-130.0
 20
20.0
 30
0.0
 11
-130.0
 21
28.5
 31
0.0
  0
TEXT
  5
BD6
330
B9E
100
AcDbEntity
  8
1
100
AcDbText
 10
-134.0
 20
17.25
 30
0.0
 40
2.0
  1
Material:
 41
0.8
  7
SANINDUSA
 11
-134.0
 21
18.25
 31
0.0
100
AcDbText
 73
     2
  0
TEXT
  5
BD7
330
B9E
100
AcDbEntity
  8
1
100
AcDbText
 10
-129.0
 20
26.43288406845113
 30
0.0
 40
1.5
  1
Ano:
 41
0.8
  7
SANINDUSA
 11
-129.0
 21
27.18288406845113
 31
0.0
100
AcDbText
 73
     2
  0
LINE
  5
BD8
330
B9E
100
AcDbEntity
  8
1
100
AcDbLine
 10
-180.0
 20
55.5
 30
0.0
 11
-135.0
 21
55.5
 31
0.0
  0
TEXT
  5
BD9
330
B9E
100
AcDbEntity
  8
1
100
AcDbText
 10
-179.0
 20
52.67772246885193
 30
0.0
 40
1.5
  1
descrição
 41
0.8
  7
SANINDUSA
 11
-179.0
 21
53.42772246885193
 31
0.0
100
AcDbText
 73
     2
  0
TEXT
  5
BDA
330
B9E
100
AcDbEntity
  8
1
100
AcDbText
 10
-134.0
 20
47.25
 30
0.0
 40
2.0
  1
Peça:
 41
0.8
  7
SANINDUSA
 11
-134.0
 21
48.25
 31
0.0
100
AcDbText
 73
     2
  0
LINE
  5
BDB
330
B9E
100
AcDbEntity
  8
1
100
AcDbLine
 10
-180.0
 20
59.5
 30
0.0
 11
-135.0
 21
59.5
 31
0.0
  0
TEXT
  5
BDC
330
B9E
100
AcDbEntity
  8
1
100
AcDbText
 10
-173.5810776056337
 20
62.75
 30
0.0
 40
1.5
  1
Alt.
 41
0.8
  7
SANINDUSA
 11
-173.5810776056337
 21
63.5
 31
0.0
100
AcDbText
 73
     2
  0
TEXT
  5
BDD
330
B9E
100
AcDbEntity
  8
1
100
AcDbText
 10
-179.0
 20
62.75
 30
0.0
 40
1.5
  1
Rev.
 41
0.8
  7
SANINDUSA
 11
-179.0
 21
63.5
 31
0.0
100
AcDbText
 73
     2
  0
TEXT
  5
BDE
330
B9E
100
AcDbEntity
  8
1
100
AcDbText
 10
-167.9210461879161
 20
62.75
 30
0.0
 40
1.5
  1
Data
 41
0.8
  7
SANINDUSA
 11
-167.9210461879161
 21
63.5
 31
0.0
100
AcDbText
 73
     2
  0
TEXT
  5
BDF
330
B9E
100
AcDbEntity
  8
1
100
AcDbText
 10
-153.0988595589306
 20
62.75
 30
0.0
 40
1.5
  1
Nome
 41
0.8
  7
SANINDUSA
 11
-153.0988595589306
 21
63.5
 31
0.0
100
AcDbText
 73
     2
  0
TEXT
  5
BE0
330
B9E
100
AcDbEntity
  8
1
100
AcDbText
 10
-134.0
 20
62.25
 30
0.0
 40
2.0
  1
Produto:
 41
0.8
  7
SANINDUSA
 11
-134.0
 21
63.25
 31
0.0
100
AcDbText
 73
     2
  0
LINE
  5
BE1
330
B9E
100
AcDbEntity
  8
3
100
AcDbLine
 10
-40.0
 20
4.0
 30
0.0
 11
-40.0
 21
65.0
 31
0.0
  0
LWPOLYLINE
  5
BE2
102
{ACAD_REACTORS
330
BEC
102
}
330
B9E
100
AcDbEntity
  8
9
100
AcDbPolyline
 90
       12
 70
     1
 43
0.0
 10
-3.038714600644652
 20
58.90010174665076
 10
-5.726962862472191
 20
58.90010174665076
 10
-5.726962862472191
 20
58.5001017466509
 10
-3.038748516195028
 20
58.5001017466509
 42
-0.4142135623731731
 10
-2.638748516194482
 20
58.1001017466508
 10
-2.638748516194482
 20
57.42799728675596
 10
-5.21497371544865
 20
57.42799728675596
 42
0.4142135623731289
 10
-6.014973715448377
 20
56.627997286756
 10
-6.014973715448377
 20
55.92380871629643
 42
0.4142135623731132
 10
-5.21497371544865
 20
55.12380871629648
 10
-2.23871460064447
 20
55.12380871629648
 10
-2.23871460064447
 20
58.10010174665103
 42
0.4142135623730717
  0
LWPOLYLINE
  5
BE3
102
{ACAD_REACTORS
330
BEC
102
}
330
B9E
100
AcDbEntity
  8
9
100
AcDbPolyline
 90
       20
 70
     1
 43
0.0
 10
-10.01531287095122
 20
57.82799728675581
 10
-10.01531287095122
 20
58.10010174665103
 42
-0.4142135623730744
 10
-9.615312870951584
 20
58.5001017466509
 10
-6.92703069357276
 20
58.5001017466509
 10
-6.92703069357276
 20
58.90010174665076
 10
-9.615346786501959
 20
58.90010174665076
 42
0.4142135623730883
 10
-10.41534678650168
 20
58.1001017466508
 10
-10.41534678650168
 20
57.82796337120567
 42
0.4142135623730717
 10
-9.615346786501959
 20
57.02796337120571
 10
-7.423079531965413
 20
57.02796337120571
 42
-0.4142135623730847
 10
-7.023079531965322
 20
56.62796337120562
 10
-7.023079531965322
 20
55.90786840766487
 42
-0.4142135623730744
 10
-7.423079531965413
 20
55.507868407665
 10
-10.41534678650168
 20
55.507868407665
 10
-10.41534678650168
 20
55.12380871629648
 10
-7.445787917283723
 20
55.12380871629648
 42
0.4114777732064574
 10
-6.645822882998345
 20
55.9163291493976
 10
-6.639238813324936
 20
56.62051771985716
 42
0.4169546541682913
 10
-7.439203847610315
 20
57.42799728675596
 10
-9.615312870951584
 20
57.42799728675596
 42
-0.4142135623731576
  0
LWPOLYLINE
  5
BE4
102
{ACAD_REACTORS
330
BEC
102
}
330
B9E
100
AcDbEntity
  8
9
100
AcDbPolyline
 90
       12
 70
     1
 43
0.0
 10
-14.41561811090378
 20
58.90010174665076
 10
-14.79964388672215
 20
58.90010174665076
 10
-14.79964388672215
 20
55.92380871629643
 42
0.4142135623731133
 10
-13.99964388672242
 20
55.12380871629648
 10
-11.8233508563676
 20
55.12380871629648
 42
0.4142135623730872
 10
-11.02335085636741
 20
55.92380871629643
 10
-11.02335085636741
 20
58.90010174665076
 10
-11.42338477191788
 20
58.90010174665076
 10
-11.42338477191788
 20
55.91567577726095
 42
-0.4131711701795318
 10
-11.82196067063523
 20
55.51567831234956
 10
-14.0141940096214
 20
55.50787335710947
 42
-0.4152567234624407
 10
-14.41561811090378
 20
55.90787082202087
  0
LWPOLYLINE
  5
BE5
102
{ACAD_REACTORS
330
BEC
102
}
330
B9E
100
AcDbEntity
  8
9
100
AcDbPolyline
 90
        6
 70
     1
 43
0.0
 10
-15.80771578768872
 20
55.507868407665
 10
-18.39994912667453
 20
55.507868407665
 42
-0.4142135623731731
 10
-18.79994912667462
 20
55.90786840766487
 10
-18.79994912667462
 20
58.10010174665103
 42
-0.4142135623730744
 10
-18.39994912667453
 20
58.5001017466509
 10
-15.80771578768872
 20
58.5001017466509
  0
LWPOLYLINE
  5
BE6
102
{ACAD_REACTORS
330
BEC
102
}
330
B9E
100
AcDbEntity
  8
9
100
AcDbPolyline
 90
        8
 70
     1
 43
0.0
 10
-15.4236900118708
 20
59.87619128370352
 10
-15.80771578768872
 20
59.87619128370352
 10
-15.80771578768872
 20
58.90010174665076
 10
-18.39176256411201
 20
58.90010174665076
 42
0.4131164467977967
 10
-19.19175694739761
 20
58.1030995310698
 10
-19.1999120763262
 20
55.92680650071542
 42
0.4153115297271718
 10
-18.39991769304061
 20
55.12380871629648
 10
-15.4236900118708
 20
55.12380871629648
  0
LWPOLYLINE
  5
BE7
102
{ACAD_REACTORS
330
BEC
102
}
330
B9E
100
AcDbEntity
  8
9
100
AcDbPolyline
 90
       10
 70
     1
 43
0.0
 10
-20.59201288790928
 20
58.90010174665076
 10
-23.56830591826338
 20
58.90010174665076
 10
-23.56830591826338
 20
55.12380871629648
 10
-23.18424622689509
 20
55.12380871629648
 10
-23.18424622689509
 20
58.5001017466509
 10
-20.59204680345965
 20
58.5001017466509
 42
-0.4142135623730898
 10
-20.19204680345956
 20
58.1001017466508
 10
-20.19204680345956
 20
55.12380871629648
 10
-19.79201288790909
 20
55.12380871629648
 10
-19.79201288790909
 20
58.10010174665103
 42
0.4142135623731132
  0
LWPOLYLINE
  5
BE8
102
{ACAD_REACTORS
330
BEC
102
}
330
B9E
100
AcDbEntity
  8
9
100
AcDbPolyline
 90
        4
 70
     1
 43
0.0
 10
-24.19231812786165
 20
58.90010174665076
 10
-24.57637781922995
 20
58.90010174665076
 10
-24.57637781922995
 20
55.12380871629648
 10
-24.19231812786165
 20
55.12380871629648
  0
LWPOLYLINE
  5
BE9
102
{ACAD_REACTORS
330
BEC
102
}
330
B9E
100
AcDbEntity
  8
9
100
AcDbPolyline
 90
       10
 70
     1
 43
0.0
 10
-28.57661522808212
 20
58.5001017466509
 10
-25.98444972019706
 20
58.5001017466509
 42
-0.4142135623731731
 10
-25.58444972019652
 20
58.1001017466508
 10
-25.58444972019652
 20
55.12380871629648
 10
-25.2004239443786
 20
55.12380871629648
 10
-25.2004239443786
 20
58.10010174665103
 42
0.4142135623730717
 10
-26.00042394437833
 20
58.90010174665076
 10
-28.97664914363259
 20
58.90010174665076
 10
-28.97664914363259
 20
55.12380871629648
 10
-28.57661522808212
 20
55.12380871629648
  0
LWPOLYLINE
  5
BEA
102
{ACAD_REACTORS
330
BEC
102
}
330
B9E
100
AcDbEntity
  8
9
100
AcDbPolyline
 90
       12
 70
     1
 43
0.0
 10
-29.58465321349832
 20
58.10010174665103
 42
0.4142135623730716
 10
-30.3846532134985
 20
58.90010174665076
 10
-33.07296930642724
 20
58.90010174665076
 10
-33.07296930642724
 20
58.5001017466509
 10
-30.38468712904842
 20
58.5001017466509
 42
-0.4142135623730067
 10
-29.98468712904878
 20
58.1001017466508
 10
-29.98468712904878
 20
57.42799728675618
 10
-32.56098015940324
 20
57.42799728675596
 42
0.4142135623731289
 10
-33.36098015940343
 20
56.627997286756
 10
-33.36098015940343
 20
55.92380871629643
 42
0.4142135623731132
 10
-32.56098015940324
 20
55.12380871629648
 10
-29.58465321349832
 20
55.12380871629648
  0
LWPOLYLINE
  5
BEB
102
{ACAD_REACTORS
330
BEC
102
}
330
B9E
100
AcDbEntity
  8
9
100
AcDbPolyline
 90
       20
 70
     1
 43
0.0
 10
-34.7850262845518
 20
57.42799728675596
 10
-36.96125148380543
 20
57.42799728675596
 42
-0.4142135623730898
 10
-37.36125148380552
 20
57.82799728675604
 10
-37.36125148380552
 20
58.10010174665103
 42
-0.4142135623730744
 10
-36.96125148380543
 20
58.5001017466509
 10
-34.27303713752781
 20
58.50010174665067
 10
-34.27303713752781
 20
58.90010174665076
 10
-36.96128539935535
 20
58.90010174665076
 42
0.4142135623731289
 10
-37.76128539935553
 20
58.1001017466508
 10
-37.76128539935553
 20
57.82796337120567
 42
0.4142135623730716
 10
-36.9612853993558
 20
57.02796337120571
 10
-34.76901814481926
 20
57.02796337120571
 42
-0.414213562373168
 10
-34.36901814481962
 20
56.62796337120562
 10
-34.36901814481962
 20
55.90786840766487
 42
-0.4142135623730744
 10
-34.76901814481926
 20
55.507868407665
 10
-37.76128539935553
 20
55.507868407665
 10
-37.76128539935553
 20
55.12380871629648
 10
-34.7850262845518
 20
55.12380871629648
 42
0.4142135623731289
 10
-33.98502628455162
 20
55.92380871629643
 10
-33.98502628455162
 20
56.627997286756
 42
0.4142135623731132
  0
HATCH
  5
BEC
330
B9E
100
AcDbEntity
  8
9
100
AcDbHatch
 10
0.0
 20
0.0
 30
0.0
210
0.0
220
0.0
230
1.0
  2
SOLID
 70
     1
 71
     1
 91
       13
 92
        7
 72
     1
 73
     1
 93
       20
 10
-34.36901814481962
 20
55.90786840766487
 42
-0.414213562372991
 10
-34.76901814481926
 20
55.507868407665
 42
0.0
 10
-37.76128539935553
 20
55.507868407665
 42
0.0
 10
-37.76128539935553
 20
55.12380871629648
 42
0.0
 10
-34.7850262845518
 20
55.12380871629648
 42
0.4142135623731705
 10
-33.98502628455162
 20
55.92380871629666
 42
0.0
 10
-33.98502628455162
 20
56.627997286756
 42
0.4142135623731547
 10
-34.7850262845518
 20
57.42799728675596
 42
0.0
 10
-36.96125148380543
 20
57.42799728675596
 42
-0.4142135623730898
 10
-37.36125148380552
 20
57.82799728675604
 42
0.0
 10
-37.36125148380552
 20
58.1001017466508
 42
-0.4142135623731575
 10
-36.96125148380543
 20
58.5001017466509
 42
0.0
 10
-34.27303713752781
 20
58.50010174665067
 42
0.0
 10
-34.27303713752781
 20
58.90010174665076
 42
0.0
 10
-36.96128539935535
 20
58.90010174665076
 42
0.4142135623731705
 10
-37.76128539935553
 20
58.10010174665058
 42
0.0
 10
-37.76128539935553
 20
57.82796337120544
 42
0.4142135623730299
 10
-36.9612853993558
 20
57.02796337120571
 42
0.0
 10
-34.76901814481926
 20
57.02796337120571
 42
-0.4142135623730015
 10
-34.36901814481962
 20
56.62796337120608
 42
0.0
 97
        1
330
BEB
 92
        7
 72
     1
 73
     1
 93
       12
 10
-33.36098015940343
 20
55.92380871629666
 42
0.4142135623731547
 10
-32.56098015940324
 20
55.12380871629648
 42
0.0
 10
-29.58465321349877
 20
55.12380871629648
 42
0.0
 10
-29.58465321349832
 20
58.10010174665058
 42
0.4142135623731964
 10
-30.3846532134985
 20
58.90010174665076
 42
0.0
 10
-33.07296930642724
 20
58.90010174665076
 42
0.0
 10
-33.07296930642724
 20
58.50010174665067
 42
0.0
 10
-30.38468712904887
 20
58.5001017466509
 42
-0.4142135623732564
 10
-29.98468712904878
 20
58.10010174665103
 42
0.0
 10
-29.98468712904923
 20
57.42799728675596
 42
0.0
 10
-32.56098015940324
 20
57.42799728675596
 42
0.4142135623731705
 10
-33.36098015940343
 20
56.627997286756
 42
0.0
 97
        1
330
BEA
 92
       22
 72
     1
 73
     1
 93
        6
 10
-32.97692046803468
 20
56.62796337120562
 42
-0.4142135623731576
 10
-32.57692046803459
 20
57.02796337120571
 42
0.0
 10
-29.98468712904878
 20
57.02796337120571
 42
0.0
 10
-29.98468712904878
 20
55.507868407665
 42
0.0
 10
-32.57692046803459
 20
55.507868407665
 42
-0.4142135623731731
 10
-32.97692046803468
 20
55.90786840766487
 42
0.0
 97
        1
330
C11
 92
        7
 72
     1
 73
     1
 93
       10
 10
-28.57661522808212
 20
58.5001017466509
 42
0.0
 10
-25.98444972019661
 20
58.5001017466509
 42
-0.4142135623730067
 10
-25.58444972019652
 20
58.10010174665058
 42
0.0
 10
-25.58444972019606
 20
55.12380871629648
 42
0.0
 10
-25.20042394437906
 20
55.12380871629648
 42
0.0
 10
-25.2004239443786
 20
58.1001017466508
 42
0.4142135623731134
 10
-26.00042394437833
 20
58.90010174665076
 42
0.0
 10
-28.97664914363259
 20
58.90010174665076
 42
0.0
 10
-28.97664914363259
 20
55.12380871629648
 42
0.0
 10
-28.57661522808212
 20
55.12380871629648
 42
0.0
 97
        1
330
BE9
 92
        7
 72
     0
 73
     1
 93
        4
 10
-24.57637781922995
 20
55.12380871629648
 10
-24.19231812786165
 20
55.12380871629648
 10
-24.19231812786165
 20
58.90010174665076
 10
-24.57637781922995
 20
58.90010174665076
 97
        1
330
BE8
 92
        7
 72
     0
 73
     1
 93
        4
 10
-24.19231812786165
 20
59.87619128370352
 10
-24.5763778192304
 20
59.87619128370352
 10
-24.5763778192304
 20
59.28412752246913
 10
-24.1923181278612
 20
59.28412752246913
 97
        1
330
C12
 92
        7
 72
     1
 73
     1
 93
       10
 10
-23.18424622689509
 20
58.5001017466509
 42
0.0
 10
-20.59204680345965
 20
58.5001017466509
 42
-0.4142135623730898
 10
-20.19204680345956
 20
58.1001017466508
 42
0.0
 10
-20.19204680345956
 20
55.12380871629648
 42
0.0
 10
-19.79201288790909
 20
55.12380871629648
 42
0.0
 10
-19.79201288790909
 20
58.1001017466508
 42
0.4142135623731547
 10
-20.59201288790928
 20
58.90010174665076
 42
0.0
 10
-23.56830591826338
 20
58.90010174665076
 42
0.0
 10
-23.56830591826338
 20
55.12380871629648
 42
0.0
 10
-23.18424622689463
 20
55.12380871629648
 42
0.0
 97
        1
330
BE7
 92
        7
 72
     1
 73
     1
 93
        8
 10
-19.1999120763262
 20
55.92680650071542
 42
0.4153115297271299
 10
-18.39991769304061
 20
55.12380871629648
 42
0.0
 10
-15.4236900118708
 20
55.12380871629648
 42
0.0
 10
-15.4236900118708
 20
59.87619128370352
 42
0.0
 10
-15.80771578768872
 20
59.87619128370352
 42
0.0
 10
-15.80771578768872
 20
58.90010174665076
 42
0.0
 10
-18.39176256411201
 20
58.90010174665076
 42
0.4131164467977965
 10
-19.19175694739761
 20
58.1030995310698
 42
0.0
 97
        1
330
BE6
 92
       22
 72
     1
 73
     1
 93
        6
 10
-18.79994912667462
 20
58.1001017466508
 42
-0.4142135623731575
 10
-18.39994912667453
 20
58.5001017466509
 42
0.0
 10
-15.80771578768872
 20
58.50010174665067
 42
0.0
 10
-15.80771578768827
 20
55.507868407665
 42
0.0
 10
-18.39994912667453
 20
55.507868407665
 42
-0.4142135623731731
 10
-18.79994912667462
 20
55.90786840766487
 42
0.0
 97
        1
330
BE5
 92
        7
 72
     1
 73
     1
 93
       12
 10
-14.79964388672215
 20
55.92380871629621
 42
0.4142135623729885
 10
-13.99964388672242
 20
55.12380871629648
 42
0.0
 10
-11.8233508563676
 20
55.12380871629648
 42
0.4142135623731289
 10
-11.02335085636741
 20
55.92380871629666
 42
0.0
 10
-11.02335085636741
 20
58.90010174665076
 42
0.0
 10
-11.42338477191788
 20
58.90010174665076
 42
0.0
 10
-11.42338477191788
 20
55.91567577726095
 42
-0.4131711701795319
 10
-11.82196067063523
 20
55.51567831234956
 42
0.0
 10
-14.01419400962095
 20
55.50787335710947
 42
-0.4152567234626918
 10
-14.41561811090378
 20
55.90787082202087
 42
0.0
 10
-14.41561811090378
 20
58.90010174665076
 42
0.0
 10
-14.7996438867226
 20
58.90010174665076
 42
0.0
 97
        1
330
BE4
 92
        7
 72
     1
 73
     1
 93
       20
 10
-7.423079531965413
 20
57.02796337120571
 42
-0.414213562373168
 10
-7.023079531965322
 20
56.62796337120562
 42
0.0
 10
-7.023079531965322
 20
55.90786840766487
 42
-0.4142135623731575
 10
-7.423079531965413
 20
55.507868407665
 42
0.0
 10
-10.41534678650168
 20
55.507868407665
 42
0.0
 10
-10.41534678650168
 20
55.12380871629648
 42
0.0
 10
-7.445787917283723
 20
55.12380871629648
 42
0.4114777732065809
 10
-6.645822882998345
 20
55.91632914939783
 42
0.0
 10
-6.639238813324936
 20
56.62051771985716
 42
0.4169546541682913
 10
-7.439203847610315
 20
57.42799728675596
 42
0.0
 10
-9.615312870951584
 20
57.42799728675596
 42
-0.4142135623729911
 10
-10.01531287095122
 20
57.82799728675581
 42
0.0
 10
-10.01531287095122
 20
58.10010174665103
 42
-0.414213562372991
 10
-9.615312870951584
 20
58.5001017466509
 42
0.0
 10
-6.92703069357276
 20
58.50010174665067
 42
0.0
 10
-6.927030693572305
 20
58.90010174665076
 42
0.0
 10
-9.615346786501959
 20
58.90010174665076
 42
0.4142135623730467
 10
-10.41534678650168
 20
58.10010174665103
 42
0.0
 10
-10.41534678650168
 20
57.82796337120544
 42
0.4142135623730301
 10
-9.615346786501959
 20
57.02796337120571
 42
0.0
 97
        1
330
BE3
 92
        7
 72
     1
 73
     1
 93
       12
 10
-5.21497371544865
 20
57.42799728675596
 42
0.4142135623730871
 10
-6.014973715448377
 20
56.627997286756
 42
0.0
 10
-6.014973715448377
 20
55.92380871629621
 42
0.4142135623730715
 10
-5.21497371544865
 20
55.12380871629648
 42
0.0
 10
-2.23871460064447
 20
55.12380871629648
 42
0.0
 10
-2.23871460064447
 20
58.10010174665058
 42
0.414213562373155
 10
-3.038714600644652
 20
58.90010174665076
 42
0.0
 10
-5.726962862471737
 20
58.90010174665076
 42
0.0
 10
-5.726962862472191
 20
58.5001017466509
 42
0.0
 10
-3.038748516194573
 20
58.5001017466509
 42
-0.4142135623730067
 10
-2.638748516194482
 20
58.10010174665058
 42
0.0
 10
-2.638748516194482
 20
57.42799728675596
 42
0.0
 97
        1
330
BE2
 92
       22
 72
     1
 73
     1
 93
        6
 10
-2.638748516194937
 20
57.02796337120571
 42
0.0
 10
-2.638748516194482
 20
55.50786840766477
 42
0.0
 10
-5.21497371544865
 20
55.507868407665
 42
-0.4142135623731731
 10
-5.614973715448741
 20
55.90786840766509
 42
0.0
 10
-5.614973715448741
 20
56.62796337120562
 42
-0.4142135623731576
 10
-5.21497371544865
 20
57.02796337120571
 42
0.0
 97
        1
330
C0D
 75
     0
 76
     1
 47
0.0407044778999864
 98
       13
 10
-34.18710075113677
 20
56.16907953933765
 10
-33.12851374392494
 20
56.49471602641233
 10
-33.12851374392494
 20
56.49471602641233
 10
-28.77202873835904
 20
57.51232930166111
 10
-24.41554807250941
 20
57.91937341678636
 10
-24.41554807250941
 20
59.384734621186
 10
-23.31624584658039
 20
58.3264175319116
 10
-19.04119127844888
 20
57.75655517324913
 10
-19.04119127844888
 20
57.75655517324913
 10
-14.64399105416578
 20
57.43091868617466
 10
-8.048195057457178
 20
57.22739662861204
 10
-4.017427461911665
 20
57.18669281458665
 10
-4.017427461911665
 20
57.18669281458665
  0
TEXT
  5
BED
330
B9E
100
AcDbEntity
  8
leg fin
100
AcDbText
 10
3.391127401597259
 20
2.107634911895729
 30
0.0
 40
1.5
  1
Este desenho é propriedade da Sanindusa, S.A., e não pode ser copiado nem divulgado sem nossa autorização.
 50
90.0
 41
0.8
  7
SANINDUSA
100
AcDbText
  0
LINE
  5
BEE
330
B9E
100
AcDbEntity
  8
3
100
AcDbLine
 10
-90.0
 20
4.0
 30
0.0
 11
-90.0
 21
12.0
 31
0.0
  0
TEXT
  5
BEF
330
B9E
100
AcDbEntity
  8
1
100
AcDbText
 10
-39.0
 20
9.25
 30
0.0
 40
2.0
  1
Substituido por:
 41
0.8
  7
SANINDUSA
 11
-39.0
 21
10.25
 31
0.0
100
AcDbText
 73
     2
  0
POINT
  5
BF0
330
B9E
100
AcDbEntity
  8
SANINDUSA
100
AcDbPoint
 10
0.0
 20
0.0
 30
0.0
  0
TEXT
  5
BF1
330
B9E
100
AcDbEntity
  8
1
100
AcDbText
 10
-89.0
 20
16.74927010445663
 30
0.0
 40
2.0
  1
Normas:
 41
0.8
  7
SANINDUSA
 11
-89.0
 21
17.74927010445663
 31
0.0
100
AcDbText
 73
     2
  0
LINE
  5
BF2
330
B9E
100
AcDbEntity
  8
3
100
AcDbLine
 10
-90.0
 20
12.0
 30
0.0
 11
-90.0
 21
20.0
 31
0.0
  0
LINE
  5
BF3
330
B9E
100
AcDbEntity
  8
3
100
AcDbLine
 10
-110.546019464768
 20
12.0
 30
0.0
 11
-110.546019464768
 21
20.0
 31
0.0
  0
TEXT
  5
BF4
330
B9E
100
AcDbEntity
  8
1
100
AcDbText
 10
-109.6177520618648
 20
17.25
 30
0.0
 40
2.0
  1
Cor:
 41
0.8
  7
SANINDUSA
 11
-109.6177520618648
 21
18.25
 31
0.0
100
AcDbText
 73
     2
  0
LINE
  5
BF5
330
B9E
100
AcDbEntity
  8
leg fin
100
AcDbLine
 10
-91.42857142857156
 20
20.0
 30
0.0
 11
-91.42857142857156
 21
28.5
 31
0.0
  0
LINE
  5
BF6
330
B9E
100
AcDbEntity
  8
leg fin
100
AcDbLine
 10
-104.2857142857142
 20
20.0
 30
0.0
 11
-104.2857142857142
 21
28.5
 31
0.0
  0
LINE
  5
BF7
330
B9E
100
AcDbEntity
  8
leg fin
100
AcDbLine
 10
-117.1428571428573
 20
20.0
 30
0.0
 11
-117.1428571428573
 21
28.5
 31
0.0
  0
POINT
  5
BF8
330
B9E
100
AcDbEntity
  8
SANINDUSA
100
AcDbPoint
 10
-117.1428571428573
 20
28.5
 30
0.0
  0
POINT
  5
BF9
330
B9E
100
AcDbEntity
  8
SANINDUSA
100
AcDbPoint
 10
-104.2857142857142
 20
28.5
 30
0.0
  0
POINT
  5
BFA
330
B9E
100
AcDbEntity
  8
SANINDUSA
100
AcDbPoint
 10
-91.42857142857156
 20
28.5
 30
0.0
  0
TEXT
  5
BFB
330
B9E
100
AcDbEntity
  8
1
100
AcDbText
 10
-116.200160604496
 20
26.43288406845113
 30
0.0
 40
1.5
  1
Nº Seq.:
 41
0.8
  7
SANINDUSA
 11
-116.200160604496
 21
27.18288406845113
 31
0.0
100
AcDbText
 73
     2
  0
TEXT
  5
BFC
330
B9E
100
AcDbEntity
  8
1
100
AcDbText
 10
-103.2106584078738
 20
26.43288406845113
 30
0.0
 40
1.5
  1
Tipo:
 41
0.8
  7
SANINDUSA
 11
-103.2106584078738
 21
27.18288406845113
 31
0.0
100
AcDbText
 73
     2
  0
TEXT
  5
BFD
330
B9E
100
AcDbEntity
  8
1
100
AcDbText
 10
-90.22114672289353
 20
26.43288406845113
 30
0.0
 40
1.5
  1
Prod.:
 41
0.8
  7
SANINDUSA
 11
-90.22114672289353
 21
27.18288406845113
 31
0.0
100
AcDbText
 73
     2
  0
TEXT
  5
BFE
330
B9E
100
AcDbEntity
  8
1
100
AcDbText
 10
-64.77320576346574
 20
26.43288406845113
 30
0.0
 40
1.5
  1
Rev.:
 41
0.8
  7
SANINDUSA
 11
-64.77320576346574
 21
27.18288406845113
 31
0.0
100
AcDbText
 73
     2
  0
LINE
  5
BFF
330
B9E
100
AcDbEntity
  8
leg fin
100
AcDbLine
 10
-52.85714285714266
 20
20.0
 30
0.0
 11
-52.85714285714266
 21
28.5
 31
0.0
  0
LINE
  5
C00
330
B9E
100
AcDbEntity
  8
leg fin
100
AcDbLine
 10
-65.71428571428578
 20
20.0
 30
0.0
 11
-65.71428571428578
 21
28.5
 31
0.0
  0
LINE
  5
C01
330
B9E
100
AcDbEntity
  8
leg fin
100
AcDbLine
 10
-78.57142857142844
 20
20.0
 30
0.0
 11
-78.57142857142844
 21
28.5
 31
0.0
  0
POINT
  5
C02
330
B9E
100
AcDbEntity
  8
SANINDUSA
100
AcDbPoint
 10
-78.57142857142844
 20
28.5
 30
0.0
  0
POINT
  5
C03
330
B9E
100
AcDbEntity
  8
SANINDUSA
100
AcDbPoint
 10
-65.71428571428578
 20
28.5
 30
0.0
  0
POINT
  5
C04
330
B9E
100
AcDbEntity
  8
SANINDUSA
100
AcDbPoint
 10
-52.85714285714266
 20
28.5
 30
0.0
  0
TEXT
  5
C05
330
B9E
100
AcDbEntity
  8
1
100
AcDbText
 10
-77.61097961686573
 20
26.43288406845113
 30
0.0
 40
1.5
  1
Peça:
 41
0.8
  7
SANINDUSA
 11
-77.61097961686573
 21
27.18288406845113
 31
0.0
100
AcDbText
 73
     2
  0
TEXT
  5
C06
330
B9E
100
AcDbEntity
  8
1
100
AcDbText
 10
-52.06538060077036
 20
26.43288406845113
 30
0.0
 40
1.5
  1
Alt.:
 41
0.8
  7
SANINDUSA
 11
-52.06538060077036
 21
27.18288406845113
 31
0.0
100
AcDbText
 73
     2
  0
LINE
  5
C07
330
B9E
100
AcDbEntity
  8
3
100
AcDbLine
 10
0.0
 20
12.0
 30
0.0
 11
-40.0
 21
12.0
 31
0.0
  0
LINE
  5
C08
330
B9E
100
AcDbEntity
  8
3
100
AcDbLine
 10
-40.0
 20
32.5
 30
0.0
 11
0.0
 21
32.5
 31
0.0
  0
TEXT
  5
C09
330
B9E
100
AcDbEntity
  8
1
100
AcDbText
 10
-19.0
 20
29.75
 30
0.0
 40
2.0
  1
Folha:
 41
0.8
  7
SANINDUSA
 11
-19.0
 21
30.75
 31
0.0
100
AcDbText
 73
     2
  0
LINE
  5
C0A
330
B9E
100
AcDbEntity
  8
3
100
AcDbLine
 10
-20.0
 20
32.5
 30
0.0
 11
-20.0
 21
20.0
 31
0.0
  0
TEXT
  5
C0B
330
B9E
100
AcDbEntity
  8
1
100
AcDbText
 10
-39.0
 20
29.75
 30
0.0
 40
2.0
  1
Escala:
 41
0.8
  7
SANINDUSA
 11
-39.0
 21
30.75
 31
0.0
100
AcDbText
 73
     2
  0
TEXT
  5
C0C
330
B9E
100
AcDbEntity
  8
1
100
AcDbText
 10
-39.0
 20
17.25
 30
0.0
 40
2.0
  1
Substitui:
 41
0.8
  7
SANINDUSA
 11
-39.0
 21
18.25
 31
0.0
100
AcDbText
 73
     2
  0
LWPOLYLINE
  5
C0D
102
{ACAD_REACTORS
330
BEC
102
}
330
B9E
100
AcDbEntity
  8
9
100
AcDbPolyline
 90
        6
 70
     1
 43
0.0
 10
-2.638748516194482
 20
57.02796337120571
 10
-2.638748516194482
 20
55.50786840766477
 10
-5.21497371544865
 20
55.507868407665
 42
-0.4142135623730898
 10
-5.614973715448741
 20
55.90786840766487
 10
-5.614973715448741
 20
56.62796337120562
 42
-0.4142135623731576
 10
-5.21497371544865
 20
57.02796337120571
  0
LINE
  5
C0E
330
B9E
100
AcDbEntity
  8
3
100
AcDbLine
 10
-40.0
 20
50.0
 30
0.0
 11
0.0
 21
50.0
 31
0.0
  0
ATTDEF
  5
C0F
330
B9E
100
AcDbEntity
  8
1
100
AcDbText
 10
-31.30691739422431
 20
40.25
 30
0.0
 40
2.0
  1
XXXXXXXXXXXXXXX
 41
0.8
  7
SANINDUSA
 72
     4
 11
-20.0
 21
41.25
 31
0.0
100
AcDbAttributeDefinition
  3
Observações:
  2
OBS
 70
     0
  0
TEXT
  5
C10
330
B9E
100
AcDbEntity
  8
1
100
AcDbText
 10
-39.0
 20
47.25
 30
0.0
 40
2.0
  1
Observações:
 41
0.8
  7
SANINDUSA
 11
-39.0
 21
48.25
 31
0.0
100
AcDbText
 73
     2
  0
LWPOLYLINE
  5
C11
102
{ACAD_REACTORS
330
BEC
102
}
330
B9E
100
AcDbEntity
  8
9
100
AcDbPolyline
 90
        6
 70
     1
 43
0.0
 10
-29.98468712904878
 20
57.02796337120571
 10
-29.98468712904878
 20
55.507868407665
 10
-32.57692046803459
 20
55.507868407665
 42
-0.4142135623731731
 10
-32.97692046803468
 20
55.90786840766487
 10
-32.97692046803468
 20
56.62796337120562
 42
-0.4142135623731576
 10
-32.57692046803459
 20
57.02796337120571
  0
LWPOLYLINE
  5
C12
102
{ACAD_REACTORS
330
BEC
102
}
330
B9E
100
AcDbEntity
  8
9
100
AcDbPolyline
 90
        4
 70
     1
 43
0.0
 10
-24.19231812786165
 20
59.87619128370352
 10
-24.57637781922995
 20
59.87619128370352
 10
-24.57637781922995
 20
59.28412752246913
 10
-24.19231812786165
 20
59.28412752246913
  0
ENDBLK
  5
C14
330
B9E
100
AcDbEntity
  8
0
100
AcDbBlockEnd
  0
BLOCK
  5
1061
330
1060
100
AcDbEntity
  8
0
 62
     4
100
AcDbBlockBegin
  2
guarnizione
 70
     0
 10
0.0
 20
0.0
 30
0.0
  3
guarnizione
  1

  0
LINE
  5
1062
330
1060
100
AcDbEntity
  8
0
100
AcDbLine
 10
12.0
 20
3.179312414488776
 30
0.0
 11
12.0
 21
2.699999999999818
 31
0.0
  0
LINE
  5
1063
330
1060
100
AcDbEntity
  8
0
100
AcDbLine
 10
9.5
 20
3.130475008156281
 30
0.0
 11
9.440776269158959
 21
2.734883615801663
 31
0.0
  0
ARC
  5
1064
330
1060
100
AcDbEntity
  8
0
100
AcDbCircle
 10
11.19999999999891
 20
3.179312414488776
 30
0.0
 40
0.8
100
AcDbArc
 50
0.0
 51
81.48552156587461
  0
ARC
  5
1065
330
1060
100
AcDbEntity
  8
0
100
AcDbCircle
 10
8.753809903480942
 20
1.523241254200002
 30
0.0
 40
0.1999999999999504
100
AcDbArc
 50
171.485521565823
 51
351.485521565823
  0
LINE
  5
1066
330
1060
100
AcDbEntity
  8
0
100
AcDbLine
 10
11.65558220186904
 20
-2.403306455734309
 30
0.0
 11
9.440776269158959
 21
-2.734883615802573
 31
0.0
  0
ARC
  5
1067
330
1060
100
AcDbEntity
  8
0
100
AcDbCircle
 10
8.753809903480942
 20
-1.523241254200911
 30
0.0
 40
0.1999999999999504
100
AcDbArc
 50
8.514478434176927
 51
188.5144784341769
  0
LINE
  5
1068
330
1060
100
AcDbEntity
  8
0
100
AcDbLine
 10
9.5
 20
-3.130475008157191
 30
0.0
 11
9.440776269158959
 21
-2.734883615802573
 31
0.0
  0
ARC
  5
1069
330
1060
100
AcDbEntity
  8
0
100
AcDbCircle
 10
11.69999999999891
 20
-2.699999999999818
 30
0.0
 40
0.3
100
AcDbArc
 50
0.0
 51
98.51447843412536
  0
ARC
  5
106A
330
1060
100
AcDbEntity
  8
0
100
AcDbCircle
 10
11.69999999999891
 20
2.699999999999818
 30
0.0
 40
0.3
100
AcDbArc
 50
261.4855215658746
 51
0.0
  0
LINE
  5
106B
330
1060
100
AcDbEntity
  8
0
100
AcDbLine
 10
11.65558220186904
 20
2.4033064557334
 30
0.0
 11
9.440776269158959
 21
2.734883615801663
 31
0.0
  0
LINE
  5
106C
330
1060
100
AcDbEntity
  8
0
100
AcDbLine
 10
8.807715063378054
 20
3.234116537129011
 30
0.0
 11
8.556014207302723
 21
1.552853119620522
 31
0.0
  0
LINE
  5
106D
330
1060
100
AcDbEntity
  8
0
100
AcDbLine
 10
9.203306455732672
 20
3.174892806287971
 30
0.0
 11
8.951605599657341
 21
1.493629388779481
 31
0.0
  0
LINE
  5
106E
330
1060
100
AcDbEntity
  8
0
100
AcDbLine
 10
6.681411329471302
 20
3.552444090400967
 30
0.0
 11
6.622187598630262
 21
3.15685269804544
 31
0.0
  0
ARC
  5
106F
330
1060
100
AcDbEntity
  8
0
100
AcDbCircle
 10
0.2999999999992724
 20
3.800000000000181
 30
0.0
 40
0.3
100
AcDbArc
 50
81.48552156587461
 51
180.0
  0
ARC
  5
1070
330
1060
100
AcDbEntity
  8
0
100
AcDbCircle
 10
1.042400829128382
 20
4.699999999999818
 30
0.0
 40
0.8
100
AcDbArc
 50
81.48552156587461
 51
90.0
  0
LINE
  5
1071
330
1060
100
AcDbEntity
  8
0
100
AcDbLine
 10
1.5
 20
3.923692082123125
 30
0.0
 11
0.3444177981309622
 21
4.09669354426569
 31
0.0
  0
LINE
  5
1072
330
1060
100
AcDbEntity
  8
0
100
AcDbLine
 10
1.5
 20
3.923692082123125
 30
0.0
 11
1.5
 21
3.099999999999454
 31
0.0
  0
LINE
  5
1073
330
1060
100
AcDbEntity
  8
0
100
AcDbLine
 10
1.5
 20
3.099999999999454
 30
0.0
 11
2.699999999998908
 21
3.099999999999454
 31
0.0
  0
LINE
  5
1074
330
1060
100
AcDbEntity
  8
0
100
AcDbLine
 10
2.699999999998908
 20
3.744040860223321
 30
0.0
 11
2.699999999998908
 21
3.099999999999454
 31
0.0
  0
LINE
  5
1075
330
1060
100
AcDbEntity
  8
0
100
AcDbLine
 10
6.622187598630262
 20
3.15685269804544
 30
0.0
 11
2.699999999998908
 21
3.744040860223321
 31
0.0
  0
LINE
  5
1076
330
1060
100
AcDbEntity
  8
0
100
AcDbLine
 10
1.5
 20
-3.100000000000363
 30
0.0
 11
2.699999999998908
 21
-3.100000000000363
 31
0.0
  0
LINE
  5
1077
330
1060
100
AcDbEntity
  8
0
100
AcDbLine
 10
11.31844746168099
 20
3.970495199198012
 30
0.0
 11
1.160848290810463
 21
5.491182784709053
 31
0.0
  0
LINE
  5
1078
330
1060
100
AcDbEntity
  8
0
100
AcDbLine
 10
9.5
 20
3.130475008156281
 30
0.0
 11
6.681411329471302
 21
3.552444090400967
 31
0.0
  0
ARC
  5
1079
330
1060
100
AcDbEntity
  8
0
100
AcDbCircle
 10
11.19999999999891
 20
-3.179312414488776
 30
0.0
 40
0.8
100
AcDbArc
 50
278.5144784341254
 51
0.0
  0
LINE
  5
107A
330
1060
100
AcDbEntity
  8
0
100
AcDbLine
 10
6.681411329471302
 20
-3.552444090400967
 30
0.0
 11
6.622187598630262
 21
-3.15685269804635
 31
0.0
  0
ARC
  5
107B
330
1060
100
AcDbEntity
  8
0
100
AcDbCircle
 10
0.2999999999992724
 20
-3.800000000000181
 30
0.0
 40
0.3
100
AcDbArc
 50
180.0
 51
278.5144784341254
  0
ARC
  5
107C
330
1060
100
AcDbEntity
  8
0
100
AcDbCircle
 10
1.042400829128382
 20
-4.699999999999818
 30
0.0
 40
0.8
100
AcDbArc
 50
270.0
 51
278.5144784341254
  0
LINE
  5
107D
330
1060
100
AcDbEntity
  8
0
100
AcDbLine
 10
0.3444177981309622
 20
-4.096693544266599
 30
0.0
 11
1.5
 21
-3.923692082124034
 31
0.0
  0
LINE
  5
107E
330
1060
100
AcDbEntity
  8
0
100
AcDbLine
 10
6.622187598630262
 20
-3.15685269804635
 30
0.0
 11
2.699999999998908
 21
-3.744040860224231
 31
0.0
  0
LINE
  5
107F
330
1060
100
AcDbEntity
  8
0
100
AcDbLine
 10
1.160848290810463
 20
-5.491182784709963
 30
0.0
 11
11.31844746168099
 21
-3.970495199198921
 31
0.0
  0
LINE
  5
1080
330
1060
100
AcDbEntity
  8
0
100
AcDbLine
 10
0.0
 20
3.800000000000181
 30
0.0
 11
0.0
 21
-3.800000000000181
 31
0.0
  0
LINE
  5
1081
330
1060
100
AcDbEntity
  8
0
100
AcDbLine
 10
12.0
 20
-2.699999999999818
 30
0.0
 11
12.0
 21
-3.179312414488776
 31
0.0
  0
LINE
  5
1082
330
1060
100
AcDbEntity
  8
0
100
AcDbLine
 10
2.699999999998908
 20
-3.100000000000363
 30
0.0
 11
2.699999999998908
 21
-3.744040860224231
 31
0.0
  0
LINE
  5
1083
330
1060
100
AcDbEntity
  8
0
100
AcDbLine
 10
1.5
 20
-3.100000000000363
 30
0.0
 11
1.5
 21
-3.923692082124034
 31
0.0
  0
LINE
  5
1084
330
1060
100
AcDbEntity
  8
0
100
AcDbLine
 10
9.5
 20
-3.130475008157191
 30
0.0
 11
6.681411329471302
 21
-3.552444090400967
 31
0.0
  0
LINE
  5
1085
330
1060
100
AcDbEntity
  8
0
100
AcDbLine
 10
9.203306455732672
 20
-3.174892806287971
 30
0.0
 11
8.951605599657341
 21
-1.493629388780391
 31
0.0
  0
LINE
  5
1086
330
1060
100
AcDbEntity
  8
0
100
AcDbLine
 10
8.807715063378054
 20
-3.234116537129011
 30
0.0
 11
8.556014207302723
 21
-1.552853119621431
 31
0.0
  0
LINE
  5
1087
330
1060
100
AcDbEntity
  8
0
100
AcDbLine
 10
-1.5
 20
5.5
 30
0.0
 11
-3.757359312881817
 21
5.5
 31
0.0
  0
ARC
  5
1088
330
1060
100
AcDbEntity
  8
0
100
AcDbCircle
 10
-2.5
 20
3.5
 30
0.0
 40
1.0
100
AcDbArc
 50
0.0
 51
90.0
  0
ARC
  5
1089
330
1060
100
AcDbEntity
  8
0
100
AcDbCircle
 10
-3.769781102879278
 20
4.149978862833449
 30
0.0
 40
0.75
100
AcDbArc
 50
47.16775949949599
 51
90.19499109987526
  0
ARC
  5
108A
330
1060
100
AcDbEntity
  8
0
100
AcDbCircle
 10
-2.75
 20
5.25
 30
0.0
 40
0.75
100
AcDbArc
 50
227.167759499496
 51
270.0
  0
LINE
  5
108B
330
1060
100
AcDbEntity
  8
0
100
AcDbLine
 10
-2.75
 20
4.5
 30
0.0
 11
-2.5
 21
4.5
 31
0.0
  0
LINE
  5
108C
330
1060
100
AcDbEntity
  8
0
100
AcDbLine
 10
-7.415254325502246
 20
3.064644661409147
 30
0.0
 11
-6.868629150101696
 21
3.611269837220788
 31
0.0
  0
ARC
  5
108D
102
{ACAD_REACTORS
330
10A7
102
}
330
1060
100
AcDbEntity
  8
0
100
AcDbCircle
 10
-7.980939750059405
 20
2.569669913566031
 30
0.0
 40
0.2
100
AcDbArc
 50
45.0000001037625
 51
135.0000000719631
  0
ARC
  5
108E
330
1060
100
AcDbEntity
  8
0
100
AcDbCircle
 10
-3.757359312881817
 20
0.5
 30
0.0
 40
5.0
100
AcDbArc
 50
90.0
 51
135.0
  0
ARC
  5
108F
330
1060
100
AcDbEntity
  8
0
100
AcDbCircle
 10
-3.757359312881817
 20
0.5
 30
0.0
 40
4.4
100
AcDbArc
 50
90.19499109987526
 51
135.0
  0
ARC
  5
1090
330
1060
100
AcDbEntity
  8
0
100
AcDbCircle
 10
-6.814213563102384
 20
0.9786796633270569
 30
0.0
 40
0.75
100
AcDbArc
 50
314.9999999676111
 51
45.0
  0
ARC
  5
1091
102
{ACAD_REACTORS
330
10A7
102
}
330
1060
100
AcDbEntity
  8
0
100
AcDbCircle
 10
-6.814213563102384
 20
0.9786796633270569
 30
0.0
 40
0.5
100
AcDbArc
 50
314.9999999676111
 51
45.0
  0
ARC
  5
1092
330
1060
100
AcDbEntity
  8
0
100
AcDbCircle
 10
-7.203122291144609
 20
2.852512627053329
 30
0.0
 40
0.3
100
AcDbArc
 50
135.0
 51
225.0000001112794
  0
LINE
  5
1093
330
1060
100
AcDbEntity
  8
0
100
AcDbLine
 10
-8.051650430128574
 20
3.276776694619002
 30
0.0
 11
-6.283883477519339
 21
1.509009749524921
 31
0.0
  0
LINE
  5
1094
102
{ACAD_REACTORS
330
10A7
102
}
330
1060
100
AcDbEntity
  8
0
100
AcDbLine
 10
-7.839518394079277
 20
2.711091270059114
 30
0.0
 11
-6.460660172508141
 21
1.33223305392039
 31
0.0
  0
ARC
  5
1095
330
1060
100
AcDbEntity
  8
0
100
AcDbCircle
 10
-12.57713383280133
 20
-2.521498914058611
 30
0.0
 40
0.3
100
AcDbArc
 50
45.00000003552097
 51
135.0
  0
ARC
  5
1096
102
{ACAD_REACTORS
330
10A7
102
}
330
1060
100
AcDbEntity
  8
0
100
AcDbCircle
 10
-12.29429112059733
 20
-1.743681468243266
 30
0.0
 40
0.2
100
AcDbArc
 50
135.0000000660675
 51
225.0000002990173
  0
LINE
  5
1097
330
1060
100
AcDbEntity
  8
0
100
AcDbLine
 10
-12.9899494936617
 20
-2.510050506339212
 30
0.0
 11
-12.78926586715715
 21
-2.309366879702793
 31
0.0
  0
LINE
  5
1098
330
1060
100
AcDbEntity
  8
0
100
AcDbLine
 10
-13.41421356237333
 20
-2.085786437626666
 30
0.0
 11
-7.292893218815152
 21
4.035533905932425
 31
0.0
  0
LINE
  5
1099
102
{ACAD_REACTORS
330
10A7
102
}
330
1060
100
AcDbEntity
  8
0
100
AcDbLine
 10
-12.43571247699765
 20
-1.602260112168551
 30
0.0
 11
-8.122361106474272
 21
2.711091269625285
 31
0.0
  0
ARC
  5
109A
330
1060
100
AcDbEntity
  8
0
100
AcDbCircle
 10
-2.5
 20
-3.5
 30
0.0
 40
1.0
100
AcDbArc
 50
270.0
 51
0.0
  0
ARC
  5
109B
330
1060
100
AcDbEntity
  8
0
100
AcDbCircle
 10
-7.519803902720013
 20
-4.150000000000545
 30
0.0
 40
0.75
100
AcDbArc
 50
270.0
 51
312.8334280660476
  0
ARC
  5
109C
330
1060
100
AcDbEntity
  8
0
100
AcDbCircle
 10
-6.5
 20
-5.25
 30
0.0
 40
0.75
100
AcDbArc
 50
90.0
 51
132.8334280660476
  0
LINE
  5
109D
330
1060
100
AcDbEntity
  8
0
100
AcDbLine
 10
-2.5
 20
-4.5
 30
0.0
 11
-6.5
 21
-4.5
 31
0.0
  0
ARC
  5
109E
330
1060
100
AcDbEntity
  8
0
100
AcDbCircle
 10
-10.7033008647486
 20
-2.910407640086305
 30
0.0
 40
0.75
100
AcDbArc
 50
225.0
 51
315.0
  0
ARC
  5
109F
102
{ACAD_REACTORS
330
10A7
102
}
330
1060
100
AcDbEntity
  8
0
100
AcDbCircle
 10
-10.7033008647486
 20
-2.910407640086305
 30
0.0
 40
0.5
100
AcDbArc
 50
225.0
 51
315.0
  0
LINE
  5
10A0
330
1060
100
AcDbEntity
  8
0
100
AcDbLine
 10
-1.5
 20
-5.5
 30
0.0
 11
-12.0
 21
-5.5
 31
0.0
  0
LINE
  5
10A1
330
1060
100
AcDbEntity
  8
0
100
AcDbLine
 10
-7.519803902720013
 20
-4.900000000000545
 30
0.0
 11
-12.0
 21
-4.900000000000545
 31
0.0
  0
ARC
  5
10A2
330
1060
100
AcDbEntity
  8
0
100
AcDbCircle
 10
-12.0
 20
-3.5
 30
0.0
 40
2.0
100
AcDbArc
 50
135.0
 51
270.0
  0
LINE
  5
10A3
330
1060
100
AcDbEntity
  8
0
100
AcDbLine
 10
-10.17297077881812
 20
-3.440737725935832
 30
0.0
 11
-6.283883477372
 21
0.4483495772774404
 31
0.0
  0
ARC
  5
10A4
330
1060
100
AcDbEntity
  8
0
100
AcDbCircle
 10
-12.0
 20
-3.5
 30
0.0
 40
1.399999999999999
100
AcDbArc
 50
135.0
 51
270.0
  0
LINE
  5
10A5
330
1060
100
AcDbEntity
  8
0
100
AcDbLine
 10
-13.00139790187859
 20
-1.672970777132832
 30
0.0
 11
-11.23363095093009
 21
-3.440737725682993
 31
0.0
  0
LINE
  5
10A6
330
1060
100
AcDbEntity
  8
0
100
AcDbLine
 10
-1.5
 20
3.5
 30
0.0
 11
-1.5
 21
-3.5
 31
0.0
  0
HATCH
  5
10A7
330
1060
100
AcDbEntity
  8
0
100
AcDbHatch
 10
0.0
 20
0.0
 30
0.0
210
0.0
220
0.0
230
1.0
  2
ANSI31
 70
     0
 71
     1
 91
        1
 92
        7
 72
     1
 73
     1
 93
        8
 10
-6.460660173204814
 20
1.332233054616153
 42
0.0
 10
-7.839518394101105
 20
2.711091270081851
 42
0.414213562178905
 10
-8.122361106481548
 20
2.711091269618009
 42
0.0
 10
-12.43571247701766
 20
-1.602260112190379
 42
0.4142135636146872
 10
-12.43571247604996
 20
-1.885102825264766
 42
0.0
 10
-11.05685425338015
 20
-3.263961032639599
 42
0.4142135608152901
 10
-10.34974747407432
 20
-3.263961030598693
 42
0.0
 10
-6.460660172428106
 20
0.625126272813759
 42
0.4142135628833784
 97
        8
330
1094
330
108D
330
1099
330
1096
330
10A9
330
109F
330
10A8
330
1091
 75
     0
 76
     1
 52
45.0
 41
0.25
 77
     0
 78
     1
 53
90.0
 43
-276.1145346408611
 44
-395.2719013892401
 45
-0.79375
 46
0.0000000000000002
 79
     0
 47
0.0364805528584695
 98
        1
 10
-7.399477738399582
 20
0.8532363732892918
  0
LINE
  5
10A8
102
{ACAD_REACTORS
330
10A7
102
}
330
1060
100
AcDbEntity
  8
0
100
AcDbLine
 10
-10.34974747415435
 20
-3.263961030678729
 30
0.0
 11
-6.46066017270823
 21
0.6251262725336347
 31
0.0
  0
LINE
  5
10A9
102
{ACAD_REACTORS
330
10A7
102
}
330
1060
100
AcDbEntity
  8
0
100
AcDbLine
 10
-12.43571247609543
 20
-1.885102825218382
 30
0.0
 11
-11.05685425534102
 21
-3.263961030678729
 31
0.0
  0
LINE
  5
10AA
330
1060
100
AcDbEntity
  8
0
100
AcDbLine
 10
-1.5
 20
5.5
 30
0.0
 11
1.042400829128382
 21
5.5
 31
0.0
  0
LINE
  5
10AB
330
1060
100
AcDbEntity
  8
0
100
AcDbLine
 10
-1.5
 20
-5.5
 30
0.0
 11
1.042400829128382
 21
-5.5
 31
0.0
  0
ENDBLK
  5
10AC
330
1060
100
AcDbEntity
  8
0
 62
     4
100
AcDbBlockEnd
  0
BLOCK
  5
1B9C
330
1B92
100
AcDbEntity
  8
0
100
AcDbBlockBegin
  2
*D8
 70
     1
 10
0.0
 20
0.0
 30
0.0
  3
*D8
  1

  0
LINE
  5
1EC5
330
1B92
100
AcDbEntity
  8
7
100
AcDbLine
 10
4985.259049370521
 20
2720.801142340862
 30
0.0
 11
4985.259049370521
 21
2780.801142340864
 31
0.0
  0
LINE
  5
1EC6
330
1B92
100
AcDbEntity
  8
7
100
AcDbLine
 10
3585.263849370522
 20
2720.801142340863
 30
0.0
 11
3585.263849370522
 21
2780.801142340864
 31
0.0
  0
LINE
  5
1EC7
330
1B92
100
AcDbEntity
  8
7
100
AcDbLine
 10
4965.259049370521
 20
2770.801142340864
 30
0.0
 11
3605.263849370522
 21
2770.801142340864
 31
0.0
  0
SOLID
  5
1EC8
330
1B92
100
AcDbEntity
  8
7
100
AcDbTrace
 10
4965.259049370521
 20
2774.134475674197
 30
0.0
 11
4965.259049370521
 21
2767.467809007531
 31
0.0
 12
4985.259049370521
 22
2770.801142340864
 32
0.0
 13
4985.259049370521
 23
2770.801142340864
 33
0.0
  0
SOLID
  5
1EC9
330
1B92
100
AcDbEntity
  8
7
100
AcDbTrace
 10
3605.263849370522
 20
2774.134475674197
 30
0.0
 11
3605.263849370522
 21
2767.467809007531
 31
0.0
 12
3585.263849370522
 22
2770.801142340864
 32
0.0
 13
3585.263849370522
 23
2770.801142340864
 33
0.0
  0
MTEXT
  5
1ECA
330
1B92
100
AcDbEntity
  8
7
100
AcDbMText
 10
4285.261449370522
 20
2791.210813260945
 30
0.0
 40
20.0
 41
0.0
 71
     5
 72
     1
  1
1400
  7
SANINDUSA
 73
     1
 44
1.0
1001
ACAD
1000
MTEXTBEGIN
1070
    73
1070
     1
1070
    44
1040
1.0
1070
    74
1070
     0
1000
MTEXTEND
  0
POINT
  5
1ECB
330
1B92
100
AcDbEntity
  8
Defpoints
 62
     0
100
AcDbPoint
 10
4985.259049370521
 20
2710.801142340862
 30
0.0
  0
POINT
  5
1ECC
330
1B92
100
AcDbEntity
  8
Defpoints
 62
     0
100
AcDbPoint
 10
3585.263849370522
 20
2710.801142340863
 30
0.0
  0
POINT
  5
1ECD
330
1B92
100
AcDbEntity
  8
Defpoints
 62
     0
100
AcDbPoint
 10
3585.263849370522
 20
2770.801142340864
 30
0.0
  0
ENDBLK
  5
1B9D
330
1B92
100
AcDbEntity
  8
0
100
AcDbBlockEnd
  0
BLOCK
  5
1BA8
330
1B9E
100
AcDbEntity
  8
0
100
AcDbBlockBegin
  2
*D9
 70
     1
 10
0.0
 20
0.0
 30
0.0
  3
*D9
  1

  0
LINE
  5
1EBC
330
1B9E
100
AcDbEntity
  8
7
100
AcDbLine
 10
3649.223004911355
 20
2029.245843153702
 30
0.0
 11
3649.223004911355
 21
1960.819242340863
 31
0.0
  0
LINE
  5
1EBD
330
1B9E
100
AcDbEntity
  8
7
100
AcDbLine
 10
4249.233804911354
 20
2029.245846963302
 30
0.0
 11
4249.233804911354
 21
1960.819242340863
 31
0.0
  0
LINE
  5
1EBE
330
1B9E
100
AcDbEntity
  8
7
100
AcDbLine
 10
3669.223004911355
 20
1970.819242340863
 30
0.0
 11
4229.233804911355
 21
1970.819242340863
 31
0.0
  0
SOLID
  5
1EBF
330
1B9E
100
AcDbEntity
  8
7
100
AcDbTrace
 10
3669.223004911355
 20
1974.152575674196
 30
0.0
 11
3669.223004911355
 21
1967.48590900753
 31
0.0
 12
3649.223004911355
 22
1970.819242340863
 32
0.0
 13
3649.223004911355
 23
1970.819242340863
 33
0.0
  0
SOLID
  5
1EC0
330
1B9E
100
AcDbEntity
  8
7
100
AcDbTrace
 10
4229.233804911355
 20
1974.152575674196
 30
0.0
 11
4229.233804911355
 21
1967.48590900753
 31
0.0
 12
4249.233804911354
 22
1970.819242340863
 32
0.0
 13
4249.233804911354
 23
1970.819242340863
 33
0.0
  0
MTEXT
  5
1EC1
330
1B9E
100
AcDbEntity
  8
7
100
AcDbMText
 10
3949.228404911355
 20
1991.228913260943
 30
0.0
 40
20.0
 41
0.0
 71
     5
 72
     1
  1
600
  7
SANINDUSA
 73
     1
 44
1.0
1001
ACAD
1000
MTEXTBEGIN
1070
    73
1070
     1
1070
    44
1040
1.0
1070
    74
1070
     0
1000
MTEXTEND
  0
POINT
  5
1EC2
330
1B9E
100
AcDbEntity
  8
Defpoints
 62
     0
100
AcDbPoint
 10
3649.223004911355
 20
2039.245843153702
 30
0.0000001553314735
  0
POINT
  5
1EC3
330
1B9E
100
AcDbEntity
  8
Defpoints
 62
     0
100
AcDbPoint
 10
4249.233804911354
 20
2039.245846963302
 30
0.0000001479284879
  0
POINT
  5
1EC4
330
1B9E
100
AcDbEntity
  8
Defpoints
 62
     0
100
AcDbPoint
 10
4249.233804911354
 20
1970.819242340863
 30
0.0
  0
ENDBLK
  5
1BA9
330
1B9E
100
AcDbEntity
  8
0
100
AcDbBlockEnd
  0
BLOCK
  5
1BB4
330
1BAA
100
AcDbEntity
  8
0
100
AcDbBlockBegin
  2
*D10
 70
     1
 10
0.0
 20
0.0
 30
0.0
  3
*D10
  1

  0
LINE
  5
1EAA
330
1BAA
100
AcDbEntity
  8
7
100
AcDbLine
 10
3585.263849370522
 20
2020.819242340863
 30
0.0
 11
3525.263849370522
 21
2020.819242340863
 31
0.0
  0
LINE
  5
1EAB
330
1BAA
100
AcDbEntity
  8
7
100
AcDbLine
 10
3585.263849370522
 20
2720.801142340864
 30
0.0
 11
3525.263849370522
 21
2720.801142340864
 31
0.0
  0
LINE
  5
1EAC
330
1BAA
100
AcDbEntity
  8
7
100
AcDbLine
 10
3535.263849370522
 20
2040.819242340864
 30
0.0
 11
3535.263849370522
 21
2700.801142340864
 31
0.0
  0
SOLID
  5
1EAD
330
1BAA
100
AcDbEntity
  8
7
100
AcDbTrace
 10
3531.930516037188
 20
2040.819242340864
 30
0.0
 11
3538.597182703855
 21
2040.819242340864
 31
0.0
 12
3535.263849370522
 22
2020.819242340863
 32
0.0
 13
3535.263849370522
 23
2020.819242340863
 33
0.0
  0
SOLID
  5
1EAE
330
1BAA
100
AcDbEntity
  8
7
100
AcDbTrace
 10
3531.930516037188
 20
2700.801142340864
 30
0.0
 11
3538.597182703855
 21
2700.801142340864
 31
0.0
 12
3535.263849370522
 22
2720.801142340864
 32
0.0
 13
3535.263849370522
 23
2720.801142340864
 33
0.0
  0
MTEXT
  5
1EAF
330
1BAA
100
AcDbEntity
  8
7
100
AcDbMText
 10
3514.85417845044
 20
2370.810192340865
 30
0.0
 40
20.0
 41
0.0
 71
     5
 72
     1
  1
700
  7
SANINDUSA
 11
0.0000000000000001
 21
1.0
 31
0.0
 73
     1
 44
1.0
1001
ACAD
1000
MTEXTBEGIN
1070
    73
1070
     1
1070
    44
1040
1.0
1070
    74
1070
     0
1000
MTEXTEND
  0
POINT
  5
1EB0
330
1BAA
100
AcDbEntity
  8
Defpoints
 62
     0
100
AcDbPoint
 10
3595.263849370522
 20
2020.819242340863
 30
0.0
  0
POINT
  5
1EB1
330
1BAA
100
AcDbEntity
  8
Defpoints
 62
     0
100
AcDbPoint
 10
3595.263849370522
 20
2720.801142340864
 30
0.0
  0
POINT
  5
1EB2
330
1BAA
100
AcDbEntity
  8
Defpoints
 62
     0
100
AcDbPoint
 10
3535.263849370522
 20
2720.801142340864
 30
0.0
  0
ENDBLK
  5
1BB5
330
1BAA
100
AcDbEntity
  8
0
100
AcDbBlockEnd
  0
BLOCK
  5
1BD2
330
1BC8
100
AcDbEntity
  8
0
100
AcDbBlockBegin
  2
*D11
 70
     1
 10
0.0
 20
0.0
 30
0.0
  3
*D11
  1

  0
LINE
  5
1EB3
330
1BC8
100
AcDbEntity
  8
7
100
AcDbLine
 10
4251.897825610611
 20
2029.245846963302
 30
0.0
 11
4251.897825610611
 21
1960.819242340862
 31
0.0
  0
LINE
  5
1EB4
330
1BC8
100
AcDbEntity
  8
7
100
AcDbLine
 10
4940.887025610611
 20
2029.245846963302
 30
0.0
 11
4940.887025610611
 21
1960.819242340862
 31
0.0
  0
LINE
  5
1EB5
330
1BC8
100
AcDbEntity
  8
7
100
AcDbLine
 10
4271.897825610611
 20
1970.819242340862
 30
0.0
 11
4920.88702561061
 21
1970.819242340862
 31
0.0
  0
SOLID
  5
1EB6
330
1BC8
100
AcDbEntity
  8
7
100
AcDbTrace
 10
4271.897825610611
 20
1974.152575674196
 30
0.0
 11
4271.897825610611
 21
1967.485909007529
 31
0.0
 12
4251.897825610611
 22
1970.819242340862
 32
0.0
 13
4251.897825610611
 23
1970.819242340862
 33
0.0
  0
SOLID
  5
1EB7
330
1BC8
100
AcDbEntity
  8
7
100
AcDbTrace
 10
4920.88702561061
 20
1974.152575674196
 30
0.0
 11
4920.88702561061
 21
1967.485909007529
 31
0.0
 12
4940.887025610611
 22
1970.819242340862
 32
0.0
 13
4940.887025610611
 23
1970.819242340862
 33
0.0
  0
MTEXT
  5
1EB8
330
1BC8
100
AcDbEntity
  8
7
100
AcDbMText
 10
4596.392425610611
 20
1991.275924678001
 30
0.0
 40
20.0
 41
0.0
 71
     5
 72
     1
  1
689
  7
SANINDUSA
 73
     1
 44
1.0
1001
ACAD
1000
MTEXTBEGIN
1070
    73
1070
     1
1070
    44
1040
1.0
1070
    74
1070
     0
1000
MTEXTEND
  0
POINT
  5
1EB9
330
1BC8
100
AcDbEntity
  8
Defpoints
 62
     0
100
AcDbPoint
 10
4251.897825610611
 20
2039.245846963302
 30
0.0000001479284879
  0
POINT
  5
1EBA
330
1BC8
100
AcDbEntity
  8
Defpoints
 62
     0
100
AcDbPoint
 10
4940.887025610611
 20
2039.245846963302
 30
0.0000001479284879
  0
POINT
  5
1EBB
330
1BC8
100
AcDbEntity
  8
Defpoints
 62
     0
100
AcDbPoint
 10
4940.887025610611
 20
1970.819242340862
 30
0.0
  0
ENDBLK
  5
1BD3
330
1BC8
100
AcDbEntity
  8
0
100
AcDbBlockEnd
  0
BLOCK
  5
1DAE
330
1DA3
100
AcDbEntity
  8
0
100
AcDbBlockBegin
  2
*D12
 70
     1
 10
0.0
 20
0.0
 30
0.0
  3
*D12
  1

  0
LINE
  5
1EA0
330
1DA3
100
AcDbEntity
  8
7
100
AcDbLine
 10
3639.223004911355
 20
2039.245843153702
 30
0.0
 11
3631.958162191228
 21
2039.245843153702
 31
0.0
  0
ARC
  5
1EA1
330
1DA3
100
AcDbEntity
  8
7
100
AcDbCircle
 10
4233.333748808183
 20
2039.245843153702
 30
0.0
 40
591.3755866169553
100
AcDbArc
 50
181.9378043895071
 51
268.0621956104928
  0
SOLID
  5
1EA2
330
1DA3
100
AcDbEntity
  8
7
100
AcDbTrace
 10
3638.963500006101
 20
2019.192336988742
 30
0.0
 11
3645.629213475014
 21
2019.305068505185
 31
0.0
 12
3641.958162191229
 22
2039.245843153702
 32
0.0
 13
3641.958162191229
 23
2039.245843153702
 33
0.0
  0
SOLID
  5
1EA3
330
1DA3
100
AcDbEntity
  8
7
100
AcDbTrace
 10
4213.392974159666
 20
1451.541307820532
 30
0.0
 11
4213.280242643223
 21
1444.875594351618
 31
0.0
 12
4233.333748808183
 22
1447.870256536746
 32
0.0
 13
4233.333748808183
 23
1447.870256536746
 33
0.0
  0
MTEXT
  5
1EA4
102
{ACAD_XDICTIONARY
360
2492
102
}
330
1DA3
100
AcDbEntity
  8
7
100
AcDbMText
 10
3831.209745009476
 20
1637.121839354994
 30
0.0
 40
20.0
 41
0.0
 71
     5
 72
     1
  1
90,0\U+00B0
  7
SANINDUSA
 11
0.7071067811865476
 21
-0.7071067811865475
 31
0.0
 73
     1
 44
1.0
1001
ACAD
1000
MTEXTBEGIN
1070
    73
1070
     1
1070
    44
1040
1.0
1070
    74
1070
     0
1000
MTEXTEND
  0
POINT
  5
1EA5
330
1DA3
100
AcDbEntity
  8
Defpoints
 62
     0
100
AcDbPoint
 10
3721.187467619976
 20
1743.558049845224
 30
0.0
  0
POINT
  5
1EA6
330
1DA3
100
AcDbEntity
  8
Defpoints
 62
     0
100
AcDbPoint
 10
3649.223004911355
 20
2039.245843153702
 30
0.0000001553314735
  0
POINT
  5
1EA7
330
1DA3
100
AcDbEntity
  8
Defpoints
 62
     0
100
AcDbPoint
 10
4233.333748808183
 20
2026.345790860127
 30
0.0000001479284879
  0
POINT
  5
1EA8
330
1DA3
100
AcDbEntity
  8
Defpoints
 62
     0
100
AcDbPoint
 10
4233.333748808183
 20
1426.345790860126
 30
0.0000001479284879
  0
POINT
  5
1EA9
330
1DA3
100
AcDbEntity
  8
Defpoints
 62
     0
100
AcDbPoint
 10
4249.233804911354
 20
2039.245843153702
 30
0.0000001553314735
  0
ENDBLK
  5
1DAF
330
1DA3
100
AcDbEntity
  8
0
100
AcDbBlockEnd
  0
BLOCK
  5
1FD4
330
1FC8
100
AcDbEntity
  8
0
100
AcDbBlockBegin
  2
*D13
 70
     1
 10
0.0
 20
0.0
 30
0.0
  3
*D13
  1

  0
LINE
  5
2179
330
1FC8
100
AcDbEntity
  8
7
100
AcDbLine
 10
5702.683981217692
 20
1404.87996963427
 30
0.0
 11
5589.602340388832
 21
1404.87996963427
 31
0.0
  0
LINE
  5
217A
330
1FC8
100
AcDbEntity
  8
7
100
AcDbLine
 10
5617.303839670523
 20
1119.87996963427
 30
0.0
 11
5589.602340388832
 21
1119.87996963427
 31
0.0
  0
LINE
  5
217B
330
1FC8
100
AcDbEntity
  8
7
100
AcDbLine
 10
5599.602340388832
 20
1384.87996963427
 30
0.0
 11
5599.602340388832
 21
1139.87996963427
 31
0.0
  0
SOLID
  5
217C
330
1FC8
100
AcDbEntity
  8
7
100
AcDbTrace
 10
5596.269007055499
 20
1384.87996963427
 30
0.0
 11
5602.935673722165
 21
1384.87996963427
 31
0.0
 12
5599.602340388832
 22
1404.87996963427
 32
0.0
 13
5599.602340388832
 23
1404.87996963427
 33
0.0
  0
SOLID
  5
217D
330
1FC8
100
AcDbEntity
  8
7
100
AcDbTrace
 10
5596.269007055499
 20
1139.87996963427
 30
0.0
 11
5602.935673722165
 21
1139.87996963427
 31
0.0
 12
5599.602340388832
 22
1119.87996963427
 32
0.0
 13
5599.602340388832
 23
1119.87996963427
 33
0.0
  0
MTEXT
  5
217E
330
1FC8
100
AcDbEntity
  8
7
100
AcDbMText
 10
5579.145658051693
 20
1262.379969634271
 30
0.0
 40
20.0
 41
0.0
 71
     5
 72
     1
  1
285
  7
SANINDUSA
 11
0.0000000000000001
 21
1.0
 31
0.0
 73
     1
 44
1.0
1001
ACAD
1000
MTEXTBEGIN
1070
    73
1070
     1
1070
    44
1040
1.0
1070
    74
1070
     0
1000
MTEXTEND
  0
POINT
  5
217F
330
1FC8
100
AcDbEntity
  8
Defpoints
 62
     0
100
AcDbPoint
 10
5712.683981217691
 20
1404.87996963427
 30
-0.0000017937957191
  0
POINT
  5
2180
330
1FC8
100
AcDbEntity
  8
Defpoints
 62
     0
100
AcDbPoint
 10
5627.303839670523
 20
1119.87996963427
 30
-0.0000017937957191
  0
POINT
  5
2181
330
1FC8
100
AcDbEntity
  8
Defpoints
 62
     0
100
AcDbPoint
 10
5599.602340388832
 20
1119.87996963427
 30
0.0
  0
ENDBLK
  5
1FD5
330
1FC8
100
AcDbEntity
  8
0
100
AcDbBlockEnd
  0
BLOCK
  5
1FE2
330
1FD6
100
AcDbEntity
  8
0
100
AcDbBlockBegin
  2
*D14
 70
     1
 10
0.0
 20
0.0
 30
0.0
  3
*D14
  1

  0
LINE
  5
2182
330
1FD6
100
AcDbEntity
  8
7
100
AcDbLine
 10
5507.887871923245
 20
1119.87996963427
 30
0.0
 11
5659.602340388833
 21
1119.87996963427
 31
0.0
  0
LINE
  5
2183
330
1FD6
100
AcDbEntity
  8
7
100
AcDbLine
 10
5480.099526994497
 20
1109.87996963427
 30
0.0
 11
5659.602340388833
 21
1109.87996963427
 31
0.0
  0
LINE
  5
2184
330
1FD6
100
AcDbEntity
  8
7
100
AcDbLine
 10
5649.602340388832
 20
1139.87996963427
 30
0.0
 11
5649.602340388832
 21
1159.87996963427
 31
0.0
  0
LINE
  5
2185
330
1FD6
100
AcDbEntity
  8
7
100
AcDbLine
 10
5649.602340388832
 20
1089.87996963427
 30
0.0
 11
5649.602340388832
 21
1020.450822555694
 31
0.0
  0
LINE
  5
2186
330
1FD6
100
AcDbEntity
  8
7
100
AcDbLine
 10
5649.602340388832
 20
1119.87996963427
 30
0.0
 11
5649.602340388832
 21
1109.87996963427
 31
0.0
  0
SOLID
  5
2187
330
1FD6
100
AcDbEntity
  8
7
100
AcDbTrace
 10
5646.269007055499
 20
1139.87996963427
 30
0.0
 11
5652.935673722165
 21
1139.87996963427
 31
0.0
 12
5649.602340388832
 22
1119.87996963427
 32
0.0
 13
5649.602340388832
 23
1119.87996963427
 33
0.0
  0
SOLID
  5
2188
330
1FD6
100
AcDbEntity
  8
7
100
AcDbTrace
 10
5646.269007055499
 20
1089.87996963427
 30
0.0
 11
5652.935673722165
 21
1089.87996963427
 31
0.0
 12
5649.602340388832
 22
1109.87996963427
 32
0.0
 13
5649.602340388832
 23
1109.87996963427
 33
0.0
  0
MTEXT
  5
2189
330
1FD6
100
AcDbEntity
  8
7
100
AcDbMText
 10
5629.192669468752
 20
1045.165396094983
 30
0.0
 40
20.0
 41
0.0
 71
     5
 72
     1
  1
10
  7
SANINDUSA
 11
0.0000000000000001
 21
1.0
 31
0.0
 73
     1
 44
1.0
1001
ACAD
1000
MTEXTBEGIN
1070
    73
1070
     1
1070
    44
1040
1.0
1070
    74
1070
     0
1000
MTEXTEND
  0
POINT
  5
218A
330
1FD6
100
AcDbEntity
  8
Defpoints
 62
     0
100
AcDbPoint
 10
5497.887871923246
 20
1119.87996963427
 30
-0.0000017937957191
  0
POINT
  5
218B
330
1FD6
100
AcDbEntity
  8
Defpoints
 62
     0
100
AcDbPoint
 10
5470.099526994498
 20
1109.87996963427
 30
0.0
  0
POINT
  5
218C
330
1FD6
100
AcDbEntity
  8
Defpoints
 62
     0
100
AcDbPoint
 10
5649.602340388832
 20
1109.87996963427
 30
0.0
  0
ENDBLK
  5
1FE3
330
1FD6
100
AcDbEntity
  8
0
100
AcDbBlockEnd
  0
BLOCK
  5
1FF0
330
1FE4
100
AcDbEntity
  8
0
100
AcDbBlockBegin
  2
*D15
 70
     1
 10
0.0
 20
0.0
 30
0.0
  3
*D15
  1

  0
LINE
  5
218D
330
1FE4
100
AcDbEntity
  8
7
100
AcDbLine
 10
5957.434920045219
 20
1404.879969634263
 30
0.0
 11
6615.003795460137
 21
1404.879969634263
 31
0.0
  0
LINE
  5
218E
330
1FE4
100
AcDbEntity
  8
7
100
AcDbLine
 10
6565.003795460137
 20
1109.87996963427
 30
0.0
 11
6615.003795460137
 21
1109.87996963427
 31
0.0
  0
LINE
  5
218F
330
1FE4
100
AcDbEntity
  8
7
100
AcDbLine
 10
6605.003795460138
 20
1384.879969634263
 30
0.0
 11
6605.003795460138
 21
1129.87996963427
 31
0.0
  0
SOLID
  5
2190
330
1FE4
100
AcDbEntity
  8
7
100
AcDbTrace
 10
6601.670462126804
 20
1384.879969634263
 30
0.0
 11
6608.337128793471
 21
1384.879969634263
 31
0.0
 12
6605.003795460138
 22
1404.879969634263
 32
0.0
 13
6605.003795460138
 23
1404.879969634263
 33
0.0
  0
SOLID
  5
2191
330
1FE4
100
AcDbEntity
  8
7
100
AcDbTrace
 10
6601.670462126804
 20
1129.87996963427
 30
0.0
 11
6608.337128793471
 21
1129.87996963427
 31
0.0
 12
6605.003795460138
 22
1109.87996963427
 32
0.0
 13
6605.003795460138
 23
1109.87996963427
 33
0.0
  0
MTEXT
  5
2192
330
1FE4
100
AcDbEntity
  8
7
100
AcDbMText
 10
6584.587408623335
 20
1257.379969634267
 30
0.0
 40
20.0
 41
0.0
 71
     5
 72
     1
  1
295
  7
SANINDUSA
 11
0.0000000000000001
 21
1.0
 31
0.0
 73
     1
 44
1.0
1001
ACAD
1000
MTEXTBEGIN
1070
    73
1070
     1
1070
    44
1040
1.0
1070
    74
1070
     0
1000
MTEXTEND
  0
POINT
  5
2193
330
1FE4
100
AcDbEntity
  8
Defpoints
 62
     0
100
AcDbPoint
 10
5947.434920045219
 20
1404.879969634263
 30
-0.0000017937957191
  0
POINT
  5
2194
330
1FE4
100
AcDbEntity
  8
Defpoints
 62
     0
100
AcDbPoint
 10
6555.003795460137
 20
1109.87996963427
 30
0.0
  0
POINT
  5
2195
330
1FE4
100
AcDbEntity
  8
Defpoints
 62
     0
100
AcDbPoint
 10
6605.003795460138
 20
1109.87996963427
 30
0.0
  0
ENDBLK
  5
1FF1
330
1FE4
100
AcDbEntity
  8
0
100
AcDbBlockEnd
  0
BLOCK
  5
1FFE
330
1FF2
100
AcDbEntity
  8
0
100
AcDbBlockBegin
  2
*D16
 70
     1
 10
0.0
 20
0.0
 30
0.0
  3
*D16
  1

  0
LINE
  5
2196
330
1FF2
100
AcDbEntity
  8
7
100
AcDbLine
 10
6565.003795460137
 20
2959.87996963427
 30
0.0
 11
6615.003795460137
 21
2959.87996963427
 31
0.0
  0
LINE
  5
2197
330
1FF2
100
AcDbEntity
  8
7
100
AcDbLine
 10
5986.608482525022
 20
2664.879969624601
 30
0.0
 11
6615.003795460137
 21
2664.879969624601
 31
0.0
  0
LINE
  5
2198
330
1FF2
100
AcDbEntity
  8
7
100
AcDbLine
 10
6605.003795460138
 20
2939.879969634271
 30
0.0
 11
6605.003795460138
 21
2684.879969624601
 31
0.0
  0
SOLID
  5
2199
330
1FF2
100
AcDbEntity
  8
7
100
AcDbTrace
 10
6601.670462126804
 20
2939.879969634271
 30
0.0
 11
6608.337128793471
 21
2939.879969634271
 31
0.0
 12
6605.003795460138
 22
2959.87996963427
 32
0.0
 13
6605.003795460138
 23
2959.87996963427
 33
0.0
  0
SOLID
  5
219A
330
1FF2
100
AcDbEntity
  8
7
100
AcDbTrace
 10
6601.670462126804
 20
2684.879969624601
 30
0.0
 11
6608.337128793471
 21
2684.879969624601
 31
0.0
 12
6605.003795460138
 22
2664.879969624601
 32
0.0
 13
6605.003795460138
 23
2664.879969624601
 33
0.0
  0
MTEXT
  5
219B
330
1FF2
100
AcDbEntity
  8
7
100
AcDbMText
 10
6584.587408623334
 20
2812.379969629436
 30
0.0
 40
20.0
 41
0.0
 71
     5
 72
     1
  1
295
  7
SANINDUSA
 11
0.0000000000000001
 21
1.0
 31
0.0
 73
     1
 44
1.0
1001
ACAD
1000
MTEXTBEGIN
1070
    73
1070
     1
1070
    44
1040
1.0
1070
    74
1070
     0
1000
MTEXTEND
  0
POINT
  5
219C
330
1FF2
100
AcDbEntity
  8
Defpoints
 62
     0
100
AcDbPoint
 10
6555.003795460137
 20
2959.87996963427
 30
0.0000017938277934
  0
POINT
  5
219D
330
1FF2
100
AcDbEntity
  8
Defpoints
 62
     0
100
AcDbPoint
 10
5976.608482525022
 20
2664.879969624601
 30
0.0000000000320743
  0
POINT
  5
219E
330
1FF2
100
AcDbEntity
  8
Defpoints
 62
     0
100
AcDbPoint
 10
6605.003795460138
 20
2664.879969624601
 30
0.0
  0
ENDBLK
  5
1FFF
330
1FF2
100
AcDbEntity
  8
0
100
AcDbBlockEnd
  0
BLOCK
  5
200A
330
2000
100
AcDbEntity
  8
0
100
AcDbBlockBegin
  2
*D17
 70
     1
 10
0.0
 20
0.0
 30
0.0
  3
*D17
  1

  0
LINE
  5
219F
330
2000
100
AcDbEntity
  8
7
100
AcDbLine
 10
5155.008595460138
 20
2959.879969634223
 30
0.0
 11
5094.68014272034
 21
2959.879969634224
 31
0.0
  0
LINE
  5
21A0
330
2000
100
AcDbEntity
  8
7
100
AcDbLine
 10
5148.538739193733
 20
1109.87996963427
 30
0.0
 11
5094.680142720338
 21
1109.87996963427
 31
0.0
  0
LINE
  5
21A1
330
2000
100
AcDbEntity
  8
7
100
AcDbLine
 10
5104.68014272034
 20
2939.879969634223
 30
0.0
 11
5104.680142720339
 21
1129.87996963427
 31
0.0
  0
SOLID
  5
21A2
330
2000
100
AcDbEntity
  8
7
100
AcDbTrace
 10
5101.346809387007
 20
2939.879969634223
 30
0.0
 11
5108.013476053673
 21
2939.879969634223
 31
0.0
 12
5104.68014272034
 22
2959.879969634224
 32
0.0
 13
5104.68014272034
 23
2959.879969634224
 33
0.0
  0
SOLID
  5
21A3
330
2000
100
AcDbEntity
  8
7
100
AcDbTrace
 10
5101.346809387006
 20
1129.87996963427
 30
0.0
 11
5108.013476053672
 21
1129.87996963427
 31
0.0
 12
5104.680142720339
 22
1109.87996963427
 32
0.0
 13
5104.680142720339
 23
1109.87996963427
 33
0.0
  0
MTEXT
  5
21A4
330
2000
100
AcDbEntity
  8
7
100
AcDbMText
 10
5084.2234603832
 20
2034.879969634248
 30
0.0
 40
20.0
 41
0.0
 71
     5
 72
     1
  1
1850
  7
SANINDUSA
 11
0.0000000000000001
 21
1.0
 31
0.0
 73
     1
 44
1.0
1001
ACAD
1000
MTEXTBEGIN
1070
    73
1070
     1
1070
    44
1040
1.0
1070
    74
1070
     0
1000
MTEXTEND
  0
POINT
  5
21A5
330
2000
100
AcDbEntity
  8
Defpoints
 62
     0
100
AcDbPoint
 10
5165.008595460138
 20
2959.879969634223
 30
0.0
  0
POINT
  5
21A6
330
2000
100
AcDbEntity
  8
Defpoints
 62
     0
100
AcDbPoint
 10
5158.538739193733
 20
1109.87996963427
 30
0.0
  0
POINT
  5
21A7
330
2000
100
AcDbEntity
  8
Defpoints
 62
     0
100
AcDbPoint
 10
5104.680142720339
 20
1109.87996963427
 30
0.0
  0
ENDBLK
  5
200B
330
2000
100
AcDbEntity
  8
0
100
AcDbBlockEnd
  0
BLOCK
  5
22D5
330
22CB
100
AcDbEntity
  8
0
100
AcDbBlockBegin
  2
*D18
 70
     1
 10
0.0
 20
0.0
 30
0.0
  3
*D18
  1

  0
LINE
  5
2308
330
22CB
100
AcDbEntity
  8
0
100
AcDbLine
 10
3585.263849370522
 20
2017.019344109153
 30
0.0
 11
3585.263849370522
 21
1910.819242340862
 31
0.0
  0
LINE
  5
2309
330
22CB
100
AcDbEntity
  8
0
100
AcDbLine
 10
4985.259049370521
 20
2017.019351728342
 30
0.0
 11
4985.259049370521
 21
1910.819242340862
 31
0.0
  0
LINE
  5
230A
330
22CB
100
AcDbEntity
  8
0
100
AcDbLine
 10
3605.263849370522
 20
1920.819242340862
 30
0.0
 11
4965.259049370521
 21
1920.819242340862
 31
0.0
  0
SOLID
  5
230B
330
22CB
100
AcDbEntity
  8
0
100
AcDbTrace
 10
3605.263849370522
 20
1924.152575674195
 30
0.0
 11
3605.263849370522
 21
1917.485909007529
 31
0.0
 12
3585.263849370522
 22
1920.819242340862
 32
0.0
 13
3585.263849370522
 23
1920.819242340862
 33
0.0
  0
SOLID
  5
230C
330
22CB
100
AcDbEntity
  8
0
100
AcDbTrace
 10
4965.259049370521
 20
1924.152575674195
 30
0.0
 11
4965.259049370521
 21
1917.485909007529
 31
0.0
 12
4985.259049370521
 22
1920.819242340862
 32
0.0
 13
4985.259049370521
 23
1920.819242340862
 33
0.0
  0
MTEXT
  5
230D
330
22CB
100
AcDbEntity
  8
0
100
AcDbMText
 10
4361.962937377519
 20
1941.275924678001
 30
0.0
 40
20.0
 41
0.0
 71
     5
 72
     1
  1
1380 - 1410
  7
SANINDUSA
 73
     1
 44
1.0
1001
ACAD
1000
MTEXTBEGIN
1070
    73
1070
     1
1070
    44
1040
1.0
1070
    74
1070
     0
1000
MTEXTEND
  0
POINT
  5
230E
330
22CB
100
AcDbEntity
  8
Defpoints
 62
     0
100
AcDbPoint
 10
3585.263849370522
 20
2027.019344109153
 30
0.0
  0
POINT
  5
230F
330
22CB
100
AcDbEntity
  8
Defpoints
 62
     0
100
AcDbPoint
 10
4985.259049370521
 20
2027.019351728342
 30
0.0
  0
POINT
  5
2310
330
22CB
100
AcDbEntity
  8
Defpoints
 62
     0
100
AcDbPoint
 10
4985.259049370521
 20
1920.819242340862
 30
0.0
  0
ENDBLK
  5
22D6
330
22CB
100
AcDbEntity
  8
0
100
AcDbBlockEnd
  0
BLOCK
  5
231D
330
2313
100
AcDbEntity
  8
0
100
AcDbBlockBegin
  2
*D19
 70
     1
 10
0.0
 20
0.0
 30
0.0
  3
*D19
  1

  0
LINE
  5
233D
330
2313
100
AcDbEntity
  8
0
100
AcDbLine
 10
5154.680142720339
 20
2969.879969634263
 30
0.0
 11
5154.680142720339
 21
3019.879969634263
 31
0.0
  0
LINE
  5
233E
330
2313
100
AcDbEntity
  8
0
100
AcDbLine
 10
6555.003795460137
 20
2969.879969634275
 30
0.0
 11
6555.003795460137
 21
3019.879969634263
 31
0.0
  0
LINE
  5
233F
330
2313
100
AcDbEntity
  8
0
100
AcDbLine
 10
5174.680142720339
 20
3009.879969634263
 30
0.0
 11
6535.003795460138
 21
3009.879969634263
 31
0.0
  0
SOLID
  5
2340
330
2313
100
AcDbEntity
  8
0
100
AcDbTrace
 10
5174.680142720339
 20
3013.213302967597
 30
0.0
 11
5174.680142720339
 21
3006.54663630093
 31
0.0
 12
5154.680142720339
 22
3009.879969634263
 32
0.0
 13
5154.680142720339
 23
3009.879969634263
 33
0.0
  0
SOLID
  5
2341
330
2313
100
AcDbEntity
  8
0
100
AcDbTrace
 10
6535.003795460138
 20
3013.213302967597
 30
0.0
 11
6535.003795460138
 21
3006.54663630093
 31
0.0
 12
6555.003795460137
 22
3009.879969634263
 32
0.0
 13
6555.003795460137
 23
3009.879969634263
 33
0.0
  0
MTEXT
  5
2342
330
2313
100
AcDbEntity
  8
0
100
AcDbMText
 10
5854.841969090238
 20
3030.336651971402
 30
0.0
 40
20.0
 41
0.0
 71
     5
 72
     1
  1
1380 - 1410
  7
SANINDUSA
 73
     1
 44
1.0
1001
ACAD
1000
MTEXTBEGIN
1070
    73
1070
     1
1070
    44
1040
1.0
1070
    74
1070
     0
1000
MTEXTEND
  0
POINT
  5
2343
330
2313
100
AcDbEntity
  8
Defpoints
 62
     0
100
AcDbPoint
 10
5154.680142720339
 20
2959.879969634263
 30
0.0
  0
POINT
  5
2344
330
2313
100
AcDbEntity
  8
Defpoints
 62
     0
100
AcDbPoint
 10
6555.003795460137
 20
2959.879969634275
 30
0.0
  0
POINT
  5
2345
330
2313
100
AcDbEntity
  8
Defpoints
 62
     0
100
AcDbPoint
 10
6555.003795460137
 20
3009.879969634263
 30
0.0
  0
ENDBLK
  5
231E
330
2313
100
AcDbEntity
  8
0
100
AcDbBlockEnd
  0
BLOCK
  5
2360
330
2356
100
AcDbEntity
  8
0
100
AcDbBlockBegin
  2
*D20
 70
     1
 10
0.0
 20
0.0
 30
0.0
  3
*D20
  1

  0
LINE
  5
2388
330
2356
100
AcDbEntity
  8
0
100
AcDbLine
 10
4461.246673130423
 20
2029.145843153706
 30
0.0
 11
4527.070738204336
 21
2029.145843153706
 31
0.0
  0
LINE
  5
2389
330
2356
100
AcDbEntity
  8
0
100
AcDbLine
 10
4453.746673130425
 20
2720.801142340863
 30
0.0
 11
4527.070738204336
 21
2720.801142340863
 31
0.0
  0
LINE
  5
238A
330
2356
100
AcDbEntity
  8
0
100
AcDbLine
 10
4517.070738204337
 20
2049.145843153706
 30
0.0
 11
4517.070738204337
 21
2700.801142340863
 31
0.0
  0
SOLID
  5
238B
330
2356
100
AcDbEntity
  8
0
100
AcDbTrace
 10
4513.737404871004
 20
2049.145843153706
 30
0.0
 11
4520.40407153767
 21
2049.145843153706
 31
0.0
 12
4517.070738204335
 22
2029.145843153706
 32
0.0
 13
4517.070738204335
 23
2029.145843153706
 33
0.0
  0
SOLID
  5
238C
330
2356
100
AcDbEntity
  8
0
100
AcDbTrace
 10
4513.737404871004
 20
2700.801142340863
 30
0.0
 11
4520.40407153767
 21
2700.801142340863
 31
0.0
 12
4517.070738204337
 22
2720.801142340863
 32
0.0
 13
4517.070738204337
 23
2720.801142340863
 33
0.0
  0
MTEXT
  5
238D
330
2356
100
AcDbEntity
  8
0
100
AcDbMText
 10
4496.654351367532
 20
2374.973492747285
 30
0.0
 40
20.0
 41
0.0
 71
     5
 72
     1
  1
420 - 720
  7
SANINDUSA
 11
0.0000000000000001
 21
1.0
 31
0.0
 73
     1
 44
1.0
1001
ACAD
1000
MTEXTBEGIN
1070
    73
1070
     1
1070
    44
1040
1.0
1070
    74
1070
     0
1000
MTEXTEND
  0
POINT
  5
238E
330
2356
100
AcDbEntity
  8
Defpoints
 62
     0
100
AcDbPoint
 10
4451.246673130422
 20
2029.145843153706
 30
0.0000001479286265
  0
POINT
  5
238F
330
2356
100
AcDbEntity
  8
Defpoints
 62
     0
100
AcDbPoint
 10
4443.746673130426
 20
2720.801142340863
 30
0.0
  0
POINT
  5
2390
330
2356
100
AcDbEntity
  8
Defpoints
 62
     0
100
AcDbPoint
 10
4517.070738204337
 20
2720.801142340863
 30
0.0
  0
ENDBLK
  5
2361
330
2356
100
AcDbEntity
  8
0
100
AcDbBlockEnd
  0
BLOCK
  5
23E3
330
23E2
100
AcDbEntity
  8
0
100
AcDbBlockBegin
  2
*D21
 70
     1
 10
0.0
 20
0.0
 30
0.0
  3
*D21
  1

  0
LINE
  5
23EF
330
23E2
100
AcDbEntity
  8
0
100
AcDbLine
 10
6565.003795460137
 20
2959.879969634263
 30
0.0
 11
6751.933809343434
 21
2959.879969634263
 31
0.0
  0
LINE
  5
23F0
330
23E2
100
AcDbEntity
  8
0
100
AcDbLine
 10
6565.003795460137
 20
1109.879969634263
 30
0.0
 11
6751.933809343433
 21
1109.879969634263
 31
0.0
  0
LINE
  5
23F1
330
23E2
100
AcDbEntity
  8
0
100
AcDbLine
 10
6741.933809343433
 20
2939.879969634263
 30
0.0
 11
6741.933809343433
 21
1129.879969634263
 31
0.0
  0
SOLID
  5
23F2
330
23E2
100
AcDbEntity
  8
0
100
AcDbTrace
 10
6738.6004760101
 20
2939.879969634263
 30
0.0
 11
6745.267142676766
 21
2939.879969634263
 31
0.0
 12
6741.933809343433
 22
2959.879969634263
 32
0.0
 13
6741.933809343433
 23
2959.879969634263
 33
0.0
  0
SOLID
  5
23F3
330
23E2
100
AcDbEntity
  8
0
100
AcDbTrace
 10
6738.6004760101
 20
1129.879969634263
 30
0.0
 11
6745.267142676765
 21
1129.879969634263
 31
0.0
 12
6741.933809343433
 22
1109.879969634263
 32
0.0
 13
6741.933809343433
 23
1109.879969634263
 33
0.0
  0
MTEXT
  5
23F4
330
23E2
100
AcDbEntity
  8
0
100
AcDbMText
 10
6721.477127006294
 20
2034.879969634264
 30
0.0
 40
20.0
 41
0.0
 71
     5
 72
     1
  1
1850
  7
SANINDUSA
 11
0.0000000000000001
 21
1.0
 31
0.0
 73
     1
 44
1.0
1001
ACAD
1000
MTEXTBEGIN
1070
    73
1070
     1
1070
    44
1040
1.0
1070
    74
1070
     0
1000
MTEXTEND
  0
POINT
  5
23F5
330
23E2
100
AcDbEntity
  8
Defpoints
 62
     0
100
AcDbPoint
 10
6555.003795460137
 20
2959.879969634263
 30
0.0
  0
POINT
  5
23F6
330
23E2
100
AcDbEntity
  8
Defpoints
 62
     0
100
AcDbPoint
 10
6555.003795460137
 20
1109.879969634263
 30
0.0
  0
POINT
  5
23F7
330
23E2
100
AcDbEntity
  8
Defpoints
 62
     0
100
AcDbPoint
 10
6741.933809343433
 20
1109.879969634263
 30
0.0
  0
ENDBLK
  5
23E4
330
23E2
100
AcDbEntity
  8
0
100
AcDbBlockEnd
  0
BLOCK
  5
23FB
330
23FA
100
AcDbEntity
  8
0
100
AcDbBlockBegin
  2
*D22
 70
     1
 10
0.0
 20
0.0
 30
0.0
  3
*D22
  1

  0
LINE
  5
2411
330
23FA
100
AcDbEntity
  8
0
100
AcDbLine
 10
3585.263849370522
 20
1764.653738504053
 30
0.0
 11
3585.263849370522
 21
1561.678352346334
 31
0.0
  0
LINE
  5
2412
330
23FA
100
AcDbEntity
  8
0
100
AcDbLine
 10
4985.259049370521
 20
1764.653746123242
 30
0.0
 11
4985.259049370521
 21
1561.678352346334
 31
0.0
  0
LINE
  5
2413
330
23FA
100
AcDbEntity
  8
0
100
AcDbLine
 10
3605.263849370522
 20
1571.678352346333
 30
0.0
 11
4965.259049370521
 21
1571.678352346333
 31
0.0
  0
SOLID
  5
2414
330
23FA
100
AcDbEntity
  8
0
100
AcDbTrace
 10
3605.263849370522
 20
1575.011685679667
 30
0.0
 11
3605.263849370522
 21
1568.345019013
 31
0.0
 12
3585.263849370522
 22
1571.678352346333
 32
0.0
 13
3585.263849370522
 23
1571.678352346333
 33
0.0
  0
SOLID
  5
2415
330
23FA
100
AcDbEntity
  8
0
100
AcDbTrace
 10
4965.259049370521
 20
1575.011685679667
 30
0.0
 11
4965.259049370521
 21
1568.345019013
 31
0.0
 12
4985.259049370521
 22
1571.678352346333
 32
0.0
 13
4985.259049370521
 23
1571.678352346333
 33
0.0
  0
MTEXT
  5
2416
330
23FA
100
AcDbEntity
  8
0
100
AcDbMText
 10
4285.261449370522
 20
1592.088023266414
 30
0.0
 40
20.0
 41
0.0
 71
     5
 72
     1
  1
1400
  7
SANINDUSA
 73
     1
 44
1.0
1001
ACAD
1000
MTEXTBEGIN
1070
    73
1070
     1
1070
    44
1040
1.0
1070
    74
1070
     0
1000
MTEXTEND
  0
POINT
  5
2417
330
23FA
100
AcDbEntity
  8
Defpoints
 62
     0
100
AcDbPoint
 10
3585.263849370522
 20
1774.653738504053
 30
0.0
  0
POINT
  5
2418
330
23FA
100
AcDbEntity
  8
Defpoints
 62
     0
100
AcDbPoint
 10
4985.259049370521
 20
1774.653746123242
 30
0.0
  0
POINT
  5
2419
330
23FA
100
AcDbEntity
  8
Defpoints
 62
     0
100
AcDbPoint
 10
4985.259049370521
 20
1571.678352346333
 30
0.0
  0
ENDBLK
  5
23FC
330
23FA
100
AcDbEntity
  8
0
100
AcDbBlockEnd
  0
ENDSEC
  0
SECTION
  2
ENTITIES
  0
LINE
  5
163F
330
1F
100
AcDbEntity
  8
SANINDUSA
100
AcDbLine
 10
5366.550429446487
 20
2002.371097300393
 30
0.0000000001479286
 11
5366.535429400891
 21
2002.371097300393
 31
0.0000000001479286
  0
LINE
  5
1640
330
1F
100
AcDbEntity
  8
SANINDUSA
100
AcDbLine
 10
5366.602429446487
 20
2002.363097300392
 30
0.0000000001479286
 11
5366.543429446488
 21
2002.363097300392
 31
0.0000000001479286
  0
LINE
  5
1641
330
1F
100
AcDbEntity
  8
SANINDUSA
100
AcDbLine
 10
5366.526540557599
 20
2002.363097300393
 30
0.0000000001479286
 11
5366.526540557599
 21
2002.371097352687
 31
0.0000000001479286
  0
CIRCLE
  5
1642
330
1F
100
AcDbEntity
  8
SANINDUSA
100
AcDbCircle
 10
5366.535429446487
 20
2002.363097300393
 30
0.0000000001479286
 40
0.008
  0
LINE
  5
1643
330
1F
100
AcDbEntity
  8
SANINDUSA
100
AcDbLine
 10
5366.544318335376
 20
2002.363097300392
 30
0.0000000001479286
 11
5366.544318335376
 21
2002.371097300393
 31
0.0000000001479286
  0
LINE
  5
1644
330
1F
100
AcDbEntity
  8
SANINDUSA
100
AcDbLine
 10
5366.467429446487
 20
2002.373097352687
 30
0.0000000001479286
 11
5366.467429446487
 21
2002.364097300393
 31
0.0000000001479286
  0
LINE
  5
1645
330
1F
100
AcDbEntity
  8
SANINDUSA
100
AcDbLine
 10
5366.526540557599
 20
2002.363097300393
 30
0.0000000001479286
 11
5366.468429446488
 21
2002.363097300393
 31
0.0000000001479286
  0
ARC
  5
1646
330
1F
100
AcDbEntity
  8
SANINDUSA
100
AcDbCircle
 10
5366.468429446488
 20
2002.364097300393
 30
0.0000000001479286
 40
0.001
100
AcDbArc
 50
180.0
 51
270.0
  0
LINE
  5
1647
330
1F
100
AcDbEntity
  8
SANINDUSA
100
AcDbLine
 10
5366.467429446487
 20
2002.373097352687
 30
0.0000000001479286
 11
5366.520429446488
 21
2002.373097352687
 31
0.0000000001479286
  0
LWPOLYLINE
  5
1648
330
1F
100
AcDbEntity
  8
SANINDUSA
100
AcDbPolyline
 90
        2
 70
     0
 43
0.0
 38
0.0000000001479285
 10
5366.520429446488
 20
2002.374297352687
 10
5366.467429446487
 20
2002.374297352687
1001
GENIUS_GENREC_14
1002
{
1000
PYDIR
1011
5366.766711703566
1021
2001.340067496675
1031
0.0000000001479286
1002
}
1002
{
1000
PXDIR
1011
5366.819711703566
1021
2001.341067496674
1031
0.0000000001479286
1002
}
1002
{
1000
PORI
1011
5366.766711703566
1021
2001.341067496674
1031
0.0000000001479286
1002
}
1002
{
1000
PINS
1011
5366.766711703566
1021
2001.341067496674
1031
0.0000000001479286
1002
}
1002
{
1000
PINS2
1011
5366.819711703566
1021
2001.340067496675
1031
0.0000000001479286
1002
}
1002
{
1000
C
1070
     1
1002
}
1001
GENIUS_GENODEF_13
1002
{
1000
HIER
1070
     0
1002
}
1002
{
1000
MANEDIT
1070
     0
1002
}
1002
{
1000
NOSEL
1070
     0
1002
}
1002
{
1000
BEHIND
1070
     0
1002
}
1002
{
1000
REACTOR
1002
}
1001
GENIUS_GENOBJ-N-REC_13
1002
{
1000
OWNER
1000
GEN
1002
}
  0
LWPOLYLINE
  5
1649
330
1F
100
AcDbEntity
  8
SANINDUSA
100
AcDbPolyline
 90
        2
 70
     0
 43
0.0
 38
0.0000000001479285
 10
5366.467429446487
 20
2002.373297352687
 10
5366.520429446488
 20
2002.373297352687
1001
GENIUS_GENREC_14
1002
{
1000
PYDIR
1011
5366.766711703566
1021
2001.340067496675
1031
0.0000000001479286
1002
}
1002
{
1000
PXDIR
1011
5366.819711703566
1021
2001.341067496674
1031
0.0000000001479286
1002
}
1002
{
1000
PORI
1011
5366.766711703566
1021
2001.341067496674
1031
0.0000000001479286
1002
}
1002
{
1000
PINS
1011
5366.766711703566
1021
2001.341067496674
1031
0.0000000001479286
1002
}
1002
{
1000
PINS2
1011
5366.819711703566
1021
2001.340067496675
1031
0.0000000001479286
1002
}
1002
{
1000
C
1070
     1
1002
}
1001
GENIUS_GENODEF_13
1002
{
1000
HIER
1070
     0
1002
}
1002
{
1000
MANEDIT
1070
     0
1002
}
1002
{
1000
NOSEL
1070
     0
1002
}
1002
{
1000
BEHIND
1070
     0
1002
}
1002
{
1000
REACTOR
1002
}
1001
GENIUS_GENOBJ-N-REC_13
1002
{
1000
OWNER
1000
GEN
1002
}
  0
LINE
  5
164A
330
1F
100
AcDbEntity
  8
SANINDUSA
100
AcDbLine
 10
5366.468429446488
 20
2002.386897352687
 30
0.0000000001479286
 11
5366.519429446487
 21
2002.386897352687
 31
0.0000000001479286
  0
LINE
  5
164B
330
1F
100
AcDbEntity
  8
SANINDUSA
100
AcDbLine
 10
5366.520429446488
 20
2002.381897352687
 30
0.0000000001479286
 11
5366.467429446487
 21
2002.381897352687
 31
0.0000000001479286
  0
LWPOLYLINE
  5
164C
330
1F
100
AcDbEntity
  8
SANINDUSA
100
AcDbPolyline
 90
        4
 70
     1
 43
0.0
 38
0.0000000001479285
 10
5366.467429446487
 20
2002.381697352687
 10
5366.520429446488
 20
2002.381697352687
 10
5366.520429446488
 20
2002.380697352687
 10
5366.467429446487
 20
2002.380697352687
1001
GENIUS_GENREC_14
1002
{
1000
PYDIR
1011
5366.766711703566
1021
2001.339867496675
1031
0.0000000001479286
1002
}
1002
{
1000
PXDIR
1011
5366.819711703566
1021
2001.340867496674
1031
0.0000000001479286
1002
}
1002
{
1000
PORI
1011
5366.766711703566
1021
2001.340867496674
1031
0.0000000001479286
1002
}
1002
{
1000
PINS
1011
5366.766711703566
1021
2001.340867496674
1031
0.0000000001479286
1002
}
1002
{
1000
PINS2
1011
5366.819711703566
1021
2001.339867496675
1031
0.0000000001479286
1002
}
1002
{
1000
C
1070
     1
1002
}
1001
GENIUS_GENODEF_13
1002
{
1000
HIER
1070
     0
1002
}
1002
{
1000
MANEDIT
1070
     0
1002
}
1002
{
1000
NOSEL
1070
     0
1002
}
1002
{
1000
BEHIND
1070
     0
1002
}
1002
{
1000
REACTOR
1002
}
1001
GENIUS_GENOBJ-N-REC_13
1002
{
1000
OWNER
1000
GEN
1002
}
  0
LINE
  5
164D
330
1F
100
AcDbEntity
  8
SANINDUSA
100
AcDbLine
 10
5366.467429446487
 20
2002.374297352687
 30
0.0000000001479286
 11
5366.467429446487
 21
2002.373297352687
 31
0.0000000001479286
1001
GENIUS_GENREC_14
1002
{
1000
PYDIR
1011
5366.467429446487
1021
2002.374297352687
1031
0.0000000001479286
1002
}
1002
{
1000
PXDIR
1011
5366.520429446488
1021
2002.373297352687
1031
0.0000000001479286
1002
}
1002
{
1000
PORI
1011
5366.467429446487
1021
2002.373297352687
1031
0.0000000001479286
1002
}
1002
{
1000
PINS
1011
5366.467429446487
1021
2002.373297352687
1031
0.0000000001479286
1002
}
1002
{
1000
PINS2
1011
5366.520429446488
1021
2002.374297352687
1031
0.0000000001479286
1002
}
1002
{
1000
C
1070
     1
1002
}
1001
GENIUS_GENODEF_13
1002
{
1000
HIER
1070
     0
1002
}
1002
{
1000
MANEDIT
1070
     0
1002
}
1002
{
1000
NOSEL
1070
     0
1002
}
1002
{
1000
BEHIND
1070
     0
1002
}
1002
{
1000
REACTOR
1002
}
1001
GENIUS_GENOBJ-N-REC_13
1002
{
1000
OWNER
1000
GEN
1002
}
  0
ARC
  5
164E
330
1F
100
AcDbEntity
  8
SANINDUSA
100
AcDbCircle
 10
5366.468429446488
 20
2002.385897352687
 30
0.0000000001479286
 40
0.001
100
AcDbArc
 50
90.0
 51
180.0
  0
LINE
  5
164F
330
1F
100
AcDbEntity
  8
SANINDUSA
100
AcDbLine
 10
5366.467429446487
 20
2002.381897352687
 30
0.0000000001479286
 11
5366.467429446487
 21
2002.385897352687
 31
0.0000000001479286
  0
LINE
  5
1650
330
1F
100
AcDbEntity
  8
SANINDUSA
100
AcDbLine
 10
5366.527079903491
 20
2002.380501137887
 30
0.0000000001479285
 11
5366.525003575135
 21
2002.380792946807
 31
0.0000000001479285
  0
LINE
  5
1651
330
1F
100
AcDbEntity
  8
SANINDUSA
100
AcDbLine
 10
5366.522077307141
 20
2002.380612990828
 30
0.0000000001479285
 11
5366.522077307141
 21
2002.379906235193
 31
0.0000000001479285
  0
ARC
  5
1652
330
1F
100
AcDbEntity
  8
SANINDUSA
100
AcDbCircle
 10
5366.524972084056
 20
2002.380948846726
 30
0.0000000001479285
 40
0.0004999999999883
100
AcDbArc
 50
208.1263739549705
 51
261.9999999889949
  0
ARC
  5
1653
330
1F
100
AcDbEntity
  8
SANINDUSA
100
AcDbCircle
 10
5366.524677307141
 20
2002.380131216849
 30
0.0000000001479285
 40
0.0006000000000005
100
AcDbArc
 50
104.1008917867584
 51
147.5305191993646
  0
ARC
  5
1654
330
1F
100
AcDbEntity
  8
SANINDUSA
100
AcDbCircle
 10
5366.531537920008
 20
2002.380747086357
 30
0.0000000001479285
 40
0.00075
100
AcDbArc
 50
189.3408341093261
 51
9.340834109326083
  0
LINE
  5
1655
330
1F
100
AcDbEntity
  8
SANINDUSA
100
AcDbLine
 10
5366.535077307141
 20
2002.383097356497
 30
0.0000000001479285
 11
5366.535077307141
 21
2002.371897356496
 31
0.0000000001479285
  0
LINE
  5
1656
330
1F
100
AcDbEntity
  8
SANINDUSA
100
AcDbLine
 10
5366.533929446488
 20
2002.381193786947
 30
0.0000000001479285
 11
5366.533929446488
 21
2002.373800926046
 31
0.0000000001479285
  0
ARC
  5
1657
330
1F
100
AcDbEntity
  8
SANINDUSA
100
AcDbCircle
 10
5366.535914999449
 20
2002.377497356496
 30
0.0000000001479285
 40
0.0056623076923077
100
AcDbArc
 50
261.4923271082531
 51
98.50767289174697
  0
ARC
  5
1658
330
1F
100
AcDbEntity
  8
SANINDUSA
100
AcDbCircle
 10
5366.535914999449
 20
2002.377497356496
 30
0.0000000001479285
 40
0.0052623076923077
100
AcDbArc
 50
260.8402753435636
 51
99.1597246564364
  0
LINE
  5
1659
330
1F
100
AcDbEntity
  8
SANINDUSA
100
AcDbLine
 10
5366.520429446488
 20
2002.371097352687
 30
0.0000000001479286
 11
5366.535429446487
 21
2002.371097300393
 31
0.0000000001479286
  0
LINE
  5
165A
330
1F
100
AcDbEntity
  8
SANINDUSA
100
AcDbLine
 10
5366.520429446488
 20
2002.373297352687
 30
0.0000000001479286
 11
5366.520429446488
 21
2002.374297352687
 31
0.0000000001479286
1001
GENIUS_GENREC_14
1002
{
1000
PYDIR
1011
5366.467429446487
1021
2002.374297352687
1031
0.0000000001479286
1002
}
1002
{
1000
PXDIR
1011
5366.520429446488
1021
2002.373297352687
1031
0.0000000001479286
1002
}
1002
{
1000
PORI
1011
5366.467429446487
1021
2002.373297352687
1031
0.0000000001479286
1002
}
1002
{
1000
PINS
1011
5366.467429446487
1021
2002.373297352687
1031
0.0000000001479286
1002
}
1002
{
1000
PINS2
1011
5366.520429446488
1021
2002.374297352687
1031
0.0000000001479286
1002
}
1002
{
1000
C
1070
     1
1002
}
1001
GENIUS_GENODEF_13
1002
{
1000
HIER
1070
     0
1002
}
1002
{
1000
MANEDIT
1070
     0
1002
}
1002
{
1000
NOSEL
1070
     0
1002
}
1002
{
1000
BEHIND
1070
     0
1002
}
1002
{
1000
REACTOR
1002
}
1001
GENIUS_GENOBJ-N-REC_13
1002
{
1000
OWNER
1000
GEN
1002
}
  0
LINE
  5
165B
330
1F
100
AcDbEntity
  8
SANINDUSA
100
AcDbLine
 10
5366.520429446488
 20
2002.373097352687
 30
0.0000000001479286
 11
5366.520429446488
 21
2002.371097352687
 31
0.0000000001479286
  0
LINE
  5
165C
330
1F
100
AcDbEntity
  8
SANINDUSA
100
AcDbLine
 10
5366.533929446488
 20
2002.380497356496
 30
0.0000000001479285
 11
5366.533929446488
 21
2002.374497356496
 31
0.0000000001479285
  0
LINE
  5
165D
330
1F
100
AcDbEntity
  8
SANINDUSA
100
AcDbLine
 10
5366.536593467186
 20
2002.380497352687
 30
0.0000000001479286
 11
5366.536593467186
 21
2002.374497352687
 31
0.0000000001479286
1001
GENIUS_GENREC_14
1002
{
1000
PYDIR
1011
5366.383593467187
1021
2002.374297352687
1031
0.0000000001479286
1002
}
1002
{
1000
PXDIR
1011
5366.533593467186
1021
2002.380297352686
1031
0.0000000001479286
1002
}
1002
{
1000
PORI
1011
5366.383593467187
1021
2002.380297352686
1031
0.0000000001479286
1002
}
1002
{
1000
PINS
1011
5366.383593467187
1021
2002.380297352686
1031
0.0000000001479286
1002
}
1002
{
1000
PINS2
1011
5366.533593467186
1021
2002.374497352687
1031
0.0000000001479286
1002
}
1002
{
1000
C
1070
     1
1002
}
1001
GENIUS_GENODEF_13
1002
{
1000
HIER
1070
     0
1002
}
1002
{
1000
MANEDIT
1070
     0
1002
}
1002
{
1000
NOSEL
1070
     0
1002
}
1002
{
1000
BEHIND
1070
     0
1002
}
1002
{
1000
REACTOR
1002
}
1001
GENIUS_GENOBJ-N-REC_13
1002
{
1000
OWNER
1000
GEN
1002
}
  0
LINE
  5
165E
330
1F
100
AcDbEntity
  8
SANINDUSA
100
AcDbLine
 10
5366.52257992288
 20
2002.37378967799
 30
0.0000000001479285
 11
5366.534084224563
 21
2002.371897356496
 31
0.0000000001479285
  0
LINE
  5
165F
330
1F
100
AcDbEntity
  8
SANINDUSA
100
AcDbLine
 10
5366.525003575135
 20
2002.374201766185
 30
0.0000000001479285
 11
5366.527079903491
 21
2002.374493575106
 31
0.0000000001479285
  0
LINE
  5
1660
330
1F
100
AcDbEntity
  8
SANINDUSA
100
AcDbLine
 10
5366.52737992288
 20
2002.373810885101
 30
0.0000000001479285
 11
5366.525003575135
 21
2002.374201766185
 31
0.0000000001479285
  0
LINE
  5
1661
330
1F
100
AcDbEntity
  8
SANINDUSA
100
AcDbLine
 10
5366.524902497506
 20
2002.380453712691
 30
0.0000000001479285
 11
5366.527031192905
 21
2002.380154544063
 31
0.0000000001479285
  0
LINE
  5
1662
330
1F
100
AcDbEntity
  8
SANINDUSA
100
AcDbLine
 10
5366.527031192905
 20
2002.37484016893
 30
0.0000000001479285
 11
5366.524902497506
 21
2002.374541000301
 31
0.0000000001479285
  0
LINE
  5
1663
330
1F
100
AcDbEntity
  8
SANINDUSA
100
AcDbLine
 10
5366.522077307141
 20
2002.379906235193
 30
0.0000000001479285
 11
5366.523762278372
 21
2002.380183393023
 31
0.0000000001479285
  0
ARC
  5
1664
330
1F
100
AcDbEntity
  8
SANINDUSA
100
AcDbCircle
 10
5366.523664894112
 20
2002.380775437198
 30
0.0000000001479285
 40
0.0006
100
AcDbArc
 50
279.3408341200664
 51
327.5305191993646
  0
ARC
  5
1665
330
1F
100
AcDbEntity
  8
SANINDUSA
100
AcDbCircle
 10
5366.522677307141
 20
2002.374381722165
 30
0.0000000001479285
 40
0.0006
100
AcDbArc
 50
180.0
 51
260.6591658799336
  0
ARC
  5
1666
330
1F
100
AcDbEntity
  8
SANINDUSA
100
AcDbCircle
 10
5366.524677307141
 20
2002.374863496144
 30
0.0000000001479285
 40
0.0005999999999989
100
AcDbArc
 50
212.4694808006354
 51
255.8991082132415
  0
LINE
  5
1667
330
1F
100
AcDbEntity
  8
SANINDUSA
100
AcDbLine
 10
5366.523762278372
 20
2002.37481131997
 30
0.0000000001479285
 11
5366.522077307141
 21
2002.375088477799
 31
0.0000000001479285
  0
LINE
  5
1668
330
1F
100
AcDbEntity
  8
SANINDUSA
100
AcDbLine
 10
5366.522077307141
 20
2002.375088477799
 30
0.0000000001479285
 11
5366.522077307141
 21
2002.374381722165
 31
0.0000000001479285
  0
ARC
  5
1669
330
1F
100
AcDbEntity
  8
SANINDUSA
100
AcDbCircle
 10
5366.523664894112
 20
2002.374219275795
 30
0.0000000001479285
 40
0.0006
100
AcDbArc
 50
32.46948080063537
 51
80.65916587993356
  0
ARC
  5
166A
330
1F
100
AcDbEntity
  8
SANINDUSA
100
AcDbCircle
 10
5366.524972084056
 20
2002.374045866267
 30
0.0000000001479285
 40
0.0005
100
AcDbArc
 50
98.00000001100515
 51
151.8736260450294
  0
ARC
  5
166B
330
1F
100
AcDbEntity
  8
SANINDUSA
100
AcDbCircle
 10
5366.527055548198
 20
2002.380327840975
 30
0.0000000001479285
 40
0.000175
100
AcDbArc
 50
261.9999999889949
 51
81.99999998899484
  0
ARC
  5
166C
330
1F
100
AcDbEntity
  8
SANINDUSA
100
AcDbCircle
 10
5366.532730768598
 20
2002.373798057686
 30
0.0000000001479285
 40
0.0005
100
AcDbArc
 50
170.6591658906739
 51
260.6591658799336
  0
ARC
  5
166D
330
1F
100
AcDbEntity
  8
SANINDUSA
100
AcDbCircle
 10
5366.528230028809
 20
2002.373468365158
 30
0.0000000001479285
 40
0.0006000000000005
100
AcDbArc
 50
80.65916587993356
 51
128.8488510135322
  0
LINE
  5
166E
330
1F
100
AcDbEntity
  8
SANINDUSA
100
AcDbLine
 10
5366.530206770008
 20
2002.373751277356
 30
0.0000000001479285
 11
5366.528327413068
 21
2002.374060409334
 31
0.0000000001479285
  0
LINE
  5
166F
330
1F
100
AcDbEntity
  8
SANINDUSA
100
AcDbLine
 10
5366.530797864789
 20
2002.374369356962
 30
0.0000000001479285
 11
5366.530757288014
 21
2002.37412267189
 31
0.0000000001479285
  0
LINE
  5
1670
330
1F
100
AcDbEntity
  8
SANINDUSA
100
AcDbLine
 10
5366.532237398452
 20
2002.373879211237
 30
0.0000000001479285
 11
5366.532277975228
 21
2002.374125896309
 31
0.0000000001479285
  0
ARC
  5
1671
330
1F
100
AcDbEntity
  8
SANINDUSA
100
AcDbCircle
 10
5366.530287923558
 20
2002.374244647502
 30
0.0000000001479285
 40
0.0005
100
AcDbArc
 50
260.6591658799336
 51
0.1365535742230598
  0
ARC
  5
1672
330
1F
100
AcDbEntity
  8
SANINDUSA
100
AcDbCircle
 10
5366.531537920008
 20
2002.374247626636
 30
0.0000000001479285
 40
0.00075
100
AcDbArc
 50
350.6591658906739
 51
180.136553574223
  0
ARC
  5
1673
330
1F
100
AcDbEntity
  8
SANINDUSA
100
AcDbCircle
 10
5366.527055548198
 20
2002.374666872018
 30
0.0000000001479285
 40
0.000175
100
AcDbArc
 50
278.0000000110051
 51
98.00000001100515
  0
ARC
  5
1674
330
1F
100
AcDbEntity
  8
SANINDUSA
100
AcDbCircle
 10
5366.527477307141
 20
2002.374402929277
 30
0.0000000001479285
 40
0.0006
100
AcDbArc
 50
260.6591658799336
 51
308.8488510135322
  0
LINE
  5
1675
330
1F
100
AcDbEntity
  8
SANINDUSA
100
AcDbLine
 10
5366.534084224563
 20
2002.371897356496
 30
0.0000000001479285
 11
5366.535077307141
 21
2002.371897356496
 31
0.0000000001479285
  0
LINE
  5
1676
330
1F
100
AcDbEntity
  8
SANINDUSA
100
AcDbLine
 10
5366.533232062227
 20
2002.373208881871
 30
0.0000000001479285
 11
5366.532649615048
 21
2002.373304687539
 31
0.0000000001479285
  0
ARC
  5
1677
330
1F
100
AcDbEntity
  8
SANINDUSA
100
AcDbCircle
 10
5366.533329446487
 20
2002.373800926046
 30
0.0000000001479285
 40
0.0006
100
AcDbArc
 50
260.6591658799336
 51
0.0
  0
ARC
  5
1678
330
1F
100
AcDbEntity
  8
SANINDUSA
100
AcDbCircle
 10
5366.519429446487
 20
2002.385897352687
 30
0.0000000001479286
 40
0.001
100
AcDbArc
 50
0.0
 51
90.0
  0
ARC
  5
1679
330
1F
100
AcDbEntity
  8
SANINDUSA
100
AcDbCircle
 10
5366.532730768598
 20
2002.381196655307
 30
0.0000000001479285
 40
0.0005
100
AcDbArc
 50
99.34083412006643
 51
189.3408341093261
  0
LINE
  5
167A
330
1F
100
AcDbEntity
  8
SANINDUSA
100
AcDbLine
 10
5366.534084224563
 20
2002.383097356497
 30
0.0000000001479285
 11
5366.535077307141
 21
2002.383097356497
 31
0.0000000001479285
  0
LINE
  5
167B
330
1F
100
AcDbEntity
  8
SANINDUSA
100
AcDbLine
 10
5366.532649615048
 20
2002.381690025453
 30
0.0000000001479285
 11
5366.533232062227
 21
2002.381785831122
 31
0.0000000001479285
  0
ARC
  5
167C
330
1F
100
AcDbEntity
  8
SANINDUSA
100
AcDbCircle
 10
5366.533329446487
 20
2002.381193786947
 30
0.0000000001479285
 40
0.0006
100
AcDbArc
 50
0.0
 51
99.34083412006643
  0
LINE
  5
167D
330
1F
100
AcDbEntity
  8
SANINDUSA
100
AcDbLine
 10
5366.525003575135
 20
2002.380792946807
 30
0.0000000001479285
 11
5366.52737992288
 21
2002.381183827891
 31
0.0000000001479285
  0
ARC
  5
167E
330
1F
100
AcDbEntity
  8
SANINDUSA
100
AcDbCircle
 10
5366.522677307141
 20
2002.380612990828
 30
0.0000000001479285
 40
0.0006
100
AcDbArc
 50
99.34083412006643
 51
180.0
  0
LINE
  5
167F
330
1F
100
AcDbEntity
  8
SANINDUSA
100
AcDbLine
 10
5366.532277975228
 20
2002.380868816683
 30
0.0000000001479285
 11
5366.532237398452
 21
2002.381115501756
 31
0.0000000001479285
  0
LINE
  5
1680
330
1F
100
AcDbEntity
  8
SANINDUSA
100
AcDbLine
 10
5366.530764458265
 20
2002.380828449811
 30
0.0000000001479285
 11
5366.530797864789
 21
2002.380625356031
 31
0.0000000001479285
  0
LINE
  5
1681
330
1F
100
AcDbEntity
  8
SANINDUSA
100
AcDbLine
 10
5366.528327413068
 20
2002.380934303659
 30
0.0000000001479285
 11
5366.530189934568
 21
2002.381240666406
 31
0.0000000001479285
  0
ARC
  5
1682
330
1F
100
AcDbEntity
  8
SANINDUSA
100
AcDbCircle
 10
5366.528230028809
 20
2002.381526347835
 30
0.0000000001479285
 40
0.0006000000000005
100
AcDbArc
 50
231.1511489864678
 51
279.3408341200664
  0
ARC
  5
1683
330
1F
100
AcDbEntity
  8
SANINDUSA
100
AcDbCircle
 10
5366.530271088119
 20
2002.38074729626
 30
0.0000000001479285
 40
0.0005
100
AcDbArc
 50
9.340834109326083
 51
99.34083412006643
  0
ARC
  5
1684
330
1F
100
AcDbEntity
  8
SANINDUSA
100
AcDbCircle
 10
5366.527477307141
 20
2002.380591783716
 30
0.0000000001479285
 40
0.0006
100
AcDbArc
 50
51.15114898646778
 51
99.34083412006643
  0
LINE
  5
1685
330
1F
100
AcDbEntity
  8
SANINDUSA
100
AcDbLine
 10
5366.534084224563
 20
2002.383097356497
 30
0.0000000001479285
 11
5366.52257992288
 21
2002.381205035003
 31
0.0000000001479285
  0
LINE
  5
1686
330
1F
100
AcDbEntity
  8
SANINDUSA
100
AcDbLine
 10
5366.520429446488
 20
2002.381897352687
 30
0.0000000001479286
 11
5366.520429446488
 21
2002.385897352687
 31
0.0000000001479286
  0
LINE
  5
1687
330
1F
100
AcDbEntity
  8
SANINDUSA
100
AcDbLine
 10
5366.603429446487
 20
2002.373097300393
 30
0.0000000001479286
 11
5366.603429446487
 21
2002.364097300393
 31
0.0000000001479286
  0
ARC
  5
1688
330
1F
100
AcDbEntity
  8
SANINDUSA
100
AcDbCircle
 10
5366.602429446487
 20
2002.364097300393
 30
0.0000000001479286
 40
0.001
100
AcDbArc
 50
270.0
 51
0.0
  0
LINE
  5
1689
330
1F
100
AcDbEntity
  8
SANINDUSA
100
AcDbLine
 10
5366.602429446487
 20
2002.386897352687
 30
0.0000000001479286
 11
5366.551429446488
 21
2002.386897352687
 31
0.0000000001479286
  0
LINE
  5
168A
330
1F
100
AcDbEntity
  8
SANINDUSA
100
AcDbLine
 10
5366.550429446487
 20
2002.381897352687
 30
0.0000000001479286
 11
5366.603429446487
 21
2002.381897352687
 31
0.0000000001479286
  0
LINE
  5
168B
330
1F
100
AcDbEntity
  8
SANINDUSA
100
AcDbLine
 10
5366.550429446487
 20
2002.373097300393
 30
0.0000000001479286
 11
5366.603429446487
 21
2002.373097300393
 31
0.0000000001479286
  0
LWPOLYLINE
  5
168C
330
1F
100
AcDbEntity
  8
SANINDUSA
100
AcDbPolyline
 90
        4
 70
     1
 43
0.0
 38
0.0000000001479285
 10
5366.603429446487
 20
2002.381697352687
 10
5366.550429446487
 20
2002.381697352687
 10
5366.550429446487
 20
2002.380697352687
 10
5366.603429446487
 20
2002.380697352687
1001
GENIUS_GENREC_14
1002
{
1000
PYDIR
1011
5366.467429446487
1021
2001.639149753754
1031
0.0000000001479286
1002
}
1002
{
1000
PXDIR
1011
5366.520429446488
1021
2001.640149753754
1031
0.0000000001479286
1002
}
1002
{
1000
PORI
1011
5366.467429446487
1021
2001.640149753754
1031
0.0000000001479286
1002
}
1002
{
1000
PINS
1011
5366.467429446487
1021
2001.640149753754
1031
0.0000000001479286
1002
}
1002
{
1000
PINS2
1011
5366.520429446488
1021
2001.639149753754
1031
0.0000000001479286
1002
}
1002
{
1000
C
1070
     1
1002
}
1001
GENIUS_GENODEF_13
1002
{
1000
HIER
1070
     0
1002
}
1002
{
1000
MANEDIT
1070
     0
1002
}
1002
{
1000
NOSEL
1070
     0
1002
}
1002
{
1000
BEHIND
1070
     0
1002
}
1002
{
1000
REACTOR
1002
}
1001
GENIUS_GENOBJ-N-REC_13
1002
{
1000
OWNER
1000
GEN
1002
}
  0
LWPOLYLINE
  5
168D
330
1F
100
AcDbEntity
  8
SANINDUSA
100
AcDbPolyline
 90
        2
 70
     0
 43
0.0
 38
0.0000000001479285
 10
5366.603429446487
 20
2002.373197352687
 10
5366.550429446487
 20
2002.373197352687
1001
GENIUS_GENREC_14
1002
{
1000
PYDIR
1011
5366.467429446487
1021
2001.639449753754
1031
0.0000000001479286
1002
}
1002
{
1000
PXDIR
1011
5366.520429446488
1021
2001.640449753754
1031
0.0000000001479286
1002
}
1002
{
1000
PORI
1011
5366.467429446487
1021
2001.640449753754
1031
0.0000000001479286
1002
}
1002
{
1000
PINS
1011
5366.467429446487
1021
2001.640449753754
1031
0.0000000001479286
1002
}
1002
{
1000
PINS2
1011
5366.520429446488
1021
2001.639449753754
1031
0.0000000001479286
1002
}
1002
{
1000
C
1070
     1
1002
}
1001
GENIUS_GENODEF_13
1002
{
1000
HIER
1070
     0
1002
}
1002
{
1000
MANEDIT
1070
     0
1002
}
1002
{
1000
NOSEL
1070
     0
1002
}
1002
{
1000
BEHIND
1070
     0
1002
}
1002
{
1000
REACTOR
1002
}
1001
GENIUS_GENOBJ-N-REC_13
1002
{
1000
OWNER
1000
GEN
1002
}
  0
LWPOLYLINE
  5
168E
330
1F
100
AcDbEntity
  8
SANINDUSA
100
AcDbPolyline
 90
        2
 70
     0
 43
0.0
 38
0.0000000001479285
 10
5366.550429446487
 20
2002.374197352687
 10
5366.603429446487
 20
2002.374197352687
1001
GENIUS_GENREC_14
1002
{
1000
PYDIR
1011
5366.467429446487
1021
2001.639449753754
1031
0.0000000001479286
1002
}
1002
{
1000
PXDIR
1011
5366.520429446488
1021
2001.640449753754
1031
0.0000000001479286
1002
}
1002
{
1000
PORI
1011
5366.467429446487
1021
2001.640449753754
1031
0.0000000001479286
1002
}
1002
{
1000
PINS
1011
5366.467429446487
1021
2001.640449753754
1031
0.0000000001479286
1002
}
1002
{
1000
PINS2
1011
5366.520429446488
1021
2001.639449753754
1031
0.0000000001479286
1002
}
1002
{
1000
C
1070
     1
1002
}
1001
GENIUS_GENODEF_13
1002
{
1000
HIER
1070
     0
1002
}
1002
{
1000
MANEDIT
1070
     0
1002
}
1002
{
1000
NOSEL
1070
     0
1002
}
1002
{
1000
BEHIND
1070
     0
1002
}
1002
{
1000
REACTOR
1002
}
1001
GENIUS_GENOBJ-N-REC_13
1002
{
1000
OWNER
1000
GEN
1002
}
  0
LINE
  5
168F
330
1F
100
AcDbEntity
  8
SANINDUSA
100
AcDbLine
 10
5366.550429446487
 20
2002.373197352687
 30
0.0000000001479286
 11
5366.550429446487
 21
2002.374197352687
 31
0.0000000001479286
1001
GENIUS_GENREC_14
1002
{
1000
PYDIR
1011
5366.467429446487
1021
2002.374197352687
1031
0.0000000001479286
1002
}
1002
{
1000
PXDIR
1011
5366.520429446488
1021
2002.373197352687
1031
0.0000000001479286
1002
}
1002
{
1000
PORI
1011
5366.467429446487
1021
2002.373197352687
1031
0.0000000001479286
1002
}
1002
{
1000
PINS
1011
5366.467429446487
1021
2002.373197352687
1031
0.0000000001479286
1002
}
1002
{
1000
PINS2
1011
5366.520429446488
1021
2002.374197352687
1031
0.0000000001479286
1002
}
1002
{
1000
C
1070
     1
1002
}
1001
GENIUS_GENODEF_13
1002
{
1000
HIER
1070
     0
1002
}
1002
{
1000
MANEDIT
1070
     0
1002
}
1002
{
1000
NOSEL
1070
     0
1002
}
1002
{
1000
BEHIND
1070
     0
1002
}
1002
{
1000
REACTOR
1002
}
1001
GENIUS_GENOBJ-N-REC_13
1002
{
1000
OWNER
1000
GEN
1002
}
  0
LINE
  5
1690
330
1F
100
AcDbEntity
  8
SANINDUSA
100
AcDbLine
 10
5366.550429446487
 20
2002.371097300393
 30
0.0000000001479286
 11
5366.550429446487
 21
2002.373097300393
 31
0.0000000001479286
  0
ARC
  5
1691
330
1F
100
AcDbEntity
  8
SANINDUSA
100
AcDbCircle
 10
5366.551429446488
 20
2002.385897352687
 30
0.0000000001479286
 40
0.001
100
AcDbArc
 50
90.0
 51
180.0
  0
LINE
  5
1692
330
1F
100
AcDbEntity
  8
SANINDUSA
100
AcDbLine
 10
5366.550429446487
 20
2002.381897352687
 30
0.0000000001479286
 11
5366.550429446487
 21
2002.385897352687
 31
0.0000000001479286
  0
LINE
  5
1693
330
1F
100
AcDbEntity
  8
SANINDUSA
100
AcDbLine
 10
5366.603429446487
 20
2002.374197352687
 30
0.0000000001479286
 11
5366.603429446487
 21
2002.373197352687
 31
0.0000000001479286
1001
GENIUS_GENREC_14
1002
{
1000
PYDIR
1011
5366.467429446487
1021
2002.374197352687
1031
0.0000000001479286
1002
}
1002
{
1000
PXDIR
1011
5366.520429446488
1021
2002.373197352687
1031
0.0000000001479286
1002
}
1002
{
1000
PORI
1011
5366.467429446487
1021
2002.373197352687
1031
0.0000000001479286
1002
}
1002
{
1000
PINS
1011
5366.467429446487
1021
2002.373197352687
1031
0.0000000001479286
1002
}
1002
{
1000
PINS2
1011
5366.520429446488
1021
2002.374197352687
1031
0.0000000001479286
1002
}
1002
{
1000
C
1070
     1
1002
}
1001
GENIUS_GENODEF_13
1002
{
1000
HIER
1070
     0
1002
}
1002
{
1000
MANEDIT
1070
     0
1002
}
1002
{
1000
NOSEL
1070
     0
1002
}
1002
{
1000
BEHIND
1070
     0
1002
}
1002
{
1000
REACTOR
1002
}
1001
GENIUS_GENOBJ-N-REC_13
1002
{
1000
OWNER
1000
GEN
1002
}
  0
ARC
  5
1694
330
1F
100
AcDbEntity
  8
SANINDUSA
100
AcDbCircle
 10
5366.602429446487
 20
2002.385897352687
 30
0.0000000001479286
 40
0.001
100
AcDbArc
 50
0.0
 51
90.0
  0
LINE
  5
1695
330
1F
100
AcDbEntity
  8
SANINDUSA
100
AcDbLine
 10
5366.603429446487
 20
2002.381897352687
 30
0.0000000001479286
 11
5366.603429446487
 21
2002.385897352687
 31
0.0000000001479286
  0
LINE
  5
1696
330
1F
100
AcDbEntity
  8
SANINDUSA
100
AcDbLine
 10
5367.225582667186
 20
2002.380497356496
 30
0.0000000001479285
 11
5367.225582667186
 21
2002.374497356496
 31
0.0000000001479285
  0
LINE
  5
1697
330
1F
100
AcDbEntity
  8
SANINDUSA
100
AcDbLine
 10
5365.933918646487
 20
2002.380497352687
 30
0.0000000001557791
 11
5365.933918646487
 21
2002.374497352687
 31
0.0000000001553315
  0
LINE
  5
169C
330
1F
100
AcDbEntity
  8
SANINDUSA
 48
2.0
100
AcDbLine
 10
5366.706942314706
 20
2002.417147352687
 30
0.0000000001479286
 11
5366.706942314706
 21
2003.016302651874
 31
0.0000000001479286
  0
LINE
  5
169D
330
1F
100
AcDbEntity
  8
SANINDUSA
 48
2.0
100
AcDbLine
 10
5366.719942314706
 20
2002.417147352687
 30
0.0000000001479286
 11
5366.719942314706
 21
2003.016302651874
 31
0.0000000001479286
  0
LINE
  5
169E
330
1F
100
AcDbEntity
  8
SANINDUSA
100
AcDbLine
 10
5366.704442314706
 20
2003.033802651874
 30
0.0
 11
5366.704442314706
 21
2003.051052651874
 31
0.0
  0
LINE
  5
169F
330
1F
100
AcDbEntity
  8
SANINDUSA
100
AcDbLine
 10
5366.722442314706
 20
2003.033802651874
 30
0.0
 11
5366.722442314706
 21
2003.051052651874
 31
0.0
  0
LINE
  5
16A0
330
1F
100
AcDbEntity
  8
SANINDUSA
100
AcDbLine
 10
5366.714081314706
 20
2003.036772651874
 30
0.0
 11
5366.712803314706
 21
2003.036772651874
 31
0.0
  0
LINE
  5
16A1
330
1F
100
AcDbEntity
  8
SANINDUSA
100
AcDbLine
 10
5366.713442314706
 20
2003.033802651874
 30
0.0
 11
5366.712803314706
 21
2003.033802651874
 31
0.0
  0
LINE
  5
16A2
330
1F
100
AcDbEntity
  8
SANINDUSA
100
AcDbLine
 10
5366.713442314706
 20
2003.033802651874
 30
0.0
 11
5366.712803314706
 21
2003.033163651874
 31
0.0
  0
LINE
  5
16A3
330
1F
100
AcDbEntity
  8
SANINDUSA
100
AcDbLine
 10
5366.712803314706
 20
2003.034441651874
 30
0.0
 11
5366.713442314706
 21
2003.033802651874
 31
0.0
  0
LINE
  5
16A4
330
1F
100
AcDbEntity
  8
SANINDUSA
100
AcDbLine
 10
5366.712803314706
 20
2003.033163651874
 30
0.0
 11
5366.714081314706
 21
2003.033163651874
 31
0.0
  0
LINE
  5
16A5
330
1F
100
AcDbEntity
  8
SANINDUSA
100
AcDbLine
 10
5366.714081314706
 20
2003.034441651874
 30
0.0
 11
5366.712803314706
 21
2003.034441651874
 31
0.0
  0
LINE
  5
16A6
330
1F
100
AcDbEntity
  8
SANINDUSA
100
AcDbLine
 10
5366.712803314706
 20
2003.033163651874
 30
0.0
 11
5366.712803314706
 21
2003.034441651874
 31
0.0
  0
LINE
  5
16A7
330
1F
100
AcDbEntity
  8
SANINDUSA
100
AcDbLine
 10
5366.710472314707
 20
2003.034441651874
 30
0.0
 11
5366.710472314707
 21
2003.033163651874
 31
0.0
  0
LINE
  5
16A8
330
1F
100
AcDbEntity
  8
SANINDUSA
100
AcDbLine
 10
5366.710472314707
 20
2003.033163651874
 30
0.0
 11
5366.712323367889
 21
2003.033163651874
 31
0.0
  0
LINE
  5
16A9
330
1F
100
AcDbEntity
  8
SANINDUSA
100
AcDbLine
 10
5366.712323367889
 20
2003.034441651874
 30
0.0
 11
5366.710472314707
 21
2003.034441651874
 31
0.0
  0
LINE
  5
16AA
330
1F
100
AcDbEntity
  8
SANINDUSA
100
AcDbLine
 10
5366.712803314706
 20
2003.033163651874
 30
0.0
 11
5366.712323367889
 21
2003.033163651874
 31
0.0
  0
LINE
  5
16AB
330
1F
100
AcDbEntity
  8
SANINDUSA
100
AcDbLine
 10
5366.712803314706
 20
2003.034441651874
 30
0.0
 11
5366.712803314706
 21
2003.034921598691
 31
0.0
  0
LINE
  5
16AC
330
1F
100
AcDbEntity
  8
SANINDUSA
100
AcDbLine
 10
5366.712803314706
 20
2003.034921598691
 30
0.0
 11
5366.711342207566
 21
2003.035902759014
 31
0.0
  0
LINE
  5
16AD
330
1F
100
AcDbEntity
  8
SANINDUSA
100
AcDbLine
 10
5366.712323367889
 20
2003.034441651874
 30
0.0
 11
5366.712803314706
 21
2003.034441651874
 31
0.0
  0
LINE
  5
16AE
330
1F
100
AcDbEntity
  8
SANINDUSA
100
AcDbLine
 10
5366.711342207566
 20
2003.035902759014
 30
0.0
 11
5366.712803314706
 21
2003.034441651874
 31
0.0
  0
LINE
  5
16AF
330
1F
100
AcDbEntity
  8
SANINDUSA
100
AcDbLine
 10
5366.711342207566
 20
2003.035902759014
 30
0.0
 11
5366.712323367889
 21
2003.034441651874
 31
0.0
  0
LINE
  5
16B0
330
1F
100
AcDbEntity
  8
SANINDUSA
100
AcDbLine
 10
5366.714081314706
 20
2003.033802651874
 30
0.0
 11
5366.713442314706
 21
2003.033802651874
 31
0.0
  0
LINE
  5
16B1
330
1F
100
AcDbEntity
  8
SANINDUSA
100
AcDbLine
 10
5366.713442314706
 20
2003.033802651874
 30
0.0
 11
5366.713442314706
 21
2003.033163651874
 31
0.0
  0
LINE
  5
16B2
330
1F
100
AcDbEntity
  8
SANINDUSA
100
AcDbLine
 10
5366.714081314706
 20
2003.033163651874
 30
0.0
 11
5366.713442314706
 21
2003.033802651874
 31
0.0
  0
LINE
  5
16B3
330
1F
100
AcDbEntity
  8
SANINDUSA
100
AcDbLine
 10
5366.714081314706
 20
2003.034441651874
 30
0.0
 11
5366.714081314706
 21
2003.033163651874
 31
0.0
  0
LINE
  5
16B4
330
1F
100
AcDbEntity
  8
SANINDUSA
100
AcDbLine
 10
5366.713442314706
 20
2003.034441651874
 30
0.0
 11
5366.713442314706
 21
2003.033802651874
 31
0.0
  0
LINE
  5
16B5
330
1F
100
AcDbEntity
  8
SANINDUSA
100
AcDbLine
 10
5366.713442314706
 20
2003.033802651874
 30
0.0
 11
5366.714081314706
 21
2003.034441651874
 31
0.0
  0
LINE
  5
16B6
330
1F
100
AcDbEntity
  8
SANINDUSA
100
AcDbLine
 10
5366.714081314706
 20
2003.034441651874
 30
0.0
 11
5366.714561261523
 21
2003.034441651874
 31
0.0
  0
LINE
  5
16B7
330
1F
100
AcDbEntity
  8
SANINDUSA
100
AcDbLine
 10
5366.714561261523
 20
2003.034441651874
 30
0.0
 11
5366.715542421847
 21
2003.035902759014
 31
0.0
  0
LINE
  5
16B8
330
1F
100
AcDbEntity
  8
SANINDUSA
100
AcDbLine
 10
5366.714081314706
 20
2003.034921598691
 30
0.0
 11
5366.714081314706
 21
2003.034441651874
 31
0.0
  0
LINE
  5
16B9
330
1F
100
AcDbEntity
  8
SANINDUSA
100
AcDbLine
 10
5366.715542421847
 20
2003.035902759014
 30
0.0
 11
5366.714081314706
 21
2003.034441651874
 31
0.0
  0
LINE
  5
16BA
330
1F
100
AcDbEntity
  8
SANINDUSA
100
AcDbLine
 10
5366.715542421847
 20
2003.035902759014
 30
0.0
 11
5366.714081314706
 21
2003.034921598691
 31
0.0
  0
LINE
  5
16BB
330
1F
100
AcDbEntity
  8
SANINDUSA
100
AcDbLine
 10
5366.714561261523
 20
2003.033163651874
 30
0.0
 11
5366.714081314706
 21
2003.033163651874
 31
0.0
  0
LINE
  5
16BC
330
1F
100
AcDbEntity
  8
SANINDUSA
100
AcDbLine
 10
5366.716412314707
 20
2003.033163651874
 30
0.0
 11
5366.716412314707
 21
2003.034441651874
 31
0.0
  0
LINE
  5
16BD
330
1F
100
AcDbEntity
  8
SANINDUSA
100
AcDbLine
 10
5366.716412314707
 20
2003.034441651874
 30
0.0
 11
5366.714561261523
 21
2003.034441651874
 31
0.0
  0
LINE
  5
16BE
330
1F
100
AcDbEntity
  8
SANINDUSA
100
AcDbLine
 10
5366.714561261523
 20
2003.033163651874
 30
0.0
 11
5366.716412314707
 21
2003.033163651874
 31
0.0
  0
LINE
  5
16BF
330
1F
100
AcDbEntity
  8
SANINDUSA
100
AcDbLine
 10
5366.712803314706
 20
2003.036772651874
 30
0.0
 11
5366.712803314706
 21
2003.034921598691
 31
0.0
  0
LINE
  5
16C0
330
1F
100
AcDbEntity
  8
SANINDUSA
100
AcDbLine
 10
5366.714081314706
 20
2003.034921598691
 30
0.0
 11
5366.714081314706
 21
2003.036772651874
 31
0.0
  0
LINE
  5
16C1
330
1F
100
AcDbEntity
  8
SANINDUSA
100
AcDbLine
 10
5366.712803314706
 20
2003.030832651874
 30
0.0
 11
5366.714081314706
 21
2003.030832651874
 31
0.0
  0
LINE
  5
16C2
330
1F
100
AcDbEntity
  8
SANINDUSA
100
AcDbLine
 10
5366.721442314706
 20
2003.016302651874
 30
0.0
 11
5366.721442314706
 21
2003.029679546248
 31
0.0
  0
LINE
  5
16C3
330
1F
100
AcDbEntity
  8
SANINDUSA
100
AcDbLine
 10
5366.712803314706
 20
2003.032683705057
 30
0.0
 11
5366.712803314706
 21
2003.030832651874
 31
0.0
  0
LINE
  5
16C4
330
1F
100
AcDbEntity
  8
SANINDUSA
100
AcDbLine
 10
5366.711342207566
 20
2003.031702544734
 30
0.0
 11
5366.712803314706
 21
2003.032683705057
 31
0.0
  0
LINE
  5
16C5
330
1F
100
AcDbEntity
  8
SANINDUSA
100
AcDbLine
 10
5366.705442314707
 20
2003.023302651874
 30
0.0
 11
5366.721442314706
 21
2003.023302651874
 31
0.0
  0
LINE
  5
16C6
330
1F
100
AcDbEntity
  8
SANINDUSA
100
AcDbLine
 10
5366.714081314706
 20
2003.030832651874
 30
0.0
 11
5366.714081314706
 21
2003.032683705057
 31
0.0
  0
LINE
  5
16C7
330
1F
100
AcDbEntity
  8
SANINDUSA
100
AcDbLine
 10
5366.714081314706
 20
2003.032683705057
 30
0.0
 11
5366.715542421847
 21
2003.031702544734
 31
0.0
  0
LINE
  5
16C8
330
1F
100
AcDbEntity
  8
SANINDUSA
100
AcDbLine
 10
5366.705442314707
 20
2003.016302651874
 30
0.0
 11
5366.721442314706
 21
2003.016302651874
 31
0.0
  0
LINE
  5
16C9
330
1F
100
AcDbEntity
  8
SANINDUSA
100
AcDbLine
 10
5366.712323367889
 20
2003.033163651874
 30
0.0
 11
5366.711342207566
 21
2003.031702544734
 31
0.0
  0
LINE
  5
16CA
330
1F
100
AcDbEntity
  8
SANINDUSA
100
AcDbLine
 10
5366.712803314706
 20
2003.032683705057
 30
0.0
 11
5366.712803314706
 21
2003.033163651874
 31
0.0
  0
LINE
  5
16CB
330
1F
100
AcDbEntity
  8
SANINDUSA
100
AcDbLine
 10
5366.711342207566
 20
2003.031702544734
 30
0.0
 11
5366.712803314706
 21
2003.033163651874
 31
0.0
  0
LINE
  5
16CC
330
1F
100
AcDbEntity
  8
SANINDUSA
100
AcDbLine
 10
5366.714081314706
 20
2003.033163651874
 30
0.0
 11
5366.714081314706
 21
2003.032683705057
 31
0.0
  0
LINE
  5
16CD
330
1F
100
AcDbEntity
  8
SANINDUSA
100
AcDbLine
 10
5366.715542421847
 20
2003.031702544734
 30
0.0
 11
5366.714081314706
 21
2003.033163651874
 31
0.0
  0
LINE
  5
16CE
330
1F
100
AcDbEntity
  8
SANINDUSA
100
AcDbLine
 10
5366.715542421847
 20
2003.031702544734
 30
0.0
 11
5366.714561261523
 21
2003.033163651874
 31
0.0
  0
ARC
  5
16CF
330
1F
100
AcDbEntity
  8
SANINDUSA
100
AcDbCircle
 10
5366.713442314706
 20
2003.033802651874
 30
0.0
 40
0.009
100
AcDbArc
 50
180.0
 51
0.0
  0
LINE
  5
16D0
330
1F
100
AcDbEntity
  8
SANINDUSA
100
AcDbLine
 10
5366.705442314707
 20
2003.016302651874
 30
0.0
 11
5366.705442314707
 21
2003.029679546248
 31
0.0
  0
CIRCLE
  5
16D1
330
1F
100
AcDbEntity
  8
SANINDUSA
100
AcDbCircle
 10
5366.713442314706
 20
2003.033802651874
 30
0.0
 40
0.005085
  0
LINE
  5
16D2
330
1F
100
AcDbEntity
  8
SANINDUSA
100
AcDbLine
 10
5366.728442314706
 20
2003.056052651874
 30
0.0
 11
5366.728442314706
 21
2003.053052651874
 31
0.0
  0
LINE
  5
16D3
330
1F
100
AcDbEntity
  8
SANINDUSA
100
AcDbLine
 10
5366.698442314707
 20
2003.053052651874
 30
0.0
 11
5366.698442314707
 21
2003.056052651874
 31
0.0
  0
LINE
  5
16D4
330
1F
100
AcDbEntity
  8
SANINDUSA
100
AcDbLine
 10
5366.726442314706
 20
2003.051052651874
 30
0.0
 11
5366.700442314706
 21
2003.051052651874
 31
0.0
  0
ARC
  5
16D5
330
1F
100
AcDbEntity
  8
SANINDUSA
100
AcDbCircle
 10
5366.700442314706
 20
2003.053052651874
 30
0.0
 40
0.002
100
AcDbArc
 50
180.0
 51
270.0
  0
ARC
  5
16D6
330
1F
100
AcDbEntity
  8
SANINDUSA
100
AcDbCircle
 10
5366.726442314706
 20
2003.053052651874
 30
0.0
 40
0.002
100
AcDbArc
 50
270.0
 51
0.0
  0
LINE
  5
16D7
330
1F
100
AcDbEntity
  8
SANINDUSA
100
AcDbLine
 10
5366.698442314707
 20
2003.056052651874
 30
0.0
 11
5366.728442314706
 21
2003.056052651874
 31
0.0
  0
LINE
  5
16D8
330
1F
100
AcDbEntity
  8
SANINDUSA
100
AcDbLine
 10
5366.704442314706
 20
2002.399647352687
 30
0.0000000001479286
 11
5366.704442314706
 21
2002.382397352687
 31
0.0000000001479286
  0
LINE
  5
16D9
330
1F
100
AcDbEntity
  8
SANINDUSA
100
AcDbLine
 10
5366.705442314707
 20
2002.417147352687
 30
0.0000000001479286
 11
5366.705442314707
 21
2002.403770458312
 31
0.0000000001479286
  0
LINE
  5
16DA
330
1F
100
AcDbEntity
  8
SANINDUSA
100
AcDbLine
 10
5366.715542421847
 20
2002.397547245546
 30
0.0000000001479286
 11
5366.714081314706
 21
2002.39852840587
 31
0.0000000001479286
  0
LINE
  5
16DB
330
1F
100
AcDbEntity
  8
SANINDUSA
100
AcDbLine
 10
5366.712323367889
 20
2002.400286352687
 30
0.0000000001479286
 11
5366.711342207566
 21
2002.401747459827
 31
0.0000000001479286
  0
LINE
  5
16DC
330
1F
100
AcDbEntity
  8
SANINDUSA
100
AcDbLine
 10
5366.713442314706
 20
2002.399647352687
 30
0.0000000001479286
 11
5366.712803314706
 21
2002.399647352687
 31
0.0000000001479286
  0
LINE
  5
16DD
330
1F
100
AcDbEntity
  8
SANINDUSA
100
AcDbLine
 10
5366.712803314706
 20
2002.400286352687
 30
0.0000000001479286
 11
5366.712803314706
 21
2002.399008352687
 31
0.0000000001479286
  0
LINE
  5
16DE
330
1F
100
AcDbEntity
  8
SANINDUSA
100
AcDbLine
 10
5366.712803314706
 20
2002.399008352687
 30
0.0000000001479286
 11
5366.713442314706
 21
2002.399647352687
 31
0.0000000001479286
  0
LINE
  5
16DF
330
1F
100
AcDbEntity
  8
SANINDUSA
100
AcDbLine
 10
5366.713442314706
 20
2002.399008352687
 30
0.0000000001479286
 11
5366.713442314706
 21
2002.399647352687
 31
0.0000000001479286
  0
LINE
  5
16E0
330
1F
100
AcDbEntity
  8
SANINDUSA
100
AcDbLine
 10
5366.714081314706
 20
2002.399008352687
 30
0.0000000001479286
 11
5366.712803314706
 21
2002.399008352687
 31
0.0000000001479286
  0
LINE
  5
16E1
330
1F
100
AcDbEntity
  8
SANINDUSA
100
AcDbLine
 10
5366.712803314706
 20
2002.400286352687
 30
0.0000000001479286
 11
5366.712323367889
 21
2002.400286352687
 31
0.0000000001479286
  0
LINE
  5
16E2
330
1F
100
AcDbEntity
  8
SANINDUSA
100
AcDbLine
 10
5366.714081314706
 20
2002.39852840587
 30
0.0000000001479286
 11
5366.714081314706
 21
2002.399008352687
 31
0.0000000001479286
  0
LINE
  5
16E3
330
1F
100
AcDbEntity
  8
SANINDUSA
100
AcDbLine
 10
5366.722442314706
 20
2002.399647352687
 30
0.0000000001479286
 11
5366.722442314706
 21
2002.382397352687
 31
0.0000000001479286
  0
CIRCLE
  5
16E4
330
1F
100
AcDbEntity
  8
SANINDUSA
100
AcDbCircle
 10
5366.713442314706
 20
2002.399647352687
 30
0.0000000001479286
 40
0.005085
  0
ARC
  5
16E5
330
1F
100
AcDbEntity
  8
SANINDUSA
100
AcDbCircle
 10
5366.713442314706
 20
2002.399647352687
 30
0.0000000001479286
 40
0.009
100
AcDbArc
 50
0.0
 51
180.0
  0
LINE
  5
16E6
330
1F
100
AcDbEntity
  8
SANINDUSA
100
AcDbLine
 10
5366.714081314706
 20
2002.396677352687
 30
0.0000000001479286
 11
5366.712803314706
 21
2002.396677352687
 31
0.0000000001479286
  0
LINE
  5
16E7
330
1F
100
AcDbEntity
  8
SANINDUSA
100
AcDbLine
 10
5366.714081314706
 20
2002.39852840587
 30
0.0000000001479286
 11
5366.714081314706
 21
2002.396677352687
 31
0.0000000001479286
  0
LINE
  5
16E8
330
1F
100
AcDbEntity
  8
SANINDUSA
100
AcDbLine
 10
5366.690942314706
 20
2002.382397352687
 30
0.0000000001479286
 11
5366.735942314706
 21
2002.382397352687
 31
0.0000000001479286
  0
LINE
  5
16E9
330
1F
100
AcDbEntity
  8
SANINDUSA
100
AcDbLine
 10
5366.690942314706
 20
2002.364397352687
 30
0.0000000001479286
 11
5366.735942314706
 21
2002.364397352687
 31
0.0000000001479286
  0
LINE
  5
16EA
330
1F
100
AcDbEntity
  8
SANINDUSA
100
AcDbLine
 10
5366.735942314706
 20
2002.382397352687
 30
0.0000000001479286
 11
5366.735942314706
 21
2002.364397352687
 31
0.0000000001479286
  0
LINE
  5
16EB
330
1F
100
AcDbEntity
  8
SANINDUSA
100
AcDbLine
 10
5366.712803314706
 20
2002.396677352687
 30
0.0000000001479286
 11
5366.712803314706
 21
2002.39852840587
 31
0.0000000001479286
  0
LINE
  5
16EC
330
1F
100
AcDbEntity
  8
SANINDUSA
100
AcDbLine
 10
5366.710472314707
 20
2002.399008352687
 30
0.0000000001479286
 11
5366.710472314707
 21
2002.400286352687
 31
0.0000000001479286
  0
LINE
  5
16ED
330
1F
100
AcDbEntity
  8
SANINDUSA
100
AcDbLine
 10
5366.710472314707
 20
2002.400286352687
 30
0.0000000001479286
 11
5366.712323367889
 21
2002.400286352687
 31
0.0000000001479286
  0
LINE
  5
16EE
330
1F
100
AcDbEntity
  8
SANINDUSA
100
AcDbLine
 10
5366.712323367889
 20
2002.399008352687
 30
0.0000000001479286
 11
5366.710472314707
 21
2002.399008352687
 31
0.0000000001479286
  0
LINE
  5
16EF
330
1F
100
AcDbEntity
  8
SANINDUSA
100
AcDbLine
 10
5366.712803314706
 20
2002.399008352687
 30
0.0000000001479286
 11
5366.712803314706
 21
2002.39852840587
 31
0.0000000001479286
  0
LINE
  5
16F0
330
1F
100
AcDbEntity
  8
SANINDUSA
100
AcDbLine
 10
5366.712803314706
 20
2002.39852840587
 30
0.0000000001479286
 11
5366.711342207566
 21
2002.397547245546
 31
0.0000000001479286
  0
LINE
  5
16F1
330
1F
100
AcDbEntity
  8
SANINDUSA
100
AcDbLine
 10
5366.712323367889
 20
2002.399008352687
 30
0.0000000001479286
 11
5366.712803314706
 21
2002.399008352687
 31
0.0000000001479286
  0
LINE
  5
16F2
330
1F
100
AcDbEntity
  8
SANINDUSA
100
AcDbLine
 10
5366.711342207566
 20
2002.397547245546
 30
0.0000000001479286
 11
5366.712803314706
 21
2002.399008352687
 31
0.0000000001479286
  0
LINE
  5
16F3
330
1F
100
AcDbEntity
  8
SANINDUSA
100
AcDbLine
 10
5366.711342207566
 20
2002.397547245546
 30
0.0000000001479286
 11
5366.712323367889
 21
2002.399008352687
 31
0.0000000001479286
  0
LINE
  5
16F4
330
1F
100
AcDbEntity
  8
SANINDUSA
100
AcDbLine
 10
5366.690942314706
 20
2002.382397352687
 30
0.0000000001479286
 11
5366.690942314706
 21
2002.364397352687
 31
0.0000000001479286
  0
LINE
  5
16F5
330
1F
100
AcDbEntity
  8
SANINDUSA
100
AcDbLine
 10
5366.716412314707
 20
2002.400286352687
 30
0.0000000001479286
 11
5366.716412314707
 21
2002.399008352687
 31
0.0000000001479286
  0
LINE
  5
16F6
330
1F
100
AcDbEntity
  8
SANINDUSA
100
AcDbLine
 10
5366.714561261523
 20
2002.399008352687
 30
0.0000000001479286
 11
5366.715542421847
 21
2002.397547245546
 31
0.0000000001479286
  0
LINE
  5
16F7
330
1F
100
AcDbEntity
  8
SANINDUSA
100
AcDbLine
 10
5366.715542421847
 20
2002.397547245546
 30
0.0000000001479286
 11
5366.714081314706
 21
2002.399008352687
 31
0.0000000001479286
  0
LINE
  5
16F8
330
1F
100
AcDbEntity
  8
SANINDUSA
100
AcDbLine
 10
5366.716412314707
 20
2002.399008352687
 30
0.0000000001479286
 11
5366.714561261523
 21
2002.399008352687
 31
0.0000000001479286
  0
LINE
  5
16F9
330
1F
100
AcDbEntity
  8
SANINDUSA
100
AcDbLine
 10
5366.721442314706
 20
2002.417147352687
 30
0.0000000001479286
 11
5366.721442314706
 21
2002.403770458312
 31
0.0000000001479286
  0
LINE
  5
16FA
330
1F
100
AcDbEntity
  8
SANINDUSA
100
AcDbLine
 10
5366.705442314707
 20
2002.417147352687
 30
0.0000000001479286
 11
5366.721442314706
 21
2002.417147352687
 31
0.0000000001479286
  0
LINE
  5
16FB
330
1F
100
AcDbEntity
  8
SANINDUSA
100
AcDbLine
 10
5366.714081314706
 20
2002.402617352687
 30
0.0000000001479286
 11
5366.714081314706
 21
2002.400766299504
 31
0.0000000001479286
  0
LINE
  5
16FC
330
1F
100
AcDbEntity
  8
SANINDUSA
100
AcDbLine
 10
5366.714081314706
 20
2002.400766299504
 30
0.0000000001479286
 11
5366.715542421847
 21
2002.401747459827
 31
0.0000000001479286
  0
LINE
  5
16FD
330
1F
100
AcDbEntity
  8
SANINDUSA
100
AcDbLine
 10
5366.715542421847
 20
2002.401747459827
 30
0.0000000001479286
 11
5366.714081314706
 21
2002.400286352687
 31
0.0000000001479286
  0
LINE
  5
16FE
330
1F
100
AcDbEntity
  8
SANINDUSA
100
AcDbLine
 10
5366.715542421847
 20
2002.401747459827
 30
0.0000000001479286
 11
5366.714561261523
 21
2002.400286352687
 31
0.0000000001479286
  0
LINE
  5
16FF
330
1F
100
AcDbEntity
  8
SANINDUSA
100
AcDbLine
 10
5366.714561261523
 20
2002.400286352687
 30
0.0000000001479286
 11
5366.716412314707
 21
2002.400286352687
 31
0.0000000001479286
  0
LINE
  5
1700
330
1F
100
AcDbEntity
  8
SANINDUSA
100
AcDbLine
 10
5366.714081314706
 20
2002.400286352687
 30
0.0000000001479286
 11
5366.714081314706
 21
2002.400766299504
 31
0.0000000001479286
  0
LINE
  5
1701
330
1F
100
AcDbEntity
  8
SANINDUSA
100
AcDbLine
 10
5366.714561261523
 20
2002.400286352687
 30
0.0000000001479286
 11
5366.714081314706
 21
2002.400286352687
 31
0.0000000001479286
  0
LINE
  5
1702
330
1F
100
AcDbEntity
  8
SANINDUSA
100
AcDbLine
 10
5366.712803314706
 20
2002.402617352687
 30
0.0000000001479286
 11
5366.714081314706
 21
2002.402617352687
 31
0.0000000001479286
  0
LINE
  5
1703
330
1F
100
AcDbEntity
  8
SANINDUSA
100
AcDbLine
 10
5366.711342207566
 20
2002.401747459827
 30
0.0000000001479286
 11
5366.712803314706
 21
2002.400286352687
 31
0.0000000001479286
  0
LINE
  5
1704
330
1F
100
AcDbEntity
  8
SANINDUSA
100
AcDbLine
 10
5366.711342207566
 20
2002.401747459827
 30
0.0000000001479286
 11
5366.712803314706
 21
2002.400766299504
 31
0.0000000001479286
  0
LINE
  5
1705
330
1F
100
AcDbEntity
  8
SANINDUSA
100
AcDbLine
 10
5366.714081314706
 20
2002.399647352687
 30
0.0000000001479286
 11
5366.713442314706
 21
2002.399647352687
 31
0.0000000001479286
  0
LINE
  5
1706
330
1F
100
AcDbEntity
  8
SANINDUSA
100
AcDbLine
 10
5366.713442314706
 20
2002.399647352687
 30
0.0000000001479286
 11
5366.712803314706
 21
2002.400286352687
 31
0.0000000001479286
  0
LINE
  5
1707
330
1F
100
AcDbEntity
  8
SANINDUSA
100
AcDbLine
 10
5366.713442314706
 20
2002.399647352687
 30
0.0000000001479286
 11
5366.713442314706
 21
2002.400286352687
 31
0.0000000001479286
  0
LINE
  5
1708
330
1F
100
AcDbEntity
  8
SANINDUSA
100
AcDbLine
 10
5366.713442314706
 20
2002.399647352687
 30
0.0000000001479286
 11
5366.714081314706
 21
2002.399008352687
 31
0.0000000001479286
  0
LINE
  5
1709
330
1F
100
AcDbEntity
  8
SANINDUSA
100
AcDbLine
 10
5366.712803314706
 20
2002.400766299504
 30
0.0000000001479286
 11
5366.712803314706
 21
2002.400286352687
 31
0.0000000001479286
  0
LINE
  5
170A
330
1F
100
AcDbEntity
  8
SANINDUSA
100
AcDbLine
 10
5366.714081314706
 20
2002.399008352687
 30
0.0000000001479286
 11
5366.714561261523
 21
2002.399008352687
 31
0.0000000001479286
  0
LINE
  5
170B
330
1F
100
AcDbEntity
  8
SANINDUSA
100
AcDbLine
 10
5366.712803314706
 20
2002.400766299504
 30
0.0000000001479286
 11
5366.712803314706
 21
2002.402617352687
 31
0.0000000001479286
  0
LINE
  5
170C
330
1F
100
AcDbEntity
  8
SANINDUSA
100
AcDbLine
 10
5366.714081314706
 20
2002.400286352687
 30
0.0000000001479286
 11
5366.713442314706
 21
2002.399647352687
 31
0.0000000001479286
  0
LINE
  5
170D
330
1F
100
AcDbEntity
  8
SANINDUSA
100
AcDbLine
 10
5366.714081314706
 20
2002.399008352687
 30
0.0000000001479286
 11
5366.714081314706
 21
2002.400286352687
 31
0.0000000001479286
  0
LINE
  5
170E
330
1F
100
AcDbEntity
  8
SANINDUSA
100
AcDbLine
 10
5366.712803314706
 20
2002.400286352687
 30
0.0000000001479286
 11
5366.714081314706
 21
2002.400286352687
 31
0.0000000001479286
  0
LINE
  5
170F
330
1F
100
AcDbEntity
  8
SANINDUSA
100
AcDbLine
 10
5366.705442314707
 20
2002.410147352687
 30
0.0000000001479286
 11
5366.721442314706
 21
2002.410147352687
 31
0.0000000001479286
  0
CIRCLE
  5
1714
330
1F
100
AcDbEntity
  8
SANINDUSA
100
AcDbCircle
 10
5366.535429446487
 20
2002.363097300393
 30
0.0000000001479286
 40
0.008
  0
HATCH
  5
1761
330
1F
100
AcDbEntity
  8
SANINDUSA
100
AcDbHatch
 10
0.0
 20
0.0
 30
0.0000000001555553
210
0.0
220
0.0
230
1.0
  2
ANSI31
 70
     0
 71
     0
 91
        1
 92
        1
 93
        8
 72
     1
 10
5365.923839553286
 20
2002.382801572154
 11
5365.923132446504
 21
2002.383508678935
 72
     1
 10
5365.923132446504
 20
2002.383508678935
 11
5365.918182699036
 21
2002.378558931467
 72
     1
 10
5365.918182699036
 20
2002.378558931467
 11
5365.918889805818
 21
2002.377851824686
 72
     1
 10
5365.918889805818
 20
2002.377851824686
 11
5365.919596912599
 21
2002.378558931467
 72
     1
 10
5365.919596912599
 20
2002.378558931467
 11
5365.92065757277
 21
2002.377498271295
 72
     1
 10
5365.92065757277
 20
2002.377498271295
 11
5365.924193106677
 21
2002.381033805201
 72
     1
 10
5365.924193106677
 20
2002.381033805201
 11
5365.923132446504
 21
2002.382094465373
 72
     1
 10
5365.923132446504
 20
2002.382094465373
 11
5365.923839553286
 21
2002.382801572154
 97
        0
 75
     0
 76
     1
 52
-0.0000000000000127
 41
0.00025
 77
     0
 78
     1
 53
360.0
 43
5365.918194029095
 44
2002.383497348877
 45
-0.0000000000000002
 46
0.00079375
 79
     0
 98
        1
 10
5365.918194029095
 20
2002.383497348877
  0
LINE
  5
1762
330
1F
100
AcDbEntity
  8
SANINDUSA
100
AcDbLine
 10
5365.933918646487
 20
2002.380497352687
 30
0.0000000001557791
 11
5366.533929446488
 21
2002.380497352687
 31
0.0000000001557791
  0
LINE
  5
1763
330
1F
100
AcDbEntity
  8
SANINDUSA
100
AcDbLine
 10
5365.933918646487
 20
2002.374497352687
 30
0.0000000001553315
 11
5366.533929446488
 21
2002.374497352687
 31
0.0000000001553315
  0
LINE
  5
1764
330
1F
100
AcDbEntity
  8
SANINDUSA
100
AcDbLine
 10
5367.225582667186
 20
2002.380497356496
 30
0.0000000001479285
 11
5366.536593467186
 21
2002.380497356496
 31
0.0000000001479285
  0
LINE
  5
1765
330
1F
100
AcDbEntity
  8
SANINDUSA
100
AcDbLine
 10
5367.225582667186
 20
2002.374497356496
 30
0.0000000001479285
 11
5366.536593467186
 21
2002.374497356496
 31
0.0000000001479285
  0
LINE
  5
1766
330
1F
100
AcDbEntity
  8
SANINDUSA
100
AcDbLine
 10
5366.533929446488
 20
2002.374497356496
 30
0.0000000001479285
 11
5366.533929446488
 21
2002.380497356496
 31
0.0000000001479285
  0
ARC
  5
1F6D
330
1F
100
AcDbEntity
  8
SANINDUSA
100
AcDbCircle
 10
5368.172316648909
 20
2003.268997084763
 30
-0.0000000017937957
 40
0.001
100
AcDbArc
 50
0.0
 51
90.0
  0
LINE
  5
1F6E
330
1F
100
AcDbEntity
  8
SANINDUSA
100
AcDbLine
 10
5368.097316648908
 20
2003.269997084763
 30
-0.0000000017937957
 11
5368.03831664891
 21
2003.269997084763
 31
-0.0000000017937957
  0
ARC
  5
1F6F
330
1F
100
AcDbEntity
  8
SANINDUSA
100
AcDbCircle
 10
5368.03831664891
 20
2003.268997084763
 30
-0.0000000017937957
 40
0.001
100
AcDbArc
 50
90.0
 51
180.0
  0
ARC
  5
1F70
330
1F
100
AcDbEntity
  8
SANINDUSA
100
AcDbCircle
 10
5368.098316648908
 20
2003.275497084763
 30
-0.0000000017937957
 40
0.001
100
AcDbArc
 50
90.0
 51
180.0
  0
LINE
  5
1F71
330
1F
100
AcDbEntity
  8
SANINDUSA
100
AcDbLine
 10
5368.097316648908
 20
2003.275497084763
 30
-0.0000000017937957
 11
5368.097316648908
 21
2003.269997084763
 31
-0.0000000017937957
  0
LINE
  5
1F72
330
1F
100
AcDbEntity
  8
SANINDUSA
100
AcDbLine
 10
5368.097816648909
 20
2003.254497084763
 30
-0.0000000017937957
 11
5368.097816648909
 21
2003.250497084763
 31
-0.0000000017937957
  0
LINE
  5
1F73
330
1F
100
AcDbEntity
  8
SANINDUSA
100
AcDbLine
 10
5368.097316648908
 20
2003.269997084763
 30
-0.0000000017937957
 11
5368.097316648908
 21
2003.254497084763
 31
-0.0000000017937957
  0
ARC
  5
1F74
330
1F
100
AcDbEntity
  8
SANINDUSA
100
AcDbCircle
 10
5368.112316648908
 20
2003.275497084763
 30
-0.0000000017937957
 40
0.001
100
AcDbArc
 50
0.0
 51
90.0
  0
LINE
  5
1F75
330
1F
100
AcDbEntity
  8
SANINDUSA
100
AcDbLine
 10
5368.112316648908
 20
2003.276497084763
 30
-0.0000000017937957
 11
5368.098316648908
 21
2003.276497084763
 31
-0.0000000017937957
  0
LINE
  5
1F76
330
1F
100
AcDbEntity
  8
SANINDUSA
100
AcDbLine
 10
5368.112816648909
 20
2003.254497084763
 30
-0.0000000017937957
 11
5368.112816648909
 21
2003.250497084763
 31
-0.0000000017937957
  0
LINE
  5
1F77
330
1F
100
AcDbEntity
  8
SANINDUSA
100
AcDbLine
 10
5368.113316648909
 20
2003.250497084763
 30
-0.0000000017937957
 11
5368.114205537797
 21
2003.250497084763
 31
-0.0000000017937957
  0
LINE
  5
1F78
330
1F
100
AcDbEntity
  8
SANINDUSA
100
AcDbLine
 10
5368.096427760019
 20
2003.254497084763
 30
-0.0000000017937957
 11
5368.113316648909
 21
2003.254497084763
 31
-0.0000000017937957
  0
LINE
  5
1F79
330
1F
100
AcDbEntity
  8
SANINDUSA
100
AcDbLine
 10
5368.113316648909
 20
2003.250497084763
 30
-0.0000000017937957
 11
5368.097316648908
 21
2003.250497084763
 31
-0.0000000017937957
  0
LINE
  5
1F7A
330
1F
100
AcDbEntity
  8
SANINDUSA
100
AcDbLine
 10
5368.113316648909
 20
2003.254497084763
 30
-0.0000000017937957
 11
5368.113316648909
 21
2003.275497084763
 31
-0.0000000017937957
  0
LINE
  5
1F7B
330
1F
100
AcDbEntity
  8
SANINDUSA
100
AcDbLine
 10
5368.114205537797
 20
2003.250497084763
 30
-0.0000000017937957
 11
5368.114205537797
 21
2003.269997084763
 31
-0.0000000017937957
  0
LINE
  5
1F7C
330
1F
100
AcDbEntity
  8
SANINDUSA
100
AcDbLine
 10
5368.114205537797
 20
2003.269997084763
 30
-0.0000000017937957
 11
5368.172316648909
 21
2003.269997084763
 31
-0.0000000017937957
  0
ARC
  5
1F7D
330
1F
100
AcDbEntity
  8
SANINDUSA
100
AcDbCircle
 10
5368.172316648909
 20
2003.235997084763
 30
-0.0000000017937957
 40
0.001
100
AcDbArc
 50
270.0
 51
0.0
  0
ARC
  5
1F7E
330
1F
100
AcDbEntity
  8
SANINDUSA
100
AcDbCircle
 10
5368.098316648908
 20
2003.229497084763
 30
-0.0000000017937957
 40
0.001
100
AcDbArc
 50
180.0
 51
270.0
  0
ARC
  5
1F7F
330
1F
100
AcDbEntity
  8
SANINDUSA
100
AcDbCircle
 10
5368.112316648908
 20
2003.229497084763
 30
-0.0000000017937957
 40
0.001
100
AcDbArc
 50
270.0
 51
0.0
  0
LINE
  5
1F80
330
1F
100
AcDbEntity
  8
SANINDUSA
100
AcDbLine
 10
5368.098316648908
 20
2003.228497084763
 30
-0.0000000017937957
 11
5368.112316648908
 21
2003.228497084763
 31
-0.0000000017937957
  0
LINE
  5
1F81
330
1F
100
AcDbEntity
  8
SANINDUSA
100
AcDbLine
 10
5368.03831664891
 20
2003.234997084763
 30
-0.0000000017937957
 11
5368.096427760019
 21
2003.234997084763
 31
-0.0000000017937957
  0
ARC
  5
1F82
330
1F
100
AcDbEntity
  8
SANINDUSA
100
AcDbCircle
 10
5368.03831664891
 20
2003.235997084763
 30
-0.0000000017937957
 40
0.001
100
AcDbArc
 50
180.0
 51
270.0
  0
LINE
  5
1F83
330
1F
100
AcDbEntity
  8
SANINDUSA
100
AcDbLine
 10
5368.172316648909
 20
2003.234997084763
 30
-0.0000000017937957
 11
5368.113316648909
 21
2003.234997084763
 31
-0.0000000017937957
  0
LINE
  5
1F84
330
1F
100
AcDbEntity
  8
SANINDUSA
100
AcDbLine
 10
5368.097316648908
 20
2003.250497084763
 30
-0.0000000017937957
 11
5368.097316648908
 21
2003.229497084763
 31
-0.0000000017937957
  0
LINE
  5
1F85
330
1F
100
AcDbEntity
  8
SANINDUSA
100
AcDbLine
 10
5368.113316648909
 20
2003.229497084763
 30
-0.0000000017937957
 11
5368.113316648909
 21
2003.250497084763
 31
-0.0000000017937957
  0
LINE
  5
1F86
330
1F
100
AcDbEntity
  8
SANINDUSA
100
AcDbLine
 10
5368.037316648909
 20
2003.268997084763
 30
-0.0000000017937957
 11
5368.037316648909
 21
2003.235997084763
 31
-0.0000000017937957
  0
LINE
  5
1F87
330
1F
100
AcDbEntity
  8
SANINDUSA
100
AcDbLine
 10
5368.096427760019
 20
2003.234997084763
 30
-0.0000000017937957
 11
5368.096427760019
 21
2003.254497084763
 31
-0.0000000017937957
  0
LINE
  5
1F88
330
1F
100
AcDbEntity
  8
SANINDUSA
100
AcDbLine
 10
5368.173316648909
 20
2003.268997084763
 30
-0.0000000017937957
 11
5368.173316648909
 21
2003.235997084763
 31
-0.0000000017937957
  0
ARC
  5
1F8A
330
1F
100
AcDbEntity
  8
SANINDUSA
100
AcDbCircle
 10
5368.172316648909
 20
2002.008997084772
 30
-0.0000000017937957
 40
0.001
100
AcDbArc
 50
0.0
 51
90.0
  0
LINE
  5
1F8B
330
1F
100
AcDbEntity
  8
SANINDUSA
100
AcDbLine
 10
5368.173316648909
 20
2002.008997084772
 30
-0.0000000017937957
 11
5368.173316648909
 21
2001.975997084773
 31
-0.0000000017937957
  0
ARC
  5
1F8C
330
1F
100
AcDbEntity
  8
SANINDUSA
100
AcDbCircle
 10
5368.172316648909
 20
2001.975997084773
 30
-0.0000000017937957
 40
0.001
100
AcDbArc
 50
270.0
 51
0.0
  0
ARC
  5
1F8D
330
1F
100
AcDbEntity
  8
SANINDUSA
100
AcDbCircle
 10
5368.098316648908
 20
2002.015497084772
 30
-0.0000000017937957
 40
0.001
100
AcDbArc
 50
90.0
 51
180.0
  0
ARC
  5
1F8E
330
1F
100
AcDbEntity
  8
SANINDUSA
100
AcDbCircle
 10
5368.112316648908
 20
2002.015497084772
 30
-0.0000000017937957
 40
0.001
100
AcDbArc
 50
0.0
 51
90.0
  0
LINE
  5
1F8F
330
1F
100
AcDbEntity
  8
SANINDUSA
100
AcDbLine
 10
5368.097316648908
 20
2002.009997084773
 30
-0.0000000017937957
 11
5368.03831664891
 21
2002.009997084773
 31
-0.0000000017937957
  0
LINE
  5
1F90
330
1F
100
AcDbEntity
  8
SANINDUSA
100
AcDbLine
 10
5368.03831664891
 20
2001.974997084772
 30
-0.0000000017937957
 11
5368.096427760019
 21
2001.974997084772
 31
-0.0000000017937957
  0
ARC
  5
1F91
330
1F
100
AcDbEntity
  8
SANINDUSA
100
AcDbCircle
 10
5368.03831664891
 20
2002.008997084772
 30
-0.0000000017937957
 40
0.001
100
AcDbArc
 50
90.0
 51
180.0
  0
ARC
  5
1F92
330
1F
100
AcDbEntity
  8
SANINDUSA
100
AcDbCircle
 10
5368.03831664891
 20
2001.975997084773
 30
-0.0000000017937957
 40
0.001
100
AcDbArc
 50
180.0
 51
270.0
  0
LINE
  5
1F93
330
1F
100
AcDbEntity
  8
SANINDUSA
100
AcDbLine
 10
5368.037316648909
 20
2002.008997084772
 30
-0.0000000017937957
 11
5368.037316648909
 21
2001.975997084773
 31
-0.0000000017937957
  0
LINE
  5
1F94
330
1F
100
AcDbEntity
  8
SANINDUSA
100
AcDbLine
 10
5368.097316648908
 20
2002.015497084772
 30
-0.0000000017937957
 11
5368.097316648908
 21
2002.009997084773
 31
-0.0000000017937957
  0
LINE
  5
1F95
330
1F
100
AcDbEntity
  8
SANINDUSA
100
AcDbLine
 10
5368.097316648908
 20
2001.990497084773
 30
-0.0000000017937957
 11
5368.097316648908
 21
2001.969497084772
 31
-0.0000000017937957
  0
LINE
  5
1F96
330
1F
100
AcDbEntity
  8
SANINDUSA
100
AcDbLine
 10
5368.096427760019
 20
2001.974997084772
 30
-0.0000000017937957
 11
5368.096427760019
 21
2001.994497084773
 31
-0.0000000017937957
  0
ARC
  5
1F97
330
1F
100
AcDbEntity
  8
SANINDUSA
100
AcDbCircle
 10
5368.098316648908
 20
2001.969497084772
 30
-0.0000000017937957
 40
0.001
100
AcDbArc
 50
180.0
 51
270.0
  0
LINE
  5
1F98
330
1F
100
AcDbEntity
  8
SANINDUSA
100
AcDbLine
 10
5368.097816648909
 20
2001.994497084773
 30
-0.0000000017937957
 11
5368.097816648909
 21
2001.990497084773
 31
-0.0000000017937957
  0
LINE
  5
1F99
330
1F
100
AcDbEntity
  8
SANINDUSA
100
AcDbLine
 10
5368.097316648908
 20
2002.009997084773
 30
-0.0000000017937957
 11
5368.097316648908
 21
2001.994497084773
 31
-0.0000000017937957
  0
LINE
  5
1F9A
330
1F
100
AcDbEntity
  8
SANINDUSA
100
AcDbLine
 10
5368.112316648908
 20
2002.016497084772
 30
-0.0000000017937957
 11
5368.098316648908
 21
2002.016497084772
 31
-0.0000000017937957
  0
LINE
  5
1F9B
330
1F
100
AcDbEntity
  8
SANINDUSA
100
AcDbLine
 10
5368.113316648909
 20
2001.969497084772
 30
-0.0000000017937957
 11
5368.113316648909
 21
2001.990497084773
 31
-0.0000000017937957
  0
ARC
  5
1F9C
330
1F
100
AcDbEntity
  8
SANINDUSA
100
AcDbCircle
 10
5368.112316648908
 20
2001.969497084772
 30
-0.0000000017937957
 40
0.001
100
AcDbArc
 50
270.0
 51
0.0
  0
LINE
  5
1F9D
330
1F
100
AcDbEntity
  8
SANINDUSA
100
AcDbLine
 10
5368.112816648909
 20
2001.994497084773
 30
-0.0000000017937957
 11
5368.112816648909
 21
2001.990497084773
 31
-0.0000000017937957
  0
LINE
  5
1F9E
330
1F
100
AcDbEntity
  8
SANINDUSA
100
AcDbLine
 10
5368.113316648909
 20
2001.990497084773
 30
-0.0000000017937957
 11
5368.114205537797
 21
2001.990497084773
 31
-0.0000000017937957
  0
LINE
  5
1F9F
330
1F
100
AcDbEntity
  8
SANINDUSA
100
AcDbLine
 10
5368.098316648908
 20
2001.968497084773
 30
-0.0000000017937957
 11
5368.112316648908
 21
2001.968497084773
 31
-0.0000000017937957
  0
LINE
  5
1FA0
330
1F
100
AcDbEntity
  8
SANINDUSA
100
AcDbLine
 10
5368.096427760019
 20
2001.994497084773
 30
-0.0000000017937957
 11
5368.113316648909
 21
2001.994497084773
 31
-0.0000000017937957
  0
LINE
  5
1FA1
330
1F
100
AcDbEntity
  8
SANINDUSA
100
AcDbLine
 10
5368.113316648909
 20
2001.990497084773
 30
-0.0000000017937957
 11
5368.097316648908
 21
2001.990497084773
 31
-0.0000000017937957
  0
LINE
  5
1FA2
330
1F
100
AcDbEntity
  8
SANINDUSA
100
AcDbLine
 10
5368.113316648909
 20
2001.994497084773
 30
-0.0000000017937957
 11
5368.113316648909
 21
2002.015497084772
 31
-0.0000000017937957
  0
LINE
  5
1FA3
330
1F
100
AcDbEntity
  8
SANINDUSA
100
AcDbLine
 10
5368.114205537797
 20
2001.990497084773
 30
-0.0000000017937957
 11
5368.114205537797
 21
2002.009997084773
 31
-0.0000000017937957
  0
LINE
  5
1FA4
330
1F
100
AcDbEntity
  8
SANINDUSA
100
AcDbLine
 10
5368.114205537797
 20
2002.009997084773
 30
-0.0000000017937957
 11
5368.172316648909
 21
2002.009997084773
 31
-0.0000000017937957
  0
LINE
  5
1FA5
330
1F
100
AcDbEntity
  8
SANINDUSA
100
AcDbLine
 10
5368.172316648909
 20
2001.974997084772
 30
-0.0000000017937957
 11
5368.113316648909
 21
2001.974997084772
 31
-0.0000000017937957
  0
LINE
  5
1FAB
330
1F
100
AcDbEntity
  8
SANINDUSA
  6
Continuous
100
AcDbLine
 10
5368.103816648909
 20
2003.547497084773
 30
0.0
 11
5367.463375784296
 21
2003.547497084773
 31
0.0
  0
LINE
  5
1FAC
330
1F
100
AcDbEntity
  8
SANINDUSA
100
AcDbLine
 10
5368.103816648909
 20
2001.707497084773
 30
0.0
 11
5367.479412426123
 21
2001.707497084773
 31
0.0
  0
LINE
  5
1FAE
330
1F
100
AcDbEntity
  8
SANINDUSA
  6
Continuous
100
AcDbLine
 10
5368.832780141418
 20
2001.697497084772
 30
0.0
 11
5367.443234380769
 21
2001.697497084772
 31
0.0
  0
LINE
  5
1FAF
330
1F
100
AcDbEntity
  8
SANINDUSA
100
AcDbLine
 10
5367.489663392578
 20
2001.707497084773
 30
0.0
 11
5367.489663392578
 21
2003.547497084773
 31
0.0
  0
LINE
  5
1FB0
330
1F
100
AcDbEntity
  8
SANINDUSA
100
AcDbLine
 10
5367.457675784296
 20
2001.707497084773
 30
0.0
 11
5367.457675784296
 21
2003.547497084773
 31
0.0
  0
LINE
  5
1FB1
330
1F
100
AcDbEntity
  8
SANINDUSA
100
AcDbLine
 10
5367.451675784296
 20
2001.707497084773
 30
0.0
 11
5367.451675784296
 21
2003.547497084773
 31
0.0
  0
LINE
  5
1FB2
330
1F
100
AcDbEntity
  8
SANINDUSA
100
AcDbLine
 10
5367.439375784297
 20
2001.697497084772
 30
0.0
 11
5367.439375784297
 21
2003.547497084773
 31
0.0
  0
LINE
  5
1FB3
330
1F
100
AcDbEntity
  8
SANINDUSA
100
AcDbLine
 10
5367.479077450655
 20
2001.697497084772
 30
0.0
 11
5367.479077450655
 21
2003.547497084773
 31
0.0
  0
LINE
  5
1FB8
330
1F
100
AcDbEntity
  8
SANINDUSA
100
AcDbLine
 10
5367.457675784296
 20
2001.707497084773
 30
0.0
 11
5367.451675784296
 21
2001.707497084773
 31
0.0
  0
LINE
  5
1FB9
330
1F
100
AcDbEntity
  8
SANINDUSA
100
AcDbLine
 10
5367.463375784296
 20
2003.547497084773
 30
0.0
 11
5367.439375784297
 21
2003.547497084773
 31
0.0
  0
LINE
  5
1FBA
330
1F
100
AcDbEntity
  8
SANINDUSA
  6
Continuous
100
AcDbLine
 10
5368.103816648909
 20
2002.016497084772
 30
0.0
 11
5368.103816648909
 21
2003.228497084763
 31
0.0
  0
LINE
  5
1FBB
330
1F
100
AcDbEntity
  8
SANINDUSA
  6
Continuous
100
AcDbLine
 10
5368.106816648908
 20
2002.016497084772
 30
0.0
 11
5368.106816648908
 21
2003.228497084763
 31
0.0
  0
LINE
  5
1FBC
330
1F
100
AcDbEntity
  8
SANINDUSA
  6
Continuous
100
AcDbLine
 10
5368.784849437036
 20
2001.697497084772
 30
0.0
 11
5368.784849437036
 21
2003.547497084773
 31
0.0
  0
LINE
  5
1FBD
330
1F
100
AcDbEntity
  8
SANINDUSA
  6
Continuous
100
AcDbLine
 10
5368.839699437035
 20
2001.697497084772
 30
0.0
 11
5368.839699437035
 21
2003.547497084773
 31
0.0
  0
LINE
  5
1FC2
330
1F
100
AcDbEntity
  8
SANINDUSA
  6
Continuous
100
AcDbLine
 10
5368.106816648908
 20
2001.697497084772
 30
0.0
 11
5368.106816648908
 21
2001.968497084773
 31
0.0
  0
LINE
  5
1FC3
330
1F
100
AcDbEntity
  8
SANINDUSA
  6
Continuous
100
AcDbLine
 10
5368.103816648909
 20
2001.707497084773
 30
0.0
 11
5368.103816648909
 21
2001.968497084773
 31
0.0
  0
LINE
  5
1FC5
330
1F
100
AcDbEntity
  8
SANINDUSA
  6
Continuous
100
AcDbLine
 10
5368.839699437035
 20
2003.547497084773
 30
0.0
 11
5368.106816648908
 21
2003.547497084773
 31
0.0
  0
LINE
  5
1FC6
330
1F
100
AcDbEntity
  8
SANINDUSA
  6
Continuous
100
AcDbLine
 10
5368.106816648908
 20
2003.276497084763
 30
0.0
 11
5368.106816648908
 21
2003.547497084773
 31
0.0
  0
LINE
  5
1FC7
330
1F
100
AcDbEntity
  8
SANINDUSA
  6
Continuous
100
AcDbLine
 10
5368.103816648909
 20
2003.276497084763
 30
0.0
 11
5368.103816648909
 21
2003.547497084773
 31
0.0
  0
LINE
  5
2174
330
1F
100
AcDbEntity
  8
SANINDUSA
100
AcDbLine
 10
5367.441706469332
 20
2003.547497084773
 30
0.0
 11
5367.441706469332
 21
2001.697257913129
 31
0.0
  0
LINE
  5
2178
330
1F
100
AcDbEntity
  8
SANINDUSA
100
AcDbLine
 10
5367.515663392577
 20
2003.547497084773
 30
0.0000000001555553
 11
5367.515663392577
 21
2001.707497084773
 31
0.0000000001555553
  0
ARC
  5
21C1
330
1F
100
AcDbEntity
  8
SANINDUSA
100
AcDbCircle
 10
5365.873309490947
 20
2002.385197348877
 30
0.0
 40
0.0009999999999999
100
AcDbArc
 50
90.0
 51
180.0
  0
LINE
  5
21C2
330
1F
100
AcDbEntity
  8
SANINDUSA
100
AcDbLine
 10
5365.872309490947
 20
2002.38421156244
 30
0.0
 11
5365.872309490947
 21
2002.385197348877
 31
0.0
  0
LINE
  5
21C3
330
1F
100
AcDbEntity
  8
SANINDUSA
100
AcDbLine
 10
5365.873309490947
 20
2002.386197348877
 30
0.0
 11
5365.908332795078
 21
2002.386197348877
 31
0.0
  0
ARC
  5
21C4
330
1F
100
AcDbEntity
  8
SANINDUSA
100
AcDbCircle
 10
5365.873309490947
 20
2002.38421156244
 30
0.0
 40
0.0010000000000003
100
AcDbArc
 50
180.0
 51
225.0
  0
ARC
  5
21C5
330
1F
100
AcDbEntity
  8
SANINDUSA
100
AcDbCircle
 10
5365.908332795078
 20
2002.385197348877
 30
0.0
 40
0.001
100
AcDbArc
 50
270.0
 51
90.0
  0
LINE
  5
21C6
330
1F
100
AcDbEntity
  8
SANINDUSA
100
AcDbLine
 10
5365.873516597727
 20
2002.382590242096
 30
0.0
 11
5365.872602384166
 21
2002.383504455659
 31
0.0
  0
LINE
  5
21C7
330
1F
100
AcDbEntity
  8
SANINDUSA
100
AcDbLine
 10
5365.908332795078
 20
2002.384197348877
 30
0.0
 11
5365.876809490947
 21
2002.384197348877
 31
0.0
  0
ARC
  5
21C8
330
1F
100
AcDbEntity
  8
SANINDUSA
100
AcDbCircle
 10
5365.872809490946
 20
2002.381883135315
 30
0.0
 40
0.0010000000000003
100
AcDbArc
 50
0.0
 51
45.0
  0
ARC
  5
21C9
330
1F
100
AcDbEntity
  8
SANINDUSA
100
AcDbCircle
 10
5365.876809490947
 20
2002.383197348877
 30
0.0
 40
0.001
100
AcDbArc
 50
90.0
 51
180.0
  0
LINE
  5
21CA
330
1F
100
AcDbEntity
  8
SANINDUSA
100
AcDbLine
 10
5365.873809490946
 20
2002.378508009049
 30
0.0
 11
5365.873809490946
 21
2002.381883135315
 31
0.0
  0
LINE
  5
21CB
330
1F
100
AcDbEntity
  8
SANINDUSA
100
AcDbLine
 10
5365.875809490947
 20
2002.383197348877
 30
0.0
 11
5365.875809490947
 21
2002.3653381626
 31
0.0
  0
ARC
  5
21CC
330
1F
100
AcDbEntity
  8
SANINDUSA
100
AcDbCircle
 10
5365.874059490947
 20
2002.378508009049
 30
0.0
 40
0.0002500000000003
100
AcDbArc
 50
180.0
 51
225.0
  0
ARC
  5
21CD
330
1F
100
AcDbEntity
  8
SANINDUSA
100
AcDbCircle
 10
5365.876809490947
 20
2002.3653381626
 30
0.0
 40
0.001
100
AcDbArc
 50
180.0
 51
272.1494579411624
  0
LINE
  5
21CE
330
1F
100
AcDbEntity
  8
SANINDUSA
100
AcDbLine
 10
5365.874363044337
 20
2002.377850902268
 30
0.0
 11
5365.873882714251
 21
2002.378331232353
 31
0.0
  0
ARC
  5
21CF
330
1F
100
AcDbEntity
  8
SANINDUSA
100
AcDbCircle
 10
5365.873219382509
 20
2002.460990908522
 30
0.0
 40
0.0967200954923435
100
AcDbArc
 50
272.1494579411624
 51
285.5601696169789
  0
ARC
  5
21D0
330
1F
100
AcDbEntity
  8
SANINDUSA
100
AcDbCircle
 10
5365.874009490946
 20
2002.377497348877
 30
0.0
 40
0.0005
100
AcDbArc
 50
315.0
 51
45.0
  0
ARC
  5
21D1
330
1F
100
AcDbEntity
  8
SANINDUSA
100
AcDbCircle
 10
5365.899030441706
 20
2002.368297348877
 30
0.0
 40
0.0005
100
AcDbArc
 50
285.5601696169789
 51
90.0
  0
LINE
  5
21D2
330
1F
100
AcDbEntity
  8
SANINDUSA
100
AcDbLine
 10
5365.873882714251
 20
2002.376663465401
 30
0.0
 11
5365.874363044337
 21
2002.377143795487
 31
0.0
  0
LINE
  5
21D3
330
1F
100
AcDbEntity
  8
SANINDUSA
100
AcDbLine
 10
5365.899030441706
 20
2002.368797348877
 30
0.0
 11
5365.886332795078
 21
2002.368797348877
 31
0.0
  0
ARC
  5
21D4
330
1F
100
AcDbEntity
  8
SANINDUSA
100
AcDbCircle
 10
5365.874059490947
 20
2002.376486688705
 30
0.0
 40
0.00025
100
AcDbArc
 50
135.0
 51
180.0
  0
ARC
  5
21D5
330
1F
100
AcDbEntity
  8
SANINDUSA
100
AcDbCircle
 10
5365.886332795078
 20
2002.369797348877
 30
0.0
 40
0.001
100
AcDbArc
 50
90.0
 51
270.0
  0
LINE
  5
21D6
330
1F
100
AcDbEntity
  8
SANINDUSA
100
AcDbLine
 10
5365.873809490946
 20
2002.366297325215
 30
0.0
 11
5365.873809490946
 21
2002.376486688705
 31
0.0
  0
LINE
  5
21D7
330
1F
100
AcDbEntity
  8
SANINDUSA
100
AcDbLine
 10
5365.886332795078
 20
2002.370797348877
 30
0.0
 11
5365.908332795078
 21
2002.370797348877
 31
0.0
  0
ARC
  5
21D8
330
1F
100
AcDbEntity
  8
SANINDUSA
100
AcDbCircle
 10
5365.872809490946
 20
2002.366297325215
 30
0.0
 40
0.0010000000000003
100
AcDbArc
 50
314.9106959381468
 51
0.0
  0
ARC
  5
21D9
330
1F
100
AcDbEntity
  8
SANINDUSA
100
AcDbCircle
 10
5365.908332795078
 20
2002.369797348877
 30
0.0
 40
0.001
100
AcDbArc
 50
291.0588352713053
 51
90.0
  0
LINE
  5
21DA
330
1F
100
AcDbEntity
  8
SANINDUSA
100
AcDbLine
 10
5365.872609055626
 20
2002.364685499298
 30
0.0
 11
5365.873515494737
 21
2002.365589117162
 31
0.0
  0
ARC
  5
21DB
330
1F
100
AcDbEntity
  8
SANINDUSA
100
AcDbCircle
 10
5365.873219382509
 20
2002.460990908522
 30
0.0
 40
0.0987200954923432
100
AcDbArc
 50
270.052236582395
 51
291.0588352713053
  0
ARC
  5
21DC
330
1F
100
AcDbEntity
  8
SANINDUSA
100
AcDbCircle
 10
5365.873315059417
 20
2002.363977291245
 30
0.0
 40
0.0010000000000003
100
AcDbArc
 50
134.9106959381467
 51
179.4659008959631
  0
ARC
  5
21DD
330
1F
100
AcDbEntity
  8
SANINDUSA
100
AcDbCircle
 10
5365.873308473965
 20
2002.363270853642
 30
0.0
 40
0.001
100
AcDbArc
 50
179.4659008959631
 51
270.052236582395
  0
LINE
  5
21DE
330
1F
100
AcDbEntity
  8
SANINDUSA
100
AcDbLine
 10
5365.872308517412
 20
2002.363280175295
 30
0.0
 11
5365.872315102865
 21
2002.363986612897
 31
0.0
  0
LINE
  5
21E1
330
1F
100
AcDbEntity
  8
SANINDUSA
100
AcDbLine
 10
5365.869959490947
 20
2002.362270853642
 30
0.0
 11
5365.869959490947
 21
2002.386197348877
 31
0.0
  0
LINE
  5
21E2
330
1F
100
AcDbEntity
  8
SANINDUSA
100
AcDbLine
 10
5365.869959490947
 20
2002.362270853642
 30
0.0
 11
5365.870958371859
 21
2002.362270853642
 31
0.0
  0
LINE
  5
21E3
330
1F
100
AcDbEntity
  8
SANINDUSA
100
AcDbLine
 10
5365.870959490947
 20
2002.386197348877
 30
0.0
 11
5365.869959490947
 21
2002.386197348877
 31
0.0
  0
ARC
  5
21E4
330
1F
100
AcDbEntity
  8
SANINDUSA
100
AcDbCircle
 10
5365.870958371859
 20
2002.363270853642
 30
0.0
 40
0.0009999999999999
100
AcDbArc
 50
270.0
 51
359.4659008959632
  0
ARC
  5
21E5
330
1F
100
AcDbEntity
  8
SANINDUSA
100
AcDbCircle
 10
5365.870959490947
 20
2002.385197348877
 30
0.0
 40
0.0009999999999999
100
AcDbArc
 50
0.0
 51
90.0
  0
LINE
  5
21E6
330
1F
100
AcDbEntity
  8
SANINDUSA
100
AcDbLine
 10
5365.871958328412
 20
2002.363261531989
 30
0.0
 11
5365.871965118071
 21
2002.363989875476
 31
0.0
  0
LINE
  5
21E7
330
1F
100
AcDbEntity
  8
SANINDUSA
100
AcDbLine
 10
5365.871959490946
 20
2002.38421156244
 30
0.0
 11
5365.871959490946
 21
2002.385197348877
 31
0.0
  0
ARC
  5
21E8
330
1F
100
AcDbEntity
  8
SANINDUSA
100
AcDbCircle
 10
5365.873315059417
 20
2002.363977291245
 30
0.0
 40
0.00135
100
AcDbArc
 50
134.9106959381467
 51
179.4659008959631
  0
ARC
  5
21E9
330
1F
100
AcDbEntity
  8
SANINDUSA
100
AcDbCircle
 10
5365.873309490947
 20
2002.38421156244
 30
0.0
 40
0.0013499999999998
100
AcDbArc
 50
180.0
 51
225.0
  0
LINE
  5
21EA
330
1F
100
AcDbEntity
  8
SANINDUSA
100
AcDbLine
 10
5365.872361954299
 20
2002.364933372117
 30
0.0
 11
5365.873268393411
 21
2002.365836989981
 31
0.0
  0
LINE
  5
21EB
330
1F
100
AcDbEntity
  8
SANINDUSA
100
AcDbLine
 10
5365.873269110355
 20
2002.382342754723
 30
0.0
 11
5365.872354896792
 21
2002.383256968285
 31
0.0
  0
ARC
  5
21EC
330
1F
100
AcDbEntity
  8
SANINDUSA
100
AcDbCircle
 10
5365.872809490946
 20
2002.366297325215
 30
0.0
 40
0.0006500000000003
100
AcDbArc
 50
314.9106959381468
 51
0.0
  0
ARC
  5
21ED
330
1F
100
AcDbEntity
  8
SANINDUSA
100
AcDbCircle
 10
5365.872809490946
 20
2002.381883135315
 30
0.0
 40
0.0006500000000003
100
AcDbArc
 50
0.0
 51
45.0
  0
LINE
  5
21EE
330
1F
100
AcDbEntity
  8
SANINDUSA
100
AcDbLine
 10
5365.873459490947
 20
2002.366297325215
 30
0.0
 11
5365.873459490947
 21
2002.381883135315
 31
0.0
  0
ARC
  5
21EF
330
1F
100
AcDbEntity
  8
SANINDUSA
100
AcDbCircle
 10
5367.266604690946
 20
2002.385197356496
 30
0.0
 40
0.0009999999999999
100
AcDbArc
 50
0.0
 51
90.0
  0
LINE
  5
21F0
330
1F
100
AcDbEntity
  8
SANINDUSA
100
AcDbLine
 10
5367.266604690946
 20
2002.386197356496
 30
0.0
 11
5367.231581386814
 21
2002.386197356496
 31
0.0
  0
LINE
  5
21F1
330
1F
100
AcDbEntity
  8
SANINDUSA
100
AcDbLine
 10
5367.267604690947
 20
2002.384211570058
 30
0.0
 11
5367.267604690947
 21
2002.385197356496
 31
0.0
  0
ARC
  5
21F2
330
1F
100
AcDbEntity
  8
SANINDUSA
100
AcDbCircle
 10
5367.231581386814
 20
2002.385197356496
 30
0.0
 40
0.001
100
AcDbArc
 50
90.0
 51
270.0
  0
ARC
  5
21F3
330
1F
100
AcDbEntity
  8
SANINDUSA
100
AcDbCircle
 10
5367.266604690946
 20
2002.384211570058
 30
0.0
 40
0.0010000000000003
100
AcDbArc
 50
315.0
 51
0.0
  0
LINE
  5
21F4
330
1F
100
AcDbEntity
  8
SANINDUSA
100
AcDbLine
 10
5367.231581386814
 20
2002.384197356496
 30
0.0
 11
5367.263104690946
 21
2002.384197356496
 31
0.0
  0
LINE
  5
21F5
330
1F
100
AcDbEntity
  8
SANINDUSA
100
AcDbLine
 10
5367.266397584165
 20
2002.382590249715
 30
0.0
 11
5367.267311797728
 21
2002.383504463278
 31
0.0
  0
ARC
  5
21F6
330
1F
100
AcDbEntity
  8
SANINDUSA
100
AcDbCircle
 10
5367.263104690946
 20
2002.383197356496
 30
0.0
 40
0.001
100
AcDbArc
 50
0.0
 51
90.0
  0
ARC
  5
21F7
330
1F
100
AcDbEntity
  8
SANINDUSA
100
AcDbCircle
 10
5367.267104690946
 20
2002.381883142934
 30
0.0
 40
0.0010000000000003
100
AcDbArc
 50
135.0
 51
180.0
  0
LINE
  5
21F8
330
1F
100
AcDbEntity
  8
SANINDUSA
100
AcDbLine
 10
5367.264104690947
 20
2002.383197356496
 30
0.0
 11
5367.264104690947
 21
2002.365338170219
 31
0.0
  0
LINE
  5
21F9
330
1F
100
AcDbEntity
  8
SANINDUSA
100
AcDbLine
 10
5367.266104690946
 20
2002.378508016668
 30
0.0
 11
5367.266104690946
 21
2002.381883142934
 31
0.0
  0
ARC
  5
21FA
330
1F
100
AcDbEntity
  8
SANINDUSA
100
AcDbCircle
 10
5367.263104690946
 20
2002.365338170219
 30
0.0
 40
0.001
100
AcDbArc
 50
267.8505420588376
 51
0.0
  0
ARC
  5
21FB
330
1F
100
AcDbEntity
  8
SANINDUSA
100
AcDbCircle
 10
5367.265854690947
 20
2002.378508016668
 30
0.0
 40
0.0002500000000003
100
AcDbArc
 50
315.0
 51
0.0
  0
ARC
  5
21FC
330
1F
100
AcDbEntity
  8
SANINDUSA
100
AcDbCircle
 10
5367.266694799385
 20
2002.460990916141
 30
0.0
 40
0.0967200954923435
100
AcDbArc
 50
254.439830383021
 51
267.8505420588376
  0
LINE
  5
21FD
330
1F
100
AcDbEntity
  8
SANINDUSA
100
AcDbLine
 10
5367.265551137556
 20
2002.377850909887
 30
0.0
 11
5367.266031467642
 21
2002.378331239973
 31
0.0
  0
ARC
  5
21FE
330
1F
100
AcDbEntity
  8
SANINDUSA
100
AcDbCircle
 10
5367.240883740187
 20
2002.368297356496
 30
0.0
 40
0.0005
100
AcDbArc
 50
90.0
 51
254.439830383021
  0
ARC
  5
21FF
330
1F
100
AcDbEntity
  8
SANINDUSA
100
AcDbCircle
 10
5367.265904690946
 20
2002.377497356496
 30
0.0
 40
0.0005
100
AcDbArc
 50
135.0
 51
225.0
  0
LINE
  5
2200
330
1F
100
AcDbEntity
  8
SANINDUSA
100
AcDbLine
 10
5367.240883740187
 20
2002.368797356496
 30
0.0
 11
5367.253581386814
 21
2002.368797356496
 31
0.0
  0
LINE
  5
2201
330
1F
100
AcDbEntity
  8
SANINDUSA
100
AcDbLine
 10
5367.266031467642
 20
2002.37666347302
 30
0.0
 11
5367.265551137556
 21
2002.377143803105
 31
0.0
  0
ARC
  5
2202
330
1F
100
AcDbEntity
  8
SANINDUSA
100
AcDbCircle
 10
5367.253581386814
 20
2002.369797356497
 30
0.0
 40
0.001
100
AcDbArc
 50
270.0
 51
90.0
  0
ARC
  5
2203
330
1F
100
AcDbEntity
  8
SANINDUSA
100
AcDbCircle
 10
5367.265854690947
 20
2002.376486696324
 30
0.0
 40
0.00025
100
AcDbArc
 50
0.0
 51
45.0
  0
LINE
  5
2204
330
1F
100
AcDbEntity
  8
SANINDUSA
100
AcDbLine
 10
5367.253581386814
 20
2002.370797356496
 30
0.0
 11
5367.231581386814
 21
2002.370797356496
 31
0.0
  0
LINE
  5
2205
330
1F
100
AcDbEntity
  8
SANINDUSA
100
AcDbLine
 10
5367.266104690946
 20
2002.366297332835
 30
0.0
 11
5367.266104690946
 21
2002.376486696324
 31
0.0
  0
ARC
  5
2206
330
1F
100
AcDbEntity
  8
SANINDUSA
100
AcDbCircle
 10
5367.231581386814
 20
2002.369797356497
 30
0.0
 40
0.001
100
AcDbArc
 50
90.0
 51
248.9411647286947
  0
ARC
  5
2207
330
1F
100
AcDbEntity
  8
SANINDUSA
100
AcDbCircle
 10
5367.267104690946
 20
2002.366297332835
 30
0.0
 40
0.0010000000000003
100
AcDbArc
 50
180.0
 51
225.0893040618533
  0
ARC
  5
2208
330
1F
100
AcDbEntity
  8
SANINDUSA
100
AcDbCircle
 10
5367.266694799385
 20
2002.460990916141
 30
0.0
 40
0.0987200954923432
100
AcDbArc
 50
248.9411647286947
 51
269.947763417605
  0
LINE
  5
2209
330
1F
100
AcDbEntity
  8
SANINDUSA
100
AcDbLine
 10
5367.267305126266
 20
2002.364685506917
 30
0.0
 11
5367.266398687156
 21
2002.365589124781
 31
0.0
  0
ARC
  5
220A
330
1F
100
AcDbEntity
  8
SANINDUSA
100
AcDbCircle
 10
5367.266605707928
 20
2002.363270861261
 30
0.0
 40
0.001
100
AcDbArc
 50
269.947763417605
 51
0.5340991040368256
  0
ARC
  5
220B
330
1F
100
AcDbEntity
  8
SANINDUSA
100
AcDbCircle
 10
5367.266599122476
 20
2002.363977298864
 30
0.0
 40
0.0010000000000003
100
AcDbArc
 50
0.5340991040368256
 51
45.08930406185324
  0
LINE
  5
220C
330
1F
100
AcDbEntity
  8
SANINDUSA
100
AcDbLine
 10
5367.26760566448
 20
2002.363280182914
 30
0.0
 11
5367.267599079028
 21
2002.363986620517
 31
0.0
  0
LINE
  5
220D
330
1F
100
AcDbEntity
  8
SANINDUSA
100
AcDbLine
 10
5367.217979463655
 20
2002.381497356497
 30
0.0
 11
5367.220668076805
 21
2002.381497356497
 31
0.0
  0
ARC
  5
220E
330
1F
100
AcDbEntity
  8
SANINDUSA
100
AcDbCircle
 10
5367.220668076805
 20
2002.380997356496
 30
0.0
 40
0.0005
100
AcDbArc
 50
19.47122063801706
 51
90.0
  0
ARC
  5
220F
330
1F
100
AcDbEntity
  8
SANINDUSA
100
AcDbCircle
 10
5367.217979463655
 20
2002.380997356496
 30
0.0
 40
0.0005000000000001
100
AcDbArc
 50
90.0
 51
156.4218215197019
  0
ARC
  5
2210
330
1F
100
AcDbEntity
  8
SANINDUSA
100
AcDbCircle
 10
5367.222082290368
 20
2002.381497356497
 30
0.0
 40
0.001
100
AcDbArc
 50
199.471220638017
 51
340.5287793619829
  0
ARC
  5
2211
330
1F
100
AcDbEntity
  8
SANINDUSA
100
AcDbCircle
 10
5367.216604690947
 20
2002.381597356496
 30
0.0
 40
0.0009999999999999
100
AcDbArc
 50
180.0
 51
336.4218215197019
  0
ARC
  5
2212
330
1F
100
AcDbEntity
  8
SANINDUSA
100
AcDbCircle
 10
5367.22349650393
 20
2002.380997356496
 30
0.0
 40
0.0004999999999999
100
AcDbArc
 50
90.0
 51
160.5287793619829
  0
LINE
  5
2213
330
1F
100
AcDbEntity
  8
SANINDUSA
100
AcDbLine
 10
5367.215604690947
 20
2002.381597356496
 30
0.0
 11
5367.215604690947
 21
2002.382497356496
 31
0.0
  0
LINE
  5
2214
330
1F
100
AcDbEntity
  8
SANINDUSA
100
AcDbLine
 10
5367.22349650393
 20
2002.381497356497
 30
0.0
 11
5367.225082667187
 21
2002.381497356497
 31
0.0
  0
ARC
  5
2215
330
1F
100
AcDbEntity
  8
SANINDUSA
100
AcDbCircle
 10
5367.216604690947
 20
2002.382497356496
 30
0.0
 40
0.0009999999999999
100
AcDbArc
 50
90.0
 51
180.0
  0
ARC
  5
2216
330
1F
100
AcDbEntity
  8
SANINDUSA
100
AcDbCircle
 10
5367.225082667187
 20
2002.380997356496
 30
0.0
 40
0.0005
100
AcDbArc
 50
0.0
 51
90.0
  0
LINE
  5
2217
330
1F
100
AcDbEntity
  8
SANINDUSA
100
AcDbLine
 10
5367.216604690947
 20
2002.383497356496
 30
0.0
 11
5367.248104690947
 21
2002.383497356496
 31
0.0
  0
LINE
  5
2218
330
1F
100
AcDbEntity
  8
SANINDUSA
100
AcDbLine
 10
5367.225582667186
 20
2002.380997356496
 30
0.0
 11
5367.225582667186
 21
2002.373997356496
 31
0.0
  0
ARC
  5
2219
330
1F
100
AcDbEntity
  8
SANINDUSA
100
AcDbCircle
 10
5367.248104690947
 20
2002.382497356496
 30
0.0
 40
0.001
100
AcDbArc
 50
270.0
 51
90.0
  0
ARC
  5
221A
330
1F
100
AcDbEntity
  8
SANINDUSA
100
AcDbCircle
 10
5367.225082667187
 20
2002.373997356496
 30
0.0
 40
0.0005
100
AcDbArc
 50
270.0
 51
0.0
  0
LINE
  5
221B
330
1F
100
AcDbEntity
  8
SANINDUSA
100
AcDbLine
 10
5367.248104690947
 20
2002.381497356497
 30
0.0
 11
5367.228082667186
 21
2002.381497356497
 31
0.0
  0
LINE
  5
221C
330
1F
100
AcDbEntity
  8
SANINDUSA
100
AcDbLine
 10
5367.225082667187
 20
2002.373497356496
 30
0.0
 11
5367.22349650393
 21
2002.373497356496
 31
0.0
  0
ARC
  5
221D
330
1F
100
AcDbEntity
  8
SANINDUSA
100
AcDbCircle
 10
5367.228082667186
 20
2002.380997356496
 30
0.0
 40
0.0005000000000001
100
AcDbArc
 50
90.0
 51
180.0
  0
ARC
  5
221E
330
1F
100
AcDbEntity
  8
SANINDUSA
100
AcDbCircle
 10
5367.22349650393
 20
2002.373997356496
 30
0.0
 40
0.0005
100
AcDbArc
 50
199.471220638017
 51
270.0
  0
LINE
  5
221F
330
1F
100
AcDbEntity
  8
SANINDUSA
100
AcDbLine
 10
5367.227582667187
 20
2002.380997356496
 30
0.0
 11
5367.227582667187
 21
2002.373997356496
 31
0.0
  0
ARC
  5
2220
330
1F
100
AcDbEntity
  8
SANINDUSA
100
AcDbCircle
 10
5367.222082290368
 20
2002.373497356496
 30
0.0
 40
0.001
100
AcDbArc
 50
19.47122063801706
 51
160.5287793619829
  0
ARC
  5
2221
330
1F
100
AcDbEntity
  8
SANINDUSA
100
AcDbCircle
 10
5367.228082667186
 20
2002.373997356496
 30
0.0
 40
0.0005000000000001
100
AcDbArc
 50
180.0
 51
270.0
  0
ARC
  5
2222
330
1F
100
AcDbEntity
  8
SANINDUSA
100
AcDbCircle
 10
5367.220668076805
 20
2002.373997356496
 30
0.0
 40
0.0005
100
AcDbArc
 50
270.0
 51
340.5287793619829
  0
LINE
  5
2223
330
1F
100
AcDbEntity
  8
SANINDUSA
100
AcDbLine
 10
5367.228082667186
 20
2002.373497356496
 30
0.0
 11
5367.248104690947
 21
2002.373497356496
 31
0.0
  0
LINE
  5
2224
330
1F
100
AcDbEntity
  8
SANINDUSA
100
AcDbLine
 10
5367.220668076805
 20
2002.373497356496
 30
0.0
 11
5367.217979463655
 21
2002.373497356496
 31
0.0
  0
ARC
  5
2225
330
1F
100
AcDbEntity
  8
SANINDUSA
100
AcDbCircle
 10
5367.248104690947
 20
2002.372497356496
 30
0.0
 40
0.001
100
AcDbArc
 50
270.0
 51
90.0
  0
ARC
  5
2226
330
1F
100
AcDbEntity
  8
SANINDUSA
100
AcDbCircle
 10
5367.217979463655
 20
2002.373997356496
 30
0.0
 40
0.0005000000000001
100
AcDbArc
 50
203.5781784802981
 51
270.0
  0
LINE
  5
2227
330
1F
100
AcDbEntity
  8
SANINDUSA
100
AcDbLine
 10
5367.248104690947
 20
2002.371497356496
 30
0.0
 11
5367.216604690947
 21
2002.371497356496
 31
0.0
  0
ARC
  5
2228
330
1F
100
AcDbEntity
  8
SANINDUSA
100
AcDbCircle
 10
5367.216604690947
 20
2002.373397356496
 30
0.0
 40
0.0009999999999999
100
AcDbArc
 50
23.57817848029807
 51
180.0
  0
ARC
  5
2229
330
1F
100
AcDbEntity
  8
SANINDUSA
100
AcDbCircle
 10
5367.216604690947
 20
2002.372497356496
 30
0.0
 40
0.0010000000000001
100
AcDbArc
 50
180.0
 51
270.0
  0
LINE
  5
222A
330
1F
100
AcDbEntity
  8
SANINDUSA
100
AcDbLine
 10
5367.215604690947
 20
2002.372497356496
 30
0.0
 11
5367.215604690947
 21
2002.373397356496
 31
0.0
  0
LINE
  5
222B
330
1F
100
AcDbEntity
  8
SANINDUSA
100
AcDbLine
 10
5367.269954690947
 20
2002.362270861262
 30
0.0
 11
5367.269954690947
 21
2002.386197356496
 31
0.0
  0
LINE
  5
222C
330
1F
100
AcDbEntity
  8
SANINDUSA
100
AcDbLine
 10
5367.268954690946
 20
2002.386197356496
 30
0.0
 11
5367.269954690947
 21
2002.386197356496
 31
0.0
  0
LINE
  5
222D
330
1F
100
AcDbEntity
  8
SANINDUSA
100
AcDbLine
 10
5367.269954690947
 20
2002.362270861262
 30
0.0
 11
5367.268955810033
 21
2002.362270861262
 31
0.0
  0
ARC
  5
222E
330
1F
100
AcDbEntity
  8
SANINDUSA
100
AcDbCircle
 10
5367.268954690946
 20
2002.385197356496
 30
0.0
 40
0.0009999999999999
100
AcDbArc
 50
90.0
 51
180.0
  0
ARC
  5
222F
330
1F
100
AcDbEntity
  8
SANINDUSA
100
AcDbCircle
 10
5367.268955810033
 20
2002.363270861261
 30
0.0
 40
0.0009999999999999
100
AcDbArc
 50
180.5340991040368
 51
270.0
  0
LINE
  5
2230
330
1F
100
AcDbEntity
  8
SANINDUSA
100
AcDbLine
 10
5367.267954690947
 20
2002.384211570058
 30
0.0
 11
5367.267954690947
 21
2002.385197356496
 31
0.0
  0
LINE
  5
2231
330
1F
100
AcDbEntity
  8
SANINDUSA
100
AcDbLine
 10
5367.267955853481
 20
2002.363261539608
 30
0.0
 11
5367.267949063821
 21
2002.363989883095
 31
0.0
  0
ARC
  5
2232
330
1F
100
AcDbEntity
  8
SANINDUSA
100
AcDbCircle
 10
5367.266604690946
 20
2002.384211570058
 30
0.0
 40
0.0013499999999998
100
AcDbArc
 50
315.0
 51
0.0
  0
ARC
  5
2233
330
1F
100
AcDbEntity
  8
SANINDUSA
100
AcDbCircle
 10
5367.266599122476
 20
2002.363977298864
 30
0.0
 40
0.00135
100
AcDbArc
 50
0.5340991040368256
 51
45.08930406185324
  0
LINE
  5
2234
330
1F
100
AcDbEntity
  8
SANINDUSA
100
AcDbLine
 10
5367.266645071539
 20
2002.382342762342
 30
0.0
 11
5367.267559285101
 21
2002.383256975904
 31
0.0
  0
LINE
  5
2235
330
1F
100
AcDbEntity
  8
SANINDUSA
100
AcDbLine
 10
5367.267552227593
 20
2002.364933379736
 30
0.0
 11
5367.266645788483
 21
2002.3658369976
 31
0.0
  0
ARC
  5
2236
330
1F
100
AcDbEntity
  8
SANINDUSA
100
AcDbCircle
 10
5367.267104690946
 20
2002.381883142934
 30
0.0
 40
0.0006500000000003
100
AcDbArc
 50
135.0
 51
180.0
  0
ARC
  5
2237
330
1F
100
AcDbEntity
  8
SANINDUSA
100
AcDbCircle
 10
5367.267104690946
 20
2002.366297332835
 30
0.0
 40
0.0006500000000003
100
AcDbArc
 50
180.0
 51
225.0893040618533
  0
LINE
  5
2238
330
1F
100
AcDbEntity
  8
SANINDUSA
100
AcDbLine
 10
5367.266454690946
 20
2002.366297332835
 30
0.0
 11
5367.266454690946
 21
2002.381883142934
 31
0.0
  0
ARC
  5
2239
330
1F
100
AcDbEntity
  8
SANINDUSA
100
AcDbCircle
 10
5365.915458844702
 20
2002.373497348877
 30
0.0000000001555553
 40
0.0019999999999991
100
AcDbArc
 50
270.0
 51
315.0000000644831
  0
LINE
  5
223A
330
1F
100
AcDbEntity
  8
SANINDUSA
100
AcDbLine
 10
5365.916873058266
 20
2002.372083135316
 30
0.0000000001555553
 11
5365.92522054945
 21
2002.380430626501
 31
0.0000000001555553
  0
ARC
  5
223B
330
1F
100
AcDbEntity
  8
SANINDUSA
100
AcDbCircle
 10
5365.923806335886
 20
2002.381844840062
 30
0.0000000001555553
 40
0.002
100
AcDbArc
 50
315.0000000644831
 51
45.00000037768669
  0
LINE
  5
223C
330
1F
100
AcDbEntity
  8
SANINDUSA
100
AcDbLine
 10
5365.925220549439
 20
2002.383259053633
 30
0.0000000001555553
 11
5365.922868040614
 21
2002.385611562444
 31
0.0000000001555553
  0
ARC
  5
223D
330
1F
100
AcDbEntity
  8
SANINDUSA
100
AcDbCircle
 10
5365.921453827056
 20
2002.384197348877
 30
0.0000000001555553
 40
0.002
100
AcDbArc
 50
45.00000016581366
 51
90.0
  0
LINE
  5
223E
330
1F
100
AcDbEntity
  8
SANINDUSA
100
AcDbLine
 10
5365.921453827056
 20
2002.386197348877
 30
0.0000000001555553
 11
5365.916032795079
 21
2002.386197348877
 31
0.0000000001555553
  0
ARC
  5
223F
330
1F
100
AcDbEntity
  8
SANINDUSA
100
AcDbCircle
 10
5365.916032795079
 20
2002.385197348877
 30
0.0000000001555553
 40
0.001
100
AcDbArc
 50
90.0
 51
180.0
  0
ARC
  5
2240
330
1F
100
AcDbEntity
  8
SANINDUSA
100
AcDbCircle
 10
5365.913332795078
 20
2002.385197348877
 30
0.0000000001555553
 40
0.0016999999999989
100
AcDbArc
 50
270.0
 51
0.0
  0
LINE
  5
2241
330
1F
100
AcDbEntity
  8
SANINDUSA
100
AcDbLine
 10
5365.913332795078
 20
2002.383497348877
 30
0.0000000001555553
 11
5365.882609490946
 21
2002.383497348877
 31
0.0000000001555553
  0
ARC
  5
2242
330
1F
100
AcDbEntity
  8
SANINDUSA
100
AcDbCircle
 10
5365.882609490946
 20
2002.382197348877
 30
0.0000000001555553
 40
0.0013000000000006
100
AcDbArc
 50
90.0
 51
180.0
  0
LINE
  5
2243
330
1F
100
AcDbEntity
  8
SANINDUSA
100
AcDbLine
 10
5365.881309490947
 20
2002.382197348877
 30
0.0000000001555553
 11
5365.881309490947
 21
2002.372797348877
 31
0.0000000001555553
  0
ARC
  5
2244
330
1F
100
AcDbEntity
  8
SANINDUSA
100
AcDbCircle
 10
5365.882609490946
 20
2002.372797348877
 30
0.0000000001555553
 40
0.0013000000000006
100
AcDbArc
 50
180.0
 51
270.0
  0
LINE
  5
2245
330
1F
100
AcDbEntity
  8
SANINDUSA
100
AcDbLine
 10
5365.882609490946
 20
2002.371497348877
 30
0.0000000001555553
 11
5365.915458844702
 21
2002.371497348877
 31
0.0000000001555553
  0
ARC
  5
2246
330
1F
100
AcDbEntity
  8
SANINDUSA
100
AcDbCircle
 10
5365.91631775739
 20
2002.384897348877
 30
0.0000000001555553
 40
0.0002999999999992
100
AcDbArc
 50
90.0
 51
174.2608295263019
  0
ARC
  5
2247
330
1F
100
AcDbEntity
  8
SANINDUSA
100
AcDbCircle
 10
5365.91631775739
 20
2002.384897348877
 30
0.0000000001555553
 40
0.0002999999999988
100
AcDbArc
 50
90.0
 51
174.2608295263019
  0
ARC
  5
2248
330
1F
100
AcDbEntity
  8
SANINDUSA
100
AcDbCircle
 10
5365.913332795078
 20
2002.385197348877
 30
0.0000000001555553
 40
0.0027000000000014
100
AcDbArc
 50
270.0
 51
354.260829526302
  0
LINE
  5
2249
330
1F
100
AcDbEntity
  8
SANINDUSA
100
AcDbLine
 10
5365.913332795078
 20
2002.382497348877
 30
0.0000000001555553
 11
5365.882609490946
 21
2002.382497348877
 31
0.0000000001555553
  0
ARC
  5
224A
330
1F
100
AcDbEntity
  8
SANINDUSA
100
AcDbCircle
 10
5365.882609490946
 20
2002.382197348877
 30
0.0000000001555553
 40
0.0003000000000006
100
AcDbArc
 50
90.0
 51
180.0
  0
LINE
  5
224B
330
1F
100
AcDbEntity
  8
SANINDUSA
100
AcDbLine
 10
5365.882309490946
 20
2002.382197348877
 30
0.0000000001555553
 11
5365.882309490946
 21
2002.372797348877
 31
0.0000000001555553
  0
ARC
  5
224C
330
1F
100
AcDbEntity
  8
SANINDUSA
100
AcDbCircle
 10
5365.882609490946
 20
2002.372797348877
 30
0.0000000001555553
 40
0.0002999999999997
100
AcDbArc
 50
180.0
 51
270.0
  0
LINE
  5
224D
330
1F
100
AcDbEntity
  8
SANINDUSA
100
AcDbLine
 10
5365.882609490946
 20
2002.372497348877
 30
0.0000000001555553
 11
5365.915665951484
 21
2002.372497348877
 31
0.0000000001555553
  0
ARC
  5
224E
330
1F
100
AcDbEntity
  8
SANINDUSA
100
AcDbCircle
 10
5365.915665951484
 20
2002.372997348877
 30
0.0000000001555553
 40
0.0005000000000007
100
AcDbArc
 50
270.0
 51
315.000000073695
  0
LINE
  5
224F
330
1F
100
AcDbEntity
  8
SANINDUSA
100
AcDbLine
 10
5365.916019504874
 20
2002.372643795487
 30
0.0000000001555553
 11
5365.918785877728
 21
2002.375410168347
 31
0.0000000001555553
  0
ARC
  5
2250
330
1F
100
AcDbEntity
  8
SANINDUSA
100
AcDbCircle
 10
5365.918432324338
 20
2002.375763721736
 30
0.0000000001555553
 40
0.000499999997774
100
AcDbArc
 50
315.0000000921187
 51
44.99999954861835
  0
LINE
  5
2251
330
1F
100
AcDbEntity
  8
SANINDUSA
100
AcDbLine
 10
5365.918785877731
 20
2002.376117275122
 30
0.0000000001555553
 11
5365.917371664176
 21
2002.377531488704
 31
0.0000000001555553
  0
ARC
  5
2252
330
1F
100
AcDbEntity
  8
SANINDUSA
100
AcDbCircle
 10
5365.918432324346
 20
2002.378592148877
 30
0.0000000001555553
 40
0.0014999999999999
100
AcDbArc
 50
135.0
 51
225.0000000644831
  0
LINE
  5
2253
330
1F
100
AcDbEntity
  8
SANINDUSA
100
AcDbLine
 10
5365.917371664174
 20
2002.379652809049
 30
0.0000000001555553
 11
5365.91835829739
 21
2002.380639442251
 31
0.0000000001555553
  0
ARC
  5
2254
330
1F
100
AcDbEntity
  8
SANINDUSA
100
AcDbCircle
 10
5365.918711850781
 20
2002.380285888861
 30
0.0000000001555553
 40
0.0005000000000001
100
AcDbArc
 50
315.0
 51
135.0
  0
LINE
  5
2255
330
1F
100
AcDbEntity
  8
SANINDUSA
100
AcDbLine
 10
5365.919065404171
 20
2002.37993233547
 30
0.0000000001555553
 11
5365.918078770956
 21
2002.378945702254
 31
0.0000000001555553
  0
ARC
  5
2256
330
1F
100
AcDbEntity
  8
SANINDUSA
100
AcDbCircle
 10
5365.918432324346
 20
2002.378592148864
 30
0.0000000001555553
 40
0.0004999999999991
100
AcDbArc
 50
135.0
 51
225.0000000552712
  0
LINE
  5
2257
330
1F
100
AcDbEntity
  8
SANINDUSA
100
AcDbLine
 10
5365.918078770956
 20
2002.378238595473
 30
0.0000000001555553
 11
5365.918715167059
 21
2002.377602199371
 31
0.0000000001555553
  0
ARC
  5
2258
330
1F
100
AcDbEntity
  8
SANINDUSA
100
AcDbCircle
 10
5365.91906872045
 20
2002.377955752761
 30
0.0000000001555553
 40
0.0005000000000234
100
AcDbArc
 50
225.0000000184237
 51
315.0
  0
LINE
  5
2259
330
1F
100
AcDbEntity
  8
SANINDUSA
100
AcDbLine
 10
5365.91942227384
 20
2002.377602199371
 30
0.0000000001555553
 11
5365.919705116556
 21
2002.377885042085
 31
0.0000000001555553
  0
ARC
  5
225A
330
1F
100
AcDbEntity
  8
SANINDUSA
100
AcDbCircle
 10
5365.919846537911
 20
2002.377743620729
 30
0.0000000001555553
 40
0.0002000000000003
100
AcDbArc
 50
45.0
 51
135.0
  0
LINE
  5
225B
330
1F
100
AcDbEntity
  8
SANINDUSA
100
AcDbLine
 10
5365.919987959268
 20
2002.377885042085
 30
0.0000000001555553
 11
5365.920412223337
 21
2002.377460778017
 31
0.0000000001555553
  0
ARC
  5
225C
330
1F
100
AcDbEntity
  8
SANINDUSA
100
AcDbCircle
 10
5365.920765776728
 20
2002.377814331407
 30
0.0000000001555553
 40
0.0005000000000001
100
AcDbArc
 50
225.0
 51
315.0
  0
LINE
  5
225D
330
1F
100
AcDbEntity
  8
SANINDUSA
100
AcDbLine
 10
5365.921119330118
 20
2002.377460778017
 30
0.0000000001555553
 11
5365.924230599955
 21
2002.380572047854
 31
0.0000000001555553
  0
ARC
  5
225E
330
1F
100
AcDbEntity
  8
SANINDUSA
100
AcDbCircle
 10
5365.923877046565
 20
2002.380925601245
 30
0.0000000001555553
 40
0.0004999999999994
100
AcDbArc
 50
315.0
 51
45.0
  0
LINE
  5
225F
330
1F
100
AcDbEntity
  8
SANINDUSA
100
AcDbLine
 10
5365.924230599955
 20
2002.381279154635
 30
0.0000000001555553
 11
5365.923806335886
 21
2002.381703418702
 31
0.0000000001555553
  0
ARC
  5
2260
330
1F
100
AcDbEntity
  8
SANINDUSA
100
AcDbCircle
 10
5365.923947757242
 20
2002.381844840058
 30
0.0000000001555553
 40
0.0002000000000006
100
AcDbArc
 50
134.9999998618219
 51
225.0
  0
LINE
  5
2261
330
1F
100
AcDbEntity
  8
SANINDUSA
100
AcDbLine
 10
5365.923806335886
 20
2002.381986261415
 30
0.0000000001555553
 11
5365.924089178598
 21
2002.382269104128
 31
0.0000000001555553
  0
ARC
  5
2262
330
1F
100
AcDbEntity
  8
SANINDUSA
100
AcDbCircle
 10
5365.923735625208
 20
2002.382622657518
 30
0.0000000001555553
 40
0.0005000000000001
100
AcDbArc
 50
315.0
 51
44.99999978812698
  0
LINE
  5
2263
330
1F
100
AcDbEntity
  8
SANINDUSA
100
AcDbLine
 10
5365.924089178601
 20
2002.382976210907
 30
0.0000000001555553
 11
5365.923452782499
 21
2002.383612607013
 31
0.0000000001555553
  0
ARC
  5
2264
330
1F
100
AcDbEntity
  8
SANINDUSA
100
AcDbCircle
 10
5365.92309922911
 20
2002.383259053623
 30
0.0000000001555553
 40
0.0005000000000001
100
AcDbArc
 50
45.0
 51
135.0
  0
LINE
  5
2265
330
1F
100
AcDbEntity
  8
SANINDUSA
100
AcDbLine
 10
5365.922745675719
 20
2002.383612607013
 30
0.0000000001555553
 11
5365.921759466059
 21
2002.382626397353
 31
0.0000000001555553
  0
ARC
  5
2266
330
1F
100
AcDbEntity
  8
SANINDUSA
100
AcDbCircle
 10
5365.921405912668
 20
2002.382979950744
 30
0.0000000001555553
 40
0.0004999999999994
100
AcDbArc
 50
135.0
 51
315.0
  0
LINE
  5
2267
330
1F
100
AcDbEntity
  8
SANINDUSA
100
AcDbLine
 10
5365.921052359278
 20
2002.383333504134
 30
0.0000000001555553
 11
5365.92206265063
 21
2002.384343795487
 31
0.0000000001555553
  0
ARC
  5
2268
330
1F
100
AcDbEntity
  8
SANINDUSA
100
AcDbCircle
 10
5365.921709097239
 20
2002.384697348877
 30
0.0000000001555553
 40
0.0005000000000001
100
AcDbArc
 50
315.0
 51
90.0
  0
LINE
  5
2269
330
1F
100
AcDbEntity
  8
SANINDUSA
100
AcDbLine
 10
5365.921709097239
 20
2002.385197348877
 30
0.0000000001555553
 11
5365.91631775739
 21
2002.385197348877
 31
0.0000000001555553
  0
LINE
  5
226A
330
1F
100
AcDbEntity
  8
SANINDUSA
100
AcDbLine
 10
5365.945918646487
 20
2002.380676665101
 30
0.0000000001555553
 11
5365.945918646487
 21
2002.380197352687
 31
0.0000000001555553
  0
LINE
  5
226B
330
1F
100
AcDbEntity
  8
SANINDUSA
100
AcDbLine
 10
5365.943418646487
 20
2002.380627827695
 30
0.0000000001555553
 11
5365.943359422757
 21
2002.380232236303
 31
0.0000000001555553
  0
ARC
  5
226C
330
1F
100
AcDbEntity
  8
SANINDUSA
100
AcDbCircle
 10
5365.945118646488
 20
2002.380676665101
 30
0.0000000001555553
 40
0.0008
100
AcDbArc
 50
0.0
 51
81.48552155217281
  0
ARC
  5
226D
330
1F
100
AcDbEntity
  8
SANINDUSA
100
AcDbCircle
 10
5365.942672456391
 20
2002.379020593941
 30
0.0000000001555553
 40
0.0002
100
AcDbArc
 50
171.4855215631279
 51
351.4855215631279
  0
LINE
  5
226E
330
1F
100
AcDbEntity
  8
SANINDUSA
100
AcDbLine
 10
5365.945574228689
 20
2002.375094046231
 30
0.0000000001555553
 11
5365.943359422757
 21
2002.374762469071
 31
0.0000000001555553
  0
ARC
  5
226F
330
1F
100
AcDbEntity
  8
SANINDUSA
100
AcDbCircle
 10
5365.942672456391
 20
2002.375974111433
 30
0.0000000001555553
 40
0.0002
100
AcDbArc
 50
8.514478436872074
 51
188.514478436872
  0
LINE
  5
2270
330
1F
100
AcDbEntity
  8
SANINDUSA
100
AcDbLine
 10
5365.943418646487
 20
2002.374366877679
 30
0.0000000001555553
 11
5365.943359422757
 21
2002.374762469071
 31
0.0000000001555553
  0
ARC
  5
2271
330
1F
100
AcDbEntity
  8
SANINDUSA
100
AcDbCircle
 10
5365.945618646488
 20
2002.374797352687
 30
0.0000000001555553
 40
0.0003
100
AcDbArc
 50
0.0
 51
98.5144784478272
  0
ARC
  5
2272
330
1F
100
AcDbEntity
  8
SANINDUSA
100
AcDbCircle
 10
5365.945618646488
 20
2002.380197352687
 30
0.0000000001555553
 40
0.0003
100
AcDbArc
 50
261.4855215521728
 51
0.0
  0
LINE
  5
2273
330
1F
100
AcDbEntity
  8
SANINDUSA
100
AcDbLine
 10
5365.945574228689
 20
2002.379900659143
 30
0.0000000001555553
 11
5365.943359422757
 21
2002.380232236303
 31
0.0000000001555553
  0
LINE
  5
2274
330
1F
100
AcDbEntity
  8
SANINDUSA
100
AcDbLine
 10
5365.94272636155
 20
2002.380731469224
 30
0.0000000001555553
 11
5365.942474660695
 21
2002.379050205806
 31
0.0000000001555553
  0
LINE
  5
2275
330
1F
100
AcDbEntity
  8
SANINDUSA
100
AcDbLine
 10
5365.943121952944
 20
2002.380672245493
 30
0.0000000001555553
 11
5365.942870252087
 21
2002.378990982076
 31
0.0000000001555553
  0
LINE
  5
2276
330
1F
100
AcDbEntity
  8
SANINDUSA
100
AcDbLine
 10
5365.940600057816
 20
2002.381049796777
 30
0.0000000001555553
 11
5365.940540834087
 21
2002.380654205385
 31
0.0000000001555553
  0
ARC
  5
2277
330
1F
100
AcDbEntity
  8
SANINDUSA
100
AcDbCircle
 10
5365.934218646487
 20
2002.381297352687
 30
0.0000000001555553
 40
0.0003
100
AcDbArc
 50
81.48552155217281
 51
180.0
  0
ARC
  5
2278
330
1F
100
AcDbEntity
  8
SANINDUSA
100
AcDbCircle
 10
5365.934961047316
 20
2002.382197352687
 30
0.0000000001555553
 40
0.0008
100
AcDbArc
 50
81.48552155217281
 51
90.0
  0
LINE
  5
2279
330
1F
100
AcDbEntity
  8
SANINDUSA
100
AcDbLine
 10
5365.935418646487
 20
2002.381421044769
 30
0.0000000001555553
 11
5365.934263064286
 21
2002.381594046231
 31
0.0000000001555553
  0
LINE
  5
227A
330
1F
100
AcDbEntity
  8
SANINDUSA
100
AcDbLine
 10
5365.935418646487
 20
2002.381421044769
 30
0.0000000001555553
 11
5365.935418646487
 21
2002.380597352686
 31
0.0000000001555553
  0
LINE
  5
227B
330
1F
100
AcDbEntity
  8
SANINDUSA
100
AcDbLine
 10
5365.935418646487
 20
2002.380597352686
 30
0.0000000001555553
 11
5365.936618646488
 21
2002.380597352686
 31
0.0000000001555553
  0
LINE
  5
227C
330
1F
100
AcDbEntity
  8
SANINDUSA
100
AcDbLine
 10
5365.936618646488
 20
2002.381241393547
 30
0.0000000001555553
 11
5365.936618646488
 21
2002.380597352686
 31
0.0000000001555553
  0
LINE
  5
227D
330
1F
100
AcDbEntity
  8
SANINDUSA
100
AcDbLine
 10
5365.940540834087
 20
2002.380654205385
 30
0.0000000001555553
 11
5365.936618646488
 21
2002.381241393547
 31
0.0000000001555553
  0
LINE
  5
227E
330
1F
100
AcDbEntity
  8
SANINDUSA
100
AcDbLine
 10
5365.935418646487
 20
2002.374397352687
 30
0.0000000001555553
 11
5365.936618646488
 21
2002.374397352687
 31
0.0000000001555553
  0
LINE
  5
227F
330
1F
100
AcDbEntity
  8
SANINDUSA
100
AcDbLine
 10
5365.945237093949
 20
2002.381467847886
 30
0.0000000001555553
 11
5365.935079494779
 21
2002.382988535472
 31
0.0000000001555553
  0
LINE
  5
2280
330
1F
100
AcDbEntity
  8
SANINDUSA
100
AcDbLine
 10
5365.943418646487
 20
2002.380627827695
 30
0.0000000001555553
 11
5365.940600057816
 21
2002.381049796777
 31
0.0000000001555553
  0
ARC
  5
2281
330
1F
100
AcDbEntity
  8
SANINDUSA
100
AcDbCircle
 10
5365.945118646488
 20
2002.374318040272
 30
0.0000000001555553
 40
0.0008
100
AcDbArc
 50
278.5144784478272
 51
0.0
  0
LINE
  5
2282
330
1F
100
AcDbEntity
  8
SANINDUSA
100
AcDbLine
 10
5365.940600057816
 20
2002.373944908596
 30
0.0000000001555553
 11
5365.940540834087
 21
2002.374340499989
 31
0.0000000001555553
  0
ARC
  5
2283
330
1F
100
AcDbEntity
  8
SANINDUSA
100
AcDbCircle
 10
5365.934218646487
 20
2002.373697352687
 30
0.0000000001555553
 40
0.0003
100
AcDbArc
 50
180.0
 51
278.5144784478272
  0
ARC
  5
2284
330
1F
100
AcDbEntity
  8
SANINDUSA
100
AcDbCircle
 10
5365.934961047316
 20
2002.372797352687
 30
0.0000000001555553
 40
0.0008
100
AcDbArc
 50
270.0
 51
278.5144784478272
  0
LINE
  5
2285
330
1F
100
AcDbEntity
  8
SANINDUSA
100
AcDbLine
 10
5365.934263064286
 20
2002.373400659143
 30
0.0000000001555553
 11
5365.935418646487
 21
2002.373573660605
 31
0.0000000001555553
  0
LINE
  5
2286
330
1F
100
AcDbEntity
  8
SANINDUSA
100
AcDbLine
 10
5365.940540834087
 20
2002.374340499989
 30
0.0000000001555553
 11
5365.936618646488
 21
2002.373753311827
 31
0.0000000001555553
  0
LINE
  5
2287
330
1F
100
AcDbEntity
  8
SANINDUSA
100
AcDbLine
 10
5365.935079494779
 20
2002.372006169902
 30
0.0000000001555553
 11
5365.945237093949
 21
2002.373526857487
 31
0.0000000001555553
  0
LINE
  5
2288
330
1F
100
AcDbEntity
  8
SANINDUSA
100
AcDbLine
 10
5365.933918646487
 20
2002.381297352687
 30
0.0000000001555553
 11
5365.933918646487
 21
2002.373697352687
 31
0.0000000001555553
  0
LINE
  5
2289
330
1F
100
AcDbEntity
  8
SANINDUSA
100
AcDbLine
 10
5365.945918646487
 20
2002.374797352687
 30
0.0000000001555553
 11
5365.945918646487
 21
2002.374318040272
 31
0.0000000001555553
  0
LINE
  5
228A
330
1F
100
AcDbEntity
  8
SANINDUSA
100
AcDbLine
 10
5365.936618646488
 20
2002.374397352687
 30
0.0000000001555553
 11
5365.936618646488
 21
2002.373753311827
 31
0.0000000001555553
  0
LINE
  5
228B
330
1F
100
AcDbEntity
  8
SANINDUSA
100
AcDbLine
 10
5365.935418646487
 20
2002.374397352687
 30
0.0000000001555553
 11
5365.935418646487
 21
2002.373573660605
 31
0.0000000001555553
  0
LINE
  5
228C
330
1F
100
AcDbEntity
  8
SANINDUSA
100
AcDbLine
 10
5365.943418646487
 20
2002.374366877679
 30
0.0000000001555553
 11
5365.940600057816
 21
2002.373944908596
 31
0.0000000001555553
  0
LINE
  5
228D
330
1F
100
AcDbEntity
  8
SANINDUSA
100
AcDbLine
 10
5365.943121952944
 20
2002.37432245988
 30
0.0000000001555553
 11
5365.942870252087
 21
2002.376003723298
 31
0.0000000001555553
  0
LINE
  5
228E
330
1F
100
AcDbEntity
  8
SANINDUSA
100
AcDbLine
 10
5365.94272636155
 20
2002.37426323615
 30
0.0000000001555553
 11
5365.942474660695
 21
2002.375944499567
 31
0.0000000001555553
  0
LINE
  5
228F
330
1F
100
AcDbEntity
  8
SANINDUSA
100
AcDbLine
 10
5365.932418646487
 20
2002.382997352687
 30
0.0000000001555553
 11
5365.930161287174
 21
2002.382997352687
 31
0.0000000001555553
  0
ARC
  5
2290
330
1F
100
AcDbEntity
  8
SANINDUSA
100
AcDbCircle
 10
5365.931418646487
 20
2002.380997352687
 30
0.0000000001555553
 40
0.001
100
AcDbArc
 50
0.0
 51
90.0
  0
ARC
  5
2291
330
1F
100
AcDbEntity
  8
SANINDUSA
100
AcDbCircle
 10
5365.930148865384
 20
2002.381647331549
 30
0.0000000001555553
 40
0.00075
100
AcDbArc
 50
47.16775948445802
 51
90.19499109435139
  0
ARC
  5
2292
330
1F
100
AcDbEntity
  8
SANINDUSA
100
AcDbCircle
 10
5365.931168646487
 20
2002.382747352687
 30
0.0000000001555553
 40
0.00075
100
AcDbArc
 50
227.167759484458
 51
270.0
  0
LINE
  5
2293
330
1F
100
AcDbEntity
  8
SANINDUSA
100
AcDbLine
 10
5365.931168646487
 20
2002.381997352687
 30
0.0000000001555553
 11
5365.931418646487
 21
2002.381997352687
 31
0.0000000001555553
  0
LINE
  5
2294
330
1F
100
AcDbEntity
  8
SANINDUSA
100
AcDbLine
 10
5365.926503392162
 20
2002.380561997348
 30
0.0000000001555553
 11
5365.927050017337
 21
2002.381108622524
 31
0.0000000001555553
  0
ARC
  5
2295
330
1F
100
AcDbEntity
  8
SANINDUSA
100
AcDbCircle
 10
5365.925937706737
 20
2002.3800670226
 30
0.0000000001555553
 40
0.0002
100
AcDbArc
 50
45.0000000921187
 51
135.0000000736949
  0
ARC
  5
2296
330
1F
100
AcDbEntity
  8
SANINDUSA
100
AcDbCircle
 10
5365.930161287174
 20
2002.377997352687
 30
0.0000000001555553
 40
0.005
100
AcDbArc
 50
90.0
 51
135.0
  0
ARC
  5
2297
330
1F
100
AcDbEntity
  8
SANINDUSA
100
AcDbCircle
 10
5365.930161287174
 20
2002.377997352687
 30
0.0000000001555553
 40
0.0044
100
AcDbArc
 50
90.19499109435139
 51
135.0
  0
ARC
  5
2298
330
1F
100
AcDbEntity
  8
SANINDUSA
100
AcDbCircle
 10
5365.927104432924
 20
2002.37847603235
 30
0.0000000001555553
 40
0.00075
100
AcDbArc
 50
314.9999999815762
 51
45.0
  0
ARC
  5
2299
330
1F
100
AcDbEntity
  8
SANINDUSA
100
AcDbCircle
 10
5365.927104432924
 20
2002.37847603235
 30
0.0000000001555553
 40
0.0005
100
AcDbArc
 50
314.9999999815762
 51
45.0
  0
ARC
  5
229A
330
1F
100
AcDbEntity
  8
SANINDUSA
100
AcDbCircle
 10
5365.926715524196
 20
2002.380349865314
 30
0.0000000001555553
 40
0.0003
100
AcDbArc
 50
135.0
 51
225.0000001289662
  0
LINE
  5
229B
330
1F
100
AcDbEntity
  8
SANINDUSA
100
AcDbLine
 10
5365.925866996057
 20
2002.380774129381
 30
0.0000000001555553
 11
5365.927634763011
 21
2002.379006362437
 31
0.0000000001555553
  0
LINE
  5
229C
330
1F
100
AcDbEntity
  8
SANINDUSA
100
AcDbLine
 10
5365.926079128093
 20
2002.380208443957
 30
0.0000000001555553
 11
5365.927457986315
 21
2002.37882958574
 31
0.0000000001555553
  0
ARC
  5
229D
330
1F
100
AcDbEntity
  8
SANINDUSA
100
AcDbCircle
 10
5365.921341512654
 20
2002.374975853772
 30
0.0000000001555553
 40
0.0003
100
AcDbArc
 50
45.00000001842375
 51
135.0
  0
ARC
  5
229E
330
1F
100
AcDbEntity
  8
SANINDUSA
100
AcDbCircle
 10
5365.921624355366
 20
2002.375753671219
 30
0.0000000001555553
 40
0.0002
100
AcDbArc
 50
135.0000000736949
 51
225.0000002947798
  0
LINE
  5
229F
330
1F
100
AcDbEntity
  8
SANINDUSA
100
AcDbLine
 10
5365.920928696993
 20
2002.37498730218
 30
0.0000000001555553
 11
5365.92112938062
 21
2002.375187985807
 31
0.0000000001555553
  0
LINE
  5
22A0
330
1F
100
AcDbEntity
  8
SANINDUSA
100
AcDbLine
 10
5365.920504432924
 20
2002.375411566249
 30
0.0000000001555553
 11
5365.926625753268
 21
2002.381532886593
 31
0.0000000001555553
  0
LINE
  5
22A1
330
1F
100
AcDbEntity
  8
SANINDUSA
100
AcDbLine
 10
5365.921482934011
 20
2002.375895092574
 30
0.0000000001555553
 11
5365.925796285381
 21
2002.380208443956
 31
0.0000000001555553
  0
ARC
  5
22A2
330
1F
100
AcDbEntity
  8
SANINDUSA
100
AcDbCircle
 10
5365.931418646487
 20
2002.373997352687
 30
0.0000000001555553
 40
0.001
100
AcDbArc
 50
270.0
 51
0.0
  0
ARC
  5
22A3
330
1F
100
AcDbEntity
  8
SANINDUSA
100
AcDbCircle
 10
5365.926398842585
 20
2002.373347352687
 30
0.0000000001555553
 40
0.00075
100
AcDbArc
 50
270.0
 51
312.8334280650302
  0
ARC
  5
22A4
330
1F
100
AcDbEntity
  8
SANINDUSA
100
AcDbCircle
 10
5365.927418646487
 20
2002.372247352687
 30
0.0000000001555553
 40
0.00075
100
AcDbArc
 50
90.0
 51
132.8334280650302
  0
LINE
  5
22A5
330
1F
100
AcDbEntity
  8
SANINDUSA
100
AcDbLine
 10
5365.931418646487
 20
2002.372997352687
 30
0.0000000001555553
 11
5365.927418646487
 21
2002.372997352687
 31
0.0000000001555553
  0
ARC
  5
22A6
330
1F
100
AcDbEntity
  8
SANINDUSA
100
AcDbCircle
 10
5365.923215345622
 20
2002.374586945046
 30
0.0000000001555553
 40
0.00075
100
AcDbArc
 50
225.0
 51
315.0
  0
ARC
  5
22A7
330
1F
100
AcDbEntity
  8
SANINDUSA
100
AcDbCircle
 10
5365.923215345622
 20
2002.374586945046
 30
0.0000000001555553
 40
0.0005
100
AcDbArc
 50
225.0
 51
315.0
  0
LINE
  5
22A8
330
1F
100
AcDbEntity
  8
SANINDUSA
100
AcDbLine
 10
5365.932418646487
 20
2002.371997352687
 30
0.0000000001555553
 11
5365.921918646487
 21
2002.371997352687
 31
0.0000000001555553
  0
LINE
  5
22A9
330
1F
100
AcDbEntity
  8
SANINDUSA
100
AcDbLine
 10
5365.926398842585
 20
2002.372597352687
 30
0.0000000001555553
 11
5365.921918646487
 21
2002.372597352687
 31
0.0000000001555553
  0
ARC
  5
22AA
330
1F
100
AcDbEntity
  8
SANINDUSA
100
AcDbCircle
 10
5365.921918646487
 20
2002.373997352687
 30
0.0000000001555553
 40
0.002
100
AcDbArc
 50
135.0
 51
270.0
  0
LINE
  5
22AB
330
1F
100
AcDbEntity
  8
SANINDUSA
100
AcDbLine
 10
5365.923745675708
 20
2002.374056614961
 30
0.0000000001555553
 11
5365.927634763011
 21
2002.377945702264
 31
0.0000000001555553
  0
ARC
  5
22AC
330
1F
100
AcDbEntity
  8
SANINDUSA
100
AcDbCircle
 10
5365.921918646487
 20
2002.373997352687
 30
0.0000000001555553
 40
0.0014
100
AcDbArc
 50
135.0
 51
270.0
  0
LINE
  5
22AD
330
1F
100
AcDbEntity
  8
SANINDUSA
100
AcDbLine
 10
5365.920917248585
 20
2002.37582438191
 30
0.0000000001555553
 11
5365.922685015537
 21
2002.374056614961
 31
0.0000000001555553
  0
LINE
  5
22AE
330
1F
100
AcDbEntity
  8
SANINDUSA
100
AcDbLine
 10
5365.932418646487
 20
2002.380997352687
 30
0.0000000001555553
 11
5365.932418646487
 21
2002.373997352687
 31
0.0000000001555553
  0
HATCH
  5
22AF
330
1F
100
AcDbEntity
  8
SANINDUSA
100
AcDbHatch
 10
0.0
 20
0.0
 30
0.0000000001555553
210
0.0
220
0.0
230
1.0
  2
ANSI31
 70
     0
 71
     0
 91
        1
 92
        7
 72
     1
 73
     1
 93
        8
 10
5365.927457986314
 20
2002.378829585741
 42
0.0
 10
5365.926079128093
 20
2002.380208443957
 42
0.414213562178905
 10
5365.925796285381
 20
2002.380208443956
 42
0.0
 10
5365.921482934011
 20
2002.375895092574
 42
0.4142135636146872
 10
5365.921482934012
 20
2002.375612249862
 42
0.0
 10
5365.922861792234
 20
2002.374233391654
 42
0.4142135608152901
 10
5365.923568899013
 20
2002.374233391656
 42
0.0
 10
5365.927457986315
 20
2002.37812247896
 42
0.4142135628833784
 97
        0
 75
     0
 76
     1
 52
45.0
 41
0.00025
 77
     0
 78
     1
 53
90.0
 43
5365.657804111847
 44
2001.982225451298
 45
-0.00079375
 46
0.0
 79
     0
 47
0.0364805528584695
 98
        1
 10
5365.926519168749
 20
2002.37835058906
  0
LINE
  5
22B0
330
1F
100
AcDbEntity
  8
SANINDUSA
100
AcDbLine
 10
5365.923568899013
 20
2002.374233391656
 30
0.0000000001555553
 11
5365.927457986315
 21
2002.37812247896
 31
0.0000000001555553
  0
LINE
  5
22B1
330
1F
100
AcDbEntity
  8
SANINDUSA
100
AcDbLine
 10
5365.921482934012
 20
2002.375612249862
 30
0.0000000001555553
 11
5365.922861792231
 21
2002.374233391656
 31
0.0000000001555553
  0
LINE
  5
22B2
330
1F
100
AcDbEntity
  8
SANINDUSA
100
AcDbLine
 10
5365.932418646487
 20
2002.382997352687
 30
0.0000000001555553
 11
5365.934961047316
 21
2002.382997352687
 31
0.0000000001555553
  0
LINE
  5
22B3
330
1F
100
AcDbEntity
  8
SANINDUSA
100
AcDbLine
 10
5365.932418646487
 20
2002.371997352687
 30
0.0000000001555553
 11
5365.934961047316
 21
2002.371997352687
 31
0.0000000001555553
  0
LINE
  5
22B4
330
1F
100
AcDbEntity
  8
SANINDUSA
100
AcDbLine
 10
5365.923839553286
 20
2002.382801572154
 30
0.0000000001555553
 11
5365.923132446504
 21
2002.383508678935
 31
0.0000000001555553
  0
LINE
  5
22B5
330
1F
100
AcDbEntity
  8
SANINDUSA
100
AcDbLine
 10
5365.923132446504
 20
2002.383508678935
 30
0.0000000001555553
 11
5365.918182699036
 21
2002.378558931467
 31
0.0000000001555553
  0
LINE
  5
22B6
330
1F
100
AcDbEntity
  8
SANINDUSA
100
AcDbLine
 10
5365.923132446504
 20
2002.382094465373
 30
0.0000000001555553
 11
5365.923839553286
 21
2002.382801572154
 31
0.0000000001555553
  0
LINE
  5
22B7
330
1F
100
AcDbEntity
  8
SANINDUSA
100
AcDbLine
 10
5365.918182699036
 20
2002.378558931467
 30
0.0000000001555553
 11
5365.918889805818
 21
2002.377851824686
 31
0.0000000001555553
  0
LINE
  5
22B8
330
1F
100
AcDbEntity
  8
SANINDUSA
100
AcDbLine
 10
5365.924193106677
 20
2002.381033805201
 30
0.0000000001555553
 11
5365.923132446504
 21
2002.382094465373
 31
0.0000000001555553
  0
LINE
  5
22B9
330
1F
100
AcDbEntity
  8
SANINDUSA
100
AcDbLine
 10
5365.918889805818
 20
2002.377851824686
 30
0.0000000001555553
 11
5365.919596912599
 21
2002.378558931467
 31
0.0000000001555553
  0
LINE
  5
22BA
330
1F
100
AcDbEntity
  8
SANINDUSA
100
AcDbLine
 10
5365.92065757277
 20
2002.377498271295
 30
0.0000000001555553
 11
5365.924193106677
 21
2002.381033805201
 31
0.0000000001555553
  0
LINE
  5
22BB
330
1F
100
AcDbEntity
  8
SANINDUSA
100
AcDbLine
 10
5365.919596912599
 20
2002.378558931467
 30
0.0000000001555553
 11
5365.92065757277
 21
2002.377498271295
 31
0.0000000001555553
  0
ENDSEC
  0
SECTION
  2
OBJECTS
  0
DICTIONARY
  5
C
330
0
100
AcDbDictionary
281
     1
  3
ACAD_2007HEADERVARS_RT
350
2489
  3
ACAD_COLOR
350
EE6
  3
ACAD_GROUP
350
D
  3
ACAD_LAYOUT
350
1A
  3
ACAD_MATERIAL
350
EE5
  3
ACAD_MLEADERSTYLE
350
23D8
  3
ACAD_MLINESTYLE
350
17
  3
ACAD_PLOTSETTINGS
350
19
  3
ACAD_PLOTSTYLENAME
350
E
  3
ACAD_SCALELIST
350
23C6
  3
ACAD_TABLESTYLE
350
EE7
  3
ACAD_VISUALSTYLE
350
23B2
  3
ACDB_RECOMPOSE_DATA
350
2487
  3
AcDbVariableDictionary
350
3D
  3
ASE_INDEX_DICTIONARY
350
E77
  3
DWGPROPS
350
2488
  0
DICTIONARY
  5
1051
330
2
100
AcDbDictionary
280
     1
281
     1
  3
ACAD_LAYERFILTERS
360
1057
  3
ACLYDICTIONARY
360
1056
  0
DICTIONARY
  5
2420
330
10
100
AcDbDictionary
280
     1
281
     1
  3
ADSK_XREC_LAYER_RECONCILED
360
2421
  0
DICTIONARY
  5
2422
330
2F
100
AcDbDictionary
280
     1
281
     1
  3
ADSK_XREC_LAYER_RECONCILED
360
2423
  0
DICTIONARY
  5
2424
330
30
100
AcDbDictionary
280
     1
281
     1
  3
ADSK_XREC_LAYER_RECONCILED
360
2425
  0
DICTIONARY
  5
2426
330
31
100
AcDbDictionary
280
     1
281
     1
  3
ADSK_XREC_LAYER_RECONCILED
360
2427
  0
DICTIONARY
  5
2428
330
32
100
AcDbDictionary
280
     1
281
     1
  3
ADSK_XREC_LAYER_RECONCILED
360
2429
  0
DICTIONARY
  5
242A
330
33
100
AcDbDictionary
280
     1
281
     1
  3
ADSK_XREC_LAYER_RECONCILED
360
242B
  0
DICTIONARY
  5
242C
330
34
100
AcDbDictionary
280
     1
281
     1
  3
ADSK_XREC_LAYER_RECONCILED
360
242D
  0
DICTIONARY
  5
242E
330
35
100
AcDbDictionary
280
     1
281
     1
  3
ADSK_XREC_LAYER_RECONCILED
360
242F
  0
DICTIONARY
  5
2430
330
36
100
AcDbDictionary
280
     1
281
     1
  3
ADSK_XREC_LAYER_RECONCILED
360
2431
  0
DICTIONARY
  5
2432
330
37
100
AcDbDictionary
280
     1
281
     1
  3
ADSK_XREC_LAYER_RECONCILED
360
2433
  0
DICTIONARY
  5
2434
330
5D6
100
AcDbDictionary
280
     1
281
     1
  3
ADSK_XREC_LAYER_RECONCILED
360
2435
  0
DICTIONARY
  5
2436
330
8AF
100
AcDbDictionary
280
     1
281
     1
  3
ADSK_XREC_LAYER_RECONCILED
360
2437
  0
DICTIONARY
  5
2438
330
8F8
100
AcDbDictionary
280
     1
281
     1
  3
ADSK_XREC_LAYER_RECONCILED
360
2439
  0
DICTIONARY
  5
243A
330
91D
100
AcDbDictionary
280
     1
281
     1
  3
ADSK_XREC_LAYER_RECONCILED
360
243B
  0
DICTIONARY
  5
243C
330
C7B
100
AcDbDictionary
280
     1
281
     1
  3
ADSK_XREC_LAYER_RECONCILED
360
243D
  0
DICTIONARY
  5
243E
330
10DD
100
AcDbDictionary
280
     1
281
     1
  3
ADSK_XREC_LAYER_RECONCILED
360
243F
  0
DICTIONARY
  5
21DF
330
1F
100
AcDbDictionary
280
     1
281
     1
  3
ACAD_SORTENTS
360
21E0
  0
DICTIONARY
  5
2492
330
1EA4
100
AcDbDictionary
280
     1
281
     1
  3
ACAD_MTEXT_RT
360
2493
  0
DICTIONARY
  5
2489
102
{ACAD_REACTORS
330
C
102
}
330
C
100
AcDbDictionary
281
     1
  3
DIMJOGANG
350
248A
  0
DICTIONARY
  5
EE6
102
{ACAD_REACTORS
330
C
102
}
330
C
100
AcDbDictionary
281
     1
  0
DICTIONARY
  5
D
102
{ACAD_REACTORS
330
C
102
}
330
C
100
AcDbDictionary
281
     1
  0
DICTIONARY
  5
1A
102
{ACAD_REACTORS
330
C
102
}
330
C
100
AcDbDictionary
281
     1
  3
Layout1
350
1E
  3
Layout2
350
26
  3
Model
350
22
  0
DICTIONARY
  5
EE5
102
{ACAD_REACTORS
330
C
102
}
330
C
100
AcDbDictionary
281
     1
  3
ByBlock
350
23A2
  3
ByLayer
350
239A
  3
Global
350
23AA
  0
DICTIONARY
  5
23D8
102
{ACAD_REACTORS
330
C
102
}
330
C
100
AcDbDictionary
281
     1
  3
Standard
350
23D9
  0
DICTIONARY
  5
17
102
{ACAD_REACTORS
330
C
102
}
330
C
100
AcDbDictionary
281
     1
  3
Standard
350
18
  0
DICTIONARY
  5
19
102
{ACAD_REACTORS
330
C
102
}
330
C
100
AcDbDictionary
281
     1
  0
ACDBDICTIONARYWDFLT
  5
E
102
{ACAD_REACTORS
330
C
102
}
330
C
100
AcDbDictionary
281
     1
  3
Normal
350
F
100
AcDbDictionaryWithDefault
340
F
  0
DICTIONARY
  5
23C6
102
{ACAD_REACTORS
330
C
102
}
330
C
100
AcDbDictionary
281
     1
  3
A0
350
23C7
  3
A1
350
23C8
  3
A2
350
23C9
  3
A3
350
23CA
  3
A4
350
23CB
  3
A5
350
23CC
  3
A6
350
23CD
  3
A7
350
23CE
  3
A8
350
23CF
  3
A9
350
23D0
  3
B0
350
23D1
  3
B1
350
23D2
  3
B2
350
23D3
  3
B3
350
23D4
  3
B4
350
23D5
  3
B5
350
23D6
  3
B6
350
23D7
  0
DICTIONARY
  5
EE7
102
{ACAD_REACTORS
330
C
102
}
330
C
100
AcDbDictionary
281
     1
  3
Standard
350
EE8
  0
DICTIONARY
  5
23B2
102
{ACAD_REACTORS
330
C
102
}
330
C
100
AcDbDictionary
281
     1
  3
2dWireframe
350
23B8
  3
3D Hidden
350
23BA
  3
3dWireframe
350
23B9
  3
Basic
350
23B7
  3
Brighten
350
23BE
  3
ColorChange
350
23C2
  3
Conceptual
350
23BB
  3
Dim
350
23BD
  3
EdgeColorOff
350
23C5
  3
Facepattern
350
23C1
  3
Flat
350
23B3
  3
FlatWithEdges
350
23B4
  3
Gouraud
350
23B5
  3
GouraudWithEdges
350
23B6
  3
JitterOff
350
23C3
  3
Linepattern
350
23C0
  3
OverhangOff
350
23C4
  3
Realistic
350
23BC
  3
Thicken
350
23BF
  0
XRECORD
  5
2487
102
{ACAD_REACTORS
330
C
102
}
330
C
100
AcDbXrecord
280
     1
 90
        1
330
EE8
  0
DICTIONARY
  5
3D
102
{ACAD_REACTORS
330
C
102
}
330
C
100
AcDbDictionary
281
     1
  3
CANNOSCALE
350
2481
  3
CMLEADERSTYLE
350
2480
  3
CTABLESTYLE
350
1049
  3
DIMASSOC
350
3F
  3
HIDETEXT
350
3E
  3
INDEXCTL
350
2483
  3
PROJECTNAME
350
21BA
  3
SORTENTS
350
2482
  3
XCLIPFRAME
350
2484
  0
DICTIONARY
  5
E77
102
{ACAD_REACTORS
330
C
102
}
330
C
100
AcDbDictionary
281
     1
  3
ASEBlockHierarchyIndexRecord
350
E78
1001
DCO15
1040
1552647238.734
  0
XRECORD
  5
2488
102
{ACAD_REACTORS
330
C
102
}
330
C
100
AcDbXrecord
280
     1
  1
DWGPROPS COOKIE
  2

  3

  4

  6

  7

  8
Julio
  9

300
=
301
=
302
=
303
=
304
=
305
=
306
=
307
=
308
=
309
=
 40
0.0831429050925926
 41
2454138.432731481
 42
2455824.615788658
  1

 90
        0
  0
DICTIONARY
  5
1057
102
{ACAD_REACTORS
330
1051
102
}
330
1051
100
AcDbDictionary
281
     1
  0
DICTIONARY
  5
1056
102
{ACAD_REACTORS
330
1051
102
}
330
1051
100
AcDbDictionary
281
     1
1001
ACAD
1000
<All
  0
XRECORD
  5
2421
102
{ACAD_REACTORS
330
2420
102
}
330
2420
100
AcDbXrecord
280
     1
290
     1
  0
XRECORD
  5
2423
102
{ACAD_REACTORS
330
2422
102
}
330
2422
100
AcDbXrecord
280
     1
290
     1
  0
XRECORD
  5
2425
102
{ACAD_REACTORS
330
2424
102
}
330
2424
100
AcDbXrecord
280
     1
290
     1
  0
XRECORD
  5
2427
102
{ACAD_REACTORS
330
2426
102
}
330
2426
100
AcDbXrecord
280
     1
290
     1
  0
XRECORD
  5
2429
102
{ACAD_REACTORS
330
2428
102
}
330
2428
100
AcDbXrecord
280
     1
290
     1
  0
XRECORD
  5
242B
102
{ACAD_REACTORS
330
242A
102
}
330
242A
100
AcDbXrecord
280
     1
290
     1
  0
XRECORD
  5
242D
102
{ACAD_REACTORS
330
242C
102
}
330
242C
100
AcDbXrecord
280
     1
290
     1
  0
XRECORD
  5
242F
102
{ACAD_REACTORS
330
242E
102
}
330
242E
100
AcDbXrecord
280
     1
290
     1
  0
XRECORD
  5
2431
102
{ACAD_REACTORS
330
2430
102
}
330
2430
100
AcDbXrecord
280
     1
290
     1
  0
XRECORD
  5
2433
102
{ACAD_REACTORS
330
2432
102
}
330
2432
100
AcDbXrecord
280
     1
290
     1
  0
XRECORD
  5
2435
102
{ACAD_REACTORS
330
2434
102
}
330
2434
100
AcDbXrecord
280
     1
290
     1
  0
XRECORD
  5
2437
102
{ACAD_REACTORS
330
2436
102
}
330
2436
100
AcDbXrecord
280
     1
290
     1
  0
XRECORD
  5
2439
102
{ACAD_REACTORS
330
2438
102
}
330
2438
100
AcDbXrecord
280
     1
290
     1
  0
XRECORD
  5
243B
102
{ACAD_REACTORS
330
243A
102
}
330
243A
100
AcDbXrecord
280
     1
290
     1
  0
XRECORD
  5
243D
102
{ACAD_REACTORS
330
243C
102
}
330
243C
100
AcDbXrecord
280
     1
290
     1
  0
XRECORD
  5
243F
102
{ACAD_REACTORS
330
243E
102
}
330
243E
100
AcDbXrecord
280
     1
290
     1
  0
SORTENTSTABLE
  5
21E0
102
{ACAD_REACTORS
330
21DF
102
}
330
21DF
100
AcDbSortentsTable
330
1F
331
16A4
  5
16EE
331
1647
  5
1647
331
1666
  5
1666
331
1685
  5
1685
331
2269
  5
17F8
331
222B
  5
16D7
331
224A
  5
17D9
331
22A7
  5
1844
331
1F81
  5
2273
331
1656
  5
1656
331
1675
  5
1675
331
1694
  5
1694
331
1FAF
  5
22A1
331
2278
  5
1815
331
2297
  5
1834
331
22B6
  5
1854
331
221B
  5
16C6
331
223A
  5
17FA
331
2259
  5
17E8
331
1F90
  5
2282
331
1F71
  5
2263
331
1684
  5
1684
331
1646
  5
1646
331
1665
  5
1665
331
16A3
  5
16ED
331
2287
  5
1824
331
2249
  5
17D8
331
222A
  5
16D5
331
2268
  5
17F7
331
22A6
  5
1843
331
1F9F
  5
2291
331
1F80
  5
2272
331
1693
  5
1693
331
1655
  5
1655
331
1674
  5
1674
331
2207
  5
16B1
331
1FAE
  5
22A0
331
2258
  5
17E7
331
2296
  5
1833
331
22B5
  5
1853
331
221A
  5
16C5
331
2239
  5
17F9
331
2277
  5
1814
331
1F8F
  5
2281
331
1F70
  5
2262
331
16A2
  5
16EC
331
1645
  5
1645
331
1664
  5
1664
331
1683
  5
1683
331
1707
  5
1751
331
1FBD
  5
22AF
331
21F7
  5
16A1
331
2267
  5
17F6
331
2229
  5
16D4
331
2248
  5
17D7
331
2286
  5
1823
331
22A5
  5
1842
331
1F9E
  5
2290
331
1F7F
  5
2271
331
1673
  5
1673
331
1654
  5
1654
331
1692
  5
1692
331
16F7
  5
1741
331
21E7
  5
17CB
331
2206
  5
16B0
331
2276
  5
1813
331
2238
  5
16E4
331
2295
  5
1832
331
22B4
  5
1852
331
2219
  5
16C4
331
2257
  5
17E6
331
1F8E
  5
2280
331
1F6F
  5
2261
331
1682
  5
1682
331
1644
  5
1644
331
1663
  5
1663
331
16A1
  5
16EB
331
1706
  5
1750
331
16E7
  5
1731
331
1FBC
  5
22AE
331
21D7
  5
17BD
331
21F6
  5
16A0
331
2285
  5
1822
331
2247
  5
17D6
331
2228
  5
16D3
331
2266
  5
17F5
331
22A4
  5
1841
331
1F9D
  5
228F
331
1F7E
  5
2270
331
1691
  5
1691
331
1653
  5
1653
331
1672
  5
1672
331
16D7
  5
1721
331
16F6
  5
1740
331
21C7
  5
17AD
331
21E6
  5
17CA
331
2205
  5
16AF
331
1FAC
  5
229E
331
2256
  5
17E5
331
2294
  5
1831
331
22B3
  5
1850
331
2218
  5
16C3
331
2237
  5
16E3
331
2275
  5
1812
331
1F8D
  5
227F
331
1F6E
  5
2260
331
1662
  5
1662
331
1643
  5
1643
331
1681
  5
1681
331
16A0
  5
16EA
331
16E6
  5
1730
331
16C7
  5
1711
331
1705
  5
174F
331
21D6
  5
17BC
331
21F5
  5
169F
331
1FBB
  5
22AD
331
2265
  5
17F4
331
2227
  5
16D2
331
2246
  5
17D5
331
2284
  5
1821
331
22A3
  5
1840
331
1F9C
  5
228E
331
1F7D
  5
226F
331
1671
  5
1671
331
1652
  5
1652
331
1690
  5
1690
331
1714
  5
1761
331
16B7
  5
1701
331
16D6
  5
1720
331
16F5
  5
173F
331
21C6
  5
17AC
331
21E5
  5
17C9
331
2204
  5
16AE
331
1FAB
  5
229D
331
2178
  5
22BB
331
2274
  5
1811
331
2236
  5
16E2
331
22B2
  5
184F
331
2293
  5
1830
331
2217
  5
16C2
331
2255
  5
17E4
331
1F8C
  5
227E
331
1F6D
  5
225F
331
1680
  5
1680
331
1642
  5
1642
331
1661
  5
1661
331
1704
  5
174E
331
16C6
  5
1710
331
16E5
  5
172F
331
21D5
  5
17BB
331
21F4
  5
169E
331
1FBA
  5
22AC
331
2283
  5
1820
331
2245
  5
1805
331
2226
  5
16D1
331
2264
  5
17F3
331
22A2
  5
183F
331
1F9B
  5
228D
331
1F7C
  5
226E
331
1651
  5
1651
331
1670
  5
1670
331
16D5
  5
171F
331
16B6
  5
1700
331
16F4
  5
173E
331
21C5
  5
17AB
331
21E4
  5
17C8
331
2203
  5
16AD
331
2254
  5
17E3
331
2292
  5
182F
331
22B1
  5
184E
331
2216
  5
16C1
331
2235
  5
16E1
331
2273
  5
1810
331
1F8B
  5
227D
331
1660
  5
1660
331
1641
  5
1641
331
1703
  5
174D
331
16C5
  5
170F
331
16E4
  5
172E
331
21D4
  5
17BA
331
21F3
  5
169D
331
1FB9
  5
22AB
331
2263
  5
17F2
331
2225
  5
16D0
331
2244
  5
1804
331
2282
  5
181F
331
22A1
  5
183E
331
1F9A
  5
228C
331
1F7B
  5
226D
331
1650
  5
1650
331
16B5
  5
16FF
331
16D4
  5
171E
331
16F3
  5
173D
331
21C4
  5
17AA
331
21E3
  5
17C7
331
2202
  5
16AC
331
2272
  5
180F
331
2234
  5
16E0
331
22B0
  5
184D
331
2291
  5
182E
331
2215
  5
16C0
331
2253
  5
17E2
331
1F8A
  5
227C
331
1640
  5
1640
331
1702
  5
174C
331
16C4
  5
170E
331
16E3
  5
172D
331
21D3
  5
17B9
331
21F2
  5
169C
331
1FB8
  5
22AA
331
2281
  5
181E
331
2243
  5
1803
331
2224
  5
16CF
331
2262
  5
17F1
331
22A0
  5
183D
331
1F99
  5
228B
331
1F7A
  5
226C
331
16F2
  5
173C
331
16B4
  5
16FE
331
16D3
  5
171D
331
1FC7
  5
22B9
331
2201
  5
16AB
331
21C3
  5
17A9
331
21E2
  5
17C6
331
2252
  5
17E1
331
2290
  5
182D
331
22AF
  5
184C
331
2214
  5
16BF
331
2233
  5
16DF
331
2271
  5
180E
331
1701
  5
174B
331
16C3
  5
170D
331
16E2
  5
172C
331
21D2
  5
17B8
331
21F1
  5
169B
331
2261
  5
17F0
331
229F
  5
183C
331
2223
  5
16CE
331
2242
  5
1802
331
2280
  5
181D
331
1F98
  5
228A
331
1F79
  5
226B
331
16B3
  5
16FD
331
16D2
  5
171C
331
16F1
  5
173B
331
2174
  5
22BA
331
1FC6
  5
22B8
331
21C2
  5
17A8
331
21E1
  5
17C5
331
2200
  5
16AA
331
2270
  5
180D
331
2232
  5
16DE
331
22AE
  5
184B
331
228F
  5
182C
331
2213
  5
16BE
331
2251
  5
17E0
331
1F88
  5
227A
331
1700
  5
174A
331
16E1
  5
172B
331
16C2
  5
170C
331
21D1
  5
17B7
331
21F0
  5
169A
331
220F
  5
16BA
331
2241
  5
1801
331
229E
  5
183B
331
2222
  5
16CD
331
2260
  5
17EF
331
1F78
  5
226A
331
16F0
  5
173A
331
16B2
  5
16FC
331
16D1
  5
171B
331
170F
  5
175C
331
1FC5
  5
22B7
331
21C1
  5
17A7
331
21FF
  5
16A9
331
2250
  5
17DF
331
22AD
  5
184A
331
228E
  5
182B
331
2212
  5
16BD
331
2231
  5
16DD
331
16FF
  5
1749
331
16C1
  5
170B
331
16E0
  5
172A
331
21D0
  5
17B6
331
21EF
  5
1699
331
220E
  5
16B9
331
229D
  5
183A
331
2221
  5
16CC
331
2240
  5
1800
331
170E
  5
1758
331
16D0
  5
171A
331
16B1
  5
16FB
331
16EF
  5
1739
331
21FE
  5
16A8
331
1FA5
  5
2297
331
2230
  5
16DC
331
22AC
  5
1849
331
228D
  5
182A
331
2211
  5
16BC
331
16DF
  5
1729
331
16C0
  5
170A
331
16FE
  5
1748
331
21CF
  5
17B5
331
21EE
  5
17D2
331
220D
  5
16B8
331
22BB
  5
1859
331
229C
  5
1839
331
2220
  5
16CB
331
16EE
  5
1738
331
16B0
  5
16FA
331
16CF
  5
1719
331
170D
  5
1757
331
21DE
  5
17C4
331
21FD
  5
16A7
331
1FA4
  5
2296
331
1FC3
  5
22B5
331
22AB
  5
1848
331
228C
  5
1829
331
2210
  5
16BB
331
16FD
  5
1747
331
16BF
  5
1709
331
16DE
  5
1728
331
21CE
  5
17B4
331
21ED
  5
17D1
331
220C
  5
16B6
331
1FB3
  5
22A5
331
229B
  5
1838
331
22BA
  5
1858
331
170C
  5
1756
331
16CE
  5
1718
331
16AF
  5
16F9
331
16ED
  5
1737
331
1FC2
  5
22B4
331
21DD
  5
17C3
331
21FC
  5
16A6
331
1FA3
  5
2295
331
22AA
  5
1847
331
228B
  5
1828
331
16DD
  5
1727
331
16BE
  5
1708
331
16FC
  5
1746
331
21CD
  5
17B3
331
21EC
  5
17D0
331
220B
  5
16B5
331
1FB2
  5
22A4
331
22B9
  5
1857
331
229A
  5
1837
331
16EC
  5
1736
331
16AE
  5
16F8
331
16CD
  5
1717
331
170B
  5
1755
331
21DC
  5
17C2
331
21FB
  5
16A5
331
1FA2
  5
2294
331
22A9
  5
1846
331
228A
  5
1827
331
16FB
  5
1745
331
16BD
  5
1707
331
16DC
  5
1726
331
21CC
  5
17B2
331
21EB
  5
17CF
331
220A
  5
16B4
331
1FB1
  5
22A3
331
2299
  5
1836
331
22B8
  5
1856
331
170A
  5
1754
331
16CC
  5
1716
331
16AD
  5
16F7
331
16EB
  5
1735
331
21DB
  5
17C1
331
21FA
  5
16A4
331
1FA1
  5
2293
331
22A8
  5
1845
331
2289
  5
1826
331
16DB
  5
1725
331
16BC
  5
1706
331
16FA
  5
1744
331
21CB
  5
17B1
331
21EA
  5
17CE
331
2209
  5
16B3
331
1FB0
  5
22A2
331
2298
  5
1835
331
16EA
  5
1734
331
16AC
  5
16F6
331
16CB
  5
1715
331
1709
  5
1753
331
1766
  5
185F
331
21DA
  5
17C0
331
21F9
  5
16A3
331
1FA0
  5
2292
331
2288
  5
1825
331
16F9
  5
1743
331
16BB
  5
1705
331
16DA
  5
1724
331
21CA
  5
17B0
331
21E9
  5
17CD
331
2208
  5
16B2
331
1708
  5
1752
331
16CA
  5
1714
331
1765
  5
185E
331
16AB
  5
16F5
331
16E9
  5
1733
331
21D9
  5
17BF
331
21F8
  5
16A2
331
16D9
  5
1723
331
16BA
  5
1704
331
16F8
  5
1742
331
21C9
  5
17AF
331
21E8
  5
17CC
331
16E8
  5
1732
331
1764
  5
185D
331
16AA
  5
16F4
331
16C9
  5
1713
331
21D8
  5
17BE
331
16B9
  5
1703
331
16D8
  5
1722
331
21C8
  5
17AE
331
16C8
  5
1712
331
1763
  5
185C
331
16A9
  5
16F3
331
16B8
  5
1702
331
1762
  5
185B
331
16A8
  5
16F2
331
1761
  5
185A
331
169F
  5
16E9
331
168F
  5
168F
331
167F
  5
167F
331
169E
  5
16E8
331
166F
  5
166F
331
168E
  5
168E
331
167E
  5
167E
331
165F
  5
165F
331
169D
  5
16E7
331
164F
  5
164F
331
166E
  5
166E
331
168D
  5
168D
331
165E
  5
165E
331
163F
  5
163F
331
167D
  5
167D
331
169C
  5
16E6
331
166D
  5
166D
331
164E
  5
164E
331
168C
  5
168C
331
167C
  5
167C
331
165D
  5
165D
331
227F
  5
181C
331
1F97
  5
2289
331
164D
  5
164D
331
166C
  5
166C
331
168B
  5
168B
331
226F
  5
180C
331
1F87
  5
2279
331
165C
  5
165C
331
167B
  5
167B
331
225F
  5
17EE
331
227E
  5
181B
331
1F96
  5
2288
331
1F77
  5
2269
331
166B
  5
166B
331
164C
  5
164C
331
168A
  5
168A
331
224F
  5
17DE
331
226E
  5
180B
331
1F86
  5
2278
331
167A
  5
167A
331
165B
  5
165B
331
223F
  5
17FF
331
225E
  5
17ED
331
227D
  5
181A
331
1F95
  5
2287
331
1F76
  5
2268
331
164B
  5
164B
331
166A
  5
166A
331
1689
  5
1689
331
224E
  5
17DD
331
222F
  5
16DB
331
226D
  5
180A
331
1F85
  5
2277
331
165A
  5
165A
331
1679
  5
1679
331
227C
  5
1819
331
221F
  5
16CA
331
223E
  5
17FE
331
225D
  5
17EC
331
1F94
  5
2286
331
1F75
  5
2267
331
1669
  5
1669
331
164A
  5
164A
331
1688
  5
1688
331
16A7
  5
16F1
331
222E
  5
16DA
331
224D
  5
17DC
331
226C
  5
1809
331
1F84
  5
2276
331
1678
  5
1678
331
1659
  5
1659
331
1697
  5
1697
331
223D
  5
17FD
331
221E
  5
16C9
331
225C
  5
17EB
331
227B
  5
1818
331
1F93
  5
2285
331
1F74
  5
2266
331
16A6
  5
16F0
331
1649
  5
1649
331
1668
  5
1668
331
1687
  5
1687
331
226B
  5
1808
331
222D
  5
16D9
331
224C
  5
17DB
331
1F83
  5
2275
331
1658
  5
1658
331
1677
  5
1677
331
1696
  5
1696
331
227A
  5
1817
331
221D
  5
16C8
331
223C
  5
17FC
331
225B
  5
17EA
331
1F92
  5
2284
331
1F73
  5
2265
331
1667
  5
1667
331
1648
  5
1648
331
1686
  5
1686
331
16A5
  5
16EF
331
222C
  5
16D8
331
224B
  5
17DA
331
226A
  5
1807
331
1F82
  5
2274
331
1695
  5
1695
331
1657
  5
1657
331
1676
  5
1676
331
225A
  5
17E9
331
22B7
  5
1855
331
221C
  5
16C7
331
223B
  5
17FB
331
2279
  5
1816
331
1F91
  5
2283
331
1F72
  5
2264
  0
XRECORD
  5
2493
102
{ACAD_REACTORS
330
2492
102
}
330
2492
100
AcDbXrecord
280
     1
 40
3752.0
  1
90,0°
  0
XRECORD
  5
248A
102
{ACAD_REACTORS
330
2489
102
}
330
2489
100
AcDbXrecord
280
     1
 40
1.570796326794896
  0
LAYOUT
  5
1E
102
{ACAD_XDICTIONARY
360
248B
102
}
102
{ACAD_REACTORS
330
1A
102
}
330
1A
100
AcDbPlotSettings
  1

  2
Ploter HP500
  4

  6

 40
0.0
 41
0.0
 42
0.0
 43
0.0
 44
0.0
 45
0.0
 46
0.0
 47
0.0
 48
0.0
 49
0.0
140
0.0
141
0.0
142
1.0
143
1.0
 70
   688
 72
     0
 73
     0
 74
     5
  7
sanindusa.ctb
 75
    16
147
1.0
148
0.0
149
0.0
100
AcDbLayout
  1
Layout1
 70
     1
 71
     1
 10
0.0
 20
0.0
 11
420.0
 21
297.0
 12
0.0
 22
0.0
 32
0.0
 14
1.000000000000000E+20
 24
1.000000000000000E+20
 34
1.000000000000000E+20
 15
-1.000000000000000E+20
 25
-1.000000000000000E+20
 35
-1.000000000000000E+20
146
0.0
 13
0.0
 23
0.0
 33
0.0
 16
1.0
 26
0.0
 36
0.0
 17
0.0
 27
1.0
 37
0.0
 76
     0
330
1B
  0
LAYOUT
  5
26
102
{ACAD_XDICTIONARY
360
248F
102
}
102
{ACAD_REACTORS
330
1A
102
}
330
1A
100
AcDbPlotSettings
  1

  2
Ploter HP500
  4

  6

 40
0.0
 41
0.0
 42
0.0
 43
0.0
 44
0.0
 45
0.0
 46
0.0
 47
0.0
 48
0.0
 49
0.0
140
0.0
141
0.0
142
1.0
143
1.0
 70
   688
 72
     0
 73
     0
 74
     5
  7
sanindusa.ctb
 75
    16
147
1.0
148
0.0
149
0.0
100
AcDbLayout
  1
Layout2
 70
     1
 71
     2
 10
0.0
 20
0.0
 11
12.0
 21
9.0
 12
0.0
 22
0.0
 32
0.0
 14
0.0
 24
0.0
 34
0.0
 15
0.0
 25
0.0
 35
0.0
146
0.0
 13
0.0
 23
0.0
 33
0.0
 16
1.0
 26
0.0
 36
0.0
 17
0.0
 27
1.0
 37
0.0
 76
     0
330
23
  0
LAYOUT
  5
22
102
{ACAD_XDICTIONARY
360
248D
102
}
102
{ACAD_REACTORS
330
1A
102
}
330
1A
100
AcDbPlotSettings
  1

  2
Ploter HP500
  4
User268
  6

 40
4.995333194732666
 41
16.97565841674804
 42
4.995330810546875
 43
16.97567749023437
 44
209.9733276367187
 45
296.9259948730469
 46
0.0
 47
0.0
 48
0.0
 49
0.0
140
0.0
141
0.0
142
1.0
143
1.0
 70
 11952
 72
     1
 73
     1
 74
     0
  7
sanindusa.ctb
 75
     0
147
1.0
148
-427.5957866592534
149
7.362384574453926
100
AcDbLayout
  1
Model
 70
     1
 71
     0
 10
0.0
 20
0.0
 11
12.0
 21
9.0
 12
0.0
 22
0.0
 32
0.0
 14
0.0
 24
0.0
 34
0.0
 15
0.0
 25
0.0
 35
0.0
146
0.0
 13
0.0
 23
0.0
 33
0.0
 16
1.0
 26
0.0
 36
0.0
 17
0.0
 27
1.0
 37
0.0
 76
     0
330
1F
331
2391
  0
MATERIAL
  5
23A2
102
{ACAD_XDICTIONARY
360
23A3
102
}
102
{ACAD_REACTORS
330
EE5
102
}
330
EE5
100
AcDbMaterial
  1
ByBlock
 72
     0
 43
0.0008202099737533
 43
0.0
 43
0.0
 43
0.0
 43
0.0
 43
0.0008202099737533
 43
0.0
 43
0.0
 43
0.0
 43
0.0
 43
1.0
 43
0.0
 43
0.0
 43
0.0
 43
0.0
 43
1.0
 77
     0
 47
0.0008202099737533
 47
0.0
 47
0.0
 47
0.0
 47
0.0
 47
0.0008202099737533
 47
0.0
 47
0.0
 47
0.0
 47
0.0
 47
1.0
 47
0.0
 47
0.0
 47
0.0
 47
0.0
 47
1.0
171
     0
 49
0.0008202099737533
 49
0.0
 49
0.0
 49
0.0
 49
0.0
 49
0.0008202099737533
 49
0.0
 49
0.0
 49
0.0
 49
0.0
 49
1.0
 49
0.0
 49
0.0
 49
0.0
 49
0.0
 49
1.0
175
     0
142
0.0008202099737533
142
0.0
142
0.0
142
0.0
142
0.0
142
0.0008202099737533
142
0.0
142
0.0
142
0.0
142
0.0
142
1.0
142
0.0
142
0.0
142
0.0
142
0.0
142
1.0
179
     0
144
0.0008202099737533
144
0.0
144
0.0
144
0.0
144
0.0
144
0.0008202099737533
144
0.0
144
0.0
144
0.0
144
0.0
144
1.0
144
0.0
144
0.0
144
0.0
144
0.0
144
1.0
147
0.0008202099737533
147
0.0
147
0.0
147
0.0
147
0.0
147
0.0008202099737533
147
0.0
147
0.0
147
0.0
147
0.0
147
1.0
147
0.0
147
0.0
147
0.0
147
0.0
147
1.0
  0
MATERIAL
  5
239A
102
{ACAD_XDICTIONARY
360
239B
102
}
102
{ACAD_REACTORS
330
EE5
102
}
330
EE5
100
AcDbMaterial
  1
ByLayer
 72
     0
 43
0.0008202099737533
 43
0.0
 43
0.0
 43
0.0
 43
0.0
 43
0.0008202099737533
 43
0.0
 43
0.0
 43
0.0
 43
0.0
 43
1.0
 43
0.0
 43
0.0
 43
0.0
 43
0.0
 43
1.0
 77
     0
 47
0.0008202099737533
 47
0.0
 47
0.0
 47
0.0
 47
0.0
 47
0.0008202099737533
 47
0.0
 47
0.0
 47
0.0
 47
0.0
 47
1.0
 47
0.0
 47
0.0
 47
0.0
 47
0.0
 47
1.0
171
     0
 49
0.0008202099737533
 49
0.0
 49
0.0
 49
0.0
 49
0.0
 49
0.0008202099737533
 49
0.0
 49
0.0
 49
0.0
 49
0.0
 49
1.0
 49
0.0
 49
0.0
 49
0.0
 49
0.0
 49
1.0
175
     0
142
0.0008202099737533
142
0.0
142
0.0
142
0.0
142
0.0
142
0.0008202099737533
142
0.0
142
0.0
142
0.0
142
0.0
142
1.0
142
0.0
142
0.0
142
0.0
142
0.0
142
1.0
179
     0
144
0.0008202099737533
144
0.0
144
0.0
144
0.0
144
0.0
144
0.0008202099737533
144
0.0
144
0.0
144
0.0
144
0.0
144
1.0
144
0.0
144
0.0
144
0.0
144
0.0
144
1.0
147
0.0008202099737533
147
0.0
147
0.0
147
0.0
147
0.0
147
0.0008202099737533
147
0.0
147
0.0
147
0.0
147
0.0
147
1.0
147
0.0
147
0.0
147
0.0
147
0.0
147
1.0
  0
MATERIAL
  5
23AA
102
{ACAD_XDICTIONARY
360
23AB
102
}
102
{ACAD_REACTORS
330
EE5
102
}
330
EE5
100
AcDbMaterial
  1
Global
 72
     0
 43
0.0008202099737533
 43
0.0
 43
0.0
 43
0.0
 43
0.0
 43
0.0008202099737533
 43
0.0
 43
0.0
 43
0.0
 43
0.0
 43
1.0
 43
0.0
 43
0.0
 43
0.0
 43
0.0
 43
1.0
 77
     0
 47
0.0008202099737533
 47
0.0
 47
0.0
 47
0.0
 47
0.0
 47
0.0008202099737533
 47
0.0
 47
0.0
 47
0.0
 47
0.0
 47
1.0
 47
0.0
 47
0.0
 47
0.0
 47
0.0
 47
1.0
171
     0
 49
0.0008202099737533
 49
0.0
 49
0.0
 49
0.0
 49
0.0
 49
0.0008202099737533
 49
0.0
 49
0.0
 49
0.0
 49
0.0
 49
1.0
 49
0.0
 49
0.0
 49
0.0
 49
0.0
 49
1.0
175
     0
142
0.0008202099737533
142
0.0
142
0.0
142
0.0
142
0.0
142
0.0008202099737533
142
0.0
142
0.0
142
0.0
142
0.0
142
1.0
142
0.0
142
0.0
142
0.0
142
0.0
142
1.0
179
     0
144
0.0008202099737533
144
0.0
144
0.0
144
0.0
144
0.0
144
0.0008202099737533
144
0.0
144
0.0
144
0.0
144
0.0
144
1.0
144
0.0
144
0.0
144
0.0
144
0.0
144
1.0
147
0.0008202099737533
147
0.0
147
0.0
147
0.0
147
0.0
147
0.0008202099737533
147
0.0
147
0.0
147
0.0
147
0.0
147
1.0
147
0.0
147
0.0
147
0.0
147
0.0
147
1.0
  0
MLEADERSTYLE
  5
23D9
102
{ACAD_REACTORS
330
23D8
102
}
330
23D8
100
AcDbMLeaderStyle
170
     2
171
     1
172
     0
 90
        2
 40
0.0
 41
0.0
173
     1
 91
-1056964608
340
14
 92
       -2
290
     1
 42
2.0
291
     1
 43
0.36
  3
Standard
 44
4.0
300

342
11
174
     1
178
     6
175
     1
176
     0
 93
-1056964608
 45
4.0
292
     0
297
     0
 46
4.0
 94
-1056964608
 47
1.0
 49
1.0
140
1.0
293
     1
141
0.0
294
     1
177
     0
142
1.0
295
     0
296
     0
143
0.125
1001
ACAD_MLEADERVER
1070
     2
  0
MLINESTYLE
  5
18
102
{ACAD_REACTORS
330
17
102
}
330
17
100
AcDbMlineStyle
  2
STANDARD
 70
     0
  3

 62
   256
 51
90.0
 52
90.0
 71
     2
 49
0.5
 62
   256
  6
BYLAYER
 49
-0.5
 62
   256
  6
BYLAYER
  0
ACDBPLACEHOLDER
  5
F
102
{ACAD_REACTORS
330
E
102
}
330
E
  0
SCALE
  5
23C7
102
{ACAD_REACTORS
330
23C6
102
}
330
23C6
100
AcDbScale
 70
     0
300
1:1
140
1.0
141
1.0
290
     1
  0
SCALE
  5
23C8
102
{ACAD_REACTORS
330
23C6
102
}
330
23C6
100
AcDbScale
 70
     0
300
1:2
140
1.0
141
2.0
290
     0
  0
SCALE
  5
23C9
102
{ACAD_REACTORS
330
23C6
102
}
330
23C6
100
AcDbScale
 70
     0
300
1:4
140
1.0
141
4.0
290
     0
  0
SCALE
  5
23CA
102
{ACAD_REACTORS
330
23C6
102
}
330
23C6
100
AcDbScale
 70
     0
300
1:5
140
1.0
141
5.0
290
     0
  0
SCALE
  5
23CB
102
{ACAD_REACTORS
330
23C6
102
}
330
23C6
100
AcDbScale
 70
     0
300
1:8
140
1.0
141
8.0
290
     0
  0
SCALE
  5
23CC
102
{ACAD_REACTORS
330
23C6
102
}
330
23C6
100
AcDbScale
 70
     0
300
1:10
140
1.0
141
10.0
290
     0
  0
SCALE
  5
23CD
102
{ACAD_REACTORS
330
23C6
102
}
330
23C6
100
AcDbScale
 70
     0
300
1:16
140
1.0
141
16.0
290
     0
  0
SCALE
  5
23CE
102
{ACAD_REACTORS
330
23C6
102
}
330
23C6
100
AcDbScale
 70
     0
300
1:20
140
1.0
141
20.0
290
     0
  0
SCALE
  5
23CF
102
{ACAD_REACTORS
330
23C6
102
}
330
23C6
100
AcDbScale
 70
     0
300
1:30
140
1.0
141
30.0
290
     0
  0
SCALE
  5
23D0
102
{ACAD_REACTORS
330
23C6
102
}
330
23C6
100
AcDbScale
 70
     0
300
1:40
140
1.0
141
40.0
290
     0
  0
SCALE
  5
23D1
102
{ACAD_REACTORS
330
23C6
102
}
330
23C6
100
AcDbScale
 70
     0
300
1:50
140
1.0
141
50.0
290
     0
  0
SCALE
  5
23D2
102
{ACAD_REACTORS
330
23C6
102
}
330
23C6
100
AcDbScale
 70
     0
300
1:100
140
1.0
141
100.0
290
     0
  0
SCALE
  5
23D3
102
{ACAD_REACTORS
330
23C6
102
}
330
23C6
100
AcDbScale
 70
     0
300
2:1
140
2.0
141
1.0
290
     0
  0
SCALE
  5
23D4
102
{ACAD_REACTORS
330
23C6
102
}
330
23C6
100
AcDbScale
 70
     0
300
4:1
140
4.0
141
1.0
290
     0
  0
SCALE
  5
23D5
102
{ACAD_REACTORS
330
23C6
102
}
330
23C6
100
AcDbScale
 70
     0
300
8:1
140
8.0
141
1.0
290
     0
  0
SCALE
  5
23D6
102
{ACAD_REACTORS
330
23C6
102
}
330
23C6
100
AcDbScale
 70
     0
300
10:1
140
10.0
141
1.0
290
     0
  0
SCALE
  5
23D7
102
{ACAD_REACTORS
330
23C6
102
}
330
23C6
100
AcDbScale
 70
     0
300
100:1
140
100.0
141
1.0
290
     0
  0
TABLESTYLE
  5
EE8
102
{ACAD_XDICTIONARY
360
2485
102
}
102
{ACAD_REACTORS
330
EE7
102
}
330
EE7
100
AcDbTableStyle
  3
Standard
 70
     0
 71
     0
 40
1.5
 41
1.5
280
     0
281
     0
  7
Standard
140
4.5
170
     2
 62
     0
 63
     7
283
     0
274
    -2
284
     1
 64
     0
275
    -2
285
     1
 65
     0
276
    -2
286
     1
 66
     0
277
    -2
287
     1
 67
     0
278
    -2
288
     1
 68
     0
279
    -2
289
     1
 69
     0
  7
Standard
140
6.0
170
     5
 62
     0
 63
     7
283
     0
274
    -2
284
     1
 64
     0
275
    -2
285
     1
 65
     0
276
    -2
286
     1
 66
     0
277
    -2
287
     1
 67
     0
278
    -2
288
     1
 68
     0
279
    -2
289
     1
 69
     0
  7
Standard
140
4.5
170
     5
 62
     0
 63
     7
283
     0
274
    -2
284
     1
 64
     0
275
    -2
285
     1
 65
     0
276
    -2
286
     1
 66
     0
277
    -2
287
     1
 67
     0
278
    -2
288
     1
 68
     0
279
    -2
289
     1
 69
     0
  0
VISUALSTYLE
  5
23B8
102
{ACAD_XDICTIONARY
360
24A1
102
}
102
{ACAD_REACTORS
330
23B2
102
}
330
23B2
100
AcDbVisualStyle
  2
2dWireframe
 70
     4
 71
     0
 72
     2
 73
     0
 90
        0
 40
-0.6
 41
-30.0
 62
     5
 63
     7
 74
     1
 91
        4
 64
     7
 65
   257
 75
     1
175
     1
 42
1.0
 92
        0
 66
   257
 43
1.0
 76
     1
 77
     6
 78
     2
 67
     7
 79
     5
170
     0
171
     0
290
     0
174
     0
 93
        1
 44
0.0
173
     0
291
     0
 45
0.0
1001
ACAD
1000
AcDbSavedByObjectVersion
1070
     0
  0
VISUALSTYLE
  5
23BA
102
{ACAD_XDICTIONARY
360
24A5
102
}
102
{ACAD_REACTORS
330
23B2
102
}
330
23B2
100
AcDbVisualStyle
  2
3D Hidden
 70
     6
 71
     1
 72
     2
 73
     2
 90
        0
 40
-0.6
 41
-30.0
 62
     5
 63
     7
 74
     2
 91
        2
 64
     7
 65
   257
 75
     2
175
     1
 42
179.0
 92
        0
 66
   257
 43
1.0
 76
     1
 77
     6
 78
     2
 67
     7
 79
     3
170
     0
171
     0
290
     0
174
     0
 93
        1
 44
0.0
173
     0
291
     0
 45
0.0
1001
ACAD
1000
AcDbSavedByObjectVersion
1070
     0
  0
VISUALSTYLE
  5
23B9
102
{ACAD_XDICTIONARY
360
24A3
102
}
102
{ACAD_REACTORS
330
23B2
102
}
330
23B2
100
AcDbVisualStyle
  2
3dWireframe
 70
     5
 71
     0
 72
     2
 73
     0
 90
        0
 40
-0.6
 41
-30.0
 62
     5
 63
     7
 74
     1
 91
        4
 64
     7
 65
   257
 75
     1
175
     1
 42
1.0
 92
        0
 66
   257
 43
1.0
 76
     1
 77
     6
 78
     2
 67
     7
 79
     5
170
     0
171
     0
290
     0
174
     0
 93
        1
 44
0.0
173
     0
291
     0
 45
0.0
1001
ACAD
1000
AcDbSavedByObjectVersion
1070
     0
  0
VISUALSTYLE
  5
23B7
102
{ACAD_XDICTIONARY
360
249F
102
}
102
{ACAD_REACTORS
330
23B2
102
}
330
23B2
100
AcDbVisualStyle
  2
Basic
 70
     7
 71
     1
 72
     0
 73
     1
 90
        0
 40
-0.6
 41
-30.0
 62
     5
 63
     7
 74
     0
 91
        4
 64
     7
 65
   257
 75
     1
175
     1
 42
1.0
 92
        8
 66
     7
 43
1.0
 76
     1
 77
     6
 78
     2
 67
     7
 79
     5
170
     0
171
     0
290
     0
174
     0
 93
        1
 44
0.0
173
     0
291
     1
 45
0.0
1001
ACAD
1000
AcDbSavedByObjectVersion
1070
     0
  0
VISUALSTYLE
  5
23BE
102
{ACAD_XDICTIONARY
360
24AD
102
}
102
{ACAD_REACTORS
330
23B2
102
}
330
23B2
100
AcDbVisualStyle
  2
Brighten
 70
    12
 71
     2
 72
     2
 73
     0
 90
        0
 40
-0.6
 41
-30.0
 62
     5
 63
     7
 74
     1
 91
        4
 64
     7
 65
   257
 75
     1
175
     1
 42
1.0
 92
        8
 66
     7
 43
1.0
 76
     1
 77
     6
 78
     2
 67
     7
 79
     5
170
     0
171
     0
290
     0
174
     0
 93
        1
 44
50.0
173
     0
291
     1
 45
0.0
1001
ACAD
1000
AcDbSavedByObjectVersion
1070
     0
  0
VISUALSTYLE
  5
23C2
102
{ACAD_XDICTIONARY
360
24B5
102
}
102
{ACAD_REACTORS
330
23B2
102
}
330
23B2
100
AcDbVisualStyle
  2
ColorChange
 70
    16
 71
     2
 72
     2
 73
     3
 90
        0
 40
-0.6
 41
-30.0
 62
     5
 63
     8
 74
     1
 91
        4
 64
     7
 65
   257
 75
     1
175
     1
 42
1.0
 92
        8
 66
     8
 43
1.0
 76
     1
 77
     6
 78
     2
 67
     7
 79
     5
170
     0
171
     0
290
     0
174
     0
 93
        1
 44
0.0
173
     0
291
     1
 45
0.0
1001
ACAD
1000
AcDbSavedByObjectVersion
1070
     0
  0
VISUALSTYLE
  5
23BB
102
{ACAD_XDICTIONARY
360
24A7
102
}
102
{ACAD_REACTORS
330
23B2
102
}
330
23B2
100
AcDbVisualStyle
  2
Conceptual
 70
     9
 71
     3
 72
     2
 73
     0
 90
        0
 40
-0.6
 41
-30.0
 62
     5
 63
     7
 74
     2
 91
        2
 64
     7
 65
   257
 75
     1
175
     1
 42
179.0
 92
        8
 66
     7
 43
1.0
 76
     1
 77
     6
 78
     2
 67
     7
 79
     3
170
     0
171
     0
290
     0
174
     0
 93
        1
 44
0.0
173
     0
291
     0
 45
0.0
1001
ACAD
1000
AcDbSavedByObjectVersion
1070
     0
  0
VISUALSTYLE
  5
23BD
102
{ACAD_XDICTIONARY
360
24AB
102
}
102
{ACAD_REACTORS
330
23B2
102
}
330
23B2
100
AcDbVisualStyle
  2
Dim
 70
    11
 71
     2
 72
     2
 73
     0
 90
        0
 40
-0.6
 41
-30.0
 62
     5
 63
     7
 74
     1
 91
        4
 64
     7
 65
   257
 75
     1
175
     1
 42
1.0
 92
        8
 66
     7
 43
1.0
 76
     1
 77
     6
 78
     2
 67
     7
 79
     5
170
     0
171
     0
290
     0
174
     0
 93
        1
 44
-50.0
173
     0
291
     1
 45
0.0
1001
ACAD
1000
AcDbSavedByObjectVersion
1070
     0
  0
VISUALSTYLE
  5
23C5
102
{ACAD_XDICTIONARY
360
24BB
102
}
102
{ACAD_REACTORS
330
23B2
102
}
330
23B2
100
AcDbVisualStyle
  2
EdgeColorOff
 70
    22
 71
     2
 72
     2
 73
     0
 90
        0
 40
-0.6
 41
-30.0
 62
     5
 63
     7
 74
     1
 91
        4
 64
     7
 65
   257
 75
     1
175
     1
 42
1.0
 92
        8
 66
     7
 43
1.0
 76
     1
 77
     6
 78
     2
 67
     7
 79
     5
170
     0
171
     0
290
     0
174
     0
 93
        1
 44
0.0
173
     0
291
     1
 45
0.0
1001
ACAD
1000
AcDbSavedByObjectVersion
1070
     0
  0
VISUALSTYLE
  5
23C1
102
{ACAD_XDICTIONARY
360
24B3
102
}
102
{ACAD_REACTORS
330
23B2
102
}
330
23B2
100
AcDbVisualStyle
  2
Facepattern
 70
    15
 71
     2
 72
     2
 73
     0
 90
        0
 40
-0.6
 41
-30.0
 62
     5
 63
     7
 74
     1
 91
        4
 64
     7
 65
   257
 75
     1
175
     1
 42
1.0
 92
        8
 66
     7
 43
1.0
 76
     1
 77
     6
 78
     2
 67
     7
 79
     5
170
     0
171
     0
290
     0
174
     0
 93
        1
 44
0.0
173
     0
291
     1
 45
0.0
1001
ACAD
1000
AcDbSavedByObjectVersion
1070
     0
  0
VISUALSTYLE
  5
23B3
102
{ACAD_XDICTIONARY
360
2497
102
}
102
{ACAD_REACTORS
330
23B2
102
}
330
23B2
100
AcDbVisualStyle
  2
Flat
 70
     0
 71
     2
 72
     1
 73
     1
 90
        2
 40
-0.6
 41
30.0
 62
     5
 63
     7
 74
     0
 91
        4
 64
     7
 65
   257
 75
     1
175
     1
 42
1.0
 92
        8
 66
     7
 43
1.0
 76
     1
 77
     6
 78
     2
 67
     7
 79
     5
170
     0
171
     0
290
     0
174
     0
 93
       13
 44
0.0
173
     0
291
     1
 45
0.0
1001
ACAD
1000
AcDbSavedByObjectVersion
1070
     0
  0
VISUALSTYLE
  5
23B4
102
{ACAD_XDICTIONARY
360
2499
102
}
102
{ACAD_REACTORS
330
23B2
102
}
330
23B2
100
AcDbVisualStyle
  2
FlatWithEdges
 70
     1
 71
     2
 72
     1
 73
     1
 90
        2
 40
-0.6
 41
30.0
 62
     5
 63
     7
 74
     1
 91
        4
 64
     7
 65
   257
 75
     1
175
     1
 42
1.0
 92
        0
 66
   257
 43
1.0
 76
     1
 77
     6
 78
     2
 67
     7
 79
     5
170
     0
171
     0
290
     0
174
     0
 93
       13
 44
0.0
173
     0
291
     1
 45
0.0
1001
ACAD
1000
AcDbSavedByObjectVersion
1070
     0
  0
VISUALSTYLE
  5
23B5
102
{ACAD_XDICTIONARY
360
249B
102
}
102
{ACAD_REACTORS
330
23B2
102
}
330
23B2
100
AcDbVisualStyle
  2
Gouraud
 70
     2
 71
     2
 72
     2
 73
     1
 90
        2
 40
-0.6
 41
30.0
 62
     5
 63
     7
 74
     0
 91
        4
 64
     7
 65
   257
 75
     1
175
     1
 42
1.0
 92
        0
 66
     7
 43
1.0
 76
     1
 77
     6
 78
     2
 67
     7
 79
     5
170
     0
171
     0
290
     0
174
     0
 93
       13
 44
0.0
173
     0
291
     1
 45
0.0
1001
ACAD
1000
AcDbSavedByObjectVersion
1070
     0
  0
VISUALSTYLE
  5
23B6
102
{ACAD_XDICTIONARY
360
249D
102
}
102
{ACAD_REACTORS
330
23B2
102
}
330
23B2
100
AcDbVisualStyle
  2
GouraudWithEdges
 70
     3
 71
     2
 72
     2
 73
     1
 90
        2
 40
-0.6
 41
30.0
 62
     5
 63
     7
 74
     1
 91
        4
 64
     7
 65
   257
 75
     1
175
     1
 42
1.0
 92
        0
 66
   257
 43
1.0
 76
     1
 77
     6
 78
     2
 67
     7
 79
     5
170
     0
171
     0
290
     0
174
     0
 93
       13
 44
0.0
173
     0
291
     1
 45
0.0
1001
ACAD
1000
AcDbSavedByObjectVersion
1070
     0
  0
VISUALSTYLE
  5
23C3
102
{ACAD_XDICTIONARY
360
24B7
102
}
102
{ACAD_REACTORS
330
23B2
102
}
330
23B2
100
AcDbVisualStyle
  2
JitterOff
 70
    20
 71
     2
 72
     2
 73
     0
 90
        0
 40
-0.6
 41
-30.0
 62
     5
 63
     7
 74
     1
 91
        4
 64
     7
 65
   257
 75
     1
175
     1
 42
1.0
 92
       10
 66
     7
 43
1.0
 76
     1
 77
     6
 78
     2
 67
     7
 79
     5
170
     0
171
     0
290
     0
174
     0
 93
        1
 44
0.0
173
     0
291
     1
 45
0.0
1001
ACAD
1000
AcDbSavedByObjectVersion
1070
     0
  0
VISUALSTYLE
  5
23C0
102
{ACAD_XDICTIONARY
360
24B1
102
}
102
{ACAD_REACTORS
330
23B2
102
}
330
23B2
100
AcDbVisualStyle
  2
Linepattern
 70
    14
 71
     2
 72
     2
 73
     0
 90
        0
 40
-0.6
 41
-30.0
 62
     5
 63
     7
 74
     1
 91
        4
 64
     7
 65
   257
 75
     7
175
     7
 42
1.0
 92
        8
 66
     7
 43
1.0
 76
     1
 77
     6
 78
     2
 67
     7
 79
     5
170
     0
171
     0
290
     0
174
     0
 93
        1
 44
0.0
173
     0
291
     1
 45
0.0
1001
ACAD
1000
AcDbSavedByObjectVersion
1070
     0
  0
VISUALSTYLE
  5
23C4
102
{ACAD_XDICTIONARY
360
24B9
102
}
102
{ACAD_REACTORS
330
23B2
102
}
330
23B2
100
AcDbVisualStyle
  2
OverhangOff
 70
    21
 71
     2
 72
     2
 73
     0
 90
        0
 40
-0.6
 41
-30.0
 62
     5
 63
     7
 74
     1
 91
        4
 64
     7
 65
   257
 75
     1
175
     1
 42
1.0
 92
        9
 66
     7
 43
1.0
 76
     1
 77
     6
 78
     2
 67
     7
 79
     5
170
     0
171
     0
290
     0
174
     0
 93
        1
 44
0.0
173
     0
291
     1
 45
0.0
1001
ACAD
1000
AcDbSavedByObjectVersion
1070
     0
  0
VISUALSTYLE
  5
23BC
102
{ACAD_XDICTIONARY
360
24A9
102
}
102
{ACAD_REACTORS
330
23B2
102
}
330
23B2
100
AcDbVisualStyle
  2
Realistic
 70
     8
 71
     2
 72
     2
 73
     0
 90
        0
 40
-0.6
 41
-30.0
 62
     5
 63
     7
 74
     1
 91
        0
 64
     7
 65
   257
 75
     1
175
     1
 42
1.0
 92
        8
 66
     8
 43
1.0
 76
     1
 77
     6
 78
     2
 67
     7
 79
     5
170
     0
171
     0
290
     0
174
     0
 93
       13
 44
0.0
173
     0
291
     0
 45
0.0
1001
ACAD
1000
AcDbSavedByObjectVersion
1070
     0
  0
VISUALSTYLE
  5
23BF
102
{ACAD_XDICTIONARY
360
24AF
102
}
102
{ACAD_REACTORS
330
23B2
102
}
330
23B2
100
AcDbVisualStyle
  2
Thicken
 70
    13
 71
     2
 72
     2
 73
     0
 90
        0
 40
-0.6
 41
-30.0
 62
     5
 63
     7
 74
     1
 91
        4
 64
     7
 65
   257
 75
     1
175
     1
 42
1.0
 92
       12
 66
     7
 43
1.0
 76
     1
 77
     6
 78
     2
 67
     7
 79
     5
170
     0
171
     0
290
     0
174
     0
 93
        1
 44
0.0
173
     0
291
     1
 45
0.0
1001
ACAD
1000
AcDbSavedByObjectVersion
1070
     0
  0
DICTIONARYVAR
  5
2481
102
{ACAD_REACTORS
330
3D
102
}
330
3D
100
DictionaryVariables
280
     0
  1
1:1
  0
DICTIONARYVAR
  5
2480
102
{ACAD_REACTORS
330
3D
102
}
330
3D
100
DictionaryVariables
280
     0
  1
STANDARD
  0
DICTIONARYVAR
  5
1049
102
{ACAD_REACTORS
330
3D
102
}
330
3D
100
DictionaryVariables
280
     0
  1
STANDARD
  0
DICTIONARYVAR
  5
3F
102
{ACAD_REACTORS
330
3D
102
}
330
3D
100
DictionaryVariables
280
     0
  1
2
  0
DICTIONARYVAR
  5
3E
102
{ACAD_REACTORS
330
3D
102
}
330
3D
100
DictionaryVariables
280
     0
  1
1
  0
DICTIONARYVAR
  5
2483
102
{ACAD_REACTORS
330
3D
102
}
330
3D
100
DictionaryVariables
280
     0
  1
0
  0
DICTIONARYVAR
  5
21BA
102
{ACAD_REACTORS
330
3D
102
}
330
3D
100
DictionaryVariables
280
     0
  1

  0
DICTIONARYVAR
  5
2482
102
{ACAD_REACTORS
330
3D
102
}
330
3D
100
DictionaryVariables
280
     0
  1
127
  0
DICTIONARYVAR
  5
2484
102
{ACAD_REACTORS
330
3D
102
}
330
3D
100
DictionaryVariables
280
     0
  1
2
  0
XRECORD
  5
E78
102
{ACAD_REACTORS
330
E77
102
}
330
E77
100
AcDbXrecord
280
     1
330
0
330
0
  0
DICTIONARY
  5
248B
330
1E
100
AcDbDictionary
280
     1
281
     1
  3
ACAD_XREC_ROUNDTRIP
360
248C
  0
DICTIONARY
  5
248F
330
26
100
AcDbDictionary
280
     1
281
     1
  3
ACAD_XREC_ROUNDTRIP
360
2490
  0
DICTIONARY
  5
248D
330
22
100
AcDbDictionary
280
     1
281
     1
  3
ACAD_XREC_ROUNDTRIP
360
248E
  0
DICTIONARY
  5
23A3
330
23A2
100
AcDbDictionary
280
     1
281
     1
  3
ACAD_XREC_ROUNDTRIP
360
2495
  3
BUMPTILE
360
23A5
  3
DIFFUSETILE
360
23A4
  3
OPACITYTILE
360
23A8
  3
REFLECTIONTILE
360
23A7
  3
REFRACTIONTILE
360
23A9
  3
SPECULARTILE
360
23A6
  0
DICTIONARY
  5
239B
330
239A
100
AcDbDictionary
280
     1
281
     1
  3
ACAD_XREC_ROUNDTRIP
360
2494
  3
BUMPTILE
360
239D
  3
DIFFUSETILE
360
239C
  3
OPACITYTILE
360
23A0
  3
REFLECTIONTILE
360
239F
  3
REFRACTIONTILE
360
23A1
  3
SPECULARTILE
360
239E
  0
DICTIONARY
  5
23AB
330
23AA
100
AcDbDictionary
280
     1
281
     1
  3
ACAD_XREC_ROUNDTRIP
360
2496
  3
BUMPTILE
360
23AD
  3
DIFFUSETILE
360
23AC
  3
OPACITYTILE
360
23B0
  3
REFLECTIONTILE
360
23AF
  3
REFRACTIONTILE
360
23B1
  3
SPECULARTILE
360
23AE
  0
DICTIONARY
  5
2485
330
EE8
100
AcDbDictionary
280
     1
281
     1
  3
ACAD_ROUNDTRIP_2008_TABLESTYLE_CELLSTYLEMAP
360
2486
  3
ACAD_XREC_ROUNDTRIP
360
2491
  0
DICTIONARY
  5
24A1
330
23B8
100
AcDbDictionary
280
     1
281
     1
  3
ACAD_XREC_ROUNDTRIP
360
24A2
  0
DICTIONARY
  5
24A5
330
23BA
100
AcDbDictionary
280
     1
281
     1
  3
ACAD_XREC_ROUNDTRIP
360
24A6
  0
DICTIONARY
  5
24A3
330
23B9
100
AcDbDictionary
280
     1
281
     1
  3
ACAD_XREC_ROUNDTRIP
360
24A4
  0
DICTIONARY
  5
249F
330
23B7
100
AcDbDictionary
280
     1
281
     1
  3
ACAD_XREC_ROUNDTRIP
360
24A0
  0
DICTIONARY
  5
24AD
330
23BE
100
AcDbDictionary
280
     1
281
     1
  3
ACAD_XREC_ROUNDTRIP
360
24AE
  0
DICTIONARY
  5
24B5
330
23C2
100
AcDbDictionary
280
     1
281
     1
  3
ACAD_XREC_ROUNDTRIP
360
24B6
  0
DICTIONARY
  5
24A7
330
23BB
100
AcDbDictionary
280
     1
281
     1
  3
ACAD_XREC_ROUNDTRIP
360
24A8
  0
DICTIONARY
  5
24AB
330
23BD
100
AcDbDictionary
280
     1
281
     1
  3
ACAD_XREC_ROUNDTRIP
360
24AC
  0
DICTIONARY
  5
24BB
330
23C5
100
AcDbDictionary
280
     1
281
     1
  3
ACAD_XREC_ROUNDTRIP
360
24BC
  0
DICTIONARY
  5
24B3
330
23C1
100
AcDbDictionary
280
     1
281
     1
  3
ACAD_XREC_ROUNDTRIP
360
24B4
  0
DICTIONARY
  5
2497
330
23B3
100
AcDbDictionary
280
     1
281
     1
  3
ACAD_XREC_ROUNDTRIP
360
2498
  0
DICTIONARY
  5
2499
330
23B4
100
AcDbDictionary
280
     1
281
     1
  3
ACAD_XREC_ROUNDTRIP
360
249A
  0
DICTIONARY
  5
249B
330
23B5
100
AcDbDictionary
280
     1
281
     1
  3
ACAD_XREC_ROUNDTRIP
360
249C
  0
DICTIONARY
  5
249D
330
23B6
100
AcDbDictionary
280
     1
281
     1
  3
ACAD_XREC_ROUNDTRIP
360
249E
  0
DICTIONARY
  5
24B7
330
23C3
100
AcDbDictionary
280
     1
281
     1
  3
ACAD_XREC_ROUNDTRIP
360
24B8
  0
DICTIONARY
  5
24B1
330
23C0
100
AcDbDictionary
280
     1
281
     1
  3
ACAD_XREC_ROUNDTRIP
360
24B2
  0
DICTIONARY
  5
24B9
330
23C4
100
AcDbDictionary
280
     1
281
     1
  3
ACAD_XREC_ROUNDTRIP
360
24BA
  0
DICTIONARY
  5
24A9
330
23BC
100
AcDbDictionary
280
     1
281
     1
  3
ACAD_XREC_ROUNDTRIP
360
24AA
  0
DICTIONARY
  5
24AF
330
23BF
100
AcDbDictionary
280
     1
281
     1
  3
ACAD_XREC_ROUNDTRIP
360
24B0
  0
XRECORD
  5
248C
102
{ACAD_REACTORS
330
248B
102
}
330
248B
100
AcDbXrecord
280
     1
102
SHADEPLOT
 70
     0
102
SHADEPLOTRESLEVEL
 70
     2
102
SHADEPLOTCUSTOMDPI
 70
   300
  0
XRECORD
  5
2490
102
{ACAD_REACTORS
330
248F
102
}
330
248F
100
AcDbXrecord
280
     1
102
SHADEPLOT
 70
     0
102
SHADEPLOTRESLEVEL
 70
     2
102
SHADEPLOTCUSTOMDPI
 70
   300
  0
XRECORD
  5
248E
102
{ACAD_REACTORS
330
248D
102
}
330
248D
100
AcDbXrecord
280
     1
102
SHADEPLOT
 70
     0
102
SHADEPLOTRESLEVEL
 70
     2
102
SHADEPLOTCUSTOMDPI
 70
   300
  0
XRECORD
  5
2495
102
{ACAD_REACTORS
330
23A3
102
}
330
23A3
100
AcDbXrecord
280
     1
102
MATERIAL
148
0.0
149
0.0
149
0.0
 93
        0
 94
      127
282
     0
 72
     0
 77
     0
171
     0
175
     0
179
     0
273
     0
  0
XRECORD
  5
23A5
102
{ACAD_REACTORS
330
23A3
102
}
330
23A3
100
AcDbXrecord
280
     1
270
     1
271
     1
  0
XRECORD
  5
23A4
102
{ACAD_REACTORS
330
23A3
102
}
330
23A3
100
AcDbXrecord
280
     1
270
     1
271
     1
  0
XRECORD
  5
23A8
102
{ACAD_REACTORS
330
23A3
102
}
330
23A3
100
AcDbXrecord
280
     1
270
     1
271
     1
  0
XRECORD
  5
23A7
102
{ACAD_REACTORS
330
23A3
102
}
330
23A3
100
AcDbXrecord
280
     1
270
     1
271
     1
  0
XRECORD
  5
23A9
102
{ACAD_REACTORS
330
23A3
102
}
330
23A3
100
AcDbXrecord
280
     1
270
     1
271
     1
  0
XRECORD
  5
23A6
102
{ACAD_REACTORS
330
23A3
102
}
330
23A3
100
AcDbXrecord
280
     1
270
     1
271
     1
  0
XRECORD
  5
2494
102
{ACAD_REACTORS
330
239B
102
}
330
239B
100
AcDbXrecord
280
     1
102
MATERIAL
148
0.0
149
0.0
149
0.0
 93
        0
 94
      127
282
     0
 72
     0
 77
     0
171
     0
175
     0
179
     0
273
     0
  0
XRECORD
  5
239D
102
{ACAD_REACTORS
330
239B
102
}
330
239B
100
AcDbXrecord
280
     1
270
     1
271
     1
  0
XRECORD
  5
239C
102
{ACAD_REACTORS
330
239B
102
}
330
239B
100
AcDbXrecord
280
     1
270
     1
271
     1
  0
XRECORD
  5
23A0
102
{ACAD_REACTORS
330
239B
102
}
330
239B
100
AcDbXrecord
280
     1
270
     1
271
     1
  0
XRECORD
  5
239F
102
{ACAD_REACTORS
330
239B
102
}
330
239B
100
AcDbXrecord
280
     1
270
     1
271
     1
  0
XRECORD
  5
23A1
102
{ACAD_REACTORS
330
239B
102
}
330
239B
100
AcDbXrecord
280
     1
270
     1
271
     1
  0
XRECORD
  5
239E
102
{ACAD_REACTORS
330
239B
102
}
330
239B
100
AcDbXrecord
280
     1
270
     1
271
     1
  0
XRECORD
  5
2496
102
{ACAD_REACTORS
330
23AB
102
}
330
23AB
100
AcDbXrecord
280
     1
102
MATERIAL
148
0.0
149
0.0
149
0.0
 93
        0
 94
      127
282
     0
 72
     0
 77
     0
171
     0
175
     0
179
     0
273
     0
  0
XRECORD
  5
23AD
102
{ACAD_REACTORS
330
23AB
102
}
330
23AB
100
AcDbXrecord
280
     1
270
     1
271
     1
  0
XRECORD
  5
23AC
102
{ACAD_REACTORS
330
23AB
102
}
330
23AB
100
AcDbXrecord
280
     1
270
     1
271
     1
  0
XRECORD
  5
23B0
102
{ACAD_REACTORS
330
23AB
102
}
330
23AB
100
AcDbXrecord
280
     1
270
     1
271
     1
  0
XRECORD
  5
23AF
102
{ACAD_REACTORS
330
23AB
102
}
330
23AB
100
AcDbXrecord
280
     1
270
     1
271
     1
  0
XRECORD
  5
23B1
102
{ACAD_REACTORS
330
23AB
102
}
330
23AB
100
AcDbXrecord
280
     1
270
     1
271
     1
  0
XRECORD
  5
23AE
102
{ACAD_REACTORS
330
23AB
102
}
330
23AB
100
AcDbXrecord
280
     1
270
     1
271
     1
  0
CELLSTYLEMAP
  5
2486
102
{ACAD_REACTORS
330
2485
102
}
330
2485
100
AcDbCellStyleMap
 90
        3
300
CELLSTYLE
  1
TABLEFORMAT_BEGIN
 90
        5
170
     1
 91
        0
 92
    32768
 62
   257
 93
        1
300
CONTENTFORMAT
  1
CONTENTFORMAT_BEGIN
 90
        0
 91
        0
 92
        4
 93
        0
300

 40
0.0
140
1.0
 94
        5
 62
     0
340
11
144
6.0
309
CONTENTFORMAT_END
171
     1
301
MARGIN
  1
CELLMARGIN_BEGIN
 40
1.5
 40
1.5
 40
1.5
 40
1.5
 40
0.18
 40
0.18
309
CELLMARGIN_END
 94
        6
 95
        1
302
GRIDFORMAT
  1
GRIDFORMAT_BEGIN
 90
        0
 91
        1
 62
     0
 92
       -2
340
0
 93
        0
 40
0.045
309
GRIDFORMAT_END
 95
        2
302
GRIDFORMAT
  1
GRIDFORMAT_BEGIN
 90
        0
 91
        1
 62
     0
 92
       -2
340
0
 93
        0
 40
0.045
309
GRIDFORMAT_END
 95
        4
302
GRIDFORMAT
  1
GRIDFORMAT_BEGIN
 90
        0
 91
        1
 62
     0
 92
       -2
340
0
 93
        0
 40
0.045
309
GRIDFORMAT_END
 95
        8
302
GRIDFORMAT
  1
GRIDFORMAT_BEGIN
 90
        0
 91
        1
 62
     0
 92
       -2
340
0
 93
        0
 40
0.045
309
GRIDFORMAT_END
 95
       16
302
GRIDFORMAT
  1
GRIDFORMAT_BEGIN
 90
        0
 91
        1
 62
     0
 92
       -2
340
0
 93
        0
 40
0.045
309
GRIDFORMAT_END
 95
       32
302
GRIDFORMAT
  1
GRIDFORMAT_BEGIN
 90
        0
 91
        1
 62
     0
 92
       -2
340
0
 93
        0
 40
0.045
309
GRIDFORMAT_END
309
TABLEFORMAT_END
  1
CELLSTYLE_BEGIN
 90
        1
 91
        1
300
_TITLE
309
CELLSTYLE_END
300
CELLSTYLE
  1
TABLEFORMAT_BEGIN
 90
        5
170
     1
 91
        0
 92
        0
 62
   257
 93
        1
300
CONTENTFORMAT
  1
CONTENTFORMAT_BEGIN
 90
        0
 91
        0
 92
        4
 93
        0
300

 40
0.0
140
1.0
 94
        5
 62
     0
340
11
144
4.5
309
CONTENTFORMAT_END
171
     1
301
MARGIN
  1
CELLMARGIN_BEGIN
 40
1.5
 40
1.5
 40
1.5
 40
1.5
 40
0.18
 40
0.18
309
CELLMARGIN_END
 94
        6
 95
        1
302
GRIDFORMAT
  1
GRIDFORMAT_BEGIN
 90
        0
 91
        1
 62
     0
 92
       -2
340
0
 93
        0
 40
0.045
309
GRIDFORMAT_END
 95
        2
302
GRIDFORMAT
  1
GRIDFORMAT_BEGIN
 90
        0
 91
        1
 62
     0
 92
       -2
340
0
 93
        0
 40
0.045
309
GRIDFORMAT_END
 95
        4
302
GRIDFORMAT
  1
GRIDFORMAT_BEGIN
 90
        0
 91
        1
 62
     0
 92
       -2
340
0
 93
        0
 40
0.045
309
GRIDFORMAT_END
 95
        8
302
GRIDFORMAT
  1
GRIDFORMAT_BEGIN
 90
        0
 91
        1
 62
     0
 92
       -2
340
0
 93
        0
 40
0.045
309
GRIDFORMAT_END
 95
       16
302
GRIDFORMAT
  1
GRIDFORMAT_BEGIN
 90
        0
 91
        1
 62
     0
 92
       -2
340
0
 93
        0
 40
0.045
309
GRIDFORMAT_END
 95
       32
302
GRIDFORMAT
  1
GRIDFORMAT_BEGIN
 90
        0
 91
        1
 62
     0
 92
       -2
340
0
 93
        0
 40
0.045
309
GRIDFORMAT_END
309
TABLEFORMAT_END
  1
CELLSTYLE_BEGIN
 90
        2
 91
        1
300
_HEADER
309
CELLSTYLE_END
300
CELLSTYLE
  1
TABLEFORMAT_BEGIN
 90
        5
170
     1
 91
        0
 92
        0
 62
   257
 93
        1
300
CONTENTFORMAT
  1
CONTENTFORMAT_BEGIN
 90
        0
 91
        0
 92
        4
 93
        0
300

 40
0.0
140
1.0
 94
        2
 62
     0
340
11
144
4.5
309
CONTENTFORMAT_END
171
     1
301
MARGIN
  1
CELLMARGIN_BEGIN
 40
1.5
 40
1.5
 40
1.5
 40
1.5
 40
0.18
 40
0.18
309
CELLMARGIN_END
 94
        6
 95
        1
302
GRIDFORMAT
  1
GRIDFORMAT_BEGIN
 90
        0
 91
        1
 62
     0
 92
       -2
340
0
 93
        0
 40
0.045
309
GRIDFORMAT_END
 95
        2
302
GRIDFORMAT
  1
GRIDFORMAT_BEGIN
 90
        0
 91
        1
 62
     0
 92
       -2
340
0
 93
        0
 40
0.045
309
GRIDFORMAT_END
 95
        4
302
GRIDFORMAT
  1
GRIDFORMAT_BEGIN
 90
        0
 91
        1
 62
     0
 92
       -2
340
0
 93
        0
 40
0.045
309
GRIDFORMAT_END
 95
        8
302
GRIDFORMAT
  1
GRIDFORMAT_BEGIN
 90
        0
 91
        1
 62
     0
 92
       -2
340
0
 93
        0
 40
0.045
309
GRIDFORMAT_END
 95
       16
302
GRIDFORMAT
  1
GRIDFORMAT_BEGIN
 90
        0
 91
        1
 62
     0
 92
       -2
340
0
 93
        0
 40
0.045
309
GRIDFORMAT_END
 95
       32
302
GRIDFORMAT
  1
GRIDFORMAT_BEGIN
 90
        0
 91
        1
 62
     0
 92
       -2
340
0
 93
        0
 40
0.045
309
GRIDFORMAT_END
309
TABLEFORMAT_END
  1
CELLSTYLE_BEGIN
 90
        3
 91
        2
300
_DATA
309
CELLSTYLE_END
  0
XRECORD
  5
2491
102
{ACAD_REACTORS
330
2485
102
}
330
2485
100
AcDbXrecord
280
     1
102
ACAD_ROUNDTRIP_PRE2007_TABLESTYLE
 90
        4
 91
        0
  1

 92
        4
 93
        0
  2

 94
        4
 95
        0
  3

  0
XRECORD
  5
24A2
102
{ACAD_REACTORS
330
24A1
102
}
330
24A1
100
AcDbXrecord
280
     1
102
RTVSPropertyOp0
 70
     1
102
RTVSPropertyOp1
 70
     1
102
RTVSPropertyOp2
 70
     1
102
RTVSPropertyOp3
 70
     1
102
RTVSPropertyOp4
 70
     1
102
RTVSPropertyOp5
 70
     1
102
RTVSPropertyOp6
 70
     1
102
RTVSPropertyOp7
 70
     1
102
RTVSPropertyOp8
 70
     1
102
RTVSPropertyOp9
 70
     1
102
RTVSPropertyOp10
 70
     1
102
RTVSPropertyOp11
 70
     1
102
RTVSPropertyOp12
 70
     1
102
RTVSPropertyOp13
 70
     1
102
RTVSPropertyOp14
 70
     1
102
RTVSPropertyOp15
 70
     1
102
RTVSPropertyOp16
 70
     1
102
RTVSPropertyOp17
 70
     1
102
RTVSPropertyOp18
 70
     1
102
RTVSPropertyOp19
 70
     1
102
RTVSPropertyOp20
 70
     1
102
RTVSPropertyOp21
 70
     1
102
RTVSPropertyOp22
 70
     1
102
RTVSPropertyOp23
 70
     1
102
RTVSPropertyOp24
 70
     1
102
RTVSPropertyOp25
 70
     1
102
RTVSPropertyOp26
 70
     1
102
RTVSPropertyOp27
 70
     1
  0
XRECORD
  5
24A6
102
{ACAD_REACTORS
330
24A5
102
}
330
24A5
100
AcDbXrecord
280
     1
102
RTVSPropertyOp0
 70
     1
102
RTVSPropertyOp1
 70
     1
102
RTVSPropertyOp2
 70
     1
102
RTVSPropertyOp3
 70
     1
102
RTVSPropertyOp4
 70
     1
102
RTVSPropertyOp5
 70
     1
102
RTVSPropertyOp6
 70
     1
102
RTVSPropertyOp7
 70
     1
102
RTVSPropertyOp8
 70
     1
102
RTVSPropertyOp9
 70
     1
102
RTVSPropertyOp10
 70
     1
102
RTVSPropertyOp11
 70
     1
102
RTVSPropertyOp12
 70
     1
102
RTVSPropertyOp13
 70
     1
102
RTVSPropertyOp14
 70
     1
102
RTVSPropertyOp15
 70
     1
102
RTVSPropertyOp16
 70
     1
102
RTVSPropertyOp17
 70
     1
102
RTVSPropertyOp18
 70
     1
102
RTVSPropertyOp19
 70
     1
102
RTVSPropertyOp20
 70
     1
102
RTVSPropertyOp21
 70
     1
102
RTVSPropertyOp22
 70
     1
102
RTVSPropertyOp23
 70
     1
102
RTVSPropertyOp24
 70
     1
102
RTVSPropertyOp25
 70
     1
102
RTVSPropertyOp26
 70
     1
102
RTVSPropertyOp27
 70
     1
  0
XRECORD
  5
24A4
102
{ACAD_REACTORS
330
24A3
102
}
330
24A3
100
AcDbXrecord
280
     1
102
RTVSPropertyOp0
 70
     1
102
RTVSPropertyOp1
 70
     1
102
RTVSPropertyOp2
 70
     1
102
RTVSPropertyOp3
 70
     1
102
RTVSPropertyOp4
 70
     1
102
RTVSPropertyOp5
 70
     1
102
RTVSPropertyOp6
 70
     1
102
RTVSPropertyOp7
 70
     1
102
RTVSPropertyOp8
 70
     1
102
RTVSPropertyOp9
 70
     1
102
RTVSPropertyOp10
 70
     1
102
RTVSPropertyOp11
 70
     1
102
RTVSPropertyOp12
 70
     1
102
RTVSPropertyOp13
 70
     1
102
RTVSPropertyOp14
 70
     1
102
RTVSPropertyOp15
 70
     1
102
RTVSPropertyOp16
 70
     1
102
RTVSPropertyOp17
 70
     1
102
RTVSPropertyOp18
 70
     1
102
RTVSPropertyOp19
 70
     1
102
RTVSPropertyOp20
 70
     1
102
RTVSPropertyOp21
 70
     1
102
RTVSPropertyOp22
 70
     1
102
RTVSPropertyOp23
 70
     1
102
RTVSPropertyOp24
 70
     1
102
RTVSPropertyOp25
 70
     1
102
RTVSPropertyOp26
 70
     1
102
RTVSPropertyOp27
 70
     1
  0
XRECORD
  5
24A0
102
{ACAD_REACTORS
330
249F
102
}
330
249F
100
AcDbXrecord
280
     1
102
RTVSPropertyOp0
 70
     1
102
RTVSPropertyOp1
 70
     1
102
RTVSPropertyOp2
 70
     1
102
RTVSPropertyOp3
 70
     1
102
RTVSPropertyOp4
 70
     1
102
RTVSPropertyOp5
 70
     1
102
RTVSPropertyOp6
 70
     1
102
RTVSPropertyOp7
 70
     1
102
RTVSPropertyOp8
 70
     1
102
RTVSPropertyOp9
 70
     1
102
RTVSPropertyOp10
 70
     1
102
RTVSPropertyOp11
 70
     1
102
RTVSPropertyOp12
 70
     1
102
RTVSPropertyOp13
 70
     1
102
RTVSPropertyOp14
 70
     1
102
RTVSPropertyOp15
 70
     1
102
RTVSPropertyOp16
 70
     1
102
RTVSPropertyOp17
 70
     1
102
RTVSPropertyOp18
 70
     1
102
RTVSPropertyOp19
 70
     1
102
RTVSPropertyOp20
 70
     1
102
RTVSPropertyOp21
 70
     1
102
RTVSPropertyOp22
 70
     1
102
RTVSPropertyOp23
 70
     1
102
RTVSPropertyOp24
 70
     1
102
RTVSPropertyOp25
 70
     1
102
RTVSPropertyOp26
 70
     1
102
RTVSPropertyOp27
 70
     1
  0
XRECORD
  5
24AE
102
{ACAD_REACTORS
330
24AD
102
}
330
24AD
100
AcDbXrecord
280
     1
102
RTVSPropertyOp0
 70
     1
102
RTVSPropertyOp1
 70
     1
102
RTVSPropertyOp2
 70
     1
102
RTVSPropertyOp3
 70
     1
102
RTVSPropertyOp4
 70
     1
102
RTVSPropertyOp5
 70
     1
102
RTVSPropertyOp6
 70
     1
102
RTVSPropertyOp7
 70
     1
102
RTVSPropertyOp8
 70
     1
102
RTVSPropertyOp9
 70
     1
102
RTVSPropertyOp10
 70
     1
102
RTVSPropertyOp11
 70
     1
102
RTVSPropertyOp12
 70
     1
102
RTVSPropertyOp13
 70
     1
102
RTVSPropertyOp14
 70
     1
102
RTVSPropertyOp15
 70
     1
102
RTVSPropertyOp16
 70
     1
102
RTVSPropertyOp17
 70
     1
102
RTVSPropertyOp18
 70
     1
102
RTVSPropertyOp19
 70
     1
102
RTVSPropertyOp20
 70
     1
102
RTVSPropertyOp21
 70
     1
102
RTVSPropertyOp22
 70
     1
102
RTVSPropertyOp23
 70
     1
102
RTVSPropertyOp24
 70
     1
102
RTVSPropertyOp25
 70
     1
102
RTVSPropertyOp26
 70
     1
102
RTVSPropertyOp27
 70
     1
  0
XRECORD
  5
24B6
102
{ACAD_REACTORS
330
24B5
102
}
330
24B5
100
AcDbXrecord
280
     1
102
RTVSPropertyOp0
 70
     1
102
RTVSPropertyOp1
 70
     1
102
RTVSPropertyOp2
 70
     1
102
RTVSPropertyOp3
 70
     1
102
RTVSPropertyOp4
 70
     1
102
RTVSPropertyOp5
 70
     1
102
RTVSPropertyOp6
 70
     1
102
RTVSPropertyOp7
 70
     1
102
RTVSPropertyOp8
 70
     1
102
RTVSPropertyOp9
 70
     1
102
RTVSPropertyOp10
 70
     1
102
RTVSPropertyOp11
 70
     1
102
RTVSPropertyOp12
 70
     1
102
RTVSPropertyOp13
 70
     1
102
RTVSPropertyOp14
 70
     1
102
RTVSPropertyOp15
 70
     1
102
RTVSPropertyOp16
 70
     1
102
RTVSPropertyOp17
 70
     1
102
RTVSPropertyOp18
 70
     1
102
RTVSPropertyOp19
 70
     1
102
RTVSPropertyOp20
 70
     1
102
RTVSPropertyOp21
 70
     1
102
RTVSPropertyOp22
 70
     1
102
RTVSPropertyOp23
 70
     1
102
RTVSPropertyOp24
 70
     1
102
RTVSPropertyOp25
 70
     1
102
RTVSPropertyOp26
 70
     1
102
RTVSPropertyOp27
 70
     1
  0
XRECORD
  5
24A8
102
{ACAD_REACTORS
330
24A7
102
}
330
24A7
100
AcDbXrecord
280
     1
102
RTVSPropertyOp0
 70
     1
102
RTVSPropertyOp1
 70
     1
102
RTVSPropertyOp2
 70
     1
102
RTVSPropertyOp3
 70
     1
102
RTVSPropertyOp4
 70
     1
102
RTVSPropertyOp5
 70
     1
102
RTVSPropertyOp6
 70
     1
102
RTVSPropertyOp7
 70
     1
102
RTVSPropertyOp8
 70
     1
102
RTVSPropertyOp9
 70
     1
102
RTVSPropertyOp10
 70
     1
102
RTVSPropertyOp11
 70
     1
102
RTVSPropertyOp12
 70
     1
102
RTVSPropertyOp13
 70
     1
102
RTVSPropertyOp14
 70
     1
102
RTVSPropertyOp15
 70
     1
102
RTVSPropertyOp16
 70
     1
102
RTVSPropertyOp17
 70
     1
102
RTVSPropertyOp18
 70
     1
102
RTVSPropertyOp19
 70
     1
102
RTVSPropertyOp20
 70
     1
102
RTVSPropertyOp21
 70
     1
102
RTVSPropertyOp22
 70
     1
102
RTVSPropertyOp23
 70
     1
102
RTVSPropertyOp24
 70
     1
102
RTVSPropertyOp25
 70
     1
102
RTVSPropertyOp26
 70
     1
102
RTVSPropertyOp27
 70
     1
  0
XRECORD
  5
24AC
102
{ACAD_REACTORS
330
24AB
102
}
330
24AB
100
AcDbXrecord
280
     1
102
RTVSPropertyOp0
 70
     1
102
RTVSPropertyOp1
 70
     1
102
RTVSPropertyOp2
 70
     1
102
RTVSPropertyOp3
 70
     1
102
RTVSPropertyOp4
 70
     1
102
RTVSPropertyOp5
 70
     1
102
RTVSPropertyOp6
 70
     1
102
RTVSPropertyOp7
 70
     1
102
RTVSPropertyOp8
 70
     1
102
RTVSPropertyOp9
 70
     1
102
RTVSPropertyOp10
 70
     1
102
RTVSPropertyOp11
 70
     1
102
RTVSPropertyOp12
 70
     1
102
RTVSPropertyOp13
 70
     1
102
RTVSPropertyOp14
 70
     1
102
RTVSPropertyOp15
 70
     1
102
RTVSPropertyOp16
 70
     1
102
RTVSPropertyOp17
 70
     1
102
RTVSPropertyOp18
 70
     1
102
RTVSPropertyOp19
 70
     1
102
RTVSPropertyOp20
 70
     1
102
RTVSPropertyOp21
 70
     1
102
RTVSPropertyOp22
 70
     1
102
RTVSPropertyOp23
 70
     1
102
RTVSPropertyOp24
 70
     1
102
RTVSPropertyOp25
 70
     1
102
RTVSPropertyOp26
 70
     1
102
RTVSPropertyOp27
 70
     1
  0
XRECORD
  5
24BC
102
{ACAD_REACTORS
330
24BB
102
}
330
24BB
100
AcDbXrecord
280
     1
102
RTVSPropertyOp0
 70
     0
102
RTVSPropertyOp1
 70
     0
102
RTVSPropertyOp2
 70
     0
102
RTVSPropertyOp3
 70
     0
102
RTVSPropertyOp4
 70
     0
102
RTVSPropertyOp5
 70
     0
102
RTVSPropertyOp6
 70
     0
102
RTVSPropertyOp7
 70
     0
102
RTVSPropertyOp8
 70
     0
102
RTVSPropertyOp9
 70
     0
102
RTVSPropertyOp10
 70
     0
102
RTVSPropertyOp11
 70
     0
102
RTVSPropertyOp12
 70
     0
102
RTVSPropertyOp13
 70
     0
102
RTVSPropertyOp14
 70
     2
102
RTVSPropertyOp15
 70
     0
102
RTVSPropertyOp16
 70
     0
102
RTVSPropertyOp17
 70
     0
102
RTVSPropertyOp18
 70
     0
102
RTVSPropertyOp19
 70
     0
102
RTVSPropertyOp20
 70
     0
102
RTVSPropertyOp21
 70
     0
102
RTVSPropertyOp22
 70
     0
102
RTVSPropertyOp23
 70
     0
102
RTVSPropertyOp24
 70
     0
102
RTVSPropertyOp25
 70
     0
102
RTVSPropertyOp26
 70
     0
102
RTVSPropertyOp27
 70
     0
  0
XRECORD
  5
24B4
102
{ACAD_REACTORS
330
24B3
102
}
330
24B3
100
AcDbXrecord
280
     1
102
RTVSPropertyOp0
 70
     1
102
RTVSPropertyOp1
 70
     1
102
RTVSPropertyOp2
 70
     1
102
RTVSPropertyOp3
 70
     1
102
RTVSPropertyOp4
 70
     1
102
RTVSPropertyOp5
 70
     1
102
RTVSPropertyOp6
 70
     1
102
RTVSPropertyOp7
 70
     1
102
RTVSPropertyOp8
 70
     1
102
RTVSPropertyOp9
 70
     1
102
RTVSPropertyOp10
 70
     1
102
RTVSPropertyOp11
 70
     1
102
RTVSPropertyOp12
 70
     1
102
RTVSPropertyOp13
 70
     1
102
RTVSPropertyOp14
 70
     1
102
RTVSPropertyOp15
 70
     1
102
RTVSPropertyOp16
 70
     1
102
RTVSPropertyOp17
 70
     1
102
RTVSPropertyOp18
 70
     1
102
RTVSPropertyOp19
 70
     1
102
RTVSPropertyOp20
 70
     1
102
RTVSPropertyOp21
 70
     1
102
RTVSPropertyOp22
 70
     1
102
RTVSPropertyOp23
 70
     1
102
RTVSPropertyOp24
 70
     1
102
RTVSPropertyOp25
 70
     1
102
RTVSPropertyOp26
 70
     1
102
RTVSPropertyOp27
 70
     1
  0
XRECORD
  5
2498
102
{ACAD_REACTORS
330
2497
102
}
330
2497
100
AcDbXrecord
280
     1
102
RTVSPropertyOp0
 70
     1
102
RTVSPropertyOp1
 70
     1
102
RTVSPropertyOp2
 70
     1
102
RTVSPropertyOp3
 70
     1
102
RTVSPropertyOp4
 70
     1
102
RTVSPropertyOp5
 70
     1
102
RTVSPropertyOp6
 70
     1
102
RTVSPropertyOp7
 70
     1
102
RTVSPropertyOp8
 70
     1
102
RTVSPropertyOp9
 70
     1
102
RTVSPropertyOp10
 70
     1
102
RTVSPropertyOp11
 70
     1
102
RTVSPropertyOp12
 70
     1
102
RTVSPropertyOp13
 70
     1
102
RTVSPropertyOp14
 70
     1
102
RTVSPropertyOp15
 70
     1
102
RTVSPropertyOp16
 70
     1
102
RTVSPropertyOp17
 70
     1
102
RTVSPropertyOp18
 70
     1
102
RTVSPropertyOp19
 70
     1
102
RTVSPropertyOp20
 70
     1
102
RTVSPropertyOp21
 70
     1
102
RTVSPropertyOp22
 70
     1
102
RTVSPropertyOp23
 70
     1
102
RTVSPropertyOp24
 70
     1
102
RTVSPropertyOp25
 70
     1
102
RTVSPropertyOp26
 70
     1
102
RTVSPropertyOp27
 70
     1
  0
XRECORD
  5
249A
102
{ACAD_REACTORS
330
2499
102
}
330
2499
100
AcDbXrecord
280
     1
102
RTVSPropertyOp0
 70
     1
102
RTVSPropertyOp1
 70
     1
102
RTVSPropertyOp2
 70
     1
102
RTVSPropertyOp3
 70
     1
102
RTVSPropertyOp4
 70
     1
102
RTVSPropertyOp5
 70
     1
102
RTVSPropertyOp6
 70
     1
102
RTVSPropertyOp7
 70
     1
102
RTVSPropertyOp8
 70
     1
102
RTVSPropertyOp9
 70
     1
102
RTVSPropertyOp10
 70
     1
102
RTVSPropertyOp11
 70
     1
102
RTVSPropertyOp12
 70
     1
102
RTVSPropertyOp13
 70
     1
102
RTVSPropertyOp14
 70
     1
102
RTVSPropertyOp15
 70
     1
102
RTVSPropertyOp16
 70
     1
102
RTVSPropertyOp17
 70
     1
102
RTVSPropertyOp18
 70
     1
102
RTVSPropertyOp19
 70
     1
102
RTVSPropertyOp20
 70
     1
102
RTVSPropertyOp21
 70
     1
102
RTVSPropertyOp22
 70
     1
102
RTVSPropertyOp23
 70
     1
102
RTVSPropertyOp24
 70
     1
102
RTVSPropertyOp25
 70
     1
102
RTVSPropertyOp26
 70
     1
102
RTVSPropertyOp27
 70
     1
  0
XRECORD
  5
249C
102
{ACAD_REACTORS
330
249B
102
}
330
249B
100
AcDbXrecord
280
     1
102
RTVSPropertyOp0
 70
     1
102
RTVSPropertyOp1
 70
     1
102
RTVSPropertyOp2
 70
     1
102
RTVSPropertyOp3
 70
     1
102
RTVSPropertyOp4
 70
     1
102
RTVSPropertyOp5
 70
     1
102
RTVSPropertyOp6
 70
     1
102
RTVSPropertyOp7
 70
     1
102
RTVSPropertyOp8
 70
     1
102
RTVSPropertyOp9
 70
     1
102
RTVSPropertyOp10
 70
     1
102
RTVSPropertyOp11
 70
     1
102
RTVSPropertyOp12
 70
     1
102
RTVSPropertyOp13
 70
     1
102
RTVSPropertyOp14
 70
     1
102
RTVSPropertyOp15
 70
     1
102
RTVSPropertyOp16
 70
     1
102
RTVSPropertyOp17
 70
     1
102
RTVSPropertyOp18
 70
     1
102
RTVSPropertyOp19
 70
     1
102
RTVSPropertyOp20
 70
     1
102
RTVSPropertyOp21
 70
     1
102
RTVSPropertyOp22
 70
     1
102
RTVSPropertyOp23
 70
     1
102
RTVSPropertyOp24
 70
     1
102
RTVSPropertyOp25
 70
     1
102
RTVSPropertyOp26
 70
     1
102
RTVSPropertyOp27
 70
     1
  0
XRECORD
  5
249E
102
{ACAD_REACTORS
330
249D
102
}
330
249D
100
AcDbXrecord
280
     1
102
RTVSPropertyOp0
 70
     1
102
RTVSPropertyOp1
 70
     1
102
RTVSPropertyOp2
 70
     1
102
RTVSPropertyOp3
 70
     1
102
RTVSPropertyOp4
 70
     1
102
RTVSPropertyOp5
 70
     1
102
RTVSPropertyOp6
 70
     1
102
RTVSPropertyOp7
 70
     1
102
RTVSPropertyOp8
 70
     1
102
RTVSPropertyOp9
 70
     1
102
RTVSPropertyOp10
 70
     1
102
RTVSPropertyOp11
 70
     1
102
RTVSPropertyOp12
 70
     1
102
RTVSPropertyOp13
 70
     1
102
RTVSPropertyOp14
 70
     1
102
RTVSPropertyOp15
 70
     1
102
RTVSPropertyOp16
 70
     1
102
RTVSPropertyOp17
 70
     1
102
RTVSPropertyOp18
 70
     1
102
RTVSPropertyOp19
 70
     1
102
RTVSPropertyOp20
 70
     1
102
RTVSPropertyOp21
 70
     1
102
RTVSPropertyOp22
 70
     1
102
RTVSPropertyOp23
 70
     1
102
RTVSPropertyOp24
 70
     1
102
RTVSPropertyOp25
 70
     1
102
RTVSPropertyOp26
 70
     1
102
RTVSPropertyOp27
 70
     1
  0
XRECORD
  5
24B8
102
{ACAD_REACTORS
330
24B7
102
}
330
24B7
100
AcDbXrecord
280
     1
102
RTVSPropertyOp0
 70
     0
102
RTVSPropertyOp1
 70
     0
102
RTVSPropertyOp2
 70
     0
102
RTVSPropertyOp3
 70
     0
102
RTVSPropertyOp4
 70
     0
102
RTVSPropertyOp5
 70
     0
102
RTVSPropertyOp6
 70
     0
102
RTVSPropertyOp7
 70
     0
102
RTVSPropertyOp8
 70
     0
102
RTVSPropertyOp9
 70
     0
102
RTVSPropertyOp10
 70
     0
102
RTVSPropertyOp11
 70
     0
102
RTVSPropertyOp12
 70
     0
102
RTVSPropertyOp13
 70
     0
102
RTVSPropertyOp14
 70
     2
102
RTVSPropertyOp15
 70
     0
102
RTVSPropertyOp16
 70
     0
102
RTVSPropertyOp17
 70
     0
102
RTVSPropertyOp18
 70
     0
102
RTVSPropertyOp19
 70
     0
102
RTVSPropertyOp20
 70
     0
102
RTVSPropertyOp21
 70
     0
102
RTVSPropertyOp22
 70
     0
102
RTVSPropertyOp23
 70
     0
102
RTVSPropertyOp24
 70
     0
102
RTVSPropertyOp25
 70
     0
102
RTVSPropertyOp26
 70
     0
102
RTVSPropertyOp27
 70
     0
  0
XRECORD
  5
24B2
102
{ACAD_REACTORS
330
24B1
102
}
330
24B1
100
AcDbXrecord
280
     1
102
RTVSPropertyOp0
 70
     1
102
RTVSPropertyOp1
 70
     1
102
RTVSPropertyOp2
 70
     1
102
RTVSPropertyOp3
 70
     1
102
RTVSPropertyOp4
 70
     1
102
RTVSPropertyOp5
 70
     1
102
RTVSPropertyOp6
 70
     1
102
RTVSPropertyOp7
 70
     1
102
RTVSPropertyOp8
 70
     1
102
RTVSPropertyOp9
 70
     1
102
RTVSPropertyOp10
 70
     1
102
RTVSPropertyOp11
 70
     1
102
RTVSPropertyOp12
 70
     1
102
RTVSPropertyOp13
 70
     1
102
RTVSPropertyOp14
 70
     1
102
RTVSPropertyOp15
 70
     1
102
RTVSPropertyOp16
 70
     1
102
RTVSPropertyOp17
 70
     1
102
RTVSPropertyOp18
 70
     1
102
RTVSPropertyOp19
 70
     1
102
RTVSPropertyOp20
 70
     1
102
RTVSPropertyOp21
 70
     1
102
RTVSPropertyOp22
 70
     1
102
RTVSPropertyOp23
 70
     1
102
RTVSPropertyOp24
 70
     1
102
RTVSPropertyOp25
 70
     1
102
RTVSPropertyOp26
 70
     1
102
RTVSPropertyOp27
 70
     1
  0
XRECORD
  5
24BA
102
{ACAD_REACTORS
330
24B9
102
}
330
24B9
100
AcDbXrecord
280
     1
102
RTVSPropertyOp0
 70
     0
102
RTVSPropertyOp1
 70
     0
102
RTVSPropertyOp2
 70
     0
102
RTVSPropertyOp3
 70
     0
102
RTVSPropertyOp4
 70
     0
102
RTVSPropertyOp5
 70
     0
102
RTVSPropertyOp6
 70
     0
102
RTVSPropertyOp7
 70
     0
102
RTVSPropertyOp8
 70
     0
102
RTVSPropertyOp9
 70
     0
102
RTVSPropertyOp10
 70
     0
102
RTVSPropertyOp11
 70
     0
102
RTVSPropertyOp12
 70
     0
102
RTVSPropertyOp13
 70
     0
102
RTVSPropertyOp14
 70
     2
102
RTVSPropertyOp15
 70
     0
102
RTVSPropertyOp16
 70
     0
102
RTVSPropertyOp17
 70
     0
102
RTVSPropertyOp18
 70
     0
102
RTVSPropertyOp19
 70
     0
102
RTVSPropertyOp20
 70
     0
102
RTVSPropertyOp21
 70
     0
102
RTVSPropertyOp22
 70
     0
102
RTVSPropertyOp23
 70
     0
102
RTVSPropertyOp24
 70
     0
102
RTVSPropertyOp25
 70
     0
102
RTVSPropertyOp26
 70
     0
102
RTVSPropertyOp27
 70
     0
  0
XRECORD
  5
24AA
102
{ACAD_REACTORS
330
24A9
102
}
330
24A9
100
AcDbXrecord
280
     1
102
RTVSPropertyOp0
 70
     1
102
RTVSPropertyOp1
 70
     1
102
RTVSPropertyOp2
 70
     1
102
RTVSPropertyOp3
 70
     1
102
RTVSPropertyOp4
 70
     1
102
RTVSPropertyOp5
 70
     1
102
RTVSPropertyOp6
 70
     1
102
RTVSPropertyOp7
 70
     1
102
RTVSPropertyOp8
 70
     1
102
RTVSPropertyOp9
 70
     1
102
RTVSPropertyOp10
 70
     1
102
RTVSPropertyOp11
 70
     1
102
RTVSPropertyOp12
 70
     1
102
RTVSPropertyOp13
 70
     1
102
RTVSPropertyOp14
 70
     1
102
RTVSPropertyOp15
 70
     1
102
RTVSPropertyOp16
 70
     1
102
RTVSPropertyOp17
 70
     1
102
RTVSPropertyOp18
 70
     1
102
RTVSPropertyOp19
 70
     1
102
RTVSPropertyOp20
 70
     1
102
RTVSPropertyOp21
 70
     1
102
RTVSPropertyOp22
 70
     1
102
RTVSPropertyOp23
 70
     1
102
RTVSPropertyOp24
 70
     1
102
RTVSPropertyOp25
 70
     1
102
RTVSPropertyOp26
 70
     1
102
RTVSPropertyOp27
 70
     1
  0
XRECORD
  5
24B0
102
{ACAD_REACTORS
330
24AF
102
}
330
24AF
100
AcDbXrecord
280
     1
102
RTVSPropertyOp0
 70
     1
102
RTVSPropertyOp1
 70
     1
102
RTVSPropertyOp2
 70
     1
102
RTVSPropertyOp3
 70
     1
102
RTVSPropertyOp4
 70
     1
102
RTVSPropertyOp5
 70
     1
102
RTVSPropertyOp6
 70
     1
102
RTVSPropertyOp7
 70
     1
102
RTVSPropertyOp8
 70
     1
102
RTVSPropertyOp9
 70
     1
102
RTVSPropertyOp10
 70
     1
102
RTVSPropertyOp11
 70
     1
102
RTVSPropertyOp12
 70
     1
102
RTVSPropertyOp13
 70
     1
102
RTVSPropertyOp14
 70
     1
102
RTVSPropertyOp15
 70
     1
102
RTVSPropertyOp16
 70
     1
102
RTVSPropertyOp17
 70
     1
102
RTVSPropertyOp18
 70
     1
102
RTVSPropertyOp19
 70
     1
102
RTVSPropertyOp20
 70
     1
102
RTVSPropertyOp21
 70
     1
102
RTVSPropertyOp22
 70
     1
102
RTVSPropertyOp23
 70
     1
102
RTVSPropertyOp24
 70
     1
102
RTVSPropertyOp25
 70
     1
102
RTVSPropertyOp26
 70
     1
102
RTVSPropertyOp27
 70
     1
  0
ENDSEC
  0
EOF
