  0
SECTION
  2
HEADER
  9
$ACADVER
  1
AC1015
  9
$ACADMAINTVER
 70
    20
  9
$DWGCODEPAGE
  3
ANSI_1252
  9
$INSBASE
 10
0.0
 20
0.0
 30
0.0
  9
$EXTMIN
 10
1562.691221813103
 20
3771.523171630828
 30
-0.0000000017937957
  9
$EXTMAX
 10
1565.370027902656
 20
3773.373171630828
 30
0.0000000002002489
  9
$LIMMIN
 10
0.0
 20
0.0
  9
$LIMMAX
 10
420.0
 20
297.0
  9
$ORTHOMODE
 70
     1
  9
$REGENMODE
 70
     1
  9
$FILLMODE
 70
     1
  9
$QTEXTMODE
 70
     0
  9
$MIRRTEXT
 70
     1
  9
$LTSCALE
 40
1.0
  9
$ATTMODE
 70
     1
  9
$TEXTSIZE
 40
2.5
  9
$TRACEWID
 40
1.0
  9
$TEXTSTYLE
  7
SANINDUSA
  9
$CLAYER
  8
cotas
  9
$CELTYPE
  6
ByLayer
  9
$CECOLOR
 62
   256
  9
$CELTSCALE
 40
1.0
  9
$DISPSILH
 70
     0
  9
$DIMSCALE
 40
1.0
  9
$DIMASZ
 40
2.0
  9
$DIMEXO
 40
1.0
  9
$DIMDLI
 40
1.0
  9
$DIMRND
 40
0.0
  9
$DIMDLE
 40
0.0
  9
$DIMEXE
 40
1.0
  9
$DIMTP
 40
0.0
  9
$DIMTM
 40
0.0
  9
$DIMTXT
 40
2.0
  9
$DIMCEN
 40
0.0
  9
$DIMTSZ
 40
0.0
  9
$DIMTOL
 70
     0
  9
$DIMLIM
 70
     0
  9
$DIMTIH
 70
     0
  9
$DIMTOH
 70
     0
  9
$DIMSE1
 70
     0
  9
$DIMSE2
 70
     0
  9
$DIMTAD
 70
     1
  9
$DIMZIN
 70
     8
  9
$DIMBLK
  1

  9
$DIMASO
 70
     1
  9
$DIMSHO
 70
     1
  9
$DIMPOST
  1

  9
$DIMAPOST
  1

  9
$DIMALT
 70
     0
  9
$DIMALTD
 70
     3
  9
$DIMALTF
 40
0.03937007874016
  9
$DIMLFAC
 40
1.0
  9
$DIMTOFL
 70
     1
  9
$DIMTVP
 40
0.0
  9
$DIMTIX
 70
     0
  9
$DIMSOXD
 70
     0
  9
$DIMSAH
 70
     0
  9
$DIMBLK1
  1

  9
$DIMBLK2
  1

  9
$DIMSTYLE
  2
SANINDUSA
  9
$DIMCLRD
 70
   256
  9
$DIMCLRE
 70
   256
  9
$DIMCLRT
 70
   256
  9
$DIMTFAC
 40
1.0
  9
$DIMGAP
 40
1.0
  9
$DIMJUST
 70
     0
  9
$DIMSD1
 70
     0
  9
$DIMSD2
 70
     0
  9
$DIMTOLJ
 70
     0
  9
$DIMTZIN
 70
     8
  9
$DIMALTZ
 70
     0
  9
$DIMALTTZ
 70
     0
  9
$DIMUPT
 70
     0
  9
$DIMDEC
 70
     1
  9
$DIMTDEC
 70
     1
  9
$DIMALTU
 70
     2
  9
$DIMALTTD
 70
     3
  9
$DIMTXSTY
  7
SANINDUSA
  9
$DIMAUNIT
 70
     0
  9
$DIMADEC
 70
     1
  9
$DIMALTRND
 40
0.0
  9
$DIMAZIN
 70
     0
  9
$DIMDSEP
 70
    44
  9
$DIMATFIT
 70
     3
  9
$DIMFRAC
 70
     0
  9
$DIMLDRBLK
  1

  9
$DIMLUNIT
 70
     2
  9
$DIMLWD
 70
    -1
  9
$DIMLWE
 70
    -1
  9
$DIMTMOVE
 70
     0
  9
$LUNITS
 70
     2
  9
$LUPREC
 70
     4
  9
$SKETCHINC
 40
1.0
  9
$FILLETRAD
 40
0.0
  9
$AUNITS
 70
     0
  9
$AUPREC
 70
     0
  9
$MENU
  1
.
  9
$ELEVATION
 40
0.0
  9
$PELEVATION
 40
0.0
  9
$THICKNESS
 40
0.0
  9
$LIMCHECK
 70
     0
  9
$CHAMFERA
 40
10.0
  9
$CHAMFERB
 40
10.0
  9
$CHAMFERC
 40
20.0
  9
$CHAMFERD
 40
0.0
  9
$SKPOLY
 70
     0
  9
$TDCREATE
 40
2453318.730959919
  9
$TDUCREATE
 40
2453318.689293253
  9
$TDUPDATE
 40
2455824.605017535
  9
$TDUUPDATE
 40
2455824.563350868
  9
$TDINDWG
 40
0.0490469444
  9
$TDUSRTIMER
 40
0.0490469444
  9
$USRTIMER
 70
     1
  9
$ANGBASE
 50
0.0
  9
$ANGDIR
 70
     0
  9
$PDMODE
 70
     0
  9
$PDSIZE
 40
0.0
  9
$PLINEWID
 40
0.0
  9
$SPLFRAME
 70
     0
  9
$SPLINETYPE
 70
     6
  9
$SPLINESEGS
 70
     8
  9
$HANDSEED
  5
24E1
  9
$SURFTAB1
 70
     6
  9
$SURFTAB2
 70
     6
  9
$SURFTYPE
 70
     6
  9
$SURFU
 70
     6
  9
$SURFV
 70
     6
  9
$UCSBASE
  2

  9
$UCSNAME
  2

  9
$UCSORG
 10
0.0
 20
0.0
 30
0.0
  9
$UCSXDIR
 10
1.0
 20
0.0
 30
0.0
  9
$UCSYDIR
 10
0.0
 20
1.0
 30
0.0
  9
$UCSORTHOREF
  2

  9
$UCSORTHOVIEW
 70
     0
  9
$UCSORGTOP
 10
0.0
 20
0.0
 30
0.0
  9
$UCSORGBOTTOM
 10
0.0
 20
0.0
 30
0.0
  9
$UCSORGLEFT
 10
0.0
 20
0.0
 30
0.0
  9
$UCSORGRIGHT
 10
0.0
 20
0.0
 30
0.0
  9
$UCSORGFRONT
 10
0.0
 20
0.0
 30
0.0
  9
$UCSORGBACK
 10
0.0
 20
0.0
 30
0.0
  9
$PUCSBASE
  2

  9
$PUCSNAME
  2

  9
$PUCSORG
 10
0.0
 20
0.0
 30
0.0
  9
$PUCSXDIR
 10
1.0
 20
0.0
 30
0.0
  9
$PUCSYDIR
 10
0.0
 20
1.0
 30
0.0
  9
$PUCSORTHOREF
  2

  9
$PUCSORTHOVIEW
 70
     0
  9
$PUCSORGTOP
 10
0.0
 20
0.0
 30
0.0
  9
$PUCSORGBOTTOM
 10
0.0
 20
0.0
 30
0.0
  9
$PUCSORGLEFT
 10
0.0
 20
0.0
 30
0.0
  9
$PUCSORGRIGHT
 10
0.0
 20
0.0
 30
0.0
  9
$PUCSORGFRONT
 10
0.0
 20
0.0
 30
0.0
  9
$PUCSORGBACK
 10
0.0
 20
0.0
 30
0.0
  9
$USERI1
 70
     0
  9
$USERI2
 70
     0
  9
$USERI3
 70
     0
  9
$USERI4
 70
     0
  9
$USERI5
 70
     0
  9
$USERR1
 40
0.0
  9
$USERR2
 40
0.0
  9
$USERR3
 40
0.0
  9
$USERR4
 40
0.0
  9
$USERR5
 40
0.0
  9
$WORLDVIEW
 70
     1
  9
$SHADEDGE
 70
     3
  9
$SHADEDIF
 70
    70
  9
$TILEMODE
 70
     1
  9
$MAXACTVP
 70
    64
  9
$PINSBASE
 10
0.0
 20
0.0
 30
0.0
  9
$PLIMCHECK
 70
     0
  9
$PEXTMIN
 10
1.000000000000000E+20
 20
1.000000000000000E+20
 30
1.000000000000000E+20
  9
$PEXTMAX
 10
-1.000000000000000E+20
 20
-1.000000000000000E+20
 30
-1.000000000000000E+20
  9
$PLIMMIN
 10
0.0
 20
0.0
  9
$PLIMMAX
 10
420.0
 20
297.0
  9
$UNITMODE
 70
     0
  9
$VISRETAIN
 70
     1
  9
$PLINEGEN
 70
     0
  9
$PSLTSCALE
 70
     1
  9
$TREEDEPTH
 70
  3020
  9
$CMLSTYLE
  2
Standard
  9
$CMLJUST
 70
     0
  9
$CMLSCALE
 40
20.0
  9
$PROXYGRAPHICS
 70
     1
  9
$MEASUREMENT
 70
     1
  9
$CELWEIGHT
370
    -1
  9
$ENDCAPS
280
     0
  9
$JOINSTYLE
280
     0
  9
$LWDISPLAY
290
     0
  9
$INSUNITS
 70
     4
  9
$HYPERLINKBASE
  1

  9
$STYLESHEET
  1
monochrome.ctb
  9
$XEDIT
290
     1
  9
$CEPSNTYPE
380
     0
  9
$PSTYLEMODE
290
     1
  9
$FINGERPRINTGUID
  2
{B98A73AA-52AA-4C10-B469-C0E7150AC31F}
  9
$VERSIONGUID
  2
{4329BC43-0CBB-4886-A6F0-489E2A8B11DA}
  9
$EXTNAMES
290
     1
  9
$PSVPSCALE
 40
0.0
  9
$OLESTARTUP
290
     0
  0
ENDSEC
  0
SECTION
  2
CLASSES
  0
CLASS
  1
ACDBDICTIONARYWDFLT
  2
AcDbDictionaryWithDefault
  3
ObjectDBX Classes
 90
        0
280
     0
281
     0
  0
CLASS
  1
ACDBPLACEHOLDER
  2
AcDbPlaceHolder
  3
ObjectDBX Classes
 90
        0
280
     0
281
     0
  0
CLASS
  1
LAYOUT
  2
AcDbLayout
  3
ObjectDBX Classes
 90
        0
280
     0
281
     0
  0
CLASS
  1
DICTIONARYVAR
  2
AcDbDictionaryVar
  3
ObjectDBX Classes
 90
        0
280
     0
281
     0
  0
CLASS
  1
DIMASSOC
  2
AcDbDimAssoc
  3
"AcDbDimAssoc|Product Desc:     AcDim ARX App For Dimension|Company:          Autodesk, Inc.|WEB Address:      www.autodesk.com"
 90
        0
280
     0
281
     0
  0
CLASS
  1
MATERIAL
  2
AcDbMaterial
  3
ObjectDBX Classes
 90
     1153
280
     0
281
     0
  0
CLASS
  1
VISUALSTYLE
  2
AcDbVisualStyle
  3
ObjectDBX Classes
 90
     4095
280
     0
281
     0
  0
CLASS
  1
TABLESTYLE
  2
AcDbTableStyle
  3
ObjectDBX Classes
 90
     4095
280
     0
281
     0
  0
CLASS
  1
SCALE
  2
AcDbScale
  3
ObjectDBX Classes
 90
     1153
280
     0
281
     0
  0
CLASS
  1
MLEADERSTYLE
  2
AcDbMLeaderStyle
  3
ACDB_MLEADERSTYLE_CLASS
 90
     4095
280
     0
281
     0
  0
CLASS
  1
CELLSTYLEMAP
  2
AcDbCellStyleMap
  3
ObjectDBX Classes
 90
     1152
280
     0
281
     0
  0
ENDSEC
  0
SECTION
  2
TABLES
  0
TABLE
  2
VPORT
  5
8
330
0
100
AcDbSymbolTable
 70
     1
  0
VPORT
  5
23DA
330
8
100
AcDbSymbolTableRecord
100
AcDbViewportTableRecord
  2
*Active
 70
     0
 10
0.0
 20
0.0
 11
1.0
 21
1.0
 12
1564.030624857879
 22
3772.448171630828
 13
0.0
 23
0.0
 14
10.0
 24
10.0
 15
10.0
 25
10.0
 16
0.0
 26
0.0
 36
1.0
 17
0.0
 27
0.0
 37
0.0
 40
1.861562499999763
 41
1.645464025026068
 42
50.0
 43
0.0
 44
0.0
 50
0.0
 51
0.0
 71
     0
 72
   100
 73
     1
 74
     2
 75
     0
 76
     0
 77
     0
 78
     0
281
     0
 65
     1
110
0.0
120
0.0
130
0.0
111
1.0
121
0.0
131
0.0
112
0.0
122
1.0
132
0.0
 79
     0
146
0.0
  0
ENDTAB
  0
TABLE
  2
LTYPE
  5
5
330
0
100
AcDbSymbolTable
 70
     5
  0
LTYPE
  5
14
330
5
100
AcDbSymbolTableRecord
100
AcDbLinetypeTableRecord
  2
ByBlock
 70
     0
  3

 72
    65
 73
     0
 40
0.0
  0
LTYPE
  5
15
330
5
100
AcDbSymbolTableRecord
100
AcDbLinetypeTableRecord
  2
ByLayer
 70
     0
  3

 72
    65
 73
     0
 40
0.0
  0
LTYPE
  5
16
330
5
100
AcDbSymbolTableRecord
100
AcDbLinetypeTableRecord
  2
Continuous
 70
     0
  3
Solid line
 72
    65
 73
     0
 40
0.0
  0
LTYPE
  5
2D
330
5
100
AcDbSymbolTableRecord
100
AcDbLinetypeTableRecord
  2
DASHDOT
 70
     0
  3
Dash dot __ . __ . __ . __ . __ . __ . __ . __
 72
    65
 73
     4
 40
25.4
 49
12.7
 74
     0
 49
-6.349999999999999
 74
     0
 49
0.0
 74
     0
 49
-6.349999999999999
 74
     0
  0
LTYPE
  5
2E
330
5
100
AcDbSymbolTableRecord
100
AcDbLinetypeTableRecord
  2
HIDDEN
 70
     0
  3
Hidden __ __ __ __ __ __ __ __ __ __ __ __ __ _
 72
    65
 73
     2
 40
9.524999999999998
 49
6.349999999999999
 74
     0
 49
-3.174999999999999
 74
     0
  0
LTYPE
  5
C84
330
5
100
AcDbSymbolTableRecord
100
AcDbLinetypeTableRecord
  2
CENTER
 70
     0
  3
____ _ ____ _ ____ _ ____ _ ____ _ ____ _ ____ 
 72
    65
 73
     4
 40
2.0
 49
1.25
 74
     0
 49
-0.25
 74
     0
 49
0.25
 74
     0
 49
-0.25
 74
     0
  0
ENDTAB
  0
TABLE
  2
LAYER
  5
2
330
0
100
AcDbSymbolTable
 70
    17
  0
LAYER
  5
10
102
{ACAD_XDICTIONARY
360
2445
102
}
330
2
100
AcDbSymbolTableRecord
100
AcDbLayerTableRecord
  2
0
 70
     0
 62
     7
  6
Continuous
370
    -3
390
F
  0
LAYER
  5
2F
102
{ACAD_XDICTIONARY
360
2447
102
}
330
2
100
AcDbSymbolTableRecord
100
AcDbLayerTableRecord
  2
1
 70
     0
 62
     1
  6
Continuous
370
    -3
390
F
  0
LAYER
  5
30
102
{ACAD_XDICTIONARY
360
2449
102
}
330
2
100
AcDbSymbolTableRecord
100
AcDbLayerTableRecord
  2
2
 70
     0
 62
     2
  6
Continuous
370
    -3
390
F
  0
LAYER
  5
31
102
{ACAD_XDICTIONARY
360
244B
102
}
330
2
100
AcDbSymbolTableRecord
100
AcDbLayerTableRecord
  2
3
 70
     0
 62
     3
  6
Continuous
370
    -3
390
F
  0
LAYER
  5
32
102
{ACAD_XDICTIONARY
360
244D
102
}
330
2
100
AcDbSymbolTableRecord
100
AcDbLayerTableRecord
  2
4
 70
     0
 62
     4
  6
Continuous
370
    -3
390
F
  0
LAYER
  5
33
102
{ACAD_XDICTIONARY
360
244F
102
}
330
2
100
AcDbSymbolTableRecord
100
AcDbLayerTableRecord
  2
5
 70
     0
 62
     5
  6
Continuous
370
    -3
390
F
  0
LAYER
  5
34
102
{ACAD_XDICTIONARY
360
2451
102
}
330
2
100
AcDbSymbolTableRecord
100
AcDbLayerTableRecord
  2
6
 70
     0
 62
     6
  6
Continuous
370
    -3
390
F
  0
LAYER
  5
35
102
{ACAD_XDICTIONARY
360
2453
102
}
330
2
100
AcDbSymbolTableRecord
100
AcDbLayerTableRecord
  2
7
 70
     0
 62
     7
  6
Continuous
370
    -3
390
F
  0
LAYER
  5
36
102
{ACAD_XDICTIONARY
360
2455
102
}
330
2
100
AcDbSymbolTableRecord
100
AcDbLayerTableRecord
  2
cen
 70
     0
 62
     7
  6
DASHDOT
370
    -3
390
F
  0
LAYER
  5
37
102
{ACAD_XDICTIONARY
360
2457
102
}
330
2
100
AcDbSymbolTableRecord
100
AcDbLayerTableRecord
  2
hid
 70
     0
 62
     7
  6
HIDDEN
370
    -3
390
F
  0
LAYER
  5
5D6
102
{ACAD_XDICTIONARY
360
2459
102
}
330
2
100
AcDbSymbolTableRecord
100
AcDbLayerTableRecord
  2
hatch
 70
     0
 62
     9
  6
Continuous
370
    -3
390
F
  0
LAYER
  5
8AF
102
{ACAD_XDICTIONARY
360
245B
102
}
330
2
100
AcDbSymbolTableRecord
100
AcDbLayerTableRecord
  2
9
 70
     0
 62
     9
  6
Continuous
370
    -3
390
F
  0
LAYER
  5
8F8
102
{ACAD_XDICTIONARY
360
245D
102
}
330
2
100
AcDbSymbolTableRecord
100
AcDbLayerTableRecord
  2
leg fin
 70
     0
 62
     9
  6
Continuous
370
    -3
390
F
  0
LAYER
  5
91D
102
{ACAD_XDICTIONARY
360
245F
102
}
330
2
100
AcDbSymbolTableRecord
100
AcDbLayerTableRecord
  2
cotas
 70
     0
 62
     1
  6
Continuous
370
    -3
390
F
  0
LAYER
  5
92F
330
2
100
AcDbSymbolTableRecord
100
AcDbLayerTableRecord
  2
Defpoints
 70
     0
 62
     7
  6
Continuous
290
     0
370
    -3
390
F
  0
LAYER
  5
C85
102
{ACAD_XDICTIONARY
360
2461
102
}
330
2
100
AcDbSymbolTableRecord
100
AcDbLayerTableRecord
  2
quote
 70
     0
 62
     7
  6
Continuous
370
    18
390
F
  0
LAYER
  5
242C
102
{ACAD_XDICTIONARY
360
2463
102
}
330
2
100
AcDbSymbolTableRecord
100
AcDbLayerTableRecord
  2
SANINDUSA
 70
     0
 62
     3
  6
Continuous
370
    -3
390
F
  0
ENDTAB
  0
TABLE
  2
STYLE
  5
3
330
0
100
AcDbSymbolTable
 70
     3
  0
STYLE
  5
11
330
3
100
AcDbSymbolTableRecord
100
AcDbTextStyleTableRecord
  2
Standard
 70
     0
 40
0.0
 41
1.0
 50
0.0
 71
     0
 42
2.5
  3
Avgardn.ttf
  4

1001
ACAD
1000
AvantGarde Bk BT
1071
       34
  0
STYLE
  5
2C
330
3
100
AcDbSymbolTableRecord
100
AcDbTextStyleTableRecord
  2

 70
     1
 40
0.0
 41
1.0
 50
0.0
 71
     0
 42
2.5
  3
ltypeshp.shx
  4

  0
STYLE
  5
91F
330
3
100
AcDbSymbolTableRecord
100
AcDbTextStyleTableRecord
  2
SANINDUSA
 70
     0
 40
0.0
 41
1.0
 50
0.0
 71
     0
 42
2.5
  3
verdana.TTF
  4

1001
ACAD
1000
Verdana
1071
       34
  0
ENDTAB
  0
TABLE
  2
VIEW
  5
6
330
0
100
AcDbSymbolTable
 70
     0
  0
ENDTAB
  0
TABLE
  2
UCS
  5
7
330
0
100
AcDbSymbolTable
 70
     0
  0
ENDTAB
  0
TABLE
  2
APPID
  5
9
330
0
100
AcDbSymbolTable
 70
     6
  0
APPID
  5
12
330
9
100
AcDbSymbolTableRecord
100
AcDbRegAppTableRecord
  2
ACAD
 70
     0
  0
APPID
  5
3A
330
9
100
AcDbSymbolTableRecord
100
AcDbRegAppTableRecord
  2
DCO15
 70
     0
  0
APPID
  5
C87
330
9
100
AcDbSymbolTableRecord
100
AcDbRegAppTableRecord
  2
GENIUS_GENREC_14
 70
     0
  0
APPID
  5
C88
330
9
100
AcDbSymbolTableRecord
100
AcDbRegAppTableRecord
  2
GENIUS_GENODEF_13
 70
     0
  0
APPID
  5
C89
330
9
100
AcDbSymbolTableRecord
100
AcDbRegAppTableRecord
  2
GENIUS_GENOBJ-N-REC_13
 70
     0
  0
APPID
  5
24E0
330
9
100
AcDbSymbolTableRecord
100
AcDbRegAppTableRecord
  2
ACAD_MLEADERVER
 70
     0
  0
ENDTAB
  0
TABLE
  2
DIMSTYLE
  5
A
330
0
100
AcDbSymbolTable
 70
     4
100
AcDbDimStyleTable
 71
     1
340
921
  0
DIMSTYLE
105
45
330
A
100
AcDbSymbolTableRecord
100
AcDbDimStyleTableRecord
  2
STANDARD
 70
     0
289
     0
340
11
  0
DIMSTYLE
105
921
330
A
100
AcDbSymbolTableRecord
100
AcDbDimStyleTableRecord
  2
SANINDUSA
 70
     0
 41
2.0
 42
1.0
 43
1.0
 44
1.0
 73
     0
 74
     0
 77
     1
 78
     8
140
2.0
141
0.0
143
0.03937007874016
147
1.0
171
     3
172
     1
176
   256
177
   256
178
   256
179
     1
271
     1
272
     1
274
     3
278
    44
283
     0
284
     8
340
91F
371
    -1
372
    -1
  0
DIMSTYLE
105
C86
330
A
100
AcDbSymbolTableRecord
100
AcDbDimStyleTableRecord
  2
ISO-25
 70
     0
 40
10.0
 41
2.5
 42
0.625
 43
3.75
 44
1.25
 73
     0
 74
     0
 77
     1
 78
     8
140
2.5
141
2.5
143
0.03937007874016
147
0.625
171
     3
172
     1
271
     0
272
     0
274
     3
278
    44
283
     0
284
     8
340
11
  0
ENDTAB
  0
TABLE
  2
BLOCK_RECORD
  5
1
330
0
100
AcDbSymbolTable
 70
    16
  0
BLOCK_RECORD
  5
1F
330
1
100
AcDbSymbolTableRecord
100
AcDbBlockTableRecord
  2
*Model_Space
340
22
  0
BLOCK_RECORD
  5
1B
330
1
100
AcDbSymbolTableRecord
100
AcDbBlockTableRecord
  2
*Paper_Space
340
1E
  0
BLOCK_RECORD
  5
23
330
1
100
AcDbSymbolTableRecord
100
AcDbBlockTableRecord
  2
*Paper_Space0
340
26
  0
BLOCK_RECORD
  5
919
330
1
100
AcDbSymbolTableRecord
100
AcDbBlockTableRecord
  2
_DotSmall
340
0
  0
BLOCK_RECORD
  5
922
330
1
100
AcDbSymbolTableRecord
100
AcDbBlockTableRecord
  2
base para cotas
340
0
310
2800000020000000200000000100080000000000000400000000000000000000000000000000000000000000000080000080000000808000800000008000800080800000C0C0C000C0DCC000F0CAA6000020400000206000002080000020A0000020C0000020E00000400000004020000040400000406000004080000040A0
310
000040C0000040E00000600000006020000060400000606000006080000060A0000060C0000060E00000800000008020000080400000806000008080000080A0000080C0000080E00000A0000000A0200000A0400000A0600000A0800000A0A00000A0C00000A0E00000C0000000C0200000C0400000C0600000C0800000C0
310
A00000C0C00000C0E00000E0000000E0200000E0400000E0600000E0800000E0A00000E0C00000E0E00040000000400020004000400040006000400080004000A0004000C0004000E00040200000402020004020400040206000402080004020A0004020C0004020E000404000004040200040404000404060004040800040
310
40A0004040C0004040E00040600000406020004060400040606000406080004060A0004060C0004060E00040800000408020004080400040806000408080004080A0004080C0004080E00040A0000040A0200040A0400040A0600040A0800040A0A00040A0C00040A0E00040C0000040C0200040C0400040C0600040C08000
310
40C0A00040C0C00040C0E00040E0000040E0200040E0400040E0600040E0800040E0A00040E0C00040E0E00080000000800020008000400080006000800080008000A0008000C0008000E00080200000802020008020400080206000802080008020A0008020C0008020E00080400000804020008040400080406000804080
310
008040A0008040C0008040E00080600000806020008060400080606000806080008060A0008060C0008060E00080800000808020008080400080806000808080008080A0008080C0008080E00080A0000080A0200080A0400080A0600080A0800080A0A00080A0C00080A0E00080C0000080C0200080C0400080C0600080C0
310
800080C0A00080C0C00080C0E00080E0000080E0200080E0400080E0600080E0800080E0A00080E0C00080E0E000C0000000C0002000C0004000C0006000C0008000C000A000C000C000C000E000C0200000C0202000C0204000C0206000C0208000C020A000C020C000C020E000C0400000C0402000C0404000C0406000C0
310
408000C040A000C040C000C040E000C0600000C0602000C0604000C0606000C0608000C060A000C060C000C060E000C0800000C0802000C0804000C0806000C0808000C080A000C080C000C080E000C0A00000C0A02000C0A04000C0A06000C0A08000C0A0A000C0A0C000C0A0E000C0C00000C0C02000C0C04000C0C06000
310
C0C08000C0C0A000F0FBFF00A4A0A000808080000000FF0000FF000000FFFF00FF000000FF00FF00FFFF0000FFFFFF00A4A4A4A4A4A4A4A4A4A4A4A4A4A4A4A4A4A4A4A4A4A4A4A4A4A4A4A4A4A4A4A4A4A4A4A4A4A4A4A4A4A4A4A4A4A4A4A4A4A4A4A4A4A4A4A4A4A4A4A4A4A4A4A4A4A4A4A4A4A4A4A4A4A4A4A4A4A4A4
310
A4A4A4A4A4A4A4A4A4A4A4A4A4A4A4A4A4A4A4A4A4A4A4A4A4A4A4A4A4A4A4A4A4A4A4A4A4A4A4A4A4A4A4A4A4A4A4A4A4A4A4A4A4A4A4A4A4A4A4A4A4A4A4A4A4A4A4A4A4A4A4A4A4A4A4A4A4A4A4A4A4A4A4A4A4A4A4A4A4A4A4A4A4A4A4A4A4A4A4A4A4A4A4A4A4A4A4A4A4A4A4A4A4A4A4A4A4A4A4A4A4A4A4A4A4A4A4
310
A4A4A4A4A4A4A4A4A4A4A4A4A4A4A4A4A4A4A4A4A4A4A4A4A4A4A4A4A4A4A4A4A4A4A4A4A4A4A4A4A4A4A4A4A4A4A4A4A4A4A4A4A4A4A4A4A4A4A4A4A4A4A4A4A4A4A4A4A4A4A4A4A4A4A4A4A4A4A4A4A4A4A4A4A4A4A4A4A4A4A4A4A4A4A4A4A4A4A4A4A4A4A4A4A4A4A4A4A4A4A4A4A4A4A4A4A4A4A4A4A4A4A4A4A4A4A4
310
A4A4A4A4A4A4A4A4A4A4A4A4A4A4A4A4A4A4A4A4A4A4A4A4A4A4A4A4A4A4A4A4A4A4A4A4A4A4A4A4A4A4A4A4A4A4A4A4A4A4A4A4A4A4A4A4A4A4A4A4A4A4A4A4A4A4A4A4A4A4A4A4A4A4A4A4A4A4A4A4A4A4A4A4A4A4A4A4A4A4A4A4A4A4A4A4A4A4A4A4A4A4A4A4A4A4A4A4A4A4A4A4A4A4A4A4F9F9F9F9F9F9F9F9F9F9F9
310
F9F9F9F9F9F9F9F9F9F9F9F9F9F9F9F9F9F9F9A4A4F9F9F9F9F9F9F9F9F9F9F9F9F9F9F9F9F9F9F9F9F9F9F9F9F9F9F9F9F9F9A4A4F9F9F9F9F9F9F9F9F9F9F9F9F9F9F9F9F9F9F9F9F9F9F9F9F9F9F9F9F9F9A4A4F9A4A4A4A4A4A4A4A4A4A4A4A4A4A4A4A4A4A4A4A4A4A4A4A4A4A4A4A4F9A4A4A4A4A4A4A4A4A4A4A4A4
310
A4A4A4A4A4A4A4A4A4A4A4A4A4A4A4A4A4A4A4A4A4A4A4A4A4A4A4A4A4A4A4A4A4A4A4A4A4A4A4A4A4A4A4A4A4A4A4A4A4A4A4A4A4A4A4A4A4A4A4A4A4A4A4A4A4A4A4A4A4A4A4A4A4A4A4A4A4A4A4A4A4A4A4A4A4A4A4A4A4A4A4A4A4A4A4A4A4A4A4A4A4A4A4A4A4A4A4A4A4A4A4A4A4A4A4A4A4A4A4A4A4A4A4A4A4A4A4
310
A4A4A4A4A4A4A4A4A4A4A4A4A4A4A4A4A4A4A4A4A4A4A4A4A4A4A4A4A4A4A4A4A4A4A4A4A4A4A4A4A4A4A4A4A4A4A4A4A4A4A4A4A4A4A4A4A4A4A4A4A4A4A4A4A4A4A4A4A4A4A4A4A4A4A4A4A4A4A4A4A4A4A4A4A4A4A4A4A4A4A4A4A4A4A4A4A4A4A4A4A4A4A4A4A4A4A4A4A4A4A4A4A4A4A4A4A4A4A4A4A4A4A4A4A4A4A4
310
A4A4A4A4A4A4A4A4A4A4A4A4A4A4A4A4A4A4A4A4A4A4A4A4A4A4A4A4A4A4A4A4A4A4A4A4A4A4A4A4A4A4A4A4A4A4A4A4A4A4A4A4A4A4A4A4A4A4A4A4A4A4A4A4A4A4A4A4A4A4A4A4A4A4A4A4A4A4A4A4A4A4A4A4A4A4A4A4A4A4A4A4A4A4A4A4A4A4A4A4A4A4A4A4A4A4A4A4A4A4A4A4A4A4A4A4A4A4A4A4A4A4A4A4A4A4A4
310
A4A4A4A4A4A4A4A4A4A4A4A4A4A4A4A4A4A4A4A4A4A4A4A4A4A4A4A4A4A4A4A4A4A4A4A4A4A4A4A4A4A4A4A4A4A4A4A4A4A4A4A4A4A4A4A4
1001
ACAD
1000
DesignCenter Data
1002
{
1070
     1
1070
     4
1002
}
  0
BLOCK_RECORD
  5
AA8
330
1
100
AcDbSymbolTableRecord
100
AcDbBlockTableRecord
  2
_CLOSED
340
0
  0
BLOCK_RECORD
  5
BA5
330
1
100
AcDbSymbolTableRecord
100
AcDbBlockTableRecord
  2
guarnizione
340
0
  0
BLOCK_RECORD
  5
20D0
330
1
100
AcDbSymbolTableRecord
100
AcDbBlockTableRecord
  2
*D5
340
0
  0
BLOCK_RECORD
  5
20DC
330
1
100
AcDbSymbolTableRecord
100
AcDbBlockTableRecord
  2
*D6
340
0
  0
BLOCK_RECORD
  5
20EA
330
1
100
AcDbSymbolTableRecord
100
AcDbBlockTableRecord
  2
*D7
340
0
  0
BLOCK_RECORD
  5
20F6
330
1
100
AcDbSymbolTableRecord
100
AcDbBlockTableRecord
  2
*D8
340
0
  0
BLOCK_RECORD
  5
2102
330
1
100
AcDbSymbolTableRecord
100
AcDbBlockTableRecord
  2
*D9
340
0
  0
BLOCK_RECORD
  5
210E
330
1
100
AcDbSymbolTableRecord
100
AcDbBlockTableRecord
  2
*D10
340
0
  0
BLOCK_RECORD
  5
211A
330
1
100
AcDbSymbolTableRecord
100
AcDbBlockTableRecord
  2
*D11
340
0
  0
BLOCK_RECORD
  5
2126
330
1
100
AcDbSymbolTableRecord
100
AcDbBlockTableRecord
  2
*D12
340
0
  0
BLOCK_RECORD
  5
2158
330
1
100
AcDbSymbolTableRecord
100
AcDbBlockTableRecord
  2
*D13
340
0
  0
BLOCK_RECORD
  5
242E
330
1
100
AcDbSymbolTableRecord
100
AcDbBlockTableRecord
  2
*D15
340
0
  0
ENDTAB
  0
ENDSEC
  0
SECTION
  2
BLOCKS
  0
BLOCK
  5
20
330
1F
100
AcDbEntity
  8
0
100
AcDbBlockBegin
  2
*Model_Space
 70
     0
 10
0.0
 20
0.0
 30
0.0
  3
*Model_Space
  1

  0
ENDBLK
  5
21
330
1F
100
AcDbEntity
  8
0
100
AcDbBlockEnd
  0
BLOCK
  5
1C
330
1B
100
AcDbEntity
 67
     1
  8
0
100
AcDbBlockBegin
  2
*Paper_Space
 70
     0
 10
0.0
 20
0.0
 30
0.0
  3
*Paper_Space
  1

  0
ENDBLK
  5
1D
330
1B
100
AcDbEntity
 67
     1
  8
0
100
AcDbBlockEnd
  0
BLOCK
  5
24
330
23
100
AcDbEntity
 67
     1
  8
0
100
AcDbBlockBegin
  2
*Paper_Space0
 70
     0
 10
0.0
 20
0.0
 30
0.0
  3
*Paper_Space0
  1

  0
ENDBLK
  5
25
330
23
100
AcDbEntity
 67
     1
  8
0
100
AcDbBlockEnd
  0
BLOCK
  5
91B
330
919
100
AcDbEntity
  8
0
100
AcDbBlockBegin
  2
_DotSmall
 70
     0
 10
0.0
 20
0.0
 30
0.0
  3
_DotSmall
  1

  0
LWPOLYLINE
  5
91A
330
919
100
AcDbEntity
  8
0
  6
ByBlock
 62
     0
100
AcDbPolyline
 90
        2
 70
     1
 43
0.5
 10
-0.0625
 20
0.0
 42
1.0
 10
0.0625
 20
0.0
 42
1.0
  0
ENDBLK
  5
91C
330
919
100
AcDbEntity
  8
0
100
AcDbBlockEnd
  0
BLOCK
  5
92A
330
922
100
AcDbEntity
  8
0
100
AcDbBlockBegin
  2
base para cotas
 70
     0
 10
0.0
 20
0.0
 30
0.0
  3
base para cotas
  1

  0
LINE
  5
B36
330
922
100
AcDbEntity
  8
cotas
100
AcDbLine
 10
0.0
 20
-30.0
 30
0.0
 11
327.1260136525398
 21
-30.0
 31
0.0
  0
LINE
  5
B37
330
922
100
AcDbEntity
  8
cotas
100
AcDbLine
 10
0.0
 20
-25.0
 30
0.0
 11
327.1260136525398
 21
-25.0
 31
0.0
  0
LINE
  5
B38
330
922
100
AcDbEntity
  8
cotas
100
AcDbLine
 10
0.0
 20
-20.0
 30
0.0
 11
327.1260136525398
 21
-20.0
 31
0.0
  0
LINE
  5
B39
330
922
100
AcDbEntity
  8
cotas
100
AcDbLine
 10
0.0
 20
-15.0
 30
0.0
 11
327.1260136525398
 21
-15.0
 31
0.0
  0
LINE
  5
B3A
330
922
100
AcDbEntity
  8
cotas
100
AcDbLine
 10
0.0
 20
-10.0
 30
0.0
 11
327.1260136525398
 21
-10.0
 31
0.0
  0
LINE
  5
B3B
330
922
100
AcDbEntity
  8
cotas
100
AcDbLine
 10
0.0
 20
0.0
 30
0.0
 11
0.0
 21
-30.0
 31
0.0
  0
LINE
  5
B3C
330
922
100
AcDbEntity
  8
cotas
100
AcDbLine
 10
327.1260136525398
 20
-30.0
 30
0.0
 11
327.1260136525398
 21
0.0
 31
0.0
  0
ENDBLK
  5
92B
330
922
100
AcDbEntity
  8
0
100
AcDbBlockEnd
  0
BLOCK
  5
AAD
330
AA8
100
AcDbEntity
  8
0
100
AcDbBlockBegin
  2
_CLOSED
 70
     0
 10
0.0
 20
0.0
 30
0.0
  3
_CLOSED
  1

  0
LINE
  5
AA9
330
AA8
100
AcDbEntity
  8
0
100
AcDbLine
 10
-1.0
 20
0.166667
 30
0.0
 11
0.0
 21
0.0
 31
0.0
  0
LINE
  5
AAA
330
AA8
100
AcDbEntity
  8
0
100
AcDbLine
 10
0.0
 20
0.0
 30
0.0
 11
-1.0
 21
-0.166667
 31
0.0
  0
LINE
  5
AAB
330
AA8
100
AcDbEntity
  8
0
100
AcDbLine
 10
-1.0
 20
0.166667
 30
0.0
 11
-1.0
 21
-0.166667
 31
0.0
  0
LINE
  5
AAC
330
AA8
100
AcDbEntity
  8
0
100
AcDbLine
 10
0.0
 20
0.0
 30
0.0
 11
-1.0
 21
0.0
 31
0.0
  0
ENDBLK
  5
AAE
330
AA8
100
AcDbEntity
  8
0
100
AcDbBlockEnd
  0
BLOCK
  5
BF0
330
BA5
100
AcDbEntity
  8
0
 62
     4
100
AcDbBlockBegin
  2
guarnizione
 70
     0
 10
0.0
 20
0.0
 30
0.0
  3
guarnizione
  1

  0
LINE
  5
BA6
330
BA5
100
AcDbEntity
  8
0
100
AcDbLine
 10
12.0
 20
3.179312414488776
 30
0.0
 11
12.0
 21
2.699999999999818
 31
0.0
  0
LINE
  5
BA7
330
BA5
100
AcDbEntity
  8
0
100
AcDbLine
 10
9.5
 20
3.130475008156281
 30
0.0
 11
9.440776269158959
 21
2.734883615801663
 31
0.0
  0
ARC
  5
BA8
330
BA5
100
AcDbEntity
  8
0
100
AcDbCircle
 10
11.19999999999891
 20
3.179312414488776
 30
0.0
 40
0.8
100
AcDbArc
 50
0.0
 51
81.48552156587461
  0
ARC
  5
BA9
330
BA5
100
AcDbEntity
  8
0
100
AcDbCircle
 10
8.753809903480942
 20
1.523241254200002
 30
0.0
 40
0.1999999999999504
100
AcDbArc
 50
171.485521565823
 51
351.485521565823
  0
LINE
  5
BAA
330
BA5
100
AcDbEntity
  8
0
100
AcDbLine
 10
11.65558220186904
 20
-2.403306455734309
 30
0.0
 11
9.440776269158959
 21
-2.734883615802573
 31
0.0
  0
ARC
  5
BAB
330
BA5
100
AcDbEntity
  8
0
100
AcDbCircle
 10
8.753809903480942
 20
-1.523241254200911
 30
0.0
 40
0.1999999999999504
100
AcDbArc
 50
8.514478434176927
 51
188.5144784341769
  0
LINE
  5
BAC
330
BA5
100
AcDbEntity
  8
0
100
AcDbLine
 10
9.5
 20
-3.130475008157191
 30
0.0
 11
9.440776269158959
 21
-2.734883615802573
 31
0.0
  0
ARC
  5
BAD
330
BA5
100
AcDbEntity
  8
0
100
AcDbCircle
 10
11.69999999999891
 20
-2.699999999999818
 30
0.0
 40
0.3
100
AcDbArc
 50
0.0
 51
98.51447843412536
  0
ARC
  5
BAE
330
BA5
100
AcDbEntity
  8
0
100
AcDbCircle
 10
11.69999999999891
 20
2.699999999999818
 30
0.0
 40
0.3
100
AcDbArc
 50
261.4855215658746
 51
0.0
  0
LINE
  5
BAF
330
BA5
100
AcDbEntity
  8
0
100
AcDbLine
 10
11.65558220186904
 20
2.4033064557334
 30
0.0
 11
9.440776269158959
 21
2.734883615801663
 31
0.0
  0
LINE
  5
BB0
330
BA5
100
AcDbEntity
  8
0
100
AcDbLine
 10
8.807715063378054
 20
3.234116537129011
 30
0.0
 11
8.556014207302723
 21
1.552853119620522
 31
0.0
  0
LINE
  5
BB1
330
BA5
100
AcDbEntity
  8
0
100
AcDbLine
 10
9.203306455732672
 20
3.174892806287971
 30
0.0
 11
8.951605599657341
 21
1.493629388779481
 31
0.0
  0
LINE
  5
BB2
330
BA5
100
AcDbEntity
  8
0
100
AcDbLine
 10
6.681411329471302
 20
3.552444090400967
 30
0.0
 11
6.622187598630262
 21
3.15685269804544
 31
0.0
  0
ARC
  5
BB3
330
BA5
100
AcDbEntity
  8
0
100
AcDbCircle
 10
0.2999999999992724
 20
3.800000000000181
 30
0.0
 40
0.3
100
AcDbArc
 50
81.48552156587461
 51
180.0
  0
ARC
  5
BB4
330
BA5
100
AcDbEntity
  8
0
100
AcDbCircle
 10
1.042400829128382
 20
4.699999999999818
 30
0.0
 40
0.8
100
AcDbArc
 50
81.48552156587461
 51
90.0
  0
LINE
  5
BB5
330
BA5
100
AcDbEntity
  8
0
100
AcDbLine
 10
1.5
 20
3.923692082123125
 30
0.0
 11
0.3444177981309622
 21
4.09669354426569
 31
0.0
  0
LINE
  5
BB6
330
BA5
100
AcDbEntity
  8
0
100
AcDbLine
 10
1.5
 20
3.923692082123125
 30
0.0
 11
1.5
 21
3.099999999999454
 31
0.0
  0
LINE
  5
BB7
330
BA5
100
AcDbEntity
  8
0
100
AcDbLine
 10
1.5
 20
3.099999999999454
 30
0.0
 11
2.699999999998908
 21
3.099999999999454
 31
0.0
  0
LINE
  5
BB8
330
BA5
100
AcDbEntity
  8
0
100
AcDbLine
 10
2.699999999998908
 20
3.744040860223321
 30
0.0
 11
2.699999999998908
 21
3.099999999999454
 31
0.0
  0
LINE
  5
BB9
330
BA5
100
AcDbEntity
  8
0
100
AcDbLine
 10
6.622187598630262
 20
3.15685269804544
 30
0.0
 11
2.699999999998908
 21
3.744040860223321
 31
0.0
  0
LINE
  5
BBA
330
BA5
100
AcDbEntity
  8
0
100
AcDbLine
 10
1.5
 20
-3.100000000000363
 30
0.0
 11
2.699999999998908
 21
-3.100000000000363
 31
0.0
  0
LINE
  5
BBB
330
BA5
100
AcDbEntity
  8
0
100
AcDbLine
 10
11.31844746168099
 20
3.970495199198012
 30
0.0
 11
1.160848290810463
 21
5.491182784709053
 31
0.0
  0
LINE
  5
BBC
330
BA5
100
AcDbEntity
  8
0
100
AcDbLine
 10
9.5
 20
3.130475008156281
 30
0.0
 11
6.681411329471302
 21
3.552444090400967
 31
0.0
  0
ARC
  5
BBD
330
BA5
100
AcDbEntity
  8
0
100
AcDbCircle
 10
11.19999999999891
 20
-3.179312414488776
 30
0.0
 40
0.8
100
AcDbArc
 50
278.5144784341254
 51
0.0
  0
LINE
  5
BBE
330
BA5
100
AcDbEntity
  8
0
100
AcDbLine
 10
6.681411329471302
 20
-3.552444090400967
 30
0.0
 11
6.622187598630262
 21
-3.15685269804635
 31
0.0
  0
ARC
  5
BBF
330
BA5
100
AcDbEntity
  8
0
100
AcDbCircle
 10
0.2999999999992724
 20
-3.800000000000181
 30
0.0
 40
0.3
100
AcDbArc
 50
180.0
 51
278.5144784341254
  0
ARC
  5
BC0
330
BA5
100
AcDbEntity
  8
0
100
AcDbCircle
 10
1.042400829128382
 20
-4.699999999999818
 30
0.0
 40
0.8
100
AcDbArc
 50
270.0
 51
278.5144784341254
  0
LINE
  5
BC1
330
BA5
100
AcDbEntity
  8
0
100
AcDbLine
 10
0.3444177981309622
 20
-4.096693544266599
 30
0.0
 11
1.5
 21
-3.923692082124034
 31
0.0
  0
LINE
  5
BC2
330
BA5
100
AcDbEntity
  8
0
100
AcDbLine
 10
6.622187598630262
 20
-3.15685269804635
 30
0.0
 11
2.699999999998908
 21
-3.744040860224231
 31
0.0
  0
LINE
  5
BC3
330
BA5
100
AcDbEntity
  8
0
100
AcDbLine
 10
1.160848290810463
 20
-5.491182784709963
 30
0.0
 11
11.31844746168099
 21
-3.970495199198921
 31
0.0
  0
LINE
  5
BC4
330
BA5
100
AcDbEntity
  8
0
100
AcDbLine
 10
0.0
 20
3.800000000000181
 30
0.0
 11
0.0
 21
-3.800000000000181
 31
0.0
  0
LINE
  5
BC5
330
BA5
100
AcDbEntity
  8
0
100
AcDbLine
 10
12.0
 20
-2.699999999999818
 30
0.0
 11
12.0
 21
-3.179312414488776
 31
0.0
  0
LINE
  5
BC6
330
BA5
100
AcDbEntity
  8
0
100
AcDbLine
 10
2.699999999998908
 20
-3.100000000000363
 30
0.0
 11
2.699999999998908
 21
-3.744040860224231
 31
0.0
  0
LINE
  5
BC7
330
BA5
100
AcDbEntity
  8
0
100
AcDbLine
 10
1.5
 20
-3.100000000000363
 30
0.0
 11
1.5
 21
-3.923692082124034
 31
0.0
  0
LINE
  5
BC8
330
BA5
100
AcDbEntity
  8
0
100
AcDbLine
 10
9.5
 20
-3.130475008157191
 30
0.0
 11
6.681411329471302
 21
-3.552444090400967
 31
0.0
  0
LINE
  5
BC9
330
BA5
100
AcDbEntity
  8
0
100
AcDbLine
 10
9.203306455732672
 20
-3.174892806287971
 30
0.0
 11
8.951605599657341
 21
-1.493629388780391
 31
0.0
  0
LINE
  5
BCA
330
BA5
100
AcDbEntity
  8
0
100
AcDbLine
 10
8.807715063378054
 20
-3.234116537129011
 30
0.0
 11
8.556014207302723
 21
-1.552853119621431
 31
0.0
  0
LINE
  5
BCB
330
BA5
100
AcDbEntity
  8
0
100
AcDbLine
 10
-1.5
 20
5.5
 30
0.0
 11
-3.757359312881817
 21
5.5
 31
0.0
  0
ARC
  5
BCC
330
BA5
100
AcDbEntity
  8
0
100
AcDbCircle
 10
-2.5
 20
3.5
 30
0.0
 40
1.0
100
AcDbArc
 50
0.0
 51
90.0
  0
ARC
  5
BCD
330
BA5
100
AcDbEntity
  8
0
100
AcDbCircle
 10
-3.769781102879278
 20
4.149978862833449
 30
0.0
 40
0.75
100
AcDbArc
 50
47.16775949949599
 51
90.19499109987526
  0
ARC
  5
BCE
330
BA5
100
AcDbEntity
  8
0
100
AcDbCircle
 10
-2.75
 20
5.25
 30
0.0
 40
0.75
100
AcDbArc
 50
227.167759499496
 51
270.0
  0
LINE
  5
BCF
330
BA5
100
AcDbEntity
  8
0
100
AcDbLine
 10
-2.75
 20
4.5
 30
0.0
 11
-2.5
 21
4.5
 31
0.0
  0
LINE
  5
BD0
330
BA5
100
AcDbEntity
  8
0
100
AcDbLine
 10
-7.415254325502246
 20
3.064644661409147
 30
0.0
 11
-6.868629150101696
 21
3.611269837220788
 31
0.0
  0
ARC
  5
BD1
102
{ACAD_REACTORS
330
BEB
102
}
330
BA5
100
AcDbEntity
  8
0
100
AcDbCircle
 10
-7.980939750059405
 20
2.569669913566031
 30
0.0
 40
0.2
100
AcDbArc
 50
45.0000001037625
 51
135.0000000719631
  0
ARC
  5
BD2
330
BA5
100
AcDbEntity
  8
0
100
AcDbCircle
 10
-3.757359312881817
 20
0.5
 30
0.0
 40
5.0
100
AcDbArc
 50
90.0
 51
135.0
  0
ARC
  5
BD3
330
BA5
100
AcDbEntity
  8
0
100
AcDbCircle
 10
-3.757359312881817
 20
0.5
 30
0.0
 40
4.4
100
AcDbArc
 50
90.19499109987526
 51
135.0
  0
ARC
  5
BD4
330
BA5
100
AcDbEntity
  8
0
100
AcDbCircle
 10
-6.814213563102384
 20
0.9786796633270569
 30
0.0
 40
0.75
100
AcDbArc
 50
314.9999999676111
 51
45.0
  0
ARC
  5
BD5
102
{ACAD_REACTORS
330
BEB
102
}
330
BA5
100
AcDbEntity
  8
0
100
AcDbCircle
 10
-6.814213563102384
 20
0.9786796633270569
 30
0.0
 40
0.5
100
AcDbArc
 50
314.9999999676111
 51
45.0
  0
ARC
  5
BD6
330
BA5
100
AcDbEntity
  8
0
100
AcDbCircle
 10
-7.203122291144609
 20
2.852512627053329
 30
0.0
 40
0.3
100
AcDbArc
 50
135.0
 51
225.0000001112794
  0
LINE
  5
BD7
330
BA5
100
AcDbEntity
  8
0
100
AcDbLine
 10
-8.051650430128574
 20
3.276776694619002
 30
0.0
 11
-6.283883477519339
 21
1.509009749524921
 31
0.0
  0
LINE
  5
BD8
102
{ACAD_REACTORS
330
BEB
102
}
330
BA5
100
AcDbEntity
  8
0
100
AcDbLine
 10
-7.839518394079277
 20
2.711091270059114
 30
0.0
 11
-6.460660172508141
 21
1.33223305392039
 31
0.0
  0
ARC
  5
BD9
330
BA5
100
AcDbEntity
  8
0
100
AcDbCircle
 10
-12.57713383280133
 20
-2.521498914058611
 30
0.0
 40
0.3
100
AcDbArc
 50
45.00000003552097
 51
135.0
  0
ARC
  5
BDA
102
{ACAD_REACTORS
330
BEB
102
}
330
BA5
100
AcDbEntity
  8
0
100
AcDbCircle
 10
-12.29429112059733
 20
-1.743681468243266
 30
0.0
 40
0.2
100
AcDbArc
 50
135.0000000660675
 51
225.0000002990173
  0
LINE
  5
BDB
330
BA5
100
AcDbEntity
  8
0
100
AcDbLine
 10
-12.9899494936617
 20
-2.510050506339212
 30
0.0
 11
-12.78926586715715
 21
-2.309366879702793
 31
0.0
  0
LINE
  5
BDC
330
BA5
100
AcDbEntity
  8
0
100
AcDbLine
 10
-13.41421356237333
 20
-2.085786437626666
 30
0.0
 11
-7.292893218815152
 21
4.035533905932425
 31
0.0
  0
LINE
  5
BDD
102
{ACAD_REACTORS
330
BEB
102
}
330
BA5
100
AcDbEntity
  8
0
100
AcDbLine
 10
-12.43571247699765
 20
-1.602260112168551
 30
0.0
 11
-8.122361106474272
 21
2.711091269625285
 31
0.0
  0
ARC
  5
BDE
330
BA5
100
AcDbEntity
  8
0
100
AcDbCircle
 10
-2.5
 20
-3.5
 30
0.0
 40
1.0
100
AcDbArc
 50
270.0
 51
0.0
  0
ARC
  5
BDF
330
BA5
100
AcDbEntity
  8
0
100
AcDbCircle
 10
-7.519803902720013
 20
-4.150000000000545
 30
0.0
 40
0.75
100
AcDbArc
 50
270.0
 51
312.8334280660476
  0
ARC
  5
BE0
330
BA5
100
AcDbEntity
  8
0
100
AcDbCircle
 10
-6.5
 20
-5.25
 30
0.0
 40
0.75
100
AcDbArc
 50
90.0
 51
132.8334280660476
  0
LINE
  5
BE1
330
BA5
100
AcDbEntity
  8
0
100
AcDbLine
 10
-2.5
 20
-4.5
 30
0.0
 11
-6.5
 21
-4.5
 31
0.0
  0
ARC
  5
BE2
330
BA5
100
AcDbEntity
  8
0
100
AcDbCircle
 10
-10.7033008647486
 20
-2.910407640086305
 30
0.0
 40
0.75
100
AcDbArc
 50
225.0
 51
315.0
  0
ARC
  5
BE3
102
{ACAD_REACTORS
330
BEB
102
}
330
BA5
100
AcDbEntity
  8
0
100
AcDbCircle
 10
-10.7033008647486
 20
-2.910407640086305
 30
0.0
 40
0.5
100
AcDbArc
 50
225.0
 51
315.0
  0
LINE
  5
BE4
330
BA5
100
AcDbEntity
  8
0
100
AcDbLine
 10
-1.5
 20
-5.5
 30
0.0
 11
-12.0
 21
-5.5
 31
0.0
  0
LINE
  5
BE5
330
BA5
100
AcDbEntity
  8
0
100
AcDbLine
 10
-7.519803902720013
 20
-4.900000000000545
 30
0.0
 11
-12.0
 21
-4.900000000000545
 31
0.0
  0
ARC
  5
BE6
330
BA5
100
AcDbEntity
  8
0
100
AcDbCircle
 10
-12.0
 20
-3.5
 30
0.0
 40
2.0
100
AcDbArc
 50
135.0
 51
270.0
  0
LINE
  5
BE7
330
BA5
100
AcDbEntity
  8
0
100
AcDbLine
 10
-10.17297077881812
 20
-3.440737725935832
 30
0.0
 11
-6.283883477372
 21
0.4483495772774404
 31
0.0
  0
ARC
  5
BE8
330
BA5
100
AcDbEntity
  8
0
100
AcDbCircle
 10
-12.0
 20
-3.5
 30
0.0
 40
1.399999999999999
100
AcDbArc
 50
135.0
 51
270.0
  0
LINE
  5
BE9
330
BA5
100
AcDbEntity
  8
0
100
AcDbLine
 10
-13.00139790187859
 20
-1.672970777132832
 30
0.0
 11
-11.23363095093009
 21
-3.440737725682993
 31
0.0
  0
LINE
  5
BEA
330
BA5
100
AcDbEntity
  8
0
100
AcDbLine
 10
-1.5
 20
3.5
 30
0.0
 11
-1.5
 21
-3.5
 31
0.0
  0
HATCH
  5
BEB
330
BA5
100
AcDbEntity
  8
0
100
AcDbHatch
 10
0.0
 20
0.0
 30
0.0
210
0.0
220
0.0
230
1.0
  2
ANSI31
 70
     0
 71
     1
 91
        1
 92
        7
 72
     1
 73
     1
 93
        8
 10
-6.460660173204814
 20
1.332233054616153
 42
0.0
 10
-7.839518394101105
 20
2.711091270081851
 42
0.414213562178905
 10
-8.122361106481548
 20
2.711091269618009
 42
0.0
 10
-12.43571247701766
 20
-1.602260112190379
 42
0.4142135636146872
 10
-12.43571247604996
 20
-1.885102825264766
 42
0.0
 10
-11.05685425338015
 20
-3.263961032639599
 42
0.4142135608152901
 10
-10.34974747407432
 20
-3.263961030598693
 42
0.0
 10
-6.460660172428106
 20
0.625126272813759
 42
0.4142135628833784
 97
        8
330
BD8
330
BD1
330
BDD
330
BDA
330
BED
330
BE3
330
BEC
330
BD5
 75
     0
 76
     1
 52
45.0
 41
0.25
 77
     0
 78
     1
 53
90.0
 43
-276.1145346408611
 44
-395.2719013892401
 45
-0.79375
 46
0.0000000000000002
 79
     0
 47
0.0364805528584695
 98
        1
 10
-7.399477738399582
 20
0.8532363732892918
  0
LINE
  5
BEC
102
{ACAD_REACTORS
330
BEB
102
}
330
BA5
100
AcDbEntity
  8
0
100
AcDbLine
 10
-10.34974747415435
 20
-3.263961030678729
 30
0.0
 11
-6.46066017270823
 21
0.6251262725336347
 31
0.0
  0
LINE
  5
BED
102
{ACAD_REACTORS
330
BEB
102
}
330
BA5
100
AcDbEntity
  8
0
100
AcDbLine
 10
-12.43571247609543
 20
-1.885102825218382
 30
0.0
 11
-11.05685425534102
 21
-3.263961030678729
 31
0.0
  0
LINE
  5
BEE
330
BA5
100
AcDbEntity
  8
0
100
AcDbLine
 10
-1.5
 20
5.5
 30
0.0
 11
1.042400829128382
 21
5.5
 31
0.0
  0
LINE
  5
BEF
330
BA5
100
AcDbEntity
  8
0
100
AcDbLine
 10
-1.5
 20
-5.5
 30
0.0
 11
1.042400829128382
 21
-5.5
 31
0.0
  0
ENDBLK
  5
BF1
330
BA5
100
AcDbEntity
  8
0
 62
     4
100
AcDbBlockEnd
  0
BLOCK
  5
20DA
330
20D0
100
AcDbEntity
  8
0
100
AcDbBlockBegin
  2
*D5
 70
     1
 10
0.0
 20
0.0
 30
0.0
  3
*D5
  1

  0
LINE
  5
23AC
330
20D0
100
AcDbEntity
  8
7
100
AcDbLine
 10
1521.187510016664
 20
3677.994330996771
 30
0.0
 11
1532.49567409955
 21
3677.994330996771
 31
0.0
  0
LINE
  5
23AD
330
20D0
100
AcDbEntity
  8
7
100
AcDbLine
 10
1529.725524171381
 20
3649.494330996771
 30
0.0
 11
1532.49567409955
 21
3649.494330996771
 31
0.0
  0
LINE
  5
23AE
330
20D0
100
AcDbEntity
  8
7
100
AcDbLine
 10
1531.49567409955
 20
3675.994330996771
 30
0.0
 11
1531.49567409955
 21
3651.494330996771
 31
0.0
  0
SOLID
  5
23AF
330
20D0
100
AcDbEntity
  8
7
100
AcDbTrace
 10
1531.162340766217
 20
3675.994330996771
 30
0.0
 11
1531.829007432884
 21
3675.994330996771
 31
0.0
 12
1531.49567409955
 22
3677.994330996771
 32
0.0
 13
1531.49567409955
 23
3677.994330996771
 33
0.0
  0
SOLID
  5
23B0
330
20D0
100
AcDbEntity
  8
7
100
AcDbTrace
 10
1531.162340766217
 20
3651.494330996771
 30
0.0
 11
1531.829007432884
 21
3651.494330996771
 31
0.0
 12
1531.49567409955
 22
3649.494330996771
 32
0.0
 13
1531.49567409955
 23
3649.494330996771
 33
0.0
  0
MTEXT
  5
23B1
330
20D0
100
AcDbEntity
  8
7
100
AcDbMText
 10
1529.450005865836
 20
3663.744330996772
 30
0.0
 40
2.0
 41
0.0
 71
     5
 72
     1
  1
285
  7
SANINDUSA
 11
0.0000000000000001
 21
1.0
 31
0.0
 73
     1
 44
1.0
1001
ACAD
1000
MTEXTBEGIN
1070
    73
1070
     1
1070
    44
1040
1.0
1070
    74
1070
     0
1000
MTEXTEND
  0
POINT
  5
23B2
330
20D0
100
AcDbEntity
  8
Defpoints
 62
     0
100
AcDbPoint
 10
1520.187510016664
 20
3677.994330996771
 30
-0.0000001793795719
  0
POINT
  5
23B3
330
20D0
100
AcDbEntity
  8
Defpoints
 62
     0
100
AcDbPoint
 10
1528.725524171381
 20
3649.494330996771
 30
-0.0000001793795719
  0
POINT
  5
23B4
330
20D0
100
AcDbEntity
  8
Defpoints
 62
     0
100
AcDbPoint
 10
1531.49567409955
 20
3649.494330996771
 30
0.0
  0
ENDBLK
  5
20DB
330
20D0
100
AcDbEntity
  8
0
100
AcDbBlockEnd
  0
BLOCK
  5
20E8
330
20DC
100
AcDbEntity
  8
0
100
AcDbBlockBegin
  2
*D6
 70
     1
 10
0.0
 20
0.0
 30
0.0
  3
*D6
  1

  0
LINE
  5
23A1
330
20DC
100
AcDbEntity
  8
7
100
AcDbLine
 10
1540.667120946109
 20
3649.494330996771
 30
0.0
 11
1525.49567409955
 21
3649.494330996771
 31
0.0
  0
LINE
  5
23A2
330
20DC
100
AcDbEntity
  8
7
100
AcDbLine
 10
1543.445955438984
 20
3648.494330996771
 30
0.0
 11
1525.49567409955
 21
3648.494330996771
 31
0.0
  0
LINE
  5
23A3
330
20DC
100
AcDbEntity
  8
7
100
AcDbLine
 10
1526.495674099551
 20
3651.494330996771
 30
0.0
 11
1526.495674099551
 21
3653.494330996772
 31
0.0
  0
LINE
  5
23A4
330
20DC
100
AcDbEntity
  8
7
100
AcDbLine
 10
1526.495674099551
 20
3646.494330996772
 30
0.0
 11
1526.495674099551
 21
3639.551416288913
 31
0.0
  0
LINE
  5
23A5
330
20DC
100
AcDbEntity
  8
7
100
AcDbLine
 10
1526.495674099551
 20
3649.494330996771
 30
0.0
 11
1526.495674099551
 21
3648.494330996771
 31
0.0
  0
SOLID
  5
23A6
330
20DC
100
AcDbEntity
  8
7
100
AcDbTrace
 10
1526.162340766217
 20
3651.494330996771
 30
0.0
 11
1526.829007432884
 21
3651.494330996771
 31
0.0
 12
1526.495674099551
 22
3649.494330996771
 32
0.0
 13
1526.495674099551
 23
3649.494330996771
 33
0.0
  0
SOLID
  5
23A7
330
20DC
100
AcDbEntity
  8
7
100
AcDbTrace
 10
1526.162340766217
 20
3646.494330996772
 30
0.0
 11
1526.829007432884
 21
3646.494330996772
 31
0.0
 12
1526.495674099551
 22
3648.494330996771
 32
0.0
 13
1526.495674099551
 23
3648.494330996771
 33
0.0
  0
MTEXT
  5
23A8
330
20DC
100
AcDbEntity
  8
7
100
AcDbMText
 10
1524.454707007541
 20
3642.022873642844
 30
0.0
 40
2.0
 41
0.0
 71
     5
 72
     1
  1
10
  7
SANINDUSA
 11
0.0000000000000001
 21
1.0
 31
0.0
 73
     1
 44
1.0
1001
ACAD
1000
MTEXTBEGIN
1070
    73
1070
     1
1070
    44
1040
1.0
1070
    74
1070
     0
1000
MTEXTEND
  0
POINT
  5
23A9
330
20DC
100
AcDbEntity
  8
Defpoints
 62
     0
100
AcDbPoint
 10
1541.667120946109
 20
3649.494330996771
 30
-0.0000001793795719
  0
POINT
  5
23AA
330
20DC
100
AcDbEntity
  8
Defpoints
 62
     0
100
AcDbPoint
 10
1544.445955438984
 20
3648.494330996771
 30
0.0
  0
POINT
  5
23AB
330
20DC
100
AcDbEntity
  8
Defpoints
 62
     0
100
AcDbPoint
 10
1526.495674099551
 20
3648.494330996771
 30
0.0
  0
ENDBLK
  5
20E9
330
20DC
100
AcDbEntity
  8
0
100
AcDbBlockEnd
  0
BLOCK
  5
20F4
330
20EA
100
AcDbEntity
  8
0
100
AcDbBlockBegin
  2
*D7
 70
     1
 10
0.0
 20
0.0
 30
0.0
  3
*D7
  1

  0
LINE
  5
2398
330
20EA
100
AcDbEntity
  8
7
100
AcDbLine
 10
1495.712416133912
 20
3677.994330996771
 30
0.0
 11
1449.87504859242
 21
3677.994330996771
 31
0.0
  0
LINE
  5
2399
330
20EA
100
AcDbEntity
  8
7
100
AcDbLine
 10
1454.87504859242
 20
3648.494330996771
 30
0.0
 11
1449.87504859242
 21
3648.494330996771
 31
0.0
  0
LINE
  5
239A
330
20EA
100
AcDbEntity
  8
7
100
AcDbLine
 10
1450.87504859242
 20
3675.994330996771
 30
0.0
 11
1450.87504859242
 21
3650.494330996771
 31
0.0
  0
SOLID
  5
239B
330
20EA
100
AcDbEntity
  8
7
100
AcDbTrace
 10
1450.541715259087
 20
3675.994330996771
 30
0.0
 11
1451.208381925753
 21
3675.994330996771
 31
0.0
 12
1450.87504859242
 22
3677.994330996771
 32
0.0
 13
1450.87504859242
 23
3677.994330996771
 33
0.0
  0
SOLID
  5
239C
330
20EA
100
AcDbEntity
  8
7
100
AcDbTrace
 10
1450.541715259087
 20
3650.494330996771
 30
0.0
 11
1451.208381925753
 21
3650.494330996771
 31
0.0
 12
1450.87504859242
 22
3648.494330996771
 32
0.0
 13
1450.87504859242
 23
3648.494330996771
 33
0.0
  0
MTEXT
  5
239D
330
20EA
100
AcDbEntity
  8
7
100
AcDbMText
 10
1448.833409908739
 20
3663.244330996772
 30
0.0
 40
2.0
 41
0.0
 71
     5
 72
     1
  1
295
  7
SANINDUSA
 11
0.0000000000000001
 21
1.0
 31
0.0
 73
     1
 44
1.0
1001
ACAD
1000
MTEXTBEGIN
1070
    73
1070
     1
1070
    44
1040
1.0
1070
    74
1070
     0
1000
MTEXTEND
  0
POINT
  5
239E
330
20EA
100
AcDbEntity
  8
Defpoints
 62
     0
100
AcDbPoint
 10
1496.712416133911
 20
3677.994330996771
 30
-0.0000001793795719
  0
POINT
  5
239F
330
20EA
100
AcDbEntity
  8
Defpoints
 62
     0
100
AcDbPoint
 10
1455.87504859242
 20
3648.494330996771
 30
0.0
  0
POINT
  5
23A0
330
20EA
100
AcDbEntity
  8
Defpoints
 62
     0
100
AcDbPoint
 10
1450.87504859242
 20
3648.494330996771
 30
0.0
  0
ENDBLK
  5
20F5
330
20EA
100
AcDbEntity
  8
0
100
AcDbBlockEnd
  0
BLOCK
  5
2100
330
20F6
100
AcDbEntity
  8
0
100
AcDbBlockBegin
  2
*D8
 70
     1
 10
0.0
 20
0.0
 30
0.0
  3
*D8
  1

  0
LINE
  5
23B5
330
20F6
100
AcDbEntity
  8
7
100
AcDbLine
 10
1454.87504859242
 20
3833.494330996771
 30
0.0
 11
1449.87504859242
 21
3833.494330996771
 31
0.0
  0
LINE
  5
23B6
330
20F6
100
AcDbEntity
  8
7
100
AcDbLine
 10
1492.795059885931
 20
3803.994330995805
 30
0.0
 11
1449.87504859242
 21
3803.994330995805
 31
0.0
  0
LINE
  5
23B7
330
20F6
100
AcDbEntity
  8
7
100
AcDbLine
 10
1450.87504859242
 20
3831.494330996771
 30
0.0
 11
1450.87504859242
 21
3805.994330995805
 31
0.0
  0
SOLID
  5
23B8
330
20F6
100
AcDbEntity
  8
7
100
AcDbTrace
 10
1450.541715259087
 20
3831.494330996771
 30
0.0
 11
1451.208381925753
 21
3831.494330996771
 31
0.0
 12
1450.87504859242
 22
3833.494330996771
 32
0.0
 13
1450.87504859242
 23
3833.494330996771
 33
0.0
  0
SOLID
  5
23B9
330
20F6
100
AcDbEntity
  8
7
100
AcDbTrace
 10
1450.541715259087
 20
3805.994330995805
 30
0.0
 11
1451.208381925753
 21
3805.994330995805
 31
0.0
 12
1450.87504859242
 22
3803.994330995805
 32
0.0
 13
1450.87504859242
 23
3803.994330995805
 33
0.0
  0
MTEXT
  5
23BA
330
20F6
100
AcDbEntity
  8
7
100
AcDbMText
 10
1448.833409908739
 20
3818.744330996288
 30
0.0
 40
2.0
 41
0.0
 71
     5
 72
     1
  1
295
  7
SANINDUSA
 11
0.0000000000000001
 21
1.0
 31
0.0
 73
     1
 44
1.0
1001
ACAD
1000
MTEXTBEGIN
1070
    73
1070
     1
1070
    44
1040
1.0
1070
    74
1070
     0
1000
MTEXTEND
  0
POINT
  5
23BB
330
20F6
100
AcDbEntity
  8
Defpoints
 62
     0
100
AcDbPoint
 10
1455.87504859242
 20
3833.494330996771
 30
0.0000001793827793
  0
POINT
  5
23BC
330
20F6
100
AcDbEntity
  8
Defpoints
 62
     0
100
AcDbPoint
 10
1493.795059885931
 20
3803.994330995805
 30
0.0000000000032074
  0
POINT
  5
23BD
330
20F6
100
AcDbEntity
  8
Defpoints
 62
     0
100
AcDbPoint
 10
1450.87504859242
 20
3803.994330995805
 30
0.0
  0
ENDBLK
  5
2101
330
20F6
100
AcDbEntity
  8
0
100
AcDbBlockEnd
  0
BLOCK
  5
210C
330
2102
100
AcDbEntity
  8
0
100
AcDbBlockBegin
  2
*D9
 70
     1
 10
0.0
 20
0.0
 30
0.0
  3
*D9
  1

  0
LINE
  5
2386
330
2102
100
AcDbEntity
  8
7
100
AcDbLine
 10
1723.755657957552
 20
3713.858393434195
 30
0.0
 11
1723.755657957552
 21
3697.648932655056
 31
0.0
  0
LINE
  5
2387
330
2102
100
AcDbEntity
  8
7
100
AcDbLine
 10
1603.336736399277
 20
3713.858393704351
 30
0.0
 11
1603.336736399277
 21
3697.648932655056
 31
0.0
  0
LINE
  5
2388
330
2102
100
AcDbEntity
  8
7
100
AcDbLine
 10
1721.755657957552
 20
3698.648932655056
 30
0.0
 11
1605.336736399277
 21
3698.648932655056
 31
0.0
  0
SOLID
  5
2389
330
2102
100
AcDbEntity
  8
7
100
AcDbTrace
 10
1721.755657957552
 20
3698.982265988389
 30
0.0
 11
1721.755657957552
 21
3698.315599321722
 31
0.0
 12
1723.755657957552
 22
3698.648932655056
 32
0.0
 13
1723.755657957552
 23
3698.648932655056
 33
0.0
  0
SOLID
  5
238A
330
2102
100
AcDbEntity
  8
7
100
AcDbTrace
 10
1605.336736399277
 20
3698.982265988389
 30
0.0
 11
1605.336736399277
 21
3698.315599321722
 31
0.0
 12
1603.336736399277
 22
3698.648932655056
 32
0.0
 13
1603.336736399277
 23
3698.648932655056
 33
0.0
  0
MTEXT
  5
238B
330
2102
100
AcDbEntity
  8
7
100
AcDbMText
 10
1663.546197178415
 20
3700.898093165466
 30
0.0
 40
2.0
 41
0.0
 71
     5
 72
     1
  1
MAX. 1214 mm / MIN. 1184 mm
  7
SANINDUSA
 73
     1
 44
1.0
1001
ACAD
1000
MTEXTBEGIN
1070
    73
1070
     1
1070
    44
1040
1.0
1070
    74
1070
     0
1000
MTEXTEND
  0
POINT
  5
238C
330
2102
100
AcDbEntity
  8
Defpoints
 62
     0
100
AcDbPoint
 10
1723.755657957552
 20
3714.858393434195
 30
0.0
  0
POINT
  5
238D
330
2102
100
AcDbEntity
  8
Defpoints
 62
     0
100
AcDbPoint
 10
1603.336736399277
 20
3714.858393704351
 30
0.0
  0
POINT
  5
238E
330
2102
100
AcDbEntity
  8
Defpoints
 62
     0
100
AcDbPoint
 10
1603.336736399277
 20
3698.648932655056
 30
0.0
  0
ENDBLK
  5
210D
330
2102
100
AcDbEntity
  8
0
100
AcDbBlockEnd
  0
BLOCK
  5
2118
330
210E
100
AcDbEntity
  8
0
100
AcDbBlockBegin
  2
*D10
 70
     1
 10
0.0
 20
0.0
 30
0.0
  3
*D10
  1

  0
LINE
  5
238F
330
210E
100
AcDbEntity
  8
7
100
AcDbLine
 10
1575.955048592421
 20
3833.494330996766
 30
0.0
 11
1581.9878938664
 21
3833.494330996766
 31
0.0
  0
LINE
  5
2390
330
210E
100
AcDbEntity
  8
7
100
AcDbLine
 10
1576.60203421906
 20
3648.494330996771
 30
0.0
 11
1581.9878938664
 21
3648.494330996771
 31
0.0
  0
LINE
  5
2391
330
210E
100
AcDbEntity
  8
7
100
AcDbLine
 10
1580.9878938664
 20
3831.494330996766
 30
0.0
 11
1580.9878938664
 21
3650.494330996771
 31
0.0
  0
SOLID
  5
2392
330
210E
100
AcDbEntity
  8
7
100
AcDbTrace
 10
1580.654560533067
 20
3831.494330996766
 30
0.0
 11
1581.321227199733
 21
3831.494330996766
 31
0.0
 12
1580.9878938664
 22
3833.494330996766
 32
0.0
 13
1580.9878938664
 23
3833.494330996766
 33
0.0
  0
SOLID
  5
2393
330
210E
100
AcDbEntity
  8
7
100
AcDbTrace
 10
1580.654560533067
 20
3650.494330996771
 30
0.0
 11
1581.321227199733
 21
3650.494330996771
 31
0.0
 12
1580.9878938664
 22
3648.494330996771
 32
0.0
 13
1580.9878938664
 23
3648.494330996771
 33
0.0
  0
MTEXT
  5
2394
330
210E
100
AcDbEntity
  8
7
100
AcDbMText
 10
1578.942225632685
 20
3740.99433099677
 30
0.0
 40
2.0
 41
0.0
 71
     5
 72
     1
  1
1850
  7
SANINDUSA
 11
0.0000000000000001
 21
1.0
 31
0.0
 73
     1
 44
1.0
1001
ACAD
1000
MTEXTBEGIN
1070
    73
1070
     1
1070
    44
1040
1.0
1070
    74
1070
     0
1000
MTEXTEND
  0
POINT
  5
2395
330
210E
100
AcDbEntity
  8
Defpoints
 62
     0
100
AcDbPoint
 10
1574.95504859242
 20
3833.494330996766
 30
0.0
  0
POINT
  5
2396
330
210E
100
AcDbEntity
  8
Defpoints
 62
     0
100
AcDbPoint
 10
1575.60203421906
 20
3648.494330996771
 30
0.0
  0
POINT
  5
2397
330
210E
100
AcDbEntity
  8
Defpoints
 62
     0
100
AcDbPoint
 10
1580.9878938664
 20
3648.494330996771
 30
0.0
  0
ENDBLK
  5
2119
330
210E
100
AcDbEntity
  8
0
100
AcDbBlockEnd
  0
BLOCK
  5
2124
330
211A
100
AcDbEntity
  8
0
100
AcDbBlockBegin
  2
*D11
 70
     1
 10
0.0
 20
0.0
 30
0.0
  3
*D11
  1

  0
ARC
  5
23BE
330
211A
100
AcDbEntity
  8
7
100
AcDbCircle
 10
1658.94974368297
 20
3715.89818281011
 30
0.0
 40
38.47828362674562
100
AcDbArc
 50
272.9784192942287
 51
357.0215807057709
  0
SOLID
  5
23BF
330
211A
100
AcDbEntity
  8
7
100
AcDbTrace
 10
1660.957731052192
 20
3677.138655808061
 30
0.0
 11
1660.940405262062
 21
3677.805097299446
 31
0.0
 12
1658.949743682969
 22
3677.419899183365
 32
0.0
 13
1658.949743682969
 23
3677.419899183365
 33
0.0
  0
SOLID
  5
23C0
330
211A
100
AcDbEntity
  8
7
100
AcDbTrace
 10
1697.042829193633
 20
3713.907521231017
 30
0.0
 11
1697.709270685019
 21
3713.890195440888
 31
0.0
 12
1697.428027309715
 22
3715.89818281011
 32
0.0
 13
1697.428027309715
 23
3715.89818281011
 33
0.0
  0
MTEXT
  5
23C1
102
{ACAD_XDICTIONARY
360
24B4
102
}
330
211A
100
AcDbEntity
  8
7
100
AcDbMText
 10
1684.55383059123
 20
3690.294095901851
 30
0.0
 40
2.0
 41
0.0
 71
     5
 72
     1
  1
90,0\U+00B0
  7
SANINDUSA
 11
0.7071067811865476
 21
0.7071067811865475
 31
0.0
 73
     1
 44
1.0
1001
ACAD
1000
MTEXTBEGIN
1070
    73
1070
     1
1070
    44
1040
1.0
1070
    74
1070
     0
1000
MTEXTEND
  0
POINT
  5
23C2
330
211A
100
AcDbEntity
  8
Defpoints
 62
     0
100
AcDbPoint
 10
1678.188885496342
 20
3682.575011695325
 30
0.0
  0
POINT
  5
23C3
330
211A
100
AcDbEntity
  8
Defpoints
 62
     0
100
AcDbPoint
 10
1657.359738072652
 20
3715.898182810111
 30
0.000000015555529
  0
POINT
  5
23C4
330
211A
100
AcDbEntity
  8
Defpoints
 62
     0
100
AcDbPoint
 10
1658.94974368297
 20
3714.608177199793
 30
0.000000015555529
  0
POINT
  5
23C5
330
211A
100
AcDbEntity
  8
Defpoints
 62
     0
100
AcDbPoint
 10
1658.949743682969
 20
3654.608173278877
 30
0.000000015555529
  0
POINT
  5
23C6
330
211A
100
AcDbEntity
  8
Defpoints
 62
     0
100
AcDbPoint
 10
1717.359741993568
 20
3715.898182810111
 30
0.000000015555529
  0
ENDBLK
  5
2125
330
211A
100
AcDbEntity
  8
0
100
AcDbBlockEnd
  0
BLOCK
  5
2130
330
2126
100
AcDbEntity
  8
0
100
AcDbBlockBegin
  2
*D12
 70
     1
 10
0.0
 20
0.0
 30
0.0
  3
*D12
  1

  0
LINE
  5
237D
330
2126
100
AcDbEntity
  8
7
100
AcDbLine
 10
1657.059738072652
 20
3714.898182429151
 30
0.0
 11
1657.059738072652
 21
3702.648932655055
 31
0.0
  0
LINE
  5
237E
330
2126
100
AcDbEntity
  8
7
100
AcDbLine
 10
1607.773938775263
 20
3714.898182429151
 30
0.0
 11
1607.773938775263
 21
3702.648932655055
 31
0.0
  0
LINE
  5
237F
330
2126
100
AcDbEntity
  8
7
100
AcDbLine
 10
1655.059738072652
 20
3703.648932655055
 30
0.0
 11
1609.773938775263
 21
3703.648932655055
 31
0.0
  0
SOLID
  5
2380
330
2126
100
AcDbEntity
  8
7
100
AcDbTrace
 10
1655.059738072652
 20
3703.982265988389
 30
0.0
 11
1655.059738072652
 21
3703.315599321721
 31
0.0
 12
1657.059738072652
 22
3703.648932655055
 32
0.0
 13
1657.059738072652
 23
3703.648932655055
 33
0.0
  0
SOLID
  5
2381
330
2126
100
AcDbEntity
  8
7
100
AcDbTrace
 10
1609.773938775263
 20
3703.982265988389
 30
0.0
 11
1609.773938775263
 21
3703.315599321721
 31
0.0
 12
1607.773938775263
 22
3703.648932655055
 32
0.0
 13
1607.773938775263
 23
3703.648932655055
 33
0.0
  0
MTEXT
  5
2382
330
2126
100
AcDbEntity
  8
7
100
AcDbMText
 10
1632.416838423958
 20
3705.918240915633
 30
0.0
 40
2.0
 41
0.0
 71
     5
 72
     1
  1
492,9
  7
SANINDUSA
 73
     1
 44
1.0
1001
ACAD
1000
MTEXTBEGIN
1070
    73
1070
     1
1070
    44
1040
1.0
1070
    74
1070
     0
1000
MTEXTEND
  0
POINT
  5
2383
330
2126
100
AcDbEntity
  8
Defpoints
 62
     0
100
AcDbPoint
 10
1657.059738072652
 20
3715.898182429151
 30
0.0000000157875207
  0
POINT
  5
2384
330
2126
100
AcDbEntity
  8
Defpoints
 62
     0
100
AcDbPoint
 10
1607.773938775263
 20
3715.898182429151
 30
0.0000000135008777
  0
POINT
  5
2385
330
2126
100
AcDbEntity
  8
Defpoints
 62
     0
100
AcDbPoint
 10
1607.773938775263
 20
3703.648932655055
 30
0.0
  0
ENDBLK
  5
2131
330
2126
100
AcDbEntity
  8
0
100
AcDbBlockEnd
  0
BLOCK
  5
2162
330
2158
100
AcDbEntity
  8
0
100
AcDbBlockBegin
  2
*D13
 70
     1
 10
0.0
 20
0.0
 30
0.0
  3
*D13
  1

  0
LINE
  5
23D0
330
2158
100
AcDbEntity
  8
7
100
AcDbLine
 10
1717.359741993568
 20
3714.898182810111
 30
0.0
 11
1717.359741993568
 21
3702.648932655052
 31
0.0
  0
LINE
  5
23D1
330
2158
100
AcDbEntity
  8
7
100
AcDbLine
 10
1657.359738072652
 20
3714.898182810111
 30
0.0
 11
1657.359738072652
 21
3702.648932655052
 31
0.0
  0
LINE
  5
23D2
330
2158
100
AcDbEntity
  8
7
100
AcDbLine
 10
1715.359741993568
 20
3703.648932655052
 30
0.0
 11
1659.359738072652
 21
3703.648932655052
 31
0.0
  0
SOLID
  5
23D3
330
2158
100
AcDbEntity
  8
7
100
AcDbTrace
 10
1715.359741993568
 20
3703.982265988385
 30
0.0
 11
1715.359741993568
 21
3703.315599321719
 31
0.0
 12
1717.359741993568
 22
3703.648932655052
 32
0.0
 13
1717.359741993568
 23
3703.648932655052
 33
0.0
  0
SOLID
  5
23D4
330
2158
100
AcDbEntity
  8
7
100
AcDbTrace
 10
1659.359738072652
 20
3703.982265988385
 30
0.0
 11
1659.359738072652
 21
3703.315599321719
 31
0.0
 12
1657.359738072652
 22
3703.648932655052
 32
0.0
 13
1657.359738072652
 23
3703.648932655052
 33
0.0
  0
MTEXT
  5
23D5
330
2158
100
AcDbEntity
  8
7
100
AcDbMText
 10
1687.35974003311
 20
3705.68989974706
 30
0.0
 40
2.0
 41
0.0
 71
     5
 72
     1
  1
600
  7
SANINDUSA
 73
     1
 44
1.0
1001
ACAD
1000
MTEXTBEGIN
1070
    73
1070
     1
1070
    44
1040
1.0
1070
    74
1070
     0
1000
MTEXTEND
  0
POINT
  5
23D6
330
2158
100
AcDbEntity
  8
Defpoints
 62
     0
100
AcDbPoint
 10
1717.359741993568
 20
3715.898182810111
 30
0.000000015555529
  0
POINT
  5
23D7
330
2158
100
AcDbEntity
  8
Defpoints
 62
     0
100
AcDbPoint
 10
1657.359738072652
 20
3715.898182810111
 30
0.000000015555529
  0
POINT
  5
23D8
330
2158
100
AcDbEntity
  8
Defpoints
 62
     0
100
AcDbPoint
 10
1657.359738072652
 20
3703.648932655052
 30
0.0
  0
ENDBLK
  5
2163
330
2158
100
AcDbEntity
  8
0
100
AcDbBlockEnd
  0
BLOCK
  5
242F
330
242E
100
AcDbEntity
  8
0
100
AcDbBlockBegin
  2
*D15
 70
     1
 10
0.0
 20
0.0
 30
0.0
  3
*D15
  1

  0
LINE
  5
243B
330
242E
100
AcDbEntity
  8
cotas
100
AcDbLine
 10
1454.87504859242
 20
3833.494330996771
 30
0.0
 11
1438.392806441655
 21
3833.494330996771
 31
0.0
  0
LINE
  5
243C
330
242E
100
AcDbEntity
  8
cotas
100
AcDbLine
 10
1454.87504859242
 20
3648.494330996771
 30
0.0
 11
1438.392806441655
 21
3648.494330996771
 31
0.0
  0
LINE
  5
243D
330
242E
100
AcDbEntity
  8
cotas
100
AcDbLine
 10
1439.392806441655
 20
3831.494330996771
 30
0.0
 11
1439.392806441655
 21
3650.49433099677
 31
0.0
  0
SOLID
  5
243E
330
242E
100
AcDbEntity
  8
cotas
100
AcDbTrace
 10
1439.059473108321
 20
3831.494330996771
 30
0.0
 11
1439.726139774988
 21
3831.494330996771
 31
0.0
 12
1439.392806441655
 22
3833.494330996771
 32
0.0
 13
1439.392806441655
 23
3833.494330996771
 33
0.0
  0
SOLID
  5
243F
330
242E
100
AcDbEntity
  8
cotas
100
AcDbTrace
 10
1439.059473108321
 20
3650.49433099677
 30
0.0
 11
1439.726139774988
 21
3650.49433099677
 31
0.0
 12
1439.392806441655
 22
3648.494330996771
 32
0.0
 13
1439.392806441655
 23
3648.494330996771
 33
0.0
  0
MTEXT
  5
2440
330
242E
100
AcDbEntity
  8
cotas
100
AcDbMText
 10
1437.34713820794
 20
3740.994330996772
 30
0.0
 40
2.0
 41
0.0
 71
     5
 72
     1
  1
185
  7
SANINDUSA
 11
0.0000000000000001
 21
1.0
 31
0.0
 73
     1
 44
1.0
1001
ACAD
1000
MTEXTBEGIN
1070
    73
1070
     1
1070
    44
1040
1.0
1070
    74
1070
     0
1000
MTEXTEND
  0
POINT
  5
2441
330
242E
100
AcDbEntity
  8
Defpoints
 62
     0
100
AcDbPoint
 10
1455.87504859242
 20
3833.494330996771
 30
0.0
  0
POINT
  5
2442
330
242E
100
AcDbEntity
  8
Defpoints
 62
     0
100
AcDbPoint
 10
1455.87504859242
 20
3648.494330996771
 30
0.0
  0
POINT
  5
2443
330
242E
100
AcDbEntity
  8
Defpoints
 62
     0
100
AcDbPoint
 10
1439.392806441655
 20
3648.494330996771
 30
0.0
  0
ENDBLK
  5
2430
330
242E
100
AcDbEntity
  8
0
100
AcDbBlockEnd
  0
ENDSEC
  0
SECTION
  2
ENTITIES
  0
LINE
  5
1B6C
330
1F
100
AcDbEntity
  8
SANINDUSA
  6
Continuous
100
AcDbLine
 10
1564.706068707906
 20
3772.328507865255
 30
0.0000000001555553
 11
1565.306068747115
 21
3772.328507865255
 31
0.0000000001555553
  0
LINE
  5
1B6D
330
1F
100
AcDbEntity
  8
SANINDUSA
  6
Continuous
100
AcDbLine
 10
1564.706068707906
 20
3772.322507865256
 30
0.0000000001555553
 11
1565.306068747115
 21
3772.322507865256
 31
0.0000000001555553
  0
ARC
  5
1B7C
330
1F
100
AcDbEntity
  8
SANINDUSA
100
AcDbCircle
 10
1563.159409401231
 20
3771.834671630828
 30
-0.0000000017937957
 40
0.001
100
AcDbArc
 50
90.0
 51
180.0
  0
LINE
  5
1B7D
330
1F
100
AcDbEntity
  8
SANINDUSA
100
AcDbLine
 10
1563.15840940123
 20
3771.834671630828
 30
-0.0000000017937957
 11
1563.15840940123
 21
3771.801671630828
 31
-0.0000000017937957
  0
ARC
  5
1B7E
330
1F
100
AcDbEntity
  8
SANINDUSA
100
AcDbCircle
 10
1563.159409401231
 20
3771.801671630828
 30
-0.0000000017937957
 40
0.001
100
AcDbArc
 50
180.0
 51
270.0
  0
ARC
  5
1B7F
330
1F
100
AcDbEntity
  8
SANINDUSA
100
AcDbCircle
 10
1563.23340940123
 20
3771.841171630828
 30
-0.0000000017937957
 40
0.001
100
AcDbArc
 50
0.0
 51
90.0
  0
ARC
  5
1B80
330
1F
100
AcDbEntity
  8
SANINDUSA
100
AcDbCircle
 10
1563.219409401231
 20
3771.841171630828
 30
-0.0000000017937957
 40
0.001
100
AcDbArc
 50
90.0
 51
180.0
  0
LINE
  5
1B81
330
1F
100
AcDbEntity
  8
SANINDUSA
100
AcDbLine
 10
1563.23440940123
 20
3771.835671630828
 30
-0.0000000017937957
 11
1563.293409401231
 21
3771.835671630828
 31
-0.0000000017937957
  0
LINE
  5
1B82
330
1F
100
AcDbEntity
  8
SANINDUSA
100
AcDbLine
 10
1563.293409401231
 20
3771.800671630828
 30
-0.0000000017937957
 11
1563.235298290119
 21
3771.800671630828
 31
-0.0000000017937957
  0
ARC
  5
1B83
330
1F
100
AcDbEntity
  8
SANINDUSA
100
AcDbCircle
 10
1563.293409401231
 20
3771.834671630828
 30
-0.0000000017937957
 40
0.001
100
AcDbArc
 50
0.0
 51
90.0
  0
ARC
  5
1B84
330
1F
100
AcDbEntity
  8
SANINDUSA
100
AcDbCircle
 10
1563.293409401231
 20
3771.801671630828
 30
-0.0000000017937957
 40
0.001
100
AcDbArc
 50
270.0
 51
0.0
  0
LINE
  5
1B85
330
1F
100
AcDbEntity
  8
SANINDUSA
100
AcDbLine
 10
1563.294409401231
 20
3771.834671630828
 30
-0.0000000017937957
 11
1563.294409401231
 21
3771.801671630828
 31
-0.0000000017937957
  0
LINE
  5
1B86
330
1F
100
AcDbEntity
  8
SANINDUSA
100
AcDbLine
 10
1563.23440940123
 20
3771.841171630828
 30
-0.0000000017937957
 11
1563.23440940123
 21
3771.835671630828
 31
-0.0000000017937957
  0
LINE
  5
1B87
330
1F
100
AcDbEntity
  8
SANINDUSA
100
AcDbLine
 10
1563.234409401231
 20
3771.816171630828
 30
-0.0000000017937957
 11
1563.234409401231
 21
3771.795171630828
 31
-0.0000000017937957
  0
LINE
  5
1B88
330
1F
100
AcDbEntity
  8
SANINDUSA
100
AcDbLine
 10
1563.235298290119
 20
3771.800671630828
 30
-0.0000000017937957
 11
1563.235298290119
 21
3771.820171630828
 31
-0.0000000017937957
  0
ARC
  5
1B89
330
1F
100
AcDbEntity
  8
SANINDUSA
100
AcDbCircle
 10
1563.233409401231
 20
3771.795171630828
 30
-0.0000000017937957
 40
0.001
100
AcDbArc
 50
270.0
 51
0.0
  0
LINE
  5
1B8A
330
1F
100
AcDbEntity
  8
SANINDUSA
100
AcDbLine
 10
1563.233909401231
 20
3771.820171630828
 30
-0.0000000017937957
 11
1563.233909401231
 21
3771.816171630828
 31
-0.0000000017937957
  0
LINE
  5
1B8B
330
1F
100
AcDbEntity
  8
SANINDUSA
100
AcDbLine
 10
1563.23440940123
 20
3771.835671630828
 30
-0.0000000017937957
 11
1563.23440940123
 21
3771.820171630828
 31
-0.0000000017937957
  0
LINE
  5
1B8C
330
1F
100
AcDbEntity
  8
SANINDUSA
100
AcDbLine
 10
1563.219409401231
 20
3771.842171630828
 30
-0.0000000017937957
 11
1563.23340940123
 21
3771.842171630828
 31
-0.0000000017937957
  0
LINE
  5
1B8D
330
1F
100
AcDbEntity
  8
SANINDUSA
100
AcDbLine
 10
1563.218409401231
 20
3771.795171630828
 30
-0.0000000017937957
 11
1563.218409401231
 21
3771.816171630828
 31
-0.0000000017937957
  0
ARC
  5
1B8E
330
1F
100
AcDbEntity
  8
SANINDUSA
100
AcDbCircle
 10
1563.219409401231
 20
3771.795171630828
 30
-0.0000000017937957
 40
0.001
100
AcDbArc
 50
180.0
 51
270.0
  0
LINE
  5
1B8F
330
1F
100
AcDbEntity
  8
SANINDUSA
100
AcDbLine
 10
1563.21890940123
 20
3771.820171630828
 30
-0.0000000017937957
 11
1563.21890940123
 21
3771.816171630828
 31
-0.0000000017937957
  0
LINE
  5
1B90
330
1F
100
AcDbEntity
  8
SANINDUSA
100
AcDbLine
 10
1563.218409401231
 20
3771.816171630828
 30
-0.0000000017937957
 11
1563.217520512341
 21
3771.816171630828
 31
-0.0000000017937957
  0
LINE
  5
1B91
330
1F
100
AcDbEntity
  8
SANINDUSA
100
AcDbLine
 10
1563.233409401231
 20
3771.794171630828
 30
-0.0000000017937957
 11
1563.219409401231
 21
3771.794171630828
 31
-0.0000000017937957
  0
LINE
  5
1B92
330
1F
100
AcDbEntity
  8
SANINDUSA
100
AcDbLine
 10
1563.235298290119
 20
3771.820171630828
 30
-0.0000000017937957
 11
1563.218409401231
 21
3771.820171630828
 31
-0.0000000017937957
  0
LINE
  5
1B93
330
1F
100
AcDbEntity
  8
SANINDUSA
100
AcDbLine
 10
1563.218409401231
 20
3771.816171630828
 30
-0.0000000017937957
 11
1563.234409401231
 21
3771.816171630828
 31
-0.0000000017937957
  0
LINE
  5
1B94
330
1F
100
AcDbEntity
  8
SANINDUSA
100
AcDbLine
 10
1563.218409401231
 20
3771.820171630828
 30
-0.0000000017937957
 11
1563.218409401231
 21
3771.841171630828
 31
-0.0000000017937957
  0
LINE
  5
1B95
330
1F
100
AcDbEntity
  8
SANINDUSA
100
AcDbLine
 10
1563.217520512341
 20
3771.816171630828
 30
-0.0000000017937957
 11
1563.217520512341
 21
3771.835671630828
 31
-0.0000000017937957
  0
LINE
  5
1B96
330
1F
100
AcDbEntity
  8
SANINDUSA
100
AcDbLine
 10
1563.217520512341
 20
3771.835671630828
 30
-0.0000000017937957
 11
1563.159409401231
 21
3771.835671630828
 31
-0.0000000017937957
  0
LINE
  5
1B97
330
1F
100
AcDbEntity
  8
SANINDUSA
100
AcDbLine
 10
1563.159409401231
 20
3771.800671630828
 30
-0.0000000017937957
 11
1563.218409401231
 21
3771.800671630828
 31
-0.0000000017937957
  0
ARC
  5
1B98
330
1F
100
AcDbEntity
  8
SANINDUSA
100
AcDbCircle
 10
1563.159409401231
 20
3773.094671630819
 30
-0.0000000017937957
 40
0.001
100
AcDbArc
 50
90.0
 51
180.0
  0
LINE
  5
1B99
330
1F
100
AcDbEntity
  8
SANINDUSA
100
AcDbLine
 10
1563.23440940123
 20
3773.095671630819
 30
-0.0000000017937957
 11
1563.293409401231
 21
3773.095671630819
 31
-0.0000000017937957
  0
ARC
  5
1B9A
330
1F
100
AcDbEntity
  8
SANINDUSA
100
AcDbCircle
 10
1563.293409401231
 20
3773.094671630819
 30
-0.0000000017937957
 40
0.001
100
AcDbArc
 50
0.0
 51
90.0
  0
ARC
  5
1B9B
330
1F
100
AcDbEntity
  8
SANINDUSA
100
AcDbCircle
 10
1563.23340940123
 20
3773.101171630819
 30
-0.0000000017937957
 40
0.001
100
AcDbArc
 50
0.0
 51
90.0
  0
LINE
  5
1B9C
330
1F
100
AcDbEntity
  8
SANINDUSA
100
AcDbLine
 10
1563.23440940123
 20
3773.101171630819
 30
-0.0000000017937957
 11
1563.23440940123
 21
3773.095671630819
 31
-0.0000000017937957
  0
LINE
  5
1B9D
330
1F
100
AcDbEntity
  8
SANINDUSA
100
AcDbLine
 10
1563.233909401231
 20
3773.080171630819
 30
-0.0000000017937957
 11
1563.233909401231
 21
3773.076171630819
 31
-0.0000000017937957
  0
LINE
  5
1B9E
330
1F
100
AcDbEntity
  8
SANINDUSA
100
AcDbLine
 10
1563.23440940123
 20
3773.095671630819
 30
-0.0000000017937957
 11
1563.23440940123
 21
3773.080171630819
 31
-0.0000000017937957
  0
ARC
  5
1B9F
330
1F
100
AcDbEntity
  8
SANINDUSA
100
AcDbCircle
 10
1563.219409401231
 20
3773.101171630819
 30
-0.0000000017937957
 40
0.001
100
AcDbArc
 50
90.0
 51
180.0
  0
LINE
  5
1BA0
330
1F
100
AcDbEntity
  8
SANINDUSA
100
AcDbLine
 10
1563.219409401231
 20
3773.102171630819
 30
-0.0000000017937957
 11
1563.23340940123
 21
3773.102171630819
 31
-0.0000000017937957
  0
LINE
  5
1BA1
330
1F
100
AcDbEntity
  8
SANINDUSA
100
AcDbLine
 10
1563.21890940123
 20
3773.080171630819
 30
-0.0000000017937957
 11
1563.21890940123
 21
3773.076171630819
 31
-0.0000000017937957
  0
LINE
  5
1BA2
330
1F
100
AcDbEntity
  8
SANINDUSA
100
AcDbLine
 10
1563.218409401231
 20
3773.076171630819
 30
-0.0000000017937957
 11
1563.217520512341
 21
3773.076171630819
 31
-0.0000000017937957
  0
LINE
  5
1BA3
330
1F
100
AcDbEntity
  8
SANINDUSA
100
AcDbLine
 10
1563.235298290119
 20
3773.080171630819
 30
-0.0000000017937957
 11
1563.218409401231
 21
3773.080171630819
 31
-0.0000000017937957
  0
LINE
  5
1BA4
330
1F
100
AcDbEntity
  8
SANINDUSA
100
AcDbLine
 10
1563.218409401231
 20
3773.076171630819
 30
-0.0000000017937957
 11
1563.234409401231
 21
3773.076171630819
 31
-0.0000000017937957
  0
LINE
  5
1BA5
330
1F
100
AcDbEntity
  8
SANINDUSA
100
AcDbLine
 10
1563.218409401231
 20
3773.080171630819
 30
-0.0000000017937957
 11
1563.218409401231
 21
3773.101171630819
 31
-0.0000000017937957
  0
LINE
  5
1BA6
330
1F
100
AcDbEntity
  8
SANINDUSA
100
AcDbLine
 10
1563.217520512341
 20
3773.076171630819
 30
-0.0000000017937957
 11
1563.217520512341
 21
3773.095671630819
 31
-0.0000000017937957
  0
LINE
  5
1BA7
330
1F
100
AcDbEntity
  8
SANINDUSA
100
AcDbLine
 10
1563.217520512341
 20
3773.095671630819
 30
-0.0000000017937957
 11
1563.159409401231
 21
3773.095671630819
 31
-0.0000000017937957
  0
ARC
  5
1BA8
330
1F
100
AcDbEntity
  8
SANINDUSA
100
AcDbCircle
 10
1563.159409401231
 20
3773.061671630819
 30
-0.0000000017937957
 40
0.001
100
AcDbArc
 50
180.0
 51
270.0
  0
ARC
  5
1BA9
330
1F
100
AcDbEntity
  8
SANINDUSA
100
AcDbCircle
 10
1563.233409401231
 20
3773.055171630819
 30
-0.0000000017937957
 40
0.001
100
AcDbArc
 50
270.0
 51
0.0
  0
ARC
  5
1BAA
330
1F
100
AcDbEntity
  8
SANINDUSA
100
AcDbCircle
 10
1563.219409401231
 20
3773.055171630819
 30
-0.0000000017937957
 40
0.001
100
AcDbArc
 50
180.0
 51
270.0
  0
LINE
  5
1BAB
330
1F
100
AcDbEntity
  8
SANINDUSA
100
AcDbLine
 10
1563.233409401231
 20
3773.054171630819
 30
-0.0000000017937957
 11
1563.219409401231
 21
3773.054171630819
 31
-0.0000000017937957
  0
LINE
  5
1BAC
330
1F
100
AcDbEntity
  8
SANINDUSA
100
AcDbLine
 10
1563.293409401231
 20
3773.060671630819
 30
-0.0000000017937957
 11
1563.235298290119
 21
3773.060671630819
 31
-0.0000000017937957
  0
ARC
  5
1BAD
330
1F
100
AcDbEntity
  8
SANINDUSA
100
AcDbCircle
 10
1563.293409401231
 20
3773.061671630819
 30
-0.0000000017937957
 40
0.001
100
AcDbArc
 50
270.0
 51
0.0
  0
LINE
  5
1BAE
330
1F
100
AcDbEntity
  8
SANINDUSA
100
AcDbLine
 10
1563.159409401231
 20
3773.060671630819
 30
-0.0000000017937957
 11
1563.218409401231
 21
3773.060671630819
 31
-0.0000000017937957
  0
LINE
  5
1BAF
330
1F
100
AcDbEntity
  8
SANINDUSA
100
AcDbLine
 10
1563.234409401231
 20
3773.076171630819
 30
-0.0000000017937957
 11
1563.234409401231
 21
3773.055171630819
 31
-0.0000000017937957
  0
LINE
  5
1BB0
330
1F
100
AcDbEntity
  8
SANINDUSA
100
AcDbLine
 10
1563.218409401231
 20
3773.055171630819
 30
-0.0000000017937957
 11
1563.218409401231
 21
3773.076171630819
 31
-0.0000000017937957
  0
LINE
  5
1BB1
330
1F
100
AcDbEntity
  8
SANINDUSA
100
AcDbLine
 10
1563.294409401231
 20
3773.094671630819
 30
-0.0000000017937957
 11
1563.294409401231
 21
3773.061671630819
 31
-0.0000000017937957
  0
LINE
  5
1BB2
330
1F
100
AcDbEntity
  8
SANINDUSA
100
AcDbLine
 10
1563.235298290119
 20
3773.060671630819
 30
-0.0000000017937957
 11
1563.235298290119
 21
3773.080171630819
 31
-0.0000000017937957
  0
LINE
  5
1BB3
330
1F
100
AcDbEntity
  8
SANINDUSA
100
AcDbLine
 10
1563.15840940123
 20
3773.094671630819
 30
-0.0000000017937957
 11
1563.15840940123
 21
3773.061671630819
 31
-0.0000000017937957
  0
LINE
  5
1BB5
330
1F
100
AcDbEntity
  8
SANINDUSA
  6
Continuous
100
AcDbLine
 10
1562.691221813103
 20
3771.523171630828
 30
0.0
 11
1563.892350265843
 21
3771.523171630828
 31
0.0
  0
LINE
  5
1BB6
330
1F
100
AcDbEntity
  8
SANINDUSA
100
AcDbLine
 10
1563.22790940123
 20
3771.533171630828
 30
0.0
 11
1563.852313624016
 21
3771.533171630828
 31
0.0
  0
LINE
  5
1BB7
330
1F
100
AcDbEntity
  8
SANINDUSA
  6
Continuous
100
AcDbLine
 10
1563.22790940123
 20
3773.373171630828
 30
0.0
 11
1563.868350265843
 21
3773.373171630828
 31
0.0
  0
LINE
  5
1BB9
330
1F
100
AcDbEntity
  8
SANINDUSA
  6
Continuous
100
AcDbLine
 10
1563.892350265843
 20
3771.523171630828
 30
0.0
 11
1563.892350265843
 21
3773.373171630828
 31
0.0
  0
LINE
  5
1BBA
330
1F
100
AcDbEntity
  8
SANINDUSA
  6
Continuous
100
AcDbLine
 10
1563.880050265843
 20
3771.533171630828
 30
0.0
 11
1563.880050265843
 21
3773.373171630828
 31
0.0
  0
LINE
  5
1BBB
330
1F
100
AcDbEntity
  8
SANINDUSA
  6
Continuous
100
AcDbLine
 10
1563.874050265843
 20
3771.533171630828
 30
0.0
 11
1563.874050265843
 21
3773.373171630828
 31
0.0
  0
LINE
  5
1BBC
330
1F
100
AcDbEntity
  8
SANINDUSA
  6
Continuous
100
AcDbLine
 10
1563.849513624016
 20
3771.533171630828
 30
0.0
 11
1563.849513624016
 21
3773.373171630828
 31
0.0
  0
LINE
  5
1BBD
330
1F
100
AcDbEntity
  8
SANINDUSA
  6
Continuous
100
AcDbLine
 10
1563.852313624016
 20
3771.523171630828
 30
0.0
 11
1563.852313624016
 21
3773.373171630828
 31
0.0
  0
LINE
  5
1BC1
330
1F
100
AcDbEntity
  8
SANINDUSA
100
AcDbLine
 10
1563.874050265843
 20
3771.533171630828
 30
0.0
 11
1563.880050265843
 21
3771.533171630828
 31
0.0
  0
LINE
  5
1BC2
330
1F
100
AcDbEntity
  8
SANINDUSA
100
AcDbLine
 10
1563.868350265843
 20
3773.373171630828
 30
0.0
 11
1563.892350265843
 21
3773.373171630828
 31
0.0
  0
LINE
  5
1BC3
330
1F
100
AcDbEntity
  8
SANINDUSA
  6
Continuous
100
AcDbLine
 10
1563.22490940123
 20
3771.523171630828
 30
0.0
 11
1563.22490940123
 21
3771.794171630828
 31
0.0
  0
LINE
  5
1BC4
330
1F
100
AcDbEntity
  8
SANINDUSA
  6
Continuous
100
AcDbLine
 10
1563.22790940123
 20
3771.533171630828
 30
0.0
 11
1563.22790940123
 21
3771.794171630828
 31
0.0
  0
LINE
  5
1BC5
330
1F
100
AcDbEntity
  8
SANINDUSA
  6
Continuous
100
AcDbLine
 10
1562.746071813103
 20
3771.523171630828
 30
0.0
 11
1562.746071813103
 21
3773.373171630828
 31
0.0
  0
LINE
  5
1BC6
330
1F
100
AcDbEntity
  8
SANINDUSA
  6
Continuous
100
AcDbLine
 10
1562.691221813103
 20
3771.523171630828
 30
0.0
 11
1562.691221813103
 21
3773.373171630828
 31
0.0
  0
LINE
  5
1BCC
330
1F
100
AcDbEntity
  8
SANINDUSA
  6
Continuous
100
AcDbLine
 10
1562.691221813103
 20
3773.373171630828
 30
0.0
 11
1563.22490940123
 21
3773.373171630828
 31
0.0
  0
LINE
  5
1BCD
330
1F
100
AcDbEntity
  8
SANINDUSA
  6
Continuous
100
AcDbLine
 10
1563.22790940123
 20
3771.842171630828
 30
0.0
 11
1563.22790940123
 21
3773.054171630819
 31
0.0
  0
LINE
  5
1BCE
330
1F
100
AcDbEntity
  8
SANINDUSA
  6
Continuous
100
AcDbLine
 10
1563.22490940123
 20
3771.842171630828
 30
0.0
 11
1563.22490940123
 21
3773.054171630819
 31
0.0
  0
LINE
  5
1BCF
330
1F
100
AcDbEntity
  8
SANINDUSA
  6
Continuous
100
AcDbLine
 10
1563.22490940123
 20
3773.102171630819
 30
0.0
 11
1563.22490940123
 21
3773.373171630828
 31
0.0
  0
LINE
  5
1BD0
330
1F
100
AcDbEntity
  8
SANINDUSA
  6
Continuous
100
AcDbLine
 10
1563.22790940123
 20
3773.102171630819
 30
0.0
 11
1563.22790940123
 21
3773.373171630828
 31
0.0
  0
HATCH
  5
1BD4
330
1F
100
AcDbEntity
  8
SANINDUSA
100
AcDbHatch
 10
0.0
 20
0.0
 30
0.0000000001555553
210
0.0
220
0.0
230
1.0
  2
ANSI31
 70
     0
 71
     0
 91
        1
 92
        7
 72
     1
 73
     1
 93
        8
 10
1565.312529407288
 20
3772.32684009831
 42
0.0
 10
1565.313908265509
 20
3772.328218956526
 42
-0.414213562178905
 10
1565.314191108221
 20
3772.328218956525
 42
0.0
 10
1565.318504459592
 20
3772.323905605143
 42
-0.4142135636146872
 10
1565.318504459591
 20
3772.323622762431
 42
0.0
 10
1565.317125601368
 20
3772.322243904223
 42
-0.4142135608152901
 10
1565.316418494589
 20
3772.322243904225
 42
0.0
 10
1565.312529407287
 20
3772.326132991528
 42
-0.4142135628833784
 97
        0
 75
     0
 76
     1
 52
45.0
 41
0.00025
 77
     0
 78
     1
 53
90.0
 43
1565.582183281755
 44
3771.930235963866
 45
0.00079375
 46
0.0
 79
     0
 47
0.0364805528584695
 98
        1
 10
1565.313468224853
 20
3772.326361101629
  0
ARC
  5
1BD9
330
1F
100
AcDbEntity
  8
SANINDUSA
100
AcDbCircle
 10
1565.366677902655
 20
3772.333207861446
 30
0.0
 40
0.0009999999999999
100
AcDbArc
 50
0.0
 51
90.0
  0
LINE
  5
1BDA
330
1F
100
AcDbEntity
  8
SANINDUSA
100
AcDbLine
 10
1565.367677902656
 20
3772.332222075009
 30
0.0
 11
1565.367677902656
 21
3772.333207861446
 31
0.0
  0
LINE
  5
1BDB
330
1F
100
AcDbEntity
  8
SANINDUSA
100
AcDbLine
 10
1565.366677902655
 20
3772.334207861446
 30
0.0
 11
1565.331654598523
 21
3772.334207861446
 31
0.0
  0
ARC
  5
1BDC
330
1F
100
AcDbEntity
  8
SANINDUSA
100
AcDbCircle
 10
1565.366677902655
 20
3772.332222075009
 30
0.0
 40
0.0010000000000003
100
AcDbArc
 50
315.0
 51
0.0
  0
ARC
  5
1BDD
330
1F
100
AcDbEntity
  8
SANINDUSA
100
AcDbCircle
 10
1565.331654598523
 20
3772.333207861446
 30
0.0
 40
0.001
100
AcDbArc
 50
90.0
 51
270.0
  0
LINE
  5
1BDE
330
1F
100
AcDbEntity
  8
SANINDUSA
100
AcDbLine
 10
1565.366470795874
 20
3772.330600754665
 30
0.0
 11
1565.367385009437
 21
3772.331514968227
 31
0.0
  0
LINE
  5
1BDF
330
1F
100
AcDbEntity
  8
SANINDUSA
100
AcDbLine
 10
1565.331654598523
 20
3772.332207861446
 30
0.0
 11
1565.363177902655
 21
3772.332207861446
 31
0.0
  0
ARC
  5
1BE0
330
1F
100
AcDbEntity
  8
SANINDUSA
100
AcDbCircle
 10
1565.367177902655
 20
3772.329893647884
 30
0.0
 40
0.0010000000000003
100
AcDbArc
 50
135.0
 51
180.0
  0
ARC
  5
1BE1
330
1F
100
AcDbEntity
  8
SANINDUSA
100
AcDbCircle
 10
1565.363177902655
 20
3772.331207861447
 30
0.0
 40
0.001
100
AcDbArc
 50
0.0
 51
90.0
  0
LINE
  5
1BE2
330
1F
100
AcDbEntity
  8
SANINDUSA
100
AcDbLine
 10
1565.366177902656
 20
3772.326518521617
 30
0.0
 11
1565.366177902656
 21
3772.329893647884
 31
0.0
  0
LINE
  5
1BE3
330
1F
100
AcDbEntity
  8
SANINDUSA
100
AcDbLine
 10
1565.364177902656
 20
3772.331207861447
 30
0.0
 11
1565.364177902656
 21
3772.313348675169
 31
0.0
  0
ARC
  5
1BE4
330
1F
100
AcDbEntity
  8
SANINDUSA
100
AcDbCircle
 10
1565.365927902655
 20
3772.326518521617
 30
0.0
 40
0.0002500000000003
100
AcDbArc
 50
315.0
 51
0.0
  0
ARC
  5
1BE5
330
1F
100
AcDbEntity
  8
SANINDUSA
100
AcDbCircle
 10
1565.363177902655
 20
3772.313348675169
 30
0.0
 40
0.001
100
AcDbArc
 50
267.8505420718559
 51
0.0
  0
LINE
  5
1BE6
330
1F
100
AcDbEntity
  8
SANINDUSA
100
AcDbLine
 10
1565.365624349265
 20
3772.325861414837
 30
0.0
 11
1565.366104679351
 21
3772.326341744923
 31
0.0
  0
ARC
  5
1BE7
330
1F
100
AcDbEntity
  8
SANINDUSA
100
AcDbCircle
 10
1565.366768011093
 20
3772.409001421091
 30
0.0
 40
0.0967200954923435
100
AcDbArc
 50
254.4398303544262
 51
267.8505420718559
  0
ARC
  5
1BE8
330
1F
100
AcDbEntity
  8
SANINDUSA
100
AcDbCircle
 10
1565.365977902655
 20
3772.325507861446
 30
0.0
 40
0.0005
100
AcDbArc
 50
135.0
 51
225.0
  0
ARC
  5
1BE9
330
1F
100
AcDbEntity
  8
SANINDUSA
100
AcDbCircle
 10
1565.340956951896
 20
3772.316307861446
 30
0.0
 40
0.0005
100
AcDbArc
 50
90.0
 51
254.4398303544262
  0
LINE
  5
1BEA
330
1F
100
AcDbEntity
  8
SANINDUSA
100
AcDbLine
 10
1565.366104679351
 20
3772.32467397797
 30
0.0
 11
1565.365624349265
 21
3772.325154308055
 31
0.0
  0
LINE
  5
1BEB
330
1F
100
AcDbEntity
  8
SANINDUSA
100
AcDbLine
 10
1565.340956951896
 20
3772.316807861446
 30
0.0
 11
1565.353654598524
 21
3772.316807861446
 31
0.0
  0
ARC
  5
1BEC
330
1F
100
AcDbEntity
  8
SANINDUSA
100
AcDbCircle
 10
1565.365927902655
 20
3772.324497201275
 30
0.0
 40
0.00025
100
AcDbArc
 50
0.0
 51
45.0
  0
ARC
  5
1BED
330
1F
100
AcDbEntity
  8
SANINDUSA
100
AcDbCircle
 10
1565.353654598524
 20
3772.317807861446
 30
0.0
 40
0.001
100
AcDbArc
 50
270.0
 51
90.0
  0
LINE
  5
1BEE
330
1F
100
AcDbEntity
  8
SANINDUSA
100
AcDbLine
 10
1565.366177902656
 20
3772.314307837785
 30
0.0
 11
1565.366177902656
 21
3772.324497201275
 31
0.0
  0
LINE
  5
1BEF
330
1F
100
AcDbEntity
  8
SANINDUSA
100
AcDbLine
 10
1565.353654598524
 20
3772.318807861446
 30
0.0
 11
1565.331654598523
 21
3772.318807861446
 31
0.0
  0
ARC
  5
1BF0
330
1F
100
AcDbEntity
  8
SANINDUSA
100
AcDbCircle
 10
1565.367177902655
 20
3772.314307837785
 30
0.0
 40
0.0010000000000003
100
AcDbArc
 50
180.0
 51
225.0893040525983
  0
ARC
  5
1BF1
330
1F
100
AcDbEntity
  8
SANINDUSA
100
AcDbCircle
 10
1565.331654598523
 20
3772.317807861446
 30
0.0
 40
0.001
100
AcDbArc
 50
90.0
 51
248.9411647530097
  0
LINE
  5
1BF2
330
1F
100
AcDbEntity
  8
SANINDUSA
100
AcDbLine
 10
1565.367378337976
 20
3772.312696011867
 30
0.0
 11
1565.366471898864
 21
3772.313599629731
 31
0.0
  0
ARC
  5
1BF3
330
1F
100
AcDbEntity
  8
SANINDUSA
100
AcDbCircle
 10
1565.366768011093
 20
3772.409001421091
 30
0.0
 40
0.0987200954923432
100
AcDbArc
 50
248.9411647530097
 51
269.9477634045893
  0
ARC
  5
1BF4
330
1F
100
AcDbEntity
  8
SANINDUSA
100
AcDbCircle
 10
1565.366672334184
 20
3772.311987803814
 30
0.0
 40
0.0010000000000003
100
AcDbArc
 50
0.5340991171852499
 51
45.08930405259832
  0
ARC
  5
1BF5
330
1F
100
AcDbEntity
  8
SANINDUSA
100
AcDbCircle
 10
1565.366678919637
 20
3772.31128136621
 30
0.0
 40
0.001
100
AcDbArc
 50
269.9477634045893
 51
0.5340991171852499
  0
LINE
  5
1BF6
330
1F
100
AcDbEntity
  8
SANINDUSA
100
AcDbLine
 10
1565.367678876189
 20
3772.311290687864
 30
0.0
 11
1565.367672290737
 21
3772.311997125466
 31
0.0
  0
ARC
  5
1BF7
330
1F
100
AcDbEntity
  8
SANINDUSA
100
AcDbCircle
 10
1565.3245285489
 20
3772.321507861446
 30
0.0000000001555553
 40
0.0019999999999991
100
AcDbArc
 50
224.9999999355169
 51
270.0
  0
LINE
  5
1BF8
330
1F
100
AcDbEntity
  8
SANINDUSA
100
AcDbLine
 10
1565.323114335336
 20
3772.320093647885
 30
0.0000000001555553
 11
1565.314766844152
 21
3772.32844113907
 31
0.0000000001555553
  0
ARC
  5
1BF9
330
1F
100
AcDbEntity
  8
SANINDUSA
100
AcDbCircle
 10
1565.316181057716
 20
3772.32985535263
 30
0.0000000001555553
 40
0.002
100
AcDbArc
 50
134.9999996223133
 51
224.9999999355169
  0
LINE
  5
1BFA
330
1F
100
AcDbEntity
  8
SANINDUSA
100
AcDbLine
 10
1565.314766844163
 20
3772.331269566203
 30
0.0000000001555553
 11
1565.317119352988
 21
3772.333622075013
 31
0.0000000001555553
  0
ARC
  5
1BFB
330
1F
100
AcDbEntity
  8
SANINDUSA
100
AcDbCircle
 10
1565.318533566546
 20
3772.332207861446
 30
0.0000000001555553
 40
0.002
100
AcDbArc
 50
90.0
 51
134.9999998157626
  0
LINE
  5
1BFC
330
1F
100
AcDbEntity
  8
SANINDUSA
100
AcDbLine
 10
1565.318533566546
 20
3772.334207861446
 30
0.0000000001555553
 11
1565.323954598524
 21
3772.334207861446
 31
0.0000000001555553
  0
ARC
  5
1BFD
330
1F
100
AcDbEntity
  8
SANINDUSA
100
AcDbCircle
 10
1565.323954598524
 20
3772.333207861446
 30
0.0000000001555553
 40
0.001
100
AcDbArc
 50
0.0
 51
90.0
  0
ARC
  5
1BFE
330
1F
100
AcDbEntity
  8
SANINDUSA
100
AcDbCircle
 10
1565.326654598524
 20
3772.333207861446
 30
0.0000000001555553
 40
0.0016999999999989
100
AcDbArc
 50
180.0
 51
270.0
  0
LINE
  5
1BFF
330
1F
100
AcDbEntity
  8
SANINDUSA
100
AcDbLine
 10
1565.326654598524
 20
3772.331507861446
 30
0.0000000001555553
 11
1565.357377902655
 21
3772.331507861446
 31
0.0000000001555553
  0
ARC
  5
1C00
330
1F
100
AcDbEntity
  8
SANINDUSA
100
AcDbCircle
 10
1565.357377902655
 20
3772.330207861446
 30
0.0000000001555553
 40
0.0013000000000006
100
AcDbArc
 50
0.0
 51
90.0
  0
LINE
  5
1C01
330
1F
100
AcDbEntity
  8
SANINDUSA
100
AcDbLine
 10
1565.358677902656
 20
3772.330207861446
 30
0.0000000001555553
 11
1565.358677902656
 21
3772.320807861446
 31
0.0000000001555553
  0
ARC
  5
1C02
330
1F
100
AcDbEntity
  8
SANINDUSA
100
AcDbCircle
 10
1565.357377902655
 20
3772.320807861446
 30
0.0000000001555553
 40
0.0013000000000006
100
AcDbArc
 50
270.0
 51
0.0
  0
LINE
  5
1C03
330
1F
100
AcDbEntity
  8
SANINDUSA
100
AcDbLine
 10
1565.357377902655
 20
3772.319507861446
 30
0.0000000001555553
 11
1565.3245285489
 21
3772.319507861446
 31
0.0000000001555553
  0
ARC
  5
1C04
330
1F
100
AcDbEntity
  8
SANINDUSA
100
AcDbCircle
 10
1565.323669636212
 20
3772.332907861446
 30
0.0000000001555553
 40
0.0002999999999992
100
AcDbArc
 50
5.739170489265799
 51
90.0
  0
ARC
  5
1C05
330
1F
100
AcDbEntity
  8
SANINDUSA
100
AcDbCircle
 10
1565.323669636212
 20
3772.332907861446
 30
0.0000000001555553
 40
0.0002999999999988
100
AcDbArc
 50
5.739170489265799
 51
90.0
  0
ARC
  5
1C06
330
1F
100
AcDbEntity
  8
SANINDUSA
100
AcDbCircle
 10
1565.326654598523
 20
3772.333207861446
 30
0.0000000001555553
 40
0.0027000000000011
100
AcDbArc
 50
185.7391704892658
 51
270.0
  0
LINE
  5
1C07
330
1F
100
AcDbEntity
  8
SANINDUSA
100
AcDbLine
 10
1565.326654598523
 20
3772.330507861446
 30
0.0000000001555553
 11
1565.357377902655
 21
3772.330507861446
 31
0.0000000001555553
  0
ARC
  5
1C08
330
1F
100
AcDbEntity
  8
SANINDUSA
100
AcDbCircle
 10
1565.357377902655
 20
3772.330207861446
 30
0.0000000001555553
 40
0.0003000000000006
100
AcDbArc
 50
0.0
 51
90.0
  0
LINE
  5
1C09
330
1F
100
AcDbEntity
  8
SANINDUSA
100
AcDbLine
 10
1565.357677902656
 20
3772.330207861446
 30
0.0000000001555553
 11
1565.357677902656
 21
3772.320807861446
 31
0.0000000001555553
  0
ARC
  5
1C0A
330
1F
100
AcDbEntity
  8
SANINDUSA
100
AcDbCircle
 10
1565.357377902655
 20
3772.320807861446
 30
0.0000000001555553
 40
0.0003
100
AcDbArc
 50
270.0
 51
0.0
  0
LINE
  5
1C0B
330
1F
100
AcDbEntity
  8
SANINDUSA
100
AcDbLine
 10
1565.357377902655
 20
3772.320507861446
 30
0.0000000001555553
 11
1565.324321442118
 21
3772.320507861446
 31
0.0000000001555553
  0
ARC
  5
1C0C
330
1F
100
AcDbEntity
  8
SANINDUSA
100
AcDbCircle
 10
1565.324321442118
 20
3772.321007861446
 30
0.0000000001555553
 40
0.0005000000000005
100
AcDbArc
 50
224.999999926305
 51
270.0
  0
LINE
  5
1C0D
330
1F
100
AcDbEntity
  8
SANINDUSA
100
AcDbLine
 10
1565.323967888727
 20
3772.320654308056
 30
0.0000000001555553
 11
1565.321201515873
 21
3772.323420680916
 31
0.0000000001555553
  0
ARC
  5
1C0E
330
1F
100
AcDbEntity
  8
SANINDUSA
100
AcDbCircle
 10
1565.321555069263
 20
3772.323774234305
 30
0.0000000001555553
 40
0.0004999999977741
100
AcDbArc
 50
135.0000004513816
 51
224.9999998894576
  0
LINE
  5
1C0F
330
1F
100
AcDbEntity
  8
SANINDUSA
100
AcDbLine
 10
1565.321201515871
 20
3772.324127787691
 30
0.0000000001555553
 11
1565.322615729426
 21
3772.325542001273
 31
0.0000000001555553
  0
ARC
  5
1C10
330
1F
100
AcDbEntity
  8
SANINDUSA
100
AcDbCircle
 10
1565.321555069255
 20
3772.326602661446
 30
0.0000000001555553
 40
0.0014999999999998
100
AcDbArc
 50
314.9999999539407
 51
45.0
  0
LINE
  5
1C11
330
1F
100
AcDbEntity
  8
SANINDUSA
100
AcDbLine
 10
1565.322615729427
 20
3772.327663321617
 30
0.0000000001555553
 11
1565.321629096212
 21
3772.32864995482
 31
0.0000000001555553
  0
ARC
  5
1C12
330
1F
100
AcDbEntity
  8
SANINDUSA
100
AcDbCircle
 10
1565.321275542821
 20
3772.328296401429
 30
0.0000000001555553
 40
0.0005000000000001
100
AcDbArc
 50
45.0
 51
225.0
  0
LINE
  5
1C13
330
1F
100
AcDbEntity
  8
SANINDUSA
100
AcDbLine
 10
1565.320921989431
 20
3772.327942848039
 30
0.0000000001555553
 11
1565.321908622646
 21
3772.326956214823
 31
0.0000000001555553
  0
ARC
  5
1C14
330
1F
100
AcDbEntity
  8
SANINDUSA
100
AcDbCircle
 10
1565.321555069255
 20
3772.326602661433
 30
0.0000000001555553
 40
0.000499999999999
100
AcDbArc
 50
314.9999999631526
 51
45.0
  0
LINE
  5
1C15
330
1F
100
AcDbEntity
  8
SANINDUSA
100
AcDbLine
 10
1565.321908622646
 20
3772.326249108042
 30
0.0000000001555553
 11
1565.321272226542
 21
3772.325612711939
 31
0.0000000001555553
  0
ARC
  5
1C16
330
1F
100
AcDbEntity
  8
SANINDUSA
100
AcDbCircle
 10
1565.320918673152
 20
3772.32596626533
 30
0.0000000001555553
 40
0.0005000000000232
100
AcDbArc
 50
225.0
 51
314.9999999631526
  0
LINE
  5
1C17
330
1F
100
AcDbEntity
  8
SANINDUSA
100
AcDbLine
 10
1565.320565119761
 20
3772.325612711939
 30
0.0000000001555553
 11
1565.320282277047
 21
3772.325895554654
 31
0.0000000001555553
  0
ARC
  5
1C18
330
1F
100
AcDbEntity
  8
SANINDUSA
100
AcDbCircle
 10
1565.32014085569
 20
3772.325754133298
 30
0.0000000001555553
 40
0.0002
100
AcDbArc
 50
45.0
 51
135.0
  0
LINE
  5
1C19
330
1F
100
AcDbEntity
  8
SANINDUSA
100
AcDbLine
 10
1565.319999434334
 20
3772.325895554654
 30
0.0000000001555553
 11
1565.319575170265
 21
3772.325471290586
 31
0.0000000001555553
  0
ARC
  5
1C1A
330
1F
100
AcDbEntity
  8
SANINDUSA
100
AcDbCircle
 10
1565.319221616875
 20
3772.325824843977
 30
0.0000000001555553
 40
0.0005000000000001
100
AcDbArc
 50
225.0
 51
315.0
  0
LINE
  5
1C1B
330
1F
100
AcDbEntity
  8
SANINDUSA
100
AcDbLine
 10
1565.318868063484
 20
3772.325471290586
 30
0.0000000001555553
 11
1565.315756793647
 21
3772.328582560423
 31
0.0000000001555553
  0
ARC
  5
1C1C
330
1F
100
AcDbEntity
  8
SANINDUSA
100
AcDbCircle
 10
1565.316110347038
 20
3772.328936113814
 30
0.0000000001555553
 40
0.0004999999999996
100
AcDbArc
 50
135.0
 51
225.0
  0
LINE
  5
1C1D
330
1F
100
AcDbEntity
  8
SANINDUSA
100
AcDbLine
 10
1565.315756793647
 20
3772.329289667204
 30
0.0000000001555553
 11
1565.316181057716
 21
3772.329713931271
 31
0.0000000001555553
  0
ARC
  5
1C1E
330
1F
100
AcDbEntity
  8
SANINDUSA
100
AcDbCircle
 10
1565.31603963636
 20
3772.329855352627
 30
0.0000000001555553
 40
0.0002000000000006
100
AcDbArc
 50
315.0
 51
45.00000011975431
  0
LINE
  5
1C1F
330
1F
100
AcDbEntity
  8
SANINDUSA
100
AcDbLine
 10
1565.316181057716
 20
3772.329996773983
 30
0.0000000001555553
 11
1565.315898215003
 21
3772.330279616696
 31
0.0000000001555553
  0
ARC
  5
1C20
330
1F
100
AcDbEntity
  8
SANINDUSA
100
AcDbCircle
 10
1565.316251768394
 20
3772.330633170087
 30
0.0000000001555553
 40
0.0005000000000002
100
AcDbArc
 50
135.000000211873
 51
225.0
  0
LINE
  5
1C21
330
1F
100
AcDbEntity
  8
SANINDUSA
100
AcDbLine
 10
1565.315898215002
 20
3772.330986723476
 30
0.0000000001555553
 11
1565.316534611102
 21
3772.331623119582
 31
0.0000000001555553
  0
ARC
  5
1C22
330
1F
100
AcDbEntity
  8
SANINDUSA
100
AcDbCircle
 10
1565.316888164492
 20
3772.331269566191
 30
0.0000000001555553
 40
0.0005000000000001
100
AcDbArc
 50
45.0
 51
135.0
  0
LINE
  5
1C23
330
1F
100
AcDbEntity
  8
SANINDUSA
100
AcDbLine
 10
1565.317241717883
 20
3772.331623119582
 30
0.0000000001555553
 11
1565.318227927543
 21
3772.330636909922
 31
0.0000000001555553
  0
ARC
  5
1C24
330
1F
100
AcDbEntity
  8
SANINDUSA
100
AcDbCircle
 10
1565.318581480933
 20
3772.330990463313
 30
0.0000000001555553
 40
0.0004999999999994
100
AcDbArc
 50
225.0
 51
45.0
  0
LINE
  5
1C25
330
1F
100
AcDbEntity
  8
SANINDUSA
100
AcDbLine
 10
1565.318935034324
 20
3772.331344016703
 30
0.0000000001555553
 11
1565.317924742972
 21
3772.332354308055
 31
0.0000000001555553
  0
ARC
  5
1C26
330
1F
100
AcDbEntity
  8
SANINDUSA
100
AcDbCircle
 10
1565.318278296363
 20
3772.332707861446
 30
0.0000000001555553
 40
0.0004999999999999
100
AcDbArc
 50
90.0
 51
225.0
  0
LINE
  5
1C27
330
1F
100
AcDbEntity
  8
SANINDUSA
100
AcDbLine
 10
1565.318278296363
 20
3772.333207861446
 30
0.0000000001555553
 11
1565.323669636212
 21
3772.333207861446
 31
0.0000000001555553
  0
LINE
  5
1C28
330
1F
100
AcDbEntity
  8
SANINDUSA
100
AcDbLine
 10
1565.316147840316
 20
3772.330812084723
 30
0.0000000001555553
 11
1565.316854947097
 21
3772.331519191504
 31
0.0000000001555553
  0
LINE
  5
1C29
330
1F
100
AcDbEntity
  8
SANINDUSA
100
AcDbLine
 10
1565.316854947097
 20
3772.331519191504
 30
0.0000000001555553
 11
1565.321804694566
 21
3772.326569444036
 31
0.0000000001555553
  0
LINE
  5
1C2A
330
1F
100
AcDbEntity
  8
SANINDUSA
100
AcDbLine
 10
1565.316854947097
 20
3772.330104977942
 30
0.0000000001555553
 11
1565.316147840316
 21
3772.330812084723
 31
0.0000000001555553
  0
LINE
  5
1C2B
330
1F
100
AcDbEntity
  8
SANINDUSA
100
AcDbLine
 10
1565.321804694566
 20
3772.326569444036
 30
0.0000000001555553
 11
1565.321097587784
 21
3772.325862337254
 31
0.0000000001555553
  0
LINE
  5
1C2C
330
1F
100
AcDbEntity
  8
SANINDUSA
100
AcDbLine
 10
1565.315794286926
 20
3772.32904431777
 30
0.0000000001555553
 11
1565.316854947097
 21
3772.330104977942
 31
0.0000000001555553
  0
LINE
  5
1C2D
330
1F
100
AcDbEntity
  8
SANINDUSA
100
AcDbLine
 10
1565.321097587784
 20
3772.325862337254
 30
0.0000000001555553
 11
1565.320390481003
 21
3772.326569444036
 31
0.0000000001555553
  0
LINE
  5
1C2E
330
1F
100
AcDbEntity
  8
SANINDUSA
100
AcDbLine
 10
1565.319329820831
 20
3772.325508783864
 30
0.0000000001555553
 11
1565.315794286926
 21
3772.32904431777
 31
0.0000000001555553
  0
LINE
  5
1C2F
330
1F
100
AcDbEntity
  8
SANINDUSA
100
AcDbLine
 10
1565.320390481003
 20
3772.326569444036
 30
0.0000000001555553
 11
1565.319329820831
 21
3772.325508783864
 31
0.0000000001555553
  0
LINE
  5
1C30
330
1F
100
AcDbEntity
  8
SANINDUSA
100
AcDbLine
 10
1565.294068747115
 20
3772.32868717767
 30
0.0000000001555553
 11
1565.294068747115
 21
3772.328207865256
 31
0.0000000001555553
  0
LINE
  5
1C31
330
1F
100
AcDbEntity
  8
SANINDUSA
100
AcDbLine
 10
1565.296568747115
 20
3772.328638340263
 30
0.0000000001555553
 11
1565.296627970845
 21
3772.328242748872
 31
0.0000000001555553
  0
ARC
  5
1C32
330
1F
100
AcDbEntity
  8
SANINDUSA
100
AcDbCircle
 10
1565.294868747115
 20
3772.32868717767
 30
0.0000000001555553
 40
0.0008
100
AcDbArc
 50
98.51447843301436
 51
180.0
  0
ARC
  5
1C33
330
1F
100
AcDbEntity
  8
SANINDUSA
100
AcDbCircle
 10
1565.297314937211
 20
3772.32703110651
 30
0.0000000001555553
 40
0.0002
100
AcDbArc
 50
188.5144784478272
 51
8.514478447827192
  0
LINE
  5
1C34
330
1F
100
AcDbEntity
  8
SANINDUSA
100
AcDbLine
 10
1565.294413164913
 20
3772.323104558799
 30
0.0000000001555553
 11
1565.296627970845
 21
3772.322772981639
 31
0.0000000001555553
  0
ARC
  5
1C35
330
1F
100
AcDbEntity
  8
SANINDUSA
100
AcDbCircle
 10
1565.297314937211
 20
3772.323984624001
 30
0.0000000001555553
 40
0.0002
100
AcDbArc
 50
351.4855215521728
 51
171.4855215521728
  0
LINE
  5
1C36
330
1F
100
AcDbEntity
  8
SANINDUSA
100
AcDbLine
 10
1565.296568747115
 20
3772.322377390248
 30
0.0000000001555553
 11
1565.296627970845
 21
3772.322772981639
 31
0.0000000001555553
  0
ARC
  5
1C37
330
1F
100
AcDbEntity
  8
SANINDUSA
100
AcDbCircle
 10
1565.294368747115
 20
3772.322807865255
 30
0.0000000001555553
 40
0.0003
100
AcDbArc
 50
81.48552156698563
 51
180.0
  0
ARC
  5
1C38
330
1F
100
AcDbEntity
  8
SANINDUSA
100
AcDbCircle
 10
1565.294368747115
 20
3772.328207865256
 30
0.0000000001555553
 40
0.0003
100
AcDbArc
 50
180.0
 51
278.5144784330144
  0
LINE
  5
1C39
330
1F
100
AcDbEntity
  8
SANINDUSA
100
AcDbLine
 10
1565.294413164913
 20
3772.327911171711
 30
0.0000000001555553
 11
1565.296627970845
 21
3772.328242748872
 31
0.0000000001555553
  0
LINE
  5
1C3A
330
1F
100
AcDbEntity
  8
SANINDUSA
100
AcDbLine
 10
1565.297261032051
 20
3772.328741981793
 30
0.0000000001555553
 11
1565.297512732907
 21
3772.327060718375
 31
0.0000000001555553
  0
LINE
  5
1C3B
330
1F
100
AcDbEntity
  8
SANINDUSA
100
AcDbLine
 10
1565.296865440659
 20
3772.328682758061
 30
0.0000000001555553
 11
1565.297117141515
 21
3772.327001494645
 31
0.0000000001555553
  0
LINE
  5
1C3C
330
1F
100
AcDbEntity
  8
SANINDUSA
100
AcDbLine
 10
1565.299387335785
 20
3772.329060309346
 30
0.0000000001555553
 11
1565.299446559516
 21
3772.328664717953
 31
0.0000000001555553
  0
ARC
  5
1C3D
330
1F
100
AcDbEntity
  8
SANINDUSA
100
AcDbCircle
 10
1565.305768747115
 20
3772.329307865255
 30
0.0000000001555553
 40
0.0003
100
AcDbArc
 50
0.0
 51
98.51447843301436
  0
ARC
  5
1C3E
330
1F
100
AcDbEntity
  8
SANINDUSA
100
AcDbCircle
 10
1565.305026346285
 20
3772.330207865256
 30
0.0000000001555553
 40
0.0008
100
AcDbArc
 50
90.0
 51
98.51447843301436
  0
LINE
  5
1C3F
330
1F
100
AcDbEntity
  8
SANINDUSA
100
AcDbLine
 10
1565.304568747114
 20
3772.329431557338
 30
0.0000000001555553
 11
1565.305724329317
 21
3772.329604558799
 31
0.0000000001555553
  0
LINE
  5
1C40
330
1F
100
AcDbEntity
  8
SANINDUSA
100
AcDbLine
 10
1565.304568747114
 20
3772.329431557338
 30
0.0000000001555553
 11
1565.304568747114
 21
3772.328607865256
 31
0.0000000001555553
  0
LINE
  5
1C41
330
1F
100
AcDbEntity
  8
SANINDUSA
100
AcDbLine
 10
1565.304568747114
 20
3772.328607865256
 30
0.0000000001555553
 11
1565.303368747114
 21
3772.328607865256
 31
0.0000000001555553
  0
LINE
  5
1C42
330
1F
100
AcDbEntity
  8
SANINDUSA
100
AcDbLine
 10
1565.303368747114
 20
3772.329251906116
 30
0.0000000001555553
 11
1565.303368747114
 21
3772.328607865256
 31
0.0000000001555553
  0
LINE
  5
1C43
330
1F
100
AcDbEntity
  8
SANINDUSA
100
AcDbLine
 10
1565.299446559516
 20
3772.328664717953
 30
0.0000000001555553
 11
1565.303368747114
 21
3772.329251906116
 31
0.0000000001555553
  0
LINE
  5
1C44
330
1F
100
AcDbEntity
  8
SANINDUSA
100
AcDbLine
 10
1565.304568747114
 20
3772.322407865255
 30
0.0000000001555553
 11
1565.303368747114
 21
3772.322407865255
 31
0.0000000001555553
  0
LINE
  5
1C45
330
1F
100
AcDbEntity
  8
SANINDUSA
100
AcDbLine
 10
1565.294750299653
 20
3772.329478360455
 30
0.0000000001555553
 11
1565.304907898824
 21
3772.33099904804
 31
0.0000000001555553
  0
LINE
  5
1C46
330
1F
100
AcDbEntity
  8
SANINDUSA
100
AcDbLine
 10
1565.296568747115
 20
3772.328638340263
 30
0.0000000001555553
 11
1565.299387335785
 21
3772.329060309346
 31
0.0000000001555553
  0
ARC
  5
1C47
330
1F
100
AcDbEntity
  8
SANINDUSA
100
AcDbCircle
 10
1565.294868747115
 20
3772.322328552841
 30
0.0000000001555553
 40
0.0008
100
AcDbArc
 50
180.0
 51
261.4855215669856
  0
LINE
  5
1C48
330
1F
100
AcDbEntity
  8
SANINDUSA
100
AcDbLine
 10
1565.299387335785
 20
3772.321955421165
 30
0.0000000001555553
 11
1565.299446559516
 21
3772.322351012557
 31
0.0000000001555553
  0
ARC
  5
1C49
330
1F
100
AcDbEntity
  8
SANINDUSA
100
AcDbCircle
 10
1565.305768747115
 20
3772.321707865256
 30
0.0000000001555553
 40
0.0003
100
AcDbArc
 50
261.4855215669856
 51
0.0
  0
ARC
  5
1C4A
330
1F
100
AcDbEntity
  8
SANINDUSA
100
AcDbCircle
 10
1565.305026346285
 20
3772.320807865256
 30
0.0000000001555553
 40
0.0008
100
AcDbArc
 50
261.4855215669856
 51
270.0
  0
LINE
  5
1C4B
330
1F
100
AcDbEntity
  8
SANINDUSA
100
AcDbLine
 10
1565.305724329317
 20
3772.321411171712
 30
0.0000000001555553
 11
1565.304568747114
 21
3772.321584173173
 31
0.0000000001555553
  0
LINE
  5
1C4C
330
1F
100
AcDbEntity
  8
SANINDUSA
100
AcDbLine
 10
1565.299446559516
 20
3772.322351012557
 30
0.0000000001555553
 11
1565.303368747114
 21
3772.321763824395
 31
0.0000000001555553
  0
LINE
  5
1C4D
330
1F
100
AcDbEntity
  8
SANINDUSA
100
AcDbLine
 10
1565.304907898824
 20
3772.320016682471
 30
0.0000000001555553
 11
1565.294750299653
 21
3772.321537370056
 31
0.0000000001555553
  0
LINE
  5
1C4E
330
1F
100
AcDbEntity
  8
SANINDUSA
100
AcDbLine
 10
1565.306068747115
 20
3772.329307865255
 30
0.0000000001555553
 11
1565.306068747115
 21
3772.321707865256
 31
0.0000000001555553
  0
LINE
  5
1C4F
330
1F
100
AcDbEntity
  8
SANINDUSA
100
AcDbLine
 10
1565.294068747115
 20
3772.322807865255
 30
0.0000000001555553
 11
1565.294068747115
 21
3772.322328552841
 31
0.0000000001555553
  0
LINE
  5
1C50
330
1F
100
AcDbEntity
  8
SANINDUSA
100
AcDbLine
 10
1565.303368747114
 20
3772.322407865255
 30
0.0000000001555553
 11
1565.303368747114
 21
3772.321763824395
 31
0.0000000001555553
  0
LINE
  5
1C51
330
1F
100
AcDbEntity
  8
SANINDUSA
100
AcDbLine
 10
1565.304568747114
 20
3772.322407865255
 30
0.0000000001555553
 11
1565.304568747114
 21
3772.321584173173
 31
0.0000000001555553
  0
LINE
  5
1C52
330
1F
100
AcDbEntity
  8
SANINDUSA
100
AcDbLine
 10
1565.296568747115
 20
3772.322377390248
 30
0.0000000001555553
 11
1565.299387335785
 21
3772.321955421165
 31
0.0000000001555553
  0
LINE
  5
1C53
330
1F
100
AcDbEntity
  8
SANINDUSA
100
AcDbLine
 10
1565.296865440659
 20
3772.322332972449
 30
0.0000000001555553
 11
1565.297117141515
 21
3772.324014235866
 31
0.0000000001555553
  0
LINE
  5
1C54
330
1F
100
AcDbEntity
  8
SANINDUSA
100
AcDbLine
 10
1565.297261032051
 20
3772.322273748719
 30
0.0000000001555553
 11
1565.297512732907
 21
3772.323955012136
 31
0.0000000001555553
  0
LINE
  5
1C55
330
1F
100
AcDbEntity
  8
SANINDUSA
100
AcDbLine
 10
1565.307568747115
 20
3772.331007865255
 30
0.0000000001555553
 11
1565.309826106427
 21
3772.331007865255
 31
0.0000000001555553
  0
ARC
  5
1C56
330
1F
100
AcDbEntity
  8
SANINDUSA
100
AcDbCircle
 10
1565.308568747115
 20
3772.329007865256
 30
0.0000000001555553
 40
0.001
100
AcDbArc
 50
90.0
 51
180.0
  0
ARC
  5
1C57
330
1F
100
AcDbEntity
  8
SANINDUSA
100
AcDbCircle
 10
1565.309838528217
 20
3772.329657844119
 30
0.0000000001555553
 40
0.00075
100
AcDbArc
 50
89.8050089056486
 51
132.8322405052913
  0
ARC
  5
1C58
330
1F
100
AcDbEntity
  8
SANINDUSA
100
AcDbCircle
 10
1565.308818747115
 20
3772.330757865255
 30
0.0000000001555553
 40
0.00075
100
AcDbArc
 50
270.0
 51
312.8322405052913
  0
LINE
  5
1C59
330
1F
100
AcDbEntity
  8
SANINDUSA
100
AcDbLine
 10
1565.308818747115
 20
3772.330007865256
 30
0.0000000001555553
 11
1565.308568747115
 21
3772.330007865256
 31
0.0000000001555553
  0
LINE
  5
1C5A
330
1F
100
AcDbEntity
  8
SANINDUSA
100
AcDbLine
 10
1565.31348400144
 20
3772.328572509917
 30
0.0000000001555553
 11
1565.312937376265
 21
3772.329119135093
 31
0.0000000001555553
  0
ARC
  5
1C5B
330
1F
100
AcDbEntity
  8
SANINDUSA
100
AcDbCircle
 10
1565.314049686865
 20
3772.328077535169
 30
0.0000000001555553
 40
0.0002
100
AcDbArc
 50
44.99999992630503
 51
134.9999998894575
  0
ARC
  5
1C5C
330
1F
100
AcDbEntity
  8
SANINDUSA
100
AcDbCircle
 10
1565.309826106427
 20
3772.326007865255
 30
0.0000000001555553
 40
0.005
100
AcDbArc
 50
45.0
 51
90.0
  0
ARC
  5
1C5D
330
1F
100
AcDbEntity
  8
SANINDUSA
100
AcDbCircle
 10
1565.309826106427
 20
3772.326007865255
 30
0.0000000001555553
 40
0.0044
100
AcDbArc
 50
45.0
 51
89.8050089056486
  0
ARC
  5
1C5E
330
1F
100
AcDbEntity
  8
SANINDUSA
100
AcDbCircle
 10
1565.312882960678
 20
3772.326486544919
 30
0.0000000001555553
 40
0.00075
100
AcDbArc
 50
135.0
 51
225.0000000368475
  0
ARC
  5
1C5F
330
1F
100
AcDbEntity
  8
SANINDUSA
100
AcDbCircle
 10
1565.312882960678
 20
3772.326486544919
 30
0.0000000001555553
 40
0.0005
100
AcDbArc
 50
135.0
 51
225.0000000368475
  0
ARC
  5
1C60
330
1F
100
AcDbEntity
  8
SANINDUSA
100
AcDbCircle
 10
1565.313271869406
 20
3772.328360377882
 30
0.0000000001555553
 40
0.0003
100
AcDbArc
 50
314.9999998894576
 51
45.0
  0
LINE
  5
1C61
330
1F
100
AcDbEntity
  8
SANINDUSA
100
AcDbLine
 10
1565.314120397545
 20
3772.32878464195
 30
0.0000000001555553
 11
1565.312352630592
 21
3772.327016875005
 31
0.0000000001555553
  0
LINE
  5
1C62
330
1F
100
AcDbEntity
  8
SANINDUSA
100
AcDbLine
 10
1565.313908265509
 20
3772.328218956526
 30
0.0000000001555553
 11
1565.312529407287
 21
3772.32684009831
 31
0.0000000001555553
  0
ARC
  5
1C63
330
1F
100
AcDbEntity
  8
SANINDUSA
100
AcDbCircle
 10
1565.318645880947
 20
3772.322986366341
 30
0.0000000001555553
 40
0.0003
100
AcDbArc
 50
45.0
 51
134.9999999631525
  0
ARC
  5
1C64
330
1F
100
AcDbEntity
  8
SANINDUSA
100
AcDbCircle
 10
1565.318363038235
 20
3772.323764183788
 30
0.0000000001555553
 40
0.0002
100
AcDbArc
 50
314.9999997052201
 51
44.99999992630503
  0
LINE
  5
1C65
330
1F
100
AcDbEntity
  8
SANINDUSA
100
AcDbLine
 10
1565.319058696608
 20
3772.322997814749
 30
0.0000000001555553
 11
1565.318858012982
 21
3772.323198498376
 31
0.0000000001555553
  0
LINE
  5
1C66
330
1F
100
AcDbEntity
  8
SANINDUSA
100
AcDbLine
 10
1565.319482960677
 20
3772.323422078818
 30
0.0000000001555553
 11
1565.313361640333
 21
3772.329543399161
 31
0.0000000001555553
  0
LINE
  5
1C67
330
1F
100
AcDbEntity
  8
SANINDUSA
100
AcDbLine
 10
1565.318504459592
 20
3772.323905605143
 30
0.0000000001555553
 11
1565.314191108221
 21
3772.328218956525
 31
0.0000000001555553
  0
ARC
  5
1C68
330
1F
100
AcDbEntity
  8
SANINDUSA
100
AcDbCircle
 10
1565.308568747115
 20
3772.322007865255
 30
0.0000000001555553
 40
0.001
100
AcDbArc
 50
180.0
 51
270.0
  0
ARC
  5
1C69
330
1F
100
AcDbEntity
  8
SANINDUSA
100
AcDbCircle
 10
1565.313588551017
 20
3772.321357865255
 30
0.0000000001555553
 40
0.00075
100
AcDbArc
 50
227.1665719349698
 51
270.0
  0
ARC
  5
1C6A
330
1F
100
AcDbEntity
  8
SANINDUSA
100
AcDbCircle
 10
1565.312568747114
 20
3772.320257865255
 30
0.0000000001555553
 40
0.00075
100
AcDbArc
 50
47.16657193496977
 51
90.0
  0
LINE
  5
1C6B
330
1F
100
AcDbEntity
  8
SANINDUSA
100
AcDbLine
 10
1565.308568747115
 20
3772.321007865256
 30
0.0000000001555553
 11
1565.312568747114
 21
3772.321007865256
 31
0.0000000001555553
  0
ARC
  5
1C6C
330
1F
100
AcDbEntity
  8
SANINDUSA
100
AcDbCircle
 10
1565.316772047979
 20
3772.322597457615
 30
0.0000000001555553
 40
0.00075
100
AcDbArc
 50
225.0
 51
315.0
  0
ARC
  5
1C6D
330
1F
100
AcDbEntity
  8
SANINDUSA
100
AcDbCircle
 10
1565.316772047979
 20
3772.322597457615
 30
0.0000000001555553
 40
0.0005
100
AcDbArc
 50
225.0
 51
315.0
  0
LINE
  5
1C6E
330
1F
100
AcDbEntity
  8
SANINDUSA
100
AcDbLine
 10
1565.307568747115
 20
3772.320007865256
 30
0.0000000001555553
 11
1565.318068747115
 21
3772.320007865256
 31
0.0000000001555553
  0
LINE
  5
1C6F
330
1F
100
AcDbEntity
  8
SANINDUSA
100
AcDbLine
 10
1565.313588551017
 20
3772.320607865256
 30
0.0000000001555553
 11
1565.318068747115
 21
3772.320607865256
 31
0.0000000001555553
  0
ARC
  5
1C70
330
1F
100
AcDbEntity
  8
SANINDUSA
100
AcDbCircle
 10
1565.318068747115
 20
3772.322007865255
 30
0.0000000001555553
 40
0.002
100
AcDbArc
 50
270.0
 51
45.0
  0
LINE
  5
1C71
330
1F
100
AcDbEntity
  8
SANINDUSA
100
AcDbLine
 10
1565.316241717893
 20
3772.322067127529
 30
0.0000000001555553
 11
1565.312352630592
 21
3772.325956214833
 31
0.0000000001555553
  0
ARC
  5
1C72
330
1F
100
AcDbEntity
  8
SANINDUSA
100
AcDbCircle
 10
1565.318068747115
 20
3772.322007865255
 30
0.0000000001555553
 40
0.0014
100
AcDbArc
 50
270.0
 51
45.0
  0
LINE
  5
1C73
330
1F
100
AcDbEntity
  8
SANINDUSA
100
AcDbLine
 10
1565.319070145017
 20
3772.323834894478
 30
0.0000000001555553
 11
1565.317302378066
 21
3772.32206712753
 31
0.0000000001555553
  0
LINE
  5
1C74
330
1F
100
AcDbEntity
  8
SANINDUSA
100
AcDbLine
 10
1565.307568747115
 20
3772.329007865256
 30
0.0000000001555553
 11
1565.307568747115
 21
3772.322007865255
 31
0.0000000001555553
  0
LINE
  5
1C75
330
1F
100
AcDbEntity
  8
SANINDUSA
100
AcDbLine
 10
1565.316418494589
 20
3772.322243904225
 30
0.0000000001555553
 11
1565.312529407287
 21
3772.326132991528
 31
0.0000000001555553
  0
LINE
  5
1C76
330
1F
100
AcDbEntity
  8
SANINDUSA
100
AcDbLine
 10
1565.318504459591
 20
3772.323622762431
 30
0.0000000001555553
 11
1565.31712560137
 21
3772.322243904225
 31
0.0000000001555553
  0
LINE
  5
1C77
330
1F
100
AcDbEntity
  8
SANINDUSA
100
AcDbLine
 10
1565.307568747115
 20
3772.331007865255
 30
0.0000000001555553
 11
1565.305026346285
 21
3772.331007865255
 31
0.0000000001555553
  0
LINE
  5
1C78
330
1F
100
AcDbEntity
  8
SANINDUSA
100
AcDbLine
 10
1565.307568747115
 20
3772.320007865256
 30
0.0000000001555553
 11
1565.305026346285
 21
3772.320007865256
 31
0.0000000001555553
  0
LINE
  5
1C79
330
1F
100
AcDbEntity
  8
SANINDUSA
100
AcDbLine
 10
1565.370027902656
 20
3772.310281366211
 30
0.0
 11
1565.370027902656
 21
3772.334207861446
 31
0.0
  0
LINE
  5
1C7A
330
1F
100
AcDbEntity
  8
SANINDUSA
100
AcDbLine
 10
1565.370027902656
 20
3772.310281366211
 30
0.0
 11
1565.369029021743
 21
3772.310281366211
 31
0.0
  0
LINE
  5
1C7B
330
1F
100
AcDbEntity
  8
SANINDUSA
100
AcDbLine
 10
1565.369027902655
 20
3772.334207861446
 30
0.0
 11
1565.370027902656
 21
3772.334207861446
 31
0.0
  0
ARC
  5
1C7C
330
1F
100
AcDbEntity
  8
SANINDUSA
100
AcDbCircle
 10
1565.369029021743
 20
3772.31128136621
 30
0.0
 40
0.0009999999999999
100
AcDbArc
 50
180.5340991171852
 51
270.0
  0
ARC
  5
1C7D
330
1F
100
AcDbEntity
  8
SANINDUSA
100
AcDbCircle
 10
1565.369027902655
 20
3772.333207861446
 30
0.0
 40
0.0009999999999999
100
AcDbArc
 50
90.0
 51
180.0
  0
LINE
  5
1C7E
330
1F
100
AcDbEntity
  8
SANINDUSA
100
AcDbLine
 10
1565.368029065191
 20
3772.311272044558
 30
0.0
 11
1565.36802227553
 21
3772.312000388045
 31
0.0
  0
LINE
  5
1C7F
330
1F
100
AcDbEntity
  8
SANINDUSA
100
AcDbLine
 10
1565.368027902655
 20
3772.332222075009
 30
0.0
 11
1565.368027902655
 21
3772.333207861446
 31
0.0
  0
ARC
  5
1C80
330
1F
100
AcDbEntity
  8
SANINDUSA
100
AcDbCircle
 10
1565.366672334184
 20
3772.311987803814
 30
0.0
 40
0.00135
100
AcDbArc
 50
0.5340991171852499
 51
45.08930405259832
  0
ARC
  5
1C81
330
1F
100
AcDbEntity
  8
SANINDUSA
100
AcDbCircle
 10
1565.366677902655
 20
3772.332222075009
 30
0.0
 40
0.0013499999999998
100
AcDbArc
 50
315.0
 51
0.0
  0
LINE
  5
1C82
330
1F
100
AcDbEntity
  8
SANINDUSA
100
AcDbLine
 10
1565.367625439302
 20
3772.312943884685
 30
0.0
 11
1565.366719000191
 21
3772.313847502549
 31
0.0
  0
LINE
  5
1C83
330
1F
100
AcDbEntity
  8
SANINDUSA
100
AcDbLine
 10
1565.366718283248
 20
3772.330353267292
 30
0.0
 11
1565.36763249681
 21
3772.331267480853
 31
0.0
  0
ARC
  5
1C84
330
1F
100
AcDbEntity
  8
SANINDUSA
100
AcDbCircle
 10
1565.367177902655
 20
3772.314307837785
 30
0.0
 40
0.0006500000000003
100
AcDbArc
 50
180.0
 51
225.0893040525983
  0
ARC
  5
1C85
330
1F
100
AcDbEntity
  8
SANINDUSA
100
AcDbCircle
 10
1565.367177902655
 20
3772.329893647884
 30
0.0
 40
0.0006500000000003
100
AcDbArc
 50
135.0
 51
180.0
  0
LINE
  5
1C86
330
1F
100
AcDbEntity
  8
SANINDUSA
100
AcDbLine
 10
1565.366527902656
 20
3772.314307837785
 30
0.0
 11
1565.366527902656
 21
3772.329893647884
 31
0.0
  0
HATCH
  5
1C87
330
1F
100
AcDbEntity
  8
SANINDUSA
100
AcDbHatch
 10
0.0
 20
0.0
 30
0.0000000001555553
210
0.0
220
0.0
230
1.0
  2
ANSI31
 70
     0
 71
     0
 91
        1
 92
        1
 93
        8
 72
     1
 10
1565.316147840316
 20
3772.330812084723
 11
1565.316854947097
 21
3772.331519191504
 72
     1
 10
1565.316854947097
 20
3772.331519191504
 11
1565.321804694566
 21
3772.326569444036
 72
     1
 10
1565.321804694566
 20
3772.326569444036
 11
1565.321097587784
 21
3772.325862337254
 72
     1
 10
1565.321097587784
 20
3772.325862337254
 11
1565.320390481003
 21
3772.326569444036
 72
     1
 10
1565.320390481003
 20
3772.326569444036
 11
1565.319329820831
 21
3772.325508783864
 72
     1
 10
1565.319329820831
 20
3772.325508783864
 11
1565.315794286926
 21
3772.32904431777
 72
     1
 10
1565.315794286926
 20
3772.32904431777
 11
1565.316854947097
 21
3772.330104977942
 72
     1
 10
1565.316854947097
 20
3772.330104977942
 11
1565.316147840316
 21
3772.330812084723
 97
        0
 75
     0
 76
     1
 52
0.0
 41
0.00025
 77
     0
 78
     1
 53
179.999999999987
 43
1565.321793364507
 44
3772.331507861446
 45
0.0000000000000002
 46
0.00079375
 79
     0
 98
        1
 10
1565.321793364507
 20
3772.331507861446
  0
LINE
  5
1C8A
330
1F
100
AcDbEntity
  8
SANINDUSA
  6
Continuous
100
AcDbLine
 10
1564.210210714932
 20
3772.328507861446
 30
-0.000000000240302
 11
1564.703068707905
 21
3772.328507861446
 31
0.0000000002002489
  0
LINE
  5
1CE0
330
1F
100
AcDbEntity
  8
SANINDUSA
  6
Continuous
100
AcDbLine
 10
1564.210210714932
 20
3772.322507861446
 30
0.0000000001350088
 11
1564.703068707905
 21
3772.322507861446
 31
0.0000000001578752
  0
LINE
  5
1ED4
330
1F
100
AcDbEntity
  8
SANINDUSA
100
AcDbLine
 10
1564.636568707905
 20
3772.329907861446
 30
0.0000000001555554
 11
1564.636568707905
 21
3772.333907861446
 31
0.0000000001555554
  0
ARC
  5
1ED5
330
1F
100
AcDbEntity
  8
SANINDUSA
100
AcDbCircle
 10
1564.637568707905
 20
3772.333907861446
 30
0.0000000001555554
 40
0.001
100
AcDbArc
 50
90.0
 51
180.0
  0
LINE
  5
1ED6
330
1F
100
AcDbEntity
  8
SANINDUSA
100
AcDbLine
 10
1564.636568707905
 20
3772.322207861446
 30
0.0000000001555554
 11
1564.636568707905
 21
3772.321207861446
 31
0.0000000001555554
1001
GENIUS_GENREC_14
1002
{
1000
PYDIR
1011
1564.772568707905
1021
3772.322207861446
1031
0.0000000001555554
1002
}
1002
{
1000
PXDIR
1011
1564.719568707906
1021
3772.321207861446
1031
0.0000000001555554
1002
}
1002
{
1000
PORI
1011
1564.772568707905
1021
3772.321207861446
1031
0.0000000001555554
1002
}
1002
{
1000
PINS
1011
1564.772568707905
1021
3772.321207861446
1031
0.0000000001555554
1002
}
1002
{
1000
PINS2
1011
1564.719568707906
1021
3772.322207861446
1031
0.0000000001555554
1002
}
1002
{
1000
C
1070
     1
1002
}
1001
GENIUS_GENODEF_13
1002
{
1000
HIER
1070
     0
1002
}
1002
{
1000
MANEDIT
1070
     0
1002
}
1002
{
1000
NOSEL
1070
     0
1002
}
1002
{
1000
BEHIND
1070
     0
1002
}
1002
{
1000
REACTOR
1002
}
1001
GENIUS_GENOBJ-N-REC_13
1002
{
1000
OWNER
1000
GEN
1002
}
  0
ARC
  5
1ED7
330
1F
100
AcDbEntity
  8
SANINDUSA
100
AcDbCircle
 10
1564.637568707905
 20
3772.312107809152
 30
0.0000000001555554
 40
0.001
100
AcDbArc
 50
180.0
 51
270.0
  0
LINE
  5
1ED8
330
1F
100
AcDbEntity
  8
SANINDUSA
100
AcDbLine
 10
1564.636568707905
 20
3772.321107809152
 30
0.0000000001555554
 11
1564.636568707905
 21
3772.312107809152
 31
0.0000000001555554
  0
LINE
  5
1ED9
330
1F
100
AcDbEntity
  8
SANINDUSA
100
AcDbLine
 10
1564.689568707906
 20
3772.329907861446
 30
0.0000000001555554
 11
1564.689568707906
 21
3772.333907861446
 31
0.0000000001555554
  0
ARC
  5
1EDA
330
1F
100
AcDbEntity
  8
SANINDUSA
100
AcDbCircle
 10
1564.688568707906
 20
3772.333907861446
 30
0.0000000001555554
 40
0.001
100
AcDbArc
 50
0.0
 51
90.0
  0
LINE
  5
1EDB
330
1F
100
AcDbEntity
  8
SANINDUSA
100
AcDbLine
 10
1564.689568707906
 20
3772.321207861446
 30
0.0000000001555554
 11
1564.689568707906
 21
3772.322207861446
 31
0.0000000001555554
1001
GENIUS_GENREC_14
1002
{
1000
PYDIR
1011
1564.772568707905
1021
3772.322207861446
1031
0.0000000001555554
1002
}
1002
{
1000
PXDIR
1011
1564.719568707906
1021
3772.321207861446
1031
0.0000000001555554
1002
}
1002
{
1000
PORI
1011
1564.772568707905
1021
3772.321207861446
1031
0.0000000001555554
1002
}
1002
{
1000
PINS
1011
1564.772568707905
1021
3772.321207861446
1031
0.0000000001555554
1002
}
1002
{
1000
PINS2
1011
1564.719568707906
1021
3772.322207861446
1031
0.0000000001555554
1002
}
1002
{
1000
C
1070
     1
1002
}
1001
GENIUS_GENODEF_13
1002
{
1000
HIER
1070
     0
1002
}
1002
{
1000
MANEDIT
1070
     0
1002
}
1002
{
1000
NOSEL
1070
     0
1002
}
1002
{
1000
BEHIND
1070
     0
1002
}
1002
{
1000
REACTOR
1002
}
1001
GENIUS_GENOBJ-N-REC_13
1002
{
1000
OWNER
1000
GEN
1002
}
  0
LINE
  5
1EDC
330
1F
100
AcDbEntity
  8
SANINDUSA
100
AcDbLine
 10
1564.689568707906
 20
3772.319107809153
 30
0.0000000001555554
 11
1564.689568707905
 21
3772.321107809152
 31
0.0000000001555554
  0
LINE
  5
1EDD
330
1F
100
AcDbEntity
  8
SANINDUSA
100
AcDbLine
 10
1564.695679819016
 20
3772.311107809152
 30
0.0000000001555554
 11
1564.695679819016
 21
3772.319107809153
 31
0.0000000001555554
  0
LINE
  5
1EDE
330
1F
100
AcDbEntity
  8
SANINDUSA
100
AcDbLine
 10
1564.637568707905
 20
3772.311107809152
 30
0.0000000001555554
 11
1564.696568707906
 21
3772.311107809152
 31
0.0000000001555554
  0
LINE
  5
1EDF
330
1F
100
AcDbEntity
  8
SANINDUSA
100
AcDbLine
 10
1564.689568707906
 20
3772.329907861446
 30
0.0000000001555554
 11
1564.636568707905
 21
3772.329907861446
 31
0.0000000001555554
  0
LINE
  5
1EE0
330
1F
100
AcDbEntity
  8
SANINDUSA
100
AcDbLine
 10
1564.689568707905
 20
3772.321107809152
 30
0.0000000001555554
 11
1564.636568707905
 21
3772.321107809152
 31
0.0000000001555554
  0
LWPOLYLINE
  5
1EE1
330
1F
100
AcDbEntity
  8
SANINDUSA
100
AcDbPolyline
 90
        4
 70
     1
 43
0.0
 38
0.0000000001555553
 10
1564.636568707905
 20
3772.329707861446
 10
1564.689568707906
 20
3772.329707861446
 10
1564.689568707906
 20
3772.328707861446
 10
1564.636568707905
 20
3772.328707861446
1001
GENIUS_GENREC_14
1002
{
1000
PYDIR
1011
1564.772568707905
1021
3772.116597914175
1031
0.0000000001555554
1002
}
1002
{
1000
PXDIR
1011
1564.719568707906
1021
3772.115597914174
1031
0.0000000001555554
1002
}
1002
{
1000
PORI
1011
1564.772568707905
1021
3772.115597914174
1031
0.0000000001555554
1002
}
1002
{
1000
PINS
1011
1564.772568707905
1021
3772.115597914174
1031
0.0000000001555554
1002
}
1002
{
1000
PINS2
1011
1564.719568707906
1021
3772.116597914175
1031
0.0000000001555554
1002
}
1002
{
1000
C
1070
     1
1002
}
1001
GENIUS_GENODEF_13
1002
{
1000
HIER
1070
     0
1002
}
1002
{
1000
MANEDIT
1070
     0
1002
}
1002
{
1000
NOSEL
1070
     0
1002
}
1002
{
1000
BEHIND
1070
     0
1002
}
1002
{
1000
REACTOR
1002
}
1001
GENIUS_GENOBJ-N-REC_13
1002
{
1000
OWNER
1000
GEN
1002
}
  0
LWPOLYLINE
  5
1EE2
330
1F
100
AcDbEntity
  8
SANINDUSA
100
AcDbPolyline
 90
        2
 70
     0
 43
0.0
 38
0.0000000001555553
 10
1564.636568707905
 20
3772.321207861446
 10
1564.689568707906
 20
3772.321207861446
1001
GENIUS_GENREC_14
1002
{
1000
PYDIR
1011
1564.772568707905
1021
3772.116297914175
1031
0.0000000001555554
1002
}
1002
{
1000
PXDIR
1011
1564.719568707906
1021
3772.115297914174
1031
0.0000000001555554
1002
}
1002
{
1000
PORI
1011
1564.772568707905
1021
3772.115297914174
1031
0.0000000001555554
1002
}
1002
{
1000
PINS
1011
1564.772568707905
1021
3772.115297914174
1031
0.0000000001555554
1002
}
1002
{
1000
PINS2
1011
1564.719568707906
1021
3772.116297914175
1031
0.0000000001555554
1002
}
1002
{
1000
C
1070
     1
1002
}
1001
GENIUS_GENODEF_13
1002
{
1000
HIER
1070
     0
1002
}
1002
{
1000
MANEDIT
1070
     0
1002
}
1002
{
1000
NOSEL
1070
     0
1002
}
1002
{
1000
BEHIND
1070
     0
1002
}
1002
{
1000
REACTOR
1002
}
1001
GENIUS_GENOBJ-N-REC_13
1002
{
1000
OWNER
1000
GEN
1002
}
  0
LWPOLYLINE
  5
1EE3
330
1F
100
AcDbEntity
  8
SANINDUSA
100
AcDbPolyline
 90
        2
 70
     0
 43
0.0
 38
0.0000000001555553
 10
1564.689568707906
 20
3772.322207861446
 10
1564.636568707905
 20
3772.322207861446
1001
GENIUS_GENREC_14
1002
{
1000
PYDIR
1011
1564.772568707905
1021
3772.116297914175
1031
0.0000000001555554
1002
}
1002
{
1000
PXDIR
1011
1564.719568707906
1021
3772.115297914174
1031
0.0000000001555554
1002
}
1002
{
1000
PORI
1011
1564.772568707905
1021
3772.115297914174
1031
0.0000000001555554
1002
}
1002
{
1000
PINS
1011
1564.772568707905
1021
3772.115297914174
1031
0.0000000001555554
1002
}
1002
{
1000
PINS2
1011
1564.719568707906
1021
3772.116297914175
1031
0.0000000001555554
1002
}
1002
{
1000
C
1070
     1
1002
}
1001
GENIUS_GENODEF_13
1002
{
1000
HIER
1070
     0
1002
}
1002
{
1000
MANEDIT
1070
     0
1002
}
1002
{
1000
NOSEL
1070
     0
1002
}
1002
{
1000
BEHIND
1070
     0
1002
}
1002
{
1000
REACTOR
1002
}
1001
GENIUS_GENOBJ-N-REC_13
1002
{
1000
OWNER
1000
GEN
1002
}
  0
LINE
  5
1EE4
330
1F
100
AcDbEntity
  8
SANINDUSA
100
AcDbLine
 10
1564.637568707905
 20
3772.334907861445
 30
0.0000000001555554
 11
1564.688568707906
 21
3772.334907861445
 31
0.0000000001555554
  0
LINE
  5
1EE5
330
1F
100
AcDbEntity
  8
SANINDUSA
100
AcDbLine
 10
1564.703068707905
 20
3772.328507861446
 30
0.0000000001555554
 11
1564.703068707905
 21
3772.322507861446
 31
0.0000000001555554
1001
GENIUS_GENREC_14
1002
{
1000
PYDIR
1011
1564.856068707906
1021
3772.322307861446
1031
0.0000000001555554
1002
}
1002
{
1000
PXDIR
1011
1564.706068707906
1021
3772.328307861446
1031
0.0000000001555554
1002
}
1002
{
1000
PORI
1011
1564.856068707906
1021
3772.328307861446
1031
0.0000000001555554
1002
}
1002
{
1000
PINS
1011
1564.856068707906
1021
3772.328307861446
1031
0.0000000001555554
1002
}
1002
{
1000
PINS2
1011
1564.706068707906
1021
3772.322507861446
1031
0.0000000001555554
1002
}
1002
{
1000
C
1070
     1
1002
}
1001
GENIUS_GENODEF_13
1002
{
1000
HIER
1070
     0
1002
}
1002
{
1000
MANEDIT
1070
     0
1002
}
1002
{
1000
NOSEL
1070
     0
1002
}
1002
{
1000
BEHIND
1070
     0
1002
}
1002
{
1000
REACTOR
1002
}
1001
GENIUS_GENOBJ-N-REC_13
1002
{
1000
OWNER
1000
GEN
1002
}
  0
ARC
  5
1EE6
330
1F
100
AcDbEntity
  8
SANINDUSA
100
AcDbCircle
 10
1564.707267385794
 20
3772.329207164066
 30
0.0000000001555553
 40
0.0005
100
AcDbArc
 50
350.6591659056432
 51
80.65916589067391
  0
LINE
  5
1EE7
330
1F
100
AcDbEntity
  8
SANINDUSA
100
AcDbLine
 10
1564.709200289604
 20
3772.328635864789
 30
0.0000000001555553
 11
1564.70924086638
 21
3772.328882549863
 31
0.0000000001555553
  0
LINE
  5
1EE8
330
1F
100
AcDbEntity
  8
SANINDUSA
100
AcDbLine
 10
1564.707760755941
 20
3772.329126010515
 30
0.0000000001555553
 11
1564.707720179165
 21
3772.328879325442
 31
0.0000000001555553
  0
ARC
  5
1EE9
330
1F
100
AcDbEntity
  8
SANINDUSA
100
AcDbCircle
 10
1564.709710230835
 20
3772.32876057425
 30
0.0000000001555553
 40
0.0005
100
AcDbArc
 50
80.65916589067391
 51
180.136553574223
  0
LINE
  5
1EEA
330
1F
100
AcDbEntity
  8
SANINDUSA
100
AcDbLine
 10
1564.70591392983
 20
3772.331107865256
 30
0.0000000001555553
 11
1564.704920847252
 21
3772.331107865256
 31
0.0000000001555553
  0
LINE
  5
1EEB
330
1F
100
AcDbEntity
  8
SANINDUSA
100
AcDbLine
 10
1564.706766092166
 20
3772.329796339881
 30
0.0000000001555553
 11
1564.707348539346
 21
3772.329700534213
 31
0.0000000001555553
  0
ARC
  5
1EEC
330
1F
100
AcDbEntity
  8
SANINDUSA
100
AcDbCircle
 10
1564.706668707906
 20
3772.329204295706
 30
0.0000000001555553
 40
0.0006
100
AcDbArc
 50
80.65916589067391
 51
180.0
  0
ARC
  5
1EED
330
1F
100
AcDbEntity
  8
SANINDUSA
100
AcDbCircle
 10
1564.711768125585
 20
3772.329536856594
 30
0.0000000001555553
 40
0.0006000000000005
100
AcDbArc
 50
260.6591658906739
 51
308.8488509952146
  0
ARC
  5
1EEE
330
1F
100
AcDbEntity
  8
SANINDUSA
100
AcDbCircle
 10
1564.712520847252
 20
3772.328602292475
 30
0.0000000001555553
 40
0.0006
100
AcDbArc
 50
80.65916589067391
 51
128.8488509952145
  0
LINE
  5
1EEF
330
1F
100
AcDbEntity
  8
SANINDUSA
100
AcDbLine
 10
1564.709791384385
 20
3772.329253944396
 30
0.0000000001555553
 11
1564.711670741324
 21
3772.328944812418
 31
0.0000000001555553
  0
ARC
  5
1EF0
330
1F
100
AcDbEntity
  8
SANINDUSA
100
AcDbCircle
 10
1564.707267385794
 20
3772.321808566445
 30
0.0000000001555553
 40
0.0005
100
AcDbArc
 50
279.3408341093261
 51
9.340834094356807
  0
LINE
  5
1EF1
330
1F
100
AcDbEntity
  8
SANINDUSA
100
AcDbLine
 10
1564.707348539346
 20
3772.321315196299
 30
0.0000000001555553
 11
1564.706766092166
 21
3772.32121939063
 31
0.0000000001555553
  0
ARC
  5
1EF2
330
1F
100
AcDbEntity
  8
SANINDUSA
100
AcDbCircle
 10
1564.706668707906
 20
3772.321811434805
 30
0.0000000001555553
 40
0.0006
100
AcDbArc
 50
180.0
 51
279.3408341093261
  0
LINE
  5
1EF3
330
1F
100
AcDbEntity
  8
SANINDUSA
100
AcDbLine
 10
1564.707720179165
 20
3772.322136405069
 30
0.0000000001555553
 11
1564.707760755941
 21
3772.321889719996
 31
0.0000000001555553
  0
ARC
  5
1EF4
330
1F
100
AcDbEntity
  8
SANINDUSA
100
AcDbCircle
 10
1564.708460234385
 20
3772.322258135395
 30
0.0000000001555553
 40
0.00075
100
AcDbArc
 50
9.340834094356807
 51
189.3408340943568
  0
LINE
  5
1EF5
330
1F
100
AcDbEntity
  8
SANINDUSA
100
AcDbLine
 10
1564.709233696128
 20
3772.322176771941
 30
0.0000000001555553
 11
1564.709200289604
 21
3772.322379865722
 31
0.0000000001555553
  0
ARC
  5
1EF6
330
1F
100
AcDbEntity
  8
SANINDUSA
100
AcDbCircle
 10
1564.709727066274
 20
3772.322257925492
 30
0.0000000001555553
 40
0.0005
100
AcDbArc
 50
189.3408340943568
 51
279.3408341093261
  0
LINE
  5
1EF7
330
1F
100
AcDbEntity
  8
SANINDUSA
100
AcDbLine
 10
1564.70591392983
 20
3772.319907865255
 30
0.0000000001555553
 11
1564.704920847252
 21
3772.319907865255
 31
0.0000000001555553
  0
ARC
  5
1EF8
330
1F
100
AcDbEntity
  8
SANINDUSA
100
AcDbCircle
 10
1564.711768125585
 20
3772.321478873917
 30
0.0000000001555553
 40
0.0006000000000005
100
AcDbArc
 50
51.15114900478545
 51
99.34083410932609
  0
ARC
  5
1EF9
330
1F
100
AcDbEntity
  8
SANINDUSA
100
AcDbCircle
 10
1564.712942606195
 20
3772.322677380777
 30
0.0000000001555553
 40
0.000175
100
AcDbArc
 50
82.00000000008254
 51
262.0000000000825
  0
ARC
  5
1EFA
330
1F
100
AcDbEntity
  8
SANINDUSA
100
AcDbCircle
 10
1564.712520847252
 20
3772.322413438036
 30
0.0000000001555553
 40
0.0006
100
AcDbArc
 50
231.1511490047855
 51
279.3408341093261
  0
LINE
  5
1EFB
330
1F
100
AcDbEntity
  8
SANINDUSA
100
AcDbLine
 10
1564.711670741324
 20
3772.322070918092
 30
0.0000000001555553
 11
1564.709808219825
 21
3772.321764555345
 31
0.0000000001555553
  0
LINE
  5
1EFC
330
1F
100
AcDbEntity
  8
SANINDUSA
  6
Continuous
100
AcDbLine
 10
1564.706068707906
 20
3772.328507865255
 30
0.0000000001555553
 11
1564.706068707906
 21
3772.322507865256
 31
0.0000000001555553
  0
LINE
  5
1EFD
330
1F
100
AcDbEntity
  8
SANINDUSA
100
AcDbLine
 10
1564.704920847252
 20
3772.319907865255
 30
0.0000000001555553
 11
1564.704920847252
 21
3772.331107865256
 31
0.0000000001555553
  0
LINE
  5
1EFE
330
1F
100
AcDbEntity
  8
SANINDUSA
100
AcDbLine
 10
1564.706068707906
 20
3772.321811434805
 30
0.0000000001555553
 11
1564.706068707906
 21
3772.329204295706
 31
0.0000000001555553
  0
ARC
  5
1EFF
330
1F
100
AcDbEntity
  8
SANINDUSA
100
AcDbCircle
 10
1564.708460234385
 20
3772.328757595116
 30
0.0000000001555553
 40
0.00075
100
AcDbArc
 50
170.6591659056432
 51
0.1365535742230598
  0
ARC
  5
1F00
330
1F
100
AcDbEntity
  8
SANINDUSA
100
AcDbCircle
 10
1564.712942606195
 20
3772.328338349734
 30
0.0000000001555553
 40
0.000175
100
AcDbArc
 50
97.99999999991747
 51
277.9999999999175
  0
ARC
  5
1F01
330
1F
100
AcDbEntity
  8
SANINDUSA
100
AcDbCircle
 10
1564.715320847252
 20
3772.328141725608
 30
0.0000000001555553
 40
0.0005999999999989
100
AcDbArc
 50
32.46948079364152
 51
75.89910818797152
  0
ARC
  5
1F02
330
1F
100
AcDbEntity
  8
SANINDUSA
100
AcDbCircle
 10
1564.715026070336
 20
3772.328959355485
 30
0.0000000001555553
 40
0.0005
100
AcDbArc
 50
277.9999999999175
 51
331.8736260327467
  0
ARC
  5
1F03
330
1F
100
AcDbEntity
  8
SANINDUSA
100
AcDbCircle
 10
1564.715026070336
 20
3772.322056375026
 30
0.0000000001555553
 40
0.0004999999999883
100
AcDbArc
 50
28.12637396725337
 51
82.00000000008254
  0
ARC
  5
1F04
330
1F
100
AcDbEntity
  8
SANINDUSA
100
AcDbCircle
 10
1564.715320847252
 20
3772.322874004903
 30
0.0000000001555553
 40
0.0006000000000005
100
AcDbArc
 50
284.1008918120285
 51
327.5305192063584
  0
LINE
  5
1F05
330
1F
100
AcDbEntity
  8
SANINDUSA
100
AcDbLine
 10
1564.714994579257
 20
3772.328803455567
 30
0.0000000001555553
 11
1564.712918250902
 21
3772.328511646646
 31
0.0000000001555553
  0
LINE
  5
1F06
330
1F
100
AcDbEntity
  8
SANINDUSA
100
AcDbLine
 10
1564.712618231513
 20
3772.329194336651
 30
0.0000000001555553
 11
1564.714994579257
 21
3772.328803455567
 31
0.0000000001555553
  0
LINE
  5
1F07
330
1F
100
AcDbEntity
  8
SANINDUSA
100
AcDbLine
 10
1564.714994579257
 20
3772.322212274945
 30
0.0000000001555553
 11
1564.712618231513
 21
3772.32182139386
 31
0.0000000001555553
  0
LINE
  5
1F08
330
1F
100
AcDbEntity
  8
SANINDUSA
100
AcDbLine
 10
1564.712918250902
 20
3772.322504083865
 30
0.0000000001555553
 11
1564.714994579257
 21
3772.322212274945
 31
0.0000000001555553
  0
LINE
  5
1F09
330
1F
100
AcDbEntity
  8
SANINDUSA
100
AcDbLine
 10
1564.715095656887
 20
3772.322551509061
 30
0.0000000001555553
 11
1564.712966961487
 21
3772.322850677689
 31
0.0000000001555553
  0
LINE
  5
1F0A
330
1F
100
AcDbEntity
  8
SANINDUSA
100
AcDbLine
 10
1564.712966961487
 20
3772.328165052822
 30
0.0000000001555553
 11
1564.715095656887
 21
3772.32846422145
 31
0.0000000001555553
  0
LINE
  5
1F0B
330
1F
100
AcDbEntity
  8
SANINDUSA
100
AcDbLine
 10
1564.717920847252
 20
3772.323098986559
 30
0.0000000001555553
 11
1564.71623587602
 21
3772.322821828729
 31
0.0000000001555553
  0
LINE
  5
1F0C
330
1F
100
AcDbEntity
  8
SANINDUSA
100
AcDbLine
 10
1564.71623587602
 20
3772.328193901782
 30
0.0000000001555553
 11
1564.717920847252
 21
3772.327916743953
 31
0.0000000001555553
  0
LINE
  5
1F0D
330
1F
100
AcDbEntity
  8
SANINDUSA
100
AcDbLine
 10
1564.719568707906
 20
3772.329907861446
 30
0.0000000001555554
 11
1564.719568707906
 21
3772.333907861446
 31
0.0000000001555554
  0
ARC
  5
1F0E
330
1F
100
AcDbEntity
  8
SANINDUSA
100
AcDbCircle
 10
1564.717320847251
 20
3772.328623499587
 30
0.0000000001555553
 40
0.0006
100
AcDbArc
 50
0.0
 51
80.65916589067391
  0
ARC
  5
1F0F
330
1F
100
AcDbEntity
  8
SANINDUSA
100
AcDbCircle
 10
1564.720568707905
 20
3772.333907861446
 30
0.0000000001555554
 40
0.001
100
AcDbArc
 50
90.0
 51
180.0
  0
LINE
  5
1F10
330
1F
100
AcDbEntity
  8
SANINDUSA
100
AcDbLine
 10
1564.719568707906
 20
3772.321307861446
 30
0.0000000001555554
 11
1564.719568707906
 21
3772.322307861446
 31
0.0000000001555554
1001
GENIUS_GENREC_14
1002
{
1000
PYDIR
1011
1564.772568707905
1021
3772.322307861446
1031
0.0000000001555554
1002
}
1002
{
1000
PXDIR
1011
1564.719568707906
1021
3772.321307861446
1031
0.0000000001555554
1002
}
1002
{
1000
PORI
1011
1564.772568707905
1021
3772.321307861446
1031
0.0000000001555554
1002
}
1002
{
1000
PINS
1011
1564.772568707905
1021
3772.321307861446
1031
0.0000000001555554
1002
}
1002
{
1000
PINS2
1011
1564.719568707906
1021
3772.322307861446
1031
0.0000000001555554
1002
}
1002
{
1000
C
1070
     1
1002
}
1001
GENIUS_GENODEF_13
1002
{
1000
HIER
1070
     0
1002
}
1002
{
1000
MANEDIT
1070
     0
1002
}
1002
{
1000
NOSEL
1070
     0
1002
}
1002
{
1000
BEHIND
1070
     0
1002
}
1002
{
1000
REACTOR
1002
}
1001
GENIUS_GENOBJ-N-REC_13
1002
{
1000
OWNER
1000
GEN
1002
}
  0
LINE
  5
1F11
330
1F
100
AcDbEntity
  8
SANINDUSA
100
AcDbLine
 10
1564.719568707906
 20
3772.321107861446
 30
0.0000000001555554
 11
1564.719568707906
 21
3772.319107861446
 31
0.0000000001555554
  0
ARC
  5
1F12
330
1F
100
AcDbEntity
  8
SANINDUSA
100
AcDbCircle
 10
1564.717320847251
 20
3772.322392230924
 30
0.0000000001555553
 40
0.0006
100
AcDbArc
 50
279.3408341093261
 51
0.0
  0
LINE
  5
1F13
330
1F
100
AcDbEntity
  8
SANINDUSA
100
AcDbLine
 10
1564.717920847252
 20
3772.322392230924
 30
0.0000000001555553
 11
1564.717920847252
 21
3772.323098986559
 31
0.0000000001555553
  0
LINE
  5
1F14
330
1F
100
AcDbEntity
  8
SANINDUSA
100
AcDbLine
 10
1564.717920847252
 20
3772.327916743953
 30
0.0000000001555553
 11
1564.717920847252
 21
3772.328623499587
 31
0.0000000001555553
  0
ARC
  5
1F15
330
1F
100
AcDbEntity
  8
SANINDUSA
100
AcDbCircle
 10
1564.716333260281
 20
3772.322229784554
 30
0.0000000001555553
 40
0.0006
100
AcDbArc
 50
99.34083410932609
 51
147.5305192063585
  0
ARC
  5
1F16
330
1F
100
AcDbEntity
  8
SANINDUSA
100
AcDbCircle
 10
1564.716333260281
 20
3772.328785945957
 30
0.0000000001555553
 40
0.0006
100
AcDbArc
 50
212.4694807936415
 51
260.6591658906739
  0
LINE
  5
1F17
330
1F
100
AcDbEntity
  8
SANINDUSA
100
AcDbLine
 10
1564.717418231513
 20
3772.329215543762
 30
0.0000000001555553
 11
1564.70591392983
 21
3772.331107865256
 31
0.0000000001555553
  0
LINE
  5
1F18
330
1F
100
AcDbEntity
  8
SANINDUSA
100
AcDbLine
 10
1564.719568707906
 20
3772.319107861446
 30
0.0000000001555554
 11
1564.704568707905
 21
3772.319107809153
 31
0.0000000001555554
  0
LINE
  5
1F19
330
1F
100
AcDbEntity
  8
SANINDUSA
100
AcDbLine
 10
1564.70591392983
 20
3772.319907865255
 30
0.0000000001555553
 11
1564.717418231513
 21
3772.321800186749
 31
0.0000000001555553
  0
LINE
  5
1F1A
330
1F
100
AcDbEntity
  8
SANINDUSA
100
AcDbLine
 10
1564.713457596794
 20
3772.311107809152
 30
0.0000000001555554
 11
1564.713457596794
 21
3772.319107861446
 31
0.0000000001555554
  0
LINE
  5
1F1B
330
1F
100
AcDbEntity
  8
SANINDUSA
100
AcDbLine
 10
1564.772568707905
 20
3772.329907861446
 30
0.0000000001555554
 11
1564.772568707905
 21
3772.333907861446
 31
0.0000000001555554
  0
ARC
  5
1F1C
330
1F
100
AcDbEntity
  8
SANINDUSA
100
AcDbCircle
 10
1564.771568707906
 20
3772.333907861446
 30
0.0000000001555554
 40
0.001
100
AcDbArc
 50
0.0
 51
90.0
  0
LINE
  5
1F1D
330
1F
100
AcDbEntity
  8
SANINDUSA
100
AcDbLine
 10
1564.772568707905
 20
3772.322307861446
 30
0.0000000001555554
 11
1564.772568707905
 21
3772.321307861446
 31
0.0000000001555554
1001
GENIUS_GENREC_14
1002
{
1000
PYDIR
1011
1564.772568707905
1021
3772.322307861446
1031
0.0000000001555554
1002
}
1002
{
1000
PXDIR
1011
1564.719568707906
1021
3772.321307861446
1031
0.0000000001555554
1002
}
1002
{
1000
PORI
1011
1564.772568707905
1021
3772.321307861446
1031
0.0000000001555554
1002
}
1002
{
1000
PINS
1011
1564.772568707905
1021
3772.321307861446
1031
0.0000000001555554
1002
}
1002
{
1000
PINS2
1011
1564.719568707906
1021
3772.322307861446
1031
0.0000000001555554
1002
}
1002
{
1000
C
1070
     1
1002
}
1001
GENIUS_GENODEF_13
1002
{
1000
HIER
1070
     0
1002
}
1002
{
1000
MANEDIT
1070
     0
1002
}
1002
{
1000
NOSEL
1070
     0
1002
}
1002
{
1000
BEHIND
1070
     0
1002
}
1002
{
1000
REACTOR
1002
}
1001
GENIUS_GENOBJ-N-REC_13
1002
{
1000
OWNER
1000
GEN
1002
}
  0
ARC
  5
1F1E
330
1F
100
AcDbEntity
  8
SANINDUSA
100
AcDbCircle
 10
1564.771568707906
 20
3772.312107809153
 30
0.0000000001555554
 40
0.001
100
AcDbArc
 50
270.0
 51
0.0
  0
LINE
  5
1F1F
330
1F
100
AcDbEntity
  8
SANINDUSA
100
AcDbLine
 10
1564.772568707905
 20
3772.321107861446
 30
0.0000000001555554
 11
1564.772568707905
 21
3772.312107809153
 31
0.0000000001555554
  0
LINE
  5
1F20
330
1F
100
AcDbEntity
  8
SANINDUSA
100
AcDbLine
 10
1564.772568707905
 20
3772.321107861446
 30
0.0000000001555554
 11
1564.719568707906
 21
3772.321107861446
 31
0.0000000001555554
  0
LWPOLYLINE
  5
1F21
330
1F
100
AcDbEntity
  8
SANINDUSA
100
AcDbPolyline
 90
        2
 70
     0
 43
0.0
 38
0.0000000001555553
 10
1564.719568707906
 20
3772.322307861446
 10
1564.772568707905
 20
3772.322307861446
1001
GENIUS_GENREC_14
1002
{
1000
PYDIR
1011
1564.473286450826
1021
3772.415680171253
1031
0.0000000001555554
1002
}
1002
{
1000
PXDIR
1011
1564.420286450826
1021
3772.414680171254
1031
0.0000000001555554
1002
}
1002
{
1000
PORI
1011
1564.473286450826
1021
3772.414680171254
1031
0.0000000001555554
1002
}
1002
{
1000
PINS
1011
1564.473286450826
1021
3772.414680171254
1031
0.0000000001555554
1002
}
1002
{
1000
PINS2
1011
1564.420286450826
1021
3772.415680171253
1031
0.0000000001555554
1002
}
1002
{
1000
C
1070
     1
1002
}
1001
GENIUS_GENODEF_13
1002
{
1000
HIER
1070
     0
1002
}
1002
{
1000
MANEDIT
1070
     0
1002
}
1002
{
1000
NOSEL
1070
     0
1002
}
1002
{
1000
BEHIND
1070
     0
1002
}
1002
{
1000
REACTOR
1002
}
1001
GENIUS_GENOBJ-N-REC_13
1002
{
1000
OWNER
1000
GEN
1002
}
  0
LWPOLYLINE
  5
1F22
330
1F
100
AcDbEntity
  8
SANINDUSA
100
AcDbPolyline
 90
        2
 70
     0
 43
0.0
 38
0.0000000001555553
 10
1564.772568707905
 20
3772.321307861446
 10
1564.719568707906
 20
3772.321307861446
1001
GENIUS_GENREC_14
1002
{
1000
PYDIR
1011
1564.473286450826
1021
3772.415680171253
1031
0.0000000001555554
1002
}
1002
{
1000
PXDIR
1011
1564.420286450826
1021
3772.414680171254
1031
0.0000000001555554
1002
}
1002
{
1000
PORI
1011
1564.473286450826
1021
3772.414680171254
1031
0.0000000001555554
1002
}
1002
{
1000
PINS
1011
1564.473286450826
1021
3772.414680171254
1031
0.0000000001555554
1002
}
1002
{
1000
PINS2
1011
1564.420286450826
1021
3772.415680171253
1031
0.0000000001555554
1002
}
1002
{
1000
C
1070
     1
1002
}
1001
GENIUS_GENODEF_13
1002
{
1000
HIER
1070
     0
1002
}
1002
{
1000
MANEDIT
1070
     0
1002
}
1002
{
1000
NOSEL
1070
     0
1002
}
1002
{
1000
BEHIND
1070
     0
1002
}
1002
{
1000
REACTOR
1002
}
1001
GENIUS_GENOBJ-N-REC_13
1002
{
1000
OWNER
1000
GEN
1002
}
  0
LINE
  5
1F23
330
1F
100
AcDbEntity
  8
SANINDUSA
100
AcDbLine
 10
1564.719568707906
 20
3772.329907861446
 30
0.0000000001555554
 11
1564.772568707905
 21
3772.329907861446
 31
0.0000000001555554
  0
LWPOLYLINE
  5
1F24
330
1F
100
AcDbEntity
  8
SANINDUSA
100
AcDbPolyline
 90
        4
 70
     1
 43
0.0
 38
0.0000000001555553
 10
1564.772568707905
 20
3772.329707861446
 10
1564.719568707906
 20
3772.329707861446
 10
1564.719568707906
 20
3772.328707861446
 10
1564.772568707905
 20
3772.328707861446
1001
GENIUS_GENREC_14
1002
{
1000
PYDIR
1011
1564.473286450826
1021
3772.415880171254
1031
0.0000000001555554
1002
}
1002
{
1000
PXDIR
1011
1564.420286450826
1021
3772.414880171254
1031
0.0000000001555554
1002
}
1002
{
1000
PORI
1011
1564.473286450826
1021
3772.414880171254
1031
0.0000000001555554
1002
}
1002
{
1000
PINS
1011
1564.473286450826
1021
3772.414880171254
1031
0.0000000001555554
1002
}
1002
{
1000
PINS2
1011
1564.420286450826
1021
3772.415880171254
1031
0.0000000001555554
1002
}
1002
{
1000
C
1070
     1
1002
}
1001
GENIUS_GENODEF_13
1002
{
1000
HIER
1070
     0
1002
}
1002
{
1000
MANEDIT
1070
     0
1002
}
1002
{
1000
NOSEL
1070
     0
1002
}
1002
{
1000
BEHIND
1070
     0
1002
}
1002
{
1000
REACTOR
1002
}
1001
GENIUS_GENOBJ-N-REC_13
1002
{
1000
OWNER
1000
GEN
1002
}
  0
LINE
  5
1F25
330
1F
100
AcDbEntity
  8
SANINDUSA
100
AcDbLine
 10
1564.771568707906
 20
3772.334907861445
 30
0.0000000001555554
 11
1564.720568707905
 21
3772.334907861445
 31
0.0000000001555554
  0
LINE
  5
1F26
330
1F
100
AcDbEntity
  8
SANINDUSA
100
AcDbLine
 10
1564.713457596794
 20
3772.311107809152
 30
0.0000000001555554
 11
1564.771568707906
 21
3772.311107809152
 31
0.0000000001555554
  0
CIRCLE
  5
1F27
330
1F
100
AcDbEntity
  8
SANINDUSA
100
AcDbCircle
 10
1564.704568707905
 20
3772.311107809152
 30
0.0000000001555554
 40
0.008
  0
LINE
  5
1F28
330
1F
100
AcDbEntity
  8
SANINDUSA
100
AcDbLine
 10
1564.689568707906
 20
3772.319107809153
 30
0.0000000001555554
 11
1564.704568753502
 21
3772.319107809153
 31
0.0000000001555554
  0
ARC
  5
1F29
330
1F
100
AcDbEntity
  8
SANINDUSA
100
AcDbCircle
 10
1564.704083154944
 20
3772.325507865256
 30
0.0000000001555553
 40
0.0056623076923077
100
AcDbArc
 50
81.49232713209411
 51
278.5076728679058
  0
ARC
  5
1F2A
330
1F
100
AcDbEntity
  8
SANINDUSA
100
AcDbCircle
 10
1564.704083154944
 20
3772.325507865256
 30
0.0000000001555553
 40
0.0052623076923077
100
AcDbArc
 50
81.49232713209411
 51
278.5076728679058
  0
LINE
  5
1F45
330
1F
100
AcDbEntity
  8
SANINDUSA
100
AcDbLine
 10
1564.401988492481
 20
3772.372849744538
 30
0.0000000001462626
 11
1564.195866865765
 21
3772.578971371254
 31
0.0000000001462626
  0
LINE
  5
1F46
330
1F
100
AcDbEntity
  8
SANINDUSA
100
AcDbLine
 10
1564.411180880636
 20
3772.382042132694
 30
0.0000000001462626
 11
1564.20505925392
 21
3772.588163759409
 31
0.0000000001462626
  0
LINE
  5
1F8E
330
1F
100
AcDbEntity
  8
SANINDUSA
100
AcDbLine
 10
1564.400927832309
 20
3772.371789084366
 30
0.0000000001462626
 11
1564.410827327245
 21
3772.361889589429
 31
0.0000000001462626
  0
LINE
  5
1F8F
330
1F
100
AcDbEntity
  8
SANINDUSA
100
AcDbLine
 10
1564.421787482354
 20
3772.370021317414
 30
0.0000000001462626
 11
1564.420373268791
 21
3772.371435530975
 31
0.0000000001462626
  0
LINE
  5
1F90
330
1F
100
AcDbEntity
  8
SANINDUSA
100
AcDbLine
 10
1564.412241540808
 20
3772.360475375867
 30
0.0000000001462626
 11
1564.423555249307
 21
3772.371789084366
 31
0.0000000001462626
  0
LINE
  5
1F91
330
1F
100
AcDbEntity
  8
SANINDUSA
100
AcDbLine
 10
1564.414009307761
 20
3772.36224314282
 30
0.0000000001462626
 11
1564.412595094198
 21
3772.363657356383
 31
0.0000000001462626
  0
LINE
  5
1F92
330
1F
100
AcDbEntity
  8
SANINDUSA
100
AcDbLine
 10
1564.428504996775
 20
3772.366839336898
 30
0.0000000001462626
 11
1564.43301414203
 21
3772.362330191643
 31
0.0000000001462626
  0
LINE
  5
1F93
330
1F
100
AcDbEntity
  8
SANINDUSA
100
AcDbLine
 10
1564.423555249307
 20
3772.371789084366
 30
0.0000000001462626
 11
1564.428504996775
 21
3772.366839336898
 31
0.0000000001462626
  0
LINE
  5
1F94
330
1F
100
AcDbEntity
  8
SANINDUSA
100
AcDbLine
 10
1564.412241540808
 20
3772.383102792865
 30
0.0000000001462626
 11
1564.422141035744
 21
3772.373203297929
 31
0.0000000001462626
  0
LINE
  5
1F95
330
1F
100
AcDbEntity
  8
SANINDUSA
100
AcDbLine
 10
1564.410827327245
 20
3772.361889589429
 30
0.0000000001462626
 11
1564.422141035744
 21
3772.373203297929
 31
0.0000000001462626
  0
LINE
  5
1F96
330
1F
100
AcDbEntity
  8
SANINDUSA
100
AcDbLine
 10
1564.400927832309
 20
3772.371789084366
 30
0.0000000001462626
 11
1564.412241540808
 21
3772.383102792865
 31
0.0000000001462626
  0
LINE
  5
1F97
330
1F
100
AcDbEntity
  8
SANINDUSA
100
AcDbLine
 10
1564.407772763728
 20
3772.336507861446
 30
0.0000000001462626
 11
1564.407772763728
 21
3772.318507861446
 31
0.0000000001462626
  0
LINE
  5
1F98
330
1F
100
AcDbEntity
  8
SANINDUSA
100
AcDbLine
 10
1564.417191288276
 20
3772.355525628399
 30
0.0000000001462626
 11
1564.421272763728
 21
3772.351444152947
 31
0.0000000001462626
  0
LINE
  5
1F99
330
1F
100
AcDbEntity
  8
SANINDUSA
100
AcDbLine
 10
1564.427302763728
 20
3772.353757861445
 30
0.0000000001462626
 11
1564.429029707613
 21
3772.354097235095
 31
0.0000000001462626
  0
LINE
  5
1F9A
330
1F
100
AcDbEntity
  8
SANINDUSA
100
AcDbLine
 10
1564.429029707613
 20
3772.353418487797
 30
0.0000000001462626
 11
1564.427302763728
 21
3772.353757861445
 31
0.0000000001462626
  0
LINE
  5
1F9B
330
1F
100
AcDbEntity
  8
SANINDUSA
100
AcDbLine
 10
1564.429029707613
 20
3772.354097235095
 30
0.0000000001462626
 11
1564.427720815355
 21
3772.355406127353
 31
0.0000000001462626
  0
LINE
  5
1F9C
330
1F
100
AcDbEntity
  8
SANINDUSA
100
AcDbLine
 10
1564.427720815355
 20
3772.352109595539
 30
0.0000000001462626
 11
1564.429029707613
 21
3772.353418487797
 31
0.0000000001462626
  0
LINE
  5
1F9D
330
1F
100
AcDbEntity
  8
SANINDUSA
100
AcDbLine
 10
1564.428624497821
 20
3772.351205913073
 30
0.0000000001462626
 11
1564.427720815355
 21
3772.352109595539
 31
0.0000000001462626
  0
LINE
  5
1F9E
330
1F
100
AcDbEntity
  8
SANINDUSA
100
AcDbLine
 10
1564.427720815355
 20
3772.355406127353
 30
0.0000000001462626
 11
1564.428624497821
 21
3772.356309809819
 31
0.0000000001462626
  0
LINE
  5
1F9F
330
1F
100
AcDbEntity
  8
SANINDUSA
100
AcDbLine
 10
1564.430272763728
 20
3772.350787861447
 30
0.0000000001462626
 11
1564.429933390079
 21
3772.35251480533
 31
0.0000000001462626
  0
LINE
  5
1FA0
330
1F
100
AcDbEntity
  8
SANINDUSA
100
AcDbLine
 10
1564.430272763728
 20
3772.350787861447
 30
0.0000000001462626
 11
1564.430272763728
 21
3772.352854178979
 31
0.0000000001462626
  0
LINE
  5
1FA1
330
1F
100
AcDbEntity
  8
SANINDUSA
100
AcDbLine
 10
1564.429933390079
 20
3772.35251480533
 30
0.0000000001462626
 11
1564.430272763728
 21
3772.352854178979
 31
0.0000000001462626
  0
LINE
  5
1FA2
330
1F
100
AcDbEntity
  8
SANINDUSA
100
AcDbLine
 10
1564.430612137377
 20
3772.35251480533
 30
0.0000000001462626
 11
1564.430272763728
 21
3772.350787861447
 31
0.0000000001462626
  0
LINE
  5
1FA3
330
1F
100
AcDbEntity
  8
SANINDUSA
100
AcDbLine
 10
1564.430272763728
 20
3772.352854178979
 30
0.0000000001462626
 11
1564.430612137377
 21
3772.35251480533
 31
0.0000000001462626
  0
LINE
  5
1FA4
330
1F
100
AcDbEntity
  8
SANINDUSA
100
AcDbLine
 10
1564.430272763728
 20
3772.356727861446
 30
0.0000000001462626
 11
1564.430612137377
 21
3772.355000917561
 31
0.0000000001462626
  0
LINE
  5
1FA5
330
1F
100
AcDbEntity
  8
SANINDUSA
100
AcDbLine
 10
1564.430272763728
 20
3772.356727861446
 30
0.0000000001462626
 11
1564.430272763728
 21
3772.354661543913
 31
0.0000000001462626
  0
LINE
  5
1FA6
330
1F
100
AcDbEntity
  8
SANINDUSA
100
AcDbLine
 10
1564.430612137377
 20
3772.355000917561
 30
0.0000000001462626
 11
1564.430272763728
 21
3772.354661543913
 31
0.0000000001462626
  0
LINE
  5
1FA7
330
1F
100
AcDbEntity
  8
SANINDUSA
100
AcDbLine
 10
1564.429933390079
 20
3772.355000917561
 30
0.0000000001462626
 11
1564.430272763728
 21
3772.356727861446
 31
0.0000000001462626
  0
LINE
  5
1FA8
330
1F
100
AcDbEntity
  8
SANINDUSA
100
AcDbLine
 10
1564.430272763728
 20
3772.354661543913
 30
0.0000000001462626
 11
1564.429933390079
 21
3772.355000917561
 31
0.0000000001462626
  0
LINE
  5
1FA9
330
1F
100
AcDbEntity
  8
SANINDUSA
100
AcDbLine
 10
1564.433242763728
 20
3772.353757861445
 30
0.0000000001462626
 11
1564.431515819843
 21
3772.353418487797
 31
0.0000000001462626
  0
LINE
  5
1FAA
330
1F
100
AcDbEntity
  8
SANINDUSA
100
AcDbLine
 10
1564.433242763728
 20
3772.353757861445
 30
0.0000000001462626
 11
1564.431176446194
 21
3772.353757861445
 31
0.0000000001462626
  0
LINE
  5
1FAB
330
1F
100
AcDbEntity
  8
SANINDUSA
100
AcDbLine
 10
1564.431515819843
 20
3772.353418487797
 30
0.0000000001462626
 11
1564.431176446194
 21
3772.353757861445
 31
0.0000000001462626
  0
LINE
  5
1FAC
330
1F
100
AcDbEntity
  8
SANINDUSA
100
AcDbLine
 10
1564.431515819843
 20
3772.354097235095
 30
0.0000000001462626
 11
1564.433242763728
 21
3772.353757861445
 31
0.0000000001462626
  0
LINE
  5
1FAD
330
1F
100
AcDbEntity
  8
SANINDUSA
100
AcDbLine
 10
1564.431176446194
 20
3772.353757861445
 30
0.0000000001462626
 11
1564.431515819843
 21
3772.354097235095
 31
0.0000000001462626
  0
LINE
  5
1FAE
330
1F
100
AcDbEntity
  8
SANINDUSA
100
AcDbLine
 10
1564.430612137377
 20
3772.355000917561
 30
0.0000000001462626
 11
1564.431921029635
 21
3772.356309809819
 31
0.0000000001462626
  0
LINE
  5
1FAF
330
1F
100
AcDbEntity
  8
SANINDUSA
100
AcDbLine
 10
1564.431515819843
 20
3772.353418487797
 30
0.0000000001462626
 11
1564.432824712102
 21
3772.352109595539
 31
0.0000000001462626
  0
LINE
  5
1FB0
330
1F
100
AcDbEntity
  8
SANINDUSA
100
AcDbLine
 10
1564.431176446194
 20
3772.353757861445
 30
0.0000000001462626
 11
1564.430272763728
 21
3772.352854178979
 31
0.0000000001462626
  0
LINE
  5
1FB1
330
1F
100
AcDbEntity
  8
SANINDUSA
100
AcDbLine
 10
1564.432824712102
 20
3772.355406127353
 30
0.0000000001462626
 11
1564.431515819843
 21
3772.354097235095
 31
0.0000000001462626
  0
LINE
  5
1FB2
330
1F
100
AcDbEntity
  8
SANINDUSA
100
AcDbLine
 10
1564.429369081262
 20
3772.353757861445
 30
0.0000000001462626
 11
1564.430272763728
 21
3772.354661543913
 31
0.0000000001462626
  0
LINE
  5
1FB3
330
1F
100
AcDbEntity
  8
SANINDUSA
100
AcDbLine
 10
1564.430272763728
 20
3772.353757861445
 30
0.0000000001462626
 11
1564.431176446194
 21
3772.353757861445
 31
0.0000000001462626
  0
LINE
  5
1FB4
330
1F
100
AcDbEntity
  8
SANINDUSA
100
AcDbLine
 10
1564.430724604961
 20
3772.353306020213
 30
0.0000000001462626
 11
1564.430272763728
 21
3772.353757861445
 31
0.0000000001462626
  0
LINE
  5
1FB5
330
1F
100
AcDbEntity
  8
SANINDUSA
100
AcDbLine
 10
1564.431921029635
 20
3772.356309809819
 30
0.0000000001462626
 11
1564.432824712102
 21
3772.355406127353
 31
0.0000000001462626
  0
LINE
  5
1FB6
330
1F
100
AcDbEntity
  8
SANINDUSA
100
AcDbLine
 10
1564.431176446194
 20
3772.353757861445
 30
0.0000000001462626
 11
1564.430272763728
 21
3772.354661543913
 31
0.0000000001462626
  0
LINE
  5
1FB7
330
1F
100
AcDbEntity
  8
SANINDUSA
100
AcDbLine
 10
1564.430272763728
 20
3772.354661543913
 30
0.0000000001462626
 11
1564.430272763728
 21
3772.353757861445
 31
0.0000000001462626
  0
LINE
  5
1FB8
330
1F
100
AcDbEntity
  8
SANINDUSA
100
AcDbLine
 10
1564.430272763728
 20
3772.353757861445
 30
0.0000000001462626
 11
1564.429820922495
 21
3772.354209702679
 31
0.0000000001462626
  0
LINE
  5
1FB9
330
1F
100
AcDbEntity
  8
SANINDUSA
100
AcDbLine
 10
1564.430272763728
 20
3772.352854178979
 30
0.0000000001462626
 11
1564.430272763728
 21
3772.353757861445
 31
0.0000000001462626
  0
LINE
  5
1FBA
330
1F
100
AcDbEntity
  8
SANINDUSA
100
AcDbLine
 10
1564.430272763728
 20
3772.353757861445
 30
0.0000000001462626
 11
1564.429369081262
 21
3772.353757861445
 31
0.0000000001462626
  0
LINE
  5
1FBB
330
1F
100
AcDbEntity
  8
SANINDUSA
100
AcDbLine
 10
1564.429369081262
 20
3772.353757861445
 30
0.0000000001462626
 11
1564.430272763728
 21
3772.352854178979
 31
0.0000000001462626
  0
LINE
  5
1FBC
330
1F
100
AcDbEntity
  8
SANINDUSA
100
AcDbLine
 10
1564.430272763728
 20
3772.353757861445
 30
0.0000000001462626
 11
1564.429820922495
 21
3772.353306020213
 31
0.0000000001462626
  0
LINE
  5
1FBD
330
1F
100
AcDbEntity
  8
SANINDUSA
100
AcDbLine
 10
1564.430724604961
 20
3772.354209702679
 30
0.0000000001462626
 11
1564.430272763728
 21
3772.353757861445
 31
0.0000000001462626
  0
LINE
  5
1FBE
330
1F
100
AcDbEntity
  8
SANINDUSA
100
AcDbLine
 10
1564.431921029635
 20
3772.351205913073
 30
0.0000000001462626
 11
1564.430612137377
 21
3772.35251480533
 31
0.0000000001462626
  0
LINE
  5
1FBF
330
1F
100
AcDbEntity
  8
SANINDUSA
100
AcDbLine
 10
1564.432824712102
 20
3772.352109595539
 30
0.0000000001462626
 11
1564.431921029635
 21
3772.351205913073
 31
0.0000000001462626
  0
LINE
  5
1FC0
330
1F
100
AcDbEntity
  8
SANINDUSA
100
AcDbLine
 10
1564.427302763728
 20
3772.353757861445
 30
0.0000000001462626
 11
1564.429369081262
 21
3772.353757861445
 31
0.0000000001462626
  0
LINE
  5
1FC1
330
1F
100
AcDbEntity
  8
SANINDUSA
100
AcDbLine
 10
1564.429029707613
 20
3772.354097235095
 30
0.0000000001462626
 11
1564.429369081262
 21
3772.353757861445
 31
0.0000000001462626
  0
LINE
  5
1FC2
330
1F
100
AcDbEntity
  8
SANINDUSA
100
AcDbLine
 10
1564.429369081262
 20
3772.353757861445
 30
0.0000000001462626
 11
1564.429029707613
 21
3772.353418487797
 31
0.0000000001462626
  0
LINE
  5
1FC3
330
1F
100
AcDbEntity
  8
SANINDUSA
100
AcDbLine
 10
1564.429933390079
 20
3772.35251480533
 30
0.0000000001462626
 11
1564.428624497821
 21
3772.351205913073
 31
0.0000000001462626
  0
LINE
  5
1FC4
330
1F
100
AcDbEntity
  8
SANINDUSA
100
AcDbLine
 10
1564.428624497821
 20
3772.356309809819
 30
0.0000000001462626
 11
1564.429933390079
 21
3772.355000917561
 31
0.0000000001462626
  0
CIRCLE
  5
1FC5
330
1F
100
AcDbEntity
  8
SANINDUSA
100
AcDbCircle
 10
1564.430272763728
 20
3772.353757861445
 30
0.0000000001462626
 40
0.005085
  0
LINE
  5
1FC6
330
1F
100
AcDbEntity
  8
SANINDUSA
100
AcDbLine
 10
1564.439272763728
 20
3772.353757861445
 30
0.0000000001462626
 11
1564.439272763728
 21
3772.336507861446
 31
0.0000000001462626
  0
LINE
  5
1FC7
330
1F
100
AcDbEntity
  8
SANINDUSA
100
AcDbLine
 10
1564.421272763728
 20
3772.353757861445
 30
0.0000000001462626
 11
1564.421272763728
 21
3772.336507861446
 31
0.0000000001462626
  0
LINE
  5
1FC8
330
1F
100
AcDbEntity
  8
SANINDUSA
100
AcDbLine
 10
1564.452772763728
 20
3772.336507861446
 30
0.0000000001462626
 11
1564.452772763728
 21
3772.318507861446
 31
0.0000000001462626
  0
LINE
  5
1FC9
330
1F
100
AcDbEntity
  8
SANINDUSA
100
AcDbLine
 10
1564.407772763728
 20
3772.318507861446
 30
0.0000000001462626
 11
1564.452772763728
 21
3772.318507861446
 31
0.0000000001462626
  0
LINE
  5
1FCA
330
1F
100
AcDbEntity
  8
SANINDUSA
100
AcDbLine
 10
1564.407772763728
 20
3772.336507861446
 30
0.0000000001462626
 11
1564.452772763728
 21
3772.336507861446
 31
0.0000000001462626
  0
LINE
  5
1FCB
330
1F
100
AcDbEntity
  8
SANINDUSA
100
AcDbLine
 10
1564.417191288276
 20
3772.355525628399
 30
0.0000000001462626
 11
1564.428504996775
 21
3772.366839336898
 31
0.0000000001462626
  0
ARC
  5
1FCC
330
1F
100
AcDbEntity
  8
SANINDUSA
100
AcDbCircle
 10
1564.430272763728
 20
3772.353757861445
 30
0.0000000001462626
 40
0.009
100
AcDbArc
 50
0.0
 51
180.0
  0
LINE
  5
1FCD
330
1F
100
AcDbEntity
  8
SANINDUSA
100
AcDbLine
 10
1564.412241540808
 20
3772.360475375867
 30
0.0000000001462626
 11
1564.417191288276
 21
3772.355525628399
 31
0.0000000001462626
  0
ARC
  5
200C
330
1F
100
AcDbEntity
  8
SANINDUSA
100
AcDbCircle
 10
1564.168838691172
 20
3772.582941934003
 30
0.0000000001462626
 40
0.002
100
AcDbArc
 50
270.0
 51
0.0
  0
LINE
  5
200D
330
1F
100
AcDbEntity
  8
SANINDUSA
100
AcDbLine
 10
1564.168838691172
 20
3772.580941934002
 30
0.0000000001462626
 11
1564.165838691172
 21
3772.580941934002
 31
0.0000000001462626
  0
LINE
  5
200E
330
1F
100
AcDbEntity
  8
SANINDUSA
100
AcDbLine
 10
1564.185118691171
 20
3772.596580934003
 30
0.0000000001462626
 11
1564.185118691171
 21
3772.595302934002
 31
0.0000000001462626
  0
LINE
  5
200F
330
1F
100
AcDbEntity
  8
SANINDUSA
100
AcDbLine
 10
1564.185118691171
 20
3772.595302934002
 30
0.0000000001462626
 11
1564.186969744354
 21
3772.595302934002
 31
0.0000000001462626
  0
LINE
  5
2010
330
1F
100
AcDbEntity
  8
SANINDUSA
100
AcDbLine
 10
1564.188088691172
 20
3772.596580934003
 30
0.0000000001462626
 11
1564.188088691172
 21
3772.595941934002
 31
0.0000000001462626
  0
LINE
  5
2011
330
1F
100
AcDbEntity
  8
SANINDUSA
100
AcDbLine
 10
1564.188088691172
 20
3772.595941934002
 30
0.0000000001462626
 11
1564.188088691172
 21
3772.595302934002
 31
0.0000000001462626
  0
LINE
  5
2012
330
1F
100
AcDbEntity
  8
SANINDUSA
100
AcDbLine
 10
1564.188727691172
 20
3772.595302934002
 30
0.0000000001462626
 11
1564.187449691172
 21
3772.595302934002
 31
0.0000000001462626
  0
LINE
  5
2013
330
1F
100
AcDbEntity
  8
SANINDUSA
100
AcDbLine
 10
1564.187449691172
 20
3772.592971934003
 30
0.0000000001462626
 11
1564.188727691172
 21
3772.592971934003
 31
0.0000000001462626
  0
LINE
  5
2014
330
1F
100
AcDbEntity
  8
SANINDUSA
100
AcDbLine
 10
1564.188088691172
 20
3772.595941934002
 30
0.0000000001462626
 11
1564.188727691172
 21
3772.595302934002
 31
0.0000000001462626
  0
LINE
  5
2015
330
1F
100
AcDbEntity
  8
SANINDUSA
100
AcDbLine
 10
1564.187449691172
 20
3772.595302934002
 30
0.0000000001462626
 11
1564.188088691172
 21
3772.595941934002
 31
0.0000000001462626
  0
LINE
  5
2016
330
1F
100
AcDbEntity
  8
SANINDUSA
100
AcDbLine
 10
1564.188088691172
 20
3772.595941934002
 30
0.0000000001462626
 11
1564.188727691172
 21
3772.595941934002
 31
0.0000000001462626
  0
LINE
  5
2017
330
1F
100
AcDbEntity
  8
SANINDUSA
100
AcDbLine
 10
1564.188727691172
 20
3772.596580934003
 30
0.0000000001462626
 11
1564.188088691172
 21
3772.595941934002
 31
0.0000000001462626
  0
LINE
  5
2018
330
1F
100
AcDbEntity
  8
SANINDUSA
100
AcDbLine
 10
1564.187449691172
 20
3772.596580934003
 30
0.0000000001462626
 11
1564.188727691172
 21
3772.596580934003
 31
0.0000000001462626
  0
LINE
  5
2019
330
1F
100
AcDbEntity
  8
SANINDUSA
100
AcDbLine
 10
1564.188727691172
 20
3772.598911934002
 30
0.0000000001462626
 11
1564.187449691172
 21
3772.598911934002
 31
0.0000000001462626
  0
LINE
  5
201A
330
1F
100
AcDbEntity
  8
SANINDUSA
100
AcDbLine
 10
1564.187449691172
 20
3772.595941934002
 30
0.0000000001462626
 11
1564.188088691172
 21
3772.595941934002
 31
0.0000000001462626
  0
LINE
  5
201B
330
1F
100
AcDbEntity
  8
SANINDUSA
100
AcDbLine
 10
1564.188088691172
 20
3772.595941934002
 30
0.0000000001462626
 11
1564.187449691172
 21
3772.596580934003
 31
0.0000000001462626
  0
LINE
  5
201C
330
1F
100
AcDbEntity
  8
SANINDUSA
100
AcDbLine
 10
1564.188727691172
 20
3772.592971934003
 30
0.0000000001462626
 11
1564.188727691172
 21
3772.594822987186
 31
0.0000000001462626
  0
LINE
  5
201D
330
1F
100
AcDbEntity
  8
SANINDUSA
100
AcDbLine
 10
1564.188727691172
 20
3772.595302934002
 30
0.0000000001462626
 11
1564.188727691172
 21
3772.596580934003
 31
0.0000000001462626
  0
LINE
  5
201E
330
1F
100
AcDbEntity
  8
SANINDUSA
100
AcDbLine
 10
1564.187449691172
 20
3772.598911934002
 30
0.0000000001462626
 11
1564.187449691172
 21
3772.59706088082
 31
0.0000000001462626
  0
LINE
  5
201F
330
1F
100
AcDbEntity
  8
SANINDUSA
100
AcDbLine
 10
1564.187449691172
 20
3772.596580934003
 30
0.0000000001462626
 11
1564.187449691172
 21
3772.595302934002
 31
0.0000000001462626
  0
LINE
  5
2020
330
1F
100
AcDbEntity
  8
SANINDUSA
100
AcDbLine
 10
1564.186969744354
 20
3772.596580934003
 30
0.0000000001462626
 11
1564.185118691171
 21
3772.596580934003
 31
0.0000000001462626
  0
LINE
  5
2021
330
1F
100
AcDbEntity
  8
SANINDUSA
100
AcDbLine
 10
1564.188727691172
 20
3772.59706088082
 30
0.0000000001462626
 11
1564.188727691172
 21
3772.598911934002
 31
0.0000000001462626
  0
LINE
  5
2022
330
1F
100
AcDbEntity
  8
SANINDUSA
100
AcDbLine
 10
1564.187449691172
 20
3772.594822987186
 30
0.0000000001462626
 11
1564.187449691172
 21
3772.592971934003
 31
0.0000000001462626
  0
LINE
  5
2023
330
1F
100
AcDbEntity
  8
SANINDUSA
100
AcDbLine
 10
1564.188727691172
 20
3772.595302934002
 30
0.0000000001462626
 11
1564.188727691172
 21
3772.594822987186
 31
0.0000000001462626
  0
LINE
  5
2024
330
1F
100
AcDbEntity
  8
SANINDUSA
100
AcDbLine
 10
1564.189207637989
 20
3772.595302934002
 30
0.0000000001462626
 11
1564.188727691172
 21
3772.595302934002
 31
0.0000000001462626
  0
LINE
  5
2025
330
1F
100
AcDbEntity
  8
SANINDUSA
100
AcDbLine
 10
1564.187449691172
 20
3772.596580934003
 30
0.0000000001462626
 11
1564.187449691172
 21
3772.59706088082
 31
0.0000000001462626
  0
LINE
  5
2026
330
1F
100
AcDbEntity
  8
SANINDUSA
100
AcDbLine
 10
1564.187449691172
 20
3772.59706088082
 30
0.0000000001462626
 11
1564.185988584032
 21
3772.598042041142
 31
0.0000000001462626
  0
LINE
  5
2027
330
1F
100
AcDbEntity
  8
SANINDUSA
100
AcDbLine
 10
1564.186969744354
 20
3772.596580934003
 30
0.0000000001462626
 11
1564.187449691172
 21
3772.596580934003
 31
0.0000000001462626
  0
LINE
  5
2028
330
1F
100
AcDbEntity
  8
SANINDUSA
100
AcDbLine
 10
1564.185988584032
 20
3772.598042041142
 30
0.0000000001462626
 11
1564.187449691172
 21
3772.596580934003
 31
0.0000000001462626
  0
LINE
  5
2029
330
1F
100
AcDbEntity
  8
SANINDUSA
100
AcDbLine
 10
1564.185988584032
 20
3772.598042041142
 30
0.0000000001462626
 11
1564.186969744354
 21
3772.596580934003
 31
0.0000000001462626
  0
LINE
  5
202A
330
1F
100
AcDbEntity
  8
SANINDUSA
100
AcDbLine
 10
1564.188727691172
 20
3772.596580934003
 30
0.0000000001462626
 11
1564.189207637989
 21
3772.596580934003
 31
0.0000000001462626
  0
LINE
  5
202B
330
1F
100
AcDbEntity
  8
SANINDUSA
100
AcDbLine
 10
1564.188727691172
 20
3772.59706088082
 30
0.0000000001462626
 11
1564.188727691172
 21
3772.596580934003
 31
0.0000000001462626
  0
LINE
  5
202C
330
1F
100
AcDbEntity
  8
SANINDUSA
100
AcDbLine
 10
1564.187449691172
 20
3772.595302934002
 30
0.0000000001462626
 11
1564.186969744354
 21
3772.595302934002
 31
0.0000000001462626
  0
LINE
  5
202D
330
1F
100
AcDbEntity
  8
SANINDUSA
100
AcDbLine
 10
1564.186969744354
 20
3772.595302934002
 30
0.0000000001462626
 11
1564.185988584032
 21
3772.593841826862
 31
0.0000000001462626
  0
LINE
  5
202E
330
1F
100
AcDbEntity
  8
SANINDUSA
100
AcDbLine
 10
1564.187449691172
 20
3772.594822987186
 30
0.0000000001462626
 11
1564.187449691172
 21
3772.595302934002
 31
0.0000000001462626
  0
LINE
  5
202F
330
1F
100
AcDbEntity
  8
SANINDUSA
100
AcDbLine
 10
1564.185988584032
 20
3772.593841826862
 30
0.0000000001462626
 11
1564.187449691172
 21
3772.595302934002
 31
0.0000000001462626
  0
LINE
  5
2030
330
1F
100
AcDbEntity
  8
SANINDUSA
100
AcDbLine
 10
1564.185988584032
 20
3772.593841826862
 30
0.0000000001462626
 11
1564.187449691172
 21
3772.594822987186
 31
0.0000000001462626
  0
LINE
  5
2031
330
1F
100
AcDbEntity
  8
SANINDUSA
100
AcDbLine
 10
1564.191058691172
 20
3772.595302934002
 30
0.0000000001462626
 11
1564.191058691172
 21
3772.596580934003
 31
0.0000000001462626
  0
LINE
  5
2032
330
1F
100
AcDbEntity
  8
SANINDUSA
100
AcDbLine
 10
1564.188727691172
 20
3772.594822987186
 30
0.0000000001462626
 11
1564.190188798312
 21
3772.593841826862
 31
0.0000000001462626
  0
LINE
  5
2033
330
1F
100
AcDbEntity
  8
SANINDUSA
100
AcDbLine
 10
1564.190188798312
 20
3772.593841826862
 30
0.0000000001462626
 11
1564.188727691172
 21
3772.595302934002
 31
0.0000000001462626
  0
LINE
  5
2034
330
1F
100
AcDbEntity
  8
SANINDUSA
100
AcDbLine
 10
1564.190188798312
 20
3772.593841826862
 30
0.0000000001462626
 11
1564.189207637989
 21
3772.595302934002
 31
0.0000000001462626
  0
LINE
  5
2035
330
1F
100
AcDbEntity
  8
SANINDUSA
100
AcDbLine
 10
1564.189207637989
 20
3772.596580934003
 30
0.0000000001462626
 11
1564.190188798312
 21
3772.598042041142
 31
0.0000000001462626
  0
LINE
  5
2036
330
1F
100
AcDbEntity
  8
SANINDUSA
100
AcDbLine
 10
1564.190188798312
 20
3772.598042041142
 30
0.0000000001462626
 11
1564.188727691172
 21
3772.596580934003
 31
0.0000000001462626
  0
LINE
  5
2037
330
1F
100
AcDbEntity
  8
SANINDUSA
100
AcDbLine
 10
1564.190188798312
 20
3772.598042041142
 30
0.0000000001462626
 11
1564.188727691172
 21
3772.59706088082
 31
0.0000000001462626
  0
CIRCLE
  5
2038
330
1F
100
AcDbEntity
  8
SANINDUSA
100
AcDbCircle
 10
1564.188088691172
 20
3772.595941934002
 30
0.0000000001462626
 40
0.005085
  0
LINE
  5
2039
330
1F
100
AcDbEntity
  8
SANINDUSA
100
AcDbLine
 10
1564.191058691172
 20
3772.596580934003
 30
0.0000000001462626
 11
1564.189207637989
 21
3772.596580934003
 31
0.0000000001462626
  0
LINE
  5
203A
330
1F
100
AcDbEntity
  8
SANINDUSA
100
AcDbLine
 10
1564.189207637989
 20
3772.595302934002
 30
0.0000000001462626
 11
1564.191058691172
 21
3772.595302934002
 31
0.0000000001462626
  0
LINE
  5
203B
330
1F
100
AcDbEntity
  8
SANINDUSA
100
AcDbLine
 10
1564.206119914092
 20
3772.589224419581
 30
0.0000000001462626
 11
1564.201170166624
 21
3772.594174167049
 31
0.0000000001462626
  0
LINE
  5
203C
330
1F
100
AcDbEntity
  8
SANINDUSA
100
AcDbLine
 10
1564.201170166624
 20
3772.594174167049
 30
0.0000000001462626
 11
1564.196661021369
 21
3772.598683312305
 31
0.0000000001462626
  0
ARC
  5
203D
330
1F
100
AcDbEntity
  8
SANINDUSA
100
AcDbCircle
 10
1564.188088691172
 20
3772.595941934002
 30
0.0000000001462626
 40
0.009
100
AcDbArc
 50
270.0
 51
90.0
  0
LINE
  5
203E
330
1F
100
AcDbEntity
  8
SANINDUSA
100
AcDbLine
 10
1564.194806205593
 20
3772.577910711083
 30
0.0000000001462626
 11
1564.189856458124
 21
3772.58286045855
 31
0.0000000001462626
  0
LINE
  5
203F
330
1F
100
AcDbEntity
  8
SANINDUSA
100
AcDbLine
 10
1564.194806205593
 20
3772.577910711083
 30
0.0000000001462626
 11
1564.206119914092
 21
3772.589224419581
 31
0.0000000001462626
  0
LINE
  5
2040
330
1F
100
AcDbEntity
  8
SANINDUSA
100
AcDbLine
 10
1564.189856458124
 20
3772.58286045855
 30
0.0000000001462626
 11
1564.185774982673
 21
3772.586941934002
 31
0.0000000001462626
  0
LINE
  5
2041
330
1F
100
AcDbEntity
  8
SANINDUSA
100
AcDbLine
 10
1564.189856458124
 20
3772.58286045855
 30
0.0000000001462626
 11
1564.201170166624
 21
3772.594174167049
 31
0.0000000001462626
  0
LINE
  5
2042
330
1F
100
AcDbEntity
  8
SANINDUSA
100
AcDbLine
 10
1564.188088691172
 20
3772.604941934002
 30
0.0000000001462626
 11
1564.170838691172
 21
3772.604941934002
 31
0.0000000001462626
  0
LINE
  5
2043
330
1F
100
AcDbEntity
  8
SANINDUSA
100
AcDbLine
 10
1564.188088691172
 20
3772.586941934002
 30
0.0000000001462626
 11
1564.170838691172
 21
3772.586941934002
 31
0.0000000001462626
  0
LINE
  5
2046
330
1F
100
AcDbEntity
  8
SANINDUSA
100
AcDbLine
 10
1564.170838691172
 20
3772.608941934002
 30
0.0000000001462626
 11
1564.170838691172
 21
3772.582941934003
 31
0.0000000001462626
  0
LINE
  5
2047
330
1F
100
AcDbEntity
  8
SANINDUSA
100
AcDbLine
 10
1564.165838691172
 20
3772.580941934002
 30
0.0000000001462626
 11
1564.165838691172
 21
3772.610941934003
 31
0.0000000001462626
  0
LINE
  5
2048
330
1F
100
AcDbEntity
  8
SANINDUSA
100
AcDbLine
 10
1564.165838691172
 20
3772.610941934003
 30
0.0000000001462626
 11
1564.168838691172
 21
3772.610941934003
 31
0.0000000001462626
  0
ARC
  5
2049
330
1F
100
AcDbEntity
  8
SANINDUSA
100
AcDbCircle
 10
1564.168838691172
 20
3772.608941934002
 30
0.0000000001462626
 40
0.002
100
AcDbArc
 50
0.0
 51
90.0
  0
ARC
  5
2084
330
1F
100
AcDbEntity
  8
SANINDUSA
100
AcDbCircle
 10
1564.169188691171
 20
3772.333207861446
 30
0.0
 40
0.0009999999999999
100
AcDbArc
 50
90.0
 51
180.0
  0
LINE
  5
2085
330
1F
100
AcDbEntity
  8
SANINDUSA
100
AcDbLine
 10
1564.169188691171
 20
3772.334207861446
 30
0.0
 11
1564.204211995304
 21
3772.334207861446
 31
0.0
  0
LINE
  5
2086
330
1F
100
AcDbEntity
  8
SANINDUSA
100
AcDbLine
 10
1564.168188691172
 20
3772.332222075009
 30
0.0
 11
1564.168188691172
 21
3772.333207861446
 31
0.0
  0
ARC
  5
2087
330
1F
100
AcDbEntity
  8
SANINDUSA
100
AcDbCircle
 10
1564.204211995304
 20
3772.333207861446
 30
0.0
 40
0.001
100
AcDbArc
 50
270.0
 51
90.0
  0
ARC
  5
2088
330
1F
100
AcDbEntity
  8
SANINDUSA
100
AcDbCircle
 10
1564.169188691171
 20
3772.332222075009
 30
0.0
 40
0.0010000000000003
100
AcDbArc
 50
180.0
 51
225.0
  0
LINE
  5
2089
330
1F
100
AcDbEntity
  8
SANINDUSA
100
AcDbLine
 10
1564.204211995304
 20
3772.332207861446
 30
0.0
 11
1564.172688691171
 21
3772.332207861446
 31
0.0
  0
LINE
  5
208A
330
1F
100
AcDbEntity
  8
SANINDUSA
100
AcDbLine
 10
1564.169395797953
 20
3772.330600754665
 30
0.0
 11
1564.168481584391
 21
3772.331514968227
 31
0.0
  0
ARC
  5
208B
330
1F
100
AcDbEntity
  8
SANINDUSA
100
AcDbCircle
 10
1564.172688691171
 20
3772.331207861447
 30
0.0
 40
0.001
100
AcDbArc
 50
90.0
 51
180.0
  0
ARC
  5
208C
330
1F
100
AcDbEntity
  8
SANINDUSA
100
AcDbCircle
 10
1564.168688691172
 20
3772.329893647884
 30
0.0
 40
0.0010000000000003
100
AcDbArc
 50
0.0
 51
45.0
  0
LINE
  5
208D
330
1F
100
AcDbEntity
  8
SANINDUSA
100
AcDbLine
 10
1564.171688691172
 20
3772.331207861447
 30
0.0
 11
1564.171688691172
 21
3772.313348675169
 31
0.0
  0
LINE
  5
208E
330
1F
100
AcDbEntity
  8
SANINDUSA
100
AcDbLine
 10
1564.169688691172
 20
3772.326518521617
 30
0.0
 11
1564.169688691172
 21
3772.329893647884
 31
0.0
  0
ARC
  5
208F
330
1F
100
AcDbEntity
  8
SANINDUSA
100
AcDbCircle
 10
1564.172688691171
 20
3772.313348675169
 30
0.0
 40
0.001
100
AcDbArc
 50
180.0
 51
272.149457928144
  0
ARC
  5
2090
330
1F
100
AcDbEntity
  8
SANINDUSA
100
AcDbCircle
 10
1564.169938691172
 20
3772.326518521617
 30
0.0
 40
0.0002500000000003
100
AcDbArc
 50
180.0
 51
225.0
  0
ARC
  5
2091
330
1F
100
AcDbEntity
  8
SANINDUSA
100
AcDbCircle
 10
1564.169098582734
 20
3772.409001421091
 30
0.0
 40
0.0967200954923435
100
AcDbArc
 50
272.149457928144
 51
285.5601696455738
  0
LINE
  5
2092
330
1F
100
AcDbEntity
  8
SANINDUSA
100
AcDbLine
 10
1564.170242244562
 20
3772.325861414837
 30
0.0
 11
1564.169761914476
 21
3772.326341744923
 31
0.0
  0
ARC
  5
2093
330
1F
100
AcDbEntity
  8
SANINDUSA
100
AcDbCircle
 10
1564.194909641931
 20
3772.316307861446
 30
0.0
 40
0.0005
100
AcDbArc
 50
285.5601696455738
 51
90.0
  0
ARC
  5
2094
330
1F
100
AcDbEntity
  8
SANINDUSA
100
AcDbCircle
 10
1564.169888691172
 20
3772.325507861446
 30
0.0
 40
0.0005
100
AcDbArc
 50
315.0
 51
45.0
  0
LINE
  5
2095
330
1F
100
AcDbEntity
  8
SANINDUSA
100
AcDbLine
 10
1564.194909641931
 20
3772.316807861446
 30
0.0
 11
1564.182211995303
 21
3772.316807861446
 31
0.0
  0
LINE
  5
2096
330
1F
100
AcDbEntity
  8
SANINDUSA
100
AcDbLine
 10
1564.169761914476
 20
3772.32467397797
 30
0.0
 11
1564.170242244562
 21
3772.325154308055
 31
0.0
  0
ARC
  5
2097
330
1F
100
AcDbEntity
  8
SANINDUSA
100
AcDbCircle
 10
1564.182211995303
 20
3772.317807861446
 30
0.0
 40
0.001
100
AcDbArc
 50
90.0
 51
270.0
  0
ARC
  5
2098
330
1F
100
AcDbEntity
  8
SANINDUSA
100
AcDbCircle
 10
1564.169938691172
 20
3772.324497201275
 30
0.0
 40
0.00025
100
AcDbArc
 50
135.0
 51
180.0
  0
LINE
  5
2099
330
1F
100
AcDbEntity
  8
SANINDUSA
100
AcDbLine
 10
1564.182211995303
 20
3772.318807861446
 30
0.0
 11
1564.204211995304
 21
3772.318807861446
 31
0.0
  0
LINE
  5
209A
330
1F
100
AcDbEntity
  8
SANINDUSA
100
AcDbLine
 10
1564.169688691172
 20
3772.314307837785
 30
0.0
 11
1564.169688691172
 21
3772.324497201275
 31
0.0
  0
ARC
  5
209B
330
1F
100
AcDbEntity
  8
SANINDUSA
100
AcDbCircle
 10
1564.204211995304
 20
3772.317807861446
 30
0.0
 40
0.001
100
AcDbArc
 50
291.0588352469903
 51
90.0
  0
ARC
  5
209C
330
1F
100
AcDbEntity
  8
SANINDUSA
100
AcDbCircle
 10
1564.168688691172
 20
3772.314307837785
 30
0.0
 40
0.0010000000000003
100
AcDbArc
 50
314.9106959474017
 51
0.0
  0
ARC
  5
209D
330
1F
100
AcDbEntity
  8
SANINDUSA
100
AcDbCircle
 10
1564.169098582734
 20
3772.409001421091
 30
0.0
 40
0.0987200954923432
100
AcDbArc
 50
270.0522365954108
 51
291.0588352469903
  0
LINE
  5
209E
330
1F
100
AcDbEntity
  8
SANINDUSA
100
AcDbLine
 10
1564.168488255852
 20
3772.312696011867
 30
0.0
 11
1564.169394694963
 21
3772.313599629731
 31
0.0
  0
ARC
  5
209F
330
1F
100
AcDbEntity
  8
SANINDUSA
100
AcDbCircle
 10
1564.16918767419
 20
3772.31128136621
 30
0.0
 40
0.001
100
AcDbArc
 50
179.4659008828148
 51
270.0522365954108
  0
ARC
  5
20A0
330
1F
100
AcDbEntity
  8
SANINDUSA
100
AcDbCircle
 10
1564.169194259643
 20
3772.311987803814
 30
0.0
 40
0.0010000000000003
100
AcDbArc
 50
134.9106959474017
 51
179.4659008828148
  0
LINE
  5
20A1
330
1F
100
AcDbEntity
  8
SANINDUSA
100
AcDbLine
 10
1564.168187717638
 20
3772.311290687864
 30
0.0
 11
1564.16819430309
 21
3772.311997125466
 31
0.0
  0
LINE
  5
20A2
330
1F
100
AcDbEntity
  8
SANINDUSA
100
AcDbLine
 10
1564.217813918463
 20
3772.329507861446
 30
0.0
 11
1564.215125305313
 21
3772.329507861446
 31
0.0
  0
ARC
  5
20A3
330
1F
100
AcDbEntity
  8
SANINDUSA
100
AcDbCircle
 10
1564.215125305313
 20
3772.329007861446
 30
0.0
 40
0.0005
100
AcDbArc
 50
90.0
 51
160.5287793619829
  0
ARC
  5
20A4
330
1F
100
AcDbEntity
  8
SANINDUSA
100
AcDbCircle
 10
1564.217813918463
 20
3772.329007861446
 30
0.0
 40
0.0005000000000001
100
AcDbArc
 50
23.57817847508705
 51
90.0
  0
ARC
  5
20A5
330
1F
100
AcDbEntity
  8
SANINDUSA
100
AcDbCircle
 10
1564.213711091751
 20
3772.329507861446
 30
0.0
 40
0.001
100
AcDbArc
 50
199.471220638017
 51
340.5287793619829
  0
ARC
  5
20A6
330
1F
100
AcDbEntity
  8
SANINDUSA
100
AcDbCircle
 10
1564.219188691172
 20
3772.329607861446
 30
0.0
 40
0.0009999999999999
100
AcDbArc
 50
203.5781784750871
 51
0.0
  0
ARC
  5
20A7
330
1F
100
AcDbEntity
  8
SANINDUSA
100
AcDbCircle
 10
1564.212296878188
 20
3772.329007861446
 30
0.0
 40
0.0004999999999999
100
AcDbArc
 50
19.47122063801706
 51
90.0
  0
LINE
  5
20A8
330
1F
100
AcDbEntity
  8
SANINDUSA
100
AcDbLine
 10
1564.220188691172
 20
3772.329607861446
 30
0.0
 11
1564.220188691172
 21
3772.330507861446
 31
0.0
  0
LINE
  5
20A9
330
1F
100
AcDbEntity
  8
SANINDUSA
100
AcDbLine
 10
1564.212296878188
 20
3772.329507861446
 30
0.0
 11
1564.210710714932
 21
3772.329507861446
 31
0.0
  0
ARC
  5
20AA
330
1F
100
AcDbEntity
  8
SANINDUSA
100
AcDbCircle
 10
1564.219188691172
 20
3772.330507861446
 30
0.0
 40
0.0009999999999999
100
AcDbArc
 50
0.0
 51
90.0
  0
ARC
  5
20AB
330
1F
100
AcDbEntity
  8
SANINDUSA
100
AcDbCircle
 10
1564.210710714932
 20
3772.329007861446
 30
0.0
 40
0.0005
100
AcDbArc
 50
90.0
 51
180.0
  0
LINE
  5
20AC
330
1F
100
AcDbEntity
  8
SANINDUSA
100
AcDbLine
 10
1564.219188691172
 20
3772.331507861446
 30
0.0
 11
1564.187688691172
 21
3772.331507861446
 31
0.0
  0
LINE
  5
20AD
330
1F
100
AcDbEntity
  8
SANINDUSA
100
AcDbLine
 10
1564.210210714932
 20
3772.329007861446
 30
0.0
 11
1564.210210714932
 21
3772.322007861446
 31
0.0
  0
ARC
  5
20AE
330
1F
100
AcDbEntity
  8
SANINDUSA
100
AcDbCircle
 10
1564.187688691172
 20
3772.330507861446
 30
0.0
 40
0.001
100
AcDbArc
 50
90.0
 51
270.0
  0
ARC
  5
20AF
330
1F
100
AcDbEntity
  8
SANINDUSA
100
AcDbCircle
 10
1564.210710714932
 20
3772.322007861446
 30
0.0
 40
0.0005
100
AcDbArc
 50
180.0
 51
270.0
  0
LINE
  5
20B0
330
1F
100
AcDbEntity
  8
SANINDUSA
100
AcDbLine
 10
1564.187688691172
 20
3772.329507861446
 30
0.0
 11
1564.207710714932
 21
3772.329507861446
 31
0.0
  0
LINE
  5
20B1
330
1F
100
AcDbEntity
  8
SANINDUSA
100
AcDbLine
 10
1564.210710714932
 20
3772.321507861446
 30
0.0
 11
1564.212296878188
 21
3772.321507861446
 31
0.0
  0
ARC
  5
20B2
330
1F
100
AcDbEntity
  8
SANINDUSA
100
AcDbCircle
 10
1564.207710714932
 20
3772.329007861446
 30
0.0
 40
0.0005000000000001
100
AcDbArc
 50
0.0
 51
90.0
  0
ARC
  5
20B3
330
1F
100
AcDbEntity
  8
SANINDUSA
100
AcDbCircle
 10
1564.212296878188
 20
3772.322007861446
 30
0.0
 40
0.0005
100
AcDbArc
 50
270.0
 51
340.5287793619829
  0
LINE
  5
20B4
330
1F
100
AcDbEntity
  8
SANINDUSA
100
AcDbLine
 10
1564.208210714931
 20
3772.329007861446
 30
0.0
 11
1564.208210714931
 21
3772.322007861446
 31
0.0
  0
ARC
  5
20B5
330
1F
100
AcDbEntity
  8
SANINDUSA
100
AcDbCircle
 10
1564.213711091751
 20
3772.321507861446
 30
0.0
 40
0.001
100
AcDbArc
 50
19.47122063801706
 51
160.5287793619829
  0
ARC
  5
20B6
330
1F
100
AcDbEntity
  8
SANINDUSA
100
AcDbCircle
 10
1564.207710714932
 20
3772.322007861446
 30
0.0
 40
0.0005000000000001
100
AcDbArc
 50
270.0
 51
0.0
  0
ARC
  5
20B7
330
1F
100
AcDbEntity
  8
SANINDUSA
100
AcDbCircle
 10
1564.215125305313
 20
3772.322007861446
 30
0.0
 40
0.0005
100
AcDbArc
 50
199.471220638017
 51
270.0
  0
LINE
  5
20B8
330
1F
100
AcDbEntity
  8
SANINDUSA
100
AcDbLine
 10
1564.207710714932
 20
3772.321507861446
 30
0.0
 11
1564.187688691172
 21
3772.321507861446
 31
0.0
  0
LINE
  5
20B9
330
1F
100
AcDbEntity
  8
SANINDUSA
100
AcDbLine
 10
1564.215125305313
 20
3772.321507861446
 30
0.0
 11
1564.217813918463
 21
3772.321507861446
 31
0.0
  0
ARC
  5
20BA
330
1F
100
AcDbEntity
  8
SANINDUSA
100
AcDbCircle
 10
1564.187688691172
 20
3772.320507861446
 30
0.0
 40
0.001
100
AcDbArc
 50
90.0
 51
270.0
  0
ARC
  5
20BB
330
1F
100
AcDbEntity
  8
SANINDUSA
100
AcDbCircle
 10
1564.217813918463
 20
3772.322007861446
 30
0.0
 40
0.0005000000000001
100
AcDbArc
 50
270.0
 51
336.421821524913
  0
LINE
  5
20BC
330
1F
100
AcDbEntity
  8
SANINDUSA
100
AcDbLine
 10
1564.187688691172
 20
3772.319507861446
 30
0.0
 11
1564.219188691172
 21
3772.319507861446
 31
0.0
  0
ARC
  5
20BD
330
1F
100
AcDbEntity
  8
SANINDUSA
100
AcDbCircle
 10
1564.219188691172
 20
3772.321407861446
 30
0.0
 40
0.0009999999999999
100
AcDbArc
 50
0.0
 51
156.4218215249129
  0
ARC
  5
20BE
330
1F
100
AcDbEntity
  8
SANINDUSA
100
AcDbCircle
 10
1564.219188691172
 20
3772.320507861446
 30
0.0
 40
0.0010000000000001
100
AcDbArc
 50
270.0
 51
0.0
  0
LINE
  5
20BF
330
1F
100
AcDbEntity
  8
SANINDUSA
100
AcDbLine
 10
1564.220188691172
 20
3772.320507861446
 30
0.0
 11
1564.220188691172
 21
3772.321407861446
 31
0.0
  0
LINE
  5
20C0
330
1F
100
AcDbEntity
  8
SANINDUSA
100
AcDbLine
 10
1564.165838691172
 20
3772.310281366211
 30
0.0
 11
1564.165838691172
 21
3772.334207861446
 31
0.0
  0
LINE
  5
20C1
330
1F
100
AcDbEntity
  8
SANINDUSA
100
AcDbLine
 10
1564.166838691171
 20
3772.334207861446
 30
0.0
 11
1564.165838691172
 21
3772.334207861446
 31
0.0
  0
LINE
  5
20C2
330
1F
100
AcDbEntity
  8
SANINDUSA
100
AcDbLine
 10
1564.165838691172
 20
3772.310281366211
 30
0.0
 11
1564.166837572084
 21
3772.310281366211
 31
0.0
  0
ARC
  5
20C3
330
1F
100
AcDbEntity
  8
SANINDUSA
100
AcDbCircle
 10
1564.166838691171
 20
3772.333207861446
 30
0.0
 40
0.0009999999999999
100
AcDbArc
 50
0.0
 51
90.0
  0
ARC
  5
20C4
330
1F
100
AcDbEntity
  8
SANINDUSA
100
AcDbCircle
 10
1564.166837572084
 20
3772.31128136621
 30
0.0
 40
0.0009999999999999
100
AcDbArc
 50
270.0
 51
359.4659008828148
  0
LINE
  5
20C5
330
1F
100
AcDbEntity
  8
SANINDUSA
100
AcDbLine
 10
1564.167838691172
 20
3772.332222075009
 30
0.0
 11
1564.167838691172
 21
3772.333207861446
 31
0.0
  0
LINE
  5
20C6
330
1F
100
AcDbEntity
  8
SANINDUSA
100
AcDbLine
 10
1564.167837528637
 20
3772.311272044558
 30
0.0
 11
1564.167844318297
 21
3772.312000388045
 31
0.0
  0
ARC
  5
20C7
330
1F
100
AcDbEntity
  8
SANINDUSA
100
AcDbCircle
 10
1564.169188691171
 20
3772.332222075009
 30
0.0
 40
0.0013499999999998
100
AcDbArc
 50
180.0
 51
225.0
  0
ARC
  5
20C8
330
1F
100
AcDbEntity
  8
SANINDUSA
100
AcDbCircle
 10
1564.169194259643
 20
3772.311987803814
 30
0.0
 40
0.00135
100
AcDbArc
 50
134.9106959474017
 51
179.4659008828148
  0
LINE
  5
20C9
330
1F
100
AcDbEntity
  8
SANINDUSA
100
AcDbLine
 10
1564.169148310579
 20
3772.330353267292
 30
0.0
 11
1564.168234097017
 21
3772.331267480853
 31
0.0
  0
LINE
  5
20CA
330
1F
100
AcDbEntity
  8
SANINDUSA
100
AcDbLine
 10
1564.168241154525
 20
3772.312943884685
 30
0.0
 11
1564.169147593636
 21
3772.313847502549
 31
0.0
  0
ARC
  5
20CB
330
1F
100
AcDbEntity
  8
SANINDUSA
100
AcDbCircle
 10
1564.168688691172
 20
3772.329893647884
 30
0.0
 40
0.0006500000000003
100
AcDbArc
 50
0.0
 51
45.0
  0
ARC
  5
20CC
330
1F
100
AcDbEntity
  8
SANINDUSA
100
AcDbCircle
 10
1564.168688691172
 20
3772.314307837785
 30
0.0
 40
0.0006500000000003
100
AcDbArc
 50
314.9106959474017
 51
0.0
  0
LINE
  5
20CD
330
1F
100
AcDbEntity
  8
SANINDUSA
100
AcDbLine
 10
1564.169338691172
 20
3772.314307837785
 30
0.0
 11
1564.169338691172
 21
3772.329893647884
 31
0.0
  0
ENDSEC
  0
SECTION
  2
OBJECTS
  0
DICTIONARY
  5
C
330
0
100
AcDbDictionary
281
     1
  3
ACAD_COLOR
350
2409
  3
ACAD_GROUP
350
D
  3
ACAD_LAYOUT
350
1A
  3
ACAD_MATERIAL
350
23DC
  3
ACAD_MLEADERSTYLE
350
241E
  3
ACAD_MLINESTYLE
350
17
  3
ACAD_PLOTSETTINGS
350
19
  3
ACAD_PLOTSTYLENAME
350
E
  3
ACAD_SCALELIST
350
240C
  3
ACAD_TABLESTYLE
350
240A
  3
ACAD_VISUALSTYLE
350
23F5
  3
ACDB_RECOMPOSE_DATA
350
24AC
  3
AcDbVariableDictionary
350
3D
  3
ASE_INDEX_DICTIONARY
350
199D
  3
DWGPROPS
350
24AD
  0
DICTIONARY
  5
2445
330
10
100
AcDbDictionary
280
     1
281
     1
  3
ADSK_XREC_LAYER_RECONCILED
360
2446
  0
DICTIONARY
  5
2447
330
2F
100
AcDbDictionary
280
     1
281
     1
  3
ADSK_XREC_LAYER_RECONCILED
360
2448
  0
DICTIONARY
  5
2449
330
30
100
AcDbDictionary
280
     1
281
     1
  3
ADSK_XREC_LAYER_RECONCILED
360
244A
  0
DICTIONARY
  5
244B
330
31
100
AcDbDictionary
280
     1
281
     1
  3
ADSK_XREC_LAYER_RECONCILED
360
244C
  0
DICTIONARY
  5
244D
330
32
100
AcDbDictionary
280
     1
281
     1
  3
ADSK_XREC_LAYER_RECONCILED
360
244E
  0
DICTIONARY
  5
244F
330
33
100
AcDbDictionary
280
     1
281
     1
  3
ADSK_XREC_LAYER_RECONCILED
360
2450
  0
DICTIONARY
  5
2451
330
34
100
AcDbDictionary
280
     1
281
     1
  3
ADSK_XREC_LAYER_RECONCILED
360
2452
  0
DICTIONARY
  5
2453
330
35
100
AcDbDictionary
280
     1
281
     1
  3
ADSK_XREC_LAYER_RECONCILED
360
2454
  0
DICTIONARY
  5
2455
330
36
100
AcDbDictionary
280
     1
281
     1
  3
ADSK_XREC_LAYER_RECONCILED
360
2456
  0
DICTIONARY
  5
2457
330
37
100
AcDbDictionary
280
     1
281
     1
  3
ADSK_XREC_LAYER_RECONCILED
360
2458
  0
DICTIONARY
  5
2459
330
5D6
100
AcDbDictionary
280
     1
281
     1
  3
ADSK_XREC_LAYER_RECONCILED
360
245A
  0
DICTIONARY
  5
245B
330
8AF
100
AcDbDictionary
280
     1
281
     1
  3
ADSK_XREC_LAYER_RECONCILED
360
245C
  0
DICTIONARY
  5
245D
330
8F8
100
AcDbDictionary
280
     1
281
     1
  3
ADSK_XREC_LAYER_RECONCILED
360
245E
  0
DICTIONARY
  5
245F
330
91D
100
AcDbDictionary
280
     1
281
     1
  3
ADSK_XREC_LAYER_RECONCILED
360
2460
  0
DICTIONARY
  5
2461
330
C85
100
AcDbDictionary
280
     1
281
     1
  3
ADSK_XREC_LAYER_RECONCILED
360
2462
  0
DICTIONARY
  5
2463
330
242C
100
AcDbDictionary
280
     1
281
     1
  3
ADSK_XREC_LAYER_RECONCILED
360
2464
  0
DICTIONARY
  5
24B4
330
23C1
100
AcDbDictionary
280
     1
281
     1
  3
ACAD_MTEXT_RT
360
24B5
  0
DICTIONARY
  5
2409
102
{ACAD_REACTORS
330
C
102
}
330
C
100
AcDbDictionary
281
     1
  0
DICTIONARY
  5
D
102
{ACAD_REACTORS
330
C
102
}
330
C
100
AcDbDictionary
281
     1
  0
DICTIONARY
  5
1A
102
{ACAD_REACTORS
330
C
102
}
330
C
100
AcDbDictionary
281
     1
  3
Layout1
350
1E
  3
Layout2
350
26
  3
Model
350
22
  0
DICTIONARY
  5
23DC
102
{ACAD_REACTORS
330
C
102
}
330
C
100
AcDbDictionary
281
     1
  3
ByBlock
350
23E5
  3
ByLayer
350
23DD
  3
Global
350
23ED
  0
DICTIONARY
  5
241E
102
{ACAD_REACTORS
330
C
102
}
330
C
100
AcDbDictionary
281
     1
  3
Standard
350
241F
  0
DICTIONARY
  5
17
102
{ACAD_REACTORS
330
C
102
}
330
C
100
AcDbDictionary
281
     1
  3
Standard
350
18
  0
DICTIONARY
  5
19
102
{ACAD_REACTORS
330
C
102
}
330
C
100
AcDbDictionary
281
     1
  0
ACDBDICTIONARYWDFLT
  5
E
102
{ACAD_REACTORS
330
C
102
}
330
C
100
AcDbDictionary
281
     1
  3
Normal
350
F
100
AcDbDictionaryWithDefault
340
F
  0
DICTIONARY
  5
240C
102
{ACAD_REACTORS
330
C
102
}
330
C
100
AcDbDictionary
281
     1
  3
A0
350
240D
  3
A1
350
240E
  3
A2
350
240F
  3
A3
350
2410
  3
A4
350
2411
  3
A5
350
2412
  3
A6
350
2413
  3
A7
350
2414
  3
A8
350
2415
  3
A9
350
2416
  3
B0
350
2417
  3
B1
350
2418
  3
B2
350
2419
  3
B3
350
241A
  3
B4
350
241B
  3
B5
350
241C
  3
B6
350
241D
  0
DICTIONARY
  5
240A
102
{ACAD_REACTORS
330
C
102
}
330
C
100
AcDbDictionary
281
     1
  3
Standard
350
240B
  0
DICTIONARY
  5
23F5
102
{ACAD_REACTORS
330
C
102
}
330
C
100
AcDbDictionary
281
     1
  3
2dWireframe
350
23FB
  3
3D Hidden
350
23FD
  3
3dWireframe
350
23FC
  3
Basic
350
23FA
  3
Brighten
350
2401
  3
ColorChange
350
2405
  3
Conceptual
350
23FE
  3
Dim
350
2400
  3
EdgeColorOff
350
2408
  3
Facepattern
350
2404
  3
Flat
350
23F6
  3
FlatWithEdges
350
23F7
  3
Gouraud
350
23F8
  3
GouraudWithEdges
350
23F9
  3
JitterOff
350
2406
  3
Linepattern
350
2403
  3
OverhangOff
350
2407
  3
Realistic
350
23FF
  3
Thicken
350
2402
  0
XRECORD
  5
24AC
102
{ACAD_REACTORS
330
C
102
}
330
C
100
AcDbXrecord
280
     1
 90
        1
330
240B
  0
DICTIONARY
  5
3D
102
{ACAD_REACTORS
330
C
102
}
330
C
100
AcDbDictionary
281
     1
  3
CANNOSCALE
350
24A6
  3
CMLEADERSTYLE
350
24A5
  3
CTABLESTYLE
350
24A4
  3
DIMASSOC
350
3F
  3
HIDETEXT
350
3E
  3
INDEXCTL
350
24A8
  3
SORTENTS
350
24A7
  3
XCLIPFRAME
350
24A9
  0
DICTIONARY
  5
199D
102
{ACAD_REACTORS
330
C
102
}
330
C
100
AcDbDictionary
281
     1
  3
ASEBlockHierarchyIndexRecord
350
199E
1001
DCO15
1040
1513340840.375
  0
XRECORD
  5
24AD
102
{ACAD_REACTORS
330
C
102
}
330
C
100
AcDbXrecord
280
     1
  1
DWGPROPS COOKIE
  2

  3

  4

  6

  7

  8
Julio
  9

300
=
301
=
302
=
303
=
304
=
305
=
306
=
307
=
308
=
309
=
 40
0.0490465856481482
 41
2453318.730959919
 42
2455824.605017535
  1

 90
        0
  0
XRECORD
  5
2446
102
{ACAD_REACTORS
330
2445
102
}
330
2445
100
AcDbXrecord
280
     1
290
     1
  0
XRECORD
  5
2448
102
{ACAD_REACTORS
330
2447
102
}
330
2447
100
AcDbXrecord
280
     1
290
     1
  0
XRECORD
  5
244A
102
{ACAD_REACTORS
330
2449
102
}
330
2449
100
AcDbXrecord
280
     1
290
     1
  0
XRECORD
  5
244C
102
{ACAD_REACTORS
330
244B
102
}
330
244B
100
AcDbXrecord
280
     1
290
     1
  0
XRECORD
  5
244E
102
{ACAD_REACTORS
330
244D
102
}
330
244D
100
AcDbXrecord
280
     1
290
     1
  0
XRECORD
  5
2450
102
{ACAD_REACTORS
330
244F
102
}
330
244F
100
AcDbXrecord
280
     1
290
     1
  0
XRECORD
  5
2452
102
{ACAD_REACTORS
330
2451
102
}
330
2451
100
AcDbXrecord
280
     1
290
     1
  0
XRECORD
  5
2454
102
{ACAD_REACTORS
330
2453
102
}
330
2453
100
AcDbXrecord
280
     1
290
     1
  0
XRECORD
  5
2456
102
{ACAD_REACTORS
330
2455
102
}
330
2455
100
AcDbXrecord
280
     1
290
     1
  0
XRECORD
  5
2458
102
{ACAD_REACTORS
330
2457
102
}
330
2457
100
AcDbXrecord
280
     1
290
     1
  0
XRECORD
  5
245A
102
{ACAD_REACTORS
330
2459
102
}
330
2459
100
AcDbXrecord
280
     1
290
     1
  0
XRECORD
  5
245C
102
{ACAD_REACTORS
330
245B
102
}
330
245B
100
AcDbXrecord
280
     1
290
     1
  0
XRECORD
  5
245E
102
{ACAD_REACTORS
330
245D
102
}
330
245D
100
AcDbXrecord
280
     1
290
     1
  0
XRECORD
  5
2460
102
{ACAD_REACTORS
330
245F
102
}
330
245F
100
AcDbXrecord
280
     1
290
     1
  0
XRECORD
  5
2462
102
{ACAD_REACTORS
330
2461
102
}
330
2461
100
AcDbXrecord
280
     1
290
     1
  0
XRECORD
  5
2464
102
{ACAD_REACTORS
330
2463
102
}
330
2463
100
AcDbXrecord
280
     1
290
     1
  0
XRECORD
  5
24B5
102
{ACAD_REACTORS
330
24B4
102
}
330
24B4
100
AcDbXrecord
280
     1
 40
3752.0
  1
90,0°
  0
LAYOUT
  5
1E
102
{ACAD_XDICTIONARY
360
24AE
102
}
102
{ACAD_REACTORS
330
1A
102
}
330
1A
100
AcDbPlotSettings
  1

  2
Ploter HP500
  4

  6

 40
0.0
 41
0.0
 42
0.0
 43
0.0
 44
0.0
 45
0.0
 46
0.0
 47
0.0
 48
0.0
 49
0.0
140
0.0
141
0.0
142
1.0
143
1.0
 70
   688
 72
     0
 73
     0
 74
     5
  7
monochrome.ctb
 75
    16
147
1.0
148
0.0
149
0.0
100
AcDbLayout
  1
Layout1
 70
     1
 71
     1
 10
0.0
 20
0.0
 11
420.0
 21
297.0
 12
0.0
 22
0.0
 32
0.0
 14
1.000000000000000E+20
 24
1.000000000000000E+20
 34
1.000000000000000E+20
 15
-1.000000000000000E+20
 25
-1.000000000000000E+20
 35
-1.000000000000000E+20
146
0.0
 13
0.0
 23
0.0
 33
0.0
 16
1.0
 26
0.0
 36
0.0
 17
0.0
 27
1.0
 37
0.0
 76
     0
330
1B
  0
LAYOUT
  5
26
102
{ACAD_XDICTIONARY
360
24B2
102
}
102
{ACAD_REACTORS
330
1A
102
}
330
1A
100
AcDbPlotSettings
  1

  2
Ploter HP500
  4

  6

 40
0.0
 41
0.0
 42
0.0
 43
0.0
 44
0.0
 45
0.0
 46
0.0
 47
0.0
 48
0.0
 49
0.0
140
0.0
141
0.0
142
1.0
143
1.0
 70
   688
 72
     0
 73
     0
 74
     5
  7
monochrome.ctb
 75
    16
147
1.0
148
0.0
149
0.0
100
AcDbLayout
  1
Layout2
 70
     1
 71
     2
 10
0.0
 20
0.0
 11
12.0
 21
9.0
 12
0.0
 22
0.0
 32
0.0
 14
0.0
 24
0.0
 34
0.0
 15
0.0
 25
0.0
 35
0.0
146
0.0
 13
0.0
 23
0.0
 33
0.0
 16
1.0
 26
0.0
 36
0.0
 17
0.0
 27
1.0
 37
0.0
 76
     0
330
23
  0
LAYOUT
  5
22
102
{ACAD_XDICTIONARY
360
24B0
102
}
102
{ACAD_REACTORS
330
1A
102
}
330
1A
100
AcDbPlotSettings
  1

  2
Ploter HP500
  4
User268
  6

 40
4.995333194732666
 41
16.97565841674804
 42
4.995330810546875
 43
16.97567749023437
 44
209.9733276367187
 45
296.9259948730469
 46
0.0
 47
0.0
 48
0.0
 49
0.0
140
0.0
141
0.0
142
1.0
143
1.0
 70
 11952
 72
     1
 73
     1
 74
     0
  7

 75
     0
147
1.0
148
-427.5957866592534
149
7.362384574453926
100
AcDbLayout
  1
Model
 70
     1
 71
     0
 10
0.0
 20
0.0
 11
12.0
 21
9.0
 12
0.0
 22
0.0
 32
0.0
 14
0.0
 24
0.0
 34
0.0
 15
0.0
 25
0.0
 35
0.0
146
0.0
 13
0.0
 23
0.0
 33
0.0
 16
1.0
 26
0.0
 36
0.0
 17
0.0
 27
1.0
 37
0.0
 76
     0
330
1F
331
23DA
  0
MATERIAL
  5
23E5
102
{ACAD_XDICTIONARY
360
23E6
102
}
102
{ACAD_REACTORS
330
23DC
102
}
330
23DC
100
AcDbMaterial
  1
ByBlock
 72
     0
 43
0.0008202099737533
 43
0.0
 43
0.0
 43
0.0
 43
0.0
 43
0.0008202099737533
 43
0.0
 43
0.0
 43
0.0
 43
0.0
 43
1.0
 43
0.0
 43
0.0
 43
0.0
 43
0.0
 43
1.0
 77
     0
 47
0.0008202099737533
 47
0.0
 47
0.0
 47
0.0
 47
0.0
 47
0.0008202099737533
 47
0.0
 47
0.0
 47
0.0
 47
0.0
 47
1.0
 47
0.0
 47
0.0
 47
0.0
 47
0.0
 47
1.0
171
     0
 49
0.0008202099737533
 49
0.0
 49
0.0
 49
0.0
 49
0.0
 49
0.0008202099737533
 49
0.0
 49
0.0
 49
0.0
 49
0.0
 49
1.0
 49
0.0
 49
0.0
 49
0.0
 49
0.0
 49
1.0
175
     0
142
0.0008202099737533
142
0.0
142
0.0
142
0.0
142
0.0
142
0.0008202099737533
142
0.0
142
0.0
142
0.0
142
0.0
142
1.0
142
0.0
142
0.0
142
0.0
142
0.0
142
1.0
179
     0
144
0.0008202099737533
144
0.0
144
0.0
144
0.0
144
0.0
144
0.0008202099737533
144
0.0
144
0.0
144
0.0
144
0.0
144
1.0
144
0.0
144
0.0
144
0.0
144
0.0
144
1.0
147
0.0008202099737533
147
0.0
147
0.0
147
0.0
147
0.0
147
0.0008202099737533
147
0.0
147
0.0
147
0.0
147
0.0
147
1.0
147
0.0
147
0.0
147
0.0
147
0.0
147
1.0
  0
MATERIAL
  5
23DD
102
{ACAD_XDICTIONARY
360
23DE
102
}
102
{ACAD_REACTORS
330
23DC
102
}
330
23DC
100
AcDbMaterial
  1
ByLayer
 72
     0
 43
0.0008202099737533
 43
0.0
 43
0.0
 43
0.0
 43
0.0
 43
0.0008202099737533
 43
0.0
 43
0.0
 43
0.0
 43
0.0
 43
1.0
 43
0.0
 43
0.0
 43
0.0
 43
0.0
 43
1.0
 77
     0
 47
0.0008202099737533
 47
0.0
 47
0.0
 47
0.0
 47
0.0
 47
0.0008202099737533
 47
0.0
 47
0.0
 47
0.0
 47
0.0
 47
1.0
 47
0.0
 47
0.0
 47
0.0
 47
0.0
 47
1.0
171
     0
 49
0.0008202099737533
 49
0.0
 49
0.0
 49
0.0
 49
0.0
 49
0.0008202099737533
 49
0.0
 49
0.0
 49
0.0
 49
0.0
 49
1.0
 49
0.0
 49
0.0
 49
0.0
 49
0.0
 49
1.0
175
     0
142
0.0008202099737533
142
0.0
142
0.0
142
0.0
142
0.0
142
0.0008202099737533
142
0.0
142
0.0
142
0.0
142
0.0
142
1.0
142
0.0
142
0.0
142
0.0
142
0.0
142
1.0
179
     0
144
0.0008202099737533
144
0.0
144
0.0
144
0.0
144
0.0
144
0.0008202099737533
144
0.0
144
0.0
144
0.0
144
0.0
144
1.0
144
0.0
144
0.0
144
0.0
144
0.0
144
1.0
147
0.0008202099737533
147
0.0
147
0.0
147
0.0
147
0.0
147
0.0008202099737533
147
0.0
147
0.0
147
0.0
147
0.0
147
1.0
147
0.0
147
0.0
147
0.0
147
0.0
147
1.0
  0
MATERIAL
  5
23ED
102
{ACAD_XDICTIONARY
360
23EE
102
}
102
{ACAD_REACTORS
330
23DC
102
}
330
23DC
100
AcDbMaterial
  1
Global
 72
     0
 43
0.0008202099737533
 43
0.0
 43
0.0
 43
0.0
 43
0.0
 43
0.0008202099737533
 43
0.0
 43
0.0
 43
0.0
 43
0.0
 43
1.0
 43
0.0
 43
0.0
 43
0.0
 43
0.0
 43
1.0
 77
     0
 47
0.0008202099737533
 47
0.0
 47
0.0
 47
0.0
 47
0.0
 47
0.0008202099737533
 47
0.0
 47
0.0
 47
0.0
 47
0.0
 47
1.0
 47
0.0
 47
0.0
 47
0.0
 47
0.0
 47
1.0
171
     0
 49
0.0008202099737533
 49
0.0
 49
0.0
 49
0.0
 49
0.0
 49
0.0008202099737533
 49
0.0
 49
0.0
 49
0.0
 49
0.0
 49
1.0
 49
0.0
 49
0.0
 49
0.0
 49
0.0
 49
1.0
175
     0
142
0.0008202099737533
142
0.0
142
0.0
142
0.0
142
0.0
142
0.0008202099737533
142
0.0
142
0.0
142
0.0
142
0.0
142
1.0
142
0.0
142
0.0
142
0.0
142
0.0
142
1.0
179
     0
144
0.0008202099737533
144
0.0
144
0.0
144
0.0
144
0.0
144
0.0008202099737533
144
0.0
144
0.0
144
0.0
144
0.0
144
1.0
144
0.0
144
0.0
144
0.0
144
0.0
144
1.0
147
0.0008202099737533
147
0.0
147
0.0
147
0.0
147
0.0
147
0.0008202099737533
147
0.0
147
0.0
147
0.0
147
0.0
147
1.0
147
0.0
147
0.0
147
0.0
147
0.0
147
1.0
  0
MLEADERSTYLE
  5
241F
102
{ACAD_REACTORS
330
241E
102
}
330
241E
100
AcDbMLeaderStyle
170
     2
171
     1
172
     0
 90
        2
 40
0.0
 41
0.0
173
     1
 91
-1056964608
340
14
 92
       -2
290
     1
 42
2.0
291
     1
 43
0.36
  3
Standard
 44
4.0
300

342
11
174
     1
178
     6
175
     1
176
     0
 93
-1056964608
 45
4.0
292
     0
297
     0
 46
4.0
 94
-1056964608
 47
1.0
 49
1.0
140
1.0
293
     1
141
0.0
294
     1
177
     0
142
1.0
295
     0
296
     0
143
0.125
1001
ACAD_MLEADERVER
1070
     2
  0
MLINESTYLE
  5
18
102
{ACAD_REACTORS
330
17
102
}
330
17
100
AcDbMlineStyle
  2
STANDARD
 70
     0
  3

 62
   256
 51
90.0
 52
90.0
 71
     2
 49
0.5
 62
   256
  6
BYLAYER
 49
-0.5
 62
   256
  6
BYLAYER
  0
ACDBPLACEHOLDER
  5
F
102
{ACAD_REACTORS
330
E
102
}
330
E
  0
SCALE
  5
240D
102
{ACAD_REACTORS
330
240C
102
}
330
240C
100
AcDbScale
 70
     0
300
1:1
140
1.0
141
1.0
290
     1
  0
SCALE
  5
240E
102
{ACAD_REACTORS
330
240C
102
}
330
240C
100
AcDbScale
 70
     0
300
1:2
140
1.0
141
2.0
290
     0
  0
SCALE
  5
240F
102
{ACAD_REACTORS
330
240C
102
}
330
240C
100
AcDbScale
 70
     0
300
1:4
140
1.0
141
4.0
290
     0
  0
SCALE
  5
2410
102
{ACAD_REACTORS
330
240C
102
}
330
240C
100
AcDbScale
 70
     0
300
1:5
140
1.0
141
5.0
290
     0
  0
SCALE
  5
2411
102
{ACAD_REACTORS
330
240C
102
}
330
240C
100
AcDbScale
 70
     0
300
1:8
140
1.0
141
8.0
290
     0
  0
SCALE
  5
2412
102
{ACAD_REACTORS
330
240C
102
}
330
240C
100
AcDbScale
 70
     0
300
1:10
140
1.0
141
10.0
290
     0
  0
SCALE
  5
2413
102
{ACAD_REACTORS
330
240C
102
}
330
240C
100
AcDbScale
 70
     0
300
1:16
140
1.0
141
16.0
290
     0
  0
SCALE
  5
2414
102
{ACAD_REACTORS
330
240C
102
}
330
240C
100
AcDbScale
 70
     0
300
1:20
140
1.0
141
20.0
290
     0
  0
SCALE
  5
2415
102
{ACAD_REACTORS
330
240C
102
}
330
240C
100
AcDbScale
 70
     0
300
1:30
140
1.0
141
30.0
290
     0
  0
SCALE
  5
2416
102
{ACAD_REACTORS
330
240C
102
}
330
240C
100
AcDbScale
 70
     0
300
1:40
140
1.0
141
40.0
290
     0
  0
SCALE
  5
2417
102
{ACAD_REACTORS
330
240C
102
}
330
240C
100
AcDbScale
 70
     0
300
1:50
140
1.0
141
50.0
290
     0
  0
SCALE
  5
2418
102
{ACAD_REACTORS
330
240C
102
}
330
240C
100
AcDbScale
 70
     0
300
1:100
140
1.0
141
100.0
290
     0
  0
SCALE
  5
2419
102
{ACAD_REACTORS
330
240C
102
}
330
240C
100
AcDbScale
 70
     0
300
2:1
140
2.0
141
1.0
290
     0
  0
SCALE
  5
241A
102
{ACAD_REACTORS
330
240C
102
}
330
240C
100
AcDbScale
 70
     0
300
4:1
140
4.0
141
1.0
290
     0
  0
SCALE
  5
241B
102
{ACAD_REACTORS
330
240C
102
}
330
240C
100
AcDbScale
 70
     0
300
8:1
140
8.0
141
1.0
290
     0
  0
SCALE
  5
241C
102
{ACAD_REACTORS
330
240C
102
}
330
240C
100
AcDbScale
 70
     0
300
10:1
140
10.0
141
1.0
290
     0
  0
SCALE
  5
241D
102
{ACAD_REACTORS
330
240C
102
}
330
240C
100
AcDbScale
 70
     0
300
100:1
140
100.0
141
1.0
290
     0
  0
TABLESTYLE
  5
240B
102
{ACAD_XDICTIONARY
360
24AA
102
}
102
{ACAD_REACTORS
330
240A
102
}
330
240A
100
AcDbTableStyle
  3
Standard
 70
     0
 71
     0
 40
1.5
 41
1.5
280
     0
281
     0
  7
Standard
140
4.5
170
     2
 62
     0
 63
     7
283
     0
274
    -2
284
     1
 64
     0
275
    -2
285
     1
 65
     0
276
    -2
286
     1
 66
     0
277
    -2
287
     1
 67
     0
278
    -2
288
     1
 68
     0
279
    -2
289
     1
 69
     0
  7
Standard
140
6.0
170
     5
 62
     0
 63
     7
283
     0
274
    -2
284
     1
 64
     0
275
    -2
285
     1
 65
     0
276
    -2
286
     1
 66
     0
277
    -2
287
     1
 67
     0
278
    -2
288
     1
 68
     0
279
    -2
289
     1
 69
     0
  7
Standard
140
4.5
170
     5
 62
     0
 63
     7
283
     0
274
    -2
284
     1
 64
     0
275
    -2
285
     1
 65
     0
276
    -2
286
     1
 66
     0
277
    -2
287
     1
 67
     0
278
    -2
288
     1
 68
     0
279
    -2
289
     1
 69
     0
  0
VISUALSTYLE
  5
23FB
102
{ACAD_XDICTIONARY
360
24C3
102
}
102
{ACAD_REACTORS
330
23F5
102
}
330
23F5
100
AcDbVisualStyle
  2
2dWireframe
 70
     4
 71
     0
 72
     2
 73
     0
 90
        0
 40
-0.6
 41
-30.0
 62
     5
 63
     7
 74
     1
 91
        4
 64
     7
 65
   257
 75
     1
175
     1
 42
1.0
 92
        0
 66
   257
 43
1.0
 76
     1
 77
     6
 78
     2
 67
     7
 79
     5
170
     0
171
     0
290
     0
174
     0
 93
        1
 44
0.0
173
     0
291
     0
 45
0.0
1001
ACAD
1000
AcDbSavedByObjectVersion
1070
     0
  0
VISUALSTYLE
  5
23FD
102
{ACAD_XDICTIONARY
360
24C7
102
}
102
{ACAD_REACTORS
330
23F5
102
}
330
23F5
100
AcDbVisualStyle
  2
3D Hidden
 70
     6
 71
     1
 72
     2
 73
     2
 90
        0
 40
-0.6
 41
-30.0
 62
     5
 63
     7
 74
     2
 91
        2
 64
     7
 65
   257
 75
     2
175
     1
 42
179.0
 92
        0
 66
   257
 43
1.0
 76
     1
 77
     6
 78
     2
 67
     7
 79
     3
170
     0
171
     0
290
     0
174
     0
 93
        1
 44
0.0
173
     0
291
     0
 45
0.0
1001
ACAD
1000
AcDbSavedByObjectVersion
1070
     0
  0
VISUALSTYLE
  5
23FC
102
{ACAD_XDICTIONARY
360
24C5
102
}
102
{ACAD_REACTORS
330
23F5
102
}
330
23F5
100
AcDbVisualStyle
  2
3dWireframe
 70
     5
 71
     0
 72
     2
 73
     0
 90
        0
 40
-0.6
 41
-30.0
 62
     5
 63
     7
 74
     1
 91
        4
 64
     7
 65
   257
 75
     1
175
     1
 42
1.0
 92
        0
 66
   257
 43
1.0
 76
     1
 77
     6
 78
     2
 67
     7
 79
     5
170
     0
171
     0
290
     0
174
     0
 93
        1
 44
0.0
173
     0
291
     0
 45
0.0
1001
ACAD
1000
AcDbSavedByObjectVersion
1070
     0
  0
VISUALSTYLE
  5
23FA
102
{ACAD_XDICTIONARY
360
24C1
102
}
102
{ACAD_REACTORS
330
23F5
102
}
330
23F5
100
AcDbVisualStyle
  2
Basic
 70
     7
 71
     1
 72
     0
 73
     1
 90
        0
 40
-0.6
 41
-30.0
 62
     5
 63
     7
 74
     0
 91
        4
 64
     7
 65
   257
 75
     1
175
     1
 42
1.0
 92
        8
 66
     7
 43
1.0
 76
     1
 77
     6
 78
     2
 67
     7
 79
     5
170
     0
171
     0
290
     0
174
     0
 93
        1
 44
0.0
173
     0
291
     1
 45
0.0
1001
ACAD
1000
AcDbSavedByObjectVersion
1070
     0
  0
VISUALSTYLE
  5
2401
102
{ACAD_XDICTIONARY
360
24CF
102
}
102
{ACAD_REACTORS
330
23F5
102
}
330
23F5
100
AcDbVisualStyle
  2
Brighten
 70
    12
 71
     2
 72
     2
 73
     0
 90
        0
 40
-0.6
 41
-30.0
 62
     5
 63
     7
 74
     1
 91
        4
 64
     7
 65
   257
 75
     1
175
     1
 42
1.0
 92
        8
 66
     7
 43
1.0
 76
     1
 77
     6
 78
     2
 67
     7
 79
     5
170
     0
171
     0
290
     0
174
     0
 93
        1
 44
50.0
173
     0
291
     1
 45
0.0
1001
ACAD
1000
AcDbSavedByObjectVersion
1070
     0
  0
VISUALSTYLE
  5
2405
102
{ACAD_XDICTIONARY
360
24D7
102
}
102
{ACAD_REACTORS
330
23F5
102
}
330
23F5
100
AcDbVisualStyle
  2
ColorChange
 70
    16
 71
     2
 72
     2
 73
     3
 90
        0
 40
-0.6
 41
-30.0
 62
     5
 63
     8
 74
     1
 91
        4
 64
     7
 65
   257
 75
     1
175
     1
 42
1.0
 92
        8
 66
     8
 43
1.0
 76
     1
 77
     6
 78
     2
 67
     7
 79
     5
170
     0
171
     0
290
     0
174
     0
 93
        1
 44
0.0
173
     0
291
     1
 45
0.0
1001
ACAD
1000
AcDbSavedByObjectVersion
1070
     0
  0
VISUALSTYLE
  5
23FE
102
{ACAD_XDICTIONARY
360
24C9
102
}
102
{ACAD_REACTORS
330
23F5
102
}
330
23F5
100
AcDbVisualStyle
  2
Conceptual
 70
     9
 71
     3
 72
     2
 73
     0
 90
        0
 40
-0.6
 41
-30.0
 62
     5
 63
     7
 74
     2
 91
        2
 64
     7
 65
   257
 75
     1
175
     1
 42
179.0
 92
        8
 66
     7
 43
1.0
 76
     1
 77
     6
 78
     2
 67
     7
 79
     3
170
     0
171
     0
290
     0
174
     0
 93
        1
 44
0.0
173
     0
291
     0
 45
0.0
1001
ACAD
1000
AcDbSavedByObjectVersion
1070
     0
  0
VISUALSTYLE
  5
2400
102
{ACAD_XDICTIONARY
360
24CD
102
}
102
{ACAD_REACTORS
330
23F5
102
}
330
23F5
100
AcDbVisualStyle
  2
Dim
 70
    11
 71
     2
 72
     2
 73
     0
 90
        0
 40
-0.6
 41
-30.0
 62
     5
 63
     7
 74
     1
 91
        4
 64
     7
 65
   257
 75
     1
175
     1
 42
1.0
 92
        8
 66
     7
 43
1.0
 76
     1
 77
     6
 78
     2
 67
     7
 79
     5
170
     0
171
     0
290
     0
174
     0
 93
        1
 44
-50.0
173
     0
291
     1
 45
0.0
1001
ACAD
1000
AcDbSavedByObjectVersion
1070
     0
  0
VISUALSTYLE
  5
2408
102
{ACAD_XDICTIONARY
360
24DD
102
}
102
{ACAD_REACTORS
330
23F5
102
}
330
23F5
100
AcDbVisualStyle
  2
EdgeColorOff
 70
    22
 71
     2
 72
     2
 73
     0
 90
        0
 40
-0.6
 41
-30.0
 62
     5
 63
     7
 74
     1
 91
        4
 64
     7
 65
   257
 75
     1
175
     1
 42
1.0
 92
        8
 66
     7
 43
1.0
 76
     1
 77
     6
 78
     2
 67
     7
 79
     5
170
     0
171
     0
290
     0
174
     0
 93
        1
 44
0.0
173
     0
291
     1
 45
0.0
1001
ACAD
1000
AcDbSavedByObjectVersion
1070
     0
  0
VISUALSTYLE
  5
2404
102
{ACAD_XDICTIONARY
360
24D5
102
}
102
{ACAD_REACTORS
330
23F5
102
}
330
23F5
100
AcDbVisualStyle
  2
Facepattern
 70
    15
 71
     2
 72
     2
 73
     0
 90
        0
 40
-0.6
 41
-30.0
 62
     5
 63
     7
 74
     1
 91
        4
 64
     7
 65
   257
 75
     1
175
     1
 42
1.0
 92
        8
 66
     7
 43
1.0
 76
     1
 77
     6
 78
     2
 67
     7
 79
     5
170
     0
171
     0
290
     0
174
     0
 93
        1
 44
0.0
173
     0
291
     1
 45
0.0
1001
ACAD
1000
AcDbSavedByObjectVersion
1070
     0
  0
VISUALSTYLE
  5
23F6
102
{ACAD_XDICTIONARY
360
24B9
102
}
102
{ACAD_REACTORS
330
23F5
102
}
330
23F5
100
AcDbVisualStyle
  2
Flat
 70
     0
 71
     2
 72
     1
 73
     1
 90
        2
 40
-0.6
 41
30.0
 62
     5
 63
     7
 74
     0
 91
        4
 64
     7
 65
   257
 75
     1
175
     1
 42
1.0
 92
        8
 66
     7
 43
1.0
 76
     1
 77
     6
 78
     2
 67
     7
 79
     5
170
     0
171
     0
290
     0
174
     0
 93
       13
 44
0.0
173
     0
291
     1
 45
0.0
1001
ACAD
1000
AcDbSavedByObjectVersion
1070
     0
  0
VISUALSTYLE
  5
23F7
102
{ACAD_XDICTIONARY
360
24BB
102
}
102
{ACAD_REACTORS
330
23F5
102
}
330
23F5
100
AcDbVisualStyle
  2
FlatWithEdges
 70
     1
 71
     2
 72
     1
 73
     1
 90
        2
 40
-0.6
 41
30.0
 62
     5
 63
     7
 74
     1
 91
        4
 64
     7
 65
   257
 75
     1
175
     1
 42
1.0
 92
        0
 66
   257
 43
1.0
 76
     1
 77
     6
 78
     2
 67
     7
 79
     5
170
     0
171
     0
290
     0
174
     0
 93
       13
 44
0.0
173
     0
291
     1
 45
0.0
1001
ACAD
1000
AcDbSavedByObjectVersion
1070
     0
  0
VISUALSTYLE
  5
23F8
102
{ACAD_XDICTIONARY
360
24BD
102
}
102
{ACAD_REACTORS
330
23F5
102
}
330
23F5
100
AcDbVisualStyle
  2
Gouraud
 70
     2
 71
     2
 72
     2
 73
     1
 90
        2
 40
-0.6
 41
30.0
 62
     5
 63
     7
 74
     0
 91
        4
 64
     7
 65
   257
 75
     1
175
     1
 42
1.0
 92
        0
 66
     7
 43
1.0
 76
     1
 77
     6
 78
     2
 67
     7
 79
     5
170
     0
171
     0
290
     0
174
     0
 93
       13
 44
0.0
173
     0
291
     1
 45
0.0
1001
ACAD
1000
AcDbSavedByObjectVersion
1070
     0
  0
VISUALSTYLE
  5
23F9
102
{ACAD_XDICTIONARY
360
24BF
102
}
102
{ACAD_REACTORS
330
23F5
102
}
330
23F5
100
AcDbVisualStyle
  2
GouraudWithEdges
 70
     3
 71
     2
 72
     2
 73
     1
 90
        2
 40
-0.6
 41
30.0
 62
     5
 63
     7
 74
     1
 91
        4
 64
     7
 65
   257
 75
     1
175
     1
 42
1.0
 92
        0
 66
   257
 43
1.0
 76
     1
 77
     6
 78
     2
 67
     7
 79
     5
170
     0
171
     0
290
     0
174
     0
 93
       13
 44
0.0
173
     0
291
     1
 45
0.0
1001
ACAD
1000
AcDbSavedByObjectVersion
1070
     0
  0
VISUALSTYLE
  5
2406
102
{ACAD_XDICTIONARY
360
24D9
102
}
102
{ACAD_REACTORS
330
23F5
102
}
330
23F5
100
AcDbVisualStyle
  2
JitterOff
 70
    20
 71
     2
 72
     2
 73
     0
 90
        0
 40
-0.6
 41
-30.0
 62
     5
 63
     7
 74
     1
 91
        4
 64
     7
 65
   257
 75
     1
175
     1
 42
1.0
 92
       10
 66
     7
 43
1.0
 76
     1
 77
     6
 78
     2
 67
     7
 79
     5
170
     0
171
     0
290
     0
174
     0
 93
        1
 44
0.0
173
     0
291
     1
 45
0.0
1001
ACAD
1000
AcDbSavedByObjectVersion
1070
     0
  0
VISUALSTYLE
  5
2403
102
{ACAD_XDICTIONARY
360
24D3
102
}
102
{ACAD_REACTORS
330
23F5
102
}
330
23F5
100
AcDbVisualStyle
  2
Linepattern
 70
    14
 71
     2
 72
     2
 73
     0
 90
        0
 40
-0.6
 41
-30.0
 62
     5
 63
     7
 74
     1
 91
        4
 64
     7
 65
   257
 75
     7
175
     7
 42
1.0
 92
        8
 66
     7
 43
1.0
 76
     1
 77
     6
 78
     2
 67
     7
 79
     5
170
     0
171
     0
290
     0
174
     0
 93
        1
 44
0.0
173
     0
291
     1
 45
0.0
1001
ACAD
1000
AcDbSavedByObjectVersion
1070
     0
  0
VISUALSTYLE
  5
2407
102
{ACAD_XDICTIONARY
360
24DB
102
}
102
{ACAD_REACTORS
330
23F5
102
}
330
23F5
100
AcDbVisualStyle
  2
OverhangOff
 70
    21
 71
     2
 72
     2
 73
     0
 90
        0
 40
-0.6
 41
-30.0
 62
     5
 63
     7
 74
     1
 91
        4
 64
     7
 65
   257
 75
     1
175
     1
 42
1.0
 92
        9
 66
     7
 43
1.0
 76
     1
 77
     6
 78
     2
 67
     7
 79
     5
170
     0
171
     0
290
     0
174
     0
 93
        1
 44
0.0
173
     0
291
     1
 45
0.0
1001
ACAD
1000
AcDbSavedByObjectVersion
1070
     0
  0
VISUALSTYLE
  5
23FF
102
{ACAD_XDICTIONARY
360
24CB
102
}
102
{ACAD_REACTORS
330
23F5
102
}
330
23F5
100
AcDbVisualStyle
  2
Realistic
 70
     8
 71
     2
 72
     2
 73
     0
 90
        0
 40
-0.6
 41
-30.0
 62
     5
 63
     7
 74
     1
 91
        0
 64
     7
 65
   257
 75
     1
175
     1
 42
1.0
 92
        8
 66
     8
 43
1.0
 76
     1
 77
     6
 78
     2
 67
     7
 79
     5
170
     0
171
     0
290
     0
174
     0
 93
       13
 44
0.0
173
     0
291
     0
 45
0.0
1001
ACAD
1000
AcDbSavedByObjectVersion
1070
     0
  0
VISUALSTYLE
  5
2402
102
{ACAD_XDICTIONARY
360
24D1
102
}
102
{ACAD_REACTORS
330
23F5
102
}
330
23F5
100
AcDbVisualStyle
  2
Thicken
 70
    13
 71
     2
 72
     2
 73
     0
 90
        0
 40
-0.6
 41
-30.0
 62
     5
 63
     7
 74
     1
 91
        4
 64
     7
 65
   257
 75
     1
175
     1
 42
1.0
 92
       12
 66
     7
 43
1.0
 76
     1
 77
     6
 78
     2
 67
     7
 79
     5
170
     0
171
     0
290
     0
174
     0
 93
        1
 44
0.0
173
     0
291
     1
 45
0.0
1001
ACAD
1000
AcDbSavedByObjectVersion
1070
     0
  0
DICTIONARYVAR
  5
24A6
102
{ACAD_REACTORS
330
3D
102
}
330
3D
100
DictionaryVariables
280
     0
  1
1:1
  0
DICTIONARYVAR
  5
24A5
102
{ACAD_REACTORS
330
3D
102
}
330
3D
100
DictionaryVariables
280
     0
  1
STANDARD
  0
DICTIONARYVAR
  5
24A4
102
{ACAD_REACTORS
330
3D
102
}
330
3D
100
DictionaryVariables
280
     0
  1
STANDARD
  0
DICTIONARYVAR
  5
3F
102
{ACAD_REACTORS
330
3D
102
}
330
3D
100
DictionaryVariables
280
     0
  1
2
  0
DICTIONARYVAR
  5
3E
102
{ACAD_REACTORS
330
3D
102
}
330
3D
100
DictionaryVariables
280
     0
  1
1
  0
DICTIONARYVAR
  5
24A8
102
{ACAD_REACTORS
330
3D
102
}
330
3D
100
DictionaryVariables
280
     0
  1
0
  0
DICTIONARYVAR
  5
24A7
102
{ACAD_REACTORS
330
3D
102
}
330
3D
100
DictionaryVariables
280
     0
  1
127
  0
DICTIONARYVAR
  5
24A9
102
{ACAD_REACTORS
330
3D
102
}
330
3D
100
DictionaryVariables
280
     0
  1
2
  0
XRECORD
  5
199E
102
{ACAD_REACTORS
330
199D
102
}
330
199D
100
AcDbXrecord
280
     1
  0
DICTIONARY
  5
24AE
330
1E
100
AcDbDictionary
280
     1
281
     1
  3
ACAD_XREC_ROUNDTRIP
360
24AF
  0
DICTIONARY
  5
24B2
330
26
100
AcDbDictionary
280
     1
281
     1
  3
ACAD_XREC_ROUNDTRIP
360
24B3
  0
DICTIONARY
  5
24B0
330
22
100
AcDbDictionary
280
     1
281
     1
  3
ACAD_XREC_ROUNDTRIP
360
24B1
  0
DICTIONARY
  5
23E6
330
23E5
100
AcDbDictionary
280
     1
281
     1
  3
ACAD_XREC_ROUNDTRIP
360
24B7
  3
BUMPTILE
360
23E8
  3
DIFFUSETILE
360
23E7
  3
OPACITYTILE
360
23EB
  3
REFLECTIONTILE
360
23EA
  3
REFRACTIONTILE
360
23EC
  3
SPECULARTILE
360
23E9
  0
DICTIONARY
  5
23DE
330
23DD
100
AcDbDictionary
280
     1
281
     1
  3
ACAD_XREC_ROUNDTRIP
360
24B6
  3
BUMPTILE
360
23E0
  3
DIFFUSETILE
360
23DF
  3
OPACITYTILE
360
23E3
  3
REFLECTIONTILE
360
23E2
  3
REFRACTIONTILE
360
23E4
  3
SPECULARTILE
360
23E1
  0
DICTIONARY
  5
23EE
330
23ED
100
AcDbDictionary
280
     1
281
     1
  3
ACAD_XREC_ROUNDTRIP
360
24B8
  3
BUMPTILE
360
23F0
  3
DIFFUSETILE
360
23EF
  3
OPACITYTILE
360
23F3
  3
REFLECTIONTILE
360
23F2
  3
REFRACTIONTILE
360
23F4
  3
SPECULARTILE
360
23F1
  0
DICTIONARY
  5
24AA
330
240B
100
AcDbDictionary
280
     1
281
     1
  3
ACAD_ROUNDTRIP_2008_TABLESTYLE_CELLSTYLEMAP
360
24AB
  3
ACAD_XREC_ROUNDTRIP
360
24DF
  0
DICTIONARY
  5
24C3
330
23FB
100
AcDbDictionary
280
     1
281
     1
  3
ACAD_XREC_ROUNDTRIP
360
24C4
  0
DICTIONARY
  5
24C7
330
23FD
100
AcDbDictionary
280
     1
281
     1
  3
ACAD_XREC_ROUNDTRIP
360
24C8
  0
DICTIONARY
  5
24C5
330
23FC
100
AcDbDictionary
280
     1
281
     1
  3
ACAD_XREC_ROUNDTRIP
360
24C6
  0
DICTIONARY
  5
24C1
330
23FA
100
AcDbDictionary
280
     1
281
     1
  3
ACAD_XREC_ROUNDTRIP
360
24C2
  0
DICTIONARY
  5
24CF
330
2401
100
AcDbDictionary
280
     1
281
     1
  3
ACAD_XREC_ROUNDTRIP
360
24D0
  0
DICTIONARY
  5
24D7
330
2405
100
AcDbDictionary
280
     1
281
     1
  3
ACAD_XREC_ROUNDTRIP
360
24D8
  0
DICTIONARY
  5
24C9
330
23FE
100
AcDbDictionary
280
     1
281
     1
  3
ACAD_XREC_ROUNDTRIP
360
24CA
  0
DICTIONARY
  5
24CD
330
2400
100
AcDbDictionary
280
     1
281
     1
  3
ACAD_XREC_ROUNDTRIP
360
24CE
  0
DICTIONARY
  5
24DD
330
2408
100
AcDbDictionary
280
     1
281
     1
  3
ACAD_XREC_ROUNDTRIP
360
24DE
  0
DICTIONARY
  5
24D5
330
2404
100
AcDbDictionary
280
     1
281
     1
  3
ACAD_XREC_ROUNDTRIP
360
24D6
  0
DICTIONARY
  5
24B9
330
23F6
100
AcDbDictionary
280
     1
281
     1
  3
ACAD_XREC_ROUNDTRIP
360
24BA
  0
DICTIONARY
  5
24BB
330
23F7
100
AcDbDictionary
280
     1
281
     1
  3
ACAD_XREC_ROUNDTRIP
360
24BC
  0
DICTIONARY
  5
24BD
330
23F8
100
AcDbDictionary
280
     1
281
     1
  3
ACAD_XREC_ROUNDTRIP
360
24BE
  0
DICTIONARY
  5
24BF
330
23F9
100
AcDbDictionary
280
     1
281
     1
  3
ACAD_XREC_ROUNDTRIP
360
24C0
  0
DICTIONARY
  5
24D9
330
2406
100
AcDbDictionary
280
     1
281
     1
  3
ACAD_XREC_ROUNDTRIP
360
24DA
  0
DICTIONARY
  5
24D3
330
2403
100
AcDbDictionary
280
     1
281
     1
  3
ACAD_XREC_ROUNDTRIP
360
24D4
  0
DICTIONARY
  5
24DB
330
2407
100
AcDbDictionary
280
     1
281
     1
  3
ACAD_XREC_ROUNDTRIP
360
24DC
  0
DICTIONARY
  5
24CB
330
23FF
100
AcDbDictionary
280
     1
281
     1
  3
ACAD_XREC_ROUNDTRIP
360
24CC
  0
DICTIONARY
  5
24D1
330
2402
100
AcDbDictionary
280
     1
281
     1
  3
ACAD_XREC_ROUNDTRIP
360
24D2
  0
XRECORD
  5
24AF
102
{ACAD_REACTORS
330
24AE
102
}
330
24AE
100
AcDbXrecord
280
     1
102
SHADEPLOT
 70
     0
102
SHADEPLOTRESLEVEL
 70
     2
102
SHADEPLOTCUSTOMDPI
 70
   300
  0
XRECORD
  5
24B3
102
{ACAD_REACTORS
330
24B2
102
}
330
24B2
100
AcDbXrecord
280
     1
102
SHADEPLOT
 70
     0
102
SHADEPLOTRESLEVEL
 70
     2
102
SHADEPLOTCUSTOMDPI
 70
   300
  0
XRECORD
  5
24B1
102
{ACAD_REACTORS
330
24B0
102
}
330
24B0
100
AcDbXrecord
280
     1
102
SHADEPLOT
 70
     0
102
SHADEPLOTRESLEVEL
 70
     2
102
SHADEPLOTCUSTOMDPI
 70
   300
  0
XRECORD
  5
24B7
102
{ACAD_REACTORS
330
23E6
102
}
330
23E6
100
AcDbXrecord
280
     1
102
MATERIAL
148
0.0
149
0.0
149
0.0
 93
        0
 94
      127
282
     0
 72
     0
 77
     0
171
     0
175
     0
179
     0
273
     0
  0
XRECORD
  5
23E8
102
{ACAD_REACTORS
330
23E6
102
}
330
23E6
100
AcDbXrecord
280
     1
270
     1
271
     1
  0
XRECORD
  5
23E7
102
{ACAD_REACTORS
330
23E6
102
}
330
23E6
100
AcDbXrecord
280
     1
270
     1
271
     1
  0
XRECORD
  5
23EB
102
{ACAD_REACTORS
330
23E6
102
}
330
23E6
100
AcDbXrecord
280
     1
270
     1
271
     1
  0
XRECORD
  5
23EA
102
{ACAD_REACTORS
330
23E6
102
}
330
23E6
100
AcDbXrecord
280
     1
270
     1
271
     1
  0
XRECORD
  5
23EC
102
{ACAD_REACTORS
330
23E6
102
}
330
23E6
100
AcDbXrecord
280
     1
270
     1
271
     1
  0
XRECORD
  5
23E9
102
{ACAD_REACTORS
330
23E6
102
}
330
23E6
100
AcDbXrecord
280
     1
270
     1
271
     1
  0
XRECORD
  5
24B6
102
{ACAD_REACTORS
330
23DE
102
}
330
23DE
100
AcDbXrecord
280
     1
102
MATERIAL
148
0.0
149
0.0
149
0.0
 93
        0
 94
      127
282
     0
 72
     0
 77
     0
171
     0
175
     0
179
     0
273
     0
  0
XRECORD
  5
23E0
102
{ACAD_REACTORS
330
23DE
102
}
330
23DE
100
AcDbXrecord
280
     1
270
     1
271
     1
  0
XRECORD
  5
23DF
102
{ACAD_REACTORS
330
23DE
102
}
330
23DE
100
AcDbXrecord
280
     1
270
     1
271
     1
  0
XRECORD
  5
23E3
102
{ACAD_REACTORS
330
23DE
102
}
330
23DE
100
AcDbXrecord
280
     1
270
     1
271
     1
  0
XRECORD
  5
23E2
102
{ACAD_REACTORS
330
23DE
102
}
330
23DE
100
AcDbXrecord
280
     1
270
     1
271
     1
  0
XRECORD
  5
23E4
102
{ACAD_REACTORS
330
23DE
102
}
330
23DE
100
AcDbXrecord
280
     1
270
     1
271
     1
  0
XRECORD
  5
23E1
102
{ACAD_REACTORS
330
23DE
102
}
330
23DE
100
AcDbXrecord
280
     1
270
     1
271
     1
  0
XRECORD
  5
24B8
102
{ACAD_REACTORS
330
23EE
102
}
330
23EE
100
AcDbXrecord
280
     1
102
MATERIAL
148
0.0
149
0.0
149
0.0
 93
        0
 94
      127
282
     0
 72
     0
 77
     0
171
     0
175
     0
179
     0
273
     0
  0
XRECORD
  5
23F0
102
{ACAD_REACTORS
330
23EE
102
}
330
23EE
100
AcDbXrecord
280
     1
270
     1
271
     1
  0
XRECORD
  5
23EF
102
{ACAD_REACTORS
330
23EE
102
}
330
23EE
100
AcDbXrecord
280
     1
270
     1
271
     1
  0
XRECORD
  5
23F3
102
{ACAD_REACTORS
330
23EE
102
}
330
23EE
100
AcDbXrecord
280
     1
270
     1
271
     1
  0
XRECORD
  5
23F2
102
{ACAD_REACTORS
330
23EE
102
}
330
23EE
100
AcDbXrecord
280
     1
270
     1
271
     1
  0
XRECORD
  5
23F4
102
{ACAD_REACTORS
330
23EE
102
}
330
23EE
100
AcDbXrecord
280
     1
270
     1
271
     1
  0
XRECORD
  5
23F1
102
{ACAD_REACTORS
330
23EE
102
}
330
23EE
100
AcDbXrecord
280
     1
270
     1
271
     1
  0
CELLSTYLEMAP
  5
24AB
102
{ACAD_REACTORS
330
24AA
102
}
330
24AA
100
AcDbCellStyleMap
 90
        3
300
CELLSTYLE
  1
TABLEFORMAT_BEGIN
 90
        5
170
     1
 91
        0
 92
    32768
 62
   257
 93
        1
300
CONTENTFORMAT
  1
CONTENTFORMAT_BEGIN
 90
        0
 91
        0
 92
      512
 93
        0
300

 40
0.0
140
1.0
 94
        5
 62
     0
340
11
144
6.0
309
CONTENTFORMAT_END
171
     1
301
MARGIN
  1
CELLMARGIN_BEGIN
 40
1.5
 40
1.5
 40
1.5
 40
1.5
 40
4.5
 40
4.5
309
CELLMARGIN_END
 94
        6
 95
        1
302
GRIDFORMAT
  1
GRIDFORMAT_BEGIN
 90
        0
 91
        1
 62
     0
 92
       -2
340
0
 93
        0
 40
1.125
309
GRIDFORMAT_END
 95
        2
302
GRIDFORMAT
  1
GRIDFORMAT_BEGIN
 90
        0
 91
        1
 62
     0
 92
       -2
340
0
 93
        0
 40
1.125
309
GRIDFORMAT_END
 95
        4
302
GRIDFORMAT
  1
GRIDFORMAT_BEGIN
 90
        0
 91
        1
 62
     0
 92
       -2
340
0
 93
        0
 40
1.125
309
GRIDFORMAT_END
 95
        8
302
GRIDFORMAT
  1
GRIDFORMAT_BEGIN
 90
        0
 91
        1
 62
     0
 92
       -2
340
0
 93
        0
 40
1.125
309
GRIDFORMAT_END
 95
       16
302
GRIDFORMAT
  1
GRIDFORMAT_BEGIN
 90
        0
 91
        1
 62
     0
 92
       -2
340
0
 93
        0
 40
1.125
309
GRIDFORMAT_END
 95
       32
302
GRIDFORMAT
  1
GRIDFORMAT_BEGIN
 90
        0
 91
        1
 62
     0
 92
       -2
340
0
 93
        0
 40
1.125
309
GRIDFORMAT_END
309
TABLEFORMAT_END
  1
CELLSTYLE_BEGIN
 90
        1
 91
        1
300
_TITLE
309
CELLSTYLE_END
300
CELLSTYLE
  1
TABLEFORMAT_BEGIN
 90
        5
170
     1
 91
        0
 92
        0
 62
   257
 93
        1
300
CONTENTFORMAT
  1
CONTENTFORMAT_BEGIN
 90
        0
 91
        0
 92
      512
 93
        0
300

 40
0.0
140
1.0
 94
        5
 62
     0
340
11
144
4.5
309
CONTENTFORMAT_END
171
     1
301
MARGIN
  1
CELLMARGIN_BEGIN
 40
1.5
 40
1.5
 40
1.5
 40
1.5
 40
4.5
 40
4.5
309
CELLMARGIN_END
 94
        6
 95
        1
302
GRIDFORMAT
  1
GRIDFORMAT_BEGIN
 90
        0
 91
        1
 62
     0
 92
       -2
340
0
 93
        0
 40
1.125
309
GRIDFORMAT_END
 95
        2
302
GRIDFORMAT
  1
GRIDFORMAT_BEGIN
 90
        0
 91
        1
 62
     0
 92
       -2
340
0
 93
        0
 40
1.125
309
GRIDFORMAT_END
 95
        4
302
GRIDFORMAT
  1
GRIDFORMAT_BEGIN
 90
        0
 91
        1
 62
     0
 92
       -2
340
0
 93
        0
 40
1.125
309
GRIDFORMAT_END
 95
        8
302
GRIDFORMAT
  1
GRIDFORMAT_BEGIN
 90
        0
 91
        1
 62
     0
 92
       -2
340
0
 93
        0
 40
1.125
309
GRIDFORMAT_END
 95
       16
302
GRIDFORMAT
  1
GRIDFORMAT_BEGIN
 90
        0
 91
        1
 62
     0
 92
       -2
340
0
 93
        0
 40
1.125
309
GRIDFORMAT_END
 95
       32
302
GRIDFORMAT
  1
GRIDFORMAT_BEGIN
 90
        0
 91
        1
 62
     0
 92
       -2
340
0
 93
        0
 40
1.125
309
GRIDFORMAT_END
309
TABLEFORMAT_END
  1
CELLSTYLE_BEGIN
 90
        2
 91
        1
300
_HEADER
309
CELLSTYLE_END
300
CELLSTYLE
  1
TABLEFORMAT_BEGIN
 90
        5
170
     1
 91
        0
 92
        0
 62
   257
 93
        1
300
CONTENTFORMAT
  1
CONTENTFORMAT_BEGIN
 90
        0
 91
        0
 92
      512
 93
        0
300

 40
0.0
140
1.0
 94
        2
 62
     0
340
11
144
4.5
309
CONTENTFORMAT_END
171
     1
301
MARGIN
  1
CELLMARGIN_BEGIN
 40
1.5
 40
1.5
 40
1.5
 40
1.5
 40
4.5
 40
4.5
309
CELLMARGIN_END
 94
        6
 95
        1
302
GRIDFORMAT
  1
GRIDFORMAT_BEGIN
 90
        0
 91
        1
 62
     0
 92
       -2
340
0
 93
        0
 40
1.125
309
GRIDFORMAT_END
 95
        2
302
GRIDFORMAT
  1
GRIDFORMAT_BEGIN
 90
        0
 91
        1
 62
     0
 92
       -2
340
0
 93
        0
 40
1.125
309
GRIDFORMAT_END
 95
        4
302
GRIDFORMAT
  1
GRIDFORMAT_BEGIN
 90
        0
 91
        1
 62
     0
 92
       -2
340
0
 93
        0
 40
1.125
309
GRIDFORMAT_END
 95
        8
302
GRIDFORMAT
  1
GRIDFORMAT_BEGIN
 90
        0
 91
        1
 62
     0
 92
       -2
340
0
 93
        0
 40
1.125
309
GRIDFORMAT_END
 95
       16
302
GRIDFORMAT
  1
GRIDFORMAT_BEGIN
 90
        0
 91
        1
 62
     0
 92
       -2
340
0
 93
        0
 40
1.125
309
GRIDFORMAT_END
 95
       32
302
GRIDFORMAT
  1
GRIDFORMAT_BEGIN
 90
        0
 91
        1
 62
     0
 92
       -2
340
0
 93
        0
 40
1.125
309
GRIDFORMAT_END
309
TABLEFORMAT_END
  1
CELLSTYLE_BEGIN
 90
        3
 91
        2
300
_DATA
309
CELLSTYLE_END
  0
XRECORD
  5
24DF
102
{ACAD_REACTORS
330
24AA
102
}
330
24AA
100
AcDbXrecord
280
     1
102
ACAD_ROUNDTRIP_PRE2007_TABLESTYLE
 90
      512
 91
        0
  1

 92
      512
 93
        0
  2

 94
      512
 95
        0
  3

  0
XRECORD
  5
24C4
102
{ACAD_REACTORS
330
24C3
102
}
330
24C3
100
AcDbXrecord
280
     1
102
RTVSPropertyOp0
 70
     1
102
RTVSPropertyOp1
 70
     1
102
RTVSPropertyOp2
 70
     1
102
RTVSPropertyOp3
 70
     1
102
RTVSPropertyOp4
 70
     1
102
RTVSPropertyOp5
 70
     1
102
RTVSPropertyOp6
 70
     1
102
RTVSPropertyOp7
 70
     1
102
RTVSPropertyOp8
 70
     1
102
RTVSPropertyOp9
 70
     1
102
RTVSPropertyOp10
 70
     1
102
RTVSPropertyOp11
 70
     1
102
RTVSPropertyOp12
 70
     1
102
RTVSPropertyOp13
 70
     1
102
RTVSPropertyOp14
 70
     1
102
RTVSPropertyOp15
 70
     1
102
RTVSPropertyOp16
 70
     1
102
RTVSPropertyOp17
 70
     1
102
RTVSPropertyOp18
 70
     1
102
RTVSPropertyOp19
 70
     1
102
RTVSPropertyOp20
 70
     1
102
RTVSPropertyOp21
 70
     1
102
RTVSPropertyOp22
 70
     1
102
RTVSPropertyOp23
 70
     1
102
RTVSPropertyOp24
 70
     1
102
RTVSPropertyOp25
 70
     1
102
RTVSPropertyOp26
 70
     1
102
RTVSPropertyOp27
 70
     1
  0
XRECORD
  5
24C8
102
{ACAD_REACTORS
330
24C7
102
}
330
24C7
100
AcDbXrecord
280
     1
102
RTVSPropertyOp0
 70
     1
102
RTVSPropertyOp1
 70
     1
102
RTVSPropertyOp2
 70
     1
102
RTVSPropertyOp3
 70
     1
102
RTVSPropertyOp4
 70
     1
102
RTVSPropertyOp5
 70
     1
102
RTVSPropertyOp6
 70
     1
102
RTVSPropertyOp7
 70
     1
102
RTVSPropertyOp8
 70
     1
102
RTVSPropertyOp9
 70
     1
102
RTVSPropertyOp10
 70
     1
102
RTVSPropertyOp11
 70
     1
102
RTVSPropertyOp12
 70
     1
102
RTVSPropertyOp13
 70
     1
102
RTVSPropertyOp14
 70
     1
102
RTVSPropertyOp15
 70
     1
102
RTVSPropertyOp16
 70
     1
102
RTVSPropertyOp17
 70
     1
102
RTVSPropertyOp18
 70
     1
102
RTVSPropertyOp19
 70
     1
102
RTVSPropertyOp20
 70
     1
102
RTVSPropertyOp21
 70
     1
102
RTVSPropertyOp22
 70
     1
102
RTVSPropertyOp23
 70
     1
102
RTVSPropertyOp24
 70
     1
102
RTVSPropertyOp25
 70
     1
102
RTVSPropertyOp26
 70
     1
102
RTVSPropertyOp27
 70
     1
  0
XRECORD
  5
24C6
102
{ACAD_REACTORS
330
24C5
102
}
330
24C5
100
AcDbXrecord
280
     1
102
RTVSPropertyOp0
 70
     1
102
RTVSPropertyOp1
 70
     1
102
RTVSPropertyOp2
 70
     1
102
RTVSPropertyOp3
 70
     1
102
RTVSPropertyOp4
 70
     1
102
RTVSPropertyOp5
 70
     1
102
RTVSPropertyOp6
 70
     1
102
RTVSPropertyOp7
 70
     1
102
RTVSPropertyOp8
 70
     1
102
RTVSPropertyOp9
 70
     1
102
RTVSPropertyOp10
 70
     1
102
RTVSPropertyOp11
 70
     1
102
RTVSPropertyOp12
 70
     1
102
RTVSPropertyOp13
 70
     1
102
RTVSPropertyOp14
 70
     1
102
RTVSPropertyOp15
 70
     1
102
RTVSPropertyOp16
 70
     1
102
RTVSPropertyOp17
 70
     1
102
RTVSPropertyOp18
 70
     1
102
RTVSPropertyOp19
 70
     1
102
RTVSPropertyOp20
 70
     1
102
RTVSPropertyOp21
 70
     1
102
RTVSPropertyOp22
 70
     1
102
RTVSPropertyOp23
 70
     1
102
RTVSPropertyOp24
 70
     1
102
RTVSPropertyOp25
 70
     1
102
RTVSPropertyOp26
 70
     1
102
RTVSPropertyOp27
 70
     1
  0
XRECORD
  5
24C2
102
{ACAD_REACTORS
330
24C1
102
}
330
24C1
100
AcDbXrecord
280
     1
102
RTVSPropertyOp0
 70
     1
102
RTVSPropertyOp1
 70
     1
102
RTVSPropertyOp2
 70
     1
102
RTVSPropertyOp3
 70
     1
102
RTVSPropertyOp4
 70
     1
102
RTVSPropertyOp5
 70
     1
102
RTVSPropertyOp6
 70
     1
102
RTVSPropertyOp7
 70
     1
102
RTVSPropertyOp8
 70
     1
102
RTVSPropertyOp9
 70
     1
102
RTVSPropertyOp10
 70
     1
102
RTVSPropertyOp11
 70
     1
102
RTVSPropertyOp12
 70
     1
102
RTVSPropertyOp13
 70
     1
102
RTVSPropertyOp14
 70
     1
102
RTVSPropertyOp15
 70
     1
102
RTVSPropertyOp16
 70
     1
102
RTVSPropertyOp17
 70
     1
102
RTVSPropertyOp18
 70
     1
102
RTVSPropertyOp19
 70
     1
102
RTVSPropertyOp20
 70
     1
102
RTVSPropertyOp21
 70
     1
102
RTVSPropertyOp22
 70
     1
102
RTVSPropertyOp23
 70
     1
102
RTVSPropertyOp24
 70
     1
102
RTVSPropertyOp25
 70
     1
102
RTVSPropertyOp26
 70
     1
102
RTVSPropertyOp27
 70
     1
  0
XRECORD
  5
24D0
102
{ACAD_REACTORS
330
24CF
102
}
330
24CF
100
AcDbXrecord
280
     1
102
RTVSPropertyOp0
 70
     1
102
RTVSPropertyOp1
 70
     1
102
RTVSPropertyOp2
 70
     1
102
RTVSPropertyOp3
 70
     1
102
RTVSPropertyOp4
 70
     1
102
RTVSPropertyOp5
 70
     1
102
RTVSPropertyOp6
 70
     1
102
RTVSPropertyOp7
 70
     1
102
RTVSPropertyOp8
 70
     1
102
RTVSPropertyOp9
 70
     1
102
RTVSPropertyOp10
 70
     1
102
RTVSPropertyOp11
 70
     1
102
RTVSPropertyOp12
 70
     1
102
RTVSPropertyOp13
 70
     1
102
RTVSPropertyOp14
 70
     1
102
RTVSPropertyOp15
 70
     1
102
RTVSPropertyOp16
 70
     1
102
RTVSPropertyOp17
 70
     1
102
RTVSPropertyOp18
 70
     1
102
RTVSPropertyOp19
 70
     1
102
RTVSPropertyOp20
 70
     1
102
RTVSPropertyOp21
 70
     1
102
RTVSPropertyOp22
 70
     1
102
RTVSPropertyOp23
 70
     1
102
RTVSPropertyOp24
 70
     1
102
RTVSPropertyOp25
 70
     1
102
RTVSPropertyOp26
 70
     1
102
RTVSPropertyOp27
 70
     1
  0
XRECORD
  5
24D8
102
{ACAD_REACTORS
330
24D7
102
}
330
24D7
100
AcDbXrecord
280
     1
102
RTVSPropertyOp0
 70
     1
102
RTVSPropertyOp1
 70
     1
102
RTVSPropertyOp2
 70
     1
102
RTVSPropertyOp3
 70
     1
102
RTVSPropertyOp4
 70
     1
102
RTVSPropertyOp5
 70
     1
102
RTVSPropertyOp6
 70
     1
102
RTVSPropertyOp7
 70
     1
102
RTVSPropertyOp8
 70
     1
102
RTVSPropertyOp9
 70
     1
102
RTVSPropertyOp10
 70
     1
102
RTVSPropertyOp11
 70
     1
102
RTVSPropertyOp12
 70
     1
102
RTVSPropertyOp13
 70
     1
102
RTVSPropertyOp14
 70
     1
102
RTVSPropertyOp15
 70
     1
102
RTVSPropertyOp16
 70
     1
102
RTVSPropertyOp17
 70
     1
102
RTVSPropertyOp18
 70
     1
102
RTVSPropertyOp19
 70
     1
102
RTVSPropertyOp20
 70
     1
102
RTVSPropertyOp21
 70
     1
102
RTVSPropertyOp22
 70
     1
102
RTVSPropertyOp23
 70
     1
102
RTVSPropertyOp24
 70
     1
102
RTVSPropertyOp25
 70
     1
102
RTVSPropertyOp26
 70
     1
102
RTVSPropertyOp27
 70
     1
  0
XRECORD
  5
24CA
102
{ACAD_REACTORS
330
24C9
102
}
330
24C9
100
AcDbXrecord
280
     1
102
RTVSPropertyOp0
 70
     1
102
RTVSPropertyOp1
 70
     1
102
RTVSPropertyOp2
 70
     1
102
RTVSPropertyOp3
 70
     1
102
RTVSPropertyOp4
 70
     1
102
RTVSPropertyOp5
 70
     1
102
RTVSPropertyOp6
 70
     1
102
RTVSPropertyOp7
 70
     1
102
RTVSPropertyOp8
 70
     1
102
RTVSPropertyOp9
 70
     1
102
RTVSPropertyOp10
 70
     1
102
RTVSPropertyOp11
 70
     1
102
RTVSPropertyOp12
 70
     1
102
RTVSPropertyOp13
 70
     1
102
RTVSPropertyOp14
 70
     1
102
RTVSPropertyOp15
 70
     1
102
RTVSPropertyOp16
 70
     1
102
RTVSPropertyOp17
 70
     1
102
RTVSPropertyOp18
 70
     1
102
RTVSPropertyOp19
 70
     1
102
RTVSPropertyOp20
 70
     1
102
RTVSPropertyOp21
 70
     1
102
RTVSPropertyOp22
 70
     1
102
RTVSPropertyOp23
 70
     1
102
RTVSPropertyOp24
 70
     1
102
RTVSPropertyOp25
 70
     1
102
RTVSPropertyOp26
 70
     1
102
RTVSPropertyOp27
 70
     1
  0
XRECORD
  5
24CE
102
{ACAD_REACTORS
330
24CD
102
}
330
24CD
100
AcDbXrecord
280
     1
102
RTVSPropertyOp0
 70
     1
102
RTVSPropertyOp1
 70
     1
102
RTVSPropertyOp2
 70
     1
102
RTVSPropertyOp3
 70
     1
102
RTVSPropertyOp4
 70
     1
102
RTVSPropertyOp5
 70
     1
102
RTVSPropertyOp6
 70
     1
102
RTVSPropertyOp7
 70
     1
102
RTVSPropertyOp8
 70
     1
102
RTVSPropertyOp9
 70
     1
102
RTVSPropertyOp10
 70
     1
102
RTVSPropertyOp11
 70
     1
102
RTVSPropertyOp12
 70
     1
102
RTVSPropertyOp13
 70
     1
102
RTVSPropertyOp14
 70
     1
102
RTVSPropertyOp15
 70
     1
102
RTVSPropertyOp16
 70
     1
102
RTVSPropertyOp17
 70
     1
102
RTVSPropertyOp18
 70
     1
102
RTVSPropertyOp19
 70
     1
102
RTVSPropertyOp20
 70
     1
102
RTVSPropertyOp21
 70
     1
102
RTVSPropertyOp22
 70
     1
102
RTVSPropertyOp23
 70
     1
102
RTVSPropertyOp24
 70
     1
102
RTVSPropertyOp25
 70
     1
102
RTVSPropertyOp26
 70
     1
102
RTVSPropertyOp27
 70
     1
  0
XRECORD
  5
24DE
102
{ACAD_REACTORS
330
24DD
102
}
330
24DD
100
AcDbXrecord
280
     1
102
RTVSPropertyOp0
 70
     0
102
RTVSPropertyOp1
 70
     0
102
RTVSPropertyOp2
 70
     0
102
RTVSPropertyOp3
 70
     0
102
RTVSPropertyOp4
 70
     0
102
RTVSPropertyOp5
 70
     0
102
RTVSPropertyOp6
 70
     0
102
RTVSPropertyOp7
 70
     0
102
RTVSPropertyOp8
 70
     0
102
RTVSPropertyOp9
 70
     0
102
RTVSPropertyOp10
 70
     0
102
RTVSPropertyOp11
 70
     0
102
RTVSPropertyOp12
 70
     0
102
RTVSPropertyOp13
 70
     0
102
RTVSPropertyOp14
 70
     2
102
RTVSPropertyOp15
 70
     0
102
RTVSPropertyOp16
 70
     0
102
RTVSPropertyOp17
 70
     0
102
RTVSPropertyOp18
 70
     0
102
RTVSPropertyOp19
 70
     0
102
RTVSPropertyOp20
 70
     0
102
RTVSPropertyOp21
 70
     0
102
RTVSPropertyOp22
 70
     0
102
RTVSPropertyOp23
 70
     0
102
RTVSPropertyOp24
 70
     0
102
RTVSPropertyOp25
 70
     0
102
RTVSPropertyOp26
 70
     0
102
RTVSPropertyOp27
 70
     0
  0
XRECORD
  5
24D6
102
{ACAD_REACTORS
330
24D5
102
}
330
24D5
100
AcDbXrecord
280
     1
102
RTVSPropertyOp0
 70
     1
102
RTVSPropertyOp1
 70
     1
102
RTVSPropertyOp2
 70
     1
102
RTVSPropertyOp3
 70
     1
102
RTVSPropertyOp4
 70
     1
102
RTVSPropertyOp5
 70
     1
102
RTVSPropertyOp6
 70
     1
102
RTVSPropertyOp7
 70
     1
102
RTVSPropertyOp8
 70
     1
102
RTVSPropertyOp9
 70
     1
102
RTVSPropertyOp10
 70
     1
102
RTVSPropertyOp11
 70
     1
102
RTVSPropertyOp12
 70
     1
102
RTVSPropertyOp13
 70
     1
102
RTVSPropertyOp14
 70
     1
102
RTVSPropertyOp15
 70
     1
102
RTVSPropertyOp16
 70
     1
102
RTVSPropertyOp17
 70
     1
102
RTVSPropertyOp18
 70
     1
102
RTVSPropertyOp19
 70
     1
102
RTVSPropertyOp20
 70
     1
102
RTVSPropertyOp21
 70
     1
102
RTVSPropertyOp22
 70
     1
102
RTVSPropertyOp23
 70
     1
102
RTVSPropertyOp24
 70
     1
102
RTVSPropertyOp25
 70
     1
102
RTVSPropertyOp26
 70
     1
102
RTVSPropertyOp27
 70
     1
  0
XRECORD
  5
24BA
102
{ACAD_REACTORS
330
24B9
102
}
330
24B9
100
AcDbXrecord
280
     1
102
RTVSPropertyOp0
 70
     1
102
RTVSPropertyOp1
 70
     1
102
RTVSPropertyOp2
 70
     1
102
RTVSPropertyOp3
 70
     1
102
RTVSPropertyOp4
 70
     1
102
RTVSPropertyOp5
 70
     1
102
RTVSPropertyOp6
 70
     1
102
RTVSPropertyOp7
 70
     1
102
RTVSPropertyOp8
 70
     1
102
RTVSPropertyOp9
 70
     1
102
RTVSPropertyOp10
 70
     1
102
RTVSPropertyOp11
 70
     1
102
RTVSPropertyOp12
 70
     1
102
RTVSPropertyOp13
 70
     1
102
RTVSPropertyOp14
 70
     1
102
RTVSPropertyOp15
 70
     1
102
RTVSPropertyOp16
 70
     1
102
RTVSPropertyOp17
 70
     1
102
RTVSPropertyOp18
 70
     1
102
RTVSPropertyOp19
 70
     1
102
RTVSPropertyOp20
 70
     1
102
RTVSPropertyOp21
 70
     1
102
RTVSPropertyOp22
 70
     1
102
RTVSPropertyOp23
 70
     1
102
RTVSPropertyOp24
 70
     1
102
RTVSPropertyOp25
 70
     1
102
RTVSPropertyOp26
 70
     1
102
RTVSPropertyOp27
 70
     1
  0
XRECORD
  5
24BC
102
{ACAD_REACTORS
330
24BB
102
}
330
24BB
100
AcDbXrecord
280
     1
102
RTVSPropertyOp0
 70
     1
102
RTVSPropertyOp1
 70
     1
102
RTVSPropertyOp2
 70
     1
102
RTVSPropertyOp3
 70
     1
102
RTVSPropertyOp4
 70
     1
102
RTVSPropertyOp5
 70
     1
102
RTVSPropertyOp6
 70
     1
102
RTVSPropertyOp7
 70
     1
102
RTVSPropertyOp8
 70
     1
102
RTVSPropertyOp9
 70
     1
102
RTVSPropertyOp10
 70
     1
102
RTVSPropertyOp11
 70
     1
102
RTVSPropertyOp12
 70
     1
102
RTVSPropertyOp13
 70
     1
102
RTVSPropertyOp14
 70
     1
102
RTVSPropertyOp15
 70
     1
102
RTVSPropertyOp16
 70
     1
102
RTVSPropertyOp17
 70
     1
102
RTVSPropertyOp18
 70
     1
102
RTVSPropertyOp19
 70
     1
102
RTVSPropertyOp20
 70
     1
102
RTVSPropertyOp21
 70
     1
102
RTVSPropertyOp22
 70
     1
102
RTVSPropertyOp23
 70
     1
102
RTVSPropertyOp24
 70
     1
102
RTVSPropertyOp25
 70
     1
102
RTVSPropertyOp26
 70
     1
102
RTVSPropertyOp27
 70
     1
  0
XRECORD
  5
24BE
102
{ACAD_REACTORS
330
24BD
102
}
330
24BD
100
AcDbXrecord
280
     1
102
RTVSPropertyOp0
 70
     1
102
RTVSPropertyOp1
 70
     1
102
RTVSPropertyOp2
 70
     1
102
RTVSPropertyOp3
 70
     1
102
RTVSPropertyOp4
 70
     1
102
RTVSPropertyOp5
 70
     1
102
RTVSPropertyOp6
 70
     1
102
RTVSPropertyOp7
 70
     1
102
RTVSPropertyOp8
 70
     1
102
RTVSPropertyOp9
 70
     1
102
RTVSPropertyOp10
 70
     1
102
RTVSPropertyOp11
 70
     1
102
RTVSPropertyOp12
 70
     1
102
RTVSPropertyOp13
 70
     1
102
RTVSPropertyOp14
 70
     1
102
RTVSPropertyOp15
 70
     1
102
RTVSPropertyOp16
 70
     1
102
RTVSPropertyOp17
 70
     1
102
RTVSPropertyOp18
 70
     1
102
RTVSPropertyOp19
 70
     1
102
RTVSPropertyOp20
 70
     1
102
RTVSPropertyOp21
 70
     1
102
RTVSPropertyOp22
 70
     1
102
RTVSPropertyOp23
 70
     1
102
RTVSPropertyOp24
 70
     1
102
RTVSPropertyOp25
 70
     1
102
RTVSPropertyOp26
 70
     1
102
RTVSPropertyOp27
 70
     1
  0
XRECORD
  5
24C0
102
{ACAD_REACTORS
330
24BF
102
}
330
24BF
100
AcDbXrecord
280
     1
102
RTVSPropertyOp0
 70
     1
102
RTVSPropertyOp1
 70
     1
102
RTVSPropertyOp2
 70
     1
102
RTVSPropertyOp3
 70
     1
102
RTVSPropertyOp4
 70
     1
102
RTVSPropertyOp5
 70
     1
102
RTVSPropertyOp6
 70
     1
102
RTVSPropertyOp7
 70
     1
102
RTVSPropertyOp8
 70
     1
102
RTVSPropertyOp9
 70
     1
102
RTVSPropertyOp10
 70
     1
102
RTVSPropertyOp11
 70
     1
102
RTVSPropertyOp12
 70
     1
102
RTVSPropertyOp13
 70
     1
102
RTVSPropertyOp14
 70
     1
102
RTVSPropertyOp15
 70
     1
102
RTVSPropertyOp16
 70
     1
102
RTVSPropertyOp17
 70
     1
102
RTVSPropertyOp18
 70
     1
102
RTVSPropertyOp19
 70
     1
102
RTVSPropertyOp20
 70
     1
102
RTVSPropertyOp21
 70
     1
102
RTVSPropertyOp22
 70
     1
102
RTVSPropertyOp23
 70
     1
102
RTVSPropertyOp24
 70
     1
102
RTVSPropertyOp25
 70
     1
102
RTVSPropertyOp26
 70
     1
102
RTVSPropertyOp27
 70
     1
  0
XRECORD
  5
24DA
102
{ACAD_REACTORS
330
24D9
102
}
330
24D9
100
AcDbXrecord
280
     1
102
RTVSPropertyOp0
 70
     0
102
RTVSPropertyOp1
 70
     0
102
RTVSPropertyOp2
 70
     0
102
RTVSPropertyOp3
 70
     0
102
RTVSPropertyOp4
 70
     0
102
RTVSPropertyOp5
 70
     0
102
RTVSPropertyOp6
 70
     0
102
RTVSPropertyOp7
 70
     0
102
RTVSPropertyOp8
 70
     0
102
RTVSPropertyOp9
 70
     0
102
RTVSPropertyOp10
 70
     0
102
RTVSPropertyOp11
 70
     0
102
RTVSPropertyOp12
 70
     0
102
RTVSPropertyOp13
 70
     0
102
RTVSPropertyOp14
 70
     2
102
RTVSPropertyOp15
 70
     0
102
RTVSPropertyOp16
 70
     0
102
RTVSPropertyOp17
 70
     0
102
RTVSPropertyOp18
 70
     0
102
RTVSPropertyOp19
 70
     0
102
RTVSPropertyOp20
 70
     0
102
RTVSPropertyOp21
 70
     0
102
RTVSPropertyOp22
 70
     0
102
RTVSPropertyOp23
 70
     0
102
RTVSPropertyOp24
 70
     0
102
RTVSPropertyOp25
 70
     0
102
RTVSPropertyOp26
 70
     0
102
RTVSPropertyOp27
 70
     0
  0
XRECORD
  5
24D4
102
{ACAD_REACTORS
330
24D3
102
}
330
24D3
100
AcDbXrecord
280
     1
102
RTVSPropertyOp0
 70
     1
102
RTVSPropertyOp1
 70
     1
102
RTVSPropertyOp2
 70
     1
102
RTVSPropertyOp3
 70
     1
102
RTVSPropertyOp4
 70
     1
102
RTVSPropertyOp5
 70
     1
102
RTVSPropertyOp6
 70
     1
102
RTVSPropertyOp7
 70
     1
102
RTVSPropertyOp8
 70
     1
102
RTVSPropertyOp9
 70
     1
102
RTVSPropertyOp10
 70
     1
102
RTVSPropertyOp11
 70
     1
102
RTVSPropertyOp12
 70
     1
102
RTVSPropertyOp13
 70
     1
102
RTVSPropertyOp14
 70
     1
102
RTVSPropertyOp15
 70
     1
102
RTVSPropertyOp16
 70
     1
102
RTVSPropertyOp17
 70
     1
102
RTVSPropertyOp18
 70
     1
102
RTVSPropertyOp19
 70
     1
102
RTVSPropertyOp20
 70
     1
102
RTVSPropertyOp21
 70
     1
102
RTVSPropertyOp22
 70
     1
102
RTVSPropertyOp23
 70
     1
102
RTVSPropertyOp24
 70
     1
102
RTVSPropertyOp25
 70
     1
102
RTVSPropertyOp26
 70
     1
102
RTVSPropertyOp27
 70
     1
  0
XRECORD
  5
24DC
102
{ACAD_REACTORS
330
24DB
102
}
330
24DB
100
AcDbXrecord
280
     1
102
RTVSPropertyOp0
 70
     0
102
RTVSPropertyOp1
 70
     0
102
RTVSPropertyOp2
 70
     0
102
RTVSPropertyOp3
 70
     0
102
RTVSPropertyOp4
 70
     0
102
RTVSPropertyOp5
 70
     0
102
RTVSPropertyOp6
 70
     0
102
RTVSPropertyOp7
 70
     0
102
RTVSPropertyOp8
 70
     0
102
RTVSPropertyOp9
 70
     0
102
RTVSPropertyOp10
 70
     0
102
RTVSPropertyOp11
 70
     0
102
RTVSPropertyOp12
 70
     0
102
RTVSPropertyOp13
 70
     0
102
RTVSPropertyOp14
 70
     2
102
RTVSPropertyOp15
 70
     0
102
RTVSPropertyOp16
 70
     0
102
RTVSPropertyOp17
 70
     0
102
RTVSPropertyOp18
 70
     0
102
RTVSPropertyOp19
 70
     0
102
RTVSPropertyOp20
 70
     0
102
RTVSPropertyOp21
 70
     0
102
RTVSPropertyOp22
 70
     0
102
RTVSPropertyOp23
 70
     0
102
RTVSPropertyOp24
 70
     0
102
RTVSPropertyOp25
 70
     0
102
RTVSPropertyOp26
 70
     0
102
RTVSPropertyOp27
 70
     0
  0
XRECORD
  5
24CC
102
{ACAD_REACTORS
330
24CB
102
}
330
24CB
100
AcDbXrecord
280
     1
102
RTVSPropertyOp0
 70
     1
102
RTVSPropertyOp1
 70
     1
102
RTVSPropertyOp2
 70
     1
102
RTVSPropertyOp3
 70
     1
102
RTVSPropertyOp4
 70
     1
102
RTVSPropertyOp5
 70
     1
102
RTVSPropertyOp6
 70
     1
102
RTVSPropertyOp7
 70
     1
102
RTVSPropertyOp8
 70
     1
102
RTVSPropertyOp9
 70
     1
102
RTVSPropertyOp10
 70
     1
102
RTVSPropertyOp11
 70
     1
102
RTVSPropertyOp12
 70
     1
102
RTVSPropertyOp13
 70
     1
102
RTVSPropertyOp14
 70
     1
102
RTVSPropertyOp15
 70
     1
102
RTVSPropertyOp16
 70
     1
102
RTVSPropertyOp17
 70
     1
102
RTVSPropertyOp18
 70
     1
102
RTVSPropertyOp19
 70
     1
102
RTVSPropertyOp20
 70
     1
102
RTVSPropertyOp21
 70
     1
102
RTVSPropertyOp22
 70
     1
102
RTVSPropertyOp23
 70
     1
102
RTVSPropertyOp24
 70
     1
102
RTVSPropertyOp25
 70
     1
102
RTVSPropertyOp26
 70
     1
102
RTVSPropertyOp27
 70
     1
  0
XRECORD
  5
24D2
102
{ACAD_REACTORS
330
24D1
102
}
330
24D1
100
AcDbXrecord
280
     1
102
RTVSPropertyOp0
 70
     1
102
RTVSPropertyOp1
 70
     1
102
RTVSPropertyOp2
 70
     1
102
RTVSPropertyOp3
 70
     1
102
RTVSPropertyOp4
 70
     1
102
RTVSPropertyOp5
 70
     1
102
RTVSPropertyOp6
 70
     1
102
RTVSPropertyOp7
 70
     1
102
RTVSPropertyOp8
 70
     1
102
RTVSPropertyOp9
 70
     1
102
RTVSPropertyOp10
 70
     1
102
RTVSPropertyOp11
 70
     1
102
RTVSPropertyOp12
 70
     1
102
RTVSPropertyOp13
 70
     1
102
RTVSPropertyOp14
 70
     1
102
RTVSPropertyOp15
 70
     1
102
RTVSPropertyOp16
 70
     1
102
RTVSPropertyOp17
 70
     1
102
RTVSPropertyOp18
 70
     1
102
RTVSPropertyOp19
 70
     1
102
RTVSPropertyOp20
 70
     1
102
RTVSPropertyOp21
 70
     1
102
RTVSPropertyOp22
 70
     1
102
RTVSPropertyOp23
 70
     1
102
RTVSPropertyOp24
 70
     1
102
RTVSPropertyOp25
 70
     1
102
RTVSPropertyOp26
 70
     1
102
RTVSPropertyOp27
 70
     1
  0
ENDSEC
  0
EOF
