  0
SECTION
  2
HEADER
  9
$ACADVER
  1
AC1015
  9
$ACADMAINTVER
 70
    20
  9
$DWGCODEPAGE
  3
ANSI_1252
  9
$INSBASE
 10
0.0
 20
0.0
 30
0.0
  9
$EXTMIN
 10
1252.484754180918
 20
3772.793894811803
 30
-0.0000000017937957
  9
$EXTMAX
 10
1255.116221402213
 20
3774.643894811803
 30
0.0000000002002489
  9
$LIMMIN
 10
0.0
 20
0.0
  9
$LIMMAX
 10
420.0
 20
297.0
  9
$ORTHOMODE
 70
     0
  9
$REGENMODE
 70
     1
  9
$FILLMODE
 70
     1
  9
$QTEXTMODE
 70
     0
  9
$MIRRTEXT
 70
     1
  9
$LTSCALE
 40
1.0
  9
$ATTMODE
 70
     1
  9
$TEXTSIZE
 40
2.5
  9
$TRACEWID
 40
1.0
  9
$TEXTSTYLE
  7
SANINDUSA
  9
$CLAYER
  8
cotas
  9
$CELTYPE
  6
ByLayer
  9
$CECOLOR
 62
   256
  9
$CELTSCALE
 40
1.0
  9
$DISPSILH
 70
     0
  9
$DIMSCALE
 40
1.0
  9
$DIMASZ
 40
2.0
  9
$DIMEXO
 40
1.0
  9
$DIMDLI
 40
1.0
  9
$DIMRND
 40
0.0
  9
$DIMDLE
 40
0.0
  9
$DIMEXE
 40
1.0
  9
$DIMTP
 40
0.0
  9
$DIMTM
 40
0.0
  9
$DIMTXT
 40
2.0
  9
$DIMCEN
 40
0.0
  9
$DIMTSZ
 40
0.0
  9
$DIMTOL
 70
     0
  9
$DIMLIM
 70
     0
  9
$DIMTIH
 70
     0
  9
$DIMTOH
 70
     0
  9
$DIMSE1
 70
     0
  9
$DIMSE2
 70
     0
  9
$DIMTAD
 70
     1
  9
$DIMZIN
 70
     8
  9
$DIMBLK
  1

  9
$DIMASO
 70
     1
  9
$DIMSHO
 70
     1
  9
$DIMPOST
  1

  9
$DIMAPOST
  1

  9
$DIMALT
 70
     0
  9
$DIMALTD
 70
     3
  9
$DIMALTF
 40
0.03937007874016
  9
$DIMLFAC
 40
1.0
  9
$DIMTOFL
 70
     1
  9
$DIMTVP
 40
0.0
  9
$DIMTIX
 70
     0
  9
$DIMSOXD
 70
     0
  9
$DIMSAH
 70
     0
  9
$DIMBLK1
  1

  9
$DIMBLK2
  1

  9
$DIMSTYLE
  2
SANINDUSA
  9
$DIMCLRD
 70
   256
  9
$DIMCLRE
 70
   256
  9
$DIMCLRT
 70
   256
  9
$DIMTFAC
 40
1.0
  9
$DIMGAP
 40
1.0
  9
$DIMJUST
 70
     0
  9
$DIMSD1
 70
     0
  9
$DIMSD2
 70
     0
  9
$DIMTOLJ
 70
     0
  9
$DIMTZIN
 70
     8
  9
$DIMALTZ
 70
     0
  9
$DIMALTTZ
 70
     0
  9
$DIMUPT
 70
     0
  9
$DIMDEC
 70
     1
  9
$DIMTDEC
 70
     1
  9
$DIMALTU
 70
     2
  9
$DIMALTTD
 70
     3
  9
$DIMTXSTY
  7
SANINDUSA
  9
$DIMAUNIT
 70
     0
  9
$DIMADEC
 70
     1
  9
$DIMALTRND
 40
0.0
  9
$DIMAZIN
 70
     0
  9
$DIMDSEP
 70
    44
  9
$DIMATFIT
 70
     3
  9
$DIMFRAC
 70
     0
  9
$DIMLDRBLK
  1

  9
$DIMLUNIT
 70
     2
  9
$DIMLWD
 70
    -1
  9
$DIMLWE
 70
    -1
  9
$DIMTMOVE
 70
     0
  9
$LUNITS
 70
     2
  9
$LUPREC
 70
     4
  9
$SKETCHINC
 40
1.0
  9
$FILLETRAD
 40
0.0
  9
$AUNITS
 70
     0
  9
$AUPREC
 70
     0
  9
$MENU
  1
.
  9
$ELEVATION
 40
0.0
  9
$PELEVATION
 40
0.0
  9
$THICKNESS
 40
0.0
  9
$LIMCHECK
 70
     0
  9
$CHAMFERA
 40
10.0
  9
$CHAMFERB
 40
10.0
  9
$CHAMFERC
 40
20.0
  9
$CHAMFERD
 40
0.0
  9
$SKPOLY
 70
     0
  9
$TDCREATE
 40
2453318.730959919
  9
$TDUCREATE
 40
2453318.689293253
  9
$TDUPDATE
 40
2455824.594144421
  9
$TDUUPDATE
 40
2455824.552477755
  9
$TDINDWG
 40
0.0220744676
  9
$TDUSRTIMER
 40
0.0220744676
  9
$USRTIMER
 70
     1
  9
$ANGBASE
 50
0.0
  9
$ANGDIR
 70
     0
  9
$PDMODE
 70
     0
  9
$PDSIZE
 40
0.0
  9
$PLINEWID
 40
0.0
  9
$SPLFRAME
 70
     0
  9
$SPLINETYPE
 70
     6
  9
$SPLINESEGS
 70
     8
  9
$HANDSEED
  5
1D06
  9
$SURFTAB1
 70
     6
  9
$SURFTAB2
 70
     6
  9
$SURFTYPE
 70
     6
  9
$SURFU
 70
     6
  9
$SURFV
 70
     6
  9
$UCSBASE
  2

  9
$UCSNAME
  2

  9
$UCSORG
 10
0.0
 20
0.0
 30
0.0
  9
$UCSXDIR
 10
1.0
 20
0.0
 30
0.0
  9
$UCSYDIR
 10
0.0
 20
1.0
 30
0.0
  9
$UCSORTHOREF
  2

  9
$UCSORTHOVIEW
 70
     0
  9
$UCSORGTOP
 10
0.0
 20
0.0
 30
0.0
  9
$UCSORGBOTTOM
 10
0.0
 20
0.0
 30
0.0
  9
$UCSORGLEFT
 10
0.0
 20
0.0
 30
0.0
  9
$UCSORGRIGHT
 10
0.0
 20
0.0
 30
0.0
  9
$UCSORGFRONT
 10
0.0
 20
0.0
 30
0.0
  9
$UCSORGBACK
 10
0.0
 20
0.0
 30
0.0
  9
$PUCSBASE
  2

  9
$PUCSNAME
  2

  9
$PUCSORG
 10
0.0
 20
0.0
 30
0.0
  9
$PUCSXDIR
 10
1.0
 20
0.0
 30
0.0
  9
$PUCSYDIR
 10
0.0
 20
1.0
 30
0.0
  9
$PUCSORTHOREF
  2

  9
$PUCSORTHOVIEW
 70
     0
  9
$PUCSORGTOP
 10
0.0
 20
0.0
 30
0.0
  9
$PUCSORGBOTTOM
 10
0.0
 20
0.0
 30
0.0
  9
$PUCSORGLEFT
 10
0.0
 20
0.0
 30
0.0
  9
$PUCSORGRIGHT
 10
0.0
 20
0.0
 30
0.0
  9
$PUCSORGFRONT
 10
0.0
 20
0.0
 30
0.0
  9
$PUCSORGBACK
 10
0.0
 20
0.0
 30
0.0
  9
$USERI1
 70
     0
  9
$USERI2
 70
     0
  9
$USERI3
 70
     0
  9
$USERI4
 70
     0
  9
$USERI5
 70
     0
  9
$USERR1
 40
0.0
  9
$USERR2
 40
0.0
  9
$USERR3
 40
0.0
  9
$USERR4
 40
0.0
  9
$USERR5
 40
0.0
  9
$WORLDVIEW
 70
     1
  9
$SHADEDGE
 70
     3
  9
$SHADEDIF
 70
    70
  9
$TILEMODE
 70
     1
  9
$MAXACTVP
 70
    64
  9
$PINSBASE
 10
0.0
 20
0.0
 30
0.0
  9
$PLIMCHECK
 70
     0
  9
$PEXTMIN
 10
1.000000000000000E+20
 20
1.000000000000000E+20
 30
1.000000000000000E+20
  9
$PEXTMAX
 10
-1.000000000000000E+20
 20
-1.000000000000000E+20
 30
-1.000000000000000E+20
  9
$PLIMMIN
 10
0.0
 20
0.0
  9
$PLIMMAX
 10
420.0
 20
297.0
  9
$UNITMODE
 70
     0
  9
$VISRETAIN
 70
     1
  9
$PLINEGEN
 70
     0
  9
$PSLTSCALE
 70
     1
  9
$TREEDEPTH
 70
  3020
  9
$CMLSTYLE
  2
Standard
  9
$CMLJUST
 70
     0
  9
$CMLSCALE
 40
20.0
  9
$PROXYGRAPHICS
 70
     1
  9
$MEASUREMENT
 70
     1
  9
$CELWEIGHT
370
    -1
  9
$ENDCAPS
280
     0
  9
$JOINSTYLE
280
     0
  9
$LWDISPLAY
290
     0
  9
$INSUNITS
 70
     4
  9
$HYPERLINKBASE
  1

  9
$STYLESHEET
  1
monochrome.ctb
  9
$XEDIT
290
     1
  9
$CEPSNTYPE
380
     0
  9
$PSTYLEMODE
290
     1
  9
$FINGERPRINTGUID
  2
{B98A73AA-52AA-4C10-B469-C0E7150AC31F}
  9
$VERSIONGUID
  2
{F1A97484-F3BB-4B23-B1FE-633891E06BE6}
  9
$EXTNAMES
290
     1
  9
$PSVPSCALE
 40
0.0
  9
$OLESTARTUP
290
     0
  0
ENDSEC
  0
SECTION
  2
CLASSES
  0
CLASS
  1
ACDBDICTIONARYWDFLT
  2
AcDbDictionaryWithDefault
  3
ObjectDBX Classes
 90
        0
280
     0
281
     0
  0
CLASS
  1
ACDBPLACEHOLDER
  2
AcDbPlaceHolder
  3
ObjectDBX Classes
 90
        0
280
     0
281
     0
  0
CLASS
  1
LAYOUT
  2
AcDbLayout
  3
ObjectDBX Classes
 90
        0
280
     0
281
     0
  0
CLASS
  1
DICTIONARYVAR
  2
AcDbDictionaryVar
  3
ObjectDBX Classes
 90
        0
280
     0
281
     0
  0
CLASS
  1
DIMASSOC
  2
AcDbDimAssoc
  3
"AcDbDimAssoc|Product Desc:     AcDim ARX App For Dimension|Company:          Autodesk, Inc.|WEB Address:      www.autodesk.com"
 90
        0
280
     0
281
     0
  0
CLASS
  1
MATERIAL
  2
AcDbMaterial
  3
ObjectDBX Classes
 90
     1153
280
     0
281
     0
  0
CLASS
  1
VISUALSTYLE
  2
AcDbVisualStyle
  3
ObjectDBX Classes
 90
     4095
280
     0
281
     0
  0
CLASS
  1
TABLESTYLE
  2
AcDbTableStyle
  3
ObjectDBX Classes
 90
     4095
280
     0
281
     0
  0
CLASS
  1
SCALE
  2
AcDbScale
  3
ObjectDBX Classes
 90
     1153
280
     0
281
     0
  0
CLASS
  1
MLEADERSTYLE
  2
AcDbMLeaderStyle
  3
ACDB_MLEADERSTYLE_CLASS
 90
     4095
280
     0
281
     0
  0
CLASS
  1
CELLSTYLEMAP
  2
AcDbCellStyleMap
  3
ObjectDBX Classes
 90
     1152
280
     0
281
     0
  0
ENDSEC
  0
SECTION
  2
TABLES
  0
TABLE
  2
VPORT
  5
8
330
0
100
AcDbSymbolTable
 70
     1
  0
VPORT
  5
1BFE
330
8
100
AcDbSymbolTableRecord
100
AcDbViewportTableRecord
  2
*Active
 70
     0
 10
0.0
 20
0.0
 11
1.0
 21
1.0
 12
1253.800487791565
 22
3773.718894811803
 13
0.0
 23
0.0
 14
10.0
 24
10.0
 15
10.0
 25
10.0
 16
0.0
 26
0.0
 36
1.0
 17
0.0
 27
0.0
 37
0.0
 40
1.861562499999763
 41
1.645464025026068
 42
50.0
 43
0.0
 44
0.0
 50
0.0
 51
0.0
 71
     0
 72
   100
 73
     1
 74
     2
 75
     0
 76
     0
 77
     0
 78
     0
281
     0
 65
     1
110
0.0
120
0.0
130
0.0
111
1.0
121
0.0
131
0.0
112
0.0
122
1.0
132
0.0
 79
     0
146
0.0
  0
ENDTAB
  0
TABLE
  2
LTYPE
  5
5
330
0
100
AcDbSymbolTable
 70
     5
  0
LTYPE
  5
14
330
5
100
AcDbSymbolTableRecord
100
AcDbLinetypeTableRecord
  2
ByBlock
 70
     0
  3

 72
    65
 73
     0
 40
0.0
  0
LTYPE
  5
15
330
5
100
AcDbSymbolTableRecord
100
AcDbLinetypeTableRecord
  2
ByLayer
 70
     0
  3

 72
    65
 73
     0
 40
0.0
  0
LTYPE
  5
16
330
5
100
AcDbSymbolTableRecord
100
AcDbLinetypeTableRecord
  2
Continuous
 70
     0
  3
Solid line
 72
    65
 73
     0
 40
0.0
  0
LTYPE
  5
2D
330
5
100
AcDbSymbolTableRecord
100
AcDbLinetypeTableRecord
  2
DASHDOT
 70
     0
  3
Dash dot __ . __ . __ . __ . __ . __ . __ . __
 72
    65
 73
     4
 40
25.4
 49
12.7
 74
     0
 49
-6.349999999999999
 74
     0
 49
0.0
 74
     0
 49
-6.349999999999999
 74
     0
  0
LTYPE
  5
2E
330
5
100
AcDbSymbolTableRecord
100
AcDbLinetypeTableRecord
  2
HIDDEN
 70
     0
  3
Hidden __ __ __ __ __ __ __ __ __ __ __ __ __ _
 72
    65
 73
     2
 40
9.524999999999998
 49
6.349999999999999
 74
     0
 49
-3.174999999999999
 74
     0
  0
LTYPE
  5
C84
330
5
100
AcDbSymbolTableRecord
100
AcDbLinetypeTableRecord
  2
CENTER
 70
     0
  3
____ _ ____ _ ____ _ ____ _ ____ _ ____ _ ____ 
 72
    65
 73
     4
 40
2.0
 49
1.25
 74
     0
 49
-0.25
 74
     0
 49
0.25
 74
     0
 49
-0.25
 74
     0
  0
ENDTAB
  0
TABLE
  2
LAYER
  5
2
330
0
100
AcDbSymbolTable
 70
    17
  0
LAYER
  5
10
102
{ACAD_XDICTIONARY
360
1C6A
102
}
330
2
100
AcDbSymbolTableRecord
100
AcDbLayerTableRecord
  2
0
 70
     0
 62
     7
  6
Continuous
370
    -3
390
F
  0
LAYER
  5
2F
102
{ACAD_XDICTIONARY
360
1C6C
102
}
330
2
100
AcDbSymbolTableRecord
100
AcDbLayerTableRecord
  2
1
 70
     0
 62
     1
  6
Continuous
370
    -3
390
F
  0
LAYER
  5
30
102
{ACAD_XDICTIONARY
360
1C6E
102
}
330
2
100
AcDbSymbolTableRecord
100
AcDbLayerTableRecord
  2
2
 70
     0
 62
     2
  6
Continuous
370
    -3
390
F
  0
LAYER
  5
31
102
{ACAD_XDICTIONARY
360
1C70
102
}
330
2
100
AcDbSymbolTableRecord
100
AcDbLayerTableRecord
  2
3
 70
     0
 62
     3
  6
Continuous
370
    -3
390
F
  0
LAYER
  5
32
102
{ACAD_XDICTIONARY
360
1C72
102
}
330
2
100
AcDbSymbolTableRecord
100
AcDbLayerTableRecord
  2
4
 70
     0
 62
     4
  6
Continuous
370
    -3
390
F
  0
LAYER
  5
33
102
{ACAD_XDICTIONARY
360
1C74
102
}
330
2
100
AcDbSymbolTableRecord
100
AcDbLayerTableRecord
  2
5
 70
     0
 62
     5
  6
Continuous
370
    -3
390
F
  0
LAYER
  5
34
102
{ACAD_XDICTIONARY
360
1C76
102
}
330
2
100
AcDbSymbolTableRecord
100
AcDbLayerTableRecord
  2
6
 70
     0
 62
     6
  6
Continuous
370
    -3
390
F
  0
LAYER
  5
35
102
{ACAD_XDICTIONARY
360
1C78
102
}
330
2
100
AcDbSymbolTableRecord
100
AcDbLayerTableRecord
  2
7
 70
     0
 62
     7
  6
Continuous
370
    -3
390
F
  0
LAYER
  5
36
102
{ACAD_XDICTIONARY
360
1C7A
102
}
330
2
100
AcDbSymbolTableRecord
100
AcDbLayerTableRecord
  2
cen
 70
     0
 62
     7
  6
DASHDOT
370
    -3
390
F
  0
LAYER
  5
37
102
{ACAD_XDICTIONARY
360
1C7C
102
}
330
2
100
AcDbSymbolTableRecord
100
AcDbLayerTableRecord
  2
hid
 70
     0
 62
     7
  6
HIDDEN
370
    -3
390
F
  0
LAYER
  5
5D6
102
{ACAD_XDICTIONARY
360
1C7E
102
}
330
2
100
AcDbSymbolTableRecord
100
AcDbLayerTableRecord
  2
hatch
 70
     0
 62
     9
  6
Continuous
370
    -3
390
F
  0
LAYER
  5
8AF
102
{ACAD_XDICTIONARY
360
1C80
102
}
330
2
100
AcDbSymbolTableRecord
100
AcDbLayerTableRecord
  2
9
 70
     0
 62
     9
  6
Continuous
370
    -3
390
F
  0
LAYER
  5
8F8
102
{ACAD_XDICTIONARY
360
1C82
102
}
330
2
100
AcDbSymbolTableRecord
100
AcDbLayerTableRecord
  2
leg fin
 70
     0
 62
     9
  6
Continuous
370
    -3
390
F
  0
LAYER
  5
91D
102
{ACAD_XDICTIONARY
360
1C84
102
}
330
2
100
AcDbSymbolTableRecord
100
AcDbLayerTableRecord
  2
cotas
 70
     0
 62
     1
  6
Continuous
370
    -3
390
F
  0
LAYER
  5
92F
330
2
100
AcDbSymbolTableRecord
100
AcDbLayerTableRecord
  2
Defpoints
 70
     0
 62
     7
  6
Continuous
290
     0
370
    -3
390
F
  0
LAYER
  5
C85
102
{ACAD_XDICTIONARY
360
1C86
102
}
330
2
100
AcDbSymbolTableRecord
100
AcDbLayerTableRecord
  2
quote
 70
     0
 62
     7
  6
Continuous
370
    18
390
F
  0
LAYER
  5
1C69
102
{ACAD_XDICTIONARY
360
1C88
102
}
330
2
100
AcDbSymbolTableRecord
100
AcDbLayerTableRecord
  2
SANINDUSA
 70
     0
 62
     3
  6
Continuous
370
    -3
390
F
  0
ENDTAB
  0
TABLE
  2
STYLE
  5
3
330
0
100
AcDbSymbolTable
 70
     3
  0
STYLE
  5
11
330
3
100
AcDbSymbolTableRecord
100
AcDbTextStyleTableRecord
  2
Standard
 70
     0
 40
0.0
 41
1.0
 50
0.0
 71
     0
 42
2.5
  3
Avgardn.ttf
  4

1001
ACAD
1000
AvantGarde Bk BT
1071
       34
  0
STYLE
  5
2C
330
3
100
AcDbSymbolTableRecord
100
AcDbTextStyleTableRecord
  2

 70
     1
 40
0.0
 41
1.0
 50
0.0
 71
     0
 42
2.5
  3
ltypeshp.shx
  4

  0
STYLE
  5
91F
330
3
100
AcDbSymbolTableRecord
100
AcDbTextStyleTableRecord
  2
SANINDUSA
 70
     0
 40
0.0
 41
1.0
 50
0.0
 71
     0
 42
2.5
  3
verdana.TTF
  4

1001
ACAD
1000
Verdana
1071
       34
  0
ENDTAB
  0
TABLE
  2
VIEW
  5
6
330
0
100
AcDbSymbolTable
 70
     0
  0
ENDTAB
  0
TABLE
  2
UCS
  5
7
330
0
100
AcDbSymbolTable
 70
     0
  0
ENDTAB
  0
TABLE
  2
APPID
  5
9
330
0
100
AcDbSymbolTable
 70
     7
  0
APPID
  5
12
330
9
100
AcDbSymbolTableRecord
100
AcDbRegAppTableRecord
  2
ACAD
 70
     0
  0
APPID
  5
3A
330
9
100
AcDbSymbolTableRecord
100
AcDbRegAppTableRecord
  2
DCO15
 70
     0
  0
APPID
  5
C87
330
9
100
AcDbSymbolTableRecord
100
AcDbRegAppTableRecord
  2
GENIUS_GENREC_14
 70
     0
  0
APPID
  5
C88
330
9
100
AcDbSymbolTableRecord
100
AcDbRegAppTableRecord
  2
GENIUS_GENODEF_13
 70
     0
  0
APPID
  5
C89
330
9
100
AcDbSymbolTableRecord
100
AcDbRegAppTableRecord
  2
GENIUS_GENOBJ-N-REC_13
 70
     0
  0
APPID
  5
1C4A
330
9
100
AcDbSymbolTableRecord
100
AcDbRegAppTableRecord
  2
ACAD_EXEMPT_FROM_CAD_STANDARDS
 70
     0
  0
APPID
  5
1D05
330
9
100
AcDbSymbolTableRecord
100
AcDbRegAppTableRecord
  2
ACAD_MLEADERVER
 70
     0
  0
ENDTAB
  0
TABLE
  2
DIMSTYLE
  5
A
330
0
100
AcDbSymbolTable
 70
     4
100
AcDbDimStyleTable
 71
     1
340
921
  0
DIMSTYLE
105
45
330
A
100
AcDbSymbolTableRecord
100
AcDbDimStyleTableRecord
  2
STANDARD
 70
     0
289
     0
340
11
  0
DIMSTYLE
105
921
330
A
100
AcDbSymbolTableRecord
100
AcDbDimStyleTableRecord
  2
SANINDUSA
 70
     0
 41
2.0
 42
1.0
 43
1.0
 44
1.0
 73
     0
 74
     0
 77
     1
 78
     8
140
2.0
141
0.0
143
0.03937007874016
147
1.0
171
     3
172
     1
176
   256
177
   256
178
   256
179
     1
271
     1
272
     1
274
     3
278
    44
283
     0
284
     8
340
91F
371
    -1
372
    -1
  0
DIMSTYLE
105
C86
330
A
100
AcDbSymbolTableRecord
100
AcDbDimStyleTableRecord
  2
ISO-25
 70
     0
 40
10.0
 41
2.5
 42
0.625
 43
3.75
 44
1.25
 73
     0
 74
     0
 77
     1
 78
     8
140
2.5
141
2.5
143
0.03937007874016
147
0.625
171
     3
172
     1
271
     0
272
     0
274
     3
278
    44
283
     0
284
     8
340
11
  0
ENDTAB
  0
TABLE
  2
BLOCK_RECORD
  5
1
330
0
100
AcDbSymbolTable
 70
    16
  0
BLOCK_RECORD
  5
1F
330
1
100
AcDbSymbolTableRecord
100
AcDbBlockTableRecord
  2
*Model_Space
340
22
  0
BLOCK_RECORD
  5
1B
330
1
100
AcDbSymbolTableRecord
100
AcDbBlockTableRecord
  2
*Paper_Space
340
1E
  0
BLOCK_RECORD
  5
23
330
1
100
AcDbSymbolTableRecord
100
AcDbBlockTableRecord
  2
*Paper_Space0
340
26
  0
BLOCK_RECORD
  5
919
330
1
100
AcDbSymbolTableRecord
100
AcDbBlockTableRecord
  2
_DotSmall
340
0
  0
BLOCK_RECORD
  5
922
330
1
100
AcDbSymbolTableRecord
100
AcDbBlockTableRecord
  2
base para cotas
340
0
310
2800000020000000200000000100080000000000000400000000000000000000000000000000000000000000000080000080000000808000800000008000800080800000C0C0C000C0DCC000F0CAA6000020400000206000002080000020A0000020C0000020E00000400000004020000040400000406000004080000040A0
310
000040C0000040E00000600000006020000060400000606000006080000060A0000060C0000060E00000800000008020000080400000806000008080000080A0000080C0000080E00000A0000000A0200000A0400000A0600000A0800000A0A00000A0C00000A0E00000C0000000C0200000C0400000C0600000C0800000C0
310
A00000C0C00000C0E00000E0000000E0200000E0400000E0600000E0800000E0A00000E0C00000E0E00040000000400020004000400040006000400080004000A0004000C0004000E00040200000402020004020400040206000402080004020A0004020C0004020E000404000004040200040404000404060004040800040
310
40A0004040C0004040E00040600000406020004060400040606000406080004060A0004060C0004060E00040800000408020004080400040806000408080004080A0004080C0004080E00040A0000040A0200040A0400040A0600040A0800040A0A00040A0C00040A0E00040C0000040C0200040C0400040C0600040C08000
310
40C0A00040C0C00040C0E00040E0000040E0200040E0400040E0600040E0800040E0A00040E0C00040E0E00080000000800020008000400080006000800080008000A0008000C0008000E00080200000802020008020400080206000802080008020A0008020C0008020E00080400000804020008040400080406000804080
310
008040A0008040C0008040E00080600000806020008060400080606000806080008060A0008060C0008060E00080800000808020008080400080806000808080008080A0008080C0008080E00080A0000080A0200080A0400080A0600080A0800080A0A00080A0C00080A0E00080C0000080C0200080C0400080C0600080C0
310
800080C0A00080C0C00080C0E00080E0000080E0200080E0400080E0600080E0800080E0A00080E0C00080E0E000C0000000C0002000C0004000C0006000C0008000C000A000C000C000C000E000C0200000C0202000C0204000C0206000C0208000C020A000C020C000C020E000C0400000C0402000C0404000C0406000C0
310
408000C040A000C040C000C040E000C0600000C0602000C0604000C0606000C0608000C060A000C060C000C060E000C0800000C0802000C0804000C0806000C0808000C080A000C080C000C080E000C0A00000C0A02000C0A04000C0A06000C0A08000C0A0A000C0A0C000C0A0E000C0C00000C0C02000C0C04000C0C06000
310
C0C08000C0C0A000F0FBFF00A4A0A000808080000000FF0000FF000000FFFF00FF000000FF00FF00FFFF0000FFFFFF00A4A4A4A4A4A4A4A4A4A4A4A4A4A4A4A4A4A4A4A4A4A4A4A4A4A4A4A4A4A4A4A4A4A4A4A4A4A4A4A4A4A4A4A4A4A4A4A4A4A4A4A4A4A4A4A4A4A4A4A4A4A4A4A4A4A4A4A4A4A4A4A4A4A4A4A4A4A4A4
310
A4A4A4A4A4A4A4A4A4A4A4A4A4A4A4A4A4A4A4A4A4A4A4A4A4A4A4A4A4A4A4A4A4A4A4A4A4A4A4A4A4A4A4A4A4A4A4A4A4A4A4A4A4A4A4A4A4A4A4A4A4A4A4A4A4A4A4A4A4A4A4A4A4A4A4A4A4A4A4A4A4A4A4A4A4A4A4A4A4A4A4A4A4A4A4A4A4A4A4A4A4A4A4A4A4A4A4A4A4A4A4A4A4A4A4A4A4A4A4A4A4A4A4A4A4A4A4
310
A4A4A4A4A4A4A4A4A4A4A4A4A4A4A4A4A4A4A4A4A4A4A4A4A4A4A4A4A4A4A4A4A4A4A4A4A4A4A4A4A4A4A4A4A4A4A4A4A4A4A4A4A4A4A4A4A4A4A4A4A4A4A4A4A4A4A4A4A4A4A4A4A4A4A4A4A4A4A4A4A4A4A4A4A4A4A4A4A4A4A4A4A4A4A4A4A4A4A4A4A4A4A4A4A4A4A4A4A4A4A4A4A4A4A4A4A4A4A4A4A4A4A4A4A4A4A4
310
A4A4A4A4A4A4A4A4A4A4A4A4A4A4A4A4A4A4A4A4A4A4A4A4A4A4A4A4A4A4A4A4A4A4A4A4A4A4A4A4A4A4A4A4A4A4A4A4A4A4A4A4A4A4A4A4A4A4A4A4A4A4A4A4A4A4A4A4A4A4A4A4A4A4A4A4A4A4A4A4A4A4A4A4A4A4A4A4A4A4A4A4A4A4A4A4A4A4A4A4A4A4A4A4A4A4A4A4A4A4A4A4A4A4A4A4F9F9F9F9F9F9F9F9F9F9F9
310
F9F9F9F9F9F9F9F9F9F9F9F9F9F9F9F9F9F9F9A4A4F9F9F9F9F9F9F9F9F9F9F9F9F9F9F9F9F9F9F9F9F9F9F9F9F9F9F9F9F9F9A4A4F9F9F9F9F9F9F9F9F9F9F9F9F9F9F9F9F9F9F9F9F9F9F9F9F9F9F9F9F9F9A4A4F9A4A4A4A4A4A4A4A4A4A4A4A4A4A4A4A4A4A4A4A4A4A4A4A4A4A4A4A4F9A4A4A4A4A4A4A4A4A4A4A4A4
310
A4A4A4A4A4A4A4A4A4A4A4A4A4A4A4A4A4A4A4A4A4A4A4A4A4A4A4A4A4A4A4A4A4A4A4A4A4A4A4A4A4A4A4A4A4A4A4A4A4A4A4A4A4A4A4A4A4A4A4A4A4A4A4A4A4A4A4A4A4A4A4A4A4A4A4A4A4A4A4A4A4A4A4A4A4A4A4A4A4A4A4A4A4A4A4A4A4A4A4A4A4A4A4A4A4A4A4A4A4A4A4A4A4A4A4A4A4A4A4A4A4A4A4A4A4A4A4
310
A4A4A4A4A4A4A4A4A4A4A4A4A4A4A4A4A4A4A4A4A4A4A4A4A4A4A4A4A4A4A4A4A4A4A4A4A4A4A4A4A4A4A4A4A4A4A4A4A4A4A4A4A4A4A4A4A4A4A4A4A4A4A4A4A4A4A4A4A4A4A4A4A4A4A4A4A4A4A4A4A4A4A4A4A4A4A4A4A4A4A4A4A4A4A4A4A4A4A4A4A4A4A4A4A4A4A4A4A4A4A4A4A4A4A4A4A4A4A4A4A4A4A4A4A4A4A4
310
A4A4A4A4A4A4A4A4A4A4A4A4A4A4A4A4A4A4A4A4A4A4A4A4A4A4A4A4A4A4A4A4A4A4A4A4A4A4A4A4A4A4A4A4A4A4A4A4A4A4A4A4A4A4A4A4A4A4A4A4A4A4A4A4A4A4A4A4A4A4A4A4A4A4A4A4A4A4A4A4A4A4A4A4A4A4A4A4A4A4A4A4A4A4A4A4A4A4A4A4A4A4A4A4A4A4A4A4A4A4A4A4A4A4A4A4A4A4A4A4A4A4A4A4A4A4A4
310
A4A4A4A4A4A4A4A4A4A4A4A4A4A4A4A4A4A4A4A4A4A4A4A4A4A4A4A4A4A4A4A4A4A4A4A4A4A4A4A4A4A4A4A4A4A4A4A4A4A4A4A4A4A4A4A4
1001
ACAD
1000
DesignCenter Data
1002
{
1070
     1
1070
     4
1002
}
  0
BLOCK_RECORD
  5
AA8
330
1
100
AcDbSymbolTableRecord
100
AcDbBlockTableRecord
  2
_CLOSED
340
0
  0
BLOCK_RECORD
  5
BA5
330
1
100
AcDbSymbolTableRecord
100
AcDbBlockTableRecord
  2
guarnizione
340
0
  0
BLOCK_RECORD
  5
1750
330
1
100
AcDbSymbolTableRecord
100
AcDbBlockTableRecord
  2
*D5
340
0
  0
BLOCK_RECORD
  5
175C
330
1
100
AcDbSymbolTableRecord
100
AcDbBlockTableRecord
  2
*D6
340
0
  0
BLOCK_RECORD
  5
176A
330
1
100
AcDbSymbolTableRecord
100
AcDbBlockTableRecord
  2
*D7
340
0
  0
BLOCK_RECORD
  5
1776
330
1
100
AcDbSymbolTableRecord
100
AcDbBlockTableRecord
  2
*D8
340
0
  0
BLOCK_RECORD
  5
1782
330
1
100
AcDbSymbolTableRecord
100
AcDbBlockTableRecord
  2
*D9
340
0
  0
BLOCK_RECORD
  5
179A
330
1
100
AcDbSymbolTableRecord
100
AcDbBlockTableRecord
  2
*D10
340
0
  0
BLOCK_RECORD
  5
17DE
330
1
100
AcDbSymbolTableRecord
100
AcDbBlockTableRecord
  2
*D11
340
0
  0
BLOCK_RECORD
  5
1811
330
1
100
AcDbSymbolTableRecord
100
AcDbBlockTableRecord
  2
*D12
340
0
  0
BLOCK_RECORD
  5
1870
330
1
100
AcDbSymbolTableRecord
100
AcDbBlockTableRecord
  2
*D13
340
0
  0
BLOCK_RECORD
  5
1C52
330
1
100
AcDbSymbolTableRecord
100
AcDbBlockTableRecord
  2
*D15
340
0
  0
ENDTAB
  0
ENDSEC
  0
SECTION
  2
BLOCKS
  0
BLOCK
  5
20
330
1F
100
AcDbEntity
  8
0
100
AcDbBlockBegin
  2
*Model_Space
 70
     0
 10
0.0
 20
0.0
 30
0.0
  3
*Model_Space
  1

  0
ENDBLK
  5
21
330
1F
100
AcDbEntity
  8
0
100
AcDbBlockEnd
  0
BLOCK
  5
1C
330
1B
100
AcDbEntity
 67
     1
  8
0
100
AcDbBlockBegin
  2
*Paper_Space
 70
     0
 10
0.0
 20
0.0
 30
0.0
  3
*Paper_Space
  1

  0
ENDBLK
  5
1D
330
1B
100
AcDbEntity
 67
     1
  8
0
100
AcDbBlockEnd
  0
BLOCK
  5
24
330
23
100
AcDbEntity
 67
     1
  8
0
100
AcDbBlockBegin
  2
*Paper_Space0
 70
     0
 10
0.0
 20
0.0
 30
0.0
  3
*Paper_Space0
  1

  0
ENDBLK
  5
25
330
23
100
AcDbEntity
 67
     1
  8
0
100
AcDbBlockEnd
  0
BLOCK
  5
91B
330
919
100
AcDbEntity
  8
0
100
AcDbBlockBegin
  2
_DotSmall
 70
     0
 10
0.0
 20
0.0
 30
0.0
  3
_DotSmall
  1

  0
LWPOLYLINE
  5
91A
330
919
100
AcDbEntity
  8
0
  6
ByBlock
 62
     0
100
AcDbPolyline
 90
        2
 70
     1
 43
0.5
 10
-0.0625
 20
0.0
 42
1.0
 10
0.0625
 20
0.0
 42
1.0
  0
ENDBLK
  5
91C
330
919
100
AcDbEntity
  8
0
100
AcDbBlockEnd
  0
BLOCK
  5
92A
330
922
100
AcDbEntity
  8
0
100
AcDbBlockBegin
  2
base para cotas
 70
     0
 10
0.0
 20
0.0
 30
0.0
  3
base para cotas
  1

  0
LINE
  5
B36
330
922
100
AcDbEntity
  8
cotas
100
AcDbLine
 10
0.0
 20
-30.0
 30
0.0
 11
327.1260136525398
 21
-30.0
 31
0.0
  0
LINE
  5
B37
330
922
100
AcDbEntity
  8
cotas
100
AcDbLine
 10
0.0
 20
-25.0
 30
0.0
 11
327.1260136525398
 21
-25.0
 31
0.0
  0
LINE
  5
B38
330
922
100
AcDbEntity
  8
cotas
100
AcDbLine
 10
0.0
 20
-20.0
 30
0.0
 11
327.1260136525398
 21
-20.0
 31
0.0
  0
LINE
  5
B39
330
922
100
AcDbEntity
  8
cotas
100
AcDbLine
 10
0.0
 20
-15.0
 30
0.0
 11
327.1260136525398
 21
-15.0
 31
0.0
  0
LINE
  5
B3A
330
922
100
AcDbEntity
  8
cotas
100
AcDbLine
 10
0.0
 20
-10.0
 30
0.0
 11
327.1260136525398
 21
-10.0
 31
0.0
  0
LINE
  5
B3B
330
922
100
AcDbEntity
  8
cotas
100
AcDbLine
 10
0.0
 20
0.0
 30
0.0
 11
0.0
 21
-30.0
 31
0.0
  0
LINE
  5
B3C
330
922
100
AcDbEntity
  8
cotas
100
AcDbLine
 10
327.1260136525398
 20
-30.0
 30
0.0
 11
327.1260136525398
 21
0.0
 31
0.0
  0
ENDBLK
  5
92B
330
922
100
AcDbEntity
  8
0
100
AcDbBlockEnd
  0
BLOCK
  5
AAD
330
AA8
100
AcDbEntity
  8
0
100
AcDbBlockBegin
  2
_CLOSED
 70
     0
 10
0.0
 20
0.0
 30
0.0
  3
_CLOSED
  1

  0
LINE
  5
AA9
330
AA8
100
AcDbEntity
  8
0
100
AcDbLine
 10
-1.0
 20
0.166667
 30
0.0
 11
0.0
 21
0.0
 31
0.0
  0
LINE
  5
AAA
330
AA8
100
AcDbEntity
  8
0
100
AcDbLine
 10
0.0
 20
0.0
 30
0.0
 11
-1.0
 21
-0.166667
 31
0.0
  0
LINE
  5
AAB
330
AA8
100
AcDbEntity
  8
0
100
AcDbLine
 10
-1.0
 20
0.166667
 30
0.0
 11
-1.0
 21
-0.166667
 31
0.0
  0
LINE
  5
AAC
330
AA8
100
AcDbEntity
  8
0
100
AcDbLine
 10
0.0
 20
0.0
 30
0.0
 11
-1.0
 21
0.0
 31
0.0
  0
ENDBLK
  5
AAE
330
AA8
100
AcDbEntity
  8
0
100
AcDbBlockEnd
  0
BLOCK
  5
BF0
330
BA5
100
AcDbEntity
  8
0
 62
     4
100
AcDbBlockBegin
  2
guarnizione
 70
     0
 10
0.0
 20
0.0
 30
0.0
  3
guarnizione
  1

  0
LINE
  5
BA6
330
BA5
100
AcDbEntity
  8
0
100
AcDbLine
 10
12.0
 20
3.179312414488776
 30
0.0
 11
12.0
 21
2.699999999999818
 31
0.0
  0
LINE
  5
BA7
330
BA5
100
AcDbEntity
  8
0
100
AcDbLine
 10
9.5
 20
3.130475008156281
 30
0.0
 11
9.440776269158959
 21
2.734883615801663
 31
0.0
  0
ARC
  5
BA8
330
BA5
100
AcDbEntity
  8
0
100
AcDbCircle
 10
11.19999999999891
 20
3.179312414488776
 30
0.0
 40
0.8
100
AcDbArc
 50
0.0
 51
81.48552156587461
  0
ARC
  5
BA9
330
BA5
100
AcDbEntity
  8
0
100
AcDbCircle
 10
8.753809903480942
 20
1.523241254200002
 30
0.0
 40
0.1999999999999504
100
AcDbArc
 50
171.485521565823
 51
351.485521565823
  0
LINE
  5
BAA
330
BA5
100
AcDbEntity
  8
0
100
AcDbLine
 10
11.65558220186904
 20
-2.403306455734309
 30
0.0
 11
9.440776269158959
 21
-2.734883615802573
 31
0.0
  0
ARC
  5
BAB
330
BA5
100
AcDbEntity
  8
0
100
AcDbCircle
 10
8.753809903480942
 20
-1.523241254200911
 30
0.0
 40
0.1999999999999504
100
AcDbArc
 50
8.514478434176927
 51
188.5144784341769
  0
LINE
  5
BAC
330
BA5
100
AcDbEntity
  8
0
100
AcDbLine
 10
9.5
 20
-3.130475008157191
 30
0.0
 11
9.440776269158959
 21
-2.734883615802573
 31
0.0
  0
ARC
  5
BAD
330
BA5
100
AcDbEntity
  8
0
100
AcDbCircle
 10
11.69999999999891
 20
-2.699999999999818
 30
0.0
 40
0.3
100
AcDbArc
 50
0.0
 51
98.51447843412536
  0
ARC
  5
BAE
330
BA5
100
AcDbEntity
  8
0
100
AcDbCircle
 10
11.69999999999891
 20
2.699999999999818
 30
0.0
 40
0.3
100
AcDbArc
 50
261.4855215658746
 51
0.0
  0
LINE
  5
BAF
330
BA5
100
AcDbEntity
  8
0
100
AcDbLine
 10
11.65558220186904
 20
2.4033064557334
 30
0.0
 11
9.440776269158959
 21
2.734883615801663
 31
0.0
  0
LINE
  5
BB0
330
BA5
100
AcDbEntity
  8
0
100
AcDbLine
 10
8.807715063378054
 20
3.234116537129011
 30
0.0
 11
8.556014207302723
 21
1.552853119620522
 31
0.0
  0
LINE
  5
BB1
330
BA5
100
AcDbEntity
  8
0
100
AcDbLine
 10
9.203306455732672
 20
3.174892806287971
 30
0.0
 11
8.951605599657341
 21
1.493629388779481
 31
0.0
  0
LINE
  5
BB2
330
BA5
100
AcDbEntity
  8
0
100
AcDbLine
 10
6.681411329471302
 20
3.552444090400967
 30
0.0
 11
6.622187598630262
 21
3.15685269804544
 31
0.0
  0
ARC
  5
BB3
330
BA5
100
AcDbEntity
  8
0
100
AcDbCircle
 10
0.2999999999992724
 20
3.800000000000181
 30
0.0
 40
0.3
100
AcDbArc
 50
81.48552156587461
 51
180.0
  0
ARC
  5
BB4
330
BA5
100
AcDbEntity
  8
0
100
AcDbCircle
 10
1.042400829128382
 20
4.699999999999818
 30
0.0
 40
0.8
100
AcDbArc
 50
81.48552156587461
 51
90.0
  0
LINE
  5
BB5
330
BA5
100
AcDbEntity
  8
0
100
AcDbLine
 10
1.5
 20
3.923692082123125
 30
0.0
 11
0.3444177981309622
 21
4.09669354426569
 31
0.0
  0
LINE
  5
BB6
330
BA5
100
AcDbEntity
  8
0
100
AcDbLine
 10
1.5
 20
3.923692082123125
 30
0.0
 11
1.5
 21
3.099999999999454
 31
0.0
  0
LINE
  5
BB7
330
BA5
100
AcDbEntity
  8
0
100
AcDbLine
 10
1.5
 20
3.099999999999454
 30
0.0
 11
2.699999999998908
 21
3.099999999999454
 31
0.0
  0
LINE
  5
BB8
330
BA5
100
AcDbEntity
  8
0
100
AcDbLine
 10
2.699999999998908
 20
3.744040860223321
 30
0.0
 11
2.699999999998908
 21
3.099999999999454
 31
0.0
  0
LINE
  5
BB9
330
BA5
100
AcDbEntity
  8
0
100
AcDbLine
 10
6.622187598630262
 20
3.15685269804544
 30
0.0
 11
2.699999999998908
 21
3.744040860223321
 31
0.0
  0
LINE
  5
BBA
330
BA5
100
AcDbEntity
  8
0
100
AcDbLine
 10
1.5
 20
-3.100000000000363
 30
0.0
 11
2.699999999998908
 21
-3.100000000000363
 31
0.0
  0
LINE
  5
BBB
330
BA5
100
AcDbEntity
  8
0
100
AcDbLine
 10
11.31844746168099
 20
3.970495199198012
 30
0.0
 11
1.160848290810463
 21
5.491182784709053
 31
0.0
  0
LINE
  5
BBC
330
BA5
100
AcDbEntity
  8
0
100
AcDbLine
 10
9.5
 20
3.130475008156281
 30
0.0
 11
6.681411329471302
 21
3.552444090400967
 31
0.0
  0
ARC
  5
BBD
330
BA5
100
AcDbEntity
  8
0
100
AcDbCircle
 10
11.19999999999891
 20
-3.179312414488776
 30
0.0
 40
0.8
100
AcDbArc
 50
278.5144784341254
 51
0.0
  0
LINE
  5
BBE
330
BA5
100
AcDbEntity
  8
0
100
AcDbLine
 10
6.681411329471302
 20
-3.552444090400967
 30
0.0
 11
6.622187598630262
 21
-3.15685269804635
 31
0.0
  0
ARC
  5
BBF
330
BA5
100
AcDbEntity
  8
0
100
AcDbCircle
 10
0.2999999999992724
 20
-3.800000000000181
 30
0.0
 40
0.3
100
AcDbArc
 50
180.0
 51
278.5144784341254
  0
ARC
  5
BC0
330
BA5
100
AcDbEntity
  8
0
100
AcDbCircle
 10
1.042400829128382
 20
-4.699999999999818
 30
0.0
 40
0.8
100
AcDbArc
 50
270.0
 51
278.5144784341254
  0
LINE
  5
BC1
330
BA5
100
AcDbEntity
  8
0
100
AcDbLine
 10
0.3444177981309622
 20
-4.096693544266599
 30
0.0
 11
1.5
 21
-3.923692082124034
 31
0.0
  0
LINE
  5
BC2
330
BA5
100
AcDbEntity
  8
0
100
AcDbLine
 10
6.622187598630262
 20
-3.15685269804635
 30
0.0
 11
2.699999999998908
 21
-3.744040860224231
 31
0.0
  0
LINE
  5
BC3
330
BA5
100
AcDbEntity
  8
0
100
AcDbLine
 10
1.160848290810463
 20
-5.491182784709963
 30
0.0
 11
11.31844746168099
 21
-3.970495199198921
 31
0.0
  0
LINE
  5
BC4
330
BA5
100
AcDbEntity
  8
0
100
AcDbLine
 10
0.0
 20
3.800000000000181
 30
0.0
 11
0.0
 21
-3.800000000000181
 31
0.0
  0
LINE
  5
BC5
330
BA5
100
AcDbEntity
  8
0
100
AcDbLine
 10
12.0
 20
-2.699999999999818
 30
0.0
 11
12.0
 21
-3.179312414488776
 31
0.0
  0
LINE
  5
BC6
330
BA5
100
AcDbEntity
  8
0
100
AcDbLine
 10
2.699999999998908
 20
-3.100000000000363
 30
0.0
 11
2.699999999998908
 21
-3.744040860224231
 31
0.0
  0
LINE
  5
BC7
330
BA5
100
AcDbEntity
  8
0
100
AcDbLine
 10
1.5
 20
-3.100000000000363
 30
0.0
 11
1.5
 21
-3.923692082124034
 31
0.0
  0
LINE
  5
BC8
330
BA5
100
AcDbEntity
  8
0
100
AcDbLine
 10
9.5
 20
-3.130475008157191
 30
0.0
 11
6.681411329471302
 21
-3.552444090400967
 31
0.0
  0
LINE
  5
BC9
330
BA5
100
AcDbEntity
  8
0
100
AcDbLine
 10
9.203306455732672
 20
-3.174892806287971
 30
0.0
 11
8.951605599657341
 21
-1.493629388780391
 31
0.0
  0
LINE
  5
BCA
330
BA5
100
AcDbEntity
  8
0
100
AcDbLine
 10
8.807715063378054
 20
-3.234116537129011
 30
0.0
 11
8.556014207302723
 21
-1.552853119621431
 31
0.0
  0
LINE
  5
BCB
330
BA5
100
AcDbEntity
  8
0
100
AcDbLine
 10
-1.5
 20
5.5
 30
0.0
 11
-3.757359312881817
 21
5.5
 31
0.0
  0
ARC
  5
BCC
330
BA5
100
AcDbEntity
  8
0
100
AcDbCircle
 10
-2.5
 20
3.5
 30
0.0
 40
1.0
100
AcDbArc
 50
0.0
 51
90.0
  0
ARC
  5
BCD
330
BA5
100
AcDbEntity
  8
0
100
AcDbCircle
 10
-3.769781102879278
 20
4.149978862833449
 30
0.0
 40
0.75
100
AcDbArc
 50
47.16775949949599
 51
90.19499109987526
  0
ARC
  5
BCE
330
BA5
100
AcDbEntity
  8
0
100
AcDbCircle
 10
-2.75
 20
5.25
 30
0.0
 40
0.75
100
AcDbArc
 50
227.167759499496
 51
270.0
  0
LINE
  5
BCF
330
BA5
100
AcDbEntity
  8
0
100
AcDbLine
 10
-2.75
 20
4.5
 30
0.0
 11
-2.5
 21
4.5
 31
0.0
  0
LINE
  5
BD0
330
BA5
100
AcDbEntity
  8
0
100
AcDbLine
 10
-7.415254325502246
 20
3.064644661409147
 30
0.0
 11
-6.868629150101696
 21
3.611269837220788
 31
0.0
  0
ARC
  5
BD1
102
{ACAD_REACTORS
330
BEB
102
}
330
BA5
100
AcDbEntity
  8
0
100
AcDbCircle
 10
-7.980939750059405
 20
2.569669913566031
 30
0.0
 40
0.2
100
AcDbArc
 50
45.0000001037625
 51
135.0000000719631
  0
ARC
  5
BD2
330
BA5
100
AcDbEntity
  8
0
100
AcDbCircle
 10
-3.757359312881817
 20
0.5
 30
0.0
 40
5.0
100
AcDbArc
 50
90.0
 51
135.0
  0
ARC
  5
BD3
330
BA5
100
AcDbEntity
  8
0
100
AcDbCircle
 10
-3.757359312881817
 20
0.5
 30
0.0
 40
4.4
100
AcDbArc
 50
90.19499109987526
 51
135.0
  0
ARC
  5
BD4
330
BA5
100
AcDbEntity
  8
0
100
AcDbCircle
 10
-6.814213563102384
 20
0.9786796633270569
 30
0.0
 40
0.75
100
AcDbArc
 50
314.9999999676111
 51
45.0
  0
ARC
  5
BD5
102
{ACAD_REACTORS
330
BEB
102
}
330
BA5
100
AcDbEntity
  8
0
100
AcDbCircle
 10
-6.814213563102384
 20
0.9786796633270569
 30
0.0
 40
0.5
100
AcDbArc
 50
314.9999999676111
 51
45.0
  0
ARC
  5
BD6
330
BA5
100
AcDbEntity
  8
0
100
AcDbCircle
 10
-7.203122291144609
 20
2.852512627053329
 30
0.0
 40
0.3
100
AcDbArc
 50
135.0
 51
225.0000001112794
  0
LINE
  5
BD7
330
BA5
100
AcDbEntity
  8
0
100
AcDbLine
 10
-8.051650430128574
 20
3.276776694619002
 30
0.0
 11
-6.283883477519339
 21
1.509009749524921
 31
0.0
  0
LINE
  5
BD8
102
{ACAD_REACTORS
330
BEB
102
}
330
BA5
100
AcDbEntity
  8
0
100
AcDbLine
 10
-7.839518394079277
 20
2.711091270059114
 30
0.0
 11
-6.460660172508141
 21
1.33223305392039
 31
0.0
  0
ARC
  5
BD9
330
BA5
100
AcDbEntity
  8
0
100
AcDbCircle
 10
-12.57713383280133
 20
-2.521498914058611
 30
0.0
 40
0.3
100
AcDbArc
 50
45.00000003552097
 51
135.0
  0
ARC
  5
BDA
102
{ACAD_REACTORS
330
BEB
102
}
330
BA5
100
AcDbEntity
  8
0
100
AcDbCircle
 10
-12.29429112059733
 20
-1.743681468243266
 30
0.0
 40
0.2
100
AcDbArc
 50
135.0000000660675
 51
225.0000002990173
  0
LINE
  5
BDB
330
BA5
100
AcDbEntity
  8
0
100
AcDbLine
 10
-12.9899494936617
 20
-2.510050506339212
 30
0.0
 11
-12.78926586715715
 21
-2.309366879702793
 31
0.0
  0
LINE
  5
BDC
330
BA5
100
AcDbEntity
  8
0
100
AcDbLine
 10
-13.41421356237333
 20
-2.085786437626666
 30
0.0
 11
-7.292893218815152
 21
4.035533905932425
 31
0.0
  0
LINE
  5
BDD
102
{ACAD_REACTORS
330
BEB
102
}
330
BA5
100
AcDbEntity
  8
0
100
AcDbLine
 10
-12.43571247699765
 20
-1.602260112168551
 30
0.0
 11
-8.122361106474272
 21
2.711091269625285
 31
0.0
  0
ARC
  5
BDE
330
BA5
100
AcDbEntity
  8
0
100
AcDbCircle
 10
-2.5
 20
-3.5
 30
0.0
 40
1.0
100
AcDbArc
 50
270.0
 51
0.0
  0
ARC
  5
BDF
330
BA5
100
AcDbEntity
  8
0
100
AcDbCircle
 10
-7.519803902720013
 20
-4.150000000000545
 30
0.0
 40
0.75
100
AcDbArc
 50
270.0
 51
312.8334280660476
  0
ARC
  5
BE0
330
BA5
100
AcDbEntity
  8
0
100
AcDbCircle
 10
-6.5
 20
-5.25
 30
0.0
 40
0.75
100
AcDbArc
 50
90.0
 51
132.8334280660476
  0
LINE
  5
BE1
330
BA5
100
AcDbEntity
  8
0
100
AcDbLine
 10
-2.5
 20
-4.5
 30
0.0
 11
-6.5
 21
-4.5
 31
0.0
  0
ARC
  5
BE2
330
BA5
100
AcDbEntity
  8
0
100
AcDbCircle
 10
-10.7033008647486
 20
-2.910407640086305
 30
0.0
 40
0.75
100
AcDbArc
 50
225.0
 51
315.0
  0
ARC
  5
BE3
102
{ACAD_REACTORS
330
BEB
102
}
330
BA5
100
AcDbEntity
  8
0
100
AcDbCircle
 10
-10.7033008647486
 20
-2.910407640086305
 30
0.0
 40
0.5
100
AcDbArc
 50
225.0
 51
315.0
  0
LINE
  5
BE4
330
BA5
100
AcDbEntity
  8
0
100
AcDbLine
 10
-1.5
 20
-5.5
 30
0.0
 11
-12.0
 21
-5.5
 31
0.0
  0
LINE
  5
BE5
330
BA5
100
AcDbEntity
  8
0
100
AcDbLine
 10
-7.519803902720013
 20
-4.900000000000545
 30
0.0
 11
-12.0
 21
-4.900000000000545
 31
0.0
  0
ARC
  5
BE6
330
BA5
100
AcDbEntity
  8
0
100
AcDbCircle
 10
-12.0
 20
-3.5
 30
0.0
 40
2.0
100
AcDbArc
 50
135.0
 51
270.0
  0
LINE
  5
BE7
330
BA5
100
AcDbEntity
  8
0
100
AcDbLine
 10
-10.17297077881812
 20
-3.440737725935832
 30
0.0
 11
-6.283883477372
 21
0.4483495772774404
 31
0.0
  0
ARC
  5
BE8
330
BA5
100
AcDbEntity
  8
0
100
AcDbCircle
 10
-12.0
 20
-3.5
 30
0.0
 40
1.399999999999999
100
AcDbArc
 50
135.0
 51
270.0
  0
LINE
  5
BE9
330
BA5
100
AcDbEntity
  8
0
100
AcDbLine
 10
-13.00139790187859
 20
-1.672970777132832
 30
0.0
 11
-11.23363095093009
 21
-3.440737725682993
 31
0.0
  0
LINE
  5
BEA
330
BA5
100
AcDbEntity
  8
0
100
AcDbLine
 10
-1.5
 20
3.5
 30
0.0
 11
-1.5
 21
-3.5
 31
0.0
  0
HATCH
  5
BEB
330
BA5
100
AcDbEntity
  8
0
100
AcDbHatch
 10
0.0
 20
0.0
 30
0.0
210
0.0
220
0.0
230
1.0
  2
ANSI31
 70
     0
 71
     1
 91
        1
 92
        7
 72
     1
 73
     1
 93
        8
 10
-6.460660173204814
 20
1.332233054616153
 42
0.0
 10
-7.839518394101105
 20
2.711091270081851
 42
0.414213562178905
 10
-8.122361106481548
 20
2.711091269618009
 42
0.0
 10
-12.43571247701766
 20
-1.602260112190379
 42
0.4142135636146872
 10
-12.43571247604996
 20
-1.885102825264766
 42
0.0
 10
-11.05685425338015
 20
-3.263961032639599
 42
0.4142135608152901
 10
-10.34974747407432
 20
-3.263961030598693
 42
0.0
 10
-6.460660172428106
 20
0.625126272813759
 42
0.4142135628833784
 97
        8
330
BD8
330
BD1
330
BDD
330
BDA
330
BED
330
BE3
330
BEC
330
BD5
 75
     0
 76
     1
 52
45.0
 41
0.25
 77
     0
 78
     1
 53
90.0
 43
-276.1145346408611
 44
-395.2719013892401
 45
-0.79375
 46
0.0000000000000002
 79
     0
 47
0.0364805528584695
 98
        1
 10
-7.399477738399582
 20
0.8532363732892918
  0
LINE
  5
BEC
102
{ACAD_REACTORS
330
BEB
102
}
330
BA5
100
AcDbEntity
  8
0
100
AcDbLine
 10
-10.34974747415435
 20
-3.263961030678729
 30
0.0
 11
-6.46066017270823
 21
0.6251262725336347
 31
0.0
  0
LINE
  5
BED
102
{ACAD_REACTORS
330
BEB
102
}
330
BA5
100
AcDbEntity
  8
0
100
AcDbLine
 10
-12.43571247609543
 20
-1.885102825218382
 30
0.0
 11
-11.05685425534102
 21
-3.263961030678729
 31
0.0
  0
LINE
  5
BEE
330
BA5
100
AcDbEntity
  8
0
100
AcDbLine
 10
-1.5
 20
5.5
 30
0.0
 11
1.042400829128382
 21
5.5
 31
0.0
  0
LINE
  5
BEF
330
BA5
100
AcDbEntity
  8
0
100
AcDbLine
 10
-1.5
 20
-5.5
 30
0.0
 11
1.042400829128382
 21
-5.5
 31
0.0
  0
ENDBLK
  5
BF1
330
BA5
100
AcDbEntity
  8
0
 62
     4
100
AcDbBlockEnd
  0
BLOCK
  5
175A
330
1750
100
AcDbEntity
  8
0
100
AcDbBlockBegin
  2
*D5
 70
     1
 10
0.0
 20
0.0
 30
0.0
  3
*D5
  1

  0
LINE
  5
1BC8
330
1750
100
AcDbEntity
  8
7
100
AcDbLine
 10
1363.016725754332
 20
3696.894438476679
 30
0.0
 11
1351.708561671447
 21
3696.894438476679
 31
0.0
  0
LINE
  5
1BC9
330
1750
100
AcDbEntity
  8
7
100
AcDbLine
 10
1354.478711599616
 20
3668.394438476679
 30
0.0
 11
1351.708561671447
 21
3668.394438476679
 31
0.0
  0
LINE
  5
1BCA
330
1750
100
AcDbEntity
  8
7
100
AcDbLine
 10
1352.708561671447
 20
3694.894438476679
 30
0.0
 11
1352.708561671447
 21
3670.394438476679
 31
0.0
  0
SOLID
  5
1BCB
330
1750
100
AcDbEntity
  8
7
100
AcDbTrace
 10
1352.375228338113
 20
3694.894438476679
 30
0.0
 11
1353.04189500478
 21
3694.894438476679
 31
0.0
 12
1352.708561671447
 22
3696.894438476679
 32
0.0
 13
1352.708561671447
 23
3696.894438476679
 33
0.0
  0
SOLID
  5
1BCC
330
1750
100
AcDbEntity
  8
7
100
AcDbTrace
 10
1352.375228338113
 20
3670.394438476679
 30
0.0
 11
1353.04189500478
 21
3670.394438476679
 31
0.0
 12
1352.708561671447
 22
3668.394438476679
 32
0.0
 13
1352.708561671447
 23
3668.394438476679
 33
0.0
  0
MTEXT
  5
1BCD
330
1750
100
AcDbEntity
  8
7
100
AcDbMText
 10
1350.662893437732
 20
3682.64443847668
 30
0.0
 40
2.0
 41
0.0
 71
     5
 72
     1
  1
285
  7
SANINDUSA
 11
0.0000000000000001
 21
1.0
 31
0.0
 73
     1
 44
1.0
1001
ACAD
1000
MTEXTBEGIN
1070
    73
1070
     1
1070
    44
1040
1.0
1070
    74
1070
     0
1000
MTEXTEND
  0
POINT
  5
1BCE
330
1750
100
AcDbEntity
  8
Defpoints
 62
     0
100
AcDbPoint
 10
1364.016725754332
 20
3696.894438476679
 30
-0.0000001793795719
  0
POINT
  5
1BCF
330
1750
100
AcDbEntity
  8
Defpoints
 62
     0
100
AcDbPoint
 10
1355.478711599616
 20
3668.394438476679
 30
-0.0000001793795719
  0
POINT
  5
1BD0
330
1750
100
AcDbEntity
  8
Defpoints
 62
     0
100
AcDbPoint
 10
1352.708561671447
 20
3668.394438476679
 30
0.0
  0
ENDBLK
  5
175B
330
1750
100
AcDbEntity
  8
0
100
AcDbBlockEnd
  0
BLOCK
  5
1768
330
175C
100
AcDbEntity
  8
0
100
AcDbBlockBegin
  2
*D6
 70
     1
 10
0.0
 20
0.0
 30
0.0
  3
*D6
  1

  0
LINE
  5
1BBD
330
175C
100
AcDbEntity
  8
7
100
AcDbLine
 10
1343.537114824888
 20
3668.394438476679
 30
0.0
 11
1358.708561671446
 21
3668.394438476679
 31
0.0
  0
LINE
  5
1BBE
330
175C
100
AcDbEntity
  8
7
100
AcDbLine
 10
1340.758280332013
 20
3667.394438476679
 30
0.0
 11
1358.708561671446
 21
3667.394438476679
 31
0.0
  0
LINE
  5
1BBF
330
175C
100
AcDbEntity
  8
7
100
AcDbLine
 10
1357.708561671447
 20
3670.394438476679
 30
0.0
 11
1357.708561671447
 21
3672.39443847668
 31
0.0
  0
LINE
  5
1BC0
330
175C
100
AcDbEntity
  8
7
100
AcDbLine
 10
1357.708561671447
 20
3665.39443847668
 30
0.0
 11
1357.708561671447
 21
3658.451523768821
 31
0.0
  0
LINE
  5
1BC1
330
175C
100
AcDbEntity
  8
7
100
AcDbLine
 10
1357.708561671447
 20
3668.394438476679
 30
0.0
 11
1357.708561671447
 21
3667.394438476679
 31
0.0
  0
SOLID
  5
1BC2
330
175C
100
AcDbEntity
  8
7
100
AcDbTrace
 10
1357.375228338113
 20
3670.394438476679
 30
0.0
 11
1358.04189500478
 21
3670.394438476679
 31
0.0
 12
1357.708561671447
 22
3668.394438476679
 32
0.0
 13
1357.708561671447
 23
3668.394438476679
 33
0.0
  0
SOLID
  5
1BC3
330
175C
100
AcDbEntity
  8
7
100
AcDbTrace
 10
1357.375228338113
 20
3665.39443847668
 30
0.0
 11
1358.04189500478
 21
3665.39443847668
 31
0.0
 12
1357.708561671447
 22
3667.394438476679
 32
0.0
 13
1357.708561671447
 23
3667.394438476679
 33
0.0
  0
MTEXT
  5
1BC4
330
175C
100
AcDbEntity
  8
7
100
AcDbMText
 10
1355.667594579438
 20
3660.922981122752
 30
0.0
 40
2.0
 41
0.0
 71
     5
 72
     1
  1
10
  7
SANINDUSA
 11
0.0000000000000001
 21
1.0
 31
0.0
 73
     1
 44
1.0
1001
ACAD
1000
MTEXTBEGIN
1070
    73
1070
     1
1070
    44
1040
1.0
1070
    74
1070
     0
1000
MTEXTEND
  0
POINT
  5
1BC5
330
175C
100
AcDbEntity
  8
Defpoints
 62
     0
100
AcDbPoint
 10
1342.537114824888
 20
3668.394438476679
 30
-0.0000001793795719
  0
POINT
  5
1BC6
330
175C
100
AcDbEntity
  8
Defpoints
 62
     0
100
AcDbPoint
 10
1339.758280332013
 20
3667.394438476679
 30
0.0
  0
POINT
  5
1BC7
330
175C
100
AcDbEntity
  8
Defpoints
 62
     0
100
AcDbPoint
 10
1357.708561671447
 20
3667.394438476679
 30
0.0
  0
ENDBLK
  5
1769
330
175C
100
AcDbEntity
  8
0
100
AcDbBlockEnd
  0
BLOCK
  5
1774
330
176A
100
AcDbEntity
  8
0
100
AcDbBlockBegin
  2
*D7
 70
     1
 10
0.0
 20
0.0
 30
0.0
  3
*D7
  1

  0
LINE
  5
1BD1
330
176A
100
AcDbEntity
  8
7
100
AcDbLine
 10
1388.491819637085
 20
3696.894438476679
 30
0.0
 11
1434.329187178577
 21
3696.894438476679
 31
0.0
  0
LINE
  5
1BD2
330
176A
100
AcDbEntity
  8
7
100
AcDbLine
 10
1429.329187178577
 20
3667.394438476679
 30
0.0
 11
1434.329187178577
 21
3667.394438476679
 31
0.0
  0
LINE
  5
1BD3
330
176A
100
AcDbEntity
  8
7
100
AcDbLine
 10
1433.329187178577
 20
3694.894438476679
 30
0.0
 11
1433.329187178577
 21
3669.394438476679
 31
0.0
  0
SOLID
  5
1BD4
330
176A
100
AcDbEntity
  8
7
100
AcDbTrace
 10
1432.995853845243
 20
3694.894438476679
 30
0.0
 11
1433.66252051191
 21
3694.894438476679
 31
0.0
 12
1433.329187178577
 22
3696.894438476679
 32
0.0
 13
1433.329187178577
 23
3696.894438476679
 33
0.0
  0
SOLID
  5
1BD5
330
176A
100
AcDbEntity
  8
7
100
AcDbTrace
 10
1432.995853845243
 20
3669.394438476679
 30
0.0
 11
1433.66252051191
 21
3669.394438476679
 31
0.0
 12
1433.329187178577
 22
3667.394438476679
 32
0.0
 13
1433.329187178577
 23
3667.394438476679
 33
0.0
  0
MTEXT
  5
1BD6
330
176A
100
AcDbEntity
  8
7
100
AcDbMText
 10
1431.287548494896
 20
3682.14443847668
 30
0.0
 40
2.0
 41
0.0
 71
     5
 72
     1
  1
295
  7
SANINDUSA
 11
0.0000000000000001
 21
1.0
 31
0.0
 73
     1
 44
1.0
1001
ACAD
1000
MTEXTBEGIN
1070
    73
1070
     1
1070
    44
1040
1.0
1070
    74
1070
     0
1000
MTEXTEND
  0
POINT
  5
1BD7
330
176A
100
AcDbEntity
  8
Defpoints
 62
     0
100
AcDbPoint
 10
1387.491819637085
 20
3696.894438476679
 30
-0.0000001793795719
  0
POINT
  5
1BD8
330
176A
100
AcDbEntity
  8
Defpoints
 62
     0
100
AcDbPoint
 10
1428.329187178577
 20
3667.394438476679
 30
0.0
  0
POINT
  5
1BD9
330
176A
100
AcDbEntity
  8
Defpoints
 62
     0
100
AcDbPoint
 10
1433.329187178577
 20
3667.394438476679
 30
0.0
  0
ENDBLK
  5
1775
330
176A
100
AcDbEntity
  8
0
100
AcDbBlockEnd
  0
BLOCK
  5
1780
330
1776
100
AcDbEntity
  8
0
100
AcDbBlockBegin
  2
*D8
 70
     1
 10
0.0
 20
0.0
 30
0.0
  3
*D8
  1

  0
LINE
  5
1B48
330
1776
100
AcDbEntity
  8
7
100
AcDbLine
 10
1429.329187178577
 20
3852.394438476679
 30
0.0
 11
1434.329187178577
 21
3852.394438476679
 31
0.0
  0
LINE
  5
1B49
330
1776
100
AcDbEntity
  8
7
100
AcDbLine
 10
1391.409175885066
 20
3822.894438475713
 30
0.0
 11
1434.329187178577
 21
3822.894438475713
 31
0.0
  0
LINE
  5
1B4A
330
1776
100
AcDbEntity
  8
7
100
AcDbLine
 10
1433.329187178577
 20
3850.394438476679
 30
0.0
 11
1433.329187178577
 21
3824.894438475713
 31
0.0
  0
SOLID
  5
1B4B
330
1776
100
AcDbEntity
  8
7
100
AcDbTrace
 10
1432.995853845243
 20
3850.394438476679
 30
0.0
 11
1433.66252051191
 21
3850.394438476679
 31
0.0
 12
1433.329187178577
 22
3852.394438476679
 32
0.0
 13
1433.329187178577
 23
3852.394438476679
 33
0.0
  0
SOLID
  5
1B4C
330
1776
100
AcDbEntity
  8
7
100
AcDbTrace
 10
1432.995853845243
 20
3824.894438475713
 30
0.0
 11
1433.66252051191
 21
3824.894438475713
 31
0.0
 12
1433.329187178577
 22
3822.894438475713
 32
0.0
 13
1433.329187178577
 23
3822.894438475713
 33
0.0
  0
MTEXT
  5
1B4D
330
1776
100
AcDbEntity
  8
7
100
AcDbMText
 10
1431.287548494896
 20
3837.644438476196
 30
0.0
 40
2.0
 41
0.0
 71
     5
 72
     1
  1
295
  7
SANINDUSA
 11
0.0000000000000001
 21
1.0
 31
0.0
 73
     1
 44
1.0
1001
ACAD
1000
MTEXTBEGIN
1070
    73
1070
     1
1070
    44
1040
1.0
1070
    74
1070
     0
1000
MTEXTEND
  0
POINT
  5
1B4E
330
1776
100
AcDbEntity
  8
Defpoints
 62
     0
100
AcDbPoint
 10
1428.329187178577
 20
3852.394438476679
 30
0.0000001793827793
  0
POINT
  5
1B4F
330
1776
100
AcDbEntity
  8
Defpoints
 62
     0
100
AcDbPoint
 10
1390.409175885066
 20
3822.894438475713
 30
0.0000000000032074
  0
POINT
  5
1B50
330
1776
100
AcDbEntity
  8
Defpoints
 62
     0
100
AcDbPoint
 10
1433.329187178577
 20
3822.894438475713
 30
0.0
  0
ENDBLK
  5
1781
330
1776
100
AcDbEntity
  8
0
100
AcDbBlockEnd
  0
BLOCK
  5
178C
330
1782
100
AcDbEntity
  8
0
100
AcDbBlockBegin
  2
*D9
 70
     1
 10
0.0
 20
0.0
 30
0.0
  3
*D9
  1

  0
LINE
  5
1BDA
330
1782
100
AcDbEntity
  8
7
100
AcDbLine
 10
1458.004665829025
 20
3732.758500914103
 30
0.0
 11
1458.004665829025
 21
3716.549040134964
 31
0.0
  0
LINE
  5
1BDB
330
1782
100
AcDbEntity
  8
7
100
AcDbLine
 10
1578.423587387301
 20
3732.758501184259
 30
0.0
 11
1578.423587387301
 21
3716.549040134964
 31
0.0
  0
LINE
  5
1BDC
330
1782
100
AcDbEntity
  8
7
100
AcDbLine
 10
1460.004665829025
 20
3717.549040134964
 30
0.0
 11
1576.423587387301
 21
3717.549040134964
 31
0.0
  0
SOLID
  5
1BDD
330
1782
100
AcDbEntity
  8
7
100
AcDbTrace
 10
1460.004665829025
 20
3717.882373468297
 30
0.0
 11
1460.004665829025
 21
3717.21570680163
 31
0.0
 12
1458.004665829025
 22
3717.549040134964
 32
0.0
 13
1458.004665829025
 23
3717.549040134964
 33
0.0
  0
SOLID
  5
1BDE
330
1782
100
AcDbEntity
  8
7
100
AcDbTrace
 10
1576.423587387301
 20
3717.882373468297
 30
0.0
 11
1576.423587387301
 21
3717.21570680163
 31
0.0
 12
1578.423587387301
 22
3717.549040134964
 32
0.0
 13
1578.423587387301
 23
3717.549040134964
 33
0.0
  0
MTEXT
  5
1BDF
330
1782
100
AcDbEntity
  8
7
100
AcDbMText
 10
1518.214126608163
 20
3719.798200645374
 30
0.0
 40
2.0
 41
0.0
 71
     5
 72
     1
  1
MAX. 1214 mm / MIN. 1184 mm
  7
SANINDUSA
 73
     1
 44
1.0
1001
ACAD
1000
MTEXTBEGIN
1070
    73
1070
     1
1070
    44
1040
1.0
1070
    74
1070
     0
1000
MTEXTEND
  0
POINT
  5
1BE0
330
1782
100
AcDbEntity
  8
Defpoints
 62
     0
100
AcDbPoint
 10
1458.004665829025
 20
3733.758500914102
 30
0.0
  0
POINT
  5
1BE1
330
1782
100
AcDbEntity
  8
Defpoints
 62
     0
100
AcDbPoint
 10
1578.423587387301
 20
3733.758501184259
 30
0.0
  0
POINT
  5
1BE2
330
1782
100
AcDbEntity
  8
Defpoints
 62
     0
100
AcDbPoint
 10
1578.423587387301
 20
3717.549040134964
 30
0.0
  0
ENDBLK
  5
178D
330
1782
100
AcDbEntity
  8
0
100
AcDbBlockEnd
  0
BLOCK
  5
17A4
330
179A
100
AcDbEntity
  8
0
100
AcDbBlockBegin
  2
*D10
 70
     1
 10
0.0
 20
0.0
 30
0.0
  3
*D10
  1

  0
LINE
  5
1BB4
330
179A
100
AcDbEntity
  8
7
100
AcDbLine
 10
1308.249187178577
 20
3852.394438476675
 30
0.0
 11
1302.216341904597
 21
3852.394438476675
 31
0.0
  0
LINE
  5
1BB5
330
179A
100
AcDbEntity
  8
7
100
AcDbLine
 10
1307.602201551937
 20
3667.394438476679
 30
0.0
 11
1302.216341904597
 21
3667.394438476679
 31
0.0
  0
LINE
  5
1BB6
330
179A
100
AcDbEntity
  8
7
100
AcDbLine
 10
1303.216341904597
 20
3850.394438476675
 30
0.0
 11
1303.216341904597
 21
3669.394438476679
 31
0.0
  0
SOLID
  5
1BB7
330
179A
100
AcDbEntity
  8
7
100
AcDbTrace
 10
1302.883008571264
 20
3850.394438476675
 30
0.0
 11
1303.54967523793
 21
3850.394438476675
 31
0.0
 12
1303.216341904597
 22
3852.394438476675
 32
0.0
 13
1303.216341904597
 23
3852.394438476675
 33
0.0
  0
SOLID
  5
1BB8
330
179A
100
AcDbEntity
  8
7
100
AcDbTrace
 10
1302.883008571264
 20
3669.394438476679
 30
0.0
 11
1303.54967523793
 21
3669.394438476679
 31
0.0
 12
1303.216341904597
 22
3667.394438476679
 32
0.0
 13
1303.216341904597
 23
3667.394438476679
 33
0.0
  0
MTEXT
  5
1BB9
330
179A
100
AcDbEntity
  8
7
100
AcDbMText
 10
1301.170673670882
 20
3759.894438476678
 30
0.0
 40
2.0
 41
0.0
 71
     5
 72
     1
  1
1850
  7
SANINDUSA
 11
0.0000000000000001
 21
1.0
 31
0.0
 73
     1
 44
1.0
1001
ACAD
1000
MTEXTBEGIN
1070
    73
1070
     1
1070
    44
1040
1.0
1070
    74
1070
     0
1000
MTEXTEND
  0
POINT
  5
1BBA
330
179A
100
AcDbEntity
  8
Defpoints
 62
     0
100
AcDbPoint
 10
1309.249187178577
 20
3852.394438476675
 30
0.0
  0
POINT
  5
1BBB
330
179A
100
AcDbEntity
  8
Defpoints
 62
     0
100
AcDbPoint
 10
1308.602201551937
 20
3667.394438476679
 30
0.0
  0
POINT
  5
1BBC
330
179A
100
AcDbEntity
  8
Defpoints
 62
     0
100
AcDbPoint
 10
1303.216341904597
 20
3667.394438476679
 30
0.0
  0
ENDBLK
  5
17A5
330
179A
100
AcDbEntity
  8
0
100
AcDbBlockEnd
  0
BLOCK
  5
17E8
330
17DE
100
AcDbEntity
  8
0
100
AcDbBlockBegin
  2
*D11
 70
     1
 10
0.0
 20
0.0
 30
0.0
  3
*D11
  1

  0
LINE
  5
1BE3
330
17DE
100
AcDbEntity
  8
7
100
AcDbLine
 10
1464.40058179301
 20
3733.798290290019
 30
0.0
 11
1464.40058179301
 21
3721.549040134963
 31
0.0
  0
LINE
  5
1BE4
330
17DE
100
AcDbEntity
  8
7
100
AcDbLine
 10
1524.400585713926
 20
3733.798290290019
 30
0.0
 11
1524.400585713926
 21
3721.549040134963
 31
0.0
  0
LINE
  5
1BE5
330
17DE
100
AcDbEntity
  8
7
100
AcDbLine
 10
1466.40058179301
 20
3722.549040134963
 30
0.0
 11
1522.400585713926
 21
3722.549040134963
 31
0.0
  0
SOLID
  5
1BE6
330
17DE
100
AcDbEntity
  8
7
100
AcDbTrace
 10
1466.40058179301
 20
3722.882373468296
 30
0.0
 11
1466.40058179301
 21
3722.215706801629
 31
0.0
 12
1464.40058179301
 22
3722.549040134963
 32
0.0
 13
1464.40058179301
 23
3722.549040134963
 33
0.0
  0
SOLID
  5
1BE7
330
17DE
100
AcDbEntity
  8
7
100
AcDbTrace
 10
1522.400585713926
 20
3722.882373468296
 30
0.0
 11
1522.400585713926
 21
3722.215706801629
 31
0.0
 12
1524.400585713926
 22
3722.549040134963
 32
0.0
 13
1524.400585713926
 23
3722.549040134963
 33
0.0
  0
MTEXT
  5
1BE8
330
17DE
100
AcDbEntity
  8
7
100
AcDbMText
 10
1494.400583753468
 20
3724.590007226971
 30
0.0
 40
2.0
 41
0.0
 71
     5
 72
     1
  1
600
  7
SANINDUSA
 73
     1
 44
1.0
1001
ACAD
1000
MTEXTBEGIN
1070
    73
1070
     1
1070
    44
1040
1.0
1070
    74
1070
     0
1000
MTEXTEND
  0
POINT
  5
1BE9
330
17DE
100
AcDbEntity
  8
Defpoints
 62
     0
100
AcDbPoint
 10
1464.40058179301
 20
3734.798290290019
 30
0.000000015555529
  0
POINT
  5
1BEA
330
17DE
100
AcDbEntity
  8
Defpoints
 62
     0
100
AcDbPoint
 10
1524.400585713926
 20
3734.798290290019
 30
0.000000015555529
  0
POINT
  5
1BEB
330
17DE
100
AcDbEntity
  8
Defpoints
 62
     0
100
AcDbPoint
 10
1524.400585713926
 20
3722.549040134963
 30
0.0
  0
ENDBLK
  5
17E9
330
17DE
100
AcDbEntity
  8
0
100
AcDbBlockEnd
  0
BLOCK
  5
181B
330
1811
100
AcDbEntity
  8
0
100
AcDbBlockBegin
  2
*D12
 70
     1
 10
0.0
 20
0.0
 30
0.0
  3
*D12
  1

  0
LINE
  5
1BF5
330
1811
100
AcDbEntity
  8
7
100
AcDbLine
 10
1524.700585713926
 20
3733.798289909059
 30
0.0
 11
1524.700585713926
 21
3721.549040134963
 31
0.0
  0
LINE
  5
1BF6
330
1811
100
AcDbEntity
  8
7
100
AcDbLine
 10
1573.986385011315
 20
3733.798289909059
 30
0.0
 11
1573.986385011315
 21
3721.549040134963
 31
0.0
  0
LINE
  5
1BF7
330
1811
100
AcDbEntity
  8
7
100
AcDbLine
 10
1526.700585713926
 20
3722.549040134964
 30
0.0
 11
1571.986385011315
 21
3722.549040134964
 31
0.0
  0
SOLID
  5
1BF8
330
1811
100
AcDbEntity
  8
7
100
AcDbTrace
 10
1526.700585713926
 20
3722.882373468297
 30
0.0
 11
1526.700585713926
 21
3722.21570680163
 31
0.0
 12
1524.700585713926
 22
3722.549040134964
 32
0.0
 13
1524.700585713926
 23
3722.549040134964
 33
0.0
  0
SOLID
  5
1BF9
330
1811
100
AcDbEntity
  8
7
100
AcDbTrace
 10
1571.986385011315
 20
3722.882373468297
 30
0.0
 11
1571.986385011315
 21
3722.21570680163
 31
0.0
 12
1573.986385011315
 22
3722.549040134964
 32
0.0
 13
1573.986385011315
 23
3722.549040134964
 33
0.0
  0
MTEXT
  5
1BFA
330
1811
100
AcDbEntity
  8
7
100
AcDbMText
 10
1549.34348536262
 20
3724.818348395541
 30
0.0
 40
2.0
 41
0.0
 71
     5
 72
     1
  1
492,9
  7
SANINDUSA
 73
     1
 44
1.0
1001
ACAD
1000
MTEXTBEGIN
1070
    73
1070
     1
1070
    44
1040
1.0
1070
    74
1070
     0
1000
MTEXTEND
  0
POINT
  5
1BFB
330
1811
100
AcDbEntity
  8
Defpoints
 62
     0
100
AcDbPoint
 10
1524.700585713926
 20
3734.798289909059
 30
0.0000000157875207
  0
POINT
  5
1BFC
330
1811
100
AcDbEntity
  8
Defpoints
 62
     0
100
AcDbPoint
 10
1573.986385011315
 20
3734.798289909059
 30
0.0000000135008777
  0
POINT
  5
1BFD
330
1811
100
AcDbEntity
  8
Defpoints
 62
     0
100
AcDbPoint
 10
1573.986385011315
 20
3722.549040134964
 30
0.0
  0
ENDBLK
  5
181C
330
1811
100
AcDbEntity
  8
0
100
AcDbBlockEnd
  0
BLOCK
  5
187A
330
1870
100
AcDbEntity
  8
0
100
AcDbBlockBegin
  2
*D13
 70
     1
 10
0.0
 20
0.0
 30
0.0
  3
*D13
  1

  0
ARC
  5
1BEC
330
1870
100
AcDbEntity
  8
7
100
AcDbCircle
 10
1522.810580103608
 20
3734.798290290019
 30
0.0
 40
38.47828362674544
100
AcDbArc
 50
182.9784192942292
 51
267.0215807057711
  0
SOLID
  5
1BED
330
1870
100
AcDbEntity
  8
7
100
AcDbTrace
 10
1484.051053101559
 20
3732.790302920796
 30
0.0
 11
1484.717494592945
 21
3732.807628710926
 31
0.0
 12
1484.332296476863
 22
3734.798290290019
 32
0.0
 13
1484.332296476863
 23
3734.798290290019
 33
0.0
  0
SOLID
  5
1BEE
330
1870
100
AcDbEntity
  8
7
100
AcDbTrace
 10
1520.819918524515
 20
3696.705204779355
 30
0.0
 11
1520.802592734385
 21
3696.038763287969
 31
0.0
 12
1522.810580103608
 22
3696.320006663273
 32
0.0
 13
1522.810580103608
 23
3696.320006663273
 33
0.0
  0
MTEXT
  5
1BEF
102
{ACAD_XDICTIONARY
360
1CD9
102
}
330
1870
100
AcDbEntity
  8
7
100
AcDbMText
 10
1497.206493195349
 20
3709.194203381759
 30
0.0
 40
2.0
 41
0.0
 71
     5
 72
     1
  1
90,0\U+00B0
  7
SANINDUSA
 11
0.7071067811865488
 21
-0.7071067811865463
 31
0.0
 73
     1
 44
1.0
1001
ACAD
1000
MTEXTBEGIN
1070
    73
1070
     1
1070
    44
1040
1.0
1070
    74
1070
     0
1000
MTEXTEND
  0
POINT
  5
1BF0
330
1870
100
AcDbEntity
  8
Defpoints
 62
     0
100
AcDbPoint
 10
1489.487408988824
 20
3715.559148476645
 30
0.0
  0
POINT
  5
1BF1
330
1870
100
AcDbEntity
  8
Defpoints
 62
     0
100
AcDbPoint
 10
1524.400585713926
 20
3734.798290290019
 30
0.000000015555529
  0
POINT
  5
1BF2
330
1870
100
AcDbEntity
  8
Defpoints
 62
     0
100
AcDbPoint
 10
1522.810580103608
 20
3733.508284679702
 30
0.000000015555529
  0
POINT
  5
1BF3
330
1870
100
AcDbEntity
  8
Defpoints
 62
     0
100
AcDbPoint
 10
1522.810580103608
 20
3673.508280758785
 30
0.000000015555529
  0
POINT
  5
1BF4
330
1870
100
AcDbEntity
  8
Defpoints
 62
     0
100
AcDbPoint
 10
1464.400581793009
 20
3734.798290290019
 30
0.000000015555529
  0
ENDBLK
  5
187B
330
1870
100
AcDbEntity
  8
0
100
AcDbBlockEnd
  0
BLOCK
  5
1C53
330
1C52
100
AcDbEntity
  8
0
100
AcDbBlockBegin
  2
*D15
 70
     1
 10
0.0
 20
0.0
 30
0.0
  3
*D15
  1

  0
LINE
  5
1C5F
330
1C52
100
AcDbEntity
  8
cotas
100
AcDbLine
 10
1429.329187178577
 20
3852.394438476679
 30
0.0
 11
1454.237883036792
 21
3852.394438476679
 31
0.0
  0
LINE
  5
1C60
330
1C52
100
AcDbEntity
  8
cotas
100
AcDbLine
 10
1429.329187178577
 20
3667.394438476679
 30
0.0
 11
1454.237883036792
 21
3667.394438476679
 31
0.0
  0
LINE
  5
1C61
330
1C52
100
AcDbEntity
  8
cotas
100
AcDbLine
 10
1453.237883036792
 20
3850.394438476679
 30
0.0
 11
1453.237883036792
 21
3669.394438476679
 31
0.0
  0
SOLID
  5
1C62
330
1C52
100
AcDbEntity
  8
cotas
100
AcDbTrace
 10
1452.904549703459
 20
3850.394438476679
 30
0.0
 11
1453.571216370125
 21
3850.394438476679
 31
0.0
 12
1453.237883036792
 22
3852.394438476679
 32
0.0
 13
1453.237883036792
 23
3852.394438476679
 33
0.0
  0
SOLID
  5
1C63
330
1C52
100
AcDbEntity
  8
cotas
100
AcDbTrace
 10
1452.904549703459
 20
3669.394438476679
 30
0.0
 11
1453.571216370125
 21
3669.394438476679
 31
0.0
 12
1453.237883036792
 22
3667.394438476679
 32
0.0
 13
1453.237883036792
 23
3667.394438476679
 33
0.0
  0
MTEXT
  5
1C64
330
1C52
100
AcDbEntity
  8
cotas
100
AcDbMText
 10
1451.192214803078
 20
3759.89443847668
 30
0.0
 40
2.0
 41
0.0
 71
     5
 72
     1
  1
185
  7
SANINDUSA
 11
0.0000000000000001
 21
1.0
 31
0.0
 73
     1
 44
1.0
1001
ACAD
1000
MTEXTBEGIN
1070
    73
1070
     1
1070
    44
1040
1.0
1070
    74
1070
     0
1000
MTEXTEND
  0
POINT
  5
1C65
330
1C52
100
AcDbEntity
  8
Defpoints
 62
     0
100
AcDbPoint
 10
1428.329187178577
 20
3852.394438476679
 30
0.0
  0
POINT
  5
1C66
330
1C52
100
AcDbEntity
  8
Defpoints
 62
     0
100
AcDbPoint
 10
1428.329187178577
 20
3667.394438476679
 30
0.0
  0
POINT
  5
1C67
330
1C52
100
AcDbEntity
  8
Defpoints
 62
     0
100
AcDbPoint
 10
1453.237883036792
 20
3667.394438476679
 30
0.0
  0
ENDBLK
  5
1C54
330
1C52
100
AcDbEntity
  8
0
100
AcDbBlockEnd
  0
ENDSEC
  0
SECTION
  2
ENTITIES
  0
ARC
  5
11E5
330
1F
100
AcDbEntity
  8
SANINDUSA
100
AcDbCircle
 10
1254.648033814085
 20
3774.365394811794
 30
-0.0000000017937957
 40
0.001
100
AcDbArc
 50
0.0
 51
90.0
  0
LINE
  5
11E6
330
1F
100
AcDbEntity
  8
SANINDUSA
100
AcDbLine
 10
1254.573033814086
 20
3774.366394811794
 30
-0.0000000017937957
 11
1254.514033814086
 21
3774.366394811794
 31
-0.0000000017937957
  0
ARC
  5
11E7
330
1F
100
AcDbEntity
  8
SANINDUSA
100
AcDbCircle
 10
1254.514033814086
 20
3774.365394811794
 30
-0.0000000017937957
 40
0.001
100
AcDbArc
 50
90.0
 51
180.0
  0
ARC
  5
11E8
330
1F
100
AcDbEntity
  8
SANINDUSA
100
AcDbCircle
 10
1254.574033814086
 20
3774.371894811794
 30
-0.0000000017937957
 40
0.001
100
AcDbArc
 50
90.0
 51
180.0
  0
LINE
  5
11E9
330
1F
100
AcDbEntity
  8
SANINDUSA
100
AcDbLine
 10
1254.573033814086
 20
3774.371894811794
 30
-0.0000000017937957
 11
1254.573033814086
 21
3774.366394811794
 31
-0.0000000017937957
  0
LINE
  5
11EA
330
1F
100
AcDbEntity
  8
SANINDUSA
100
AcDbLine
 10
1254.573533814086
 20
3774.350894811794
 30
-0.0000000017937957
 11
1254.573533814086
 21
3774.346894811794
 31
-0.0000000017937957
  0
LINE
  5
11EB
330
1F
100
AcDbEntity
  8
SANINDUSA
100
AcDbLine
 10
1254.573033814086
 20
3774.366394811794
 30
-0.0000000017937957
 11
1254.573033814086
 21
3774.350894811794
 31
-0.0000000017937957
  0
ARC
  5
11EC
330
1F
100
AcDbEntity
  8
SANINDUSA
100
AcDbCircle
 10
1254.588033814086
 20
3774.371894811794
 30
-0.0000000017937957
 40
0.001
100
AcDbArc
 50
0.0
 51
90.0
  0
LINE
  5
11ED
330
1F
100
AcDbEntity
  8
SANINDUSA
100
AcDbLine
 10
1254.588033814086
 20
3774.372894811794
 30
-0.0000000017937957
 11
1254.574033814086
 21
3774.372894811794
 31
-0.0000000017937957
  0
LINE
  5
11EE
330
1F
100
AcDbEntity
  8
SANINDUSA
100
AcDbLine
 10
1254.588533814085
 20
3774.350894811794
 30
-0.0000000017937957
 11
1254.588533814085
 21
3774.346894811794
 31
-0.0000000017937957
  0
LINE
  5
11EF
330
1F
100
AcDbEntity
  8
SANINDUSA
100
AcDbLine
 10
1254.589033814086
 20
3774.346894811794
 30
-0.0000000017937957
 11
1254.589922702975
 21
3774.346894811794
 31
-0.0000000017937957
  0
LINE
  5
11F0
330
1F
100
AcDbEntity
  8
SANINDUSA
100
AcDbLine
 10
1254.572144925197
 20
3774.350894811794
 30
-0.0000000017937957
 11
1254.589033814086
 21
3774.350894811794
 31
-0.0000000017937957
  0
LINE
  5
11F1
330
1F
100
AcDbEntity
  8
SANINDUSA
100
AcDbLine
 10
1254.589033814086
 20
3774.346894811794
 30
-0.0000000017937957
 11
1254.573033814085
 21
3774.346894811794
 31
-0.0000000017937957
  0
LINE
  5
11F2
330
1F
100
AcDbEntity
  8
SANINDUSA
100
AcDbLine
 10
1254.589033814086
 20
3774.350894811794
 30
-0.0000000017937957
 11
1254.589033814086
 21
3774.371894811794
 31
-0.0000000017937957
  0
LINE
  5
11F3
330
1F
100
AcDbEntity
  8
SANINDUSA
100
AcDbLine
 10
1254.589922702975
 20
3774.346894811794
 30
-0.0000000017937957
 11
1254.589922702975
 21
3774.366394811794
 31
-0.0000000017937957
  0
LINE
  5
11F4
330
1F
100
AcDbEntity
  8
SANINDUSA
100
AcDbLine
 10
1254.589922702975
 20
3774.366394811794
 30
-0.0000000017937957
 11
1254.648033814085
 21
3774.366394811794
 31
-0.0000000017937957
  0
ARC
  5
11F5
330
1F
100
AcDbEntity
  8
SANINDUSA
100
AcDbCircle
 10
1254.648033814085
 20
3774.332394811794
 30
-0.0000000017937957
 40
0.001
100
AcDbArc
 50
270.0
 51
0.0
  0
ARC
  5
11F6
330
1F
100
AcDbEntity
  8
SANINDUSA
100
AcDbCircle
 10
1254.574033814085
 20
3774.325894811794
 30
-0.0000000017937957
 40
0.001
100
AcDbArc
 50
180.0
 51
270.0
  0
ARC
  5
11F7
330
1F
100
AcDbEntity
  8
SANINDUSA
100
AcDbCircle
 10
1254.588033814086
 20
3774.325894811794
 30
-0.0000000017937957
 40
0.001
100
AcDbArc
 50
270.0
 51
0.0
  0
LINE
  5
11F8
330
1F
100
AcDbEntity
  8
SANINDUSA
100
AcDbLine
 10
1254.574033814085
 20
3774.324894811794
 30
-0.0000000017937957
 11
1254.588033814086
 21
3774.324894811794
 31
-0.0000000017937957
  0
LINE
  5
11F9
330
1F
100
AcDbEntity
  8
SANINDUSA
100
AcDbLine
 10
1254.514033814086
 20
3774.331394811794
 30
-0.0000000017937957
 11
1254.572144925197
 21
3774.331394811794
 31
-0.0000000017937957
  0
ARC
  5
11FA
330
1F
100
AcDbEntity
  8
SANINDUSA
100
AcDbCircle
 10
1254.514033814086
 20
3774.332394811794
 30
-0.0000000017937957
 40
0.001
100
AcDbArc
 50
180.0
 51
270.0
  0
LINE
  5
11FB
330
1F
100
AcDbEntity
  8
SANINDUSA
100
AcDbLine
 10
1254.648033814085
 20
3774.331394811794
 30
-0.0000000017937957
 11
1254.589033814086
 21
3774.331394811794
 31
-0.0000000017937957
  0
LINE
  5
11FC
330
1F
100
AcDbEntity
  8
SANINDUSA
100
AcDbLine
 10
1254.573033814085
 20
3774.346894811794
 30
-0.0000000017937957
 11
1254.573033814085
 21
3774.325894811794
 31
-0.0000000017937957
  0
LINE
  5
11FD
330
1F
100
AcDbEntity
  8
SANINDUSA
100
AcDbLine
 10
1254.589033814086
 20
3774.325894811794
 30
-0.0000000017937957
 11
1254.589033814086
 21
3774.346894811794
 31
-0.0000000017937957
  0
LINE
  5
11FE
330
1F
100
AcDbEntity
  8
SANINDUSA
100
AcDbLine
 10
1254.513033814086
 20
3774.365394811794
 30
-0.0000000017937957
 11
1254.513033814086
 21
3774.332394811794
 31
-0.0000000017937957
  0
LINE
  5
11FF
330
1F
100
AcDbEntity
  8
SANINDUSA
100
AcDbLine
 10
1254.572144925197
 20
3774.331394811794
 30
-0.0000000017937957
 11
1254.572144925197
 21
3774.350894811794
 31
-0.0000000017937957
  0
LINE
  5
1200
330
1F
100
AcDbEntity
  8
SANINDUSA
100
AcDbLine
 10
1254.649033814085
 20
3774.365394811794
 30
-0.0000000017937957
 11
1254.649033814085
 21
3774.332394811794
 31
-0.0000000017937957
  0
ARC
  5
1202
330
1F
100
AcDbEntity
  8
SANINDUSA
100
AcDbCircle
 10
1254.648033814085
 20
3773.105394811803
 30
-0.0000000017937957
 40
0.001
100
AcDbArc
 50
0.0
 51
90.0
  0
LINE
  5
1203
330
1F
100
AcDbEntity
  8
SANINDUSA
100
AcDbLine
 10
1254.649033814085
 20
3773.105394811803
 30
-0.0000000017937957
 11
1254.649033814085
 21
3773.072394811804
 31
-0.0000000017937957
  0
ARC
  5
1204
330
1F
100
AcDbEntity
  8
SANINDUSA
100
AcDbCircle
 10
1254.648033814085
 20
3773.072394811804
 30
-0.0000000017937957
 40
0.001
100
AcDbArc
 50
270.0
 51
0.0
  0
ARC
  5
1205
330
1F
100
AcDbEntity
  8
SANINDUSA
100
AcDbCircle
 10
1254.574033814086
 20
3773.111894811803
 30
-0.0000000017937957
 40
0.001
100
AcDbArc
 50
90.0
 51
180.0
  0
ARC
  5
1206
330
1F
100
AcDbEntity
  8
SANINDUSA
100
AcDbCircle
 10
1254.588033814086
 20
3773.111894811803
 30
-0.0000000017937957
 40
0.001
100
AcDbArc
 50
0.0
 51
90.0
  0
LINE
  5
1207
330
1F
100
AcDbEntity
  8
SANINDUSA
100
AcDbLine
 10
1254.573033814086
 20
3773.106394811803
 30
-0.0000000017937957
 11
1254.514033814086
 21
3773.106394811803
 31
-0.0000000017937957
  0
LINE
  5
1208
330
1F
100
AcDbEntity
  8
SANINDUSA
100
AcDbLine
 10
1254.514033814086
 20
3773.071394811803
 30
-0.0000000017937957
 11
1254.572144925197
 21
3773.071394811803
 31
-0.0000000017937957
  0
ARC
  5
1209
330
1F
100
AcDbEntity
  8
SANINDUSA
100
AcDbCircle
 10
1254.514033814086
 20
3773.105394811803
 30
-0.0000000017937957
 40
0.001
100
AcDbArc
 50
90.0
 51
180.0
  0
ARC
  5
120A
330
1F
100
AcDbEntity
  8
SANINDUSA
100
AcDbCircle
 10
1254.514033814086
 20
3773.072394811804
 30
-0.0000000017937957
 40
0.001
100
AcDbArc
 50
180.0
 51
270.0
  0
LINE
  5
120B
330
1F
100
AcDbEntity
  8
SANINDUSA
100
AcDbLine
 10
1254.513033814086
 20
3773.105394811803
 30
-0.0000000017937957
 11
1254.513033814086
 21
3773.072394811804
 31
-0.0000000017937957
  0
LINE
  5
120C
330
1F
100
AcDbEntity
  8
SANINDUSA
100
AcDbLine
 10
1254.573033814086
 20
3773.111894811803
 30
-0.0000000017937957
 11
1254.573033814086
 21
3773.106394811803
 31
-0.0000000017937957
  0
LINE
  5
120D
330
1F
100
AcDbEntity
  8
SANINDUSA
100
AcDbLine
 10
1254.573033814085
 20
3773.086894811803
 30
-0.0000000017937957
 11
1254.573033814085
 21
3773.065894811804
 31
-0.0000000017937957
  0
LINE
  5
120E
330
1F
100
AcDbEntity
  8
SANINDUSA
100
AcDbLine
 10
1254.572144925197
 20
3773.071394811803
 30
-0.0000000017937957
 11
1254.572144925197
 21
3773.090894811804
 31
-0.0000000017937957
  0
ARC
  5
120F
330
1F
100
AcDbEntity
  8
SANINDUSA
100
AcDbCircle
 10
1254.574033814085
 20
3773.065894811804
 30
-0.0000000017937957
 40
0.001
100
AcDbArc
 50
180.0
 51
270.0
  0
LINE
  5
1210
330
1F
100
AcDbEntity
  8
SANINDUSA
100
AcDbLine
 10
1254.573533814086
 20
3773.090894811804
 30
-0.0000000017937957
 11
1254.573533814086
 21
3773.086894811803
 31
-0.0000000017937957
  0
LINE
  5
1211
330
1F
100
AcDbEntity
  8
SANINDUSA
100
AcDbLine
 10
1254.573033814086
 20
3773.106394811803
 30
-0.0000000017937957
 11
1254.573033814086
 21
3773.090894811804
 31
-0.0000000017937957
  0
LINE
  5
1212
330
1F
100
AcDbEntity
  8
SANINDUSA
100
AcDbLine
 10
1254.588033814086
 20
3773.112894811804
 30
-0.0000000017937957
 11
1254.574033814086
 21
3773.112894811804
 31
-0.0000000017937957
  0
LINE
  5
1213
330
1F
100
AcDbEntity
  8
SANINDUSA
100
AcDbLine
 10
1254.589033814086
 20
3773.065894811804
 30
-0.0000000017937957
 11
1254.589033814086
 21
3773.086894811803
 31
-0.0000000017937957
  0
ARC
  5
1214
330
1F
100
AcDbEntity
  8
SANINDUSA
100
AcDbCircle
 10
1254.588033814086
 20
3773.065894811804
 30
-0.0000000017937957
 40
0.001
100
AcDbArc
 50
270.0
 51
0.0
  0
LINE
  5
1215
330
1F
100
AcDbEntity
  8
SANINDUSA
100
AcDbLine
 10
1254.588533814085
 20
3773.090894811804
 30
-0.0000000017937957
 11
1254.588533814085
 21
3773.086894811803
 31
-0.0000000017937957
  0
LINE
  5
1216
330
1F
100
AcDbEntity
  8
SANINDUSA
100
AcDbLine
 10
1254.589033814086
 20
3773.086894811803
 30
-0.0000000017937957
 11
1254.589922702975
 21
3773.086894811803
 31
-0.0000000017937957
  0
LINE
  5
1217
330
1F
100
AcDbEntity
  8
SANINDUSA
100
AcDbLine
 10
1254.574033814085
 20
3773.064894811803
 30
-0.0000000017937957
 11
1254.588033814086
 21
3773.064894811803
 31
-0.0000000017937957
  0
LINE
  5
1218
330
1F
100
AcDbEntity
  8
SANINDUSA
100
AcDbLine
 10
1254.572144925197
 20
3773.090894811804
 30
-0.0000000017937957
 11
1254.589033814086
 21
3773.090894811804
 31
-0.0000000017937957
  0
LINE
  5
1219
330
1F
100
AcDbEntity
  8
SANINDUSA
100
AcDbLine
 10
1254.589033814086
 20
3773.086894811803
 30
-0.0000000017937957
 11
1254.573033814085
 21
3773.086894811803
 31
-0.0000000017937957
  0
LINE
  5
121A
330
1F
100
AcDbEntity
  8
SANINDUSA
100
AcDbLine
 10
1254.589033814086
 20
3773.090894811804
 30
-0.0000000017937957
 11
1254.589033814086
 21
3773.111894811803
 31
-0.0000000017937957
  0
LINE
  5
121B
330
1F
100
AcDbEntity
  8
SANINDUSA
100
AcDbLine
 10
1254.589922702975
 20
3773.086894811803
 30
-0.0000000017937957
 11
1254.589922702975
 21
3773.106394811803
 31
-0.0000000017937957
  0
LINE
  5
121C
330
1F
100
AcDbEntity
  8
SANINDUSA
100
AcDbLine
 10
1254.589922702975
 20
3773.106394811803
 30
-0.0000000017937957
 11
1254.648033814085
 21
3773.106394811803
 31
-0.0000000017937957
  0
LINE
  5
121D
330
1F
100
AcDbEntity
  8
SANINDUSA
100
AcDbLine
 10
1254.648033814085
 20
3773.071394811803
 30
-0.0000000017937957
 11
1254.589033814086
 21
3773.071394811803
 31
-0.0000000017937957
  0
LINE
  5
1226
330
1F
100
AcDbEntity
  8
SANINDUSA
  6
Continuous
100
AcDbLine
 10
1254.579533814086
 20
3774.643894811803
 30
0.0
 11
1253.939092949473
 21
3774.643894811803
 31
0.0
  0
LINE
  5
1227
330
1F
100
AcDbEntity
  8
SANINDUSA
100
AcDbLine
 10
1254.579533814086
 20
3772.803894811803
 30
0.0
 11
1253.9551295913
 21
3772.803894811803
 31
0.0
  0
LINE
  5
122A
330
1F
100
AcDbEntity
  8
SANINDUSA
  6
Continuous
100
AcDbLine
 10
1255.116221402213
 20
3772.793894811803
 30
0.0
 11
1253.915092949473
 21
3772.793894811803
 31
0.0
  0
LINE
  5
1247
330
1F
100
AcDbEntity
  8
SANINDUSA
  6
Continuous
100
AcDbLine
 10
1253.148713375668
 20
3773.625618198372
 30
0.0000000001555553
 11
1252.548713336459
 21
3773.625618198372
 31
0.0000000001555553
  0
LINE
  5
1248
330
1F
100
AcDbEntity
  8
SANINDUSA
  6
Continuous
100
AcDbLine
 10
1253.148713375668
 20
3773.631618198371
 30
0.0000000001555553
 11
1252.548713336459
 21
3773.631618198371
 31
0.0000000001555553
  0
HATCH
  5
125D
330
1F
100
AcDbEntity
  8
SANINDUSA
100
AcDbHatch
 10
0.0
 20
0.0
 30
0.0000000001555553
210
0.0
220
0.0
230
1.0
  2
ANSI31
 70
     0
 71
     0
 91
        1
 92
        1
 93
        8
 72
     1
 10
1252.538634243257
 20
3773.633922417838
 11
1252.537927136476
 21
3773.634629524619
 72
     1
 10
1252.537927136476
 20
3773.634629524619
 11
1252.532977389008
 21
3773.629679777151
 72
     1
 10
1252.532977389008
 20
3773.629679777151
 11
1252.533684495789
 21
3773.62897267037
 72
     1
 10
1252.533684495789
 20
3773.62897267037
 11
1252.53439160257
 21
3773.629679777151
 72
     1
 10
1252.53439160257
 20
3773.629679777151
 11
1252.535452262742
 21
3773.62861911698
 72
     1
 10
1252.535452262742
 20
3773.62861911698
 11
1252.538987796648
 21
3773.632154650885
 72
     1
 10
1252.538987796648
 20
3773.632154650885
 11
1252.537927136476
 21
3773.633215311058
 72
     1
 10
1252.537927136476
 20
3773.633215311058
 11
1252.538634243257
 21
3773.633922417838
 97
        0
 75
     0
 76
     1
 52
0.0
 41
0.00025
 77
     0
 78
     1
 53
0.0000000000130296
 43
1252.532988719066
 44
3773.634618194562
 45
-0.0000000000000002
 46
0.00079375
 79
     0
 98
        1
 10
1252.532988719066
 20
3773.634618194562
  0
LINE
  5
1289
330
1F
100
AcDbEntity
  8
SANINDUSA
  6
Continuous
100
AcDbLine
 10
1253.9579295913
 20
3772.803894811803
 30
0.0
 11
1253.9579295913
 21
3774.643894811803
 31
0.0
  0
LINE
  5
128A
330
1F
100
AcDbEntity
  8
SANINDUSA
  6
Continuous
100
AcDbLine
 10
1253.933392949473
 20
3772.803894811803
 30
0.0
 11
1253.933392949473
 21
3774.643894811803
 31
0.0
  0
LINE
  5
128B
330
1F
100
AcDbEntity
  8
SANINDUSA
  6
Continuous
100
AcDbLine
 10
1253.927392949473
 20
3772.803894811803
 30
0.0
 11
1253.927392949473
 21
3774.643894811803
 31
0.0
  0
LINE
  5
128C
330
1F
100
AcDbEntity
  8
SANINDUSA
  6
Continuous
100
AcDbLine
 10
1253.915092949473
 20
3772.793894811803
 30
0.0
 11
1253.915092949473
 21
3774.643894811803
 31
0.0
  0
LINE
  5
128D
330
1F
100
AcDbEntity
  8
SANINDUSA
  6
Continuous
100
AcDbLine
 10
1253.9551295913
 20
3772.793894811803
 30
0.0
 11
1253.9551295913
 21
3774.643894811803
 31
0.0
  0
LINE
  5
1341
330
1F
100
AcDbEntity
  8
SANINDUSA
100
AcDbLine
 10
1253.933392949473
 20
3772.803894811803
 30
0.0
 11
1253.927392949473
 21
3772.803894811803
 31
0.0
  0
LINE
  5
1343
330
1F
100
AcDbEntity
  8
SANINDUSA
100
AcDbLine
 10
1253.939092949473
 20
3774.643894811803
 30
0.0
 11
1253.915092949473
 21
3774.643894811803
 31
0.0
  0
LINE
  5
1345
330
1F
100
AcDbEntity
  8
SANINDUSA
100
AcDbLine
 10
1253.688943392402
 20
3773.884052267117
 30
0.0000000001462626
 11
1253.688943392402
 21
3773.914052267118
 31
0.0000000001462626
  0
LINE
  5
1346
330
1F
100
AcDbEntity
  8
SANINDUSA
100
AcDbLine
 10
1253.683943392402
 20
3773.912052267117
 30
0.0000000001462626
 11
1253.683943392402
 21
3773.886052267118
 31
0.0000000001462626
  0
LINE
  5
134E
330
1F
100
AcDbEntity
  8
SANINDUSA
  6
Continuous
100
AcDbLine
 10
1253.644571368641
 20
3773.631618194561
 30
-0.000000000240302
 11
1253.151713375668
 21
3773.631618194561
 31
0.0000000002002489
  0
LINE
  5
146C
330
1F
100
AcDbEntity
  8
SANINDUSA
100
AcDbLine
 10
1253.443601202937
 20
3773.685152465809
 30
0.0000000001462626
 11
1253.649722829653
 21
3773.891274092525
 31
0.0000000001462626
  0
LINE
  5
146D
330
1F
100
AcDbEntity
  8
SANINDUSA
100
AcDbLine
 10
1253.452793591093
 20
3773.675960077653
 30
0.0000000001462626
 11
1253.658915217809
 21
3773.88208170437
 31
0.0000000001462626
  0
LINE
  5
146E
330
1F
100
AcDbEntity
  8
SANINDUSA
  6
Continuous
100
AcDbLine
 10
1253.644571368641
 20
3773.625618194561
 30
0.0000000001350088
 11
1253.151713375668
 21
3773.625618194561
 31
0.0000000001578752
  0
ARC
  5
1488
330
1F
100
AcDbEntity
  8
SANINDUSA
100
AcDbCircle
 10
1253.150698928629
 20
3773.628618198371
 30
0.0000000001555553
 40
0.0052623076923077
100
AcDbArc
 50
261.4923271320941
 51
98.5076728679059
  0
ARC
  5
1489
330
1F
100
AcDbEntity
  8
SANINDUSA
100
AcDbCircle
 10
1253.150698928629
 20
3773.628618198371
 30
0.0000000001555553
 40
0.0056623076923077
100
AcDbArc
 50
261.4923271320941
 51
98.5076728679059
  0
LINE
  5
148A
330
1F
100
AcDbEntity
  8
SANINDUSA
100
AcDbLine
 10
1253.165213375668
 20
3773.622218142268
 30
0.0000000001555554
 11
1253.150213330072
 21
3773.622218142268
 31
0.0000000001555554
  0
CIRCLE
  5
148B
330
1F
100
AcDbEntity
  8
SANINDUSA
100
AcDbCircle
 10
1253.150213375668
 20
3773.614218142267
 30
0.0000000001555554
 40
0.008
  0
LINE
  5
148C
330
1F
100
AcDbEntity
  8
SANINDUSA
100
AcDbLine
 10
1253.141324486779
 20
3773.614218142267
 30
0.0000000001555554
 11
1253.083213375668
 21
3773.614218142267
 31
0.0000000001555554
  0
LINE
  5
148D
330
1F
100
AcDbEntity
  8
SANINDUSA
100
AcDbLine
 10
1253.083213375668
 20
3773.638018194561
 30
0.0000000001555554
 11
1253.134213375668
 21
3773.638018194561
 31
0.0000000001555554
  0
LWPOLYLINE
  5
148E
330
1F
100
AcDbEntity
  8
SANINDUSA
100
AcDbPolyline
 90
        4
 70
     1
 43
0.0
 38
0.0000000001555553
 10
1253.082213375668
 20
3773.632818194561
 10
1253.135213375668
 20
3773.632818194561
 10
1253.135213375668
 20
3773.631818194561
 10
1253.082213375668
 20
3773.631818194561
1001
GENIUS_GENREC_14
1002
{
1000
PYDIR
1011
1253.381495632747
1021
3773.718990504369
1031
0.0000000001555554
1002
}
1002
{
1000
PXDIR
1011
1253.434495632747
1021
3773.717990504369
1031
0.0000000001555554
1002
}
1002
{
1000
PORI
1011
1253.381495632747
1021
3773.717990504369
1031
0.0000000001555554
1002
}
1002
{
1000
PINS
1011
1253.381495632747
1021
3773.717990504369
1031
0.0000000001555554
1002
}
1002
{
1000
PINS2
1011
1253.434495632747
1021
3773.718990504369
1031
0.0000000001555554
1002
}
1002
{
1000
C
1070
     1
1002
}
1001
GENIUS_GENODEF_13
1002
{
1000
HIER
1070
     0
1002
}
1002
{
1000
MANEDIT
1070
     0
1002
}
1002
{
1000
NOSEL
1070
     0
1002
}
1002
{
1000
BEHIND
1070
     0
1002
}
1002
{
1000
REACTOR
1002
}
1001
GENIUS_GENOBJ-N-REC_13
1002
{
1000
OWNER
1000
GEN
1002
}
  0
LINE
  5
148F
330
1F
100
AcDbEntity
  8
SANINDUSA
100
AcDbLine
 10
1253.135213375668
 20
3773.633018194561
 30
0.0000000001555554
 11
1253.082213375668
 21
3773.633018194561
 31
0.0000000001555554
  0
LWPOLYLINE
  5
1490
330
1F
100
AcDbEntity
  8
SANINDUSA
100
AcDbPolyline
 90
        2
 70
     0
 43
0.0
 38
0.0000000001555553
 10
1253.082213375668
 20
3773.624418194561
 10
1253.135213375668
 20
3773.624418194561
1001
GENIUS_GENREC_14
1002
{
1000
PYDIR
1011
1253.381495632747
1021
3773.718790504369
1031
0.0000000001555554
1002
}
1002
{
1000
PXDIR
1011
1253.434495632747
1021
3773.717790504369
1031
0.0000000001555554
1002
}
1002
{
1000
PORI
1011
1253.381495632747
1021
3773.717790504369
1031
0.0000000001555554
1002
}
1002
{
1000
PINS
1011
1253.381495632747
1021
3773.717790504369
1031
0.0000000001555554
1002
}
1002
{
1000
PINS2
1011
1253.434495632747
1021
3773.718790504369
1031
0.0000000001555554
1002
}
1002
{
1000
C
1070
     1
1002
}
1001
GENIUS_GENODEF_13
1002
{
1000
HIER
1070
     0
1002
}
1002
{
1000
MANEDIT
1070
     0
1002
}
1002
{
1000
NOSEL
1070
     0
1002
}
1002
{
1000
BEHIND
1070
     0
1002
}
1002
{
1000
REACTOR
1002
}
1001
GENIUS_GENOBJ-N-REC_13
1002
{
1000
OWNER
1000
GEN
1002
}
  0
LWPOLYLINE
  5
1491
330
1F
100
AcDbEntity
  8
SANINDUSA
100
AcDbPolyline
 90
        2
 70
     0
 43
0.0
 38
0.0000000001555553
 10
1253.135213375668
 20
3773.625418194561
 10
1253.082213375668
 20
3773.625418194561
1001
GENIUS_GENREC_14
1002
{
1000
PYDIR
1011
1253.381495632747
1021
3773.718790504369
1031
0.0000000001555554
1002
}
1002
{
1000
PXDIR
1011
1253.434495632747
1021
3773.717790504369
1031
0.0000000001555554
1002
}
1002
{
1000
PORI
1011
1253.381495632747
1021
3773.717790504369
1031
0.0000000001555554
1002
}
1002
{
1000
PINS
1011
1253.381495632747
1021
3773.717790504369
1031
0.0000000001555554
1002
}
1002
{
1000
PINS2
1011
1253.434495632747
1021
3773.718790504369
1031
0.0000000001555554
1002
}
1002
{
1000
C
1070
     1
1002
}
1001
GENIUS_GENODEF_13
1002
{
1000
HIER
1070
     0
1002
}
1002
{
1000
MANEDIT
1070
     0
1002
}
1002
{
1000
NOSEL
1070
     0
1002
}
1002
{
1000
BEHIND
1070
     0
1002
}
1002
{
1000
REACTOR
1002
}
1001
GENIUS_GENOBJ-N-REC_13
1002
{
1000
OWNER
1000
GEN
1002
}
  0
LINE
  5
1492
330
1F
100
AcDbEntity
  8
SANINDUSA
100
AcDbLine
 10
1253.082213375668
 20
3773.624218194561
 30
0.0000000001555554
 11
1253.135213375668
 21
3773.624218194561
 31
0.0000000001555554
  0
LINE
  5
1493
330
1F
100
AcDbEntity
  8
SANINDUSA
100
AcDbLine
 10
1253.082213375668
 20
3773.624218194561
 30
0.0000000001555554
 11
1253.082213375668
 21
3773.615218142268
 31
0.0000000001555554
  0
ARC
  5
1494
330
1F
100
AcDbEntity
  8
SANINDUSA
100
AcDbCircle
 10
1253.083213375668
 20
3773.615218142268
 30
0.0000000001555554
 40
0.001
100
AcDbArc
 50
180.0
 51
270.0
  0
LINE
  5
1495
330
1F
100
AcDbEntity
  8
SANINDUSA
100
AcDbLine
 10
1253.082213375668
 20
3773.625418194561
 30
0.0000000001555554
 11
1253.082213375668
 21
3773.624418194561
 31
0.0000000001555554
1001
GENIUS_GENREC_14
1002
{
1000
PYDIR
1011
1253.082213375668
1021
3773.625418194561
1031
0.0000000001555554
1002
}
1002
{
1000
PXDIR
1011
1253.135213375668
1021
3773.624418194561
1031
0.0000000001555554
1002
}
1002
{
1000
PORI
1011
1253.082213375668
1021
3773.624418194561
1031
0.0000000001555554
1002
}
1002
{
1000
PINS
1011
1253.082213375668
1021
3773.624418194561
1031
0.0000000001555554
1002
}
1002
{
1000
PINS2
1011
1253.135213375668
1021
3773.625418194561
1031
0.0000000001555554
1002
}
1002
{
1000
C
1070
     1
1002
}
1001
GENIUS_GENODEF_13
1002
{
1000
HIER
1070
     0
1002
}
1002
{
1000
MANEDIT
1070
     0
1002
}
1002
{
1000
NOSEL
1070
     0
1002
}
1002
{
1000
BEHIND
1070
     0
1002
}
1002
{
1000
REACTOR
1002
}
1001
GENIUS_GENOBJ-N-REC_13
1002
{
1000
OWNER
1000
GEN
1002
}
  0
ARC
  5
1496
330
1F
100
AcDbEntity
  8
SANINDUSA
100
AcDbCircle
 10
1253.083213375668
 20
3773.637018194562
 30
0.0000000001555554
 40
0.001
100
AcDbArc
 50
90.0
 51
180.0
  0
LINE
  5
1497
330
1F
100
AcDbEntity
  8
SANINDUSA
100
AcDbLine
 10
1253.082213375668
 20
3773.633018194561
 30
0.0000000001555554
 11
1253.082213375668
 21
3773.637018194562
 31
0.0000000001555554
  0
LINE
  5
1498
330
1F
100
AcDbEntity
  8
SANINDUSA
100
AcDbLine
 10
1253.141324486779
 20
3773.614218142267
 30
0.0000000001555554
 11
1253.141324486779
 21
3773.622218194562
 31
0.0000000001555554
  0
LINE
  5
14D0
330
1F
100
AcDbEntity
  8
SANINDUSA
100
AcDbLine
 10
1253.148868153743
 20
3773.623018198371
 30
0.0000000001555553
 11
1253.13736385206
 21
3773.624910519864
 31
0.0000000001555553
  0
LINE
  5
14D1
330
1F
100
AcDbEntity
  8
SANINDUSA
100
AcDbLine
 10
1253.135213375668
 20
3773.622218194562
 30
0.0000000001555554
 11
1253.150213375668
 21
3773.622218142268
 31
0.0000000001555554
  0
LINE
  5
14D2
330
1F
100
AcDbEntity
  8
SANINDUSA
100
AcDbLine
 10
1253.13736385206
 20
3773.632325876878
 30
0.0000000001555553
 11
1253.148868153743
 21
3773.634218198371
 31
0.0000000001555553
  0
ARC
  5
14D3
330
1F
100
AcDbEntity
  8
SANINDUSA
100
AcDbCircle
 10
1253.138448823292
 20
3773.631896279073
 30
0.0000000001555553
 40
0.0006
100
AcDbArc
 50
279.3408341093261
 51
327.5305192063584
  0
ARC
  5
14D4
330
1F
100
AcDbEntity
  8
SANINDUSA
100
AcDbCircle
 10
1253.138448823292
 20
3773.625340117669
 30
0.0000000001555553
 40
0.0006
100
AcDbArc
 50
32.46948079364152
 51
80.65916589067391
  0
LINE
  5
14D5
330
1F
100
AcDbEntity
  8
SANINDUSA
100
AcDbLine
 10
1253.136861236322
 20
3773.631027077068
 30
0.0000000001555553
 11
1253.136861236322
 21
3773.631733832702
 31
0.0000000001555553
  0
LINE
  5
14D6
330
1F
100
AcDbEntity
  8
SANINDUSA
100
AcDbLine
 10
1253.136861236322
 20
3773.62550256404
 30
0.0000000001555553
 11
1253.136861236322
 21
3773.626209319674
 31
0.0000000001555553
  0
ARC
  5
14D7
330
1F
100
AcDbEntity
  8
SANINDUSA
100
AcDbCircle
 10
1253.137461236321
 20
3773.62550256404
 30
0.0000000001555553
 40
0.0006
100
AcDbArc
 50
180.0
 51
260.6591658906739
  0
LINE
  5
14D8
330
1F
100
AcDbEntity
  8
SANINDUSA
100
AcDbLine
 10
1253.135213375668
 20
3773.624218194561
 30
0.0000000001555554
 11
1253.135213375668
 21
3773.622218194562
 31
0.0000000001555554
  0
LINE
  5
14D9
330
1F
100
AcDbEntity
  8
SANINDUSA
100
AcDbLine
 10
1253.135213375668
 20
3773.624418194561
 30
0.0000000001555554
 11
1253.135213375668
 21
3773.625418194561
 31
0.0000000001555554
1001
GENIUS_GENREC_14
1002
{
1000
PYDIR
1011
1253.082213375668
1021
3773.625418194561
1031
0.0000000001555554
1002
}
1002
{
1000
PXDIR
1011
1253.135213375668
1021
3773.624418194561
1031
0.0000000001555554
1002
}
1002
{
1000
PORI
1011
1253.082213375668
1021
3773.624418194561
1031
0.0000000001555554
1002
}
1002
{
1000
PINS
1011
1253.082213375668
1021
3773.624418194561
1031
0.0000000001555554
1002
}
1002
{
1000
PINS2
1011
1253.135213375668
1021
3773.625418194561
1031
0.0000000001555554
1002
}
1002
{
1000
C
1070
     1
1002
}
1001
GENIUS_GENODEF_13
1002
{
1000
HIER
1070
     0
1002
}
1002
{
1000
MANEDIT
1070
     0
1002
}
1002
{
1000
NOSEL
1070
     0
1002
}
1002
{
1000
BEHIND
1070
     0
1002
}
1002
{
1000
REACTOR
1002
}
1001
GENIUS_GENOBJ-N-REC_13
1002
{
1000
OWNER
1000
GEN
1002
}
  0
ARC
  5
14DA
330
1F
100
AcDbEntity
  8
SANINDUSA
100
AcDbCircle
 10
1253.134213375668
 20
3773.637018194562
 30
0.0000000001555554
 40
0.001
100
AcDbArc
 50
0.0
 51
90.0
  0
ARC
  5
14DB
330
1F
100
AcDbEntity
  8
SANINDUSA
100
AcDbCircle
 10
1253.137461236321
 20
3773.631733832702
 30
0.0000000001555553
 40
0.0006
100
AcDbArc
 50
99.34083410932609
 51
180.0
  0
LINE
  5
14DC
330
1F
100
AcDbEntity
  8
SANINDUSA
100
AcDbLine
 10
1253.135213375668
 20
3773.633018194561
 30
0.0000000001555554
 11
1253.135213375668
 21
3773.637018194562
 31
0.0000000001555554
  0
LINE
  5
14DD
330
1F
100
AcDbEntity
  8
SANINDUSA
100
AcDbLine
 10
1253.138546207553
 20
3773.631304234897
 30
0.0000000001555553
 11
1253.136861236322
 21
3773.631027077068
 31
0.0000000001555553
  0
LINE
  5
14DE
330
1F
100
AcDbEntity
  8
SANINDUSA
100
AcDbLine
 10
1253.136861236322
 20
3773.626209319674
 30
0.0000000001555553
 11
1253.138546207553
 21
3773.625932161845
 31
0.0000000001555553
  0
LINE
  5
14DF
330
1F
100
AcDbEntity
  8
SANINDUSA
100
AcDbLine
 10
1253.141815122086
 20
3773.631275385938
 30
0.0000000001555553
 11
1253.139686426686
 21
3773.631574554566
 31
0.0000000001555553
  0
LINE
  5
14E0
330
1F
100
AcDbEntity
  8
SANINDUSA
100
AcDbLine
 10
1253.139686426686
 20
3773.625661842176
 30
0.0000000001555553
 11
1253.141815122086
 21
3773.625961010804
 31
0.0000000001555553
  0
LINE
  5
14E1
330
1F
100
AcDbEntity
  8
SANINDUSA
100
AcDbLine
 10
1253.141863832671
 20
3773.62561441698
 30
0.0000000001555553
 11
1253.139787504316
 21
3773.62532260806
 31
0.0000000001555553
  0
LINE
  5
14E2
330
1F
100
AcDbEntity
  8
SANINDUSA
100
AcDbLine
 10
1253.139787504316
 20
3773.62532260806
 30
0.0000000001555553
 11
1253.14216385206
 21
3773.624931726976
 31
0.0000000001555553
  0
LINE
  5
14E3
330
1F
100
AcDbEntity
  8
SANINDUSA
100
AcDbLine
 10
1253.14216385206
 20
3773.632304669766
 30
0.0000000001555553
 11
1253.139787504316
 21
3773.631913788682
 31
0.0000000001555553
  0
LINE
  5
14E4
330
1F
100
AcDbEntity
  8
SANINDUSA
100
AcDbLine
 10
1253.139787504316
 20
3773.631913788682
 30
0.0000000001555553
 11
1253.141863832671
 21
3773.631621979762
 31
0.0000000001555553
  0
ARC
  5
14E5
330
1F
100
AcDbEntity
  8
SANINDUSA
100
AcDbCircle
 10
1253.139461236322
 20
3773.625984338018
 30
0.0000000001555553
 40
0.0006000000000005
100
AcDbArc
 50
212.4694807936415
 51
255.8991081879715
  0
ARC
  5
14E6
330
1F
100
AcDbEntity
  8
SANINDUSA
100
AcDbCircle
 10
1253.139756013237
 20
3773.625166708142
 30
0.0000000001555553
 40
0.0004999999999883
100
AcDbArc
 50
97.99999999991747
 51
151.8736260327466
  0
ARC
  5
14E7
330
1F
100
AcDbEntity
  8
SANINDUSA
100
AcDbCircle
 10
1253.139756013237
 20
3773.632069688601
 30
0.0000000001555553
 40
0.0005
100
AcDbArc
 50
208.1263739672534
 51
262.0000000000825
  0
ARC
  5
14E8
330
1F
100
AcDbEntity
  8
SANINDUSA
100
AcDbCircle
 10
1253.139461236322
 20
3773.631252058724
 30
0.0000000001555553
 40
0.0005999999999989
100
AcDbArc
 50
104.1008918120285
 51
147.5305192063585
  0
ARC
  5
14E9
330
1F
100
AcDbEntity
  8
SANINDUSA
100
AcDbCircle
 10
1253.141839477379
 20
3773.63144868285
 30
0.0000000001555553
 40
0.000175
100
AcDbArc
 50
262.0000000000825
 51
82.00000000008254
  0
ARC
  5
14EA
330
1F
100
AcDbEntity
  8
SANINDUSA
100
AcDbCircle
 10
1253.146321849188
 20
3773.631867928231
 30
0.0000000001555553
 40
0.00075
100
AcDbArc
 50
179.8634464257769
 51
9.340834094356807
  0
LINE
  5
14EB
330
1F
100
AcDbEntity
  8
SANINDUSA
100
AcDbLine
 10
1253.148713375668
 20
3773.624921767921
 30
0.0000000001555553
 11
1253.148713375668
 21
3773.632314628821
 31
0.0000000001555553
  0
LINE
  5
14EC
330
1F
100
AcDbEntity
  8
SANINDUSA
100
AcDbLine
 10
1253.149861236322
 20
3773.623018198371
 30
0.0000000001555553
 11
1253.149861236322
 21
3773.634218198371
 31
0.0000000001555553
  0
LINE
  5
14ED
330
1F
100
AcDbEntity
  8
SANINDUSA
  6
Continuous
100
AcDbLine
 10
1253.148713375668
 20
3773.631618198371
 30
0.0000000001555553
 11
1253.148713375668
 21
3773.625618198372
 31
0.0000000001555553
  0
LINE
  5
14EE
330
1F
100
AcDbEntity
  8
SANINDUSA
100
AcDbLine
 10
1253.143111342249
 20
3773.625181251208
 30
0.0000000001555553
 11
1253.144973863749
 21
3773.624874888461
 31
0.0000000001555553
  0
ARC
  5
14EF
330
1F
100
AcDbEntity
  8
SANINDUSA
100
AcDbCircle
 10
1253.142261236322
 20
3773.625523771151
 30
0.0000000001555553
 40
0.0006
100
AcDbArc
 50
260.6591658906739
 51
308.8488509952146
  0
ARC
  5
14F0
330
1F
100
AcDbEntity
  8
SANINDUSA
100
AcDbCircle
 10
1253.141839477379
 20
3773.625787713892
 30
0.0000000001555553
 40
0.000175
100
AcDbArc
 50
277.9999999999175
 51
97.99999999991747
  0
ARC
  5
14F1
330
1F
100
AcDbEntity
  8
SANINDUSA
100
AcDbCircle
 10
1253.143013957988
 20
3773.624589207032
 30
0.0000000001555553
 40
0.0006000000000005
100
AcDbArc
 50
80.65916589067391
 51
128.8488509952145
  0
LINE
  5
14F2
330
1F
100
AcDbEntity
  8
SANINDUSA
100
AcDbLine
 10
1253.148868153743
 20
3773.623018198371
 30
0.0000000001555553
 11
1253.149861236322
 21
3773.623018198371
 31
0.0000000001555553
  0
ARC
  5
14F3
330
1F
100
AcDbEntity
  8
SANINDUSA
100
AcDbCircle
 10
1253.145055017299
 20
3773.625368258608
 30
0.0000000001555553
 40
0.0005
100
AcDbArc
 50
260.6591658906739
 51
350.6591659056432
  0
LINE
  5
14F4
330
1F
100
AcDbEntity
  8
SANINDUSA
100
AcDbLine
 10
1253.145548387445
 20
3773.625287105056
 30
0.0000000001555553
 11
1253.145581793969
 21
3773.625490198837
 31
0.0000000001555553
  0
ARC
  5
14F5
330
1F
100
AcDbEntity
  8
SANINDUSA
100
AcDbCircle
 10
1253.146321849188
 20
3773.62536846851
 30
0.0000000001555553
 40
0.00075
100
AcDbArc
 50
350.6591659056432
 51
170.6591659056432
  0
LINE
  5
14F6
330
1F
100
AcDbEntity
  8
SANINDUSA
100
AcDbLine
 10
1253.147061904408
 20
3773.625246738185
 30
0.0000000001555553
 11
1253.147021327632
 21
3773.625000053111
 31
0.0000000001555553
  0
ARC
  5
14F7
330
1F
100
AcDbEntity
  8
SANINDUSA
100
AcDbCircle
 10
1253.148113375668
 20
3773.624921767921
 30
0.0000000001555553
 40
0.0006
100
AcDbArc
 50
260.6591658906739
 51
0.0
  0
LINE
  5
14F8
330
1F
100
AcDbEntity
  8
SANINDUSA
100
AcDbLine
 10
1253.147433544228
 20
3773.624425529414
 30
0.0000000001555553
 11
1253.148015991407
 21
3773.624329723745
 31
0.0000000001555553
  0
ARC
  5
14F9
330
1F
100
AcDbEntity
  8
SANINDUSA
100
AcDbCircle
 10
1253.147514697779
 20
3773.62491889956
 30
0.0000000001555553
 40
0.0005
100
AcDbArc
 50
170.6591659056432
 51
260.6591658906739
  0
LINE
  5
14FA
330
1F
100
AcDbEntity
  8
SANINDUSA
100
AcDbLine
 10
1253.144990699188
 20
3773.632364277511
 30
0.0000000001555553
 11
1253.143111342249
 21
3773.632055145534
 31
0.0000000001555553
  0
ARC
  5
14FB
330
1F
100
AcDbEntity
  8
SANINDUSA
100
AcDbCircle
 10
1253.142261236322
 20
3773.63171262559
 30
0.0000000001555553
 40
0.0006
100
AcDbArc
 50
51.15114900478545
 51
99.34083410932609
  0
ARC
  5
14FC
330
1F
100
AcDbEntity
  8
SANINDUSA
100
AcDbCircle
 10
1253.143013957988
 20
3773.632647189709
 30
0.0000000001555553
 40
0.0006000000000005
100
AcDbArc
 50
231.1511490047855
 51
279.3408341093261
  0
ARC
  5
14FD
330
1F
100
AcDbEntity
  8
SANINDUSA
100
AcDbCircle
 10
1253.148113375668
 20
3773.632314628821
 30
0.0000000001555553
 40
0.0006
100
AcDbArc
 50
0.0
 51
99.34083410932609
  0
LINE
  5
14FE
330
1F
100
AcDbEntity
  8
SANINDUSA
100
AcDbLine
 10
1253.148015991407
 20
3773.632906672997
 30
0.0000000001555553
 11
1253.147433544228
 21
3773.632810867328
 31
0.0000000001555553
  0
LINE
  5
14FF
330
1F
100
AcDbEntity
  8
SANINDUSA
100
AcDbLine
 10
1253.148868153743
 20
3773.634218198371
 30
0.0000000001555553
 11
1253.149861236322
 21
3773.634218198371
 31
0.0000000001555553
  0
ARC
  5
1500
330
1F
100
AcDbEntity
  8
SANINDUSA
100
AcDbCircle
 10
1253.145071852739
 20
3773.631870907365
 30
0.0000000001555553
 40
0.0005
100
AcDbArc
 50
359.863446425777
 51
99.34083410932609
  0
LINE
  5
1501
330
1F
100
AcDbEntity
  8
SANINDUSA
100
AcDbLine
 10
1253.147021327632
 20
3773.632236343631
 30
0.0000000001555553
 11
1253.147061904408
 21
3773.631989658558
 31
0.0000000001555553
  0
LINE
  5
1502
330
1F
100
AcDbEntity
  8
SANINDUSA
100
AcDbLine
 10
1253.145581793969
 20
3773.631746197905
 30
0.0000000001555553
 11
1253.145541217194
 21
3773.631992882978
 31
0.0000000001555553
  0
ARC
  5
1503
330
1F
100
AcDbEntity
  8
SANINDUSA
100
AcDbCircle
 10
1253.147514697779
 20
3773.632317497181
 30
0.0000000001555553
 40
0.0005
100
AcDbArc
 50
99.34083410932609
 51
189.3408340943568
  0
LINE
  5
1504
330
1F
100
AcDbEntity
  8
SANINDUSA
100
AcDbLine
 10
1253.151713375668
 20
3773.631618194561
 30
0.0000000001555554
 11
1253.151713375668
 21
3773.625618194561
 31
0.0000000001555554
1001
GENIUS_GENREC_14
1002
{
1000
PYDIR
1011
1252.998713375668
1021
3773.625418194561
1031
0.0000000001555554
1002
}
1002
{
1000
PXDIR
1011
1253.148713375668
1021
3773.631418194562
1031
0.0000000001555554
1002
}
1002
{
1000
PORI
1011
1252.998713375668
1021
3773.631418194562
1031
0.0000000001555554
1002
}
1002
{
1000
PINS
1011
1252.998713375668
1021
3773.631418194562
1031
0.0000000001555554
1002
}
1002
{
1000
PINS2
1011
1253.148713375668
1021
3773.625618194561
1031
0.0000000001555554
1002
}
1002
{
1000
C
1070
     1
1002
}
1001
GENIUS_GENODEF_13
1002
{
1000
HIER
1070
     0
1002
}
1002
{
1000
MANEDIT
1070
     0
1002
}
1002
{
1000
NOSEL
1070
     0
1002
}
1002
{
1000
BEHIND
1070
     0
1002
}
1002
{
1000
REACTOR
1002
}
1001
GENIUS_GENOBJ-N-REC_13
1002
{
1000
OWNER
1000
GEN
1002
}
  0
LINE
  5
1505
330
1F
100
AcDbEntity
  8
SANINDUSA
100
AcDbLine
 10
1253.217213375668
 20
3773.638018194561
 30
0.0000000001555554
 11
1253.166213375668
 21
3773.638018194561
 31
0.0000000001555554
  0
LWPOLYLINE
  5
1506
330
1F
100
AcDbEntity
  8
SANINDUSA
100
AcDbPolyline
 90
        2
 70
     0
 43
0.0
 38
0.0000000001555553
 10
1253.165213375668
 20
3773.625318194561
 10
1253.218213375667
 20
3773.625318194561
1001
GENIUS_GENREC_14
1002
{
1000
PYDIR
1011
1253.082213375668
1021
3773.41940824729
1031
0.0000000001555554
1002
}
1002
{
1000
PXDIR
1011
1253.135213375668
1021
3773.41840824729
1031
0.0000000001555554
1002
}
1002
{
1000
PORI
1011
1253.082213375668
1021
3773.41840824729
1031
0.0000000001555554
1002
}
1002
{
1000
PINS
1011
1253.082213375668
1021
3773.41840824729
1031
0.0000000001555554
1002
}
1002
{
1000
PINS2
1011
1253.135213375668
1021
3773.41940824729
1031
0.0000000001555554
1002
}
1002
{
1000
C
1070
     1
1002
}
1001
GENIUS_GENODEF_13
1002
{
1000
HIER
1070
     0
1002
}
1002
{
1000
MANEDIT
1070
     0
1002
}
1002
{
1000
NOSEL
1070
     0
1002
}
1002
{
1000
BEHIND
1070
     0
1002
}
1002
{
1000
REACTOR
1002
}
1001
GENIUS_GENOBJ-N-REC_13
1002
{
1000
OWNER
1000
GEN
1002
}
  0
LWPOLYLINE
  5
1507
330
1F
100
AcDbEntity
  8
SANINDUSA
100
AcDbPolyline
 90
        2
 70
     0
 43
0.0
 38
0.0000000001555553
 10
1253.218213375667
 20
3773.624318194561
 10
1253.165213375668
 20
3773.624318194561
1001
GENIUS_GENREC_14
1002
{
1000
PYDIR
1011
1253.082213375668
1021
3773.41940824729
1031
0.0000000001555554
1002
}
1002
{
1000
PXDIR
1011
1253.135213375668
1021
3773.41840824729
1031
0.0000000001555554
1002
}
1002
{
1000
PORI
1011
1253.082213375668
1021
3773.41840824729
1031
0.0000000001555554
1002
}
1002
{
1000
PINS
1011
1253.082213375668
1021
3773.41840824729
1031
0.0000000001555554
1002
}
1002
{
1000
PINS2
1011
1253.135213375668
1021
3773.41940824729
1031
0.0000000001555554
1002
}
1002
{
1000
C
1070
     1
1002
}
1001
GENIUS_GENODEF_13
1002
{
1000
HIER
1070
     0
1002
}
1002
{
1000
MANEDIT
1070
     0
1002
}
1002
{
1000
NOSEL
1070
     0
1002
}
1002
{
1000
BEHIND
1070
     0
1002
}
1002
{
1000
REACTOR
1002
}
1001
GENIUS_GENOBJ-N-REC_13
1002
{
1000
OWNER
1000
GEN
1002
}
  0
LWPOLYLINE
  5
1508
330
1F
100
AcDbEntity
  8
SANINDUSA
100
AcDbPolyline
 90
        4
 70
     1
 43
0.0
 38
0.0000000001555553
 10
1253.218213375667
 20
3773.632818194561
 10
1253.165213375668
 20
3773.632818194561
 10
1253.165213375668
 20
3773.631818194561
 10
1253.218213375667
 20
3773.631818194561
1001
GENIUS_GENREC_14
1002
{
1000
PYDIR
1011
1253.082213375668
1021
3773.41970824729
1031
0.0000000001555554
1002
}
1002
{
1000
PXDIR
1011
1253.135213375668
1021
3773.41870824729
1031
0.0000000001555554
1002
}
1002
{
1000
PORI
1011
1253.082213375668
1021
3773.41870824729
1031
0.0000000001555554
1002
}
1002
{
1000
PINS
1011
1253.082213375668
1021
3773.41870824729
1031
0.0000000001555554
1002
}
1002
{
1000
PINS2
1011
1253.135213375668
1021
3773.41970824729
1031
0.0000000001555554
1002
}
1002
{
1000
C
1070
     1
1002
}
1001
GENIUS_GENODEF_13
1002
{
1000
HIER
1070
     0
1002
}
1002
{
1000
MANEDIT
1070
     0
1002
}
1002
{
1000
NOSEL
1070
     0
1002
}
1002
{
1000
BEHIND
1070
     0
1002
}
1002
{
1000
REACTOR
1002
}
1001
GENIUS_GENOBJ-N-REC_13
1002
{
1000
OWNER
1000
GEN
1002
}
  0
LINE
  5
1509
330
1F
100
AcDbEntity
  8
SANINDUSA
100
AcDbLine
 10
1253.165213375668
 20
3773.624218142268
 30
0.0000000001555554
 11
1253.218213375668
 21
3773.624218142268
 31
0.0000000001555554
  0
LINE
  5
150A
330
1F
100
AcDbEntity
  8
SANINDUSA
100
AcDbLine
 10
1253.165213375668
 20
3773.633018194561
 30
0.0000000001555554
 11
1253.218213375667
 21
3773.633018194561
 31
0.0000000001555554
  0
LINE
  5
150B
330
1F
100
AcDbEntity
  8
SANINDUSA
100
AcDbLine
 10
1253.217213375668
 20
3773.614218142267
 30
0.0000000001555554
 11
1253.158213375668
 21
3773.614218142267
 31
0.0000000001555554
  0
LINE
  5
150C
330
1F
100
AcDbEntity
  8
SANINDUSA
100
AcDbLine
 10
1253.159102264557
 20
3773.614218142267
 30
0.0000000001555554
 11
1253.159102264557
 21
3773.622218142268
 31
0.0000000001555554
  0
LINE
  5
150D
330
1F
100
AcDbEntity
  8
SANINDUSA
100
AcDbLine
 10
1253.165213375668
 20
3773.622218142268
 30
0.0000000001555554
 11
1253.165213375668
 21
3773.624218142268
 31
0.0000000001555554
  0
LINE
  5
150E
330
1F
100
AcDbEntity
  8
SANINDUSA
100
AcDbLine
 10
1253.165213375668
 20
3773.624318194561
 30
0.0000000001555554
 11
1253.165213375668
 21
3773.625318194561
 31
0.0000000001555554
1001
GENIUS_GENREC_14
1002
{
1000
PYDIR
1011
1253.082213375668
1021
3773.625318194561
1031
0.0000000001555554
1002
}
1002
{
1000
PXDIR
1011
1253.135213375668
1021
3773.624318194561
1031
0.0000000001555554
1002
}
1002
{
1000
PORI
1011
1253.082213375668
1021
3773.624318194561
1031
0.0000000001555554
1002
}
1002
{
1000
PINS
1011
1253.082213375668
1021
3773.624318194561
1031
0.0000000001555554
1002
}
1002
{
1000
PINS2
1011
1253.135213375668
1021
3773.625318194561
1031
0.0000000001555554
1002
}
1002
{
1000
C
1070
     1
1002
}
1001
GENIUS_GENODEF_13
1002
{
1000
HIER
1070
     0
1002
}
1002
{
1000
MANEDIT
1070
     0
1002
}
1002
{
1000
NOSEL
1070
     0
1002
}
1002
{
1000
BEHIND
1070
     0
1002
}
1002
{
1000
REACTOR
1002
}
1001
GENIUS_GENOBJ-N-REC_13
1002
{
1000
OWNER
1000
GEN
1002
}
  0
ARC
  5
150F
330
1F
100
AcDbEntity
  8
SANINDUSA
100
AcDbCircle
 10
1253.166213375668
 20
3773.637018194562
 30
0.0000000001555554
 40
0.001
100
AcDbArc
 50
90.0
 51
180.0
  0
LINE
  5
1510
330
1F
100
AcDbEntity
  8
SANINDUSA
100
AcDbLine
 10
1253.165213375668
 20
3773.633018194561
 30
0.0000000001555554
 11
1253.165213375668
 21
3773.637018194562
 31
0.0000000001555554
  0
LINE
  5
1511
330
1F
100
AcDbEntity
  8
SANINDUSA
100
AcDbLine
 10
1253.218213375668
 20
3773.624218142268
 30
0.0000000001555554
 11
1253.218213375667
 21
3773.615218142268
 31
0.0000000001555554
  0
ARC
  5
1512
330
1F
100
AcDbEntity
  8
SANINDUSA
100
AcDbCircle
 10
1253.217213375668
 20
3773.615218142268
 30
0.0000000001555554
 40
0.001
100
AcDbArc
 50
270.0
 51
0.0
  0
LINE
  5
1513
330
1F
100
AcDbEntity
  8
SANINDUSA
100
AcDbLine
 10
1253.218213375667
 20
3773.625318194561
 30
0.0000000001555554
 11
1253.218213375667
 21
3773.624318194561
 31
0.0000000001555554
1001
GENIUS_GENREC_14
1002
{
1000
PYDIR
1011
1253.082213375668
1021
3773.625318194561
1031
0.0000000001555554
1002
}
1002
{
1000
PXDIR
1011
1253.135213375668
1021
3773.624318194561
1031
0.0000000001555554
1002
}
1002
{
1000
PORI
1011
1253.082213375668
1021
3773.624318194561
1031
0.0000000001555554
1002
}
1002
{
1000
PINS
1011
1253.082213375668
1021
3773.624318194561
1031
0.0000000001555554
1002
}
1002
{
1000
PINS2
1011
1253.135213375668
1021
3773.625318194561
1031
0.0000000001555554
1002
}
1002
{
1000
C
1070
     1
1002
}
1001
GENIUS_GENODEF_13
1002
{
1000
HIER
1070
     0
1002
}
1002
{
1000
MANEDIT
1070
     0
1002
}
1002
{
1000
NOSEL
1070
     0
1002
}
1002
{
1000
BEHIND
1070
     0
1002
}
1002
{
1000
REACTOR
1002
}
1001
GENIUS_GENOBJ-N-REC_13
1002
{
1000
OWNER
1000
GEN
1002
}
  0
ARC
  5
1514
330
1F
100
AcDbEntity
  8
SANINDUSA
100
AcDbCircle
 10
1253.217213375668
 20
3773.637018194562
 30
0.0000000001555554
 40
0.001
100
AcDbArc
 50
0.0
 51
90.0
  0
LINE
  5
1515
330
1F
100
AcDbEntity
  8
SANINDUSA
100
AcDbLine
 10
1253.218213375667
 20
3773.633018194561
 30
0.0000000001555554
 11
1253.218213375667
 21
3773.637018194562
 31
0.0000000001555554
  0
LINE
  5
1569
330
1F
100
AcDbEntity
  8
SANINDUSA
100
AcDbLine
 10
1253.442540542765
 20
3773.663585708983
 30
0.0000000001462626
 11
1253.437590795297
 21
3773.658635961514
 31
0.0000000001462626
  0
ARC
  5
156A
330
1F
100
AcDbEntity
  8
SANINDUSA
100
AcDbCircle
 10
1253.424509319845
 20
3773.656868194561
 30
0.0000000001462626
 40
0.009
100
AcDbArc
 50
0.0
 51
180.0
  0
LINE
  5
156B
330
1F
100
AcDbEntity
  8
SANINDUSA
100
AcDbLine
 10
1253.437590795297
 20
3773.658635961514
 30
0.0000000001462626
 11
1253.426277086798
 21
3773.669949670014
 31
0.0000000001462626
  0
LINE
  5
156C
330
1F
100
AcDbEntity
  8
SANINDUSA
100
AcDbLine
 10
1253.447009319845
 20
3773.639618194561
 30
0.0000000001462626
 11
1253.402009319845
 21
3773.639618194561
 31
0.0000000001462626
  0
LINE
  5
156D
330
1F
100
AcDbEntity
  8
SANINDUSA
100
AcDbLine
 10
1253.447009319845
 20
3773.621618194562
 30
0.0000000001462626
 11
1253.402009319845
 21
3773.621618194562
 31
0.0000000001462626
  0
LINE
  5
156E
330
1F
100
AcDbEntity
  8
SANINDUSA
100
AcDbLine
 10
1253.402009319845
 20
3773.639618194561
 30
0.0000000001462626
 11
1253.402009319845
 21
3773.621618194562
 31
0.0000000001462626
  0
LINE
  5
156F
330
1F
100
AcDbEntity
  8
SANINDUSA
100
AcDbLine
 10
1253.433509319845
 20
3773.656868194561
 30
0.0000000001462626
 11
1253.433509319845
 21
3773.639618194561
 31
0.0000000001462626
  0
LINE
  5
1570
330
1F
100
AcDbEntity
  8
SANINDUSA
100
AcDbLine
 10
1253.415509319845
 20
3773.656868194561
 30
0.0000000001462626
 11
1253.415509319845
 21
3773.639618194561
 31
0.0000000001462626
  0
CIRCLE
  5
1571
330
1F
100
AcDbEntity
  8
SANINDUSA
100
AcDbCircle
 10
1253.424509319845
 20
3773.656868194561
 30
0.0000000001462626
 40
0.005085
  0
LINE
  5
1572
330
1F
100
AcDbEntity
  8
SANINDUSA
100
AcDbLine
 10
1253.426157585752
 20
3773.659420142934
 30
0.0000000001462626
 11
1253.424848693494
 21
3773.658111250676
 31
0.0000000001462626
  0
LINE
  5
1573
330
1F
100
AcDbEntity
  8
SANINDUSA
100
AcDbLine
 10
1253.424848693494
 20
3773.655625138446
 30
0.0000000001462626
 11
1253.426157585752
 21
3773.654316246188
 31
0.0000000001462626
  0
LINE
  5
1574
330
1F
100
AcDbEntity
  8
SANINDUSA
100
AcDbLine
 10
1253.425413002311
 20
3773.656868194561
 30
0.0000000001462626
 11
1253.42575237596
 21
3773.656528820912
 31
0.0000000001462626
  0
LINE
  5
1575
330
1F
100
AcDbEntity
  8
SANINDUSA
100
AcDbLine
 10
1253.42575237596
 20
3773.657207568211
 30
0.0000000001462626
 11
1253.425413002311
 21
3773.656868194561
 31
0.0000000001462626
  0
LINE
  5
1576
330
1F
100
AcDbEntity
  8
SANINDUSA
100
AcDbLine
 10
1253.427479319845
 20
3773.656868194561
 30
0.0000000001462626
 11
1253.425413002311
 21
3773.656868194561
 31
0.0000000001462626
  0
LINE
  5
1577
330
1F
100
AcDbEntity
  8
SANINDUSA
100
AcDbLine
 10
1253.421957371472
 20
3773.655219928655
 30
0.0000000001462626
 11
1253.422861053938
 21
3773.654316246188
 31
0.0000000001462626
  0
LINE
  5
1578
330
1F
100
AcDbEntity
  8
SANINDUSA
100
AcDbLine
 10
1253.422861053938
 20
3773.654316246188
 30
0.0000000001462626
 11
1253.424169946196
 21
3773.655625138446
 31
0.0000000001462626
  0
LINE
  5
1579
330
1F
100
AcDbEntity
  8
SANINDUSA
100
AcDbLine
 10
1253.424057478612
 20
3773.657320035795
 30
0.0000000001462626
 11
1253.424509319845
 21
3773.656868194561
 31
0.0000000001462626
  0
LINE
  5
157A
330
1F
100
AcDbEntity
  8
SANINDUSA
100
AcDbLine
 10
1253.424509319845
 20
3773.656868194561
 30
0.0000000001462626
 11
1253.424961161078
 21
3773.656416353328
 31
0.0000000001462626
  0
LINE
  5
157B
330
1F
100
AcDbEntity
  8
SANINDUSA
100
AcDbLine
 10
1253.425413002311
 20
3773.656868194561
 30
0.0000000001462626
 11
1253.424509319845
 21
3773.655964512095
 31
0.0000000001462626
  0
LINE
  5
157C
330
1F
100
AcDbEntity
  8
SANINDUSA
100
AcDbLine
 10
1253.424509319845
 20
3773.656868194561
 30
0.0000000001462626
 11
1253.425413002311
 21
3773.656868194561
 31
0.0000000001462626
  0
LINE
  5
157D
330
1F
100
AcDbEntity
  8
SANINDUSA
100
AcDbLine
 10
1253.424509319845
 20
3773.655964512095
 30
0.0000000001462626
 11
1253.424509319845
 21
3773.656868194561
 31
0.0000000001462626
  0
LINE
  5
157E
330
1F
100
AcDbEntity
  8
SANINDUSA
100
AcDbLine
 10
1253.424509319845
 20
3773.656868194561
 30
0.0000000001462626
 11
1253.424961161078
 21
3773.657320035795
 31
0.0000000001462626
  0
LINE
  5
157F
330
1F
100
AcDbEntity
  8
SANINDUSA
100
AcDbLine
 10
1253.424509319845
 20
3773.657771877028
 30
0.0000000001462626
 11
1253.424509319845
 21
3773.656868194561
 31
0.0000000001462626
  0
LINE
  5
1580
330
1F
100
AcDbEntity
  8
SANINDUSA
100
AcDbLine
 10
1253.423605637379
 20
3773.656868194561
 30
0.0000000001462626
 11
1253.424509319845
 21
3773.657771877028
 31
0.0000000001462626
  0
LINE
  5
1581
330
1F
100
AcDbEntity
  8
SANINDUSA
100
AcDbLine
 10
1253.422861053938
 20
3773.659420142934
 30
0.0000000001462626
 11
1253.421957371472
 21
3773.658516460468
 31
0.0000000001462626
  0
LINE
  5
1582
330
1F
100
AcDbEntity
  8
SANINDUSA
100
AcDbLine
 10
1253.424057478612
 20
3773.656416353328
 30
0.0000000001462626
 11
1253.424509319845
 21
3773.656868194561
 31
0.0000000001462626
  0
LINE
  5
1583
330
1F
100
AcDbEntity
  8
SANINDUSA
100
AcDbLine
 10
1253.424509319845
 20
3773.656868194561
 30
0.0000000001462626
 11
1253.423605637379
 21
3773.656868194561
 31
0.0000000001462626
  0
LINE
  5
1584
330
1F
100
AcDbEntity
  8
SANINDUSA
100
AcDbLine
 10
1253.425413002311
 20
3773.656868194561
 30
0.0000000001462626
 11
1253.424509319845
 21
3773.657771877028
 31
0.0000000001462626
  0
LINE
  5
1585
330
1F
100
AcDbEntity
  8
SANINDUSA
100
AcDbLine
 10
1253.421957371472
 20
3773.658516460468
 30
0.0000000001462626
 11
1253.42326626373
 21
3773.657207568211
 31
0.0000000001462626
  0
LINE
  5
1586
330
1F
100
AcDbEntity
  8
SANINDUSA
100
AcDbLine
 10
1253.423605637379
 20
3773.656868194561
 30
0.0000000001462626
 11
1253.424509319845
 21
3773.655964512095
 31
0.0000000001462626
  0
LINE
  5
1587
330
1F
100
AcDbEntity
  8
SANINDUSA
100
AcDbLine
 10
1253.42326626373
 20
3773.656528820912
 30
0.0000000001462626
 11
1253.421957371472
 21
3773.655219928655
 31
0.0000000001462626
  0
LINE
  5
1588
330
1F
100
AcDbEntity
  8
SANINDUSA
100
AcDbLine
 10
1253.424169946196
 20
3773.658111250676
 30
0.0000000001462626
 11
1253.422861053938
 21
3773.659420142934
 31
0.0000000001462626
  0
LINE
  5
1589
330
1F
100
AcDbEntity
  8
SANINDUSA
100
AcDbLine
 10
1253.423605637379
 20
3773.656868194561
 30
0.0000000001462626
 11
1253.42326626373
 21
3773.657207568211
 31
0.0000000001462626
  0
LINE
  5
158A
330
1F
100
AcDbEntity
  8
SANINDUSA
100
AcDbLine
 10
1253.42326626373
 20
3773.657207568211
 30
0.0000000001462626
 11
1253.421539319845
 21
3773.656868194561
 31
0.0000000001462626
  0
LINE
  5
158B
330
1F
100
AcDbEntity
  8
SANINDUSA
100
AcDbLine
 10
1253.42326626373
 20
3773.656528820912
 30
0.0000000001462626
 11
1253.423605637379
 21
3773.656868194561
 31
0.0000000001462626
  0
LINE
  5
158C
330
1F
100
AcDbEntity
  8
SANINDUSA
100
AcDbLine
 10
1253.421539319845
 20
3773.656868194561
 30
0.0000000001462626
 11
1253.423605637379
 21
3773.656868194561
 31
0.0000000001462626
  0
LINE
  5
158D
330
1F
100
AcDbEntity
  8
SANINDUSA
100
AcDbLine
 10
1253.421539319845
 20
3773.656868194561
 30
0.0000000001462626
 11
1253.42326626373
 21
3773.656528820912
 31
0.0000000001462626
  0
LINE
  5
158E
330
1F
100
AcDbEntity
  8
SANINDUSA
100
AcDbLine
 10
1253.424509319845
 20
3773.657771877028
 30
0.0000000001462626
 11
1253.424848693494
 21
3773.658111250676
 31
0.0000000001462626
  0
LINE
  5
158F
330
1F
100
AcDbEntity
  8
SANINDUSA
100
AcDbLine
 10
1253.424848693494
 20
3773.658111250676
 30
0.0000000001462626
 11
1253.424509319845
 21
3773.659838194561
 31
0.0000000001462626
  0
LINE
  5
1590
330
1F
100
AcDbEntity
  8
SANINDUSA
100
AcDbLine
 10
1253.424169946196
 20
3773.658111250676
 30
0.0000000001462626
 11
1253.424509319845
 21
3773.657771877028
 31
0.0000000001462626
  0
LINE
  5
1591
330
1F
100
AcDbEntity
  8
SANINDUSA
100
AcDbLine
 10
1253.424509319845
 20
3773.659838194561
 30
0.0000000001462626
 11
1253.424509319845
 21
3773.657771877028
 31
0.0000000001462626
  0
LINE
  5
1592
330
1F
100
AcDbEntity
  8
SANINDUSA
100
AcDbLine
 10
1253.424509319845
 20
3773.659838194561
 30
0.0000000001462626
 11
1253.424169946196
 21
3773.658111250676
 31
0.0000000001462626
  0
LINE
  5
1593
330
1F
100
AcDbEntity
  8
SANINDUSA
100
AcDbLine
 10
1253.424509319845
 20
3773.655964512095
 30
0.0000000001462626
 11
1253.424169946196
 21
3773.655625138446
 31
0.0000000001462626
  0
LINE
  5
1594
330
1F
100
AcDbEntity
  8
SANINDUSA
100
AcDbLine
 10
1253.424169946196
 20
3773.655625138446
 30
0.0000000001462626
 11
1253.424509319845
 21
3773.653898194561
 31
0.0000000001462626
  0
LINE
  5
1595
330
1F
100
AcDbEntity
  8
SANINDUSA
100
AcDbLine
 10
1253.424848693494
 20
3773.655625138446
 30
0.0000000001462626
 11
1253.424509319845
 21
3773.655964512095
 31
0.0000000001462626
  0
LINE
  5
1596
330
1F
100
AcDbEntity
  8
SANINDUSA
100
AcDbLine
 10
1253.424509319845
 20
3773.653898194561
 30
0.0000000001462626
 11
1253.424509319845
 21
3773.655964512095
 31
0.0000000001462626
  0
LINE
  5
1597
330
1F
100
AcDbEntity
  8
SANINDUSA
100
AcDbLine
 10
1253.424509319845
 20
3773.653898194561
 30
0.0000000001462626
 11
1253.424848693494
 21
3773.655625138446
 31
0.0000000001462626
  0
LINE
  5
1598
330
1F
100
AcDbEntity
  8
SANINDUSA
100
AcDbLine
 10
1253.427061268218
 20
3773.658516460468
 30
0.0000000001462626
 11
1253.426157585752
 21
3773.659420142934
 31
0.0000000001462626
  0
LINE
  5
1599
330
1F
100
AcDbEntity
  8
SANINDUSA
100
AcDbLine
 10
1253.426157585752
 20
3773.654316246188
 30
0.0000000001462626
 11
1253.427061268218
 21
3773.655219928655
 31
0.0000000001462626
  0
LINE
  5
159A
330
1F
100
AcDbEntity
  8
SANINDUSA
100
AcDbLine
 10
1253.427061268218
 20
3773.655219928655
 30
0.0000000001462626
 11
1253.42575237596
 21
3773.656528820912
 31
0.0000000001462626
  0
LINE
  5
159B
330
1F
100
AcDbEntity
  8
SANINDUSA
100
AcDbLine
 10
1253.42575237596
 20
3773.657207568211
 30
0.0000000001462626
 11
1253.427061268218
 21
3773.658516460468
 31
0.0000000001462626
  0
LINE
  5
159C
330
1F
100
AcDbEntity
  8
SANINDUSA
100
AcDbLine
 10
1253.42575237596
 20
3773.656528820912
 30
0.0000000001462626
 11
1253.427479319845
 21
3773.656868194561
 31
0.0000000001462626
  0
LINE
  5
159D
330
1F
100
AcDbEntity
  8
SANINDUSA
100
AcDbLine
 10
1253.427479319845
 20
3773.656868194561
 30
0.0000000001462626
 11
1253.42575237596
 21
3773.657207568211
 31
0.0000000001462626
  0
LINE
  5
159E
330
1F
100
AcDbEntity
  8
SANINDUSA
100
AcDbLine
 10
1253.437590795297
 20
3773.658635961514
 30
0.0000000001462626
 11
1253.433509319845
 21
3773.654554486063
 31
0.0000000001462626
  0
LINE
  5
159F
330
1F
100
AcDbEntity
  8
SANINDUSA
100
AcDbLine
 10
1253.447009319845
 20
3773.639618194561
 30
0.0000000001462626
 11
1253.447009319845
 21
3773.621618194562
 31
0.0000000001462626
  0
LINE
  5
15A0
330
1F
100
AcDbEntity
  8
SANINDUSA
100
AcDbLine
 10
1253.453854251264
 20
3773.674899417482
 30
0.0000000001462626
 11
1253.442540542765
 21
3773.68621312598
 31
0.0000000001462626
  0
LINE
  5
15A1
330
1F
100
AcDbEntity
  8
SANINDUSA
100
AcDbLine
 10
1253.443954756328
 20
3773.664999922545
 30
0.0000000001462626
 11
1253.432641047829
 21
3773.676313631044
 31
0.0000000001462626
  0
LINE
  5
15A2
330
1F
100
AcDbEntity
  8
SANINDUSA
100
AcDbLine
 10
1253.442540542765
 20
3773.68621312598
 30
0.0000000001462626
 11
1253.432641047829
 21
3773.676313631044
 31
0.0000000001462626
  0
LINE
  5
15A3
330
1F
100
AcDbEntity
  8
SANINDUSA
100
AcDbLine
 10
1253.431226834267
 20
3773.674899417482
 30
0.0000000001462626
 11
1253.426277086798
 21
3773.669949670014
 31
0.0000000001462626
  0
LINE
  5
15A4
330
1F
100
AcDbEntity
  8
SANINDUSA
100
AcDbLine
 10
1253.426277086798
 20
3773.669949670014
 30
0.0000000001462626
 11
1253.421767941543
 21
3773.665440524759
 31
0.0000000001462626
  0
LINE
  5
15A5
330
1F
100
AcDbEntity
  8
SANINDUSA
100
AcDbLine
 10
1253.440772775812
 20
3773.665353475936
 30
0.0000000001462626
 11
1253.442186989375
 21
3773.666767689498
 31
0.0000000001462626
  0
LINE
  5
15A6
330
1F
100
AcDbEntity
  8
SANINDUSA
100
AcDbLine
 10
1253.442540542765
 20
3773.663585708983
 30
0.0000000001462626
 11
1253.431226834267
 21
3773.674899417482
 31
0.0000000001462626
  0
LINE
  5
15A7
330
1F
100
AcDbEntity
  8
SANINDUSA
100
AcDbLine
 10
1253.432994601219
 20
3773.673131650529
 30
0.0000000001462626
 11
1253.434408814782
 21
3773.674545864091
 31
0.0000000001462626
  0
LINE
  5
15A8
330
1F
100
AcDbEntity
  8
SANINDUSA
100
AcDbLine
 10
1253.453854251264
 20
3773.674899417482
 30
0.0000000001462626
 11
1253.443954756328
 21
3773.664999922545
 31
0.0000000001462626
  0
LINE
  5
15CF
330
1F
100
AcDbEntity
  8
SANINDUSA
100
AcDbLine
 10
1253.666693392401
 20
3773.890052267117
 30
0.0000000001462626
 11
1253.683943392402
 21
3773.890052267117
 31
0.0000000001462626
  0
LINE
  5
15D0
330
1F
100
AcDbEntity
  8
SANINDUSA
100
AcDbLine
 10
1253.666693392401
 20
3773.908052267117
 30
0.0000000001462626
 11
1253.683943392402
 21
3773.908052267117
 31
0.0000000001462626
  0
LINE
  5
15D1
330
1F
100
AcDbEntity
  8
SANINDUSA
100
AcDbLine
 10
1253.664925625449
 20
3773.885970791666
 30
0.0000000001462626
 11
1253.65361191695
 21
3773.897284500165
 31
0.0000000001462626
  0
LINE
  5
15D2
330
1F
100
AcDbEntity
  8
SANINDUSA
100
AcDbLine
 10
1253.664925625449
 20
3773.885970791666
 30
0.0000000001462626
 11
1253.6690071009
 21
3773.890052267117
 31
0.0000000001462626
  0
LINE
  5
15D3
330
1F
100
AcDbEntity
  8
SANINDUSA
100
AcDbLine
 10
1253.65997587798
 20
3773.881021044198
 30
0.0000000001462626
 11
1253.648662169481
 21
3773.892334752697
 31
0.0000000001462626
  0
LINE
  5
15D4
330
1F
100
AcDbEntity
  8
SANINDUSA
100
AcDbLine
 10
1253.65997587798
 20
3773.881021044198
 30
0.0000000001462626
 11
1253.664925625449
 21
3773.885970791666
 31
0.0000000001462626
  0
ARC
  5
15D5
330
1F
100
AcDbEntity
  8
SANINDUSA
100
AcDbCircle
 10
1253.666693392401
 20
3773.899052267117
 30
0.0000000001462626
 40
0.009
100
AcDbArc
 50
90.0
 51
270.0
  0
LINE
  5
15D6
330
1F
100
AcDbEntity
  8
SANINDUSA
100
AcDbLine
 10
1253.65361191695
 20
3773.897284500165
 30
0.0000000001462626
 11
1253.658121062205
 21
3773.90179364542
 31
0.0000000001462626
  0
LINE
  5
15D7
330
1F
100
AcDbEntity
  8
SANINDUSA
100
AcDbLine
 10
1253.648662169481
 20
3773.892334752697
 30
0.0000000001462626
 11
1253.65361191695
 21
3773.897284500165
 31
0.0000000001462626
  0
LINE
  5
15D8
330
1F
100
AcDbEntity
  8
SANINDUSA
100
AcDbLine
 10
1253.665574445584
 20
3773.898413267118
 30
0.0000000001462626
 11
1253.663723392401
 21
3773.898413267118
 31
0.0000000001462626
  0
LINE
  5
15D9
330
1F
100
AcDbEntity
  8
SANINDUSA
100
AcDbLine
 10
1253.663723392401
 20
3773.899691267118
 30
0.0000000001462626
 11
1253.665574445584
 21
3773.899691267118
 31
0.0000000001462626
  0
CIRCLE
  5
15DA
330
1F
100
AcDbEntity
  8
SANINDUSA
100
AcDbCircle
 10
1253.666693392401
 20
3773.899052267117
 30
0.0000000001462626
 40
0.005085
  0
LINE
  5
15DB
330
1F
100
AcDbEntity
  8
SANINDUSA
100
AcDbLine
 10
1253.664593285261
 20
3773.901152374258
 30
0.0000000001462626
 11
1253.666054392402
 21
3773.900171213935
 31
0.0000000001462626
  0
LINE
  5
15DC
330
1F
100
AcDbEntity
  8
SANINDUSA
100
AcDbLine
 10
1253.664593285261
 20
3773.901152374258
 30
0.0000000001462626
 11
1253.666054392402
 21
3773.899691267118
 31
0.0000000001462626
  0
LINE
  5
15DD
330
1F
100
AcDbEntity
  8
SANINDUSA
100
AcDbLine
 10
1253.665574445584
 20
3773.899691267118
 30
0.0000000001462626
 11
1253.664593285261
 21
3773.901152374258
 31
0.0000000001462626
  0
LINE
  5
15DE
330
1F
100
AcDbEntity
  8
SANINDUSA
100
AcDbLine
 10
1253.664593285261
 20
3773.896952159978
 30
0.0000000001462626
 11
1253.665574445584
 21
3773.898413267118
 31
0.0000000001462626
  0
LINE
  5
15DF
330
1F
100
AcDbEntity
  8
SANINDUSA
100
AcDbLine
 10
1253.664593285261
 20
3773.896952159978
 30
0.0000000001462626
 11
1253.666054392402
 21
3773.898413267118
 31
0.0000000001462626
  0
LINE
  5
15E0
330
1F
100
AcDbEntity
  8
SANINDUSA
100
AcDbLine
 10
1253.666054392402
 20
3773.897933320301
 30
0.0000000001462626
 11
1253.664593285261
 21
3773.896952159978
 31
0.0000000001462626
  0
LINE
  5
15E1
330
1F
100
AcDbEntity
  8
SANINDUSA
100
AcDbLine
 10
1253.663723392401
 20
3773.898413267118
 30
0.0000000001462626
 11
1253.663723392401
 21
3773.899691267118
 31
0.0000000001462626
  0
LINE
  5
15E2
330
1F
100
AcDbEntity
  8
SANINDUSA
100
AcDbLine
 10
1253.668793499542
 20
3773.896952159978
 30
0.0000000001462626
 11
1253.667332392401
 21
3773.897933320301
 31
0.0000000001462626
  0
LINE
  5
15E3
330
1F
100
AcDbEntity
  8
SANINDUSA
100
AcDbLine
 10
1253.668793499542
 20
3773.896952159978
 30
0.0000000001462626
 11
1253.667332392401
 21
3773.898413267118
 31
0.0000000001462626
  0
LINE
  5
15E4
330
1F
100
AcDbEntity
  8
SANINDUSA
100
AcDbLine
 10
1253.667332392401
 20
3773.897933320301
 30
0.0000000001462626
 11
1253.667332392401
 21
3773.898413267118
 31
0.0000000001462626
  0
LINE
  5
15E5
330
1F
100
AcDbEntity
  8
SANINDUSA
100
AcDbLine
 10
1253.667812339219
 20
3773.898413267118
 30
0.0000000001462626
 11
1253.668793499542
 21
3773.896952159978
 31
0.0000000001462626
  0
LINE
  5
15E6
330
1F
100
AcDbEntity
  8
SANINDUSA
100
AcDbLine
 10
1253.667332392401
 20
3773.898413267118
 30
0.0000000001462626
 11
1253.667812339219
 21
3773.898413267118
 31
0.0000000001462626
  0
LINE
  5
15E7
330
1F
100
AcDbEntity
  8
SANINDUSA
100
AcDbLine
 10
1253.666054392402
 20
3773.900171213935
 30
0.0000000001462626
 11
1253.666054392402
 21
3773.899691267118
 31
0.0000000001462626
  0
LINE
  5
15E8
330
1F
100
AcDbEntity
  8
SANINDUSA
100
AcDbLine
 10
1253.666054392402
 20
3773.899691267118
 30
0.0000000001462626
 11
1253.665574445584
 21
3773.899691267118
 31
0.0000000001462626
  0
LINE
  5
15E9
330
1F
100
AcDbEntity
  8
SANINDUSA
100
AcDbLine
 10
1253.668793499542
 20
3773.901152374258
 30
0.0000000001462626
 11
1253.667812339219
 21
3773.899691267118
 31
0.0000000001462626
  0
LINE
  5
15EA
330
1F
100
AcDbEntity
  8
SANINDUSA
100
AcDbLine
 10
1253.668793499542
 20
3773.901152374258
 30
0.0000000001462626
 11
1253.667332392401
 21
3773.899691267118
 31
0.0000000001462626
  0
LINE
  5
15EB
330
1F
100
AcDbEntity
  8
SANINDUSA
100
AcDbLine
 10
1253.667812339219
 20
3773.899691267118
 30
0.0000000001462626
 11
1253.667332392401
 21
3773.899691267118
 31
0.0000000001462626
  0
LINE
  5
15EC
330
1F
100
AcDbEntity
  8
SANINDUSA
100
AcDbLine
 10
1253.667332392401
 20
3773.900171213935
 30
0.0000000001462626
 11
1253.668793499542
 21
3773.901152374258
 31
0.0000000001462626
  0
LINE
  5
15ED
330
1F
100
AcDbEntity
  8
SANINDUSA
100
AcDbLine
 10
1253.667332392401
 20
3773.899691267118
 30
0.0000000001462626
 11
1253.667332392401
 21
3773.900171213935
 31
0.0000000001462626
  0
LINE
  5
15EE
330
1F
100
AcDbEntity
  8
SANINDUSA
100
AcDbLine
 10
1253.665574445584
 20
3773.898413267118
 30
0.0000000001462626
 11
1253.666054392402
 21
3773.898413267118
 31
0.0000000001462626
  0
LINE
  5
15EF
330
1F
100
AcDbEntity
  8
SANINDUSA
100
AcDbLine
 10
1253.666054392402
 20
3773.898413267118
 30
0.0000000001462626
 11
1253.666054392402
 21
3773.897933320301
 31
0.0000000001462626
  0
LINE
  5
15F0
330
1F
100
AcDbEntity
  8
SANINDUSA
100
AcDbLine
 10
1253.667332392401
 20
3773.897933320301
 30
0.0000000001462626
 11
1253.667332392401
 21
3773.896082267118
 31
0.0000000001462626
  0
LINE
  5
15F1
330
1F
100
AcDbEntity
  8
SANINDUSA
100
AcDbLine
 10
1253.666054392402
 20
3773.900171213935
 30
0.0000000001462626
 11
1253.666054392402
 21
3773.902022267118
 31
0.0000000001462626
  0
LINE
  5
15F2
330
1F
100
AcDbEntity
  8
SANINDUSA
100
AcDbLine
 10
1253.667812339219
 20
3773.899691267118
 30
0.0000000001462626
 11
1253.669663392402
 21
3773.899691267118
 31
0.0000000001462626
  0
LINE
  5
15F3
330
1F
100
AcDbEntity
  8
SANINDUSA
100
AcDbLine
 10
1253.667332392401
 20
3773.899691267118
 30
0.0000000001462626
 11
1253.667332392401
 21
3773.898413267118
 31
0.0000000001462626
  0
LINE
  5
15F4
330
1F
100
AcDbEntity
  8
SANINDUSA
100
AcDbLine
 10
1253.667332392401
 20
3773.902022267118
 30
0.0000000001462626
 11
1253.667332392401
 21
3773.900171213935
 31
0.0000000001462626
  0
LINE
  5
15F5
330
1F
100
AcDbEntity
  8
SANINDUSA
100
AcDbLine
 10
1253.666054392402
 20
3773.898413267118
 30
0.0000000001462626
 11
1253.666054392402
 21
3773.899691267118
 31
0.0000000001462626
  0
LINE
  5
15F6
330
1F
100
AcDbEntity
  8
SANINDUSA
100
AcDbLine
 10
1253.666054392402
 20
3773.896082267118
 30
0.0000000001462626
 11
1253.666054392402
 21
3773.897933320301
 31
0.0000000001462626
  0
LINE
  5
15F7
330
1F
100
AcDbEntity
  8
SANINDUSA
100
AcDbLine
 10
1253.666693392401
 20
3773.899052267117
 30
0.0000000001462626
 11
1253.667332392401
 21
3773.899691267118
 31
0.0000000001462626
  0
LINE
  5
15F8
330
1F
100
AcDbEntity
  8
SANINDUSA
100
AcDbLine
 10
1253.667332392401
 20
3773.899052267117
 30
0.0000000001462626
 11
1253.666693392401
 21
3773.899052267117
 31
0.0000000001462626
  0
LINE
  5
15F9
330
1F
100
AcDbEntity
  8
SANINDUSA
100
AcDbLine
 10
1253.666054392402
 20
3773.902022267118
 30
0.0000000001462626
 11
1253.667332392401
 21
3773.902022267118
 31
0.0000000001462626
  0
LINE
  5
15FA
330
1F
100
AcDbEntity
  8
SANINDUSA
100
AcDbLine
 10
1253.667332392401
 20
3773.899691267118
 30
0.0000000001462626
 11
1253.666054392402
 21
3773.899691267118
 31
0.0000000001462626
  0
LINE
  5
15FB
330
1F
100
AcDbEntity
  8
SANINDUSA
100
AcDbLine
 10
1253.666054392402
 20
3773.899691267118
 30
0.0000000001462626
 11
1253.666693392401
 21
3773.899052267117
 31
0.0000000001462626
  0
LINE
  5
15FC
330
1F
100
AcDbEntity
  8
SANINDUSA
100
AcDbLine
 10
1253.666693392401
 20
3773.899052267117
 30
0.0000000001462626
 11
1253.666054392402
 21
3773.899052267117
 31
0.0000000001462626
  0
LINE
  5
15FD
330
1F
100
AcDbEntity
  8
SANINDUSA
100
AcDbLine
 10
1253.667332392401
 20
3773.898413267118
 30
0.0000000001462626
 11
1253.666693392401
 21
3773.899052267117
 31
0.0000000001462626
  0
LINE
  5
15FE
330
1F
100
AcDbEntity
  8
SANINDUSA
100
AcDbLine
 10
1253.666693392401
 20
3773.899052267117
 30
0.0000000001462626
 11
1253.666054392402
 21
3773.898413267118
 31
0.0000000001462626
  0
LINE
  5
15FF
330
1F
100
AcDbEntity
  8
SANINDUSA
100
AcDbLine
 10
1253.667332392401
 20
3773.896082267118
 30
0.0000000001462626
 11
1253.666054392402
 21
3773.896082267118
 31
0.0000000001462626
  0
LINE
  5
1600
330
1F
100
AcDbEntity
  8
SANINDUSA
100
AcDbLine
 10
1253.666054392402
 20
3773.898413267118
 30
0.0000000001462626
 11
1253.667332392401
 21
3773.898413267118
 31
0.0000000001462626
  0
LINE
  5
1601
330
1F
100
AcDbEntity
  8
SANINDUSA
100
AcDbLine
 10
1253.666693392401
 20
3773.899052267117
 30
0.0000000001462626
 11
1253.666693392401
 21
3773.898413267118
 31
0.0000000001462626
  0
LINE
  5
1602
330
1F
100
AcDbEntity
  8
SANINDUSA
100
AcDbLine
 10
1253.666693392401
 20
3773.899691267118
 30
0.0000000001462626
 11
1253.666693392401
 21
3773.899052267117
 31
0.0000000001462626
  0
LINE
  5
1603
330
1F
100
AcDbEntity
  8
SANINDUSA
100
AcDbLine
 10
1253.669663392402
 20
3773.898413267118
 30
0.0000000001462626
 11
1253.667812339219
 21
3773.898413267118
 31
0.0000000001462626
  0
LINE
  5
1604
330
1F
100
AcDbEntity
  8
SANINDUSA
100
AcDbLine
 10
1253.669663392402
 20
3773.899691267118
 30
0.0000000001462626
 11
1253.669663392402
 21
3773.898413267118
 31
0.0000000001462626
  0
LINE
  5
1605
330
1F
100
AcDbEntity
  8
SANINDUSA
100
AcDbLine
 10
1253.685943392401
 20
3773.884052267117
 30
0.0000000001462626
 11
1253.688943392402
 21
3773.884052267117
 31
0.0000000001462626
  0
ARC
  5
1606
330
1F
100
AcDbEntity
  8
SANINDUSA
100
AcDbCircle
 10
1253.685943392401
 20
3773.886052267118
 30
0.0000000001462626
 40
0.002
100
AcDbArc
 50
180.0
 51
270.0
  0
LINE
  5
1607
330
1F
100
AcDbEntity
  8
SANINDUSA
  6
Continuous
100
AcDbLine
 10
1254.579533814086
 20
3773.112894811804
 30
0.0
 11
1254.579533814086
 21
3774.324894811794
 31
0.0
  0
LINE
  5
1608
330
1F
100
AcDbEntity
  8
SANINDUSA
  6
Continuous
100
AcDbLine
 10
1254.582533814086
 20
3773.112894811804
 30
0.0
 11
1254.582533814086
 21
3774.324894811794
 31
0.0
  0
LINE
  5
1609
330
1F
100
AcDbEntity
  8
SANINDUSA
  6
Continuous
100
AcDbLine
 10
1255.061371402213
 20
3772.793894811803
 30
0.0
 11
1255.061371402213
 21
3774.643894811803
 31
0.0
  0
LINE
  5
160A
330
1F
100
AcDbEntity
  8
SANINDUSA
  6
Continuous
100
AcDbLine
 10
1255.116221402213
 20
3772.793894811803
 30
0.0
 11
1255.116221402213
 21
3774.643894811803
 31
0.0
  0
ARC
  5
172B
330
1F
100
AcDbEntity
  8
SANINDUSA
100
AcDbCircle
 10
1253.685943392401
 20
3773.912052267117
 30
0.0000000001462626
 40
0.002
100
AcDbArc
 50
90.0
 51
180.0
  0
LINE
  5
172C
330
1F
100
AcDbEntity
  8
SANINDUSA
100
AcDbLine
 10
1253.688943392402
 20
3773.914052267118
 30
0.0000000001462626
 11
1253.685943392401
 21
3773.914052267118
 31
0.0000000001462626
  0
LINE
  5
1732
330
1F
100
AcDbEntity
  8
SANINDUSA
  6
Continuous
100
AcDbLine
 10
1254.582533814086
 20
3772.793894811803
 30
0.0
 11
1254.582533814086
 21
3773.064894811803
 31
0.0
  0
LINE
  5
1733
330
1F
100
AcDbEntity
  8
SANINDUSA
  6
Continuous
100
AcDbLine
 10
1254.579533814086
 20
3772.803894811803
 30
0.0
 11
1254.579533814086
 21
3773.064894811803
 31
0.0
  0
LINE
  5
1735
330
1F
100
AcDbEntity
  8
SANINDUSA
  6
Continuous
100
AcDbLine
 10
1255.116221402213
 20
3774.643894811803
 30
0.0
 11
1254.582533814086
 21
3774.643894811803
 31
0.0
  0
LINE
  5
1736
330
1F
100
AcDbEntity
  8
SANINDUSA
  6
Continuous
100
AcDbLine
 10
1254.582533814086
 20
3774.372894811794
 30
0.0
 11
1254.582533814086
 21
3774.643894811803
 31
0.0
  0
LINE
  5
1737
330
1F
100
AcDbEntity
  8
SANINDUSA
  6
Continuous
100
AcDbLine
 10
1254.579533814086
 20
3774.372894811794
 30
0.0
 11
1254.579533814086
 21
3774.643894811803
 31
0.0
  0
ARC
  5
18A4
330
1F
100
AcDbEntity
  8
SANINDUSA
100
AcDbCircle
 10
1252.488104180918
 20
3773.636318194562
 30
0.0
 40
0.0009999999999999
100
AcDbArc
 50
90.0
 51
180.0
  0
LINE
  5
18A5
330
1F
100
AcDbEntity
  8
SANINDUSA
100
AcDbLine
 10
1252.487104180918
 20
3773.635332408124
 30
0.0
 11
1252.487104180918
 21
3773.636318194562
 31
0.0
  0
LINE
  5
18A6
330
1F
100
AcDbEntity
  8
SANINDUSA
100
AcDbLine
 10
1252.488104180918
 20
3773.637318194561
 30
0.0
 11
1252.52312748505
 21
3773.637318194561
 31
0.0
  0
ARC
  5
18A7
330
1F
100
AcDbEntity
  8
SANINDUSA
100
AcDbCircle
 10
1252.488104180918
 20
3773.635332408124
 30
0.0
 40
0.0010000000000003
100
AcDbArc
 50
180.0
 51
225.0
  0
ARC
  5
18A8
330
1F
100
AcDbEntity
  8
SANINDUSA
100
AcDbCircle
 10
1252.52312748505
 20
3773.636318194562
 30
0.0
 40
0.001
100
AcDbArc
 50
270.0
 51
90.0
  0
LINE
  5
18A9
330
1F
100
AcDbEntity
  8
SANINDUSA
100
AcDbLine
 10
1252.488311287699
 20
3773.63371108778
 30
0.0
 11
1252.487397074137
 21
3773.634625301343
 31
0.0
  0
LINE
  5
18AA
330
1F
100
AcDbEntity
  8
SANINDUSA
100
AcDbLine
 10
1252.52312748505
 20
3773.635318194561
 30
0.0
 11
1252.491604180918
 21
3773.635318194561
 31
0.0
  0
ARC
  5
18AB
330
1F
100
AcDbEntity
  8
SANINDUSA
100
AcDbCircle
 10
1252.487604180918
 20
3773.633003980999
 30
0.0
 40
0.0010000000000003
100
AcDbArc
 50
0.0
 51
45.0
  0
ARC
  5
18AC
330
1F
100
AcDbEntity
  8
SANINDUSA
100
AcDbCircle
 10
1252.491604180918
 20
3773.634318194562
 30
0.0
 40
0.001
100
AcDbArc
 50
90.0
 51
180.0
  0
LINE
  5
18AD
330
1F
100
AcDbEntity
  8
SANINDUSA
100
AcDbLine
 10
1252.488604180918
 20
3773.629628854733
 30
0.0
 11
1252.488604180918
 21
3773.633003980999
 31
0.0
  0
LINE
  5
18AE
330
1F
100
AcDbEntity
  8
SANINDUSA
100
AcDbLine
 10
1252.490604180918
 20
3773.634318194562
 30
0.0
 11
1252.490604180918
 21
3773.616459008284
 31
0.0
  0
ARC
  5
18AF
330
1F
100
AcDbEntity
  8
SANINDUSA
100
AcDbCircle
 10
1252.488854180918
 20
3773.629628854733
 30
0.0
 40
0.0002500000000003
100
AcDbArc
 50
180.0
 51
225.0
  0
ARC
  5
18B0
330
1F
100
AcDbEntity
  8
SANINDUSA
100
AcDbCircle
 10
1252.491604180918
 20
3773.616459008284
 30
0.0
 40
0.001
100
AcDbArc
 50
180.0
 51
272.149457928144
  0
LINE
  5
18B1
330
1F
100
AcDbEntity
  8
SANINDUSA
100
AcDbLine
 10
1252.489157734308
 20
3773.628971747952
 30
0.0
 11
1252.488677404223
 21
3773.629452078038
 31
0.0
  0
ARC
  5
18B2
330
1F
100
AcDbEntity
  8
SANINDUSA
100
AcDbCircle
 10
1252.48801407248
 20
3773.712111754206
 30
0.0
 40
0.0967200954923435
100
AcDbArc
 50
272.149457928144
 51
285.5601696455738
  0
ARC
  5
18B3
330
1F
100
AcDbEntity
  8
SANINDUSA
100
AcDbCircle
 10
1252.488804180918
 20
3773.628618194561
 30
0.0
 40
0.0005
100
AcDbArc
 50
315.0
 51
45.0
  0
ARC
  5
18B4
330
1F
100
AcDbEntity
  8
SANINDUSA
100
AcDbCircle
 10
1252.513825131677
 20
3773.619418194562
 30
0.0
 40
0.0005
100
AcDbArc
 50
285.5601696455738
 51
90.0
  0
LINE
  5
18B5
330
1F
100
AcDbEntity
  8
SANINDUSA
100
AcDbLine
 10
1252.488677404223
 20
3773.627784311085
 30
0.0
 11
1252.489157734308
 21
3773.628264641171
 31
0.0
  0
LINE
  5
18B6
330
1F
100
AcDbEntity
  8
SANINDUSA
100
AcDbLine
 10
1252.513825131677
 20
3773.619918194562
 30
0.0
 11
1252.50112748505
 21
3773.619918194562
 31
0.0
  0
ARC
  5
18B7
330
1F
100
AcDbEntity
  8
SANINDUSA
100
AcDbCircle
 10
1252.488854180918
 20
3773.62760753439
 30
0.0
 40
0.00025
100
AcDbArc
 50
135.0
 51
180.0
  0
ARC
  5
18B8
330
1F
100
AcDbEntity
  8
SANINDUSA
100
AcDbCircle
 10
1252.50112748505
 20
3773.620918194561
 30
0.0
 40
0.001
100
AcDbArc
 50
90.0
 51
270.0
  0
LINE
  5
18B9
330
1F
100
AcDbEntity
  8
SANINDUSA
100
AcDbLine
 10
1252.488604180918
 20
3773.6174181709
 30
0.0
 11
1252.488604180918
 21
3773.62760753439
 31
0.0
  0
LINE
  5
18BA
330
1F
100
AcDbEntity
  8
SANINDUSA
100
AcDbLine
 10
1252.50112748505
 20
3773.621918194562
 30
0.0
 11
1252.52312748505
 21
3773.621918194562
 31
0.0
  0
ARC
  5
18BB
330
1F
100
AcDbEntity
  8
SANINDUSA
100
AcDbCircle
 10
1252.487604180918
 20
3773.6174181709
 30
0.0
 40
0.0010000000000003
100
AcDbArc
 50
314.9106959474017
 51
0.0
  0
ARC
  5
18BC
330
1F
100
AcDbEntity
  8
SANINDUSA
100
AcDbCircle
 10
1252.52312748505
 20
3773.620918194561
 30
0.0
 40
0.001
100
AcDbArc
 50
291.0588352469903
 51
90.0
  0
LINE
  5
18BD
330
1F
100
AcDbEntity
  8
SANINDUSA
100
AcDbLine
 10
1252.487403745598
 20
3773.615806344982
 30
0.0
 11
1252.488310184709
 21
3773.616709962846
 31
0.0
  0
ARC
  5
18BE
330
1F
100
AcDbEntity
  8
SANINDUSA
100
AcDbCircle
 10
1252.48801407248
 20
3773.712111754206
 30
0.0
 40
0.0987200954923432
100
AcDbArc
 50
270.0522365954108
 51
291.0588352469903
  0
ARC
  5
18BF
330
1F
100
AcDbEntity
  8
SANINDUSA
100
AcDbCircle
 10
1252.488109749389
 20
3773.615098136929
 30
0.0
 40
0.0010000000000003
100
AcDbArc
 50
134.9106959474017
 51
179.4659008828148
  0
ARC
  5
18C0
330
1F
100
AcDbEntity
  8
SANINDUSA
100
AcDbCircle
 10
1252.488103163936
 20
3773.614391699326
 30
0.0
 40
0.001
100
AcDbArc
 50
179.4659008828148
 51
270.0522365954108
  0
LINE
  5
18C1
330
1F
100
AcDbEntity
  8
SANINDUSA
100
AcDbLine
 10
1252.487103207384
 20
3773.614401020979
 30
0.0
 11
1252.487109792836
 21
3773.615107458581
 31
0.0
  0
ARC
  5
18C2
330
1F
100
AcDbEntity
  8
SANINDUSA
100
AcDbCircle
 10
1252.530253534673
 20
3773.624618194561
 30
0.0000000001555553
 40
0.0019999999999991
100
AcDbArc
 50
270.0
 51
315.0000000644831
  0
LINE
  5
18C3
330
1F
100
AcDbEntity
  8
SANINDUSA
100
AcDbLine
 10
1252.531667748237
 20
3773.623203981001
 30
0.0000000001555553
 11
1252.540015239421
 21
3773.631551472185
 31
0.0000000001555553
  0
ARC
  5
18C4
330
1F
100
AcDbEntity
  8
SANINDUSA
100
AcDbCircle
 10
1252.538601025857
 20
3773.632965685746
 30
0.0000000001555553
 40
0.002
100
AcDbArc
 50
315.0000000644831
 51
45.00000037768669
  0
LINE
  5
18C5
330
1F
100
AcDbEntity
  8
SANINDUSA
100
AcDbLine
 10
1252.540015239411
 20
3773.634379899318
 30
0.0000000001555553
 11
1252.537662730585
 21
3773.636732408128
 31
0.0000000001555553
  0
ARC
  5
18C6
330
1F
100
AcDbEntity
  8
SANINDUSA
100
AcDbCircle
 10
1252.536248517027
 20
3773.635318194561
 30
0.0000000001555553
 40
0.002
100
AcDbArc
 50
45.0000001842374
 51
90.0
  0
LINE
  5
18C7
330
1F
100
AcDbEntity
  8
SANINDUSA
100
AcDbLine
 10
1252.536248517027
 20
3773.637318194561
 30
0.0000000001555553
 11
1252.530827485049
 21
3773.637318194561
 31
0.0000000001555553
  0
ARC
  5
18C8
330
1F
100
AcDbEntity
  8
SANINDUSA
100
AcDbCircle
 10
1252.530827485049
 20
3773.636318194562
 30
0.0000000001555553
 40
0.001
100
AcDbArc
 50
90.0
 51
180.0
  0
ARC
  5
18C9
330
1F
100
AcDbEntity
  8
SANINDUSA
100
AcDbCircle
 10
1252.52812748505
 20
3773.636318194562
 30
0.0000000001555553
 40
0.0016999999999989
100
AcDbArc
 50
270.0
 51
0.0
  0
LINE
  5
18CA
330
1F
100
AcDbEntity
  8
SANINDUSA
100
AcDbLine
 10
1252.52812748505
 20
3773.634618194562
 30
0.0000000001555553
 11
1252.497404180918
 21
3773.634618194562
 31
0.0000000001555553
  0
ARC
  5
18CB
330
1F
100
AcDbEntity
  8
SANINDUSA
100
AcDbCircle
 10
1252.497404180918
 20
3773.633318194561
 30
0.0000000001555553
 40
0.0013000000000006
100
AcDbArc
 50
90.0
 51
180.0
  0
LINE
  5
18CC
330
1F
100
AcDbEntity
  8
SANINDUSA
100
AcDbLine
 10
1252.496104180918
 20
3773.633318194561
 30
0.0000000001555553
 11
1252.496104180918
 21
3773.623918194561
 31
0.0000000001555553
  0
ARC
  5
18CD
330
1F
100
AcDbEntity
  8
SANINDUSA
100
AcDbCircle
 10
1252.497404180918
 20
3773.623918194561
 30
0.0000000001555553
 40
0.0013000000000006
100
AcDbArc
 50
180.0
 51
270.0
  0
LINE
  5
18CE
330
1F
100
AcDbEntity
  8
SANINDUSA
100
AcDbLine
 10
1252.497404180918
 20
3773.622618194561
 30
0.0000000001555553
 11
1252.530253534673
 21
3773.622618194561
 31
0.0000000001555553
  0
ARC
  5
18CF
330
1F
100
AcDbEntity
  8
SANINDUSA
100
AcDbCircle
 10
1252.531112447361
 20
3773.636018194562
 30
0.0000000001555553
 40
0.0002999999999992
100
AcDbArc
 50
90.0
 51
174.2608295107342
  0
ARC
  5
18D0
330
1F
100
AcDbEntity
  8
SANINDUSA
100
AcDbCircle
 10
1252.531112447361
 20
3773.636018194562
 30
0.0000000001555553
 40
0.0002999999999988
100
AcDbArc
 50
90.0
 51
174.2608295107342
  0
ARC
  5
18D1
330
1F
100
AcDbEntity
  8
SANINDUSA
100
AcDbCircle
 10
1252.52812748505
 20
3773.636318194562
 30
0.0000000001555553
 40
0.0027000000000011
100
AcDbArc
 50
270.0
 51
354.2608295107342
  0
LINE
  5
18D2
330
1F
100
AcDbEntity
  8
SANINDUSA
100
AcDbLine
 10
1252.52812748505
 20
3773.633618194561
 30
0.0000000001555553
 11
1252.497404180918
 21
3773.633618194561
 31
0.0000000001555553
  0
ARC
  5
18D3
330
1F
100
AcDbEntity
  8
SANINDUSA
100
AcDbCircle
 10
1252.497404180918
 20
3773.633318194561
 30
0.0000000001555553
 40
0.0003000000000006
100
AcDbArc
 50
90.0
 51
180.0
  0
LINE
  5
18D4
330
1F
100
AcDbEntity
  8
SANINDUSA
100
AcDbLine
 10
1252.497104180918
 20
3773.633318194561
 30
0.0000000001555553
 11
1252.497104180918
 21
3773.623918194561
 31
0.0000000001555553
  0
ARC
  5
18D5
330
1F
100
AcDbEntity
  8
SANINDUSA
100
AcDbCircle
 10
1252.497404180918
 20
3773.623918194561
 30
0.0000000001555553
 40
0.0003
100
AcDbArc
 50
180.0
 51
270.0
  0
LINE
  5
18D6
330
1F
100
AcDbEntity
  8
SANINDUSA
100
AcDbLine
 10
1252.497404180918
 20
3773.623618194561
 30
0.0000000001555553
 11
1252.530460641455
 21
3773.623618194561
 31
0.0000000001555553
  0
ARC
  5
18D7
330
1F
100
AcDbEntity
  8
SANINDUSA
100
AcDbCircle
 10
1252.530460641455
 20
3773.624118194561
 30
0.0000000001555553
 40
0.0005000000000005
100
AcDbArc
 50
270.0
 51
315.000000073695
  0
LINE
  5
18D8
330
1F
100
AcDbEntity
  8
SANINDUSA
100
AcDbLine
 10
1252.530814194846
 20
3773.623764641171
 30
0.0000000001555553
 11
1252.5335805677
 21
3773.626531014032
 31
0.0000000001555553
  0
ARC
  5
18D9
330
1F
100
AcDbEntity
  8
SANINDUSA
100
AcDbCircle
 10
1252.53322701431
 20
3773.62688456742
 30
0.0000000001555553
 40
0.0004999999977741
100
AcDbArc
 50
315.0000001105424
 51
44.99999954861835
  0
LINE
  5
18DA
330
1F
100
AcDbEntity
  8
SANINDUSA
100
AcDbLine
 10
1252.533580567702
 20
3773.627238120806
 30
0.0000000001555553
 11
1252.532166354147
 21
3773.628652334389
 31
0.0000000001555553
  0
ARC
  5
18DB
330
1F
100
AcDbEntity
  8
SANINDUSA
100
AcDbCircle
 10
1252.533227014318
 20
3773.629712994561
 30
0.0000000001555553
 40
0.0014999999999998
100
AcDbArc
 50
135.0
 51
225.0000000460593
  0
LINE
  5
18DC
330
1F
100
AcDbEntity
  8
SANINDUSA
100
AcDbLine
 10
1252.532166354146
 20
3773.630773654733
 30
0.0000000001555553
 11
1252.533152987361
 21
3773.631760287935
 31
0.0000000001555553
  0
ARC
  5
18DD
330
1F
100
AcDbEntity
  8
SANINDUSA
100
AcDbCircle
 10
1252.533506540752
 20
3773.631406734545
 30
0.0000000001555553
 40
0.0005000000000001
100
AcDbArc
 50
315.0
 51
135.0
  0
LINE
  5
18DE
330
1F
100
AcDbEntity
  8
SANINDUSA
100
AcDbLine
 10
1252.533860094143
 20
3773.631053181154
 30
0.0000000001555553
 11
1252.532873460927
 21
3773.630066547938
 31
0.0000000001555553
  0
ARC
  5
18DF
330
1F
100
AcDbEntity
  8
SANINDUSA
100
AcDbCircle
 10
1252.533227014318
 20
3773.629712994548
 30
0.0000000001555553
 40
0.000499999999999
100
AcDbArc
 50
135.0
 51
225.0000000368475
  0
LINE
  5
18E0
330
1F
100
AcDbEntity
  8
SANINDUSA
100
AcDbLine
 10
1252.532873460928
 20
3773.629359441157
 30
0.0000000001555553
 11
1252.533509857031
 21
3773.628723045055
 31
0.0000000001555553
  0
ARC
  5
18E1
330
1F
100
AcDbEntity
  8
SANINDUSA
100
AcDbCircle
 10
1252.533863410421
 20
3773.629076598446
 30
0.0000000001555553
 40
0.0005000000000232
100
AcDbArc
 50
225.0000000368475
 51
315.0
  0
LINE
  5
18E2
330
1F
100
AcDbEntity
  8
SANINDUSA
100
AcDbLine
 10
1252.534216963812
 20
3773.628723045055
 30
0.0000000001555553
 11
1252.534499806527
 21
3773.629005887769
 31
0.0000000001555553
  0
ARC
  5
18E3
330
1F
100
AcDbEntity
  8
SANINDUSA
100
AcDbCircle
 10
1252.534641227883
 20
3773.628864466413
 30
0.0000000001555553
 40
0.0002
100
AcDbArc
 50
45.0
 51
135.0
  0
LINE
  5
18E4
330
1F
100
AcDbEntity
  8
SANINDUSA
100
AcDbLine
 10
1252.534782649239
 20
3773.629005887769
 30
0.0000000001555553
 11
1252.535206913307
 21
3773.628581623701
 31
0.0000000001555553
  0
ARC
  5
18E5
330
1F
100
AcDbEntity
  8
SANINDUSA
100
AcDbCircle
 10
1252.535560466698
 20
3773.628935177092
 30
0.0000000001555553
 40
0.0005000000000001
100
AcDbArc
 50
225.0
 51
315.0
  0
LINE
  5
18E6
330
1F
100
AcDbEntity
  8
SANINDUSA
100
AcDbLine
 10
1252.535914020089
 20
3773.628581623701
 30
0.0000000001555553
 11
1252.539025289926
 21
3773.631692893538
 31
0.0000000001555553
  0
ARC
  5
18E7
330
1F
100
AcDbEntity
  8
SANINDUSA
100
AcDbCircle
 10
1252.538671736536
 20
3773.632046446929
 30
0.0000000001555553
 40
0.0004999999999996
100
AcDbArc
 50
315.0
 51
45.0
  0
LINE
  5
18E8
330
1F
100
AcDbEntity
  8
SANINDUSA
100
AcDbLine
 10
1252.539025289926
 20
3773.63240000032
 30
0.0000000001555553
 11
1252.538601025857
 21
3773.632824264387
 31
0.0000000001555553
  0
ARC
  5
18E9
330
1F
100
AcDbEntity
  8
SANINDUSA
100
AcDbCircle
 10
1252.538742447214
 20
3773.632965685743
 30
0.0000000001555553
 40
0.0002000000000006
100
AcDbArc
 50
134.9999998802456
 51
225.0
  0
LINE
  5
18EA
330
1F
100
AcDbEntity
  8
SANINDUSA
100
AcDbLine
 10
1252.538601025858
 20
3773.633107107099
 30
0.0000000001555553
 11
1252.53888386857
 21
3773.633389949812
 31
0.0000000001555553
  0
ARC
  5
18EB
330
1F
100
AcDbEntity
  8
SANINDUSA
100
AcDbCircle
 10
1252.538530315179
 20
3773.633743503203
 30
0.0000000001555553
 40
0.0005000000000002
100
AcDbArc
 50
315.0
 51
44.99999978812698
  0
LINE
  5
18EC
330
1F
100
AcDbEntity
  8
SANINDUSA
100
AcDbLine
 10
1252.538883868571
 20
3773.634097056592
 30
0.0000000001555553
 11
1252.538247472471
 21
3773.634733452698
 31
0.0000000001555553
  0
ARC
  5
18ED
330
1F
100
AcDbEntity
  8
SANINDUSA
100
AcDbCircle
 10
1252.537893919081
 20
3773.634379899307
 30
0.0000000001555553
 40
0.0005000000000001
100
AcDbArc
 50
45.0
 51
135.0
  0
LINE
  5
18EE
330
1F
100
AcDbEntity
  8
SANINDUSA
100
AcDbLine
 10
1252.53754036569
 20
3773.634733452698
 30
0.0000000001555553
 11
1252.53655415603
 21
3773.633747243037
 31
0.0000000001555553
  0
ARC
  5
18EF
330
1F
100
AcDbEntity
  8
SANINDUSA
100
AcDbCircle
 10
1252.53620060264
 20
3773.634100796428
 30
0.0000000001555553
 40
0.0004999999999994
100
AcDbArc
 50
135.0
 51
315.0
  0
LINE
  5
18F0
330
1F
100
AcDbEntity
  8
SANINDUSA
100
AcDbLine
 10
1252.535847049249
 20
3773.634454349819
 30
0.0000000001555553
 11
1252.536857340601
 21
3773.63546464117
 31
0.0000000001555553
  0
ARC
  5
18F1
330
1F
100
AcDbEntity
  8
SANINDUSA
100
AcDbCircle
 10
1252.536503787211
 20
3773.635818194561
 30
0.0000000001555553
 40
0.0004999999999999
100
AcDbArc
 50
315.0
 51
90.0
  0
LINE
  5
18F2
330
1F
100
AcDbEntity
  8
SANINDUSA
100
AcDbLine
 10
1252.536503787211
 20
3773.636318194562
 30
0.0000000001555553
 11
1252.531112447361
 21
3773.636318194562
 31
0.0000000001555553
  0
LINE
  5
18F3
330
1F
100
AcDbEntity
  8
SANINDUSA
100
AcDbLine
 10
1252.538634243257
 20
3773.633922417838
 30
0.0000000001555553
 11
1252.537927136476
 21
3773.634629524619
 31
0.0000000001555553
  0
LINE
  5
18F4
330
1F
100
AcDbEntity
  8
SANINDUSA
100
AcDbLine
 10
1252.537927136476
 20
3773.634629524619
 30
0.0000000001555553
 11
1252.532977389008
 21
3773.629679777151
 31
0.0000000001555553
  0
LINE
  5
18F5
330
1F
100
AcDbEntity
  8
SANINDUSA
100
AcDbLine
 10
1252.537927136476
 20
3773.633215311058
 30
0.0000000001555553
 11
1252.538634243257
 21
3773.633922417838
 31
0.0000000001555553
  0
LINE
  5
18F6
330
1F
100
AcDbEntity
  8
SANINDUSA
100
AcDbLine
 10
1252.532977389008
 20
3773.629679777151
 30
0.0000000001555553
 11
1252.533684495789
 21
3773.62897267037
 31
0.0000000001555553
  0
LINE
  5
18F7
330
1F
100
AcDbEntity
  8
SANINDUSA
100
AcDbLine
 10
1252.538987796648
 20
3773.632154650885
 30
0.0000000001555553
 11
1252.537927136476
 21
3773.633215311058
 31
0.0000000001555553
  0
LINE
  5
18F8
330
1F
100
AcDbEntity
  8
SANINDUSA
100
AcDbLine
 10
1252.533684495789
 20
3773.62897267037
 30
0.0000000001555553
 11
1252.53439160257
 21
3773.629679777151
 31
0.0000000001555553
  0
LINE
  5
18F9
330
1F
100
AcDbEntity
  8
SANINDUSA
100
AcDbLine
 10
1252.535452262742
 20
3773.62861911698
 30
0.0000000001555553
 11
1252.538987796648
 21
3773.632154650885
 31
0.0000000001555553
  0
LINE
  5
18FA
330
1F
100
AcDbEntity
  8
SANINDUSA
100
AcDbLine
 10
1252.53439160257
 20
3773.629679777151
 30
0.0000000001555553
 11
1252.535452262742
 21
3773.62861911698
 31
0.0000000001555553
  0
LINE
  5
18FB
330
1F
100
AcDbEntity
  8
SANINDUSA
100
AcDbLine
 10
1252.560713336459
 20
3773.631797510785
 30
0.0000000001555553
 11
1252.560713336459
 21
3773.631318198371
 31
0.0000000001555553
  0
LINE
  5
18FC
330
1F
100
AcDbEntity
  8
SANINDUSA
100
AcDbLine
 10
1252.558213336459
 20
3773.631748673379
 30
0.0000000001555553
 11
1252.558154112728
 21
3773.631353081987
 31
0.0000000001555553
  0
ARC
  5
18FD
330
1F
100
AcDbEntity
  8
SANINDUSA
100
AcDbCircle
 10
1252.559913336459
 20
3773.631797510785
 30
0.0000000001555553
 40
0.0008
100
AcDbArc
 50
0.0
 51
81.48552156698563
  0
ARC
  5
18FE
330
1F
100
AcDbEntity
  8
SANINDUSA
100
AcDbCircle
 10
1252.557467146362
 20
3773.630141439625
 30
0.0000000001555553
 40
0.0002
100
AcDbArc
 50
171.4855215521728
 51
351.4855215521728
  0
LINE
  5
18FF
330
1F
100
AcDbEntity
  8
SANINDUSA
100
AcDbLine
 10
1252.56036891866
 20
3773.626214891915
 30
0.0000000001555553
 11
1252.558154112728
 21
3773.625883314756
 31
0.0000000001555553
  0
ARC
  5
1900
330
1F
100
AcDbEntity
  8
SANINDUSA
100
AcDbCircle
 10
1252.557467146362
 20
3773.627094957117
 30
0.0000000001555553
 40
0.0002
100
AcDbArc
 50
8.514478447827192
 51
188.5144784478272
  0
LINE
  5
1901
330
1F
100
AcDbEntity
  8
SANINDUSA
100
AcDbLine
 10
1252.558213336459
 20
3773.625487723363
 30
0.0000000001555553
 11
1252.558154112728
 21
3773.625883314756
 31
0.0000000001555553
  0
ARC
  5
1902
330
1F
100
AcDbEntity
  8
SANINDUSA
100
AcDbCircle
 10
1252.560413336458
 20
3773.625918198372
 30
0.0000000001555553
 40
0.0003
100
AcDbArc
 50
0.0
 51
98.51447843301436
  0
ARC
  5
1903
330
1F
100
AcDbEntity
  8
SANINDUSA
100
AcDbCircle
 10
1252.560413336458
 20
3773.631318198371
 30
0.0000000001555553
 40
0.0003
100
AcDbArc
 50
261.4855215669856
 51
0.0
  0
LINE
  5
1904
330
1F
100
AcDbEntity
  8
SANINDUSA
100
AcDbLine
 10
1252.56036891866
 20
3773.631021504826
 30
0.0000000001555553
 11
1252.558154112728
 21
3773.631353081987
 31
0.0000000001555553
  0
LINE
  5
1905
330
1F
100
AcDbEntity
  8
SANINDUSA
100
AcDbLine
 10
1252.557521051522
 20
3773.631852314908
 30
0.0000000001555553
 11
1252.557269350666
 21
3773.63017105149
 31
0.0000000001555553
  0
LINE
  5
1906
330
1F
100
AcDbEntity
  8
SANINDUSA
100
AcDbLine
 10
1252.557916642914
 20
3773.631793091177
 30
0.0000000001555553
 11
1252.557664942058
 21
3773.63011182776
 31
0.0000000001555553
  0
LINE
  5
1907
330
1F
100
AcDbEntity
  8
SANINDUSA
100
AcDbLine
 10
1252.555394747788
 20
3773.632170642461
 30
0.0000000001555553
 11
1252.555335524057
 21
3773.631775051069
 31
0.0000000001555553
  0
ARC
  5
1908
330
1F
100
AcDbEntity
  8
SANINDUSA
100
AcDbCircle
 10
1252.549013336459
 20
3773.632418198371
 30
0.0000000001555553
 40
0.0003
100
AcDbArc
 50
81.48552156698563
 51
180.0
  0
ARC
  5
1909
330
1F
100
AcDbEntity
  8
SANINDUSA
100
AcDbCircle
 10
1252.549755737288
 20
3773.633318198371
 30
0.0000000001555553
 40
0.0008
100
AcDbArc
 50
81.48552156698563
 51
90.0
  0
LINE
  5
190A
330
1F
100
AcDbEntity
  8
SANINDUSA
100
AcDbLine
 10
1252.550213336458
 20
3773.632541890453
 30
0.0000000001555553
 11
1252.549057754257
 21
3773.632714891915
 31
0.0000000001555553
  0
LINE
  5
190B
330
1F
100
AcDbEntity
  8
SANINDUSA
100
AcDbLine
 10
1252.550213336458
 20
3773.632541890453
 30
0.0000000001555553
 11
1252.550213336458
 21
3773.631718198371
 31
0.0000000001555553
  0
LINE
  5
190C
330
1F
100
AcDbEntity
  8
SANINDUSA
100
AcDbLine
 10
1252.550213336458
 20
3773.631718198371
 30
0.0000000001555553
 11
1252.551413336459
 21
3773.631718198371
 31
0.0000000001555553
  0
LINE
  5
190D
330
1F
100
AcDbEntity
  8
SANINDUSA
100
AcDbLine
 10
1252.551413336459
 20
3773.632362239232
 30
0.0000000001555553
 11
1252.551413336459
 21
3773.631718198371
 31
0.0000000001555553
  0
LINE
  5
190E
330
1F
100
AcDbEntity
  8
SANINDUSA
100
AcDbLine
 10
1252.555335524057
 20
3773.631775051069
 30
0.0000000001555553
 11
1252.551413336459
 21
3773.632362239232
 31
0.0000000001555553
  0
LINE
  5
190F
330
1F
100
AcDbEntity
  8
SANINDUSA
100
AcDbLine
 10
1252.550213336458
 20
3773.625518198371
 30
0.0000000001555553
 11
1252.551413336459
 21
3773.625518198371
 31
0.0000000001555553
  0
LINE
  5
1910
330
1F
100
AcDbEntity
  8
SANINDUSA
100
AcDbLine
 10
1252.56003178392
 20
3773.63258869357
 30
0.0000000001555553
 11
1252.549874184749
 21
3773.634109381156
 31
0.0000000001555553
  0
LINE
  5
1911
330
1F
100
AcDbEntity
  8
SANINDUSA
100
AcDbLine
 10
1252.558213336459
 20
3773.631748673379
 30
0.0000000001555553
 11
1252.555394747788
 21
3773.632170642461
 31
0.0000000001555553
  0
ARC
  5
1912
330
1F
100
AcDbEntity
  8
SANINDUSA
100
AcDbCircle
 10
1252.559913336459
 20
3773.625438885956
 30
0.0000000001555553
 40
0.0008
100
AcDbArc
 50
278.5144784330144
 51
0.0
  0
LINE
  5
1913
330
1F
100
AcDbEntity
  8
SANINDUSA
100
AcDbLine
 10
1252.555394747788
 20
3773.625065754281
 30
0.0000000001555553
 11
1252.555335524057
 21
3773.625461345673
 31
0.0000000001555553
  0
ARC
  5
1914
330
1F
100
AcDbEntity
  8
SANINDUSA
100
AcDbCircle
 10
1252.549013336459
 20
3773.624818198371
 30
0.0000000001555553
 40
0.0003
100
AcDbArc
 50
180.0
 51
278.5144784330144
  0
ARC
  5
1915
330
1F
100
AcDbEntity
  8
SANINDUSA
100
AcDbCircle
 10
1252.549755737288
 20
3773.623918198371
 30
0.0000000001555553
 40
0.0008
100
AcDbArc
 50
270.0
 51
278.5144784330144
  0
LINE
  5
1916
330
1F
100
AcDbEntity
  8
SANINDUSA
100
AcDbLine
 10
1252.549057754257
 20
3773.624521504827
 30
0.0000000001555553
 11
1252.550213336458
 21
3773.624694506289
 31
0.0000000001555553
  0
LINE
  5
1917
330
1F
100
AcDbEntity
  8
SANINDUSA
100
AcDbLine
 10
1252.555335524057
 20
3773.625461345673
 30
0.0000000001555553
 11
1252.551413336459
 21
3773.624874157511
 31
0.0000000001555553
  0
LINE
  5
1918
330
1F
100
AcDbEntity
  8
SANINDUSA
100
AcDbLine
 10
1252.549874184749
 20
3773.623127015586
 30
0.0000000001555553
 11
1252.56003178392
 21
3773.624647703171
 31
0.0000000001555553
  0
LINE
  5
1919
330
1F
100
AcDbEntity
  8
SANINDUSA
100
AcDbLine
 10
1252.548713336459
 20
3773.632418198371
 30
0.0000000001555553
 11
1252.548713336459
 21
3773.624818198371
 31
0.0000000001555553
  0
LINE
  5
191A
330
1F
100
AcDbEntity
  8
SANINDUSA
100
AcDbLine
 10
1252.560713336459
 20
3773.625918198372
 30
0.0000000001555553
 11
1252.560713336459
 21
3773.625438885956
 31
0.0000000001555553
  0
LINE
  5
191B
330
1F
100
AcDbEntity
  8
SANINDUSA
100
AcDbLine
 10
1252.551413336459
 20
3773.625518198371
 30
0.0000000001555553
 11
1252.551413336459
 21
3773.624874157511
 31
0.0000000001555553
  0
LINE
  5
191C
330
1F
100
AcDbEntity
  8
SANINDUSA
100
AcDbLine
 10
1252.550213336458
 20
3773.625518198371
 30
0.0000000001555553
 11
1252.550213336458
 21
3773.624694506289
 31
0.0000000001555553
  0
LINE
  5
191D
330
1F
100
AcDbEntity
  8
SANINDUSA
100
AcDbLine
 10
1252.558213336459
 20
3773.625487723363
 30
0.0000000001555553
 11
1252.555394747788
 21
3773.625065754281
 31
0.0000000001555553
  0
LINE
  5
191E
330
1F
100
AcDbEntity
  8
SANINDUSA
100
AcDbLine
 10
1252.557916642914
 20
3773.625443305565
 30
0.0000000001555553
 11
1252.557664942058
 21
3773.627124568982
 31
0.0000000001555553
  0
LINE
  5
191F
330
1F
100
AcDbEntity
  8
SANINDUSA
100
AcDbLine
 10
1252.557521051522
 20
3773.625384081834
 30
0.0000000001555553
 11
1252.557269350666
 21
3773.627065345252
 31
0.0000000001555553
  0
LINE
  5
1920
330
1F
100
AcDbEntity
  8
SANINDUSA
100
AcDbLine
 10
1252.547213336459
 20
3773.634118198371
 30
0.0000000001555553
 11
1252.544955977146
 21
3773.634118198371
 31
0.0000000001555553
  0
ARC
  5
1921
330
1F
100
AcDbEntity
  8
SANINDUSA
100
AcDbCircle
 10
1252.546213336459
 20
3773.632118198371
 30
0.0000000001555553
 40
0.001
100
AcDbArc
 50
0.0
 51
90.0
  0
ARC
  5
1922
330
1F
100
AcDbEntity
  8
SANINDUSA
100
AcDbCircle
 10
1252.544943555356
 20
3773.632768177234
 30
0.0000000001555553
 40
0.00075
100
AcDbArc
 50
47.16775949470863
 51
90.19499109435139
  0
ARC
  5
1923
330
1F
100
AcDbEntity
  8
SANINDUSA
100
AcDbCircle
 10
1252.545963336459
 20
3773.633868198371
 30
0.0000000001555553
 40
0.00075
100
AcDbArc
 50
227.1677594947087
 51
270.0
  0
LINE
  5
1924
330
1F
100
AcDbEntity
  8
SANINDUSA
100
AcDbLine
 10
1252.545963336459
 20
3773.633118198371
 30
0.0000000001555553
 11
1252.546213336459
 21
3773.633118198371
 31
0.0000000001555553
  0
LINE
  5
1925
330
1F
100
AcDbEntity
  8
SANINDUSA
100
AcDbLine
 10
1252.541298082133
 20
3773.631682843033
 30
0.0000000001555553
 11
1252.541844707308
 21
3773.632229468208
 31
0.0000000001555553
  0
ARC
  5
1926
330
1F
100
AcDbEntity
  8
SANINDUSA
100
AcDbCircle
 10
1252.540732396708
 20
3773.631187868285
 30
0.0000000001555553
 40
0.0002
100
AcDbArc
 50
45.00000011054244
 51
135.0000000736949
  0
ARC
  5
1927
330
1F
100
AcDbEntity
  8
SANINDUSA
100
AcDbCircle
 10
1252.544955977146
 20
3773.629118198371
 30
0.0000000001555553
 40
0.005
100
AcDbArc
 50
90.0
 51
135.0
  0
ARC
  5
1928
330
1F
100
AcDbEntity
  8
SANINDUSA
100
AcDbCircle
 10
1252.544955977146
 20
3773.629118198371
 30
0.0000000001555553
 40
0.0044
100
AcDbArc
 50
90.19499109435139
 51
135.0
  0
ARC
  5
1929
330
1F
100
AcDbEntity
  8
SANINDUSA
100
AcDbCircle
 10
1252.541899122895
 20
3773.629596878034
 30
0.0000000001555553
 40
0.00075
100
AcDbArc
 50
314.9999999631526
 51
45.0
  0
ARC
  5
192A
330
1F
100
AcDbEntity
  8
SANINDUSA
100
AcDbCircle
 10
1252.541899122895
 20
3773.629596878034
 30
0.0000000001555553
 40
0.0005
100
AcDbArc
 50
314.9999999631526
 51
45.0
  0
ARC
  5
192B
330
1F
100
AcDbEntity
  8
SANINDUSA
100
AcDbCircle
 10
1252.541510214167
 20
3773.631470710998
 30
0.0000000001555553
 40
0.0003
100
AcDbArc
 50
135.0
 51
225.0000001105424
  0
LINE
  5
192C
330
1F
100
AcDbEntity
  8
SANINDUSA
100
AcDbLine
 10
1252.540661686029
 20
3773.631894975066
 30
0.0000000001555553
 11
1252.542429452981
 21
3773.630127208121
 31
0.0000000001555553
  0
LINE
  5
192D
330
1F
100
AcDbEntity
  8
SANINDUSA
100
AcDbLine
 10
1252.540873818065
 20
3773.631329289641
 30
0.0000000001555553
 11
1252.542252676286
 21
3773.629950431425
 31
0.0000000001555553
  0
ARC
  5
192E
330
1F
100
AcDbEntity
  8
SANINDUSA
100
AcDbCircle
 10
1252.536136202626
 20
3773.626096699457
 30
0.0000000001555553
 40
0.0003
100
AcDbArc
 50
45.00000003684748
 51
135.0
  0
ARC
  5
192F
330
1F
100
AcDbEntity
  8
SANINDUSA
100
AcDbCircle
 10
1252.536419045338
 20
3773.626874516903
 30
0.0000000001555553
 40
0.0002
100
AcDbArc
 50
135.0000000736949
 51
225.0000002947798
  0
LINE
  5
1930
330
1F
100
AcDbEntity
  8
SANINDUSA
100
AcDbLine
 10
1252.535723386965
 20
3773.626108147865
 30
0.0000000001555553
 11
1252.535924070591
 21
3773.626308831491
 31
0.0000000001555553
  0
LINE
  5
1931
330
1F
100
AcDbEntity
  8
SANINDUSA
100
AcDbLine
 10
1252.535299122896
 20
3773.626532411933
 30
0.0000000001555553
 11
1252.54142044324
 21
3773.632653732277
 31
0.0000000001555553
  0
LINE
  5
1932
330
1F
100
AcDbEntity
  8
SANINDUSA
100
AcDbLine
 10
1252.536277623981
 20
3773.627015938258
 30
0.0000000001555553
 11
1252.540590975352
 21
3773.631329289641
 31
0.0000000001555553
  0
ARC
  5
1933
330
1F
100
AcDbEntity
  8
SANINDUSA
100
AcDbCircle
 10
1252.546213336459
 20
3773.625118198371
 30
0.0000000001555553
 40
0.001
100
AcDbArc
 50
270.0
 51
0.0
  0
ARC
  5
1934
330
1F
100
AcDbEntity
  8
SANINDUSA
100
AcDbCircle
 10
1252.541193532556
 20
3773.624468198371
 30
0.0000000001555553
 40
0.00075
100
AcDbArc
 50
270.0
 51
312.8334280650302
  0
ARC
  5
1935
330
1F
100
AcDbEntity
  8
SANINDUSA
100
AcDbCircle
 10
1252.542213336458
 20
3773.623368198371
 30
0.0000000001555553
 40
0.00075
100
AcDbArc
 50
90.0
 51
132.8334280650302
  0
LINE
  5
1936
330
1F
100
AcDbEntity
  8
SANINDUSA
100
AcDbLine
 10
1252.546213336459
 20
3773.624118198371
 30
0.0000000001555553
 11
1252.542213336458
 21
3773.624118198371
 31
0.0000000001555553
  0
ARC
  5
1937
330
1F
100
AcDbEntity
  8
SANINDUSA
100
AcDbCircle
 10
1252.538010035594
 20
3773.625707790731
 30
0.0000000001555553
 40
0.00075
100
AcDbArc
 50
225.0
 51
315.0
  0
ARC
  5
1938
330
1F
100
AcDbEntity
  8
SANINDUSA
100
AcDbCircle
 10
1252.538010035594
 20
3773.625707790731
 30
0.0000000001555553
 40
0.0005
100
AcDbArc
 50
225.0
 51
315.0
  0
LINE
  5
1939
330
1F
100
AcDbEntity
  8
SANINDUSA
100
AcDbLine
 10
1252.547213336459
 20
3773.623118198371
 30
0.0000000001555553
 11
1252.536713336458
 21
3773.623118198371
 31
0.0000000001555553
  0
LINE
  5
193A
330
1F
100
AcDbEntity
  8
SANINDUSA
100
AcDbLine
 10
1252.541193532556
 20
3773.623718198371
 30
0.0000000001555553
 11
1252.536713336458
 21
3773.623718198371
 31
0.0000000001555553
  0
ARC
  5
193B
330
1F
100
AcDbEntity
  8
SANINDUSA
100
AcDbCircle
 10
1252.536713336458
 20
3773.625118198371
 30
0.0000000001555553
 40
0.002
100
AcDbArc
 50
135.0
 51
270.0
  0
LINE
  5
193C
330
1F
100
AcDbEntity
  8
SANINDUSA
100
AcDbLine
 10
1252.53854036568
 20
3773.625177460645
 30
0.0000000001555553
 11
1252.542429452981
 21
3773.629066547948
 31
0.0000000001555553
  0
ARC
  5
193D
330
1F
100
AcDbEntity
  8
SANINDUSA
100
AcDbCircle
 10
1252.536713336458
 20
3773.625118198371
 30
0.0000000001555553
 40
0.0014
100
AcDbArc
 50
135.0
 51
270.0
  0
LINE
  5
193E
330
1F
100
AcDbEntity
  8
SANINDUSA
100
AcDbLine
 10
1252.535711938557
 20
3773.626945227594
 30
0.0000000001555553
 11
1252.537479705508
 21
3773.625177460645
 31
0.0000000001555553
  0
LINE
  5
193F
330
1F
100
AcDbEntity
  8
SANINDUSA
100
AcDbLine
 10
1252.547213336459
 20
3773.632118198371
 30
0.0000000001555553
 11
1252.547213336459
 21
3773.625118198371
 31
0.0000000001555553
  0
HATCH
  5
1940
330
1F
100
AcDbEntity
  8
SANINDUSA
100
AcDbHatch
 10
0.0
 20
0.0
 30
0.0000000001555553
210
0.0
220
0.0
230
1.0
  2
ANSI31
 70
     0
 71
     0
 91
        1
 92
        7
 72
     1
 73
     1
 93
        8
 10
1252.542252676285
 20
3773.629950431426
 42
0.0
 10
1252.540873818065
 20
3773.631329289641
 42
0.414213562178905
 10
1252.540590975352
 20
3773.631329289641
 42
0.0
 10
1252.536277623981
 20
3773.627015938258
 42
0.4142135636146872
 10
1252.536277623983
 20
3773.626733095546
 42
0.0
 10
1252.537656482205
 20
3773.625354237339
 42
0.4142135608152901
 10
1252.538363588984
 20
3773.625354237341
 42
0.0
 10
1252.542252676286
 20
3773.629243324644
 42
0.4142135628833784
 97
        0
 75
     0
 76
     1
 52
45.0
 41
0.00025
 77
     0
 78
     1
 53
90.0
 43
1252.272598801818
 44
3773.233346296982
 45
-0.00079375
 46
0.0
 79
     0
 47
0.0364805528584695
 98
        1
 10
1252.54131385872
 20
3773.629471434745
  0
LINE
  5
1941
330
1F
100
AcDbEntity
  8
SANINDUSA
100
AcDbLine
 10
1252.538363588984
 20
3773.625354237341
 30
0.0000000001555553
 11
1252.542252676286
 21
3773.629243324644
 31
0.0000000001555553
  0
LINE
  5
1942
330
1F
100
AcDbEntity
  8
SANINDUSA
100
AcDbLine
 10
1252.536277623983
 20
3773.626733095546
 30
0.0000000001555553
 11
1252.537656482203
 21
3773.625354237341
 31
0.0000000001555553
  0
LINE
  5
1943
330
1F
100
AcDbEntity
  8
SANINDUSA
100
AcDbLine
 10
1252.547213336459
 20
3773.634118198371
 30
0.0000000001555553
 11
1252.549755737288
 21
3773.634118198371
 31
0.0000000001555553
  0
LINE
  5
1944
330
1F
100
AcDbEntity
  8
SANINDUSA
100
AcDbLine
 10
1252.547213336459
 20
3773.623118198371
 30
0.0000000001555553
 11
1252.549755737288
 21
3773.623118198371
 31
0.0000000001555553
  0
LINE
  5
1945
330
1F
100
AcDbEntity
  8
SANINDUSA
100
AcDbLine
 10
1252.484754180918
 20
3773.613391699326
 30
0.0
 11
1252.484754180918
 21
3773.637318194561
 31
0.0
  0
LINE
  5
1946
330
1F
100
AcDbEntity
  8
SANINDUSA
100
AcDbLine
 10
1252.484754180918
 20
3773.613391699326
 30
0.0
 11
1252.48575306183
 21
3773.613391699326
 31
0.0
  0
LINE
  5
1947
330
1F
100
AcDbEntity
  8
SANINDUSA
100
AcDbLine
 10
1252.485754180918
 20
3773.637318194561
 30
0.0
 11
1252.484754180918
 21
3773.637318194561
 31
0.0
  0
ARC
  5
1948
330
1F
100
AcDbEntity
  8
SANINDUSA
100
AcDbCircle
 10
1252.48575306183
 20
3773.614391699326
 30
0.0
 40
0.0009999999999999
100
AcDbArc
 50
270.0
 51
359.4659008828148
  0
ARC
  5
1949
330
1F
100
AcDbEntity
  8
SANINDUSA
100
AcDbCircle
 10
1252.485754180918
 20
3773.636318194562
 30
0.0
 40
0.0009999999999999
100
AcDbArc
 50
0.0
 51
90.0
  0
LINE
  5
194A
330
1F
100
AcDbEntity
  8
SANINDUSA
100
AcDbLine
 10
1252.486753018383
 20
3773.614382377674
 30
0.0
 11
1252.486759808043
 21
3773.61511072116
 31
0.0
  0
LINE
  5
194B
330
1F
100
AcDbEntity
  8
SANINDUSA
100
AcDbLine
 10
1252.486754180918
 20
3773.635332408124
 30
0.0
 11
1252.486754180918
 21
3773.636318194562
 31
0.0
  0
ARC
  5
194C
330
1F
100
AcDbEntity
  8
SANINDUSA
100
AcDbCircle
 10
1252.488109749389
 20
3773.615098136929
 30
0.0
 40
0.00135
100
AcDbArc
 50
134.9106959474017
 51
179.4659008828148
  0
ARC
  5
194D
330
1F
100
AcDbEntity
  8
SANINDUSA
100
AcDbCircle
 10
1252.488104180918
 20
3773.635332408124
 30
0.0
 40
0.0013499999999998
100
AcDbArc
 50
180.0
 51
225.0
  0
LINE
  5
194E
330
1F
100
AcDbEntity
  8
SANINDUSA
100
AcDbLine
 10
1252.487156644271
 20
3773.616054217801
 30
0.0
 11
1252.488063083382
 21
3773.616957835665
 31
0.0
  0
LINE
  5
194F
330
1F
100
AcDbEntity
  8
SANINDUSA
100
AcDbLine
 10
1252.488063800325
 20
3773.633463600407
 30
0.0
 11
1252.487149586763
 21
3773.634377813969
 31
0.0
  0
ARC
  5
1950
330
1F
100
AcDbEntity
  8
SANINDUSA
100
AcDbCircle
 10
1252.487604180918
 20
3773.6174181709
 30
0.0
 40
0.0006500000000003
100
AcDbArc
 50
314.9106959474017
 51
0.0
  0
ARC
  5
1951
330
1F
100
AcDbEntity
  8
SANINDUSA
100
AcDbCircle
 10
1252.487604180918
 20
3773.633003980999
 30
0.0
 40
0.0006500000000003
100
AcDbArc
 50
0.0
 51
45.0
  0
LINE
  5
1952
330
1F
100
AcDbEntity
  8
SANINDUSA
100
AcDbLine
 10
1252.488254180918
 20
3773.6174181709
 30
0.0
 11
1252.488254180918
 21
3773.633003980999
 31
0.0
  0
ARC
  5
1953
330
1F
100
AcDbEntity
  8
SANINDUSA
100
AcDbCircle
 10
1253.685593392402
 20
3773.636318194562
 30
0.0
 40
0.0009999999999999
100
AcDbArc
 50
0.0
 51
90.0
  0
LINE
  5
1954
330
1F
100
AcDbEntity
  8
SANINDUSA
100
AcDbLine
 10
1253.685593392402
 20
3773.637318194561
 30
0.0
 11
1253.65057008827
 21
3773.637318194561
 31
0.0
  0
LINE
  5
1955
330
1F
100
AcDbEntity
  8
SANINDUSA
100
AcDbLine
 10
1253.686593392401
 20
3773.635332408124
 30
0.0
 11
1253.686593392401
 21
3773.636318194562
 31
0.0
  0
ARC
  5
1956
330
1F
100
AcDbEntity
  8
SANINDUSA
100
AcDbCircle
 10
1253.65057008827
 20
3773.636318194562
 30
0.0
 40
0.001
100
AcDbArc
 50
90.0
 51
270.0
  0
ARC
  5
1957
330
1F
100
AcDbEntity
  8
SANINDUSA
100
AcDbCircle
 10
1253.685593392402
 20
3773.635332408124
 30
0.0
 40
0.0010000000000003
100
AcDbArc
 50
315.0
 51
0.0
  0
LINE
  5
1958
330
1F
100
AcDbEntity
  8
SANINDUSA
100
AcDbLine
 10
1253.65057008827
 20
3773.635318194561
 30
0.0
 11
1253.682093392401
 21
3773.635318194561
 31
0.0
  0
LINE
  5
1959
330
1F
100
AcDbEntity
  8
SANINDUSA
100
AcDbLine
 10
1253.68538628562
 20
3773.63371108778
 30
0.0
 11
1253.686300499183
 21
3773.634625301343
 31
0.0
  0
ARC
  5
195A
330
1F
100
AcDbEntity
  8
SANINDUSA
100
AcDbCircle
 10
1253.682093392401
 20
3773.634318194562
 30
0.0
 40
0.001
100
AcDbArc
 50
0.0
 51
90.0
  0
ARC
  5
195B
330
1F
100
AcDbEntity
  8
SANINDUSA
100
AcDbCircle
 10
1253.686093392402
 20
3773.633003980999
 30
0.0
 40
0.0010000000000003
100
AcDbArc
 50
135.0
 51
180.0
  0
LINE
  5
195C
330
1F
100
AcDbEntity
  8
SANINDUSA
100
AcDbLine
 10
1253.683093392401
 20
3773.634318194562
 30
0.0
 11
1253.683093392401
 21
3773.616459008284
 31
0.0
  0
LINE
  5
195D
330
1F
100
AcDbEntity
  8
SANINDUSA
100
AcDbLine
 10
1253.685093392402
 20
3773.629628854733
 30
0.0
 11
1253.685093392402
 21
3773.633003980999
 31
0.0
  0
ARC
  5
195E
330
1F
100
AcDbEntity
  8
SANINDUSA
100
AcDbCircle
 10
1253.682093392401
 20
3773.616459008284
 30
0.0
 40
0.001
100
AcDbArc
 50
267.8505420718559
 51
0.0
  0
ARC
  5
195F
330
1F
100
AcDbEntity
  8
SANINDUSA
100
AcDbCircle
 10
1253.684843392402
 20
3773.629628854733
 30
0.0
 40
0.0002500000000003
100
AcDbArc
 50
315.0
 51
0.0
  0
ARC
  5
1960
330
1F
100
AcDbEntity
  8
SANINDUSA
100
AcDbCircle
 10
1253.685683500839
 20
3773.712111754206
 30
0.0
 40
0.0967200954923435
100
AcDbArc
 50
254.4398303544262
 51
267.8505420718559
  0
LINE
  5
1961
330
1F
100
AcDbEntity
  8
SANINDUSA
100
AcDbLine
 10
1253.684539839011
 20
3773.628971747952
 30
0.0
 11
1253.685020169097
 21
3773.629452078038
 31
0.0
  0
ARC
  5
1962
330
1F
100
AcDbEntity
  8
SANINDUSA
100
AcDbCircle
 10
1253.659872441642
 20
3773.619418194562
 30
0.0
 40
0.0005
100
AcDbArc
 50
90.0
 51
254.4398303544262
  0
ARC
  5
1963
330
1F
100
AcDbEntity
  8
SANINDUSA
100
AcDbCircle
 10
1253.684893392401
 20
3773.628618194561
 30
0.0
 40
0.0005
100
AcDbArc
 50
135.0
 51
225.0
  0
LINE
  5
1964
330
1F
100
AcDbEntity
  8
SANINDUSA
100
AcDbLine
 10
1253.659872441642
 20
3773.619918194562
 30
0.0
 11
1253.67257008827
 21
3773.619918194562
 31
0.0
  0
LINE
  5
1965
330
1F
100
AcDbEntity
  8
SANINDUSA
100
AcDbLine
 10
1253.685020169097
 20
3773.627784311085
 30
0.0
 11
1253.684539839011
 21
3773.628264641171
 31
0.0
  0
ARC
  5
1966
330
1F
100
AcDbEntity
  8
SANINDUSA
100
AcDbCircle
 10
1253.67257008827
 20
3773.620918194561
 30
0.0
 40
0.001
100
AcDbArc
 50
270.0
 51
90.0
  0
ARC
  5
1967
330
1F
100
AcDbEntity
  8
SANINDUSA
100
AcDbCircle
 10
1253.684843392402
 20
3773.62760753439
 30
0.0
 40
0.00025
100
AcDbArc
 50
0.0
 51
45.0
  0
LINE
  5
1968
330
1F
100
AcDbEntity
  8
SANINDUSA
100
AcDbLine
 10
1253.67257008827
 20
3773.621918194562
 30
0.0
 11
1253.65057008827
 21
3773.621918194562
 31
0.0
  0
LINE
  5
1969
330
1F
100
AcDbEntity
  8
SANINDUSA
100
AcDbLine
 10
1253.685093392402
 20
3773.6174181709
 30
0.0
 11
1253.685093392402
 21
3773.62760753439
 31
0.0
  0
ARC
  5
196A
330
1F
100
AcDbEntity
  8
SANINDUSA
100
AcDbCircle
 10
1253.65057008827
 20
3773.620918194561
 30
0.0
 40
0.001
100
AcDbArc
 50
90.0
 51
248.9411647530097
  0
ARC
  5
196B
330
1F
100
AcDbEntity
  8
SANINDUSA
100
AcDbCircle
 10
1253.686093392402
 20
3773.6174181709
 30
0.0
 40
0.0010000000000003
100
AcDbArc
 50
180.0
 51
225.0893040525983
  0
ARC
  5
196C
330
1F
100
AcDbEntity
  8
SANINDUSA
100
AcDbCircle
 10
1253.685683500839
 20
3773.712111754206
 30
0.0
 40
0.0987200954923432
100
AcDbArc
 50
248.9411647530097
 51
269.9477634045893
  0
LINE
  5
196D
330
1F
100
AcDbEntity
  8
SANINDUSA
100
AcDbLine
 10
1253.686293827721
 20
3773.615806344982
 30
0.0
 11
1253.685387388611
 21
3773.616709962846
 31
0.0
  0
ARC
  5
196E
330
1F
100
AcDbEntity
  8
SANINDUSA
100
AcDbCircle
 10
1253.685594409383
 20
3773.614391699326
 30
0.0
 40
0.001
100
AcDbArc
 50
269.9477634045893
 51
0.5340991171852499
  0
ARC
  5
196F
330
1F
100
AcDbEntity
  8
SANINDUSA
100
AcDbCircle
 10
1253.685587823931
 20
3773.615098136929
 30
0.0
 40
0.0010000000000003
100
AcDbArc
 50
0.5340991171852499
 51
45.08930405259832
  0
LINE
  5
1970
330
1F
100
AcDbEntity
  8
SANINDUSA
100
AcDbLine
 10
1253.686594365935
 20
3773.614401020979
 30
0.0
 11
1253.686587780483
 21
3773.615107458581
 31
0.0
  0
LINE
  5
1971
330
1F
100
AcDbEntity
  8
SANINDUSA
100
AcDbLine
 10
1253.63696816511
 20
3773.632618194561
 30
0.0
 11
1253.63965677826
 21
3773.632618194561
 31
0.0
  0
ARC
  5
1972
330
1F
100
AcDbEntity
  8
SANINDUSA
100
AcDbCircle
 10
1253.63965677826
 20
3773.632118194561
 30
0.0
 40
0.0005
100
AcDbArc
 50
19.47122063801706
 51
90.0
  0
ARC
  5
1973
330
1F
100
AcDbEntity
  8
SANINDUSA
100
AcDbCircle
 10
1253.63696816511
 20
3773.632118194561
 30
0.0
 40
0.0005000000000001
100
AcDbArc
 50
90.0
 51
156.4218215249129
  0
ARC
  5
1974
330
1F
100
AcDbEntity
  8
SANINDUSA
100
AcDbCircle
 10
1253.641070991823
 20
3773.632618194561
 30
0.0
 40
0.001
100
AcDbArc
 50
199.471220638017
 51
340.5287793619829
  0
ARC
  5
1975
330
1F
100
AcDbEntity
  8
SANINDUSA
100
AcDbCircle
 10
1253.635593392402
 20
3773.632718194561
 30
0.0
 40
0.0009999999999999
100
AcDbArc
 50
180.0
 51
336.421821524913
  0
ARC
  5
1976
330
1F
100
AcDbEntity
  8
SANINDUSA
100
AcDbCircle
 10
1253.642485205385
 20
3773.632118194561
 30
0.0
 40
0.0004999999999999
100
AcDbArc
 50
90.0
 51
160.5287793619829
  0
LINE
  5
1977
330
1F
100
AcDbEntity
  8
SANINDUSA
100
AcDbLine
 10
1253.634593392402
 20
3773.632718194561
 30
0.0
 11
1253.634593392402
 21
3773.633618194561
 31
0.0
  0
LINE
  5
1978
330
1F
100
AcDbEntity
  8
SANINDUSA
100
AcDbLine
 10
1253.642485205385
 20
3773.632618194561
 30
0.0
 11
1253.644071368642
 21
3773.632618194561
 31
0.0
  0
ARC
  5
1979
330
1F
100
AcDbEntity
  8
SANINDUSA
100
AcDbCircle
 10
1253.635593392402
 20
3773.633618194561
 30
0.0
 40
0.0009999999999999
100
AcDbArc
 50
90.0
 51
180.0
  0
ARC
  5
197A
330
1F
100
AcDbEntity
  8
SANINDUSA
100
AcDbCircle
 10
1253.644071368642
 20
3773.632118194561
 30
0.0
 40
0.0005
100
AcDbArc
 50
0.0
 51
90.0
  0
LINE
  5
197B
330
1F
100
AcDbEntity
  8
SANINDUSA
100
AcDbLine
 10
1253.635593392402
 20
3773.634618194562
 30
0.0
 11
1253.667093392402
 21
3773.634618194562
 31
0.0
  0
LINE
  5
197C
330
1F
100
AcDbEntity
  8
SANINDUSA
100
AcDbLine
 10
1253.644571368641
 20
3773.632118194561
 30
0.0
 11
1253.644571368641
 21
3773.625118194561
 31
0.0
  0
ARC
  5
197D
330
1F
100
AcDbEntity
  8
SANINDUSA
100
AcDbCircle
 10
1253.667093392402
 20
3773.633618194561
 30
0.0
 40
0.001
100
AcDbArc
 50
270.0
 51
90.0
  0
ARC
  5
197E
330
1F
100
AcDbEntity
  8
SANINDUSA
100
AcDbCircle
 10
1253.644071368642
 20
3773.625118194561
 30
0.0
 40
0.0005
100
AcDbArc
 50
270.0
 51
0.0
  0
LINE
  5
197F
330
1F
100
AcDbEntity
  8
SANINDUSA
100
AcDbLine
 10
1253.667093392402
 20
3773.632618194561
 30
0.0
 11
1253.647071368642
 21
3773.632618194561
 31
0.0
  0
LINE
  5
1980
330
1F
100
AcDbEntity
  8
SANINDUSA
100
AcDbLine
 10
1253.644071368642
 20
3773.624618194561
 30
0.0
 11
1253.642485205385
 21
3773.624618194561
 31
0.0
  0
ARC
  5
1981
330
1F
100
AcDbEntity
  8
SANINDUSA
100
AcDbCircle
 10
1253.647071368642
 20
3773.632118194561
 30
0.0
 40
0.0005000000000001
100
AcDbArc
 50
90.0
 51
180.0
  0
ARC
  5
1982
330
1F
100
AcDbEntity
  8
SANINDUSA
100
AcDbCircle
 10
1253.642485205385
 20
3773.625118194561
 30
0.0
 40
0.0005
100
AcDbArc
 50
199.471220638017
 51
270.0
  0
LINE
  5
1983
330
1F
100
AcDbEntity
  8
SANINDUSA
100
AcDbLine
 10
1253.646571368642
 20
3773.632118194561
 30
0.0
 11
1253.646571368642
 21
3773.625118194561
 31
0.0
  0
ARC
  5
1984
330
1F
100
AcDbEntity
  8
SANINDUSA
100
AcDbCircle
 10
1253.641070991823
 20
3773.624618194561
 30
0.0
 40
0.001
100
AcDbArc
 50
19.47122063801706
 51
160.5287793619829
  0
ARC
  5
1985
330
1F
100
AcDbEntity
  8
SANINDUSA
100
AcDbCircle
 10
1253.647071368642
 20
3773.625118194561
 30
0.0
 40
0.0005000000000001
100
AcDbArc
 50
180.0
 51
270.0
  0
ARC
  5
1986
330
1F
100
AcDbEntity
  8
SANINDUSA
100
AcDbCircle
 10
1253.63965677826
 20
3773.625118194561
 30
0.0
 40
0.0005
100
AcDbArc
 50
270.0
 51
340.5287793619829
  0
LINE
  5
1987
330
1F
100
AcDbEntity
  8
SANINDUSA
100
AcDbLine
 10
1253.647071368642
 20
3773.624618194561
 30
0.0
 11
1253.667093392402
 21
3773.624618194561
 31
0.0
  0
LINE
  5
1988
330
1F
100
AcDbEntity
  8
SANINDUSA
100
AcDbLine
 10
1253.63965677826
 20
3773.624618194561
 30
0.0
 11
1253.63696816511
 21
3773.624618194561
 31
0.0
  0
ARC
  5
1989
330
1F
100
AcDbEntity
  8
SANINDUSA
100
AcDbCircle
 10
1253.667093392402
 20
3773.623618194561
 30
0.0
 40
0.001
100
AcDbArc
 50
270.0
 51
90.0
  0
ARC
  5
198A
330
1F
100
AcDbEntity
  8
SANINDUSA
100
AcDbCircle
 10
1253.63696816511
 20
3773.625118194561
 30
0.0
 40
0.0005000000000001
100
AcDbArc
 50
203.5781784750871
 51
270.0
  0
LINE
  5
198B
330
1F
100
AcDbEntity
  8
SANINDUSA
100
AcDbLine
 10
1253.667093392402
 20
3773.622618194561
 30
0.0
 11
1253.635593392402
 21
3773.622618194561
 31
0.0
  0
ARC
  5
198C
330
1F
100
AcDbEntity
  8
SANINDUSA
100
AcDbCircle
 10
1253.635593392402
 20
3773.624518194561
 30
0.0
 40
0.0009999999999999
100
AcDbArc
 50
23.57817847508705
 51
180.0
  0
ARC
  5
198D
330
1F
100
AcDbEntity
  8
SANINDUSA
100
AcDbCircle
 10
1253.635593392402
 20
3773.623618194561
 30
0.0
 40
0.0010000000000001
100
AcDbArc
 50
180.0
 51
270.0
  0
LINE
  5
198E
330
1F
100
AcDbEntity
  8
SANINDUSA
100
AcDbLine
 10
1253.634593392402
 20
3773.623618194561
 30
0.0
 11
1253.634593392402
 21
3773.624518194561
 31
0.0
  0
LINE
  5
198F
330
1F
100
AcDbEntity
  8
SANINDUSA
100
AcDbLine
 10
1253.688943392402
 20
3773.613391699326
 30
0.0
 11
1253.688943392402
 21
3773.637318194561
 31
0.0
  0
LINE
  5
1990
330
1F
100
AcDbEntity
  8
SANINDUSA
100
AcDbLine
 10
1253.687943392401
 20
3773.637318194561
 30
0.0
 11
1253.688943392402
 21
3773.637318194561
 31
0.0
  0
LINE
  5
1991
330
1F
100
AcDbEntity
  8
SANINDUSA
100
AcDbLine
 10
1253.688943392402
 20
3773.613391699326
 30
0.0
 11
1253.687944511489
 21
3773.613391699326
 31
0.0
  0
ARC
  5
1992
330
1F
100
AcDbEntity
  8
SANINDUSA
100
AcDbCircle
 10
1253.687943392401
 20
3773.636318194562
 30
0.0
 40
0.0009999999999999
100
AcDbArc
 50
90.0
 51
180.0
  0
ARC
  5
1993
330
1F
100
AcDbEntity
  8
SANINDUSA
100
AcDbCircle
 10
1253.687944511489
 20
3773.614391699326
 30
0.0
 40
0.0009999999999999
100
AcDbArc
 50
180.5340991171852
 51
270.0
  0
LINE
  5
1994
330
1F
100
AcDbEntity
  8
SANINDUSA
100
AcDbLine
 10
1253.686943392401
 20
3773.635332408124
 30
0.0
 11
1253.686943392401
 21
3773.636318194562
 31
0.0
  0
LINE
  5
1995
330
1F
100
AcDbEntity
  8
SANINDUSA
100
AcDbLine
 10
1253.686944554937
 20
3773.614382377674
 30
0.0
 11
1253.686937765276
 21
3773.61511072116
 31
0.0
  0
ARC
  5
1996
330
1F
100
AcDbEntity
  8
SANINDUSA
100
AcDbCircle
 10
1253.685593392402
 20
3773.635332408124
 30
0.0
 40
0.0013499999999998
100
AcDbArc
 50
315.0
 51
0.0
  0
ARC
  5
1997
330
1F
100
AcDbEntity
  8
SANINDUSA
100
AcDbCircle
 10
1253.685587823931
 20
3773.615098136929
 30
0.0
 40
0.00135
100
AcDbArc
 50
0.5340991171852499
 51
45.08930405259832
  0
LINE
  5
1998
330
1F
100
AcDbEntity
  8
SANINDUSA
100
AcDbLine
 10
1253.685633772994
 20
3773.633463600407
 30
0.0
 11
1253.686547986556
 21
3773.634377813969
 31
0.0
  0
LINE
  5
1999
330
1F
100
AcDbEntity
  8
SANINDUSA
100
AcDbLine
 10
1253.686540929048
 20
3773.616054217801
 30
0.0
 11
1253.685634489938
 21
3773.616957835665
 31
0.0
  0
ARC
  5
199A
330
1F
100
AcDbEntity
  8
SANINDUSA
100
AcDbCircle
 10
1253.686093392402
 20
3773.633003980999
 30
0.0
 40
0.0006500000000003
100
AcDbArc
 50
135.0
 51
180.0
  0
ARC
  5
199B
330
1F
100
AcDbEntity
  8
SANINDUSA
100
AcDbCircle
 10
1253.686093392402
 20
3773.6174181709
 30
0.0
 40
0.0006500000000003
100
AcDbArc
 50
180.0
 51
225.0893040525983
  0
LINE
  5
199C
330
1F
100
AcDbEntity
  8
SANINDUSA
100
AcDbLine
 10
1253.685443392402
 20
3773.6174181709
 30
0.0
 11
1253.685443392402
 21
3773.633003980999
 31
0.0
  0
ENDSEC
  0
SECTION
  2
OBJECTS
  0
DICTIONARY
  5
C
330
0
100
AcDbDictionary
281
     1
  3
ACAD_COLOR
350
1C2D
  3
ACAD_GROUP
350
D
  3
ACAD_LAYOUT
350
1A
  3
ACAD_MATERIAL
350
1C00
  3
ACAD_MLEADERSTYLE
350
1C42
  3
ACAD_MLINESTYLE
350
17
  3
ACAD_PLOTSETTINGS
350
19
  3
ACAD_PLOTSTYLENAME
350
E
  3
ACAD_SCALELIST
350
1C30
  3
ACAD_TABLESTYLE
350
1C2E
  3
ACAD_VISUALSTYLE
350
1C19
  3
ACDB_RECOMPOSE_DATA
350
1CD1
  3
AcDbVariableDictionary
350
3D
  3
ASE_INDEX_DICTIONARY
350
199D
  3
DWGPROPS
350
1CD2
  0
DICTIONARY
  5
1C6A
330
10
100
AcDbDictionary
280
     1
281
     1
  3
ADSK_XREC_LAYER_RECONCILED
360
1C6B
  0
DICTIONARY
  5
1C6C
330
2F
100
AcDbDictionary
280
     1
281
     1
  3
ADSK_XREC_LAYER_RECONCILED
360
1C6D
  0
DICTIONARY
  5
1C6E
330
30
100
AcDbDictionary
280
     1
281
     1
  3
ADSK_XREC_LAYER_RECONCILED
360
1C6F
  0
DICTIONARY
  5
1C70
330
31
100
AcDbDictionary
280
     1
281
     1
  3
ADSK_XREC_LAYER_RECONCILED
360
1C71
  0
DICTIONARY
  5
1C72
330
32
100
AcDbDictionary
280
     1
281
     1
  3
ADSK_XREC_LAYER_RECONCILED
360
1C73
  0
DICTIONARY
  5
1C74
330
33
100
AcDbDictionary
280
     1
281
     1
  3
ADSK_XREC_LAYER_RECONCILED
360
1C75
  0
DICTIONARY
  5
1C76
330
34
100
AcDbDictionary
280
     1
281
     1
  3
ADSK_XREC_LAYER_RECONCILED
360
1C77
  0
DICTIONARY
  5
1C78
330
35
100
AcDbDictionary
280
     1
281
     1
  3
ADSK_XREC_LAYER_RECONCILED
360
1C79
  0
DICTIONARY
  5
1C7A
330
36
100
AcDbDictionary
280
     1
281
     1
  3
ADSK_XREC_LAYER_RECONCILED
360
1C7B
  0
DICTIONARY
  5
1C7C
330
37
100
AcDbDictionary
280
     1
281
     1
  3
ADSK_XREC_LAYER_RECONCILED
360
1C7D
  0
DICTIONARY
  5
1C7E
330
5D6
100
AcDbDictionary
280
     1
281
     1
  3
ADSK_XREC_LAYER_RECONCILED
360
1C7F
  0
DICTIONARY
  5
1C80
330
8AF
100
AcDbDictionary
280
     1
281
     1
  3
ADSK_XREC_LAYER_RECONCILED
360
1C81
  0
DICTIONARY
  5
1C82
330
8F8
100
AcDbDictionary
280
     1
281
     1
  3
ADSK_XREC_LAYER_RECONCILED
360
1C83
  0
DICTIONARY
  5
1C84
330
91D
100
AcDbDictionary
280
     1
281
     1
  3
ADSK_XREC_LAYER_RECONCILED
360
1C85
  0
DICTIONARY
  5
1C86
330
C85
100
AcDbDictionary
280
     1
281
     1
  3
ADSK_XREC_LAYER_RECONCILED
360
1C87
  0
DICTIONARY
  5
1C88
330
1C69
100
AcDbDictionary
280
     1
281
     1
  3
ADSK_XREC_LAYER_RECONCILED
360
1C89
  0
DICTIONARY
  5
1CD9
330
1BEF
100
AcDbDictionary
280
     1
281
     1
  3
ACAD_MTEXT_RT
360
1CDA
  0
DICTIONARY
  5
1C2D
102
{ACAD_REACTORS
330
C
102
}
330
C
100
AcDbDictionary
281
     1
  0
DICTIONARY
  5
D
102
{ACAD_REACTORS
330
C
102
}
330
C
100
AcDbDictionary
281
     1
  0
DICTIONARY
  5
1A
102
{ACAD_REACTORS
330
C
102
}
330
C
100
AcDbDictionary
281
     1
  3
Layout1
350
1E
  3
Layout2
350
26
  3
Model
350
22
  0
DICTIONARY
  5
1C00
102
{ACAD_REACTORS
330
C
102
}
330
C
100
AcDbDictionary
281
     1
  3
ByBlock
350
1C09
  3
ByLayer
350
1C01
  3
Global
350
1C11
  0
DICTIONARY
  5
1C42
102
{ACAD_REACTORS
330
C
102
}
330
C
100
AcDbDictionary
281
     1
  3
Standard
350
1C43
  0
DICTIONARY
  5
17
102
{ACAD_REACTORS
330
C
102
}
330
C
100
AcDbDictionary
281
     1
  3
Standard
350
18
  0
DICTIONARY
  5
19
102
{ACAD_REACTORS
330
C
102
}
330
C
100
AcDbDictionary
281
     1
  0
ACDBDICTIONARYWDFLT
  5
E
102
{ACAD_REACTORS
330
C
102
}
330
C
100
AcDbDictionary
281
     1
  3
Normal
350
F
100
AcDbDictionaryWithDefault
340
F
  0
DICTIONARY
  5
1C30
102
{ACAD_REACTORS
330
C
102
}
330
C
100
AcDbDictionary
281
     1
  3
A0
350
1C31
  3
A1
350
1C32
  3
A2
350
1C33
  3
A3
350
1C34
  3
A4
350
1C35
  3
A5
350
1C36
  3
A6
350
1C37
  3
A7
350
1C38
  3
A8
350
1C39
  3
A9
350
1C3A
  3
B0
350
1C3B
  3
B1
350
1C3C
  3
B2
350
1C3D
  3
B3
350
1C3E
  3
B4
350
1C3F
  3
B5
350
1C40
  3
B6
350
1C41
  0
DICTIONARY
  5
1C2E
102
{ACAD_REACTORS
330
C
102
}
330
C
100
AcDbDictionary
281
     1
  3
Standard
350
1C2F
  0
DICTIONARY
  5
1C19
102
{ACAD_REACTORS
330
C
102
}
330
C
100
AcDbDictionary
281
     1
  3
2dWireframe
350
1C1F
  3
3D Hidden
350
1C21
  3
3dWireframe
350
1C20
  3
Basic
350
1C1E
  3
Brighten
350
1C25
  3
ColorChange
350
1C29
  3
Conceptual
350
1C22
  3
Dim
350
1C24
  3
EdgeColorOff
350
1C2C
  3
Facepattern
350
1C28
  3
Flat
350
1C1A
  3
FlatWithEdges
350
1C1B
  3
Gouraud
350
1C1C
  3
GouraudWithEdges
350
1C1D
  3
JitterOff
350
1C2A
  3
Linepattern
350
1C27
  3
OverhangOff
350
1C2B
  3
Realistic
350
1C23
  3
Thicken
350
1C26
  0
XRECORD
  5
1CD1
102
{ACAD_REACTORS
330
C
102
}
330
C
100
AcDbXrecord
280
     1
 90
        1
330
1C2F
  0
DICTIONARY
  5
3D
102
{ACAD_REACTORS
330
C
102
}
330
C
100
AcDbDictionary
281
     1
  3
CANNOSCALE
350
1CCB
  3
CMLEADERSTYLE
350
1CCA
  3
CTABLESTYLE
350
1CC9
  3
DIMASSOC
350
3F
  3
HIDETEXT
350
3E
  3
INDEXCTL
350
1CCD
  3
SORTENTS
350
1CCC
  3
XCLIPFRAME
350
1CCE
  0
DICTIONARY
  5
199D
102
{ACAD_REACTORS
330
C
102
}
330
C
100
AcDbDictionary
281
     1
  3
ASEBlockHierarchyIndexRecord
350
199E
1001
DCO15
1040
1513342614.593
  0
XRECORD
  5
1CD2
102
{ACAD_REACTORS
330
C
102
}
330
C
100
AcDbXrecord
280
     1
  1
DWGPROPS COOKIE
  2

  3

  4

  6

  7

  8
Julio
  9

300
=
301
=
302
=
303
=
304
=
305
=
306
=
307
=
308
=
309
=
 40
0.0220742824074074
 41
2453318.730959919
 42
2455824.594144421
  1

 90
        0
  0
XRECORD
  5
1C6B
102
{ACAD_REACTORS
330
1C6A
102
}
330
1C6A
100
AcDbXrecord
280
     1
290
     1
  0
XRECORD
  5
1C6D
102
{ACAD_REACTORS
330
1C6C
102
}
330
1C6C
100
AcDbXrecord
280
     1
290
     1
  0
XRECORD
  5
1C6F
102
{ACAD_REACTORS
330
1C6E
102
}
330
1C6E
100
AcDbXrecord
280
     1
290
     1
  0
XRECORD
  5
1C71
102
{ACAD_REACTORS
330
1C70
102
}
330
1C70
100
AcDbXrecord
280
     1
290
     1
  0
XRECORD
  5
1C73
102
{ACAD_REACTORS
330
1C72
102
}
330
1C72
100
AcDbXrecord
280
     1
290
     1
  0
XRECORD
  5
1C75
102
{ACAD_REACTORS
330
1C74
102
}
330
1C74
100
AcDbXrecord
280
     1
290
     1
  0
XRECORD
  5
1C77
102
{ACAD_REACTORS
330
1C76
102
}
330
1C76
100
AcDbXrecord
280
     1
290
     1
  0
XRECORD
  5
1C79
102
{ACAD_REACTORS
330
1C78
102
}
330
1C78
100
AcDbXrecord
280
     1
290
     1
  0
XRECORD
  5
1C7B
102
{ACAD_REACTORS
330
1C7A
102
}
330
1C7A
100
AcDbXrecord
280
     1
290
     1
  0
XRECORD
  5
1C7D
102
{ACAD_REACTORS
330
1C7C
102
}
330
1C7C
100
AcDbXrecord
280
     1
290
     1
  0
XRECORD
  5
1C7F
102
{ACAD_REACTORS
330
1C7E
102
}
330
1C7E
100
AcDbXrecord
280
     1
290
     1
  0
XRECORD
  5
1C81
102
{ACAD_REACTORS
330
1C80
102
}
330
1C80
100
AcDbXrecord
280
     1
290
     1
  0
XRECORD
  5
1C83
102
{ACAD_REACTORS
330
1C82
102
}
330
1C82
100
AcDbXrecord
280
     1
290
     1
  0
XRECORD
  5
1C85
102
{ACAD_REACTORS
330
1C84
102
}
330
1C84
100
AcDbXrecord
280
     1
290
     1
  0
XRECORD
  5
1C87
102
{ACAD_REACTORS
330
1C86
102
}
330
1C86
100
AcDbXrecord
280
     1
290
     1
  0
XRECORD
  5
1C89
102
{ACAD_REACTORS
330
1C88
102
}
330
1C88
100
AcDbXrecord
280
     1
290
     1
  0
XRECORD
  5
1CDA
102
{ACAD_REACTORS
330
1CD9
102
}
330
1CD9
100
AcDbXrecord
280
     1
 40
3752.0
  1
90,0°
  0
LAYOUT
  5
1E
102
{ACAD_XDICTIONARY
360
1CD3
102
}
102
{ACAD_REACTORS
330
1A
102
}
330
1A
100
AcDbPlotSettings
  1

  2
Ploter HP500
  4

  6

 40
0.0
 41
0.0
 42
0.0
 43
0.0
 44
0.0
 45
0.0
 46
0.0
 47
0.0
 48
0.0
 49
0.0
140
0.0
141
0.0
142
1.0
143
1.0
 70
   688
 72
     0
 73
     0
 74
     5
  7
monochrome.ctb
 75
    16
147
1.0
148
0.0
149
0.0
100
AcDbLayout
  1
Layout1
 70
     1
 71
     1
 10
0.0
 20
0.0
 11
420.0
 21
297.0
 12
0.0
 22
0.0
 32
0.0
 14
1.000000000000000E+20
 24
1.000000000000000E+20
 34
1.000000000000000E+20
 15
-1.000000000000000E+20
 25
-1.000000000000000E+20
 35
-1.000000000000000E+20
146
0.0
 13
0.0
 23
0.0
 33
0.0
 16
1.0
 26
0.0
 36
0.0
 17
0.0
 27
1.0
 37
0.0
 76
     0
330
1B
  0
LAYOUT
  5
26
102
{ACAD_XDICTIONARY
360
1CD7
102
}
102
{ACAD_REACTORS
330
1A
102
}
330
1A
100
AcDbPlotSettings
  1

  2
Ploter HP500
  4

  6

 40
0.0
 41
0.0
 42
0.0
 43
0.0
 44
0.0
 45
0.0
 46
0.0
 47
0.0
 48
0.0
 49
0.0
140
0.0
141
0.0
142
1.0
143
1.0
 70
   688
 72
     0
 73
     0
 74
     5
  7
monochrome.ctb
 75
    16
147
1.0
148
0.0
149
0.0
100
AcDbLayout
  1
Layout2
 70
     1
 71
     2
 10
0.0
 20
0.0
 11
12.0
 21
9.0
 12
0.0
 22
0.0
 32
0.0
 14
0.0
 24
0.0
 34
0.0
 15
0.0
 25
0.0
 35
0.0
146
0.0
 13
0.0
 23
0.0
 33
0.0
 16
1.0
 26
0.0
 36
0.0
 17
0.0
 27
1.0
 37
0.0
 76
     0
330
23
  0
LAYOUT
  5
22
102
{ACAD_XDICTIONARY
360
1CD5
102
}
102
{ACAD_REACTORS
330
1A
102
}
330
1A
100
AcDbPlotSettings
  1

  2
Ploter HP500
  4
User268
  6

 40
4.995333194732666
 41
16.97565841674804
 42
4.995330810546875
 43
16.97567749023437
 44
209.9733276367187
 45
296.9259948730469
 46
0.0
 47
0.0
 48
0.0
 49
0.0
140
0.0
141
0.0
142
1.0
143
1.0
 70
 11952
 72
     1
 73
     1
 74
     0
  7

 75
     0
147
1.0
148
-427.5957866592534
149
7.362384574453926
100
AcDbLayout
  1
Model
 70
     1
 71
     0
 10
0.0
 20
0.0
 11
12.0
 21
9.0
 12
0.0
 22
0.0
 32
0.0
 14
0.0
 24
0.0
 34
0.0
 15
0.0
 25
0.0
 35
0.0
146
0.0
 13
0.0
 23
0.0
 33
0.0
 16
1.0
 26
0.0
 36
0.0
 17
0.0
 27
1.0
 37
0.0
 76
     0
330
1F
331
1BFE
  0
MATERIAL
  5
1C09
102
{ACAD_XDICTIONARY
360
1C0A
102
}
102
{ACAD_REACTORS
330
1C00
102
}
330
1C00
100
AcDbMaterial
  1
ByBlock
 72
     0
 43
0.0008202099737533
 43
0.0
 43
0.0
 43
0.0
 43
0.0
 43
0.0008202099737533
 43
0.0
 43
0.0
 43
0.0
 43
0.0
 43
1.0
 43
0.0
 43
0.0
 43
0.0
 43
0.0
 43
1.0
 77
     0
 47
0.0008202099737533
 47
0.0
 47
0.0
 47
0.0
 47
0.0
 47
0.0008202099737533
 47
0.0
 47
0.0
 47
0.0
 47
0.0
 47
1.0
 47
0.0
 47
0.0
 47
0.0
 47
0.0
 47
1.0
171
     0
 49
0.0008202099737533
 49
0.0
 49
0.0
 49
0.0
 49
0.0
 49
0.0008202099737533
 49
0.0
 49
0.0
 49
0.0
 49
0.0
 49
1.0
 49
0.0
 49
0.0
 49
0.0
 49
0.0
 49
1.0
175
     0
142
0.0008202099737533
142
0.0
142
0.0
142
0.0
142
0.0
142
0.0008202099737533
142
0.0
142
0.0
142
0.0
142
0.0
142
1.0
142
0.0
142
0.0
142
0.0
142
0.0
142
1.0
179
     0
144
0.0008202099737533
144
0.0
144
0.0
144
0.0
144
0.0
144
0.0008202099737533
144
0.0
144
0.0
144
0.0
144
0.0
144
1.0
144
0.0
144
0.0
144
0.0
144
0.0
144
1.0
147
0.0008202099737533
147
0.0
147
0.0
147
0.0
147
0.0
147
0.0008202099737533
147
0.0
147
0.0
147
0.0
147
0.0
147
1.0
147
0.0
147
0.0
147
0.0
147
0.0
147
1.0
  0
MATERIAL
  5
1C01
102
{ACAD_XDICTIONARY
360
1C02
102
}
102
{ACAD_REACTORS
330
1C00
102
}
330
1C00
100
AcDbMaterial
  1
ByLayer
 72
     0
 43
0.0008202099737533
 43
0.0
 43
0.0
 43
0.0
 43
0.0
 43
0.0008202099737533
 43
0.0
 43
0.0
 43
0.0
 43
0.0
 43
1.0
 43
0.0
 43
0.0
 43
0.0
 43
0.0
 43
1.0
 77
     0
 47
0.0008202099737533
 47
0.0
 47
0.0
 47
0.0
 47
0.0
 47
0.0008202099737533
 47
0.0
 47
0.0
 47
0.0
 47
0.0
 47
1.0
 47
0.0
 47
0.0
 47
0.0
 47
0.0
 47
1.0
171
     0
 49
0.0008202099737533
 49
0.0
 49
0.0
 49
0.0
 49
0.0
 49
0.0008202099737533
 49
0.0
 49
0.0
 49
0.0
 49
0.0
 49
1.0
 49
0.0
 49
0.0
 49
0.0
 49
0.0
 49
1.0
175
     0
142
0.0008202099737533
142
0.0
142
0.0
142
0.0
142
0.0
142
0.0008202099737533
142
0.0
142
0.0
142
0.0
142
0.0
142
1.0
142
0.0
142
0.0
142
0.0
142
0.0
142
1.0
179
     0
144
0.0008202099737533
144
0.0
144
0.0
144
0.0
144
0.0
144
0.0008202099737533
144
0.0
144
0.0
144
0.0
144
0.0
144
1.0
144
0.0
144
0.0
144
0.0
144
0.0
144
1.0
147
0.0008202099737533
147
0.0
147
0.0
147
0.0
147
0.0
147
0.0008202099737533
147
0.0
147
0.0
147
0.0
147
0.0
147
1.0
147
0.0
147
0.0
147
0.0
147
0.0
147
1.0
  0
MATERIAL
  5
1C11
102
{ACAD_XDICTIONARY
360
1C12
102
}
102
{ACAD_REACTORS
330
1C00
102
}
330
1C00
100
AcDbMaterial
  1
Global
 72
     0
 43
0.0008202099737533
 43
0.0
 43
0.0
 43
0.0
 43
0.0
 43
0.0008202099737533
 43
0.0
 43
0.0
 43
0.0
 43
0.0
 43
1.0
 43
0.0
 43
0.0
 43
0.0
 43
0.0
 43
1.0
 77
     0
 47
0.0008202099737533
 47
0.0
 47
0.0
 47
0.0
 47
0.0
 47
0.0008202099737533
 47
0.0
 47
0.0
 47
0.0
 47
0.0
 47
1.0
 47
0.0
 47
0.0
 47
0.0
 47
0.0
 47
1.0
171
     0
 49
0.0008202099737533
 49
0.0
 49
0.0
 49
0.0
 49
0.0
 49
0.0008202099737533
 49
0.0
 49
0.0
 49
0.0
 49
0.0
 49
1.0
 49
0.0
 49
0.0
 49
0.0
 49
0.0
 49
1.0
175
     0
142
0.0008202099737533
142
0.0
142
0.0
142
0.0
142
0.0
142
0.0008202099737533
142
0.0
142
0.0
142
0.0
142
0.0
142
1.0
142
0.0
142
0.0
142
0.0
142
0.0
142
1.0
179
     0
144
0.0008202099737533
144
0.0
144
0.0
144
0.0
144
0.0
144
0.0008202099737533
144
0.0
144
0.0
144
0.0
144
0.0
144
1.0
144
0.0
144
0.0
144
0.0
144
0.0
144
1.0
147
0.0008202099737533
147
0.0
147
0.0
147
0.0
147
0.0
147
0.0008202099737533
147
0.0
147
0.0
147
0.0
147
0.0
147
1.0
147
0.0
147
0.0
147
0.0
147
0.0
147
1.0
  0
MLEADERSTYLE
  5
1C43
102
{ACAD_REACTORS
330
1C42
102
}
330
1C42
100
AcDbMLeaderStyle
170
     2
171
     1
172
     0
 90
        2
 40
0.0
 41
0.0
173
     1
 91
-1056964608
340
14
 92
       -2
290
     1
 42
2.0
291
     1
 43
0.36
  3
Standard
 44
4.0
300

342
11
174
     1
178
     6
175
     1
176
     0
 93
-1056964608
 45
4.0
292
     0
297
     0
 46
4.0
 94
-1056964608
 47
1.0
 49
1.0
140
1.0
293
     1
141
0.0
294
     1
177
     0
142
1.0
295
     0
296
     0
143
0.125
1001
ACAD_MLEADERVER
1070
     2
  0
MLINESTYLE
  5
18
102
{ACAD_REACTORS
330
17
102
}
330
17
100
AcDbMlineStyle
  2
STANDARD
 70
     0
  3

 62
   256
 51
90.0
 52
90.0
 71
     2
 49
0.5
 62
   256
  6
BYLAYER
 49
-0.5
 62
   256
  6
BYLAYER
  0
ACDBPLACEHOLDER
  5
F
102
{ACAD_REACTORS
330
E
102
}
330
E
  0
SCALE
  5
1C31
102
{ACAD_REACTORS
330
1C30
102
}
330
1C30
100
AcDbScale
 70
     0
300
1:1
140
1.0
141
1.0
290
     1
  0
SCALE
  5
1C32
102
{ACAD_REACTORS
330
1C30
102
}
330
1C30
100
AcDbScale
 70
     0
300
1:2
140
1.0
141
2.0
290
     0
  0
SCALE
  5
1C33
102
{ACAD_REACTORS
330
1C30
102
}
330
1C30
100
AcDbScale
 70
     0
300
1:4
140
1.0
141
4.0
290
     0
  0
SCALE
  5
1C34
102
{ACAD_REACTORS
330
1C30
102
}
330
1C30
100
AcDbScale
 70
     0
300
1:5
140
1.0
141
5.0
290
     0
  0
SCALE
  5
1C35
102
{ACAD_REACTORS
330
1C30
102
}
330
1C30
100
AcDbScale
 70
     0
300
1:8
140
1.0
141
8.0
290
     0
  0
SCALE
  5
1C36
102
{ACAD_REACTORS
330
1C30
102
}
330
1C30
100
AcDbScale
 70
     0
300
1:10
140
1.0
141
10.0
290
     0
  0
SCALE
  5
1C37
102
{ACAD_REACTORS
330
1C30
102
}
330
1C30
100
AcDbScale
 70
     0
300
1:16
140
1.0
141
16.0
290
     0
  0
SCALE
  5
1C38
102
{ACAD_REACTORS
330
1C30
102
}
330
1C30
100
AcDbScale
 70
     0
300
1:20
140
1.0
141
20.0
290
     0
  0
SCALE
  5
1C39
102
{ACAD_REACTORS
330
1C30
102
}
330
1C30
100
AcDbScale
 70
     0
300
1:30
140
1.0
141
30.0
290
     0
  0
SCALE
  5
1C3A
102
{ACAD_REACTORS
330
1C30
102
}
330
1C30
100
AcDbScale
 70
     0
300
1:40
140
1.0
141
40.0
290
     0
  0
SCALE
  5
1C3B
102
{ACAD_REACTORS
330
1C30
102
}
330
1C30
100
AcDbScale
 70
     0
300
1:50
140
1.0
141
50.0
290
     0
  0
SCALE
  5
1C3C
102
{ACAD_REACTORS
330
1C30
102
}
330
1C30
100
AcDbScale
 70
     0
300
1:100
140
1.0
141
100.0
290
     0
  0
SCALE
  5
1C3D
102
{ACAD_REACTORS
330
1C30
102
}
330
1C30
100
AcDbScale
 70
     0
300
2:1
140
2.0
141
1.0
290
     0
  0
SCALE
  5
1C3E
102
{ACAD_REACTORS
330
1C30
102
}
330
1C30
100
AcDbScale
 70
     0
300
4:1
140
4.0
141
1.0
290
     0
  0
SCALE
  5
1C3F
102
{ACAD_REACTORS
330
1C30
102
}
330
1C30
100
AcDbScale
 70
     0
300
8:1
140
8.0
141
1.0
290
     0
  0
SCALE
  5
1C40
102
{ACAD_REACTORS
330
1C30
102
}
330
1C30
100
AcDbScale
 70
     0
300
10:1
140
10.0
141
1.0
290
     0
  0
SCALE
  5
1C41
102
{ACAD_REACTORS
330
1C30
102
}
330
1C30
100
AcDbScale
 70
     0
300
100:1
140
100.0
141
1.0
290
     0
  0
TABLESTYLE
  5
1C2F
102
{ACAD_XDICTIONARY
360
1CCF
102
}
102
{ACAD_REACTORS
330
1C2E
102
}
330
1C2E
100
AcDbTableStyle
  3
Standard
 70
     0
 71
     0
 40
1.5
 41
1.5
280
     0
281
     0
  7
Standard
140
4.5
170
     2
 62
     0
 63
     7
283
     0
274
    -2
284
     1
 64
     0
275
    -2
285
     1
 65
     0
276
    -2
286
     1
 66
     0
277
    -2
287
     1
 67
     0
278
    -2
288
     1
 68
     0
279
    -2
289
     1
 69
     0
  7
Standard
140
6.0
170
     5
 62
     0
 63
     7
283
     0
274
    -2
284
     1
 64
     0
275
    -2
285
     1
 65
     0
276
    -2
286
     1
 66
     0
277
    -2
287
     1
 67
     0
278
    -2
288
     1
 68
     0
279
    -2
289
     1
 69
     0
  7
Standard
140
4.5
170
     5
 62
     0
 63
     7
283
     0
274
    -2
284
     1
 64
     0
275
    -2
285
     1
 65
     0
276
    -2
286
     1
 66
     0
277
    -2
287
     1
 67
     0
278
    -2
288
     1
 68
     0
279
    -2
289
     1
 69
     0
  0
VISUALSTYLE
  5
1C1F
102
{ACAD_XDICTIONARY
360
1CE8
102
}
102
{ACAD_REACTORS
330
1C19
102
}
330
1C19
100
AcDbVisualStyle
  2
2dWireframe
 70
     4
 71
     0
 72
     2
 73
     0
 90
        0
 40
-0.6
 41
-30.0
 62
     5
 63
     7
 74
     1
 91
        4
 64
     7
 65
   257
 75
     1
175
     1
 42
1.0
 92
        0
 66
   257
 43
1.0
 76
     1
 77
     6
 78
     2
 67
     7
 79
     5
170
     0
171
     0
290
     0
174
     0
 93
        1
 44
0.0
173
     0
291
     0
 45
0.0
1001
ACAD
1000
AcDbSavedByObjectVersion
1070
     0
  0
VISUALSTYLE
  5
1C21
102
{ACAD_XDICTIONARY
360
1CEC
102
}
102
{ACAD_REACTORS
330
1C19
102
}
330
1C19
100
AcDbVisualStyle
  2
3D Hidden
 70
     6
 71
     1
 72
     2
 73
     2
 90
        0
 40
-0.6
 41
-30.0
 62
     5
 63
     7
 74
     2
 91
        2
 64
     7
 65
   257
 75
     2
175
     1
 42
179.0
 92
        0
 66
   257
 43
1.0
 76
     1
 77
     6
 78
     2
 67
     7
 79
     3
170
     0
171
     0
290
     0
174
     0
 93
        1
 44
0.0
173
     0
291
     0
 45
0.0
1001
ACAD
1000
AcDbSavedByObjectVersion
1070
     0
  0
VISUALSTYLE
  5
1C20
102
{ACAD_XDICTIONARY
360
1CEA
102
}
102
{ACAD_REACTORS
330
1C19
102
}
330
1C19
100
AcDbVisualStyle
  2
3dWireframe
 70
     5
 71
     0
 72
     2
 73
     0
 90
        0
 40
-0.6
 41
-30.0
 62
     5
 63
     7
 74
     1
 91
        4
 64
     7
 65
   257
 75
     1
175
     1
 42
1.0
 92
        0
 66
   257
 43
1.0
 76
     1
 77
     6
 78
     2
 67
     7
 79
     5
170
     0
171
     0
290
     0
174
     0
 93
        1
 44
0.0
173
     0
291
     0
 45
0.0
1001
ACAD
1000
AcDbSavedByObjectVersion
1070
     0
  0
VISUALSTYLE
  5
1C1E
102
{ACAD_XDICTIONARY
360
1CE6
102
}
102
{ACAD_REACTORS
330
1C19
102
}
330
1C19
100
AcDbVisualStyle
  2
Basic
 70
     7
 71
     1
 72
     0
 73
     1
 90
        0
 40
-0.6
 41
-30.0
 62
     5
 63
     7
 74
     0
 91
        4
 64
     7
 65
   257
 75
     1
175
     1
 42
1.0
 92
        8
 66
     7
 43
1.0
 76
     1
 77
     6
 78
     2
 67
     7
 79
     5
170
     0
171
     0
290
     0
174
     0
 93
        1
 44
0.0
173
     0
291
     1
 45
0.0
1001
ACAD
1000
AcDbSavedByObjectVersion
1070
     0
  0
VISUALSTYLE
  5
1C25
102
{ACAD_XDICTIONARY
360
1CF4
102
}
102
{ACAD_REACTORS
330
1C19
102
}
330
1C19
100
AcDbVisualStyle
  2
Brighten
 70
    12
 71
     2
 72
     2
 73
     0
 90
        0
 40
-0.6
 41
-30.0
 62
     5
 63
     7
 74
     1
 91
        4
 64
     7
 65
   257
 75
     1
175
     1
 42
1.0
 92
        8
 66
     7
 43
1.0
 76
     1
 77
     6
 78
     2
 67
     7
 79
     5
170
     0
171
     0
290
     0
174
     0
 93
        1
 44
50.0
173
     0
291
     1
 45
0.0
1001
ACAD
1000
AcDbSavedByObjectVersion
1070
     0
  0
VISUALSTYLE
  5
1C29
102
{ACAD_XDICTIONARY
360
1CFC
102
}
102
{ACAD_REACTORS
330
1C19
102
}
330
1C19
100
AcDbVisualStyle
  2
ColorChange
 70
    16
 71
     2
 72
     2
 73
     3
 90
        0
 40
-0.6
 41
-30.0
 62
     5
 63
     8
 74
     1
 91
        4
 64
     7
 65
   257
 75
     1
175
     1
 42
1.0
 92
        8
 66
     8
 43
1.0
 76
     1
 77
     6
 78
     2
 67
     7
 79
     5
170
     0
171
     0
290
     0
174
     0
 93
        1
 44
0.0
173
     0
291
     1
 45
0.0
1001
ACAD
1000
AcDbSavedByObjectVersion
1070
     0
  0
VISUALSTYLE
  5
1C22
102
{ACAD_XDICTIONARY
360
1CEE
102
}
102
{ACAD_REACTORS
330
1C19
102
}
330
1C19
100
AcDbVisualStyle
  2
Conceptual
 70
     9
 71
     3
 72
     2
 73
     0
 90
        0
 40
-0.6
 41
-30.0
 62
     5
 63
     7
 74
     2
 91
        2
 64
     7
 65
   257
 75
     1
175
     1
 42
179.0
 92
        8
 66
     7
 43
1.0
 76
     1
 77
     6
 78
     2
 67
     7
 79
     3
170
     0
171
     0
290
     0
174
     0
 93
        1
 44
0.0
173
     0
291
     0
 45
0.0
1001
ACAD
1000
AcDbSavedByObjectVersion
1070
     0
  0
VISUALSTYLE
  5
1C24
102
{ACAD_XDICTIONARY
360
1CF2
102
}
102
{ACAD_REACTORS
330
1C19
102
}
330
1C19
100
AcDbVisualStyle
  2
Dim
 70
    11
 71
     2
 72
     2
 73
     0
 90
        0
 40
-0.6
 41
-30.0
 62
     5
 63
     7
 74
     1
 91
        4
 64
     7
 65
   257
 75
     1
175
     1
 42
1.0
 92
        8
 66
     7
 43
1.0
 76
     1
 77
     6
 78
     2
 67
     7
 79
     5
170
     0
171
     0
290
     0
174
     0
 93
        1
 44
-50.0
173
     0
291
     1
 45
0.0
1001
ACAD
1000
AcDbSavedByObjectVersion
1070
     0
  0
VISUALSTYLE
  5
1C2C
102
{ACAD_XDICTIONARY
360
1D02
102
}
102
{ACAD_REACTORS
330
1C19
102
}
330
1C19
100
AcDbVisualStyle
  2
EdgeColorOff
 70
    22
 71
     2
 72
     2
 73
     0
 90
        0
 40
-0.6
 41
-30.0
 62
     5
 63
     7
 74
     1
 91
        4
 64
     7
 65
   257
 75
     1
175
     1
 42
1.0
 92
        8
 66
     7
 43
1.0
 76
     1
 77
     6
 78
     2
 67
     7
 79
     5
170
     0
171
     0
290
     0
174
     0
 93
        1
 44
0.0
173
     0
291
     1
 45
0.0
1001
ACAD
1000
AcDbSavedByObjectVersion
1070
     0
  0
VISUALSTYLE
  5
1C28
102
{ACAD_XDICTIONARY
360
1CFA
102
}
102
{ACAD_REACTORS
330
1C19
102
}
330
1C19
100
AcDbVisualStyle
  2
Facepattern
 70
    15
 71
     2
 72
     2
 73
     0
 90
        0
 40
-0.6
 41
-30.0
 62
     5
 63
     7
 74
     1
 91
        4
 64
     7
 65
   257
 75
     1
175
     1
 42
1.0
 92
        8
 66
     7
 43
1.0
 76
     1
 77
     6
 78
     2
 67
     7
 79
     5
170
     0
171
     0
290
     0
174
     0
 93
        1
 44
0.0
173
     0
291
     1
 45
0.0
1001
ACAD
1000
AcDbSavedByObjectVersion
1070
     0
  0
VISUALSTYLE
  5
1C1A
102
{ACAD_XDICTIONARY
360
1CDE
102
}
102
{ACAD_REACTORS
330
1C19
102
}
330
1C19
100
AcDbVisualStyle
  2
Flat
 70
     0
 71
     2
 72
     1
 73
     1
 90
        2
 40
-0.6
 41
30.0
 62
     5
 63
     7
 74
     0
 91
        4
 64
     7
 65
   257
 75
     1
175
     1
 42
1.0
 92
        8
 66
     7
 43
1.0
 76
     1
 77
     6
 78
     2
 67
     7
 79
     5
170
     0
171
     0
290
     0
174
     0
 93
       13
 44
0.0
173
     0
291
     1
 45
0.0
1001
ACAD
1000
AcDbSavedByObjectVersion
1070
     0
  0
VISUALSTYLE
  5
1C1B
102
{ACAD_XDICTIONARY
360
1CE0
102
}
102
{ACAD_REACTORS
330
1C19
102
}
330
1C19
100
AcDbVisualStyle
  2
FlatWithEdges
 70
     1
 71
     2
 72
     1
 73
     1
 90
        2
 40
-0.6
 41
30.0
 62
     5
 63
     7
 74
     1
 91
        4
 64
     7
 65
   257
 75
     1
175
     1
 42
1.0
 92
        0
 66
   257
 43
1.0
 76
     1
 77
     6
 78
     2
 67
     7
 79
     5
170
     0
171
     0
290
     0
174
     0
 93
       13
 44
0.0
173
     0
291
     1
 45
0.0
1001
ACAD
1000
AcDbSavedByObjectVersion
1070
     0
  0
VISUALSTYLE
  5
1C1C
102
{ACAD_XDICTIONARY
360
1CE2
102
}
102
{ACAD_REACTORS
330
1C19
102
}
330
1C19
100
AcDbVisualStyle
  2
Gouraud
 70
     2
 71
     2
 72
     2
 73
     1
 90
        2
 40
-0.6
 41
30.0
 62
     5
 63
     7
 74
     0
 91
        4
 64
     7
 65
   257
 75
     1
175
     1
 42
1.0
 92
        0
 66
     7
 43
1.0
 76
     1
 77
     6
 78
     2
 67
     7
 79
     5
170
     0
171
     0
290
     0
174
     0
 93
       13
 44
0.0
173
     0
291
     1
 45
0.0
1001
ACAD
1000
AcDbSavedByObjectVersion
1070
     0
  0
VISUALSTYLE
  5
1C1D
102
{ACAD_XDICTIONARY
360
1CE4
102
}
102
{ACAD_REACTORS
330
1C19
102
}
330
1C19
100
AcDbVisualStyle
  2
GouraudWithEdges
 70
     3
 71
     2
 72
     2
 73
     1
 90
        2
 40
-0.6
 41
30.0
 62
     5
 63
     7
 74
     1
 91
        4
 64
     7
 65
   257
 75
     1
175
     1
 42
1.0
 92
        0
 66
   257
 43
1.0
 76
     1
 77
     6
 78
     2
 67
     7
 79
     5
170
     0
171
     0
290
     0
174
     0
 93
       13
 44
0.0
173
     0
291
     1
 45
0.0
1001
ACAD
1000
AcDbSavedByObjectVersion
1070
     0
  0
VISUALSTYLE
  5
1C2A
102
{ACAD_XDICTIONARY
360
1CFE
102
}
102
{ACAD_REACTORS
330
1C19
102
}
330
1C19
100
AcDbVisualStyle
  2
JitterOff
 70
    20
 71
     2
 72
     2
 73
     0
 90
        0
 40
-0.6
 41
-30.0
 62
     5
 63
     7
 74
     1
 91
        4
 64
     7
 65
   257
 75
     1
175
     1
 42
1.0
 92
       10
 66
     7
 43
1.0
 76
     1
 77
     6
 78
     2
 67
     7
 79
     5
170
     0
171
     0
290
     0
174
     0
 93
        1
 44
0.0
173
     0
291
     1
 45
0.0
1001
ACAD
1000
AcDbSavedByObjectVersion
1070
     0
  0
VISUALSTYLE
  5
1C27
102
{ACAD_XDICTIONARY
360
1CF8
102
}
102
{ACAD_REACTORS
330
1C19
102
}
330
1C19
100
AcDbVisualStyle
  2
Linepattern
 70
    14
 71
     2
 72
     2
 73
     0
 90
        0
 40
-0.6
 41
-30.0
 62
     5
 63
     7
 74
     1
 91
        4
 64
     7
 65
   257
 75
     7
175
     7
 42
1.0
 92
        8
 66
     7
 43
1.0
 76
     1
 77
     6
 78
     2
 67
     7
 79
     5
170
     0
171
     0
290
     0
174
     0
 93
        1
 44
0.0
173
     0
291
     1
 45
0.0
1001
ACAD
1000
AcDbSavedByObjectVersion
1070
     0
  0
VISUALSTYLE
  5
1C2B
102
{ACAD_XDICTIONARY
360
1D00
102
}
102
{ACAD_REACTORS
330
1C19
102
}
330
1C19
100
AcDbVisualStyle
  2
OverhangOff
 70
    21
 71
     2
 72
     2
 73
     0
 90
        0
 40
-0.6
 41
-30.0
 62
     5
 63
     7
 74
     1
 91
        4
 64
     7
 65
   257
 75
     1
175
     1
 42
1.0
 92
        9
 66
     7
 43
1.0
 76
     1
 77
     6
 78
     2
 67
     7
 79
     5
170
     0
171
     0
290
     0
174
     0
 93
        1
 44
0.0
173
     0
291
     1
 45
0.0
1001
ACAD
1000
AcDbSavedByObjectVersion
1070
     0
  0
VISUALSTYLE
  5
1C23
102
{ACAD_XDICTIONARY
360
1CF0
102
}
102
{ACAD_REACTORS
330
1C19
102
}
330
1C19
100
AcDbVisualStyle
  2
Realistic
 70
     8
 71
     2
 72
     2
 73
     0
 90
        0
 40
-0.6
 41
-30.0
 62
     5
 63
     7
 74
     1
 91
        0
 64
     7
 65
   257
 75
     1
175
     1
 42
1.0
 92
        8
 66
     8
 43
1.0
 76
     1
 77
     6
 78
     2
 67
     7
 79
     5
170
     0
171
     0
290
     0
174
     0
 93
       13
 44
0.0
173
     0
291
     0
 45
0.0
1001
ACAD
1000
AcDbSavedByObjectVersion
1070
     0
  0
VISUALSTYLE
  5
1C26
102
{ACAD_XDICTIONARY
360
1CF6
102
}
102
{ACAD_REACTORS
330
1C19
102
}
330
1C19
100
AcDbVisualStyle
  2
Thicken
 70
    13
 71
     2
 72
     2
 73
     0
 90
        0
 40
-0.6
 41
-30.0
 62
     5
 63
     7
 74
     1
 91
        4
 64
     7
 65
   257
 75
     1
175
     1
 42
1.0
 92
       12
 66
     7
 43
1.0
 76
     1
 77
     6
 78
     2
 67
     7
 79
     5
170
     0
171
     0
290
     0
174
     0
 93
        1
 44
0.0
173
     0
291
     1
 45
0.0
1001
ACAD
1000
AcDbSavedByObjectVersion
1070
     0
  0
DICTIONARYVAR
  5
1CCB
102
{ACAD_REACTORS
330
3D
102
}
330
3D
100
DictionaryVariables
280
     0
  1
1:1
  0
DICTIONARYVAR
  5
1CCA
102
{ACAD_REACTORS
330
3D
102
}
330
3D
100
DictionaryVariables
280
     0
  1
STANDARD
  0
DICTIONARYVAR
  5
1CC9
102
{ACAD_REACTORS
330
3D
102
}
330
3D
100
DictionaryVariables
280
     0
  1
STANDARD
  0
DICTIONARYVAR
  5
3F
102
{ACAD_REACTORS
330
3D
102
}
330
3D
100
DictionaryVariables
280
     0
  1
2
  0
DICTIONARYVAR
  5
3E
102
{ACAD_REACTORS
330
3D
102
}
330
3D
100
DictionaryVariables
280
     0
  1
1
  0
DICTIONARYVAR
  5
1CCD
102
{ACAD_REACTORS
330
3D
102
}
330
3D
100
DictionaryVariables
280
     0
  1
0
  0
DICTIONARYVAR
  5
1CCC
102
{ACAD_REACTORS
330
3D
102
}
330
3D
100
DictionaryVariables
280
     0
  1
127
  0
DICTIONARYVAR
  5
1CCE
102
{ACAD_REACTORS
330
3D
102
}
330
3D
100
DictionaryVariables
280
     0
  1
2
  0
XRECORD
  5
199E
102
{ACAD_REACTORS
330
199D
102
}
330
199D
100
AcDbXrecord
280
     1
  0
DICTIONARY
  5
1CD3
330
1E
100
AcDbDictionary
280
     1
281
     1
  3
ACAD_XREC_ROUNDTRIP
360
1CD4
  0
DICTIONARY
  5
1CD7
330
26
100
AcDbDictionary
280
     1
281
     1
  3
ACAD_XREC_ROUNDTRIP
360
1CD8
  0
DICTIONARY
  5
1CD5
330
22
100
AcDbDictionary
280
     1
281
     1
  3
ACAD_XREC_ROUNDTRIP
360
1CD6
  0
DICTIONARY
  5
1C0A
330
1C09
100
AcDbDictionary
280
     1
281
     1
  3
ACAD_XREC_ROUNDTRIP
360
1CDC
  3
BUMPTILE
360
1C0C
  3
DIFFUSETILE
360
1C0B
  3
OPACITYTILE
360
1C0F
  3
REFLECTIONTILE
360
1C0E
  3
REFRACTIONTILE
360
1C10
  3
SPECULARTILE
360
1C0D
  0
DICTIONARY
  5
1C02
330
1C01
100
AcDbDictionary
280
     1
281
     1
  3
ACAD_XREC_ROUNDTRIP
360
1CDB
  3
BUMPTILE
360
1C04
  3
DIFFUSETILE
360
1C03
  3
OPACITYTILE
360
1C07
  3
REFLECTIONTILE
360
1C06
  3
REFRACTIONTILE
360
1C08
  3
SPECULARTILE
360
1C05
  0
DICTIONARY
  5
1C12
330
1C11
100
AcDbDictionary
280
     1
281
     1
  3
ACAD_XREC_ROUNDTRIP
360
1CDD
  3
BUMPTILE
360
1C14
  3
DIFFUSETILE
360
1C13
  3
OPACITYTILE
360
1C17
  3
REFLECTIONTILE
360
1C16
  3
REFRACTIONTILE
360
1C18
  3
SPECULARTILE
360
1C15
  0
DICTIONARY
  5
1CCF
330
1C2F
100
AcDbDictionary
280
     1
281
     1
  3
ACAD_ROUNDTRIP_2008_TABLESTYLE_CELLSTYLEMAP
360
1CD0
  3
ACAD_XREC_ROUNDTRIP
360
1D04
  0
DICTIONARY
  5
1CE8
330
1C1F
100
AcDbDictionary
280
     1
281
     1
  3
ACAD_XREC_ROUNDTRIP
360
1CE9
  0
DICTIONARY
  5
1CEC
330
1C21
100
AcDbDictionary
280
     1
281
     1
  3
ACAD_XREC_ROUNDTRIP
360
1CED
  0
DICTIONARY
  5
1CEA
330
1C20
100
AcDbDictionary
280
     1
281
     1
  3
ACAD_XREC_ROUNDTRIP
360
1CEB
  0
DICTIONARY
  5
1CE6
330
1C1E
100
AcDbDictionary
280
     1
281
     1
  3
ACAD_XREC_ROUNDTRIP
360
1CE7
  0
DICTIONARY
  5
1CF4
330
1C25
100
AcDbDictionary
280
     1
281
     1
  3
ACAD_XREC_ROUNDTRIP
360
1CF5
  0
DICTIONARY
  5
1CFC
330
1C29
100
AcDbDictionary
280
     1
281
     1
  3
ACAD_XREC_ROUNDTRIP
360
1CFD
  0
DICTIONARY
  5
1CEE
330
1C22
100
AcDbDictionary
280
     1
281
     1
  3
ACAD_XREC_ROUNDTRIP
360
1CEF
  0
DICTIONARY
  5
1CF2
330
1C24
100
AcDbDictionary
280
     1
281
     1
  3
ACAD_XREC_ROUNDTRIP
360
1CF3
  0
DICTIONARY
  5
1D02
330
1C2C
100
AcDbDictionary
280
     1
281
     1
  3
ACAD_XREC_ROUNDTRIP
360
1D03
  0
DICTIONARY
  5
1CFA
330
1C28
100
AcDbDictionary
280
     1
281
     1
  3
ACAD_XREC_ROUNDTRIP
360
1CFB
  0
DICTIONARY
  5
1CDE
330
1C1A
100
AcDbDictionary
280
     1
281
     1
  3
ACAD_XREC_ROUNDTRIP
360
1CDF
  0
DICTIONARY
  5
1CE0
330
1C1B
100
AcDbDictionary
280
     1
281
     1
  3
ACAD_XREC_ROUNDTRIP
360
1CE1
  0
DICTIONARY
  5
1CE2
330
1C1C
100
AcDbDictionary
280
     1
281
     1
  3
ACAD_XREC_ROUNDTRIP
360
1CE3
  0
DICTIONARY
  5
1CE4
330
1C1D
100
AcDbDictionary
280
     1
281
     1
  3
ACAD_XREC_ROUNDTRIP
360
1CE5
  0
DICTIONARY
  5
1CFE
330
1C2A
100
AcDbDictionary
280
     1
281
     1
  3
ACAD_XREC_ROUNDTRIP
360
1CFF
  0
DICTIONARY
  5
1CF8
330
1C27
100
AcDbDictionary
280
     1
281
     1
  3
ACAD_XREC_ROUNDTRIP
360
1CF9
  0
DICTIONARY
  5
1D00
330
1C2B
100
AcDbDictionary
280
     1
281
     1
  3
ACAD_XREC_ROUNDTRIP
360
1D01
  0
DICTIONARY
  5
1CF0
330
1C23
100
AcDbDictionary
280
     1
281
     1
  3
ACAD_XREC_ROUNDTRIP
360
1CF1
  0
DICTIONARY
  5
1CF6
330
1C26
100
AcDbDictionary
280
     1
281
     1
  3
ACAD_XREC_ROUNDTRIP
360
1CF7
  0
XRECORD
  5
1CD4
102
{ACAD_REACTORS
330
1CD3
102
}
330
1CD3
100
AcDbXrecord
280
     1
102
SHADEPLOT
 70
     0
102
SHADEPLOTRESLEVEL
 70
     2
102
SHADEPLOTCUSTOMDPI
 70
   300
  0
XRECORD
  5
1CD8
102
{ACAD_REACTORS
330
1CD7
102
}
330
1CD7
100
AcDbXrecord
280
     1
102
SHADEPLOT
 70
     0
102
SHADEPLOTRESLEVEL
 70
     2
102
SHADEPLOTCUSTOMDPI
 70
   300
  0
XRECORD
  5
1CD6
102
{ACAD_REACTORS
330
1CD5
102
}
330
1CD5
100
AcDbXrecord
280
     1
102
SHADEPLOT
 70
     0
102
SHADEPLOTRESLEVEL
 70
     2
102
SHADEPLOTCUSTOMDPI
 70
   300
  0
XRECORD
  5
1CDC
102
{ACAD_REACTORS
330
1C0A
102
}
330
1C0A
100
AcDbXrecord
280
     1
102
MATERIAL
148
0.0
149
0.0
149
0.0
 93
        0
 94
      127
282
     0
 72
     0
 77
     0
171
     0
175
     0
179
     0
273
     0
  0
XRECORD
  5
1C0C
102
{ACAD_REACTORS
330
1C0A
102
}
330
1C0A
100
AcDbXrecord
280
     1
270
     1
271
     1
  0
XRECORD
  5
1C0B
102
{ACAD_REACTORS
330
1C0A
102
}
330
1C0A
100
AcDbXrecord
280
     1
270
     1
271
     1
  0
XRECORD
  5
1C0F
102
{ACAD_REACTORS
330
1C0A
102
}
330
1C0A
100
AcDbXrecord
280
     1
270
     1
271
     1
  0
XRECORD
  5
1C0E
102
{ACAD_REACTORS
330
1C0A
102
}
330
1C0A
100
AcDbXrecord
280
     1
270
     1
271
     1
  0
XRECORD
  5
1C10
102
{ACAD_REACTORS
330
1C0A
102
}
330
1C0A
100
AcDbXrecord
280
     1
270
     1
271
     1
  0
XRECORD
  5
1C0D
102
{ACAD_REACTORS
330
1C0A
102
}
330
1C0A
100
AcDbXrecord
280
     1
270
     1
271
     1
  0
XRECORD
  5
1CDB
102
{ACAD_REACTORS
330
1C02
102
}
330
1C02
100
AcDbXrecord
280
     1
102
MATERIAL
148
0.0
149
0.0
149
0.0
 93
        0
 94
      127
282
     0
 72
     0
 77
     0
171
     0
175
     0
179
     0
273
     0
  0
XRECORD
  5
1C04
102
{ACAD_REACTORS
330
1C02
102
}
330
1C02
100
AcDbXrecord
280
     1
270
     1
271
     1
  0
XRECORD
  5
1C03
102
{ACAD_REACTORS
330
1C02
102
}
330
1C02
100
AcDbXrecord
280
     1
270
     1
271
     1
  0
XRECORD
  5
1C07
102
{ACAD_REACTORS
330
1C02
102
}
330
1C02
100
AcDbXrecord
280
     1
270
     1
271
     1
  0
XRECORD
  5
1C06
102
{ACAD_REACTORS
330
1C02
102
}
330
1C02
100
AcDbXrecord
280
     1
270
     1
271
     1
  0
XRECORD
  5
1C08
102
{ACAD_REACTORS
330
1C02
102
}
330
1C02
100
AcDbXrecord
280
     1
270
     1
271
     1
  0
XRECORD
  5
1C05
102
{ACAD_REACTORS
330
1C02
102
}
330
1C02
100
AcDbXrecord
280
     1
270
     1
271
     1
  0
XRECORD
  5
1CDD
102
{ACAD_REACTORS
330
1C12
102
}
330
1C12
100
AcDbXrecord
280
     1
102
MATERIAL
148
0.0
149
0.0
149
0.0
 93
        0
 94
      127
282
     0
 72
     0
 77
     0
171
     0
175
     0
179
     0
273
     0
  0
XRECORD
  5
1C14
102
{ACAD_REACTORS
330
1C12
102
}
330
1C12
100
AcDbXrecord
280
     1
270
     1
271
     1
  0
XRECORD
  5
1C13
102
{ACAD_REACTORS
330
1C12
102
}
330
1C12
100
AcDbXrecord
280
     1
270
     1
271
     1
  0
XRECORD
  5
1C17
102
{ACAD_REACTORS
330
1C12
102
}
330
1C12
100
AcDbXrecord
280
     1
270
     1
271
     1
  0
XRECORD
  5
1C16
102
{ACAD_REACTORS
330
1C12
102
}
330
1C12
100
AcDbXrecord
280
     1
270
     1
271
     1
  0
XRECORD
  5
1C18
102
{ACAD_REACTORS
330
1C12
102
}
330
1C12
100
AcDbXrecord
280
     1
270
     1
271
     1
  0
XRECORD
  5
1C15
102
{ACAD_REACTORS
330
1C12
102
}
330
1C12
100
AcDbXrecord
280
     1
270
     1
271
     1
  0
CELLSTYLEMAP
  5
1CD0
102
{ACAD_REACTORS
330
1CCF
102
}
330
1CCF
100
AcDbCellStyleMap
 90
        3
300
CELLSTYLE
  1
TABLEFORMAT_BEGIN
 90
        5
170
     1
 91
        0
 92
    32768
 62
   257
 93
        1
300
CONTENTFORMAT
  1
CONTENTFORMAT_BEGIN
 90
        0
 91
        0
 92
      512
 93
        0
300

 40
0.0
140
1.0
 94
        5
 62
     0
340
11
144
6.0
309
CONTENTFORMAT_END
171
     1
301
MARGIN
  1
CELLMARGIN_BEGIN
 40
1.5
 40
1.5
 40
1.5
 40
1.5
 40
4.5
 40
4.5
309
CELLMARGIN_END
 94
        6
 95
        1
302
GRIDFORMAT
  1
GRIDFORMAT_BEGIN
 90
        0
 91
        1
 62
     0
 92
       -2
340
0
 93
        0
 40
1.125
309
GRIDFORMAT_END
 95
        2
302
GRIDFORMAT
  1
GRIDFORMAT_BEGIN
 90
        0
 91
        1
 62
     0
 92
       -2
340
0
 93
        0
 40
1.125
309
GRIDFORMAT_END
 95
        4
302
GRIDFORMAT
  1
GRIDFORMAT_BEGIN
 90
        0
 91
        1
 62
     0
 92
       -2
340
0
 93
        0
 40
1.125
309
GRIDFORMAT_END
 95
        8
302
GRIDFORMAT
  1
GRIDFORMAT_BEGIN
 90
        0
 91
        1
 62
     0
 92
       -2
340
0
 93
        0
 40
1.125
309
GRIDFORMAT_END
 95
       16
302
GRIDFORMAT
  1
GRIDFORMAT_BEGIN
 90
        0
 91
        1
 62
     0
 92
       -2
340
0
 93
        0
 40
1.125
309
GRIDFORMAT_END
 95
       32
302
GRIDFORMAT
  1
GRIDFORMAT_BEGIN
 90
        0
 91
        1
 62
     0
 92
       -2
340
0
 93
        0
 40
1.125
309
GRIDFORMAT_END
309
TABLEFORMAT_END
  1
CELLSTYLE_BEGIN
 90
        1
 91
        1
300
_TITLE
309
CELLSTYLE_END
300
CELLSTYLE
  1
TABLEFORMAT_BEGIN
 90
        5
170
     1
 91
        0
 92
        0
 62
   257
 93
        1
300
CONTENTFORMAT
  1
CONTENTFORMAT_BEGIN
 90
        0
 91
        0
 92
      512
 93
        0
300

 40
0.0
140
1.0
 94
        5
 62
     0
340
11
144
4.5
309
CONTENTFORMAT_END
171
     1
301
MARGIN
  1
CELLMARGIN_BEGIN
 40
1.5
 40
1.5
 40
1.5
 40
1.5
 40
4.5
 40
4.5
309
CELLMARGIN_END
 94
        6
 95
        1
302
GRIDFORMAT
  1
GRIDFORMAT_BEGIN
 90
        0
 91
        1
 62
     0
 92
       -2
340
0
 93
        0
 40
1.125
309
GRIDFORMAT_END
 95
        2
302
GRIDFORMAT
  1
GRIDFORMAT_BEGIN
 90
        0
 91
        1
 62
     0
 92
       -2
340
0
 93
        0
 40
1.125
309
GRIDFORMAT_END
 95
        4
302
GRIDFORMAT
  1
GRIDFORMAT_BEGIN
 90
        0
 91
        1
 62
     0
 92
       -2
340
0
 93
        0
 40
1.125
309
GRIDFORMAT_END
 95
        8
302
GRIDFORMAT
  1
GRIDFORMAT_BEGIN
 90
        0
 91
        1
 62
     0
 92
       -2
340
0
 93
        0
 40
1.125
309
GRIDFORMAT_END
 95
       16
302
GRIDFORMAT
  1
GRIDFORMAT_BEGIN
 90
        0
 91
        1
 62
     0
 92
       -2
340
0
 93
        0
 40
1.125
309
GRIDFORMAT_END
 95
       32
302
GRIDFORMAT
  1
GRIDFORMAT_BEGIN
 90
        0
 91
        1
 62
     0
 92
       -2
340
0
 93
        0
 40
1.125
309
GRIDFORMAT_END
309
TABLEFORMAT_END
  1
CELLSTYLE_BEGIN
 90
        2
 91
        1
300
_HEADER
309
CELLSTYLE_END
300
CELLSTYLE
  1
TABLEFORMAT_BEGIN
 90
        5
170
     1
 91
        0
 92
        0
 62
   257
 93
        1
300
CONTENTFORMAT
  1
CONTENTFORMAT_BEGIN
 90
        0
 91
        0
 92
      512
 93
        0
300

 40
0.0
140
1.0
 94
        2
 62
     0
340
11
144
4.5
309
CONTENTFORMAT_END
171
     1
301
MARGIN
  1
CELLMARGIN_BEGIN
 40
1.5
 40
1.5
 40
1.5
 40
1.5
 40
4.5
 40
4.5
309
CELLMARGIN_END
 94
        6
 95
        1
302
GRIDFORMAT
  1
GRIDFORMAT_BEGIN
 90
        0
 91
        1
 62
     0
 92
       -2
340
0
 93
        0
 40
1.125
309
GRIDFORMAT_END
 95
        2
302
GRIDFORMAT
  1
GRIDFORMAT_BEGIN
 90
        0
 91
        1
 62
     0
 92
       -2
340
0
 93
        0
 40
1.125
309
GRIDFORMAT_END
 95
        4
302
GRIDFORMAT
  1
GRIDFORMAT_BEGIN
 90
        0
 91
        1
 62
     0
 92
       -2
340
0
 93
        0
 40
1.125
309
GRIDFORMAT_END
 95
        8
302
GRIDFORMAT
  1
GRIDFORMAT_BEGIN
 90
        0
 91
        1
 62
     0
 92
       -2
340
0
 93
        0
 40
1.125
309
GRIDFORMAT_END
 95
       16
302
GRIDFORMAT
  1
GRIDFORMAT_BEGIN
 90
        0
 91
        1
 62
     0
 92
       -2
340
0
 93
        0
 40
1.125
309
GRIDFORMAT_END
 95
       32
302
GRIDFORMAT
  1
GRIDFORMAT_BEGIN
 90
        0
 91
        1
 62
     0
 92
       -2
340
0
 93
        0
 40
1.125
309
GRIDFORMAT_END
309
TABLEFORMAT_END
  1
CELLSTYLE_BEGIN
 90
        3
 91
        2
300
_DATA
309
CELLSTYLE_END
  0
XRECORD
  5
1D04
102
{ACAD_REACTORS
330
1CCF
102
}
330
1CCF
100
AcDbXrecord
280
     1
102
ACAD_ROUNDTRIP_PRE2007_TABLESTYLE
 90
      512
 91
        0
  1

 92
      512
 93
        0
  2

 94
      512
 95
        0
  3

  0
XRECORD
  5
1CE9
102
{ACAD_REACTORS
330
1CE8
102
}
330
1CE8
100
AcDbXrecord
280
     1
102
RTVSPropertyOp0
 70
     1
102
RTVSPropertyOp1
 70
     1
102
RTVSPropertyOp2
 70
     1
102
RTVSPropertyOp3
 70
     1
102
RTVSPropertyOp4
 70
     1
102
RTVSPropertyOp5
 70
     1
102
RTVSPropertyOp6
 70
     1
102
RTVSPropertyOp7
 70
     1
102
RTVSPropertyOp8
 70
     1
102
RTVSPropertyOp9
 70
     1
102
RTVSPropertyOp10
 70
     1
102
RTVSPropertyOp11
 70
     1
102
RTVSPropertyOp12
 70
     1
102
RTVSPropertyOp13
 70
     1
102
RTVSPropertyOp14
 70
     1
102
RTVSPropertyOp15
 70
     1
102
RTVSPropertyOp16
 70
     1
102
RTVSPropertyOp17
 70
     1
102
RTVSPropertyOp18
 70
     1
102
RTVSPropertyOp19
 70
     1
102
RTVSPropertyOp20
 70
     1
102
RTVSPropertyOp21
 70
     1
102
RTVSPropertyOp22
 70
     1
102
RTVSPropertyOp23
 70
     1
102
RTVSPropertyOp24
 70
     1
102
RTVSPropertyOp25
 70
     1
102
RTVSPropertyOp26
 70
     1
102
RTVSPropertyOp27
 70
     1
  0
XRECORD
  5
1CED
102
{ACAD_REACTORS
330
1CEC
102
}
330
1CEC
100
AcDbXrecord
280
     1
102
RTVSPropertyOp0
 70
     1
102
RTVSPropertyOp1
 70
     1
102
RTVSPropertyOp2
 70
     1
102
RTVSPropertyOp3
 70
     1
102
RTVSPropertyOp4
 70
     1
102
RTVSPropertyOp5
 70
     1
102
RTVSPropertyOp6
 70
     1
102
RTVSPropertyOp7
 70
     1
102
RTVSPropertyOp8
 70
     1
102
RTVSPropertyOp9
 70
     1
102
RTVSPropertyOp10
 70
     1
102
RTVSPropertyOp11
 70
     1
102
RTVSPropertyOp12
 70
     1
102
RTVSPropertyOp13
 70
     1
102
RTVSPropertyOp14
 70
     1
102
RTVSPropertyOp15
 70
     1
102
RTVSPropertyOp16
 70
     1
102
RTVSPropertyOp17
 70
     1
102
RTVSPropertyOp18
 70
     1
102
RTVSPropertyOp19
 70
     1
102
RTVSPropertyOp20
 70
     1
102
RTVSPropertyOp21
 70
     1
102
RTVSPropertyOp22
 70
     1
102
RTVSPropertyOp23
 70
     1
102
RTVSPropertyOp24
 70
     1
102
RTVSPropertyOp25
 70
     1
102
RTVSPropertyOp26
 70
     1
102
RTVSPropertyOp27
 70
     1
  0
XRECORD
  5
1CEB
102
{ACAD_REACTORS
330
1CEA
102
}
330
1CEA
100
AcDbXrecord
280
     1
102
RTVSPropertyOp0
 70
     1
102
RTVSPropertyOp1
 70
     1
102
RTVSPropertyOp2
 70
     1
102
RTVSPropertyOp3
 70
     1
102
RTVSPropertyOp4
 70
     1
102
RTVSPropertyOp5
 70
     1
102
RTVSPropertyOp6
 70
     1
102
RTVSPropertyOp7
 70
     1
102
RTVSPropertyOp8
 70
     1
102
RTVSPropertyOp9
 70
     1
102
RTVSPropertyOp10
 70
     1
102
RTVSPropertyOp11
 70
     1
102
RTVSPropertyOp12
 70
     1
102
RTVSPropertyOp13
 70
     1
102
RTVSPropertyOp14
 70
     1
102
RTVSPropertyOp15
 70
     1
102
RTVSPropertyOp16
 70
     1
102
RTVSPropertyOp17
 70
     1
102
RTVSPropertyOp18
 70
     1
102
RTVSPropertyOp19
 70
     1
102
RTVSPropertyOp20
 70
     1
102
RTVSPropertyOp21
 70
     1
102
RTVSPropertyOp22
 70
     1
102
RTVSPropertyOp23
 70
     1
102
RTVSPropertyOp24
 70
     1
102
RTVSPropertyOp25
 70
     1
102
RTVSPropertyOp26
 70
     1
102
RTVSPropertyOp27
 70
     1
  0
XRECORD
  5
1CE7
102
{ACAD_REACTORS
330
1CE6
102
}
330
1CE6
100
AcDbXrecord
280
     1
102
RTVSPropertyOp0
 70
     1
102
RTVSPropertyOp1
 70
     1
102
RTVSPropertyOp2
 70
     1
102
RTVSPropertyOp3
 70
     1
102
RTVSPropertyOp4
 70
     1
102
RTVSPropertyOp5
 70
     1
102
RTVSPropertyOp6
 70
     1
102
RTVSPropertyOp7
 70
     1
102
RTVSPropertyOp8
 70
     1
102
RTVSPropertyOp9
 70
     1
102
RTVSPropertyOp10
 70
     1
102
RTVSPropertyOp11
 70
     1
102
RTVSPropertyOp12
 70
     1
102
RTVSPropertyOp13
 70
     1
102
RTVSPropertyOp14
 70
     1
102
RTVSPropertyOp15
 70
     1
102
RTVSPropertyOp16
 70
     1
102
RTVSPropertyOp17
 70
     1
102
RTVSPropertyOp18
 70
     1
102
RTVSPropertyOp19
 70
     1
102
RTVSPropertyOp20
 70
     1
102
RTVSPropertyOp21
 70
     1
102
RTVSPropertyOp22
 70
     1
102
RTVSPropertyOp23
 70
     1
102
RTVSPropertyOp24
 70
     1
102
RTVSPropertyOp25
 70
     1
102
RTVSPropertyOp26
 70
     1
102
RTVSPropertyOp27
 70
     1
  0
XRECORD
  5
1CF5
102
{ACAD_REACTORS
330
1CF4
102
}
330
1CF4
100
AcDbXrecord
280
     1
102
RTVSPropertyOp0
 70
     1
102
RTVSPropertyOp1
 70
     1
102
RTVSPropertyOp2
 70
     1
102
RTVSPropertyOp3
 70
     1
102
RTVSPropertyOp4
 70
     1
102
RTVSPropertyOp5
 70
     1
102
RTVSPropertyOp6
 70
     1
102
RTVSPropertyOp7
 70
     1
102
RTVSPropertyOp8
 70
     1
102
RTVSPropertyOp9
 70
     1
102
RTVSPropertyOp10
 70
     1
102
RTVSPropertyOp11
 70
     1
102
RTVSPropertyOp12
 70
     1
102
RTVSPropertyOp13
 70
     1
102
RTVSPropertyOp14
 70
     1
102
RTVSPropertyOp15
 70
     1
102
RTVSPropertyOp16
 70
     1
102
RTVSPropertyOp17
 70
     1
102
RTVSPropertyOp18
 70
     1
102
RTVSPropertyOp19
 70
     1
102
RTVSPropertyOp20
 70
     1
102
RTVSPropertyOp21
 70
     1
102
RTVSPropertyOp22
 70
     1
102
RTVSPropertyOp23
 70
     1
102
RTVSPropertyOp24
 70
     1
102
RTVSPropertyOp25
 70
     1
102
RTVSPropertyOp26
 70
     1
102
RTVSPropertyOp27
 70
     1
  0
XRECORD
  5
1CFD
102
{ACAD_REACTORS
330
1CFC
102
}
330
1CFC
100
AcDbXrecord
280
     1
102
RTVSPropertyOp0
 70
     1
102
RTVSPropertyOp1
 70
     1
102
RTVSPropertyOp2
 70
     1
102
RTVSPropertyOp3
 70
     1
102
RTVSPropertyOp4
 70
     1
102
RTVSPropertyOp5
 70
     1
102
RTVSPropertyOp6
 70
     1
102
RTVSPropertyOp7
 70
     1
102
RTVSPropertyOp8
 70
     1
102
RTVSPropertyOp9
 70
     1
102
RTVSPropertyOp10
 70
     1
102
RTVSPropertyOp11
 70
     1
102
RTVSPropertyOp12
 70
     1
102
RTVSPropertyOp13
 70
     1
102
RTVSPropertyOp14
 70
     1
102
RTVSPropertyOp15
 70
     1
102
RTVSPropertyOp16
 70
     1
102
RTVSPropertyOp17
 70
     1
102
RTVSPropertyOp18
 70
     1
102
RTVSPropertyOp19
 70
     1
102
RTVSPropertyOp20
 70
     1
102
RTVSPropertyOp21
 70
     1
102
RTVSPropertyOp22
 70
     1
102
RTVSPropertyOp23
 70
     1
102
RTVSPropertyOp24
 70
     1
102
RTVSPropertyOp25
 70
     1
102
RTVSPropertyOp26
 70
     1
102
RTVSPropertyOp27
 70
     1
  0
XRECORD
  5
1CEF
102
{ACAD_REACTORS
330
1CEE
102
}
330
1CEE
100
AcDbXrecord
280
     1
102
RTVSPropertyOp0
 70
     1
102
RTVSPropertyOp1
 70
     1
102
RTVSPropertyOp2
 70
     1
102
RTVSPropertyOp3
 70
     1
102
RTVSPropertyOp4
 70
     1
102
RTVSPropertyOp5
 70
     1
102
RTVSPropertyOp6
 70
     1
102
RTVSPropertyOp7
 70
     1
102
RTVSPropertyOp8
 70
     1
102
RTVSPropertyOp9
 70
     1
102
RTVSPropertyOp10
 70
     1
102
RTVSPropertyOp11
 70
     1
102
RTVSPropertyOp12
 70
     1
102
RTVSPropertyOp13
 70
     1
102
RTVSPropertyOp14
 70
     1
102
RTVSPropertyOp15
 70
     1
102
RTVSPropertyOp16
 70
     1
102
RTVSPropertyOp17
 70
     1
102
RTVSPropertyOp18
 70
     1
102
RTVSPropertyOp19
 70
     1
102
RTVSPropertyOp20
 70
     1
102
RTVSPropertyOp21
 70
     1
102
RTVSPropertyOp22
 70
     1
102
RTVSPropertyOp23
 70
     1
102
RTVSPropertyOp24
 70
     1
102
RTVSPropertyOp25
 70
     1
102
RTVSPropertyOp26
 70
     1
102
RTVSPropertyOp27
 70
     1
  0
XRECORD
  5
1CF3
102
{ACAD_REACTORS
330
1CF2
102
}
330
1CF2
100
AcDbXrecord
280
     1
102
RTVSPropertyOp0
 70
     1
102
RTVSPropertyOp1
 70
     1
102
RTVSPropertyOp2
 70
     1
102
RTVSPropertyOp3
 70
     1
102
RTVSPropertyOp4
 70
     1
102
RTVSPropertyOp5
 70
     1
102
RTVSPropertyOp6
 70
     1
102
RTVSPropertyOp7
 70
     1
102
RTVSPropertyOp8
 70
     1
102
RTVSPropertyOp9
 70
     1
102
RTVSPropertyOp10
 70
     1
102
RTVSPropertyOp11
 70
     1
102
RTVSPropertyOp12
 70
     1
102
RTVSPropertyOp13
 70
     1
102
RTVSPropertyOp14
 70
     1
102
RTVSPropertyOp15
 70
     1
102
RTVSPropertyOp16
 70
     1
102
RTVSPropertyOp17
 70
     1
102
RTVSPropertyOp18
 70
     1
102
RTVSPropertyOp19
 70
     1
102
RTVSPropertyOp20
 70
     1
102
RTVSPropertyOp21
 70
     1
102
RTVSPropertyOp22
 70
     1
102
RTVSPropertyOp23
 70
     1
102
RTVSPropertyOp24
 70
     1
102
RTVSPropertyOp25
 70
     1
102
RTVSPropertyOp26
 70
     1
102
RTVSPropertyOp27
 70
     1
  0
XRECORD
  5
1D03
102
{ACAD_REACTORS
330
1D02
102
}
330
1D02
100
AcDbXrecord
280
     1
102
RTVSPropertyOp0
 70
     0
102
RTVSPropertyOp1
 70
     0
102
RTVSPropertyOp2
 70
     0
102
RTVSPropertyOp3
 70
     0
102
RTVSPropertyOp4
 70
     0
102
RTVSPropertyOp5
 70
     0
102
RTVSPropertyOp6
 70
     0
102
RTVSPropertyOp7
 70
     0
102
RTVSPropertyOp8
 70
     0
102
RTVSPropertyOp9
 70
     0
102
RTVSPropertyOp10
 70
     0
102
RTVSPropertyOp11
 70
     0
102
RTVSPropertyOp12
 70
     0
102
RTVSPropertyOp13
 70
     0
102
RTVSPropertyOp14
 70
     2
102
RTVSPropertyOp15
 70
     0
102
RTVSPropertyOp16
 70
     0
102
RTVSPropertyOp17
 70
     0
102
RTVSPropertyOp18
 70
     0
102
RTVSPropertyOp19
 70
     0
102
RTVSPropertyOp20
 70
     0
102
RTVSPropertyOp21
 70
     0
102
RTVSPropertyOp22
 70
     0
102
RTVSPropertyOp23
 70
     0
102
RTVSPropertyOp24
 70
     0
102
RTVSPropertyOp25
 70
     0
102
RTVSPropertyOp26
 70
     0
102
RTVSPropertyOp27
 70
     0
  0
XRECORD
  5
1CFB
102
{ACAD_REACTORS
330
1CFA
102
}
330
1CFA
100
AcDbXrecord
280
     1
102
RTVSPropertyOp0
 70
     1
102
RTVSPropertyOp1
 70
     1
102
RTVSPropertyOp2
 70
     1
102
RTVSPropertyOp3
 70
     1
102
RTVSPropertyOp4
 70
     1
102
RTVSPropertyOp5
 70
     1
102
RTVSPropertyOp6
 70
     1
102
RTVSPropertyOp7
 70
     1
102
RTVSPropertyOp8
 70
     1
102
RTVSPropertyOp9
 70
     1
102
RTVSPropertyOp10
 70
     1
102
RTVSPropertyOp11
 70
     1
102
RTVSPropertyOp12
 70
     1
102
RTVSPropertyOp13
 70
     1
102
RTVSPropertyOp14
 70
     1
102
RTVSPropertyOp15
 70
     1
102
RTVSPropertyOp16
 70
     1
102
RTVSPropertyOp17
 70
     1
102
RTVSPropertyOp18
 70
     1
102
RTVSPropertyOp19
 70
     1
102
RTVSPropertyOp20
 70
     1
102
RTVSPropertyOp21
 70
     1
102
RTVSPropertyOp22
 70
     1
102
RTVSPropertyOp23
 70
     1
102
RTVSPropertyOp24
 70
     1
102
RTVSPropertyOp25
 70
     1
102
RTVSPropertyOp26
 70
     1
102
RTVSPropertyOp27
 70
     1
  0
XRECORD
  5
1CDF
102
{ACAD_REACTORS
330
1CDE
102
}
330
1CDE
100
AcDbXrecord
280
     1
102
RTVSPropertyOp0
 70
     1
102
RTVSPropertyOp1
 70
     1
102
RTVSPropertyOp2
 70
     1
102
RTVSPropertyOp3
 70
     1
102
RTVSPropertyOp4
 70
     1
102
RTVSPropertyOp5
 70
     1
102
RTVSPropertyOp6
 70
     1
102
RTVSPropertyOp7
 70
     1
102
RTVSPropertyOp8
 70
     1
102
RTVSPropertyOp9
 70
     1
102
RTVSPropertyOp10
 70
     1
102
RTVSPropertyOp11
 70
     1
102
RTVSPropertyOp12
 70
     1
102
RTVSPropertyOp13
 70
     1
102
RTVSPropertyOp14
 70
     1
102
RTVSPropertyOp15
 70
     1
102
RTVSPropertyOp16
 70
     1
102
RTVSPropertyOp17
 70
     1
102
RTVSPropertyOp18
 70
     1
102
RTVSPropertyOp19
 70
     1
102
RTVSPropertyOp20
 70
     1
102
RTVSPropertyOp21
 70
     1
102
RTVSPropertyOp22
 70
     1
102
RTVSPropertyOp23
 70
     1
102
RTVSPropertyOp24
 70
     1
102
RTVSPropertyOp25
 70
     1
102
RTVSPropertyOp26
 70
     1
102
RTVSPropertyOp27
 70
     1
  0
XRECORD
  5
1CE1
102
{ACAD_REACTORS
330
1CE0
102
}
330
1CE0
100
AcDbXrecord
280
     1
102
RTVSPropertyOp0
 70
     1
102
RTVSPropertyOp1
 70
     1
102
RTVSPropertyOp2
 70
     1
102
RTVSPropertyOp3
 70
     1
102
RTVSPropertyOp4
 70
     1
102
RTVSPropertyOp5
 70
     1
102
RTVSPropertyOp6
 70
     1
102
RTVSPropertyOp7
 70
     1
102
RTVSPropertyOp8
 70
     1
102
RTVSPropertyOp9
 70
     1
102
RTVSPropertyOp10
 70
     1
102
RTVSPropertyOp11
 70
     1
102
RTVSPropertyOp12
 70
     1
102
RTVSPropertyOp13
 70
     1
102
RTVSPropertyOp14
 70
     1
102
RTVSPropertyOp15
 70
     1
102
RTVSPropertyOp16
 70
     1
102
RTVSPropertyOp17
 70
     1
102
RTVSPropertyOp18
 70
     1
102
RTVSPropertyOp19
 70
     1
102
RTVSPropertyOp20
 70
     1
102
RTVSPropertyOp21
 70
     1
102
RTVSPropertyOp22
 70
     1
102
RTVSPropertyOp23
 70
     1
102
RTVSPropertyOp24
 70
     1
102
RTVSPropertyOp25
 70
     1
102
RTVSPropertyOp26
 70
     1
102
RTVSPropertyOp27
 70
     1
  0
XRECORD
  5
1CE3
102
{ACAD_REACTORS
330
1CE2
102
}
330
1CE2
100
AcDbXrecord
280
     1
102
RTVSPropertyOp0
 70
     1
102
RTVSPropertyOp1
 70
     1
102
RTVSPropertyOp2
 70
     1
102
RTVSPropertyOp3
 70
     1
102
RTVSPropertyOp4
 70
     1
102
RTVSPropertyOp5
 70
     1
102
RTVSPropertyOp6
 70
     1
102
RTVSPropertyOp7
 70
     1
102
RTVSPropertyOp8
 70
     1
102
RTVSPropertyOp9
 70
     1
102
RTVSPropertyOp10
 70
     1
102
RTVSPropertyOp11
 70
     1
102
RTVSPropertyOp12
 70
     1
102
RTVSPropertyOp13
 70
     1
102
RTVSPropertyOp14
 70
     1
102
RTVSPropertyOp15
 70
     1
102
RTVSPropertyOp16
 70
     1
102
RTVSPropertyOp17
 70
     1
102
RTVSPropertyOp18
 70
     1
102
RTVSPropertyOp19
 70
     1
102
RTVSPropertyOp20
 70
     1
102
RTVSPropertyOp21
 70
     1
102
RTVSPropertyOp22
 70
     1
102
RTVSPropertyOp23
 70
     1
102
RTVSPropertyOp24
 70
     1
102
RTVSPropertyOp25
 70
     1
102
RTVSPropertyOp26
 70
     1
102
RTVSPropertyOp27
 70
     1
  0
XRECORD
  5
1CE5
102
{ACAD_REACTORS
330
1CE4
102
}
330
1CE4
100
AcDbXrecord
280
     1
102
RTVSPropertyOp0
 70
     1
102
RTVSPropertyOp1
 70
     1
102
RTVSPropertyOp2
 70
     1
102
RTVSPropertyOp3
 70
     1
102
RTVSPropertyOp4
 70
     1
102
RTVSPropertyOp5
 70
     1
102
RTVSPropertyOp6
 70
     1
102
RTVSPropertyOp7
 70
     1
102
RTVSPropertyOp8
 70
     1
102
RTVSPropertyOp9
 70
     1
102
RTVSPropertyOp10
 70
     1
102
RTVSPropertyOp11
 70
     1
102
RTVSPropertyOp12
 70
     1
102
RTVSPropertyOp13
 70
     1
102
RTVSPropertyOp14
 70
     1
102
RTVSPropertyOp15
 70
     1
102
RTVSPropertyOp16
 70
     1
102
RTVSPropertyOp17
 70
     1
102
RTVSPropertyOp18
 70
     1
102
RTVSPropertyOp19
 70
     1
102
RTVSPropertyOp20
 70
     1
102
RTVSPropertyOp21
 70
     1
102
RTVSPropertyOp22
 70
     1
102
RTVSPropertyOp23
 70
     1
102
RTVSPropertyOp24
 70
     1
102
RTVSPropertyOp25
 70
     1
102
RTVSPropertyOp26
 70
     1
102
RTVSPropertyOp27
 70
     1
  0
XRECORD
  5
1CFF
102
{ACAD_REACTORS
330
1CFE
102
}
330
1CFE
100
AcDbXrecord
280
     1
102
RTVSPropertyOp0
 70
     0
102
RTVSPropertyOp1
 70
     0
102
RTVSPropertyOp2
 70
     0
102
RTVSPropertyOp3
 70
     0
102
RTVSPropertyOp4
 70
     0
102
RTVSPropertyOp5
 70
     0
102
RTVSPropertyOp6
 70
     0
102
RTVSPropertyOp7
 70
     0
102
RTVSPropertyOp8
 70
     0
102
RTVSPropertyOp9
 70
     0
102
RTVSPropertyOp10
 70
     0
102
RTVSPropertyOp11
 70
     0
102
RTVSPropertyOp12
 70
     0
102
RTVSPropertyOp13
 70
     0
102
RTVSPropertyOp14
 70
     2
102
RTVSPropertyOp15
 70
     0
102
RTVSPropertyOp16
 70
     0
102
RTVSPropertyOp17
 70
     0
102
RTVSPropertyOp18
 70
     0
102
RTVSPropertyOp19
 70
     0
102
RTVSPropertyOp20
 70
     0
102
RTVSPropertyOp21
 70
     0
102
RTVSPropertyOp22
 70
     0
102
RTVSPropertyOp23
 70
     0
102
RTVSPropertyOp24
 70
     0
102
RTVSPropertyOp25
 70
     0
102
RTVSPropertyOp26
 70
     0
102
RTVSPropertyOp27
 70
     0
  0
XRECORD
  5
1CF9
102
{ACAD_REACTORS
330
1CF8
102
}
330
1CF8
100
AcDbXrecord
280
     1
102
RTVSPropertyOp0
 70
     1
102
RTVSPropertyOp1
 70
     1
102
RTVSPropertyOp2
 70
     1
102
RTVSPropertyOp3
 70
     1
102
RTVSPropertyOp4
 70
     1
102
RTVSPropertyOp5
 70
     1
102
RTVSPropertyOp6
 70
     1
102
RTVSPropertyOp7
 70
     1
102
RTVSPropertyOp8
 70
     1
102
RTVSPropertyOp9
 70
     1
102
RTVSPropertyOp10
 70
     1
102
RTVSPropertyOp11
 70
     1
102
RTVSPropertyOp12
 70
     1
102
RTVSPropertyOp13
 70
     1
102
RTVSPropertyOp14
 70
     1
102
RTVSPropertyOp15
 70
     1
102
RTVSPropertyOp16
 70
     1
102
RTVSPropertyOp17
 70
     1
102
RTVSPropertyOp18
 70
     1
102
RTVSPropertyOp19
 70
     1
102
RTVSPropertyOp20
 70
     1
102
RTVSPropertyOp21
 70
     1
102
RTVSPropertyOp22
 70
     1
102
RTVSPropertyOp23
 70
     1
102
RTVSPropertyOp24
 70
     1
102
RTVSPropertyOp25
 70
     1
102
RTVSPropertyOp26
 70
     1
102
RTVSPropertyOp27
 70
     1
  0
XRECORD
  5
1D01
102
{ACAD_REACTORS
330
1D00
102
}
330
1D00
100
AcDbXrecord
280
     1
102
RTVSPropertyOp0
 70
     0
102
RTVSPropertyOp1
 70
     0
102
RTVSPropertyOp2
 70
     0
102
RTVSPropertyOp3
 70
     0
102
RTVSPropertyOp4
 70
     0
102
RTVSPropertyOp5
 70
     0
102
RTVSPropertyOp6
 70
     0
102
RTVSPropertyOp7
 70
     0
102
RTVSPropertyOp8
 70
     0
102
RTVSPropertyOp9
 70
     0
102
RTVSPropertyOp10
 70
     0
102
RTVSPropertyOp11
 70
     0
102
RTVSPropertyOp12
 70
     0
102
RTVSPropertyOp13
 70
     0
102
RTVSPropertyOp14
 70
     2
102
RTVSPropertyOp15
 70
     0
102
RTVSPropertyOp16
 70
     0
102
RTVSPropertyOp17
 70
     0
102
RTVSPropertyOp18
 70
     0
102
RTVSPropertyOp19
 70
     0
102
RTVSPropertyOp20
 70
     0
102
RTVSPropertyOp21
 70
     0
102
RTVSPropertyOp22
 70
     0
102
RTVSPropertyOp23
 70
     0
102
RTVSPropertyOp24
 70
     0
102
RTVSPropertyOp25
 70
     0
102
RTVSPropertyOp26
 70
     0
102
RTVSPropertyOp27
 70
     0
  0
XRECORD
  5
1CF1
102
{ACAD_REACTORS
330
1CF0
102
}
330
1CF0
100
AcDbXrecord
280
     1
102
RTVSPropertyOp0
 70
     1
102
RTVSPropertyOp1
 70
     1
102
RTVSPropertyOp2
 70
     1
102
RTVSPropertyOp3
 70
     1
102
RTVSPropertyOp4
 70
     1
102
RTVSPropertyOp5
 70
     1
102
RTVSPropertyOp6
 70
     1
102
RTVSPropertyOp7
 70
     1
102
RTVSPropertyOp8
 70
     1
102
RTVSPropertyOp9
 70
     1
102
RTVSPropertyOp10
 70
     1
102
RTVSPropertyOp11
 70
     1
102
RTVSPropertyOp12
 70
     1
102
RTVSPropertyOp13
 70
     1
102
RTVSPropertyOp14
 70
     1
102
RTVSPropertyOp15
 70
     1
102
RTVSPropertyOp16
 70
     1
102
RTVSPropertyOp17
 70
     1
102
RTVSPropertyOp18
 70
     1
102
RTVSPropertyOp19
 70
     1
102
RTVSPropertyOp20
 70
     1
102
RTVSPropertyOp21
 70
     1
102
RTVSPropertyOp22
 70
     1
102
RTVSPropertyOp23
 70
     1
102
RTVSPropertyOp24
 70
     1
102
RTVSPropertyOp25
 70
     1
102
RTVSPropertyOp26
 70
     1
102
RTVSPropertyOp27
 70
     1
  0
XRECORD
  5
1CF7
102
{ACAD_REACTORS
330
1CF6
102
}
330
1CF6
100
AcDbXrecord
280
     1
102
RTVSPropertyOp0
 70
     1
102
RTVSPropertyOp1
 70
     1
102
RTVSPropertyOp2
 70
     1
102
RTVSPropertyOp3
 70
     1
102
RTVSPropertyOp4
 70
     1
102
RTVSPropertyOp5
 70
     1
102
RTVSPropertyOp6
 70
     1
102
RTVSPropertyOp7
 70
     1
102
RTVSPropertyOp8
 70
     1
102
RTVSPropertyOp9
 70
     1
102
RTVSPropertyOp10
 70
     1
102
RTVSPropertyOp11
 70
     1
102
RTVSPropertyOp12
 70
     1
102
RTVSPropertyOp13
 70
     1
102
RTVSPropertyOp14
 70
     1
102
RTVSPropertyOp15
 70
     1
102
RTVSPropertyOp16
 70
     1
102
RTVSPropertyOp17
 70
     1
102
RTVSPropertyOp18
 70
     1
102
RTVSPropertyOp19
 70
     1
102
RTVSPropertyOp20
 70
     1
102
RTVSPropertyOp21
 70
     1
102
RTVSPropertyOp22
 70
     1
102
RTVSPropertyOp23
 70
     1
102
RTVSPropertyOp24
 70
     1
102
RTVSPropertyOp25
 70
     1
102
RTVSPropertyOp26
 70
     1
102
RTVSPropertyOp27
 70
     1
  0
ENDSEC
  0
EOF
