  0
SECTION
  2
HEADER
  9
$ACADVER
  1
AC1015
  9
$ACADMAINTVER
 70
    20
  9
$DWGCODEPAGE
  3
ANSI_1252
  9
$INSBASE
 10
0.0
 20
0.0
 30
0.0
  9
$EXTMIN
 10
732.3020122497318
 20
1087.305800425728
 30
-0.0000000017940754
  9
$EXTMAX
 10
734.4873853759277
 20
1089.217056158459
 30
0.0000000002005286
  9
$LIMMIN
 10
0.0
 20
0.0
  9
$LIMMAX
 10
420.0
 20
297.0
  9
$ORTHOMODE
 70
     1
  9
$REGENMODE
 70
     1
  9
$FILLMODE
 70
     1
  9
$QTEXTMODE
 70
     0
  9
$MIRRTEXT
 70
     1
  9
$LTSCALE
 40
1.0
  9
$ATTMODE
 70
     1
  9
$TEXTSIZE
 40
2.5
  9
$TRACEWID
 40
1.0
  9
$TEXTSTYLE
  7
SANINDUSA
  9
$CLAYER
  8
cotas
  9
$CELTYPE
  6
ByLayer
  9
$CECOLOR
 62
   256
  9
$CELTSCALE
 40
1.0
  9
$DISPSILH
 70
     0
  9
$DIMSCALE
 40
1.0
  9
$DIMASZ
 40
2.0
  9
$DIMEXO
 40
1.0
  9
$DIMDLI
 40
1.0
  9
$DIMRND
 40
0.0
  9
$DIMDLE
 40
0.0
  9
$DIMEXE
 40
1.0
  9
$DIMTP
 40
0.0
  9
$DIMTM
 40
0.0
  9
$DIMTXT
 40
2.0
  9
$DIMCEN
 40
0.0
  9
$DIMTSZ
 40
0.0
  9
$DIMTOL
 70
     0
  9
$DIMLIM
 70
     0
  9
$DIMTIH
 70
     0
  9
$DIMTOH
 70
     0
  9
$DIMSE1
 70
     0
  9
$DIMSE2
 70
     0
  9
$DIMTAD
 70
     1
  9
$DIMZIN
 70
     8
  9
$DIMBLK
  1

  9
$DIMASO
 70
     1
  9
$DIMSHO
 70
     1
  9
$DIMPOST
  1

  9
$DIMAPOST
  1

  9
$DIMALT
 70
     0
  9
$DIMALTD
 70
     3
  9
$DIMALTF
 40
0.03937007874016
  9
$DIMLFAC
 40
1.0
  9
$DIMTOFL
 70
     1
  9
$DIMTVP
 40
0.0
  9
$DIMTIX
 70
     0
  9
$DIMSOXD
 70
     0
  9
$DIMSAH
 70
     0
  9
$DIMBLK1
  1

  9
$DIMBLK2
  1

  9
$DIMSTYLE
  2
SANINDUSA
  9
$DIMCLRD
 70
   256
  9
$DIMCLRE
 70
   256
  9
$DIMCLRT
 70
   256
  9
$DIMTFAC
 40
1.0
  9
$DIMGAP
 40
1.0
  9
$DIMJUST
 70
     0
  9
$DIMSD1
 70
     0
  9
$DIMSD2
 70
     0
  9
$DIMTOLJ
 70
     0
  9
$DIMTZIN
 70
     8
  9
$DIMALTZ
 70
     0
  9
$DIMALTTZ
 70
     0
  9
$DIMUPT
 70
     0
  9
$DIMDEC
 70
     1
  9
$DIMTDEC
 70
     1
  9
$DIMALTU
 70
     2
  9
$DIMALTTD
 70
     3
  9
$DIMTXSTY
  7
SANINDUSA
  9
$DIMAUNIT
 70
     0
  9
$DIMADEC
 70
     1
  9
$DIMALTRND
 40
0.0
  9
$DIMAZIN
 70
     0
  9
$DIMDSEP
 70
    44
  9
$DIMATFIT
 70
     3
  9
$DIMFRAC
 70
     0
  9
$DIMLDRBLK
  1

  9
$DIMLUNIT
 70
     2
  9
$DIMLWD
 70
    -1
  9
$DIMLWE
 70
    -1
  9
$DIMTMOVE
 70
     0
  9
$LUNITS
 70
     2
  9
$LUPREC
 70
     4
  9
$SKETCHINC
 40
1.0
  9
$FILLETRAD
 40
0.0
  9
$AUNITS
 70
     0
  9
$AUPREC
 70
     0
  9
$MENU
  1
.
  9
$ELEVATION
 40
0.0
  9
$PELEVATION
 40
0.0
  9
$THICKNESS
 40
0.0
  9
$LIMCHECK
 70
     0
  9
$CHAMFERA
 40
10.0
  9
$CHAMFERB
 40
10.0
  9
$CHAMFERC
 40
20.0
  9
$CHAMFERD
 40
0.0
  9
$SKPOLY
 70
     0
  9
$TDCREATE
 40
2453318.800715417
  9
$TDUCREATE
 40
2453318.759048750
  9
$TDUPDATE
 40
2455824.585658634
  9
$TDUUPDATE
 40
2455824.543991968
  9
$TDINDWG
 40
0.0856186574
  9
$TDUSRTIMER
 40
0.0856186574
  9
$USRTIMER
 70
     1
  9
$ANGBASE
 50
0.0
  9
$ANGDIR
 70
     0
  9
$PDMODE
 70
     0
  9
$PDSIZE
 40
0.0
  9
$PLINEWID
 40
0.0
  9
$SPLFRAME
 70
     0
  9
$SPLINETYPE
 70
     6
  9
$SPLINESEGS
 70
     8
  9
$HANDSEED
  5
203F
  9
$SURFTAB1
 70
     6
  9
$SURFTAB2
 70
     6
  9
$SURFTYPE
 70
     6
  9
$SURFU
 70
     6
  9
$SURFV
 70
     6
  9
$UCSBASE
  2

  9
$UCSNAME
  2

  9
$UCSORG
 10
0.0
 20
0.0
 30
0.0
  9
$UCSXDIR
 10
1.0
 20
0.0
 30
0.0
  9
$UCSYDIR
 10
0.0
 20
1.0
 30
0.0
  9
$UCSORTHOREF
  2

  9
$UCSORTHOVIEW
 70
     0
  9
$UCSORGTOP
 10
0.0
 20
0.0
 30
0.0
  9
$UCSORGBOTTOM
 10
0.0
 20
0.0
 30
0.0
  9
$UCSORGLEFT
 10
0.0
 20
0.0
 30
0.0
  9
$UCSORGRIGHT
 10
0.0
 20
0.0
 30
0.0
  9
$UCSORGFRONT
 10
0.0
 20
0.0
 30
0.0
  9
$UCSORGBACK
 10
0.0
 20
0.0
 30
0.0
  9
$PUCSBASE
  2

  9
$PUCSNAME
  2

  9
$PUCSORG
 10
0.0
 20
0.0
 30
0.0
  9
$PUCSXDIR
 10
1.0
 20
0.0
 30
0.0
  9
$PUCSYDIR
 10
0.0
 20
1.0
 30
0.0
  9
$PUCSORTHOREF
  2

  9
$PUCSORTHOVIEW
 70
     0
  9
$PUCSORGTOP
 10
0.0
 20
0.0
 30
0.0
  9
$PUCSORGBOTTOM
 10
0.0
 20
0.0
 30
0.0
  9
$PUCSORGLEFT
 10
0.0
 20
0.0
 30
0.0
  9
$PUCSORGRIGHT
 10
0.0
 20
0.0
 30
0.0
  9
$PUCSORGFRONT
 10
0.0
 20
0.0
 30
0.0
  9
$PUCSORGBACK
 10
0.0
 20
0.0
 30
0.0
  9
$USERI1
 70
     0
  9
$USERI2
 70
     0
  9
$USERI3
 70
     0
  9
$USERI4
 70
     0
  9
$USERI5
 70
     0
  9
$USERR1
 40
0.0
  9
$USERR2
 40
0.0
  9
$USERR3
 40
0.0
  9
$USERR4
 40
0.0
  9
$USERR5
 40
0.0
  9
$WORLDVIEW
 70
     1
  9
$SHADEDGE
 70
     3
  9
$SHADEDIF
 70
    70
  9
$TILEMODE
 70
     1
  9
$MAXACTVP
 70
    64
  9
$PINSBASE
 10
0.0
 20
0.0
 30
0.0
  9
$PLIMCHECK
 70
     0
  9
$PEXTMIN
 10
1.000000000000000E+20
 20
1.000000000000000E+20
 30
1.000000000000000E+20
  9
$PEXTMAX
 10
-1.000000000000000E+20
 20
-1.000000000000000E+20
 30
-1.000000000000000E+20
  9
$PLIMMIN
 10
0.0
 20
0.0
  9
$PLIMMAX
 10
420.0
 20
297.0
  9
$UNITMODE
 70
     0
  9
$VISRETAIN
 70
     1
  9
$PLINEGEN
 70
     0
  9
$PSLTSCALE
 70
     1
  9
$TREEDEPTH
 70
  3020
  9
$CMLSTYLE
  2
Standard
  9
$CMLJUST
 70
     0
  9
$CMLSCALE
 40
20.0
  9
$PROXYGRAPHICS
 70
     1
  9
$MEASUREMENT
 70
     1
  9
$CELWEIGHT
370
    -1
  9
$ENDCAPS
280
     0
  9
$JOINSTYLE
280
     0
  9
$LWDISPLAY
290
     0
  9
$INSUNITS
 70
     4
  9
$HYPERLINKBASE
  1

  9
$STYLESHEET
  1
monochrome.ctb
  9
$XEDIT
290
     1
  9
$CEPSNTYPE
380
     0
  9
$PSTYLEMODE
290
     1
  9
$FINGERPRINTGUID
  2
{B98A73AA-52AA-4C10-B469-C0E7150AC31F}
  9
$VERSIONGUID
  2
{0201DEE9-F4A2-4C6D-A649-886525A1D620}
  9
$EXTNAMES
290
     1
  9
$PSVPSCALE
 40
0.0
  9
$OLESTARTUP
290
     0
  0
ENDSEC
  0
SECTION
  2
CLASSES
  0
CLASS
  1
ACDBDICTIONARYWDFLT
  2
AcDbDictionaryWithDefault
  3
ObjectDBX Classes
 90
        0
280
     0
281
     0
  0
CLASS
  1
ACDBPLACEHOLDER
  2
AcDbPlaceHolder
  3
ObjectDBX Classes
 90
        0
280
     0
281
     0
  0
CLASS
  1
LAYOUT
  2
AcDbLayout
  3
ObjectDBX Classes
 90
        0
280
     0
281
     0
  0
CLASS
  1
DICTIONARYVAR
  2
AcDbDictionaryVar
  3
ObjectDBX Classes
 90
        0
280
     0
281
     0
  0
CLASS
  1
DIMASSOC
  2
AcDbDimAssoc
  3
"AcDbDimAssoc|Product Desc:     AcDim ARX App For Dimension|Company:          Autodesk, Inc.|WEB Address:      www.autodesk.com"
 90
        0
280
     0
281
     0
  0
CLASS
  1
MATERIAL
  2
AcDbMaterial
  3
ObjectDBX Classes
 90
     1153
280
     0
281
     0
  0
CLASS
  1
VISUALSTYLE
  2
AcDbVisualStyle
  3
ObjectDBX Classes
 90
     4095
280
     0
281
     0
  0
CLASS
  1
TABLESTYLE
  2
AcDbTableStyle
  3
ObjectDBX Classes
 90
     4095
280
     0
281
     0
  0
CLASS
  1
SCALE
  2
AcDbScale
  3
ObjectDBX Classes
 90
     1153
280
     0
281
     0
  0
CLASS
  1
MLEADERSTYLE
  2
AcDbMLeaderStyle
  3
ACDB_MLEADERSTYLE_CLASS
 90
     4095
280
     0
281
     0
  0
CLASS
  1
AEC_REFEDIT_STATUS_TRACKER
  2
AecDbRefEditStatusTracker
  3
AecArchBase60|Product Desc: Autodesk Architectural Desktop 2007 |Company: Autodesk,Inc. |WEB Address: www.autodesk.com
 90
      129
280
     0
281
     0
  0
CLASS
  1
NPOCOLLECTION
  2
AcDbImpNonPersistentObjectsCollection
  3
ObjectDBX Classes
 90
     1153
280
     0
281
     0
  0
CLASS
  1
CELLSTYLEMAP
  2
AcDbCellStyleMap
  3
ObjectDBX Classes
 90
     1152
280
     0
281
     0
  0
ENDSEC
  0
SECTION
  2
TABLES
  0
TABLE
  2
VPORT
  5
8
330
0
100
AcDbSymbolTable
 70
     1
  0
VPORT
  5
1F34
330
8
100
AcDbSymbolTableRecord
100
AcDbViewportTableRecord
  2
*Active
 70
     0
 10
0.0
 20
0.0
 11
1.0
 21
1.0
 12
733.3946988128298
 22
1088.261428292094
 13
0.0
 23
0.0
 14
10.0
 24
10.0
 15
10.0
 25
10.0
 16
0.0
 26
0.0
 36
1.0
 17
0.0
 27
0.0
 37
0.0
 40
1.923201081060597
 41
1.645464025026068
 42
50.0
 43
0.0
 44
0.0
 50
0.0
 51
0.0
 71
     0
 72
   100
 73
     1
 74
     2
 75
     0
 76
     0
 77
     0
 78
     0
281
     0
 65
     1
110
0.0
120
0.0
130
0.0
111
1.0
121
0.0
131
0.0
112
0.0
122
1.0
132
0.0
 79
     0
146
0.0
  0
ENDTAB
  0
TABLE
  2
LTYPE
  5
5
330
0
100
AcDbSymbolTable
 70
     5
  0
LTYPE
  5
14
330
5
100
AcDbSymbolTableRecord
100
AcDbLinetypeTableRecord
  2
ByBlock
 70
     0
  3

 72
    65
 73
     0
 40
0.0
  0
LTYPE
  5
15
330
5
100
AcDbSymbolTableRecord
100
AcDbLinetypeTableRecord
  2
ByLayer
 70
     0
  3

 72
    65
 73
     0
 40
0.0
  0
LTYPE
  5
16
330
5
100
AcDbSymbolTableRecord
100
AcDbLinetypeTableRecord
  2
Continuous
 70
     0
  3
Solid line
 72
    65
 73
     0
 40
0.0
  0
LTYPE
  5
2D
330
5
100
AcDbSymbolTableRecord
100
AcDbLinetypeTableRecord
  2
DASHDOT
 70
     0
  3
Dash dot __ . __ . __ . __ . __ . __ . __ . __
 72
    65
 73
     4
 40
25.4
 49
12.7
 74
     0
 49
-6.349999999999999
 74
     0
 49
0.0
 74
     0
 49
-6.349999999999999
 74
     0
  0
LTYPE
  5
2E
330
5
100
AcDbSymbolTableRecord
100
AcDbLinetypeTableRecord
  2
HIDDEN
 70
     0
  3
Hidden __ __ __ __ __ __ __ __ __ __ __ __ __ _
 72
    65
 73
     2
 40
9.524999999999998
 49
6.349999999999999
 74
     0
 49
-3.174999999999999
 74
     0
  0
LTYPE
  5
C16
330
5
100
AcDbSymbolTableRecord
100
AcDbLinetypeTableRecord
  2
CENTER
 70
     0
  3
____ _ ____ _ ____ _ ____ _ ____ _ ____ _ ____ 
 72
    65
 73
     4
 40
2.0
 49
1.25
 74
     0
 49
-0.25
 74
     0
 49
0.25
 74
     0
 49
-0.25
 74
     0
  0
ENDTAB
  0
TABLE
  2
LAYER
  5
2
330
0
100
AcDbSymbolTable
 70
    17
  0
LAYER
  5
10
102
{ACAD_XDICTIONARY
360
1FA3
102
}
330
2
100
AcDbSymbolTableRecord
100
AcDbLayerTableRecord
  2
0
 70
     0
 62
     7
  6
Continuous
370
    -3
390
F
  0
LAYER
  5
2F
102
{ACAD_XDICTIONARY
360
1FA5
102
}
330
2
100
AcDbSymbolTableRecord
100
AcDbLayerTableRecord
  2
1
 70
     0
 62
     1
  6
Continuous
370
    -3
390
F
  0
LAYER
  5
30
102
{ACAD_XDICTIONARY
360
1FA7
102
}
330
2
100
AcDbSymbolTableRecord
100
AcDbLayerTableRecord
  2
2
 70
     0
 62
     2
  6
Continuous
370
    -3
390
F
  0
LAYER
  5
31
102
{ACAD_XDICTIONARY
360
1FA9
102
}
330
2
100
AcDbSymbolTableRecord
100
AcDbLayerTableRecord
  2
3
 70
     0
 62
     3
  6
Continuous
370
    -3
390
F
  0
LAYER
  5
32
102
{ACAD_XDICTIONARY
360
1FAB
102
}
330
2
100
AcDbSymbolTableRecord
100
AcDbLayerTableRecord
  2
4
 70
     0
 62
     4
  6
Continuous
370
    -3
390
F
  0
LAYER
  5
33
102
{ACAD_XDICTIONARY
360
1FAD
102
}
330
2
100
AcDbSymbolTableRecord
100
AcDbLayerTableRecord
  2
5
 70
     0
 62
     5
  6
Continuous
370
    -3
390
F
  0
LAYER
  5
34
102
{ACAD_XDICTIONARY
360
1FAF
102
}
330
2
100
AcDbSymbolTableRecord
100
AcDbLayerTableRecord
  2
6
 70
     0
 62
     6
  6
Continuous
370
    -3
390
F
  0
LAYER
  5
35
102
{ACAD_XDICTIONARY
360
1FB1
102
}
330
2
100
AcDbSymbolTableRecord
100
AcDbLayerTableRecord
  2
7
 70
     0
 62
     7
  6
Continuous
370
    -3
390
F
  0
LAYER
  5
36
102
{ACAD_XDICTIONARY
360
1FB3
102
}
330
2
100
AcDbSymbolTableRecord
100
AcDbLayerTableRecord
  2
cen
 70
     0
 62
     7
  6
DASHDOT
370
    -3
390
F
  0
LAYER
  5
37
102
{ACAD_XDICTIONARY
360
1FB5
102
}
330
2
100
AcDbSymbolTableRecord
100
AcDbLayerTableRecord
  2
hid
 70
     0
 62
     7
  6
HIDDEN
370
    -3
390
F
  0
LAYER
  5
5D6
102
{ACAD_XDICTIONARY
360
1FB7
102
}
330
2
100
AcDbSymbolTableRecord
100
AcDbLayerTableRecord
  2
hatch
 70
     0
 62
     9
  6
Continuous
370
    -3
390
F
  0
LAYER
  5
8AF
102
{ACAD_XDICTIONARY
360
1FB9
102
}
330
2
100
AcDbSymbolTableRecord
100
AcDbLayerTableRecord
  2
9
 70
     0
 62
     9
  6
Continuous
370
    -3
390
F
  0
LAYER
  5
8F8
102
{ACAD_XDICTIONARY
360
1FBB
102
}
330
2
100
AcDbSymbolTableRecord
100
AcDbLayerTableRecord
  2
leg fin
 70
     0
 62
     9
  6
Continuous
370
    -3
390
F
  0
LAYER
  5
91D
102
{ACAD_XDICTIONARY
360
1FBD
102
}
330
2
100
AcDbSymbolTableRecord
100
AcDbLayerTableRecord
  2
cotas
 70
     0
 62
     1
  6
Continuous
370
    -3
390
F
  0
LAYER
  5
92F
330
2
100
AcDbSymbolTableRecord
100
AcDbLayerTableRecord
  2
Defpoints
 70
     0
 62
     7
  6
Continuous
290
     0
370
    -3
390
F
  0
LAYER
  5
C17
102
{ACAD_XDICTIONARY
360
1FBF
102
}
330
2
100
AcDbSymbolTableRecord
100
AcDbLayerTableRecord
  2
quote
 70
     0
 62
     7
  6
Continuous
370
    18
390
F
  0
LAYER
  5
1FA2
102
{ACAD_XDICTIONARY
360
1FC1
102
}
330
2
100
AcDbSymbolTableRecord
100
AcDbLayerTableRecord
  2
SANINDUSA
 70
     0
 62
     3
  6
Continuous
370
    -3
390
F
  0
ENDTAB
  0
TABLE
  2
STYLE
  5
3
330
0
100
AcDbSymbolTable
 70
     3
  0
STYLE
  5
11
330
3
100
AcDbSymbolTableRecord
100
AcDbTextStyleTableRecord
  2
Standard
 70
     0
 40
0.0
 41
1.0
 50
0.0
 71
     0
 42
2.5
  3
Avgardn.ttf
  4

1001
ACAD
1000
AvantGarde Bk BT
1071
       34
  0
STYLE
  5
2C
330
3
100
AcDbSymbolTableRecord
100
AcDbTextStyleTableRecord
  2

 70
     1
 40
0.0
 41
1.0
 50
0.0
 71
     0
 42
2.5
  3
ltypeshp.shx
  4

  0
STYLE
  5
91F
330
3
100
AcDbSymbolTableRecord
100
AcDbTextStyleTableRecord
  2
SANINDUSA
 70
     0
 40
0.0
 41
1.0
 50
0.0
 71
     0
 42
2.5
  3
verdana.TTF
  4

1001
ACAD
1000
Verdana
1071
       34
  0
ENDTAB
  0
TABLE
  2
VIEW
  5
6
330
0
100
AcDbSymbolTable
 70
     0
  0
ENDTAB
  0
TABLE
  2
UCS
  5
7
330
0
100
AcDbSymbolTable
 70
     0
  0
ENDTAB
  0
TABLE
  2
APPID
  5
9
330
0
100
AcDbSymbolTable
 70
     7
  0
APPID
  5
12
330
9
100
AcDbSymbolTableRecord
100
AcDbRegAppTableRecord
  2
ACAD
 70
     0
  0
APPID
  5
3A
330
9
100
AcDbSymbolTableRecord
100
AcDbRegAppTableRecord
  2
DCO15
 70
     0
  0
APPID
  5
C19
330
9
100
AcDbSymbolTableRecord
100
AcDbRegAppTableRecord
  2
GENIUS_GENREC_14
 70
     0
  0
APPID
  5
C1A
330
9
100
AcDbSymbolTableRecord
100
AcDbRegAppTableRecord
  2
GENIUS_GENODEF_13
 70
     0
  0
APPID
  5
C1B
330
9
100
AcDbSymbolTableRecord
100
AcDbRegAppTableRecord
  2
GENIUS_GENOBJ-N-REC_13
 70
     0
  0
APPID
  5
1F80
330
9
100
AcDbSymbolTableRecord
100
AcDbRegAppTableRecord
  2
ACAD_EXEMPT_FROM_CAD_STANDARDS
 70
     0
  0
APPID
  5
203E
330
9
100
AcDbSymbolTableRecord
100
AcDbRegAppTableRecord
  2
ACAD_MLEADERVER
 70
     0
  0
ENDTAB
  0
TABLE
  2
DIMSTYLE
  5
A
330
0
100
AcDbSymbolTable
 70
     4
100
AcDbDimStyleTable
 71
     1
340
921
  0
DIMSTYLE
105
45
330
A
100
AcDbSymbolTableRecord
100
AcDbDimStyleTableRecord
  2
STANDARD
 70
     0
289
     0
340
11
  0
DIMSTYLE
105
921
330
A
100
AcDbSymbolTableRecord
100
AcDbDimStyleTableRecord
  2
SANINDUSA
 70
     0
 41
2.0
 42
1.0
 43
1.0
 44
1.0
 73
     0
 74
     0
 77
     1
 78
     8
140
2.0
141
0.0
143
0.03937007874016
147
1.0
171
     3
172
     1
176
   256
177
   256
178
   256
179
     1
271
     1
272
     1
274
     3
278
    44
283
     0
284
     8
340
91F
371
    -1
372
    -1
  0
DIMSTYLE
105
C18
330
A
100
AcDbSymbolTableRecord
100
AcDbDimStyleTableRecord
  2
ISO-25
 70
     0
 40
5.0
 41
2.5
 42
0.625
 43
3.75
 44
1.25
 73
     0
 74
     0
 77
     1
 78
     8
140
2.5
141
2.5
143
0.03937007874016
147
0.625
171
     3
172
     1
271
     0
272
     0
274
     3
278
    44
283
     0
284
     8
340
11
  0
ENDTAB
  0
TABLE
  2
BLOCK_RECORD
  5
1
330
0
100
AcDbSymbolTable
 70
    24
  0
BLOCK_RECORD
  5
1F
330
1
100
AcDbSymbolTableRecord
100
AcDbBlockTableRecord
  2
*Model_Space
340
22
  0
BLOCK_RECORD
  5
1B
330
1
100
AcDbSymbolTableRecord
100
AcDbBlockTableRecord
  2
*Paper_Space
340
1E
  0
BLOCK_RECORD
  5
23
330
1
100
AcDbSymbolTableRecord
100
AcDbBlockTableRecord
  2
*Paper_Space0
340
26
  0
BLOCK_RECORD
  5
919
330
1
100
AcDbSymbolTableRecord
100
AcDbBlockTableRecord
  2
_DotSmall
340
0
  0
BLOCK_RECORD
  5
922
330
1
100
AcDbSymbolTableRecord
100
AcDbBlockTableRecord
  2
base para cotas
340
0
310
2800000020000000200000000100080000000000000400000000000000000000000000000000000000000000000080000080000000808000800000008000800080800000C0C0C000C0DCC000F0CAA6000020400000206000002080000020A0000020C0000020E00000400000004020000040400000406000004080000040A0
310
000040C0000040E00000600000006020000060400000606000006080000060A0000060C0000060E00000800000008020000080400000806000008080000080A0000080C0000080E00000A0000000A0200000A0400000A0600000A0800000A0A00000A0C00000A0E00000C0000000C0200000C0400000C0600000C0800000C0
310
A00000C0C00000C0E00000E0000000E0200000E0400000E0600000E0800000E0A00000E0C00000E0E00040000000400020004000400040006000400080004000A0004000C0004000E00040200000402020004020400040206000402080004020A0004020C0004020E000404000004040200040404000404060004040800040
310
40A0004040C0004040E00040600000406020004060400040606000406080004060A0004060C0004060E00040800000408020004080400040806000408080004080A0004080C0004080E00040A0000040A0200040A0400040A0600040A0800040A0A00040A0C00040A0E00040C0000040C0200040C0400040C0600040C08000
310
40C0A00040C0C00040C0E00040E0000040E0200040E0400040E0600040E0800040E0A00040E0C00040E0E00080000000800020008000400080006000800080008000A0008000C0008000E00080200000802020008020400080206000802080008020A0008020C0008020E00080400000804020008040400080406000804080
310
008040A0008040C0008040E00080600000806020008060400080606000806080008060A0008060C0008060E00080800000808020008080400080806000808080008080A0008080C0008080E00080A0000080A0200080A0400080A0600080A0800080A0A00080A0C00080A0E00080C0000080C0200080C0400080C0600080C0
310
800080C0A00080C0C00080C0E00080E0000080E0200080E0400080E0600080E0800080E0A00080E0C00080E0E000C0000000C0002000C0004000C0006000C0008000C000A000C000C000C000E000C0200000C0202000C0204000C0206000C0208000C020A000C020C000C020E000C0400000C0402000C0404000C0406000C0
310
408000C040A000C040C000C040E000C0600000C0602000C0604000C0606000C0608000C060A000C060C000C060E000C0800000C0802000C0804000C0806000C0808000C080A000C080C000C080E000C0A00000C0A02000C0A04000C0A06000C0A08000C0A0A000C0A0C000C0A0E000C0C00000C0C02000C0C04000C0C06000
310
C0C08000C0C0A000F0FBFF00A4A0A000808080000000FF0000FF000000FFFF00FF000000FF00FF00FFFF0000FFFFFF00A4A4A4A4A4A4A4A4A4A4A4A4A4A4A4A4A4A4A4A4A4A4A4A4A4A4A4A4A4A4A4A4A4A4A4A4A4A4A4A4A4A4A4A4A4A4A4A4A4A4A4A4A4A4A4A4A4A4A4A4A4A4A4A4A4A4A4A4A4A4A4A4A4A4A4A4A4A4A4
310
A4A4A4A4A4A4A4A4A4A4A4A4A4A4A4A4A4A4A4A4A4A4A4A4A4A4A4A4A4A4A4A4A4A4A4A4A4A4A4A4A4A4A4A4A4A4A4A4A4A4A4A4A4A4A4A4A4A4A4A4A4A4A4A4A4A4A4A4A4A4A4A4A4A4A4A4A4A4A4A4A4A4A4A4A4A4A4A4A4A4A4A4A4A4A4A4A4A4A4A4A4A4A4A4A4A4A4A4A4A4A4A4A4A4A4A4A4A4A4A4A4A4A4A4A4A4A4
310
A4A4A4A4A4A4A4A4A4A4A4A4A4A4A4A4A4A4A4A4A4A4A4A4A4A4A4A4A4A4A4A4A4A4A4A4A4A4A4A4A4A4A4A4A4A4A4A4A4A4A4A4A4A4A4A4A4A4A4A4A4A4A4A4A4A4A4A4A4A4A4A4A4A4A4A4A4A4A4A4A4A4A4A4A4A4A4A4A4A4A4A4A4A4A4A4A4A4A4A4A4A4A4A4A4A4A4A4A4A4A4A4A4A4A4A4A4A4A4A4A4A4A4A4A4A4A4
310
A4A4A4A4A4A4A4A4A4A4A4A4A4A4A4A4A4A4A4A4A4A4A4A4A4A4A4A4A4A4A4A4A4A4A4A4A4A4A4A4A4A4A4A4A4A4A4A4A4A4A4A4A4A4A4A4A4A4A4A4A4A4A4A4A4A4A4A4A4A4A4A4A4A4A4A4A4A4A4A4A4A4A4A4A4A4A4A4A4A4A4A4A4A4A4A4A4A4A4A4A4A4A4A4A4A4A4A4A4A4A4A4A4A4A4A4F9F9F9F9F9F9F9F9F9F9F9
310
F9F9F9F9F9F9F9F9F9F9F9F9F9F9F9F9F9F9F9A4A4F9F9F9F9F9F9F9F9F9F9F9F9F9F9F9F9F9F9F9F9F9F9F9F9F9F9F9F9F9F9A4A4F9F9F9F9F9F9F9F9F9F9F9F9F9F9F9F9F9F9F9F9F9F9F9F9F9F9F9F9F9F9A4A4F9A4A4A4A4A4A4A4A4A4A4A4A4A4A4A4A4A4A4A4A4A4A4A4A4A4A4A4A4F9A4A4A4A4A4A4A4A4A4A4A4A4
310
A4A4A4A4A4A4A4A4A4A4A4A4A4A4A4A4A4A4A4A4A4A4A4A4A4A4A4A4A4A4A4A4A4A4A4A4A4A4A4A4A4A4A4A4A4A4A4A4A4A4A4A4A4A4A4A4A4A4A4A4A4A4A4A4A4A4A4A4A4A4A4A4A4A4A4A4A4A4A4A4A4A4A4A4A4A4A4A4A4A4A4A4A4A4A4A4A4A4A4A4A4A4A4A4A4A4A4A4A4A4A4A4A4A4A4A4A4A4A4A4A4A4A4A4A4A4A4
310
A4A4A4A4A4A4A4A4A4A4A4A4A4A4A4A4A4A4A4A4A4A4A4A4A4A4A4A4A4A4A4A4A4A4A4A4A4A4A4A4A4A4A4A4A4A4A4A4A4A4A4A4A4A4A4A4A4A4A4A4A4A4A4A4A4A4A4A4A4A4A4A4A4A4A4A4A4A4A4A4A4A4A4A4A4A4A4A4A4A4A4A4A4A4A4A4A4A4A4A4A4A4A4A4A4A4A4A4A4A4A4A4A4A4A4A4A4A4A4A4A4A4A4A4A4A4A4
310
A4A4A4A4A4A4A4A4A4A4A4A4A4A4A4A4A4A4A4A4A4A4A4A4A4A4A4A4A4A4A4A4A4A4A4A4A4A4A4A4A4A4A4A4A4A4A4A4A4A4A4A4A4A4A4A4A4A4A4A4A4A4A4A4A4A4A4A4A4A4A4A4A4A4A4A4A4A4A4A4A4A4A4A4A4A4A4A4A4A4A4A4A4A4A4A4A4A4A4A4A4A4A4A4A4A4A4A4A4A4A4A4A4A4A4A4A4A4A4A4A4A4A4A4A4A4A4
310
A4A4A4A4A4A4A4A4A4A4A4A4A4A4A4A4A4A4A4A4A4A4A4A4A4A4A4A4A4A4A4A4A4A4A4A4A4A4A4A4A4A4A4A4A4A4A4A4A4A4A4A4A4A4A4A4
1001
ACAD
1000
DesignCenter Data
1002
{
1070
     1
1070
     4
1002
}
  0
BLOCK_RECORD
  5
AA8
330
1
100
AcDbSymbolTableRecord
100
AcDbBlockTableRecord
  2
_CLOSED
340
0
  0
BLOCK_RECORD
  5
BA5
330
1
100
AcDbSymbolTableRecord
100
AcDbBlockTableRecord
  2
guarnizione
340
0
  0
BLOCK_RECORD
  5
1E14
330
1
100
AcDbSymbolTableRecord
100
AcDbBlockTableRecord
  2
*D13
340
0
  0
BLOCK_RECORD
  5
1E20
330
1
100
AcDbSymbolTableRecord
100
AcDbBlockTableRecord
  2
*D14
340
0
  0
BLOCK_RECORD
  5
1E2C
330
1
100
AcDbSymbolTableRecord
100
AcDbBlockTableRecord
  2
*D15
340
0
  0
BLOCK_RECORD
  5
1E38
330
1
100
AcDbSymbolTableRecord
100
AcDbBlockTableRecord
  2
*D16
340
0
  0
BLOCK_RECORD
  5
1E46
330
1
100
AcDbSymbolTableRecord
100
AcDbBlockTableRecord
  2
*D17
340
0
  0
BLOCK_RECORD
  5
1E52
330
1
100
AcDbSymbolTableRecord
100
AcDbBlockTableRecord
  2
*D18
340
0
  0
BLOCK_RECORD
  5
1E5E
330
1
100
AcDbSymbolTableRecord
100
AcDbBlockTableRecord
  2
*D19
340
0
  0
BLOCK_RECORD
  5
1E73
330
1
100
AcDbSymbolTableRecord
100
AcDbBlockTableRecord
  2
*D20
340
0
  0
BLOCK_RECORD
  5
1EE6
330
1
100
AcDbSymbolTableRecord
100
AcDbBlockTableRecord
  2
*D21
340
0
  0
BLOCK_RECORD
  5
1F8B
330
1
100
AcDbSymbolTableRecord
100
AcDbBlockTableRecord
  2
*D23
340
0
  0
ENDTAB
  0
ENDSEC
  0
SECTION
  2
BLOCKS
  0
BLOCK
  5
20
330
1F
100
AcDbEntity
  8
0
100
AcDbBlockBegin
  2
*Model_Space
 70
     0
 10
0.0
 20
0.0
 30
0.0
  3
*Model_Space
  1

  0
ENDBLK
  5
21
330
1F
100
AcDbEntity
  8
0
100
AcDbBlockEnd
  0
BLOCK
  5
1C
330
1B
100
AcDbEntity
 67
     1
  8
0
100
AcDbBlockBegin
  2
*Paper_Space
 70
     0
 10
0.0
 20
0.0
 30
0.0
  3
*Paper_Space
  1

  0
ENDBLK
  5
1D
330
1B
100
AcDbEntity
 67
     1
  8
0
100
AcDbBlockEnd
  0
BLOCK
  5
24
330
23
100
AcDbEntity
 67
     1
  8
0
100
AcDbBlockBegin
  2
*Paper_Space0
 70
     0
 10
0.0
 20
0.0
 30
0.0
  3
*Paper_Space0
  1

  0
ENDBLK
  5
25
330
23
100
AcDbEntity
 67
     1
  8
0
100
AcDbBlockEnd
  0
BLOCK
  5
91B
330
919
100
AcDbEntity
  8
0
100
AcDbBlockBegin
  2
_DotSmall
 70
     0
 10
0.0
 20
0.0
 30
0.0
  3
_DotSmall
  1

  0
LWPOLYLINE
  5
91A
330
919
100
AcDbEntity
  8
0
  6
ByBlock
 62
     0
100
AcDbPolyline
 90
        2
 70
     1
 43
0.5
 10
-0.0625
 20
0.0
 42
1.0
 10
0.0625
 20
0.0
 42
1.0
  0
ENDBLK
  5
91C
330
919
100
AcDbEntity
  8
0
100
AcDbBlockEnd
  0
BLOCK
  5
92A
330
922
100
AcDbEntity
  8
0
100
AcDbBlockBegin
  2
base para cotas
 70
     0
 10
0.0
 20
0.0
 30
0.0
  3
base para cotas
  1

  0
LINE
  5
B36
330
922
100
AcDbEntity
  8
cotas
100
AcDbLine
 10
0.0
 20
-30.0
 30
0.0
 11
327.1260136525398
 21
-30.0
 31
0.0
  0
LINE
  5
B37
330
922
100
AcDbEntity
  8
cotas
100
AcDbLine
 10
0.0
 20
-25.0
 30
0.0
 11
327.1260136525398
 21
-25.0
 31
0.0
  0
LINE
  5
B38
330
922
100
AcDbEntity
  8
cotas
100
AcDbLine
 10
0.0
 20
-20.0
 30
0.0
 11
327.1260136525398
 21
-20.0
 31
0.0
  0
LINE
  5
B39
330
922
100
AcDbEntity
  8
cotas
100
AcDbLine
 10
0.0
 20
-15.0
 30
0.0
 11
327.1260136525398
 21
-15.0
 31
0.0
  0
LINE
  5
B3A
330
922
100
AcDbEntity
  8
cotas
100
AcDbLine
 10
0.0
 20
-10.0
 30
0.0
 11
327.1260136525398
 21
-10.0
 31
0.0
  0
LINE
  5
B3B
330
922
100
AcDbEntity
  8
cotas
100
AcDbLine
 10
0.0
 20
0.0
 30
0.0
 11
0.0
 21
-30.0
 31
0.0
  0
LINE
  5
B3C
330
922
100
AcDbEntity
  8
cotas
100
AcDbLine
 10
327.1260136525398
 20
-30.0
 30
0.0
 11
327.1260136525398
 21
0.0
 31
0.0
  0
ENDBLK
  5
92B
330
922
100
AcDbEntity
  8
0
100
AcDbBlockEnd
  0
BLOCK
  5
AAD
330
AA8
100
AcDbEntity
  8
0
100
AcDbBlockBegin
  2
_CLOSED
 70
     0
 10
0.0
 20
0.0
 30
0.0
  3
_CLOSED
  1

  0
LINE
  5
AA9
330
AA8
100
AcDbEntity
  8
0
100
AcDbLine
 10
-1.0
 20
0.166667
 30
0.0
 11
0.0
 21
0.0
 31
0.0
  0
LINE
  5
AAA
330
AA8
100
AcDbEntity
  8
0
100
AcDbLine
 10
0.0
 20
0.0
 30
0.0
 11
-1.0
 21
-0.166667
 31
0.0
  0
LINE
  5
AAB
330
AA8
100
AcDbEntity
  8
0
100
AcDbLine
 10
-1.0
 20
0.166667
 30
0.0
 11
-1.0
 21
-0.166667
 31
0.0
  0
LINE
  5
AAC
330
AA8
100
AcDbEntity
  8
0
100
AcDbLine
 10
0.0
 20
0.0
 30
0.0
 11
-1.0
 21
0.0
 31
0.0
  0
ENDBLK
  5
AAE
330
AA8
100
AcDbEntity
  8
0
100
AcDbBlockEnd
  0
BLOCK
  5
BF0
330
BA5
100
AcDbEntity
  8
0
 62
     4
100
AcDbBlockBegin
  2
guarnizione
 70
     0
 10
0.0
 20
0.0
 30
0.0
  3
guarnizione
  1

  0
LINE
  5
BA6
330
BA5
100
AcDbEntity
  8
0
100
AcDbLine
 10
12.0
 20
3.179312414488776
 30
0.0
 11
12.0
 21
2.699999999999818
 31
0.0
  0
LINE
  5
BA7
330
BA5
100
AcDbEntity
  8
0
100
AcDbLine
 10
9.5
 20
3.130475008156281
 30
0.0
 11
9.440776269158959
 21
2.734883615801663
 31
0.0
  0
ARC
  5
BA8
330
BA5
100
AcDbEntity
  8
0
100
AcDbCircle
 10
11.19999999999891
 20
3.179312414488776
 30
0.0
 40
0.8
100
AcDbArc
 50
0.0
 51
81.48552156587461
  0
ARC
  5
BA9
330
BA5
100
AcDbEntity
  8
0
100
AcDbCircle
 10
8.753809903480942
 20
1.523241254200002
 30
0.0
 40
0.1999999999999504
100
AcDbArc
 50
171.485521565823
 51
351.485521565823
  0
LINE
  5
BAA
330
BA5
100
AcDbEntity
  8
0
100
AcDbLine
 10
11.65558220186904
 20
-2.403306455734309
 30
0.0
 11
9.440776269158959
 21
-2.734883615802573
 31
0.0
  0
ARC
  5
BAB
330
BA5
100
AcDbEntity
  8
0
100
AcDbCircle
 10
8.753809903480942
 20
-1.523241254200911
 30
0.0
 40
0.1999999999999504
100
AcDbArc
 50
8.514478434176927
 51
188.5144784341769
  0
LINE
  5
BAC
330
BA5
100
AcDbEntity
  8
0
100
AcDbLine
 10
9.5
 20
-3.130475008157191
 30
0.0
 11
9.440776269158959
 21
-2.734883615802573
 31
0.0
  0
ARC
  5
BAD
330
BA5
100
AcDbEntity
  8
0
100
AcDbCircle
 10
11.69999999999891
 20
-2.699999999999818
 30
0.0
 40
0.3
100
AcDbArc
 50
0.0
 51
98.51447843412536
  0
ARC
  5
BAE
330
BA5
100
AcDbEntity
  8
0
100
AcDbCircle
 10
11.69999999999891
 20
2.699999999999818
 30
0.0
 40
0.3
100
AcDbArc
 50
261.4855215658746
 51
0.0
  0
LINE
  5
BAF
330
BA5
100
AcDbEntity
  8
0
100
AcDbLine
 10
11.65558220186904
 20
2.4033064557334
 30
0.0
 11
9.440776269158959
 21
2.734883615801663
 31
0.0
  0
LINE
  5
BB0
330
BA5
100
AcDbEntity
  8
0
100
AcDbLine
 10
8.807715063378054
 20
3.234116537129011
 30
0.0
 11
8.556014207302723
 21
1.552853119620522
 31
0.0
  0
LINE
  5
BB1
330
BA5
100
AcDbEntity
  8
0
100
AcDbLine
 10
9.203306455732672
 20
3.174892806287971
 30
0.0
 11
8.951605599657341
 21
1.493629388779481
 31
0.0
  0
LINE
  5
BB2
330
BA5
100
AcDbEntity
  8
0
100
AcDbLine
 10
6.681411329471302
 20
3.552444090400967
 30
0.0
 11
6.622187598630262
 21
3.15685269804544
 31
0.0
  0
ARC
  5
BB3
330
BA5
100
AcDbEntity
  8
0
100
AcDbCircle
 10
0.2999999999992724
 20
3.800000000000181
 30
0.0
 40
0.3
100
AcDbArc
 50
81.48552156587461
 51
180.0
  0
ARC
  5
BB4
330
BA5
100
AcDbEntity
  8
0
100
AcDbCircle
 10
1.042400829128382
 20
4.699999999999818
 30
0.0
 40
0.8
100
AcDbArc
 50
81.48552156587461
 51
90.0
  0
LINE
  5
BB5
330
BA5
100
AcDbEntity
  8
0
100
AcDbLine
 10
1.5
 20
3.923692082123125
 30
0.0
 11
0.3444177981309622
 21
4.09669354426569
 31
0.0
  0
LINE
  5
BB6
330
BA5
100
AcDbEntity
  8
0
100
AcDbLine
 10
1.5
 20
3.923692082123125
 30
0.0
 11
1.5
 21
3.099999999999454
 31
0.0
  0
LINE
  5
BB7
330
BA5
100
AcDbEntity
  8
0
100
AcDbLine
 10
1.5
 20
3.099999999999454
 30
0.0
 11
2.699999999998908
 21
3.099999999999454
 31
0.0
  0
LINE
  5
BB8
330
BA5
100
AcDbEntity
  8
0
100
AcDbLine
 10
2.699999999998908
 20
3.744040860223321
 30
0.0
 11
2.699999999998908
 21
3.099999999999454
 31
0.0
  0
LINE
  5
BB9
330
BA5
100
AcDbEntity
  8
0
100
AcDbLine
 10
6.622187598630262
 20
3.15685269804544
 30
0.0
 11
2.699999999998908
 21
3.744040860223321
 31
0.0
  0
LINE
  5
BBA
330
BA5
100
AcDbEntity
  8
0
100
AcDbLine
 10
1.5
 20
-3.100000000000363
 30
0.0
 11
2.699999999998908
 21
-3.100000000000363
 31
0.0
  0
LINE
  5
BBB
330
BA5
100
AcDbEntity
  8
0
100
AcDbLine
 10
11.31844746168099
 20
3.970495199198012
 30
0.0
 11
1.160848290810463
 21
5.491182784709053
 31
0.0
  0
LINE
  5
BBC
330
BA5
100
AcDbEntity
  8
0
100
AcDbLine
 10
9.5
 20
3.130475008156281
 30
0.0
 11
6.681411329471302
 21
3.552444090400967
 31
0.0
  0
ARC
  5
BBD
330
BA5
100
AcDbEntity
  8
0
100
AcDbCircle
 10
11.19999999999891
 20
-3.179312414488776
 30
0.0
 40
0.8
100
AcDbArc
 50
278.5144784341254
 51
0.0
  0
LINE
  5
BBE
330
BA5
100
AcDbEntity
  8
0
100
AcDbLine
 10
6.681411329471302
 20
-3.552444090400967
 30
0.0
 11
6.622187598630262
 21
-3.15685269804635
 31
0.0
  0
ARC
  5
BBF
330
BA5
100
AcDbEntity
  8
0
100
AcDbCircle
 10
0.2999999999992724
 20
-3.800000000000181
 30
0.0
 40
0.3
100
AcDbArc
 50
180.0
 51
278.5144784341254
  0
ARC
  5
BC0
330
BA5
100
AcDbEntity
  8
0
100
AcDbCircle
 10
1.042400829128382
 20
-4.699999999999818
 30
0.0
 40
0.8
100
AcDbArc
 50
270.0
 51
278.5144784341254
  0
LINE
  5
BC1
330
BA5
100
AcDbEntity
  8
0
100
AcDbLine
 10
0.3444177981309622
 20
-4.096693544266599
 30
0.0
 11
1.5
 21
-3.923692082124034
 31
0.0
  0
LINE
  5
BC2
330
BA5
100
AcDbEntity
  8
0
100
AcDbLine
 10
6.622187598630262
 20
-3.15685269804635
 30
0.0
 11
2.699999999998908
 21
-3.744040860224231
 31
0.0
  0
LINE
  5
BC3
330
BA5
100
AcDbEntity
  8
0
100
AcDbLine
 10
1.160848290810463
 20
-5.491182784709963
 30
0.0
 11
11.31844746168099
 21
-3.970495199198921
 31
0.0
  0
LINE
  5
BC4
330
BA5
100
AcDbEntity
  8
0
100
AcDbLine
 10
0.0
 20
3.800000000000181
 30
0.0
 11
0.0
 21
-3.800000000000181
 31
0.0
  0
LINE
  5
BC5
330
BA5
100
AcDbEntity
  8
0
100
AcDbLine
 10
12.0
 20
-2.699999999999818
 30
0.0
 11
12.0
 21
-3.179312414488776
 31
0.0
  0
LINE
  5
BC6
330
BA5
100
AcDbEntity
  8
0
100
AcDbLine
 10
2.699999999998908
 20
-3.100000000000363
 30
0.0
 11
2.699999999998908
 21
-3.744040860224231
 31
0.0
  0
LINE
  5
BC7
330
BA5
100
AcDbEntity
  8
0
100
AcDbLine
 10
1.5
 20
-3.100000000000363
 30
0.0
 11
1.5
 21
-3.923692082124034
 31
0.0
  0
LINE
  5
BC8
330
BA5
100
AcDbEntity
  8
0
100
AcDbLine
 10
9.5
 20
-3.130475008157191
 30
0.0
 11
6.681411329471302
 21
-3.552444090400967
 31
0.0
  0
LINE
  5
BC9
330
BA5
100
AcDbEntity
  8
0
100
AcDbLine
 10
9.203306455732672
 20
-3.174892806287971
 30
0.0
 11
8.951605599657341
 21
-1.493629388780391
 31
0.0
  0
LINE
  5
BCA
330
BA5
100
AcDbEntity
  8
0
100
AcDbLine
 10
8.807715063378054
 20
-3.234116537129011
 30
0.0
 11
8.556014207302723
 21
-1.552853119621431
 31
0.0
  0
LINE
  5
BCB
330
BA5
100
AcDbEntity
  8
0
100
AcDbLine
 10
-1.5
 20
5.5
 30
0.0
 11
-3.757359312881817
 21
5.5
 31
0.0
  0
ARC
  5
BCC
330
BA5
100
AcDbEntity
  8
0
100
AcDbCircle
 10
-2.5
 20
3.5
 30
0.0
 40
1.0
100
AcDbArc
 50
0.0
 51
90.0
  0
ARC
  5
BCD
330
BA5
100
AcDbEntity
  8
0
100
AcDbCircle
 10
-3.769781102879278
 20
4.149978862833449
 30
0.0
 40
0.75
100
AcDbArc
 50
47.16775949949599
 51
90.19499109987526
  0
ARC
  5
BCE
330
BA5
100
AcDbEntity
  8
0
100
AcDbCircle
 10
-2.75
 20
5.25
 30
0.0
 40
0.75
100
AcDbArc
 50
227.167759499496
 51
270.0
  0
LINE
  5
BCF
330
BA5
100
AcDbEntity
  8
0
100
AcDbLine
 10
-2.75
 20
4.5
 30
0.0
 11
-2.5
 21
4.5
 31
0.0
  0
LINE
  5
BD0
330
BA5
100
AcDbEntity
  8
0
100
AcDbLine
 10
-7.415254325502246
 20
3.064644661409147
 30
0.0
 11
-6.868629150101696
 21
3.611269837220788
 31
0.0
  0
ARC
  5
BD1
102
{ACAD_REACTORS
330
BEB
102
}
330
BA5
100
AcDbEntity
  8
0
100
AcDbCircle
 10
-7.980939750059405
 20
2.569669913566031
 30
0.0
 40
0.2
100
AcDbArc
 50
45.0000001037625
 51
135.0000000719631
  0
ARC
  5
BD2
330
BA5
100
AcDbEntity
  8
0
100
AcDbCircle
 10
-3.757359312881817
 20
0.5
 30
0.0
 40
5.0
100
AcDbArc
 50
90.0
 51
135.0
  0
ARC
  5
BD3
330
BA5
100
AcDbEntity
  8
0
100
AcDbCircle
 10
-3.757359312881817
 20
0.5
 30
0.0
 40
4.4
100
AcDbArc
 50
90.19499109987526
 51
135.0
  0
ARC
  5
BD4
330
BA5
100
AcDbEntity
  8
0
100
AcDbCircle
 10
-6.814213563102384
 20
0.9786796633270569
 30
0.0
 40
0.75
100
AcDbArc
 50
314.9999999676111
 51
45.0
  0
ARC
  5
BD5
102
{ACAD_REACTORS
330
BEB
102
}
330
BA5
100
AcDbEntity
  8
0
100
AcDbCircle
 10
-6.814213563102384
 20
0.9786796633270569
 30
0.0
 40
0.5
100
AcDbArc
 50
314.9999999676111
 51
45.0
  0
ARC
  5
BD6
330
BA5
100
AcDbEntity
  8
0
100
AcDbCircle
 10
-7.203122291144609
 20
2.852512627053329
 30
0.0
 40
0.3
100
AcDbArc
 50
135.0
 51
225.0000001112794
  0
LINE
  5
BD7
330
BA5
100
AcDbEntity
  8
0
100
AcDbLine
 10
-8.051650430128574
 20
3.276776694619002
 30
0.0
 11
-6.283883477519339
 21
1.509009749524921
 31
0.0
  0
LINE
  5
BD8
102
{ACAD_REACTORS
330
BEB
102
}
330
BA5
100
AcDbEntity
  8
0
100
AcDbLine
 10
-7.839518394079277
 20
2.711091270059114
 30
0.0
 11
-6.460660172508141
 21
1.33223305392039
 31
0.0
  0
ARC
  5
BD9
330
BA5
100
AcDbEntity
  8
0
100
AcDbCircle
 10
-12.57713383280133
 20
-2.521498914058611
 30
0.0
 40
0.3
100
AcDbArc
 50
45.00000003552097
 51
135.0
  0
ARC
  5
BDA
102
{ACAD_REACTORS
330
BEB
102
}
330
BA5
100
AcDbEntity
  8
0
100
AcDbCircle
 10
-12.29429112059733
 20
-1.743681468243266
 30
0.0
 40
0.2
100
AcDbArc
 50
135.0000000660675
 51
225.0000002990173
  0
LINE
  5
BDB
330
BA5
100
AcDbEntity
  8
0
100
AcDbLine
 10
-12.9899494936617
 20
-2.510050506339212
 30
0.0
 11
-12.78926586715715
 21
-2.309366879702793
 31
0.0
  0
LINE
  5
BDC
330
BA5
100
AcDbEntity
  8
0
100
AcDbLine
 10
-13.41421356237333
 20
-2.085786437626666
 30
0.0
 11
-7.292893218815152
 21
4.035533905932425
 31
0.0
  0
LINE
  5
BDD
102
{ACAD_REACTORS
330
BEB
102
}
330
BA5
100
AcDbEntity
  8
0
100
AcDbLine
 10
-12.43571247699765
 20
-1.602260112168551
 30
0.0
 11
-8.122361106474272
 21
2.711091269625285
 31
0.0
  0
ARC
  5
BDE
330
BA5
100
AcDbEntity
  8
0
100
AcDbCircle
 10
-2.5
 20
-3.5
 30
0.0
 40
1.0
100
AcDbArc
 50
270.0
 51
0.0
  0
ARC
  5
BDF
330
BA5
100
AcDbEntity
  8
0
100
AcDbCircle
 10
-7.519803902720013
 20
-4.150000000000545
 30
0.0
 40
0.75
100
AcDbArc
 50
270.0
 51
312.8334280660476
  0
ARC
  5
BE0
330
BA5
100
AcDbEntity
  8
0
100
AcDbCircle
 10
-6.5
 20
-5.25
 30
0.0
 40
0.75
100
AcDbArc
 50
90.0
 51
132.8334280660476
  0
LINE
  5
BE1
330
BA5
100
AcDbEntity
  8
0
100
AcDbLine
 10
-2.5
 20
-4.5
 30
0.0
 11
-6.5
 21
-4.5
 31
0.0
  0
ARC
  5
BE2
330
BA5
100
AcDbEntity
  8
0
100
AcDbCircle
 10
-10.7033008647486
 20
-2.910407640086305
 30
0.0
 40
0.75
100
AcDbArc
 50
225.0
 51
315.0
  0
ARC
  5
BE3
102
{ACAD_REACTORS
330
BEB
102
}
330
BA5
100
AcDbEntity
  8
0
100
AcDbCircle
 10
-10.7033008647486
 20
-2.910407640086305
 30
0.0
 40
0.5
100
AcDbArc
 50
225.0
 51
315.0
  0
LINE
  5
BE4
330
BA5
100
AcDbEntity
  8
0
100
AcDbLine
 10
-1.5
 20
-5.5
 30
0.0
 11
-12.0
 21
-5.5
 31
0.0
  0
LINE
  5
BE5
330
BA5
100
AcDbEntity
  8
0
100
AcDbLine
 10
-7.519803902720013
 20
-4.900000000000545
 30
0.0
 11
-12.0
 21
-4.900000000000545
 31
0.0
  0
ARC
  5
BE6
330
BA5
100
AcDbEntity
  8
0
100
AcDbCircle
 10
-12.0
 20
-3.5
 30
0.0
 40
2.0
100
AcDbArc
 50
135.0
 51
270.0
  0
LINE
  5
BE7
330
BA5
100
AcDbEntity
  8
0
100
AcDbLine
 10
-10.17297077881812
 20
-3.440737725935832
 30
0.0
 11
-6.283883477372
 21
0.4483495772774404
 31
0.0
  0
ARC
  5
BE8
330
BA5
100
AcDbEntity
  8
0
100
AcDbCircle
 10
-12.0
 20
-3.5
 30
0.0
 40
1.399999999999999
100
AcDbArc
 50
135.0
 51
270.0
  0
LINE
  5
BE9
330
BA5
100
AcDbEntity
  8
0
100
AcDbLine
 10
-13.00139790187859
 20
-1.672970777132832
 30
0.0
 11
-11.23363095093009
 21
-3.440737725682993
 31
0.0
  0
LINE
  5
BEA
330
BA5
100
AcDbEntity
  8
0
100
AcDbLine
 10
-1.5
 20
3.5
 30
0.0
 11
-1.5
 21
-3.5
 31
0.0
  0
HATCH
  5
BEB
330
BA5
100
AcDbEntity
  8
0
100
AcDbHatch
 10
0.0
 20
0.0
 30
0.0
210
0.0
220
0.0
230
1.0
  2
ANSI31
 70
     0
 71
     1
 91
        1
 92
        7
 72
     1
 73
     1
 93
        8
 10
-6.460660173204814
 20
1.332233054616153
 42
0.0
 10
-7.839518394101105
 20
2.711091270081851
 42
0.414213562178905
 10
-8.122361106481548
 20
2.711091269618009
 42
0.0
 10
-12.43571247701766
 20
-1.602260112190379
 42
0.4142135636146872
 10
-12.43571247604996
 20
-1.885102825264766
 42
0.0
 10
-11.05685425338015
 20
-3.263961032639599
 42
0.4142135608152901
 10
-10.34974747407432
 20
-3.263961030598693
 42
0.0
 10
-6.460660172428106
 20
0.625126272813759
 42
0.4142135628833784
 97
        8
330
BD8
330
BD1
330
BDD
330
BDA
330
BED
330
BE3
330
BEC
330
BD5
 75
     0
 76
     1
 52
45.0
 41
0.25
 77
     0
 78
     1
 53
90.0
 43
-276.1145346408611
 44
-395.2719013892401
 45
-0.79375
 46
0.0000000000000002
 79
     0
 47
0.0364805528584695
 98
        1
 10
-7.399477738399582
 20
0.8532363732892918
  0
LINE
  5
BEC
102
{ACAD_REACTORS
330
BEB
102
}
330
BA5
100
AcDbEntity
  8
0
100
AcDbLine
 10
-10.34974747415435
 20
-3.263961030678729
 30
0.0
 11
-6.46066017270823
 21
0.6251262725336347
 31
0.0
  0
LINE
  5
BED
102
{ACAD_REACTORS
330
BEB
102
}
330
BA5
100
AcDbEntity
  8
0
100
AcDbLine
 10
-12.43571247609543
 20
-1.885102825218382
 30
0.0
 11
-11.05685425534102
 21
-3.263961030678729
 31
0.0
  0
LINE
  5
BEE
330
BA5
100
AcDbEntity
  8
0
100
AcDbLine
 10
-1.5
 20
5.5
 30
0.0
 11
1.042400829128382
 21
5.5
 31
0.0
  0
LINE
  5
BEF
330
BA5
100
AcDbEntity
  8
0
100
AcDbLine
 10
-1.5
 20
-5.5
 30
0.0
 11
1.042400829128382
 21
-5.5
 31
0.0
  0
ENDBLK
  5
BF1
330
BA5
100
AcDbEntity
  8
0
 62
     4
100
AcDbBlockEnd
  0
BLOCK
  5
1E1E
330
1E14
100
AcDbEntity
  8
0
100
AcDbBlockBegin
  2
*D13
 70
     1
 10
0.0
 20
0.0
 30
0.0
  3
*D13
  1

  0
LINE
  5
1F2A
330
1E14
100
AcDbEntity
  8
7
100
AcDbLine
 10
748.4629374201809
 20
1220.935468744694
 30
0.0
 11
748.4629374201809
 21
1204.726007965555
 31
0.0
  0
LINE
  5
1F2B
330
1E14
100
AcDbEntity
  8
7
100
AcDbLine
 10
648.0440158619152
 20
1220.935469014851
 30
0.0
 11
648.0440158619152
 21
1204.726007965555
 31
0.0
  0
LINE
  5
1F2C
330
1E14
100
AcDbEntity
  8
7
100
AcDbLine
 10
746.4629374201808
 20
1205.726007965555
 30
0.0
 11
650.0440158619152
 21
1205.726007965555
 31
0.0
  0
SOLID
  5
1F2D
330
1E14
100
AcDbEntity
  8
7
100
AcDbTrace
 10
746.4629374201808
 20
1206.059341298889
 30
0.0
 11
746.4629374201808
 21
1205.392674632222
 31
0.0
 12
748.4629374201809
 22
1205.726007965555
 32
0.0
 13
748.4629374201809
 23
1205.726007965555
 33
0.0
  0
SOLID
  5
1F2E
330
1E14
100
AcDbEntity
  8
7
100
AcDbTrace
 10
650.0440158619152
 20
1206.059341298889
 30
0.0
 11
650.0440158619152
 21
1205.392674632222
 31
0.0
 12
648.0440158619152
 22
1205.726007965555
 32
0.0
 13
648.0440158619152
 23
1205.726007965555
 33
0.0
  0
MTEXT
  5
1F2F
330
1E14
100
AcDbEntity
  8
7
100
AcDbMText
 10
698.2534766410481
 20
1207.975168475965
 30
0.0
 40
2.0
 41
0.0
 71
     5
 72
     1
  1
MAX. 1014 mm / MIN. 984 mm
  7
SANINDUSA
 73
     1
 44
1.0
1001
ACAD
1000
MTEXTBEGIN
1070
    73
1070
     1
1070
    44
1040
1.0
1070
    74
1070
     0
1000
MTEXTEND
  0
POINT
  5
1F30
330
1E14
100
AcDbEntity
  8
Defpoints
 62
     0
100
AcDbPoint
 10
748.4629374201809
 20
1221.935468744694
 30
0.0
  0
POINT
  5
1F31
330
1E14
100
AcDbEntity
  8
Defpoints
 62
     0
100
AcDbPoint
 10
648.0440158619152
 20
1221.93546901485
 30
0.0
  0
POINT
  5
1F32
330
1E14
100
AcDbEntity
  8
Defpoints
 62
     0
100
AcDbPoint
 10
648.0440158619152
 20
1205.726007965555
 30
0.0
  0
ENDBLK
  5
1E1F
330
1E14
100
AcDbEntity
  8
0
100
AcDbBlockEnd
  0
BLOCK
  5
1E2A
330
1E20
100
AcDbEntity
  8
0
100
AcDbBlockBegin
  2
*D14
 70
     1
 10
0.0
 20
0.0
 30
0.0
  3
*D14
  1

  0
LINE
  5
1E7F
330
1E20
100
AcDbEntity
  8
7
100
AcDbLine
 10
795.8378709684548
 20
1314.178308129651
 30
0.0
 11
795.8528677835381
 21
1314.178308129651
 31
0.0
  0
LINE
  5
1E80
330
1E20
100
AcDbEntity
  8
7
100
AcDbLine
 10
816.3453517387935
 20
1284.678308128685
 30
0.0
 11
793.8528677835381
 21
1284.678308128685
 31
0.0
  0
LINE
  5
1E81
330
1E20
100
AcDbEntity
  8
7
100
AcDbLine
 10
794.8528677835382
 20
1312.178308129652
 30
0.0
 11
794.8528677835382
 21
1286.678308128685
 31
0.0
  0
SOLID
  5
1E82
330
1E20
100
AcDbEntity
  8
7
100
AcDbTrace
 10
794.5195344502048
 20
1312.178308129652
 30
0.0
 11
795.1862011168715
 21
1312.178308129652
 31
0.0
 12
794.8528677835382
 22
1314.178308129651
 32
0.0
 13
794.8528677835382
 23
1314.178308129651
 33
0.0
  0
SOLID
  5
1E83
330
1E20
100
AcDbEntity
  8
7
100
AcDbTrace
 10
794.5195344502048
 20
1286.678308128685
 30
0.0
 11
795.1862011168715
 21
1286.678308128685
 31
0.0
 12
794.8528677835382
 22
1284.678308128685
 32
0.0
 13
794.8528677835382
 23
1284.678308128685
 33
0.0
  0
MTEXT
  5
1E84
330
1E20
100
AcDbEntity
  8
7
100
AcDbMText
 10
792.8112290998576
 20
1299.428308129169
 30
0.0
 40
2.0
 41
0.0
 71
     5
 72
     1
  1
295
  7
SANINDUSA
 11
0.0000000000000001
 21
1.0
 31
0.0
 73
     1
 44
1.0
1001
ACAD
1000
MTEXTBEGIN
1070
    73
1070
     1
1070
    44
1040
1.0
1070
    74
1070
     0
1000
MTEXTEND
  0
POINT
  5
1E85
330
1E20
100
AcDbEntity
  8
Defpoints
 62
     0
100
AcDbPoint
 10
794.8378709684548
 20
1314.178308129651
 30
0.0000001793827793
  0
POINT
  5
1E86
330
1E20
100
AcDbEntity
  8
Defpoints
 62
     0
100
AcDbPoint
 10
817.3453517387937
 20
1284.678308128685
 30
0.0000000000032074
  0
POINT
  5
1E87
330
1E20
100
AcDbEntity
  8
Defpoints
 62
     0
100
AcDbPoint
 10
794.8528677835382
 20
1284.678308128685
 30
0.0
  0
ENDBLK
  5
1E2B
330
1E20
100
AcDbEntity
  8
0
100
AcDbBlockEnd
  0
BLOCK
  5
1E36
330
1E2C
100
AcDbEntity
  8
0
100
AcDbBlockBegin
  2
*D15
 70
     1
 10
0.0
 20
0.0
 30
0.0
  3
*D15
  1

  0
LINE
  5
1E88
330
1E2C
100
AcDbEntity
  8
7
100
AcDbLine
 10
849.406494964038
 20
1158.678308129652
 30
0.0
 11
861.4884964755852
 21
1158.678308129652
 31
0.0
  0
LINE
  5
1E89
330
1E2C
100
AcDbEntity
  8
7
100
AcDbLine
 10
858.7183465474154
 20
1130.178308129652
 30
0.0
 11
861.4884964755852
 21
1130.178308129652
 31
0.0
  0
LINE
  5
1E8A
330
1E2C
100
AcDbEntity
  8
7
100
AcDbLine
 10
860.4884964755852
 20
1156.678308129652
 30
0.0
 11
860.4884964755852
 21
1132.178308129652
 31
0.0
  0
SOLID
  5
1E8B
330
1E2C
100
AcDbEntity
  8
7
100
AcDbTrace
 10
860.1551631422518
 20
1156.678308129652
 30
0.0
 11
860.8218298089186
 21
1156.678308129652
 31
0.0
 12
860.4884964755852
 22
1158.678308129652
 32
0.0
 13
860.4884964755852
 23
1158.678308129652
 33
0.0
  0
SOLID
  5
1E8C
330
1E2C
100
AcDbEntity
  8
7
100
AcDbTrace
 10
860.1551631422518
 20
1132.178308129652
 30
0.0
 11
860.8218298089186
 21
1132.178308129652
 31
0.0
 12
860.4884964755852
 22
1130.178308129652
 32
0.0
 13
860.4884964755852
 23
1130.178308129652
 33
0.0
  0
MTEXT
  5
1E8D
330
1E2C
100
AcDbEntity
  8
7
100
AcDbMText
 10
858.4428282418711
 20
1144.428308129652
 30
0.0
 40
2.0
 41
0.0
 71
     5
 72
     1
  1
285
  7
SANINDUSA
 11
0.0000000000000001
 21
1.0
 31
0.0
 73
     1
 44
1.0
1001
ACAD
1000
MTEXTBEGIN
1070
    73
1070
     1
1070
    44
1040
1.0
1070
    74
1070
     0
1000
MTEXTEND
  0
POINT
  5
1E8E
330
1E2C
100
AcDbEntity
  8
Defpoints
 62
     0
100
AcDbPoint
 10
848.406494964038
 20
1158.678308129652
 30
-0.0000001793795719
  0
POINT
  5
1E8F
330
1E2C
100
AcDbEntity
  8
Defpoints
 62
     0
100
AcDbPoint
 10
857.7183465474154
 20
1130.178308129652
 30
-0.0000001793795719
  0
POINT
  5
1E90
330
1E2C
100
AcDbEntity
  8
Defpoints
 62
     0
100
AcDbPoint
 10
860.4884964755852
 20
1130.178308129652
 30
0.0
  0
ENDBLK
  5
1E37
330
1E2C
100
AcDbEntity
  8
0
100
AcDbBlockEnd
  0
BLOCK
  5
1E44
330
1E38
100
AcDbEntity
  8
0
100
AcDbBlockBegin
  2
*D16
 70
     1
 10
0.0
 20
0.0
 30
0.0
  3
*D16
  1

  0
LINE
  5
1E91
330
1E38
100
AcDbEntity
  8
7
100
AcDbLine
 10
869.659943322144
 20
1130.178308129652
 30
0.0
 11
854.4884964755851
 21
1130.178308129652
 31
0.0
  0
LINE
  5
1E92
330
1E38
100
AcDbEntity
  8
7
100
AcDbLine
 10
872.4387778150189
 20
1129.178308129652
 30
0.0
 11
854.4884964755851
 21
1129.178308129652
 31
0.0
  0
LINE
  5
1E93
330
1E38
100
AcDbEntity
  8
7
100
AcDbLine
 10
855.4884964755851
 20
1132.178308129652
 30
0.0
 11
855.4884964755851
 21
1134.178308129652
 31
0.0
  0
LINE
  5
1E94
330
1E38
100
AcDbEntity
  8
7
100
AcDbLine
 10
855.4884964755851
 20
1127.178308129652
 30
0.0
 11
855.4884964755851
 21
1120.235393421794
 31
0.0
  0
LINE
  5
1E95
330
1E38
100
AcDbEntity
  8
7
100
AcDbLine
 10
855.4884964755851
 20
1130.178308129652
 30
0.0
 11
855.4884964755851
 21
1129.178308129652
 31
0.0
  0
SOLID
  5
1E96
330
1E38
100
AcDbEntity
  8
7
100
AcDbTrace
 10
855.1551631422517
 20
1132.178308129652
 30
0.0
 11
855.8218298089185
 21
1132.178308129652
 31
0.0
 12
855.4884964755851
 22
1130.178308129652
 32
0.0
 13
855.4884964755851
 23
1130.178308129652
 33
0.0
  0
SOLID
  5
1E97
330
1E38
100
AcDbEntity
  8
7
100
AcDbTrace
 10
855.1551631422517
 20
1127.178308129652
 30
0.0
 11
855.8218298089185
 21
1127.178308129652
 31
0.0
 12
855.4884964755851
 22
1129.178308129652
 32
0.0
 13
855.4884964755851
 23
1129.178308129652
 33
0.0
  0
MTEXT
  5
1E98
330
1E38
100
AcDbEntity
  8
7
100
AcDbMText
 10
853.447529383577
 20
1122.706850775723
 30
0.0
 40
2.0
 41
0.0
 71
     5
 72
     1
  1
10
  7
SANINDUSA
 11
0.0000000000000001
 21
1.0
 31
0.0
 73
     1
 44
1.0
1001
ACAD
1000
MTEXTBEGIN
1070
    73
1070
     1
1070
    44
1040
1.0
1070
    74
1070
     0
1000
MTEXTEND
  0
POINT
  5
1E99
330
1E38
100
AcDbEntity
  8
Defpoints
 62
     0
100
AcDbPoint
 10
870.6599433221439
 20
1130.178308129652
 30
-0.0000001793795719
  0
POINT
  5
1E9A
330
1E38
100
AcDbEntity
  8
Defpoints
 62
     0
100
AcDbPoint
 10
873.4387778150189
 20
1129.178308129652
 30
0.0
  0
POINT
  5
1E9B
330
1E38
100
AcDbEntity
  8
Defpoints
 62
     0
100
AcDbPoint
 10
855.4884964755851
 20
1129.178308129652
 30
0.0
  0
ENDBLK
  5
1E45
330
1E38
100
AcDbEntity
  8
0
100
AcDbBlockEnd
  0
BLOCK
  5
1E50
330
1E46
100
AcDbEntity
  8
0
100
AcDbBlockBegin
  2
*D17
 70
     1
 10
0.0
 20
0.0
 30
0.0
  3
*D17
  1

  0
LINE
  5
1E9C
330
1E46
100
AcDbEntity
  8
7
100
AcDbLine
 10
813.9624617031479
 20
1158.678308129652
 30
0.0
 11
793.8528677835383
 21
1158.678308129652
 31
0.0
  0
LINE
  5
1E9D
330
1E46
100
AcDbEntity
  8
7
100
AcDbLine
 10
798.8528677835383
 20
1129.178308129652
 30
0.0
 11
793.8528677835383
 21
1129.178308129652
 31
0.0
  0
LINE
  5
1E9E
330
1E46
100
AcDbEntity
  8
7
100
AcDbLine
 10
794.8528677835382
 20
1156.678308129652
 30
0.0
 11
794.8528677835382
 21
1131.178308129652
 31
0.0
  0
SOLID
  5
1E9F
330
1E46
100
AcDbEntity
  8
7
100
AcDbTrace
 10
794.5195344502049
 20
1156.678308129652
 30
0.0
 11
795.1862011168716
 21
1156.678308129652
 31
0.0
 12
794.8528677835382
 22
1158.678308129652
 32
0.0
 13
794.8528677835382
 23
1158.678308129652
 33
0.0
  0
SOLID
  5
1EA0
330
1E46
100
AcDbEntity
  8
7
100
AcDbTrace
 10
794.5195344502049
 20
1131.178308129652
 30
0.0
 11
795.1862011168716
 21
1131.178308129652
 31
0.0
 12
794.8528677835382
 22
1129.178308129652
 32
0.0
 13
794.8528677835382
 23
1129.178308129652
 33
0.0
  0
MTEXT
  5
1EA1
330
1E46
100
AcDbEntity
  8
7
100
AcDbMText
 10
792.8112290998578
 20
1143.928308129652
 30
0.0
 40
2.0
 41
0.0
 71
     5
 72
     1
  1
295
  7
SANINDUSA
 11
0.0000000000000001
 21
1.0
 31
0.0
 73
     1
 44
1.0
1001
ACAD
1000
MTEXTBEGIN
1070
    73
1070
     1
1070
    44
1040
1.0
1070
    74
1070
     0
1000
MTEXTEND
  0
POINT
  5
1EA2
330
1E46
100
AcDbEntity
  8
Defpoints
 62
     0
100
AcDbPoint
 10
814.9624617031479
 20
1158.678308129652
 30
-0.0000001793795719
  0
POINT
  5
1EA3
330
1E46
100
AcDbEntity
  8
Defpoints
 62
     0
100
AcDbPoint
 10
799.8528677835382
 20
1129.178308129652
 30
0.0
  0
POINT
  5
1EA4
330
1E46
100
AcDbEntity
  8
Defpoints
 62
     0
100
AcDbPoint
 10
794.8528677835382
 20
1129.178308129652
 30
0.0
  0
ENDBLK
  5
1E51
330
1E46
100
AcDbEntity
  8
0
100
AcDbBlockEnd
  0
BLOCK
  5
1E5C
330
1E52
100
AcDbEntity
  8
0
100
AcDbBlockBegin
  2
*D18
 70
     1
 10
0.0
 20
0.0
 30
0.0
  3
*D18
  1

  0
LINE
  5
1EA5
330
1E52
100
AcDbEntity
  8
7
100
AcDbLine
 10
904.6378709684544
 20
1314.178308129648
 30
0.0
 11
906.2717893418083
 21
1314.178308129648
 31
0.0
  0
LINE
  5
1EA6
330
1E52
100
AcDbEntity
  8
7
100
AcDbLine
 10
901.2717893418082
 20
1129.178308129652
 30
0.0
 11
906.2717893418081
 21
1129.178308129652
 31
0.0
  0
LINE
  5
1EA7
330
1E52
100
AcDbEntity
  8
7
100
AcDbLine
 10
905.2717893418083
 20
1312.178308129648
 30
0.0
 11
905.2717893418082
 21
1131.178308129652
 31
0.0
  0
SOLID
  5
1EA8
330
1E52
100
AcDbEntity
  8
7
100
AcDbTrace
 10
904.938456008475
 20
1312.178308129648
 30
0.0
 11
905.6051226751417
 21
1312.178308129648
 31
0.0
 12
905.2717893418083
 22
1314.178308129648
 32
0.0
 13
905.2717893418083
 23
1314.178308129648
 33
0.0
  0
SOLID
  5
1EA9
330
1E52
100
AcDbEntity
  8
7
100
AcDbTrace
 10
904.9384560084748
 20
1131.178308129652
 30
0.0
 11
905.6051226751415
 21
1131.178308129652
 31
0.0
 12
905.2717893418082
 22
1129.178308129652
 32
0.0
 13
905.2717893418082
 23
1129.178308129652
 33
0.0
  0
MTEXT
  5
1EAA
330
1E52
100
AcDbEntity
  8
7
100
AcDbMText
 10
903.2261211080943
 20
1221.67830812965
 30
0.0
 40
2.0
 41
0.0
 71
     5
 72
     1
  1
1850
  7
SANINDUSA
 11
0.0000000000000001
 21
1.0
 31
0.0
 73
     1
 44
1.0
1001
ACAD
1000
MTEXTBEGIN
1070
    73
1070
     1
1070
    44
1040
1.0
1070
    74
1070
     0
1000
MTEXTEND
  0
POINT
  5
1EAB
330
1E52
100
AcDbEntity
  8
Defpoints
 62
     0
100
AcDbPoint
 10
903.6378709684544
 20
1314.178308129648
 30
0.0
  0
POINT
  5
1EAC
330
1E52
100
AcDbEntity
  8
Defpoints
 62
     0
100
AcDbPoint
 10
900.2717893418083
 20
1129.178308129652
 30
0.0
  0
POINT
  5
1EAD
330
1E52
100
AcDbEntity
  8
Defpoints
 62
     0
100
AcDbPoint
 10
905.2717893418082
 20
1129.178308129652
 30
0.0
  0
ENDBLK
  5
1E5D
330
1E52
100
AcDbEntity
  8
0
100
AcDbBlockEnd
  0
BLOCK
  5
1E68
330
1E5E
100
AcDbEntity
  8
0
100
AcDbBlockBegin
  2
*D19
 70
     1
 10
0.0
 20
0.0
 30
0.0
  3
*D19
  1

  0
LINE
  5
1F18
330
1E5E
100
AcDbEntity
  8
7
100
AcDbLine
 10
742.0670214561964
 20
1221.97525812061
 30
0.0
 11
742.0670214561964
 21
1209.726007965555
 31
0.0
  0
LINE
  5
1F19
330
1E5E
100
AcDbEntity
  8
7
100
AcDbLine
 10
682.0670175352806
 20
1221.97525812061
 30
0.0
 11
682.0670175352806
 21
1209.726007965555
 31
0.0
  0
LINE
  5
1F1A
330
1E5E
100
AcDbEntity
  8
7
100
AcDbLine
 10
740.0670214561964
 20
1210.726007965555
 30
0.0
 11
684.0670175352807
 21
1210.726007965555
 31
0.0
  0
SOLID
  5
1F1B
330
1E5E
100
AcDbEntity
  8
7
100
AcDbTrace
 10
740.0670214561964
 20
1211.059341298889
 30
0.0
 11
740.0670214561964
 21
1210.392674632222
 31
0.0
 12
742.0670214561964
 22
1210.726007965555
 32
0.0
 13
742.0670214561964
 23
1210.726007965555
 33
0.0
  0
SOLID
  5
1F1C
330
1E5E
100
AcDbEntity
  8
7
100
AcDbTrace
 10
684.0670175352807
 20
1211.059341298889
 30
0.0
 11
684.0670175352807
 21
1210.392674632222
 31
0.0
 12
682.0670175352806
 22
1210.726007965555
 32
0.0
 13
682.0670175352806
 23
1210.726007965555
 33
0.0
  0
MTEXT
  5
1F1D
330
1E5E
100
AcDbEntity
  8
7
100
AcDbMText
 10
712.0670194957385
 20
1212.766975057563
 30
0.0
 40
2.0
 41
0.0
 71
     5
 72
     1
  1
600
  7
SANINDUSA
 73
     1
 44
1.0
1001
ACAD
1000
MTEXTBEGIN
1070
    73
1070
     1
1070
    44
1040
1.0
1070
    74
1070
     0
1000
MTEXTEND
  0
POINT
  5
1F1E
330
1E5E
100
AcDbEntity
  8
Defpoints
 62
     0
100
AcDbPoint
 10
742.0670214561964
 20
1222.97525812061
 30
0.000000015555529
  0
POINT
  5
1F1F
330
1E5E
100
AcDbEntity
  8
Defpoints
 62
     0
100
AcDbPoint
 10
682.0670175352806
 20
1222.97525812061
 30
0.000000015555529
  0
POINT
  5
1F20
330
1E5E
100
AcDbEntity
  8
Defpoints
 62
     0
100
AcDbPoint
 10
682.0670175352806
 20
1210.726007965555
 30
0.0
  0
ENDBLK
  5
1E69
330
1E5E
100
AcDbEntity
  8
0
100
AcDbBlockEnd
  0
BLOCK
  5
1E7D
330
1E73
100
AcDbEntity
  8
0
100
AcDbBlockBegin
  2
*D20
 70
     1
 10
0.0
 20
0.0
 30
0.0
  3
*D20
  1

  0
LINE
  5
1F21
330
1E73
100
AcDbEntity
  8
7
100
AcDbLine
 10
681.7670175352804
 20
1221.97525773965
 30
0.0
 11
681.7670175352804
 21
1209.726007965555
 31
0.0
  0
LINE
  5
1F22
330
1E73
100
AcDbEntity
  8
7
100
AcDbLine
 10
652.481218237902
 20
1221.975257739651
 30
0.0
 11
652.481218237902
 21
1209.726007965555
 31
0.0
  0
LINE
  5
1F23
330
1E73
100
AcDbEntity
  8
7
100
AcDbLine
 10
679.7670175352805
 20
1210.726007965555
 30
0.0
 11
654.4812182379019
 21
1210.726007965555
 31
0.0
  0
SOLID
  5
1F24
330
1E73
100
AcDbEntity
  8
7
100
AcDbTrace
 10
679.7670175352805
 20
1211.059341298889
 30
0.0
 11
679.7670175352805
 21
1210.392674632222
 31
0.0
 12
681.7670175352804
 22
1210.726007965555
 32
0.0
 13
681.7670175352804
 23
1210.726007965555
 33
0.0
  0
SOLID
  5
1F25
330
1E73
100
AcDbEntity
  8
7
100
AcDbTrace
 10
654.4812182379019
 20
1211.059341298889
 30
0.0
 11
654.4812182379019
 21
1210.392674632222
 31
0.0
 12
652.481218237902
 22
1210.726007965555
 32
0.0
 13
652.481218237902
 23
1210.726007965555
 33
0.0
  0
MTEXT
  5
1F26
330
1E73
100
AcDbEntity
  8
7
100
AcDbMText
 10
667.1241178865912
 20
1212.995316226133
 30
0.0
 40
2.0
 41
0.0
 71
     5
 72
     1
  1
292,9
  7
SANINDUSA
 73
     1
 44
1.0
1001
ACAD
1000
MTEXTBEGIN
1070
    73
1070
     1
1070
    44
1040
1.0
1070
    74
1070
     0
1000
MTEXTEND
  0
POINT
  5
1F27
330
1E73
100
AcDbEntity
  8
Defpoints
 62
     0
100
AcDbPoint
 10
681.7670175352804
 20
1222.975257739651
 30
0.0000000157875207
  0
POINT
  5
1F28
330
1E73
100
AcDbEntity
  8
Defpoints
 62
     0
100
AcDbPoint
 10
652.481218237902
 20
1222.975257739651
 30
0.0000000144287892
  0
POINT
  5
1F29
330
1E73
100
AcDbEntity
  8
Defpoints
 62
     0
100
AcDbPoint
 10
652.481218237902
 20
1210.726007965555
 30
0.0
  0
ENDBLK
  5
1E7E
330
1E73
100
AcDbEntity
  8
0
100
AcDbBlockEnd
  0
BLOCK
  5
1EF0
330
1EE6
100
AcDbEntity
  8
0
100
AcDbBlockBegin
  2
*D21
 70
     1
 10
0.0
 20
0.0
 30
0.0
  3
*D21
  1

  0
ARC
  5
1F0F
330
1EE6
100
AcDbEntity
  8
7
100
AcDbCircle
 10
683.6570231455976
 20
1222.97525812061
 30
0.0
 40
46.71211857201616
100
AcDbArc
 50
272.4533315344963
 51
357.5466684655037
  0
SOLID
  5
1F10
330
1EE6
100
AcDbEntity
  8
7
100
AcDbTrace
 10
685.6637007095486
 20
1175.972698047693
 30
0.0
 11
685.649428895573
 21
1176.639211933348
 31
0.0
 12
683.6570231455973
 22
1176.263139548594
 32
0.0
 13
683.6570231455973
 23
1176.263139548594
 33
0.0
  0
SOLID
  5
1F11
330
1EE6
100
AcDbEntity
  8
7
100
AcDbTrace
 10
729.9930693328597
 20
1220.982852370634
 30
0.0
 11
730.6595832185142
 21
1220.968580556659
 31
0.0
 12
730.3691417176137
 22
1222.97525812061
 32
0.0
 13
730.3691417176137
 23
1222.97525812061
 33
0.0
  0
MTEXT
  5
1F12
102
{ACAD_XDICTIONARY
360
2012
102
}
330
1EE6
100
AcDbEntity
  8
7
100
AcDbMText
 10
715.0833105788288
 20
1191.548970687378
 30
0.0
 40
2.0
 41
0.0
 71
     5
 72
     1
  1
90,0\U+00B0
  7
SANINDUSA
 11
0.707106781186547
 21
0.7071067811865481
 31
0.0
 73
     1
 44
1.0
1001
ACAD
1000
MTEXTBEGIN
1070
    73
1070
     1
1070
    44
1040
1.0
1070
    74
1070
     0
1000
MTEXTEND
  0
POINT
  5
1F13
330
1EE6
100
AcDbEntity
  8
Defpoints
 62
     0
100
AcDbPoint
 10
707.0130824316055
 20
1182.521376772653
 30
0.0
  0
POINT
  5
1F14
330
1EE6
100
AcDbEntity
  8
Defpoints
 62
     0
100
AcDbPoint
 10
683.6570231455976
 20
1221.685252510293
 30
0.000000015555529
  0
POINT
  5
1F15
330
1EE6
100
AcDbEntity
  8
Defpoints
 62
     0
100
AcDbPoint
 10
682.0670175352806
 20
1222.97525812061
 30
0.000000015555529
  0
POINT
  5
1F16
330
1EE6
100
AcDbEntity
  8
Defpoints
 62
     0
100
AcDbPoint
 10
742.0670214561964
 20
1222.97525812061
 30
0.000000015555529
  0
POINT
  5
1F17
330
1EE6
100
AcDbEntity
  8
Defpoints
 62
     0
100
AcDbPoint
 10
683.6570231455972
 20
1161.685248589377
 30
0.000000015555529
  0
ENDBLK
  5
1EF1
330
1EE6
100
AcDbEntity
  8
0
100
AcDbBlockEnd
  0
BLOCK
  5
1F8C
330
1F8B
100
AcDbEntity
  8
0
100
AcDbBlockBegin
  2
*D23
 70
     1
 10
0.0
 20
0.0
 30
0.0
  3
*D23
  1

  0
LINE
  5
1F98
330
1F8B
100
AcDbEntity
  8
cotas
100
AcDbLine
 10
901.2717893418077
 20
1314.178308129652
 30
0.0
 11
941.9140096854981
 21
1314.178308129652
 31
0.0
  0
LINE
  5
1F99
330
1F8B
100
AcDbEntity
  8
cotas
100
AcDbLine
 10
901.2717893418082
 20
1129.178308129652
 30
0.0
 11
941.9140096854979
 21
1129.178308129652
 31
0.0
  0
LINE
  5
1F9A
330
1F8B
100
AcDbEntity
  8
cotas
100
AcDbLine
 10
940.9140096854981
 20
1312.178308129652
 30
0.0
 11
940.9140096854979
 21
1131.178308129652
 31
0.0
  0
SOLID
  5
1F9B
330
1F8B
100
AcDbEntity
  8
cotas
100
AcDbTrace
 10
940.5806763521647
 20
1312.178308129652
 30
0.0
 11
941.2473430188313
 21
1312.178308129652
 31
0.0
 12
940.9140096854981
 22
1314.178308129652
 32
0.0
 13
940.9140096854981
 23
1314.178308129652
 33
0.0
  0
SOLID
  5
1F9C
330
1F8B
100
AcDbEntity
  8
cotas
100
AcDbTrace
 10
940.5806763521646
 20
1131.178308129652
 30
0.0
 11
941.2473430188313
 21
1131.178308129652
 31
0.0
 12
940.9140096854979
 22
1129.178308129652
 32
0.0
 13
940.9140096854979
 23
1129.178308129652
 33
0.0
  0
MTEXT
  5
1F9D
330
1F8B
100
AcDbEntity
  8
cotas
100
AcDbMText
 10
938.868341451784
 20
1221.678308129653
 30
0.0
 40
2.0
 41
0.0
 71
     5
 72
     1
  1
185
  7
SANINDUSA
 11
0.0000000000000001
 21
1.0
 31
0.0
 73
     1
 44
1.0
1001
ACAD
1000
MTEXTBEGIN
1070
    73
1070
     1
1070
    44
1040
1.0
1070
    74
1070
     0
1000
MTEXTEND
  0
POINT
  5
1F9E
330
1F8B
100
AcDbEntity
  8
Defpoints
 62
     0
100
AcDbPoint
 10
900.2717893418077
 20
1314.178308129652
 30
0.0
  0
POINT
  5
1F9F
330
1F8B
100
AcDbEntity
  8
Defpoints
 62
     0
100
AcDbPoint
 10
900.2717893418083
 20
1129.178308129652
 30
0.0
  0
POINT
  5
1FA0
330
1F8B
100
AcDbEntity
  8
Defpoints
 62
     0
100
AcDbPoint
 10
940.9140096854979
 20
1129.178308129652
 30
0.0
  0
ENDBLK
  5
1F8D
330
1F8B
100
AcDbEntity
  8
0
100
AcDbBlockEnd
  0
ENDSEC
  0
SECTION
  2
ENTITIES
  0
LINE
  5
19BC
330
1F
100
AcDbEntity
  8
SANINDUSA
100
AcDbLine
 10
733.5051523860292
 20
1088.27778386642
 30
-0.000000000061528
 11
733.798010379003
 21
1088.27778386642
 31
0.0000000002002489
  0
ARC
  5
19D0
330
1F
100
AcDbEntity
  8
SANINDUSA
100
AcDbCircle
 10
734.4617096821909
 20
1088.358277426065
 30
0.0
 40
0.0987200954923432
100
AcDbArc
 50
248.9411647530097
 51
269.9477634045774
  0
ARC
  5
19D1
330
1F
100
AcDbEntity
  8
SANINDUSA
100
AcDbCircle
 10
734.4617096821909
 20
1088.358277426065
 30
0.0
 40
0.0967200954923435
100
AcDbArc
 50
254.4398303579209
 51
267.8505420653467
  0
LINE
  5
19D2
330
1F
100
AcDbEntity
  8
SANINDUSA
100
AcDbLine
 10
734.4265962696209
 20
1088.28148386642
 30
0.0
 11
734.458119573753
 21
1088.28148386642
 31
0.0
  0
LINE
  5
19D3
330
1F
100
AcDbEntity
  8
SANINDUSA
100
AcDbLine
 10
734.4616195737529
 20
1088.28348386642
 30
0.0
 11
734.4265962696209
 21
1088.28348386642
 31
0.0
  0
LINE
  5
19D5
330
1F
100
AcDbEntity
  8
SANINDUSA
100
AcDbLine
 10
734.4614695737529
 20
1088.263583842759
 30
0.0
 11
734.4614695737529
 21
1088.279169652857
 31
0.0
  0
ARC
  5
19D6
330
1F
100
AcDbEntity
  8
SANINDUSA
100
AcDbCircle
 10
734.4621195737529
 20
1088.279169652857
 30
0.0
 40
0.0006500000000003
100
AcDbArc
 50
135.0
 51
180.0
  0
ARC
  5
19D7
330
1F
100
AcDbEntity
  8
SANINDUSA
100
AcDbCircle
 10
734.4621195737529
 20
1088.263583842759
 30
0.0
 40
0.0006500000000003
100
AcDbArc
 50
180.0
 51
225.0893040480139
  0
LINE
  5
19D8
330
1F
100
AcDbEntity
  8
SANINDUSA
100
AcDbLine
 10
734.4616599543452
 20
1088.279629272265
 30
0.0
 11
734.4625741679076
 21
1088.280543485828
 31
0.0
  0
LINE
  5
19D9
330
1F
100
AcDbEntity
  8
SANINDUSA
100
AcDbLine
 10
734.4625671103997
 20
1088.26221988966
 30
0.0
 11
734.4616606712889
 21
1088.263123507523
 31
0.0
  0
ARC
  5
19DA
330
1F
100
AcDbEntity
  8
SANINDUSA
100
AcDbCircle
 10
734.4616195737529
 20
1088.281498079982
 30
0.0
 40
0.0013499999999998
100
AcDbArc
 50
315.0
 51
0.0
  0
ARC
  5
19DB
330
1F
100
AcDbEntity
  8
SANINDUSA
100
AcDbCircle
 10
734.4616140052821
 20
1088.261263808787
 30
0.0
 40
0.00135
100
AcDbArc
 50
0.5340991041582637
 51
45.08930404801393
  0
LINE
  5
19DC
330
1F
100
AcDbEntity
  8
SANINDUSA
100
AcDbLine
 10
734.462969573753
 20
1088.281498079982
 30
0.0
 11
734.462969573753
 21
1088.28248386642
 31
0.0
  0
LINE
  5
19DD
330
1F
100
AcDbEntity
  8
SANINDUSA
100
AcDbLine
 10
734.462970736288
 20
1088.260548049532
 30
0.0
 11
734.4629639466278
 21
1088.261276393019
 31
0.0
  0
ARC
  5
19DE
330
1F
100
AcDbEntity
  8
SANINDUSA
100
AcDbCircle
 10
734.4639695737529
 20
1088.28248386642
 30
0.0
 40
0.0009999999999999
100
AcDbArc
 50
90.0
 51
180.0
  0
ARC
  5
19DF
330
1F
100
AcDbEntity
  8
SANINDUSA
100
AcDbCircle
 10
734.4639706928404
 20
1088.260557371185
 30
0.0
 40
0.0009999999999999
100
AcDbArc
 50
180.5340991041582
 51
270.0
  0
LINE
  5
19E0
330
1F
100
AcDbEntity
  8
SANINDUSA
100
AcDbLine
 10
734.4639695737529
 20
1088.28348386642
 30
0.0
 11
734.464969573753
 21
1088.28348386642
 31
0.0
  0
LINE
  5
19E1
330
1F
100
AcDbEntity
  8
SANINDUSA
100
AcDbLine
 10
734.464969573753
 20
1088.259557371185
 30
0.0
 11
734.4639706928404
 21
1088.259557371185
 31
0.0
  0
LINE
  5
19E2
330
1F
100
AcDbEntity
  8
SANINDUSA
100
AcDbLine
 10
734.464969573753
 20
1088.259557371185
 30
0.0
 11
734.464969573753
 21
1088.28348386642
 31
0.0
  0
LINE
  5
19E3
330
1F
100
AcDbEntity
  8
SANINDUSA
100
AcDbLine
 10
734.4626205472867
 20
1088.260566692838
 30
0.0
 11
734.4626139618344
 21
1088.26127313044
 31
0.0
  0
ARC
  5
19E4
330
1F
100
AcDbEntity
  8
SANINDUSA
100
AcDbCircle
 10
734.4616205907343
 20
1088.260557371185
 30
0.0
 40
0.001
100
AcDbArc
 50
269.9477634045774
 51
0.5340991041582637
  0
ARC
  5
19E5
330
1F
100
AcDbEntity
  8
SANINDUSA
100
AcDbCircle
 10
734.4616140052821
 20
1088.261263808787
 30
0.0
 40
0.0010000000000003
100
AcDbArc
 50
0.5340991041582637
 51
45.08930404801393
  0
LINE
  5
19E6
330
1F
100
AcDbEntity
  8
SANINDUSA
100
AcDbLine
 10
734.462320009073
 20
1088.261972016841
 30
0.0
 11
734.461413569962
 21
1088.262875634705
 31
0.0
  0
ARC
  5
19E7
330
1F
100
AcDbEntity
  8
SANINDUSA
100
AcDbCircle
 10
734.4621195737529
 20
1088.263583842759
 30
0.0
 40
0.0010000000000003
100
AcDbArc
 50
180.0
 51
225.0893040480139
  0
LINE
  5
19E8
330
1F
100
AcDbEntity
  8
SANINDUSA
100
AcDbLine
 10
734.4611195737529
 20
1088.263583842759
 30
0.0
 11
734.4611195737529
 21
1088.273773206248
 31
0.0
  0
ARC
  5
19E9
330
1F
100
AcDbEntity
  8
SANINDUSA
100
AcDbCircle
 10
734.460869573753
 20
1088.273773206248
 30
0.0
 40
0.00025
100
AcDbArc
 50
0.0
 51
45.0
  0
LINE
  5
19EA
330
1F
100
AcDbEntity
  8
SANINDUSA
100
AcDbLine
 10
734.4610463504483
 20
1088.273949982943
 30
0.0
 11
734.4605660203624
 21
1088.274430313029
 31
0.0
  0
ARC
  5
19EB
330
1F
100
AcDbEntity
  8
SANINDUSA
100
AcDbCircle
 10
734.460919573753
 20
1088.27478386642
 30
0.0
 40
0.0005
100
AcDbArc
 50
135.0
 51
225.0
  0
LINE
  5
19EC
330
1F
100
AcDbEntity
  8
SANINDUSA
100
AcDbLine
 10
734.4605660203624
 20
1088.27513741981
 30
0.0
 11
734.4610463504483
 21
1088.275617749896
 31
0.0
  0
ARC
  5
19ED
330
1F
100
AcDbEntity
  8
SANINDUSA
100
AcDbCircle
 10
734.458119573753
 20
1088.262624680143
 30
0.0
 40
0.001
100
AcDbArc
 50
267.8505420653467
 51
0.0
  0
ARC
  5
19EE
330
1F
100
AcDbEntity
  8
SANINDUSA
100
AcDbCircle
 10
734.460869573753
 20
1088.275794526592
 30
0.0
 40
0.0002500000000003
100
AcDbArc
 50
315.0
 51
0.0
  0
LINE
  5
19EF
330
1F
100
AcDbEntity
  8
SANINDUSA
100
AcDbLine
 10
734.459119573753
 20
1088.28048386642
 30
0.0
 11
734.459119573753
 21
1088.262624680143
 31
0.0
  0
LINE
  5
19F0
330
1F
100
AcDbEntity
  8
SANINDUSA
100
AcDbLine
 10
734.4611195737529
 20
1088.275794526592
 30
0.0
 11
734.4611195737529
 21
1088.279169652857
 31
0.0
  0
ARC
  5
19F1
330
1F
100
AcDbEntity
  8
SANINDUSA
100
AcDbCircle
 10
734.458119573753
 20
1088.28048386642
 30
0.0
 40
0.001
100
AcDbArc
 50
0.0
 51
90.0
  0
ARC
  5
19F2
330
1F
100
AcDbEntity
  8
SANINDUSA
100
AcDbCircle
 10
734.4621195737529
 20
1088.279169652857
 30
0.0
 40
0.0010000000000003
100
AcDbArc
 50
135.0
 51
180.0
  0
LINE
  5
19F3
330
1F
100
AcDbEntity
  8
SANINDUSA
100
AcDbLine
 10
734.4614124669718
 20
1088.279876759639
 30
0.0
 11
734.4623266805341
 21
1088.280790973201
 31
0.0
  0
ARC
  5
19F4
330
1F
100
AcDbEntity
  8
SANINDUSA
100
AcDbCircle
 10
734.4616195737529
 20
1088.281498079982
 30
0.0
 40
0.0010000000000003
100
AcDbArc
 50
315.0
 51
0.0
  0
LINE
  5
19F5
330
1F
100
AcDbEntity
  8
SANINDUSA
100
AcDbLine
 10
734.4626195737529
 20
1088.281498079982
 30
0.0
 11
734.4626195737529
 21
1088.28248386642
 31
0.0
  0
ARC
  5
19F6
330
1F
100
AcDbEntity
  8
SANINDUSA
100
AcDbCircle
 10
734.4616195737529
 20
1088.28248386642
 30
0.0
 40
0.0009999999999999
100
AcDbArc
 50
0.0
 51
90.0
  0
ARC
  5
19F9
330
1F
100
AcDbEntity
  8
SANINDUSA
100
AcDbCircle
 10
734.4265962696209
 20
1088.26708386642
 30
0.0
 40
0.001
100
AcDbArc
 50
90.0
 51
248.9411647530097
  0
LINE
  5
19FA
330
1F
100
AcDbEntity
  8
SANINDUSA
100
AcDbLine
 10
734.448596269621
 20
1088.26808386642
 30
0.0
 11
734.4265962696209
 21
1088.26808386642
 31
0.0
  0
ARC
  5
19FB
330
1F
100
AcDbEntity
  8
SANINDUSA
100
AcDbCircle
 10
734.448596269621
 20
1088.26708386642
 30
0.0
 40
0.001
100
AcDbArc
 50
270.0
 51
90.0
  0
LINE
  5
19FC
330
1F
100
AcDbEntity
  8
SANINDUSA
100
AcDbLine
 10
734.4358986229934
 20
1088.26608386642
 30
0.0
 11
734.448596269621
 21
1088.26608386642
 31
0.0
  0
ARC
  5
19FD
330
1F
100
AcDbEntity
  8
SANINDUSA
100
AcDbCircle
 10
734.4358986229934
 20
1088.26558386642
 30
0.0
 40
0.0005
100
AcDbArc
 50
90.0
 51
254.4398303579209
  0
ARC
  5
19FE
330
1F
100
AcDbEntity
  8
SANINDUSA
100
AcDbCircle
 10
734.4265962696209
 20
1088.28248386642
 30
0.0
 40
0.001
100
AcDbArc
 50
90.0
 51
270.0
  0
LINE
  5
1AE5
330
1F
100
AcDbEntity
  8
SANINDUSA
100
AcDbLine
 10
733.4807166537703
 20
1088.449476037937
 30
0.0000000000366369
 11
733.6294725337867
 21
1088.300720157921
 31
0.0000000000366369
  0
LINE
  5
1AE6
330
1F
100
AcDbEntity
  8
SANINDUSA
100
AcDbLine
 10
733.6420687278645
 20
1088.310751380841
 30
0.0000000000366369
 11
733.4907803622693
 21
1088.462039746437
 31
0.0000000000366369
  0
LINE
  5
1AE7
330
1F
100
AcDbEntity
  8
SANINDUSA
100
AcDbLine
 10
733.6404425337867
 20
1088.30339486642
 30
0.0000000000366369
 11
733.6385914806039
 21
1088.30339486642
 31
0.0000000000366369
  0
LINE
  5
1AE8
330
1F
100
AcDbEntity
  8
SANINDUSA
100
AcDbLine
 10
733.6385914806039
 20
1088.30467286642
 30
0.0000000000366369
 11
733.6404425337867
 21
1088.30467286642
 31
0.0000000000366369
  0
LINE
  5
1AE9
330
1F
100
AcDbEntity
  8
SANINDUSA
100
AcDbLine
 10
733.6357047668338
 20
1088.315701128309
 30
0.0000000000366369
 11
733.6406220287234
 21
1088.31078386642
 31
0.0000000000366369
  0
LINE
  5
1AEA
330
1F
100
AcDbEntity
  8
SANINDUSA
100
AcDbLine
 10
733.6314725337867
 20
1088.31078386642
 30
0.0000000000366369
 11
733.6434725337867
 21
1088.31078386642
 31
0.0000000000366369
  0
CIRCLE
  5
1AEB
330
1F
100
AcDbEntity
  8
SANINDUSA
100
AcDbCircle
 10
733.6374725337868
 20
1088.30403386642
 30
0.0000000000366369
 40
0.0050849999999992
  0
LINE
  5
1AEC
330
1F
100
AcDbEntity
  8
SANINDUSA
100
AcDbLine
 10
733.6284725337868
 20
1088.29578386642
 30
0.0000000000366369
 11
733.6464725337868
 21
1088.29578386642
 31
0.0000000000366369
  0
LINE
  5
1AED
330
1F
100
AcDbEntity
  8
SANINDUSA
100
AcDbLine
 10
733.6149725337867
 20
1088.26778386642
 30
0.0000000000366369
 11
733.6599725337868
 21
1088.26778386642
 31
0.0000000000366369
  0
LINE
  5
1AEE
330
1F
100
AcDbEntity
  8
SANINDUSA
100
AcDbLine
 10
733.6149725337867
 20
1088.28578386642
 30
0.0000000000366369
 11
733.6599725337868
 21
1088.28578386642
 31
0.0000000000366369
  0
LINE
  5
1AEF
330
1F
100
AcDbEntity
  8
SANINDUSA
100
AcDbLine
 10
733.6404425337867
 20
1088.30467286642
 30
0.0000000000366369
 11
733.6404425337867
 21
1088.30339486642
 31
0.0000000000366369
  0
LINE
  5
1AF0
330
1F
100
AcDbEntity
  8
SANINDUSA
100
AcDbLine
 10
733.6454725337867
 20
1088.29578386642
 30
0.0000000000366369
 11
733.6454725337867
 21
1088.30878386642
 31
0.0000000000366369
  0
ARC
  5
1AF1
330
1F
100
AcDbEntity
  8
SANINDUSA
100
AcDbCircle
 10
733.6434725337867
 20
1088.30878386642
 30
0.0000000000366369
 40
0.002
100
AcDbArc
 50
0.0
 51
90.0
  0
LINE
  5
1AF2
330
1F
100
AcDbEntity
  8
SANINDUSA
100
AcDbLine
 10
733.6599725337868
 20
1088.28578386642
 30
0.0000000000366369
 11
733.6599725337868
 21
1088.26778386642
 31
0.0000000000366369
  0
LINE
  5
1AF3
330
1F
100
AcDbEntity
  8
SANINDUSA
100
AcDbLine
 10
733.6464725337868
 20
1088.28578386642
 30
0.0000000000366369
 11
733.6464725337868
 21
1088.29578386642
 31
0.0000000000366369
  0
LINE
  5
1AF5
330
1F
100
AcDbEntity
  8
SANINDUSA
100
AcDbLine
 10
733.6368335337867
 20
1088.30106386642
 30
0.0000000000366369
 11
733.6368335337867
 21
1088.302914919603
 31
0.0000000000366369
  0
LINE
  5
1AF6
330
1F
100
AcDbEntity
  8
SANINDUSA
100
AcDbLine
 10
733.6381115337867
 20
1088.302914919603
 30
0.0000000000366369
 11
733.6381115337867
 21
1088.30106386642
 31
0.0000000000366369
  0
LINE
  5
1AF7
330
1F
100
AcDbEntity
  8
SANINDUSA
100
AcDbLine
 10
733.6385914806039
 20
1088.30339486642
 30
0.0000000000366369
 11
733.6395726409269
 21
1088.30193375928
 31
0.0000000000366369
  0
LINE
  5
1AF8
330
1F
100
AcDbEntity
  8
SANINDUSA
100
AcDbLine
 10
733.6395726409269
 20
1088.30193375928
 30
0.0000000000366369
 11
733.6381115337867
 21
1088.30339486642
 31
0.0000000000366369
  0
LINE
  5
1AF9
330
1F
100
AcDbEntity
  8
SANINDUSA
100
AcDbLine
 10
733.6395726409269
 20
1088.30193375928
 30
0.0000000000366369
 11
733.6381115337867
 21
1088.302914919603
 31
0.0000000000366369
  0
LINE
  5
1AFA
330
1F
100
AcDbEntity
  8
SANINDUSA
100
AcDbLine
 10
733.6368335337867
 20
1088.302914919603
 30
0.0000000000366369
 11
733.6353724266466
 21
1088.30193375928
 31
0.0000000000366369
  0
LINE
  5
1AFB
330
1F
100
AcDbEntity
  8
SANINDUSA
100
AcDbLine
 10
733.6353724266466
 20
1088.30193375928
 30
0.0000000000366369
 11
733.6368335337867
 21
1088.30339486642
 31
0.0000000000366369
  0
LINE
  5
1AFC
330
1F
100
AcDbEntity
  8
SANINDUSA
100
AcDbLine
 10
733.6353724266466
 20
1088.30193375928
 30
0.0000000000366369
 11
733.6363535869696
 21
1088.30339486642
 31
0.0000000000366369
  0
LINE
  5
1AFD
330
1F
100
AcDbEntity
  8
SANINDUSA
100
AcDbLine
 10
733.6381115337867
 20
1088.30106386642
 30
0.0000000000366369
 11
733.6368335337867
 21
1088.30106386642
 31
0.0000000000366369
  0
LINE
  5
1AFE
330
1F
100
AcDbEntity
  8
SANINDUSA
100
AcDbLine
 10
733.6381115337867
 20
1088.30700386642
 30
0.0000000000366369
 11
733.6381115337867
 21
1088.305152813237
 31
0.0000000000366369
  0
LINE
  5
1AFF
330
1F
100
AcDbEntity
  8
SANINDUSA
100
AcDbLine
 10
733.6368335337867
 20
1088.305152813237
 30
0.0000000000366369
 11
733.6368335337867
 21
1088.30700386642
 31
0.0000000000366369
  0
LINE
  5
1B00
330
1F
100
AcDbEntity
  8
SANINDUSA
100
AcDbLine
 10
733.6381115337867
 20
1088.30403386642
 30
0.0000000000366369
 11
733.6374725337868
 21
1088.30403386642
 31
0.0000000000366369
  0
LINE
  5
1B01
330
1F
100
AcDbEntity
  8
SANINDUSA
100
AcDbLine
 10
733.6374725337868
 20
1088.30403386642
 30
0.0000000000366369
 11
733.6368335337867
 21
1088.30403386642
 31
0.0000000000366369
  0
LINE
  5
1B02
330
1F
100
AcDbEntity
  8
SANINDUSA
100
AcDbLine
 10
733.6368335337867
 20
1088.30467286642
 30
0.0000000000366369
 11
733.6368335337867
 21
1088.30339486642
 31
0.0000000000366369
  0
LINE
  5
1B03
330
1F
100
AcDbEntity
  8
SANINDUSA
100
AcDbLine
 10
733.6345025337867
 20
1088.30339486642
 30
0.0000000000366369
 11
733.6345025337867
 21
1088.30467286642
 31
0.0000000000366369
  0
LINE
  5
1B04
330
1F
100
AcDbEntity
  8
SANINDUSA
100
AcDbLine
 10
733.6374725337868
 20
1088.30403386642
 30
0.0000000000366369
 11
733.6368335337867
 21
1088.30467286642
 31
0.0000000000366369
  0
LINE
  5
1B05
330
1F
100
AcDbEntity
  8
SANINDUSA
100
AcDbLine
 10
733.6368335337867
 20
1088.30339486642
 30
0.0000000000366369
 11
733.6374725337868
 21
1088.30403386642
 31
0.0000000000366369
  0
LINE
  5
1B06
330
1F
100
AcDbEntity
  8
SANINDUSA
100
AcDbLine
 10
733.6374725337868
 20
1088.30403386642
 30
0.0000000000366369
 11
733.6374725337868
 21
1088.30467286642
 31
0.0000000000366369
  0
LINE
  5
1B07
330
1F
100
AcDbEntity
  8
SANINDUSA
100
AcDbLine
 10
733.6381115337867
 20
1088.30467286642
 30
0.0000000000366369
 11
733.6374725337868
 21
1088.30403386642
 31
0.0000000000366369
  0
LINE
  5
1B08
330
1F
100
AcDbEntity
  8
SANINDUSA
100
AcDbLine
 10
733.6381115337867
 20
1088.30339486642
 30
0.0000000000366369
 11
733.6381115337867
 21
1088.30467286642
 31
0.0000000000366369
  0
LINE
  5
1B09
330
1F
100
AcDbEntity
  8
SANINDUSA
100
AcDbLine
 10
733.6374725337868
 20
1088.30339486642
 30
0.0000000000366369
 11
733.6374725337868
 21
1088.30403386642
 31
0.0000000000366369
  0
LINE
  5
1B0A
330
1F
100
AcDbEntity
  8
SANINDUSA
100
AcDbLine
 10
733.6374725337868
 20
1088.30403386642
 30
0.0000000000366369
 11
733.6381115337867
 21
1088.30339486642
 31
0.0000000000366369
  0
LINE
  5
1B0B
330
1F
100
AcDbEntity
  8
SANINDUSA
100
AcDbLine
 10
733.6345025337867
 20
1088.30467286642
 30
0.0000000000366369
 11
733.6363535869696
 21
1088.30467286642
 31
0.0000000000366369
  0
LINE
  5
1B0C
330
1F
100
AcDbEntity
  8
SANINDUSA
100
AcDbLine
 10
733.6368335337867
 20
1088.30467286642
 30
0.0000000000366369
 11
733.6381115337867
 21
1088.30467286642
 31
0.0000000000366369
  0
LINE
  5
1B0D
330
1F
100
AcDbEntity
  8
SANINDUSA
100
AcDbLine
 10
733.6381115337867
 20
1088.30339486642
 30
0.0000000000366369
 11
733.6368335337867
 21
1088.30339486642
 31
0.0000000000366369
  0
LINE
  5
1B0E
330
1F
100
AcDbEntity
  8
SANINDUSA
100
AcDbLine
 10
733.6363535869696
 20
1088.30339486642
 30
0.0000000000366369
 11
733.6345025337867
 21
1088.30339486642
 31
0.0000000000366369
  0
LINE
  5
1B0F
330
1F
100
AcDbEntity
  8
SANINDUSA
100
AcDbLine
 10
733.6368335337867
 20
1088.30467286642
 30
0.0000000000366369
 11
733.6363535869696
 21
1088.30467286642
 31
0.0000000000366369
  0
LINE
  5
1B10
330
1F
100
AcDbEntity
  8
SANINDUSA
100
AcDbLine
 10
733.6363535869696
 20
1088.30467286642
 30
0.0000000000366369
 11
733.6353724266466
 21
1088.30613397356
 31
0.0000000000366369
  0
LINE
  5
1B11
330
1F
100
AcDbEntity
  8
SANINDUSA
100
AcDbLine
 10
733.6368335337867
 20
1088.305152813237
 30
0.0000000000366369
 11
733.6368335337867
 21
1088.30467286642
 31
0.0000000000366369
  0
LINE
  5
1B12
330
1F
100
AcDbEntity
  8
SANINDUSA
100
AcDbLine
 10
733.6353724266466
 20
1088.30613397356
 30
0.0000000000366369
 11
733.6368335337867
 21
1088.30467286642
 31
0.0000000000366369
  0
LINE
  5
1B13
330
1F
100
AcDbEntity
  8
SANINDUSA
100
AcDbLine
 10
733.6353724266466
 20
1088.30613397356
 30
0.0000000000366369
 11
733.6368335337867
 21
1088.305152813237
 31
0.0000000000366369
  0
LINE
  5
1B14
330
1F
100
AcDbEntity
  8
SANINDUSA
100
AcDbLine
 10
733.6381115337867
 20
1088.30339486642
 30
0.0000000000366369
 11
733.6385914806039
 21
1088.30339486642
 31
0.0000000000366369
  0
LINE
  5
1B15
330
1F
100
AcDbEntity
  8
SANINDUSA
100
AcDbLine
 10
733.6381115337867
 20
1088.302914919603
 30
0.0000000000366369
 11
733.6381115337867
 21
1088.30339486642
 31
0.0000000000366369
  0
LINE
  5
1B16
330
1F
100
AcDbEntity
  8
SANINDUSA
100
AcDbLine
 10
733.6381115337867
 20
1088.30467286642
 30
0.0000000000366369
 11
733.6381115337867
 21
1088.305152813237
 31
0.0000000000366369
  0
LINE
  5
1B17
330
1F
100
AcDbEntity
  8
SANINDUSA
100
AcDbLine
 10
733.6381115337867
 20
1088.305152813237
 30
0.0000000000366369
 11
733.6395726409269
 21
1088.30613397356
 31
0.0000000000366369
  0
LINE
  5
1B18
330
1F
100
AcDbEntity
  8
SANINDUSA
100
AcDbLine
 10
733.6385914806039
 20
1088.30467286642
 30
0.0000000000366369
 11
733.6381115337867
 21
1088.30467286642
 31
0.0000000000366369
  0
LINE
  5
1B19
330
1F
100
AcDbEntity
  8
SANINDUSA
100
AcDbLine
 10
733.6395726409269
 20
1088.30613397356
 30
0.0000000000366369
 11
733.6381115337867
 21
1088.30467286642
 31
0.0000000000366369
  0
LINE
  5
1B1A
330
1F
100
AcDbEntity
  8
SANINDUSA
100
AcDbLine
 10
733.6395726409269
 20
1088.30613397356
 30
0.0000000000366369
 11
733.6385914806039
 21
1088.30467286642
 31
0.0000000000366369
  0
LINE
  5
1B1B
330
1F
100
AcDbEntity
  8
SANINDUSA
100
AcDbLine
 10
733.6368335337867
 20
1088.30339486642
 30
0.0000000000366369
 11
733.6368335337867
 21
1088.302914919603
 31
0.0000000000366369
  0
LINE
  5
1B1C
330
1F
100
AcDbEntity
  8
SANINDUSA
100
AcDbLine
 10
733.6363535869696
 20
1088.30339486642
 30
0.0000000000366369
 11
733.6368335337867
 21
1088.30339486642
 31
0.0000000000366369
  0
LINE
  5
1B1D
330
1F
100
AcDbEntity
  8
SANINDUSA
100
AcDbLine
 10
733.6368335337867
 20
1088.30700386642
 30
0.0000000000366369
 11
733.6381115337867
 21
1088.30700386642
 31
0.0000000000366369
  0
LINE
  5
1B1E
330
1F
100
AcDbEntity
  8
SANINDUSA
100
AcDbLine
 10
733.6294725337867
 20
1088.29578386642
 30
0.0000000000366369
 11
733.6294725337867
 21
1088.30878386642
 31
0.0000000000366369
  0
ARC
  5
1B1F
330
1F
100
AcDbEntity
  8
SANINDUSA
100
AcDbCircle
 10
733.6314725337867
 20
1088.30878386642
 30
0.0000000000366369
 40
0.002
100
AcDbArc
 50
90.0
 51
180.0
  0
LINE
  5
1B20
330
1F
100
AcDbEntity
  8
SANINDUSA
100
AcDbLine
 10
733.6294725337867
 20
1088.302134371483
 30
0.0000000000366369
 11
733.6258052718972
 21
1088.305801633373
 31
0.0000000000366369
  0
LINE
  5
1B21
330
1F
100
AcDbEntity
  8
SANINDUSA
100
AcDbLine
 10
733.625098165116
 20
1088.305094526591
 30
0.0000000000366369
 11
733.6364118736149
 21
1088.316408235091
 31
0.0000000000366369
  0
LINE
  5
1B22
330
1F
100
AcDbEntity
  8
SANINDUSA
100
AcDbLine
 10
733.6149725337867
 20
1088.28578386642
 30
0.0000000000366369
 11
733.6149725337867
 21
1088.26778386642
 31
0.0000000000366369
  0
LINE
  5
1B23
330
1F
100
AcDbEntity
  8
SANINDUSA
100
AcDbLine
 10
733.6284725337868
 20
1088.28578386642
 30
0.0000000000366369
 11
733.6284725337868
 21
1088.29578386642
 31
0.0000000000366369
  0
LINE
  5
1B24
330
1F
100
AcDbEntity
  8
SANINDUSA
100
AcDbLine
 10
733.4642803622692
 20
1088.263583842759
 30
0.0
 11
733.4642803622692
 21
1088.279169652857
 31
0.0
  0
ARC
  5
1B25
330
1F
100
AcDbEntity
  8
SANINDUSA
100
AcDbCircle
 10
733.4636303622693
 20
1088.263583842759
 30
0.0
 40
0.0006500000000003
100
AcDbArc
 50
314.9106959519861
 51
0.0
  0
ARC
  5
1B26
330
1F
100
AcDbEntity
  8
SANINDUSA
100
AcDbCircle
 10
733.4636303622693
 20
1088.279169652857
 30
0.0
 40
0.0006500000000003
100
AcDbArc
 50
0.0
 51
45.0
  0
LINE
  5
1B27
330
1F
100
AcDbEntity
  8
SANINDUSA
100
AcDbLine
 10
733.4631828256225
 20
1088.26221988966
 30
0.0
 11
733.4640892647334
 21
1088.263123507523
 31
0.0
  0
LINE
  5
1B28
330
1F
100
AcDbEntity
  8
SANINDUSA
100
AcDbLine
 10
733.464089981677
 20
1088.279629272265
 30
0.0
 11
733.4631757681146
 21
1088.280543485828
 31
0.0
  0
ARC
  5
1B29
330
1F
100
AcDbEntity
  8
SANINDUSA
100
AcDbCircle
 10
733.4641359307403
 20
1088.261263808787
 30
0.0
 40
0.00135
100
AcDbArc
 50
134.910695951986
 51
179.4659008958417
  0
ARC
  5
1B2A
330
1F
100
AcDbEntity
  8
SANINDUSA
100
AcDbCircle
 10
733.4641303622693
 20
1088.281498079982
 30
0.0
 40
0.0013499999999998
100
AcDbArc
 50
180.0
 51
225.0
  0
LINE
  5
1B2B
330
1F
100
AcDbEntity
  8
SANINDUSA
100
AcDbLine
 10
733.4627791997341
 20
1088.260548049532
 30
0.0
 11
733.4627859893944
 21
1088.261276393019
 31
0.0
  0
LINE
  5
1B2C
330
1F
100
AcDbEntity
  8
SANINDUSA
100
AcDbLine
 10
733.4627803622693
 20
1088.281498079982
 30
0.0
 11
733.4627803622693
 21
1088.28248386642
 31
0.0
  0
ARC
  5
1B2D
330
1F
100
AcDbEntity
  8
SANINDUSA
100
AcDbCircle
 10
733.4617792431818
 20
1088.260557371185
 30
0.0
 40
0.0009999999999999
100
AcDbArc
 50
270.0
 51
359.4659008958418
  0
ARC
  5
1B2E
330
1F
100
AcDbEntity
  8
SANINDUSA
100
AcDbCircle
 10
733.4617803622693
 20
1088.28248386642
 30
0.0
 40
0.0009999999999999
100
AcDbArc
 50
0.0
 51
90.0
  0
LINE
  5
1B2F
330
1F
100
AcDbEntity
  8
SANINDUSA
100
AcDbLine
 10
733.4607803622692
 20
1088.259557371185
 30
0.0
 11
733.4617792431818
 21
1088.259557371185
 31
0.0
  0
LINE
  5
1B30
330
1F
100
AcDbEntity
  8
SANINDUSA
100
AcDbLine
 10
733.4617803622693
 20
1088.28348386642
 30
0.0
 11
733.4607803622692
 21
1088.28348386642
 31
0.0
  0
LINE
  5
1B31
330
1F
100
AcDbEntity
  8
SANINDUSA
100
AcDbLine
 10
733.4607803622692
 20
1088.259557371185
 30
0.0
 11
733.4607803622692
 21
1088.28348386642
 31
0.0
  0
LINE
  5
1B32
330
1F
100
AcDbEntity
  8
SANINDUSA
100
AcDbLine
 10
733.5151303622692
 20
1088.26978386642
 30
0.0
 11
733.5151303622692
 21
1088.27068386642
 31
0.0
  0
ARC
  5
1B33
330
1F
100
AcDbEntity
  8
SANINDUSA
100
AcDbCircle
 10
733.5141303622692
 20
1088.26978386642
 30
0.0
 40
0.0010000000000001
100
AcDbArc
 50
270.0
 51
0.0
  0
ARC
  5
1B34
330
1F
100
AcDbEntity
  8
SANINDUSA
100
AcDbCircle
 10
733.5141303622692
 20
1088.27068386642
 30
0.0
 40
0.0009999999999999
100
AcDbArc
 50
0.0
 51
156.4218215275184
  0
LINE
  5
1B35
330
1F
100
AcDbEntity
  8
SANINDUSA
100
AcDbLine
 10
733.4826303622693
 20
1088.26878386642
 30
0.0
 11
733.5141303622692
 21
1088.26878386642
 31
0.0
  0
ARC
  5
1B36
330
1F
100
AcDbEntity
  8
SANINDUSA
100
AcDbCircle
 10
733.5127555895608
 20
1088.27128386642
 30
0.0
 40
0.0005000000000001
100
AcDbArc
 50
270.0
 51
336.4218215275184
  0
ARC
  5
1B37
330
1F
100
AcDbEntity
  8
SANINDUSA
100
AcDbCircle
 10
733.4826303622693
 20
1088.26978386642
 30
0.0
 40
0.001
100
AcDbArc
 50
90.0
 51
270.0
  0
LINE
  5
1B38
330
1F
100
AcDbEntity
  8
SANINDUSA
100
AcDbLine
 10
733.5100669764106
 20
1088.27078386642
 30
0.0
 11
733.5127555895608
 21
1088.27078386642
 31
0.0
  0
LINE
  5
1B39
330
1F
100
AcDbEntity
  8
SANINDUSA
100
AcDbLine
 10
733.5026523860292
 20
1088.27078386642
 30
0.0
 11
733.4826303622693
 21
1088.27078386642
 31
0.0
  0
ARC
  5
1B3A
330
1F
100
AcDbEntity
  8
SANINDUSA
100
AcDbCircle
 10
733.5100669764106
 20
1088.27128386642
 30
0.0
 40
0.0005
100
AcDbArc
 50
199.471220638017
 51
270.0
  0
ARC
  5
1B3B
330
1F
100
AcDbEntity
  8
SANINDUSA
100
AcDbCircle
 10
733.5026523860292
 20
1088.27128386642
 30
0.0
 40
0.0005000000000001
100
AcDbArc
 50
270.0
 51
0.0
  0
ARC
  5
1B3C
330
1F
100
AcDbEntity
  8
SANINDUSA
100
AcDbCircle
 10
733.5086527628482
 20
1088.27078386642
 30
0.0
 40
0.001
100
AcDbArc
 50
19.47122063801707
 51
160.5287793619829
  0
LINE
  5
1B3D
330
1F
100
AcDbEntity
  8
SANINDUSA
100
AcDbLine
 10
733.5031523860292
 20
1088.27828386642
 30
0.0
 11
733.5031523860292
 21
1088.27128386642
 31
0.0
  0
ARC
  5
1B3E
330
1F
100
AcDbEntity
  8
SANINDUSA
100
AcDbCircle
 10
733.5072385492858
 20
1088.27128386642
 30
0.0
 40
0.0005
100
AcDbArc
 50
270.0
 51
340.5287793619829
  0
ARC
  5
1B3F
330
1F
100
AcDbEntity
  8
SANINDUSA
100
AcDbCircle
 10
733.5026523860292
 20
1088.27828386642
 30
0.0
 40
0.0005000000000001
100
AcDbArc
 50
0.0
 51
90.0
  0
LINE
  5
1B40
330
1F
100
AcDbEntity
  8
SANINDUSA
100
AcDbLine
 10
733.5056523860291
 20
1088.27078386642
 30
0.0
 11
733.5072385492858
 21
1088.27078386642
 31
0.0
  0
LINE
  5
1B41
330
1F
100
AcDbEntity
  8
SANINDUSA
100
AcDbLine
 10
733.4826303622693
 20
1088.27878386642
 30
0.0
 11
733.5026523860292
 21
1088.27878386642
 31
0.0
  0
ARC
  5
1B42
330
1F
100
AcDbEntity
  8
SANINDUSA
100
AcDbCircle
 10
733.5056523860291
 20
1088.27128386642
 30
0.0
 40
0.0005
100
AcDbArc
 50
180.0
 51
270.0
  0
ARC
  5
1B43
330
1F
100
AcDbEntity
  8
SANINDUSA
100
AcDbCircle
 10
733.4826303622693
 20
1088.27978386642
 30
0.0
 40
0.001
100
AcDbArc
 50
90.0
 51
270.0
  0
LINE
  5
1B44
330
1F
100
AcDbEntity
  8
SANINDUSA
100
AcDbLine
 10
733.5051523860292
 20
1088.27828386642
 30
0.0
 11
733.5051523860292
 21
1088.27128386642
 31
0.0
  0
LINE
  5
1B45
330
1F
100
AcDbEntity
  8
SANINDUSA
100
AcDbLine
 10
733.5141303622692
 20
1088.28078386642
 30
0.0
 11
733.4826303622693
 21
1088.28078386642
 31
0.0
  0
ARC
  5
1B46
330
1F
100
AcDbEntity
  8
SANINDUSA
100
AcDbCircle
 10
733.5056523860291
 20
1088.27828386642
 30
0.0
 40
0.0005
100
AcDbArc
 50
90.0
 51
180.0
  0
ARC
  5
1B47
330
1F
100
AcDbEntity
  8
SANINDUSA
100
AcDbCircle
 10
733.5141303622692
 20
1088.27978386642
 30
0.0
 40
0.0009999999999999
100
AcDbArc
 50
0.0
 51
90.0
  0
LINE
  5
1B48
330
1F
100
AcDbEntity
  8
SANINDUSA
100
AcDbLine
 10
733.5072385492858
 20
1088.27878386642
 30
0.0
 11
733.5056523860291
 21
1088.27878386642
 31
0.0
  0
LINE
  5
1B49
330
1F
100
AcDbEntity
  8
SANINDUSA
100
AcDbLine
 10
733.5151303622692
 20
1088.27888386642
 30
0.0
 11
733.5151303622692
 21
1088.27978386642
 31
0.0
  0
ARC
  5
1B4A
330
1F
100
AcDbEntity
  8
SANINDUSA
100
AcDbCircle
 10
733.5072385492858
 20
1088.27828386642
 30
0.0
 40
0.0004999999999999
100
AcDbArc
 50
19.47122063801707
 51
90.0
  0
ARC
  5
1B4B
330
1F
100
AcDbEntity
  8
SANINDUSA
100
AcDbCircle
 10
733.5141303622692
 20
1088.27888386642
 30
0.0
 40
0.0009999999999999
100
AcDbArc
 50
203.5781784724816
 51
0.0
  0
ARC
  5
1B4C
330
1F
100
AcDbEntity
  8
SANINDUSA
100
AcDbCircle
 10
733.5086527628482
 20
1088.27878386642
 30
0.0
 40
0.001
100
AcDbArc
 50
199.471220638017
 51
340.5287793619829
  0
ARC
  5
1B4D
330
1F
100
AcDbEntity
  8
SANINDUSA
100
AcDbCircle
 10
733.5127555895608
 20
1088.27828386642
 30
0.0
 40
0.0005000000000001
100
AcDbArc
 50
23.57817847248154
 51
90.0
  0
ARC
  5
1B4E
330
1F
100
AcDbEntity
  8
SANINDUSA
100
AcDbCircle
 10
733.5100669764106
 20
1088.27828386642
 30
0.0
 40
0.0005
100
AcDbArc
 50
90.0
 51
160.5287793619829
  0
LINE
  5
1B4F
330
1F
100
AcDbEntity
  8
SANINDUSA
100
AcDbLine
 10
733.5127555895608
 20
1088.27878386642
 30
0.0
 11
733.5100669764106
 21
1088.27878386642
 31
0.0
  0
LINE
  5
1B50
330
1F
100
AcDbEntity
  8
SANINDUSA
100
AcDbLine
 10
733.4631293887355
 20
1088.260566692838
 30
0.0
 11
733.4631359741877
 21
1088.26127313044
 31
0.0
  0
ARC
  5
1B51
330
1F
100
AcDbEntity
  8
SANINDUSA
100
AcDbCircle
 10
733.4641359307403
 20
1088.261263808787
 30
0.0
 40
0.0010000000000003
100
AcDbArc
 50
134.910695951986
 51
179.4659008958417
  0
ARC
  5
1B52
330
1F
100
AcDbEntity
  8
SANINDUSA
100
AcDbCircle
 10
733.4641293452879
 20
1088.260557371185
 30
0.0
 40
0.001
100
AcDbArc
 50
179.4659008958417
 51
270.0522365954226
  0
LINE
  5
1B53
330
1F
100
AcDbEntity
  8
SANINDUSA
100
AcDbLine
 10
733.4634299269493
 20
1088.261972016841
 30
0.0
 11
733.4643363660602
 21
1088.262875634705
 31
0.0
  0
ARC
  5
1B54
330
1F
100
AcDbEntity
  8
SANINDUSA
100
AcDbCircle
 10
733.4640402538314
 20
1088.358277426065
 30
0.0
 40
0.0987200954923432
100
AcDbArc
 50
270.0522365954226
 51
291.0588352469903
  0
ARC
  5
1B55
330
1F
100
AcDbEntity
  8
SANINDUSA
100
AcDbCircle
 10
733.4636303622693
 20
1088.263583842759
 30
0.0
 40
0.0010000000000003
100
AcDbArc
 50
314.9106959519861
 51
0.0
  0
ARC
  5
1B56
330
1F
100
AcDbEntity
  8
SANINDUSA
100
AcDbCircle
 10
733.4991536664013
 20
1088.26708386642
 30
0.0
 40
0.001
100
AcDbArc
 50
291.0588352469903
 51
90.0
  0
LINE
  5
1B57
330
1F
100
AcDbEntity
  8
SANINDUSA
100
AcDbLine
 10
733.4646303622693
 20
1088.263583842759
 30
0.0
 11
733.4646303622693
 21
1088.273773206248
 31
0.0
  0
LINE
  5
1B58
330
1F
100
AcDbEntity
  8
SANINDUSA
100
AcDbLine
 10
733.4771536664012
 20
1088.26808386642
 30
0.0
 11
733.4991536664013
 21
1088.26808386642
 31
0.0
  0
ARC
  5
1B59
330
1F
100
AcDbEntity
  8
SANINDUSA
100
AcDbCircle
 10
733.4648803622692
 20
1088.273773206248
 30
0.0
 40
0.00025
100
AcDbArc
 50
135.0
 51
180.0
  0
ARC
  5
1B5A
330
1F
100
AcDbEntity
  8
SANINDUSA
100
AcDbCircle
 10
733.4771536664012
 20
1088.26708386642
 30
0.0
 40
0.001
100
AcDbArc
 50
90.0
 51
270.0
  0
LINE
  5
1B5B
330
1F
100
AcDbEntity
  8
SANINDUSA
100
AcDbLine
 10
733.464703585574
 20
1088.273949982943
 30
0.0
 11
733.4651839156598
 21
1088.274430313029
 31
0.0
  0
LINE
  5
1B5C
330
1F
100
AcDbEntity
  8
SANINDUSA
100
AcDbLine
 10
733.4898513130288
 20
1088.26608386642
 30
0.0
 11
733.4771536664012
 21
1088.26608386642
 31
0.0
  0
ARC
  5
1B5D
330
1F
100
AcDbEntity
  8
SANINDUSA
100
AcDbCircle
 10
733.4648303622692
 20
1088.27478386642
 30
0.0
 40
0.0005
100
AcDbArc
 50
315.0
 51
45.0
  0
ARC
  5
1B5E
330
1F
100
AcDbEntity
  8
SANINDUSA
100
AcDbCircle
 10
733.4898513130288
 20
1088.26558386642
 30
0.0
 40
0.0005
100
AcDbArc
 50
285.5601696420791
 51
90.0
  0
LINE
  5
1B5F
330
1F
100
AcDbEntity
  8
SANINDUSA
100
AcDbLine
 10
733.4651839156598
 20
1088.27513741981
 30
0.0
 11
733.464703585574
 21
1088.275617749896
 31
0.0
  0
ARC
  5
1B60
330
1F
100
AcDbEntity
  8
SANINDUSA
100
AcDbCircle
 10
733.4640402538314
 20
1088.358277426065
 30
0.0
 40
0.0967200954923435
100
AcDbArc
 50
272.1494579346532
 51
285.5601696420791
  0
ARC
  5
1B61
330
1F
100
AcDbEntity
  8
SANINDUSA
100
AcDbCircle
 10
733.4648803622692
 20
1088.275794526592
 30
0.0
 40
0.0002500000000003
100
AcDbArc
 50
180.0
 51
225.0
  0
ARC
  5
1B62
330
1F
100
AcDbEntity
  8
SANINDUSA
100
AcDbCircle
 10
733.4676303622693
 20
1088.262624680143
 30
0.0
 40
0.001
100
AcDbArc
 50
180.0
 51
272.1494579346532
  0
LINE
  5
1B63
330
1F
100
AcDbEntity
  8
SANINDUSA
100
AcDbLine
 10
733.4646303622693
 20
1088.275794526592
 30
0.0
 11
733.4646303622693
 21
1088.279169652857
 31
0.0
  0
LINE
  5
1B64
330
1F
100
AcDbEntity
  8
SANINDUSA
100
AcDbLine
 10
733.4666303622692
 20
1088.28048386642
 30
0.0
 11
733.4666303622692
 21
1088.262624680143
 31
0.0
  0
ARC
  5
1B65
330
1F
100
AcDbEntity
  8
SANINDUSA
100
AcDbCircle
 10
733.4636303622693
 20
1088.279169652857
 30
0.0
 40
0.0010000000000003
100
AcDbArc
 50
0.0
 51
45.0
  0
ARC
  5
1B66
330
1F
100
AcDbEntity
  8
SANINDUSA
100
AcDbCircle
 10
733.4676303622693
 20
1088.28048386642
 30
0.0
 40
0.001
100
AcDbArc
 50
90.0
 51
180.0
  0
LINE
  5
1B67
330
1F
100
AcDbEntity
  8
SANINDUSA
100
AcDbLine
 10
733.4643374690505
 20
1088.279876759639
 30
0.0
 11
733.4634232554881
 21
1088.280790973201
 31
0.0
  0
LINE
  5
1B68
330
1F
100
AcDbEntity
  8
SANINDUSA
100
AcDbLine
 10
733.4991536664013
 20
1088.28148386642
 30
0.0
 11
733.4676303622693
 21
1088.28148386642
 31
0.0
  0
ARC
  5
1B69
330
1F
100
AcDbEntity
  8
SANINDUSA
100
AcDbCircle
 10
733.4641303622693
 20
1088.281498079982
 30
0.0
 40
0.0010000000000003
100
AcDbArc
 50
180.0
 51
225.0
  0
ARC
  5
1B6A
330
1F
100
AcDbEntity
  8
SANINDUSA
100
AcDbCircle
 10
733.4991536664013
 20
1088.28248386642
 30
0.0
 40
0.001
100
AcDbArc
 50
270.0
 51
90.0
  0
LINE
  5
1B6B
330
1F
100
AcDbEntity
  8
SANINDUSA
100
AcDbLine
 10
733.4631303622693
 20
1088.281498079982
 30
0.0
 11
733.4631303622693
 21
1088.28248386642
 31
0.0
  0
LINE
  5
1B6C
330
1F
100
AcDbEntity
  8
SANINDUSA
100
AcDbLine
 10
733.4641303622693
 20
1088.28348386642
 30
0.0
 11
733.4991536664013
 21
1088.28348386642
 31
0.0
  0
ARC
  5
1B6D
330
1F
100
AcDbEntity
  8
SANINDUSA
100
AcDbCircle
 10
733.4641303622693
 20
1088.28248386642
 30
0.0
 40
0.0009999999999999
100
AcDbArc
 50
90.0
 51
180.0
  0
ARC
  5
1BF3
330
1F
100
AcDbEntity
  8
SANINDUSA
100
AcDbCircle
 10
733.4637803622692
 20
1088.470476037937
 30
0.0000000000366369
 40
0.002
100
AcDbArc
 50
0.0
 51
90.0
  0
LINE
  5
1BF4
330
1F
100
AcDbEntity
  8
SANINDUSA
100
AcDbLine
 10
733.4607803622692
 20
1088.472476037938
 30
0.0000000000366369
 11
733.4637803622692
 21
1088.472476037938
 31
0.0000000000366369
  0
LINE
  5
1BF5
330
1F
100
AcDbEntity
  8
SANINDUSA
100
AcDbLine
 10
733.4810603622693
 20
1088.456837037937
 30
0.0000000000366369
 11
733.4810603622693
 21
1088.458115037937
 31
0.0000000000366369
  0
LINE
  5
1BF6
330
1F
100
AcDbEntity
  8
SANINDUSA
100
AcDbLine
 10
733.4833913622693
 20
1088.460446037937
 30
0.0000000000366369
 11
733.4846693622693
 21
1088.460446037937
 31
0.0000000000366369
  0
LINE
  5
1BF7
330
1F
100
AcDbEntity
  8
SANINDUSA
100
AcDbLine
 10
733.4846693622693
 20
1088.460446037937
 30
0.0000000000366369
 11
733.4846693622693
 21
1088.458594984754
 31
0.0000000000366369
  0
LINE
  5
1BF8
330
1F
100
AcDbEntity
  8
SANINDUSA
100
AcDbLine
 10
733.4833913622693
 20
1088.458594984754
 30
0.0000000000366369
 11
733.4833913622693
 21
1088.460446037937
 31
0.0000000000366369
  0
LINE
  5
1BF9
330
1F
100
AcDbEntity
  8
SANINDUSA
100
AcDbLine
 10
733.4819302551291
 20
1088.459576145078
 30
0.0000000000366369
 11
733.4833913622693
 21
1088.458594984754
 31
0.0000000000366369
  0
LINE
  5
1BFA
330
1F
100
AcDbEntity
  8
SANINDUSA
100
AcDbLine
 10
733.4846693622693
 20
1088.458594984754
 30
0.0000000000366369
 11
733.4861304694094
 21
1088.459576145078
 31
0.0000000000366369
  0
ARC
  5
1BFB
330
1F
100
AcDbEntity
  8
SANINDUSA
100
AcDbCircle
 10
733.4887803622692
 20
1088.463476037937
 30
0.0000000000366369
 40
0.002
100
AcDbArc
 50
0.0
 51
90.0
  0
LINE
  5
1BFC
330
1F
100
AcDbEntity
  8
SANINDUSA
100
AcDbLine
 10
733.4833913622693
 20
1088.458115037937
 30
0.0000000000366369
 11
733.4833913622693
 21
1088.456837037937
 31
0.0000000000366369
  0
LINE
  5
1BFD
330
1F
100
AcDbEntity
  8
SANINDUSA
100
AcDbLine
 10
733.4833913622693
 20
1088.456837037937
 30
0.0000000000366369
 11
733.4840303622693
 21
1088.457476037937
 31
0.0000000000366369
  0
LINE
  5
1BFE
330
1F
100
AcDbEntity
  8
SANINDUSA
100
AcDbLine
 10
733.4846693622693
 20
1088.456837037937
 30
0.0000000000366369
 11
733.4846693622693
 21
1088.458115037937
 31
0.0000000000366369
  0
LINE
  5
1BFF
330
1F
100
AcDbEntity
  8
SANINDUSA
100
AcDbLine
 10
733.4870003622693
 20
1088.458115037937
 30
0.0000000000366369
 11
733.4870003622693
 21
1088.456837037937
 31
0.0000000000366369
  0
LINE
  5
1C00
330
1F
100
AcDbEntity
  8
SANINDUSA
100
AcDbLine
 10
733.4840303622693
 20
1088.456837037937
 30
0.0000000000366369
 11
733.4840303622693
 21
1088.457476037937
 31
0.0000000000366369
  0
LINE
  5
1C01
330
1F
100
AcDbEntity
  8
SANINDUSA
100
AcDbLine
 10
733.4840303622693
 20
1088.457476037937
 30
0.0000000000366369
 11
733.4846693622693
 21
1088.456837037937
 31
0.0000000000366369
  0
LINE
  5
1C02
330
1F
100
AcDbEntity
  8
SANINDUSA
100
AcDbLine
 10
733.4870003622693
 20
1088.456837037937
 30
0.0000000000366369
 11
733.4851493090864
 21
1088.456837037937
 31
0.0000000000366369
  0
LINE
  5
1C03
330
1F
100
AcDbEntity
  8
SANINDUSA
100
AcDbLine
 10
733.4846693622693
 20
1088.456837037937
 30
0.0000000000366369
 11
733.4833913622693
 21
1088.456837037937
 31
0.0000000000366369
  0
LINE
  5
1C04
330
1F
100
AcDbEntity
  8
SANINDUSA
100
AcDbLine
 10
733.4846693622693
 20
1088.456837037937
 30
0.0000000000366369
 11
733.4851493090864
 21
1088.456837037937
 31
0.0000000000366369
  0
LINE
  5
1C05
330
1F
100
AcDbEntity
  8
SANINDUSA
100
AcDbLine
 10
733.4829114154522
 20
1088.456837037937
 30
0.0000000000366369
 11
733.4833913622693
 21
1088.456837037937
 31
0.0000000000366369
  0
LINE
  5
1C06
330
1F
100
AcDbEntity
  8
SANINDUSA
100
AcDbLine
 10
733.4846693622693
 20
1088.457476037937
 30
0.0000000000366369
 11
733.4840303622693
 21
1088.457476037937
 31
0.0000000000366369
  0
LINE
  5
1C07
330
1F
100
AcDbEntity
  8
SANINDUSA
100
AcDbLine
 10
733.4840303622693
 20
1088.457476037937
 30
0.0000000000366369
 11
733.4833913622693
 21
1088.457476037937
 31
0.0000000000366369
  0
LINE
  5
1C08
330
1F
100
AcDbEntity
  8
SANINDUSA
100
AcDbLine
 10
733.4840303622693
 20
1088.457476037937
 30
0.0000000000366369
 11
733.4833913622693
 21
1088.458115037937
 31
0.0000000000366369
  0
LINE
  5
1C09
330
1F
100
AcDbEntity
  8
SANINDUSA
100
AcDbLine
 10
733.4840303622693
 20
1088.457476037937
 30
0.0000000000366369
 11
733.4840303622693
 21
1088.458115037937
 31
0.0000000000366369
  0
LINE
  5
1C0A
330
1F
100
AcDbEntity
  8
SANINDUSA
100
AcDbLine
 10
733.4846693622693
 20
1088.458115037937
 30
0.0000000000366369
 11
733.4840303622693
 21
1088.457476037937
 31
0.0000000000366369
  0
LINE
  5
1C0B
330
1F
100
AcDbEntity
  8
SANINDUSA
100
AcDbLine
 10
733.4833913622693
 20
1088.458115037937
 30
0.0000000000366369
 11
733.4846693622693
 21
1088.458115037937
 31
0.0000000000366369
  0
LINE
  5
1C0C
330
1F
100
AcDbEntity
  8
SANINDUSA
100
AcDbLine
 10
733.4851493090864
 20
1088.458115037937
 30
0.0000000000366369
 11
733.4870003622693
 21
1088.458115037937
 31
0.0000000000366369
  0
LINE
  5
1C0D
330
1F
100
AcDbEntity
  8
SANINDUSA
100
AcDbLine
 10
733.4833913622693
 20
1088.458115037937
 30
0.0000000000366369
 11
733.4829114154522
 21
1088.458115037937
 31
0.0000000000366369
  0
LINE
  5
1C0E
330
1F
100
AcDbEntity
  8
SANINDUSA
100
AcDbLine
 10
733.4851493090864
 20
1088.458115037937
 30
0.0000000000366369
 11
733.4846693622693
 21
1088.458115037937
 31
0.0000000000366369
  0
LINE
  5
1C0F
330
1F
100
AcDbEntity
  8
SANINDUSA
100
AcDbLine
 10
733.4829114154522
 20
1088.458115037937
 30
0.0000000000366369
 11
733.4819302551291
 21
1088.459576145078
 31
0.0000000000366369
  0
LINE
  5
1C10
330
1F
100
AcDbEntity
  8
SANINDUSA
100
AcDbLine
 10
733.4833913622693
 20
1088.458594984754
 30
0.0000000000366369
 11
733.4833913622693
 21
1088.458115037937
 31
0.0000000000366369
  0
LINE
  5
1C11
330
1F
100
AcDbEntity
  8
SANINDUSA
100
AcDbLine
 10
733.4819302551291
 20
1088.459576145078
 30
0.0000000000366369
 11
733.4833913622693
 21
1088.458115037937
 31
0.0000000000366369
  0
LINE
  5
1C12
330
1F
100
AcDbEntity
  8
SANINDUSA
100
AcDbLine
 10
733.4846693622693
 20
1088.458115037937
 30
0.0000000000366369
 11
733.4846693622693
 21
1088.458594984754
 31
0.0000000000366369
  0
LINE
  5
1C13
330
1F
100
AcDbEntity
  8
SANINDUSA
100
AcDbLine
 10
733.4861304694094
 20
1088.459576145078
 30
0.0000000000366369
 11
733.4846693622693
 21
1088.458115037937
 31
0.0000000000366369
  0
LINE
  5
1C14
330
1F
100
AcDbEntity
  8
SANINDUSA
100
AcDbLine
 10
733.4861304694094
 20
1088.459576145078
 30
0.0000000000366369
 11
733.4851493090864
 21
1088.458115037937
 31
0.0000000000366369
  0
LINE
  5
1C15
330
1F
100
AcDbEntity
  8
SANINDUSA
100
AcDbLine
 10
733.4757803622693
 20
1088.465476037937
 30
0.0000000000366369
 11
733.4887803622692
 21
1088.465476037937
 31
0.0000000000366369
  0
LINE
  5
1C16
330
1F
100
AcDbEntity
  8
SANINDUSA
100
AcDbLine
 10
733.4829114154522
 20
1088.456837037937
 30
0.0000000000366369
 11
733.4810603622693
 21
1088.456837037937
 31
0.0000000000366369
  0
LINE
  5
1C17
330
1F
100
AcDbEntity
  8
SANINDUSA
100
AcDbLine
 10
733.4810603622693
 20
1088.458115037937
 30
0.0000000000366369
 11
733.4829114154522
 21
1088.458115037937
 31
0.0000000000366369
  0
LINE
  5
1C18
330
1F
100
AcDbEntity
  8
SANINDUSA
100
AcDbLine
 10
733.4657803622692
 20
1088.466476037937
 30
0.0000000000366369
 11
733.4757803622693
 21
1088.466476037937
 31
0.0000000000366369
  0
ARC
  5
1C19
330
1F
100
AcDbEntity
  8
SANINDUSA
100
AcDbCircle
 10
733.4637803622692
 20
1088.444476037937
 30
0.0000000000366369
 40
0.002
100
AcDbArc
 50
270.0
 51
0.0
  0
LINE
  5
1C1A
330
1F
100
AcDbEntity
  8
SANINDUSA
100
AcDbLine
 10
733.4637803622692
 20
1088.442476037937
 30
0.0000000000366369
 11
733.4607803622692
 21
1088.442476037937
 31
0.0000000000366369
  0
ARC
  5
1C1B
330
1F
100
AcDbEntity
  8
SANINDUSA
100
AcDbCircle
 10
733.4887803622692
 20
1088.451476037937
 30
0.0000000000366369
 40
0.002
100
AcDbArc
 50
270.0
 51
0.0
  0
LINE
  5
1C1C
330
1F
100
AcDbEntity
  8
SANINDUSA
100
AcDbLine
 10
733.4821308673326
 20
1088.449476037937
 30
0.0000000000366369
 11
733.4857981292222
 21
1088.445808776048
 31
0.0000000000366369
  0
LINE
  5
1C1D
330
1F
100
AcDbEntity
  8
SANINDUSA
100
AcDbLine
 10
733.4846693622693
 20
1088.454506037937
 30
0.0000000000366369
 11
733.4833913622693
 21
1088.454506037937
 31
0.0000000000366369
  0
LINE
  5
1C1E
330
1F
100
AcDbEntity
  8
SANINDUSA
100
AcDbLine
 10
733.4833913622693
 20
1088.454506037937
 30
0.0000000000366369
 11
733.4833913622693
 21
1088.45635709112
 31
0.0000000000366369
  0
LINE
  5
1C1F
330
1F
100
AcDbEntity
  8
SANINDUSA
100
AcDbLine
 10
733.4846693622693
 20
1088.45635709112
 30
0.0000000000366369
 11
733.4846693622693
 21
1088.454506037937
 31
0.0000000000366369
  0
LINE
  5
1C20
330
1F
100
AcDbEntity
  8
SANINDUSA
100
AcDbLine
 10
733.4861304694094
 20
1088.455375930797
 30
0.0000000000366369
 11
733.4846693622693
 21
1088.45635709112
 31
0.0000000000366369
  0
LINE
  5
1C21
330
1F
100
AcDbEntity
  8
SANINDUSA
100
AcDbLine
 10
733.4833913622693
 20
1088.45635709112
 30
0.0000000000366369
 11
733.4819302551291
 21
1088.455375930797
 31
0.0000000000366369
  0
LINE
  5
1C22
330
1F
100
AcDbEntity
  8
SANINDUSA
100
AcDbLine
 10
733.4757803622693
 20
1088.449476037937
 30
0.0000000000366369
 11
733.4887803622692
 21
1088.449476037937
 31
0.0000000000366369
  0
LINE
  5
1C23
330
1F
100
AcDbEntity
  8
SANINDUSA
100
AcDbLine
 10
733.4657803622692
 20
1088.448476037937
 30
0.0000000000366369
 11
733.4757803622693
 21
1088.448476037937
 31
0.0000000000366369
  0
LINE
  5
1C24
330
1F
100
AcDbEntity
  8
SANINDUSA
100
AcDbLine
 10
733.4757803622693
 20
1088.466476037937
 30
0.0000000000366369
 11
733.4757803622693
 21
1088.448476037937
 31
0.0000000000366369
  0
LINE
  5
1C25
330
1F
100
AcDbEntity
  8
SANINDUSA
100
AcDbLine
 10
733.4657803622692
 20
1088.470476037937
 30
0.0000000000366369
 11
733.4657803622692
 21
1088.444476037937
 31
0.0000000000366369
  0
LINE
  5
1C26
330
1F
100
AcDbEntity
  8
SANINDUSA
100
AcDbLine
 10
733.4607803622692
 20
1088.442476037937
 30
0.0000000000366369
 11
733.4607803622692
 21
1088.472476037938
 31
0.0000000000366369
  0
LINE
  5
1C27
330
1F
100
AcDbEntity
  8
SANINDUSA
100
AcDbLine
 10
733.4851493090864
 20
1088.456837037937
 30
0.0000000000366369
 11
733.4861304694094
 21
1088.455375930797
 31
0.0000000000366369
  0
LINE
  5
1C28
330
1F
100
AcDbEntity
  8
SANINDUSA
100
AcDbLine
 10
733.4846693622693
 20
1088.45635709112
 30
0.0000000000366369
 11
733.4846693622693
 21
1088.456837037937
 31
0.0000000000366369
  0
LINE
  5
1C29
330
1F
100
AcDbEntity
  8
SANINDUSA
100
AcDbLine
 10
733.4861304694094
 20
1088.455375930797
 30
0.0000000000366369
 11
733.4846693622693
 21
1088.456837037937
 31
0.0000000000366369
  0
LINE
  5
1C2A
330
1F
100
AcDbEntity
  8
SANINDUSA
100
AcDbLine
 10
733.4833913622693
 20
1088.456837037937
 30
0.0000000000366369
 11
733.4833913622693
 21
1088.45635709112
 31
0.0000000000366369
  0
LINE
  5
1C2B
330
1F
100
AcDbEntity
  8
SANINDUSA
100
AcDbLine
 10
733.4819302551291
 20
1088.455375930797
 30
0.0000000000366369
 11
733.4833913622693
 21
1088.456837037937
 31
0.0000000000366369
  0
LINE
  5
1C2C
330
1F
100
AcDbEntity
  8
SANINDUSA
100
AcDbLine
 10
733.4819302551291
 20
1088.455375930797
 30
0.0000000000366369
 11
733.4829114154522
 21
1088.456837037937
 31
0.0000000000366369
  0
CIRCLE
  5
1C2D
330
1F
100
AcDbEntity
  8
SANINDUSA
100
AcDbCircle
 10
733.4840303622693
 20
1088.457476037937
 30
0.0000000000366369
 40
0.0050849999999992
  0
LINE
  5
1C2E
330
1F
100
AcDbEntity
  8
SANINDUSA
100
AcDbLine
 10
733.4907803622693
 20
1088.463476037937
 30
0.0000000000366369
 11
733.4907803622693
 21
1088.451476037937
 31
0.0000000000366369
  0
LINE
  5
1C2F
330
1F
100
AcDbEntity
  8
SANINDUSA
100
AcDbLine
 10
733.4956976241588
 20
1088.455708270984
 30
0.0000000000366369
 11
733.4907803622693
 21
1088.460625532874
 31
0.0000000000366369
  0
LINE
  5
1C30
330
1F
100
AcDbEntity
  8
SANINDUSA
100
AcDbLine
 10
733.485091022441
 20
1088.445101669267
 30
0.0000000000366369
 11
733.4964047309401
 21
1088.456415377766
 31
0.0000000000366369
  0
LINE
  5
1C37
330
1F
100
AcDbEntity
  8
SANINDUSA
100
AcDbLine
 10
733.8010103790029
 20
1088.277783870229
 30
0.0000000001555553
 11
734.4010104182122
 21
1088.277783870229
 31
0.0000000001555553
  0
LINE
  5
1C38
330
1F
100
AcDbEntity
  8
SANINDUSA
100
AcDbLine
 10
733.8010103790029
 20
1088.271783870229
 30
0.0000000001555553
 11
734.4010104182122
 21
1088.271783870229
 31
0.0000000001555553
  0
LINE
  5
1C39
330
1F
100
AcDbEntity
  8
SANINDUSA
100
AcDbLine
 10
734.4523195737529
 20
1088.26978386642
 30
0.0000000001555553
 11
734.419263113216
 21
1088.26978386642
 31
0.0000000001555553
  0
LINE
  5
1C3A
330
1F
100
AcDbEntity
  8
SANINDUSA
100
AcDbLine
 10
734.421596269621
 20
1088.27978386642
 30
0.0000000001555553
 11
734.4523195737529
 21
1088.27978386642
 31
0.0000000001555553
  0
LINE
  5
1C3B
330
1F
100
AcDbEntity
  8
SANINDUSA
100
AcDbLine
 10
734.4523195737529
 20
1088.26878386642
 30
0.0000000001555553
 11
734.4194702199975
 21
1088.26878386642
 31
0.0000000001555553
  0
LINE
  5
1C3C
330
1F
100
AcDbEntity
  8
SANINDUSA
100
AcDbLine
 10
734.421596269621
 20
1088.28078386642
 30
0.0000000001555553
 11
734.4523195737529
 21
1088.28078386642
 31
0.0000000001555553
  0
ARC
  5
1C3D
330
1F
100
AcDbEntity
  8
SANINDUSA
100
AcDbCircle
 10
734.4523195737529
 20
1088.27008386642
 30
0.0000000001555553
 40
0.000300000000002
100
AcDbArc
 50
270.0
 51
0.0
  0
LINE
  5
1C3E
330
1F
100
AcDbEntity
  8
SANINDUSA
100
AcDbLine
 10
734.4526195737529
 20
1088.27948386642
 30
0.0000000001555553
 11
734.4526195737529
 21
1088.27008386642
 31
0.0000000001555553
  0
ARC
  5
1C3F
330
1F
100
AcDbEntity
  8
SANINDUSA
100
AcDbCircle
 10
734.4523195737529
 20
1088.27948386642
 30
0.0000000001555553
 40
0.0002999999999997
100
AcDbArc
 50
0.0
 51
90.0
  0
ARC
  5
1C40
330
1F
100
AcDbEntity
  8
SANINDUSA
100
AcDbCircle
 10
734.4523195737529
 20
1088.27008386642
 30
0.0000000001555553
 40
0.0013
100
AcDbArc
 50
270.0
 51
0.0
  0
LINE
  5
1C41
330
1F
100
AcDbEntity
  8
SANINDUSA
100
AcDbLine
 10
734.453619573753
 20
1088.27948386642
 30
0.0000000001555553
 11
734.453619573753
 21
1088.27008386642
 31
0.0000000001555553
  0
ARC
  5
1C42
330
1F
100
AcDbEntity
  8
SANINDUSA
100
AcDbCircle
 10
734.4523195737529
 20
1088.27948386642
 30
0.0000000001555553
 40
0.0012999999999988
100
AcDbArc
 50
0.0
 51
90.0
  0
LINE
  5
1C43
330
1F
100
AcDbEntity
  8
SANINDUSA
100
AcDbLine
 10
734.4153321521007
 20
1088.27584544901
 30
0.0000000001555553
 11
734.4142714919289
 21
1088.274784788838
 31
0.0000000001555553
  0
LINE
  5
1C44
330
1F
100
AcDbEntity
  8
SANINDUSA
100
AcDbLine
 10
734.4142714919289
 20
1088.274784788838
 30
0.0000000001555553
 11
734.4107359580229
 21
1088.278320322744
 31
0.0000000001555553
  0
LINE
  5
1C45
330
1F
100
AcDbEntity
  8
SANINDUSA
100
AcDbLine
 10
734.4160392588819
 20
1088.275138342228
 30
0.0000000001555553
 11
734.4153321521007
 21
1088.27584544901
 31
0.0000000001555553
  0
LINE
  5
1C46
330
1F
100
AcDbEntity
  8
SANINDUSA
100
AcDbLine
 10
734.4107359580229
 20
1088.278320322744
 30
0.0000000001555553
 11
734.4117966181947
 21
1088.279380982916
 31
0.0000000001555553
  0
LINE
  5
1C47
330
1F
100
AcDbEntity
  8
SANINDUSA
100
AcDbLine
 10
734.4167463656631
 20
1088.27584544901
 30
0.0000000001555553
 11
734.4160392588819
 21
1088.275138342228
 31
0.0000000001555553
  0
LINE
  5
1C48
330
1F
100
AcDbEntity
  8
SANINDUSA
100
AcDbLine
 10
734.4117966181947
 20
1088.279380982916
 30
0.0000000001555553
 11
734.4110895114136
 21
1088.280088089697
 31
0.0000000001555553
  0
LINE
  5
1C49
330
1F
100
AcDbEntity
  8
SANINDUSA
100
AcDbLine
 10
734.4117966181947
 20
1088.280795196478
 30
0.0000000001555553
 11
734.4167463656631
 21
1088.27584544901
 31
0.0000000001555553
  0
LINE
  5
1C4A
330
1F
100
AcDbEntity
  8
SANINDUSA
100
AcDbLine
 10
734.4110895114136
 20
1088.280088089697
 30
0.0000000001555553
 11
734.4117966181947
 21
1088.280795196478
 31
0.0000000001555553
  0
LINE
  5
1C4B
330
1F
100
AcDbEntity
  8
SANINDUSA
100
AcDbLine
 10
734.4147143195109
 20
1088.27522761642
 30
0.0000000001555553
 11
734.413828664347
 21
1088.27522761642
 31
0.0000000001555553
  0
LINE
  5
1C4C
330
1F
100
AcDbEntity
  8
SANINDUSA
100
AcDbLine
 10
734.4161285330733
 20
1088.27522761642
 30
0.0000000001555553
 11
734.4159499846905
 21
1088.27522761642
 31
0.0000000001555553
  0
LINE
  5
1C4D
330
1F
100
AcDbEntity
  8
SANINDUSA
100
AcDbLine
 10
734.4165704482529
 20
1088.27602136642
 30
0.0000000001555553
 11
734.413034914347
 21
1088.27602136642
 31
0.0000000001555553
  0
LINE
  5
1C4E
330
1F
100
AcDbEntity
  8
SANINDUSA
100
AcDbLine
 10
734.4157766982529
 20
1088.27681511642
 30
0.0000000001555553
 11
734.412241164347
 21
1088.27681511642
 31
0.0000000001555553
  0
LINE
  5
1C4F
330
1F
100
AcDbEntity
  8
SANINDUSA
100
AcDbLine
 10
734.4149829482529
 20
1088.27760886642
 30
0.0000000001555553
 11
734.4114474143469
 21
1088.27760886642
 31
0.0000000001555553
  0
LINE
  5
1C50
330
1F
100
AcDbEntity
  8
SANINDUSA
100
AcDbLine
 10
734.414189198253
 20
1088.27840261642
 30
0.0000000001555553
 11
734.4108182516991
 21
1088.27840261642
 31
0.0000000001555553
  0
LINE
  5
1C51
330
1F
100
AcDbEntity
  8
SANINDUSA
100
AcDbLine
 10
734.4133954482529
 20
1088.27919636642
 30
0.0000000001555553
 11
734.411612001699
 21
1088.27919636642
 31
0.0000000001555553
  0
LINE
  5
1C52
330
1F
100
AcDbEntity
  8
SANINDUSA
100
AcDbLine
 10
734.4126016982529
 20
1088.27999011642
 30
0.0000000001555553
 11
734.4111874846905
 21
1088.27999011642
 31
0.0000000001555553
  0
LINE
  5
1C53
330
1F
100
AcDbEntity
  8
SANINDUSA
100
AcDbLine
 10
734.4118079482529
 20
1088.28078386642
 30
0.0000000001555553
 11
734.4117852881367
 21
1088.28078386642
 31
0.0000000001555553
  0
LINE
  5
1C54
330
1F
100
AcDbEntity
  8
SANINDUSA
100
AcDbLine
 10
734.41321996746
 20
1088.28248386642
 30
0.0000000001555553
 11
734.4186113073097
 21
1088.28248386642
 31
0.0000000001555553
  0
ARC
  5
1C55
330
1F
100
AcDbEntity
  8
SANINDUSA
100
AcDbCircle
 10
734.41321996746
 20
1088.28198386642
 30
0.0000000001555553
 40
0.0004999999999991
100
AcDbArc
 50
90.0
 51
225.0
  0
LINE
  5
1C56
330
1F
100
AcDbEntity
  8
SANINDUSA
100
AcDbLine
 10
734.4138767054215
 20
1088.280620021677
 30
0.0000000001555553
 11
734.4128664140693
 21
1088.281630313029
 31
0.0000000001555553
  0
ARC
  5
1C57
330
1F
100
AcDbEntity
  8
SANINDUSA
100
AcDbCircle
 10
734.413523152031
 20
1088.280266468287
 30
0.0000000001555553
 40
0.0004999999999999
100
AcDbArc
 50
225.0
 51
45.0
  0
LINE
  5
1C58
330
1F
100
AcDbEntity
  8
SANINDUSA
100
AcDbLine
 10
734.4121833889804
 20
1088.280899124556
 30
0.0000000001555553
 11
734.4131695986403
 21
1088.279912914896
 31
0.0000000001555553
  0
ARC
  5
1C59
330
1F
100
AcDbEntity
  8
SANINDUSA
100
AcDbCircle
 10
734.4118298355899
 20
1088.280545571165
 30
0.0000000001555553
 40
0.0004999999999991
100
AcDbArc
 50
45.0
 51
135.0
  0
LINE
  5
1C5A
330
1F
100
AcDbEntity
  8
SANINDUSA
100
AcDbLine
 10
734.4108398860996
 20
1088.28026272845
 30
0.0000000001555553
 11
734.4114762821992
 21
1088.280899124556
 31
0.0000000001555553
  0
ARC
  5
1C5B
330
1F
100
AcDbEntity
  8
SANINDUSA
100
AcDbCircle
 10
734.4111934394915
 20
1088.279909175061
 30
0.0000000001555553
 40
0.0005000000000015
100
AcDbArc
 50
135.0000002072671
 51
225.0
  0
LINE
  5
1C5C
330
1F
100
AcDbEntity
  8
SANINDUSA
100
AcDbLine
 10
734.411122728813
 20
1088.279272778958
 30
0.0000000001555553
 11
734.4108398861009
 21
1088.27955562167
 31
0.0000000001555553
  0
ARC
  5
1C5D
330
1F
100
AcDbEntity
  8
SANINDUSA
100
AcDbCircle
 10
734.410981307457
 20
1088.279131357601
 30
0.0000000001555553
 40
0.0002000000000008
100
AcDbArc
 50
315.0
 51
45.00000012896618
  0
LINE
  5
1C5E
330
1F
100
AcDbEntity
  8
SANINDUSA
100
AcDbLine
 10
734.4106984647446
 20
1088.278565672178
 30
0.0000000001555553
 11
734.4111227288133
 21
1088.278989936245
 31
0.0000000001555553
  0
ARC
  5
1C5F
330
1F
100
AcDbEntity
  8
SANINDUSA
100
AcDbCircle
 10
734.4110520181352
 20
1088.278212118787
 30
0.0000000001555553
 40
0.0004999999999999
100
AcDbArc
 50
135.0
 51
225.0
  0
LINE
  5
1C60
330
1F
100
AcDbEntity
  8
SANINDUSA
100
AcDbLine
 10
734.4138097345818
 20
1088.27474729556
 30
0.0000000001555553
 11
734.4106984647446
 21
1088.277858565397
 31
0.0000000001555553
  0
ARC
  5
1C61
330
1F
100
AcDbEntity
  8
SANINDUSA
100
AcDbCircle
 10
734.4141632879724
 20
1088.27510084895
 30
0.0000000001555553
 40
0.0004999999999999
100
AcDbArc
 50
225.0
 51
315.0
  0
LINE
  5
1C62
330
1F
100
AcDbEntity
  8
SANINDUSA
100
AcDbLine
 10
734.4149411054317
 20
1088.275171559628
 30
0.0000000001555553
 11
734.414516841363
 21
1088.27474729556
 31
0.0000000001555553
  0
ARC
  5
1C63
330
1F
100
AcDbEntity
  8
SANINDUSA
100
AcDbCircle
 10
734.4150825267878
 20
1088.275030138272
 30
0.0000000001555553
 40
0.0002
100
AcDbArc
 50
45.0
 51
135.0
  0
LINE
  5
1C64
330
1F
100
AcDbEntity
  8
SANINDUSA
100
AcDbLine
 10
734.4155067908586
 20
1088.274888716914
 30
0.0000000001555553
 11
734.4152239481441
 21
1088.275171559628
 31
0.0000000001555553
  0
ARC
  5
1C65
330
1F
100
AcDbEntity
  8
SANINDUSA
100
AcDbCircle
 10
734.4158603442492
 20
1088.275242270304
 30
0.0000000001555553
 40
0.000500000000024
100
AcDbArc
 50
225.0
 51
314.9999999677585
  0
LINE
  5
1C66
330
1F
100
AcDbEntity
  8
SANINDUSA
100
AcDbLine
 10
734.4168502937431
 20
1088.275525113016
 30
0.0000000001555553
 11
734.4162138976396
 21
1088.274888716914
 31
0.0000000001555553
  0
ARC
  5
1C67
330
1F
100
AcDbEntity
  8
SANINDUSA
100
AcDbCircle
 10
734.4164967403528
 20
1088.275878666407
 30
0.0000000001555553
 40
0.0004999999999999
100
AcDbArc
 50
314.9999999631526
 51
45.0
  0
LINE
  5
1C68
330
1F
100
AcDbEntity
  8
SANINDUSA
100
AcDbLine
 10
734.4158636605282
 20
1088.277218853012
 30
0.0000000001555553
 11
734.4168502937434
 21
1088.276232219797
 31
0.0000000001555553
  0
ARC
  5
1C69
330
1F
100
AcDbEntity
  8
SANINDUSA
100
AcDbCircle
 10
734.4162172139188
 20
1088.277572406403
 30
0.0000000001555553
 40
0.0004999999999999
100
AcDbArc
 50
45.0
 51
225.0
  0
LINE
  5
1C6A
330
1F
100
AcDbEntity
  8
SANINDUSA
100
AcDbLine
 10
734.4175574005247
 20
1088.276939326592
 30
0.0000000001555553
 11
734.4165707673093
 21
1088.277925959794
 31
0.0000000001555553
  0
ARC
  5
1C6B
330
1F
100
AcDbEntity
  8
SANINDUSA
100
AcDbCircle
 10
734.4164967403528
 20
1088.27587866642
 30
0.0000000001555553
 40
0.0014999999999982
100
AcDbArc
 50
314.9999999447288
 51
45.0
  0
LINE
  5
1C6C
330
1F
100
AcDbEntity
  8
SANINDUSA
100
AcDbLine
 10
734.4161431869687
 20
1088.273403792665
 30
0.0000000001555553
 11
734.4175574005237
 21
1088.274818006247
 31
0.0000000001555553
  0
ARC
  5
1C6D
330
1F
100
AcDbEntity
  8
SANINDUSA
100
AcDbCircle
 10
734.4164967403606
 20
1088.273050239279
 30
0.0000000001555553
 40
0.0004999999977732
100
AcDbArc
 50
135.0000004605935
 51
224.9999998894576
  0
LINE
  5
1C6E
330
1F
100
AcDbEntity
  8
SANINDUSA
100
AcDbLine
 10
734.418909559825
 20
1088.26993031303
 30
0.0000000001555553
 11
734.4161431869708
 21
1088.27269668589
 31
0.0000000001555553
  0
ARC
  5
1C6F
330
1F
100
AcDbEntity
  8
SANINDUSA
100
AcDbCircle
 10
734.419263113216
 20
1088.27028386642
 30
0.0000000001555553
 40
0.0005000000000018
100
AcDbArc
 50
224.999999930911
 51
270.0
  0
ARC
  5
1C70
330
1F
100
AcDbEntity
  8
SANINDUSA
100
AcDbCircle
 10
734.421596269621
 20
1088.28248386642
 30
0.0000000001555553
 40
0.0027000000000011
100
AcDbArc
 50
185.7391704756522
 51
270.0
  0
ARC
  5
1C71
330
1F
100
AcDbEntity
  8
SANINDUSA
100
AcDbCircle
 10
734.4186113073097
 20
1088.28218386642
 30
0.0000000001555553
 40
0.0002999999999975
100
AcDbArc
 50
5.739170475652168
 51
90.0
  0
ARC
  5
1C72
330
1F
100
AcDbEntity
  8
SANINDUSA
100
AcDbCircle
 10
734.4186113073097
 20
1088.28218386642
 30
0.0000000001555553
 40
0.0002999999999982
100
AcDbArc
 50
5.739170475652168
 51
90.0
  0
ARC
  5
1C73
330
1F
100
AcDbEntity
  8
SANINDUSA
100
AcDbCircle
 10
734.421596269621
 20
1088.28248386642
 30
0.0000000001555553
 40
0.0016999999999996
100
AcDbArc
 50
180.0
 51
270.0
  0
ARC
  5
1C74
330
1F
100
AcDbEntity
  8
SANINDUSA
100
AcDbCircle
 10
734.4188962696212
 20
1088.28248386642
 30
0.0000000001555553
 40
0.0009999999999991
100
AcDbArc
 50
0.0
 51
90.0
  0
LINE
  5
1C75
330
1F
100
AcDbEntity
  8
SANINDUSA
100
AcDbLine
 10
734.4134752376433
 20
1088.28348386642
 30
0.0000000001555553
 11
734.4188962696212
 21
1088.28348386642
 31
0.0000000001555553
  0
ARC
  5
1C76
330
1F
100
AcDbEntity
  8
SANINDUSA
100
AcDbCircle
 10
734.4134752376433
 20
1088.28148386642
 30
0.0000000001555553
 40
0.0019999999999981
100
AcDbArc
 50
90.0
 51
134.9999998203685
  0
LINE
  5
1C77
330
1F
100
AcDbEntity
  8
SANINDUSA
100
AcDbLine
 10
734.4097085152602
 20
1088.280545571176
 30
0.0000000001555553
 11
734.4120610240853
 21
1088.282898079987
 31
0.0000000001555553
  0
ARC
  5
1C78
330
1F
100
AcDbEntity
  8
SANINDUSA
100
AcDbCircle
 10
734.4111227288132
 20
1088.279131357605
 30
0.0000000001555553
 40
0.0019999999999997
100
AcDbArc
 50
134.9999996177073
 51
224.9999999447288
  0
LINE
  5
1C79
330
1F
100
AcDbEntity
  8
SANINDUSA
100
AcDbLine
 10
734.4180560064337
 20
1088.269369652859
 30
0.0000000001555553
 11
734.4097085152494
 21
1088.277717144043
 31
0.0000000001555553
  0
ARC
  5
1C7A
330
1F
100
AcDbEntity
  8
SANINDUSA
100
AcDbCircle
 10
734.4194702199975
 20
1088.27078386642
 30
0.0000000001555553
 40
0.0019999999999982
100
AcDbArc
 50
224.9999999447288
 51
270.0
  0
LINE
  5
1C7B
330
1F
100
AcDbEntity
  8
SANINDUSA
100
AcDbLine
 10
734.4080437028529
 20
1088.274836372034
 30
0.0000000001555553
 11
734.4080437028529
 21
1088.276688727749
 31
0.0000000001555553
  0
LINE
  5
1C7C
330
1F
100
AcDbEntity
  8
SANINDUSA
100
AcDbLine
 10
734.4088374528531
 20
1088.274042622033
 30
0.0000000001555553
 11
734.4088374528531
 21
1088.277482477747
 31
0.0000000001555553
  0
LINE
  5
1C7D
330
1F
100
AcDbEntity
  8
SANINDUSA
100
AcDbLine
 10
734.409631202853
 20
1088.273248872033
 30
0.0000000001555553
 11
734.409631202853
 21
1088.276996537963
 31
0.0000000001555553
  0
LINE
  5
1C7E
330
1F
100
AcDbEntity
  8
SANINDUSA
100
AcDbLine
 10
734.410424952853
 20
1088.272455122032
 30
0.0000000001555553
 11
734.410424952853
 21
1088.276202787961
 31
0.0000000001555553
  0
LINE
  5
1C7F
330
1F
100
AcDbEntity
  8
SANINDUSA
100
AcDbLine
 10
734.411218702853
 20
1088.271661372032
 30
0.0000000001555553
 11
734.411218702853
 21
1088.275409037959
 31
0.0000000001555553
  0
LINE
  5
1C80
330
1F
100
AcDbEntity
  8
SANINDUSA
100
AcDbLine
 10
734.4120124528529
 20
1088.271472516046
 30
0.0000000001555553
 11
734.4120124528529
 21
1088.274615287957
 31
0.0000000001555553
  0
LINE
  5
1C81
330
1F
100
AcDbEntity
  8
SANINDUSA
100
AcDbLine
 10
734.4128062028531
 20
1088.272258839576
 30
0.0000000001555553
 11
734.4128062028531
 21
1088.273821537955
 31
0.0000000001555553
  0
LINE
  5
1C82
330
1F
100
AcDbEntity
  8
SANINDUSA
100
AcDbLine
 10
734.4025104182121
 20
1088.269283870229
 30
0.0000000001555553
 11
734.399968017383
 21
1088.269283870229
 31
0.0000000001555553
  0
LINE
  5
1C83
330
1F
100
AcDbEntity
  8
SANINDUSA
100
AcDbLine
 10
734.4025104182121
 20
1088.280283870229
 30
0.0000000001555553
 11
734.399968017383
 21
1088.280283870229
 31
0.0000000001555553
  0
LINE
  5
1C84
330
1F
100
AcDbEntity
  8
SANINDUSA
100
AcDbLine
 10
734.4134461306882
 20
1088.272898767404
 30
0.0000000001555553
 11
734.4120672724675
 21
1088.271519909199
 31
0.0000000001555553
  0
LINE
  5
1C85
330
1F
100
AcDbEntity
  8
SANINDUSA
100
AcDbLine
 10
734.4113601656863
 20
1088.271519909199
 30
0.0000000001555553
 11
734.4074710783849
 21
1088.275408996502
 31
0.0000000001555553
  0
LINE
  5
1C86
330
1F
100
AcDbEntity
  8
SANINDUSA
100
AcDbLine
 10
734.4025104182121
 20
1088.278283870229
 30
0.0000000001555553
 11
734.4025104182121
 21
1088.271283870229
 31
0.0000000001555553
  0
LINE
  5
1C87
330
1F
100
AcDbEntity
  8
SANINDUSA
100
AcDbLine
 10
734.4140118161139
 20
1088.273110899453
 30
0.0000000001555553
 11
734.4122440491631
 21
1088.271343132504
 31
0.0000000001555553
  0
ARC
  5
1C88
330
1F
100
AcDbEntity
  8
SANINDUSA
100
AcDbCircle
 10
734.4130104182121
 20
1088.271283870229
 30
0.0000000001555553
 40
0.0014
100
AcDbArc
 50
270.0
 51
45.0
  0
LINE
  5
1C89
330
1F
100
AcDbEntity
  8
SANINDUSA
100
AcDbLine
 10
734.4111833889909
 20
1088.271343132503
 30
0.0000000001555553
 11
734.4072943016895
 21
1088.275232219807
 31
0.0000000001555553
  0
ARC
  5
1C8A
330
1F
100
AcDbEntity
  8
SANINDUSA
100
AcDbCircle
 10
734.4130104182121
 20
1088.271283870229
 30
0.0000000001555553
 40
0.002
100
AcDbArc
 50
270.0
 51
45.0
  0
LINE
  5
1C8B
330
1F
100
AcDbEntity
  8
SANINDUSA
100
AcDbLine
 10
734.4085302221149
 20
1088.269883870229
 30
0.0000000001555553
 11
734.4130104182121
 21
1088.269883870229
 31
0.0000000001555553
  0
LINE
  5
1C8C
330
1F
100
AcDbEntity
  8
SANINDUSA
100
AcDbLine
 10
734.4025104182121
 20
1088.269283870229
 30
0.0000000001555553
 11
734.4130104182121
 21
1088.269283870229
 31
0.0000000001555553
  0
ARC
  5
1C8D
330
1F
100
AcDbEntity
  8
SANINDUSA
100
AcDbCircle
 10
734.4117137190769
 20
1088.27187346259
 30
0.0000000001555553
 40
0.0005
100
AcDbArc
 50
225.0
 51
315.0
  0
ARC
  5
1C8E
330
1F
100
AcDbEntity
  8
SANINDUSA
100
AcDbCircle
 10
734.4117137190769
 20
1088.27187346259
 30
0.0000000001555553
 40
0.00075
100
AcDbArc
 50
225.0
 51
315.0
  0
LINE
  5
1C8F
330
1F
100
AcDbEntity
  8
SANINDUSA
100
AcDbLine
 10
734.4035104182121
 20
1088.27028387023
 30
0.0000000001555553
 11
734.4075104182121
 21
1088.27028387023
 31
0.0000000001555553
  0
ARC
  5
1C90
330
1F
100
AcDbEntity
  8
SANINDUSA
100
AcDbCircle
 10
734.4075104182121
 20
1088.269533870229
 30
0.0000000001555553
 40
0.00075
100
AcDbArc
 50
47.16657193496977
 51
90.0
  0
ARC
  5
1C91
330
1F
100
AcDbEntity
  8
SANINDUSA
100
AcDbCircle
 10
734.4085302221149
 20
1088.270633870229
 30
0.0000000001555553
 40
0.00075
100
AcDbArc
 50
227.1665719349698
 51
270.0
  0
ARC
  5
1C92
330
1F
100
AcDbEntity
  8
SANINDUSA
100
AcDbCircle
 10
734.4035104182121
 20
1088.271283870229
 30
0.0000000001555553
 40
0.001
100
AcDbArc
 50
180.0
 51
270.0
  0
LINE
  5
1C93
330
1F
100
AcDbEntity
  8
SANINDUSA
100
AcDbLine
 10
734.4134461306891
 20
1088.273181610117
 30
0.0000000001555553
 11
734.4091327793186
 21
1088.277494961499
 31
0.0000000001555553
  0
LINE
  5
1C94
330
1F
100
AcDbEntity
  8
SANINDUSA
100
AcDbLine
 10
734.4144246317745
 20
1088.272698083792
 30
0.0000000001555553
 11
734.4083033114308
 21
1088.278819404135
 31
0.0000000001555553
  0
LINE
  5
1C95
330
1F
100
AcDbEntity
  8
SANINDUSA
100
AcDbLine
 10
734.4140003677058
 20
1088.272273819723
 30
0.0000000001555553
 11
734.4137996840792
 21
1088.27247450335
 31
0.0000000001555553
  0
ARC
  5
1C96
330
1F
100
AcDbEntity
  8
SANINDUSA
100
AcDbCircle
 10
734.4133047093326
 20
1088.273040188761
 30
0.0000000001555553
 40
0.0002
100
AcDbArc
 50
314.9999997006142
 51
44.99999993091097
  0
ARC
  5
1C97
330
1F
100
AcDbEntity
  8
SANINDUSA
100
AcDbCircle
 10
734.413587552045
 20
1088.272262371315
 30
0.0000000001555553
 40
0.0003
100
AcDbArc
 50
45.0
 51
134.9999999631525
  0
LINE
  5
1C98
330
1F
100
AcDbEntity
  8
SANINDUSA
100
AcDbLine
 10
734.4088499366062
 20
1088.277494961499
 30
0.0000000001555553
 11
734.4074710783846
 21
1088.276116103283
 31
0.0000000001555553
  0
LINE
  5
1C99
330
1F
100
AcDbEntity
  8
SANINDUSA
100
AcDbLine
 10
734.4090620686422
 20
1088.278060646924
 30
0.0000000001555553
 11
734.4072943016897
 21
1088.276292879979
 31
0.0000000001555553
  0
ARC
  5
1C9A
330
1F
100
AcDbEntity
  8
SANINDUSA
100
AcDbCircle
 10
734.4082135405033
 20
1088.277636382857
 30
0.0000000001555553
 40
0.0003
100
AcDbArc
 50
314.9999998894576
 51
45.0
  0
ARC
  5
1C9B
330
1F
100
AcDbEntity
  8
SANINDUSA
100
AcDbCircle
 10
734.4078246317752
 20
1088.275762549893
 30
0.0000000001555553
 40
0.0005
100
AcDbArc
 50
135.0
 51
225.0000000368475
  0
ARC
  5
1C9C
330
1F
100
AcDbEntity
  8
SANINDUSA
100
AcDbCircle
 10
734.4078246317752
 20
1088.275762549893
 30
0.0000000001555553
 40
0.00075
100
AcDbArc
 50
135.0
 51
225.0000000368475
  0
ARC
  5
1C9D
330
1F
100
AcDbEntity
  8
SANINDUSA
100
AcDbCircle
 10
734.404767777525
 20
1088.275283870229
 30
0.0000000001555553
 40
0.0044
100
AcDbArc
 50
45.0
 51
89.80500889913487
  0
ARC
  5
1C9E
330
1F
100
AcDbEntity
  8
SANINDUSA
100
AcDbCircle
 10
734.404767777525
 20
1088.275283870229
 30
0.0000000001555553
 40
0.005
100
AcDbArc
 50
45.0
 51
90.0
  0
ARC
  5
1C9F
330
1F
100
AcDbEntity
  8
SANINDUSA
100
AcDbCircle
 10
734.4089913579622
 20
1088.277353540143
 30
0.0000000001555553
 40
0.0002
100
AcDbArc
 50
44.99999992630503
 51
134.9999998940635
  0
LINE
  5
1CA0
330
1F
100
AcDbEntity
  8
SANINDUSA
100
AcDbLine
 10
734.4084256725376
 20
1088.277848514891
 30
0.0000000001555553
 11
734.4078790473623
 21
1088.278395140067
 31
0.0000000001555553
  0
LINE
  5
1CA1
330
1F
100
AcDbEntity
  8
SANINDUSA
100
AcDbLine
 10
734.4037604182122
 20
1088.279283870229
 30
0.0000000001555553
 11
734.4035104182121
 21
1088.279283870229
 31
0.0000000001555553
  0
ARC
  5
1CA2
330
1F
100
AcDbEntity
  8
SANINDUSA
100
AcDbCircle
 10
734.4037604182122
 20
1088.28003387023
 30
0.0000000001555553
 40
0.00075
100
AcDbArc
 50
270.0
 51
312.8322405012114
  0
ARC
  5
1CA3
330
1F
100
AcDbEntity
  8
SANINDUSA
100
AcDbCircle
 10
734.404780199315
 20
1088.278933849092
 30
0.0000000001555553
 40
0.00075
100
AcDbArc
 50
89.80500889913487
 51
132.8322405012114
  0
ARC
  5
1CA4
330
1F
100
AcDbEntity
  8
SANINDUSA
100
AcDbCircle
 10
734.4035104182121
 20
1088.278283870229
 30
0.0000000001555553
 40
0.001
100
AcDbArc
 50
90.0
 51
180.0
  0
LINE
  5
1CA5
330
1F
100
AcDbEntity
  8
SANINDUSA
100
AcDbLine
 10
734.4025104182121
 20
1088.280283870229
 30
0.0000000001555553
 11
734.404767777525
 21
1088.280283870229
 31
0.0000000001555553
  0
LINE
  5
1CA6
330
1F
100
AcDbEntity
  8
SANINDUSA
100
AcDbLine
 10
734.3922027031488
 20
1088.271549753693
 30
0.0000000001555553
 11
734.3924544040048
 21
1088.27323101711
 31
0.0000000001555553
  0
LINE
  5
1CA7
330
1F
100
AcDbEntity
  8
SANINDUSA
100
AcDbLine
 10
734.3918071117563
 20
1088.271608977423
 30
0.0000000001555553
 11
734.3920588126125
 21
1088.273290240841
 31
0.0000000001555553
  0
LINE
  5
1CA8
330
1F
100
AcDbEntity
  8
SANINDUSA
100
AcDbLine
 10
734.3915104182122
 20
1088.271653395221
 30
0.0000000001555553
 11
734.3943290068827
 21
1088.271231426139
 31
0.0000000001555553
  0
LINE
  5
1CA9
330
1F
100
AcDbEntity
  8
SANINDUSA
100
AcDbLine
 10
734.3995104182121
 20
1088.271683870229
 30
0.0000000001555553
 11
734.3995104182121
 21
1088.270860178147
 31
0.0000000001555553
  0
LINE
  5
1CAA
330
1F
100
AcDbEntity
  8
SANINDUSA
100
AcDbLine
 10
734.3983104182122
 20
1088.271683870229
 30
0.0000000001555553
 11
734.3983104182122
 21
1088.271039829369
 31
0.0000000001555553
  0
LINE
  5
1CAB
330
1F
100
AcDbEntity
  8
SANINDUSA
100
AcDbLine
 10
734.3890104182121
 20
1088.272083870229
 30
0.0000000001555553
 11
734.3890104182121
 21
1088.271604557815
 31
0.0000000001555553
  0
LINE
  5
1CAC
330
1F
100
AcDbEntity
  8
SANINDUSA
100
AcDbLine
 10
734.4010104182122
 20
1088.27858387023
 30
0.0000000001555553
 11
734.4010104182122
 21
1088.27098387023
 31
0.0000000001555553
  0
LINE
  5
1CAD
330
1F
100
AcDbEntity
  8
SANINDUSA
100
AcDbLine
 10
734.3998495699213
 20
1088.269292687445
 30
0.0000000001555553
 11
734.3896919707504
 21
1088.27081337503
 31
0.0000000001555553
  0
LINE
  5
1CAE
330
1F
100
AcDbEntity
  8
SANINDUSA
100
AcDbLine
 10
734.3943882306136
 20
1088.271627017531
 30
0.0000000001555553
 11
734.3983104182122
 21
1088.271039829369
 31
0.0000000001555553
  0
LINE
  5
1CAF
330
1F
100
AcDbEntity
  8
SANINDUSA
100
AcDbLine
 10
734.400666000414
 20
1088.270687176685
 30
0.0000000001555553
 11
734.3995104182121
 21
1088.270860178147
 31
0.0000000001555553
  0
ARC
  5
1CB0
330
1F
100
AcDbEntity
  8
SANINDUSA
100
AcDbCircle
 10
734.399968017383
 20
1088.270083870229
 30
0.0000000001555553
 40
0.0008
100
AcDbArc
 50
261.4855215650568
 51
270.0
  0
ARC
  5
1CB1
330
1F
100
AcDbEntity
  8
SANINDUSA
100
AcDbCircle
 10
734.4007104182121
 20
1088.27098387023
 30
0.0000000001555553
 40
0.0003
100
AcDbArc
 50
261.4855215650568
 51
0.0
  0
LINE
  5
1CB2
330
1F
100
AcDbEntity
  8
SANINDUSA
100
AcDbLine
 10
734.3943290068827
 20
1088.271231426139
 30
0.0000000001555553
 11
734.3943882306136
 21
1088.271627017531
 31
0.0000000001555553
  0
ARC
  5
1CB3
330
1F
100
AcDbEntity
  8
SANINDUSA
100
AcDbCircle
 10
734.3898104182121
 20
1088.271604557815
 30
0.0000000001555553
 40
0.0008
100
AcDbArc
 50
180.0
 51
261.4855215650568
  0
LINE
  5
1CB4
330
1F
100
AcDbEntity
  8
SANINDUSA
100
AcDbLine
 10
734.3915104182122
 20
1088.277914345238
 30
0.0000000001555553
 11
734.3943290068827
 21
1088.27833631432
 31
0.0000000001555553
  0
LINE
  5
1CB5
330
1F
100
AcDbEntity
  8
SANINDUSA
100
AcDbLine
 10
734.3896919707504
 20
1088.278754365429
 30
0.0000000001555553
 11
734.3998495699213
 21
1088.280275053014
 31
0.0000000001555553
  0
LINE
  5
1CB6
330
1F
100
AcDbEntity
  8
SANINDUSA
100
AcDbLine
 10
734.3995104182121
 20
1088.271683870229
 30
0.0000000001555553
 11
734.3983104182122
 21
1088.271683870229
 31
0.0000000001555553
  0
LINE
  5
1CB7
330
1F
100
AcDbEntity
  8
SANINDUSA
100
AcDbLine
 10
734.3943882306136
 20
1088.277940722927
 30
0.0000000001555553
 11
734.3983104182122
 21
1088.27852791109
 31
0.0000000001555553
  0
LINE
  5
1CB8
330
1F
100
AcDbEntity
  8
SANINDUSA
100
AcDbLine
 10
734.3983104182122
 20
1088.27852791109
 30
0.0000000001555553
 11
734.3983104182122
 21
1088.27788387023
 31
0.0000000001555553
  0
LINE
  5
1CB9
330
1F
100
AcDbEntity
  8
SANINDUSA
100
AcDbLine
 10
734.3995104182121
 20
1088.27788387023
 30
0.0000000001555553
 11
734.3983104182122
 21
1088.27788387023
 31
0.0000000001555553
  0
LINE
  5
1CBA
330
1F
100
AcDbEntity
  8
SANINDUSA
100
AcDbLine
 10
734.3995104182121
 20
1088.278707562312
 30
0.0000000001555553
 11
734.3995104182121
 21
1088.27788387023
 31
0.0000000001555553
  0
LINE
  5
1CBB
330
1F
100
AcDbEntity
  8
SANINDUSA
100
AcDbLine
 10
734.3995104182121
 20
1088.278707562312
 30
0.0000000001555553
 11
734.400666000414
 21
1088.278880563774
 31
0.0000000001555553
  0
ARC
  5
1CBC
330
1F
100
AcDbEntity
  8
SANINDUSA
100
AcDbCircle
 10
734.399968017383
 20
1088.27948387023
 30
0.0000000001555553
 40
0.0008
100
AcDbArc
 50
90.0
 51
98.51447843494321
  0
ARC
  5
1CBD
330
1F
100
AcDbEntity
  8
SANINDUSA
100
AcDbCircle
 10
734.4007104182121
 20
1088.27858387023
 30
0.0000000001555553
 40
0.0003
100
AcDbArc
 50
0.0
 51
98.51447843494321
  0
LINE
  5
1CBE
330
1F
100
AcDbEntity
  8
SANINDUSA
100
AcDbLine
 10
734.3943290068827
 20
1088.27833631432
 30
0.0000000001555553
 11
734.3943882306136
 21
1088.277940722927
 31
0.0000000001555553
  0
LINE
  5
1CBF
330
1F
100
AcDbEntity
  8
SANINDUSA
100
AcDbLine
 10
734.3918071117563
 20
1088.277958763036
 30
0.0000000001555553
 11
734.3920588126125
 21
1088.276277499618
 31
0.0000000001555553
  0
LINE
  5
1CC0
330
1F
100
AcDbEntity
  8
SANINDUSA
100
AcDbLine
 10
734.3922027031488
 20
1088.278017986767
 30
0.0000000001555553
 11
734.3924544040048
 21
1088.276336723349
 31
0.0000000001555553
  0
LINE
  5
1CC1
330
1F
100
AcDbEntity
  8
SANINDUSA
100
AcDbLine
 10
734.3893548360102
 20
1088.277187176685
 30
0.0000000001555553
 11
734.3915696419429
 21
1088.277518753845
 31
0.0000000001555553
  0
ARC
  5
1CC2
330
1F
100
AcDbEntity
  8
SANINDUSA
100
AcDbCircle
 10
734.3893104182122
 20
1088.277483870229
 30
0.0000000001555553
 40
0.0003
100
AcDbArc
 50
180.0
 51
278.5144784349432
  0
ARC
  5
1CC3
330
1F
100
AcDbEntity
  8
SANINDUSA
100
AcDbCircle
 10
734.3893104182122
 20
1088.272083870229
 30
0.0000000001555553
 40
0.0003
100
AcDbArc
 50
81.48552156505678
 51
180.0
  0
LINE
  5
1CC4
330
1F
100
AcDbEntity
  8
SANINDUSA
100
AcDbLine
 10
734.3915104182122
 20
1088.271653395221
 30
0.0000000001555553
 11
734.3915696419429
 21
1088.272048986614
 31
0.0000000001555553
  0
ARC
  5
1CC5
330
1F
100
AcDbEntity
  8
SANINDUSA
100
AcDbCircle
 10
734.3922566083087
 20
1088.273260628975
 30
0.0000000001555553
 40
0.0002
100
AcDbArc
 50
351.4855215660213
 51
171.4855215660212
  0
LINE
  5
1CC6
330
1F
100
AcDbEntity
  8
SANINDUSA
100
AcDbLine
 10
734.3893548360102
 20
1088.272380563774
 30
0.0000000001555553
 11
734.3915696419429
 21
1088.272048986614
 31
0.0000000001555553
  0
ARC
  5
1CC7
330
1F
100
AcDbEntity
  8
SANINDUSA
100
AcDbCircle
 10
734.3922566083087
 20
1088.276307111484
 30
0.0000000001555553
 40
0.0002
100
AcDbArc
 50
188.5144784339788
 51
8.514478433978796
  0
ARC
  5
1CC8
330
1F
100
AcDbEntity
  8
SANINDUSA
100
AcDbCircle
 10
734.3898104182121
 20
1088.277963182644
 30
0.0000000001555553
 40
0.0008
100
AcDbArc
 50
98.51447843494321
 51
180.0
  0
LINE
  5
1CC9
330
1F
100
AcDbEntity
  8
SANINDUSA
100
AcDbLine
 10
734.3915104182122
 20
1088.277914345238
 30
0.0000000001555553
 11
734.3915696419429
 21
1088.277518753845
 31
0.0000000001555553
  0
LINE
  5
1CCA
330
1F
100
AcDbEntity
  8
SANINDUSA
100
AcDbLine
 10
734.3890104182121
 20
1088.277963182644
 30
0.0000000001555553
 11
734.3890104182121
 21
1088.277483870229
 31
0.0000000001555553
  0
LINE
  5
1D1D
330
1F
100
AcDbEntity
  8
SANINDUSA
100
AcDbLine
 10
733.5051523860292
 20
1088.27178386642
 30
0.0000000001442879
 11
733.798010379003
 21
1088.27178386642
 31
0.0000000001578752
  0
LINE
  5
1D1E
330
1F
100
AcDbEntity
  8
SANINDUSA
100
AcDbLine
 10
733.784510379003
 20
1088.27918386642
 30
0.0000000001555554
 11
733.731510379003
 21
1088.27918386642
 31
0.0000000001555554
  0
LINE
  5
1D1F
330
1F
100
AcDbEntity
  8
SANINDUSA
100
AcDbLine
 10
733.7845103790028
 20
1088.270383814126
 30
0.0000000001555554
 11
733.7315103790029
 21
1088.270383814126
 31
0.0000000001555554
  0
LWPOLYLINE
  5
1D20
330
1F
100
AcDbEntity
  8
SANINDUSA
100
AcDbPolyline
 90
        4
 70
     1
 43
0.0
 38
0.0000000001555553
 10
733.731510379003
 20
1088.27898386642
 10
733.784510379003
 20
1088.27898386642
 10
733.784510379003
 20
1088.27798386642
 10
733.731510379003
 20
1088.27798386642
1001
GENIUS_GENREC_14
1002
{
1000
PYDIR
1011
733.867510379003
1021
1088.065873919148
1031
0.0000000001555554
1002
}
1002
{
1000
PXDIR
1011
733.8145103790029
1021
1088.064873919148
1031
0.0000000001555554
1002
}
1002
{
1000
PORI
1011
733.867510379003
1021
1088.064873919148
1031
0.0000000001555554
1002
}
1002
{
1000
PINS
1011
733.867510379003
1021
1088.064873919148
1031
0.0000000001555554
1002
}
1002
{
1000
PINS2
1011
733.8145103790029
1021
1088.065873919148
1031
0.0000000001555554
1002
}
1002
{
1000
C
1070
     1
1002
}
1001
GENIUS_GENODEF_13
1002
{
1000
HIER
1070
     0
1002
}
1002
{
1000
MANEDIT
1070
     0
1002
}
1002
{
1000
NOSEL
1070
     0
1002
}
1002
{
1000
BEHIND
1070
     0
1002
}
1002
{
1000
REACTOR
1002
}
1001
GENIUS_GENOBJ-N-REC_13
1002
{
1000
OWNER
1000
GEN
1002
}
  0
LWPOLYLINE
  5
1D21
330
1F
100
AcDbEntity
  8
SANINDUSA
100
AcDbPolyline
 90
        2
 70
     0
 43
0.0
 38
0.0000000001555553
 10
733.731510379003
 20
1088.27048386642
 10
733.784510379003
 20
1088.27048386642
1001
GENIUS_GENREC_14
1002
{
1000
PYDIR
1011
733.867510379003
1021
1088.065573919148
1031
0.0000000001555554
1002
}
1002
{
1000
PXDIR
1011
733.8145103790029
1021
1088.064573919148
1031
0.0000000001555554
1002
}
1002
{
1000
PORI
1011
733.867510379003
1021
1088.064573919148
1031
0.0000000001555554
1002
}
1002
{
1000
PINS
1011
733.867510379003
1021
1088.064573919148
1031
0.0000000001555554
1002
}
1002
{
1000
PINS2
1011
733.8145103790029
1021
1088.065573919148
1031
0.0000000001555554
1002
}
1002
{
1000
C
1070
     1
1002
}
1001
GENIUS_GENODEF_13
1002
{
1000
HIER
1070
     0
1002
}
1002
{
1000
MANEDIT
1070
     0
1002
}
1002
{
1000
NOSEL
1070
     0
1002
}
1002
{
1000
BEHIND
1070
     0
1002
}
1002
{
1000
REACTOR
1002
}
1001
GENIUS_GENOBJ-N-REC_13
1002
{
1000
OWNER
1000
GEN
1002
}
  0
LWPOLYLINE
  5
1D22
330
1F
100
AcDbEntity
  8
SANINDUSA
100
AcDbPolyline
 90
        2
 70
     0
 43
0.0
 38
0.0000000001555553
 10
733.784510379003
 20
1088.27148386642
 10
733.731510379003
 20
1088.27148386642
1001
GENIUS_GENREC_14
1002
{
1000
PYDIR
1011
733.867510379003
1021
1088.065573919148
1031
0.0000000001555554
1002
}
1002
{
1000
PXDIR
1011
733.8145103790029
1021
1088.064573919148
1031
0.0000000001555554
1002
}
1002
{
1000
PORI
1011
733.867510379003
1021
1088.064573919148
1031
0.0000000001555554
1002
}
1002
{
1000
PINS
1011
733.867510379003
1021
1088.064573919148
1031
0.0000000001555554
1002
}
1002
{
1000
PINS2
1011
733.8145103790029
1021
1088.065573919148
1031
0.0000000001555554
1002
}
1002
{
1000
C
1070
     1
1002
}
1001
GENIUS_GENODEF_13
1002
{
1000
HIER
1070
     0
1002
}
1002
{
1000
MANEDIT
1070
     0
1002
}
1002
{
1000
NOSEL
1070
     0
1002
}
1002
{
1000
BEHIND
1070
     0
1002
}
1002
{
1000
REACTOR
1002
}
1001
GENIUS_GENOBJ-N-REC_13
1002
{
1000
OWNER
1000
GEN
1002
}
  0
LINE
  5
1D23
330
1F
100
AcDbEntity
  8
SANINDUSA
100
AcDbLine
 10
733.7325103790029
 20
1088.28418386642
 30
0.0000000001555554
 11
733.783510379003
 21
1088.28418386642
 31
0.0000000001555554
  0
LINE
  5
1D24
330
1F
100
AcDbEntity
  8
SANINDUSA
100
AcDbLine
 10
733.7325103790029
 20
1088.260383814126
 30
0.0000000001555554
 11
733.7915103790029
 21
1088.260383814126
 31
0.0000000001555554
  0
LINE
  5
1D68
330
1F
100
AcDbEntity
  8
SANINDUSA
100
AcDbLine
 10
733.784510379003
 20
1088.27918386642
 30
0.0000000001555554
 11
733.784510379003
 21
1088.28318386642
 31
0.0000000001555554
  0
ARC
  5
1D69
330
1F
100
AcDbEntity
  8
SANINDUSA
100
AcDbCircle
 10
733.783510379003
 20
1088.28318386642
 30
0.0000000001555554
 40
0.001
100
AcDbArc
 50
0.0
 51
90.0
  0
LINE
  5
1D6A
330
1F
100
AcDbEntity
  8
SANINDUSA
100
AcDbLine
 10
733.784510379003
 20
1088.27048386642
 30
0.0000000001555554
 11
733.784510379003
 21
1088.27148386642
 31
0.0000000001555554
1001
GENIUS_GENREC_14
1002
{
1000
PYDIR
1011
733.867510379003
1021
1088.27148386642
1031
0.0000000001555554
1002
}
1002
{
1000
PXDIR
1011
733.8145103790029
1021
1088.27048386642
1031
0.0000000001555554
1002
}
1002
{
1000
PORI
1011
733.867510379003
1021
1088.27048386642
1031
0.0000000001555554
1002
}
1002
{
1000
PINS
1011
733.867510379003
1021
1088.27048386642
1031
0.0000000001555554
1002
}
1002
{
1000
PINS2
1011
733.8145103790029
1021
1088.27148386642
1031
0.0000000001555554
1002
}
1002
{
1000
C
1070
     1
1002
}
1001
GENIUS_GENODEF_13
1002
{
1000
HIER
1070
     0
1002
}
1002
{
1000
MANEDIT
1070
     0
1002
}
1002
{
1000
NOSEL
1070
     0
1002
}
1002
{
1000
BEHIND
1070
     0
1002
}
1002
{
1000
REACTOR
1002
}
1001
GENIUS_GENOBJ-N-REC_13
1002
{
1000
OWNER
1000
GEN
1002
}
  0
LINE
  5
1D6B
330
1F
100
AcDbEntity
  8
SANINDUSA
100
AcDbLine
 10
733.7845103790028
 20
1088.268383814126
 30
0.0000000001555554
 11
733.7845103790028
 21
1088.270383814126
 31
0.0000000001555554
  0
LINE
  5
1D6C
330
1F
100
AcDbEntity
  8
SANINDUSA
100
AcDbLine
 10
733.8008556009278
 20
1088.280383870229
 30
0.0000000001555553
 11
733.7998625183493
 21
1088.280383870229
 31
0.0000000001555553
  0
ARC
  5
1D6D
330
1F
100
AcDbEntity
  8
SANINDUSA
100
AcDbCircle
 10
733.8022090568921
 20
1088.27848316904
 30
0.0000000001555553
 40
0.0005
100
AcDbArc
 50
350.6591658917312
 51
80.65916589921577
  0
LINE
  5
1D6E
330
1F
100
AcDbEntity
  8
SANINDUSA
100
AcDbLine
 10
733.8041419607016
 20
1088.277911869764
 30
0.0000000001555553
 11
733.8041825374769
 21
1088.278158554837
 31
0.0000000001555553
  0
LINE
  5
1D6F
330
1F
100
AcDbEntity
  8
SANINDUSA
100
AcDbLine
 10
733.8027024270383
 20
1088.278402015489
 30
0.0000000001555553
 11
733.8026618502628
 21
1088.278155330416
 31
0.0000000001555553
  0
ARC
  5
1D70
330
1F
100
AcDbEntity
  8
SANINDUSA
100
AcDbCircle
 10
733.8046519019322
 20
1088.278036579224
 30
0.0000000001555553
 40
0.0005
100
AcDbArc
 50
80.65916589921577
 51
180.1365535742075
  0
LINE
  5
1D71
330
1F
100
AcDbEntity
  8
SANINDUSA
100
AcDbLine
 10
733.801707763264
 20
1088.279072344855
 30
0.0000000001555553
 11
733.8022902104429
 21
1088.278976539186
 31
0.0000000001555553
  0
ARC
  5
1D72
330
1F
100
AcDbEntity
  8
SANINDUSA
100
AcDbCircle
 10
733.8067097966826
 20
1088.278812861568
 30
0.0000000001555553
 40
0.0006000000000005
100
AcDbArc
 50
260.6591658992158
 51
308.8488510033863
  0
ARC
  5
1D73
330
1F
100
AcDbEntity
  8
SANINDUSA
100
AcDbCircle
 10
733.8074625183492
 20
1088.277878297449
 30
0.0000000001555553
 40
0.0006
100
AcDbArc
 50
80.65916589921577
 51
128.8488510033863
  0
LINE
  5
1D74
330
1F
100
AcDbEntity
  8
SANINDUSA
100
AcDbLine
 10
733.804733055483
 20
1088.27852994937
 30
0.0000000001555553
 11
733.8066124124216
 21
1088.278220817393
 31
0.0000000001555553
  0
ARC
  5
1D75
330
1F
100
AcDbEntity
  8
SANINDUSA
100
AcDbCircle
 10
733.8034019054822
 20
1088.27803360009
 30
0.0000000001555553
 40
0.00075
100
AcDbArc
 50
170.6591658917311
 51
0.1365535742075354
  0
ARC
  5
1D76
330
1F
100
AcDbEntity
  8
SANINDUSA
100
AcDbCircle
 10
733.8078842772921
 20
1088.277614354708
 30
0.0000000001555553
 40
0.000175
100
AcDbArc
 50
97.99999999810436
 51
277.9999999981044
  0
LINE
  5
1D77
330
1F
100
AcDbEntity
  8
SANINDUSA
100
AcDbLine
 10
733.8128625183492
 20
1088.272374991532
 30
0.0000000001555553
 11
733.8111775471176
 21
1088.272097833703
 31
0.0000000001555553
  0
LINE
  5
1D78
330
1F
100
AcDbEntity
  8
SANINDUSA
100
AcDbLine
 10
733.8111775471176
 20
1088.277469906756
 30
0.0000000001555553
 11
733.8128625183492
 21
1088.277192748927
 31
0.0000000001555553
  0
LINE
  5
1D79
330
1F
100
AcDbEntity
  8
SANINDUSA
100
AcDbLine
 10
733.8145103790029
 20
1088.27918386642
 30
0.0000000001555554
 11
733.8145103790029
 21
1088.28318386642
 31
0.0000000001555554
  0
ARC
  5
1D7A
330
1F
100
AcDbEntity
  8
SANINDUSA
100
AcDbCircle
 10
733.8122625183492
 20
1088.277899504561
 30
0.0000000001555553
 40
0.0006
100
AcDbArc
 50
0.0
 51
80.65916589921577
  0
LINE
  5
1D7B
330
1F
100
AcDbEntity
  8
SANINDUSA
100
AcDbLine
 10
733.8128625183492
 20
1088.277192748927
 30
0.0000000001555553
 11
733.8128625183492
 21
1088.277899504561
 31
0.0000000001555553
  0
ARC
  5
1D7C
330
1F
100
AcDbEntity
  8
SANINDUSA
100
AcDbCircle
 10
733.8102625183493
 20
1088.277417730582
 30
0.0000000001555553
 40
0.0005999999999989
100
AcDbArc
 50
32.46948079364152
 51
75.89910819428901
  0
ARC
  5
1D7D
330
1F
100
AcDbEntity
  8
SANINDUSA
100
AcDbCircle
 10
733.809967741434
 20
1088.278235360459
 30
0.0000000001555553
 40
0.0005
100
AcDbArc
 50
277.9999999981044
 51
331.8736260327467
  0
ARC
  5
1D7E
330
1F
100
AcDbEntity
  8
SANINDUSA
100
AcDbCircle
 10
733.8112749313786
 20
1088.278061950931
 30
0.0000000001555553
 40
0.0006
100
AcDbArc
 50
212.4694807936415
 51
260.6591658992158
  0
LINE
  5
1D7F
330
1F
100
AcDbEntity
  8
SANINDUSA
100
AcDbLine
 10
733.809936250355
 20
1088.278079460541
 30
0.0000000001555553
 11
733.8078599219994
 21
1088.27778765162
 31
0.0000000001555553
  0
LINE
  5
1D80
330
1F
100
AcDbEntity
  8
SANINDUSA
100
AcDbLine
 10
733.8075599026102
 20
1088.278470341625
 30
0.0000000001555553
 11
733.809936250355
 21
1088.278079460541
 31
0.0000000001555553
  0
LINE
  5
1D81
330
1F
100
AcDbEntity
  8
SANINDUSA
100
AcDbLine
 10
733.8079086325848
 20
1088.277441057796
 30
0.0000000001555553
 11
733.8100373279844
 21
1088.277740226424
 31
0.0000000001555553
  0
ARC
  5
1D82
330
1F
100
AcDbEntity
  8
SANINDUSA
100
AcDbCircle
 10
733.801610379003
 20
1088.278480300679
 30
0.0000000001555553
 40
0.0006
100
AcDbArc
 50
80.65916589921577
 51
180.0
  0
LINE
  5
1D83
330
1F
100
AcDbEntity
  8
SANINDUSA
100
AcDbLine
 10
733.8123599026102
 20
1088.278491548736
 30
0.0000000001555553
 11
733.8008556009278
 21
1088.280383870229
 31
0.0000000001555553
  0
LINE
  5
1D84
330
1F
100
AcDbEntity
  8
SANINDUSA
100
AcDbLine
 10
733.8008556009278
 20
1088.269183870229
 30
0.0000000001555553
 11
733.7998625183493
 21
1088.269183870229
 31
0.0000000001555553
  0
LINE
  5
1D85
330
1F
100
AcDbEntity
  8
SANINDUSA
100
AcDbLine
 10
733.7906214901139
 20
1088.260383814126
 30
0.0000000001555554
 11
733.7906214901139
 21
1088.268383814126
 31
0.0000000001555554
  0
ARC
  5
1D86
330
1F
100
AcDbEntity
  8
SANINDUSA
100
AcDbCircle
 10
733.8022090568921
 20
1088.271084571419
 30
0.0000000001555553
 40
0.0005
100
AcDbArc
 50
279.3408341007842
 51
9.340834108268854
  0
LINE
  5
1D87
330
1F
100
AcDbEntity
  8
SANINDUSA
100
AcDbLine
 10
733.8022902104429
 20
1088.270591201273
 30
0.0000000001555553
 11
733.801707763264
 21
1088.270495395604
 31
0.0000000001555553
  0
LINE
  5
1D88
330
1F
100
AcDbEntity
  8
SANINDUSA
100
AcDbLine
 10
733.8026618502628
 20
1088.271412410043
 30
0.0000000001555553
 11
733.8027024270383
 21
1088.27116572497
 31
0.0000000001555553
  0
LINE
  5
1D89
330
1F
100
AcDbEntity
  8
SANINDUSA
100
AcDbLine
 10
733.8041753672252
 20
1088.271452776915
 30
0.0000000001555553
 11
733.8041419607016
 21
1088.271655870695
 31
0.0000000001555553
  0
ARC
  5
1D8A
330
1F
100
AcDbEntity
  8
SANINDUSA
100
AcDbCircle
 10
733.8046687373714
 20
1088.271533930466
 30
0.0000000001555553
 40
0.0005
100
AcDbArc
 50
189.3408341082688
 51
279.3408341007842
  0
ARC
  5
1D8B
330
1F
100
AcDbEntity
  8
SANINDUSA
100
AcDbCircle
 10
733.8067097966826
 20
1088.270754878891
 30
0.0000000001555553
 40
0.0006000000000005
100
AcDbArc
 50
51.15114899661367
 51
99.34083410078422
  0
ARC
  5
1D8C
330
1F
100
AcDbEntity
  8
SANINDUSA
100
AcDbCircle
 10
733.8074625183492
 20
1088.27168944301
 30
0.0000000001555553
 40
0.0006
100
AcDbArc
 50
231.1511489966137
 51
279.3408341007842
  0
LINE
  5
1D8D
330
1F
100
AcDbEntity
  8
SANINDUSA
100
AcDbLine
 10
733.8066124124216
 20
1088.271346923066
 30
0.0000000001555553
 11
733.8047498909222
 21
1088.27104056032
 31
0.0000000001555553
  0
LINE
  5
1D8E
330
1F
100
AcDbEntity
  8
SANINDUSA
100
AcDbLine
 10
733.8145103790029
 20
1088.27058386642
 30
0.0000000001555554
 11
733.8145103790029
 21
1088.27158386642
 31
0.0000000001555554
1001
GENIUS_GENREC_14
1002
{
1000
PYDIR
1011
733.867510379003
1021
1088.27158386642
1031
0.0000000001555554
1002
}
1002
{
1000
PXDIR
1011
733.8145103790029
1021
1088.27058386642
1031
0.0000000001555554
1002
}
1002
{
1000
PORI
1011
733.867510379003
1021
1088.27058386642
1031
0.0000000001555554
1002
}
1002
{
1000
PINS
1011
733.867510379003
1021
1088.27058386642
1031
0.0000000001555554
1002
}
1002
{
1000
PINS2
1011
733.8145103790029
1021
1088.27158386642
1031
0.0000000001555554
1002
}
1002
{
1000
C
1070
     1
1002
}
1001
GENIUS_GENODEF_13
1002
{
1000
HIER
1070
     0
1002
}
1002
{
1000
MANEDIT
1070
     0
1002
}
1002
{
1000
NOSEL
1070
     0
1002
}
1002
{
1000
BEHIND
1070
     0
1002
}
1002
{
1000
REACTOR
1002
}
1001
GENIUS_GENOBJ-N-REC_13
1002
{
1000
OWNER
1000
GEN
1002
}
  0
LINE
  5
1D8F
330
1F
100
AcDbEntity
  8
SANINDUSA
100
AcDbLine
 10
733.8145103790029
 20
1088.27038386642
 30
0.0000000001555554
 11
733.8145103790029
 21
1088.26838386642
 31
0.0000000001555554
  0
ARC
  5
1D90
330
1F
100
AcDbEntity
  8
SANINDUSA
100
AcDbCircle
 10
733.8122625183492
 20
1088.271668235898
 30
0.0000000001555553
 40
0.0006
100
AcDbArc
 50
279.3408341007842
 51
0.0
  0
ARC
  5
1D91
330
1F
100
AcDbEntity
  8
SANINDUSA
100
AcDbCircle
 10
733.809967741434
 20
1088.27133238
 30
0.0000000001555553
 40
0.0004999999999883
100
AcDbArc
 50
28.12637396418266
 51
82.00000000189559
  0
ARC
  5
1D92
330
1F
100
AcDbEntity
  8
SANINDUSA
100
AcDbCircle
 10
733.8102625183493
 20
1088.272150009877
 30
0.0000000001555553
 40
0.0006000000000005
100
AcDbArc
 50
284.1008918057109
 51
327.5305192063584
  0
LINE
  5
1D93
330
1F
100
AcDbEntity
  8
SANINDUSA
100
AcDbLine
 10
733.809936250355
 20
1088.271488279918
 30
0.0000000001555553
 11
733.8075599026102
 21
1088.271097398834
 31
0.0000000001555553
  0
LINE
  5
1D94
330
1F
100
AcDbEntity
  8
SANINDUSA
100
AcDbLine
 10
733.8078599219994
 20
1088.271780088839
 30
0.0000000001555553
 11
733.809936250355
 21
1088.271488279918
 31
0.0000000001555553
  0
LINE
  5
1D95
330
1F
100
AcDbEntity
  8
SANINDUSA
100
AcDbLine
 10
733.808399267892
 20
1088.260383814126
 30
0.0000000001555554
 11
733.808399267892
 21
1088.26838386642
 31
0.0000000001555554
  0
ARC
  5
1D96
330
1F
100
AcDbEntity
  8
SANINDUSA
100
AcDbCircle
 10
733.801610379003
 20
1088.271087439779
 30
0.0000000001555553
 40
0.0006
100
AcDbArc
 50
180.0
 51
279.3408341007842
  0
LINE
  5
1D97
330
1F
100
AcDbEntity
  8
SANINDUSA
100
AcDbLine
 10
733.8145103790029
 20
1088.26838386642
 30
0.0000000001555554
 11
733.799510379003
 21
1088.268383814126
 31
0.0000000001555554
  0
LINE
  5
1D98
330
1F
100
AcDbEntity
  8
SANINDUSA
100
AcDbLine
 10
733.8008556009278
 20
1088.269183870229
 30
0.0000000001555553
 11
733.8123599026102
 21
1088.271076191723
 31
0.0000000001555553
  0
CIRCLE
  5
1D99
330
1F
100
AcDbEntity
  8
SANINDUSA
100
AcDbCircle
 10
733.799510379003
 20
1088.260383814126
 30
0.0000000001555554
 40
0.008
  0
LINE
  5
1D9A
330
1F
100
AcDbEntity
  8
SANINDUSA
100
AcDbLine
 10
733.798010379003
 20
1088.27778386642
 30
0.0000000001555554
 11
733.798010379003
 21
1088.27178386642
 31
0.0000000001555554
1001
GENIUS_GENREC_14
1002
{
1000
PYDIR
1011
733.951010379003
1021
1088.27158386642
1031
0.0000000001555554
1002
}
1002
{
1000
PXDIR
1011
733.8010103790029
1021
1088.27758386642
1031
0.0000000001555554
1002
}
1002
{
1000
PORI
1011
733.951010379003
1021
1088.27758386642
1031
0.0000000001555554
1002
}
1002
{
1000
PINS
1011
733.951010379003
1021
1088.27758386642
1031
0.0000000001555554
1002
}
1002
{
1000
PINS2
1011
733.8010103790029
1021
1088.27178386642
1031
0.0000000001555554
1002
}
1002
{
1000
C
1070
     1
1002
}
1001
GENIUS_GENODEF_13
1002
{
1000
HIER
1070
     0
1002
}
1002
{
1000
MANEDIT
1070
     0
1002
}
1002
{
1000
NOSEL
1070
     0
1002
}
1002
{
1000
BEHIND
1070
     0
1002
}
1002
{
1000
REACTOR
1002
}
1001
GENIUS_GENOBJ-N-REC_13
1002
{
1000
OWNER
1000
GEN
1002
}
  0
ARC
  5
1D9B
330
1F
100
AcDbEntity
  8
SANINDUSA
100
AcDbCircle
 10
733.8034019054822
 20
1088.271534140369
 30
0.0000000001555553
 40
0.00075
100
AcDbArc
 50
9.340834108268854
 51
189.3408341082688
  0
ARC
  5
1D9C
330
1F
100
AcDbEntity
  8
SANINDUSA
100
AcDbCircle
 10
733.8078842772921
 20
1088.271953385751
 30
0.0000000001555553
 40
0.000175
100
AcDbArc
 50
82.00000000189559
 51
262.0000000018956
  0
LINE
  5
1D9D
330
1F
100
AcDbEntity
  8
SANINDUSA
100
AcDbLine
 10
733.8010103790029
 20
1088.277783870229
 30
0.0000000001555553
 11
733.8010103790029
 21
1088.271783870229
 31
0.0000000001555553
  0
LINE
  5
1D9E
330
1F
100
AcDbEntity
  8
SANINDUSA
100
AcDbLine
 10
733.7998625183493
 20
1088.269183870229
 30
0.0000000001555553
 11
733.7998625183493
 21
1088.280383870229
 31
0.0000000001555553
  0
LINE
  5
1D9F
330
1F
100
AcDbEntity
  8
SANINDUSA
100
AcDbLine
 10
733.8010103790029
 20
1088.271087439779
 30
0.0000000001555553
 11
733.8010103790029
 21
1088.278480300679
 31
0.0000000001555553
  0
LINE
  5
1DA0
330
1F
100
AcDbEntity
  8
SANINDUSA
100
AcDbLine
 10
733.8128625183492
 20
1088.271668235898
 30
0.0000000001555553
 11
733.8128625183492
 21
1088.272374991532
 31
0.0000000001555553
  0
ARC
  5
1DA1
330
1F
100
AcDbEntity
  8
SANINDUSA
100
AcDbCircle
 10
733.8112749313786
 20
1088.271505789528
 30
0.0000000001555553
 40
0.0006
100
AcDbArc
 50
99.34083410078422
 51
147.5305192063585
  0
LINE
  5
1DA2
330
1F
100
AcDbEntity
  8
SANINDUSA
100
AcDbLine
 10
733.8100373279844
 20
1088.271827514034
 30
0.0000000001555553
 11
733.8079086325848
 21
1088.272126682663
 31
0.0000000001555553
  0
ARC
  5
1DA3
330
1F
100
AcDbEntity
  8
SANINDUSA
100
AcDbCircle
 10
733.7990248260415
 20
1088.27478387023
 30
0.0000000001555553
 40
0.0056623076923077
100
AcDbArc
 50
81.49232712757934
 51
278.5076728724207
  0
ARC
  5
1DA4
330
1F
100
AcDbEntity
  8
SANINDUSA
100
AcDbCircle
 10
733.7990248260415
 20
1088.27478387023
 30
0.0000000001555553
 40
0.0052623076923077
100
AcDbArc
 50
81.49232712757934
 51
278.5076728724207
  0
ARC
  5
1DA5
330
1F
100
AcDbEntity
  8
SANINDUSA
100
AcDbCircle
 10
733.8155103790029
 20
1088.28318386642
 30
0.0000000001555554
 40
0.001
100
AcDbArc
 50
90.0
 51
180.0
  0
LINE
  5
1DA6
330
1F
100
AcDbEntity
  8
SANINDUSA
100
AcDbLine
 10
733.7845103790028
 20
1088.268383814126
 30
0.0000000001555554
 11
733.7995104245992
 21
1088.268383814126
 31
0.0000000001555554
  0
LINE
  5
1DA7
330
1F
100
AcDbEntity
  8
SANINDUSA
100
AcDbLine
 10
733.867510379003
 20
1088.27918386642
 30
0.0000000001555554
 11
733.867510379003
 21
1088.28318386642
 31
0.0000000001555554
  0
ARC
  5
1DA8
330
1F
100
AcDbEntity
  8
SANINDUSA
100
AcDbCircle
 10
733.8665103790029
 20
1088.28318386642
 30
0.0000000001555554
 40
0.001
100
AcDbArc
 50
0.0
 51
90.0
  0
LINE
  5
1DA9
330
1F
100
AcDbEntity
  8
SANINDUSA
100
AcDbLine
 10
733.867510379003
 20
1088.27038386642
 30
0.0000000001555554
 11
733.867510379003
 21
1088.261383814126
 31
0.0000000001555554
  0
LINE
  5
1DAA
330
1F
100
AcDbEntity
  8
SANINDUSA
100
AcDbLine
 10
733.867510379003
 20
1088.27158386642
 30
0.0000000001555554
 11
733.867510379003
 21
1088.27058386642
 31
0.0000000001555554
1001
GENIUS_GENREC_14
1002
{
1000
PYDIR
1011
733.867510379003
1021
1088.27158386642
1031
0.0000000001555554
1002
}
1002
{
1000
PXDIR
1011
733.8145103790029
1021
1088.27058386642
1031
0.0000000001555554
1002
}
1002
{
1000
PORI
1011
733.867510379003
1021
1088.27058386642
1031
0.0000000001555554
1002
}
1002
{
1000
PINS
1011
733.867510379003
1021
1088.27058386642
1031
0.0000000001555554
1002
}
1002
{
1000
PINS2
1011
733.8145103790029
1021
1088.27158386642
1031
0.0000000001555554
1002
}
1002
{
1000
C
1070
     1
1002
}
1001
GENIUS_GENODEF_13
1002
{
1000
HIER
1070
     0
1002
}
1002
{
1000
MANEDIT
1070
     0
1002
}
1002
{
1000
NOSEL
1070
     0
1002
}
1002
{
1000
BEHIND
1070
     0
1002
}
1002
{
1000
REACTOR
1002
}
1001
GENIUS_GENOBJ-N-REC_13
1002
{
1000
OWNER
1000
GEN
1002
}
  0
ARC
  5
1DAB
330
1F
100
AcDbEntity
  8
SANINDUSA
100
AcDbCircle
 10
733.8665103790029
 20
1088.261383814126
 30
0.0000000001555554
 40
0.001
100
AcDbArc
 50
270.0
 51
0.0
  0
LINE
  5
1DAC
330
1F
100
AcDbEntity
  8
SANINDUSA
100
AcDbLine
 10
733.867510379003
 20
1088.27038386642
 30
0.0000000001555554
 11
733.8145103790029
 21
1088.27038386642
 31
0.0000000001555554
  0
LWPOLYLINE
  5
1DAD
330
1F
100
AcDbEntity
  8
SANINDUSA
100
AcDbPolyline
 90
        2
 70
     0
 43
0.0
 38
0.0000000001555553
 10
733.8145103790029
 20
1088.27158386642
 10
733.867510379003
 20
1088.27158386642
1001
GENIUS_GENREC_14
1002
{
1000
PYDIR
1011
733.5682281219239
1021
1088.364956176228
1031
0.0000000001555554
1002
}
1002
{
1000
PXDIR
1011
733.5152281219238
1021
1088.363956176228
1031
0.0000000001555554
1002
}
1002
{
1000
PORI
1011
733.5682281219239
1021
1088.363956176228
1031
0.0000000001555554
1002
}
1002
{
1000
PINS
1011
733.5682281219239
1021
1088.363956176228
1031
0.0000000001555554
1002
}
1002
{
1000
PINS2
1011
733.5152281219238
1021
1088.364956176228
1031
0.0000000001555554
1002
}
1002
{
1000
C
1070
     1
1002
}
1001
GENIUS_GENODEF_13
1002
{
1000
HIER
1070
     0
1002
}
1002
{
1000
MANEDIT
1070
     0
1002
}
1002
{
1000
NOSEL
1070
     0
1002
}
1002
{
1000
BEHIND
1070
     0
1002
}
1002
{
1000
REACTOR
1002
}
1001
GENIUS_GENOBJ-N-REC_13
1002
{
1000
OWNER
1000
GEN
1002
}
  0
LWPOLYLINE
  5
1DAE
330
1F
100
AcDbEntity
  8
SANINDUSA
100
AcDbPolyline
 90
        2
 70
     0
 43
0.0
 38
0.0000000001555553
 10
733.867510379003
 20
1088.27058386642
 10
733.8145103790029
 20
1088.27058386642
1001
GENIUS_GENREC_14
1002
{
1000
PYDIR
1011
733.5682281219239
1021
1088.364956176228
1031
0.0000000001555554
1002
}
1002
{
1000
PXDIR
1011
733.5152281219238
1021
1088.363956176228
1031
0.0000000001555554
1002
}
1002
{
1000
PORI
1011
733.5682281219239
1021
1088.363956176228
1031
0.0000000001555554
1002
}
1002
{
1000
PINS
1011
733.5682281219239
1021
1088.363956176228
1031
0.0000000001555554
1002
}
1002
{
1000
PINS2
1011
733.5152281219238
1021
1088.364956176228
1031
0.0000000001555554
1002
}
1002
{
1000
C
1070
     1
1002
}
1001
GENIUS_GENODEF_13
1002
{
1000
HIER
1070
     0
1002
}
1002
{
1000
MANEDIT
1070
     0
1002
}
1002
{
1000
NOSEL
1070
     0
1002
}
1002
{
1000
BEHIND
1070
     0
1002
}
1002
{
1000
REACTOR
1002
}
1001
GENIUS_GENOBJ-N-REC_13
1002
{
1000
OWNER
1000
GEN
1002
}
  0
LINE
  5
1DAF
330
1F
100
AcDbEntity
  8
SANINDUSA
100
AcDbLine
 10
733.8145103790029
 20
1088.27918386642
 30
0.0000000001555554
 11
733.867510379003
 21
1088.27918386642
 31
0.0000000001555554
  0
LWPOLYLINE
  5
1DB0
330
1F
100
AcDbEntity
  8
SANINDUSA
100
AcDbPolyline
 90
        4
 70
     1
 43
0.0
 38
0.0000000001555553
 10
733.867510379003
 20
1088.27898386642
 10
733.8145103790029
 20
1088.27898386642
 10
733.8145103790029
 20
1088.27798386642
 10
733.867510379003
 20
1088.27798386642
1001
GENIUS_GENREC_14
1002
{
1000
PYDIR
1011
733.5682281219239
1021
1088.365156176227
1031
0.0000000001555554
1002
}
1002
{
1000
PXDIR
1011
733.5152281219238
1021
1088.364156176227
1031
0.0000000001555554
1002
}
1002
{
1000
PORI
1011
733.5682281219239
1021
1088.364156176227
1031
0.0000000001555554
1002
}
1002
{
1000
PINS
1011
733.5682281219239
1021
1088.364156176227
1031
0.0000000001555554
1002
}
1002
{
1000
PINS2
1011
733.5152281219238
1021
1088.365156176227
1031
0.0000000001555554
1002
}
1002
{
1000
C
1070
     1
1002
}
1001
GENIUS_GENODEF_13
1002
{
1000
HIER
1070
     0
1002
}
1002
{
1000
MANEDIT
1070
     0
1002
}
1002
{
1000
NOSEL
1070
     0
1002
}
1002
{
1000
BEHIND
1070
     0
1002
}
1002
{
1000
REACTOR
1002
}
1001
GENIUS_GENOBJ-N-REC_13
1002
{
1000
OWNER
1000
GEN
1002
}
  0
LINE
  5
1DB1
330
1F
100
AcDbEntity
  8
SANINDUSA
100
AcDbLine
 10
733.8665103790029
 20
1088.28418386642
 30
0.0000000001555554
 11
733.8155103790029
 21
1088.28418386642
 31
0.0000000001555554
  0
LINE
  5
1DB2
330
1F
100
AcDbEntity
  8
SANINDUSA
100
AcDbLine
 10
733.808399267892
 20
1088.260383814126
 30
0.0000000001555554
 11
733.8665103790029
 21
1088.260383814126
 31
0.0000000001555554
  0
LINE
  5
1DB3
330
1F
100
AcDbEntity
  8
SANINDUSA
100
AcDbLine
 10
733.731510379003
 20
1088.27918386642
 30
0.0000000001555554
 11
733.731510379003
 21
1088.28318386642
 31
0.0000000001555554
  0
ARC
  5
1DB4
330
1F
100
AcDbEntity
  8
SANINDUSA
100
AcDbCircle
 10
733.7325103790029
 20
1088.28318386642
 30
0.0000000001555554
 40
0.001
100
AcDbArc
 50
90.0
 51
180.0
  0
LINE
  5
1DB5
330
1F
100
AcDbEntity
  8
SANINDUSA
100
AcDbLine
 10
733.731510379003
 20
1088.27148386642
 30
0.0000000001555554
 11
733.731510379003
 21
1088.27048386642
 31
0.0000000001555554
1001
GENIUS_GENREC_14
1002
{
1000
PYDIR
1011
733.867510379003
1021
1088.27148386642
1031
0.0000000001555554
1002
}
1002
{
1000
PXDIR
1011
733.8145103790029
1021
1088.27048386642
1031
0.0000000001555554
1002
}
1002
{
1000
PORI
1011
733.867510379003
1021
1088.27048386642
1031
0.0000000001555554
1002
}
1002
{
1000
PINS
1011
733.867510379003
1021
1088.27048386642
1031
0.0000000001555554
1002
}
1002
{
1000
PINS2
1011
733.8145103790029
1021
1088.27148386642
1031
0.0000000001555554
1002
}
1002
{
1000
C
1070
     1
1002
}
1001
GENIUS_GENODEF_13
1002
{
1000
HIER
1070
     0
1002
}
1002
{
1000
MANEDIT
1070
     0
1002
}
1002
{
1000
NOSEL
1070
     0
1002
}
1002
{
1000
BEHIND
1070
     0
1002
}
1002
{
1000
REACTOR
1002
}
1001
GENIUS_GENOBJ-N-REC_13
1002
{
1000
OWNER
1000
GEN
1002
}
  0
LINE
  5
1DB6
330
1F
100
AcDbEntity
  8
SANINDUSA
100
AcDbLine
 10
733.7315103790029
 20
1088.270383814126
 30
0.0000000001555554
 11
733.731510379003
 21
1088.261383814126
 31
0.0000000001555554
  0
ARC
  5
1DB7
330
1F
100
AcDbEntity
  8
SANINDUSA
100
AcDbCircle
 10
733.7325103790029
 20
1088.261383814126
 30
0.0000000001555554
 40
0.001
100
AcDbArc
 50
180.0
 51
270.0
  0
LINE
  5
1DBD
330
1F
100
AcDbEntity
  8
SANINDUSA
100
AcDbLine
 10
732.6334788055352
 20
1087.64631437032
 30
-0.0000000017937957
 11
732.5753676944242
 21
1087.64631437032
 31
-0.0000000017937957
  0
LINE
  5
1DBE
330
1F
100
AcDbEntity
  8
SANINDUSA
100
AcDbLine
 10
732.5753676944242
 20
1087.61131437032
 30
-0.0000000017937957
 11
732.6343676944242
 21
1087.61131437032
 31
-0.0000000017937957
  0
LINE
  5
1DBF
330
1F
100
AcDbEntity
  8
SANINDUSA
100
AcDbLine
 10
732.6353676944241
 20
1087.65281437032
 30
-0.0000000017937957
 11
732.6493676944241
 21
1087.65281437032
 31
-0.0000000017937957
  0
LINE
  5
1DC0
330
1F
100
AcDbEntity
  8
SANINDUSA
100
AcDbLine
 10
732.6343676944242
 20
1087.62681437032
 30
-0.0000000017937957
 11
732.6503676944241
 21
1087.62681437032
 31
-0.0000000017937957
  0
LINE
  5
1DC1
330
1F
100
AcDbEntity
  8
SANINDUSA
100
AcDbLine
 10
732.651256583313
 20
1087.63081437032
 30
-0.0000000017937957
 11
732.634367694424
 21
1087.63081437032
 31
-0.0000000017937957
  0
ARC
  5
1DC2
330
1F
100
AcDbEntity
  8
SANINDUSA
100
AcDbCircle
 10
732.6353676944241
 20
1087.65181437032
 30
-0.0000000017937957
 40
0.001
100
AcDbArc
 50
90.0
 51
180.0
  0
LINE
  5
1DC3
330
1F
100
AcDbEntity
  8
SANINDUSA
100
AcDbLine
 10
732.6343676944242
 20
1087.62681437032
 30
-0.0000000017937957
 11
732.6334788055352
 21
1087.62681437032
 31
-0.0000000017937957
  0
LINE
  5
1DC4
330
1F
100
AcDbEntity
  8
SANINDUSA
100
AcDbLine
 10
732.6348676944242
 20
1087.63081437032
 30
-0.0000000017937957
 11
732.6348676944242
 21
1087.62681437032
 31
-0.0000000017937957
  0
LINE
  5
1DC5
330
1F
100
AcDbEntity
  8
SANINDUSA
100
AcDbLine
 10
732.6334788055352
 20
1087.62681437032
 30
-0.0000000017937957
 11
732.6334788055352
 21
1087.64631437032
 31
-0.0000000017937957
  0
LINE
  5
1DC6
330
1F
100
AcDbEntity
  8
SANINDUSA
100
AcDbLine
 10
732.634367694424
 20
1087.63081437032
 30
-0.0000000017937957
 11
732.634367694424
 21
1087.65181437032
 31
-0.0000000017937957
  0
LINE
  5
1DC7
330
1F
100
AcDbEntity
  8
SANINDUSA
100
AcDbLine
 10
732.6493676944242
 20
1087.60481437032
 30
-0.0000000017937957
 11
732.6353676944242
 21
1087.60481437032
 31
-0.0000000017937957
  0
ARC
  5
1DC8
330
1F
100
AcDbEntity
  8
SANINDUSA
100
AcDbCircle
 10
732.6353676944242
 20
1087.60581437032
 30
-0.0000000017937957
 40
0.001
100
AcDbArc
 50
180.0
 51
270.0
  0
LINE
  5
1DC9
330
1F
100
AcDbEntity
  8
SANINDUSA
100
AcDbLine
 10
732.6343676944242
 20
1087.60581437032
 30
-0.0000000017937957
 11
732.6343676944242
 21
1087.62681437032
 31
-0.0000000017937957
  0
LINE
  5
1DCA
330
1F
100
AcDbEntity
  8
SANINDUSA
100
AcDbLine
 10
732.6498676944241
 20
1087.63081437032
 30
-0.0000000017937957
 11
732.6498676944241
 21
1087.62681437032
 31
-0.0000000017937957
  0
LINE
  5
1DCB
330
1F
100
AcDbEntity
  8
SANINDUSA
100
AcDbLine
 10
732.650367694424
 20
1087.65181437032
 30
-0.0000000017937957
 11
732.650367694424
 21
1087.64631437032
 31
-0.0000000017937957
  0
LINE
  5
1DCC
330
1F
100
AcDbEntity
  8
SANINDUSA
100
AcDbLine
 10
732.650367694424
 20
1087.64631437032
 30
-0.0000000017937957
 11
732.650367694424
 21
1087.63081437032
 31
-0.0000000017937957
  0
ARC
  5
1DCD
330
1F
100
AcDbEntity
  8
SANINDUSA
100
AcDbCircle
 10
732.6493676944241
 20
1087.65181437032
 30
-0.0000000017937957
 40
0.001
100
AcDbArc
 50
0.0
 51
90.0
  0
ARC
  5
1DCE
330
1F
100
AcDbEntity
  8
SANINDUSA
100
AcDbCircle
 10
732.709367694424
 20
1087.64531437032
 30
-0.0000000017937957
 40
0.001
100
AcDbArc
 50
0.0
 51
90.0
  0
LINE
  5
1DCF
330
1F
100
AcDbEntity
  8
SANINDUSA
100
AcDbLine
 10
732.650367694424
 20
1087.64631437032
 30
-0.0000000017937957
 11
732.709367694424
 21
1087.64631437032
 31
-0.0000000017937957
  0
ARC
  5
1DD0
330
1F
100
AcDbEntity
  8
SANINDUSA
100
AcDbCircle
 10
732.6493676944242
 20
1087.60581437032
 30
-0.0000000017937957
 40
0.001
100
AcDbArc
 50
270.0
 51
0.0
  0
ARC
  5
1DD1
330
1F
100
AcDbEntity
  8
SANINDUSA
100
AcDbCircle
 10
732.709367694424
 20
1087.61231437032
 30
-0.0000000017937957
 40
0.001
100
AcDbArc
 50
270.0
 51
0.0
  0
LINE
  5
1DD2
330
1F
100
AcDbEntity
  8
SANINDUSA
100
AcDbLine
 10
732.709367694424
 20
1087.61131437032
 30
-0.0000000017937957
 11
732.651256583313
 21
1087.61131437032
 31
-0.0000000017937957
  0
LINE
  5
1DD3
330
1F
100
AcDbEntity
  8
SANINDUSA
100
AcDbLine
 10
732.7103676944241
 20
1087.64531437032
 30
-0.0000000017937957
 11
732.7103676944241
 21
1087.61231437032
 31
-0.0000000017937957
  0
LINE
  5
1DD4
330
1F
100
AcDbEntity
  8
SANINDUSA
100
AcDbLine
 10
732.651256583313
 20
1087.61131437032
 30
-0.0000000017937957
 11
732.651256583313
 21
1087.63081437032
 31
-0.0000000017937957
  0
LINE
  5
1DD5
330
1F
100
AcDbEntity
  8
SANINDUSA
100
AcDbLine
 10
732.6503676944241
 20
1087.62681437032
 30
-0.0000000017937957
 11
732.6503676944241
 21
1087.60581437032
 31
-0.0000000017937957
  0
ARC
  5
1DD6
330
1F
100
AcDbEntity
  8
SANINDUSA
100
AcDbCircle
 10
732.5753676944242
 20
1087.64531437032
 30
-0.0000000017937957
 40
0.001
100
AcDbArc
 50
90.0
 51
180.0
  0
ARC
  5
1DD7
330
1F
100
AcDbEntity
  8
SANINDUSA
100
AcDbCircle
 10
732.5753676944242
 20
1087.61231437032
 30
-0.0000000017937957
 40
0.001
100
AcDbArc
 50
180.0
 51
270.0
  0
LINE
  5
1DD8
330
1F
100
AcDbEntity
  8
SANINDUSA
100
AcDbLine
 10
732.5743676944242
 20
1087.64531437032
 30
-0.0000000017937957
 11
732.5743676944242
 21
1087.61231437032
 31
-0.0000000017937957
  0
LINE
  5
1DDA
330
1F
100
AcDbEntity
  8
SANINDUSA
100
AcDbLine
 10
732.6334788055352
 20
1088.90631437031
 30
-0.0000000017937957
 11
732.5753676944242
 21
1088.90631437031
 31
-0.0000000017937957
  0
LINE
  5
1DDB
330
1F
100
AcDbEntity
  8
SANINDUSA
100
AcDbLine
 10
732.5753676944242
 20
1088.87131437031
 30
-0.0000000017937957
 11
732.6343676944242
 21
1088.87131437031
 31
-0.0000000017937957
  0
LINE
  5
1DDC
330
1F
100
AcDbEntity
  8
SANINDUSA
100
AcDbLine
 10
732.6353676944241
 20
1088.91281437031
 30
-0.0000000017937957
 11
732.6493676944241
 21
1088.91281437031
 31
-0.0000000017937957
  0
LINE
  5
1DDD
330
1F
100
AcDbEntity
  8
SANINDUSA
100
AcDbLine
 10
732.6343676944242
 20
1088.88681437031
 30
-0.0000000017937957
 11
732.6503676944241
 21
1088.88681437031
 31
-0.0000000017937957
  0
LINE
  5
1DDE
330
1F
100
AcDbEntity
  8
SANINDUSA
100
AcDbLine
 10
732.651256583313
 20
1088.89081437031
 30
-0.0000000017937957
 11
732.634367694424
 21
1088.89081437031
 31
-0.0000000017937957
  0
ARC
  5
1DDF
330
1F
100
AcDbEntity
  8
SANINDUSA
100
AcDbCircle
 10
732.6353676944241
 20
1088.91181437031
 30
-0.0000000017937957
 40
0.001
100
AcDbArc
 50
90.0
 51
180.0
  0
LINE
  5
1DE0
330
1F
100
AcDbEntity
  8
SANINDUSA
100
AcDbLine
 10
732.6343676944242
 20
1088.88681437031
 30
-0.0000000017937957
 11
732.6334788055352
 21
1088.88681437031
 31
-0.0000000017937957
  0
LINE
  5
1DE1
330
1F
100
AcDbEntity
  8
SANINDUSA
100
AcDbLine
 10
732.6348676944242
 20
1088.89081437031
 30
-0.0000000017937957
 11
732.6348676944242
 21
1088.88681437031
 31
-0.0000000017937957
  0
LINE
  5
1DE2
330
1F
100
AcDbEntity
  8
SANINDUSA
100
AcDbLine
 10
732.6334788055352
 20
1088.88681437031
 30
-0.0000000017937957
 11
732.6334788055352
 21
1088.90631437031
 31
-0.0000000017937957
  0
LINE
  5
1DE3
330
1F
100
AcDbEntity
  8
SANINDUSA
100
AcDbLine
 10
732.634367694424
 20
1088.89081437031
 30
-0.0000000017937957
 11
732.634367694424
 21
1088.91181437031
 31
-0.0000000017937957
  0
LINE
  5
1DE4
330
1F
100
AcDbEntity
  8
SANINDUSA
100
AcDbLine
 10
732.6493676944242
 20
1088.86481437031
 30
-0.0000000017937957
 11
732.6353676944242
 21
1088.86481437031
 31
-0.0000000017937957
  0
ARC
  5
1DE5
330
1F
100
AcDbEntity
  8
SANINDUSA
100
AcDbCircle
 10
732.6353676944242
 20
1088.86581437031
 30
-0.0000000017937957
 40
0.001
100
AcDbArc
 50
180.0
 51
270.0
  0
LINE
  5
1DE6
330
1F
100
AcDbEntity
  8
SANINDUSA
100
AcDbLine
 10
732.6343676944242
 20
1088.86581437031
 30
-0.0000000017937957
 11
732.6343676944242
 21
1088.88681437031
 31
-0.0000000017937957
  0
LINE
  5
1DE7
330
1F
100
AcDbEntity
  8
SANINDUSA
100
AcDbLine
 10
732.6498676944241
 20
1088.89081437031
 30
-0.0000000017937957
 11
732.6498676944241
 21
1088.88681437031
 31
-0.0000000017937957
  0
LINE
  5
1DE8
330
1F
100
AcDbEntity
  8
SANINDUSA
100
AcDbLine
 10
732.650367694424
 20
1088.91181437031
 30
-0.0000000017937957
 11
732.650367694424
 21
1088.90631437031
 31
-0.0000000017937957
  0
LINE
  5
1DE9
330
1F
100
AcDbEntity
  8
SANINDUSA
100
AcDbLine
 10
732.650367694424
 20
1088.90631437031
 30
-0.0000000017937957
 11
732.650367694424
 21
1088.89081437031
 31
-0.0000000017937957
  0
ARC
  5
1DEA
330
1F
100
AcDbEntity
  8
SANINDUSA
100
AcDbCircle
 10
732.6493676944241
 20
1088.91181437031
 30
-0.0000000017937957
 40
0.001
100
AcDbArc
 50
0.0
 51
90.0
  0
ARC
  5
1DEB
330
1F
100
AcDbEntity
  8
SANINDUSA
100
AcDbCircle
 10
732.709367694424
 20
1088.90531437031
 30
-0.0000000017937957
 40
0.001
100
AcDbArc
 50
0.0
 51
90.0
  0
LINE
  5
1DEC
330
1F
100
AcDbEntity
  8
SANINDUSA
100
AcDbLine
 10
732.650367694424
 20
1088.90631437031
 30
-0.0000000017937957
 11
732.709367694424
 21
1088.90631437031
 31
-0.0000000017937957
  0
ARC
  5
1DED
330
1F
100
AcDbEntity
  8
SANINDUSA
100
AcDbCircle
 10
732.6493676944242
 20
1088.86581437031
 30
-0.0000000017937957
 40
0.001
100
AcDbArc
 50
270.0
 51
0.0
  0
ARC
  5
1DEE
330
1F
100
AcDbEntity
  8
SANINDUSA
100
AcDbCircle
 10
732.709367694424
 20
1088.87231437031
 30
-0.0000000017937957
 40
0.001
100
AcDbArc
 50
270.0
 51
0.0
  0
LINE
  5
1DEF
330
1F
100
AcDbEntity
  8
SANINDUSA
100
AcDbLine
 10
732.709367694424
 20
1088.87131437031
 30
-0.0000000017937957
 11
732.651256583313
 21
1088.87131437031
 31
-0.0000000017937957
  0
LINE
  5
1DF0
330
1F
100
AcDbEntity
  8
SANINDUSA
100
AcDbLine
 10
732.7103676944241
 20
1088.90531437031
 30
-0.0000000017937957
 11
732.7103676944241
 21
1088.87231437031
 31
-0.0000000017937957
  0
LINE
  5
1DF1
330
1F
100
AcDbEntity
  8
SANINDUSA
100
AcDbLine
 10
732.651256583313
 20
1088.87131437031
 30
-0.0000000017937957
 11
732.651256583313
 21
1088.89081437031
 31
-0.0000000017937957
  0
LINE
  5
1DF2
330
1F
100
AcDbEntity
  8
SANINDUSA
100
AcDbLine
 10
732.6503676944241
 20
1088.88681437031
 30
-0.0000000017937957
 11
732.6503676944241
 21
1088.86581437031
 31
-0.0000000017937957
  0
ARC
  5
1DF3
330
1F
100
AcDbEntity
  8
SANINDUSA
100
AcDbCircle
 10
732.5753676944242
 20
1088.90531437031
 30
-0.0000000017937957
 40
0.001
100
AcDbArc
 50
90.0
 51
180.0
  0
ARC
  5
1DF4
330
1F
100
AcDbEntity
  8
SANINDUSA
100
AcDbCircle
 10
732.5753676944242
 20
1088.87231437031
 30
-0.0000000017937957
 40
0.001
100
AcDbArc
 50
180.0
 51
270.0
  0
LINE
  5
1DF5
330
1F
100
AcDbEntity
  8
SANINDUSA
100
AcDbLine
 10
732.5743676944242
 20
1088.90531437031
 30
-0.0000000017937957
 11
732.5743676944242
 21
1088.87231437031
 31
-0.0000000017937957
  0
LINE
  5
1DF6
330
1F
100
AcDbEntity
  8
SANINDUSA
100
AcDbLine
 10
733.2241363436401
 20
1087.34381437032
 30
0.0
 11
733.2241363436401
 21
1089.18381437032
 31
0.0
  0
LINE
  5
1DF7
330
1F
100
AcDbEntity
  8
SANINDUSA
100
AcDbLine
 10
733.2269363436401
 20
1087.33381437032
 30
0.0
 11
733.2269363436401
 21
1089.18381437032
 31
0.0
  0
LINE
  5
1DF8
330
1F
100
AcDbEntity
  8
SANINDUSA
100
AcDbLine
 10
732.6438676944241
 20
1087.65281437032
 30
0.0
 11
732.6438676944241
 21
1088.86481437031
 31
0.0
  0
LINE
  5
1DF9
330
1F
100
AcDbEntity
  8
SANINDUSA
100
AcDbLine
 10
732.640867694424
 20
1087.65281437032
 30
0.0
 11
732.640867694424
 21
1088.86481437031
 31
0.0
  0
LINE
  5
1DFB
330
1F
100
AcDbEntity
  8
SANINDUSA
100
AcDbLine
 10
732.3584876776903
 20
1087.33381437032
 30
0.0
 11
732.3584876776903
 21
1089.18381437032
 31
0.0
  0
LINE
  5
1DFC
330
1F
100
AcDbEntity
  8
SANINDUSA
100
AcDbLine
 10
732.3036376776903
 20
1087.33381437032
 30
0.0
 11
732.3036376776903
 21
1089.18381437032
 31
0.0
  0
LINE
  5
1DFD
330
1F
100
AcDbEntity
  8
SANINDUSA
100
AcDbLine
 10
733.2583073403765
 20
1087.34381437032
 30
0.0
 11
733.2583073403765
 21
1089.18381437032
 31
0.0
  0
LINE
  5
1DFE
330
1F
100
AcDbEntity
  8
SANINDUSA
100
AcDbLine
 10
733.289526893273
 20
1087.34381437032
 30
0.0
 11
733.289526893273
 21
1089.18381437032
 31
0.0
  0
LINE
  5
1DFF
330
1F
100
AcDbEntity
  8
SANINDUSA
100
AcDbLine
 10
733.295526893273
 20
1087.34381437032
 30
0.0
 11
733.295526893273
 21
1089.18381437032
 31
0.0
  0
LINE
  5
1E00
330
1F
100
AcDbEntity
  8
SANINDUSA
100
AcDbLine
 10
733.307826893273
 20
1087.33381437032
 30
0.0
 11
733.307826893273
 21
1089.18381437032
 31
0.0
  0
LINE
  5
1E01
330
1F
100
AcDbEntity
  8
SANINDUSA
100
AcDbLine
 10
733.2611073403764
 20
1087.33381437032
 30
0.0
 11
733.2611073403764
 21
1089.18381437032
 31
0.0
  0
LINE
  5
1E02
330
1F
100
AcDbEntity
  8
SANINDUSA
100
AcDbLine
 10
733.307826893273
 20
1087.33381437032
 30
0.0
 11
732.3036376776903
 21
1087.33381437032
 31
0.0
  0
LINE
  5
1E04
330
1F
100
AcDbEntity
  8
SANINDUSA
100
AcDbLine
 10
732.6438676944241
 20
1087.34381437032
 30
0.0
 11
733.2583073403765
 21
1087.34381437032
 31
0.0
  0
LINE
  5
1E08
330
1F
100
AcDbEntity
  8
SANINDUSA
100
AcDbLine
 10
733.289526893273
 20
1087.34381437032
 30
0.0
 11
733.295526893273
 21
1087.34381437032
 31
0.0
  0
LINE
  5
1E09
330
1F
100
AcDbEntity
  8
SANINDUSA
100
AcDbLine
 10
732.640867694424
 20
1087.33381437032
 30
0.0
 11
732.640867694424
 21
1087.60481437032
 31
0.0
  0
LINE
  5
1E0A
330
1F
100
AcDbEntity
  8
SANINDUSA
100
AcDbLine
 10
732.6438676944241
 20
1087.34381437032
 30
0.0
 11
732.6438676944241
 21
1087.60481437032
 31
0.0
  0
LINE
  5
1E0F
330
1F
100
AcDbEntity
  8
SANINDUSA
100
AcDbLine
 10
732.6438676944241
 20
1089.18381437032
 30
0.0
 11
733.307826893273
 21
1089.18381437032
 31
0.0
  0
LINE
  5
1E12
330
1F
100
AcDbEntity
  8
SANINDUSA
100
AcDbLine
 10
732.6438676944241
 20
1088.91281437031
 30
0.0
 11
732.6438676944241
 21
1089.18381437032
 31
0.0
  0
LINE
  5
1E13
330
1F
100
AcDbEntity
  8
SANINDUSA
100
AcDbLine
 10
732.640867694424
 20
1088.91281437031
 30
0.0
 11
732.640867694424
 21
1089.18381437032
 31
0.0
  0
LINE
  5
1F87
330
1F
100
AcDbEntity
  8
SANINDUSA
100
AcDbLine
 10
732.640867694424
 20
1089.18381437032
 30
0.0
 11
732.3036376776903
 21
1089.18381437032
 31
0.0
  0
ENDSEC
  0
SECTION
  2
OBJECTS
  0
DICTIONARY
  5
C
330
0
100
AcDbDictionary
281
     1
  3
ACAD_COLOR
350
1F63
  3
ACAD_GROUP
350
D
  3
ACAD_LAYOUT
350
1A
  3
ACAD_MATERIAL
350
1F36
  3
ACAD_MLEADERSTYLE
350
1F78
  3
ACAD_MLINESTYLE
350
17
  3
ACAD_PLOTSETTINGS
350
19
  3
ACAD_PLOTSTYLENAME
350
E
  3
ACAD_SCALELIST
350
1F66
  3
ACAD_TABLESTYLE
350
1F64
  3
ACAD_VISUALSTYLE
350
1F4F
  3
ACDB_RECOMPOSE_DATA
350
200A
  3
AcDbVariableDictionary
350
3D
  3
ASE_INDEX_DICTIONARY
350
1594
  3
DWGPROPS
350
200B
  0
DICTIONARY
  5
1FA3
330
10
100
AcDbDictionary
280
     1
281
     1
  3
ADSK_XREC_LAYER_RECONCILED
360
1FA4
  0
DICTIONARY
  5
1FA5
330
2F
100
AcDbDictionary
280
     1
281
     1
  3
ADSK_XREC_LAYER_RECONCILED
360
1FA6
  0
DICTIONARY
  5
1FA7
330
30
100
AcDbDictionary
280
     1
281
     1
  3
ADSK_XREC_LAYER_RECONCILED
360
1FA8
  0
DICTIONARY
  5
1FA9
330
31
100
AcDbDictionary
280
     1
281
     1
  3
ADSK_XREC_LAYER_RECONCILED
360
1FAA
  0
DICTIONARY
  5
1FAB
330
32
100
AcDbDictionary
280
     1
281
     1
  3
ADSK_XREC_LAYER_RECONCILED
360
1FAC
  0
DICTIONARY
  5
1FAD
330
33
100
AcDbDictionary
280
     1
281
     1
  3
ADSK_XREC_LAYER_RECONCILED
360
1FAE
  0
DICTIONARY
  5
1FAF
330
34
100
AcDbDictionary
280
     1
281
     1
  3
ADSK_XREC_LAYER_RECONCILED
360
1FB0
  0
DICTIONARY
  5
1FB1
330
35
100
AcDbDictionary
280
     1
281
     1
  3
ADSK_XREC_LAYER_RECONCILED
360
1FB2
  0
DICTIONARY
  5
1FB3
330
36
100
AcDbDictionary
280
     1
281
     1
  3
ADSK_XREC_LAYER_RECONCILED
360
1FB4
  0
DICTIONARY
  5
1FB5
330
37
100
AcDbDictionary
280
     1
281
     1
  3
ADSK_XREC_LAYER_RECONCILED
360
1FB6
  0
DICTIONARY
  5
1FB7
330
5D6
100
AcDbDictionary
280
     1
281
     1
  3
ADSK_XREC_LAYER_RECONCILED
360
1FB8
  0
DICTIONARY
  5
1FB9
330
8AF
100
AcDbDictionary
280
     1
281
     1
  3
ADSK_XREC_LAYER_RECONCILED
360
1FBA
  0
DICTIONARY
  5
1FBB
330
8F8
100
AcDbDictionary
280
     1
281
     1
  3
ADSK_XREC_LAYER_RECONCILED
360
1FBC
  0
DICTIONARY
  5
1FBD
330
91D
100
AcDbDictionary
280
     1
281
     1
  3
ADSK_XREC_LAYER_RECONCILED
360
1FBE
  0
DICTIONARY
  5
1FBF
330
C17
100
AcDbDictionary
280
     1
281
     1
  3
ADSK_XREC_LAYER_RECONCILED
360
1FC0
  0
DICTIONARY
  5
1FC1
330
1FA2
100
AcDbDictionary
280
     1
281
     1
  3
ADSK_XREC_LAYER_RECONCILED
360
1FC2
  0
DICTIONARY
  5
2012
330
1F12
100
AcDbDictionary
280
     1
281
     1
  3
ACAD_MTEXT_RT
360
2013
  0
DICTIONARY
  5
1F63
102
{ACAD_REACTORS
330
C
102
}
330
C
100
AcDbDictionary
281
     1
  0
DICTIONARY
  5
D
102
{ACAD_REACTORS
330
C
102
}
330
C
100
AcDbDictionary
281
     1
  0
DICTIONARY
  5
1A
102
{ACAD_REACTORS
330
C
102
}
330
C
100
AcDbDictionary
281
     1
  3
Layout1
350
1E
  3
Layout2
350
26
  3
Model
350
22
  0
DICTIONARY
  5
1F36
102
{ACAD_REACTORS
330
C
102
}
330
C
100
AcDbDictionary
281
     1
  3
ByBlock
350
1F3F
  3
ByLayer
350
1F37
  3
Global
350
1F47
  0
DICTIONARY
  5
1F78
102
{ACAD_REACTORS
330
C
102
}
330
C
100
AcDbDictionary
281
     1
  3
Standard
350
1F79
  0
DICTIONARY
  5
17
102
{ACAD_REACTORS
330
C
102
}
330
C
100
AcDbDictionary
281
     1
  3
Standard
350
18
  0
DICTIONARY
  5
19
102
{ACAD_REACTORS
330
C
102
}
330
C
100
AcDbDictionary
281
     1
  0
ACDBDICTIONARYWDFLT
  5
E
102
{ACAD_REACTORS
330
C
102
}
330
C
100
AcDbDictionary
281
     1
  3
Normal
350
F
100
AcDbDictionaryWithDefault
340
F
  0
DICTIONARY
  5
1F66
102
{ACAD_REACTORS
330
C
102
}
330
C
100
AcDbDictionary
281
     1
  3
A0
350
1F67
  3
A1
350
1F68
  3
A2
350
1F69
  3
A3
350
1F6A
  3
A4
350
1F6B
  3
A5
350
1F6C
  3
A6
350
1F6D
  3
A7
350
1F6E
  3
A8
350
1F6F
  3
A9
350
1F70
  3
B0
350
1F71
  3
B1
350
1F72
  3
B2
350
1F73
  3
B3
350
1F74
  3
B4
350
1F75
  3
B5
350
1F76
  3
B6
350
1F77
  0
DICTIONARY
  5
1F64
102
{ACAD_REACTORS
330
C
102
}
330
C
100
AcDbDictionary
281
     1
  3
Standard
350
1F65
  0
DICTIONARY
  5
1F4F
102
{ACAD_REACTORS
330
C
102
}
330
C
100
AcDbDictionary
281
     1
  3
2dWireframe
350
1F55
  3
3D Hidden
350
1F57
  3
3dWireframe
350
1F56
  3
Basic
350
1F54
  3
Brighten
350
1F5B
  3
ColorChange
350
1F5F
  3
Conceptual
350
1F58
  3
Dim
350
1F5A
  3
EdgeColorOff
350
1F62
  3
Facepattern
350
1F5E
  3
Flat
350
1F50
  3
FlatWithEdges
350
1F51
  3
Gouraud
350
1F52
  3
GouraudWithEdges
350
1F53
  3
JitterOff
350
1F60
  3
Linepattern
350
1F5D
  3
OverhangOff
350
1F61
  3
Realistic
350
1F59
  3
Thicken
350
1F5C
  0
XRECORD
  5
200A
102
{ACAD_REACTORS
330
C
102
}
330
C
100
AcDbXrecord
280
     1
 90
        1
330
1F65
  0
DICTIONARY
  5
3D
102
{ACAD_REACTORS
330
C
102
}
330
C
100
AcDbDictionary
281
     1
  3
CANNOSCALE
350
2004
  3
CMLEADERSTYLE
350
2003
  3
CTABLESTYLE
350
2002
  3
DIMASSOC
350
3F
  3
HIDETEXT
350
3E
  3
INDEXCTL
350
2006
  3
SORTENTS
350
2005
  3
XCLIPFRAME
350
2007
  0
DICTIONARY
  5
1594
102
{ACAD_REACTORS
330
C
102
}
330
C
100
AcDbDictionary
281
     1
  3
ASEBlockHierarchyIndexRecord
350
1595
1001
DCO15
1040
1513344365.171
  0
XRECORD
  5
200B
102
{ACAD_REACTORS
330
C
102
}
330
C
100
AcDbXrecord
280
     1
  1
DWGPROPS COOKIE
  2

  3

  4

  6

  7

  8
Julio
  9

300
=
301
=
302
=
303
=
304
=
305
=
306
=
307
=
308
=
309
=
 40
0.0856184722222223
 41
2453318.800715417
 42
2455824.585658634
  1

 90
        0
  0
XRECORD
  5
1FA4
102
{ACAD_REACTORS
330
1FA3
102
}
330
1FA3
100
AcDbXrecord
280
     1
290
     1
  0
XRECORD
  5
1FA6
102
{ACAD_REACTORS
330
1FA5
102
}
330
1FA5
100
AcDbXrecord
280
     1
290
     1
  0
XRECORD
  5
1FA8
102
{ACAD_REACTORS
330
1FA7
102
}
330
1FA7
100
AcDbXrecord
280
     1
290
     1
  0
XRECORD
  5
1FAA
102
{ACAD_REACTORS
330
1FA9
102
}
330
1FA9
100
AcDbXrecord
280
     1
290
     1
  0
XRECORD
  5
1FAC
102
{ACAD_REACTORS
330
1FAB
102
}
330
1FAB
100
AcDbXrecord
280
     1
290
     1
  0
XRECORD
  5
1FAE
102
{ACAD_REACTORS
330
1FAD
102
}
330
1FAD
100
AcDbXrecord
280
     1
290
     1
  0
XRECORD
  5
1FB0
102
{ACAD_REACTORS
330
1FAF
102
}
330
1FAF
100
AcDbXrecord
280
     1
290
     1
  0
XRECORD
  5
1FB2
102
{ACAD_REACTORS
330
1FB1
102
}
330
1FB1
100
AcDbXrecord
280
     1
290
     1
  0
XRECORD
  5
1FB4
102
{ACAD_REACTORS
330
1FB3
102
}
330
1FB3
100
AcDbXrecord
280
     1
290
     1
  0
XRECORD
  5
1FB6
102
{ACAD_REACTORS
330
1FB5
102
}
330
1FB5
100
AcDbXrecord
280
     1
290
     1
  0
XRECORD
  5
1FB8
102
{ACAD_REACTORS
330
1FB7
102
}
330
1FB7
100
AcDbXrecord
280
     1
290
     1
  0
XRECORD
  5
1FBA
102
{ACAD_REACTORS
330
1FB9
102
}
330
1FB9
100
AcDbXrecord
280
     1
290
     1
  0
XRECORD
  5
1FBC
102
{ACAD_REACTORS
330
1FBB
102
}
330
1FBB
100
AcDbXrecord
280
     1
290
     1
  0
XRECORD
  5
1FBE
102
{ACAD_REACTORS
330
1FBD
102
}
330
1FBD
100
AcDbXrecord
280
     1
290
     1
  0
XRECORD
  5
1FC0
102
{ACAD_REACTORS
330
1FBF
102
}
330
1FBF
100
AcDbXrecord
280
     1
290
     1
  0
XRECORD
  5
1FC2
102
{ACAD_REACTORS
330
1FC1
102
}
330
1FC1
100
AcDbXrecord
280
     1
290
     1
  0
XRECORD
  5
2013
102
{ACAD_REACTORS
330
2012
102
}
330
2012
100
AcDbXrecord
280
     1
 40
3752.0
  1
90,0°
  0
LAYOUT
  5
1E
102
{ACAD_XDICTIONARY
360
200C
102
}
102
{ACAD_REACTORS
330
1A
102
}
330
1A
100
AcDbPlotSettings
  1

  2
Ploter HP500
  4

  6

 40
0.0
 41
0.0
 42
0.0
 43
0.0
 44
0.0
 45
0.0
 46
0.0
 47
0.0
 48
0.0
 49
0.0
140
0.0
141
0.0
142
1.0
143
1.0
 70
   688
 72
     0
 73
     0
 74
     5
  7
monochrome.ctb
 75
    16
147
1.0
148
0.0
149
0.0
100
AcDbLayout
  1
Layout1
 70
     1
 71
     1
 10
0.0
 20
0.0
 11
420.0
 21
297.0
 12
0.0
 22
0.0
 32
0.0
 14
1.000000000000000E+20
 24
1.000000000000000E+20
 34
1.000000000000000E+20
 15
-1.000000000000000E+20
 25
-1.000000000000000E+20
 35
-1.000000000000000E+20
146
0.0
 13
0.0
 23
0.0
 33
0.0
 16
1.0
 26
0.0
 36
0.0
 17
0.0
 27
1.0
 37
0.0
 76
     0
330
1B
  0
LAYOUT
  5
26
102
{ACAD_XDICTIONARY
360
2010
102
}
102
{ACAD_REACTORS
330
1A
102
}
330
1A
100
AcDbPlotSettings
  1

  2
Ploter HP500
  4

  6

 40
0.0
 41
0.0
 42
0.0
 43
0.0
 44
0.0
 45
0.0
 46
0.0
 47
0.0
 48
0.0
 49
0.0
140
0.0
141
0.0
142
1.0
143
1.0
 70
   688
 72
     0
 73
     0
 74
     5
  7
monochrome.ctb
 75
    16
147
1.0
148
0.0
149
0.0
100
AcDbLayout
  1
Layout2
 70
     1
 71
     2
 10
0.0
 20
0.0
 11
12.0
 21
9.0
 12
0.0
 22
0.0
 32
0.0
 14
0.0
 24
0.0
 34
0.0
 15
0.0
 25
0.0
 35
0.0
146
0.0
 13
0.0
 23
0.0
 33
0.0
 16
1.0
 26
0.0
 36
0.0
 17
0.0
 27
1.0
 37
0.0
 76
     0
330
23
  0
LAYOUT
  5
22
102
{ACAD_XDICTIONARY
360
200E
102
}
102
{ACAD_REACTORS
330
1A
102
}
330
1A
100
AcDbPlotSettings
  1

  2
Ploter HP500
  4
User268
  6

 40
4.995333194732666
 41
16.97565841674804
 42
4.995330810546875
 43
16.97567749023437
 44
209.9733276367187
 45
296.9259948730469
 46
0.0
 47
0.0
 48
0.0
 49
0.0
140
0.0
141
0.0
142
1.0
143
1.0
 70
 11952
 72
     1
 73
     1
 74
     0
  7

 75
     0
147
1.0
148
-427.5957866592534
149
7.362384574453926
100
AcDbLayout
  1
Model
 70
     1
 71
     0
 10
0.0
 20
0.0
 11
12.0
 21
9.0
 12
0.0
 22
0.0
 32
0.0
 14
0.0
 24
0.0
 34
0.0
 15
0.0
 25
0.0
 35
0.0
146
0.0
 13
0.0
 23
0.0
 33
0.0
 16
1.0
 26
0.0
 36
0.0
 17
0.0
 27
1.0
 37
0.0
 76
     0
330
1F
331
1F34
  0
MATERIAL
  5
1F3F
102
{ACAD_XDICTIONARY
360
1F40
102
}
102
{ACAD_REACTORS
330
1F36
102
}
330
1F36
100
AcDbMaterial
  1
ByBlock
 72
     0
 43
0.0008202099737533
 43
0.0
 43
0.0
 43
0.0
 43
0.0
 43
0.0008202099737533
 43
0.0
 43
0.0
 43
0.0
 43
0.0
 43
1.0
 43
0.0
 43
0.0
 43
0.0
 43
0.0
 43
1.0
 77
     0
 47
0.0008202099737533
 47
0.0
 47
0.0
 47
0.0
 47
0.0
 47
0.0008202099737533
 47
0.0
 47
0.0
 47
0.0
 47
0.0
 47
1.0
 47
0.0
 47
0.0
 47
0.0
 47
0.0
 47
1.0
171
     0
 49
0.0008202099737533
 49
0.0
 49
0.0
 49
0.0
 49
0.0
 49
0.0008202099737533
 49
0.0
 49
0.0
 49
0.0
 49
0.0
 49
1.0
 49
0.0
 49
0.0
 49
0.0
 49
0.0
 49
1.0
175
     0
142
0.0008202099737533
142
0.0
142
0.0
142
0.0
142
0.0
142
0.0008202099737533
142
0.0
142
0.0
142
0.0
142
0.0
142
1.0
142
0.0
142
0.0
142
0.0
142
0.0
142
1.0
179
     0
144
0.0008202099737533
144
0.0
144
0.0
144
0.0
144
0.0
144
0.0008202099737533
144
0.0
144
0.0
144
0.0
144
0.0
144
1.0
144
0.0
144
0.0
144
0.0
144
0.0
144
1.0
147
0.0008202099737533
147
0.0
147
0.0
147
0.0
147
0.0
147
0.0008202099737533
147
0.0
147
0.0
147
0.0
147
0.0
147
1.0
147
0.0
147
0.0
147
0.0
147
0.0
147
1.0
  0
MATERIAL
  5
1F37
102
{ACAD_XDICTIONARY
360
1F38
102
}
102
{ACAD_REACTORS
330
1F36
102
}
330
1F36
100
AcDbMaterial
  1
ByLayer
 72
     0
 43
0.0008202099737533
 43
0.0
 43
0.0
 43
0.0
 43
0.0
 43
0.0008202099737533
 43
0.0
 43
0.0
 43
0.0
 43
0.0
 43
1.0
 43
0.0
 43
0.0
 43
0.0
 43
0.0
 43
1.0
 77
     0
 47
0.0008202099737533
 47
0.0
 47
0.0
 47
0.0
 47
0.0
 47
0.0008202099737533
 47
0.0
 47
0.0
 47
0.0
 47
0.0
 47
1.0
 47
0.0
 47
0.0
 47
0.0
 47
0.0
 47
1.0
171
     0
 49
0.0008202099737533
 49
0.0
 49
0.0
 49
0.0
 49
0.0
 49
0.0008202099737533
 49
0.0
 49
0.0
 49
0.0
 49
0.0
 49
1.0
 49
0.0
 49
0.0
 49
0.0
 49
0.0
 49
1.0
175
     0
142
0.0008202099737533
142
0.0
142
0.0
142
0.0
142
0.0
142
0.0008202099737533
142
0.0
142
0.0
142
0.0
142
0.0
142
1.0
142
0.0
142
0.0
142
0.0
142
0.0
142
1.0
179
     0
144
0.0008202099737533
144
0.0
144
0.0
144
0.0
144
0.0
144
0.0008202099737533
144
0.0
144
0.0
144
0.0
144
0.0
144
1.0
144
0.0
144
0.0
144
0.0
144
0.0
144
1.0
147
0.0008202099737533
147
0.0
147
0.0
147
0.0
147
0.0
147
0.0008202099737533
147
0.0
147
0.0
147
0.0
147
0.0
147
1.0
147
0.0
147
0.0
147
0.0
147
0.0
147
1.0
  0
MATERIAL
  5
1F47
102
{ACAD_XDICTIONARY
360
1F48
102
}
102
{ACAD_REACTORS
330
1F36
102
}
330
1F36
100
AcDbMaterial
  1
Global
 72
     0
 43
0.0008202099737533
 43
0.0
 43
0.0
 43
0.0
 43
0.0
 43
0.0008202099737533
 43
0.0
 43
0.0
 43
0.0
 43
0.0
 43
1.0
 43
0.0
 43
0.0
 43
0.0
 43
0.0
 43
1.0
 77
     0
 47
0.0008202099737533
 47
0.0
 47
0.0
 47
0.0
 47
0.0
 47
0.0008202099737533
 47
0.0
 47
0.0
 47
0.0
 47
0.0
 47
1.0
 47
0.0
 47
0.0
 47
0.0
 47
0.0
 47
1.0
171
     0
 49
0.0008202099737533
 49
0.0
 49
0.0
 49
0.0
 49
0.0
 49
0.0008202099737533
 49
0.0
 49
0.0
 49
0.0
 49
0.0
 49
1.0
 49
0.0
 49
0.0
 49
0.0
 49
0.0
 49
1.0
175
     0
142
0.0008202099737533
142
0.0
142
0.0
142
0.0
142
0.0
142
0.0008202099737533
142
0.0
142
0.0
142
0.0
142
0.0
142
1.0
142
0.0
142
0.0
142
0.0
142
0.0
142
1.0
179
     0
144
0.0008202099737533
144
0.0
144
0.0
144
0.0
144
0.0
144
0.0008202099737533
144
0.0
144
0.0
144
0.0
144
0.0
144
1.0
144
0.0
144
0.0
144
0.0
144
0.0
144
1.0
147
0.0008202099737533
147
0.0
147
0.0
147
0.0
147
0.0
147
0.0008202099737533
147
0.0
147
0.0
147
0.0
147
0.0
147
1.0
147
0.0
147
0.0
147
0.0
147
0.0
147
1.0
  0
MLEADERSTYLE
  5
1F79
102
{ACAD_REACTORS
330
1F78
102
}
330
1F78
100
AcDbMLeaderStyle
170
     2
171
     1
172
     0
 90
        2
 40
0.0
 41
0.0
173
     1
 91
-1056964608
340
14
 92
       -2
290
     1
 42
2.0
291
     1
 43
0.36
  3
Standard
 44
4.0
300

342
11
174
     1
178
     6
175
     1
176
     0
 93
-1056964608
 45
4.0
292
     0
297
     0
 46
4.0
 94
-1056964608
 47
1.0
 49
1.0
140
1.0
293
     1
141
0.0
294
     1
177
     0
142
1.0
295
     0
296
     0
143
0.125
1001
ACAD_MLEADERVER
1070
     2
  0
MLINESTYLE
  5
18
102
{ACAD_REACTORS
330
17
102
}
330
17
100
AcDbMlineStyle
  2
STANDARD
 70
     0
  3

 62
   256
 51
90.0
 52
90.0
 71
     2
 49
0.5
 62
   256
  6
BYLAYER
 49
-0.5
 62
   256
  6
BYLAYER
  0
ACDBPLACEHOLDER
  5
F
102
{ACAD_REACTORS
330
E
102
}
330
E
  0
SCALE
  5
1F67
102
{ACAD_REACTORS
330
1F66
102
}
330
1F66
100
AcDbScale
 70
     0
300
1:1
140
1.0
141
1.0
290
     1
  0
SCALE
  5
1F68
102
{ACAD_REACTORS
330
1F66
102
}
330
1F66
100
AcDbScale
 70
     0
300
1:2
140
1.0
141
2.0
290
     0
  0
SCALE
  5
1F69
102
{ACAD_REACTORS
330
1F66
102
}
330
1F66
100
AcDbScale
 70
     0
300
1:4
140
1.0
141
4.0
290
     0
  0
SCALE
  5
1F6A
102
{ACAD_REACTORS
330
1F66
102
}
330
1F66
100
AcDbScale
 70
     0
300
1:5
140
1.0
141
5.0
290
     0
  0
SCALE
  5
1F6B
102
{ACAD_REACTORS
330
1F66
102
}
330
1F66
100
AcDbScale
 70
     0
300
1:8
140
1.0
141
8.0
290
     0
  0
SCALE
  5
1F6C
102
{ACAD_REACTORS
330
1F66
102
}
330
1F66
100
AcDbScale
 70
     0
300
1:10
140
1.0
141
10.0
290
     0
  0
SCALE
  5
1F6D
102
{ACAD_REACTORS
330
1F66
102
}
330
1F66
100
AcDbScale
 70
     0
300
1:16
140
1.0
141
16.0
290
     0
  0
SCALE
  5
1F6E
102
{ACAD_REACTORS
330
1F66
102
}
330
1F66
100
AcDbScale
 70
     0
300
1:20
140
1.0
141
20.0
290
     0
  0
SCALE
  5
1F6F
102
{ACAD_REACTORS
330
1F66
102
}
330
1F66
100
AcDbScale
 70
     0
300
1:30
140
1.0
141
30.0
290
     0
  0
SCALE
  5
1F70
102
{ACAD_REACTORS
330
1F66
102
}
330
1F66
100
AcDbScale
 70
     0
300
1:40
140
1.0
141
40.0
290
     0
  0
SCALE
  5
1F71
102
{ACAD_REACTORS
330
1F66
102
}
330
1F66
100
AcDbScale
 70
     0
300
1:50
140
1.0
141
50.0
290
     0
  0
SCALE
  5
1F72
102
{ACAD_REACTORS
330
1F66
102
}
330
1F66
100
AcDbScale
 70
     0
300
1:100
140
1.0
141
100.0
290
     0
  0
SCALE
  5
1F73
102
{ACAD_REACTORS
330
1F66
102
}
330
1F66
100
AcDbScale
 70
     0
300
2:1
140
2.0
141
1.0
290
     0
  0
SCALE
  5
1F74
102
{ACAD_REACTORS
330
1F66
102
}
330
1F66
100
AcDbScale
 70
     0
300
4:1
140
4.0
141
1.0
290
     0
  0
SCALE
  5
1F75
102
{ACAD_REACTORS
330
1F66
102
}
330
1F66
100
AcDbScale
 70
     0
300
8:1
140
8.0
141
1.0
290
     0
  0
SCALE
  5
1F76
102
{ACAD_REACTORS
330
1F66
102
}
330
1F66
100
AcDbScale
 70
     0
300
10:1
140
10.0
141
1.0
290
     0
  0
SCALE
  5
1F77
102
{ACAD_REACTORS
330
1F66
102
}
330
1F66
100
AcDbScale
 70
     0
300
100:1
140
100.0
141
1.0
290
     0
  0
TABLESTYLE
  5
1F65
102
{ACAD_XDICTIONARY
360
2008
102
}
102
{ACAD_REACTORS
330
1F64
102
}
330
1F64
100
AcDbTableStyle
  3
Standard
 70
     0
 71
     0
 40
1.5
 41
1.5
280
     0
281
     0
  7
Standard
140
4.5
170
     2
 62
     0
 63
     7
283
     0
274
    -2
284
     1
 64
     0
275
    -2
285
     1
 65
     0
276
    -2
286
     1
 66
     0
277
    -2
287
     1
 67
     0
278
    -2
288
     1
 68
     0
279
    -2
289
     1
 69
     0
  7
Standard
140
6.0
170
     5
 62
     0
 63
     7
283
     0
274
    -2
284
     1
 64
     0
275
    -2
285
     1
 65
     0
276
    -2
286
     1
 66
     0
277
    -2
287
     1
 67
     0
278
    -2
288
     1
 68
     0
279
    -2
289
     1
 69
     0
  7
Standard
140
4.5
170
     5
 62
     0
 63
     7
283
     0
274
    -2
284
     1
 64
     0
275
    -2
285
     1
 65
     0
276
    -2
286
     1
 66
     0
277
    -2
287
     1
 67
     0
278
    -2
288
     1
 68
     0
279
    -2
289
     1
 69
     0
  0
VISUALSTYLE
  5
1F55
102
{ACAD_XDICTIONARY
360
2021
102
}
102
{ACAD_REACTORS
330
1F4F
102
}
330
1F4F
100
AcDbVisualStyle
  2
2dWireframe
 70
     4
 71
     0
 72
     2
 73
     0
 90
        0
 40
-0.6
 41
-30.0
 62
     5
 63
     7
 74
     1
 91
        4
 64
     7
 65
   257
 75
     1
175
     1
 42
1.0
 92
        0
 66
   257
 43
1.0
 76
     1
 77
     6
 78
     2
 67
     7
 79
     5
170
     0
171
     0
290
     0
174
     0
 93
        1
 44
0.0
173
     0
291
     0
 45
0.0
1001
ACAD
1000
AcDbSavedByObjectVersion
1070
     0
  0
VISUALSTYLE
  5
1F57
102
{ACAD_XDICTIONARY
360
2025
102
}
102
{ACAD_REACTORS
330
1F4F
102
}
330
1F4F
100
AcDbVisualStyle
  2
3D Hidden
 70
     6
 71
     1
 72
     2
 73
     2
 90
        0
 40
-0.6
 41
-30.0
 62
     5
 63
     7
 74
     2
 91
        2
 64
     7
 65
   257
 75
     2
175
     1
 42
179.0
 92
        0
 66
   257
 43
1.0
 76
     1
 77
     6
 78
     2
 67
     7
 79
     3
170
     0
171
     0
290
     0
174
     0
 93
        1
 44
0.0
173
     0
291
     0
 45
0.0
1001
ACAD
1000
AcDbSavedByObjectVersion
1070
     0
  0
VISUALSTYLE
  5
1F56
102
{ACAD_XDICTIONARY
360
2023
102
}
102
{ACAD_REACTORS
330
1F4F
102
}
330
1F4F
100
AcDbVisualStyle
  2
3dWireframe
 70
     5
 71
     0
 72
     2
 73
     0
 90
        0
 40
-0.6
 41
-30.0
 62
     5
 63
     7
 74
     1
 91
        4
 64
     7
 65
   257
 75
     1
175
     1
 42
1.0
 92
        0
 66
   257
 43
1.0
 76
     1
 77
     6
 78
     2
 67
     7
 79
     5
170
     0
171
     0
290
     0
174
     0
 93
        1
 44
0.0
173
     0
291
     0
 45
0.0
1001
ACAD
1000
AcDbSavedByObjectVersion
1070
     0
  0
VISUALSTYLE
  5
1F54
102
{ACAD_XDICTIONARY
360
201F
102
}
102
{ACAD_REACTORS
330
1F4F
102
}
330
1F4F
100
AcDbVisualStyle
  2
Basic
 70
     7
 71
     1
 72
     0
 73
     1
 90
        0
 40
-0.6
 41
-30.0
 62
     5
 63
     7
 74
     0
 91
        4
 64
     7
 65
   257
 75
     1
175
     1
 42
1.0
 92
        8
 66
     7
 43
1.0
 76
     1
 77
     6
 78
     2
 67
     7
 79
     5
170
     0
171
     0
290
     0
174
     0
 93
        1
 44
0.0
173
     0
291
     1
 45
0.0
1001
ACAD
1000
AcDbSavedByObjectVersion
1070
     0
  0
VISUALSTYLE
  5
1F5B
102
{ACAD_XDICTIONARY
360
202D
102
}
102
{ACAD_REACTORS
330
1F4F
102
}
330
1F4F
100
AcDbVisualStyle
  2
Brighten
 70
    12
 71
     2
 72
     2
 73
     0
 90
        0
 40
-0.6
 41
-30.0
 62
     5
 63
     7
 74
     1
 91
        4
 64
     7
 65
   257
 75
     1
175
     1
 42
1.0
 92
        8
 66
     7
 43
1.0
 76
     1
 77
     6
 78
     2
 67
     7
 79
     5
170
     0
171
     0
290
     0
174
     0
 93
        1
 44
50.0
173
     0
291
     1
 45
0.0
1001
ACAD
1000
AcDbSavedByObjectVersion
1070
     0
  0
VISUALSTYLE
  5
1F5F
102
{ACAD_XDICTIONARY
360
2035
102
}
102
{ACAD_REACTORS
330
1F4F
102
}
330
1F4F
100
AcDbVisualStyle
  2
ColorChange
 70
    16
 71
     2
 72
     2
 73
     3
 90
        0
 40
-0.6
 41
-30.0
 62
     5
 63
     8
 74
     1
 91
        4
 64
     7
 65
   257
 75
     1
175
     1
 42
1.0
 92
        8
 66
     8
 43
1.0
 76
     1
 77
     6
 78
     2
 67
     7
 79
     5
170
     0
171
     0
290
     0
174
     0
 93
        1
 44
0.0
173
     0
291
     1
 45
0.0
1001
ACAD
1000
AcDbSavedByObjectVersion
1070
     0
  0
VISUALSTYLE
  5
1F58
102
{ACAD_XDICTIONARY
360
2027
102
}
102
{ACAD_REACTORS
330
1F4F
102
}
330
1F4F
100
AcDbVisualStyle
  2
Conceptual
 70
     9
 71
     3
 72
     2
 73
     0
 90
        0
 40
-0.6
 41
-30.0
 62
     5
 63
     7
 74
     2
 91
        2
 64
     7
 65
   257
 75
     1
175
     1
 42
179.0
 92
        8
 66
     7
 43
1.0
 76
     1
 77
     6
 78
     2
 67
     7
 79
     3
170
     0
171
     0
290
     0
174
     0
 93
        1
 44
0.0
173
     0
291
     0
 45
0.0
1001
ACAD
1000
AcDbSavedByObjectVersion
1070
     0
  0
VISUALSTYLE
  5
1F5A
102
{ACAD_XDICTIONARY
360
202B
102
}
102
{ACAD_REACTORS
330
1F4F
102
}
330
1F4F
100
AcDbVisualStyle
  2
Dim
 70
    11
 71
     2
 72
     2
 73
     0
 90
        0
 40
-0.6
 41
-30.0
 62
     5
 63
     7
 74
     1
 91
        4
 64
     7
 65
   257
 75
     1
175
     1
 42
1.0
 92
        8
 66
     7
 43
1.0
 76
     1
 77
     6
 78
     2
 67
     7
 79
     5
170
     0
171
     0
290
     0
174
     0
 93
        1
 44
-50.0
173
     0
291
     1
 45
0.0
1001
ACAD
1000
AcDbSavedByObjectVersion
1070
     0
  0
VISUALSTYLE
  5
1F62
102
{ACAD_XDICTIONARY
360
203B
102
}
102
{ACAD_REACTORS
330
1F4F
102
}
330
1F4F
100
AcDbVisualStyle
  2
EdgeColorOff
 70
    22
 71
     2
 72
     2
 73
     0
 90
        0
 40
-0.6
 41
-30.0
 62
     5
 63
     7
 74
     1
 91
        4
 64
     7
 65
   257
 75
     1
175
     1
 42
1.0
 92
        8
 66
     7
 43
1.0
 76
     1
 77
     6
 78
     2
 67
     7
 79
     5
170
     0
171
     0
290
     0
174
     0
 93
        1
 44
0.0
173
     0
291
     1
 45
0.0
1001
ACAD
1000
AcDbSavedByObjectVersion
1070
     0
  0
VISUALSTYLE
  5
1F5E
102
{ACAD_XDICTIONARY
360
2033
102
}
102
{ACAD_REACTORS
330
1F4F
102
}
330
1F4F
100
AcDbVisualStyle
  2
Facepattern
 70
    15
 71
     2
 72
     2
 73
     0
 90
        0
 40
-0.6
 41
-30.0
 62
     5
 63
     7
 74
     1
 91
        4
 64
     7
 65
   257
 75
     1
175
     1
 42
1.0
 92
        8
 66
     7
 43
1.0
 76
     1
 77
     6
 78
     2
 67
     7
 79
     5
170
     0
171
     0
290
     0
174
     0
 93
        1
 44
0.0
173
     0
291
     1
 45
0.0
1001
ACAD
1000
AcDbSavedByObjectVersion
1070
     0
  0
VISUALSTYLE
  5
1F50
102
{ACAD_XDICTIONARY
360
2017
102
}
102
{ACAD_REACTORS
330
1F4F
102
}
330
1F4F
100
AcDbVisualStyle
  2
Flat
 70
     0
 71
     2
 72
     1
 73
     1
 90
        2
 40
-0.6
 41
30.0
 62
     5
 63
     7
 74
     0
 91
        4
 64
     7
 65
   257
 75
     1
175
     1
 42
1.0
 92
        8
 66
     7
 43
1.0
 76
     1
 77
     6
 78
     2
 67
     7
 79
     5
170
     0
171
     0
290
     0
174
     0
 93
       13
 44
0.0
173
     0
291
     1
 45
0.0
1001
ACAD
1000
AcDbSavedByObjectVersion
1070
     0
  0
VISUALSTYLE
  5
1F51
102
{ACAD_XDICTIONARY
360
2019
102
}
102
{ACAD_REACTORS
330
1F4F
102
}
330
1F4F
100
AcDbVisualStyle
  2
FlatWithEdges
 70
     1
 71
     2
 72
     1
 73
     1
 90
        2
 40
-0.6
 41
30.0
 62
     5
 63
     7
 74
     1
 91
        4
 64
     7
 65
   257
 75
     1
175
     1
 42
1.0
 92
        0
 66
   257
 43
1.0
 76
     1
 77
     6
 78
     2
 67
     7
 79
     5
170
     0
171
     0
290
     0
174
     0
 93
       13
 44
0.0
173
     0
291
     1
 45
0.0
1001
ACAD
1000
AcDbSavedByObjectVersion
1070
     0
  0
VISUALSTYLE
  5
1F52
102
{ACAD_XDICTIONARY
360
201B
102
}
102
{ACAD_REACTORS
330
1F4F
102
}
330
1F4F
100
AcDbVisualStyle
  2
Gouraud
 70
     2
 71
     2
 72
     2
 73
     1
 90
        2
 40
-0.6
 41
30.0
 62
     5
 63
     7
 74
     0
 91
        4
 64
     7
 65
   257
 75
     1
175
     1
 42
1.0
 92
        0
 66
     7
 43
1.0
 76
     1
 77
     6
 78
     2
 67
     7
 79
     5
170
     0
171
     0
290
     0
174
     0
 93
       13
 44
0.0
173
     0
291
     1
 45
0.0
1001
ACAD
1000
AcDbSavedByObjectVersion
1070
     0
  0
VISUALSTYLE
  5
1F53
102
{ACAD_XDICTIONARY
360
201D
102
}
102
{ACAD_REACTORS
330
1F4F
102
}
330
1F4F
100
AcDbVisualStyle
  2
GouraudWithEdges
 70
     3
 71
     2
 72
     2
 73
     1
 90
        2
 40
-0.6
 41
30.0
 62
     5
 63
     7
 74
     1
 91
        4
 64
     7
 65
   257
 75
     1
175
     1
 42
1.0
 92
        0
 66
   257
 43
1.0
 76
     1
 77
     6
 78
     2
 67
     7
 79
     5
170
     0
171
     0
290
     0
174
     0
 93
       13
 44
0.0
173
     0
291
     1
 45
0.0
1001
ACAD
1000
AcDbSavedByObjectVersion
1070
     0
  0
VISUALSTYLE
  5
1F60
102
{ACAD_XDICTIONARY
360
2037
102
}
102
{ACAD_REACTORS
330
1F4F
102
}
330
1F4F
100
AcDbVisualStyle
  2
JitterOff
 70
    20
 71
     2
 72
     2
 73
     0
 90
        0
 40
-0.6
 41
-30.0
 62
     5
 63
     7
 74
     1
 91
        4
 64
     7
 65
   257
 75
     1
175
     1
 42
1.0
 92
       10
 66
     7
 43
1.0
 76
     1
 77
     6
 78
     2
 67
     7
 79
     5
170
     0
171
     0
290
     0
174
     0
 93
        1
 44
0.0
173
     0
291
     1
 45
0.0
1001
ACAD
1000
AcDbSavedByObjectVersion
1070
     0
  0
VISUALSTYLE
  5
1F5D
102
{ACAD_XDICTIONARY
360
2031
102
}
102
{ACAD_REACTORS
330
1F4F
102
}
330
1F4F
100
AcDbVisualStyle
  2
Linepattern
 70
    14
 71
     2
 72
     2
 73
     0
 90
        0
 40
-0.6
 41
-30.0
 62
     5
 63
     7
 74
     1
 91
        4
 64
     7
 65
   257
 75
     7
175
     7
 42
1.0
 92
        8
 66
     7
 43
1.0
 76
     1
 77
     6
 78
     2
 67
     7
 79
     5
170
     0
171
     0
290
     0
174
     0
 93
        1
 44
0.0
173
     0
291
     1
 45
0.0
1001
ACAD
1000
AcDbSavedByObjectVersion
1070
     0
  0
VISUALSTYLE
  5
1F61
102
{ACAD_XDICTIONARY
360
2039
102
}
102
{ACAD_REACTORS
330
1F4F
102
}
330
1F4F
100
AcDbVisualStyle
  2
OverhangOff
 70
    21
 71
     2
 72
     2
 73
     0
 90
        0
 40
-0.6
 41
-30.0
 62
     5
 63
     7
 74
     1
 91
        4
 64
     7
 65
   257
 75
     1
175
     1
 42
1.0
 92
        9
 66
     7
 43
1.0
 76
     1
 77
     6
 78
     2
 67
     7
 79
     5
170
     0
171
     0
290
     0
174
     0
 93
        1
 44
0.0
173
     0
291
     1
 45
0.0
1001
ACAD
1000
AcDbSavedByObjectVersion
1070
     0
  0
VISUALSTYLE
  5
1F59
102
{ACAD_XDICTIONARY
360
2029
102
}
102
{ACAD_REACTORS
330
1F4F
102
}
330
1F4F
100
AcDbVisualStyle
  2
Realistic
 70
     8
 71
     2
 72
     2
 73
     0
 90
        0
 40
-0.6
 41
-30.0
 62
     5
 63
     7
 74
     1
 91
        0
 64
     7
 65
   257
 75
     1
175
     1
 42
1.0
 92
        8
 66
     8
 43
1.0
 76
     1
 77
     6
 78
     2
 67
     7
 79
     5
170
     0
171
     0
290
     0
174
     0
 93
       13
 44
0.0
173
     0
291
     0
 45
0.0
1001
ACAD
1000
AcDbSavedByObjectVersion
1070
     0
  0
VISUALSTYLE
  5
1F5C
102
{ACAD_XDICTIONARY
360
202F
102
}
102
{ACAD_REACTORS
330
1F4F
102
}
330
1F4F
100
AcDbVisualStyle
  2
Thicken
 70
    13
 71
     2
 72
     2
 73
     0
 90
        0
 40
-0.6
 41
-30.0
 62
     5
 63
     7
 74
     1
 91
        4
 64
     7
 65
   257
 75
     1
175
     1
 42
1.0
 92
       12
 66
     7
 43
1.0
 76
     1
 77
     6
 78
     2
 67
     7
 79
     5
170
     0
171
     0
290
     0
174
     0
 93
        1
 44
0.0
173
     0
291
     1
 45
0.0
1001
ACAD
1000
AcDbSavedByObjectVersion
1070
     0
  0
DICTIONARYVAR
  5
2004
102
{ACAD_REACTORS
330
3D
102
}
330
3D
100
DictionaryVariables
280
     0
  1
1:1
  0
DICTIONARYVAR
  5
2003
102
{ACAD_REACTORS
330
3D
102
}
330
3D
100
DictionaryVariables
280
     0
  1
STANDARD
  0
DICTIONARYVAR
  5
2002
102
{ACAD_REACTORS
330
3D
102
}
330
3D
100
DictionaryVariables
280
     0
  1
STANDARD
  0
DICTIONARYVAR
  5
3F
102
{ACAD_REACTORS
330
3D
102
}
330
3D
100
DictionaryVariables
280
     0
  1
2
  0
DICTIONARYVAR
  5
3E
102
{ACAD_REACTORS
330
3D
102
}
330
3D
100
DictionaryVariables
280
     0
  1
1
  0
DICTIONARYVAR
  5
2006
102
{ACAD_REACTORS
330
3D
102
}
330
3D
100
DictionaryVariables
280
     0
  1
0
  0
DICTIONARYVAR
  5
2005
102
{ACAD_REACTORS
330
3D
102
}
330
3D
100
DictionaryVariables
280
     0
  1
127
  0
DICTIONARYVAR
  5
2007
102
{ACAD_REACTORS
330
3D
102
}
330
3D
100
DictionaryVariables
280
     0
  1
2
  0
XRECORD
  5
1595
102
{ACAD_REACTORS
330
1594
102
}
330
1594
100
AcDbXrecord
280
     1
330
0
  0
DICTIONARY
  5
200C
330
1E
100
AcDbDictionary
280
     1
281
     1
  3
ACAD_XREC_ROUNDTRIP
360
200D
  0
DICTIONARY
  5
2010
330
26
100
AcDbDictionary
280
     1
281
     1
  3
ACAD_XREC_ROUNDTRIP
360
2011
  0
DICTIONARY
  5
200E
330
22
100
AcDbDictionary
280
     1
281
     1
  3
ACAD_XREC_ROUNDTRIP
360
200F
  0
DICTIONARY
  5
1F40
330
1F3F
100
AcDbDictionary
280
     1
281
     1
  3
ACAD_XREC_ROUNDTRIP
360
2015
  3
BUMPTILE
360
1F42
  3
DIFFUSETILE
360
1F41
  3
OPACITYTILE
360
1F45
  3
REFLECTIONTILE
360
1F44
  3
REFRACTIONTILE
360
1F46
  3
SPECULARTILE
360
1F43
  0
DICTIONARY
  5
1F38
330
1F37
100
AcDbDictionary
280
     1
281
     1
  3
ACAD_XREC_ROUNDTRIP
360
2014
  3
BUMPTILE
360
1F3A
  3
DIFFUSETILE
360
1F39
  3
OPACITYTILE
360
1F3D
  3
REFLECTIONTILE
360
1F3C
  3
REFRACTIONTILE
360
1F3E
  3
SPECULARTILE
360
1F3B
  0
DICTIONARY
  5
1F48
330
1F47
100
AcDbDictionary
280
     1
281
     1
  3
ACAD_XREC_ROUNDTRIP
360
2016
  3
BUMPTILE
360
1F4A
  3
DIFFUSETILE
360
1F49
  3
OPACITYTILE
360
1F4D
  3
REFLECTIONTILE
360
1F4C
  3
REFRACTIONTILE
360
1F4E
  3
SPECULARTILE
360
1F4B
  0
DICTIONARY
  5
2008
330
1F65
100
AcDbDictionary
280
     1
281
     1
  3
ACAD_ROUNDTRIP_2008_TABLESTYLE_CELLSTYLEMAP
360
2009
  3
ACAD_XREC_ROUNDTRIP
360
203D
  0
DICTIONARY
  5
2021
330
1F55
100
AcDbDictionary
280
     1
281
     1
  3
ACAD_XREC_ROUNDTRIP
360
2022
  0
DICTIONARY
  5
2025
330
1F57
100
AcDbDictionary
280
     1
281
     1
  3
ACAD_XREC_ROUNDTRIP
360
2026
  0
DICTIONARY
  5
2023
330
1F56
100
AcDbDictionary
280
     1
281
     1
  3
ACAD_XREC_ROUNDTRIP
360
2024
  0
DICTIONARY
  5
201F
330
1F54
100
AcDbDictionary
280
     1
281
     1
  3
ACAD_XREC_ROUNDTRIP
360
2020
  0
DICTIONARY
  5
202D
330
1F5B
100
AcDbDictionary
280
     1
281
     1
  3
ACAD_XREC_ROUNDTRIP
360
202E
  0
DICTIONARY
  5
2035
330
1F5F
100
AcDbDictionary
280
     1
281
     1
  3
ACAD_XREC_ROUNDTRIP
360
2036
  0
DICTIONARY
  5
2027
330
1F58
100
AcDbDictionary
280
     1
281
     1
  3
ACAD_XREC_ROUNDTRIP
360
2028
  0
DICTIONARY
  5
202B
330
1F5A
100
AcDbDictionary
280
     1
281
     1
  3
ACAD_XREC_ROUNDTRIP
360
202C
  0
DICTIONARY
  5
203B
330
1F62
100
AcDbDictionary
280
     1
281
     1
  3
ACAD_XREC_ROUNDTRIP
360
203C
  0
DICTIONARY
  5
2033
330
1F5E
100
AcDbDictionary
280
     1
281
     1
  3
ACAD_XREC_ROUNDTRIP
360
2034
  0
DICTIONARY
  5
2017
330
1F50
100
AcDbDictionary
280
     1
281
     1
  3
ACAD_XREC_ROUNDTRIP
360
2018
  0
DICTIONARY
  5
2019
330
1F51
100
AcDbDictionary
280
     1
281
     1
  3
ACAD_XREC_ROUNDTRIP
360
201A
  0
DICTIONARY
  5
201B
330
1F52
100
AcDbDictionary
280
     1
281
     1
  3
ACAD_XREC_ROUNDTRIP
360
201C
  0
DICTIONARY
  5
201D
330
1F53
100
AcDbDictionary
280
     1
281
     1
  3
ACAD_XREC_ROUNDTRIP
360
201E
  0
DICTIONARY
  5
2037
330
1F60
100
AcDbDictionary
280
     1
281
     1
  3
ACAD_XREC_ROUNDTRIP
360
2038
  0
DICTIONARY
  5
2031
330
1F5D
100
AcDbDictionary
280
     1
281
     1
  3
ACAD_XREC_ROUNDTRIP
360
2032
  0
DICTIONARY
  5
2039
330
1F61
100
AcDbDictionary
280
     1
281
     1
  3
ACAD_XREC_ROUNDTRIP
360
203A
  0
DICTIONARY
  5
2029
330
1F59
100
AcDbDictionary
280
     1
281
     1
  3
ACAD_XREC_ROUNDTRIP
360
202A
  0
DICTIONARY
  5
202F
330
1F5C
100
AcDbDictionary
280
     1
281
     1
  3
ACAD_XREC_ROUNDTRIP
360
2030
  0
XRECORD
  5
200D
102
{ACAD_REACTORS
330
200C
102
}
330
200C
100
AcDbXrecord
280
     1
102
SHADEPLOT
 70
     0
102
SHADEPLOTRESLEVEL
 70
     2
102
SHADEPLOTCUSTOMDPI
 70
   300
  0
XRECORD
  5
2011
102
{ACAD_REACTORS
330
2010
102
}
330
2010
100
AcDbXrecord
280
     1
102
SHADEPLOT
 70
     0
102
SHADEPLOTRESLEVEL
 70
     2
102
SHADEPLOTCUSTOMDPI
 70
   300
  0
XRECORD
  5
200F
102
{ACAD_REACTORS
330
200E
102
}
330
200E
100
AcDbXrecord
280
     1
102
SHADEPLOT
 70
     0
102
SHADEPLOTRESLEVEL
 70
     2
102
SHADEPLOTCUSTOMDPI
 70
   300
  0
XRECORD
  5
2015
102
{ACAD_REACTORS
330
1F40
102
}
330
1F40
100
AcDbXrecord
280
     1
102
MATERIAL
148
0.0
149
0.0
149
0.0
 93
        0
 94
      127
282
     0
 72
     0
 77
     0
171
     0
175
     0
179
     0
273
     0
  0
XRECORD
  5
1F42
102
{ACAD_REACTORS
330
1F40
102
}
330
1F40
100
AcDbXrecord
280
     1
270
     1
271
     1
  0
XRECORD
  5
1F41
102
{ACAD_REACTORS
330
1F40
102
}
330
1F40
100
AcDbXrecord
280
     1
270
     1
271
     1
  0
XRECORD
  5
1F45
102
{ACAD_REACTORS
330
1F40
102
}
330
1F40
100
AcDbXrecord
280
     1
270
     1
271
     1
  0
XRECORD
  5
1F44
102
{ACAD_REACTORS
330
1F40
102
}
330
1F40
100
AcDbXrecord
280
     1
270
     1
271
     1
  0
XRECORD
  5
1F46
102
{ACAD_REACTORS
330
1F40
102
}
330
1F40
100
AcDbXrecord
280
     1
270
     1
271
     1
  0
XRECORD
  5
1F43
102
{ACAD_REACTORS
330
1F40
102
}
330
1F40
100
AcDbXrecord
280
     1
270
     1
271
     1
  0
XRECORD
  5
2014
102
{ACAD_REACTORS
330
1F38
102
}
330
1F38
100
AcDbXrecord
280
     1
102
MATERIAL
148
0.0
149
0.0
149
0.0
 93
        0
 94
      127
282
     0
 72
     0
 77
     0
171
     0
175
     0
179
     0
273
     0
  0
XRECORD
  5
1F3A
102
{ACAD_REACTORS
330
1F38
102
}
330
1F38
100
AcDbXrecord
280
     1
270
     1
271
     1
  0
XRECORD
  5
1F39
102
{ACAD_REACTORS
330
1F38
102
}
330
1F38
100
AcDbXrecord
280
     1
270
     1
271
     1
  0
XRECORD
  5
1F3D
102
{ACAD_REACTORS
330
1F38
102
}
330
1F38
100
AcDbXrecord
280
     1
270
     1
271
     1
  0
XRECORD
  5
1F3C
102
{ACAD_REACTORS
330
1F38
102
}
330
1F38
100
AcDbXrecord
280
     1
270
     1
271
     1
  0
XRECORD
  5
1F3E
102
{ACAD_REACTORS
330
1F38
102
}
330
1F38
100
AcDbXrecord
280
     1
270
     1
271
     1
  0
XRECORD
  5
1F3B
102
{ACAD_REACTORS
330
1F38
102
}
330
1F38
100
AcDbXrecord
280
     1
270
     1
271
     1
  0
XRECORD
  5
2016
102
{ACAD_REACTORS
330
1F48
102
}
330
1F48
100
AcDbXrecord
280
     1
102
MATERIAL
148
0.0
149
0.0
149
0.0
 93
        0
 94
      127
282
     0
 72
     0
 77
     0
171
     0
175
     0
179
     0
273
     0
  0
XRECORD
  5
1F4A
102
{ACAD_REACTORS
330
1F48
102
}
330
1F48
100
AcDbXrecord
280
     1
270
     1
271
     1
  0
XRECORD
  5
1F49
102
{ACAD_REACTORS
330
1F48
102
}
330
1F48
100
AcDbXrecord
280
     1
270
     1
271
     1
  0
XRECORD
  5
1F4D
102
{ACAD_REACTORS
330
1F48
102
}
330
1F48
100
AcDbXrecord
280
     1
270
     1
271
     1
  0
XRECORD
  5
1F4C
102
{ACAD_REACTORS
330
1F48
102
}
330
1F48
100
AcDbXrecord
280
     1
270
     1
271
     1
  0
XRECORD
  5
1F4E
102
{ACAD_REACTORS
330
1F48
102
}
330
1F48
100
AcDbXrecord
280
     1
270
     1
271
     1
  0
XRECORD
  5
1F4B
102
{ACAD_REACTORS
330
1F48
102
}
330
1F48
100
AcDbXrecord
280
     1
270
     1
271
     1
  0
CELLSTYLEMAP
  5
2009
102
{ACAD_REACTORS
330
2008
102
}
330
2008
100
AcDbCellStyleMap
 90
        3
300
CELLSTYLE
  1
TABLEFORMAT_BEGIN
 90
        5
170
     1
 91
        0
 92
    32768
 62
   257
 93
        1
300
CONTENTFORMAT
  1
CONTENTFORMAT_BEGIN
 90
        0
 91
        0
 92
      512
 93
        0
300

 40
0.0
140
1.0
 94
        5
 62
     0
340
11
144
6.0
309
CONTENTFORMAT_END
171
     1
301
MARGIN
  1
CELLMARGIN_BEGIN
 40
1.5
 40
1.5
 40
1.5
 40
1.5
 40
4.5
 40
4.5
309
CELLMARGIN_END
 94
        6
 95
        1
302
GRIDFORMAT
  1
GRIDFORMAT_BEGIN
 90
        0
 91
        1
 62
     0
 92
       -2
340
0
 93
        0
 40
1.125
309
GRIDFORMAT_END
 95
        2
302
GRIDFORMAT
  1
GRIDFORMAT_BEGIN
 90
        0
 91
        1
 62
     0
 92
       -2
340
0
 93
        0
 40
1.125
309
GRIDFORMAT_END
 95
        4
302
GRIDFORMAT
  1
GRIDFORMAT_BEGIN
 90
        0
 91
        1
 62
     0
 92
       -2
340
0
 93
        0
 40
1.125
309
GRIDFORMAT_END
 95
        8
302
GRIDFORMAT
  1
GRIDFORMAT_BEGIN
 90
        0
 91
        1
 62
     0
 92
       -2
340
0
 93
        0
 40
1.125
309
GRIDFORMAT_END
 95
       16
302
GRIDFORMAT
  1
GRIDFORMAT_BEGIN
 90
        0
 91
        1
 62
     0
 92
       -2
340
0
 93
        0
 40
1.125
309
GRIDFORMAT_END
 95
       32
302
GRIDFORMAT
  1
GRIDFORMAT_BEGIN
 90
        0
 91
        1
 62
     0
 92
       -2
340
0
 93
        0
 40
1.125
309
GRIDFORMAT_END
309
TABLEFORMAT_END
  1
CELLSTYLE_BEGIN
 90
        1
 91
        1
300
_TITLE
309
CELLSTYLE_END
300
CELLSTYLE
  1
TABLEFORMAT_BEGIN
 90
        5
170
     1
 91
        0
 92
        0
 62
   257
 93
        1
300
CONTENTFORMAT
  1
CONTENTFORMAT_BEGIN
 90
        0
 91
        0
 92
      512
 93
        0
300

 40
0.0
140
1.0
 94
        5
 62
     0
340
11
144
4.5
309
CONTENTFORMAT_END
171
     1
301
MARGIN
  1
CELLMARGIN_BEGIN
 40
1.5
 40
1.5
 40
1.5
 40
1.5
 40
4.5
 40
4.5
309
CELLMARGIN_END
 94
        6
 95
        1
302
GRIDFORMAT
  1
GRIDFORMAT_BEGIN
 90
        0
 91
        1
 62
     0
 92
       -2
340
0
 93
        0
 40
1.125
309
GRIDFORMAT_END
 95
        2
302
GRIDFORMAT
  1
GRIDFORMAT_BEGIN
 90
        0
 91
        1
 62
     0
 92
       -2
340
0
 93
        0
 40
1.125
309
GRIDFORMAT_END
 95
        4
302
GRIDFORMAT
  1
GRIDFORMAT_BEGIN
 90
        0
 91
        1
 62
     0
 92
       -2
340
0
 93
        0
 40
1.125
309
GRIDFORMAT_END
 95
        8
302
GRIDFORMAT
  1
GRIDFORMAT_BEGIN
 90
        0
 91
        1
 62
     0
 92
       -2
340
0
 93
        0
 40
1.125
309
GRIDFORMAT_END
 95
       16
302
GRIDFORMAT
  1
GRIDFORMAT_BEGIN
 90
        0
 91
        1
 62
     0
 92
       -2
340
0
 93
        0
 40
1.125
309
GRIDFORMAT_END
 95
       32
302
GRIDFORMAT
  1
GRIDFORMAT_BEGIN
 90
        0
 91
        1
 62
     0
 92
       -2
340
0
 93
        0
 40
1.125
309
GRIDFORMAT_END
309
TABLEFORMAT_END
  1
CELLSTYLE_BEGIN
 90
        2
 91
        1
300
_HEADER
309
CELLSTYLE_END
300
CELLSTYLE
  1
TABLEFORMAT_BEGIN
 90
        5
170
     1
 91
        0
 92
        0
 62
   257
 93
        1
300
CONTENTFORMAT
  1
CONTENTFORMAT_BEGIN
 90
        0
 91
        0
 92
      512
 93
        0
300

 40
0.0
140
1.0
 94
        2
 62
     0
340
11
144
4.5
309
CONTENTFORMAT_END
171
     1
301
MARGIN
  1
CELLMARGIN_BEGIN
 40
1.5
 40
1.5
 40
1.5
 40
1.5
 40
4.5
 40
4.5
309
CELLMARGIN_END
 94
        6
 95
        1
302
GRIDFORMAT
  1
GRIDFORMAT_BEGIN
 90
        0
 91
        1
 62
     0
 92
       -2
340
0
 93
        0
 40
1.125
309
GRIDFORMAT_END
 95
        2
302
GRIDFORMAT
  1
GRIDFORMAT_BEGIN
 90
        0
 91
        1
 62
     0
 92
       -2
340
0
 93
        0
 40
1.125
309
GRIDFORMAT_END
 95
        4
302
GRIDFORMAT
  1
GRIDFORMAT_BEGIN
 90
        0
 91
        1
 62
     0
 92
       -2
340
0
 93
        0
 40
1.125
309
GRIDFORMAT_END
 95
        8
302
GRIDFORMAT
  1
GRIDFORMAT_BEGIN
 90
        0
 91
        1
 62
     0
 92
       -2
340
0
 93
        0
 40
1.125
309
GRIDFORMAT_END
 95
       16
302
GRIDFORMAT
  1
GRIDFORMAT_BEGIN
 90
        0
 91
        1
 62
     0
 92
       -2
340
0
 93
        0
 40
1.125
309
GRIDFORMAT_END
 95
       32
302
GRIDFORMAT
  1
GRIDFORMAT_BEGIN
 90
        0
 91
        1
 62
     0
 92
       -2
340
0
 93
        0
 40
1.125
309
GRIDFORMAT_END
309
TABLEFORMAT_END
  1
CELLSTYLE_BEGIN
 90
        3
 91
        2
300
_DATA
309
CELLSTYLE_END
  0
XRECORD
  5
203D
102
{ACAD_REACTORS
330
2008
102
}
330
2008
100
AcDbXrecord
280
     1
102
ACAD_ROUNDTRIP_PRE2007_TABLESTYLE
 90
      512
 91
        0
  1

 92
      512
 93
        0
  2

 94
      512
 95
        0
  3

  0
XRECORD
  5
2022
102
{ACAD_REACTORS
330
2021
102
}
330
2021
100
AcDbXrecord
280
     1
102
RTVSPropertyOp0
 70
     1
102
RTVSPropertyOp1
 70
     1
102
RTVSPropertyOp2
 70
     1
102
RTVSPropertyOp3
 70
     1
102
RTVSPropertyOp4
 70
     1
102
RTVSPropertyOp5
 70
     1
102
RTVSPropertyOp6
 70
     1
102
RTVSPropertyOp7
 70
     1
102
RTVSPropertyOp8
 70
     1
102
RTVSPropertyOp9
 70
     1
102
RTVSPropertyOp10
 70
     1
102
RTVSPropertyOp11
 70
     1
102
RTVSPropertyOp12
 70
     1
102
RTVSPropertyOp13
 70
     1
102
RTVSPropertyOp14
 70
     1
102
RTVSPropertyOp15
 70
     1
102
RTVSPropertyOp16
 70
     1
102
RTVSPropertyOp17
 70
     1
102
RTVSPropertyOp18
 70
     1
102
RTVSPropertyOp19
 70
     1
102
RTVSPropertyOp20
 70
     1
102
RTVSPropertyOp21
 70
     1
102
RTVSPropertyOp22
 70
     1
102
RTVSPropertyOp23
 70
     1
102
RTVSPropertyOp24
 70
     1
102
RTVSPropertyOp25
 70
     1
102
RTVSPropertyOp26
 70
     1
102
RTVSPropertyOp27
 70
     1
  0
XRECORD
  5
2026
102
{ACAD_REACTORS
330
2025
102
}
330
2025
100
AcDbXrecord
280
     1
102
RTVSPropertyOp0
 70
     1
102
RTVSPropertyOp1
 70
     1
102
RTVSPropertyOp2
 70
     1
102
RTVSPropertyOp3
 70
     1
102
RTVSPropertyOp4
 70
     1
102
RTVSPropertyOp5
 70
     1
102
RTVSPropertyOp6
 70
     1
102
RTVSPropertyOp7
 70
     1
102
RTVSPropertyOp8
 70
     1
102
RTVSPropertyOp9
 70
     1
102
RTVSPropertyOp10
 70
     1
102
RTVSPropertyOp11
 70
     1
102
RTVSPropertyOp12
 70
     1
102
RTVSPropertyOp13
 70
     1
102
RTVSPropertyOp14
 70
     1
102
RTVSPropertyOp15
 70
     1
102
RTVSPropertyOp16
 70
     1
102
RTVSPropertyOp17
 70
     1
102
RTVSPropertyOp18
 70
     1
102
RTVSPropertyOp19
 70
     1
102
RTVSPropertyOp20
 70
     1
102
RTVSPropertyOp21
 70
     1
102
RTVSPropertyOp22
 70
     1
102
RTVSPropertyOp23
 70
     1
102
RTVSPropertyOp24
 70
     1
102
RTVSPropertyOp25
 70
     1
102
RTVSPropertyOp26
 70
     1
102
RTVSPropertyOp27
 70
     1
  0
XRECORD
  5
2024
102
{ACAD_REACTORS
330
2023
102
}
330
2023
100
AcDbXrecord
280
     1
102
RTVSPropertyOp0
 70
     1
102
RTVSPropertyOp1
 70
     1
102
RTVSPropertyOp2
 70
     1
102
RTVSPropertyOp3
 70
     1
102
RTVSPropertyOp4
 70
     1
102
RTVSPropertyOp5
 70
     1
102
RTVSPropertyOp6
 70
     1
102
RTVSPropertyOp7
 70
     1
102
RTVSPropertyOp8
 70
     1
102
RTVSPropertyOp9
 70
     1
102
RTVSPropertyOp10
 70
     1
102
RTVSPropertyOp11
 70
     1
102
RTVSPropertyOp12
 70
     1
102
RTVSPropertyOp13
 70
     1
102
RTVSPropertyOp14
 70
     1
102
RTVSPropertyOp15
 70
     1
102
RTVSPropertyOp16
 70
     1
102
RTVSPropertyOp17
 70
     1
102
RTVSPropertyOp18
 70
     1
102
RTVSPropertyOp19
 70
     1
102
RTVSPropertyOp20
 70
     1
102
RTVSPropertyOp21
 70
     1
102
RTVSPropertyOp22
 70
     1
102
RTVSPropertyOp23
 70
     1
102
RTVSPropertyOp24
 70
     1
102
RTVSPropertyOp25
 70
     1
102
RTVSPropertyOp26
 70
     1
102
RTVSPropertyOp27
 70
     1
  0
XRECORD
  5
2020
102
{ACAD_REACTORS
330
201F
102
}
330
201F
100
AcDbXrecord
280
     1
102
RTVSPropertyOp0
 70
     1
102
RTVSPropertyOp1
 70
     1
102
RTVSPropertyOp2
 70
     1
102
RTVSPropertyOp3
 70
     1
102
RTVSPropertyOp4
 70
     1
102
RTVSPropertyOp5
 70
     1
102
RTVSPropertyOp6
 70
     1
102
RTVSPropertyOp7
 70
     1
102
RTVSPropertyOp8
 70
     1
102
RTVSPropertyOp9
 70
     1
102
RTVSPropertyOp10
 70
     1
102
RTVSPropertyOp11
 70
     1
102
RTVSPropertyOp12
 70
     1
102
RTVSPropertyOp13
 70
     1
102
RTVSPropertyOp14
 70
     1
102
RTVSPropertyOp15
 70
     1
102
RTVSPropertyOp16
 70
     1
102
RTVSPropertyOp17
 70
     1
102
RTVSPropertyOp18
 70
     1
102
RTVSPropertyOp19
 70
     1
102
RTVSPropertyOp20
 70
     1
102
RTVSPropertyOp21
 70
     1
102
RTVSPropertyOp22
 70
     1
102
RTVSPropertyOp23
 70
     1
102
RTVSPropertyOp24
 70
     1
102
RTVSPropertyOp25
 70
     1
102
RTVSPropertyOp26
 70
     1
102
RTVSPropertyOp27
 70
     1
  0
XRECORD
  5
202E
102
{ACAD_REACTORS
330
202D
102
}
330
202D
100
AcDbXrecord
280
     1
102
RTVSPropertyOp0
 70
     1
102
RTVSPropertyOp1
 70
     1
102
RTVSPropertyOp2
 70
     1
102
RTVSPropertyOp3
 70
     1
102
RTVSPropertyOp4
 70
     1
102
RTVSPropertyOp5
 70
     1
102
RTVSPropertyOp6
 70
     1
102
RTVSPropertyOp7
 70
     1
102
RTVSPropertyOp8
 70
     1
102
RTVSPropertyOp9
 70
     1
102
RTVSPropertyOp10
 70
     1
102
RTVSPropertyOp11
 70
     1
102
RTVSPropertyOp12
 70
     1
102
RTVSPropertyOp13
 70
     1
102
RTVSPropertyOp14
 70
     1
102
RTVSPropertyOp15
 70
     1
102
RTVSPropertyOp16
 70
     1
102
RTVSPropertyOp17
 70
     1
102
RTVSPropertyOp18
 70
     1
102
RTVSPropertyOp19
 70
     1
102
RTVSPropertyOp20
 70
     1
102
RTVSPropertyOp21
 70
     1
102
RTVSPropertyOp22
 70
     1
102
RTVSPropertyOp23
 70
     1
102
RTVSPropertyOp24
 70
     1
102
RTVSPropertyOp25
 70
     1
102
RTVSPropertyOp26
 70
     1
102
RTVSPropertyOp27
 70
     1
  0
XRECORD
  5
2036
102
{ACAD_REACTORS
330
2035
102
}
330
2035
100
AcDbXrecord
280
     1
102
RTVSPropertyOp0
 70
     1
102
RTVSPropertyOp1
 70
     1
102
RTVSPropertyOp2
 70
     1
102
RTVSPropertyOp3
 70
     1
102
RTVSPropertyOp4
 70
     1
102
RTVSPropertyOp5
 70
     1
102
RTVSPropertyOp6
 70
     1
102
RTVSPropertyOp7
 70
     1
102
RTVSPropertyOp8
 70
     1
102
RTVSPropertyOp9
 70
     1
102
RTVSPropertyOp10
 70
     1
102
RTVSPropertyOp11
 70
     1
102
RTVSPropertyOp12
 70
     1
102
RTVSPropertyOp13
 70
     1
102
RTVSPropertyOp14
 70
     1
102
RTVSPropertyOp15
 70
     1
102
RTVSPropertyOp16
 70
     1
102
RTVSPropertyOp17
 70
     1
102
RTVSPropertyOp18
 70
     1
102
RTVSPropertyOp19
 70
     1
102
RTVSPropertyOp20
 70
     1
102
RTVSPropertyOp21
 70
     1
102
RTVSPropertyOp22
 70
     1
102
RTVSPropertyOp23
 70
     1
102
RTVSPropertyOp24
 70
     1
102
RTVSPropertyOp25
 70
     1
102
RTVSPropertyOp26
 70
     1
102
RTVSPropertyOp27
 70
     1
  0
XRECORD
  5
2028
102
{ACAD_REACTORS
330
2027
102
}
330
2027
100
AcDbXrecord
280
     1
102
RTVSPropertyOp0
 70
     1
102
RTVSPropertyOp1
 70
     1
102
RTVSPropertyOp2
 70
     1
102
RTVSPropertyOp3
 70
     1
102
RTVSPropertyOp4
 70
     1
102
RTVSPropertyOp5
 70
     1
102
RTVSPropertyOp6
 70
     1
102
RTVSPropertyOp7
 70
     1
102
RTVSPropertyOp8
 70
     1
102
RTVSPropertyOp9
 70
     1
102
RTVSPropertyOp10
 70
     1
102
RTVSPropertyOp11
 70
     1
102
RTVSPropertyOp12
 70
     1
102
RTVSPropertyOp13
 70
     1
102
RTVSPropertyOp14
 70
     1
102
RTVSPropertyOp15
 70
     1
102
RTVSPropertyOp16
 70
     1
102
RTVSPropertyOp17
 70
     1
102
RTVSPropertyOp18
 70
     1
102
RTVSPropertyOp19
 70
     1
102
RTVSPropertyOp20
 70
     1
102
RTVSPropertyOp21
 70
     1
102
RTVSPropertyOp22
 70
     1
102
RTVSPropertyOp23
 70
     1
102
RTVSPropertyOp24
 70
     1
102
RTVSPropertyOp25
 70
     1
102
RTVSPropertyOp26
 70
     1
102
RTVSPropertyOp27
 70
     1
  0
XRECORD
  5
202C
102
{ACAD_REACTORS
330
202B
102
}
330
202B
100
AcDbXrecord
280
     1
102
RTVSPropertyOp0
 70
     1
102
RTVSPropertyOp1
 70
     1
102
RTVSPropertyOp2
 70
     1
102
RTVSPropertyOp3
 70
     1
102
RTVSPropertyOp4
 70
     1
102
RTVSPropertyOp5
 70
     1
102
RTVSPropertyOp6
 70
     1
102
RTVSPropertyOp7
 70
     1
102
RTVSPropertyOp8
 70
     1
102
RTVSPropertyOp9
 70
     1
102
RTVSPropertyOp10
 70
     1
102
RTVSPropertyOp11
 70
     1
102
RTVSPropertyOp12
 70
     1
102
RTVSPropertyOp13
 70
     1
102
RTVSPropertyOp14
 70
     1
102
RTVSPropertyOp15
 70
     1
102
RTVSPropertyOp16
 70
     1
102
RTVSPropertyOp17
 70
     1
102
RTVSPropertyOp18
 70
     1
102
RTVSPropertyOp19
 70
     1
102
RTVSPropertyOp20
 70
     1
102
RTVSPropertyOp21
 70
     1
102
RTVSPropertyOp22
 70
     1
102
RTVSPropertyOp23
 70
     1
102
RTVSPropertyOp24
 70
     1
102
RTVSPropertyOp25
 70
     1
102
RTVSPropertyOp26
 70
     1
102
RTVSPropertyOp27
 70
     1
  0
XRECORD
  5
203C
102
{ACAD_REACTORS
330
203B
102
}
330
203B
100
AcDbXrecord
280
     1
102
RTVSPropertyOp0
 70
     0
102
RTVSPropertyOp1
 70
     0
102
RTVSPropertyOp2
 70
     0
102
RTVSPropertyOp3
 70
     0
102
RTVSPropertyOp4
 70
     0
102
RTVSPropertyOp5
 70
     0
102
RTVSPropertyOp6
 70
     0
102
RTVSPropertyOp7
 70
     0
102
RTVSPropertyOp8
 70
     0
102
RTVSPropertyOp9
 70
     0
102
RTVSPropertyOp10
 70
     0
102
RTVSPropertyOp11
 70
     0
102
RTVSPropertyOp12
 70
     0
102
RTVSPropertyOp13
 70
     0
102
RTVSPropertyOp14
 70
     2
102
RTVSPropertyOp15
 70
     0
102
RTVSPropertyOp16
 70
     0
102
RTVSPropertyOp17
 70
     0
102
RTVSPropertyOp18
 70
     0
102
RTVSPropertyOp19
 70
     0
102
RTVSPropertyOp20
 70
     0
102
RTVSPropertyOp21
 70
     0
102
RTVSPropertyOp22
 70
     0
102
RTVSPropertyOp23
 70
     0
102
RTVSPropertyOp24
 70
     0
102
RTVSPropertyOp25
 70
     0
102
RTVSPropertyOp26
 70
     0
102
RTVSPropertyOp27
 70
     0
  0
XRECORD
  5
2034
102
{ACAD_REACTORS
330
2033
102
}
330
2033
100
AcDbXrecord
280
     1
102
RTVSPropertyOp0
 70
     1
102
RTVSPropertyOp1
 70
     1
102
RTVSPropertyOp2
 70
     1
102
RTVSPropertyOp3
 70
     1
102
RTVSPropertyOp4
 70
     1
102
RTVSPropertyOp5
 70
     1
102
RTVSPropertyOp6
 70
     1
102
RTVSPropertyOp7
 70
     1
102
RTVSPropertyOp8
 70
     1
102
RTVSPropertyOp9
 70
     1
102
RTVSPropertyOp10
 70
     1
102
RTVSPropertyOp11
 70
     1
102
RTVSPropertyOp12
 70
     1
102
RTVSPropertyOp13
 70
     1
102
RTVSPropertyOp14
 70
     1
102
RTVSPropertyOp15
 70
     1
102
RTVSPropertyOp16
 70
     1
102
RTVSPropertyOp17
 70
     1
102
RTVSPropertyOp18
 70
     1
102
RTVSPropertyOp19
 70
     1
102
RTVSPropertyOp20
 70
     1
102
RTVSPropertyOp21
 70
     1
102
RTVSPropertyOp22
 70
     1
102
RTVSPropertyOp23
 70
     1
102
RTVSPropertyOp24
 70
     1
102
RTVSPropertyOp25
 70
     1
102
RTVSPropertyOp26
 70
     1
102
RTVSPropertyOp27
 70
     1
  0
XRECORD
  5
2018
102
{ACAD_REACTORS
330
2017
102
}
330
2017
100
AcDbXrecord
280
     1
102
RTVSPropertyOp0
 70
     1
102
RTVSPropertyOp1
 70
     1
102
RTVSPropertyOp2
 70
     1
102
RTVSPropertyOp3
 70
     1
102
RTVSPropertyOp4
 70
     1
102
RTVSPropertyOp5
 70
     1
102
RTVSPropertyOp6
 70
     1
102
RTVSPropertyOp7
 70
     1
102
RTVSPropertyOp8
 70
     1
102
RTVSPropertyOp9
 70
     1
102
RTVSPropertyOp10
 70
     1
102
RTVSPropertyOp11
 70
     1
102
RTVSPropertyOp12
 70
     1
102
RTVSPropertyOp13
 70
     1
102
RTVSPropertyOp14
 70
     1
102
RTVSPropertyOp15
 70
     1
102
RTVSPropertyOp16
 70
     1
102
RTVSPropertyOp17
 70
     1
102
RTVSPropertyOp18
 70
     1
102
RTVSPropertyOp19
 70
     1
102
RTVSPropertyOp20
 70
     1
102
RTVSPropertyOp21
 70
     1
102
RTVSPropertyOp22
 70
     1
102
RTVSPropertyOp23
 70
     1
102
RTVSPropertyOp24
 70
     1
102
RTVSPropertyOp25
 70
     1
102
RTVSPropertyOp26
 70
     1
102
RTVSPropertyOp27
 70
     1
  0
XRECORD
  5
201A
102
{ACAD_REACTORS
330
2019
102
}
330
2019
100
AcDbXrecord
280
     1
102
RTVSPropertyOp0
 70
     1
102
RTVSPropertyOp1
 70
     1
102
RTVSPropertyOp2
 70
     1
102
RTVSPropertyOp3
 70
     1
102
RTVSPropertyOp4
 70
     1
102
RTVSPropertyOp5
 70
     1
102
RTVSPropertyOp6
 70
     1
102
RTVSPropertyOp7
 70
     1
102
RTVSPropertyOp8
 70
     1
102
RTVSPropertyOp9
 70
     1
102
RTVSPropertyOp10
 70
     1
102
RTVSPropertyOp11
 70
     1
102
RTVSPropertyOp12
 70
     1
102
RTVSPropertyOp13
 70
     1
102
RTVSPropertyOp14
 70
     1
102
RTVSPropertyOp15
 70
     1
102
RTVSPropertyOp16
 70
     1
102
RTVSPropertyOp17
 70
     1
102
RTVSPropertyOp18
 70
     1
102
RTVSPropertyOp19
 70
     1
102
RTVSPropertyOp20
 70
     1
102
RTVSPropertyOp21
 70
     1
102
RTVSPropertyOp22
 70
     1
102
RTVSPropertyOp23
 70
     1
102
RTVSPropertyOp24
 70
     1
102
RTVSPropertyOp25
 70
     1
102
RTVSPropertyOp26
 70
     1
102
RTVSPropertyOp27
 70
     1
  0
XRECORD
  5
201C
102
{ACAD_REACTORS
330
201B
102
}
330
201B
100
AcDbXrecord
280
     1
102
RTVSPropertyOp0
 70
     1
102
RTVSPropertyOp1
 70
     1
102
RTVSPropertyOp2
 70
     1
102
RTVSPropertyOp3
 70
     1
102
RTVSPropertyOp4
 70
     1
102
RTVSPropertyOp5
 70
     1
102
RTVSPropertyOp6
 70
     1
102
RTVSPropertyOp7
 70
     1
102
RTVSPropertyOp8
 70
     1
102
RTVSPropertyOp9
 70
     1
102
RTVSPropertyOp10
 70
     1
102
RTVSPropertyOp11
 70
     1
102
RTVSPropertyOp12
 70
     1
102
RTVSPropertyOp13
 70
     1
102
RTVSPropertyOp14
 70
     1
102
RTVSPropertyOp15
 70
     1
102
RTVSPropertyOp16
 70
     1
102
RTVSPropertyOp17
 70
     1
102
RTVSPropertyOp18
 70
     1
102
RTVSPropertyOp19
 70
     1
102
RTVSPropertyOp20
 70
     1
102
RTVSPropertyOp21
 70
     1
102
RTVSPropertyOp22
 70
     1
102
RTVSPropertyOp23
 70
     1
102
RTVSPropertyOp24
 70
     1
102
RTVSPropertyOp25
 70
     1
102
RTVSPropertyOp26
 70
     1
102
RTVSPropertyOp27
 70
     1
  0
XRECORD
  5
201E
102
{ACAD_REACTORS
330
201D
102
}
330
201D
100
AcDbXrecord
280
     1
102
RTVSPropertyOp0
 70
     1
102
RTVSPropertyOp1
 70
     1
102
RTVSPropertyOp2
 70
     1
102
RTVSPropertyOp3
 70
     1
102
RTVSPropertyOp4
 70
     1
102
RTVSPropertyOp5
 70
     1
102
RTVSPropertyOp6
 70
     1
102
RTVSPropertyOp7
 70
     1
102
RTVSPropertyOp8
 70
     1
102
RTVSPropertyOp9
 70
     1
102
RTVSPropertyOp10
 70
     1
102
RTVSPropertyOp11
 70
     1
102
RTVSPropertyOp12
 70
     1
102
RTVSPropertyOp13
 70
     1
102
RTVSPropertyOp14
 70
     1
102
RTVSPropertyOp15
 70
     1
102
RTVSPropertyOp16
 70
     1
102
RTVSPropertyOp17
 70
     1
102
RTVSPropertyOp18
 70
     1
102
RTVSPropertyOp19
 70
     1
102
RTVSPropertyOp20
 70
     1
102
RTVSPropertyOp21
 70
     1
102
RTVSPropertyOp22
 70
     1
102
RTVSPropertyOp23
 70
     1
102
RTVSPropertyOp24
 70
     1
102
RTVSPropertyOp25
 70
     1
102
RTVSPropertyOp26
 70
     1
102
RTVSPropertyOp27
 70
     1
  0
XRECORD
  5
2038
102
{ACAD_REACTORS
330
2037
102
}
330
2037
100
AcDbXrecord
280
     1
102
RTVSPropertyOp0
 70
     0
102
RTVSPropertyOp1
 70
     0
102
RTVSPropertyOp2
 70
     0
102
RTVSPropertyOp3
 70
     0
102
RTVSPropertyOp4
 70
     0
102
RTVSPropertyOp5
 70
     0
102
RTVSPropertyOp6
 70
     0
102
RTVSPropertyOp7
 70
     0
102
RTVSPropertyOp8
 70
     0
102
RTVSPropertyOp9
 70
     0
102
RTVSPropertyOp10
 70
     0
102
RTVSPropertyOp11
 70
     0
102
RTVSPropertyOp12
 70
     0
102
RTVSPropertyOp13
 70
     0
102
RTVSPropertyOp14
 70
     2
102
RTVSPropertyOp15
 70
     0
102
RTVSPropertyOp16
 70
     0
102
RTVSPropertyOp17
 70
     0
102
RTVSPropertyOp18
 70
     0
102
RTVSPropertyOp19
 70
     0
102
RTVSPropertyOp20
 70
     0
102
RTVSPropertyOp21
 70
     0
102
RTVSPropertyOp22
 70
     0
102
RTVSPropertyOp23
 70
     0
102
RTVSPropertyOp24
 70
     0
102
RTVSPropertyOp25
 70
     0
102
RTVSPropertyOp26
 70
     0
102
RTVSPropertyOp27
 70
     0
  0
XRECORD
  5
2032
102
{ACAD_REACTORS
330
2031
102
}
330
2031
100
AcDbXrecord
280
     1
102
RTVSPropertyOp0
 70
     1
102
RTVSPropertyOp1
 70
     1
102
RTVSPropertyOp2
 70
     1
102
RTVSPropertyOp3
 70
     1
102
RTVSPropertyOp4
 70
     1
102
RTVSPropertyOp5
 70
     1
102
RTVSPropertyOp6
 70
     1
102
RTVSPropertyOp7
 70
     1
102
RTVSPropertyOp8
 70
     1
102
RTVSPropertyOp9
 70
     1
102
RTVSPropertyOp10
 70
     1
102
RTVSPropertyOp11
 70
     1
102
RTVSPropertyOp12
 70
     1
102
RTVSPropertyOp13
 70
     1
102
RTVSPropertyOp14
 70
     1
102
RTVSPropertyOp15
 70
     1
102
RTVSPropertyOp16
 70
     1
102
RTVSPropertyOp17
 70
     1
102
RTVSPropertyOp18
 70
     1
102
RTVSPropertyOp19
 70
     1
102
RTVSPropertyOp20
 70
     1
102
RTVSPropertyOp21
 70
     1
102
RTVSPropertyOp22
 70
     1
102
RTVSPropertyOp23
 70
     1
102
RTVSPropertyOp24
 70
     1
102
RTVSPropertyOp25
 70
     1
102
RTVSPropertyOp26
 70
     1
102
RTVSPropertyOp27
 70
     1
  0
XRECORD
  5
203A
102
{ACAD_REACTORS
330
2039
102
}
330
2039
100
AcDbXrecord
280
     1
102
RTVSPropertyOp0
 70
     0
102
RTVSPropertyOp1
 70
     0
102
RTVSPropertyOp2
 70
     0
102
RTVSPropertyOp3
 70
     0
102
RTVSPropertyOp4
 70
     0
102
RTVSPropertyOp5
 70
     0
102
RTVSPropertyOp6
 70
     0
102
RTVSPropertyOp7
 70
     0
102
RTVSPropertyOp8
 70
     0
102
RTVSPropertyOp9
 70
     0
102
RTVSPropertyOp10
 70
     0
102
RTVSPropertyOp11
 70
     0
102
RTVSPropertyOp12
 70
     0
102
RTVSPropertyOp13
 70
     0
102
RTVSPropertyOp14
 70
     2
102
RTVSPropertyOp15
 70
     0
102
RTVSPropertyOp16
 70
     0
102
RTVSPropertyOp17
 70
     0
102
RTVSPropertyOp18
 70
     0
102
RTVSPropertyOp19
 70
     0
102
RTVSPropertyOp20
 70
     0
102
RTVSPropertyOp21
 70
     0
102
RTVSPropertyOp22
 70
     0
102
RTVSPropertyOp23
 70
     0
102
RTVSPropertyOp24
 70
     0
102
RTVSPropertyOp25
 70
     0
102
RTVSPropertyOp26
 70
     0
102
RTVSPropertyOp27
 70
     0
  0
XRECORD
  5
202A
102
{ACAD_REACTORS
330
2029
102
}
330
2029
100
AcDbXrecord
280
     1
102
RTVSPropertyOp0
 70
     1
102
RTVSPropertyOp1
 70
     1
102
RTVSPropertyOp2
 70
     1
102
RTVSPropertyOp3
 70
     1
102
RTVSPropertyOp4
 70
     1
102
RTVSPropertyOp5
 70
     1
102
RTVSPropertyOp6
 70
     1
102
RTVSPropertyOp7
 70
     1
102
RTVSPropertyOp8
 70
     1
102
RTVSPropertyOp9
 70
     1
102
RTVSPropertyOp10
 70
     1
102
RTVSPropertyOp11
 70
     1
102
RTVSPropertyOp12
 70
     1
102
RTVSPropertyOp13
 70
     1
102
RTVSPropertyOp14
 70
     1
102
RTVSPropertyOp15
 70
     1
102
RTVSPropertyOp16
 70
     1
102
RTVSPropertyOp17
 70
     1
102
RTVSPropertyOp18
 70
     1
102
RTVSPropertyOp19
 70
     1
102
RTVSPropertyOp20
 70
     1
102
RTVSPropertyOp21
 70
     1
102
RTVSPropertyOp22
 70
     1
102
RTVSPropertyOp23
 70
     1
102
RTVSPropertyOp24
 70
     1
102
RTVSPropertyOp25
 70
     1
102
RTVSPropertyOp26
 70
     1
102
RTVSPropertyOp27
 70
     1
  0
XRECORD
  5
2030
102
{ACAD_REACTORS
330
202F
102
}
330
202F
100
AcDbXrecord
280
     1
102
RTVSPropertyOp0
 70
     1
102
RTVSPropertyOp1
 70
     1
102
RTVSPropertyOp2
 70
     1
102
RTVSPropertyOp3
 70
     1
102
RTVSPropertyOp4
 70
     1
102
RTVSPropertyOp5
 70
     1
102
RTVSPropertyOp6
 70
     1
102
RTVSPropertyOp7
 70
     1
102
RTVSPropertyOp8
 70
     1
102
RTVSPropertyOp9
 70
     1
102
RTVSPropertyOp10
 70
     1
102
RTVSPropertyOp11
 70
     1
102
RTVSPropertyOp12
 70
     1
102
RTVSPropertyOp13
 70
     1
102
RTVSPropertyOp14
 70
     1
102
RTVSPropertyOp15
 70
     1
102
RTVSPropertyOp16
 70
     1
102
RTVSPropertyOp17
 70
     1
102
RTVSPropertyOp18
 70
     1
102
RTVSPropertyOp19
 70
     1
102
RTVSPropertyOp20
 70
     1
102
RTVSPropertyOp21
 70
     1
102
RTVSPropertyOp22
 70
     1
102
RTVSPropertyOp23
 70
     1
102
RTVSPropertyOp24
 70
     1
102
RTVSPropertyOp25
 70
     1
102
RTVSPropertyOp26
 70
     1
102
RTVSPropertyOp27
 70
     1
  0
ENDSEC
  0
EOF
