  0
SECTION
  2
HEADER
  9
$ACADVER
  1
AC1015
  9
$ACADMAINTVER
 70
    20
  9
$DWGCODEPAGE
  3
ANSI_1252
  9
$INSBASE
 10
0.0
 20
0.0
 30
0.0
  9
$EXTMIN
 10
262.1844644339553
 20
1056.183626709893
 30
-0.0000000017937957
  9
$EXTMAX
 10
264.1214327908806
 20
1058.033626709893
 30
0.0000000002002489
  9
$LIMMIN
 10
0.0
 20
0.0
  9
$LIMMAX
 10
420.0
 20
297.0
  9
$ORTHOMODE
 70
     0
  9
$REGENMODE
 70
     1
  9
$FILLMODE
 70
     1
  9
$QTEXTMODE
 70
     0
  9
$MIRRTEXT
 70
     1
  9
$LTSCALE
 40
1.0
  9
$ATTMODE
 70
     1
  9
$TEXTSIZE
 40
2.5
  9
$TRACEWID
 40
1.0
  9
$TEXTSTYLE
  7
SANINDUSA
  9
$CLAYER
  8
cotas
  9
$CELTYPE
  6
ByLayer
  9
$CECOLOR
 62
   256
  9
$CELTSCALE
 40
1.0
  9
$DISPSILH
 70
     0
  9
$DIMSCALE
 40
1.0
  9
$DIMASZ
 40
2.0
  9
$DIMEXO
 40
1.0
  9
$DIMDLI
 40
1.0
  9
$DIMRND
 40
0.0
  9
$DIMDLE
 40
0.0
  9
$DIMEXE
 40
1.0
  9
$DIMTP
 40
0.0
  9
$DIMTM
 40
0.0
  9
$DIMTXT
 40
2.0
  9
$DIMCEN
 40
0.0
  9
$DIMTSZ
 40
0.0
  9
$DIMTOL
 70
     0
  9
$DIMLIM
 70
     0
  9
$DIMTIH
 70
     0
  9
$DIMTOH
 70
     0
  9
$DIMSE1
 70
     0
  9
$DIMSE2
 70
     0
  9
$DIMTAD
 70
     1
  9
$DIMZIN
 70
     8
  9
$DIMBLK
  1

  9
$DIMASO
 70
     1
  9
$DIMSHO
 70
     1
  9
$DIMPOST
  1

  9
$DIMAPOST
  1

  9
$DIMALT
 70
     0
  9
$DIMALTD
 70
     3
  9
$DIMALTF
 40
0.03937007874016
  9
$DIMLFAC
 40
1.0
  9
$DIMTOFL
 70
     1
  9
$DIMTVP
 40
0.0
  9
$DIMTIX
 70
     0
  9
$DIMSOXD
 70
     0
  9
$DIMSAH
 70
     0
  9
$DIMBLK1
  1

  9
$DIMBLK2
  1

  9
$DIMSTYLE
  2
SANINDUSA
  9
$DIMCLRD
 70
   256
  9
$DIMCLRE
 70
   256
  9
$DIMCLRT
 70
   256
  9
$DIMTFAC
 40
1.0
  9
$DIMGAP
 40
1.0
  9
$DIMJUST
 70
     0
  9
$DIMSD1
 70
     0
  9
$DIMSD2
 70
     0
  9
$DIMTOLJ
 70
     0
  9
$DIMTZIN
 70
     8
  9
$DIMALTZ
 70
     0
  9
$DIMALTTZ
 70
     0
  9
$DIMUPT
 70
     0
  9
$DIMDEC
 70
     1
  9
$DIMTDEC
 70
     1
  9
$DIMALTU
 70
     2
  9
$DIMALTTD
 70
     3
  9
$DIMTXSTY
  7
SANINDUSA
  9
$DIMAUNIT
 70
     0
  9
$DIMADEC
 70
     1
  9
$DIMALTRND
 40
0.0
  9
$DIMAZIN
 70
     0
  9
$DIMDSEP
 70
    44
  9
$DIMATFIT
 70
     3
  9
$DIMFRAC
 70
     0
  9
$DIMLDRBLK
  1

  9
$DIMLUNIT
 70
     2
  9
$DIMLWD
 70
    -1
  9
$DIMLWE
 70
    -1
  9
$DIMTMOVE
 70
     0
  9
$LUNITS
 70
     2
  9
$LUPREC
 70
     4
  9
$SKETCHINC
 40
1.0
  9
$FILLETRAD
 40
0.0
  9
$AUNITS
 70
     0
  9
$AUPREC
 70
     0
  9
$MENU
  1
.
  9
$ELEVATION
 40
0.0
  9
$PELEVATION
 40
0.0
  9
$THICKNESS
 40
0.0
  9
$LIMCHECK
 70
     0
  9
$CHAMFERA
 40
10.0
  9
$CHAMFERB
 40
10.0
  9
$CHAMFERC
 40
20.0
  9
$CHAMFERD
 40
0.0
  9
$SKPOLY
 70
     0
  9
$TDCREATE
 40
2453319.410385914
  9
$TDUCREATE
 40
2453319.368719248
  9
$TDUPDATE
 40
2455824.509756030
  9
$TDUUPDATE
 40
2455824.468089364
  9
$TDINDWG
 40
0.0177162963
  9
$TDUSRTIMER
 40
0.0177162963
  9
$USRTIMER
 70
     1
  9
$ANGBASE
 50
0.0
  9
$ANGDIR
 70
     0
  9
$PDMODE
 70
     0
  9
$PDSIZE
 40
0.0
  9
$PLINEWID
 40
0.0
  9
$SPLFRAME
 70
     0
  9
$SPLINETYPE
 70
     6
  9
$SPLINESEGS
 70
     8
  9
$HANDSEED
  5
1799
  9
$SURFTAB1
 70
     6
  9
$SURFTAB2
 70
     6
  9
$SURFTYPE
 70
     6
  9
$SURFU
 70
     6
  9
$SURFV
 70
     6
  9
$UCSBASE
  2

  9
$UCSNAME
  2

  9
$UCSORG
 10
0.0
 20
0.0
 30
0.0
  9
$UCSXDIR
 10
1.0
 20
0.0
 30
0.0
  9
$UCSYDIR
 10
0.0
 20
1.0
 30
0.0
  9
$UCSORTHOREF
  2

  9
$UCSORTHOVIEW
 70
     0
  9
$UCSORGTOP
 10
0.0
 20
0.0
 30
0.0
  9
$UCSORGBOTTOM
 10
0.0
 20
0.0
 30
0.0
  9
$UCSORGLEFT
 10
0.0
 20
0.0
 30
0.0
  9
$UCSORGRIGHT
 10
0.0
 20
0.0
 30
0.0
  9
$UCSORGFRONT
 10
0.0
 20
0.0
 30
0.0
  9
$UCSORGBACK
 10
0.0
 20
0.0
 30
0.0
  9
$PUCSBASE
  2

  9
$PUCSNAME
  2

  9
$PUCSORG
 10
0.0
 20
0.0
 30
0.0
  9
$PUCSXDIR
 10
1.0
 20
0.0
 30
0.0
  9
$PUCSYDIR
 10
0.0
 20
1.0
 30
0.0
  9
$PUCSORTHOREF
  2

  9
$PUCSORTHOVIEW
 70
     0
  9
$PUCSORGTOP
 10
0.0
 20
0.0
 30
0.0
  9
$PUCSORGBOTTOM
 10
0.0
 20
0.0
 30
0.0
  9
$PUCSORGLEFT
 10
0.0
 20
0.0
 30
0.0
  9
$PUCSORGRIGHT
 10
0.0
 20
0.0
 30
0.0
  9
$PUCSORGFRONT
 10
0.0
 20
0.0
 30
0.0
  9
$PUCSORGBACK
 10
0.0
 20
0.0
 30
0.0
  9
$USERI1
 70
     0
  9
$USERI2
 70
     0
  9
$USERI3
 70
     0
  9
$USERI4
 70
     0
  9
$USERI5
 70
     0
  9
$USERR1
 40
0.0
  9
$USERR2
 40
0.0
  9
$USERR3
 40
0.0
  9
$USERR4
 40
0.0
  9
$USERR5
 40
0.0
  9
$WORLDVIEW
 70
     1
  9
$SHADEDGE
 70
     3
  9
$SHADEDIF
 70
    70
  9
$TILEMODE
 70
     1
  9
$MAXACTVP
 70
    64
  9
$PINSBASE
 10
0.0
 20
0.0
 30
0.0
  9
$PLIMCHECK
 70
     0
  9
$PEXTMIN
 10
1.000000000000000E+20
 20
1.000000000000000E+20
 30
1.000000000000000E+20
  9
$PEXTMAX
 10
-1.000000000000000E+20
 20
-1.000000000000000E+20
 30
-1.000000000000000E+20
  9
$PLIMMIN
 10
0.0
 20
0.0
  9
$PLIMMAX
 10
420.0
 20
297.0
  9
$UNITMODE
 70
     0
  9
$VISRETAIN
 70
     1
  9
$PLINEGEN
 70
     0
  9
$PSLTSCALE
 70
     1
  9
$TREEDEPTH
 70
  3020
  9
$CMLSTYLE
  2
Standard
  9
$CMLJUST
 70
     0
  9
$CMLSCALE
 40
20.0
  9
$PROXYGRAPHICS
 70
     1
  9
$MEASUREMENT
 70
     1
  9
$CELWEIGHT
370
    -1
  9
$ENDCAPS
280
     0
  9
$JOINSTYLE
280
     0
  9
$LWDISPLAY
290
     0
  9
$INSUNITS
 70
     4
  9
$HYPERLINKBASE
  1

  9
$STYLESHEET
  1
monochrome.ctb
  9
$XEDIT
290
     1
  9
$CEPSNTYPE
380
     0
  9
$PSTYLEMODE
290
     1
  9
$FINGERPRINTGUID
  2
{B98A73AA-52AA-4C10-B469-C0E7150AC31F}
  9
$VERSIONGUID
  2
{FCC8CABE-BFFC-4E4F-8D20-EA3162F78680}
  9
$EXTNAMES
290
     1
  9
$PSVPSCALE
 40
0.0
  9
$OLESTARTUP
290
     0
  0
ENDSEC
  0
SECTION
  2
CLASSES
  0
CLASS
  1
ACDBDICTIONARYWDFLT
  2
AcDbDictionaryWithDefault
  3
ObjectDBX Classes
 90
        0
280
     0
281
     0
  0
CLASS
  1
ACDBPLACEHOLDER
  2
AcDbPlaceHolder
  3
ObjectDBX Classes
 90
        0
280
     0
281
     0
  0
CLASS
  1
LAYOUT
  2
AcDbLayout
  3
ObjectDBX Classes
 90
        0
280
     0
281
     0
  0
CLASS
  1
DICTIONARYVAR
  2
AcDbDictionaryVar
  3
ObjectDBX Classes
 90
        0
280
     0
281
     0
  0
CLASS
  1
DIMASSOC
  2
AcDbDimAssoc
  3
"AcDbDimAssoc|Product Desc:     AcDim ARX App For Dimension|Company:          Autodesk, Inc.|WEB Address:      www.autodesk.com"
 90
        0
280
     0
281
     0
  0
CLASS
  1
MATERIAL
  2
AcDbMaterial
  3
ObjectDBX Classes
 90
     1153
280
     0
281
     0
  0
CLASS
  1
VISUALSTYLE
  2
AcDbVisualStyle
  3
ObjectDBX Classes
 90
     4095
280
     0
281
     0
  0
CLASS
  1
TABLESTYLE
  2
AcDbTableStyle
  3
ObjectDBX Classes
 90
     4095
280
     0
281
     0
  0
CLASS
  1
SCALE
  2
AcDbScale
  3
ObjectDBX Classes
 90
     1153
280
     0
281
     0
  0
CLASS
  1
MLEADERSTYLE
  2
AcDbMLeaderStyle
  3
ACDB_MLEADERSTYLE_CLASS
 90
     4095
280
     0
281
     0
  0
CLASS
  1
CELLSTYLEMAP
  2
AcDbCellStyleMap
  3
ObjectDBX Classes
 90
     1152
280
     0
281
     0
  0
ENDSEC
  0
SECTION
  2
TABLES
  0
TABLE
  2
VPORT
  5
8
330
0
100
AcDbSymbolTable
 70
     1
  0
VPORT
  5
16AA
330
8
100
AcDbSymbolTableRecord
100
AcDbViewportTableRecord
  2
*Active
 70
     0
 10
0.0
 20
0.0
 11
1.0
 21
1.0
 12
263.152948612418
 22
1057.108626709893
 13
0.0
 23
0.0
 14
10.0
 24
10.0
 15
10.0
 25
10.0
 16
0.0
 26
0.0
 36
1.0
 17
0.0
 27
0.0
 37
0.0
 40
1.86179552746294
 41
1.645464025026068
 42
50.0
 43
0.0
 44
0.0
 50
0.0
 51
0.0
 71
     0
 72
   100
 73
     1
 74
     2
 75
     0
 76
     0
 77
     0
 78
     0
281
     0
 65
     1
110
0.0
120
0.0
130
0.0
111
1.0
121
0.0
131
0.0
112
0.0
122
1.0
132
0.0
 79
     0
146
0.0
  0
ENDTAB
  0
TABLE
  2
LTYPE
  5
5
330
0
100
AcDbSymbolTable
 70
     5
  0
LTYPE
  5
14
330
5
100
AcDbSymbolTableRecord
100
AcDbLinetypeTableRecord
  2
ByBlock
 70
     0
  3

 72
    65
 73
     0
 40
0.0
  0
LTYPE
  5
15
330
5
100
AcDbSymbolTableRecord
100
AcDbLinetypeTableRecord
  2
ByLayer
 70
     0
  3

 72
    65
 73
     0
 40
0.0
  0
LTYPE
  5
16
330
5
100
AcDbSymbolTableRecord
100
AcDbLinetypeTableRecord
  2
Continuous
 70
     0
  3
Solid line
 72
    65
 73
     0
 40
0.0
  0
LTYPE
  5
2D
330
5
100
AcDbSymbolTableRecord
100
AcDbLinetypeTableRecord
  2
DASHDOT
 70
     0
  3
Dash dot __ . __ . __ . __ . __ . __ . __ . __
 72
    65
 73
     4
 40
25.4
 49
12.7
 74
     0
 49
-6.349999999999999
 74
     0
 49
0.0
 74
     0
 49
-6.349999999999999
 74
     0
  0
LTYPE
  5
2E
330
5
100
AcDbSymbolTableRecord
100
AcDbLinetypeTableRecord
  2
HIDDEN
 70
     0
  3
Hidden __ __ __ __ __ __ __ __ __ __ __ __ __ _
 72
    65
 73
     2
 40
9.524999999999998
 49
6.349999999999999
 74
     0
 49
-3.174999999999999
 74
     0
  0
LTYPE
  5
C16
330
5
100
AcDbSymbolTableRecord
100
AcDbLinetypeTableRecord
  2
CENTER
 70
     0
  3
____ _ ____ _ ____ _ ____ _ ____ _ ____ _ ____ 
 72
    65
 73
     4
 40
2.0
 49
1.25
 74
     0
 49
-0.25
 74
     0
 49
0.25
 74
     0
 49
-0.25
 74
     0
  0
ENDTAB
  0
TABLE
  2
LAYER
  5
2
330
0
100
AcDbSymbolTable
 70
    17
  0
LAYER
  5
10
102
{ACAD_XDICTIONARY
360
16FD
102
}
330
2
100
AcDbSymbolTableRecord
100
AcDbLayerTableRecord
  2
0
 70
     0
 62
     7
  6
Continuous
370
    -3
390
F
  0
LAYER
  5
2F
102
{ACAD_XDICTIONARY
360
16FF
102
}
330
2
100
AcDbSymbolTableRecord
100
AcDbLayerTableRecord
  2
1
 70
     0
 62
     1
  6
Continuous
370
    -3
390
F
  0
LAYER
  5
30
102
{ACAD_XDICTIONARY
360
1701
102
}
330
2
100
AcDbSymbolTableRecord
100
AcDbLayerTableRecord
  2
2
 70
     0
 62
     2
  6
Continuous
370
    -3
390
F
  0
LAYER
  5
31
102
{ACAD_XDICTIONARY
360
1703
102
}
330
2
100
AcDbSymbolTableRecord
100
AcDbLayerTableRecord
  2
3
 70
     0
 62
     3
  6
Continuous
370
    -3
390
F
  0
LAYER
  5
32
102
{ACAD_XDICTIONARY
360
1705
102
}
330
2
100
AcDbSymbolTableRecord
100
AcDbLayerTableRecord
  2
4
 70
     0
 62
     4
  6
Continuous
370
    -3
390
F
  0
LAYER
  5
33
102
{ACAD_XDICTIONARY
360
1707
102
}
330
2
100
AcDbSymbolTableRecord
100
AcDbLayerTableRecord
  2
5
 70
     0
 62
     5
  6
Continuous
370
    -3
390
F
  0
LAYER
  5
34
102
{ACAD_XDICTIONARY
360
1709
102
}
330
2
100
AcDbSymbolTableRecord
100
AcDbLayerTableRecord
  2
6
 70
     0
 62
     6
  6
Continuous
370
    -3
390
F
  0
LAYER
  5
35
102
{ACAD_XDICTIONARY
360
170B
102
}
330
2
100
AcDbSymbolTableRecord
100
AcDbLayerTableRecord
  2
7
 70
     0
 62
     7
  6
Continuous
370
    -3
390
F
  0
LAYER
  5
36
102
{ACAD_XDICTIONARY
360
170D
102
}
330
2
100
AcDbSymbolTableRecord
100
AcDbLayerTableRecord
  2
cen
 70
     0
 62
     7
  6
DASHDOT
370
    -3
390
F
  0
LAYER
  5
37
102
{ACAD_XDICTIONARY
360
170F
102
}
330
2
100
AcDbSymbolTableRecord
100
AcDbLayerTableRecord
  2
hid
 70
     0
 62
     7
  6
HIDDEN
370
    -3
390
F
  0
LAYER
  5
5D6
102
{ACAD_XDICTIONARY
360
1711
102
}
330
2
100
AcDbSymbolTableRecord
100
AcDbLayerTableRecord
  2
hatch
 70
     0
 62
     9
  6
Continuous
370
    -3
390
F
  0
LAYER
  5
8AF
102
{ACAD_XDICTIONARY
360
1713
102
}
330
2
100
AcDbSymbolTableRecord
100
AcDbLayerTableRecord
  2
9
 70
     0
 62
     9
  6
Continuous
370
    -3
390
F
  0
LAYER
  5
8F8
102
{ACAD_XDICTIONARY
360
1715
102
}
330
2
100
AcDbSymbolTableRecord
100
AcDbLayerTableRecord
  2
leg fin
 70
     0
 62
     9
  6
Continuous
370
    -3
390
F
  0
LAYER
  5
91D
102
{ACAD_XDICTIONARY
360
1717
102
}
330
2
100
AcDbSymbolTableRecord
100
AcDbLayerTableRecord
  2
cotas
 70
     0
 62
     1
  6
Continuous
370
    -3
390
F
  0
LAYER
  5
92F
330
2
100
AcDbSymbolTableRecord
100
AcDbLayerTableRecord
  2
Defpoints
 70
     0
 62
     7
  6
Continuous
290
     0
370
    -3
390
F
  0
LAYER
  5
C17
102
{ACAD_XDICTIONARY
360
1719
102
}
330
2
100
AcDbSymbolTableRecord
100
AcDbLayerTableRecord
  2
quote
 70
     0
 62
     7
  6
Continuous
370
    18
390
F
  0
LAYER
  5
16FC
102
{ACAD_XDICTIONARY
360
171B
102
}
330
2
100
AcDbSymbolTableRecord
100
AcDbLayerTableRecord
  2
SANINDUSA
 70
     0
 62
     3
  6
Continuous
370
    -3
390
F
  0
ENDTAB
  0
TABLE
  2
STYLE
  5
3
330
0
100
AcDbSymbolTable
 70
     3
  0
STYLE
  5
11
330
3
100
AcDbSymbolTableRecord
100
AcDbTextStyleTableRecord
  2
Standard
 70
     0
 40
0.0
 41
1.0
 50
0.0
 71
     0
 42
2.5
  3
Avgardn.ttf
  4

1001
ACAD
1000
AvantGarde Bk BT
1071
       34
  0
STYLE
  5
2C
330
3
100
AcDbSymbolTableRecord
100
AcDbTextStyleTableRecord
  2

 70
     1
 40
0.0
 41
1.0
 50
0.0
 71
     0
 42
2.5
  3
ltypeshp.shx
  4

  0
STYLE
  5
91F
330
3
100
AcDbSymbolTableRecord
100
AcDbTextStyleTableRecord
  2
SANINDUSA
 70
     0
 40
0.0
 41
1.0
 50
0.0
 71
     0
 42
2.5
  3
verdana.TTF
  4

1001
ACAD
1000
Verdana
1071
       34
  0
ENDTAB
  0
TABLE
  2
VIEW
  5
6
330
0
100
AcDbSymbolTable
 70
     0
  0
ENDTAB
  0
TABLE
  2
UCS
  5
7
330
0
100
AcDbSymbolTable
 70
     0
  0
ENDTAB
  0
TABLE
  2
APPID
  5
9
330
0
100
AcDbSymbolTable
 70
     6
  0
APPID
  5
12
330
9
100
AcDbSymbolTableRecord
100
AcDbRegAppTableRecord
  2
ACAD
 70
     0
  0
APPID
  5
3A
330
9
100
AcDbSymbolTableRecord
100
AcDbRegAppTableRecord
  2
DCO15
 70
     0
  0
APPID
  5
C19
330
9
100
AcDbSymbolTableRecord
100
AcDbRegAppTableRecord
  2
GENIUS_GENREC_14
 70
     0
  0
APPID
  5
C1A
330
9
100
AcDbSymbolTableRecord
100
AcDbRegAppTableRecord
  2
GENIUS_GENODEF_13
 70
     0
  0
APPID
  5
C1B
330
9
100
AcDbSymbolTableRecord
100
AcDbRegAppTableRecord
  2
GENIUS_GENOBJ-N-REC_13
 70
     0
  0
APPID
  5
1798
330
9
100
AcDbSymbolTableRecord
100
AcDbRegAppTableRecord
  2
ACAD_MLEADERVER
 70
     0
  0
ENDTAB
  0
TABLE
  2
DIMSTYLE
  5
A
330
0
100
AcDbSymbolTable
 70
     4
100
AcDbDimStyleTable
 71
     1
340
921
  0
DIMSTYLE
105
45
330
A
100
AcDbSymbolTableRecord
100
AcDbDimStyleTableRecord
  2
STANDARD
 70
     0
289
     0
340
11
  0
DIMSTYLE
105
921
330
A
100
AcDbSymbolTableRecord
100
AcDbDimStyleTableRecord
  2
SANINDUSA
 70
     0
 41
2.0
 42
1.0
 43
1.0
 44
1.0
 73
     0
 74
     0
 77
     1
 78
     8
140
2.0
141
0.0
143
0.03937007874016
147
1.0
171
     3
172
     1
176
   256
177
   256
178
   256
179
     1
271
     1
272
     1
274
     3
278
    44
283
     0
284
     8
340
91F
371
    -1
372
    -1
  0
DIMSTYLE
105
C18
330
A
100
AcDbSymbolTableRecord
100
AcDbDimStyleTableRecord
  2
ISO-25
 70
     0
 40
5.0
 41
2.5
 42
0.625
 43
3.75
 44
1.25
 73
     0
 74
     0
 77
     1
 78
     8
140
2.5
141
2.5
143
0.03937007874016
147
0.625
171
     3
172
     1
271
     0
272
     0
274
     3
278
    44
283
     0
284
     8
340
11
  0
ENDTAB
  0
TABLE
  2
BLOCK_RECORD
  5
1
330
0
100
AcDbSymbolTable
 70
    30
  0
BLOCK_RECORD
  5
1F
330
1
100
AcDbSymbolTableRecord
100
AcDbBlockTableRecord
  2
*Model_Space
340
22
  0
BLOCK_RECORD
  5
1B
330
1
100
AcDbSymbolTableRecord
100
AcDbBlockTableRecord
  2
*Paper_Space
340
1E
  0
BLOCK_RECORD
  5
23
330
1
100
AcDbSymbolTableRecord
100
AcDbBlockTableRecord
  2
*Paper_Space0
340
26
  0
BLOCK_RECORD
  5
919
330
1
100
AcDbSymbolTableRecord
100
AcDbBlockTableRecord
  2
_DotSmall
340
0
  0
BLOCK_RECORD
  5
922
330
1
100
AcDbSymbolTableRecord
100
AcDbBlockTableRecord
  2
base para cotas
340
0
310
2800000020000000200000000100080000000000000400000000000000000000000000000000000000000000000080000080000000808000800000008000800080800000C0C0C000C0DCC000F0CAA6000020400000206000002080000020A0000020C0000020E00000400000004020000040400000406000004080000040A0
310
000040C0000040E00000600000006020000060400000606000006080000060A0000060C0000060E00000800000008020000080400000806000008080000080A0000080C0000080E00000A0000000A0200000A0400000A0600000A0800000A0A00000A0C00000A0E00000C0000000C0200000C0400000C0600000C0800000C0
310
A00000C0C00000C0E00000E0000000E0200000E0400000E0600000E0800000E0A00000E0C00000E0E00040000000400020004000400040006000400080004000A0004000C0004000E00040200000402020004020400040206000402080004020A0004020C0004020E000404000004040200040404000404060004040800040
310
40A0004040C0004040E00040600000406020004060400040606000406080004060A0004060C0004060E00040800000408020004080400040806000408080004080A0004080C0004080E00040A0000040A0200040A0400040A0600040A0800040A0A00040A0C00040A0E00040C0000040C0200040C0400040C0600040C08000
310
40C0A00040C0C00040C0E00040E0000040E0200040E0400040E0600040E0800040E0A00040E0C00040E0E00080000000800020008000400080006000800080008000A0008000C0008000E00080200000802020008020400080206000802080008020A0008020C0008020E00080400000804020008040400080406000804080
310
008040A0008040C0008040E00080600000806020008060400080606000806080008060A0008060C0008060E00080800000808020008080400080806000808080008080A0008080C0008080E00080A0000080A0200080A0400080A0600080A0800080A0A00080A0C00080A0E00080C0000080C0200080C0400080C0600080C0
310
800080C0A00080C0C00080C0E00080E0000080E0200080E0400080E0600080E0800080E0A00080E0C00080E0E000C0000000C0002000C0004000C0006000C0008000C000A000C000C000C000E000C0200000C0202000C0204000C0206000C0208000C020A000C020C000C020E000C0400000C0402000C0404000C0406000C0
310
408000C040A000C040C000C040E000C0600000C0602000C0604000C0606000C0608000C060A000C060C000C060E000C0800000C0802000C0804000C0806000C0808000C080A000C080C000C080E000C0A00000C0A02000C0A04000C0A06000C0A08000C0A0A000C0A0C000C0A0E000C0C00000C0C02000C0C04000C0C06000
310
C0C08000C0C0A000F0FBFF00A4A0A000808080000000FF0000FF000000FFFF00FF000000FF00FF00FFFF0000FFFFFF00A4A4A4A4A4A4A4A4A4A4A4A4A4A4A4A4A4A4A4A4A4A4A4A4A4A4A4A4A4A4A4A4A4A4A4A4A4A4A4A4A4A4A4A4A4A4A4A4A4A4A4A4A4A4A4A4A4A4A4A4A4A4A4A4A4A4A4A4A4A4A4A4A4A4A4A4A4A4A4
310
A4A4A4A4A4A4A4A4A4A4A4A4A4A4A4A4A4A4A4A4A4A4A4A4A4A4A4A4A4A4A4A4A4A4A4A4A4A4A4A4A4A4A4A4A4A4A4A4A4A4A4A4A4A4A4A4A4A4A4A4A4A4A4A4A4A4A4A4A4A4A4A4A4A4A4A4A4A4A4A4A4A4A4A4A4A4A4A4A4A4A4A4A4A4A4A4A4A4A4A4A4A4A4A4A4A4A4A4A4A4A4A4A4A4A4A4A4A4A4A4A4A4A4A4A4A4A4
310
A4A4A4A4A4A4A4A4A4A4A4A4A4A4A4A4A4A4A4A4A4A4A4A4A4A4A4A4A4A4A4A4A4A4A4A4A4A4A4A4A4A4A4A4A4A4A4A4A4A4A4A4A4A4A4A4A4A4A4A4A4A4A4A4A4A4A4A4A4A4A4A4A4A4A4A4A4A4A4A4A4A4A4A4A4A4A4A4A4A4A4A4A4A4A4A4A4A4A4A4A4A4A4A4A4A4A4A4A4A4A4A4A4A4A4A4A4A4A4A4A4A4A4A4A4A4A4
310
A4A4A4A4A4A4A4A4A4A4A4A4A4A4A4A4A4A4A4A4A4A4A4A4A4A4A4A4A4A4A4A4A4A4A4A4A4A4A4A4A4A4A4A4A4A4A4A4A4A4A4A4A4A4A4A4A4A4A4A4A4A4A4A4A4A4A4A4A4A4A4A4A4A4A4A4A4A4A4A4A4A4A4A4A4A4A4A4A4A4A4A4A4A4A4A4A4A4A4A4A4A4A4A4A4A4A4A4A4A4A4A4A4A4A4A4F9F9F9F9F9F9F9F9F9F9F9
310
F9F9F9F9F9F9F9F9F9F9F9F9F9F9F9F9F9F9F9A4A4F9F9F9F9F9F9F9F9F9F9F9F9F9F9F9F9F9F9F9F9F9F9F9F9F9F9F9F9F9F9A4A4F9F9F9F9F9F9F9F9F9F9F9F9F9F9F9F9F9F9F9F9F9F9F9F9F9F9F9F9F9F9A4A4F9A4A4A4A4A4A4A4A4A4A4A4A4A4A4A4A4A4A4A4A4A4A4A4A4A4A4A4A4F9A4A4A4A4A4A4A4A4A4A4A4A4
310
A4A4A4A4A4A4A4A4A4A4A4A4A4A4A4A4A4A4A4A4A4A4A4A4A4A4A4A4A4A4A4A4A4A4A4A4A4A4A4A4A4A4A4A4A4A4A4A4A4A4A4A4A4A4A4A4A4A4A4A4A4A4A4A4A4A4A4A4A4A4A4A4A4A4A4A4A4A4A4A4A4A4A4A4A4A4A4A4A4A4A4A4A4A4A4A4A4A4A4A4A4A4A4A4A4A4A4A4A4A4A4A4A4A4A4A4A4A4A4A4A4A4A4A4A4A4A4
310
A4A4A4A4A4A4A4A4A4A4A4A4A4A4A4A4A4A4A4A4A4A4A4A4A4A4A4A4A4A4A4A4A4A4A4A4A4A4A4A4A4A4A4A4A4A4A4A4A4A4A4A4A4A4A4A4A4A4A4A4A4A4A4A4A4A4A4A4A4A4A4A4A4A4A4A4A4A4A4A4A4A4A4A4A4A4A4A4A4A4A4A4A4A4A4A4A4A4A4A4A4A4A4A4A4A4A4A4A4A4A4A4A4A4A4A4A4A4A4A4A4A4A4A4A4A4A4
310
A4A4A4A4A4A4A4A4A4A4A4A4A4A4A4A4A4A4A4A4A4A4A4A4A4A4A4A4A4A4A4A4A4A4A4A4A4A4A4A4A4A4A4A4A4A4A4A4A4A4A4A4A4A4A4A4A4A4A4A4A4A4A4A4A4A4A4A4A4A4A4A4A4A4A4A4A4A4A4A4A4A4A4A4A4A4A4A4A4A4A4A4A4A4A4A4A4A4A4A4A4A4A4A4A4A4A4A4A4A4A4A4A4A4A4A4A4A4A4A4A4A4A4A4A4A4A4
310
A4A4A4A4A4A4A4A4A4A4A4A4A4A4A4A4A4A4A4A4A4A4A4A4A4A4A4A4A4A4A4A4A4A4A4A4A4A4A4A4A4A4A4A4A4A4A4A4A4A4A4A4A4A4A4A4
1001
ACAD
1000
DesignCenter Data
1002
{
1070
     1
1070
     4
1002
}
  0
BLOCK_RECORD
  5
AA8
330
1
100
AcDbSymbolTableRecord
100
AcDbBlockTableRecord
  2
_CLOSED
340
0
  0
BLOCK_RECORD
  5
BA5
330
1
100
AcDbSymbolTableRecord
100
AcDbBlockTableRecord
  2
guarnizione
340
0
  0
BLOCK_RECORD
  5
1072
330
1
100
AcDbSymbolTableRecord
100
AcDbBlockTableRecord
  2
*D8
340
0
  0
BLOCK_RECORD
  5
107E
330
1
100
AcDbSymbolTableRecord
100
AcDbBlockTableRecord
  2
*D9
340
0
  0
BLOCK_RECORD
  5
1093
330
1
100
AcDbSymbolTableRecord
100
AcDbBlockTableRecord
  2
*D10
340
0
  0
BLOCK_RECORD
  5
11C3
330
1
100
AcDbSymbolTableRecord
100
AcDbBlockTableRecord
  2
*D19
340
0
  0
BLOCK_RECORD
  5
11CF
330
1
100
AcDbSymbolTableRecord
100
AcDbBlockTableRecord
  2
*D20
340
0
  0
BLOCK_RECORD
  5
11DB
330
1
100
AcDbSymbolTableRecord
100
AcDbBlockTableRecord
  2
*D21
340
0
  0
BLOCK_RECORD
  5
11E7
330
1
100
AcDbSymbolTableRecord
100
AcDbBlockTableRecord
  2
*D22
340
0
  0
BLOCK_RECORD
  5
11F5
330
1
100
AcDbSymbolTableRecord
100
AcDbBlockTableRecord
  2
*D23
340
0
  0
BLOCK_RECORD
  5
1681
330
1
100
AcDbSymbolTableRecord
100
AcDbBlockTableRecord
  2
*D28
340
0
  0
ENDTAB
  0
ENDSEC
  0
SECTION
  2
BLOCKS
  0
BLOCK
  5
20
330
1F
100
AcDbEntity
  8
0
100
AcDbBlockBegin
  2
*Model_Space
 70
     0
 10
0.0
 20
0.0
 30
0.0
  3
*Model_Space
  1

  0
ENDBLK
  5
21
330
1F
100
AcDbEntity
  8
0
100
AcDbBlockEnd
  0
BLOCK
  5
1C
330
1B
100
AcDbEntity
 67
     1
  8
0
100
AcDbBlockBegin
  2
*Paper_Space
 70
     0
 10
0.0
 20
0.0
 30
0.0
  3
*Paper_Space
  1

  0
ENDBLK
  5
1D
330
1B
100
AcDbEntity
 67
     1
  8
0
100
AcDbBlockEnd
  0
BLOCK
  5
24
330
23
100
AcDbEntity
 67
     1
  8
0
100
AcDbBlockBegin
  2
*Paper_Space0
 70
     0
 10
0.0
 20
0.0
 30
0.0
  3
*Paper_Space0
  1

  0
ENDBLK
  5
25
330
23
100
AcDbEntity
 67
     1
  8
0
100
AcDbBlockEnd
  0
BLOCK
  5
91B
330
919
100
AcDbEntity
  8
0
100
AcDbBlockBegin
  2
_DotSmall
 70
     0
 10
0.0
 20
0.0
 30
0.0
  3
_DotSmall
  1

  0
LWPOLYLINE
  5
91A
330
919
100
AcDbEntity
  8
0
  6
ByBlock
 62
     0
100
AcDbPolyline
 90
        2
 70
     1
 43
0.5
 10
-0.0625
 20
0.0
 42
1.0
 10
0.0625
 20
0.0
 42
1.0
  0
ENDBLK
  5
91C
330
919
100
AcDbEntity
  8
0
100
AcDbBlockEnd
  0
BLOCK
  5
92A
330
922
100
AcDbEntity
  8
0
100
AcDbBlockBegin
  2
base para cotas
 70
     0
 10
0.0
 20
0.0
 30
0.0
  3
base para cotas
  1

  0
LINE
  5
B36
330
922
100
AcDbEntity
  8
cotas
100
AcDbLine
 10
0.0
 20
-30.0
 30
0.0
 11
327.1260136525398
 21
-30.0
 31
0.0
  0
LINE
  5
B37
330
922
100
AcDbEntity
  8
cotas
100
AcDbLine
 10
0.0
 20
-25.0
 30
0.0
 11
327.1260136525398
 21
-25.0
 31
0.0
  0
LINE
  5
B38
330
922
100
AcDbEntity
  8
cotas
100
AcDbLine
 10
0.0
 20
-20.0
 30
0.0
 11
327.1260136525398
 21
-20.0
 31
0.0
  0
LINE
  5
B39
330
922
100
AcDbEntity
  8
cotas
100
AcDbLine
 10
0.0
 20
-15.0
 30
0.0
 11
327.1260136525398
 21
-15.0
 31
0.0
  0
LINE
  5
B3A
330
922
100
AcDbEntity
  8
cotas
100
AcDbLine
 10
0.0
 20
-10.0
 30
0.0
 11
327.1260136525398
 21
-10.0
 31
0.0
  0
LINE
  5
B3B
330
922
100
AcDbEntity
  8
cotas
100
AcDbLine
 10
0.0
 20
0.0
 30
0.0
 11
0.0
 21
-30.0
 31
0.0
  0
LINE
  5
B3C
330
922
100
AcDbEntity
  8
cotas
100
AcDbLine
 10
327.1260136525398
 20
-30.0
 30
0.0
 11
327.1260136525398
 21
0.0
 31
0.0
  0
ENDBLK
  5
92B
330
922
100
AcDbEntity
  8
0
100
AcDbBlockEnd
  0
BLOCK
  5
AAD
330
AA8
100
AcDbEntity
  8
0
100
AcDbBlockBegin
  2
_CLOSED
 70
     0
 10
0.0
 20
0.0
 30
0.0
  3
_CLOSED
  1

  0
LINE
  5
AA9
330
AA8
100
AcDbEntity
  8
0
100
AcDbLine
 10
-1.0
 20
0.166667
 30
0.0
 11
0.0
 21
0.0
 31
0.0
  0
LINE
  5
AAA
330
AA8
100
AcDbEntity
  8
0
100
AcDbLine
 10
0.0
 20
0.0
 30
0.0
 11
-1.0
 21
-0.166667
 31
0.0
  0
LINE
  5
AAB
330
AA8
100
AcDbEntity
  8
0
100
AcDbLine
 10
-1.0
 20
0.166667
 30
0.0
 11
-1.0
 21
-0.166667
 31
0.0
  0
LINE
  5
AAC
330
AA8
100
AcDbEntity
  8
0
100
AcDbLine
 10
0.0
 20
0.0
 30
0.0
 11
-1.0
 21
0.0
 31
0.0
  0
ENDBLK
  5
AAE
330
AA8
100
AcDbEntity
  8
0
100
AcDbBlockEnd
  0
BLOCK
  5
BF0
330
BA5
100
AcDbEntity
  8
0
 62
     4
100
AcDbBlockBegin
  2
guarnizione
 70
     0
 10
0.0
 20
0.0
 30
0.0
  3
guarnizione
  1

  0
LINE
  5
BA6
330
BA5
100
AcDbEntity
  8
0
100
AcDbLine
 10
12.0
 20
3.179312414488776
 30
0.0
 11
12.0
 21
2.699999999999818
 31
0.0
  0
LINE
  5
BA7
330
BA5
100
AcDbEntity
  8
0
100
AcDbLine
 10
9.5
 20
3.130475008156281
 30
0.0
 11
9.440776269158959
 21
2.734883615801663
 31
0.0
  0
ARC
  5
BA8
330
BA5
100
AcDbEntity
  8
0
100
AcDbCircle
 10
11.19999999999891
 20
3.179312414488776
 30
0.0
 40
0.8
100
AcDbArc
 50
0.0
 51
81.48552156587461
  0
ARC
  5
BA9
330
BA5
100
AcDbEntity
  8
0
100
AcDbCircle
 10
8.753809903480942
 20
1.523241254200002
 30
0.0
 40
0.1999999999999504
100
AcDbArc
 50
171.485521565823
 51
351.485521565823
  0
LINE
  5
BAA
330
BA5
100
AcDbEntity
  8
0
100
AcDbLine
 10
11.65558220186904
 20
-2.403306455734309
 30
0.0
 11
9.440776269158959
 21
-2.734883615802573
 31
0.0
  0
ARC
  5
BAB
330
BA5
100
AcDbEntity
  8
0
100
AcDbCircle
 10
8.753809903480942
 20
-1.523241254200911
 30
0.0
 40
0.1999999999999504
100
AcDbArc
 50
8.514478434176927
 51
188.5144784341769
  0
LINE
  5
BAC
330
BA5
100
AcDbEntity
  8
0
100
AcDbLine
 10
9.5
 20
-3.130475008157191
 30
0.0
 11
9.440776269158959
 21
-2.734883615802573
 31
0.0
  0
ARC
  5
BAD
330
BA5
100
AcDbEntity
  8
0
100
AcDbCircle
 10
11.69999999999891
 20
-2.699999999999818
 30
0.0
 40
0.3
100
AcDbArc
 50
0.0
 51
98.51447843412536
  0
ARC
  5
BAE
330
BA5
100
AcDbEntity
  8
0
100
AcDbCircle
 10
11.69999999999891
 20
2.699999999999818
 30
0.0
 40
0.3
100
AcDbArc
 50
261.4855215658746
 51
0.0
  0
LINE
  5
BAF
330
BA5
100
AcDbEntity
  8
0
100
AcDbLine
 10
11.65558220186904
 20
2.4033064557334
 30
0.0
 11
9.440776269158959
 21
2.734883615801663
 31
0.0
  0
LINE
  5
BB0
330
BA5
100
AcDbEntity
  8
0
100
AcDbLine
 10
8.807715063378054
 20
3.234116537129011
 30
0.0
 11
8.556014207302723
 21
1.552853119620522
 31
0.0
  0
LINE
  5
BB1
330
BA5
100
AcDbEntity
  8
0
100
AcDbLine
 10
9.203306455732672
 20
3.174892806287971
 30
0.0
 11
8.951605599657341
 21
1.493629388779481
 31
0.0
  0
LINE
  5
BB2
330
BA5
100
AcDbEntity
  8
0
100
AcDbLine
 10
6.681411329471302
 20
3.552444090400967
 30
0.0
 11
6.622187598630262
 21
3.15685269804544
 31
0.0
  0
ARC
  5
BB3
330
BA5
100
AcDbEntity
  8
0
100
AcDbCircle
 10
0.2999999999992724
 20
3.800000000000181
 30
0.0
 40
0.3
100
AcDbArc
 50
81.48552156587461
 51
180.0
  0
ARC
  5
BB4
330
BA5
100
AcDbEntity
  8
0
100
AcDbCircle
 10
1.042400829128382
 20
4.699999999999818
 30
0.0
 40
0.8
100
AcDbArc
 50
81.48552156587461
 51
90.0
  0
LINE
  5
BB5
330
BA5
100
AcDbEntity
  8
0
100
AcDbLine
 10
1.5
 20
3.923692082123125
 30
0.0
 11
0.3444177981309622
 21
4.09669354426569
 31
0.0
  0
LINE
  5
BB6
330
BA5
100
AcDbEntity
  8
0
100
AcDbLine
 10
1.5
 20
3.923692082123125
 30
0.0
 11
1.5
 21
3.099999999999454
 31
0.0
  0
LINE
  5
BB7
330
BA5
100
AcDbEntity
  8
0
100
AcDbLine
 10
1.5
 20
3.099999999999454
 30
0.0
 11
2.699999999998908
 21
3.099999999999454
 31
0.0
  0
LINE
  5
BB8
330
BA5
100
AcDbEntity
  8
0
100
AcDbLine
 10
2.699999999998908
 20
3.744040860223321
 30
0.0
 11
2.699999999998908
 21
3.099999999999454
 31
0.0
  0
LINE
  5
BB9
330
BA5
100
AcDbEntity
  8
0
100
AcDbLine
 10
6.622187598630262
 20
3.15685269804544
 30
0.0
 11
2.699999999998908
 21
3.744040860223321
 31
0.0
  0
LINE
  5
BBA
330
BA5
100
AcDbEntity
  8
0
100
AcDbLine
 10
1.5
 20
-3.100000000000363
 30
0.0
 11
2.699999999998908
 21
-3.100000000000363
 31
0.0
  0
LINE
  5
BBB
330
BA5
100
AcDbEntity
  8
0
100
AcDbLine
 10
11.31844746168099
 20
3.970495199198012
 30
0.0
 11
1.160848290810463
 21
5.491182784709053
 31
0.0
  0
LINE
  5
BBC
330
BA5
100
AcDbEntity
  8
0
100
AcDbLine
 10
9.5
 20
3.130475008156281
 30
0.0
 11
6.681411329471302
 21
3.552444090400967
 31
0.0
  0
ARC
  5
BBD
330
BA5
100
AcDbEntity
  8
0
100
AcDbCircle
 10
11.19999999999891
 20
-3.179312414488776
 30
0.0
 40
0.8
100
AcDbArc
 50
278.5144784341254
 51
0.0
  0
LINE
  5
BBE
330
BA5
100
AcDbEntity
  8
0
100
AcDbLine
 10
6.681411329471302
 20
-3.552444090400967
 30
0.0
 11
6.622187598630262
 21
-3.15685269804635
 31
0.0
  0
ARC
  5
BBF
330
BA5
100
AcDbEntity
  8
0
100
AcDbCircle
 10
0.2999999999992724
 20
-3.800000000000181
 30
0.0
 40
0.3
100
AcDbArc
 50
180.0
 51
278.5144784341254
  0
ARC
  5
BC0
330
BA5
100
AcDbEntity
  8
0
100
AcDbCircle
 10
1.042400829128382
 20
-4.699999999999818
 30
0.0
 40
0.8
100
AcDbArc
 50
270.0
 51
278.5144784341254
  0
LINE
  5
BC1
330
BA5
100
AcDbEntity
  8
0
100
AcDbLine
 10
0.3444177981309622
 20
-4.096693544266599
 30
0.0
 11
1.5
 21
-3.923692082124034
 31
0.0
  0
LINE
  5
BC2
330
BA5
100
AcDbEntity
  8
0
100
AcDbLine
 10
6.622187598630262
 20
-3.15685269804635
 30
0.0
 11
2.699999999998908
 21
-3.744040860224231
 31
0.0
  0
LINE
  5
BC3
330
BA5
100
AcDbEntity
  8
0
100
AcDbLine
 10
1.160848290810463
 20
-5.491182784709963
 30
0.0
 11
11.31844746168099
 21
-3.970495199198921
 31
0.0
  0
LINE
  5
BC4
330
BA5
100
AcDbEntity
  8
0
100
AcDbLine
 10
0.0
 20
3.800000000000181
 30
0.0
 11
0.0
 21
-3.800000000000181
 31
0.0
  0
LINE
  5
BC5
330
BA5
100
AcDbEntity
  8
0
100
AcDbLine
 10
12.0
 20
-2.699999999999818
 30
0.0
 11
12.0
 21
-3.179312414488776
 31
0.0
  0
LINE
  5
BC6
330
BA5
100
AcDbEntity
  8
0
100
AcDbLine
 10
2.699999999998908
 20
-3.100000000000363
 30
0.0
 11
2.699999999998908
 21
-3.744040860224231
 31
0.0
  0
LINE
  5
BC7
330
BA5
100
AcDbEntity
  8
0
100
AcDbLine
 10
1.5
 20
-3.100000000000363
 30
0.0
 11
1.5
 21
-3.923692082124034
 31
0.0
  0
LINE
  5
BC8
330
BA5
100
AcDbEntity
  8
0
100
AcDbLine
 10
9.5
 20
-3.130475008157191
 30
0.0
 11
6.681411329471302
 21
-3.552444090400967
 31
0.0
  0
LINE
  5
BC9
330
BA5
100
AcDbEntity
  8
0
100
AcDbLine
 10
9.203306455732672
 20
-3.174892806287971
 30
0.0
 11
8.951605599657341
 21
-1.493629388780391
 31
0.0
  0
LINE
  5
BCA
330
BA5
100
AcDbEntity
  8
0
100
AcDbLine
 10
8.807715063378054
 20
-3.234116537129011
 30
0.0
 11
8.556014207302723
 21
-1.552853119621431
 31
0.0
  0
LINE
  5
BCB
330
BA5
100
AcDbEntity
  8
0
100
AcDbLine
 10
-1.5
 20
5.5
 30
0.0
 11
-3.757359312881817
 21
5.5
 31
0.0
  0
ARC
  5
BCC
330
BA5
100
AcDbEntity
  8
0
100
AcDbCircle
 10
-2.5
 20
3.5
 30
0.0
 40
1.0
100
AcDbArc
 50
0.0
 51
90.0
  0
ARC
  5
BCD
330
BA5
100
AcDbEntity
  8
0
100
AcDbCircle
 10
-3.769781102879278
 20
4.149978862833449
 30
0.0
 40
0.75
100
AcDbArc
 50
47.16775949949599
 51
90.19499109987526
  0
ARC
  5
BCE
330
BA5
100
AcDbEntity
  8
0
100
AcDbCircle
 10
-2.75
 20
5.25
 30
0.0
 40
0.75
100
AcDbArc
 50
227.167759499496
 51
270.0
  0
LINE
  5
BCF
330
BA5
100
AcDbEntity
  8
0
100
AcDbLine
 10
-2.75
 20
4.5
 30
0.0
 11
-2.5
 21
4.5
 31
0.0
  0
LINE
  5
BD0
330
BA5
100
AcDbEntity
  8
0
100
AcDbLine
 10
-7.415254325502246
 20
3.064644661409147
 30
0.0
 11
-6.868629150101696
 21
3.611269837220788
 31
0.0
  0
ARC
  5
BD1
102
{ACAD_REACTORS
330
BEB
102
}
330
BA5
100
AcDbEntity
  8
0
100
AcDbCircle
 10
-7.980939750059405
 20
2.569669913566031
 30
0.0
 40
0.2
100
AcDbArc
 50
45.0000001037625
 51
135.0000000719631
  0
ARC
  5
BD2
330
BA5
100
AcDbEntity
  8
0
100
AcDbCircle
 10
-3.757359312881817
 20
0.5
 30
0.0
 40
5.0
100
AcDbArc
 50
90.0
 51
135.0
  0
ARC
  5
BD3
330
BA5
100
AcDbEntity
  8
0
100
AcDbCircle
 10
-3.757359312881817
 20
0.5
 30
0.0
 40
4.4
100
AcDbArc
 50
90.19499109987526
 51
135.0
  0
ARC
  5
BD4
330
BA5
100
AcDbEntity
  8
0
100
AcDbCircle
 10
-6.814213563102384
 20
0.9786796633270569
 30
0.0
 40
0.75
100
AcDbArc
 50
314.9999999676111
 51
45.0
  0
ARC
  5
BD5
102
{ACAD_REACTORS
330
BEB
102
}
330
BA5
100
AcDbEntity
  8
0
100
AcDbCircle
 10
-6.814213563102384
 20
0.9786796633270569
 30
0.0
 40
0.5
100
AcDbArc
 50
314.9999999676111
 51
45.0
  0
ARC
  5
BD6
330
BA5
100
AcDbEntity
  8
0
100
AcDbCircle
 10
-7.203122291144609
 20
2.852512627053329
 30
0.0
 40
0.3
100
AcDbArc
 50
135.0
 51
225.0000001112794
  0
LINE
  5
BD7
330
BA5
100
AcDbEntity
  8
0
100
AcDbLine
 10
-8.051650430128574
 20
3.276776694619002
 30
0.0
 11
-6.283883477519339
 21
1.509009749524921
 31
0.0
  0
LINE
  5
BD8
102
{ACAD_REACTORS
330
BEB
102
}
330
BA5
100
AcDbEntity
  8
0
100
AcDbLine
 10
-7.839518394079277
 20
2.711091270059114
 30
0.0
 11
-6.460660172508141
 21
1.33223305392039
 31
0.0
  0
ARC
  5
BD9
330
BA5
100
AcDbEntity
  8
0
100
AcDbCircle
 10
-12.57713383280133
 20
-2.521498914058611
 30
0.0
 40
0.3
100
AcDbArc
 50
45.00000003552097
 51
135.0
  0
ARC
  5
BDA
102
{ACAD_REACTORS
330
BEB
102
}
330
BA5
100
AcDbEntity
  8
0
100
AcDbCircle
 10
-12.29429112059733
 20
-1.743681468243266
 30
0.0
 40
0.2
100
AcDbArc
 50
135.0000000660675
 51
225.0000002990173
  0
LINE
  5
BDB
330
BA5
100
AcDbEntity
  8
0
100
AcDbLine
 10
-12.9899494936617
 20
-2.510050506339212
 30
0.0
 11
-12.78926586715715
 21
-2.309366879702793
 31
0.0
  0
LINE
  5
BDC
330
BA5
100
AcDbEntity
  8
0
100
AcDbLine
 10
-13.41421356237333
 20
-2.085786437626666
 30
0.0
 11
-7.292893218815152
 21
4.035533905932425
 31
0.0
  0
LINE
  5
BDD
102
{ACAD_REACTORS
330
BEB
102
}
330
BA5
100
AcDbEntity
  8
0
100
AcDbLine
 10
-12.43571247699765
 20
-1.602260112168551
 30
0.0
 11
-8.122361106474272
 21
2.711091269625285
 31
0.0
  0
ARC
  5
BDE
330
BA5
100
AcDbEntity
  8
0
100
AcDbCircle
 10
-2.5
 20
-3.5
 30
0.0
 40
1.0
100
AcDbArc
 50
270.0
 51
0.0
  0
ARC
  5
BDF
330
BA5
100
AcDbEntity
  8
0
100
AcDbCircle
 10
-7.519803902720013
 20
-4.150000000000545
 30
0.0
 40
0.75
100
AcDbArc
 50
270.0
 51
312.8334280660476
  0
ARC
  5
BE0
330
BA5
100
AcDbEntity
  8
0
100
AcDbCircle
 10
-6.5
 20
-5.25
 30
0.0
 40
0.75
100
AcDbArc
 50
90.0
 51
132.8334280660476
  0
LINE
  5
BE1
330
BA5
100
AcDbEntity
  8
0
100
AcDbLine
 10
-2.5
 20
-4.5
 30
0.0
 11
-6.5
 21
-4.5
 31
0.0
  0
ARC
  5
BE2
330
BA5
100
AcDbEntity
  8
0
100
AcDbCircle
 10
-10.7033008647486
 20
-2.910407640086305
 30
0.0
 40
0.75
100
AcDbArc
 50
225.0
 51
315.0
  0
ARC
  5
BE3
102
{ACAD_REACTORS
330
BEB
102
}
330
BA5
100
AcDbEntity
  8
0
100
AcDbCircle
 10
-10.7033008647486
 20
-2.910407640086305
 30
0.0
 40
0.5
100
AcDbArc
 50
225.0
 51
315.0
  0
LINE
  5
BE4
330
BA5
100
AcDbEntity
  8
0
100
AcDbLine
 10
-1.5
 20
-5.5
 30
0.0
 11
-12.0
 21
-5.5
 31
0.0
  0
LINE
  5
BE5
330
BA5
100
AcDbEntity
  8
0
100
AcDbLine
 10
-7.519803902720013
 20
-4.900000000000545
 30
0.0
 11
-12.0
 21
-4.900000000000545
 31
0.0
  0
ARC
  5
BE6
330
BA5
100
AcDbEntity
  8
0
100
AcDbCircle
 10
-12.0
 20
-3.5
 30
0.0
 40
2.0
100
AcDbArc
 50
135.0
 51
270.0
  0
LINE
  5
BE7
330
BA5
100
AcDbEntity
  8
0
100
AcDbLine
 10
-10.17297077881812
 20
-3.440737725935832
 30
0.0
 11
-6.283883477372
 21
0.4483495772774404
 31
0.0
  0
ARC
  5
BE8
330
BA5
100
AcDbEntity
  8
0
100
AcDbCircle
 10
-12.0
 20
-3.5
 30
0.0
 40
1.399999999999999
100
AcDbArc
 50
135.0
 51
270.0
  0
LINE
  5
BE9
330
BA5
100
AcDbEntity
  8
0
100
AcDbLine
 10
-13.00139790187859
 20
-1.672970777132832
 30
0.0
 11
-11.23363095093009
 21
-3.440737725682993
 31
0.0
  0
LINE
  5
BEA
330
BA5
100
AcDbEntity
  8
0
100
AcDbLine
 10
-1.5
 20
3.5
 30
0.0
 11
-1.5
 21
-3.5
 31
0.0
  0
HATCH
  5
BEB
330
BA5
100
AcDbEntity
  8
0
100
AcDbHatch
 10
0.0
 20
0.0
 30
0.0
210
0.0
220
0.0
230
1.0
  2
ANSI31
 70
     0
 71
     1
 91
        1
 92
        7
 72
     1
 73
     1
 93
        8
 10
-6.460660173204814
 20
1.332233054616153
 42
0.0
 10
-7.839518394101105
 20
2.711091270081851
 42
0.414213562178905
 10
-8.122361106481548
 20
2.711091269618009
 42
0.0
 10
-12.43571247701766
 20
-1.602260112190379
 42
0.4142135636146872
 10
-12.43571247604996
 20
-1.885102825264766
 42
0.0
 10
-11.05685425338015
 20
-3.263961032639599
 42
0.4142135608152901
 10
-10.34974747407432
 20
-3.263961030598693
 42
0.0
 10
-6.460660172428106
 20
0.625126272813759
 42
0.4142135628833784
 97
        8
330
BD8
330
BD1
330
BDD
330
BDA
330
BED
330
BE3
330
BEC
330
BD5
 75
     0
 76
     1
 52
45.0
 41
0.25
 77
     0
 78
     1
 53
90.0
 43
-276.1145346408611
 44
-395.2719013892401
 45
-0.79375
 46
0.0000000000000002
 79
     0
 47
0.0364805528584695
 98
        1
 10
-7.399477738399582
 20
0.8532363732892918
  0
LINE
  5
BEC
102
{ACAD_REACTORS
330
BEB
102
}
330
BA5
100
AcDbEntity
  8
0
100
AcDbLine
 10
-10.34974747415435
 20
-3.263961030678729
 30
0.0
 11
-6.46066017270823
 21
0.6251262725336347
 31
0.0
  0
LINE
  5
BED
102
{ACAD_REACTORS
330
BEB
102
}
330
BA5
100
AcDbEntity
  8
0
100
AcDbLine
 10
-12.43571247609543
 20
-1.885102825218382
 30
0.0
 11
-11.05685425534102
 21
-3.263961030678729
 31
0.0
  0
LINE
  5
BEE
330
BA5
100
AcDbEntity
  8
0
100
AcDbLine
 10
-1.5
 20
5.5
 30
0.0
 11
1.042400829128382
 21
5.5
 31
0.0
  0
LINE
  5
BEF
330
BA5
100
AcDbEntity
  8
0
100
AcDbLine
 10
-1.5
 20
-5.5
 30
0.0
 11
1.042400829128382
 21
-5.5
 31
0.0
  0
ENDBLK
  5
BF1
330
BA5
100
AcDbEntity
  8
0
 62
     4
100
AcDbBlockEnd
  0
BLOCK
  5
107C
330
1072
100
AcDbEntity
  8
0
100
AcDbBlockBegin
  2
*D8
 70
     1
 10
0.0
 20
0.0
 30
0.0
  3
*D8
  1

  0
LINE
  5
1661
330
1072
100
AcDbEntity
  8
7
100
AcDbLine
 10
390.7333066668075
 20
1005.063791672005
 30
0.0
 11
390.7333066668075
 21
988.8553266417206
 31
0.0
  0
LINE
  5
1662
330
1072
100
AcDbEntity
  8
7
100
AcDbLine
 10
481.1522278151726
 20
1005.064787691016
 30
0.0
 11
481.1522278151726
 21
988.8553266417206
 31
0.0
  0
LINE
  5
1663
330
1072
100
AcDbEntity
  8
7
100
AcDbLine
 10
392.7333066668075
 20
989.8553266417206
 30
0.0
 11
479.1522278151726
 21
989.8553266417206
 31
0.0
  0
SOLID
  5
1664
330
1072
100
AcDbEntity
  8
7
100
AcDbTrace
 10
392.7333066668075
 20
990.188659975054
 30
0.0
 11
392.7333066668075
 21
989.5219933083872
 31
0.0
 12
390.7333066668075
 22
989.8553266417206
 32
0.0
 13
390.7333066668075
 23
989.8553266417206
 33
0.0
  0
SOLID
  5
1665
330
1072
100
AcDbEntity
  8
7
100
AcDbTrace
 10
479.1522278151726
 20
990.188659975054
 30
0.0
 11
479.1522278151726
 21
989.5219933083872
 31
0.0
 12
481.1522278151726
 22
989.8553266417206
 32
0.0
 13
481.1522278151726
 23
989.8553266417206
 33
0.0
  0
MTEXT
  5
1666
330
1072
100
AcDbEntity
  8
7
100
AcDbMText
 10
435.94276724099
 20
992.1044871521301
 30
0.0
 40
2.0
 41
0.0
 71
     5
 72
     1
  1
MAX. 914 mm / MIN. 884 mm
  7
SANINDUSA
 73
     1
 44
1.0
1001
ACAD
1000
MTEXTBEGIN
1070
    73
1070
     1
1070
    44
1040
1.0
1070
    74
1070
     0
1000
MTEXTEND
  0
POINT
  5
1667
330
1072
100
AcDbEntity
  8
Defpoints
 62
     0
100
AcDbPoint
 10
390.7333066668075
 20
1006.063791672005
 30
0.0
  0
POINT
  5
1668
330
1072
100
AcDbEntity
  8
Defpoints
 62
     0
100
AcDbPoint
 10
481.1522278151726
 20
1006.064787691016
 30
0.0
  0
POINT
  5
1669
330
1072
100
AcDbEntity
  8
Defpoints
 62
     0
100
AcDbPoint
 10
481.1522278151726
 20
989.8553266417206
 30
0.0
  0
ENDBLK
  5
107D
330
1072
100
AcDbEntity
  8
0
100
AcDbBlockEnd
  0
BLOCK
  5
1088
330
107E
100
AcDbEntity
  8
0
100
AcDbBlockBegin
  2
*D9
 70
     1
 10
0.0
 20
0.0
 30
0.0
  3
*D9
  1

  0
LINE
  5
1658
330
107E
100
AcDbEntity
  8
7
100
AcDbLine
 10
397.1292222208909
 20
1006.104576796775
 30
0.0
 11
397.1292222208909
 21
993.8553266417205
 31
0.0
  0
LINE
  5
1659
330
107E
100
AcDbEntity
  8
7
100
AcDbLine
 10
457.1292261418067
 20
1006.104576796775
 30
0.0
 11
457.1292261418067
 21
993.8553266417205
 31
0.0
  0
LINE
  5
165A
330
107E
100
AcDbEntity
  8
7
100
AcDbLine
 10
399.129222220891
 20
994.8553266417205
 30
0.0
 11
455.1292261418067
 21
994.8553266417205
 31
0.0
  0
SOLID
  5
165B
330
107E
100
AcDbEntity
  8
7
100
AcDbTrace
 10
399.129222220891
 20
995.1886599750539
 30
0.0
 11
399.129222220891
 21
994.5219933083873
 31
0.0
 12
397.1292222208909
 22
994.8553266417205
 32
0.0
 13
397.1292222208909
 23
994.8553266417205
 33
0.0
  0
SOLID
  5
165C
330
107E
100
AcDbEntity
  8
7
100
AcDbTrace
 10
455.1292261418067
 20
995.1886599750539
 30
0.0
 11
455.1292261418067
 21
994.5219933083873
 31
0.0
 12
457.1292261418067
 22
994.8553266417205
 32
0.0
 13
457.1292261418067
 23
994.8553266417205
 33
0.0
  0
MTEXT
  5
165D
330
107E
100
AcDbEntity
  8
7
100
AcDbMText
 10
427.1292241813488
 20
996.8962937337286
 30
0.0
 40
2.0
 41
0.0
 71
     5
 72
     1
  1
600
  7
SANINDUSA
 73
     1
 44
1.0
1001
ACAD
1000
MTEXTBEGIN
1070
    73
1070
     1
1070
    44
1040
1.0
1070
    74
1070
     0
1000
MTEXTEND
  0
POINT
  5
165E
330
107E
100
AcDbEntity
  8
Defpoints
 62
     0
100
AcDbPoint
 10
397.1292222208909
 20
1007.104576796775
 30
0.000000015555529
  0
POINT
  5
165F
330
107E
100
AcDbEntity
  8
Defpoints
 62
     0
100
AcDbPoint
 10
457.1292261418067
 20
1007.104576796775
 30
0.000000015555529
  0
POINT
  5
1660
330
107E
100
AcDbEntity
  8
Defpoints
 62
     0
100
AcDbPoint
 10
457.1292261418067
 20
994.8553266417205
 30
0.0
  0
ENDBLK
  5
1089
330
107E
100
AcDbEntity
  8
0
100
AcDbBlockEnd
  0
BLOCK
  5
109D
330
1093
100
AcDbEntity
  8
0
100
AcDbBlockBegin
  2
*D10
 70
     1
 10
0.0
 20
0.0
 30
0.0
  3
*D10
  1

  0
LINE
  5
166A
330
1093
100
AcDbEntity
  8
7
100
AcDbLine
 10
457.4292261418068
 20
1006.104576415816
 30
0.0
 11
457.4292261418068
 21
993.8553266417205
 31
0.0
  0
LINE
  5
166B
330
1093
100
AcDbEntity
  8
7
100
AcDbLine
 10
476.7150254391861
 20
1006.104576415816
 30
0.0
 11
476.7150254391861
 21
993.8553266417205
 31
0.0
  0
LINE
  5
166C
330
1093
100
AcDbEntity
  8
7
100
AcDbLine
 10
459.4292261418067
 20
994.8553266417205
 30
0.0
 11
474.715025439186
 21
994.8553266417205
 31
0.0
  0
SOLID
  5
166D
330
1093
100
AcDbEntity
  8
7
100
AcDbTrace
 10
459.4292261418067
 20
995.1886599750539
 30
0.0
 11
459.4292261418067
 21
994.5219933083873
 31
0.0
 12
457.4292261418068
 22
994.8553266417205
 32
0.0
 13
457.4292261418068
 23
994.8553266417205
 33
0.0
  0
SOLID
  5
166E
330
1093
100
AcDbEntity
  8
7
100
AcDbTrace
 10
474.715025439186
 20
995.1886599750539
 30
0.0
 11
474.715025439186
 21
994.5219933083873
 31
0.0
 12
476.7150254391861
 22
994.8553266417205
 32
0.0
 13
476.7150254391861
 23
994.8553266417205
 33
0.0
  0
MTEXT
  5
166F
330
1093
100
AcDbEntity
  8
7
100
AcDbMText
 10
467.0721257904964
 20
997.1246349022981
 30
0.0
 40
2.0
 41
0.0
 71
     5
 72
     1
  1
192,9
  7
SANINDUSA
 73
     1
 44
1.0
1001
ACAD
1000
MTEXTBEGIN
1070
    73
1070
     1
1070
    44
1040
1.0
1070
    74
1070
     0
1000
MTEXTEND
  0
POINT
  5
1670
330
1093
100
AcDbEntity
  8
Defpoints
 62
     0
100
AcDbPoint
 10
457.4292261418068
 20
1007.104576415816
 30
0.0000000157875207
  0
POINT
  5
1671
330
1093
100
AcDbEntity
  8
Defpoints
 62
     0
100
AcDbPoint
 10
476.7150254391861
 20
1007.104576415816
 30
0.000000014892745
  0
POINT
  5
1672
330
1093
100
AcDbEntity
  8
Defpoints
 62
     0
100
AcDbPoint
 10
476.7150254391861
 20
994.8553266417205
 30
0.0
  0
ENDBLK
  5
109E
330
1093
100
AcDbEntity
  8
0
100
AcDbBlockEnd
  0
BLOCK
  5
11CD
330
11C3
100
AcDbEntity
  8
0
100
AcDbBlockBegin
  2
*D19
 70
     1
 10
0.0
 20
0.0
 30
0.0
  3
*D19
  1

  0
LINE
  5
13C1
330
11C3
100
AcDbEntity
  8
7
100
AcDbLine
 10
648.1591659803521
 20
1088.130646003462
 30
0.0
 11
653.1591659803524
 21
1088.130646003462
 31
0.0
  0
LINE
  5
13C2
330
11C3
100
AcDbEntity
  8
7
100
AcDbLine
 10
635.8653911126358
 20
1058.630646002495
 30
0.0
 11
653.1591659803524
 21
1058.630646002495
 31
0.0
  0
LINE
  5
13C3
330
11C3
100
AcDbEntity
  8
7
100
AcDbLine
 10
652.1591659803524
 20
1086.130646003462
 30
0.0
 11
652.1591659803524
 21
1060.630646002495
 31
0.0
  0
SOLID
  5
13C4
330
11C3
100
AcDbEntity
  8
7
100
AcDbTrace
 10
651.825832647019
 20
1086.130646003462
 30
0.0
 11
652.4924993136858
 21
1086.130646003462
 31
0.0
 12
652.1591659803524
 22
1088.130646003462
 32
0.0
 13
652.1591659803524
 23
1088.130646003462
 33
0.0
  0
SOLID
  5
13C5
330
11C3
100
AcDbEntity
  8
7
100
AcDbTrace
 10
651.825832647019
 20
1060.630646002495
 30
0.0
 11
652.4924993136858
 21
1060.630646002495
 31
0.0
 12
652.1591659803524
 22
1058.630646002495
 32
0.0
 13
652.1591659803524
 23
1058.630646002495
 33
0.0
  0
MTEXT
  5
13C6
330
11C3
100
AcDbEntity
  8
7
100
AcDbMText
 10
650.117527296672
 20
1073.380646002979
 30
0.0
 40
2.0
 41
0.0
 71
     5
 72
     1
  1
295
  7
SANINDUSA
 11
0.0000000000000001
 21
1.0
 31
0.0
 73
     1
 44
1.0
1001
ACAD
1000
MTEXTBEGIN
1070
    73
1070
     1
1070
    44
1040
1.0
1070
    74
1070
     0
1000
MTEXTEND
  0
POINT
  5
13C7
330
11C3
100
AcDbEntity
  8
Defpoints
 62
     0
100
AcDbPoint
 10
647.1591659803522
 20
1088.130646003462
 30
0.0000001793827793
  0
POINT
  5
13C8
330
11C3
100
AcDbEntity
  8
Defpoints
 62
     0
100
AcDbPoint
 10
634.8653911126358
 20
1058.630646002495
 30
0.0000000000032074
  0
POINT
  5
13C9
330
11C3
100
AcDbEntity
  8
Defpoints
 62
     0
100
AcDbPoint
 10
652.1591659803524
 20
1058.630646002495
 30
0.0
  0
ENDBLK
  5
11CE
330
11C3
100
AcDbEntity
  8
0
100
AcDbBlockEnd
  0
BLOCK
  5
11D9
330
11CF
100
AcDbEntity
  8
0
100
AcDbBlockBegin
  2
*D20
 70
     1
 10
0.0
 20
0.0
 30
0.0
  3
*D20
  1

  0
LINE
  5
13CA
330
11CF
100
AcDbEntity
  8
7
100
AcDbLine
 10
635.6492007769833
 20
932.6306460034622
 30
0.0
 11
653.1591659803524
 21
932.6306460034622
 31
0.0
  0
LINE
  5
13CB
330
11CF
100
AcDbEntity
  8
7
100
AcDbLine
 10
648.1591659803521
 20
903.1306460034622
 30
0.0
 11
653.1591659803524
 21
903.1306460034622
 31
0.0
  0
LINE
  5
13CC
330
11CF
100
AcDbEntity
  8
7
100
AcDbLine
 10
652.1591659803524
 20
930.6306460034623
 30
0.0
 11
652.1591659803524
 21
905.1306460034622
 31
0.0
  0
SOLID
  5
13CD
330
11CF
100
AcDbEntity
  8
7
100
AcDbTrace
 10
651.825832647019
 20
930.6306460034623
 30
0.0
 11
652.4924993136858
 21
930.6306460034623
 31
0.0
 12
652.1591659803524
 22
932.6306460034622
 32
0.0
 13
652.1591659803524
 23
932.6306460034622
 33
0.0
  0
SOLID
  5
13CE
330
11CF
100
AcDbEntity
  8
7
100
AcDbTrace
 10
651.825832647019
 20
905.1306460034622
 30
0.0
 11
652.4924993136858
 21
905.1306460034622
 31
0.0
 12
652.1591659803524
 22
903.1306460034622
 32
0.0
 13
652.1591659803524
 23
903.1306460034622
 33
0.0
  0
MTEXT
  5
13CF
330
11CF
100
AcDbEntity
  8
7
100
AcDbMText
 10
650.1175272966719
 20
917.8806460034623
 30
0.0
 40
2.0
 41
0.0
 71
     5
 72
     1
  1
295
  7
SANINDUSA
 11
0.0000000000000001
 21
1.0
 31
0.0
 73
     1
 44
1.0
1001
ACAD
1000
MTEXTBEGIN
1070
    73
1070
     1
1070
    44
1040
1.0
1070
    74
1070
     0
1000
MTEXTEND
  0
POINT
  5
13D0
330
11CF
100
AcDbEntity
  8
Defpoints
 62
     0
100
AcDbPoint
 10
634.6492007769833
 20
932.6306460034622
 30
-0.0000001793795719
  0
POINT
  5
13D1
330
11CF
100
AcDbEntity
  8
Defpoints
 62
     0
100
AcDbPoint
 10
647.1591659803522
 20
903.1306460034622
 30
0.0
  0
POINT
  5
13D2
330
11CF
100
AcDbEntity
  8
Defpoints
 62
     0
100
AcDbPoint
 10
652.1591659803524
 20
903.1306460034622
 30
0.0
  0
ENDBLK
  5
11DA
330
11CF
100
AcDbEntity
  8
0
100
AcDbBlockEnd
  0
BLOCK
  5
11E5
330
11DB
100
AcDbEntity
  8
0
100
AcDbBlockBegin
  2
*D21
 70
     1
 10
0.0
 20
0.0
 30
0.0
  3
*D21
  1

  0
LINE
  5
13D3
330
11DB
100
AcDbEntity
  8
7
100
AcDbLine
 10
604.9385404732221
 20
932.6306460034622
 30
0.0
 11
599.9385404732221
 21
932.6306460034622
 31
0.0
  0
LINE
  5
13D4
330
11DB
100
AcDbEntity
  8
7
100
AcDbLine
 10
602.7086904013916
 20
904.1306460034622
 30
0.0
 11
599.9385404732221
 21
904.1306460034622
 31
0.0
  0
LINE
  5
13D5
330
11DB
100
AcDbEntity
  8
7
100
AcDbLine
 10
600.9385404732221
 20
930.6306460034623
 30
0.0
 11
600.9385404732221
 21
906.1306460034623
 31
0.0
  0
SOLID
  5
13D6
330
11DB
100
AcDbEntity
  8
7
100
AcDbTrace
 10
600.6052071398888
 20
930.6306460034623
 30
0.0
 11
601.2718738065554
 21
930.6306460034623
 31
0.0
 12
600.9385404732221
 22
932.6306460034622
 32
0.0
 13
600.9385404732221
 23
932.6306460034622
 33
0.0
  0
SOLID
  5
13D7
330
11DB
100
AcDbEntity
  8
7
100
AcDbTrace
 10
600.6052071398888
 20
906.1306460034623
 30
0.0
 11
601.2718738065554
 21
906.1306460034623
 31
0.0
 12
600.9385404732221
 22
904.1306460034622
 32
0.0
 13
600.9385404732221
 23
904.1306460034622
 33
0.0
  0
MTEXT
  5
13D8
330
11DB
100
AcDbEntity
  8
7
100
AcDbMText
 10
598.892872239508
 20
918.3806460034624
 30
0.0
 40
2.0
 41
0.0
 71
     5
 72
     1
  1
285
  7
SANINDUSA
 11
0.0000000000000001
 21
1.0
 31
0.0
 73
     1
 44
1.0
1001
ACAD
1000
MTEXTBEGIN
1070
    73
1070
     1
1070
    44
1040
1.0
1070
    74
1070
     0
1000
MTEXTEND
  0
POINT
  5
13D9
330
11DB
100
AcDbEntity
  8
Defpoints
 62
     0
100
AcDbPoint
 10
605.9385404732221
 20
932.6306460034622
 30
-0.0000001793795719
  0
POINT
  5
13DA
330
11DB
100
AcDbEntity
  8
Defpoints
 62
     0
100
AcDbPoint
 10
603.7086904013916
 20
904.1306460034622
 30
-0.0000001793795719
  0
POINT
  5
13DB
330
11DB
100
AcDbEntity
  8
Defpoints
 62
     0
100
AcDbPoint
 10
600.9385404732221
 20
904.1306460034622
 30
0.0
  0
ENDBLK
  5
11E6
330
11DB
100
AcDbEntity
  8
0
100
AcDbBlockEnd
  0
BLOCK
  5
11F3
330
11E7
100
AcDbEntity
  8
0
100
AcDbBlockBegin
  2
*D22
 70
     1
 10
0.0
 20
0.0
 30
0.0
  3
*D22
  1

  0
LINE
  5
13DC
330
11E7
100
AcDbEntity
  8
7
100
AcDbLine
 10
592.3670936266631
 20
904.1306460034622
 30
0.0
 11
606.9385404732221
 21
904.1306460034622
 31
0.0
  0
LINE
  5
13DD
330
11E7
100
AcDbEntity
  8
7
100
AcDbLine
 10
589.5882591337884
 20
903.1306460034622
 30
0.0
 11
606.9385404732221
 21
903.1306460034622
 31
0.0
  0
LINE
  5
13DE
330
11E7
100
AcDbEntity
  8
7
100
AcDbLine
 10
605.9385404732221
 20
906.1306460034623
 30
0.0
 11
605.9385404732221
 21
908.1306460034623
 31
0.0
  0
LINE
  5
13DF
330
11E7
100
AcDbEntity
  8
7
100
AcDbLine
 10
605.9385404732221
 20
901.1306460034623
 30
0.0
 11
605.9385404732221
 21
894.1877312956046
 31
0.0
  0
LINE
  5
13E0
330
11E7
100
AcDbEntity
  8
7
100
AcDbLine
 10
605.9385404732221
 20
904.1306460034622
 30
0.0
 11
605.9385404732221
 21
903.1306460034622
 31
0.0
  0
SOLID
  5
13E1
330
11E7
100
AcDbEntity
  8
7
100
AcDbTrace
 10
605.6052071398887
 20
906.1306460034623
 30
0.0
 11
606.2718738065555
 21
906.1306460034623
 31
0.0
 12
605.9385404732221
 22
904.1306460034622
 32
0.0
 13
605.9385404732221
 23
904.1306460034622
 33
0.0
  0
SOLID
  5
13E2
330
11E7
100
AcDbEntity
  8
7
100
AcDbTrace
 10
605.6052071398887
 20
901.1306460034623
 30
0.0
 11
606.2718738065555
 21
901.1306460034623
 31
0.0
 12
605.9385404732221
 22
903.1306460034622
 32
0.0
 13
605.9385404732221
 23
903.1306460034622
 33
0.0
  0
MTEXT
  5
13E3
330
11E7
100
AcDbEntity
  8
7
100
AcDbMText
 10
603.8975733812138
 20
896.6591886495335
 30
0.0
 40
2.0
 41
0.0
 71
     5
 72
     1
  1
10
  7
SANINDUSA
 11
0.0000000000000001
 21
1.0
 31
0.0
 73
     1
 44
1.0
1001
ACAD
1000
MTEXTBEGIN
1070
    73
1070
     1
1070
    44
1040
1.0
1070
    74
1070
     0
1000
MTEXTEND
  0
POINT
  5
13E4
330
11E7
100
AcDbEntity
  8
Defpoints
 62
     0
100
AcDbPoint
 10
591.3670936266631
 20
904.1306460034622
 30
-0.0000001793795719
  0
POINT
  5
13E5
330
11E7
100
AcDbEntity
  8
Defpoints
 62
     0
100
AcDbPoint
 10
588.5882591337884
 20
903.1306460034622
 30
0.0
  0
POINT
  5
13E6
330
11E7
100
AcDbEntity
  8
Defpoints
 62
     0
100
AcDbPoint
 10
605.9385404732221
 20
903.1306460034622
 30
0.0
  0
ENDBLK
  5
11F4
330
11E7
100
AcDbEntity
  8
0
100
AcDbBlockEnd
  0
BLOCK
  5
11FF
330
11F5
100
AcDbEntity
  8
0
100
AcDbBlockBegin
  2
*D23
 70
     1
 10
0.0
 20
0.0
 30
0.0
  3
*D23
  1

  0
LINE
  5
1676
330
11F5
100
AcDbEntity
  8
7
100
AcDbLine
 10
557.3791659803524
 20
1088.130646003458
 30
0.0
 11
550.7321803537123
 21
1088.130646003458
 31
0.0
  0
LINE
  5
1677
330
11F5
100
AcDbEntity
  8
7
100
AcDbLine
 10
556.7321803537123
 20
903.1306460034622
 30
0.0
 11
550.7321803537123
 21
903.1306460034622
 31
0.0
  0
LINE
  5
1678
330
11F5
100
AcDbEntity
  8
7
100
AcDbLine
 10
551.7321803537123
 20
1086.130646003458
 30
0.0
 11
551.7321803537123
 21
905.1306460034622
 31
0.0
  0
SOLID
  5
1679
330
11F5
100
AcDbEntity
  8
7
100
AcDbTrace
 10
551.398847020379
 20
1086.130646003458
 30
0.0
 11
552.0655136870457
 21
1086.130646003458
 31
0.0
 12
551.7321803537123
 22
1088.130646003458
 32
0.0
 13
551.7321803537123
 23
1088.130646003458
 33
0.0
  0
SOLID
  5
167A
330
11F5
100
AcDbEntity
  8
7
100
AcDbTrace
 10
551.398847020379
 20
905.1306460034622
 30
0.0
 11
552.0655136870457
 21
905.1306460034622
 31
0.0
 12
551.7321803537123
 22
903.1306460034622
 32
0.0
 13
551.7321803537123
 23
903.1306460034622
 33
0.0
  0
MTEXT
  5
167B
330
11F5
100
AcDbEntity
  8
7
100
AcDbMText
 10
549.6865121199983
 20
995.6306460034602
 30
0.0
 40
2.0
 41
0.0
 71
     5
 72
     1
  1
1850
  7
SANINDUSA
 11
0.0000000000000001
 21
1.0
 31
0.0
 73
     1
 44
1.0
1001
ACAD
1000
MTEXTBEGIN
1070
    73
1070
     1
1070
    44
1040
1.0
1070
    74
1070
     0
1000
MTEXTEND
  0
POINT
  5
167C
330
11F5
100
AcDbEntity
  8
Defpoints
 62
     0
100
AcDbPoint
 10
558.3791659803524
 20
1088.130646003458
 30
0.0
  0
POINT
  5
167D
330
11F5
100
AcDbEntity
  8
Defpoints
 62
     0
100
AcDbPoint
 10
557.7321803537123
 20
903.1306460034622
 30
0.0
  0
POINT
  5
167E
330
11F5
100
AcDbEntity
  8
Defpoints
 62
     0
100
AcDbPoint
 10
551.7321803537123
 20
903.1306460034622
 30
0.0
  0
ENDBLK
  5
1200
330
11F5
100
AcDbEntity
  8
0
100
AcDbBlockEnd
  0
BLOCK
  5
168B
330
1681
100
AcDbEntity
  8
0
100
AcDbBlockBegin
  2
*D28
 70
     1
 10
0.0
 20
0.0
 30
0.0
  3
*D28
  1

  0
ARC
  5
16A1
330
1681
100
AcDbEntity
  8
7
100
AcDbCircle
 10
455.5392205314893
 20
1007.104576796775
 30
0.0
 40
45.97608522820398
100
AcDbArc
 50
182.4926131829977
 51
267.5073868170025
  0
SOLID
  5
16A2
330
1681
100
AcDbEntity
  8
7
100
AcDbTrace
 10
409.2733817025874
 20
1005.097799788238
 30
0.0
 11
409.9398906567454
 21
1005.112300080365
 31
0.0
 12
409.5631353032853
 22
1007.104576796775
 32
0.0
 13
409.5631353032853
 23
1007.104576796775
 33
0.0
  0
SOLID
  5
16A3
330
1681
100
AcDbEntity
  8
7
100
AcDbTrace
 10
453.5469438150794
 20
961.5052469220312
 30
0.0
 11
453.5324435229524
 21
960.8387379678731
 31
0.0
 12
455.5392205314896
 22
961.1284915685713
 32
0.0
 13
455.5392205314896
 23
961.1284915685713
 33
0.0
  0
MTEXT
  5
16A4
102
{ACAD_XDICTIONARY
360
176C
102
}
330
1681
100
AcDbEntity
  8
7
100
AcDbMText
 10
424.6333872668471
 20
976.1987435321328
 30
0.0
 40
2.0
 41
0.0
 71
     5
 72
     1
  1
90,0\U+00B0
  7
SANINDUSA
 11
0.7071067811865481
 21
-0.707106781186547
 31
0.0
 73
     1
 44
1.0
1001
ACAD
1000
MTEXTBEGIN
1070
    73
1070
     1
1070
    44
1040
1.0
1070
    74
1070
     0
1000
MTEXTEND
  0
POINT
  5
16A5
330
1681
100
AcDbEntity
  8
Defpoints
 62
     0
100
AcDbPoint
 10
415.7227627573062
 20
984.1165341826732
 30
0.0
  0
POINT
  5
16A6
330
1681
100
AcDbEntity
  8
Defpoints
 62
     0
100
AcDbPoint
 10
457.1292261418065
 20
1007.104576796775
 30
0.000000015555529
  0
POINT
  5
16A7
330
1681
100
AcDbEntity
  8
Defpoints
 62
     0
100
AcDbPoint
 10
455.5392205314895
 20
1005.814571186458
 30
0.000000015555529
  0
POINT
  5
16A8
330
1681
100
AcDbEntity
  8
Defpoints
 62
     0
100
AcDbPoint
 10
455.5392205314897
 20
945.8145672655422
 30
0.000000015555529
  0
POINT
  5
16A9
330
1681
100
AcDbEntity
  8
Defpoints
 62
     0
100
AcDbPoint
 10
397.129222220891
 20
1007.104576796775
 30
0.000000015555529
  0
ENDBLK
  5
168C
330
1681
100
AcDbEntity
  8
0
100
AcDbBlockEnd
  0
ENDSEC
  0
SECTION
  2
ENTITIES
  0
LINE
  5
E61
330
1F
100
AcDbEntity
  8
SANINDUSA
100
AcDbLine
 10
262.8484236287054
 20
1057.115256732437
 30
0.0000000001555553
 11
262.2484235894962
 21
1057.115256732437
 31
0.0000000001555553
  0
LINE
  5
E62
330
1F
100
AcDbEntity
  8
SANINDUSA
100
AcDbLine
 10
262.8484236287054
 20
1057.121256732437
 30
0.0000000001555553
 11
262.2484235894962
 21
1057.121256732437
 31
0.0000000001555553
  0
HATCH
  5
E85
330
1F
100
AcDbEntity
  8
SANINDUSA
100
AcDbHatch
 10
0.0
 20
0.0
 30
0.0000000001555553
210
0.0
220
0.0
230
1.0
  2
ANSI31
 70
     0
 71
     0
 91
        1
 92
        1
 93
        8
 72
     1
 10
262.2383444962947
 20
1057.123560951904
 11
262.2376373895135
 21
1057.124268058685
 72
     1
 10
262.2376373895135
 20
1057.124268058685
 11
262.2326876420452
 21
1057.119318311217
 72
     1
 10
262.2326876420452
 20
1057.119318311217
 11
262.2333947488264
 21
1057.118611204436
 72
     1
 10
262.2333947488264
 20
1057.118611204436
 11
262.2341018556075
 21
1057.119318311217
 72
     1
 10
262.2341018556075
 20
1057.119318311217
 11
262.2351625157794
 21
1057.118257651045
 72
     1
 10
262.2351625157794
 20
1057.118257651045
 11
262.2386980496852
 21
1057.121793184951
 72
     1
 10
262.2386980496853
 20
1057.121793184951
 11
262.2376373895135
 21
1057.122853845123
 72
     1
 10
262.2376373895135
 20
1057.122853845123
 11
262.2383444962947
 21
1057.123560951904
 97
        0
 75
     0
 76
     1
 52
0.0
 41
0.00025
 77
     0
 78
     1
 53
0.0000000000130296
 43
262.2326989721033
 44
1057.124256728627
 45
-0.0000000000000002
 46
0.00079375
 79
     0
 98
        1
 10
262.2326989721033
 20
1057.124256728627
  0
LINE
  5
EBE
330
1F
100
AcDbEntity
  8
SANINDUSA
100
AcDbLine
 10
263.0442816216791
 20
1057.121256728627
 30
0.000000000027859
 11
262.8514236287053
 21
1057.121256728627
 31
0.0000000002002489
  0
LINE
  5
F01
330
1F
100
AcDbEntity
  8
SANINDUSA
100
AcDbLine
 10
263.0442816216791
 20
1057.115256728627
 30
0.0000000001489274
 11
262.8514236287053
 21
1057.115256728627
 31
0.0000000001578752
  0
LINE
  5
F02
330
1F
100
AcDbEntity
  8
SANINDUSA
100
AcDbLine
 10
262.9073652798438
 20
1057.154224243048
 30
0.0000000001260239
 11
263.0586536454391
 21
1057.305512608643
 31
0.0000000001260239
  0
LINE
  5
F03
330
1F
100
AcDbEntity
  8
SANINDUSA
100
AcDbLine
 10
263.0687173539381
 20
1057.292948900145
 30
0.0000000001260239
 11
262.9199614739215
 21
1057.144193020128
 31
0.0000000001260239
  0
LINE
  5
F04
330
1F
100
AcDbEntity
  8
SANINDUSA
100
AcDbLine
 10
262.9137292408745
 20
1057.159173990517
 30
0.0000000001260239
 11
262.9088119789849
 21
1057.154256728627
 31
0.0000000001260239
  0
LINE
  5
F05
330
1F
100
AcDbEntity
  8
SANINDUSA
100
AcDbLine
 10
262.9243358425923
 20
1057.148567388799
 30
0.0000000001260239
 11
262.9130221340933
 21
1057.159881097298
 31
0.0000000001260239
  0
LINE
  5
F06
330
1F
100
AcDbEntity
  8
SANINDUSA
100
AcDbLine
 10
262.9126004739215
 20
1057.150476728627
 30
0.0000000001260239
 11
262.9113224739215
 21
1057.150476728627
 31
0.0000000001260239
  0
LINE
  5
F07
330
1F
100
AcDbEntity
  8
SANINDUSA
100
AcDbLine
 10
262.9113224739215
 20
1057.146867728627
 30
0.0000000001260239
 11
262.9126004739215
 21
1057.146867728627
 31
0.0000000001260239
  0
LINE
  5
F08
330
1F
100
AcDbEntity
  8
SANINDUSA
100
AcDbLine
 10
262.9126004739215
 20
1057.148145728627
 30
0.0000000001260239
 11
262.9113224739215
 21
1057.148145728627
 31
0.0000000001260239
  0
LINE
  5
F09
330
1F
100
AcDbEntity
  8
SANINDUSA
100
AcDbLine
 10
262.9126004739215
 20
1057.146867728627
 30
0.0000000001260239
 11
262.9119614739215
 21
1057.147506728627
 31
0.0000000001260239
  0
LINE
  5
F0A
330
1F
100
AcDbEntity
  8
SANINDUSA
100
AcDbLine
 10
262.9119614739215
 20
1057.147506728627
 30
0.0000000001260239
 11
262.9126004739215
 21
1057.148145728627
 31
0.0000000001260239
  0
LINE
  5
F0B
330
1F
100
AcDbEntity
  8
SANINDUSA
100
AcDbLine
 10
262.9119614739215
 20
1057.147506728627
 30
0.0000000001260239
 11
262.9126004739215
 21
1057.147506728627
 31
0.0000000001260239
  0
LINE
  5
F0C
330
1F
100
AcDbEntity
  8
SANINDUSA
100
AcDbLine
 10
262.9113224739215
 20
1057.144536728627
 30
0.0000000001260239
 11
262.9126004739215
 21
1057.144536728627
 31
0.0000000001260239
  0
LINE
  5
F0D
330
1F
100
AcDbEntity
  8
SANINDUSA
100
AcDbLine
 10
262.9209614739215
 20
1057.139256728627
 30
0.0000000001260239
 11
262.9029614739216
 21
1057.139256728627
 31
0.0000000001260239
  0
CIRCLE
  5
F0E
330
1F
100
AcDbEntity
  8
SANINDUSA
100
AcDbCircle
 10
262.9119614739215
 20
1057.147506728627
 30
0.0000000001260239
 40
0.0050849999999992
  0
LINE
  5
F0F
330
1F
100
AcDbEntity
  8
SANINDUSA
100
AcDbLine
 10
262.9179614739215
 20
1057.154256728627
 30
0.0000000001260239
 11
262.9059614739215
 21
1057.154256728627
 31
0.0000000001260239
  0
LINE
  5
F10
330
1F
100
AcDbEntity
  8
SANINDUSA
100
AcDbLine
 10
262.9344614739216
 20
1057.129256728627
 30
0.0000000001260239
 11
262.8894614739215
 21
1057.129256728627
 31
0.0000000001260239
  0
LINE
  5
F11
330
1F
100
AcDbEntity
  8
SANINDUSA
100
AcDbLine
 10
262.9344614739216
 20
1057.111256728627
 30
0.0000000001260239
 11
262.8894614739215
 21
1057.111256728627
 31
0.0000000001260239
  0
LINE
  5
F12
330
1F
100
AcDbEntity
  8
SANINDUSA
100
AcDbLine
 10
262.8894614739215
 20
1057.129256728627
 30
0.0000000001260239
 11
262.8894614739215
 21
1057.111256728627
 31
0.0000000001260239
  0
LINE
  5
F13
330
1F
100
AcDbEntity
  8
SANINDUSA
100
AcDbLine
 10
262.9029614739216
 20
1057.129256728627
 30
0.0000000001260239
 11
262.9029614739216
 21
1057.139256728627
 31
0.0000000001260239
  0
ARC
  5
F14
330
1F
100
AcDbEntity
  8
SANINDUSA
100
AcDbCircle
 10
262.9059614739215
 20
1057.152256728627
 30
0.0000000001260239
 40
0.002
100
AcDbArc
 50
90.0
 51
180.0
  0
LINE
  5
F15
330
1F
100
AcDbEntity
  8
SANINDUSA
100
AcDbLine
 10
262.9098613667814
 20
1057.149606835767
 30
0.0000000001260239
 11
262.9108425271044
 21
1057.148145728627
 31
0.0000000001260239
  0
LINE
  5
F16
330
1F
100
AcDbEntity
  8
SANINDUSA
100
AcDbLine
 10
262.9098613667814
 20
1057.149606835767
 30
0.0000000001260239
 11
262.9113224739215
 21
1057.148145728627
 31
0.0000000001260239
  0
LINE
  5
F17
330
1F
100
AcDbEntity
  8
SANINDUSA
100
AcDbLine
 10
262.9108425271044
 20
1057.148145728627
 30
0.0000000001260239
 11
262.9113224739215
 21
1057.148145728627
 31
0.0000000001260239
  0
LINE
  5
F18
330
1F
100
AcDbEntity
  8
SANINDUSA
100
AcDbLine
 10
262.9113224739215
 20
1057.148625675444
 30
0.0000000001260239
 11
262.9098613667814
 21
1057.149606835767
 31
0.0000000001260239
  0
LINE
  5
F19
330
1F
100
AcDbEntity
  8
SANINDUSA
100
AcDbLine
 10
262.9113224739215
 20
1057.148145728627
 30
0.0000000001260239
 11
262.9113224739215
 21
1057.148625675444
 31
0.0000000001260239
  0
LINE
  5
F1A
330
1F
100
AcDbEntity
  8
SANINDUSA
100
AcDbLine
 10
262.9113224739215
 20
1057.14638778181
 30
0.0000000001260239
 11
262.9113224739215
 21
1057.146867728627
 31
0.0000000001260239
  0
LINE
  5
F1B
330
1F
100
AcDbEntity
  8
SANINDUSA
100
AcDbLine
 10
262.9113224739215
 20
1057.146867728627
 30
0.0000000001260239
 11
262.9108425271044
 21
1057.146867728627
 31
0.0000000001260239
  0
LINE
  5
F1C
330
1F
100
AcDbEntity
  8
SANINDUSA
100
AcDbLine
 10
262.9108425271044
 20
1057.148145728627
 30
0.0000000001260239
 11
262.9089914739215
 21
1057.148145728627
 31
0.0000000001260239
  0
LINE
  5
F1D
330
1F
100
AcDbEntity
  8
SANINDUSA
100
AcDbLine
 10
262.9089914739215
 20
1057.146867728627
 30
0.0000000001260239
 11
262.9108425271044
 21
1057.146867728627
 31
0.0000000001260239
  0
LINE
  5
F1E
330
1F
100
AcDbEntity
  8
SANINDUSA
100
AcDbLine
 10
262.9119614739215
 20
1057.147506728627
 30
0.0000000001260239
 11
262.9113224739215
 21
1057.146867728627
 31
0.0000000001260239
  0
LINE
  5
F1F
330
1F
100
AcDbEntity
  8
SANINDUSA
100
AcDbLine
 10
262.9119614739215
 20
1057.146867728627
 30
0.0000000001260239
 11
262.9119614739215
 21
1057.147506728627
 31
0.0000000001260239
  0
LINE
  5
F20
330
1F
100
AcDbEntity
  8
SANINDUSA
100
AcDbLine
 10
262.9089914739215
 20
1057.148145728627
 30
0.0000000001260239
 11
262.9089914739215
 21
1057.146867728627
 31
0.0000000001260239
  0
LINE
  5
F21
330
1F
100
AcDbEntity
  8
SANINDUSA
100
AcDbLine
 10
262.9113224739215
 20
1057.146867728627
 30
0.0000000001260239
 11
262.9113224739215
 21
1057.148145728627
 31
0.0000000001260239
  0
LINE
  5
F22
330
1F
100
AcDbEntity
  8
SANINDUSA
100
AcDbLine
 10
262.9113224739215
 20
1057.148145728627
 30
0.0000000001260239
 11
262.9119614739215
 21
1057.147506728627
 31
0.0000000001260239
  0
LINE
  5
F23
330
1F
100
AcDbEntity
  8
SANINDUSA
100
AcDbLine
 10
262.9119614739215
 20
1057.147506728627
 30
0.0000000001260239
 11
262.9119614739215
 21
1057.148145728627
 31
0.0000000001260239
  0
LINE
  5
F24
330
1F
100
AcDbEntity
  8
SANINDUSA
100
AcDbLine
 10
262.9113224739215
 20
1057.147506728627
 30
0.0000000001260239
 11
262.9119614739215
 21
1057.147506728627
 31
0.0000000001260239
  0
LINE
  5
F25
330
1F
100
AcDbEntity
  8
SANINDUSA
100
AcDbLine
 10
262.9113224739215
 20
1057.150476728627
 30
0.0000000001260239
 11
262.9113224739215
 21
1057.148625675444
 31
0.0000000001260239
  0
LINE
  5
F26
330
1F
100
AcDbEntity
  8
SANINDUSA
100
AcDbLine
 10
262.9098613667814
 20
1057.145406621487
 30
0.0000000001260239
 11
262.9113224739215
 21
1057.14638778181
 31
0.0000000001260239
  0
LINE
  5
F27
330
1F
100
AcDbEntity
  8
SANINDUSA
100
AcDbLine
 10
262.9098613667814
 20
1057.145406621487
 30
0.0000000001260239
 11
262.9113224739215
 21
1057.146867728627
 31
0.0000000001260239
  0
LINE
  5
F28
330
1F
100
AcDbEntity
  8
SANINDUSA
100
AcDbLine
 10
262.9108425271044
 20
1057.146867728627
 30
0.0000000001260239
 11
262.9098613667814
 21
1057.145406621487
 31
0.0000000001260239
  0
LINE
  5
F29
330
1F
100
AcDbEntity
  8
SANINDUSA
100
AcDbLine
 10
262.9113224739215
 20
1057.14638778181
 30
0.0000000001260239
 11
262.9113224739215
 21
1057.144536728627
 31
0.0000000001260239
  0
LINE
  5
F2A
330
1F
100
AcDbEntity
  8
SANINDUSA
100
AcDbLine
 10
262.9039614739215
 20
1057.139256728627
 30
0.0000000001260239
 11
262.9039614739215
 21
1057.152256728627
 31
0.0000000001260239
  0
LINE
  5
F2B
330
1F
100
AcDbEntity
  8
SANINDUSA
100
AcDbLine
 10
262.9344614739216
 20
1057.129256728627
 30
0.0000000001260239
 11
262.9344614739216
 21
1057.111256728627
 31
0.0000000001260239
  0
LINE
  5
F2C
330
1F
100
AcDbEntity
  8
SANINDUSA
100
AcDbLine
 10
262.9209614739215
 20
1057.129256728627
 30
0.0000000001260239
 11
262.9209614739215
 21
1057.139256728627
 31
0.0000000001260239
  0
ARC
  5
F2D
330
1F
100
AcDbEntity
  8
SANINDUSA
100
AcDbCircle
 10
262.9179614739215
 20
1057.152256728627
 30
0.0000000001260239
 40
0.002
100
AcDbArc
 50
0.0
 51
90.0
  0
LINE
  5
F2E
330
1F
100
AcDbEntity
  8
SANINDUSA
100
AcDbLine
 10
262.9199614739215
 20
1057.145607233691
 30
0.0000000001260239
 11
262.9236287358111
 21
1057.14927449558
 31
0.0000000001260239
  0
LINE
  5
F2F
330
1F
100
AcDbEntity
  8
SANINDUSA
100
AcDbLine
 10
262.9199614739215
 20
1057.139256728627
 30
0.0000000001260239
 11
262.9199614739215
 21
1057.152256728627
 31
0.0000000001260239
  0
LINE
  5
F30
330
1F
100
AcDbEntity
  8
SANINDUSA
100
AcDbLine
 10
262.9130804207386
 20
1057.146867728627
 30
0.0000000001260239
 11
262.9126004739215
 21
1057.146867728627
 31
0.0000000001260239
  0
LINE
  5
F31
330
1F
100
AcDbEntity
  8
SANINDUSA
100
AcDbLine
 10
262.9126004739215
 20
1057.146867728627
 30
0.0000000001260239
 11
262.9126004739215
 21
1057.14638778181
 31
0.0000000001260239
  0
LINE
  5
F32
330
1F
100
AcDbEntity
  8
SANINDUSA
100
AcDbLine
 10
262.9140615810617
 20
1057.149606835767
 30
0.0000000001260239
 11
262.9126004739215
 21
1057.148625675444
 31
0.0000000001260239
  0
LINE
  5
F33
330
1F
100
AcDbEntity
  8
SANINDUSA
100
AcDbLine
 10
262.9140615810617
 20
1057.149606835767
 30
0.0000000001260239
 11
262.9126004739215
 21
1057.148145728627
 31
0.0000000001260239
  0
LINE
  5
F34
330
1F
100
AcDbEntity
  8
SANINDUSA
100
AcDbLine
 10
262.9126004739215
 20
1057.148625675444
 30
0.0000000001260239
 11
262.9126004739215
 21
1057.148145728627
 31
0.0000000001260239
  0
LINE
  5
F35
330
1F
100
AcDbEntity
  8
SANINDUSA
100
AcDbLine
 10
262.9130804207386
 20
1057.148145728627
 30
0.0000000001260239
 11
262.9140615810617
 21
1057.149606835767
 31
0.0000000001260239
  0
LINE
  5
F36
330
1F
100
AcDbEntity
  8
SANINDUSA
100
AcDbLine
 10
262.9126004739215
 20
1057.148145728627
 30
0.0000000001260239
 11
262.9130804207386
 21
1057.148145728627
 31
0.0000000001260239
  0
LINE
  5
F37
330
1F
100
AcDbEntity
  8
SANINDUSA
100
AcDbLine
 10
262.9130804207386
 20
1057.146867728627
 30
0.0000000001260239
 11
262.9149314739215
 21
1057.146867728627
 31
0.0000000001260239
  0
LINE
  5
F38
330
1F
100
AcDbEntity
  8
SANINDUSA
100
AcDbLine
 10
262.9149314739215
 20
1057.148145728627
 30
0.0000000001260239
 11
262.9130804207386
 21
1057.148145728627
 31
0.0000000001260239
  0
LINE
  5
F39
330
1F
100
AcDbEntity
  8
SANINDUSA
100
AcDbLine
 10
262.9149314739215
 20
1057.146867728627
 30
0.0000000001260239
 11
262.9149314739215
 21
1057.148145728627
 31
0.0000000001260239
  0
LINE
  5
F3A
330
1F
100
AcDbEntity
  8
SANINDUSA
100
AcDbLine
 10
262.9126004739215
 20
1057.148145728627
 30
0.0000000001260239
 11
262.9126004739215
 21
1057.146867728627
 31
0.0000000001260239
  0
LINE
  5
F3B
330
1F
100
AcDbEntity
  8
SANINDUSA
100
AcDbLine
 10
262.9126004739215
 20
1057.148625675444
 30
0.0000000001260239
 11
262.9126004739215
 21
1057.150476728627
 31
0.0000000001260239
  0
LINE
  5
F3C
330
1F
100
AcDbEntity
  8
SANINDUSA
100
AcDbLine
 10
262.9140615810617
 20
1057.145406621487
 30
0.0000000001260239
 11
262.9130804207386
 21
1057.146867728627
 31
0.0000000001260239
  0
LINE
  5
F3D
330
1F
100
AcDbEntity
  8
SANINDUSA
100
AcDbLine
 10
262.9140615810617
 20
1057.145406621487
 30
0.0000000001260239
 11
262.9126004739215
 21
1057.146867728627
 31
0.0000000001260239
  0
LINE
  5
F3E
330
1F
100
AcDbEntity
  8
SANINDUSA
100
AcDbLine
 10
262.9126004739215
 20
1057.14638778181
 30
0.0000000001260239
 11
262.9140615810617
 21
1057.145406621487
 31
0.0000000001260239
  0
LINE
  5
F3F
330
1F
100
AcDbEntity
  8
SANINDUSA
100
AcDbLine
 10
262.9126004739215
 20
1057.144536728627
 30
0.0000000001260239
 11
262.9126004739215
 21
1057.14638778181
 31
0.0000000001260239
  0
LINE
  5
F41
330
1F
100
AcDbEntity
  8
SANINDUSA
100
AcDbLine
 10
262.8649236287054
 20
1057.111856676334
 30
0.0000000001555554
 11
262.849923583109
 21
1057.111856676334
 31
0.0000000001555554
  0
ARC
  5
F43
330
1F
100
AcDbEntity
  8
SANINDUSA
100
AcDbCircle
 10
262.8504091816667
 20
1057.118256732437
 30
0.0000000001555553
 40
0.0052623076923077
100
AcDbArc
 50
261.4923271275793
 51
98.50767287242067
  0
ARC
  5
F44
330
1F
100
AcDbEntity
  8
SANINDUSA
100
AcDbCircle
 10
262.8504091816667
 20
1057.118256732437
 30
0.0000000001555553
 40
0.0056623076923077
100
AcDbArc
 50
261.4923271275793
 51
98.50767287242067
  0
LINE
  5
F45
330
1F
100
AcDbEntity
  8
SANINDUSA
100
AcDbLine
 10
262.7829236287053
 20
1057.127656728627
 30
0.0000000001555554
 11
262.8339236287053
 21
1057.127656728627
 31
0.0000000001555554
  0
LWPOLYLINE
  5
F46
330
1F
100
AcDbEntity
  8
SANINDUSA
100
AcDbPolyline
 90
        4
 70
     1
 43
0.0
 38
0.0000000001555553
 10
262.7819236287053
 20
1057.122456728627
 10
262.8349236287053
 20
1057.122456728627
 10
262.8349236287053
 20
1057.121456728627
 10
262.7819236287053
 20
1057.121456728627
1001
GENIUS_GENREC_14
1002
{
1000
PYDIR
1011
263.0812058857845
1021
1057.208629038435
1031
0.0000000001555554
1002
}
1002
{
1000
PXDIR
1011
263.1342058857845
1021
1057.207629038435
1031
0.0000000001555554
1002
}
1002
{
1000
PORI
1011
263.0812058857845
1021
1057.207629038435
1031
0.0000000001555554
1002
}
1002
{
1000
PINS
1011
263.0812058857845
1021
1057.207629038435
1031
0.0000000001555554
1002
}
1002
{
1000
PINS2
1011
263.1342058857845
1021
1057.208629038435
1031
0.0000000001555554
1002
}
1002
{
1000
C
1070
     1
1002
}
1001
GENIUS_GENODEF_13
1002
{
1000
HIER
1070
     0
1002
}
1002
{
1000
MANEDIT
1070
     0
1002
}
1002
{
1000
NOSEL
1070
     0
1002
}
1002
{
1000
BEHIND
1070
     0
1002
}
1002
{
1000
REACTOR
1002
}
1001
GENIUS_GENOBJ-N-REC_13
1002
{
1000
OWNER
1000
GEN
1002
}
  0
LINE
  5
F47
330
1F
100
AcDbEntity
  8
SANINDUSA
100
AcDbLine
 10
262.8349236287053
 20
1057.122656728627
 30
0.0000000001555554
 11
262.7819236287053
 21
1057.122656728627
 31
0.0000000001555554
  0
LWPOLYLINE
  5
F48
330
1F
100
AcDbEntity
  8
SANINDUSA
100
AcDbPolyline
 90
        2
 70
     0
 43
0.0
 38
0.0000000001555553
 10
262.8349236287053
 20
1057.115056728627
 10
262.7819236287053
 20
1057.115056728627
1001
GENIUS_GENREC_14
1002
{
1000
PYDIR
1011
263.0812058857845
1021
1057.208429038435
1031
0.0000000001555554
1002
}
1002
{
1000
PXDIR
1011
263.1342058857845
1021
1057.207429038435
1031
0.0000000001555554
1002
}
1002
{
1000
PORI
1011
263.0812058857845
1021
1057.207429038435
1031
0.0000000001555554
1002
}
1002
{
1000
PINS
1011
263.0812058857845
1021
1057.207429038435
1031
0.0000000001555554
1002
}
1002
{
1000
PINS2
1011
263.1342058857845
1021
1057.208429038435
1031
0.0000000001555554
1002
}
1002
{
1000
C
1070
     1
1002
}
1001
GENIUS_GENODEF_13
1002
{
1000
HIER
1070
     0
1002
}
1002
{
1000
MANEDIT
1070
     0
1002
}
1002
{
1000
NOSEL
1070
     0
1002
}
1002
{
1000
BEHIND
1070
     0
1002
}
1002
{
1000
REACTOR
1002
}
1001
GENIUS_GENOBJ-N-REC_13
1002
{
1000
OWNER
1000
GEN
1002
}
  0
LINE
  5
F49
330
1F
100
AcDbEntity
  8
SANINDUSA
100
AcDbLine
 10
262.8410347398163
 20
1057.103856676333
 30
0.0000000001555554
 11
262.7829236287053
 21
1057.103856676333
 31
0.0000000001555554
  0
LWPOLYLINE
  5
F4A
330
1F
100
AcDbEntity
  8
SANINDUSA
100
AcDbPolyline
 90
        2
 70
     0
 43
0.0
 38
0.0000000001555553
 10
262.7819236287053
 20
1057.114056728627
 10
262.8349236287053
 20
1057.114056728627
1001
GENIUS_GENREC_14
1002
{
1000
PYDIR
1011
263.0812058857845
1021
1057.208429038435
1031
0.0000000001555554
1002
}
1002
{
1000
PXDIR
1011
263.1342058857845
1021
1057.207429038435
1031
0.0000000001555554
1002
}
1002
{
1000
PORI
1011
263.0812058857845
1021
1057.207429038435
1031
0.0000000001555554
1002
}
1002
{
1000
PINS
1011
263.0812058857845
1021
1057.207429038435
1031
0.0000000001555554
1002
}
1002
{
1000
PINS2
1011
263.1342058857845
1021
1057.208429038435
1031
0.0000000001555554
1002
}
1002
{
1000
C
1070
     1
1002
}
1001
GENIUS_GENODEF_13
1002
{
1000
HIER
1070
     0
1002
}
1002
{
1000
MANEDIT
1070
     0
1002
}
1002
{
1000
NOSEL
1070
     0
1002
}
1002
{
1000
BEHIND
1070
     0
1002
}
1002
{
1000
REACTOR
1002
}
1001
GENIUS_GENOBJ-N-REC_13
1002
{
1000
OWNER
1000
GEN
1002
}
  0
LINE
  5
F4B
330
1F
100
AcDbEntity
  8
SANINDUSA
100
AcDbLine
 10
262.7819236287053
 20
1057.113856728627
 30
0.0000000001555554
 11
262.8349236287053
 21
1057.113856728627
 31
0.0000000001555554
  0
ARC
  5
F4C
330
1F
100
AcDbEntity
  8
SANINDUSA
100
AcDbCircle
 10
262.7829236287053
 20
1057.104856676334
 30
0.0000000001555554
 40
0.001
100
AcDbArc
 50
180.0
 51
270.0
  0
LINE
  5
F4D
330
1F
100
AcDbEntity
  8
SANINDUSA
100
AcDbLine
 10
262.7819236287053
 20
1057.113856728627
 30
0.0000000001555554
 11
262.7819236287053
 21
1057.104856676334
 31
0.0000000001555554
  0
LINE
  5
F4E
330
1F
100
AcDbEntity
  8
SANINDUSA
100
AcDbLine
 10
262.7819236287053
 20
1057.115056728627
 30
0.0000000001555554
 11
262.7819236287053
 21
1057.114056728627
 31
0.0000000001555554
1001
GENIUS_GENREC_14
1002
{
1000
PYDIR
1011
262.7819236287053
1021
1057.115056728627
1031
0.0000000001555554
1002
}
1002
{
1000
PXDIR
1011
262.8349236287053
1021
1057.114056728627
1031
0.0000000001555554
1002
}
1002
{
1000
PORI
1011
262.7819236287053
1021
1057.114056728627
1031
0.0000000001555554
1002
}
1002
{
1000
PINS
1011
262.7819236287053
1021
1057.114056728627
1031
0.0000000001555554
1002
}
1002
{
1000
PINS2
1011
262.8349236287053
1021
1057.115056728627
1031
0.0000000001555554
1002
}
1002
{
1000
C
1070
     1
1002
}
1001
GENIUS_GENODEF_13
1002
{
1000
HIER
1070
     0
1002
}
1002
{
1000
MANEDIT
1070
     0
1002
}
1002
{
1000
NOSEL
1070
     0
1002
}
1002
{
1000
BEHIND
1070
     0
1002
}
1002
{
1000
REACTOR
1002
}
1001
GENIUS_GENOBJ-N-REC_13
1002
{
1000
OWNER
1000
GEN
1002
}
  0
ARC
  5
F4F
330
1F
100
AcDbEntity
  8
SANINDUSA
100
AcDbCircle
 10
262.7829236287053
 20
1057.126656728627
 30
0.0000000001555554
 40
0.001
100
AcDbArc
 50
90.0
 51
180.0
  0
LINE
  5
F50
330
1F
100
AcDbEntity
  8
SANINDUSA
100
AcDbLine
 10
262.7819236287053
 20
1057.122656728627
 30
0.0000000001555554
 11
262.7819236287053
 21
1057.126656728627
 31
0.0000000001555554
  0
LINE
  5
F51
330
1F
100
AcDbEntity
  8
SANINDUSA
100
AcDbLine
 10
262.8514236287053
 20
1057.121256728627
 30
0.0000000001555554
 11
262.8514236287053
 21
1057.115256728627
 31
0.0000000001555554
1001
GENIUS_GENREC_14
1002
{
1000
PYDIR
1011
262.6984236287053
1021
1057.115056728627
1031
0.0000000001555554
1002
}
1002
{
1000
PXDIR
1011
262.8484236287054
1021
1057.121056728627
1031
0.0000000001555554
1002
}
1002
{
1000
PORI
1011
262.6984236287053
1021
1057.121056728627
1031
0.0000000001555554
1002
}
1002
{
1000
PINS
1011
262.6984236287053
1021
1057.121056728627
1031
0.0000000001555554
1002
}
1002
{
1000
PINS2
1011
262.8484236287054
1021
1057.115256728627
1031
0.0000000001555554
1002
}
1002
{
1000
C
1070
     1
1002
}
1001
GENIUS_GENODEF_13
1002
{
1000
HIER
1070
     0
1002
}
1002
{
1000
MANEDIT
1070
     0
1002
}
1002
{
1000
NOSEL
1070
     0
1002
}
1002
{
1000
BEHIND
1070
     0
1002
}
1002
{
1000
REACTOR
1002
}
1001
GENIUS_GENOBJ-N-REC_13
1002
{
1000
OWNER
1000
GEN
1002
}
  0
LINE
  5
F52
330
1F
100
AcDbEntity
  8
SANINDUSA
100
AcDbLine
 10
262.8495714893591
 20
1057.112656732437
 30
0.0000000001555553
 11
262.8495714893591
 21
1057.123856732437
 31
0.0000000001555553
  0
LINE
  5
F53
330
1F
100
AcDbEntity
  8
SANINDUSA
100
AcDbLine
 10
262.8484236287054
 20
1057.121256732437
 30
0.0000000001555553
 11
262.8484236287054
 21
1057.115256732437
 31
0.0000000001555553
  0
LINE
  5
F54
330
1F
100
AcDbEntity
  8
SANINDUSA
100
AcDbLine
 10
262.8484236287054
 20
1057.114560301987
 30
0.0000000001555553
 11
262.8484236287054
 21
1057.121953162887
 31
0.0000000001555553
  0
LINE
  5
F55
330
1F
100
AcDbEntity
  8
SANINDUSA
100
AcDbLine
 10
262.8393966797239
 20
1057.115300376242
 30
0.0000000001555553
 11
262.8415253751235
 21
1057.11559954487
 31
0.0000000001555553
  0
LINE
  5
F56
330
1F
100
AcDbEntity
  8
SANINDUSA
100
AcDbLine
 10
262.8415740857088
 20
1057.115252951046
 30
0.0000000001555553
 11
262.8394977573533
 21
1057.114961142126
 31
0.0000000001555553
  0
LINE
  5
F57
330
1F
100
AcDbEntity
  8
SANINDUSA
100
AcDbLine
 10
262.8394977573533
 20
1057.114961142126
 30
0.0000000001555553
 11
262.841874105098
 21
1057.114570261042
 31
0.0000000001555553
  0
LINE
  5
F58
330
1F
100
AcDbEntity
  8
SANINDUSA
100
AcDbLine
 10
262.8485784067805
 20
1057.112656732437
 30
0.0000000001555553
 11
262.837074105098
 21
1057.11454905393
 31
0.0000000001555553
  0
LINE
  5
F59
330
1F
100
AcDbEntity
  8
SANINDUSA
100
AcDbLine
 10
262.8349236287053
 20
1057.111856728627
 30
0.0000000001555554
 11
262.8499236287053
 21
1057.111856676334
 31
0.0000000001555554
  0
ARC
  5
F5A
330
1F
100
AcDbEntity
  8
SANINDUSA
100
AcDbCircle
 10
262.8381590763297
 20
1057.114978651735
 30
0.0000000001555553
 40
0.0006
100
AcDbArc
 50
32.46948079189306
 51
80.65916589921577
  0
ARC
  5
F5B
330
1F
100
AcDbEntity
  8
SANINDUSA
100
AcDbCircle
 10
262.8391714893591
 20
1057.115622872084
 30
0.0000000001555553
 40
0.0006000000000005
100
AcDbArc
 50
212.4694807918931
 51
255.899108194289
  0
ARC
  5
F5C
330
1F
100
AcDbEntity
  8
SANINDUSA
100
AcDbCircle
 10
262.8394662662743
 20
1057.114805242207
 30
0.0000000001555553
 40
0.0004999999999883
100
AcDbArc
 50
98.00000000132959
 51
151.873626034282
  0
LINE
  5
F5D
330
1F
100
AcDbEntity
  8
SANINDUSA
100
AcDbLine
 10
262.8365714893591
 20
1057.115141098105
 30
0.0000000001555553
 11
262.8365714893591
 21
1057.115847853739
 31
0.0000000001555553
  0
LINE
  5
F5E
330
1F
100
AcDbEntity
  8
SANINDUSA
100
AcDbLine
 10
262.8365714893591
 20
1057.115847853739
 30
0.0000000001555553
 11
262.8382564605907
 21
1057.11557069591
 31
0.0000000001555553
  0
LINE
  5
F5F
330
1F
100
AcDbEntity
  8
SANINDUSA
100
AcDbLine
 10
262.8349236287053
 20
1057.113856728627
 30
0.0000000001555554
 11
262.8349236287053
 21
1057.111856728627
 31
0.0000000001555554
  0
ARC
  5
F60
330
1F
100
AcDbEntity
  8
SANINDUSA
100
AcDbCircle
 10
262.8371714893591
 20
1057.115141098105
 30
0.0000000001555553
 40
0.0006
100
AcDbArc
 50
180.0
 51
260.6591658992158
  0
LINE
  5
F61
330
1F
100
AcDbEntity
  8
SANINDUSA
100
AcDbLine
 10
262.8349236287053
 20
1057.114056728627
 30
0.0000000001555554
 11
262.8349236287053
 21
1057.115056728627
 31
0.0000000001555554
1001
GENIUS_GENREC_14
1002
{
1000
PYDIR
1011
262.7819236287053
1021
1057.115056728627
1031
0.0000000001555554
1002
}
1002
{
1000
PXDIR
1011
262.8349236287053
1021
1057.114056728627
1031
0.0000000001555554
1002
}
1002
{
1000
PORI
1011
262.7819236287053
1021
1057.114056728627
1031
0.0000000001555554
1002
}
1002
{
1000
PINS
1011
262.7819236287053
1021
1057.114056728627
1031
0.0000000001555554
1002
}
1002
{
1000
PINS2
1011
262.8349236287053
1021
1057.115056728627
1031
0.0000000001555554
1002
}
1002
{
1000
C
1070
     1
1002
}
1001
GENIUS_GENODEF_13
1002
{
1000
HIER
1070
     0
1002
}
1002
{
1000
MANEDIT
1070
     0
1002
}
1002
{
1000
NOSEL
1070
     0
1002
}
1002
{
1000
BEHIND
1070
     0
1002
}
1002
{
1000
REACTOR
1002
}
1001
GENIUS_GENOBJ-N-REC_13
1002
{
1000
OWNER
1000
GEN
1002
}
  0
LINE
  5
F62
330
1F
100
AcDbEntity
  8
SANINDUSA
100
AcDbLine
 10
262.8485784067805
 20
1057.112656732437
 30
0.0000000001555553
 11
262.8495714893591
 21
1057.112656732437
 31
0.0000000001555553
  0
ARC
  5
F63
330
1F
100
AcDbEntity
  8
SANINDUSA
100
AcDbCircle
 10
262.8415497304161
 20
1057.115426247958
 30
0.0000000001555553
 40
0.000175
100
AcDbArc
 50
277.9999999981044
 51
97.99999999810438
  0
ARC
  5
F64
330
1F
100
AcDbEntity
  8
SANINDUSA
100
AcDbCircle
 10
262.8427242110257
 20
1057.114227741098
 30
0.0000000001555553
 40
0.0006000000000005
100
AcDbArc
 50
80.65916589921577
 51
128.8488510033863
  0
LINE
  5
F65
330
1F
100
AcDbEntity
  8
SANINDUSA
100
AcDbLine
 10
262.8452586404831
 20
1057.114925639122
 30
0.0000000001555553
 11
262.8452920470067
 21
1057.115128732903
 31
0.0000000001555553
  0
LINE
  5
F66
330
1F
100
AcDbEntity
  8
SANINDUSA
100
AcDbLine
 10
262.8410347398163
 20
1057.103856676333
 30
0.0000000001555554
 11
262.8410347398163
 21
1057.111856728627
 31
0.0000000001555554
  0
ARC
  5
F67
330
1F
100
AcDbEntity
  8
SANINDUSA
100
AcDbCircle
 10
262.8478236287053
 20
1057.114560301987
 30
0.0000000001555553
 40
0.0006
100
AcDbArc
 50
260.6591658992158
 51
0.0
  0
LINE
  5
F68
330
1F
100
AcDbEntity
  8
SANINDUSA
100
AcDbLine
 10
262.8471437972653
 20
1057.11406406348
 30
0.0000000001555553
 11
262.8477262444443
 21
1057.113968257811
 31
0.0000000001555553
  0
ARC
  5
F69
330
1F
100
AcDbEntity
  8
SANINDUSA
100
AcDbCircle
 10
262.8472249508162
 20
1057.114557433626
 30
0.0000000001555553
 40
0.0005
100
AcDbArc
 50
170.6591658917311
 51
260.6591658992158
  0
LINE
  5
F6A
330
1F
100
AcDbEntity
  8
SANINDUSA
100
AcDbLine
 10
262.8428215952868
 20
1057.114819785273
 30
0.0000000001555553
 11
262.844684116786
 21
1057.114513422527
 31
0.0000000001555553
  0
ARC
  5
F6B
330
1F
100
AcDbEntity
  8
SANINDUSA
100
AcDbCircle
 10
262.8419714893591
 20
1057.115162305217
 30
0.0000000001555553
 40
0.0006
100
AcDbArc
 50
260.6591658992158
 51
308.8488510033863
  0
ARC
  5
F6C
330
1F
100
AcDbEntity
  8
SANINDUSA
100
AcDbCircle
 10
262.8447652703369
 20
1057.115006792673
 30
0.0000000001555553
 40
0.0005
100
AcDbArc
 50
260.6591658992158
 51
350.6591658917312
  0
ARC
  5
F6D
330
1F
100
AcDbEntity
  8
SANINDUSA
100
AcDbCircle
 10
262.8460321022261
 20
1057.115007002576
 30
0.0000000001555553
 40
0.00075
100
AcDbArc
 50
350.6591658917312
 51
170.6591658917311
  0
LINE
  5
F6E
330
1F
100
AcDbEntity
  8
SANINDUSA
100
AcDbLine
 10
262.8467721574454
 20
1057.11488527225
 30
0.0000000001555553
 11
262.84673158067
 21
1057.114638587177
 31
0.0000000001555553
  0
LINE
  5
F6F
330
1F
100
AcDbEntity
  8
SANINDUSA
100
AcDbLine
 10
262.8415253751235
 20
1057.120913920003
 30
0.0000000001555553
 11
262.8393966797239
 21
1057.121213088632
 31
0.0000000001555553
  0
LINE
  5
F70
330
1F
100
AcDbEntity
  8
SANINDUSA
100
AcDbLine
 10
262.841874105098
 20
1057.121943203832
 30
0.0000000001555553
 11
262.8394977573533
 21
1057.121552322748
 31
0.0000000001555553
  0
LINE
  5
F71
330
1F
100
AcDbEntity
  8
SANINDUSA
100
AcDbLine
 10
262.8394977573533
 20
1057.121552322748
 30
0.0000000001555553
 11
262.8415740857088
 21
1057.121260513828
 31
0.0000000001555553
  0
LINE
  5
F72
330
1F
100
AcDbEntity
  8
SANINDUSA
100
AcDbLine
 10
262.837074105098
 20
1057.121964410943
 30
0.0000000001555553
 11
262.8485784067805
 21
1057.123856732437
 31
0.0000000001555553
  0
ARC
  5
F73
330
1F
100
AcDbEntity
  8
SANINDUSA
100
AcDbCircle
 10
262.8381590763297
 20
1057.121534813138
 30
0.0000000001555553
 40
0.0006
100
AcDbArc
 50
279.3408341007842
 51
327.5305192081069
  0
ARC
  5
F74
330
1F
100
AcDbEntity
  8
SANINDUSA
100
AcDbCircle
 10
262.8394662662743
 20
1057.121708222666
 30
0.0000000001555553
 40
0.0005
100
AcDbArc
 50
208.126373965718
 51
262.0000000018956
  0
ARC
  5
F75
330
1F
100
AcDbEntity
  8
SANINDUSA
100
AcDbCircle
 10
262.8391714893591
 20
1057.12089059279
 30
0.0000000001555553
 40
0.0005999999999989
100
AcDbArc
 50
104.100891805711
 51
147.5305192081069
  0
LINE
  5
F76
330
1F
100
AcDbEntity
  8
SANINDUSA
100
AcDbLine
 10
262.8365714893591
 20
1057.120665611134
 30
0.0000000001555553
 11
262.8365714893591
 21
1057.121372366768
 31
0.0000000001555553
  0
ARC
  5
F77
330
1F
100
AcDbEntity
  8
SANINDUSA
100
AcDbCircle
 10
262.8339236287053
 20
1057.126656728627
 30
0.0000000001555554
 40
0.001
100
AcDbArc
 50
0.0
 51
90.0
  0
ARC
  5
F78
330
1F
100
AcDbEntity
  8
SANINDUSA
100
AcDbCircle
 10
262.8371714893591
 20
1057.121372366768
 30
0.0000000001555553
 40
0.0006
100
AcDbArc
 50
99.34083410078422
 51
180.0
  0
LINE
  5
F79
330
1F
100
AcDbEntity
  8
SANINDUSA
100
AcDbLine
 10
262.8349236287053
 20
1057.122656728627
 30
0.0000000001555554
 11
262.8349236287053
 21
1057.126656728627
 31
0.0000000001555554
  0
LINE
  5
F7A
330
1F
100
AcDbEntity
  8
SANINDUSA
100
AcDbLine
 10
262.8382564605907
 20
1057.120942768963
 30
0.0000000001555553
 11
262.8365714893591
 21
1057.120665611134
 31
0.0000000001555553
  0
LINE
  5
F7B
330
1F
100
AcDbEntity
  8
SANINDUSA
100
AcDbLine
 10
262.8485784067805
 20
1057.123856732437
 30
0.0000000001555553
 11
262.8495714893591
 21
1057.123856732437
 31
0.0000000001555553
  0
ARC
  5
F7C
330
1F
100
AcDbEntity
  8
SANINDUSA
100
AcDbCircle
 10
262.8415497304161
 20
1057.121087216915
 30
0.0000000001555553
 40
0.000175
100
AcDbArc
 50
262.0000000018956
 51
82.00000000189561
  0
ARC
  5
F7D
330
1F
100
AcDbEntity
  8
SANINDUSA
100
AcDbCircle
 10
262.8460321022261
 20
1057.121506462297
 30
0.0000000001555553
 40
0.00075
100
AcDbArc
 50
179.8634464257847
 51
9.34083410826885
  0
LINE
  5
F7E
330
1F
100
AcDbEntity
  8
SANINDUSA
100
AcDbLine
 10
262.8447009522253
 20
1057.122002811577
 30
0.0000000001555553
 11
262.8428215952868
 21
1057.1216936796
 31
0.0000000001555553
  0
ARC
  5
F7F
330
1F
100
AcDbEntity
  8
SANINDUSA
100
AcDbCircle
 10
262.8419714893591
 20
1057.121351159656
 30
0.0000000001555553
 40
0.0006
100
AcDbArc
 50
51.15114899661368
 51
99.34083410078422
  0
ARC
  5
F80
330
1F
100
AcDbEntity
  8
SANINDUSA
100
AcDbCircle
 10
262.8427242110257
 20
1057.122285723775
 30
0.0000000001555553
 40
0.0006000000000005
100
AcDbArc
 50
231.1511489966137
 51
279.3408341007842
  0
ARC
  5
F81
330
1F
100
AcDbEntity
  8
SANINDUSA
100
AcDbCircle
 10
262.8478236287053
 20
1057.121953162887
 30
0.0000000001555553
 40
0.0006
100
AcDbArc
 50
0.0
 51
99.34083410078422
  0
LINE
  5
F82
330
1F
100
AcDbEntity
  8
SANINDUSA
100
AcDbLine
 10
262.8477262444443
 20
1057.122545207062
 30
0.0000000001555553
 11
262.8471437972653
 21
1057.122449401393
 31
0.0000000001555553
  0
ARC
  5
F83
330
1F
100
AcDbEntity
  8
SANINDUSA
100
AcDbCircle
 10
262.8447821057762
 20
1057.121509441431
 30
0.0000000001555553
 40
0.0005
100
AcDbArc
 50
359.8634464257847
 51
99.34083410078422
  0
LINE
  5
F84
330
1F
100
AcDbEntity
  8
SANINDUSA
100
AcDbLine
 10
262.84673158067
 20
1057.121874877696
 30
0.0000000001555553
 11
262.8467721574454
 21
1057.121628192623
 31
0.0000000001555553
  0
LINE
  5
F85
330
1F
100
AcDbEntity
  8
SANINDUSA
100
AcDbLine
 10
262.8452920470067
 20
1057.121384731971
 30
0.0000000001555553
 11
262.8452514702313
 21
1057.121631417044
 31
0.0000000001555553
  0
ARC
  5
F86
330
1F
100
AcDbEntity
  8
SANINDUSA
100
AcDbCircle
 10
262.8472249508162
 20
1057.121956031247
 30
0.0000000001555553
 40
0.0005
100
AcDbArc
 50
99.34083410078422
 51
189.3408341082688
  0
LINE
  5
F87
330
1F
100
AcDbEntity
  8
SANINDUSA
100
AcDbLine
 10
262.9169236287053
 20
1057.127656728627
 30
0.0000000001555554
 11
262.8659236287053
 21
1057.127656728627
 31
0.0000000001555554
  0
LWPOLYLINE
  5
F88
330
1F
100
AcDbEntity
  8
SANINDUSA
100
AcDbPolyline
 90
        2
 70
     0
 43
0.0
 38
0.0000000001555553
 10
262.8649236287054
 20
1057.114956728627
 10
262.9179236287054
 20
1057.114956728627
1001
GENIUS_GENREC_14
1002
{
1000
PYDIR
1011
262.7819236287053
1021
1056.909046781355
1031
0.0000000001555554
1002
}
1002
{
1000
PXDIR
1011
262.8349236287053
1021
1056.908046781356
1031
0.0000000001555554
1002
}
1002
{
1000
PORI
1011
262.7819236287053
1021
1056.908046781356
1031
0.0000000001555554
1002
}
1002
{
1000
PINS
1011
262.7819236287053
1021
1056.908046781356
1031
0.0000000001555554
1002
}
1002
{
1000
PINS2
1011
262.8349236287053
1021
1056.909046781355
1031
0.0000000001555554
1002
}
1002
{
1000
C
1070
     1
1002
}
1001
GENIUS_GENODEF_13
1002
{
1000
HIER
1070
     0
1002
}
1002
{
1000
MANEDIT
1070
     0
1002
}
1002
{
1000
NOSEL
1070
     0
1002
}
1002
{
1000
BEHIND
1070
     0
1002
}
1002
{
1000
REACTOR
1002
}
1001
GENIUS_GENOBJ-N-REC_13
1002
{
1000
OWNER
1000
GEN
1002
}
  0
LWPOLYLINE
  5
F89
330
1F
100
AcDbEntity
  8
SANINDUSA
100
AcDbPolyline
 90
        4
 70
     1
 43
0.0
 38
0.0000000001555553
 10
262.9179236287054
 20
1057.122456728627
 10
262.8649236287054
 20
1057.122456728627
 10
262.8649236287054
 20
1057.121456728627
 10
262.9179236287054
 20
1057.121456728627
1001
GENIUS_GENREC_14
1002
{
1000
PYDIR
1011
262.7819236287053
1021
1056.909346781356
1031
0.0000000001555554
1002
}
1002
{
1000
PXDIR
1011
262.8349236287053
1021
1056.908346781356
1031
0.0000000001555554
1002
}
1002
{
1000
PORI
1011
262.7819236287053
1021
1056.908346781356
1031
0.0000000001555554
1002
}
1002
{
1000
PINS
1011
262.7819236287053
1021
1056.908346781356
1031
0.0000000001555554
1002
}
1002
{
1000
PINS2
1011
262.8349236287053
1021
1056.909346781356
1031
0.0000000001555554
1002
}
1002
{
1000
C
1070
     1
1002
}
1001
GENIUS_GENODEF_13
1002
{
1000
HIER
1070
     0
1002
}
1002
{
1000
MANEDIT
1070
     0
1002
}
1002
{
1000
NOSEL
1070
     0
1002
}
1002
{
1000
BEHIND
1070
     0
1002
}
1002
{
1000
REACTOR
1002
}
1001
GENIUS_GENOBJ-N-REC_13
1002
{
1000
OWNER
1000
GEN
1002
}
  0
LINE
  5
F8A
330
1F
100
AcDbEntity
  8
SANINDUSA
100
AcDbLine
 10
262.8649236287054
 20
1057.122656728627
 30
0.0000000001555554
 11
262.9179236287054
 21
1057.122656728627
 31
0.0000000001555554
  0
LINE
  5
F8B
330
1F
100
AcDbEntity
  8
SANINDUSA
100
AcDbLine
 10
262.9169236287053
 20
1057.103856676333
 30
0.0000000001555554
 11
262.8579236287054
 21
1057.103856676333
 31
0.0000000001555554
  0
LWPOLYLINE
  5
F8C
330
1F
100
AcDbEntity
  8
SANINDUSA
100
AcDbPolyline
 90
        2
 70
     0
 43
0.0
 38
0.0000000001555553
 10
262.9179236287054
 20
1057.113956728627
 10
262.8649236287054
 20
1057.113956728627
1001
GENIUS_GENREC_14
1002
{
1000
PYDIR
1011
262.7819236287053
1021
1056.909046781355
1031
0.0000000001555554
1002
}
1002
{
1000
PXDIR
1011
262.8349236287053
1021
1056.908046781356
1031
0.0000000001555554
1002
}
1002
{
1000
PORI
1011
262.7819236287053
1021
1056.908046781356
1031
0.0000000001555554
1002
}
1002
{
1000
PINS
1011
262.7819236287053
1021
1056.908046781356
1031
0.0000000001555554
1002
}
1002
{
1000
PINS2
1011
262.8349236287053
1021
1056.909046781355
1031
0.0000000001555554
1002
}
1002
{
1000
C
1070
     1
1002
}
1001
GENIUS_GENODEF_13
1002
{
1000
HIER
1070
     0
1002
}
1002
{
1000
MANEDIT
1070
     0
1002
}
1002
{
1000
NOSEL
1070
     0
1002
}
1002
{
1000
BEHIND
1070
     0
1002
}
1002
{
1000
REACTOR
1002
}
1001
GENIUS_GENOBJ-N-REC_13
1002
{
1000
OWNER
1000
GEN
1002
}
  0
LINE
  5
F8D
330
1F
100
AcDbEntity
  8
SANINDUSA
100
AcDbLine
 10
262.8649236287054
 20
1057.113856676333
 30
0.0000000001555554
 11
262.9179236287054
 21
1057.113856676333
 31
0.0000000001555554
  0
LINE
  5
F8E
330
1F
100
AcDbEntity
  8
SANINDUSA
100
AcDbLine
 10
262.8588125175943
 20
1057.103856676333
 30
0.0000000001555554
 11
262.8588125175943
 21
1057.111856676334
 31
0.0000000001555554
  0
LINE
  5
F8F
330
1F
100
AcDbEntity
  8
SANINDUSA
100
AcDbLine
 10
262.8649236287054
 20
1057.111856676334
 30
0.0000000001555554
 11
262.8649236287054
 21
1057.113856676333
 31
0.0000000001555554
  0
LINE
  5
F90
330
1F
100
AcDbEntity
  8
SANINDUSA
100
AcDbLine
 10
262.8649236287054
 20
1057.113956728627
 30
0.0000000001555554
 11
262.8649236287054
 21
1057.114956728627
 31
0.0000000001555554
1001
GENIUS_GENREC_14
1002
{
1000
PYDIR
1011
262.7819236287053
1021
1057.114956728627
1031
0.0000000001555554
1002
}
1002
{
1000
PXDIR
1011
262.8349236287053
1021
1057.113956728627
1031
0.0000000001555554
1002
}
1002
{
1000
PORI
1011
262.7819236287053
1021
1057.113956728627
1031
0.0000000001555554
1002
}
1002
{
1000
PINS
1011
262.7819236287053
1021
1057.113956728627
1031
0.0000000001555554
1002
}
1002
{
1000
PINS2
1011
262.8349236287053
1021
1057.114956728627
1031
0.0000000001555554
1002
}
1002
{
1000
C
1070
     1
1002
}
1001
GENIUS_GENODEF_13
1002
{
1000
HIER
1070
     0
1002
}
1002
{
1000
MANEDIT
1070
     0
1002
}
1002
{
1000
NOSEL
1070
     0
1002
}
1002
{
1000
BEHIND
1070
     0
1002
}
1002
{
1000
REACTOR
1002
}
1001
GENIUS_GENOBJ-N-REC_13
1002
{
1000
OWNER
1000
GEN
1002
}
  0
ARC
  5
F91
330
1F
100
AcDbEntity
  8
SANINDUSA
100
AcDbCircle
 10
262.8659236287053
 20
1057.126656728627
 30
0.0000000001555554
 40
0.001
100
AcDbArc
 50
90.0
 51
180.0
  0
LINE
  5
F92
330
1F
100
AcDbEntity
  8
SANINDUSA
100
AcDbLine
 10
262.8649236287054
 20
1057.122656728627
 30
0.0000000001555554
 11
262.8649236287054
 21
1057.126656728627
 31
0.0000000001555554
  0
ARC
  5
F93
330
1F
100
AcDbEntity
  8
SANINDUSA
100
AcDbCircle
 10
262.9169236287053
 20
1057.104856676333
 30
0.0000000001555554
 40
0.001
100
AcDbArc
 50
270.0
 51
0.0
  0
LINE
  5
F94
330
1F
100
AcDbEntity
  8
SANINDUSA
100
AcDbLine
 10
262.9179236287054
 20
1057.113856676333
 30
0.0000000001555554
 11
262.9179236287054
 21
1057.104856676333
 31
0.0000000001555554
  0
LINE
  5
F95
330
1F
100
AcDbEntity
  8
SANINDUSA
100
AcDbLine
 10
262.9179236287054
 20
1057.114956728627
 30
0.0000000001555554
 11
262.9179236287054
 21
1057.113956728627
 31
0.0000000001555554
1001
GENIUS_GENREC_14
1002
{
1000
PYDIR
1011
262.7819236287053
1021
1057.114956728627
1031
0.0000000001555554
1002
}
1002
{
1000
PXDIR
1011
262.8349236287053
1021
1057.113956728627
1031
0.0000000001555554
1002
}
1002
{
1000
PORI
1011
262.7819236287053
1021
1057.113956728627
1031
0.0000000001555554
1002
}
1002
{
1000
PINS
1011
262.7819236287053
1021
1057.113956728627
1031
0.0000000001555554
1002
}
1002
{
1000
PINS2
1011
262.8349236287053
1021
1057.114956728627
1031
0.0000000001555554
1002
}
1002
{
1000
C
1070
     1
1002
}
1001
GENIUS_GENODEF_13
1002
{
1000
HIER
1070
     0
1002
}
1002
{
1000
MANEDIT
1070
     0
1002
}
1002
{
1000
NOSEL
1070
     0
1002
}
1002
{
1000
BEHIND
1070
     0
1002
}
1002
{
1000
REACTOR
1002
}
1001
GENIUS_GENOBJ-N-REC_13
1002
{
1000
OWNER
1000
GEN
1002
}
  0
ARC
  5
F96
330
1F
100
AcDbEntity
  8
SANINDUSA
100
AcDbCircle
 10
262.9169236287053
 20
1057.126656728627
 30
0.0000000001555554
 40
0.001
100
AcDbArc
 50
0.0
 51
90.0
  0
LINE
  5
F97
330
1F
100
AcDbEntity
  8
SANINDUSA
100
AcDbLine
 10
262.9179236287054
 20
1057.122656728627
 30
0.0000000001555554
 11
262.9179236287054
 21
1057.126656728627
 31
0.0000000001555554
  0
LINE
  5
F98
330
1F
100
AcDbEntity
  8
SANINDUSA
100
AcDbLine
 10
263.085653645439
 20
1057.285948900145
 30
0.0000000001260239
 11
263.088653645439
 21
1057.285948900145
 31
0.0000000001260239
  0
LINE
  5
F99
330
1F
100
AcDbEntity
  8
SANINDUSA
100
AcDbLine
 10
263.088653645439
 20
1057.315948900145
 30
0.0000000001260239
 11
263.085653645439
 21
1057.315948900145
 31
0.0000000001260239
  0
LINE
  5
F9B
330
1F
100
AcDbEntity
  8
SANINDUSA
100
AcDbLine
 10
263.0537363835494
 20
1057.299181133191
 30
0.0000000001260239
 11
263.0586536454391
 21
1057.304098395081
 31
0.0000000001260239
  0
LINE
  5
F9C
330
1F
100
AcDbEntity
  8
SANINDUSA
100
AcDbLine
 10
263.0643429852673
 20
1057.288574531474
 30
0.0000000001260239
 11
263.0530292767683
 21
1057.299888239973
 31
0.0000000001260239
  0
LINE
  5
F9D
330
1F
100
AcDbEntity
  8
SANINDUSA
100
AcDbLine
 10
263.0665225922562
 20
1057.301587900145
 30
0.0000000001260239
 11
263.0675037525791
 21
1057.303049007285
 31
0.0000000001260239
  0
LINE
  5
F9E
330
1F
100
AcDbEntity
  8
SANINDUSA
100
AcDbLine
 10
263.083653645439
 20
1057.313948900145
 30
0.0000000001260239
 11
263.083653645439
 21
1057.287948900144
 31
0.0000000001260239
  0
LINE
  5
F9F
330
1F
100
AcDbEntity
  8
SANINDUSA
100
AcDbLine
 10
263.073653645439
 20
1057.309948900145
 30
0.0000000001260239
 11
263.073653645439
 21
1057.291948900145
 31
0.0000000001260239
  0
LINE
  5
FA0
330
1F
100
AcDbEntity
  8
SANINDUSA
100
AcDbLine
 10
263.0633035382989
 20
1057.303049007285
 30
0.0000000001260239
 11
263.0642846986219
 21
1057.301587900145
 31
0.0000000001260239
  0
LINE
  5
FA1
330
1F
100
AcDbEntity
  8
SANINDUSA
100
AcDbLine
 10
263.0633035382989
 20
1057.303049007285
 30
0.0000000001260239
 11
263.064764645439
 21
1057.301587900145
 31
0.0000000001260239
  0
LINE
  5
FA2
330
1F
100
AcDbEntity
  8
SANINDUSA
100
AcDbLine
 10
263.064764645439
 20
1057.301587900145
 30
0.0000000001260239
 11
263.064764645439
 21
1057.302067846962
 31
0.0000000001260239
  0
LINE
  5
FA3
330
1F
100
AcDbEntity
  8
SANINDUSA
100
AcDbLine
 10
263.066042645439
 20
1057.302067846962
 30
0.0000000001260239
 11
263.066042645439
 21
1057.301587900145
 31
0.0000000001260239
  0
LINE
  5
FA4
330
1F
100
AcDbEntity
  8
SANINDUSA
100
AcDbLine
 10
263.0586536454391
 20
1057.306948900144
 30
0.0000000001260239
 11
263.0586536454391
 21
1057.294948900145
 31
0.0000000001260239
  0
LINE
  5
FA5
330
1F
100
AcDbEntity
  8
SANINDUSA
100
AcDbLine
 10
263.0675037525791
 20
1057.303049007285
 30
0.0000000001260239
 11
263.066042645439
 21
1057.301587900145
 31
0.0000000001260239
  0
CIRCLE
  5
FA6
330
1F
100
AcDbEntity
  8
SANINDUSA
100
AcDbCircle
 10
263.065403645439
 20
1057.300948900145
 30
0.0000000001260239
 40
0.0050849999999992
  0
LINE
  5
FA7
330
1F
100
AcDbEntity
  8
SANINDUSA
100
AcDbLine
 10
263.073653645439
 20
1057.292948900145
 30
0.0000000001260239
 11
263.060653645439
 21
1057.292948900145
 31
0.0000000001260239
  0
LINE
  5
FA8
330
1F
100
AcDbEntity
  8
SANINDUSA
100
AcDbLine
 10
263.068373645439
 20
1057.301587900145
 30
0.0000000001260239
 11
263.0665225922562
 21
1057.301587900145
 31
0.0000000001260239
  0
LINE
  5
FA9
330
1F
100
AcDbEntity
  8
SANINDUSA
100
AcDbLine
 10
263.0675037525791
 20
1057.298848793005
 30
0.0000000001260239
 11
263.0665225922562
 21
1057.300309900145
 31
0.0000000001260239
  0
LINE
  5
FAA
330
1F
100
AcDbEntity
  8
SANINDUSA
100
AcDbLine
 10
263.0665225922562
 20
1057.300309900145
 30
0.0000000001260239
 11
263.068373645439
 21
1057.300309900145
 31
0.0000000001260239
  0
LINE
  5
FAB
330
1F
100
AcDbEntity
  8
SANINDUSA
100
AcDbLine
 10
263.068373645439
 20
1057.300309900145
 30
0.0000000001260239
 11
263.068373645439
 21
1057.301587900145
 31
0.0000000001260239
  0
LINE
  5
FAC
330
1F
100
AcDbEntity
  8
SANINDUSA
100
AcDbLine
 10
263.0642846986219
 20
1057.301587900145
 30
0.0000000001260239
 11
263.064764645439
 21
1057.301587900145
 31
0.0000000001260239
  0
LINE
  5
FAD
330
1F
100
AcDbEntity
  8
SANINDUSA
100
AcDbLine
 10
263.0642846986219
 20
1057.301587900145
 30
0.0000000001260239
 11
263.062433645439
 21
1057.301587900145
 31
0.0000000001260239
  0
LINE
  5
FAE
330
1F
100
AcDbEntity
  8
SANINDUSA
100
AcDbLine
 10
263.066042645439
 20
1057.301587900145
 30
0.0000000001260239
 11
263.064764645439
 21
1057.301587900145
 31
0.0000000001260239
  0
LINE
  5
FAF
330
1F
100
AcDbEntity
  8
SANINDUSA
100
AcDbLine
 10
263.064764645439
 20
1057.301587900145
 30
0.0000000001260239
 11
263.065403645439
 21
1057.300948900145
 31
0.0000000001260239
  0
LINE
  5
FB0
330
1F
100
AcDbEntity
  8
SANINDUSA
100
AcDbLine
 10
263.065403645439
 20
1057.300948900145
 30
0.0000000001260239
 11
263.065403645439
 21
1057.301587900145
 31
0.0000000001260239
  0
LINE
  5
FB1
330
1F
100
AcDbEntity
  8
SANINDUSA
100
AcDbLine
 10
263.065403645439
 20
1057.300948900145
 30
0.0000000001260239
 11
263.066042645439
 21
1057.301587900145
 31
0.0000000001260239
  0
LINE
  5
FB2
330
1F
100
AcDbEntity
  8
SANINDUSA
100
AcDbLine
 10
263.065403645439
 20
1057.300948900145
 30
0.0000000001260239
 11
263.066042645439
 21
1057.300948900145
 31
0.0000000001260239
  0
LINE
  5
FB3
330
1F
100
AcDbEntity
  8
SANINDUSA
100
AcDbLine
 10
263.064764645439
 20
1057.300948900145
 30
0.0000000001260239
 11
263.065403645439
 21
1057.300948900145
 31
0.0000000001260239
  0
LINE
  5
FB4
330
1F
100
AcDbEntity
  8
SANINDUSA
100
AcDbLine
 10
263.066042645439
 20
1057.300309900145
 30
0.0000000001260239
 11
263.066042645439
 21
1057.299829953327
 31
0.0000000001260239
  0
LINE
  5
FB5
330
1F
100
AcDbEntity
  8
SANINDUSA
100
AcDbLine
 10
263.0633035382989
 20
1057.298848793005
 30
0.0000000001260239
 11
263.064764645439
 21
1057.299829953327
 31
0.0000000001260239
  0
LINE
  5
FB6
330
1F
100
AcDbEntity
  8
SANINDUSA
100
AcDbLine
 10
263.0633035382989
 20
1057.298848793005
 30
0.0000000001260239
 11
263.064764645439
 21
1057.300309900145
 31
0.0000000001260239
  0
LINE
  5
FB7
330
1F
100
AcDbEntity
  8
SANINDUSA
100
AcDbLine
 10
263.064764645439
 20
1057.299829953327
 30
0.0000000001260239
 11
263.064764645439
 21
1057.300309900145
 31
0.0000000001260239
  0
LINE
  5
FB8
330
1F
100
AcDbEntity
  8
SANINDUSA
100
AcDbLine
 10
263.0642846986219
 20
1057.300309900145
 30
0.0000000001260239
 11
263.0633035382989
 21
1057.298848793005
 31
0.0000000001260239
  0
LINE
  5
FB9
330
1F
100
AcDbEntity
  8
SANINDUSA
100
AcDbLine
 10
263.064764645439
 20
1057.300309900145
 30
0.0000000001260239
 11
263.0642846986219
 21
1057.300309900145
 31
0.0000000001260239
  0
LINE
  5
FBA
330
1F
100
AcDbEntity
  8
SANINDUSA
100
AcDbLine
 10
263.064764645439
 20
1057.299829953327
 30
0.0000000001260239
 11
263.064764645439
 21
1057.297978900145
 31
0.0000000001260239
  0
LINE
  5
FBB
330
1F
100
AcDbEntity
  8
SANINDUSA
100
AcDbLine
 10
263.064764645439
 20
1057.300309900145
 30
0.0000000001260239
 11
263.066042645439
 21
1057.300309900145
 31
0.0000000001260239
  0
LINE
  5
FBC
330
1F
100
AcDbEntity
  8
SANINDUSA
100
AcDbLine
 10
263.062433645439
 20
1057.300309900145
 30
0.0000000001260239
 11
263.0642846986219
 21
1057.300309900145
 31
0.0000000001260239
  0
LINE
  5
FBD
330
1F
100
AcDbEntity
  8
SANINDUSA
100
AcDbLine
 10
263.066042645439
 20
1057.297978900145
 30
0.0000000001260239
 11
263.066042645439
 21
1057.299829953327
 31
0.0000000001260239
  0
LINE
  5
FBE
330
1F
100
AcDbEntity
  8
SANINDUSA
100
AcDbLine
 10
263.064764645439
 20
1057.297978900145
 30
0.0000000001260239
 11
263.066042645439
 21
1057.297978900145
 31
0.0000000001260239
  0
ARC
  5
FBF
330
1F
100
AcDbEntity
  8
SANINDUSA
100
AcDbCircle
 10
263.060653645439
 20
1057.294948900145
 30
0.0000000001260239
 40
0.002
100
AcDbArc
 50
180.0
 51
270.0
  0
LINE
  5
FC0
330
1F
100
AcDbEntity
  8
SANINDUSA
100
AcDbLine
 10
263.065403645439
 20
1057.300948900145
 30
0.0000000001260239
 11
263.064764645439
 21
1057.300309900145
 31
0.0000000001260239
  0
LINE
  5
FC1
330
1F
100
AcDbEntity
  8
SANINDUSA
100
AcDbLine
 10
263.065403645439
 20
1057.300309900145
 30
0.0000000001260239
 11
263.065403645439
 21
1057.300948900145
 31
0.0000000001260239
  0
LINE
  5
FC2
330
1F
100
AcDbEntity
  8
SANINDUSA
100
AcDbLine
 10
263.062433645439
 20
1057.301587900145
 30
0.0000000001260239
 11
263.062433645439
 21
1057.300309900145
 31
0.0000000001260239
  0
LINE
  5
FC3
330
1F
100
AcDbEntity
  8
SANINDUSA
100
AcDbLine
 10
263.064764645439
 20
1057.300309900145
 30
0.0000000001260239
 11
263.064764645439
 21
1057.301587900145
 31
0.0000000001260239
  0
LINE
  5
FC4
330
1F
100
AcDbEntity
  8
SANINDUSA
100
AcDbLine
 10
263.066042645439
 20
1057.300309900145
 30
0.0000000001260239
 11
263.065403645439
 21
1057.300948900145
 31
0.0000000001260239
  0
LINE
  5
FC5
330
1F
100
AcDbEntity
  8
SANINDUSA
100
AcDbLine
 10
263.066042645439
 20
1057.301587900145
 30
0.0000000001260239
 11
263.066042645439
 21
1057.300309900145
 31
0.0000000001260239
  0
LINE
  5
FC6
330
1F
100
AcDbEntity
  8
SANINDUSA
100
AcDbLine
 10
263.066042645439
 20
1057.301587900145
 30
0.0000000001260239
 11
263.0665225922562
 21
1057.301587900145
 31
0.0000000001260239
  0
LINE
  5
FC7
330
1F
100
AcDbEntity
  8
SANINDUSA
100
AcDbLine
 10
263.0675037525791
 20
1057.298848793005
 30
0.0000000001260239
 11
263.066042645439
 21
1057.300309900145
 31
0.0000000001260239
  0
LINE
  5
FC8
330
1F
100
AcDbEntity
  8
SANINDUSA
100
AcDbLine
 10
263.0665225922562
 20
1057.300309900145
 30
0.0000000001260239
 11
263.066042645439
 21
1057.300309900145
 31
0.0000000001260239
  0
LINE
  5
FC9
330
1F
100
AcDbEntity
  8
SANINDUSA
100
AcDbLine
 10
263.066042645439
 20
1057.299829953327
 30
0.0000000001260239
 11
263.0675037525791
 21
1057.298848793005
 31
0.0000000001260239
  0
LINE
  5
FCA
330
1F
100
AcDbEntity
  8
SANINDUSA
100
AcDbLine
 10
263.0673031403757
 20
1057.292948900145
 30
0.0000000001260239
 11
263.0636358784861
 21
1057.289281638255
 31
0.0000000001260239
  0
LINE
  5
FCB
330
1F
100
AcDbEntity
  8
SANINDUSA
100
AcDbLine
 10
263.083653645439
 20
1057.291948900145
 30
0.0000000001260239
 11
263.073653645439
 21
1057.291948900145
 31
0.0000000001260239
  0
ARC
  5
FCC
330
1F
100
AcDbEntity
  8
SANINDUSA
100
AcDbCircle
 10
263.085653645439
 20
1057.287948900144
 30
0.0000000001260239
 40
0.002
100
AcDbArc
 50
180.0
 51
270.0
  0
LINE
  5
FCD
330
1F
100
AcDbEntity
  8
SANINDUSA
100
AcDbLine
 10
263.073653645439
 20
1057.308948900145
 30
0.0000000001260239
 11
263.060653645439
 21
1057.308948900145
 31
0.0000000001260239
  0
ARC
  5
FCE
330
1F
100
AcDbEntity
  8
SANINDUSA
100
AcDbCircle
 10
263.060653645439
 20
1057.306948900144
 30
0.0000000001260239
 40
0.002
100
AcDbArc
 50
90.0
 51
180.0
  0
LINE
  5
FCF
330
1F
100
AcDbEntity
  8
SANINDUSA
100
AcDbLine
 10
263.064764645439
 20
1057.302067846962
 30
0.0000000001260239
 11
263.0633035382989
 21
1057.303049007285
 31
0.0000000001260239
  0
LINE
  5
FD0
330
1F
100
AcDbEntity
  8
SANINDUSA
100
AcDbLine
 10
263.066042645439
 20
1057.302067846962
 30
0.0000000001260239
 11
263.066042645439
 21
1057.303918900144
 31
0.0000000001260239
  0
LINE
  5
FD1
330
1F
100
AcDbEntity
  8
SANINDUSA
100
AcDbLine
 10
263.064764645439
 20
1057.303918900144
 30
0.0000000001260239
 11
263.064764645439
 21
1057.302067846962
 31
0.0000000001260239
  0
LINE
  5
FD2
330
1F
100
AcDbEntity
  8
SANINDUSA
100
AcDbLine
 10
263.066042645439
 20
1057.303918900144
 30
0.0000000001260239
 11
263.064764645439
 21
1057.303918900144
 31
0.0000000001260239
  0
LINE
  5
FD3
330
1F
100
AcDbEntity
  8
SANINDUSA
100
AcDbLine
 10
263.0675037525791
 20
1057.303049007285
 30
0.0000000001260239
 11
263.066042645439
 21
1057.302067846962
 31
0.0000000001260239
  0
LINE
  5
FD4
330
1F
100
AcDbEntity
  8
SANINDUSA
100
AcDbLine
 10
263.083653645439
 20
1057.309948900145
 30
0.0000000001260239
 11
263.073653645439
 21
1057.309948900145
 31
0.0000000001260239
  0
ARC
  5
FD5
330
1F
100
AcDbEntity
  8
SANINDUSA
100
AcDbCircle
 10
263.085653645439
 20
1057.313948900145
 30
0.0000000001260239
 40
0.002
100
AcDbArc
 50
90.0
 51
180.0
  0
LINE
  5
FD6
330
1F
100
AcDbEntity
  8
SANINDUSA
100
AcDbLine
 10
263.088653645439
 20
1057.285948900145
 30
0.0000000001260239
 11
263.088653645439
 21
1057.315948900145
 31
0.0000000001260239
  0
LINE
  5
1168
330
1F
100
AcDbEntity
  8
SANINDUSA
100
AcDbLine
 10
263.8747024185295
 20
1057.736626709884
 30
-0.0000000017937957
 11
263.8747024185295
 21
1057.715626709884
 31
-0.0000000017937957
  0
LINE
  5
1169
330
1F
100
AcDbEntity
  8
SANINDUSA
100
AcDbLine
 10
263.8738135296407
 20
1057.721126709884
 30
-0.0000000017937957
 11
263.8738135296407
 21
1057.740626709884
 31
-0.0000000017937957
  0
LINE
  5
116A
330
1F
100
AcDbEntity
  8
SANINDUSA
100
AcDbLine
 10
263.8147024185297
 20
1057.755126709884
 30
-0.0000000017937957
 11
263.8147024185297
 21
1057.722126709884
 31
-0.0000000017937957
  0
LINE
  5
116B
330
1F
100
AcDbEntity
  8
SANINDUSA
100
AcDbLine
 10
263.9507024185296
 20
1057.755126709884
 30
-0.0000000017937957
 11
263.9507024185296
 21
1057.722126709884
 31
-0.0000000017937957
  0
LINE
  5
116C
330
1F
100
AcDbEntity
  8
SANINDUSA
100
AcDbLine
 10
263.8907024185296
 20
1057.715626709884
 30
-0.0000000017937957
 11
263.8907024185296
 21
1057.736626709884
 31
-0.0000000017937957
  0
LINE
  5
116E
330
1F
100
AcDbEntity
  8
SANINDUSA
100
AcDbLine
 10
263.8747024185295
 20
1056.476626709893
 30
-0.0000000017937957
 11
263.8747024185295
 21
1056.455626709893
 31
-0.0000000017937957
  0
LINE
  5
116F
330
1F
100
AcDbEntity
  8
SANINDUSA
100
AcDbLine
 10
263.8738135296407
 20
1056.461126709893
 30
-0.0000000017937957
 11
263.8738135296407
 21
1056.480626709893
 31
-0.0000000017937957
  0
LINE
  5
1170
330
1F
100
AcDbEntity
  8
SANINDUSA
100
AcDbLine
 10
263.8147024185297
 20
1056.495126709893
 30
-0.0000000017937957
 11
263.8147024185297
 21
1056.462126709893
 31
-0.0000000017937957
  0
LINE
  5
1171
330
1F
100
AcDbEntity
  8
SANINDUSA
100
AcDbLine
 10
263.9507024185296
 20
1056.495126709893
 30
-0.0000000017937957
 11
263.9507024185296
 21
1056.462126709893
 31
-0.0000000017937957
  0
LINE
  5
1172
330
1F
100
AcDbEntity
  8
SANINDUSA
100
AcDbLine
 10
263.8907024185296
 20
1056.455626709893
 30
-0.0000000017937957
 11
263.8907024185296
 21
1056.476626709893
 31
-0.0000000017937957
  0
LINE
  5
1173
330
1F
100
AcDbEntity
  8
SANINDUSA
100
AcDbLine
 10
263.8157024185296
 20
1056.461126709893
 30
-0.0000000017937957
 11
263.8738135296407
 21
1056.461126709893
 31
-0.0000000017937957
  0
ARC
  5
1174
330
1F
100
AcDbEntity
  8
SANINDUSA
100
AcDbCircle
 10
263.8157024185296
 20
1056.462126709893
 30
-0.0000000017937957
 40
0.001
100
AcDbArc
 50
180.0
 51
270.0
  0
ARC
  5
1175
330
1F
100
AcDbEntity
  8
SANINDUSA
100
AcDbCircle
 10
263.8757024185296
 20
1056.455626709893
 30
-0.0000000017937957
 40
0.001
100
AcDbArc
 50
180.0
 51
270.0
  0
ARC
  5
1176
330
1F
100
AcDbEntity
  8
SANINDUSA
100
AcDbCircle
 10
263.9497024185295
 20
1056.462126709893
 30
-0.0000000017937957
 40
0.001
100
AcDbArc
 50
270.0
 51
0.0
  0
ARC
  5
1177
330
1F
100
AcDbEntity
  8
SANINDUSA
100
AcDbCircle
 10
263.8897024185296
 20
1056.455626709893
 30
-0.0000000017937957
 40
0.001
100
AcDbArc
 50
270.0
 51
0.0
  0
LINE
  5
1178
330
1F
100
AcDbEntity
  8
SANINDUSA
100
AcDbLine
 10
263.8757024185296
 20
1056.454626709893
 30
-0.0000000017937957
 11
263.8897024185296
 21
1056.454626709893
 31
-0.0000000017937957
  0
LINE
  5
1179
330
1F
100
AcDbEntity
  8
SANINDUSA
100
AcDbLine
 10
263.9497024185295
 20
1056.461126709893
 30
-0.0000000017937957
 11
263.8907024185296
 21
1056.461126709893
 31
-0.0000000017937957
  0
LINE
  5
117A
330
1F
100
AcDbEntity
  8
SANINDUSA
100
AcDbLine
 10
263.8747024185297
 20
1056.496126709893
 30
-0.0000000017937957
 11
263.8157024185296
 21
1056.496126709893
 31
-0.0000000017937957
  0
ARC
  5
117B
330
1F
100
AcDbEntity
  8
SANINDUSA
100
AcDbCircle
 10
263.8157024185296
 20
1056.495126709893
 30
-0.0000000017937957
 40
0.001
100
AcDbArc
 50
90.0
 51
180.0
  0
ARC
  5
117C
330
1F
100
AcDbEntity
  8
SANINDUSA
100
AcDbCircle
 10
263.8757024185297
 20
1056.501626709893
 30
-0.0000000017937957
 40
0.001
100
AcDbArc
 50
90.0
 51
180.0
  0
LINE
  5
117D
330
1F
100
AcDbEntity
  8
SANINDUSA
100
AcDbLine
 10
263.8747024185297
 20
1056.496126709893
 30
-0.0000000017937957
 11
263.8747024185297
 21
1056.480626709893
 31
-0.0000000017937957
  0
LINE
  5
117E
330
1F
100
AcDbEntity
  8
SANINDUSA
100
AcDbLine
 10
263.8747024185297
 20
1056.501626709893
 30
-0.0000000017937957
 11
263.8747024185297
 21
1056.496126709893
 31
-0.0000000017937957
  0
LINE
  5
117F
330
1F
100
AcDbEntity
  8
SANINDUSA
100
AcDbLine
 10
263.8752024185296
 20
1056.480626709893
 30
-0.0000000017937957
 11
263.8752024185296
 21
1056.476626709893
 31
-0.0000000017937957
  0
ARC
  5
1180
330
1F
100
AcDbEntity
  8
SANINDUSA
100
AcDbCircle
 10
263.9497024185295
 20
1056.495126709893
 30
-0.0000000017937957
 40
0.001
100
AcDbArc
 50
0.0
 51
90.0
  0
LINE
  5
1181
330
1F
100
AcDbEntity
  8
SANINDUSA
100
AcDbLine
 10
263.8907024185296
 20
1056.480626709893
 30
-0.0000000017937957
 11
263.8907024185296
 21
1056.501626709893
 31
-0.0000000017937957
  0
LINE
  5
1182
330
1F
100
AcDbEntity
  8
SANINDUSA
100
AcDbLine
 10
263.8915913074185
 20
1056.476626709893
 30
-0.0000000017937957
 11
263.8915913074185
 21
1056.496126709893
 31
-0.0000000017937957
  0
LINE
  5
1183
330
1F
100
AcDbEntity
  8
SANINDUSA
100
AcDbLine
 10
263.8902024185295
 20
1056.480626709893
 30
-0.0000000017937957
 11
263.8902024185295
 21
1056.476626709893
 31
-0.0000000017937957
  0
LINE
  5
1184
330
1F
100
AcDbEntity
  8
SANINDUSA
100
AcDbLine
 10
263.8907024185296
 20
1056.476626709893
 30
-0.0000000017937957
 11
263.8915913074185
 21
1056.476626709893
 31
-0.0000000017937957
  0
ARC
  5
1185
330
1F
100
AcDbEntity
  8
SANINDUSA
100
AcDbCircle
 10
263.8897024185297
 20
1056.501626709893
 30
-0.0000000017937957
 40
0.001
100
AcDbArc
 50
0.0
 51
90.0
  0
LINE
  5
1186
330
1F
100
AcDbEntity
  8
SANINDUSA
100
AcDbLine
 10
263.8738135296407
 20
1056.480626709893
 30
-0.0000000017937957
 11
263.8907024185296
 21
1056.480626709893
 31
-0.0000000017937957
  0
LINE
  5
1187
330
1F
100
AcDbEntity
  8
SANINDUSA
100
AcDbLine
 10
263.8907024185296
 20
1056.476626709893
 30
-0.0000000017937957
 11
263.8747024185295
 21
1056.476626709893
 31
-0.0000000017937957
  0
LINE
  5
1188
330
1F
100
AcDbEntity
  8
SANINDUSA
100
AcDbLine
 10
263.8897024185297
 20
1056.502626709893
 30
-0.0000000017937957
 11
263.8757024185297
 21
1056.502626709893
 31
-0.0000000017937957
  0
LINE
  5
1189
330
1F
100
AcDbEntity
  8
SANINDUSA
100
AcDbLine
 10
263.8915913074185
 20
1056.496126709893
 30
-0.0000000017937957
 11
263.9497024185295
 21
1056.496126709893
 31
-0.0000000017937957
  0
LINE
  5
118A
330
1F
100
AcDbEntity
  8
SANINDUSA
100
AcDbLine
 10
263.8157024185296
 20
1057.721126709884
 30
-0.0000000017937957
 11
263.8738135296407
 21
1057.721126709884
 31
-0.0000000017937957
  0
ARC
  5
118B
330
1F
100
AcDbEntity
  8
SANINDUSA
100
AcDbCircle
 10
263.8157024185296
 20
1057.722126709884
 30
-0.0000000017937957
 40
0.001
100
AcDbArc
 50
180.0
 51
270.0
  0
ARC
  5
118C
330
1F
100
AcDbEntity
  8
SANINDUSA
100
AcDbCircle
 10
263.8757024185296
 20
1057.715626709884
 30
-0.0000000017937957
 40
0.001
100
AcDbArc
 50
180.0
 51
270.0
  0
ARC
  5
118D
330
1F
100
AcDbEntity
  8
SANINDUSA
100
AcDbCircle
 10
263.9497024185295
 20
1057.722126709884
 30
-0.0000000017937957
 40
0.001
100
AcDbArc
 50
270.0
 51
0.0
  0
ARC
  5
118E
330
1F
100
AcDbEntity
  8
SANINDUSA
100
AcDbCircle
 10
263.8897024185296
 20
1057.715626709884
 30
-0.0000000017937957
 40
0.001
100
AcDbArc
 50
270.0
 51
0.0
  0
LINE
  5
118F
330
1F
100
AcDbEntity
  8
SANINDUSA
100
AcDbLine
 10
263.8757024185296
 20
1057.714626709884
 30
-0.0000000017937957
 11
263.8897024185296
 21
1057.714626709884
 31
-0.0000000017937957
  0
LINE
  5
1190
330
1F
100
AcDbEntity
  8
SANINDUSA
100
AcDbLine
 10
263.9497024185295
 20
1057.721126709884
 30
-0.0000000017937957
 11
263.8907024185296
 21
1057.721126709884
 31
-0.0000000017937957
  0
LINE
  5
1192
330
1F
100
AcDbEntity
  8
SANINDUSA
100
AcDbLine
 10
263.8747024185297
 20
1057.756126709884
 30
-0.0000000017937957
 11
263.8157024185296
 21
1057.756126709884
 31
-0.0000000017937957
  0
ARC
  5
1193
330
1F
100
AcDbEntity
  8
SANINDUSA
100
AcDbCircle
 10
263.8157024185296
 20
1057.755126709884
 30
-0.0000000017937957
 40
0.001
100
AcDbArc
 50
90.0
 51
180.0
  0
ARC
  5
1194
330
1F
100
AcDbEntity
  8
SANINDUSA
100
AcDbCircle
 10
263.8757024185297
 20
1057.761626709884
 30
-0.0000000017937957
 40
0.001
100
AcDbArc
 50
90.0
 51
180.0
  0
LINE
  5
1195
330
1F
100
AcDbEntity
  8
SANINDUSA
100
AcDbLine
 10
263.8747024185297
 20
1057.756126709884
 30
-0.0000000017937957
 11
263.8747024185297
 21
1057.740626709884
 31
-0.0000000017937957
  0
LINE
  5
1196
330
1F
100
AcDbEntity
  8
SANINDUSA
100
AcDbLine
 10
263.8747024185297
 20
1057.761626709884
 30
-0.0000000017937957
 11
263.8747024185297
 21
1057.756126709884
 31
-0.0000000017937957
  0
LINE
  5
1197
330
1F
100
AcDbEntity
  8
SANINDUSA
100
AcDbLine
 10
263.8752024185296
 20
1057.740626709884
 30
-0.0000000017937957
 11
263.8752024185296
 21
1057.736626709884
 31
-0.0000000017937957
  0
ARC
  5
1198
330
1F
100
AcDbEntity
  8
SANINDUSA
100
AcDbCircle
 10
263.9497024185295
 20
1057.755126709884
 30
-0.0000000017937957
 40
0.001
100
AcDbArc
 50
0.0
 51
90.0
  0
LINE
  5
1199
330
1F
100
AcDbEntity
  8
SANINDUSA
100
AcDbLine
 10
263.8907024185296
 20
1057.740626709884
 30
-0.0000000017937957
 11
263.8907024185296
 21
1057.761626709884
 31
-0.0000000017937957
  0
LINE
  5
119A
330
1F
100
AcDbEntity
  8
SANINDUSA
100
AcDbLine
 10
263.8915913074185
 20
1057.736626709884
 30
-0.0000000017937957
 11
263.8915913074185
 21
1057.756126709884
 31
-0.0000000017937957
  0
LINE
  5
119B
330
1F
100
AcDbEntity
  8
SANINDUSA
100
AcDbLine
 10
263.8902024185295
 20
1057.740626709884
 30
-0.0000000017937957
 11
263.8902024185295
 21
1057.736626709884
 31
-0.0000000017937957
  0
LINE
  5
119C
330
1F
100
AcDbEntity
  8
SANINDUSA
100
AcDbLine
 10
263.8907024185296
 20
1057.736626709884
 30
-0.0000000017937957
 11
263.8915913074185
 21
1057.736626709884
 31
-0.0000000017937957
  0
ARC
  5
119D
330
1F
100
AcDbEntity
  8
SANINDUSA
100
AcDbCircle
 10
263.8897024185297
 20
1057.761626709884
 30
-0.0000000017937957
 40
0.001
100
AcDbArc
 50
0.0
 51
90.0
  0
LINE
  5
119E
330
1F
100
AcDbEntity
  8
SANINDUSA
100
AcDbLine
 10
263.8738135296407
 20
1057.740626709884
 30
-0.0000000017937957
 11
263.8907024185296
 21
1057.740626709884
 31
-0.0000000017937957
  0
LINE
  5
119F
330
1F
100
AcDbEntity
  8
SANINDUSA
100
AcDbLine
 10
263.8907024185296
 20
1057.736626709884
 30
-0.0000000017937957
 11
263.8747024185295
 21
1057.736626709884
 31
-0.0000000017937957
  0
LINE
  5
11A0
330
1F
100
AcDbEntity
  8
SANINDUSA
100
AcDbLine
 10
263.8897024185297
 20
1057.762626709884
 30
-0.0000000017937957
 11
263.8757024185297
 21
1057.762626709884
 31
-0.0000000017937957
  0
LINE
  5
11A1
330
1F
100
AcDbEntity
  8
SANINDUSA
100
AcDbLine
 10
263.8915913074185
 20
1057.756126709884
 30
-0.0000000017937957
 11
263.9497024185295
 21
1057.756126709884
 31
-0.0000000017937957
  0
LINE
  5
11A2
330
1F
100
AcDbEntity
  8
SANINDUSA
100
AcDbLine
 10
264.0805327908806
 20
1056.183626709893
 30
0.0
 11
264.0805327908806
 21
1058.033626709893
 31
0.0
  0
LINE
  5
11A3
330
1F
100
AcDbEntity
  8
SANINDUSA
100
AcDbLine
 10
264.1214327908806
 20
1056.183626709893
 30
0.0
 11
264.1214327908806
 21
1058.033626709893
 31
0.0
  0
LINE
  5
11A4
330
1F
100
AcDbEntity
  8
SANINDUSA
100
AcDbLine
 10
263.238037756456
 20
1056.193626709893
 30
0.0
 11
263.238037756456
 21
1058.033626709893
 31
0.0
  0
LINE
  5
11A5
330
1F
100
AcDbEntity
  8
SANINDUSA
100
AcDbLine
 10
263.235537756456
 20
1056.193626709893
 30
0.0
 11
263.235537756456
 21
1058.033626709893
 31
0.0
  0
LINE
  5
11A6
330
1F
100
AcDbEntity
  8
SANINDUSA
100
AcDbLine
 10
263.229537756456
 20
1056.193626709893
 30
0.0
 11
263.229537756456
 21
1058.033626709893
 31
0.0
  0
LINE
  5
11A7
330
1F
100
AcDbEntity
  8
SANINDUSA
100
AcDbLine
 10
263.217237756456
 20
1056.183626709893
 30
0.0
 11
263.217237756456
 21
1058.033626709893
 31
0.0
  0
LINE
  5
11AB
330
1F
100
AcDbEntity
  8
SANINDUSA
100
AcDbLine
 10
264.1145134952627
 20
1056.183626709893
 30
0.0
 11
263.2241629346142
 21
1056.183626709893
 31
0.0
  0
LINE
  5
11AC
330
1F
100
AcDbEntity
  8
SANINDUSA
100
AcDbLine
 10
263.8842024185297
 20
1056.502626709893
 30
0.0
 11
263.8842024185297
 21
1057.714626709884
 31
0.0
  0
LINE
  5
11AD
330
1F
100
AcDbEntity
  8
SANINDUSA
100
AcDbLine
 10
263.8812024185297
 20
1056.502626709893
 30
0.0
 11
263.8812024185297
 21
1057.714626709884
 31
0.0
  0
LINE
  5
11AE
330
1F
100
AcDbEntity
  8
SANINDUSA
100
AcDbLine
 10
263.8812024185297
 20
1056.193626709893
 30
0.0
 11
263.238037756456
 21
1056.193626709893
 31
0.0
  0
LINE
  5
11B1
330
1F
100
AcDbEntity
  8
SANINDUSA
100
AcDbLine
 10
263.235537756456
 20
1056.193626709893
 30
0.0
 11
263.229537756456
 21
1056.193626709893
 31
0.0
  0
LINE
  5
11B3
330
1F
100
AcDbEntity
  8
SANINDUSA
100
AcDbLine
 10
263.8812024185297
 20
1056.193626709893
 30
0.0
 11
263.8812024185297
 21
1056.454626709893
 31
0.0
  0
LINE
  5
11B4
330
1F
100
AcDbEntity
  8
SANINDUSA
100
AcDbLine
 10
263.8842024185297
 20
1056.183626709893
 30
0.0
 11
263.8842024185297
 21
1056.454626709893
 31
0.0
  0
LINE
  5
11B6
330
1F
100
AcDbEntity
  8
SANINDUSA
100
AcDbLine
 10
264.1214327908806
 20
1056.183626709893
 30
0.0
 11
264.1214327908806
 21
1056.474815776476
 31
0.0
  0
LINE
  5
11BB
330
1F
100
AcDbEntity
  8
SANINDUSA
100
AcDbLine
 10
264.0814327908806
 20
1056.183626709893
 30
0.0
 11
264.1214327908806
 21
1056.183626709893
 31
0.0
  0
LINE
  5
11BD
330
1F
100
AcDbEntity
  8
SANINDUSA
100
AcDbLine
 10
264.1214327908806
 20
1058.033626709893
 30
0.0
 11
263.8574327908806
 21
1058.033626709893
 31
0.0
  0
LINE
  5
11BF
330
1F
100
AcDbEntity
  8
SANINDUSA
100
AcDbLine
 10
263.8812024185297
 20
1058.033626709893
 30
0.0
 11
263.217237756456
 21
1058.033626709893
 31
0.0
  0
LINE
  5
11C1
330
1F
100
AcDbEntity
  8
SANINDUSA
100
AcDbLine
 10
263.8812024185297
 20
1057.762626709884
 30
0.0
 11
263.8812024185297
 21
1058.033626709893
 31
0.0
  0
LINE
  5
11C2
330
1F
100
AcDbEntity
  8
SANINDUSA
100
AcDbLine
 10
263.8842024185297
 20
1057.762626709884
 30
0.0
 11
263.8842024185297
 21
1058.033626709893
 31
0.0
  0
LINE
  5
1326
330
1F
100
AcDbEntity
  8
SANINDUSA
100
AcDbLine
 10
263.2641665182971
 20
1056.193626709893
 30
0.0
 11
263.2641665182971
 21
1058.033626709893
 31
0.0
  0
LINE
  5
1327
330
1F
100
AcDbEntity
  8
SANINDUSA
100
AcDbLine
 10
263.2666665182971
 20
1056.193626709893
 30
0.0
 11
263.2666665182971
 21
1058.033626709893
 31
0.0
  0
LINE
  5
1328
330
1F
100
AcDbEntity
  8
SANINDUSA
100
AcDbLine
 10
263.2950551404856
 20
1056.193626709893
 30
0.0
 11
263.2950551404856
 21
1058.033626709893
 31
0.0
  0
LINE
  5
1329
330
1F
100
AcDbEntity
  8
SANINDUSA
100
AcDbLine
 10
263.2925551404856
 20
1056.193626709893
 30
0.0
 11
263.2925551404856
 21
1058.033626709893
 31
0.0
  0
LINE
  5
132C
330
1F
100
AcDbEntity
  8
SANINDUSA
100
AcDbLine
 10
263.2241629346142
 20
1056.183626709893
 30
0.0
 11
263.217237756456
 21
1056.183626709893
 31
0.0
  0
ARC
  5
14CF
330
1F
100
AcDbEntity
  8
SANINDUSA
100
AcDbCircle
 10
262.2299637877108
 20
1057.114256728627
 30
0.0000000001555553
 40
0.0019999999999993
100
AcDbArc
 50
270.0
 51
315.0000000552712
  0
LINE
  5
14D0
330
1F
100
AcDbEntity
  8
SANINDUSA
100
AcDbLine
 10
262.2313780012746
 20
1057.112842515066
 30
0.0000000001555553
 11
262.2397254924589
 21
1057.121190006251
 31
0.0000000001555553
  0
ARC
  5
14D1
330
1F
100
AcDbEntity
  8
SANINDUSA
100
AcDbCircle
 10
262.2383112788951
 20
1057.122604219812
 30
0.0000000001555553
 40
0.0019999999999997
100
AcDbArc
 50
315.0000000552712
 51
45.00000038459559
  0
LINE
  5
14D2
330
1F
100
AcDbEntity
  8
SANINDUSA
100
AcDbLine
 10
262.2397254924481
 20
1057.124018433383
 30
0.0000000001555553
 11
262.237372983623
 21
1057.126370942194
 31
0.0000000001555553
  0
ARC
  5
14D3
330
1F
100
AcDbEntity
  8
SANINDUSA
100
AcDbCircle
 10
262.235958770065
 20
1057.124956728627
 30
0.0000000001555553
 40
0.0019999999999989
100
AcDbArc
 50
45.00000018193444
 51
90.0
  0
LINE
  5
14D4
330
1F
100
AcDbEntity
  8
SANINDUSA
100
AcDbLine
 10
262.235958770065
 20
1057.126956728627
 30
0.0000000001555553
 11
262.2305377380872
 21
1057.126956728627
 31
0.0000000001555553
  0
ARC
  5
14D5
330
1F
100
AcDbEntity
  8
SANINDUSA
100
AcDbCircle
 10
262.2305377380872
 20
1057.125956728627
 30
0.0000000001555553
 40
0.0010000000000002
100
AcDbArc
 50
90.0
 51
180.0
  0
ARC
  5
14D6
330
1F
100
AcDbEntity
  8
SANINDUSA
100
AcDbCircle
 10
262.2278377380871
 20
1057.125956728627
 30
0.0000000001555553
 40
0.0016999999999996
100
AcDbArc
 50
270.0
 51
0.0
  0
LINE
  5
14D7
330
1F
100
AcDbEntity
  8
SANINDUSA
100
AcDbLine
 10
262.2278377380871
 20
1057.124256728627
 30
0.0000000001555553
 11
262.1971144339553
 21
1057.124256728627
 31
0.0000000001555553
  0
ARC
  5
14D8
330
1F
100
AcDbEntity
  8
SANINDUSA
100
AcDbCircle
 10
262.1971144339553
 20
1057.122956728627
 30
0.0000000001555553
 40
0.0013000000000011
100
AcDbArc
 50
90.0
 51
180.0
  0
LINE
  5
14D9
330
1F
100
AcDbEntity
  8
SANINDUSA
100
AcDbLine
 10
262.1958144339553
 20
1057.122956728627
 30
0.0000000001555553
 11
262.1958144339553
 21
1057.113556728627
 31
0.0000000001555553
  0
ARC
  5
14DA
330
1F
100
AcDbEntity
  8
SANINDUSA
100
AcDbCircle
 10
262.1971144339553
 20
1057.113556728627
 30
0.0000000001555553
 40
0.0013
100
AcDbArc
 50
180.0
 51
270.0
  0
LINE
  5
14DB
330
1F
100
AcDbEntity
  8
SANINDUSA
100
AcDbLine
 10
262.1971144339553
 20
1057.112256728627
 30
0.0000000001555553
 11
262.2299637877108
 21
1057.112256728627
 31
0.0000000001555553
  0
ARC
  5
14DC
330
1F
100
AcDbEntity
  8
SANINDUSA
100
AcDbCircle
 10
262.1878144339553
 20
1057.125956728627
 30
0.0
 40
0.0009999999999999
100
AcDbArc
 50
90.0
 51
180.0
  0
LINE
  5
14DD
330
1F
100
AcDbEntity
  8
SANINDUSA
100
AcDbLine
 10
262.1868144339554
 20
1057.124970942189
 30
0.0
 11
262.1868144339554
 21
1057.125956728627
 31
0.0
  0
LINE
  5
14DE
330
1F
100
AcDbEntity
  8
SANINDUSA
100
AcDbLine
 10
262.1878144339553
 20
1057.126956728627
 30
0.0
 11
262.2228377380873
 21
1057.126956728627
 31
0.0
  0
ARC
  5
14DF
330
1F
100
AcDbEntity
  8
SANINDUSA
100
AcDbCircle
 10
262.1878144339553
 20
1057.124970942189
 30
0.0
 40
0.0010000000000003
100
AcDbArc
 50
180.0
 51
225.0
  0
ARC
  5
14E0
330
1F
100
AcDbEntity
  8
SANINDUSA
100
AcDbCircle
 10
262.2228377380873
 20
1057.125956728627
 30
0.0
 40
0.001
100
AcDbArc
 50
270.0
 51
90.0
  0
LINE
  5
14E1
330
1F
100
AcDbEntity
  8
SANINDUSA
100
AcDbLine
 10
262.1880215407365
 20
1057.123349621846
 30
0.0
 11
262.1871073271742
 21
1057.124263835408
 31
0.0
  0
LINE
  5
14E2
330
1F
100
AcDbEntity
  8
SANINDUSA
100
AcDbLine
 10
262.2228377380873
 20
1057.124956728627
 30
0.0
 11
262.1913144339553
 21
1057.124956728627
 31
0.0
  0
ARC
  5
14E3
330
1F
100
AcDbEntity
  8
SANINDUSA
100
AcDbCircle
 10
262.1873144339553
 20
1057.122642515065
 30
0.0
 40
0.0010000000000003
100
AcDbArc
 50
0.0
 51
45.0
  0
ARC
  5
14E4
330
1F
100
AcDbEntity
  8
SANINDUSA
100
AcDbCircle
 10
262.1913144339553
 20
1057.123956728627
 30
0.0
 40
0.001
100
AcDbArc
 50
90.0
 51
180.0
  0
LINE
  5
14E5
330
1F
100
AcDbEntity
  8
SANINDUSA
100
AcDbLine
 10
262.1883144339553
 20
1057.119267388799
 30
0.0
 11
262.1883144339553
 21
1057.122642515065
 31
0.0
  0
LINE
  5
14E6
330
1F
100
AcDbEntity
  8
SANINDUSA
100
AcDbLine
 10
262.1903144339553
 20
1057.123956728627
 30
0.0
 11
262.1903144339553
 21
1057.10609754235
 31
0.0
  0
ARC
  5
14E7
330
1F
100
AcDbEntity
  8
SANINDUSA
100
AcDbCircle
 10
262.1885644339553
 20
1057.119267388799
 30
0.0
 40
0.0002500000000003
100
AcDbArc
 50
180.0
 51
225.0
  0
ARC
  5
14E8
330
1F
100
AcDbEntity
  8
SANINDUSA
100
AcDbCircle
 10
262.1913144339553
 20
1057.10609754235
 30
0.0
 40
0.001
100
AcDbArc
 50
180.0
 51
272.1494579346532
  0
LINE
  5
14E9
330
1F
100
AcDbEntity
  8
SANINDUSA
100
AcDbLine
 10
262.1888679873459
 20
1057.118610282018
 30
0.0
 11
262.18838765726
 21
1057.119090612103
 31
0.0
  0
ARC
  5
14EA
330
1F
100
AcDbEntity
  8
SANINDUSA
100
AcDbCircle
 10
262.1877243255174
 20
1057.201750288272
 30
0.0
 40
0.0967200954923435
100
AcDbArc
 50
272.1494579346532
 51
285.5601696420791
  0
ARC
  5
14EB
330
1F
100
AcDbEntity
  8
SANINDUSA
100
AcDbCircle
 10
262.1885144339553
 20
1057.118256728627
 30
0.0
 40
0.0005
100
AcDbArc
 50
315.0
 51
45.0
  0
ARC
  5
14EC
330
1F
100
AcDbEntity
  8
SANINDUSA
100
AcDbCircle
 10
262.2135353847148
 20
1057.109056728627
 30
0.0
 40
0.0005
100
AcDbArc
 50
285.5601696420791
 51
90.0
  0
LINE
  5
14ED
330
1F
100
AcDbEntity
  8
SANINDUSA
100
AcDbLine
 10
262.18838765726
 20
1057.117422845151
 30
0.0
 11
262.1888679873459
 21
1057.117903175236
 31
0.0
  0
LINE
  5
14EE
330
1F
100
AcDbEntity
  8
SANINDUSA
100
AcDbLine
 10
262.2135353847148
 20
1057.109556728627
 30
0.0
 11
262.2008377380873
 21
1057.109556728627
 31
0.0
  0
ARC
  5
14EF
330
1F
100
AcDbEntity
  8
SANINDUSA
100
AcDbCircle
 10
262.1885644339553
 20
1057.117246068455
 30
0.0
 40
0.00025
100
AcDbArc
 50
135.0
 51
180.0
  0
ARC
  5
14F0
330
1F
100
AcDbEntity
  8
SANINDUSA
100
AcDbCircle
 10
262.2008377380873
 20
1057.110556728627
 30
0.0
 40
0.001
100
AcDbArc
 50
90.0
 51
270.0
  0
LINE
  5
14F1
330
1F
100
AcDbEntity
  8
SANINDUSA
100
AcDbLine
 10
262.1883144339553
 20
1057.107056704966
 30
0.0
 11
262.1883144339553
 21
1057.117246068455
 31
0.0
  0
LINE
  5
14F2
330
1F
100
AcDbEntity
  8
SANINDUSA
100
AcDbLine
 10
262.2008377380873
 20
1057.111556728627
 30
0.0
 11
262.2228377380873
 21
1057.111556728627
 31
0.0
  0
ARC
  5
14F3
330
1F
100
AcDbEntity
  8
SANINDUSA
100
AcDbCircle
 10
262.1873144339553
 20
1057.107056704966
 30
0.0
 40
0.0010000000000003
100
AcDbArc
 50
314.9106959519861
 51
0.0
  0
ARC
  5
14F4
330
1F
100
AcDbEntity
  8
SANINDUSA
100
AcDbCircle
 10
262.2228377380873
 20
1057.110556728627
 30
0.0
 40
0.001
100
AcDbArc
 50
291.0588352469903
 51
90.0
  0
LINE
  5
14F5
330
1F
100
AcDbEntity
  8
SANINDUSA
100
AcDbLine
 10
262.1871139986354
 20
1057.105444879048
 30
0.0
 11
262.1880204377463
 21
1057.106348496912
 31
0.0
  0
ARC
  5
14F6
330
1F
100
AcDbEntity
  8
SANINDUSA
100
AcDbCircle
 10
262.1877243255174
 20
1057.201750288272
 30
0.0
 40
0.0987200954923432
100
AcDbArc
 50
270.0522365954226
 51
291.0588352469903
  0
ARC
  5
14F7
330
1F
100
AcDbEntity
  8
SANINDUSA
100
AcDbCircle
 10
262.1878200024263
 20
1057.104736670995
 30
0.0
 40
0.0010000000000003
100
AcDbArc
 50
134.9106959519861
 51
179.4659008958113
  0
ARC
  5
14F8
330
1F
100
AcDbEntity
  8
SANINDUSA
100
AcDbCircle
 10
262.187813416974
 20
1057.104030233392
 30
0.0
 40
0.001
100
AcDbArc
 50
179.4659008958113
 51
270.0522365954226
  0
LINE
  5
14F9
330
1F
100
AcDbEntity
  8
SANINDUSA
100
AcDbLine
 10
262.1868134604215
 20
1057.104039555045
 30
0.0
 11
262.1868200458739
 21
1057.104745992647
 31
0.0
  0
LINE
  5
14FA
330
1F
100
AcDbEntity
  8
SANINDUSA
100
AcDbLine
 10
262.2383444962947
 20
1057.123560951904
 30
0.0000000001555553
 11
262.2376373895135
 21
1057.124268058685
 31
0.0000000001555553
  0
LINE
  5
14FB
330
1F
100
AcDbEntity
  8
SANINDUSA
100
AcDbLine
 10
262.2376373895135
 20
1057.124268058685
 30
0.0000000001555553
 11
262.2326876420452
 21
1057.119318311217
 31
0.0000000001555553
  0
LINE
  5
14FC
330
1F
100
AcDbEntity
  8
SANINDUSA
100
AcDbLine
 10
262.2376373895135
 20
1057.122853845123
 30
0.0000000001555553
 11
262.2383444962947
 21
1057.123560951904
 31
0.0000000001555553
  0
LINE
  5
14FD
330
1F
100
AcDbEntity
  8
SANINDUSA
100
AcDbLine
 10
262.2326876420452
 20
1057.119318311217
 30
0.0000000001555553
 11
262.2333947488264
 21
1057.118611204436
 31
0.0000000001555553
  0
LINE
  5
14FE
330
1F
100
AcDbEntity
  8
SANINDUSA
100
AcDbLine
 10
262.2386980496853
 20
1057.121793184951
 30
0.0000000001555553
 11
262.2376373895135
 21
1057.122853845123
 31
0.0000000001555553
  0
LINE
  5
14FF
330
1F
100
AcDbEntity
  8
SANINDUSA
100
AcDbLine
 10
262.2333947488264
 20
1057.118611204436
 30
0.0000000001555553
 11
262.2341018556075
 21
1057.119318311217
 31
0.0000000001555553
  0
LINE
  5
1500
330
1F
100
AcDbEntity
  8
SANINDUSA
100
AcDbLine
 10
262.2351625157794
 20
1057.118257651045
 30
0.0000000001555553
 11
262.2386980496853
 21
1057.121793184951
 31
0.0000000001555553
  0
LINE
  5
1501
330
1F
100
AcDbEntity
  8
SANINDUSA
100
AcDbLine
 10
262.2341018556075
 20
1057.119318311217
 30
0.0000000001555553
 11
262.2351625157794
 21
1057.118257651045
 31
0.0000000001555553
  0
ARC
  5
1502
330
1F
100
AcDbEntity
  8
SANINDUSA
100
AcDbCircle
 10
262.2308227003987
 20
1057.125656728627
 30
0.0000000001555553
 40
0.0002999999999995
100
AcDbArc
 50
90.0
 51
174.2608295240221
  0
ARC
  5
1503
330
1F
100
AcDbEntity
  8
SANINDUSA
100
AcDbCircle
 10
262.2308227003987
 20
1057.125656728627
 30
0.0000000001555553
 40
0.0002999999999986
100
AcDbArc
 50
90.0
 51
174.2608295240221
  0
ARC
  5
1504
330
1F
100
AcDbEntity
  8
SANINDUSA
100
AcDbCircle
 10
262.2278377380873
 20
1057.125956728627
 30
0.0000000001555553
 40
0.0027000000000012
100
AcDbArc
 50
270.0
 51
354.2608295240222
  0
LINE
  5
1505
330
1F
100
AcDbEntity
  8
SANINDUSA
100
AcDbLine
 10
262.2278377380873
 20
1057.123256728627
 30
0.0000000001555553
 11
262.1971144339553
 21
1057.123256728627
 31
0.0000000001555553
  0
ARC
  5
1506
330
1F
100
AcDbEntity
  8
SANINDUSA
100
AcDbCircle
 10
262.1971144339553
 20
1057.122956728627
 30
0.0000000001555553
 40
0.0003000000000009
100
AcDbArc
 50
90.0
 51
180.0
  0
LINE
  5
1507
330
1F
100
AcDbEntity
  8
SANINDUSA
100
AcDbLine
 10
262.1968144339553
 20
1057.122956728627
 30
0.0000000001555553
 11
262.1968144339553
 21
1057.113556728627
 31
0.0000000001555553
  0
ARC
  5
1508
330
1F
100
AcDbEntity
  8
SANINDUSA
100
AcDbCircle
 10
262.1971144339553
 20
1057.113556728627
 30
0.0000000001555553
 40
0.0003000000000009
100
AcDbArc
 50
180.0
 51
270.0
  0
LINE
  5
1509
330
1F
100
AcDbEntity
  8
SANINDUSA
100
AcDbLine
 10
262.1971144339553
 20
1057.113256728627
 30
0.0000000001555553
 11
262.2301708944923
 21
1057.113256728627
 31
0.0000000001555553
  0
ARC
  5
150A
330
1F
100
AcDbEntity
  8
SANINDUSA
100
AcDbCircle
 10
262.2301708944923
 20
1057.113756728627
 30
0.0000000001555553
 40
0.0005000000000007
100
AcDbArc
 50
270.0
 51
315.000000069089
  0
LINE
  5
150B
330
1F
100
AcDbEntity
  8
SANINDUSA
100
AcDbLine
 10
262.2305244478833
 20
1057.113403175237
 30
0.0000000001555553
 11
262.2332908207375
 21
1057.116169548097
 31
0.0000000001555553
  0
ARC
  5
150C
330
1F
100
AcDbEntity
  8
SANINDUSA
100
AcDbCircle
 10
262.2329372673478
 20
1057.116523101486
 30
0.0000000001555553
 40
0.0004999999977732
100
AcDbArc
 50
315.0000001082395
 51
44.99999954170945
  0
LINE
  5
150D
330
1F
100
AcDbEntity
  8
SANINDUSA
100
AcDbLine
 10
262.2332908207396
 20
1057.116876654872
 30
0.0000000001555553
 11
262.2318766071846
 21
1057.118290868454
 31
0.0000000001555553
  0
ARC
  5
150E
330
1F
100
AcDbEntity
  8
SANINDUSA
100
AcDbCircle
 10
262.2329372673554
 20
1057.119351528627
 30
0.0000000001555553
 40
0.0014999999999998
100
AcDbArc
 50
135.0
 51
225.0000000529682
  0
LINE
  5
150F
330
1F
100
AcDbEntity
  8
SANINDUSA
100
AcDbLine
 10
262.2318766071836
 20
1057.120412188799
 30
0.0000000001555553
 11
262.2328632403989
 21
1057.121398822001
 31
0.0000000001555553
  0
ARC
  5
1510
330
1F
100
AcDbEntity
  8
SANINDUSA
100
AcDbCircle
 10
262.2332167937895
 20
1057.121045268611
 30
0.0000000001555553
 40
0.0004999999999991
100
AcDbArc
 50
315.0
 51
135.000000002303
  0
LINE
  5
1511
330
1F
100
AcDbEntity
  8
SANINDUSA
100
AcDbLine
 10
262.2335703471801
 20
1057.12069171522
 30
0.0000000001555553
 11
262.2325837139649
 21
1057.119705082004
 31
0.0000000001555553
  0
ARC
  5
1512
330
1F
100
AcDbEntity
  8
SANINDUSA
100
AcDbCircle
 10
262.2329372673554
 20
1057.119351528614
 30
0.0000000001555553
 40
0.0004999999999991
100
AcDbArc
 50
135.0
 51
225.0000000391505
  0
LINE
  5
1513
330
1F
100
AcDbEntity
  8
SANINDUSA
100
AcDbLine
 10
262.2325837139651
 20
1057.118997975223
 30
0.0000000001555553
 11
262.2332201100686
 21
1057.118361579121
 31
0.0000000001555553
  0
ARC
  5
1514
330
1F
100
AcDbEntity
  8
SANINDUSA
100
AcDbCircle
 10
262.2335736634591
 20
1057.118715132511
 30
0.0000000001555553
 40
0.0005000000000232
100
AcDbArc
 50
225.0000000345445
 51
315.0
  0
LINE
  5
1515
330
1F
100
AcDbEntity
  8
SANINDUSA
100
AcDbLine
 10
262.2339272168497
 20
1057.118361579121
 30
0.0000000001555553
 11
262.2342100595642
 21
1057.118644421835
 31
0.0000000001555553
  0
ARC
  5
1516
330
1F
100
AcDbEntity
  8
SANINDUSA
100
AcDbCircle
 10
262.2343514809204
 20
1057.118503000479
 30
0.0000000001555553
 40
0.0001999999999984
100
AcDbArc
 50
45.0
 51
135.0
  0
LINE
  5
1517
330
1F
100
AcDbEntity
  8
SANINDUSA
100
AcDbLine
 10
262.2344929022767
 20
1057.118644421835
 30
0.0000000001555553
 11
262.2349171663453
 21
1057.118220157767
 31
0.0000000001555553
  0
ARC
  5
1518
330
1F
100
AcDbEntity
  8
SANINDUSA
100
AcDbCircle
 10
262.2352707197359
 20
1057.118573711157
 30
0.0000000001555553
 40
0.0004999999999999
100
AcDbArc
 50
225.0
 51
315.0
  0
LINE
  5
1519
330
1F
100
AcDbEntity
  8
SANINDUSA
100
AcDbLine
 10
262.2356242731265
 20
1057.118220157767
 30
0.0000000001555553
 11
262.2387355429637
 21
1057.121331427604
 31
0.0000000001555553
  0
ARC
  5
151A
330
1F
100
AcDbEntity
  8
SANINDUSA
100
AcDbCircle
 10
262.2383819895731
 20
1057.121684980995
 30
0.0000000001555553
 40
0.0004999999999991
100
AcDbArc
 50
315.0
 51
45.0
  0
LINE
  5
151B
330
1F
100
AcDbEntity
  8
SANINDUSA
100
AcDbLine
 10
262.2387355429637
 20
1057.122038534385
 30
0.0000000001555553
 11
262.238311278895
 21
1057.122462798452
 31
0.0000000001555553
  0
ARC
  5
151C
330
1F
100
AcDbEntity
  8
SANINDUSA
100
AcDbCircle
 10
262.2384527002513
 20
1057.122604219808
 30
0.0000000001555553
 40
0.0002000000000008
100
AcDbArc
 50
134.9999998710338
 51
225.0
  0
LINE
  5
151D
330
1F
100
AcDbEntity
  8
SANINDUSA
100
AcDbLine
 10
262.2383112788953
 20
1057.122745641165
 30
0.0000000001555553
 11
262.2385941216074
 21
1057.123028483878
 31
0.0000000001555553
  0
ARC
  5
151E
330
1F
100
AcDbEntity
  8
SANINDUSA
100
AcDbCircle
 10
262.2382405682168
 20
1057.123382037268
 30
0.0000000001555553
 40
0.0004999999999999
100
AcDbArc
 50
315.0
 51
44.99999979273292
  0
LINE
  5
151F
330
1F
100
AcDbEntity
  8
SANINDUSA
100
AcDbLine
 10
262.2385941216087
 20
1057.123735590657
 30
0.0000000001555553
 11
262.237957725509
 21
1057.124371986763
 31
0.0000000001555553
  0
ARC
  5
1520
330
1F
100
AcDbEntity
  8
SANINDUSA
100
AcDbCircle
 10
262.2376041721184
 20
1057.124018433373
 30
0.0000000001555553
 40
0.0004999999999999
100
AcDbArc
 50
45.0
 51
135.0
  0
LINE
  5
1521
330
1F
100
AcDbEntity
  8
SANINDUSA
100
AcDbLine
 10
262.2372506187279
 20
1057.124371986763
 30
0.0000000001555553
 11
262.236264409068
 21
1057.123385777103
 31
0.0000000001555553
  0
ARC
  5
1522
330
1F
100
AcDbEntity
  8
SANINDUSA
100
AcDbCircle
 10
262.2359108556774
 20
1057.123739330494
 30
0.0000000001555553
 40
0.0004999999999991
100
AcDbArc
 50
135.0
 51
315.0
  0
LINE
  5
1523
330
1F
100
AcDbEntity
  8
SANINDUSA
100
AcDbLine
 10
262.2355573022868
 20
1057.124092883884
 30
0.0000000001555553
 11
262.2365675936389
 21
1057.125103175237
 31
0.0000000001555553
  0
ARC
  5
1524
330
1F
100
AcDbEntity
  8
SANINDUSA
100
AcDbCircle
 10
262.2362140402483
 20
1057.125456728627
 30
0.0000000001555553
 40
0.0005000000000007
100
AcDbArc
 50
315.0
 51
90.0
  0
LINE
  5
1525
330
1F
100
AcDbEntity
  8
SANINDUSA
100
AcDbLine
 10
262.2362140402483
 20
1057.125956728627
 30
0.0000000001555553
 11
262.2308227003987
 21
1057.125956728627
 31
0.0000000001555553
  0
LINE
  5
1526
330
1F
100
AcDbEntity
  8
SANINDUSA
100
AcDbLine
 10
262.1844644339553
 20
1057.103030233392
 30
0.0
 11
262.1844644339553
 21
1057.126956728627
 31
0.0
  0
LINE
  5
1527
330
1F
100
AcDbEntity
  8
SANINDUSA
100
AcDbLine
 10
262.1844644339553
 20
1057.103030233392
 30
0.0
 11
262.1854633148678
 21
1057.103030233392
 31
0.0
  0
LINE
  5
1528
330
1F
100
AcDbEntity
  8
SANINDUSA
100
AcDbLine
 10
262.1854644339554
 20
1057.126956728627
 30
0.0
 11
262.1844644339553
 21
1057.126956728627
 31
0.0
  0
ARC
  5
1529
330
1F
100
AcDbEntity
  8
SANINDUSA
100
AcDbCircle
 10
262.1854633148678
 20
1057.104030233392
 30
0.0
 40
0.0009999999999999
100
AcDbArc
 50
270.0
 51
359.4659008958114
  0
ARC
  5
152A
330
1F
100
AcDbEntity
  8
SANINDUSA
100
AcDbCircle
 10
262.1854644339554
 20
1057.125956728627
 30
0.0
 40
0.0009999999999999
100
AcDbArc
 50
0.0
 51
90.0
  0
LINE
  5
152B
330
1F
100
AcDbEntity
  8
SANINDUSA
100
AcDbLine
 10
262.1864632714203
 20
1057.104020911739
 30
0.0
 11
262.1864700610805
 21
1057.104749255226
 31
0.0
  0
LINE
  5
152C
330
1F
100
AcDbEntity
  8
SANINDUSA
100
AcDbLine
 10
262.1864644339553
 20
1057.124970942189
 30
0.0
 11
262.1864644339553
 21
1057.125956728627
 31
0.0
  0
ARC
  5
152D
330
1F
100
AcDbEntity
  8
SANINDUSA
100
AcDbCircle
 10
262.1878200024263
 20
1057.104736670995
 30
0.0
 40
0.00135
100
AcDbArc
 50
134.9106959519861
 51
179.4659008958113
  0
ARC
  5
152E
330
1F
100
AcDbEntity
  8
SANINDUSA
100
AcDbCircle
 10
262.1878144339553
 20
1057.124970942189
 30
0.0
 40
0.0013499999999998
100
AcDbArc
 50
180.0
 51
225.0
  0
LINE
  5
152F
330
1F
100
AcDbEntity
  8
SANINDUSA
100
AcDbLine
 10
262.1868668973085
 20
1057.105692751867
 30
0.0
 11
262.1877733364195
 21
1057.106596369731
 31
0.0
  0
LINE
  5
1530
330
1F
100
AcDbEntity
  8
SANINDUSA
100
AcDbLine
 10
262.1877740533631
 20
1057.123102134473
 30
0.0
 11
262.1868598398007
 21
1057.124016348035
 31
0.0
  0
ARC
  5
1531
330
1F
100
AcDbEntity
  8
SANINDUSA
100
AcDbCircle
 10
262.1873144339553
 20
1057.107056704966
 30
0.0
 40
0.0006500000000003
100
AcDbArc
 50
314.9106959519861
 51
0.0
  0
ARC
  5
1532
330
1F
100
AcDbEntity
  8
SANINDUSA
100
AcDbCircle
 10
262.1873144339553
 20
1057.122642515065
 30
0.0
 40
0.0006500000000003
100
AcDbArc
 50
0.0
 51
45.0
  0
LINE
  5
1533
330
1F
100
AcDbEntity
  8
SANINDUSA
100
AcDbLine
 10
262.1879644339554
 20
1057.107056704966
 30
0.0
 11
262.1879644339554
 21
1057.122642515065
 31
0.0
  0
LINE
  5
1534
330
1F
100
AcDbEntity
  8
SANINDUSA
100
AcDbLine
 10
262.2604235894962
 20
1057.121436044851
 30
0.0000000001555553
 11
262.2604235894962
 21
1057.120956732437
 31
0.0000000001555553
  0
LINE
  5
1535
330
1F
100
AcDbEntity
  8
SANINDUSA
100
AcDbLine
 10
262.2579235894962
 20
1057.121387207445
 30
0.0000000001555553
 11
262.2578643657653
 21
1057.120991616052
 31
0.0000000001555553
  0
ARC
  5
1536
330
1F
100
AcDbEntity
  8
SANINDUSA
100
AcDbCircle
 10
262.2596235894962
 20
1057.121436044851
 30
0.0000000001555553
 40
0.0008
100
AcDbArc
 50
0.0
 51
81.48552156505678
  0
ARC
  5
1537
330
1F
100
AcDbEntity
  8
SANINDUSA
100
AcDbCircle
 10
262.2571773993997
 20
1057.119779973691
 30
0.0000000001555553
 40
0.0002
100
AcDbArc
 50
171.4855215660212
 51
351.4855215660213
  0
LINE
  5
1538
330
1F
100
AcDbEntity
  8
SANINDUSA
100
AcDbLine
 10
262.2600791716981
 20
1057.115853425981
 30
0.0000000001555553
 11
262.2578643657653
 21
1057.115521848821
 31
0.0000000001555553
  0
ARC
  5
1539
330
1F
100
AcDbEntity
  8
SANINDUSA
100
AcDbCircle
 10
262.2571773993997
 20
1057.116733491183
 30
0.0000000001555553
 40
0.0002
100
AcDbArc
 50
8.514478433978798
 51
188.5144784339788
  0
LINE
  5
153A
330
1F
100
AcDbEntity
  8
SANINDUSA
100
AcDbLine
 10
262.2579235894962
 20
1057.115126257428
 30
0.0000000001555553
 11
262.2578643657653
 21
1057.115521848821
 31
0.0000000001555553
  0
ARC
  5
153B
330
1F
100
AcDbEntity
  8
SANINDUSA
100
AcDbCircle
 10
262.2601235894962
 20
1057.115556732437
 30
0.0000000001555553
 40
0.0003
100
AcDbArc
 50
0.0
 51
98.51447843494321
  0
ARC
  5
153C
330
1F
100
AcDbEntity
  8
SANINDUSA
100
AcDbCircle
 10
262.2601235894962
 20
1057.120956732437
 30
0.0000000001555553
 40
0.0003
100
AcDbArc
 50
261.4855215650568
 51
0.0
  0
LINE
  5
153D
330
1F
100
AcDbEntity
  8
SANINDUSA
100
AcDbLine
 10
262.2600791716981
 20
1057.120660038892
 30
0.0000000001555553
 11
262.2578643657653
 21
1057.120991616052
 31
0.0000000001555553
  0
LINE
  5
153E
330
1F
100
AcDbEntity
  8
SANINDUSA
100
AcDbLine
 10
262.2572313045595
 20
1057.121490848974
 30
0.0000000001555553
 11
262.2569796037035
 21
1057.119809585556
 31
0.0000000001555553
  0
LINE
  5
153F
330
1F
100
AcDbEntity
  8
SANINDUSA
100
AcDbLine
 10
262.2576268959519
 20
1057.121431625243
 30
0.0000000001555553
 11
262.2573751950958
 21
1057.119750361826
 31
0.0000000001555553
  0
LINE
  5
1540
330
1F
100
AcDbEntity
  8
SANINDUSA
100
AcDbLine
 10
262.2551050008257
 20
1057.121809176527
 30
0.0000000001555553
 11
262.2550457770948
 21
1057.121413585135
 31
0.0000000001555553
  0
ARC
  5
1541
330
1F
100
AcDbEntity
  8
SANINDUSA
100
AcDbCircle
 10
262.2487235894962
 20
1057.122056732437
 30
0.0000000001555553
 40
0.0003
100
AcDbArc
 50
81.48552156505678
 51
180.0
  0
ARC
  5
1542
330
1F
100
AcDbEntity
  8
SANINDUSA
100
AcDbCircle
 10
262.2494659903253
 20
1057.122956732437
 30
0.0000000001555553
 40
0.0008
100
AcDbArc
 50
81.48552156505678
 51
90.0
  0
LINE
  5
1543
330
1F
100
AcDbEntity
  8
SANINDUSA
100
AcDbLine
 10
262.2499235894962
 20
1057.122180424519
 30
0.0000000001555553
 11
262.2487680072943
 21
1057.122353425981
 31
0.0000000001555553
  0
LINE
  5
1544
330
1F
100
AcDbEntity
  8
SANINDUSA
100
AcDbLine
 10
262.2499235894962
 20
1057.122180424519
 30
0.0000000001555553
 11
262.2499235894962
 21
1057.121356732437
 31
0.0000000001555553
  0
LINE
  5
1545
330
1F
100
AcDbEntity
  8
SANINDUSA
100
AcDbLine
 10
262.2499235894962
 20
1057.121356732437
 30
0.0000000001555553
 11
262.2511235894962
 21
1057.121356732437
 31
0.0000000001555553
  0
LINE
  5
1546
330
1F
100
AcDbEntity
  8
SANINDUSA
100
AcDbLine
 10
262.2511235894962
 20
1057.122000773297
 30
0.0000000001555553
 11
262.2511235894962
 21
1057.121356732437
 31
0.0000000001555553
  0
LINE
  5
1547
330
1F
100
AcDbEntity
  8
SANINDUSA
100
AcDbLine
 10
262.2550457770948
 20
1057.121413585135
 30
0.0000000001555553
 11
262.2511235894962
 21
1057.122000773297
 31
0.0000000001555553
  0
LINE
  5
1548
330
1F
100
AcDbEntity
  8
SANINDUSA
100
AcDbLine
 10
262.2499235894962
 20
1057.115156732437
 30
0.0000000001555553
 11
262.2511235894962
 21
1057.115156732437
 31
0.0000000001555553
  0
LINE
  5
1549
330
1F
100
AcDbEntity
  8
SANINDUSA
100
AcDbLine
 10
262.2597420369578
 20
1057.122227227636
 30
0.0000000001555553
 11
262.249584437787
 21
1057.123747915222
 31
0.0000000001555553
  0
LINE
  5
154A
330
1F
100
AcDbEntity
  8
SANINDUSA
100
AcDbLine
 10
262.2579235894962
 20
1057.121387207445
 30
0.0000000001555553
 11
262.2551050008257
 21
1057.121809176527
 31
0.0000000001555553
  0
ARC
  5
154B
330
1F
100
AcDbEntity
  8
SANINDUSA
100
AcDbCircle
 10
262.2596235894962
 20
1057.115077420022
 30
0.0000000001555553
 40
0.0008
100
AcDbArc
 50
278.5144784349432
 51
0.0
  0
LINE
  5
154C
330
1F
100
AcDbEntity
  8
SANINDUSA
100
AcDbLine
 10
262.2551050008257
 20
1057.114704288346
 30
0.0000000001555553
 11
262.2550457770948
 21
1057.115099879739
 31
0.0000000001555553
  0
ARC
  5
154D
330
1F
100
AcDbEntity
  8
SANINDUSA
100
AcDbCircle
 10
262.2487235894962
 20
1057.114456732437
 30
0.0000000001555553
 40
0.0003
100
AcDbArc
 50
180.0
 51
278.5144784349432
  0
ARC
  5
154E
330
1F
100
AcDbEntity
  8
SANINDUSA
100
AcDbCircle
 10
262.2494659903253
 20
1057.113556732437
 30
0.0000000001555553
 40
0.0008
100
AcDbArc
 50
270.0
 51
278.5144784349432
  0
LINE
  5
154F
330
1F
100
AcDbEntity
  8
SANINDUSA
100
AcDbLine
 10
262.2487680072943
 20
1057.114160038892
 30
0.0000000001555553
 11
262.2499235894962
 21
1057.114333040354
 31
0.0000000001555553
  0
LINE
  5
1550
330
1F
100
AcDbEntity
  8
SANINDUSA
100
AcDbLine
 10
262.2550457770948
 20
1057.115099879739
 30
0.0000000001555553
 11
262.2511235894962
 21
1057.114512691576
 31
0.0000000001555553
  0
LINE
  5
1551
330
1F
100
AcDbEntity
  8
SANINDUSA
100
AcDbLine
 10
262.249584437787
 20
1057.112765549652
 30
0.0000000001555553
 11
262.2597420369578
 21
1057.114286237237
 31
0.0000000001555553
  0
LINE
  5
1552
330
1F
100
AcDbEntity
  8
SANINDUSA
100
AcDbLine
 10
262.2484235894962
 20
1057.122056732437
 30
0.0000000001555553
 11
262.2484235894962
 21
1057.114456732437
 31
0.0000000001555553
  0
LINE
  5
1553
330
1F
100
AcDbEntity
  8
SANINDUSA
100
AcDbLine
 10
262.2604235894962
 20
1057.115556732437
 30
0.0000000001555553
 11
262.2604235894962
 21
1057.115077420022
 31
0.0000000001555553
  0
LINE
  5
1554
330
1F
100
AcDbEntity
  8
SANINDUSA
100
AcDbLine
 10
262.2511235894962
 20
1057.115156732437
 30
0.0000000001555553
 11
262.2511235894962
 21
1057.114512691576
 31
0.0000000001555553
  0
LINE
  5
1555
330
1F
100
AcDbEntity
  8
SANINDUSA
100
AcDbLine
 10
262.2499235894962
 20
1057.115156732437
 30
0.0000000001555553
 11
262.2499235894962
 21
1057.114333040354
 31
0.0000000001555553
  0
LINE
  5
1556
330
1F
100
AcDbEntity
  8
SANINDUSA
100
AcDbLine
 10
262.2579235894962
 20
1057.115126257428
 30
0.0000000001555553
 11
262.2551050008257
 21
1057.114704288346
 31
0.0000000001555553
  0
LINE
  5
1557
330
1F
100
AcDbEntity
  8
SANINDUSA
100
AcDbLine
 10
262.2576268959519
 20
1057.11508183963
 30
0.0000000001555553
 11
262.2573751950958
 21
1057.116763103048
 31
0.0000000001555553
  0
LINE
  5
1558
330
1F
100
AcDbEntity
  8
SANINDUSA
100
AcDbLine
 10
262.2572313045595
 20
1057.1150226159
 30
0.0000000001555553
 11
262.2569796037035
 21
1057.116703879317
 31
0.0000000001555553
  0
LINE
  5
1559
330
1F
100
AcDbEntity
  8
SANINDUSA
100
AcDbLine
 10
262.2469235894962
 20
1057.123756732437
 30
0.0000000001555553
 11
262.2446662301832
 21
1057.123756732437
 31
0.0000000001555553
  0
ARC
  5
155A
330
1F
100
AcDbEntity
  8
SANINDUSA
100
AcDbCircle
 10
262.2459235894961
 20
1057.121756732437
 30
0.0000000001555553
 40
0.001
100
AcDbArc
 50
0.0
 51
90.0
  0
ARC
  5
155B
330
1F
100
AcDbEntity
  8
SANINDUSA
100
AcDbCircle
 10
262.2446538083933
 20
1057.1224067113
 30
0.0000000001555553
 40
0.00075
100
AcDbArc
 50
47.16775949878861
 51
90.19499110086512
  0
ARC
  5
155C
330
1F
100
AcDbEntity
  8
SANINDUSA
100
AcDbCircle
 10
262.2456735894961
 20
1057.123506732437
 30
0.0000000001555553
 40
0.00075
100
AcDbArc
 50
227.1677594987886
 51
270.0
  0
LINE
  5
155D
330
1F
100
AcDbEntity
  8
SANINDUSA
100
AcDbLine
 10
262.2456735894961
 20
1057.122756732437
 30
0.0000000001555553
 11
262.2459235894961
 21
1057.122756732437
 31
0.0000000001555553
  0
LINE
  5
155E
330
1F
100
AcDbEntity
  8
SANINDUSA
100
AcDbLine
 10
262.2410083351706
 20
1057.121321377098
 30
0.0000000001555553
 11
262.2415549603461
 21
1057.121868002274
 31
0.0000000001555553
  0
ARC
  5
155F
330
1F
100
AcDbEntity
  8
SANINDUSA
100
AcDbCircle
 10
262.2404426497461
 20
1057.12082640235
 30
0.0000000001555553
 40
0.0002
100
AcDbArc
 50
45.00000010823947
 51
135.0000000736949
  0
ARC
  5
1560
330
1F
100
AcDbEntity
  8
SANINDUSA
100
AcDbCircle
 10
262.2446662301832
 20
1057.118756732437
 30
0.0000000001555553
 40
0.005
100
AcDbArc
 50
90.0
 51
135.0
  0
ARC
  5
1561
330
1F
100
AcDbEntity
  8
SANINDUSA
100
AcDbCircle
 10
262.2446662301832
 20
1057.118756732437
 30
0.0000000001555553
 40
0.0044
100
AcDbArc
 50
90.19499110086512
 51
135.0
  0
ARC
  5
1562
330
1F
100
AcDbEntity
  8
SANINDUSA
100
AcDbCircle
 10
262.2416093759331
 20
1057.1192354121
 30
0.0000000001555553
 40
0.00075
100
AcDbArc
 50
314.9999999654554
 51
45.0
  0
ARC
  5
1563
330
1F
100
AcDbEntity
  8
SANINDUSA
100
AcDbCircle
 10
262.2416093759331
 20
1057.1192354121
 30
0.0000000001555553
 40
0.0005
100
AcDbArc
 50
314.9999999654554
 51
45.0
  0
ARC
  5
1564
330
1F
100
AcDbEntity
  8
SANINDUSA
100
AcDbCircle
 10
262.2412204672051
 20
1057.121109245064
 30
0.0000000001555553
 40
0.0003
100
AcDbArc
 50
135.0
 51
225.0000001105424
  0
LINE
  5
1565
330
1F
100
AcDbEntity
  8
SANINDUSA
100
AcDbLine
 10
262.2403719390661
 20
1057.121533509131
 30
0.0000000001555553
 11
262.2421397060186
 21
1057.119765742186
 31
0.0000000001555553
  0
LINE
  5
1566
330
1F
100
AcDbEntity
  8
SANINDUSA
100
AcDbLine
 10
262.2405840711021
 20
1057.120967823707
 30
0.0000000001555553
 11
262.2419629293237
 21
1057.11958896549
 31
0.0000000001555553
  0
ARC
  5
1567
330
1F
100
AcDbEntity
  8
SANINDUSA
100
AcDbCircle
 10
262.2358464556634
 20
1057.115735233523
 30
0.0000000001555553
 40
0.0003
100
AcDbArc
 50
45.00000003684748
 51
135.0
  0
ARC
  5
1568
330
1F
100
AcDbEntity
  8
SANINDUSA
100
AcDbCircle
 10
262.2361292983756
 20
1057.116513050968
 30
0.0000000001555553
 40
0.0002
100
AcDbArc
 50
135.000000069089
 51
225.0000002970828
  0
LINE
  5
1569
330
1F
100
AcDbEntity
  8
SANINDUSA
100
AcDbLine
 10
262.2354336400025
 20
1057.11574668193
 30
0.0000000001555553
 11
262.235634323629
 21
1057.115947365557
 31
0.0000000001555553
  0
LINE
  5
156A
330
1F
100
AcDbEntity
  8
SANINDUSA
100
AcDbLine
 10
262.2350093759338
 20
1057.116170945999
 30
0.0000000001555553
 11
262.2411306962774
 21
1057.122292266343
 31
0.0000000001555553
  0
LINE
  5
156B
330
1F
100
AcDbEntity
  8
SANINDUSA
100
AcDbLine
 10
262.2359878770192
 20
1057.116654472324
 30
0.0000000001555553
 11
262.2403012283897
 21
1057.120967823706
 31
0.0000000001555553
  0
ARC
  5
156C
330
1F
100
AcDbEntity
  8
SANINDUSA
100
AcDbCircle
 10
262.2459235894961
 20
1057.114756732437
 30
0.0000000001555553
 40
0.001
100
AcDbArc
 50
270.0
 51
0.0
  0
ARC
  5
156D
330
1F
100
AcDbEntity
  8
SANINDUSA
100
AcDbCircle
 10
262.2409037855935
 20
1057.114106732437
 30
0.0000000001555553
 40
0.00075
100
AcDbArc
 50
270.0
 51
312.8334280674186
  0
ARC
  5
156E
330
1F
100
AcDbEntity
  8
SANINDUSA
100
AcDbCircle
 10
262.2419235894962
 20
1057.113006732437
 30
0.0000000001555553
 40
0.00075
100
AcDbArc
 50
90.0
 51
132.8334280674186
  0
LINE
  5
156F
330
1F
100
AcDbEntity
  8
SANINDUSA
100
AcDbLine
 10
262.2459235894961
 20
1057.113756732437
 30
0.0000000001555553
 11
262.2419235894962
 21
1057.113756732437
 31
0.0000000001555553
  0
ARC
  5
1570
330
1F
100
AcDbEntity
  8
SANINDUSA
100
AcDbCircle
 10
262.2377202886314
 20
1057.115346324796
 30
0.0000000001555553
 40
0.00075
100
AcDbArc
 50
225.0
 51
315.0
  0
ARC
  5
1571
330
1F
100
AcDbEntity
  8
SANINDUSA
100
AcDbCircle
 10
262.2377202886314
 20
1057.115346324796
 30
0.0000000001555553
 40
0.0005
100
AcDbArc
 50
225.0
 51
315.0
  0
LINE
  5
1572
330
1F
100
AcDbEntity
  8
SANINDUSA
100
AcDbLine
 10
262.2469235894962
 20
1057.112756732437
 30
0.0000000001555553
 11
262.2364235894961
 21
1057.112756732437
 31
0.0000000001555553
  0
LINE
  5
1573
330
1F
100
AcDbEntity
  8
SANINDUSA
100
AcDbLine
 10
262.2409037855935
 20
1057.113356732437
 30
0.0000000001555553
 11
262.2364235894961
 21
1057.113356732437
 31
0.0000000001555553
  0
ARC
  5
1574
330
1F
100
AcDbEntity
  8
SANINDUSA
100
AcDbCircle
 10
262.2364235894961
 20
1057.114756732437
 30
0.0000000001555553
 40
0.002
100
AcDbArc
 50
135.0
 51
270.0
  0
LINE
  5
1575
330
1F
100
AcDbEntity
  8
SANINDUSA
100
AcDbLine
 10
262.2382506187173
 20
1057.114815994711
 30
0.0000000001555553
 11
262.2421397060188
 21
1057.118705082014
 31
0.0000000001555553
  0
ARC
  5
1576
330
1F
100
AcDbEntity
  8
SANINDUSA
100
AcDbCircle
 10
262.2364235894961
 20
1057.114756732437
 30
0.0000000001555553
 40
0.0014
100
AcDbArc
 50
135.0
 51
270.0
  0
LINE
  5
1577
330
1F
100
AcDbEntity
  8
SANINDUSA
100
AcDbLine
 10
262.2354221915943
 20
1057.11658376166
 30
0.0000000001555553
 11
262.2371899585452
 21
1057.114815994711
 31
0.0000000001555553
  0
LINE
  5
1578
330
1F
100
AcDbEntity
  8
SANINDUSA
100
AcDbLine
 10
262.2469235894962
 20
1057.121756732437
 30
0.0000000001555553
 11
262.2469235894962
 21
1057.114756732437
 31
0.0000000001555553
  0
HATCH
  5
1579
330
1F
100
AcDbEntity
  8
SANINDUSA
100
AcDbHatch
 10
0.0
 20
0.0
 30
0.0000000001555553
210
0.0
220
0.0
230
1.0
  2
ANSI31
 70
     0
 71
     0
 91
        1
 92
        7
 72
     1
 73
     1
 93
        8
 10
262.241962929323
 20
1057.119588965491
 42
0.0
 10
262.2405840711021
 20
1057.120967823707
 42
0.414213562178905
 10
262.2403012283897
 20
1057.120967823706
 42
0.0
 10
262.2359878770192
 20
1057.116654472324
 42
0.4142135636146872
 10
262.2359878770201
 20
1057.116371629611
 42
0.0
 10
262.2373667352428
 20
1057.114992771404
 42
0.4142135608152901
 10
262.2380738420221
 20
1057.114992771406
 42
0.0
 10
262.2419629293237
 20
1057.11888185871
 42
0.4142135628833784
 97
        0
 75
     0
 76
     1
 52
45.0
 41
0.00025
 77
     0
 78
     1
 53
90.0
 43
261.9723090548553
 44
1056.722984831047
 45
-0.00079375
 46
0.0
 79
     0
 47
0.0364805528584695
 98
        1
 10
262.2410241117578
 20
1057.11910996881
  0
LINE
  5
157A
330
1F
100
AcDbEntity
  8
SANINDUSA
100
AcDbLine
 10
262.238073842022
 20
1057.114992771406
 30
0.0000000001555553
 11
262.2419629293235
 21
1057.118881858709
 31
0.0000000001555553
  0
LINE
  5
157B
330
1F
100
AcDbEntity
  8
SANINDUSA
100
AcDbLine
 10
262.2359878770201
 20
1057.116371629611
 30
0.0000000001555553
 11
262.2373667352408
 21
1057.114992771406
 31
0.0000000001555553
  0
LINE
  5
157C
330
1F
100
AcDbEntity
  8
SANINDUSA
100
AcDbLine
 10
262.2469235894962
 20
1057.123756732437
 30
0.0000000001555553
 11
262.2494659903253
 21
1057.123756732437
 31
0.0000000001555553
  0
LINE
  5
157D
330
1F
100
AcDbEntity
  8
SANINDUSA
100
AcDbLine
 10
262.2469235894962
 20
1057.112756732437
 30
0.0000000001555553
 11
262.2494659903253
 21
1057.112756732437
 31
0.0000000001555553
  0
LINE
  5
157E
330
1F
100
AcDbEntity
  8
SANINDUSA
100
AcDbLine
 10
263.0366784181475
 20
1057.122256728627
 30
0.0
 11
263.0393670312977
 21
1057.122256728627
 31
0.0
  0
ARC
  5
157F
330
1F
100
AcDbEntity
  8
SANINDUSA
100
AcDbCircle
 10
263.0393670312977
 20
1057.121756728627
 30
0.0
 40
0.0005
100
AcDbArc
 50
19.47122063801706
 51
90.0
  0
ARC
  5
1580
330
1F
100
AcDbEntity
  8
SANINDUSA
100
AcDbCircle
 10
263.0366784181475
 20
1057.121756728627
 30
0.0
 40
0.0005000000000001
100
AcDbArc
 50
90.0
 51
156.4218215275184
  0
ARC
  5
1581
330
1F
100
AcDbEntity
  8
SANINDUSA
100
AcDbCircle
 10
263.0407812448601
 20
1057.122256728627
 30
0.0
 40
0.001
100
AcDbArc
 50
199.471220638017
 51
340.5287793619829
  0
ARC
  5
1582
330
1F
100
AcDbEntity
  8
SANINDUSA
100
AcDbCircle
 10
263.0353036454391
 20
1057.122356728627
 30
0.0
 40
0.0009999999999999
100
AcDbArc
 50
180.0
 51
336.4218215275184
  0
ARC
  5
1583
330
1F
100
AcDbEntity
  8
SANINDUSA
100
AcDbCircle
 10
263.0421954584225
 20
1057.121756728627
 30
0.0
 40
0.0004999999999999
100
AcDbArc
 50
90.0
 51
160.5287793619829
  0
LINE
  5
1584
330
1F
100
AcDbEntity
  8
SANINDUSA
100
AcDbLine
 10
263.034303645439
 20
1057.122356728627
 30
0.0
 11
263.034303645439
 21
1057.123256728627
 31
0.0
  0
LINE
  5
1585
330
1F
100
AcDbEntity
  8
SANINDUSA
100
AcDbLine
 10
263.0421954584225
 20
1057.122256728627
 30
0.0
 11
263.0437816216791
 21
1057.122256728627
 31
0.0
  0
ARC
  5
1586
330
1F
100
AcDbEntity
  8
SANINDUSA
100
AcDbCircle
 10
263.0353036454391
 20
1057.123256728627
 30
0.0
 40
0.0009999999999999
100
AcDbArc
 50
90.0
 51
180.0
  0
ARC
  5
1587
330
1F
100
AcDbEntity
  8
SANINDUSA
100
AcDbCircle
 10
263.0437816216791
 20
1057.121756728627
 30
0.0
 40
0.0005
100
AcDbArc
 50
0.0
 51
90.0
  0
LINE
  5
1588
330
1F
100
AcDbEntity
  8
SANINDUSA
100
AcDbLine
 10
263.0353036454391
 20
1057.124256728627
 30
0.0
 11
263.0668036454391
 21
1057.124256728627
 31
0.0
  0
LINE
  5
1589
330
1F
100
AcDbEntity
  8
SANINDUSA
100
AcDbLine
 10
263.0442816216791
 20
1057.121756728627
 30
0.0
 11
263.0442816216791
 21
1057.114756728627
 31
0.0
  0
ARC
  5
158A
330
1F
100
AcDbEntity
  8
SANINDUSA
100
AcDbCircle
 10
263.0668036454391
 20
1057.123256728627
 30
0.0
 40
0.001
100
AcDbArc
 50
270.0
 51
90.0
  0
ARC
  5
158B
330
1F
100
AcDbEntity
  8
SANINDUSA
100
AcDbCircle
 10
263.0437816216791
 20
1057.114756728627
 30
0.0
 40
0.0005
100
AcDbArc
 50
270.0
 51
0.0
  0
LINE
  5
158C
330
1F
100
AcDbEntity
  8
SANINDUSA
100
AcDbLine
 10
263.0668036454391
 20
1057.122256728627
 30
0.0
 11
263.0467816216791
 21
1057.122256728627
 31
0.0
  0
LINE
  5
158D
330
1F
100
AcDbEntity
  8
SANINDUSA
100
AcDbLine
 10
263.0437816216791
 20
1057.114256728627
 30
0.0
 11
263.0421954584225
 21
1057.114256728627
 31
0.0
  0
ARC
  5
158E
330
1F
100
AcDbEntity
  8
SANINDUSA
100
AcDbCircle
 10
263.0467816216791
 20
1057.121756728627
 30
0.0
 40
0.0005000000000001
100
AcDbArc
 50
90.0
 51
180.0
  0
ARC
  5
158F
330
1F
100
AcDbEntity
  8
SANINDUSA
100
AcDbCircle
 10
263.0421954584225
 20
1057.114756728627
 30
0.0
 40
0.0005
100
AcDbArc
 50
199.471220638017
 51
270.0
  0
LINE
  5
1590
330
1F
100
AcDbEntity
  8
SANINDUSA
100
AcDbLine
 10
263.0462816216791
 20
1057.121756728627
 30
0.0
 11
263.0462816216791
 21
1057.114756728627
 31
0.0
  0
ARC
  5
1591
330
1F
100
AcDbEntity
  8
SANINDUSA
100
AcDbCircle
 10
263.0407812448601
 20
1057.114256728627
 30
0.0
 40
0.001
100
AcDbArc
 50
19.47122063801706
 51
160.5287793619829
  0
ARC
  5
1592
330
1F
100
AcDbEntity
  8
SANINDUSA
100
AcDbCircle
 10
263.0467816216791
 20
1057.114756728627
 30
0.0
 40
0.0005000000000001
100
AcDbArc
 50
180.0
 51
270.0
  0
ARC
  5
1593
330
1F
100
AcDbEntity
  8
SANINDUSA
100
AcDbCircle
 10
263.0393670312977
 20
1057.114756728627
 30
0.0
 40
0.0005
100
AcDbArc
 50
270.0
 51
340.5287793619829
  0
LINE
  5
1594
330
1F
100
AcDbEntity
  8
SANINDUSA
100
AcDbLine
 10
263.0467816216791
 20
1057.114256728627
 30
0.0
 11
263.0668036454391
 21
1057.114256728627
 31
0.0
  0
LINE
  5
1595
330
1F
100
AcDbEntity
  8
SANINDUSA
100
AcDbLine
 10
263.0393670312977
 20
1057.114256728627
 30
0.0
 11
263.0366784181475
 21
1057.114256728627
 31
0.0
  0
ARC
  5
1596
330
1F
100
AcDbEntity
  8
SANINDUSA
100
AcDbCircle
 10
263.0668036454391
 20
1057.113256728627
 30
0.0
 40
0.001
100
AcDbArc
 50
270.0
 51
90.0
  0
ARC
  5
1597
330
1F
100
AcDbEntity
  8
SANINDUSA
100
AcDbCircle
 10
263.0366784181475
 20
1057.114756728627
 30
0.0
 40
0.0005000000000001
100
AcDbArc
 50
203.5781784724816
 51
270.0
  0
LINE
  5
1598
330
1F
100
AcDbEntity
  8
SANINDUSA
100
AcDbLine
 10
263.0668036454391
 20
1057.112256728627
 30
0.0
 11
263.0353036454391
 21
1057.112256728627
 31
0.0
  0
ARC
  5
1599
330
1F
100
AcDbEntity
  8
SANINDUSA
100
AcDbCircle
 10
263.0353036454391
 20
1057.114156728627
 30
0.0
 40
0.0009999999999999
100
AcDbArc
 50
23.57817847248154
 51
180.0
  0
ARC
  5
159A
330
1F
100
AcDbEntity
  8
SANINDUSA
100
AcDbCircle
 10
263.0353036454391
 20
1057.113256728627
 30
0.0
 40
0.0010000000000001
100
AcDbArc
 50
180.0
 51
270.0
  0
LINE
  5
159B
330
1F
100
AcDbEntity
  8
SANINDUSA
100
AcDbLine
 10
263.034303645439
 20
1057.113256728627
 30
0.0
 11
263.034303645439
 21
1057.114156728627
 31
0.0
  0
ARC
  5
159C
330
1F
100
AcDbEntity
  8
SANINDUSA
100
AcDbCircle
 10
263.085303645439
 20
1057.125956728627
 30
0.0
 40
0.0009999999999999
100
AcDbArc
 50
0.0
 51
90.0
  0
LINE
  5
159D
330
1F
100
AcDbEntity
  8
SANINDUSA
100
AcDbLine
 10
263.085303645439
 20
1057.126956728627
 30
0.0
 11
263.050280341307
 21
1057.126956728627
 31
0.0
  0
LINE
  5
159E
330
1F
100
AcDbEntity
  8
SANINDUSA
100
AcDbLine
 10
263.086303645439
 20
1057.124970942189
 30
0.0
 11
263.086303645439
 21
1057.125956728627
 31
0.0
  0
ARC
  5
159F
330
1F
100
AcDbEntity
  8
SANINDUSA
100
AcDbCircle
 10
263.050280341307
 20
1057.125956728627
 30
0.0
 40
0.001
100
AcDbArc
 50
90.0
 51
270.0
  0
ARC
  5
15A0
330
1F
100
AcDbEntity
  8
SANINDUSA
100
AcDbCircle
 10
263.085303645439
 20
1057.124970942189
 30
0.0
 40
0.0010000000000003
100
AcDbArc
 50
315.0
 51
0.0
  0
LINE
  5
15A1
330
1F
100
AcDbEntity
  8
SANINDUSA
100
AcDbLine
 10
263.050280341307
 20
1057.124956728627
 30
0.0
 11
263.081803645439
 21
1057.124956728627
 31
0.0
  0
LINE
  5
15A2
330
1F
100
AcDbEntity
  8
SANINDUSA
100
AcDbLine
 10
263.0850965386579
 20
1057.123349621846
 30
0.0
 11
263.0860107522202
 21
1057.124263835408
 31
0.0
  0
ARC
  5
15A3
330
1F
100
AcDbEntity
  8
SANINDUSA
100
AcDbCircle
 10
263.081803645439
 20
1057.123956728627
 30
0.0
 40
0.001
100
AcDbArc
 50
0.0
 51
90.0
  0
ARC
  5
15A4
330
1F
100
AcDbEntity
  8
SANINDUSA
100
AcDbCircle
 10
263.085803645439
 20
1057.122642515065
 30
0.0
 40
0.0010000000000003
100
AcDbArc
 50
135.0
 51
180.0
  0
LINE
  5
15A5
330
1F
100
AcDbEntity
  8
SANINDUSA
100
AcDbLine
 10
263.082803645439
 20
1057.123956728627
 30
0.0
 11
263.082803645439
 21
1057.10609754235
 31
0.0
  0
LINE
  5
15A6
330
1F
100
AcDbEntity
  8
SANINDUSA
100
AcDbLine
 10
263.084803645439
 20
1057.119267388799
 30
0.0
 11
263.084803645439
 21
1057.122642515065
 31
0.0
  0
ARC
  5
15A7
330
1F
100
AcDbEntity
  8
SANINDUSA
100
AcDbCircle
 10
263.081803645439
 20
1057.10609754235
 30
0.0
 40
0.001
100
AcDbArc
 50
267.8505420653467
 51
0.0
  0
ARC
  5
15A8
330
1F
100
AcDbEntity
  8
SANINDUSA
100
AcDbCircle
 10
263.0845536454391
 20
1057.119267388799
 30
0.0
 40
0.0002500000000003
100
AcDbArc
 50
315.0
 51
0.0
  0
ARC
  5
15A9
330
1F
100
AcDbEntity
  8
SANINDUSA
100
AcDbCircle
 10
263.0853937538769
 20
1057.201750288272
 30
0.0
 40
0.0967200954923435
100
AcDbArc
 50
254.4398303579209
 51
267.8505420653467
  0
LINE
  5
15AA
330
1F
100
AcDbEntity
  8
SANINDUSA
100
AcDbLine
 10
263.0842500920484
 20
1057.118610282018
 30
0.0
 11
263.0847304221343
 21
1057.119090612103
 31
0.0
  0
ARC
  5
15AB
330
1F
100
AcDbEntity
  8
SANINDUSA
100
AcDbCircle
 10
263.0595826946795
 20
1057.109056728627
 30
0.0
 40
0.0005
100
AcDbArc
 50
90.0
 51
254.4398303579209
  0
ARC
  5
15AC
330
1F
100
AcDbEntity
  8
SANINDUSA
100
AcDbCircle
 10
263.084603645439
 20
1057.118256728627
 30
0.0
 40
0.0005
100
AcDbArc
 50
135.0
 51
225.0
  0
LINE
  5
15AD
330
1F
100
AcDbEntity
  8
SANINDUSA
100
AcDbLine
 10
263.0595826946795
 20
1057.109556728627
 30
0.0
 11
263.072280341307
 21
1057.109556728627
 31
0.0
  0
LINE
  5
15AE
330
1F
100
AcDbEntity
  8
SANINDUSA
100
AcDbLine
 10
263.0847304221343
 20
1057.117422845151
 30
0.0
 11
263.0842500920484
 21
1057.117903175236
 31
0.0
  0
ARC
  5
15AF
330
1F
100
AcDbEntity
  8
SANINDUSA
100
AcDbCircle
 10
263.072280341307
 20
1057.110556728627
 30
0.0
 40
0.001
100
AcDbArc
 50
270.0
 51
90.0
  0
ARC
  5
15B0
330
1F
100
AcDbEntity
  8
SANINDUSA
100
AcDbCircle
 10
263.0845536454391
 20
1057.117246068455
 30
0.0
 40
0.00025
100
AcDbArc
 50
0.0
 51
45.0
  0
LINE
  5
15B1
330
1F
100
AcDbEntity
  8
SANINDUSA
100
AcDbLine
 10
263.072280341307
 20
1057.111556728627
 30
0.0
 11
263.050280341307
 21
1057.111556728627
 31
0.0
  0
LINE
  5
15B2
330
1F
100
AcDbEntity
  8
SANINDUSA
100
AcDbLine
 10
263.084803645439
 20
1057.107056704966
 30
0.0
 11
263.084803645439
 21
1057.117246068455
 31
0.0
  0
ARC
  5
15B3
330
1F
100
AcDbEntity
  8
SANINDUSA
100
AcDbCircle
 10
263.050280341307
 20
1057.110556728627
 30
0.0
 40
0.001
100
AcDbArc
 50
90.0
 51
248.9411647530097
  0
ARC
  5
15B4
330
1F
100
AcDbEntity
  8
SANINDUSA
100
AcDbCircle
 10
263.085803645439
 20
1057.107056704966
 30
0.0
 40
0.0010000000000003
100
AcDbArc
 50
180.0
 51
225.0893040480139
  0
ARC
  5
15B5
330
1F
100
AcDbEntity
  8
SANINDUSA
100
AcDbCircle
 10
263.0853937538769
 20
1057.201750288272
 30
0.0
 40
0.0987200954923432
100
AcDbArc
 50
248.9411647530097
 51
269.9477634045774
  0
LINE
  5
15B6
330
1F
100
AcDbEntity
  8
SANINDUSA
100
AcDbLine
 10
263.086004080759
 20
1057.105444879048
 30
0.0
 11
263.0850976416481
 21
1057.106348496912
 31
0.0
  0
ARC
  5
15B7
330
1F
100
AcDbEntity
  8
SANINDUSA
100
AcDbCircle
 10
263.0853046624204
 20
1057.104030233392
 30
0.0
 40
0.001
100
AcDbArc
 50
269.9477634045774
 51
0.5340991041886235
  0
ARC
  5
15B8
330
1F
100
AcDbEntity
  8
SANINDUSA
100
AcDbCircle
 10
263.085298076968
 20
1057.104736670995
 30
0.0
 40
0.0010000000000003
100
AcDbArc
 50
0.5340991041886235
 51
45.08930404801392
  0
LINE
  5
15B9
330
1F
100
AcDbEntity
  8
SANINDUSA
100
AcDbLine
 10
263.0863046189728
 20
1057.104039555045
 30
0.0
 11
263.0862980335205
 21
1057.104745992647
 31
0.0
  0
LINE
  5
15BA
330
1F
100
AcDbEntity
  8
SANINDUSA
100
AcDbLine
 10
263.088653645439
 20
1057.103030233392
 30
0.0
 11
263.088653645439
 21
1057.126956728627
 31
0.0
  0
LINE
  5
15BB
330
1F
100
AcDbEntity
  8
SANINDUSA
100
AcDbLine
 10
263.087653645439
 20
1057.126956728627
 30
0.0
 11
263.088653645439
 21
1057.126956728627
 31
0.0
  0
LINE
  5
15BC
330
1F
100
AcDbEntity
  8
SANINDUSA
100
AcDbLine
 10
263.088653645439
 20
1057.103030233392
 30
0.0
 11
263.0876547645266
 21
1057.103030233392
 31
0.0
  0
ARC
  5
15BD
330
1F
100
AcDbEntity
  8
SANINDUSA
100
AcDbCircle
 10
263.087653645439
 20
1057.125956728627
 30
0.0
 40
0.0009999999999999
100
AcDbArc
 50
90.0
 51
180.0
  0
ARC
  5
15BE
330
1F
100
AcDbEntity
  8
SANINDUSA
100
AcDbCircle
 10
263.0876547645266
 20
1057.104030233392
 30
0.0
 40
0.0009999999999999
100
AcDbArc
 50
180.5340991041886
 51
270.0
  0
LINE
  5
15BF
330
1F
100
AcDbEntity
  8
SANINDUSA
100
AcDbLine
 10
263.086653645439
 20
1057.124970942189
 30
0.0
 11
263.086653645439
 21
1057.125956728627
 31
0.0
  0
LINE
  5
15C0
330
1F
100
AcDbEntity
  8
SANINDUSA
100
AcDbLine
 10
263.0866548079741
 20
1057.104020911739
 30
0.0
 11
263.0866480183138
 21
1057.104749255226
 31
0.0
  0
ARC
  5
15C1
330
1F
100
AcDbEntity
  8
SANINDUSA
100
AcDbCircle
 10
263.085303645439
 20
1057.124970942189
 30
0.0
 40
0.0013499999999998
100
AcDbArc
 50
315.0
 51
0.0
  0
ARC
  5
15C2
330
1F
100
AcDbEntity
  8
SANINDUSA
100
AcDbCircle
 10
263.085298076968
 20
1057.104736670995
 30
0.0
 40
0.00135
100
AcDbArc
 50
0.5340991041886235
 51
45.08930404801392
  0
LINE
  5
15C3
330
1F
100
AcDbEntity
  8
SANINDUSA
100
AcDbLine
 10
263.0853440260312
 20
1057.123102134473
 30
0.0
 11
263.0862582395936
 21
1057.124016348035
 31
0.0
  0
LINE
  5
15C4
330
1F
100
AcDbEntity
  8
SANINDUSA
100
AcDbLine
 10
263.0862511820859
 20
1057.105692751867
 30
0.0
 11
263.0853447429749
 21
1057.106596369731
 31
0.0
  0
ARC
  5
15C5
330
1F
100
AcDbEntity
  8
SANINDUSA
100
AcDbCircle
 10
263.085803645439
 20
1057.122642515065
 30
0.0
 40
0.0006500000000003
100
AcDbArc
 50
135.0
 51
180.0
  0
ARC
  5
15C6
330
1F
100
AcDbEntity
  8
SANINDUSA
100
AcDbCircle
 10
263.085803645439
 20
1057.107056704966
 30
0.0
 40
0.0006500000000003
100
AcDbArc
 50
180.0
 51
225.0893040480139
  0
LINE
  5
15C7
330
1F
100
AcDbEntity
  8
SANINDUSA
100
AcDbLine
 10
263.085153645439
 20
1057.107056704966
 30
0.0
 11
263.085153645439
 21
1057.122642515065
 31
0.0
  0
ENDSEC
  0
SECTION
  2
OBJECTS
  0
DICTIONARY
  5
C
330
0
100
AcDbDictionary
281
     1
  3
ACAD_COLOR
350
16D9
  3
ACAD_GROUP
350
D
  3
ACAD_LAYOUT
350
1A
  3
ACAD_MATERIAL
350
16AC
  3
ACAD_MLEADERSTYLE
350
16EE
  3
ACAD_MLINESTYLE
350
17
  3
ACAD_PLOTSETTINGS
350
19
  3
ACAD_PLOTSTYLENAME
350
E
  3
ACAD_SCALELIST
350
16DC
  3
ACAD_TABLESTYLE
350
16DA
  3
ACAD_VISUALSTYLE
350
16C5
  3
ACDB_RECOMPOSE_DATA
350
1764
  3
AcDbVariableDictionary
350
3D
  3
ASE_INDEX_DICTIONARY
350
B91
  3
DWGPROPS
350
1765
  0
DICTIONARY
  5
16FD
330
10
100
AcDbDictionary
280
     1
281
     1
  3
ADSK_XREC_LAYER_RECONCILED
360
16FE
  0
DICTIONARY
  5
16FF
330
2F
100
AcDbDictionary
280
     1
281
     1
  3
ADSK_XREC_LAYER_RECONCILED
360
1700
  0
DICTIONARY
  5
1701
330
30
100
AcDbDictionary
280
     1
281
     1
  3
ADSK_XREC_LAYER_RECONCILED
360
1702
  0
DICTIONARY
  5
1703
330
31
100
AcDbDictionary
280
     1
281
     1
  3
ADSK_XREC_LAYER_RECONCILED
360
1704
  0
DICTIONARY
  5
1705
330
32
100
AcDbDictionary
280
     1
281
     1
  3
ADSK_XREC_LAYER_RECONCILED
360
1706
  0
DICTIONARY
  5
1707
330
33
100
AcDbDictionary
280
     1
281
     1
  3
ADSK_XREC_LAYER_RECONCILED
360
1708
  0
DICTIONARY
  5
1709
330
34
100
AcDbDictionary
280
     1
281
     1
  3
ADSK_XREC_LAYER_RECONCILED
360
170A
  0
DICTIONARY
  5
170B
330
35
100
AcDbDictionary
280
     1
281
     1
  3
ADSK_XREC_LAYER_RECONCILED
360
170C
  0
DICTIONARY
  5
170D
330
36
100
AcDbDictionary
280
     1
281
     1
  3
ADSK_XREC_LAYER_RECONCILED
360
170E
  0
DICTIONARY
  5
170F
330
37
100
AcDbDictionary
280
     1
281
     1
  3
ADSK_XREC_LAYER_RECONCILED
360
1710
  0
DICTIONARY
  5
1711
330
5D6
100
AcDbDictionary
280
     1
281
     1
  3
ADSK_XREC_LAYER_RECONCILED
360
1712
  0
DICTIONARY
  5
1713
330
8AF
100
AcDbDictionary
280
     1
281
     1
  3
ADSK_XREC_LAYER_RECONCILED
360
1714
  0
DICTIONARY
  5
1715
330
8F8
100
AcDbDictionary
280
     1
281
     1
  3
ADSK_XREC_LAYER_RECONCILED
360
1716
  0
DICTIONARY
  5
1717
330
91D
100
AcDbDictionary
280
     1
281
     1
  3
ADSK_XREC_LAYER_RECONCILED
360
1718
  0
DICTIONARY
  5
1719
330
C17
100
AcDbDictionary
280
     1
281
     1
  3
ADSK_XREC_LAYER_RECONCILED
360
171A
  0
DICTIONARY
  5
171B
330
16FC
100
AcDbDictionary
280
     1
281
     1
  3
ADSK_XREC_LAYER_RECONCILED
360
171C
  0
DICTIONARY
  5
176C
330
16A4
100
AcDbDictionary
280
     1
281
     1
  3
ACAD_MTEXT_RT
360
176D
  0
DICTIONARY
  5
16D9
102
{ACAD_REACTORS
330
C
102
}
330
C
100
AcDbDictionary
281
     1
  0
DICTIONARY
  5
D
102
{ACAD_REACTORS
330
C
102
}
330
C
100
AcDbDictionary
281
     1
  0
DICTIONARY
  5
1A
102
{ACAD_REACTORS
330
C
102
}
330
C
100
AcDbDictionary
281
     1
  3
Layout1
350
1E
  3
Layout2
350
26
  3
Model
350
22
  0
DICTIONARY
  5
16AC
102
{ACAD_REACTORS
330
C
102
}
330
C
100
AcDbDictionary
281
     1
  3
ByBlock
350
16B5
  3
ByLayer
350
16AD
  3
Global
350
16BD
  0
DICTIONARY
  5
16EE
102
{ACAD_REACTORS
330
C
102
}
330
C
100
AcDbDictionary
281
     1
  3
Standard
350
16EF
  0
DICTIONARY
  5
17
102
{ACAD_REACTORS
330
C
102
}
330
C
100
AcDbDictionary
281
     1
  3
Standard
350
18
  0
DICTIONARY
  5
19
102
{ACAD_REACTORS
330
C
102
}
330
C
100
AcDbDictionary
281
     1
  0
ACDBDICTIONARYWDFLT
  5
E
102
{ACAD_REACTORS
330
C
102
}
330
C
100
AcDbDictionary
281
     1
  3
Normal
350
F
100
AcDbDictionaryWithDefault
340
F
  0
DICTIONARY
  5
16DC
102
{ACAD_REACTORS
330
C
102
}
330
C
100
AcDbDictionary
281
     1
  3
A0
350
16DD
  3
A1
350
16DE
  3
A2
350
16DF
  3
A3
350
16E0
  3
A4
350
16E1
  3
A5
350
16E2
  3
A6
350
16E3
  3
A7
350
16E4
  3
A8
350
16E5
  3
A9
350
16E6
  3
B0
350
16E7
  3
B1
350
16E8
  3
B2
350
16E9
  3
B3
350
16EA
  3
B4
350
16EB
  3
B5
350
16EC
  3
B6
350
16ED
  0
DICTIONARY
  5
16DA
102
{ACAD_REACTORS
330
C
102
}
330
C
100
AcDbDictionary
281
     1
  3
Standard
350
16DB
  0
DICTIONARY
  5
16C5
102
{ACAD_REACTORS
330
C
102
}
330
C
100
AcDbDictionary
281
     1
  3
2dWireframe
350
16CB
  3
3D Hidden
350
16CD
  3
3dWireframe
350
16CC
  3
Basic
350
16CA
  3
Brighten
350
16D1
  3
ColorChange
350
16D5
  3
Conceptual
350
16CE
  3
Dim
350
16D0
  3
EdgeColorOff
350
16D8
  3
Facepattern
350
16D4
  3
Flat
350
16C6
  3
FlatWithEdges
350
16C7
  3
Gouraud
350
16C8
  3
GouraudWithEdges
350
16C9
  3
JitterOff
350
16D6
  3
Linepattern
350
16D3
  3
OverhangOff
350
16D7
  3
Realistic
350
16CF
  3
Thicken
350
16D2
  0
XRECORD
  5
1764
102
{ACAD_REACTORS
330
C
102
}
330
C
100
AcDbXrecord
280
     1
 90
        1
330
16DB
  0
DICTIONARY
  5
3D
102
{ACAD_REACTORS
330
C
102
}
330
C
100
AcDbDictionary
281
     1
  3
CANNOSCALE
350
175E
  3
CMLEADERSTYLE
350
175D
  3
CTABLESTYLE
350
175C
  3
DIMASSOC
350
3F
  3
HIDETEXT
350
3E
  3
INDEXCTL
350
1760
  3
SORTENTS
350
175F
  3
XCLIPFRAME
350
1761
  0
DICTIONARY
  5
B91
102
{ACAD_REACTORS
330
C
102
}
330
C
100
AcDbDictionary
281
     1
  3
ASEBlockHierarchyIndexRecord
350
B92
1001
DCO15
1040
1485069952.593
  0
XRECORD
  5
1765
102
{ACAD_REACTORS
330
C
102
}
330
C
100
AcDbXrecord
280
     1
  1
DWGPROPS COOKIE
  2

  3

  4

  6

  7

  8
Julio
  9

300
=
301
=
302
=
303
=
304
=
305
=
306
=
307
=
308
=
309
=
 40
0.0177161111111111
 41
2453319.410385914
 42
2455824.50975603
  1

 90
        0
  0
XRECORD
  5
16FE
102
{ACAD_REACTORS
330
16FD
102
}
330
16FD
100
AcDbXrecord
280
     1
290
     1
  0
XRECORD
  5
1700
102
{ACAD_REACTORS
330
16FF
102
}
330
16FF
100
AcDbXrecord
280
     1
290
     1
  0
XRECORD
  5
1702
102
{ACAD_REACTORS
330
1701
102
}
330
1701
100
AcDbXrecord
280
     1
290
     1
  0
XRECORD
  5
1704
102
{ACAD_REACTORS
330
1703
102
}
330
1703
100
AcDbXrecord
280
     1
290
     1
  0
XRECORD
  5
1706
102
{ACAD_REACTORS
330
1705
102
}
330
1705
100
AcDbXrecord
280
     1
290
     1
  0
XRECORD
  5
1708
102
{ACAD_REACTORS
330
1707
102
}
330
1707
100
AcDbXrecord
280
     1
290
     1
  0
XRECORD
  5
170A
102
{ACAD_REACTORS
330
1709
102
}
330
1709
100
AcDbXrecord
280
     1
290
     1
  0
XRECORD
  5
170C
102
{ACAD_REACTORS
330
170B
102
}
330
170B
100
AcDbXrecord
280
     1
290
     1
  0
XRECORD
  5
170E
102
{ACAD_REACTORS
330
170D
102
}
330
170D
100
AcDbXrecord
280
     1
290
     1
  0
XRECORD
  5
1710
102
{ACAD_REACTORS
330
170F
102
}
330
170F
100
AcDbXrecord
280
     1
290
     1
  0
XRECORD
  5
1712
102
{ACAD_REACTORS
330
1711
102
}
330
1711
100
AcDbXrecord
280
     1
290
     1
  0
XRECORD
  5
1714
102
{ACAD_REACTORS
330
1713
102
}
330
1713
100
AcDbXrecord
280
     1
290
     1
  0
XRECORD
  5
1716
102
{ACAD_REACTORS
330
1715
102
}
330
1715
100
AcDbXrecord
280
     1
290
     1
  0
XRECORD
  5
1718
102
{ACAD_REACTORS
330
1717
102
}
330
1717
100
AcDbXrecord
280
     1
290
     1
  0
XRECORD
  5
171A
102
{ACAD_REACTORS
330
1719
102
}
330
1719
100
AcDbXrecord
280
     1
290
     1
  0
XRECORD
  5
171C
102
{ACAD_REACTORS
330
171B
102
}
330
171B
100
AcDbXrecord
280
     1
290
     1
  0
XRECORD
  5
176D
102
{ACAD_REACTORS
330
176C
102
}
330
176C
100
AcDbXrecord
280
     1
 40
3752.0
  1
90,0°
  0
LAYOUT
  5
1E
102
{ACAD_XDICTIONARY
360
1766
102
}
102
{ACAD_REACTORS
330
1A
102
}
330
1A
100
AcDbPlotSettings
  1

  2
Ploter HP500
  4

  6

 40
0.0
 41
0.0
 42
0.0
 43
0.0
 44
0.0
 45
0.0
 46
0.0
 47
0.0
 48
0.0
 49
0.0
140
0.0
141
0.0
142
1.0
143
1.0
 70
   688
 72
     0
 73
     0
 74
     5
  7
monochrome.ctb
 75
    16
147
1.0
148
0.0
149
0.0
100
AcDbLayout
  1
Layout1
 70
     1
 71
     1
 10
0.0
 20
0.0
 11
420.0
 21
297.0
 12
0.0
 22
0.0
 32
0.0
 14
1.000000000000000E+20
 24
1.000000000000000E+20
 34
1.000000000000000E+20
 15
-1.000000000000000E+20
 25
-1.000000000000000E+20
 35
-1.000000000000000E+20
146
0.0
 13
0.0
 23
0.0
 33
0.0
 16
1.0
 26
0.0
 36
0.0
 17
0.0
 27
1.0
 37
0.0
 76
     0
330
1B
  0
LAYOUT
  5
26
102
{ACAD_XDICTIONARY
360
176A
102
}
102
{ACAD_REACTORS
330
1A
102
}
330
1A
100
AcDbPlotSettings
  1

  2
Ploter HP500
  4

  6

 40
0.0
 41
0.0
 42
0.0
 43
0.0
 44
0.0
 45
0.0
 46
0.0
 47
0.0
 48
0.0
 49
0.0
140
0.0
141
0.0
142
1.0
143
1.0
 70
   688
 72
     0
 73
     0
 74
     5
  7
monochrome.ctb
 75
    16
147
1.0
148
0.0
149
0.0
100
AcDbLayout
  1
Layout2
 70
     1
 71
     2
 10
0.0
 20
0.0
 11
12.0
 21
9.0
 12
0.0
 22
0.0
 32
0.0
 14
0.0
 24
0.0
 34
0.0
 15
0.0
 25
0.0
 35
0.0
146
0.0
 13
0.0
 23
0.0
 33
0.0
 16
1.0
 26
0.0
 36
0.0
 17
0.0
 27
1.0
 37
0.0
 76
     0
330
23
  0
LAYOUT
  5
22
102
{ACAD_XDICTIONARY
360
1768
102
}
102
{ACAD_REACTORS
330
1A
102
}
330
1A
100
AcDbPlotSettings
  1

  2
Ploter HP500
  4
User268
  6

 40
4.995333194732666
 41
16.97565841674804
 42
4.995330810546875
 43
16.97567749023437
 44
209.9733276367187
 45
296.9259948730469
 46
0.0
 47
0.0
 48
0.0
 49
0.0
140
0.0
141
0.0
142
1.0
143
1.0
 70
 11952
 72
     1
 73
     1
 74
     0
  7

 75
     0
147
1.0
148
-427.5957866592534
149
7.362384574453926
100
AcDbLayout
  1
Model
 70
     1
 71
     0
 10
0.0
 20
0.0
 11
12.0
 21
9.0
 12
0.0
 22
0.0
 32
0.0
 14
0.0
 24
0.0
 34
0.0
 15
0.0
 25
0.0
 35
0.0
146
0.0
 13
0.0
 23
0.0
 33
0.0
 16
1.0
 26
0.0
 36
0.0
 17
0.0
 27
1.0
 37
0.0
 76
     0
330
1F
331
16AA
  0
MATERIAL
  5
16B5
102
{ACAD_XDICTIONARY
360
16B6
102
}
102
{ACAD_REACTORS
330
16AC
102
}
330
16AC
100
AcDbMaterial
  1
ByBlock
 72
     0
 43
0.0008202099737533
 43
0.0
 43
0.0
 43
0.0
 43
0.0
 43
0.0008202099737533
 43
0.0
 43
0.0
 43
0.0
 43
0.0
 43
1.0
 43
0.0
 43
0.0
 43
0.0
 43
0.0
 43
1.0
 77
     0
 47
0.0008202099737533
 47
0.0
 47
0.0
 47
0.0
 47
0.0
 47
0.0008202099737533
 47
0.0
 47
0.0
 47
0.0
 47
0.0
 47
1.0
 47
0.0
 47
0.0
 47
0.0
 47
0.0
 47
1.0
171
     0
 49
0.0008202099737533
 49
0.0
 49
0.0
 49
0.0
 49
0.0
 49
0.0008202099737533
 49
0.0
 49
0.0
 49
0.0
 49
0.0
 49
1.0
 49
0.0
 49
0.0
 49
0.0
 49
0.0
 49
1.0
175
     0
142
0.0008202099737533
142
0.0
142
0.0
142
0.0
142
0.0
142
0.0008202099737533
142
0.0
142
0.0
142
0.0
142
0.0
142
1.0
142
0.0
142
0.0
142
0.0
142
0.0
142
1.0
179
     0
144
0.0008202099737533
144
0.0
144
0.0
144
0.0
144
0.0
144
0.0008202099737533
144
0.0
144
0.0
144
0.0
144
0.0
144
1.0
144
0.0
144
0.0
144
0.0
144
0.0
144
1.0
147
0.0008202099737533
147
0.0
147
0.0
147
0.0
147
0.0
147
0.0008202099737533
147
0.0
147
0.0
147
0.0
147
0.0
147
1.0
147
0.0
147
0.0
147
0.0
147
0.0
147
1.0
  0
MATERIAL
  5
16AD
102
{ACAD_XDICTIONARY
360
16AE
102
}
102
{ACAD_REACTORS
330
16AC
102
}
330
16AC
100
AcDbMaterial
  1
ByLayer
 72
     0
 43
0.0008202099737533
 43
0.0
 43
0.0
 43
0.0
 43
0.0
 43
0.0008202099737533
 43
0.0
 43
0.0
 43
0.0
 43
0.0
 43
1.0
 43
0.0
 43
0.0
 43
0.0
 43
0.0
 43
1.0
 77
     0
 47
0.0008202099737533
 47
0.0
 47
0.0
 47
0.0
 47
0.0
 47
0.0008202099737533
 47
0.0
 47
0.0
 47
0.0
 47
0.0
 47
1.0
 47
0.0
 47
0.0
 47
0.0
 47
0.0
 47
1.0
171
     0
 49
0.0008202099737533
 49
0.0
 49
0.0
 49
0.0
 49
0.0
 49
0.0008202099737533
 49
0.0
 49
0.0
 49
0.0
 49
0.0
 49
1.0
 49
0.0
 49
0.0
 49
0.0
 49
0.0
 49
1.0
175
     0
142
0.0008202099737533
142
0.0
142
0.0
142
0.0
142
0.0
142
0.0008202099737533
142
0.0
142
0.0
142
0.0
142
0.0
142
1.0
142
0.0
142
0.0
142
0.0
142
0.0
142
1.0
179
     0
144
0.0008202099737533
144
0.0
144
0.0
144
0.0
144
0.0
144
0.0008202099737533
144
0.0
144
0.0
144
0.0
144
0.0
144
1.0
144
0.0
144
0.0
144
0.0
144
0.0
144
1.0
147
0.0008202099737533
147
0.0
147
0.0
147
0.0
147
0.0
147
0.0008202099737533
147
0.0
147
0.0
147
0.0
147
0.0
147
1.0
147
0.0
147
0.0
147
0.0
147
0.0
147
1.0
  0
MATERIAL
  5
16BD
102
{ACAD_XDICTIONARY
360
16BE
102
}
102
{ACAD_REACTORS
330
16AC
102
}
330
16AC
100
AcDbMaterial
  1
Global
 72
     0
 43
0.0008202099737533
 43
0.0
 43
0.0
 43
0.0
 43
0.0
 43
0.0008202099737533
 43
0.0
 43
0.0
 43
0.0
 43
0.0
 43
1.0
 43
0.0
 43
0.0
 43
0.0
 43
0.0
 43
1.0
 77
     0
 47
0.0008202099737533
 47
0.0
 47
0.0
 47
0.0
 47
0.0
 47
0.0008202099737533
 47
0.0
 47
0.0
 47
0.0
 47
0.0
 47
1.0
 47
0.0
 47
0.0
 47
0.0
 47
0.0
 47
1.0
171
     0
 49
0.0008202099737533
 49
0.0
 49
0.0
 49
0.0
 49
0.0
 49
0.0008202099737533
 49
0.0
 49
0.0
 49
0.0
 49
0.0
 49
1.0
 49
0.0
 49
0.0
 49
0.0
 49
0.0
 49
1.0
175
     0
142
0.0008202099737533
142
0.0
142
0.0
142
0.0
142
0.0
142
0.0008202099737533
142
0.0
142
0.0
142
0.0
142
0.0
142
1.0
142
0.0
142
0.0
142
0.0
142
0.0
142
1.0
179
     0
144
0.0008202099737533
144
0.0
144
0.0
144
0.0
144
0.0
144
0.0008202099737533
144
0.0
144
0.0
144
0.0
144
0.0
144
1.0
144
0.0
144
0.0
144
0.0
144
0.0
144
1.0
147
0.0008202099737533
147
0.0
147
0.0
147
0.0
147
0.0
147
0.0008202099737533
147
0.0
147
0.0
147
0.0
147
0.0
147
1.0
147
0.0
147
0.0
147
0.0
147
0.0
147
1.0
  0
MLEADERSTYLE
  5
16EF
102
{ACAD_REACTORS
330
16EE
102
}
330
16EE
100
AcDbMLeaderStyle
170
     2
171
     1
172
     0
 90
        2
 40
0.0
 41
0.0
173
     1
 91
-1056964608
340
14
 92
       -2
290
     1
 42
2.0
291
     1
 43
0.36
  3
Standard
 44
4.0
300

342
11
174
     1
178
     6
175
     1
176
     0
 93
-1056964608
 45
4.0
292
     0
297
     0
 46
4.0
 94
-1056964608
 47
1.0
 49
1.0
140
1.0
293
     1
141
0.0
294
     1
177
     0
142
1.0
295
     0
296
     0
143
0.125
1001
ACAD_MLEADERVER
1070
     2
  0
MLINESTYLE
  5
18
102
{ACAD_REACTORS
330
17
102
}
330
17
100
AcDbMlineStyle
  2
STANDARD
 70
     0
  3

 62
   256
 51
90.0
 52
90.0
 71
     2
 49
0.5
 62
   256
  6
BYLAYER
 49
-0.5
 62
   256
  6
BYLAYER
  0
ACDBPLACEHOLDER
  5
F
102
{ACAD_REACTORS
330
E
102
}
330
E
  0
SCALE
  5
16DD
102
{ACAD_REACTORS
330
16DC
102
}
330
16DC
100
AcDbScale
 70
     0
300
1:1
140
1.0
141
1.0
290
     1
  0
SCALE
  5
16DE
102
{ACAD_REACTORS
330
16DC
102
}
330
16DC
100
AcDbScale
 70
     0
300
1:2
140
1.0
141
2.0
290
     0
  0
SCALE
  5
16DF
102
{ACAD_REACTORS
330
16DC
102
}
330
16DC
100
AcDbScale
 70
     0
300
1:4
140
1.0
141
4.0
290
     0
  0
SCALE
  5
16E0
102
{ACAD_REACTORS
330
16DC
102
}
330
16DC
100
AcDbScale
 70
     0
300
1:5
140
1.0
141
5.0
290
     0
  0
SCALE
  5
16E1
102
{ACAD_REACTORS
330
16DC
102
}
330
16DC
100
AcDbScale
 70
     0
300
1:8
140
1.0
141
8.0
290
     0
  0
SCALE
  5
16E2
102
{ACAD_REACTORS
330
16DC
102
}
330
16DC
100
AcDbScale
 70
     0
300
1:10
140
1.0
141
10.0
290
     0
  0
SCALE
  5
16E3
102
{ACAD_REACTORS
330
16DC
102
}
330
16DC
100
AcDbScale
 70
     0
300
1:16
140
1.0
141
16.0
290
     0
  0
SCALE
  5
16E4
102
{ACAD_REACTORS
330
16DC
102
}
330
16DC
100
AcDbScale
 70
     0
300
1:20
140
1.0
141
20.0
290
     0
  0
SCALE
  5
16E5
102
{ACAD_REACTORS
330
16DC
102
}
330
16DC
100
AcDbScale
 70
     0
300
1:30
140
1.0
141
30.0
290
     0
  0
SCALE
  5
16E6
102
{ACAD_REACTORS
330
16DC
102
}
330
16DC
100
AcDbScale
 70
     0
300
1:40
140
1.0
141
40.0
290
     0
  0
SCALE
  5
16E7
102
{ACAD_REACTORS
330
16DC
102
}
330
16DC
100
AcDbScale
 70
     0
300
1:50
140
1.0
141
50.0
290
     0
  0
SCALE
  5
16E8
102
{ACAD_REACTORS
330
16DC
102
}
330
16DC
100
AcDbScale
 70
     0
300
1:100
140
1.0
141
100.0
290
     0
  0
SCALE
  5
16E9
102
{ACAD_REACTORS
330
16DC
102
}
330
16DC
100
AcDbScale
 70
     0
300
2:1
140
2.0
141
1.0
290
     0
  0
SCALE
  5
16EA
102
{ACAD_REACTORS
330
16DC
102
}
330
16DC
100
AcDbScale
 70
     0
300
4:1
140
4.0
141
1.0
290
     0
  0
SCALE
  5
16EB
102
{ACAD_REACTORS
330
16DC
102
}
330
16DC
100
AcDbScale
 70
     0
300
8:1
140
8.0
141
1.0
290
     0
  0
SCALE
  5
16EC
102
{ACAD_REACTORS
330
16DC
102
}
330
16DC
100
AcDbScale
 70
     0
300
10:1
140
10.0
141
1.0
290
     0
  0
SCALE
  5
16ED
102
{ACAD_REACTORS
330
16DC
102
}
330
16DC
100
AcDbScale
 70
     0
300
100:1
140
100.0
141
1.0
290
     0
  0
TABLESTYLE
  5
16DB
102
{ACAD_XDICTIONARY
360
1762
102
}
102
{ACAD_REACTORS
330
16DA
102
}
330
16DA
100
AcDbTableStyle
  3
Standard
 70
     0
 71
     0
 40
1.5
 41
1.5
280
     0
281
     0
  7
Standard
140
4.5
170
     2
 62
     0
 63
     7
283
     0
274
    -2
284
     1
 64
     0
275
    -2
285
     1
 65
     0
276
    -2
286
     1
 66
     0
277
    -2
287
     1
 67
     0
278
    -2
288
     1
 68
     0
279
    -2
289
     1
 69
     0
  7
Standard
140
6.0
170
     5
 62
     0
 63
     7
283
     0
274
    -2
284
     1
 64
     0
275
    -2
285
     1
 65
     0
276
    -2
286
     1
 66
     0
277
    -2
287
     1
 67
     0
278
    -2
288
     1
 68
     0
279
    -2
289
     1
 69
     0
  7
Standard
140
4.5
170
     5
 62
     0
 63
     7
283
     0
274
    -2
284
     1
 64
     0
275
    -2
285
     1
 65
     0
276
    -2
286
     1
 66
     0
277
    -2
287
     1
 67
     0
278
    -2
288
     1
 68
     0
279
    -2
289
     1
 69
     0
  0
VISUALSTYLE
  5
16CB
102
{ACAD_XDICTIONARY
360
177B
102
}
102
{ACAD_REACTORS
330
16C5
102
}
330
16C5
100
AcDbVisualStyle
  2
2dWireframe
 70
     4
 71
     0
 72
     2
 73
     0
 90
        0
 40
-0.6
 41
-30.0
 62
     5
 63
     7
 74
     1
 91
        4
 64
     7
 65
   257
 75
     1
175
     1
 42
1.0
 92
        0
 66
   257
 43
1.0
 76
     1
 77
     6
 78
     2
 67
     7
 79
     5
170
     0
171
     0
290
     0
174
     0
 93
        1
 44
0.0
173
     0
291
     0
 45
0.0
1001
ACAD
1000
AcDbSavedByObjectVersion
1070
     0
  0
VISUALSTYLE
  5
16CD
102
{ACAD_XDICTIONARY
360
177F
102
}
102
{ACAD_REACTORS
330
16C5
102
}
330
16C5
100
AcDbVisualStyle
  2
3D Hidden
 70
     6
 71
     1
 72
     2
 73
     2
 90
        0
 40
-0.6
 41
-30.0
 62
     5
 63
     7
 74
     2
 91
        2
 64
     7
 65
   257
 75
     2
175
     1
 42
179.0
 92
        0
 66
   257
 43
1.0
 76
     1
 77
     6
 78
     2
 67
     7
 79
     3
170
     0
171
     0
290
     0
174
     0
 93
        1
 44
0.0
173
     0
291
     0
 45
0.0
1001
ACAD
1000
AcDbSavedByObjectVersion
1070
     0
  0
VISUALSTYLE
  5
16CC
102
{ACAD_XDICTIONARY
360
177D
102
}
102
{ACAD_REACTORS
330
16C5
102
}
330
16C5
100
AcDbVisualStyle
  2
3dWireframe
 70
     5
 71
     0
 72
     2
 73
     0
 90
        0
 40
-0.6
 41
-30.0
 62
     5
 63
     7
 74
     1
 91
        4
 64
     7
 65
   257
 75
     1
175
     1
 42
1.0
 92
        0
 66
   257
 43
1.0
 76
     1
 77
     6
 78
     2
 67
     7
 79
     5
170
     0
171
     0
290
     0
174
     0
 93
        1
 44
0.0
173
     0
291
     0
 45
0.0
1001
ACAD
1000
AcDbSavedByObjectVersion
1070
     0
  0
VISUALSTYLE
  5
16CA
102
{ACAD_XDICTIONARY
360
1779
102
}
102
{ACAD_REACTORS
330
16C5
102
}
330
16C5
100
AcDbVisualStyle
  2
Basic
 70
     7
 71
     1
 72
     0
 73
     1
 90
        0
 40
-0.6
 41
-30.0
 62
     5
 63
     7
 74
     0
 91
        4
 64
     7
 65
   257
 75
     1
175
     1
 42
1.0
 92
        8
 66
     7
 43
1.0
 76
     1
 77
     6
 78
     2
 67
     7
 79
     5
170
     0
171
     0
290
     0
174
     0
 93
        1
 44
0.0
173
     0
291
     1
 45
0.0
1001
ACAD
1000
AcDbSavedByObjectVersion
1070
     0
  0
VISUALSTYLE
  5
16D1
102
{ACAD_XDICTIONARY
360
1787
102
}
102
{ACAD_REACTORS
330
16C5
102
}
330
16C5
100
AcDbVisualStyle
  2
Brighten
 70
    12
 71
     2
 72
     2
 73
     0
 90
        0
 40
-0.6
 41
-30.0
 62
     5
 63
     7
 74
     1
 91
        4
 64
     7
 65
   257
 75
     1
175
     1
 42
1.0
 92
        8
 66
     7
 43
1.0
 76
     1
 77
     6
 78
     2
 67
     7
 79
     5
170
     0
171
     0
290
     0
174
     0
 93
        1
 44
50.0
173
     0
291
     1
 45
0.0
1001
ACAD
1000
AcDbSavedByObjectVersion
1070
     0
  0
VISUALSTYLE
  5
16D5
102
{ACAD_XDICTIONARY
360
178F
102
}
102
{ACAD_REACTORS
330
16C5
102
}
330
16C5
100
AcDbVisualStyle
  2
ColorChange
 70
    16
 71
     2
 72
     2
 73
     3
 90
        0
 40
-0.6
 41
-30.0
 62
     5
 63
     8
 74
     1
 91
        4
 64
     7
 65
   257
 75
     1
175
     1
 42
1.0
 92
        8
 66
     8
 43
1.0
 76
     1
 77
     6
 78
     2
 67
     7
 79
     5
170
     0
171
     0
290
     0
174
     0
 93
        1
 44
0.0
173
     0
291
     1
 45
0.0
1001
ACAD
1000
AcDbSavedByObjectVersion
1070
     0
  0
VISUALSTYLE
  5
16CE
102
{ACAD_XDICTIONARY
360
1781
102
}
102
{ACAD_REACTORS
330
16C5
102
}
330
16C5
100
AcDbVisualStyle
  2
Conceptual
 70
     9
 71
     3
 72
     2
 73
     0
 90
        0
 40
-0.6
 41
-30.0
 62
     5
 63
     7
 74
     2
 91
        2
 64
     7
 65
   257
 75
     1
175
     1
 42
179.0
 92
        8
 66
     7
 43
1.0
 76
     1
 77
     6
 78
     2
 67
     7
 79
     3
170
     0
171
     0
290
     0
174
     0
 93
        1
 44
0.0
173
     0
291
     0
 45
0.0
1001
ACAD
1000
AcDbSavedByObjectVersion
1070
     0
  0
VISUALSTYLE
  5
16D0
102
{ACAD_XDICTIONARY
360
1785
102
}
102
{ACAD_REACTORS
330
16C5
102
}
330
16C5
100
AcDbVisualStyle
  2
Dim
 70
    11
 71
     2
 72
     2
 73
     0
 90
        0
 40
-0.6
 41
-30.0
 62
     5
 63
     7
 74
     1
 91
        4
 64
     7
 65
   257
 75
     1
175
     1
 42
1.0
 92
        8
 66
     7
 43
1.0
 76
     1
 77
     6
 78
     2
 67
     7
 79
     5
170
     0
171
     0
290
     0
174
     0
 93
        1
 44
-50.0
173
     0
291
     1
 45
0.0
1001
ACAD
1000
AcDbSavedByObjectVersion
1070
     0
  0
VISUALSTYLE
  5
16D8
102
{ACAD_XDICTIONARY
360
1795
102
}
102
{ACAD_REACTORS
330
16C5
102
}
330
16C5
100
AcDbVisualStyle
  2
EdgeColorOff
 70
    22
 71
     2
 72
     2
 73
     0
 90
        0
 40
-0.6
 41
-30.0
 62
     5
 63
     7
 74
     1
 91
        4
 64
     7
 65
   257
 75
     1
175
     1
 42
1.0
 92
        8
 66
     7
 43
1.0
 76
     1
 77
     6
 78
     2
 67
     7
 79
     5
170
     0
171
     0
290
     0
174
     0
 93
        1
 44
0.0
173
     0
291
     1
 45
0.0
1001
ACAD
1000
AcDbSavedByObjectVersion
1070
     0
  0
VISUALSTYLE
  5
16D4
102
{ACAD_XDICTIONARY
360
178D
102
}
102
{ACAD_REACTORS
330
16C5
102
}
330
16C5
100
AcDbVisualStyle
  2
Facepattern
 70
    15
 71
     2
 72
     2
 73
     0
 90
        0
 40
-0.6
 41
-30.0
 62
     5
 63
     7
 74
     1
 91
        4
 64
     7
 65
   257
 75
     1
175
     1
 42
1.0
 92
        8
 66
     7
 43
1.0
 76
     1
 77
     6
 78
     2
 67
     7
 79
     5
170
     0
171
     0
290
     0
174
     0
 93
        1
 44
0.0
173
     0
291
     1
 45
0.0
1001
ACAD
1000
AcDbSavedByObjectVersion
1070
     0
  0
VISUALSTYLE
  5
16C6
102
{ACAD_XDICTIONARY
360
1771
102
}
102
{ACAD_REACTORS
330
16C5
102
}
330
16C5
100
AcDbVisualStyle
  2
Flat
 70
     0
 71
     2
 72
     1
 73
     1
 90
        2
 40
-0.6
 41
30.0
 62
     5
 63
     7
 74
     0
 91
        4
 64
     7
 65
   257
 75
     1
175
     1
 42
1.0
 92
        8
 66
     7
 43
1.0
 76
     1
 77
     6
 78
     2
 67
     7
 79
     5
170
     0
171
     0
290
     0
174
     0
 93
       13
 44
0.0
173
     0
291
     1
 45
0.0
1001
ACAD
1000
AcDbSavedByObjectVersion
1070
     0
  0
VISUALSTYLE
  5
16C7
102
{ACAD_XDICTIONARY
360
1773
102
}
102
{ACAD_REACTORS
330
16C5
102
}
330
16C5
100
AcDbVisualStyle
  2
FlatWithEdges
 70
     1
 71
     2
 72
     1
 73
     1
 90
        2
 40
-0.6
 41
30.0
 62
     5
 63
     7
 74
     1
 91
        4
 64
     7
 65
   257
 75
     1
175
     1
 42
1.0
 92
        0
 66
   257
 43
1.0
 76
     1
 77
     6
 78
     2
 67
     7
 79
     5
170
     0
171
     0
290
     0
174
     0
 93
       13
 44
0.0
173
     0
291
     1
 45
0.0
1001
ACAD
1000
AcDbSavedByObjectVersion
1070
     0
  0
VISUALSTYLE
  5
16C8
102
{ACAD_XDICTIONARY
360
1775
102
}
102
{ACAD_REACTORS
330
16C5
102
}
330
16C5
100
AcDbVisualStyle
  2
Gouraud
 70
     2
 71
     2
 72
     2
 73
     1
 90
        2
 40
-0.6
 41
30.0
 62
     5
 63
     7
 74
     0
 91
        4
 64
     7
 65
   257
 75
     1
175
     1
 42
1.0
 92
        0
 66
     7
 43
1.0
 76
     1
 77
     6
 78
     2
 67
     7
 79
     5
170
     0
171
     0
290
     0
174
     0
 93
       13
 44
0.0
173
     0
291
     1
 45
0.0
1001
ACAD
1000
AcDbSavedByObjectVersion
1070
     0
  0
VISUALSTYLE
  5
16C9
102
{ACAD_XDICTIONARY
360
1777
102
}
102
{ACAD_REACTORS
330
16C5
102
}
330
16C5
100
AcDbVisualStyle
  2
GouraudWithEdges
 70
     3
 71
     2
 72
     2
 73
     1
 90
        2
 40
-0.6
 41
30.0
 62
     5
 63
     7
 74
     1
 91
        4
 64
     7
 65
   257
 75
     1
175
     1
 42
1.0
 92
        0
 66
   257
 43
1.0
 76
     1
 77
     6
 78
     2
 67
     7
 79
     5
170
     0
171
     0
290
     0
174
     0
 93
       13
 44
0.0
173
     0
291
     1
 45
0.0
1001
ACAD
1000
AcDbSavedByObjectVersion
1070
     0
  0
VISUALSTYLE
  5
16D6
102
{ACAD_XDICTIONARY
360
1791
102
}
102
{ACAD_REACTORS
330
16C5
102
}
330
16C5
100
AcDbVisualStyle
  2
JitterOff
 70
    20
 71
     2
 72
     2
 73
     0
 90
        0
 40
-0.6
 41
-30.0
 62
     5
 63
     7
 74
     1
 91
        4
 64
     7
 65
   257
 75
     1
175
     1
 42
1.0
 92
       10
 66
     7
 43
1.0
 76
     1
 77
     6
 78
     2
 67
     7
 79
     5
170
     0
171
     0
290
     0
174
     0
 93
        1
 44
0.0
173
     0
291
     1
 45
0.0
1001
ACAD
1000
AcDbSavedByObjectVersion
1070
     0
  0
VISUALSTYLE
  5
16D3
102
{ACAD_XDICTIONARY
360
178B
102
}
102
{ACAD_REACTORS
330
16C5
102
}
330
16C5
100
AcDbVisualStyle
  2
Linepattern
 70
    14
 71
     2
 72
     2
 73
     0
 90
        0
 40
-0.6
 41
-30.0
 62
     5
 63
     7
 74
     1
 91
        4
 64
     7
 65
   257
 75
     7
175
     7
 42
1.0
 92
        8
 66
     7
 43
1.0
 76
     1
 77
     6
 78
     2
 67
     7
 79
     5
170
     0
171
     0
290
     0
174
     0
 93
        1
 44
0.0
173
     0
291
     1
 45
0.0
1001
ACAD
1000
AcDbSavedByObjectVersion
1070
     0
  0
VISUALSTYLE
  5
16D7
102
{ACAD_XDICTIONARY
360
1793
102
}
102
{ACAD_REACTORS
330
16C5
102
}
330
16C5
100
AcDbVisualStyle
  2
OverhangOff
 70
    21
 71
     2
 72
     2
 73
     0
 90
        0
 40
-0.6
 41
-30.0
 62
     5
 63
     7
 74
     1
 91
        4
 64
     7
 65
   257
 75
     1
175
     1
 42
1.0
 92
        9
 66
     7
 43
1.0
 76
     1
 77
     6
 78
     2
 67
     7
 79
     5
170
     0
171
     0
290
     0
174
     0
 93
        1
 44
0.0
173
     0
291
     1
 45
0.0
1001
ACAD
1000
AcDbSavedByObjectVersion
1070
     0
  0
VISUALSTYLE
  5
16CF
102
{ACAD_XDICTIONARY
360
1783
102
}
102
{ACAD_REACTORS
330
16C5
102
}
330
16C5
100
AcDbVisualStyle
  2
Realistic
 70
     8
 71
     2
 72
     2
 73
     0
 90
        0
 40
-0.6
 41
-30.0
 62
     5
 63
     7
 74
     1
 91
        0
 64
     7
 65
   257
 75
     1
175
     1
 42
1.0
 92
        8
 66
     8
 43
1.0
 76
     1
 77
     6
 78
     2
 67
     7
 79
     5
170
     0
171
     0
290
     0
174
     0
 93
       13
 44
0.0
173
     0
291
     0
 45
0.0
1001
ACAD
1000
AcDbSavedByObjectVersion
1070
     0
  0
VISUALSTYLE
  5
16D2
102
{ACAD_XDICTIONARY
360
1789
102
}
102
{ACAD_REACTORS
330
16C5
102
}
330
16C5
100
AcDbVisualStyle
  2
Thicken
 70
    13
 71
     2
 72
     2
 73
     0
 90
        0
 40
-0.6
 41
-30.0
 62
     5
 63
     7
 74
     1
 91
        4
 64
     7
 65
   257
 75
     1
175
     1
 42
1.0
 92
       12
 66
     7
 43
1.0
 76
     1
 77
     6
 78
     2
 67
     7
 79
     5
170
     0
171
     0
290
     0
174
     0
 93
        1
 44
0.0
173
     0
291
     1
 45
0.0
1001
ACAD
1000
AcDbSavedByObjectVersion
1070
     0
  0
DICTIONARYVAR
  5
175E
102
{ACAD_REACTORS
330
3D
102
}
330
3D
100
DictionaryVariables
280
     0
  1
1:1
  0
DICTIONARYVAR
  5
175D
102
{ACAD_REACTORS
330
3D
102
}
330
3D
100
DictionaryVariables
280
     0
  1
STANDARD
  0
DICTIONARYVAR
  5
175C
102
{ACAD_REACTORS
330
3D
102
}
330
3D
100
DictionaryVariables
280
     0
  1
STANDARD
  0
DICTIONARYVAR
  5
3F
102
{ACAD_REACTORS
330
3D
102
}
330
3D
100
DictionaryVariables
280
     0
  1
2
  0
DICTIONARYVAR
  5
3E
102
{ACAD_REACTORS
330
3D
102
}
330
3D
100
DictionaryVariables
280
     0
  1
1
  0
DICTIONARYVAR
  5
1760
102
{ACAD_REACTORS
330
3D
102
}
330
3D
100
DictionaryVariables
280
     0
  1
0
  0
DICTIONARYVAR
  5
175F
102
{ACAD_REACTORS
330
3D
102
}
330
3D
100
DictionaryVariables
280
     0
  1
127
  0
DICTIONARYVAR
  5
1761
102
{ACAD_REACTORS
330
3D
102
}
330
3D
100
DictionaryVariables
280
     0
  1
2
  0
XRECORD
  5
B92
102
{ACAD_REACTORS
330
B91
102
}
330
B91
100
AcDbXrecord
280
     1
  0
DICTIONARY
  5
1766
330
1E
100
AcDbDictionary
280
     1
281
     1
  3
ACAD_XREC_ROUNDTRIP
360
1767
  0
DICTIONARY
  5
176A
330
26
100
AcDbDictionary
280
     1
281
     1
  3
ACAD_XREC_ROUNDTRIP
360
176B
  0
DICTIONARY
  5
1768
330
22
100
AcDbDictionary
280
     1
281
     1
  3
ACAD_XREC_ROUNDTRIP
360
1769
  0
DICTIONARY
  5
16B6
330
16B5
100
AcDbDictionary
280
     1
281
     1
  3
ACAD_XREC_ROUNDTRIP
360
176F
  3
BUMPTILE
360
16B8
  3
DIFFUSETILE
360
16B7
  3
OPACITYTILE
360
16BB
  3
REFLECTIONTILE
360
16BA
  3
REFRACTIONTILE
360
16BC
  3
SPECULARTILE
360
16B9
  0
DICTIONARY
  5
16AE
330
16AD
100
AcDbDictionary
280
     1
281
     1
  3
ACAD_XREC_ROUNDTRIP
360
176E
  3
BUMPTILE
360
16B0
  3
DIFFUSETILE
360
16AF
  3
OPACITYTILE
360
16B3
  3
REFLECTIONTILE
360
16B2
  3
REFRACTIONTILE
360
16B4
  3
SPECULARTILE
360
16B1
  0
DICTIONARY
  5
16BE
330
16BD
100
AcDbDictionary
280
     1
281
     1
  3
ACAD_XREC_ROUNDTRIP
360
1770
  3
BUMPTILE
360
16C0
  3
DIFFUSETILE
360
16BF
  3
OPACITYTILE
360
16C3
  3
REFLECTIONTILE
360
16C2
  3
REFRACTIONTILE
360
16C4
  3
SPECULARTILE
360
16C1
  0
DICTIONARY
  5
1762
330
16DB
100
AcDbDictionary
280
     1
281
     1
  3
ACAD_ROUNDTRIP_2008_TABLESTYLE_CELLSTYLEMAP
360
1763
  3
ACAD_XREC_ROUNDTRIP
360
1797
  0
DICTIONARY
  5
177B
330
16CB
100
AcDbDictionary
280
     1
281
     1
  3
ACAD_XREC_ROUNDTRIP
360
177C
  0
DICTIONARY
  5
177F
330
16CD
100
AcDbDictionary
280
     1
281
     1
  3
ACAD_XREC_ROUNDTRIP
360
1780
  0
DICTIONARY
  5
177D
330
16CC
100
AcDbDictionary
280
     1
281
     1
  3
ACAD_XREC_ROUNDTRIP
360
177E
  0
DICTIONARY
  5
1779
330
16CA
100
AcDbDictionary
280
     1
281
     1
  3
ACAD_XREC_ROUNDTRIP
360
177A
  0
DICTIONARY
  5
1787
330
16D1
100
AcDbDictionary
280
     1
281
     1
  3
ACAD_XREC_ROUNDTRIP
360
1788
  0
DICTIONARY
  5
178F
330
16D5
100
AcDbDictionary
280
     1
281
     1
  3
ACAD_XREC_ROUNDTRIP
360
1790
  0
DICTIONARY
  5
1781
330
16CE
100
AcDbDictionary
280
     1
281
     1
  3
ACAD_XREC_ROUNDTRIP
360
1782
  0
DICTIONARY
  5
1785
330
16D0
100
AcDbDictionary
280
     1
281
     1
  3
ACAD_XREC_ROUNDTRIP
360
1786
  0
DICTIONARY
  5
1795
330
16D8
100
AcDbDictionary
280
     1
281
     1
  3
ACAD_XREC_ROUNDTRIP
360
1796
  0
DICTIONARY
  5
178D
330
16D4
100
AcDbDictionary
280
     1
281
     1
  3
ACAD_XREC_ROUNDTRIP
360
178E
  0
DICTIONARY
  5
1771
330
16C6
100
AcDbDictionary
280
     1
281
     1
  3
ACAD_XREC_ROUNDTRIP
360
1772
  0
DICTIONARY
  5
1773
330
16C7
100
AcDbDictionary
280
     1
281
     1
  3
ACAD_XREC_ROUNDTRIP
360
1774
  0
DICTIONARY
  5
1775
330
16C8
100
AcDbDictionary
280
     1
281
     1
  3
ACAD_XREC_ROUNDTRIP
360
1776
  0
DICTIONARY
  5
1777
330
16C9
100
AcDbDictionary
280
     1
281
     1
  3
ACAD_XREC_ROUNDTRIP
360
1778
  0
DICTIONARY
  5
1791
330
16D6
100
AcDbDictionary
280
     1
281
     1
  3
ACAD_XREC_ROUNDTRIP
360
1792
  0
DICTIONARY
  5
178B
330
16D3
100
AcDbDictionary
280
     1
281
     1
  3
ACAD_XREC_ROUNDTRIP
360
178C
  0
DICTIONARY
  5
1793
330
16D7
100
AcDbDictionary
280
     1
281
     1
  3
ACAD_XREC_ROUNDTRIP
360
1794
  0
DICTIONARY
  5
1783
330
16CF
100
AcDbDictionary
280
     1
281
     1
  3
ACAD_XREC_ROUNDTRIP
360
1784
  0
DICTIONARY
  5
1789
330
16D2
100
AcDbDictionary
280
     1
281
     1
  3
ACAD_XREC_ROUNDTRIP
360
178A
  0
XRECORD
  5
1767
102
{ACAD_REACTORS
330
1766
102
}
330
1766
100
AcDbXrecord
280
     1
102
SHADEPLOT
 70
     0
102
SHADEPLOTRESLEVEL
 70
     2
102
SHADEPLOTCUSTOMDPI
 70
   300
  0
XRECORD
  5
176B
102
{ACAD_REACTORS
330
176A
102
}
330
176A
100
AcDbXrecord
280
     1
102
SHADEPLOT
 70
     0
102
SHADEPLOTRESLEVEL
 70
     2
102
SHADEPLOTCUSTOMDPI
 70
   300
  0
XRECORD
  5
1769
102
{ACAD_REACTORS
330
1768
102
}
330
1768
100
AcDbXrecord
280
     1
102
SHADEPLOT
 70
     0
102
SHADEPLOTRESLEVEL
 70
     2
102
SHADEPLOTCUSTOMDPI
 70
   300
  0
XRECORD
  5
176F
102
{ACAD_REACTORS
330
16B6
102
}
330
16B6
100
AcDbXrecord
280
     1
102
MATERIAL
148
0.0
149
0.0
149
0.0
 93
        0
 94
      127
282
     0
 72
     0
 77
     0
171
     0
175
     0
179
     0
273
     0
  0
XRECORD
  5
16B8
102
{ACAD_REACTORS
330
16B6
102
}
330
16B6
100
AcDbXrecord
280
     1
270
     1
271
     1
  0
XRECORD
  5
16B7
102
{ACAD_REACTORS
330
16B6
102
}
330
16B6
100
AcDbXrecord
280
     1
270
     1
271
     1
  0
XRECORD
  5
16BB
102
{ACAD_REACTORS
330
16B6
102
}
330
16B6
100
AcDbXrecord
280
     1
270
     1
271
     1
  0
XRECORD
  5
16BA
102
{ACAD_REACTORS
330
16B6
102
}
330
16B6
100
AcDbXrecord
280
     1
270
     1
271
     1
  0
XRECORD
  5
16BC
102
{ACAD_REACTORS
330
16B6
102
}
330
16B6
100
AcDbXrecord
280
     1
270
     1
271
     1
  0
XRECORD
  5
16B9
102
{ACAD_REACTORS
330
16B6
102
}
330
16B6
100
AcDbXrecord
280
     1
270
     1
271
     1
  0
XRECORD
  5
176E
102
{ACAD_REACTORS
330
16AE
102
}
330
16AE
100
AcDbXrecord
280
     1
102
MATERIAL
148
0.0
149
0.0
149
0.0
 93
        0
 94
      127
282
     0
 72
     0
 77
     0
171
     0
175
     0
179
     0
273
     0
  0
XRECORD
  5
16B0
102
{ACAD_REACTORS
330
16AE
102
}
330
16AE
100
AcDbXrecord
280
     1
270
     1
271
     1
  0
XRECORD
  5
16AF
102
{ACAD_REACTORS
330
16AE
102
}
330
16AE
100
AcDbXrecord
280
     1
270
     1
271
     1
  0
XRECORD
  5
16B3
102
{ACAD_REACTORS
330
16AE
102
}
330
16AE
100
AcDbXrecord
280
     1
270
     1
271
     1
  0
XRECORD
  5
16B2
102
{ACAD_REACTORS
330
16AE
102
}
330
16AE
100
AcDbXrecord
280
     1
270
     1
271
     1
  0
XRECORD
  5
16B4
102
{ACAD_REACTORS
330
16AE
102
}
330
16AE
100
AcDbXrecord
280
     1
270
     1
271
     1
  0
XRECORD
  5
16B1
102
{ACAD_REACTORS
330
16AE
102
}
330
16AE
100
AcDbXrecord
280
     1
270
     1
271
     1
  0
XRECORD
  5
1770
102
{ACAD_REACTORS
330
16BE
102
}
330
16BE
100
AcDbXrecord
280
     1
102
MATERIAL
148
0.0
149
0.0
149
0.0
 93
        0
 94
      127
282
     0
 72
     0
 77
     0
171
     0
175
     0
179
     0
273
     0
  0
XRECORD
  5
16C0
102
{ACAD_REACTORS
330
16BE
102
}
330
16BE
100
AcDbXrecord
280
     1
270
     1
271
     1
  0
XRECORD
  5
16BF
102
{ACAD_REACTORS
330
16BE
102
}
330
16BE
100
AcDbXrecord
280
     1
270
     1
271
     1
  0
XRECORD
  5
16C3
102
{ACAD_REACTORS
330
16BE
102
}
330
16BE
100
AcDbXrecord
280
     1
270
     1
271
     1
  0
XRECORD
  5
16C2
102
{ACAD_REACTORS
330
16BE
102
}
330
16BE
100
AcDbXrecord
280
     1
270
     1
271
     1
  0
XRECORD
  5
16C4
102
{ACAD_REACTORS
330
16BE
102
}
330
16BE
100
AcDbXrecord
280
     1
270
     1
271
     1
  0
XRECORD
  5
16C1
102
{ACAD_REACTORS
330
16BE
102
}
330
16BE
100
AcDbXrecord
280
     1
270
     1
271
     1
  0
CELLSTYLEMAP
  5
1763
102
{ACAD_REACTORS
330
1762
102
}
330
1762
100
AcDbCellStyleMap
 90
        3
300
CELLSTYLE
  1
TABLEFORMAT_BEGIN
 90
        5
170
     1
 91
        0
 92
    32768
 62
   257
 93
        1
300
CONTENTFORMAT
  1
CONTENTFORMAT_BEGIN
 90
        0
 91
        0
 92
      512
 93
        0
300

 40
0.0
140
1.0
 94
        5
 62
     0
340
11
144
6.0
309
CONTENTFORMAT_END
171
     1
301
MARGIN
  1
CELLMARGIN_BEGIN
 40
1.5
 40
1.5
 40
1.5
 40
1.5
 40
4.5
 40
4.5
309
CELLMARGIN_END
 94
        6
 95
        1
302
GRIDFORMAT
  1
GRIDFORMAT_BEGIN
 90
        0
 91
        1
 62
     0
 92
       -2
340
0
 93
        0
 40
1.125
309
GRIDFORMAT_END
 95
        2
302
GRIDFORMAT
  1
GRIDFORMAT_BEGIN
 90
        0
 91
        1
 62
     0
 92
       -2
340
0
 93
        0
 40
1.125
309
GRIDFORMAT_END
 95
        4
302
GRIDFORMAT
  1
GRIDFORMAT_BEGIN
 90
        0
 91
        1
 62
     0
 92
       -2
340
0
 93
        0
 40
1.125
309
GRIDFORMAT_END
 95
        8
302
GRIDFORMAT
  1
GRIDFORMAT_BEGIN
 90
        0
 91
        1
 62
     0
 92
       -2
340
0
 93
        0
 40
1.125
309
GRIDFORMAT_END
 95
       16
302
GRIDFORMAT
  1
GRIDFORMAT_BEGIN
 90
        0
 91
        1
 62
     0
 92
       -2
340
0
 93
        0
 40
1.125
309
GRIDFORMAT_END
 95
       32
302
GRIDFORMAT
  1
GRIDFORMAT_BEGIN
 90
        0
 91
        1
 62
     0
 92
       -2
340
0
 93
        0
 40
1.125
309
GRIDFORMAT_END
309
TABLEFORMAT_END
  1
CELLSTYLE_BEGIN
 90
        1
 91
        1
300
_TITLE
309
CELLSTYLE_END
300
CELLSTYLE
  1
TABLEFORMAT_BEGIN
 90
        5
170
     1
 91
        0
 92
        0
 62
   257
 93
        1
300
CONTENTFORMAT
  1
CONTENTFORMAT_BEGIN
 90
        0
 91
        0
 92
      512
 93
        0
300

 40
0.0
140
1.0
 94
        5
 62
     0
340
11
144
4.5
309
CONTENTFORMAT_END
171
     1
301
MARGIN
  1
CELLMARGIN_BEGIN
 40
1.5
 40
1.5
 40
1.5
 40
1.5
 40
4.5
 40
4.5
309
CELLMARGIN_END
 94
        6
 95
        1
302
GRIDFORMAT
  1
GRIDFORMAT_BEGIN
 90
        0
 91
        1
 62
     0
 92
       -2
340
0
 93
        0
 40
1.125
309
GRIDFORMAT_END
 95
        2
302
GRIDFORMAT
  1
GRIDFORMAT_BEGIN
 90
        0
 91
        1
 62
     0
 92
       -2
340
0
 93
        0
 40
1.125
309
GRIDFORMAT_END
 95
        4
302
GRIDFORMAT
  1
GRIDFORMAT_BEGIN
 90
        0
 91
        1
 62
     0
 92
       -2
340
0
 93
        0
 40
1.125
309
GRIDFORMAT_END
 95
        8
302
GRIDFORMAT
  1
GRIDFORMAT_BEGIN
 90
        0
 91
        1
 62
     0
 92
       -2
340
0
 93
        0
 40
1.125
309
GRIDFORMAT_END
 95
       16
302
GRIDFORMAT
  1
GRIDFORMAT_BEGIN
 90
        0
 91
        1
 62
     0
 92
       -2
340
0
 93
        0
 40
1.125
309
GRIDFORMAT_END
 95
       32
302
GRIDFORMAT
  1
GRIDFORMAT_BEGIN
 90
        0
 91
        1
 62
     0
 92
       -2
340
0
 93
        0
 40
1.125
309
GRIDFORMAT_END
309
TABLEFORMAT_END
  1
CELLSTYLE_BEGIN
 90
        2
 91
        1
300
_HEADER
309
CELLSTYLE_END
300
CELLSTYLE
  1
TABLEFORMAT_BEGIN
 90
        5
170
     1
 91
        0
 92
        0
 62
   257
 93
        1
300
CONTENTFORMAT
  1
CONTENTFORMAT_BEGIN
 90
        0
 91
        0
 92
      512
 93
        0
300

 40
0.0
140
1.0
 94
        2
 62
     0
340
11
144
4.5
309
CONTENTFORMAT_END
171
     1
301
MARGIN
  1
CELLMARGIN_BEGIN
 40
1.5
 40
1.5
 40
1.5
 40
1.5
 40
4.5
 40
4.5
309
CELLMARGIN_END
 94
        6
 95
        1
302
GRIDFORMAT
  1
GRIDFORMAT_BEGIN
 90
        0
 91
        1
 62
     0
 92
       -2
340
0
 93
        0
 40
1.125
309
GRIDFORMAT_END
 95
        2
302
GRIDFORMAT
  1
GRIDFORMAT_BEGIN
 90
        0
 91
        1
 62
     0
 92
       -2
340
0
 93
        0
 40
1.125
309
GRIDFORMAT_END
 95
        4
302
GRIDFORMAT
  1
GRIDFORMAT_BEGIN
 90
        0
 91
        1
 62
     0
 92
       -2
340
0
 93
        0
 40
1.125
309
GRIDFORMAT_END
 95
        8
302
GRIDFORMAT
  1
GRIDFORMAT_BEGIN
 90
        0
 91
        1
 62
     0
 92
       -2
340
0
 93
        0
 40
1.125
309
GRIDFORMAT_END
 95
       16
302
GRIDFORMAT
  1
GRIDFORMAT_BEGIN
 90
        0
 91
        1
 62
     0
 92
       -2
340
0
 93
        0
 40
1.125
309
GRIDFORMAT_END
 95
       32
302
GRIDFORMAT
  1
GRIDFORMAT_BEGIN
 90
        0
 91
        1
 62
     0
 92
       -2
340
0
 93
        0
 40
1.125
309
GRIDFORMAT_END
309
TABLEFORMAT_END
  1
CELLSTYLE_BEGIN
 90
        3
 91
        2
300
_DATA
309
CELLSTYLE_END
  0
XRECORD
  5
1797
102
{ACAD_REACTORS
330
1762
102
}
330
1762
100
AcDbXrecord
280
     1
102
ACAD_ROUNDTRIP_PRE2007_TABLESTYLE
 90
      512
 91
        0
  1

 92
      512
 93
        0
  2

 94
      512
 95
        0
  3

  0
XRECORD
  5
177C
102
{ACAD_REACTORS
330
177B
102
}
330
177B
100
AcDbXrecord
280
     1
102
RTVSPropertyOp0
 70
     1
102
RTVSPropertyOp1
 70
     1
102
RTVSPropertyOp2
 70
     1
102
RTVSPropertyOp3
 70
     1
102
RTVSPropertyOp4
 70
     1
102
RTVSPropertyOp5
 70
     1
102
RTVSPropertyOp6
 70
     1
102
RTVSPropertyOp7
 70
     1
102
RTVSPropertyOp8
 70
     1
102
RTVSPropertyOp9
 70
     1
102
RTVSPropertyOp10
 70
     1
102
RTVSPropertyOp11
 70
     1
102
RTVSPropertyOp12
 70
     1
102
RTVSPropertyOp13
 70
     1
102
RTVSPropertyOp14
 70
     1
102
RTVSPropertyOp15
 70
     1
102
RTVSPropertyOp16
 70
     1
102
RTVSPropertyOp17
 70
     1
102
RTVSPropertyOp18
 70
     1
102
RTVSPropertyOp19
 70
     1
102
RTVSPropertyOp20
 70
     1
102
RTVSPropertyOp21
 70
     1
102
RTVSPropertyOp22
 70
     1
102
RTVSPropertyOp23
 70
     1
102
RTVSPropertyOp24
 70
     1
102
RTVSPropertyOp25
 70
     1
102
RTVSPropertyOp26
 70
     1
102
RTVSPropertyOp27
 70
     1
  0
XRECORD
  5
1780
102
{ACAD_REACTORS
330
177F
102
}
330
177F
100
AcDbXrecord
280
     1
102
RTVSPropertyOp0
 70
     1
102
RTVSPropertyOp1
 70
     1
102
RTVSPropertyOp2
 70
     1
102
RTVSPropertyOp3
 70
     1
102
RTVSPropertyOp4
 70
     1
102
RTVSPropertyOp5
 70
     1
102
RTVSPropertyOp6
 70
     1
102
RTVSPropertyOp7
 70
     1
102
RTVSPropertyOp8
 70
     1
102
RTVSPropertyOp9
 70
     1
102
RTVSPropertyOp10
 70
     1
102
RTVSPropertyOp11
 70
     1
102
RTVSPropertyOp12
 70
     1
102
RTVSPropertyOp13
 70
     1
102
RTVSPropertyOp14
 70
     1
102
RTVSPropertyOp15
 70
     1
102
RTVSPropertyOp16
 70
     1
102
RTVSPropertyOp17
 70
     1
102
RTVSPropertyOp18
 70
     1
102
RTVSPropertyOp19
 70
     1
102
RTVSPropertyOp20
 70
     1
102
RTVSPropertyOp21
 70
     1
102
RTVSPropertyOp22
 70
     1
102
RTVSPropertyOp23
 70
     1
102
RTVSPropertyOp24
 70
     1
102
RTVSPropertyOp25
 70
     1
102
RTVSPropertyOp26
 70
     1
102
RTVSPropertyOp27
 70
     1
  0
XRECORD
  5
177E
102
{ACAD_REACTORS
330
177D
102
}
330
177D
100
AcDbXrecord
280
     1
102
RTVSPropertyOp0
 70
     1
102
RTVSPropertyOp1
 70
     1
102
RTVSPropertyOp2
 70
     1
102
RTVSPropertyOp3
 70
     1
102
RTVSPropertyOp4
 70
     1
102
RTVSPropertyOp5
 70
     1
102
RTVSPropertyOp6
 70
     1
102
RTVSPropertyOp7
 70
     1
102
RTVSPropertyOp8
 70
     1
102
RTVSPropertyOp9
 70
     1
102
RTVSPropertyOp10
 70
     1
102
RTVSPropertyOp11
 70
     1
102
RTVSPropertyOp12
 70
     1
102
RTVSPropertyOp13
 70
     1
102
RTVSPropertyOp14
 70
     1
102
RTVSPropertyOp15
 70
     1
102
RTVSPropertyOp16
 70
     1
102
RTVSPropertyOp17
 70
     1
102
RTVSPropertyOp18
 70
     1
102
RTVSPropertyOp19
 70
     1
102
RTVSPropertyOp20
 70
     1
102
RTVSPropertyOp21
 70
     1
102
RTVSPropertyOp22
 70
     1
102
RTVSPropertyOp23
 70
     1
102
RTVSPropertyOp24
 70
     1
102
RTVSPropertyOp25
 70
     1
102
RTVSPropertyOp26
 70
     1
102
RTVSPropertyOp27
 70
     1
  0
XRECORD
  5
177A
102
{ACAD_REACTORS
330
1779
102
}
330
1779
100
AcDbXrecord
280
     1
102
RTVSPropertyOp0
 70
     1
102
RTVSPropertyOp1
 70
     1
102
RTVSPropertyOp2
 70
     1
102
RTVSPropertyOp3
 70
     1
102
RTVSPropertyOp4
 70
     1
102
RTVSPropertyOp5
 70
     1
102
RTVSPropertyOp6
 70
     1
102
RTVSPropertyOp7
 70
     1
102
RTVSPropertyOp8
 70
     1
102
RTVSPropertyOp9
 70
     1
102
RTVSPropertyOp10
 70
     1
102
RTVSPropertyOp11
 70
     1
102
RTVSPropertyOp12
 70
     1
102
RTVSPropertyOp13
 70
     1
102
RTVSPropertyOp14
 70
     1
102
RTVSPropertyOp15
 70
     1
102
RTVSPropertyOp16
 70
     1
102
RTVSPropertyOp17
 70
     1
102
RTVSPropertyOp18
 70
     1
102
RTVSPropertyOp19
 70
     1
102
RTVSPropertyOp20
 70
     1
102
RTVSPropertyOp21
 70
     1
102
RTVSPropertyOp22
 70
     1
102
RTVSPropertyOp23
 70
     1
102
RTVSPropertyOp24
 70
     1
102
RTVSPropertyOp25
 70
     1
102
RTVSPropertyOp26
 70
     1
102
RTVSPropertyOp27
 70
     1
  0
XRECORD
  5
1788
102
{ACAD_REACTORS
330
1787
102
}
330
1787
100
AcDbXrecord
280
     1
102
RTVSPropertyOp0
 70
     1
102
RTVSPropertyOp1
 70
     1
102
RTVSPropertyOp2
 70
     1
102
RTVSPropertyOp3
 70
     1
102
RTVSPropertyOp4
 70
     1
102
RTVSPropertyOp5
 70
     1
102
RTVSPropertyOp6
 70
     1
102
RTVSPropertyOp7
 70
     1
102
RTVSPropertyOp8
 70
     1
102
RTVSPropertyOp9
 70
     1
102
RTVSPropertyOp10
 70
     1
102
RTVSPropertyOp11
 70
     1
102
RTVSPropertyOp12
 70
     1
102
RTVSPropertyOp13
 70
     1
102
RTVSPropertyOp14
 70
     1
102
RTVSPropertyOp15
 70
     1
102
RTVSPropertyOp16
 70
     1
102
RTVSPropertyOp17
 70
     1
102
RTVSPropertyOp18
 70
     1
102
RTVSPropertyOp19
 70
     1
102
RTVSPropertyOp20
 70
     1
102
RTVSPropertyOp21
 70
     1
102
RTVSPropertyOp22
 70
     1
102
RTVSPropertyOp23
 70
     1
102
RTVSPropertyOp24
 70
     1
102
RTVSPropertyOp25
 70
     1
102
RTVSPropertyOp26
 70
     1
102
RTVSPropertyOp27
 70
     1
  0
XRECORD
  5
1790
102
{ACAD_REACTORS
330
178F
102
}
330
178F
100
AcDbXrecord
280
     1
102
RTVSPropertyOp0
 70
     1
102
RTVSPropertyOp1
 70
     1
102
RTVSPropertyOp2
 70
     1
102
RTVSPropertyOp3
 70
     1
102
RTVSPropertyOp4
 70
     1
102
RTVSPropertyOp5
 70
     1
102
RTVSPropertyOp6
 70
     1
102
RTVSPropertyOp7
 70
     1
102
RTVSPropertyOp8
 70
     1
102
RTVSPropertyOp9
 70
     1
102
RTVSPropertyOp10
 70
     1
102
RTVSPropertyOp11
 70
     1
102
RTVSPropertyOp12
 70
     1
102
RTVSPropertyOp13
 70
     1
102
RTVSPropertyOp14
 70
     1
102
RTVSPropertyOp15
 70
     1
102
RTVSPropertyOp16
 70
     1
102
RTVSPropertyOp17
 70
     1
102
RTVSPropertyOp18
 70
     1
102
RTVSPropertyOp19
 70
     1
102
RTVSPropertyOp20
 70
     1
102
RTVSPropertyOp21
 70
     1
102
RTVSPropertyOp22
 70
     1
102
RTVSPropertyOp23
 70
     1
102
RTVSPropertyOp24
 70
     1
102
RTVSPropertyOp25
 70
     1
102
RTVSPropertyOp26
 70
     1
102
RTVSPropertyOp27
 70
     1
  0
XRECORD
  5
1782
102
{ACAD_REACTORS
330
1781
102
}
330
1781
100
AcDbXrecord
280
     1
102
RTVSPropertyOp0
 70
     1
102
RTVSPropertyOp1
 70
     1
102
RTVSPropertyOp2
 70
     1
102
RTVSPropertyOp3
 70
     1
102
RTVSPropertyOp4
 70
     1
102
RTVSPropertyOp5
 70
     1
102
RTVSPropertyOp6
 70
     1
102
RTVSPropertyOp7
 70
     1
102
RTVSPropertyOp8
 70
     1
102
RTVSPropertyOp9
 70
     1
102
RTVSPropertyOp10
 70
     1
102
RTVSPropertyOp11
 70
     1
102
RTVSPropertyOp12
 70
     1
102
RTVSPropertyOp13
 70
     1
102
RTVSPropertyOp14
 70
     1
102
RTVSPropertyOp15
 70
     1
102
RTVSPropertyOp16
 70
     1
102
RTVSPropertyOp17
 70
     1
102
RTVSPropertyOp18
 70
     1
102
RTVSPropertyOp19
 70
     1
102
RTVSPropertyOp20
 70
     1
102
RTVSPropertyOp21
 70
     1
102
RTVSPropertyOp22
 70
     1
102
RTVSPropertyOp23
 70
     1
102
RTVSPropertyOp24
 70
     1
102
RTVSPropertyOp25
 70
     1
102
RTVSPropertyOp26
 70
     1
102
RTVSPropertyOp27
 70
     1
  0
XRECORD
  5
1786
102
{ACAD_REACTORS
330
1785
102
}
330
1785
100
AcDbXrecord
280
     1
102
RTVSPropertyOp0
 70
     1
102
RTVSPropertyOp1
 70
     1
102
RTVSPropertyOp2
 70
     1
102
RTVSPropertyOp3
 70
     1
102
RTVSPropertyOp4
 70
     1
102
RTVSPropertyOp5
 70
     1
102
RTVSPropertyOp6
 70
     1
102
RTVSPropertyOp7
 70
     1
102
RTVSPropertyOp8
 70
     1
102
RTVSPropertyOp9
 70
     1
102
RTVSPropertyOp10
 70
     1
102
RTVSPropertyOp11
 70
     1
102
RTVSPropertyOp12
 70
     1
102
RTVSPropertyOp13
 70
     1
102
RTVSPropertyOp14
 70
     1
102
RTVSPropertyOp15
 70
     1
102
RTVSPropertyOp16
 70
     1
102
RTVSPropertyOp17
 70
     1
102
RTVSPropertyOp18
 70
     1
102
RTVSPropertyOp19
 70
     1
102
RTVSPropertyOp20
 70
     1
102
RTVSPropertyOp21
 70
     1
102
RTVSPropertyOp22
 70
     1
102
RTVSPropertyOp23
 70
     1
102
RTVSPropertyOp24
 70
     1
102
RTVSPropertyOp25
 70
     1
102
RTVSPropertyOp26
 70
     1
102
RTVSPropertyOp27
 70
     1
  0
XRECORD
  5
1796
102
{ACAD_REACTORS
330
1795
102
}
330
1795
100
AcDbXrecord
280
     1
102
RTVSPropertyOp0
 70
     0
102
RTVSPropertyOp1
 70
     0
102
RTVSPropertyOp2
 70
     0
102
RTVSPropertyOp3
 70
     0
102
RTVSPropertyOp4
 70
     0
102
RTVSPropertyOp5
 70
     0
102
RTVSPropertyOp6
 70
     0
102
RTVSPropertyOp7
 70
     0
102
RTVSPropertyOp8
 70
     0
102
RTVSPropertyOp9
 70
     0
102
RTVSPropertyOp10
 70
     0
102
RTVSPropertyOp11
 70
     0
102
RTVSPropertyOp12
 70
     0
102
RTVSPropertyOp13
 70
     0
102
RTVSPropertyOp14
 70
     2
102
RTVSPropertyOp15
 70
     0
102
RTVSPropertyOp16
 70
     0
102
RTVSPropertyOp17
 70
     0
102
RTVSPropertyOp18
 70
     0
102
RTVSPropertyOp19
 70
     0
102
RTVSPropertyOp20
 70
     0
102
RTVSPropertyOp21
 70
     0
102
RTVSPropertyOp22
 70
     0
102
RTVSPropertyOp23
 70
     0
102
RTVSPropertyOp24
 70
     0
102
RTVSPropertyOp25
 70
     0
102
RTVSPropertyOp26
 70
     0
102
RTVSPropertyOp27
 70
     0
  0
XRECORD
  5
178E
102
{ACAD_REACTORS
330
178D
102
}
330
178D
100
AcDbXrecord
280
     1
102
RTVSPropertyOp0
 70
     1
102
RTVSPropertyOp1
 70
     1
102
RTVSPropertyOp2
 70
     1
102
RTVSPropertyOp3
 70
     1
102
RTVSPropertyOp4
 70
     1
102
RTVSPropertyOp5
 70
     1
102
RTVSPropertyOp6
 70
     1
102
RTVSPropertyOp7
 70
     1
102
RTVSPropertyOp8
 70
     1
102
RTVSPropertyOp9
 70
     1
102
RTVSPropertyOp10
 70
     1
102
RTVSPropertyOp11
 70
     1
102
RTVSPropertyOp12
 70
     1
102
RTVSPropertyOp13
 70
     1
102
RTVSPropertyOp14
 70
     1
102
RTVSPropertyOp15
 70
     1
102
RTVSPropertyOp16
 70
     1
102
RTVSPropertyOp17
 70
     1
102
RTVSPropertyOp18
 70
     1
102
RTVSPropertyOp19
 70
     1
102
RTVSPropertyOp20
 70
     1
102
RTVSPropertyOp21
 70
     1
102
RTVSPropertyOp22
 70
     1
102
RTVSPropertyOp23
 70
     1
102
RTVSPropertyOp24
 70
     1
102
RTVSPropertyOp25
 70
     1
102
RTVSPropertyOp26
 70
     1
102
RTVSPropertyOp27
 70
     1
  0
XRECORD
  5
1772
102
{ACAD_REACTORS
330
1771
102
}
330
1771
100
AcDbXrecord
280
     1
102
RTVSPropertyOp0
 70
     1
102
RTVSPropertyOp1
 70
     1
102
RTVSPropertyOp2
 70
     1
102
RTVSPropertyOp3
 70
     1
102
RTVSPropertyOp4
 70
     1
102
RTVSPropertyOp5
 70
     1
102
RTVSPropertyOp6
 70
     1
102
RTVSPropertyOp7
 70
     1
102
RTVSPropertyOp8
 70
     1
102
RTVSPropertyOp9
 70
     1
102
RTVSPropertyOp10
 70
     1
102
RTVSPropertyOp11
 70
     1
102
RTVSPropertyOp12
 70
     1
102
RTVSPropertyOp13
 70
     1
102
RTVSPropertyOp14
 70
     1
102
RTVSPropertyOp15
 70
     1
102
RTVSPropertyOp16
 70
     1
102
RTVSPropertyOp17
 70
     1
102
RTVSPropertyOp18
 70
     1
102
RTVSPropertyOp19
 70
     1
102
RTVSPropertyOp20
 70
     1
102
RTVSPropertyOp21
 70
     1
102
RTVSPropertyOp22
 70
     1
102
RTVSPropertyOp23
 70
     1
102
RTVSPropertyOp24
 70
     1
102
RTVSPropertyOp25
 70
     1
102
RTVSPropertyOp26
 70
     1
102
RTVSPropertyOp27
 70
     1
  0
XRECORD
  5
1774
102
{ACAD_REACTORS
330
1773
102
}
330
1773
100
AcDbXrecord
280
     1
102
RTVSPropertyOp0
 70
     1
102
RTVSPropertyOp1
 70
     1
102
RTVSPropertyOp2
 70
     1
102
RTVSPropertyOp3
 70
     1
102
RTVSPropertyOp4
 70
     1
102
RTVSPropertyOp5
 70
     1
102
RTVSPropertyOp6
 70
     1
102
RTVSPropertyOp7
 70
     1
102
RTVSPropertyOp8
 70
     1
102
RTVSPropertyOp9
 70
     1
102
RTVSPropertyOp10
 70
     1
102
RTVSPropertyOp11
 70
     1
102
RTVSPropertyOp12
 70
     1
102
RTVSPropertyOp13
 70
     1
102
RTVSPropertyOp14
 70
     1
102
RTVSPropertyOp15
 70
     1
102
RTVSPropertyOp16
 70
     1
102
RTVSPropertyOp17
 70
     1
102
RTVSPropertyOp18
 70
     1
102
RTVSPropertyOp19
 70
     1
102
RTVSPropertyOp20
 70
     1
102
RTVSPropertyOp21
 70
     1
102
RTVSPropertyOp22
 70
     1
102
RTVSPropertyOp23
 70
     1
102
RTVSPropertyOp24
 70
     1
102
RTVSPropertyOp25
 70
     1
102
RTVSPropertyOp26
 70
     1
102
RTVSPropertyOp27
 70
     1
  0
XRECORD
  5
1776
102
{ACAD_REACTORS
330
1775
102
}
330
1775
100
AcDbXrecord
280
     1
102
RTVSPropertyOp0
 70
     1
102
RTVSPropertyOp1
 70
     1
102
RTVSPropertyOp2
 70
     1
102
RTVSPropertyOp3
 70
     1
102
RTVSPropertyOp4
 70
     1
102
RTVSPropertyOp5
 70
     1
102
RTVSPropertyOp6
 70
     1
102
RTVSPropertyOp7
 70
     1
102
RTVSPropertyOp8
 70
     1
102
RTVSPropertyOp9
 70
     1
102
RTVSPropertyOp10
 70
     1
102
RTVSPropertyOp11
 70
     1
102
RTVSPropertyOp12
 70
     1
102
RTVSPropertyOp13
 70
     1
102
RTVSPropertyOp14
 70
     1
102
RTVSPropertyOp15
 70
     1
102
RTVSPropertyOp16
 70
     1
102
RTVSPropertyOp17
 70
     1
102
RTVSPropertyOp18
 70
     1
102
RTVSPropertyOp19
 70
     1
102
RTVSPropertyOp20
 70
     1
102
RTVSPropertyOp21
 70
     1
102
RTVSPropertyOp22
 70
     1
102
RTVSPropertyOp23
 70
     1
102
RTVSPropertyOp24
 70
     1
102
RTVSPropertyOp25
 70
     1
102
RTVSPropertyOp26
 70
     1
102
RTVSPropertyOp27
 70
     1
  0
XRECORD
  5
1778
102
{ACAD_REACTORS
330
1777
102
}
330
1777
100
AcDbXrecord
280
     1
102
RTVSPropertyOp0
 70
     1
102
RTVSPropertyOp1
 70
     1
102
RTVSPropertyOp2
 70
     1
102
RTVSPropertyOp3
 70
     1
102
RTVSPropertyOp4
 70
     1
102
RTVSPropertyOp5
 70
     1
102
RTVSPropertyOp6
 70
     1
102
RTVSPropertyOp7
 70
     1
102
RTVSPropertyOp8
 70
     1
102
RTVSPropertyOp9
 70
     1
102
RTVSPropertyOp10
 70
     1
102
RTVSPropertyOp11
 70
     1
102
RTVSPropertyOp12
 70
     1
102
RTVSPropertyOp13
 70
     1
102
RTVSPropertyOp14
 70
     1
102
RTVSPropertyOp15
 70
     1
102
RTVSPropertyOp16
 70
     1
102
RTVSPropertyOp17
 70
     1
102
RTVSPropertyOp18
 70
     1
102
RTVSPropertyOp19
 70
     1
102
RTVSPropertyOp20
 70
     1
102
RTVSPropertyOp21
 70
     1
102
RTVSPropertyOp22
 70
     1
102
RTVSPropertyOp23
 70
     1
102
RTVSPropertyOp24
 70
     1
102
RTVSPropertyOp25
 70
     1
102
RTVSPropertyOp26
 70
     1
102
RTVSPropertyOp27
 70
     1
  0
XRECORD
  5
1792
102
{ACAD_REACTORS
330
1791
102
}
330
1791
100
AcDbXrecord
280
     1
102
RTVSPropertyOp0
 70
     0
102
RTVSPropertyOp1
 70
     0
102
RTVSPropertyOp2
 70
     0
102
RTVSPropertyOp3
 70
     0
102
RTVSPropertyOp4
 70
     0
102
RTVSPropertyOp5
 70
     0
102
RTVSPropertyOp6
 70
     0
102
RTVSPropertyOp7
 70
     0
102
RTVSPropertyOp8
 70
     0
102
RTVSPropertyOp9
 70
     0
102
RTVSPropertyOp10
 70
     0
102
RTVSPropertyOp11
 70
     0
102
RTVSPropertyOp12
 70
     0
102
RTVSPropertyOp13
 70
     0
102
RTVSPropertyOp14
 70
     2
102
RTVSPropertyOp15
 70
     0
102
RTVSPropertyOp16
 70
     0
102
RTVSPropertyOp17
 70
     0
102
RTVSPropertyOp18
 70
     0
102
RTVSPropertyOp19
 70
     0
102
RTVSPropertyOp20
 70
     0
102
RTVSPropertyOp21
 70
     0
102
RTVSPropertyOp22
 70
     0
102
RTVSPropertyOp23
 70
     0
102
RTVSPropertyOp24
 70
     0
102
RTVSPropertyOp25
 70
     0
102
RTVSPropertyOp26
 70
     0
102
RTVSPropertyOp27
 70
     0
  0
XRECORD
  5
178C
102
{ACAD_REACTORS
330
178B
102
}
330
178B
100
AcDbXrecord
280
     1
102
RTVSPropertyOp0
 70
     1
102
RTVSPropertyOp1
 70
     1
102
RTVSPropertyOp2
 70
     1
102
RTVSPropertyOp3
 70
     1
102
RTVSPropertyOp4
 70
     1
102
RTVSPropertyOp5
 70
     1
102
RTVSPropertyOp6
 70
     1
102
RTVSPropertyOp7
 70
     1
102
RTVSPropertyOp8
 70
     1
102
RTVSPropertyOp9
 70
     1
102
RTVSPropertyOp10
 70
     1
102
RTVSPropertyOp11
 70
     1
102
RTVSPropertyOp12
 70
     1
102
RTVSPropertyOp13
 70
     1
102
RTVSPropertyOp14
 70
     1
102
RTVSPropertyOp15
 70
     1
102
RTVSPropertyOp16
 70
     1
102
RTVSPropertyOp17
 70
     1
102
RTVSPropertyOp18
 70
     1
102
RTVSPropertyOp19
 70
     1
102
RTVSPropertyOp20
 70
     1
102
RTVSPropertyOp21
 70
     1
102
RTVSPropertyOp22
 70
     1
102
RTVSPropertyOp23
 70
     1
102
RTVSPropertyOp24
 70
     1
102
RTVSPropertyOp25
 70
     1
102
RTVSPropertyOp26
 70
     1
102
RTVSPropertyOp27
 70
     1
  0
XRECORD
  5
1794
102
{ACAD_REACTORS
330
1793
102
}
330
1793
100
AcDbXrecord
280
     1
102
RTVSPropertyOp0
 70
     0
102
RTVSPropertyOp1
 70
     0
102
RTVSPropertyOp2
 70
     0
102
RTVSPropertyOp3
 70
     0
102
RTVSPropertyOp4
 70
     0
102
RTVSPropertyOp5
 70
     0
102
RTVSPropertyOp6
 70
     0
102
RTVSPropertyOp7
 70
     0
102
RTVSPropertyOp8
 70
     0
102
RTVSPropertyOp9
 70
     0
102
RTVSPropertyOp10
 70
     0
102
RTVSPropertyOp11
 70
     0
102
RTVSPropertyOp12
 70
     0
102
RTVSPropertyOp13
 70
     0
102
RTVSPropertyOp14
 70
     2
102
RTVSPropertyOp15
 70
     0
102
RTVSPropertyOp16
 70
     0
102
RTVSPropertyOp17
 70
     0
102
RTVSPropertyOp18
 70
     0
102
RTVSPropertyOp19
 70
     0
102
RTVSPropertyOp20
 70
     0
102
RTVSPropertyOp21
 70
     0
102
RTVSPropertyOp22
 70
     0
102
RTVSPropertyOp23
 70
     0
102
RTVSPropertyOp24
 70
     0
102
RTVSPropertyOp25
 70
     0
102
RTVSPropertyOp26
 70
     0
102
RTVSPropertyOp27
 70
     0
  0
XRECORD
  5
1784
102
{ACAD_REACTORS
330
1783
102
}
330
1783
100
AcDbXrecord
280
     1
102
RTVSPropertyOp0
 70
     1
102
RTVSPropertyOp1
 70
     1
102
RTVSPropertyOp2
 70
     1
102
RTVSPropertyOp3
 70
     1
102
RTVSPropertyOp4
 70
     1
102
RTVSPropertyOp5
 70
     1
102
RTVSPropertyOp6
 70
     1
102
RTVSPropertyOp7
 70
     1
102
RTVSPropertyOp8
 70
     1
102
RTVSPropertyOp9
 70
     1
102
RTVSPropertyOp10
 70
     1
102
RTVSPropertyOp11
 70
     1
102
RTVSPropertyOp12
 70
     1
102
RTVSPropertyOp13
 70
     1
102
RTVSPropertyOp14
 70
     1
102
RTVSPropertyOp15
 70
     1
102
RTVSPropertyOp16
 70
     1
102
RTVSPropertyOp17
 70
     1
102
RTVSPropertyOp18
 70
     1
102
RTVSPropertyOp19
 70
     1
102
RTVSPropertyOp20
 70
     1
102
RTVSPropertyOp21
 70
     1
102
RTVSPropertyOp22
 70
     1
102
RTVSPropertyOp23
 70
     1
102
RTVSPropertyOp24
 70
     1
102
RTVSPropertyOp25
 70
     1
102
RTVSPropertyOp26
 70
     1
102
RTVSPropertyOp27
 70
     1
  0
XRECORD
  5
178A
102
{ACAD_REACTORS
330
1789
102
}
330
1789
100
AcDbXrecord
280
     1
102
RTVSPropertyOp0
 70
     1
102
RTVSPropertyOp1
 70
     1
102
RTVSPropertyOp2
 70
     1
102
RTVSPropertyOp3
 70
     1
102
RTVSPropertyOp4
 70
     1
102
RTVSPropertyOp5
 70
     1
102
RTVSPropertyOp6
 70
     1
102
RTVSPropertyOp7
 70
     1
102
RTVSPropertyOp8
 70
     1
102
RTVSPropertyOp9
 70
     1
102
RTVSPropertyOp10
 70
     1
102
RTVSPropertyOp11
 70
     1
102
RTVSPropertyOp12
 70
     1
102
RTVSPropertyOp13
 70
     1
102
RTVSPropertyOp14
 70
     1
102
RTVSPropertyOp15
 70
     1
102
RTVSPropertyOp16
 70
     1
102
RTVSPropertyOp17
 70
     1
102
RTVSPropertyOp18
 70
     1
102
RTVSPropertyOp19
 70
     1
102
RTVSPropertyOp20
 70
     1
102
RTVSPropertyOp21
 70
     1
102
RTVSPropertyOp22
 70
     1
102
RTVSPropertyOp23
 70
     1
102
RTVSPropertyOp24
 70
     1
102
RTVSPropertyOp25
 70
     1
102
RTVSPropertyOp26
 70
     1
102
RTVSPropertyOp27
 70
     1
  0
ENDSEC
  0
EOF
