  0
SECTION
  2
HEADER
  9
$ACADVER
  1
AC1015
  9
$ACADMAINTVER
 70
    20
  9
$DWGCODEPAGE
  3
ANSI_1252
  9
$INSBASE
 10
0.0
 20
0.0
 30
0.0
  9
$EXTMIN
 10
5840.14714739524
 20
2054.04712195327
 30
-0.0000000017937957
  9
$EXTMAX
 10
5843.613889469363
 20
2055.897361124914
 30
0.0000000001555553
  9
$LIMMIN
 10
0.0
 20
0.0
  9
$LIMMAX
 10
420.0
 20
297.0
  9
$ORTHOMODE
 70
     0
  9
$REGENMODE
 70
     1
  9
$FILLMODE
 70
     1
  9
$QTEXTMODE
 70
     0
  9
$MIRRTEXT
 70
     1
  9
$LTSCALE
 40
1.0
  9
$ATTMODE
 70
     1
  9
$TEXTSIZE
 40
2.5
  9
$TRACEWID
 40
1.0
  9
$TEXTSTYLE
  7
SANINDUSA
  9
$CLAYER
  8
0
  9
$CELTYPE
  6
ByLayer
  9
$CECOLOR
 62
   256
  9
$CELTSCALE
 40
1.0
  9
$DISPSILH
 70
     0
  9
$DIMSCALE
 40
10.0
  9
$DIMASZ
 40
2.0
  9
$DIMEXO
 40
1.0
  9
$DIMDLI
 40
1.0
  9
$DIMRND
 40
0.0
  9
$DIMDLE
 40
0.0
  9
$DIMEXE
 40
1.0
  9
$DIMTP
 40
0.0
  9
$DIMTM
 40
0.0
  9
$DIMTXT
 40
2.0
  9
$DIMCEN
 40
0.0
  9
$DIMTSZ
 40
0.0
  9
$DIMTOL
 70
     0
  9
$DIMLIM
 70
     0
  9
$DIMTIH
 70
     0
  9
$DIMTOH
 70
     0
  9
$DIMSE1
 70
     0
  9
$DIMSE2
 70
     0
  9
$DIMTAD
 70
     1
  9
$DIMZIN
 70
     8
  9
$DIMBLK
  1

  9
$DIMASO
 70
     1
  9
$DIMSHO
 70
     1
  9
$DIMPOST
  1

  9
$DIMAPOST
  1

  9
$DIMALT
 70
     0
  9
$DIMALTD
 70
     3
  9
$DIMALTF
 40
0.03937007874016
  9
$DIMLFAC
 40
1.0
  9
$DIMTOFL
 70
     1
  9
$DIMTVP
 40
0.0
  9
$DIMTIX
 70
     0
  9
$DIMSOXD
 70
     0
  9
$DIMSAH
 70
     0
  9
$DIMBLK1
  1

  9
$DIMBLK2
  1

  9
$DIMSTYLE
  2
SANINDUSA
  9
$DIMCLRD
 70
   256
  9
$DIMCLRE
 70
   256
  9
$DIMCLRT
 70
   256
  9
$DIMTFAC
 40
1.0
  9
$DIMGAP
 40
1.0
  9
$DIMJUST
 70
     0
  9
$DIMSD1
 70
     0
  9
$DIMSD2
 70
     0
  9
$DIMTOLJ
 70
     0
  9
$DIMTZIN
 70
     8
  9
$DIMALTZ
 70
     0
  9
$DIMALTTZ
 70
     0
  9
$DIMUPT
 70
     0
  9
$DIMDEC
 70
     1
  9
$DIMTDEC
 70
     1
  9
$DIMALTU
 70
     2
  9
$DIMALTTD
 70
     3
  9
$DIMTXSTY
  7
SANINDUSA
  9
$DIMAUNIT
 70
     0
  9
$DIMADEC
 70
     1
  9
$DIMALTRND
 40
0.0
  9
$DIMAZIN
 70
     0
  9
$DIMDSEP
 70
    44
  9
$DIMATFIT
 70
     3
  9
$DIMFRAC
 70
     0
  9
$DIMLDRBLK
  1

  9
$DIMLUNIT
 70
     2
  9
$DIMLWD
 70
    -1
  9
$DIMLWE
 70
    -1
  9
$DIMTMOVE
 70
     0
  9
$LUNITS
 70
     2
  9
$LUPREC
 70
     4
  9
$SKETCHINC
 40
1.0
  9
$FILLETRAD
 40
0.0
  9
$AUNITS
 70
     0
  9
$AUPREC
 70
     0
  9
$MENU
  1
.
  9
$ELEVATION
 40
0.0
  9
$PELEVATION
 40
0.0
  9
$THICKNESS
 40
0.0
  9
$LIMCHECK
 70
     0
  9
$CHAMFERA
 40
10.0
  9
$CHAMFERB
 40
10.0
  9
$CHAMFERC
 40
20.0
  9
$CHAMFERD
 40
0.0
  9
$SKPOLY
 70
     0
  9
$TDCREATE
 40
2454138.543368773
  9
$TDUCREATE
 40
2454138.501702107
  9
$TDUPDATE
 40
2455819.447964410
  9
$TDUUPDATE
 40
2455819.406297743
  9
$TDINDWG
 40
0.7051430556
  9
$TDUSRTIMER
 40
0.7051430556
  9
$USRTIMER
 70
     1
  9
$ANGBASE
 50
0.0
  9
$ANGDIR
 70
     0
  9
$PDMODE
 70
     0
  9
$PDSIZE
 40
0.0
  9
$PLINEWID
 40
0.0
  9
$SPLFRAME
 70
     0
  9
$SPLINETYPE
 70
     6
  9
$SPLINESEGS
 70
     8
  9
$HANDSEED
  5
2723
  9
$SURFTAB1
 70
     6
  9
$SURFTAB2
 70
     6
  9
$SURFTYPE
 70
     6
  9
$SURFU
 70
     6
  9
$SURFV
 70
     6
  9
$UCSBASE
  2

  9
$UCSNAME
  2

  9
$UCSORG
 10
0.0
 20
0.0
 30
0.0
  9
$UCSXDIR
 10
1.0
 20
0.0
 30
0.0
  9
$UCSYDIR
 10
0.0
 20
1.0
 30
0.0
  9
$UCSORTHOREF
  2

  9
$UCSORTHOVIEW
 70
     0
  9
$UCSORGTOP
 10
0.0
 20
0.0
 30
0.0
  9
$UCSORGBOTTOM
 10
0.0
 20
0.0
 30
0.0
  9
$UCSORGLEFT
 10
0.0
 20
0.0
 30
0.0
  9
$UCSORGRIGHT
 10
0.0
 20
0.0
 30
0.0
  9
$UCSORGFRONT
 10
0.0
 20
0.0
 30
0.0
  9
$UCSORGBACK
 10
0.0
 20
0.0
 30
0.0
  9
$PUCSBASE
  2

  9
$PUCSNAME
  2

  9
$PUCSORG
 10
0.0
 20
0.0
 30
0.0
  9
$PUCSXDIR
 10
1.0
 20
0.0
 30
0.0
  9
$PUCSYDIR
 10
0.0
 20
1.0
 30
0.0
  9
$PUCSORTHOREF
  2

  9
$PUCSORTHOVIEW
 70
     0
  9
$PUCSORGTOP
 10
0.0
 20
0.0
 30
0.0
  9
$PUCSORGBOTTOM
 10
0.0
 20
0.0
 30
0.0
  9
$PUCSORGLEFT
 10
0.0
 20
0.0
 30
0.0
  9
$PUCSORGRIGHT
 10
0.0
 20
0.0
 30
0.0
  9
$PUCSORGFRONT
 10
0.0
 20
0.0
 30
0.0
  9
$PUCSORGBACK
 10
0.0
 20
0.0
 30
0.0
  9
$USERI1
 70
     0
  9
$USERI2
 70
     0
  9
$USERI3
 70
     0
  9
$USERI4
 70
     0
  9
$USERI5
 70
     0
  9
$USERR1
 40
0.0
  9
$USERR2
 40
0.0
  9
$USERR3
 40
0.0
  9
$USERR4
 40
0.0
  9
$USERR5
 40
0.0
  9
$WORLDVIEW
 70
     1
  9
$SHADEDGE
 70
     3
  9
$SHADEDIF
 70
    70
  9
$TILEMODE
 70
     1
  9
$MAXACTVP
 70
    64
  9
$PINSBASE
 10
0.0
 20
0.0
 30
0.0
  9
$PLIMCHECK
 70
     0
  9
$PEXTMIN
 10
1.000000000000000E+20
 20
1.000000000000000E+20
 30
1.000000000000000E+20
  9
$PEXTMAX
 10
-1.000000000000000E+20
 20
-1.000000000000000E+20
 30
-1.000000000000000E+20
  9
$PLIMMIN
 10
0.0
 20
0.0
  9
$PLIMMAX
 10
420.0
 20
297.0
  9
$UNITMODE
 70
     0
  9
$VISRETAIN
 70
     1
  9
$PLINEGEN
 70
     0
  9
$PSLTSCALE
 70
     1
  9
$TREEDEPTH
 70
  3020
  9
$CMLSTYLE
  2
Standard
  9
$CMLJUST
 70
     0
  9
$CMLSCALE
 40
20.0
  9
$PROXYGRAPHICS
 70
     1
  9
$MEASUREMENT
 70
     1
  9
$CELWEIGHT
370
    -1
  9
$ENDCAPS
280
     0
  9
$JOINSTYLE
280
     0
  9
$LWDISPLAY
290
     0
  9
$INSUNITS
 70
     4
  9
$HYPERLINKBASE
  1

  9
$STYLESHEET
  1
sanindusa.ctb
  9
$XEDIT
290
     1
  9
$CEPSNTYPE
380
     0
  9
$PSTYLEMODE
290
     1
  9
$FINGERPRINTGUID
  2
{E665943D-C7C8-4C2D-9C12-2A72CFDEE590}
  9
$VERSIONGUID
  2
{CA995CE1-EB3B-4088-A014-67289D38926D}
  9
$EXTNAMES
290
     1
  9
$PSVPSCALE
 40
0.0
  9
$OLESTARTUP
290
     0
  0
ENDSEC
  0
SECTION
  2
CLASSES
  0
CLASS
  1
ACDBDICTIONARYWDFLT
  2
AcDbDictionaryWithDefault
  3
ObjectDBX Classes
 90
        0
280
     0
281
     0
  0
CLASS
  1
ACDBPLACEHOLDER
  2
AcDbPlaceHolder
  3
ObjectDBX Classes
 90
        0
280
     0
281
     0
  0
CLASS
  1
LAYOUT
  2
AcDbLayout
  3
ObjectDBX Classes
 90
        0
280
     0
281
     0
  0
CLASS
  1
DICTIONARYVAR
  2
AcDbDictionaryVar
  3
ObjectDBX Classes
 90
        0
280
     0
281
     0
  0
CLASS
  1
DIMASSOC
  2
AcDbDimAssoc
  3
"AcDbDimAssoc|Product Desc:     AcDim ARX App For Dimension|Company:          Autodesk, Inc.|WEB Address:      www.autodesk.com"
 90
        0
280
     0
281
     0
  0
CLASS
  1
TABLESTYLE
  2
AcDbTableStyle
  3
ObjectDBX Classes
 90
     4095
280
     0
281
     0
  0
CLASS
  1
SORTENTSTABLE
  2
AcDbSortentsTable
  3
ObjectDBX Classes
 90
        0
280
     0
281
     0
  0
CLASS
  1
MATERIAL
  2
AcDbMaterial
  3
ObjectDBX Classes
 90
     1153
280
     0
281
     0
  0
CLASS
  1
VISUALSTYLE
  2
AcDbVisualStyle
  3
ObjectDBX Classes
 90
     4095
280
     0
281
     0
  0
CLASS
  1
SCALE
  2
AcDbScale
  3
ObjectDBX Classes
 90
     1153
280
     0
281
     0
  0
CLASS
  1
MLEADERSTYLE
  2
AcDbMLeaderStyle
  3
ACDB_MLEADERSTYLE_CLASS
 90
     4095
280
     0
281
     0
  0
CLASS
  1
CELLSTYLEMAP
  2
AcDbCellStyleMap
  3
ObjectDBX Classes
 90
     1152
280
     0
281
     0
  0
ENDSEC
  0
SECTION
  2
TABLES
  0
TABLE
  2
VPORT
  5
8
330
0
100
AcDbSymbolTable
 70
     1
  0
VPORT
  5
2626
330
8
100
AcDbSymbolTableRecord
100
AcDbViewportTableRecord
  2
*Active
 70
     0
 10
0.0
 20
0.0
 11
1.0
 21
1.0
 12
5841.880518432302
 22
2054.972241539092
 13
0.0
 23
0.0
 14
10.0
 24
10.0
 15
10.0
 25
10.0
 16
0.0
 26
0.0
 36
1.0
 17
0.0
 27
0.0
 37
0.0
 40
2.153545985898277
 41
1.645464025026068
 42
50.0
 43
0.0
 44
0.0
 50
0.0
 51
0.0
 71
     0
 72
   100
 73
     1
 74
     2
 75
     0
 76
     0
 77
     0
 78
     0
281
     0
 65
     1
110
0.0
120
0.0
130
0.0
111
1.0
121
0.0
131
0.0
112
0.0
122
1.0
132
0.0
 79
     0
146
0.0
  0
ENDTAB
  0
TABLE
  2
LTYPE
  5
5
330
0
100
AcDbSymbolTable
 70
     6
  0
LTYPE
  5
14
330
5
100
AcDbSymbolTableRecord
100
AcDbLinetypeTableRecord
  2
ByBlock
 70
     0
  3

 72
    65
 73
     0
 40
0.0
  0
LTYPE
  5
15
330
5
100
AcDbSymbolTableRecord
100
AcDbLinetypeTableRecord
  2
ByLayer
 70
     0
  3

 72
    65
 73
     0
 40
0.0
  0
LTYPE
  5
16
330
5
100
AcDbSymbolTableRecord
100
AcDbLinetypeTableRecord
  2
Continuous
 70
     0
  3
Solid line
 72
    65
 73
     0
 40
0.0
  0
LTYPE
  5
2D
330
5
100
AcDbSymbolTableRecord
100
AcDbLinetypeTableRecord
  2
DASHDOT
 70
     0
  3
Dash dot __ . __ . __ . __ . __ . __ . __ . __
 72
    65
 73
     4
 40
25.4
 49
12.7
 74
     0
 49
-6.349999999999999
 74
     0
 49
0.0
 74
     0
 49
-6.349999999999999
 74
     0
  0
LTYPE
  5
2E
330
5
100
AcDbSymbolTableRecord
100
AcDbLinetypeTableRecord
  2
HIDDEN
 70
     0
  3
Hidden __ __ __ __ __ __ __ __ __ __ __ __ __ _
 72
    65
 73
     2
 40
9.524999999999998
 49
6.349999999999999
 74
     0
 49
-3.174999999999999
 74
     0
  0
LTYPE
  5
C75
330
5
100
AcDbSymbolTableRecord
100
AcDbLinetypeTableRecord
  2
AM_ISO02W050
 70
     0
  3
__ __ __ __ __ __ __ __ __ __ __ __ __ __ __
 72
    65
 73
     2
 40
7.5
 49
6.0
 74
     0
 49
-1.5
 74
     0
  0
LTYPE
  5
C76
330
5
100
AcDbSymbolTableRecord
100
AcDbLinetypeTableRecord
  2
AM_ISO08W050
 70
     0
  3
____ . ____ . ____ . ____ . ____ . ____ . ____
 72
    65
 73
     4
 40
18.0
 49
12.0
 74
     0
 49
-1.5
 74
     0
 49
3.0
 74
     0
 49
-1.5
 74
     0
  0
ENDTAB
  0
TABLE
  2
LAYER
  5
2
102
{ACAD_XDICTIONARY
360
1051
102
}
330
0
100
AcDbSymbolTable
 70
    17
  0
LAYER
  5
10
102
{ACAD_XDICTIONARY
360
2685
102
}
330
2
100
AcDbSymbolTableRecord
100
AcDbLayerTableRecord
  2
0
 70
     0
 62
     7
  6
Continuous
370
    -3
390
F
  0
LAYER
  5
2F
102
{ACAD_XDICTIONARY
360
2687
102
}
330
2
100
AcDbSymbolTableRecord
100
AcDbLayerTableRecord
  2
1
 70
     0
 62
     1
  6
Continuous
370
    -3
390
F
  0
LAYER
  5
30
102
{ACAD_XDICTIONARY
360
2689
102
}
330
2
100
AcDbSymbolTableRecord
100
AcDbLayerTableRecord
  2
2
 70
     0
 62
     2
  6
Continuous
370
    -3
390
F
  0
LAYER
  5
31
102
{ACAD_XDICTIONARY
360
268B
102
}
330
2
100
AcDbSymbolTableRecord
100
AcDbLayerTableRecord
  2
3
 70
     0
 62
     3
  6
Continuous
370
    -3
390
F
  0
LAYER
  5
32
102
{ACAD_XDICTIONARY
360
268D
102
}
330
2
100
AcDbSymbolTableRecord
100
AcDbLayerTableRecord
  2
4
 70
     0
 62
     4
  6
Continuous
370
    -3
390
F
  0
LAYER
  5
33
102
{ACAD_XDICTIONARY
360
268F
102
}
330
2
100
AcDbSymbolTableRecord
100
AcDbLayerTableRecord
  2
5
 70
     0
 62
     5
  6
Continuous
370
    -3
390
F
  0
LAYER
  5
34
102
{ACAD_XDICTIONARY
360
2691
102
}
330
2
100
AcDbSymbolTableRecord
100
AcDbLayerTableRecord
  2
6
 70
     0
 62
     6
  6
Continuous
370
    -3
390
F
  0
LAYER
  5
35
102
{ACAD_XDICTIONARY
360
2693
102
}
330
2
100
AcDbSymbolTableRecord
100
AcDbLayerTableRecord
  2
7
 70
     0
 62
     7
  6
Continuous
370
    -3
390
F
  0
LAYER
  5
36
102
{ACAD_XDICTIONARY
360
2695
102
}
330
2
100
AcDbSymbolTableRecord
100
AcDbLayerTableRecord
  2
cen
 70
     0
 62
     7
  6
DASHDOT
370
    -3
390
F
  0
LAYER
  5
37
102
{ACAD_XDICTIONARY
360
2697
102
}
330
2
100
AcDbSymbolTableRecord
100
AcDbLayerTableRecord
  2
hid
 70
     0
 62
     7
  6
HIDDEN
370
    -3
390
F
  0
LAYER
  5
5D6
102
{ACAD_XDICTIONARY
360
2699
102
}
330
2
100
AcDbSymbolTableRecord
100
AcDbLayerTableRecord
  2
hatch
 70
     0
 62
     9
  6
Continuous
370
    -3
390
F
  0
LAYER
  5
8AF
102
{ACAD_XDICTIONARY
360
269B
102
}
330
2
100
AcDbSymbolTableRecord
100
AcDbLayerTableRecord
  2
9
 70
     0
 62
     9
  6
Continuous
370
    -3
390
F
  0
LAYER
  5
8F8
102
{ACAD_XDICTIONARY
360
269D
102
}
330
2
100
AcDbSymbolTableRecord
100
AcDbLayerTableRecord
  2
leg fin
 70
     0
 62
     9
  6
Continuous
370
    -3
390
F
  0
LAYER
  5
91D
102
{ACAD_XDICTIONARY
360
269F
102
}
330
2
100
AcDbSymbolTableRecord
100
AcDbLayerTableRecord
  2
cotas
 70
     0
 62
     1
  6
Continuous
370
    -3
390
F
  0
LAYER
  5
92F
330
2
100
AcDbSymbolTableRecord
100
AcDbLayerTableRecord
  2
Defpoints
 70
     0
 62
     7
  6
Continuous
290
     0
370
    -3
390
F
  0
LAYER
  5
C7B
102
{ACAD_XDICTIONARY
360
26A1
102
}
330
2
100
AcDbSymbolTableRecord
100
AcDbLayerTableRecord
  2
SANINDUSA
 70
     0
 62
     3
  6
Continuous
370
    -3
390
F
  0
LAYER
  5
10E9
102
{ACAD_XDICTIONARY
360
26A3
102
}
330
2
100
AcDbSymbolTableRecord
100
AcDbLayerTableRecord
  2
quote
 70
     0
 62
   250
  6
Continuous
370
     5
390
F
  0
ENDTAB
  0
TABLE
  2
STYLE
  5
3
330
0
100
AcDbSymbolTable
 70
     4
  0
STYLE
  5
11
330
3
100
AcDbSymbolTableRecord
100
AcDbTextStyleTableRecord
  2
Standard
 70
     0
 40
0.0
 41
1.0
 50
0.0
 71
     0
 42
2.5
  3
Avgardn.ttf
  4

1001
ACAD
1000
AvantGarde Bk BT
1071
       34
  0
STYLE
  5
2C
330
3
100
AcDbSymbolTableRecord
100
AcDbTextStyleTableRecord
  2

 70
     1
 40
0.0
 41
1.0
 50
0.0
 71
     0
 42
2.5
  3
ltypeshp.shx
  4

  0
STYLE
  5
91F
330
3
100
AcDbSymbolTableRecord
100
AcDbTextStyleTableRecord
  2
SANINDUSA
 70
     0
 40
0.0
 41
1.0
 50
0.0
 71
     0
 42
2.5
  3
verdana.TTF
  4

1001
ACAD
1000
Verdana
1071
       34
  0
STYLE
  5
C7C
330
3
100
AcDbSymbolTableRecord
100
AcDbTextStyleTableRecord
  2
futura
 70
     0
 40
0.0
 41
1.0
 50
0.0
 71
     0
 42
2.5
  3
ZURCHN.TTF
  4

1001
ACAD
1000
Zurich BT
1071
       34
  0
ENDTAB
  0
TABLE
  2
VIEW
  5
6
330
0
100
AcDbSymbolTable
 70
     0
  0
ENDTAB
  0
TABLE
  2
UCS
  5
7
330
0
100
AcDbSymbolTable
 70
     0
  0
ENDTAB
  0
TABLE
  2
APPID
  5
9
330
0
100
AcDbSymbolTable
 70
    15
  0
APPID
  5
12
330
9
100
AcDbSymbolTableRecord
100
AcDbRegAppTableRecord
  2
ACAD
 70
     0
  0
APPID
  5
3A
330
9
100
AcDbSymbolTableRecord
100
AcDbRegAppTableRecord
  2
DCO15
 70
     0
  0
APPID
  5
EEE
330
9
100
AcDbSymbolTableRecord
100
AcDbRegAppTableRecord
  2
ACAD_DSTYLE_DIMTEXT_FILL
 70
     0
  0
APPID
  5
EEF
330
9
100
AcDbSymbolTableRecord
100
AcDbRegAppTableRecord
  2
ACAD_DSTYLE_DIMEXT_LENGTH
 70
     0
  0
APPID
  5
EF0
330
9
100
AcDbSymbolTableRecord
100
AcDbRegAppTableRecord
  2
ACAD_DSTYLE_DIMEXT_ENABLED
 70
     0
  0
APPID
  5
EF1
330
9
100
AcDbSymbolTableRecord
100
AcDbRegAppTableRecord
  2
ACAD_DSTYLE_DIM_LINETYPE
 70
     0
  0
APPID
  5
EF2
330
9
100
AcDbSymbolTableRecord
100
AcDbRegAppTableRecord
  2
ACAD_DSTYLE_DIM_EXT1_LINETYPE
 70
     0
  0
APPID
  5
EF3
330
9
100
AcDbSymbolTableRecord
100
AcDbRegAppTableRecord
  2
ACAD_DSTYLE_DIM_EXT2_LINETYPE
 70
     0
  0
APPID
  5
FAF
330
9
100
AcDbSymbolTableRecord
100
AcDbRegAppTableRecord
  2
ACAD_DSTYLE_DIMJOGGED_JOGANGLE_SYMBOL
 70
     0
  0
APPID
  5
1013
330
9
100
AcDbSymbolTableRecord
100
AcDbRegAppTableRecord
  2
ACAD_DSTYLE_DIMARC_LENGTH_SYMBOL
 70
     0
  0
APPID
  5
10EA
330
9
100
AcDbSymbolTableRecord
100
AcDbRegAppTableRecord
  2
GENIUS_GENREC_14
 70
     0
  0
APPID
  5
10EB
330
9
100
AcDbSymbolTableRecord
100
AcDbRegAppTableRecord
  2
GENIUS_GENODEF_13
 70
     0
  0
APPID
  5
10EC
330
9
100
AcDbSymbolTableRecord
100
AcDbRegAppTableRecord
  2
GENIUS_GENOBJ-N-REC_13
 70
     0
  0
APPID
  5
2221
330
9
100
AcDbSymbolTableRecord
100
AcDbRegAppTableRecord
  2
ACAD_EXEMPT_FROM_CAD_STANDARDS
 70
     0
  0
APPID
  5
2722
330
9
100
AcDbSymbolTableRecord
100
AcDbRegAppTableRecord
  2
ACAD_MLEADERVER
 70
     0
  0
ENDTAB
  0
TABLE
  2
DIMSTYLE
  5
A
330
0
100
AcDbSymbolTable
 70
     4
100
AcDbDimStyleTable
 71
     1
340
921
  0
DIMSTYLE
105
45
330
A
100
AcDbSymbolTableRecord
100
AcDbDimStyleTableRecord
  2
STANDARD
 70
     0
289
     0
340
11
  0
DIMSTYLE
105
921
330
A
100
AcDbSymbolTableRecord
100
AcDbDimStyleTableRecord
  2
SANINDUSA
 70
     0
 40
10.0
 41
2.0
 42
1.0
 43
1.0
 44
1.0
 73
     0
 74
     0
 77
     1
 78
     8
140
2.0
141
0.0
143
0.03937007874016
147
1.0
171
     3
172
     1
176
   256
177
   256
178
   256
179
     1
271
     1
272
     1
274
     3
278
    44
283
     0
284
     8
340
91F
371
    -1
372
    -1
1001
ACAD_DSTYLE_DIMJOGGED_JOGANGLE_SYMBOL
1070
   384
1040
1.570796326794896
  0
DIMSTYLE
105
C7D
330
A
100
AcDbSymbolTableRecord
100
AcDbDimStyleTableRecord
  2
AM_ISO
 70
     0
  4
"
 41
2.5
 42
1.0
 43
10.0
 44
1.0
 47
0.1
 48
0.1
 73
     0
 74
     0
 77
     1
 78
     8
 79
     2
140
3.5
141
0.0
143
0.0393701
146
0.71
147
1.5
172
     1
176
   256
177
   256
178
     2
271
     2
272
     3
274
     4
283
     0
284
     8
340
11
371
    -1
372
    -1
  0
ENDTAB
  0
TABLE
  2
BLOCK_RECORD
  5
1
330
0
100
AcDbSymbolTable
 70
    22
  0
BLOCK_RECORD
  5
1F
102
{ACAD_XDICTIONARY
360
23F5
102
}
330
1
100
AcDbSymbolTableRecord
100
AcDbBlockTableRecord
  2
*Model_Space
340
22
  0
BLOCK_RECORD
  5
1B
330
1
100
AcDbSymbolTableRecord
100
AcDbBlockTableRecord
  2
*Paper_Space
340
1E
  0
BLOCK_RECORD
  5
23
330
1
100
AcDbSymbolTableRecord
100
AcDbBlockTableRecord
  2
*Paper_Space0
340
26
  0
BLOCK_RECORD
  5
919
330
1
100
AcDbSymbolTableRecord
100
AcDbBlockTableRecord
  2
_DotSmall
340
0
  0
BLOCK_RECORD
  5
922
330
1
100
AcDbSymbolTableRecord
100
AcDbBlockTableRecord
  2
base para cotas
340
0
310
2800000020000000200000000100080000000000000400000000000000000000000000000000000000000000000080000080000000808000800000008000800080800000C0C0C000C0DCC000F0CAA6000020400000206000002080000020A0000020C0000020E00000400000004020000040400000406000004080000040A0
310
000040C0000040E00000600000006020000060400000606000006080000060A0000060C0000060E00000800000008020000080400000806000008080000080A0000080C0000080E00000A0000000A0200000A0400000A0600000A0800000A0A00000A0C00000A0E00000C0000000C0200000C0400000C0600000C0800000C0
310
A00000C0C00000C0E00000E0000000E0200000E0400000E0600000E0800000E0A00000E0C00000E0E00040000000400020004000400040006000400080004000A0004000C0004000E00040200000402020004020400040206000402080004020A0004020C0004020E000404000004040200040404000404060004040800040
310
40A0004040C0004040E00040600000406020004060400040606000406080004060A0004060C0004060E00040800000408020004080400040806000408080004080A0004080C0004080E00040A0000040A0200040A0400040A0600040A0800040A0A00040A0C00040A0E00040C0000040C0200040C0400040C0600040C08000
310
40C0A00040C0C00040C0E00040E0000040E0200040E0400040E0600040E0800040E0A00040E0C00040E0E00080000000800020008000400080006000800080008000A0008000C0008000E00080200000802020008020400080206000802080008020A0008020C0008020E00080400000804020008040400080406000804080
310
008040A0008040C0008040E00080600000806020008060400080606000806080008060A0008060C0008060E00080800000808020008080400080806000808080008080A0008080C0008080E00080A0000080A0200080A0400080A0600080A0800080A0A00080A0C00080A0E00080C0000080C0200080C0400080C0600080C0
310
800080C0A00080C0C00080C0E00080E0000080E0200080E0400080E0600080E0800080E0A00080E0C00080E0E000C0000000C0002000C0004000C0006000C0008000C000A000C000C000C000E000C0200000C0202000C0204000C0206000C0208000C020A000C020C000C020E000C0400000C0402000C0404000C0406000C0
310
408000C040A000C040C000C040E000C0600000C0602000C0604000C0606000C0608000C060A000C060C000C060E000C0800000C0802000C0804000C0806000C0808000C080A000C080C000C080E000C0A00000C0A02000C0A04000C0A06000C0A08000C0A0A000C0A0C000C0A0E000C0C00000C0C02000C0C04000C0C06000
310
C0C08000C0C0A000F0FBFF00A4A0A000808080000000FF0000FF000000FFFF00FF000000FF00FF00FFFF0000FFFFFF00A4A4A4A4A4A4A4A4A4A4A4A4A4A4A4A4A4A4A4A4A4A4A4A4A4A4A4A4A4A4A4A4A4A4A4A4A4A4A4A4A4A4A4A4A4A4A4A4A4A4A4A4A4A4A4A4A4A4A4A4A4A4A4A4A4A4A4A4A4A4A4A4A4A4A4A4A4A4A4
310
A4A4A4A4A4A4A4A4A4A4A4A4A4A4A4A4A4A4A4A4A4A4A4A4A4A4A4A4A4A4A4A4A4A4A4A4A4A4A4A4A4A4A4A4A4A4A4A4A4A4A4A4A4A4A4A4A4A4A4A4A4A4A4A4A4A4A4A4A4A4A4A4A4A4A4A4A4A4A4A4A4A4A4A4A4A4A4A4A4A4A4A4A4A4A4A4A4A4A4A4A4A4A4A4A4A4A4A4A4A4A4A4A4A4A4A4A4A4A4A4A4A4A4A4A4A4A4
310
A4A4A4A4A4A4A4A4A4A4A4A4A4A4A4A4A4A4A4A4A4A4A4A4A4A4A4A4A4A4A4A4A4A4A4A4A4A4A4A4A4A4A4A4A4A4A4A4A4A4A4A4A4A4A4A4A4A4A4A4A4A4A4A4A4A4A4A4A4A4A4A4A4A4A4A4A4A4A4A4A4A4A4A4A4A4A4A4A4A4A4A4A4A4A4A4A4A4A4A4A4A4A4A4A4A4A4A4A4A4A4A4A4A4A4A4A4A4A4A4A4A4A4A4A4A4A4
310
A4A4A4A4A4A4A4A4A4A4A4A4A4A4A4A4A4A4A4A4A4A4A4A4A4A4A4A4A4A4A4A4A4A4A4A4A4A4A4A4A4A4A4A4A4A4A4A4A4A4A4A4A4A4A4A4A4A4A4A4A4A4A4A4A4A4A4A4A4A4A4A4A4A4A4A4A4A4A4A4A4A4A4A4A4A4A4A4A4A4A4A4A4A4A4A4A4A4A4A4A4A4A4A4A4A4A4A4A4A4A4A4A4A4A4A4F9F9F9F9F9F9F9F9F9F9F9
310
F9F9F9F9F9F9F9F9F9F9F9F9F9F9F9F9F9F9F9A4A4F9F9F9F9F9F9F9F9F9F9F9F9F9F9F9F9F9F9F9F9F9F9F9F9F9F9F9F9F9F9A4A4F9F9F9F9F9F9F9F9F9F9F9F9F9F9F9F9F9F9F9F9F9F9F9F9F9F9F9F9F9F9A4A4F9A4A4A4A4A4A4A4A4A4A4A4A4A4A4A4A4A4A4A4A4A4A4A4A4A4A4A4A4F9A4A4A4A4A4A4A4A4A4A4A4A4
310
A4A4A4A4A4A4A4A4A4A4A4A4A4A4A4A4A4A4A4A4A4A4A4A4A4A4A4A4A4A4A4A4A4A4A4A4A4A4A4A4A4A4A4A4A4A4A4A4A4A4A4A4A4A4A4A4A4A4A4A4A4A4A4A4A4A4A4A4A4A4A4A4A4A4A4A4A4A4A4A4A4A4A4A4A4A4A4A4A4A4A4A4A4A4A4A4A4A4A4A4A4A4A4A4A4A4A4A4A4A4A4A4A4A4A4A4A4A4A4A4A4A4A4A4A4A4A4
310
A4A4A4A4A4A4A4A4A4A4A4A4A4A4A4A4A4A4A4A4A4A4A4A4A4A4A4A4A4A4A4A4A4A4A4A4A4A4A4A4A4A4A4A4A4A4A4A4A4A4A4A4A4A4A4A4A4A4A4A4A4A4A4A4A4A4A4A4A4A4A4A4A4A4A4A4A4A4A4A4A4A4A4A4A4A4A4A4A4A4A4A4A4A4A4A4A4A4A4A4A4A4A4A4A4A4A4A4A4A4A4A4A4A4A4A4A4A4A4A4A4A4A4A4A4A4A4
310
A4A4A4A4A4A4A4A4A4A4A4A4A4A4A4A4A4A4A4A4A4A4A4A4A4A4A4A4A4A4A4A4A4A4A4A4A4A4A4A4A4A4A4A4A4A4A4A4A4A4A4A4A4A4A4A4A4A4A4A4A4A4A4A4A4A4A4A4A4A4A4A4A4A4A4A4A4A4A4A4A4A4A4A4A4A4A4A4A4A4A4A4A4A4A4A4A4A4A4A4A4A4A4A4A4A4A4A4A4A4A4A4A4A4A4A4A4A4A4A4A4A4A4A4A4A4A4
310
A4A4A4A4A4A4A4A4A4A4A4A4A4A4A4A4A4A4A4A4A4A4A4A4A4A4A4A4A4A4A4A4A4A4A4A4A4A4A4A4A4A4A4A4A4A4A4A4A4A4A4A4A4A4A4A4
1001
ACAD
1000
DesignCenter Data
1002
{
1070
     1
1070
     4
1002
}
  0
BLOCK_RECORD
  5
AA8
330
1
100
AcDbSymbolTableRecord
100
AcDbBlockTableRecord
  2
_CLOSED
340
0
  0
BLOCK_RECORD
  5
B79
330
1
100
AcDbSymbolTableRecord
100
AcDbBlockTableRecord
  2
nota revisoes
340
0
1001
ACAD
1000
DesignCenter Data
1002
{
1070
     1
1070
     4
1002
}
  0
BLOCK_RECORD
  5
B8E
330
1
100
AcDbSymbolTableRecord
100
AcDbBlockTableRecord
  2
a3l
340
0
1001
ACAD
1000
DesignCenter Data
1002
{
1070
     1
1070
     4
1002
}
  0
BLOCK_RECORD
  5
B9E
330
1
100
AcDbSymbolTableRecord
100
AcDbBlockTableRecord
  2
legenda desenvolvimento
340
0
1001
ACAD
1000
DesignCenter Data
1002
{
1070
     1
1070
     4
1002
}
  0
BLOCK_RECORD
  5
1060
330
1
100
AcDbSymbolTableRecord
100
AcDbBlockTableRecord
  2
guarnizione
340
0
  0
BLOCK_RECORD
  5
1F7C
330
1
100
AcDbSymbolTableRecord
100
AcDbBlockTableRecord
  2
*D8
340
0
  0
BLOCK_RECORD
  5
1F88
330
1
100
AcDbSymbolTableRecord
100
AcDbBlockTableRecord
  2
*D9
340
0
  0
BLOCK_RECORD
  5
1F94
330
1
100
AcDbSymbolTableRecord
100
AcDbBlockTableRecord
  2
*D10
340
0
  0
BLOCK_RECORD
  5
1FA0
330
1
100
AcDbSymbolTableRecord
100
AcDbBlockTableRecord
  2
*D11
340
0
  0
BLOCK_RECORD
  5
1FAC
330
1
100
AcDbSymbolTableRecord
100
AcDbBlockTableRecord
  2
*D12
340
0
  0
BLOCK_RECORD
  5
233A
330
1
100
AcDbSymbolTableRecord
100
AcDbBlockTableRecord
  2
*D13
340
0
  0
BLOCK_RECORD
  5
2346
330
1
100
AcDbSymbolTableRecord
100
AcDbBlockTableRecord
  2
*D14
340
0
  0
BLOCK_RECORD
  5
2354
330
1
100
AcDbSymbolTableRecord
100
AcDbBlockTableRecord
  2
*D15
340
0
  0
BLOCK_RECORD
  5
2360
330
1
100
AcDbSymbolTableRecord
100
AcDbBlockTableRecord
  2
*D16
340
0
  0
BLOCK_RECORD
  5
236C
330
1
100
AcDbSymbolTableRecord
100
AcDbBlockTableRecord
  2
*D17
340
0
  0
BLOCK_RECORD
  5
250B
330
1
100
AcDbSymbolTableRecord
100
AcDbBlockTableRecord
  2
*D18
340
0
  0
BLOCK_RECORD
  5
25D2
330
1
100
AcDbSymbolTableRecord
100
AcDbBlockTableRecord
  2
*D19
340
0
  0
BLOCK_RECORD
  5
25FC
330
1
100
AcDbSymbolTableRecord
100
AcDbBlockTableRecord
  2
*D20
340
0
  0
ENDTAB
  0
ENDSEC
  0
SECTION
  2
BLOCKS
  0
BLOCK
  5
20
330
1F
100
AcDbEntity
  8
0
100
AcDbBlockBegin
  2
*Model_Space
 70
     0
 10
0.0
 20
0.0
 30
0.0
  3
*Model_Space
  1

  0
ENDBLK
  5
21
330
1F
100
AcDbEntity
  8
0
100
AcDbBlockEnd
  0
BLOCK
  5
1C
330
1B
100
AcDbEntity
 67
     1
  8
0
100
AcDbBlockBegin
  2
*Paper_Space
 70
     0
 10
0.0
 20
0.0
 30
0.0
  3
*Paper_Space
  1

  0
ENDBLK
  5
1D
330
1B
100
AcDbEntity
 67
     1
  8
0
100
AcDbBlockEnd
  0
BLOCK
  5
24
330
23
100
AcDbEntity
 67
     1
  8
0
100
AcDbBlockBegin
  2
*Paper_Space0
 70
     0
 10
0.0
 20
0.0
 30
0.0
  3
*Paper_Space0
  1

  0
ENDBLK
  5
25
330
23
100
AcDbEntity
 67
     1
  8
0
100
AcDbBlockEnd
  0
BLOCK
  5
91B
330
919
100
AcDbEntity
  8
0
100
AcDbBlockBegin
  2
_DotSmall
 70
     0
 10
0.0
 20
0.0
 30
0.0
  3
_DotSmall
  1

  0
LWPOLYLINE
  5
91A
330
919
100
AcDbEntity
  8
0
  6
ByBlock
 62
     0
100
AcDbPolyline
 90
        2
 70
     1
 43
0.5
 10
-0.0625
 20
0.0
 42
1.0
 10
0.0625
 20
0.0
 42
1.0
  0
ENDBLK
  5
91C
330
919
100
AcDbEntity
  8
0
100
AcDbBlockEnd
  0
BLOCK
  5
92A
330
922
100
AcDbEntity
  8
0
100
AcDbBlockBegin
  2
base para cotas
 70
     0
 10
0.0
 20
0.0
 30
0.0
  3
base para cotas
  1

  0
LINE
  5
B36
330
922
100
AcDbEntity
  8
cotas
100
AcDbLine
 10
0.0
 20
-30.0
 30
0.0
 11
327.1260136525398
 21
-30.0
 31
0.0
  0
LINE
  5
B37
330
922
100
AcDbEntity
  8
cotas
100
AcDbLine
 10
0.0
 20
-25.0
 30
0.0
 11
327.1260136525398
 21
-25.0
 31
0.0
  0
LINE
  5
B38
330
922
100
AcDbEntity
  8
cotas
100
AcDbLine
 10
0.0
 20
-20.0
 30
0.0
 11
327.1260136525398
 21
-20.0
 31
0.0
  0
LINE
  5
B39
330
922
100
AcDbEntity
  8
cotas
100
AcDbLine
 10
0.0
 20
-15.0
 30
0.0
 11
327.1260136525398
 21
-15.0
 31
0.0
  0
LINE
  5
B3A
330
922
100
AcDbEntity
  8
cotas
100
AcDbLine
 10
0.0
 20
-10.0
 30
0.0
 11
327.1260136525398
 21
-10.0
 31
0.0
  0
LINE
  5
B3B
330
922
100
AcDbEntity
  8
cotas
100
AcDbLine
 10
0.0
 20
0.0
 30
0.0
 11
0.0
 21
-30.0
 31
0.0
  0
LINE
  5
B3C
330
922
100
AcDbEntity
  8
cotas
100
AcDbLine
 10
327.1260136525398
 20
-30.0
 30
0.0
 11
327.1260136525398
 21
0.0
 31
0.0
  0
ENDBLK
  5
92B
330
922
100
AcDbEntity
  8
0
100
AcDbBlockEnd
  0
BLOCK
  5
AAD
330
AA8
100
AcDbEntity
  8
0
100
AcDbBlockBegin
  2
_CLOSED
 70
     0
 10
0.0
 20
0.0
 30
0.0
  3
_CLOSED
  1

  0
LINE
  5
AA9
330
AA8
100
AcDbEntity
  8
0
100
AcDbLine
 10
-1.0
 20
0.166667
 30
0.0
 11
0.0
 21
0.0
 31
0.0
  0
LINE
  5
AAA
330
AA8
100
AcDbEntity
  8
0
100
AcDbLine
 10
0.0
 20
0.0
 30
0.0
 11
-1.0
 21
-0.166667
 31
0.0
  0
LINE
  5
AAB
330
AA8
100
AcDbEntity
  8
0
100
AcDbLine
 10
-1.0
 20
0.166667
 30
0.0
 11
-1.0
 21
-0.166667
 31
0.0
  0
LINE
  5
AAC
330
AA8
100
AcDbEntity
  8
0
100
AcDbLine
 10
0.0
 20
0.0
 30
0.0
 11
-1.0
 21
0.0
 31
0.0
  0
ENDBLK
  5
AAE
330
AA8
100
AcDbEntity
  8
0
100
AcDbBlockEnd
  0
BLOCK
  5
B7C
330
B79
100
AcDbEntity
  8
0
100
AcDbBlockBegin
  2
nota revisoes
 70
     0
 10
0.0
 20
0.0
 30
0.0
  3
nota revisoes
  1

  0
CIRCLE
  5
B7A
330
B79
100
AcDbEntity
  8
4
100
AcDbCircle
 10
0.0
 20
0.0
 30
0.0
 40
13.69426055101189
  0
TEXT
  5
B7B
330
B79
100
AcDbEntity
  8
4
100
AcDbText
 10
-5.496248358154345
 20
-5.354545554066362
 30
0.0
 40
12.0
  1
1
  7
SANINDUSA
 72
     1
 11
-0.249774214433728
 21
-5.354545554066362
 31
0.0
100
AcDbText
  0
ENDBLK
  5
B7D
330
B79
100
AcDbEntity
  8
0
100
AcDbBlockEnd
  0
BLOCK
  5
B9C
330
B8E
100
AcDbEntity
  8
0
100
AcDbBlockBegin
  2
a3l
 70
     0
 10
0.0
 20
0.0
 30
0.0
  3
a3l
  1

  0
LINE
  5
B8F
330
B8E
100
AcDbEntity
  8
1
100
AcDbLine
 10
-364.2925296599447
 20
-362.1188951399395
 30
0.0
 11
-364.2925296599447
 21
-65.11889513993946
 31
0.0
  0
LINE
  5
B90
330
B8E
100
AcDbEntity
  8
4
100
AcDbLine
 10
-369.2925296599447
 20
-357.1188951399395
 30
0.0
 11
-369.2925296599447
 21
-70.11889513993946
 31
0.0
  0
LINE
  5
B91
330
B8E
100
AcDbEntity
  8
1
100
AcDbLine
 10
-784.2925296599446
 20
-65.11889513993946
 30
0.0
 11
-784.2925296599446
 21
-362.1188951399395
 31
0.0
  0
LINE
  5
B92
330
B8E
100
AcDbEntity
  8
4
100
AcDbLine
 10
-759.2925296599446
 20
-357.1188951399395
 30
0.0
 11
-759.2925296599446
 21
-70.11889513993946
 31
0.0
  0
LINE
  5
B93
330
B8E
100
AcDbEntity
  8
1
100
AcDbLine
 10
-784.2925296599446
 20
-362.1188951399395
 30
0.0
 11
-364.2925296599447
 21
-362.1188951399395
 31
0.0
  0
LINE
  5
B94
330
B8E
100
AcDbEntity
  8
4
100
AcDbLine
 10
-759.2925296599446
 20
-357.1188951399395
 30
0.0
 11
-369.2925296599447
 21
-357.1188951399395
 31
0.0
  0
LINE
  5
B95
330
B8E
100
AcDbEntity
  8
1
100
AcDbLine
 10
-654.2925296599446
 20
-357.1188951399395
 30
0.0
 11
-654.2925296599446
 21
-362.1188951399395
 31
0.0
  0
LINE
  5
B96
330
B8E
100
AcDbEntity
  8
1
100
AcDbLine
 10
-364.2925296599447
 20
-65.11889513993946
 30
0.0
 11
-784.2925296599446
 21
-65.11889513993946
 31
0.0
  0
LINE
  5
B97
330
B8E
100
AcDbEntity
  8
4
100
AcDbLine
 10
-369.2925296599447
 20
-70.11889513993946
 30
0.0
 11
-759.2925296599446
 21
-70.11889513993946
 31
0.0
  0
LINE
  5
B98
330
B8E
100
AcDbEntity
  8
1
100
AcDbLine
 10
-654.2925296599446
 20
-65.11889513993946
 30
0.0
 11
-654.2925296599446
 21
-70.11889513993946
 31
0.0
  0
LINE
  5
B99
330
B8E
100
AcDbEntity
  8
1
100
AcDbLine
 10
-549.2925296599446
 20
-70.11889513993946
 30
0.0
 11
-549.2925296599446
 21
-65.11889513993946
 31
0.0
  0
LINE
  5
B9A
330
B8E
100
AcDbEntity
  8
1
100
AcDbLine
 10
-369.2925296599447
 20
-65.11889513993946
 30
0.0
 11
-364.2925296599447
 21
-65.11889513993946
 31
0.0
  0
LINE
  5
B9B
330
B8E
100
AcDbEntity
  8
1
100
AcDbLine
 10
-549.2925296599446
 20
-357.1188951399395
 30
0.0
 11
-549.2925296599446
 21
-362.1188951399395
 31
0.0
  0
ENDBLK
  5
B9D
330
B8E
100
AcDbEntity
  8
0
100
AcDbBlockEnd
  0
BLOCK
  5
C13
330
B9E
100
AcDbEntity
  8
0
100
AcDbBlockBegin
  2
legenda desenvolvimento
 70
     2
 10
0.0
 20
0.0
 30
0.0
  3
legenda desenvolvimento
  1

  0
ATTDEF
  5
B9F
330
B9E
100
AcDbEntity
  8
1
100
AcDbText
 10
-108.606245802552
 20
55.5
 30
0.0
 40
4.0
  1
XXXXXXXXXXXXXX
 41
0.8
  7
SANINDUSA
 72
     4
 11
-87.5
 21
57.5
 31
0.0
100
AcDbAttributeDefinition
  3
Nome do Produto:
  2
PRODUTO
 70
     0
  0
ATTDEF
  5
BA0
330
B9E
100
AcDbEntity
  8
1
100
AcDbText
 10
-97.9997966101695
 20
41.25
 30
0.0
 40
3.0
  1
XXXXXXXXX
 41
0.8
  7
futura
 72
     4
 11
-87.5
 21
42.75
 31
0.0
100
AcDbAttributeDefinition
  3
Nome da Peça:
  2
PECA
 70
     0
  0
ATTDEF
  5
BA1
330
B9E
100
AcDbEntity
  8
1
100
AcDbText
 10
-133.4422431161853
 20
21.11745296763252
 30
0.0
 40
2.5
  1
X
 41
0.8
  7
SANINDUSA
 72
     4
 11
-132.5
 21
22.36745296763252
 31
0.0
100
AcDbAttributeDefinition
  3
Cod. TESTE:
  2
TESTE
 70
     0
  0
ATTDEF
  5
BA2
330
B9E
100
AcDbEntity
  8
1
100
AcDbText
 10
-124.3844862323707
 20
21.11745296763252
 30
0.0
 40
2.5
  1
XX
 41
0.8
  7
SANINDUSA
 72
     4
 11
-122.5
 21
22.36745296763252
 31
0.0
100
AcDbAttributeDefinition
  3
Cod. Ano:
  2
ANO
 70
     0
  0
ATTDEF
  5
BA3
330
B9E
100
AcDbEntity
  8
1
100
AcDbText
 10
-112.526889953052
 20
21.11745296763252
 30
0.0
 40
2.5
  1
XXX
 41
0.8
  7
SANINDUSA
 72
     4
 11
-109.700160604496
 21
22.36745296763252
 31
0.0
100
AcDbAttributeDefinition
  3
Cod. Sequência:
  2
SEQUENCIA
 70
     0
  0
ATTDEF
  5
BA4
330
B9E
100
AcDbEntity
  8
1
100
AcDbText
 10
-99.35382430979316
 20
21.11745296763252
 30
0.0
 40
2.5
  1
XX
 41
0.8
  7
SANINDUSA
 72
     4
 11
-97.46933807742244
 21
22.36745296763252
 31
0.0
100
AcDbAttributeDefinition
  3
Cod. Tipo:
  2
TIPO
 70
     0
  0
ATTDEF
  5
BA5
330
B9E
100
AcDbEntity
  8
1
100
AcDbText
 10
-87.42035911468438
 20
21.11745296763252
 30
0.0
 40
2.5
  1
XXX
 41
0.8
  7
SANINDUSA
 72
     4
 11
-84.59362976612828
 21
22.36745296763252
 31
0.0
100
AcDbAttributeDefinition
  3
Cod. Produto:
  2
PRODUTO
 70
     0
  0
ATTDEF
  5
BA6
330
B9E
100
AcDbEntity
  8
1
100
AcDbText
 10
-74.62051971917853
 20
21.11745296763252
 30
0.0
 40
2.5
  1
XXX
 41
0.8
  7
SANINDUSA
 72
     4
 11
-71.79379037062244
 21
22.36745296763252
 31
0.0
100
AcDbAttributeDefinition
  3
Cod. Peça:
  2
PECA
 70
     0
  0
ATTDEF
  5
BA7
330
B9E
100
AcDbEntity
  8
1
100
AcDbText
 10
-61.10603446650329
 20
21.11745296763252
 30
0.0
 40
2.5
  1
XX
 41
0.8
  7
SANINDUSA
 72
     4
 11
-59.22154823413257
 21
22.36745296763252
 31
0.0
100
AcDbAttributeDefinition
  3
Cod. Revisão:
  2
REV
 70
     0
  0
ATTDEF
  5
BA8
330
B9E
100
AcDbEntity
  8
1
100
AcDbText
 10
-48.43615325006194
 20
21.11745296763252
 30
0.0
 40
2.5
  1
XX
 41
0.8
  7
SANINDUSA
 72
     4
 11
-46.55166701769121
 21
22.36745296763252
 31
0.0
100
AcDbAttributeDefinition
  3
Cod. Alteração:
  2
ALT
 70
     0
  0
ATTDEF
  5
BA9
330
B9E
100
AcDbEntity
  8
1
100
AcDbText
 10
-35.19086635325722
 20
23.98875083948959
 30
0.0
 40
3.0
  1
1/XXX
 41
0.8
  7
SANINDUSA
 72
     4
 11
-30.0
 21
25.25
 31
0.0
100
AcDbAttributeDefinition
  3
Escala geral:
  2
ESCALA
 70
     0
  0
ATTDEF
  5
BAA
330
B9E
100
AcDbEntity
  8
1
100
AcDbText
 10
-15.65345869711215
 20
23.75
 30
0.0
 40
3.0
  1
XXXXX
 41
0.8
  7
SANINDUSA
 72
     4
 11
-10.0
 21
25.25
 31
0.0
100
AcDbAttributeDefinition
  3
Folha:
  2
FOLHA
 70
     0
  0
ATTDEF
  5
BAB
330
B9E
100
AcDbEntity
  8
1
100
AcDbText
 10
-178.5146998822042
 20
56.9531347542807
 30
0.0
 40
2.0
  1
xx
 41
0.8
  7
SANINDUSA
 72
     4
 11
-177.2123493113513
 21
57.70330265219877
 31
0.0
100
AcDbAttributeDefinition
  3
revisão
  2
REV.
 70
     0
  0
ATTDEF
  5
BAC
330
B9E
100
AcDbEntity
  8
1
100
AcDbText
 10
-172.7849640077129
 20
56.9531347542807
 30
0.0
 40
2.0
  1
xx
 41
0.8
  7
SANINDUSA
 72
     4
 11
-171.48261343686
 21
57.70330265219877
 31
0.0
100
AcDbAttributeDefinition
  3
alteração
  2
ALT.
 70
     0
  0
ATTDEF
  5
BAD
330
B9E
100
AcDbEntity
  8
1
100
AcDbText
 10
-168.007199951307
 20
56.70330265219877
 30
0.0
 40
2.0
  1
xx/xx/xxxx
 41
0.8
  7
SANINDUSA
 11
-168.007199951307
 21
57.70330265219877
 31
0.0
100
AcDbAttributeDefinition
  3
data
  2
DATA
 70
     0
 74
     2
  0
ATTDEF
  5
BAE
330
B9E
100
AcDbEntity
  8
1
100
AcDbText
 10
-168.5396372253371
 20
13.15916722632639
 30
0.0
 40
2.0
  1
XX/XX/XXXX
 41
0.8
  7
SANINDUSA
 72
     4
 11
-161.5099528734231
 21
14.0
 31
0.0
100
AcDbAttributeDefinition
  3
Data projecto
  2
DATA_PROJ
 70
     0
  0
ATTDEF
  5
BAF
330
B9E
100
AcDbEntity
  8
1
100
AcDbText
 10
-150.8658110728766
 20
13.24983210208193
 30
0.0
 40
2.0
  1
xxxxxxxx
 41
0.8
  7
SANINDUSA
 72
     4
 11
-145.6564087894649
 21
14.0
 31
0.0
100
AcDbAttributeDefinition
  3
nome de quem projectou
  2
NOME
 70
     0
  0
ATTDEF
  5
BB0
330
B9E
100
AcDbEntity
  8
1
100
AcDbText
 10
-168.5396372253371
 20
9.159167226326394
 30
0.0
 40
2.0
  1
XX/XX/XXXX
 41
0.8
  7
SANINDUSA
 72
     4
 11
-161.5099528734231
 21
10.0
 31
0.0
100
AcDbAttributeDefinition
  3
Data desenhou
  2
DATA_DES
 70
     0
  0
ATTDEF
  5
BB1
330
B9E
100
AcDbEntity
  8
1
100
AcDbText
 10
-151.516986358303
 20
9.249832102081933
 30
0.0
 40
2.0
  1
xxxxxxxxx
 41
0.8
  7
SANINDUSA
 72
     4
 11
-145.6564087894649
 21
10.0
 31
0.0
100
AcDbAttributeDefinition
  3
nome
  2
NOME
 70
     0
  0
ATTDEF
  5
BB2
330
B9E
100
AcDbEntity
  8
1
100
AcDbText
 10
-127.2924214135946
 20
14.1979876583216
 30
0.0
 40
2.0
  1
Vitreous China
 41
0.8
  7
SANINDUSA
 72
     4
 11
-119.231709526422
 21
15.22216495852308
 31
0.0
100
AcDbAttributeDefinition
  3
Nome do Material:
  2
MATERIAL
 70
     0
  0
ATTDEF
  5
BB3
330
B9E
100
AcDbEntity
  8
1
100
AcDbText
 10
-103.1563452122093
 20
14.38019043949261
 30
0.0
 40
2.0
  1
Branco
 41
0.8
  7
SANINDUSA
 72
     4
 11
-99.33418268702462
 21
15.35937109765245
 31
0.0
100
AcDbAttributeDefinition
  3
cor da peça
  2
COR
 70
     0
  0
ATTDEF
  5
BB4
330
B9E
100
AcDbEntity
  8
1
100
AcDbText
 10
-116.7235057085292
 20
5.975822699798522
 30
0.0
 40
2.0
  1
Vidrado
 41
0.8
  7
SANINDUSA
 72
     4
 11
-112.5
 21
7.0
 31
0.0
100
AcDbAttributeDefinition
  3
Tipo de acabamento:
  2
ACABAMENTO
 70
     0
  0
ATTDEF
  5
BB5
330
B9E
100
AcDbEntity
  8
1
100
AcDbText
 10
-79.18527869967246
 20
16.65066409850533
 30
0.0
 40
2.0
  1
XXXXXXX
 41
0.8
  7
SANINDUSA
 72
     4
 11
-73.90871724903445
 21
17.65066409850533
 31
0.0
100
AcDbAttributeDefinition
  3
Normas
  2
NORMAS
 70
     0
  0
ATTDEF
  5
BB6
330
B9E
100
AcDbEntity
  8
1
100
AcDbText
 10
-30.55312290127603
 20
14.0
 30
0.0
 40
2.0
  1
XXXXXXXXXXXXXX
 41
0.8
  7
SANINDUSA
 72
     4
 11
-20.0
 21
15.0
 31
0.0
100
AcDbAttributeDefinition
  3
Substitui o desenho:
  2
SUBSTITUI
 70
     0
  0
ATTDEF
  5
BB7
330
B9E
100
AcDbEntity
  8
1
100
AcDbText
 10
-31.30691739422431
 20
6.0
 30
0.0
 40
2.0
  1
XXXXXXXXXXXXXXX
 41
0.8
  7
SANINDUSA
 72
     4
 11
-20.0
 21
7.0
 31
0.0
100
AcDbAttributeDefinition
  3
Substituido por:
  2
SUBSTITUIDO
 70
     0
  0
ATTDEF
  5
BB8
330
B9E
100
AcDbEntity
  8
1
100
AcDbText
 10
-110.0220608548302
 20
1.478208457928303
 30
0.0
 40
2.0
  1
XXXXXXXXXXXXXXXXXXXXXXXXXXXXXXXXXX
 41
0.8
  7
SANINDUSA
 11
-110.0220608548302
 21
2.478208457928303
 31
0.0
100
AcDbAttributeDefinition
  3
Localização do desenho:
  2
LOC-DWG
 70
     0
 74
     2
  0
LINE
  5
BB9
330
B9E
100
AcDbEntity
  8
3
100
AcDbLine
 10
-135.0
 20
4.0
 30
0.0
 11
0.0000000000004547
 21
4.0
 31
0.0
  0
LINE
  5
BBA
330
B9E
100
AcDbEntity
  8
3
100
AcDbLine
 10
-90.00000000000046
 20
12.0
 30
0.0
 11
-135.0
 21
12.0
 31
0.0
  0
LINE
  5
BBB
330
B9E
100
AcDbEntity
  8
3
100
AcDbLine
 10
-135.0
 20
32.5
 30
0.0
 11
-40.0
 21
32.5
 31
0.0
  0
TEXT
  5
BBC
330
B9E
100
AcDbEntity
  8
1
100
AcDbText
 10
-134.0
 20
1.25
 30
0.0
 40
2.0
  1
Localização do des.:
 41
0.8
  7
SANINDUSA
 11
-134.0
 21
2.25
 31
0.0
100
AcDbText
 73
     2
  0
LINE
  5
BBD
330
B9E
100
AcDbEntity
  8
3
100
AcDbLine
 10
-180.0
 20
65.0
 30
0.0
 11
0.0
 21
65.0
 31
0.0
  0
LINE
  5
BBE
330
B9E
100
AcDbEntity
  8
leg fin
100
AcDbLine
 10
-40.0
 20
25.05956924886846
 30
0.0
 11
-135.0
 21
25.05956924886846
 31
0.0
  0
LINE
  5
BBF
330
B9E
100
AcDbEntity
  8
leg fin
100
AcDbLine
 10
-40.0
 20
28.5
 30
0.0
 11
-135.0
 21
28.5
 31
0.0
  0
LINE
  5
BC0
330
B9E
100
AcDbEntity
  8
3
100
AcDbLine
 10
-135.0
 20
50.0
 30
0.0
 11
-40.0
 21
50.0
 31
0.0
  0
TEXT
  5
BC1
330
B9E
100
AcDbEntity
  8
1
100
AcDbText
 10
-134.0
 20
29.75
 30
0.0
 40
2.0
  1
Desenho nº:
 41
0.8
  7
SANINDUSA
 11
-134.0
 21
30.75
 31
0.0
100
AcDbText
 73
     2
  0
TEXT
  5
BC2
330
B9E
100
AcDbEntity
  8
1
100
AcDbText
 10
-134.0
 20
9.25
 30
0.0
 40
2.0
  1
Acabamento:
 41
0.8
  7
SANINDUSA
 11
-134.0
 21
10.25
 31
0.0
100
AcDbText
 73
     2
  0
LINE
  5
BC3
330
B9E
100
AcDbEntity
  8
3
100
AcDbLine
 10
-180.0
 20
20.0
 30
0.0
 11
0.0
 21
20.0
 31
0.0
  0
LINE
  5
BC4
330
B9E
100
AcDbEntity
  8
1
100
AcDbLine
 10
-174.5810776056337
 20
55.5
 30
0.0
 11
-174.5810776056337
 21
65.0
 31
0.0
  0
LINE
  5
BC5
330
B9E
100
AcDbEntity
  8
1
100
AcDbLine
 10
-168.9210461879161
 20
55.5
 30
0.0
 11
-168.9210461879161
 21
65.0
 31
0.0
  0
LINE
  5
BC6
330
B9E
100
AcDbEntity
  8
1
100
AcDbLine
 10
-154.0988595589306
 20
55.5
 30
0.0
 11
-154.0988595589306
 21
65.0
 31
0.0
  0
LINE
  5
BC7
330
B9E
100
AcDbEntity
  8
3
100
AcDbLine
 10
-180.0
 20
65.0
 30
0.0
 11
-180.0
 21
0.0
 31
0.0
  0
LINE
  5
BC8
330
B9E
100
AcDbEntity
  8
3
100
AcDbLine
 10
-135.0
 20
0.0
 30
0.0
 11
-135.0
 21
65.0
 31
0.0
  0
TEXT
  5
BC9
330
B9E
100
AcDbEntity
  8
1
100
AcDbText
 10
-179.0
 20
9.75
 30
0.0
 40
1.5
  1
Des.
 41
0.8
  7
SANINDUSA
 11
-179.0
 21
10.5
 31
0.0
100
AcDbText
 73
     2
  0
LINE
  5
BCA
330
B9E
100
AcDbEntity
  8
1
100
AcDbLine
 10
-168.9210461879161
 20
20.0
 30
0.0
 11
-168.9210461879161
 21
0.0
 31
0.0
  0
LINE
  5
BCB
330
B9E
100
AcDbEntity
  8
1
100
AcDbLine
 10
-154.0988595589306
 20
20.0
 30
0.0
 11
-154.0988595589306
 21
0.0
 31
0.0
  0
LINE
  5
BCC
330
B9E
100
AcDbEntity
  8
1
100
AcDbLine
 10
-180.0
 20
4.0
 30
0.0
 11
-135.0
 21
4.0
 31
0.0
  0
LINE
  5
BCD
330
B9E
100
AcDbEntity
  8
1
100
AcDbLine
 10
-180.0
 20
8.0
 30
0.0
 11
-135.0
 21
8.0
 31
0.0
  0
TEXT
  5
BCE
330
B9E
100
AcDbEntity
  8
1
100
AcDbText
 10
-179.0
 20
1.73257823687436
 30
0.0
 40
1.5
  1
Aprov.
 41
0.8
  7
SANINDUSA
 11
-179.0
 21
2.48257823687436
 31
0.0
100
AcDbText
 73
     2
  0
TEXT
  5
BCF
330
B9E
100
AcDbEntity
  8
1
100
AcDbText
 10
-179.0
 20
5.75
 30
0.0
 40
1.5
  1
Ver.
 41
0.8
  7
SANINDUSA
 11
-179.0
 21
6.5
 31
0.0
100
AcDbText
 73
     2
  0
LINE
  5
BD0
330
B9E
100
AcDbEntity
  8
1
100
AcDbLine
 10
-180.0
 20
16.0
 30
0.0
 11
-135.0
 21
16.0
 31
0.0
  0
LINE
  5
BD1
330
B9E
100
AcDbEntity
  8
1
100
AcDbLine
 10
-180.0
 20
12.0
 30
0.0
 11
-135.0
 21
12.0
 31
0.0
  0
TEXT
  5
BD2
330
B9E
100
AcDbEntity
  8
1
100
AcDbText
 10
-179.0
 20
13.75
 30
0.0
 40
1.5
  1
Proj.
 41
0.8
  7
SANINDUSA
 11
-179.0
 21
14.5
 31
0.0
100
AcDbText
 73
     2
  0
TEXT
  5
BD3
330
B9E
100
AcDbEntity
  8
1
100
AcDbText
 10
-167.9210461879161
 20
17.75
 30
0.0
 40
1.5
  1
Data
 41
0.8
  7
SANINDUSA
 11
-167.9210461879161
 21
18.5
 31
0.0
100
AcDbText
 73
     2
  0
TEXT
  5
BD4
330
B9E
100
AcDbEntity
  8
1
100
AcDbText
 10
-153.0988595589306
 20
17.75
 30
0.0
 40
1.5
  1
Nome
 41
0.8
  7
SANINDUSA
 11
-153.0988595589306
 21
18.5
 31
0.0
100
AcDbText
 73
     2
  0
LINE
  5
BD5
330
B9E
100
AcDbEntity
  8
leg fin
100
AcDbLine
 10
-130.0
 20
20.0
 30
0.0
 11
-130.0
 21
28.5
 31
0.0
  0
TEXT
  5
BD6
330
B9E
100
AcDbEntity
  8
1
100
AcDbText
 10
-134.0
 20
17.25
 30
0.0
 40
2.0
  1
Material:
 41
0.8
  7
SANINDUSA
 11
-134.0
 21
18.25
 31
0.0
100
AcDbText
 73
     2
  0
TEXT
  5
BD7
330
B9E
100
AcDbEntity
  8
1
100
AcDbText
 10
-129.0
 20
26.43288406845113
 30
0.0
 40
1.5
  1
Ano:
 41
0.8
  7
SANINDUSA
 11
-129.0
 21
27.18288406845113
 31
0.0
100
AcDbText
 73
     2
  0
LINE
  5
BD8
330
B9E
100
AcDbEntity
  8
1
100
AcDbLine
 10
-180.0
 20
55.5
 30
0.0
 11
-135.0
 21
55.5
 31
0.0
  0
TEXT
  5
BD9
330
B9E
100
AcDbEntity
  8
1
100
AcDbText
 10
-179.0
 20
52.67772246885193
 30
0.0
 40
1.5
  1
descrição
 41
0.8
  7
SANINDUSA
 11
-179.0
 21
53.42772246885193
 31
0.0
100
AcDbText
 73
     2
  0
TEXT
  5
BDA
330
B9E
100
AcDbEntity
  8
1
100
AcDbText
 10
-134.0
 20
47.25
 30
0.0
 40
2.0
  1
Peça:
 41
0.8
  7
SANINDUSA
 11
-134.0
 21
48.25
 31
0.0
100
AcDbText
 73
     2
  0
LINE
  5
BDB
330
B9E
100
AcDbEntity
  8
1
100
AcDbLine
 10
-180.0
 20
59.5
 30
0.0
 11
-135.0
 21
59.5
 31
0.0
  0
TEXT
  5
BDC
330
B9E
100
AcDbEntity
  8
1
100
AcDbText
 10
-173.5810776056337
 20
62.75
 30
0.0
 40
1.5
  1
Alt.
 41
0.8
  7
SANINDUSA
 11
-173.5810776056337
 21
63.5
 31
0.0
100
AcDbText
 73
     2
  0
TEXT
  5
BDD
330
B9E
100
AcDbEntity
  8
1
100
AcDbText
 10
-179.0
 20
62.75
 30
0.0
 40
1.5
  1
Rev.
 41
0.8
  7
SANINDUSA
 11
-179.0
 21
63.5
 31
0.0
100
AcDbText
 73
     2
  0
TEXT
  5
BDE
330
B9E
100
AcDbEntity
  8
1
100
AcDbText
 10
-167.9210461879161
 20
62.75
 30
0.0
 40
1.5
  1
Data
 41
0.8
  7
SANINDUSA
 11
-167.9210461879161
 21
63.5
 31
0.0
100
AcDbText
 73
     2
  0
TEXT
  5
BDF
330
B9E
100
AcDbEntity
  8
1
100
AcDbText
 10
-153.0988595589306
 20
62.75
 30
0.0
 40
1.5
  1
Nome
 41
0.8
  7
SANINDUSA
 11
-153.0988595589306
 21
63.5
 31
0.0
100
AcDbText
 73
     2
  0
TEXT
  5
BE0
330
B9E
100
AcDbEntity
  8
1
100
AcDbText
 10
-134.0
 20
62.25
 30
0.0
 40
2.0
  1
Produto:
 41
0.8
  7
SANINDUSA
 11
-134.0
 21
63.25
 31
0.0
100
AcDbText
 73
     2
  0
LINE
  5
BE1
330
B9E
100
AcDbEntity
  8
3
100
AcDbLine
 10
-40.0
 20
4.0
 30
0.0
 11
-40.0
 21
65.0
 31
0.0
  0
LWPOLYLINE
  5
BE2
102
{ACAD_REACTORS
330
BEC
102
}
330
B9E
100
AcDbEntity
  8
9
100
AcDbPolyline
 90
       12
 70
     1
 43
0.0
 10
-3.038714600644652
 20
58.90010174665076
 10
-5.726962862472191
 20
58.90010174665076
 10
-5.726962862472191
 20
58.5001017466509
 10
-3.038748516195028
 20
58.5001017466509
 42
-0.4142135623731731
 10
-2.638748516194482
 20
58.1001017466508
 10
-2.638748516194482
 20
57.42799728675596
 10
-5.21497371544865
 20
57.42799728675596
 42
0.4142135623731289
 10
-6.014973715448377
 20
56.627997286756
 10
-6.014973715448377
 20
55.92380871629643
 42
0.4142135623731132
 10
-5.21497371544865
 20
55.12380871629648
 10
-2.23871460064447
 20
55.12380871629648
 10
-2.23871460064447
 20
58.10010174665103
 42
0.4142135623730717
  0
LWPOLYLINE
  5
BE3
102
{ACAD_REACTORS
330
BEC
102
}
330
B9E
100
AcDbEntity
  8
9
100
AcDbPolyline
 90
       20
 70
     1
 43
0.0
 10
-10.01531287095122
 20
57.82799728675581
 10
-10.01531287095122
 20
58.10010174665103
 42
-0.4142135623730744
 10
-9.615312870951584
 20
58.5001017466509
 10
-6.92703069357276
 20
58.5001017466509
 10
-6.92703069357276
 20
58.90010174665076
 10
-9.615346786501959
 20
58.90010174665076
 42
0.4142135623730883
 10
-10.41534678650168
 20
58.1001017466508
 10
-10.41534678650168
 20
57.82796337120567
 42
0.4142135623730717
 10
-9.615346786501959
 20
57.02796337120571
 10
-7.423079531965413
 20
57.02796337120571
 42
-0.4142135623730847
 10
-7.023079531965322
 20
56.62796337120562
 10
-7.023079531965322
 20
55.90786840766487
 42
-0.4142135623730744
 10
-7.423079531965413
 20
55.507868407665
 10
-10.41534678650168
 20
55.507868407665
 10
-10.41534678650168
 20
55.12380871629648
 10
-7.445787917283723
 20
55.12380871629648
 42
0.4114777732064574
 10
-6.645822882998345
 20
55.9163291493976
 10
-6.639238813324936
 20
56.62051771985716
 42
0.4169546541682913
 10
-7.439203847610315
 20
57.42799728675596
 10
-9.615312870951584
 20
57.42799728675596
 42
-0.4142135623731576
  0
LWPOLYLINE
  5
BE4
102
{ACAD_REACTORS
330
BEC
102
}
330
B9E
100
AcDbEntity
  8
9
100
AcDbPolyline
 90
       12
 70
     1
 43
0.0
 10
-14.41561811090378
 20
58.90010174665076
 10
-14.79964388672215
 20
58.90010174665076
 10
-14.79964388672215
 20
55.92380871629643
 42
0.4142135623731133
 10
-13.99964388672242
 20
55.12380871629648
 10
-11.8233508563676
 20
55.12380871629648
 42
0.4142135623730872
 10
-11.02335085636741
 20
55.92380871629643
 10
-11.02335085636741
 20
58.90010174665076
 10
-11.42338477191788
 20
58.90010174665076
 10
-11.42338477191788
 20
55.91567577726095
 42
-0.4131711701795318
 10
-11.82196067063523
 20
55.51567831234956
 10
-14.0141940096214
 20
55.50787335710947
 42
-0.4152567234624407
 10
-14.41561811090378
 20
55.90787082202087
  0
LWPOLYLINE
  5
BE5
102
{ACAD_REACTORS
330
BEC
102
}
330
B9E
100
AcDbEntity
  8
9
100
AcDbPolyline
 90
        6
 70
     1
 43
0.0
 10
-15.80771578768872
 20
55.507868407665
 10
-18.39994912667453
 20
55.507868407665
 42
-0.4142135623731731
 10
-18.79994912667462
 20
55.90786840766487
 10
-18.79994912667462
 20
58.10010174665103
 42
-0.4142135623730744
 10
-18.39994912667453
 20
58.5001017466509
 10
-15.80771578768872
 20
58.5001017466509
  0
LWPOLYLINE
  5
BE6
102
{ACAD_REACTORS
330
BEC
102
}
330
B9E
100
AcDbEntity
  8
9
100
AcDbPolyline
 90
        8
 70
     1
 43
0.0
 10
-15.4236900118708
 20
59.87619128370352
 10
-15.80771578768872
 20
59.87619128370352
 10
-15.80771578768872
 20
58.90010174665076
 10
-18.39176256411201
 20
58.90010174665076
 42
0.4131164467977967
 10
-19.19175694739761
 20
58.1030995310698
 10
-19.1999120763262
 20
55.92680650071542
 42
0.4153115297271718
 10
-18.39991769304061
 20
55.12380871629648
 10
-15.4236900118708
 20
55.12380871629648
  0
LWPOLYLINE
  5
BE7
102
{ACAD_REACTORS
330
BEC
102
}
330
B9E
100
AcDbEntity
  8
9
100
AcDbPolyline
 90
       10
 70
     1
 43
0.0
 10
-20.59201288790928
 20
58.90010174665076
 10
-23.56830591826338
 20
58.90010174665076
 10
-23.56830591826338
 20
55.12380871629648
 10
-23.18424622689509
 20
55.12380871629648
 10
-23.18424622689509
 20
58.5001017466509
 10
-20.59204680345965
 20
58.5001017466509
 42
-0.4142135623730898
 10
-20.19204680345956
 20
58.1001017466508
 10
-20.19204680345956
 20
55.12380871629648
 10
-19.79201288790909
 20
55.12380871629648
 10
-19.79201288790909
 20
58.10010174665103
 42
0.4142135623731132
  0
LWPOLYLINE
  5
BE8
102
{ACAD_REACTORS
330
BEC
102
}
330
B9E
100
AcDbEntity
  8
9
100
AcDbPolyline
 90
        4
 70
     1
 43
0.0
 10
-24.19231812786165
 20
58.90010174665076
 10
-24.57637781922995
 20
58.90010174665076
 10
-24.57637781922995
 20
55.12380871629648
 10
-24.19231812786165
 20
55.12380871629648
  0
LWPOLYLINE
  5
BE9
102
{ACAD_REACTORS
330
BEC
102
}
330
B9E
100
AcDbEntity
  8
9
100
AcDbPolyline
 90
       10
 70
     1
 43
0.0
 10
-28.57661522808212
 20
58.5001017466509
 10
-25.98444972019706
 20
58.5001017466509
 42
-0.4142135623731731
 10
-25.58444972019652
 20
58.1001017466508
 10
-25.58444972019652
 20
55.12380871629648
 10
-25.2004239443786
 20
55.12380871629648
 10
-25.2004239443786
 20
58.10010174665103
 42
0.4142135623730717
 10
-26.00042394437833
 20
58.90010174665076
 10
-28.97664914363259
 20
58.90010174665076
 10
-28.97664914363259
 20
55.12380871629648
 10
-28.57661522808212
 20
55.12380871629648
  0
LWPOLYLINE
  5
BEA
102
{ACAD_REACTORS
330
BEC
102
}
330
B9E
100
AcDbEntity
  8
9
100
AcDbPolyline
 90
       12
 70
     1
 43
0.0
 10
-29.58465321349832
 20
58.10010174665103
 42
0.4142135623730716
 10
-30.3846532134985
 20
58.90010174665076
 10
-33.07296930642724
 20
58.90010174665076
 10
-33.07296930642724
 20
58.5001017466509
 10
-30.38468712904842
 20
58.5001017466509
 42
-0.4142135623730067
 10
-29.98468712904878
 20
58.1001017466508
 10
-29.98468712904878
 20
57.42799728675618
 10
-32.56098015940324
 20
57.42799728675596
 42
0.4142135623731289
 10
-33.36098015940343
 20
56.627997286756
 10
-33.36098015940343
 20
55.92380871629643
 42
0.4142135623731132
 10
-32.56098015940324
 20
55.12380871629648
 10
-29.58465321349832
 20
55.12380871629648
  0
LWPOLYLINE
  5
BEB
102
{ACAD_REACTORS
330
BEC
102
}
330
B9E
100
AcDbEntity
  8
9
100
AcDbPolyline
 90
       20
 70
     1
 43
0.0
 10
-34.7850262845518
 20
57.42799728675596
 10
-36.96125148380543
 20
57.42799728675596
 42
-0.4142135623730898
 10
-37.36125148380552
 20
57.82799728675604
 10
-37.36125148380552
 20
58.10010174665103
 42
-0.4142135623730744
 10
-36.96125148380543
 20
58.5001017466509
 10
-34.27303713752781
 20
58.50010174665067
 10
-34.27303713752781
 20
58.90010174665076
 10
-36.96128539935535
 20
58.90010174665076
 42
0.4142135623731289
 10
-37.76128539935553
 20
58.1001017466508
 10
-37.76128539935553
 20
57.82796337120567
 42
0.4142135623730716
 10
-36.9612853993558
 20
57.02796337120571
 10
-34.76901814481926
 20
57.02796337120571
 42
-0.414213562373168
 10
-34.36901814481962
 20
56.62796337120562
 10
-34.36901814481962
 20
55.90786840766487
 42
-0.4142135623730744
 10
-34.76901814481926
 20
55.507868407665
 10
-37.76128539935553
 20
55.507868407665
 10
-37.76128539935553
 20
55.12380871629648
 10
-34.7850262845518
 20
55.12380871629648
 42
0.4142135623731289
 10
-33.98502628455162
 20
55.92380871629643
 10
-33.98502628455162
 20
56.627997286756
 42
0.4142135623731132
  0
HATCH
  5
BEC
330
B9E
100
AcDbEntity
  8
9
100
AcDbHatch
 10
0.0
 20
0.0
 30
0.0
210
0.0
220
0.0
230
1.0
  2
SOLID
 70
     1
 71
     1
 91
       13
 92
        7
 72
     1
 73
     1
 93
       20
 10
-34.36901814481962
 20
55.90786840766487
 42
-0.414213562372991
 10
-34.76901814481926
 20
55.507868407665
 42
0.0
 10
-37.76128539935553
 20
55.507868407665
 42
0.0
 10
-37.76128539935553
 20
55.12380871629648
 42
0.0
 10
-34.7850262845518
 20
55.12380871629648
 42
0.4142135623731705
 10
-33.98502628455162
 20
55.92380871629666
 42
0.0
 10
-33.98502628455162
 20
56.627997286756
 42
0.4142135623731547
 10
-34.7850262845518
 20
57.42799728675596
 42
0.0
 10
-36.96125148380543
 20
57.42799728675596
 42
-0.4142135623730898
 10
-37.36125148380552
 20
57.82799728675604
 42
0.0
 10
-37.36125148380552
 20
58.1001017466508
 42
-0.4142135623731575
 10
-36.96125148380543
 20
58.5001017466509
 42
0.0
 10
-34.27303713752781
 20
58.50010174665067
 42
0.0
 10
-34.27303713752781
 20
58.90010174665076
 42
0.0
 10
-36.96128539935535
 20
58.90010174665076
 42
0.4142135623731705
 10
-37.76128539935553
 20
58.10010174665058
 42
0.0
 10
-37.76128539935553
 20
57.82796337120544
 42
0.4142135623730299
 10
-36.9612853993558
 20
57.02796337120571
 42
0.0
 10
-34.76901814481926
 20
57.02796337120571
 42
-0.4142135623730015
 10
-34.36901814481962
 20
56.62796337120608
 42
0.0
 97
        1
330
BEB
 92
        7
 72
     1
 73
     1
 93
       12
 10
-33.36098015940343
 20
55.92380871629666
 42
0.4142135623731547
 10
-32.56098015940324
 20
55.12380871629648
 42
0.0
 10
-29.58465321349877
 20
55.12380871629648
 42
0.0
 10
-29.58465321349832
 20
58.10010174665058
 42
0.4142135623731964
 10
-30.3846532134985
 20
58.90010174665076
 42
0.0
 10
-33.07296930642724
 20
58.90010174665076
 42
0.0
 10
-33.07296930642724
 20
58.50010174665067
 42
0.0
 10
-30.38468712904887
 20
58.5001017466509
 42
-0.4142135623732564
 10
-29.98468712904878
 20
58.10010174665103
 42
0.0
 10
-29.98468712904923
 20
57.42799728675596
 42
0.0
 10
-32.56098015940324
 20
57.42799728675596
 42
0.4142135623731705
 10
-33.36098015940343
 20
56.627997286756
 42
0.0
 97
        1
330
BEA
 92
       22
 72
     1
 73
     1
 93
        6
 10
-32.97692046803468
 20
56.62796337120562
 42
-0.4142135623731576
 10
-32.57692046803459
 20
57.02796337120571
 42
0.0
 10
-29.98468712904878
 20
57.02796337120571
 42
0.0
 10
-29.98468712904878
 20
55.507868407665
 42
0.0
 10
-32.57692046803459
 20
55.507868407665
 42
-0.4142135623731731
 10
-32.97692046803468
 20
55.90786840766487
 42
0.0
 97
        1
330
C11
 92
        7
 72
     1
 73
     1
 93
       10
 10
-28.57661522808212
 20
58.5001017466509
 42
0.0
 10
-25.98444972019661
 20
58.5001017466509
 42
-0.4142135623730067
 10
-25.58444972019652
 20
58.10010174665058
 42
0.0
 10
-25.58444972019606
 20
55.12380871629648
 42
0.0
 10
-25.20042394437906
 20
55.12380871629648
 42
0.0
 10
-25.2004239443786
 20
58.1001017466508
 42
0.4142135623731134
 10
-26.00042394437833
 20
58.90010174665076
 42
0.0
 10
-28.97664914363259
 20
58.90010174665076
 42
0.0
 10
-28.97664914363259
 20
55.12380871629648
 42
0.0
 10
-28.57661522808212
 20
55.12380871629648
 42
0.0
 97
        1
330
BE9
 92
        7
 72
     0
 73
     1
 93
        4
 10
-24.57637781922995
 20
55.12380871629648
 10
-24.19231812786165
 20
55.12380871629648
 10
-24.19231812786165
 20
58.90010174665076
 10
-24.57637781922995
 20
58.90010174665076
 97
        1
330
BE8
 92
        7
 72
     0
 73
     1
 93
        4
 10
-24.19231812786165
 20
59.87619128370352
 10
-24.5763778192304
 20
59.87619128370352
 10
-24.5763778192304
 20
59.28412752246913
 10
-24.1923181278612
 20
59.28412752246913
 97
        1
330
C12
 92
        7
 72
     1
 73
     1
 93
       10
 10
-23.18424622689509
 20
58.5001017466509
 42
0.0
 10
-20.59204680345965
 20
58.5001017466509
 42
-0.4142135623730898
 10
-20.19204680345956
 20
58.1001017466508
 42
0.0
 10
-20.19204680345956
 20
55.12380871629648
 42
0.0
 10
-19.79201288790909
 20
55.12380871629648
 42
0.0
 10
-19.79201288790909
 20
58.1001017466508
 42
0.4142135623731547
 10
-20.59201288790928
 20
58.90010174665076
 42
0.0
 10
-23.56830591826338
 20
58.90010174665076
 42
0.0
 10
-23.56830591826338
 20
55.12380871629648
 42
0.0
 10
-23.18424622689463
 20
55.12380871629648
 42
0.0
 97
        1
330
BE7
 92
        7
 72
     1
 73
     1
 93
        8
 10
-19.1999120763262
 20
55.92680650071542
 42
0.4153115297271299
 10
-18.39991769304061
 20
55.12380871629648
 42
0.0
 10
-15.4236900118708
 20
55.12380871629648
 42
0.0
 10
-15.4236900118708
 20
59.87619128370352
 42
0.0
 10
-15.80771578768872
 20
59.87619128370352
 42
0.0
 10
-15.80771578768872
 20
58.90010174665076
 42
0.0
 10
-18.39176256411201
 20
58.90010174665076
 42
0.4131164467977965
 10
-19.19175694739761
 20
58.1030995310698
 42
0.0
 97
        1
330
BE6
 92
       22
 72
     1
 73
     1
 93
        6
 10
-18.79994912667462
 20
58.1001017466508
 42
-0.4142135623731575
 10
-18.39994912667453
 20
58.5001017466509
 42
0.0
 10
-15.80771578768872
 20
58.50010174665067
 42
0.0
 10
-15.80771578768827
 20
55.507868407665
 42
0.0
 10
-18.39994912667453
 20
55.507868407665
 42
-0.4142135623731731
 10
-18.79994912667462
 20
55.90786840766487
 42
0.0
 97
        1
330
BE5
 92
        7
 72
     1
 73
     1
 93
       12
 10
-14.79964388672215
 20
55.92380871629621
 42
0.4142135623729885
 10
-13.99964388672242
 20
55.12380871629648
 42
0.0
 10
-11.8233508563676
 20
55.12380871629648
 42
0.4142135623731289
 10
-11.02335085636741
 20
55.92380871629666
 42
0.0
 10
-11.02335085636741
 20
58.90010174665076
 42
0.0
 10
-11.42338477191788
 20
58.90010174665076
 42
0.0
 10
-11.42338477191788
 20
55.91567577726095
 42
-0.4131711701795319
 10
-11.82196067063523
 20
55.51567831234956
 42
0.0
 10
-14.01419400962095
 20
55.50787335710947
 42
-0.4152567234626918
 10
-14.41561811090378
 20
55.90787082202087
 42
0.0
 10
-14.41561811090378
 20
58.90010174665076
 42
0.0
 10
-14.7996438867226
 20
58.90010174665076
 42
0.0
 97
        1
330
BE4
 92
        7
 72
     1
 73
     1
 93
       20
 10
-7.423079531965413
 20
57.02796337120571
 42
-0.414213562373168
 10
-7.023079531965322
 20
56.62796337120562
 42
0.0
 10
-7.023079531965322
 20
55.90786840766487
 42
-0.4142135623731575
 10
-7.423079531965413
 20
55.507868407665
 42
0.0
 10
-10.41534678650168
 20
55.507868407665
 42
0.0
 10
-10.41534678650168
 20
55.12380871629648
 42
0.0
 10
-7.445787917283723
 20
55.12380871629648
 42
0.4114777732065809
 10
-6.645822882998345
 20
55.91632914939783
 42
0.0
 10
-6.639238813324936
 20
56.62051771985716
 42
0.4169546541682913
 10
-7.439203847610315
 20
57.42799728675596
 42
0.0
 10
-9.615312870951584
 20
57.42799728675596
 42
-0.4142135623729911
 10
-10.01531287095122
 20
57.82799728675581
 42
0.0
 10
-10.01531287095122
 20
58.10010174665103
 42
-0.414213562372991
 10
-9.615312870951584
 20
58.5001017466509
 42
0.0
 10
-6.92703069357276
 20
58.50010174665067
 42
0.0
 10
-6.927030693572305
 20
58.90010174665076
 42
0.0
 10
-9.615346786501959
 20
58.90010174665076
 42
0.4142135623730467
 10
-10.41534678650168
 20
58.10010174665103
 42
0.0
 10
-10.41534678650168
 20
57.82796337120544
 42
0.4142135623730301
 10
-9.615346786501959
 20
57.02796337120571
 42
0.0
 97
        1
330
BE3
 92
        7
 72
     1
 73
     1
 93
       12
 10
-5.21497371544865
 20
57.42799728675596
 42
0.4142135623730871
 10
-6.014973715448377
 20
56.627997286756
 42
0.0
 10
-6.014973715448377
 20
55.92380871629621
 42
0.4142135623730715
 10
-5.21497371544865
 20
55.12380871629648
 42
0.0
 10
-2.23871460064447
 20
55.12380871629648
 42
0.0
 10
-2.23871460064447
 20
58.10010174665058
 42
0.414213562373155
 10
-3.038714600644652
 20
58.90010174665076
 42
0.0
 10
-5.726962862471737
 20
58.90010174665076
 42
0.0
 10
-5.726962862472191
 20
58.5001017466509
 42
0.0
 10
-3.038748516194573
 20
58.5001017466509
 42
-0.4142135623730067
 10
-2.638748516194482
 20
58.10010174665058
 42
0.0
 10
-2.638748516194482
 20
57.42799728675596
 42
0.0
 97
        1
330
BE2
 92
       22
 72
     1
 73
     1
 93
        6
 10
-2.638748516194937
 20
57.02796337120571
 42
0.0
 10
-2.638748516194482
 20
55.50786840766477
 42
0.0
 10
-5.21497371544865
 20
55.507868407665
 42
-0.4142135623731731
 10
-5.614973715448741
 20
55.90786840766509
 42
0.0
 10
-5.614973715448741
 20
56.62796337120562
 42
-0.4142135623731576
 10
-5.21497371544865
 20
57.02796337120571
 42
0.0
 97
        1
330
C0D
 75
     0
 76
     1
 47
0.0407044778999864
 98
       13
 10
-34.18710075113677
 20
56.16907953933765
 10
-33.12851374392494
 20
56.49471602641233
 10
-33.12851374392494
 20
56.49471602641233
 10
-28.77202873835904
 20
57.51232930166111
 10
-24.41554807250941
 20
57.91937341678636
 10
-24.41554807250941
 20
59.384734621186
 10
-23.31624584658039
 20
58.3264175319116
 10
-19.04119127844888
 20
57.75655517324913
 10
-19.04119127844888
 20
57.75655517324913
 10
-14.64399105416578
 20
57.43091868617466
 10
-8.048195057457178
 20
57.22739662861204
 10
-4.017427461911665
 20
57.18669281458665
 10
-4.017427461911665
 20
57.18669281458665
  0
TEXT
  5
BED
330
B9E
100
AcDbEntity
  8
leg fin
100
AcDbText
 10
3.391127401597259
 20
2.107634911895729
 30
0.0
 40
1.5
  1
Este desenho é propriedade da Sanindusa, S.A., e não pode ser copiado nem divulgado sem nossa autorização.
 50
90.0
 41
0.8
  7
SANINDUSA
100
AcDbText
  0
LINE
  5
BEE
330
B9E
100
AcDbEntity
  8
3
100
AcDbLine
 10
-90.0
 20
4.0
 30
0.0
 11
-90.0
 21
12.0
 31
0.0
  0
TEXT
  5
BEF
330
B9E
100
AcDbEntity
  8
1
100
AcDbText
 10
-39.0
 20
9.25
 30
0.0
 40
2.0
  1
Substituido por:
 41
0.8
  7
SANINDUSA
 11
-39.0
 21
10.25
 31
0.0
100
AcDbText
 73
     2
  0
POINT
  5
BF0
330
B9E
100
AcDbEntity
  8
SANINDUSA
100
AcDbPoint
 10
0.0
 20
0.0
 30
0.0
  0
TEXT
  5
BF1
330
B9E
100
AcDbEntity
  8
1
100
AcDbText
 10
-89.0
 20
16.74927010445663
 30
0.0
 40
2.0
  1
Normas:
 41
0.8
  7
SANINDUSA
 11
-89.0
 21
17.74927010445663
 31
0.0
100
AcDbText
 73
     2
  0
LINE
  5
BF2
330
B9E
100
AcDbEntity
  8
3
100
AcDbLine
 10
-90.0
 20
12.0
 30
0.0
 11
-90.0
 21
20.0
 31
0.0
  0
LINE
  5
BF3
330
B9E
100
AcDbEntity
  8
3
100
AcDbLine
 10
-110.546019464768
 20
12.0
 30
0.0
 11
-110.546019464768
 21
20.0
 31
0.0
  0
TEXT
  5
BF4
330
B9E
100
AcDbEntity
  8
1
100
AcDbText
 10
-109.6177520618648
 20
17.25
 30
0.0
 40
2.0
  1
Cor:
 41
0.8
  7
SANINDUSA
 11
-109.6177520618648
 21
18.25
 31
0.0
100
AcDbText
 73
     2
  0
LINE
  5
BF5
330
B9E
100
AcDbEntity
  8
leg fin
100
AcDbLine
 10
-91.42857142857156
 20
20.0
 30
0.0
 11
-91.42857142857156
 21
28.5
 31
0.0
  0
LINE
  5
BF6
330
B9E
100
AcDbEntity
  8
leg fin
100
AcDbLine
 10
-104.2857142857142
 20
20.0
 30
0.0
 11
-104.2857142857142
 21
28.5
 31
0.0
  0
LINE
  5
BF7
330
B9E
100
AcDbEntity
  8
leg fin
100
AcDbLine
 10
-117.1428571428573
 20
20.0
 30
0.0
 11
-117.1428571428573
 21
28.5
 31
0.0
  0
POINT
  5
BF8
330
B9E
100
AcDbEntity
  8
SANINDUSA
100
AcDbPoint
 10
-117.1428571428573
 20
28.5
 30
0.0
  0
POINT
  5
BF9
330
B9E
100
AcDbEntity
  8
SANINDUSA
100
AcDbPoint
 10
-104.2857142857142
 20
28.5
 30
0.0
  0
POINT
  5
BFA
330
B9E
100
AcDbEntity
  8
SANINDUSA
100
AcDbPoint
 10
-91.42857142857156
 20
28.5
 30
0.0
  0
TEXT
  5
BFB
330
B9E
100
AcDbEntity
  8
1
100
AcDbText
 10
-116.200160604496
 20
26.43288406845113
 30
0.0
 40
1.5
  1
Nº Seq.:
 41
0.8
  7
SANINDUSA
 11
-116.200160604496
 21
27.18288406845113
 31
0.0
100
AcDbText
 73
     2
  0
TEXT
  5
BFC
330
B9E
100
AcDbEntity
  8
1
100
AcDbText
 10
-103.2106584078738
 20
26.43288406845113
 30
0.0
 40
1.5
  1
Tipo:
 41
0.8
  7
SANINDUSA
 11
-103.2106584078738
 21
27.18288406845113
 31
0.0
100
AcDbText
 73
     2
  0
TEXT
  5
BFD
330
B9E
100
AcDbEntity
  8
1
100
AcDbText
 10
-90.22114672289353
 20
26.43288406845113
 30
0.0
 40
1.5
  1
Prod.:
 41
0.8
  7
SANINDUSA
 11
-90.22114672289353
 21
27.18288406845113
 31
0.0
100
AcDbText
 73
     2
  0
TEXT
  5
BFE
330
B9E
100
AcDbEntity
  8
1
100
AcDbText
 10
-64.77320576346574
 20
26.43288406845113
 30
0.0
 40
1.5
  1
Rev.:
 41
0.8
  7
SANINDUSA
 11
-64.77320576346574
 21
27.18288406845113
 31
0.0
100
AcDbText
 73
     2
  0
LINE
  5
BFF
330
B9E
100
AcDbEntity
  8
leg fin
100
AcDbLine
 10
-52.85714285714266
 20
20.0
 30
0.0
 11
-52.85714285714266
 21
28.5
 31
0.0
  0
LINE
  5
C00
330
B9E
100
AcDbEntity
  8
leg fin
100
AcDbLine
 10
-65.71428571428578
 20
20.0
 30
0.0
 11
-65.71428571428578
 21
28.5
 31
0.0
  0
LINE
  5
C01
330
B9E
100
AcDbEntity
  8
leg fin
100
AcDbLine
 10
-78.57142857142844
 20
20.0
 30
0.0
 11
-78.57142857142844
 21
28.5
 31
0.0
  0
POINT
  5
C02
330
B9E
100
AcDbEntity
  8
SANINDUSA
100
AcDbPoint
 10
-78.57142857142844
 20
28.5
 30
0.0
  0
POINT
  5
C03
330
B9E
100
AcDbEntity
  8
SANINDUSA
100
AcDbPoint
 10
-65.71428571428578
 20
28.5
 30
0.0
  0
POINT
  5
C04
330
B9E
100
AcDbEntity
  8
SANINDUSA
100
AcDbPoint
 10
-52.85714285714266
 20
28.5
 30
0.0
  0
TEXT
  5
C05
330
B9E
100
AcDbEntity
  8
1
100
AcDbText
 10
-77.61097961686573
 20
26.43288406845113
 30
0.0
 40
1.5
  1
Peça:
 41
0.8
  7
SANINDUSA
 11
-77.61097961686573
 21
27.18288406845113
 31
0.0
100
AcDbText
 73
     2
  0
TEXT
  5
C06
330
B9E
100
AcDbEntity
  8
1
100
AcDbText
 10
-52.06538060077036
 20
26.43288406845113
 30
0.0
 40
1.5
  1
Alt.:
 41
0.8
  7
SANINDUSA
 11
-52.06538060077036
 21
27.18288406845113
 31
0.0
100
AcDbText
 73
     2
  0
LINE
  5
C07
330
B9E
100
AcDbEntity
  8
3
100
AcDbLine
 10
0.0
 20
12.0
 30
0.0
 11
-40.0
 21
12.0
 31
0.0
  0
LINE
  5
C08
330
B9E
100
AcDbEntity
  8
3
100
AcDbLine
 10
-40.0
 20
32.5
 30
0.0
 11
0.0
 21
32.5
 31
0.0
  0
TEXT
  5
C09
330
B9E
100
AcDbEntity
  8
1
100
AcDbText
 10
-19.0
 20
29.75
 30
0.0
 40
2.0
  1
Folha:
 41
0.8
  7
SANINDUSA
 11
-19.0
 21
30.75
 31
0.0
100
AcDbText
 73
     2
  0
LINE
  5
C0A
330
B9E
100
AcDbEntity
  8
3
100
AcDbLine
 10
-20.0
 20
32.5
 30
0.0
 11
-20.0
 21
20.0
 31
0.0
  0
TEXT
  5
C0B
330
B9E
100
AcDbEntity
  8
1
100
AcDbText
 10
-39.0
 20
29.75
 30
0.0
 40
2.0
  1
Escala:
 41
0.8
  7
SANINDUSA
 11
-39.0
 21
30.75
 31
0.0
100
AcDbText
 73
     2
  0
TEXT
  5
C0C
330
B9E
100
AcDbEntity
  8
1
100
AcDbText
 10
-39.0
 20
17.25
 30
0.0
 40
2.0
  1
Substitui:
 41
0.8
  7
SANINDUSA
 11
-39.0
 21
18.25
 31
0.0
100
AcDbText
 73
     2
  0
LWPOLYLINE
  5
C0D
102
{ACAD_REACTORS
330
BEC
102
}
330
B9E
100
AcDbEntity
  8
9
100
AcDbPolyline
 90
        6
 70
     1
 43
0.0
 10
-2.638748516194482
 20
57.02796337120571
 10
-2.638748516194482
 20
55.50786840766477
 10
-5.21497371544865
 20
55.507868407665
 42
-0.4142135623730898
 10
-5.614973715448741
 20
55.90786840766487
 10
-5.614973715448741
 20
56.62796337120562
 42
-0.4142135623731576
 10
-5.21497371544865
 20
57.02796337120571
  0
LINE
  5
C0E
330
B9E
100
AcDbEntity
  8
3
100
AcDbLine
 10
-40.0
 20
50.0
 30
0.0
 11
0.0
 21
50.0
 31
0.0
  0
ATTDEF
  5
C0F
330
B9E
100
AcDbEntity
  8
1
100
AcDbText
 10
-31.30691739422431
 20
40.25
 30
0.0
 40
2.0
  1
XXXXXXXXXXXXXXX
 41
0.8
  7
SANINDUSA
 72
     4
 11
-20.0
 21
41.25
 31
0.0
100
AcDbAttributeDefinition
  3
Observações:
  2
OBS
 70
     0
  0
TEXT
  5
C10
330
B9E
100
AcDbEntity
  8
1
100
AcDbText
 10
-39.0
 20
47.25
 30
0.0
 40
2.0
  1
Observações:
 41
0.8
  7
SANINDUSA
 11
-39.0
 21
48.25
 31
0.0
100
AcDbText
 73
     2
  0
LWPOLYLINE
  5
C11
102
{ACAD_REACTORS
330
BEC
102
}
330
B9E
100
AcDbEntity
  8
9
100
AcDbPolyline
 90
        6
 70
     1
 43
0.0
 10
-29.98468712904878
 20
57.02796337120571
 10
-29.98468712904878
 20
55.507868407665
 10
-32.57692046803459
 20
55.507868407665
 42
-0.4142135623731731
 10
-32.97692046803468
 20
55.90786840766487
 10
-32.97692046803468
 20
56.62796337120562
 42
-0.4142135623731576
 10
-32.57692046803459
 20
57.02796337120571
  0
LWPOLYLINE
  5
C12
102
{ACAD_REACTORS
330
BEC
102
}
330
B9E
100
AcDbEntity
  8
9
100
AcDbPolyline
 90
        4
 70
     1
 43
0.0
 10
-24.19231812786165
 20
59.87619128370352
 10
-24.57637781922995
 20
59.87619128370352
 10
-24.57637781922995
 20
59.28412752246913
 10
-24.19231812786165
 20
59.28412752246913
  0
ENDBLK
  5
C14
330
B9E
100
AcDbEntity
  8
0
100
AcDbBlockEnd
  0
BLOCK
  5
1061
330
1060
100
AcDbEntity
  8
0
 62
     4
100
AcDbBlockBegin
  2
guarnizione
 70
     0
 10
0.0
 20
0.0
 30
0.0
  3
guarnizione
  1

  0
LINE
  5
1062
330
1060
100
AcDbEntity
  8
0
100
AcDbLine
 10
12.0
 20
3.179312414488776
 30
0.0
 11
12.0
 21
2.699999999999818
 31
0.0
  0
LINE
  5
1063
330
1060
100
AcDbEntity
  8
0
100
AcDbLine
 10
9.5
 20
3.130475008156281
 30
0.0
 11
9.440776269158959
 21
2.734883615801663
 31
0.0
  0
ARC
  5
1064
330
1060
100
AcDbEntity
  8
0
100
AcDbCircle
 10
11.19999999999891
 20
3.179312414488776
 30
0.0
 40
0.8
100
AcDbArc
 50
0.0
 51
81.48552156587461
  0
ARC
  5
1065
330
1060
100
AcDbEntity
  8
0
100
AcDbCircle
 10
8.753809903480942
 20
1.523241254200002
 30
0.0
 40
0.1999999999999504
100
AcDbArc
 50
171.485521565823
 51
351.485521565823
  0
LINE
  5
1066
330
1060
100
AcDbEntity
  8
0
100
AcDbLine
 10
11.65558220186904
 20
-2.403306455734309
 30
0.0
 11
9.440776269158959
 21
-2.734883615802573
 31
0.0
  0
ARC
  5
1067
330
1060
100
AcDbEntity
  8
0
100
AcDbCircle
 10
8.753809903480942
 20
-1.523241254200911
 30
0.0
 40
0.1999999999999504
100
AcDbArc
 50
8.514478434176927
 51
188.5144784341769
  0
LINE
  5
1068
330
1060
100
AcDbEntity
  8
0
100
AcDbLine
 10
9.5
 20
-3.130475008157191
 30
0.0
 11
9.440776269158959
 21
-2.734883615802573
 31
0.0
  0
ARC
  5
1069
330
1060
100
AcDbEntity
  8
0
100
AcDbCircle
 10
11.69999999999891
 20
-2.699999999999818
 30
0.0
 40
0.3
100
AcDbArc
 50
0.0
 51
98.51447843412536
  0
ARC
  5
106A
330
1060
100
AcDbEntity
  8
0
100
AcDbCircle
 10
11.69999999999891
 20
2.699999999999818
 30
0.0
 40
0.3
100
AcDbArc
 50
261.4855215658746
 51
0.0
  0
LINE
  5
106B
330
1060
100
AcDbEntity
  8
0
100
AcDbLine
 10
11.65558220186904
 20
2.4033064557334
 30
0.0
 11
9.440776269158959
 21
2.734883615801663
 31
0.0
  0
LINE
  5
106C
330
1060
100
AcDbEntity
  8
0
100
AcDbLine
 10
8.807715063378054
 20
3.234116537129011
 30
0.0
 11
8.556014207302723
 21
1.552853119620522
 31
0.0
  0
LINE
  5
106D
330
1060
100
AcDbEntity
  8
0
100
AcDbLine
 10
9.203306455732672
 20
3.174892806287971
 30
0.0
 11
8.951605599657341
 21
1.493629388779481
 31
0.0
  0
LINE
  5
106E
330
1060
100
AcDbEntity
  8
0
100
AcDbLine
 10
6.681411329471302
 20
3.552444090400967
 30
0.0
 11
6.622187598630262
 21
3.15685269804544
 31
0.0
  0
ARC
  5
106F
330
1060
100
AcDbEntity
  8
0
100
AcDbCircle
 10
0.2999999999992724
 20
3.800000000000181
 30
0.0
 40
0.3
100
AcDbArc
 50
81.48552156587461
 51
180.0
  0
ARC
  5
1070
330
1060
100
AcDbEntity
  8
0
100
AcDbCircle
 10
1.042400829128382
 20
4.699999999999818
 30
0.0
 40
0.8
100
AcDbArc
 50
81.48552156587461
 51
90.0
  0
LINE
  5
1071
330
1060
100
AcDbEntity
  8
0
100
AcDbLine
 10
1.5
 20
3.923692082123125
 30
0.0
 11
0.3444177981309622
 21
4.09669354426569
 31
0.0
  0
LINE
  5
1072
330
1060
100
AcDbEntity
  8
0
100
AcDbLine
 10
1.5
 20
3.923692082123125
 30
0.0
 11
1.5
 21
3.099999999999454
 31
0.0
  0
LINE
  5
1073
330
1060
100
AcDbEntity
  8
0
100
AcDbLine
 10
1.5
 20
3.099999999999454
 30
0.0
 11
2.699999999998908
 21
3.099999999999454
 31
0.0
  0
LINE
  5
1074
330
1060
100
AcDbEntity
  8
0
100
AcDbLine
 10
2.699999999998908
 20
3.744040860223321
 30
0.0
 11
2.699999999998908
 21
3.099999999999454
 31
0.0
  0
LINE
  5
1075
330
1060
100
AcDbEntity
  8
0
100
AcDbLine
 10
6.622187598630262
 20
3.15685269804544
 30
0.0
 11
2.699999999998908
 21
3.744040860223321
 31
0.0
  0
LINE
  5
1076
330
1060
100
AcDbEntity
  8
0
100
AcDbLine
 10
1.5
 20
-3.100000000000363
 30
0.0
 11
2.699999999998908
 21
-3.100000000000363
 31
0.0
  0
LINE
  5
1077
330
1060
100
AcDbEntity
  8
0
100
AcDbLine
 10
11.31844746168099
 20
3.970495199198012
 30
0.0
 11
1.160848290810463
 21
5.491182784709053
 31
0.0
  0
LINE
  5
1078
330
1060
100
AcDbEntity
  8
0
100
AcDbLine
 10
9.5
 20
3.130475008156281
 30
0.0
 11
6.681411329471302
 21
3.552444090400967
 31
0.0
  0
ARC
  5
1079
330
1060
100
AcDbEntity
  8
0
100
AcDbCircle
 10
11.19999999999891
 20
-3.179312414488776
 30
0.0
 40
0.8
100
AcDbArc
 50
278.5144784341254
 51
0.0
  0
LINE
  5
107A
330
1060
100
AcDbEntity
  8
0
100
AcDbLine
 10
6.681411329471302
 20
-3.552444090400967
 30
0.0
 11
6.622187598630262
 21
-3.15685269804635
 31
0.0
  0
ARC
  5
107B
330
1060
100
AcDbEntity
  8
0
100
AcDbCircle
 10
0.2999999999992724
 20
-3.800000000000181
 30
0.0
 40
0.3
100
AcDbArc
 50
180.0
 51
278.5144784341254
  0
ARC
  5
107C
330
1060
100
AcDbEntity
  8
0
100
AcDbCircle
 10
1.042400829128382
 20
-4.699999999999818
 30
0.0
 40
0.8
100
AcDbArc
 50
270.0
 51
278.5144784341254
  0
LINE
  5
107D
330
1060
100
AcDbEntity
  8
0
100
AcDbLine
 10
0.3444177981309622
 20
-4.096693544266599
 30
0.0
 11
1.5
 21
-3.923692082124034
 31
0.0
  0
LINE
  5
107E
330
1060
100
AcDbEntity
  8
0
100
AcDbLine
 10
6.622187598630262
 20
-3.15685269804635
 30
0.0
 11
2.699999999998908
 21
-3.744040860224231
 31
0.0
  0
LINE
  5
107F
330
1060
100
AcDbEntity
  8
0
100
AcDbLine
 10
1.160848290810463
 20
-5.491182784709963
 30
0.0
 11
11.31844746168099
 21
-3.970495199198921
 31
0.0
  0
LINE
  5
1080
330
1060
100
AcDbEntity
  8
0
100
AcDbLine
 10
0.0
 20
3.800000000000181
 30
0.0
 11
0.0
 21
-3.800000000000181
 31
0.0
  0
LINE
  5
1081
330
1060
100
AcDbEntity
  8
0
100
AcDbLine
 10
12.0
 20
-2.699999999999818
 30
0.0
 11
12.0
 21
-3.179312414488776
 31
0.0
  0
LINE
  5
1082
330
1060
100
AcDbEntity
  8
0
100
AcDbLine
 10
2.699999999998908
 20
-3.100000000000363
 30
0.0
 11
2.699999999998908
 21
-3.744040860224231
 31
0.0
  0
LINE
  5
1083
330
1060
100
AcDbEntity
  8
0
100
AcDbLine
 10
1.5
 20
-3.100000000000363
 30
0.0
 11
1.5
 21
-3.923692082124034
 31
0.0
  0
LINE
  5
1084
330
1060
100
AcDbEntity
  8
0
100
AcDbLine
 10
9.5
 20
-3.130475008157191
 30
0.0
 11
6.681411329471302
 21
-3.552444090400967
 31
0.0
  0
LINE
  5
1085
330
1060
100
AcDbEntity
  8
0
100
AcDbLine
 10
9.203306455732672
 20
-3.174892806287971
 30
0.0
 11
8.951605599657341
 21
-1.493629388780391
 31
0.0
  0
LINE
  5
1086
330
1060
100
AcDbEntity
  8
0
100
AcDbLine
 10
8.807715063378054
 20
-3.234116537129011
 30
0.0
 11
8.556014207302723
 21
-1.552853119621431
 31
0.0
  0
LINE
  5
1087
330
1060
100
AcDbEntity
  8
0
100
AcDbLine
 10
-1.5
 20
5.5
 30
0.0
 11
-3.757359312881817
 21
5.5
 31
0.0
  0
ARC
  5
1088
330
1060
100
AcDbEntity
  8
0
100
AcDbCircle
 10
-2.5
 20
3.5
 30
0.0
 40
1.0
100
AcDbArc
 50
0.0
 51
90.0
  0
ARC
  5
1089
330
1060
100
AcDbEntity
  8
0
100
AcDbCircle
 10
-3.769781102879278
 20
4.149978862833449
 30
0.0
 40
0.75
100
AcDbArc
 50
47.16775949949599
 51
90.19499109987526
  0
ARC
  5
108A
330
1060
100
AcDbEntity
  8
0
100
AcDbCircle
 10
-2.75
 20
5.25
 30
0.0
 40
0.75
100
AcDbArc
 50
227.167759499496
 51
270.0
  0
LINE
  5
108B
330
1060
100
AcDbEntity
  8
0
100
AcDbLine
 10
-2.75
 20
4.5
 30
0.0
 11
-2.5
 21
4.5
 31
0.0
  0
LINE
  5
108C
330
1060
100
AcDbEntity
  8
0
100
AcDbLine
 10
-7.415254325502246
 20
3.064644661409147
 30
0.0
 11
-6.868629150101696
 21
3.611269837220788
 31
0.0
  0
ARC
  5
108D
102
{ACAD_REACTORS
330
10A7
102
}
330
1060
100
AcDbEntity
  8
0
100
AcDbCircle
 10
-7.980939750059405
 20
2.569669913566031
 30
0.0
 40
0.2
100
AcDbArc
 50
45.0000001037625
 51
135.0000000719631
  0
ARC
  5
108E
330
1060
100
AcDbEntity
  8
0
100
AcDbCircle
 10
-3.757359312881817
 20
0.5
 30
0.0
 40
5.0
100
AcDbArc
 50
90.0
 51
135.0
  0
ARC
  5
108F
330
1060
100
AcDbEntity
  8
0
100
AcDbCircle
 10
-3.757359312881817
 20
0.5
 30
0.0
 40
4.4
100
AcDbArc
 50
90.19499109987526
 51
135.0
  0
ARC
  5
1090
330
1060
100
AcDbEntity
  8
0
100
AcDbCircle
 10
-6.814213563102384
 20
0.9786796633270569
 30
0.0
 40
0.75
100
AcDbArc
 50
314.9999999676111
 51
45.0
  0
ARC
  5
1091
102
{ACAD_REACTORS
330
10A7
102
}
330
1060
100
AcDbEntity
  8
0
100
AcDbCircle
 10
-6.814213563102384
 20
0.9786796633270569
 30
0.0
 40
0.5
100
AcDbArc
 50
314.9999999676111
 51
45.0
  0
ARC
  5
1092
330
1060
100
AcDbEntity
  8
0
100
AcDbCircle
 10
-7.203122291144609
 20
2.852512627053329
 30
0.0
 40
0.3
100
AcDbArc
 50
135.0
 51
225.0000001112794
  0
LINE
  5
1093
330
1060
100
AcDbEntity
  8
0
100
AcDbLine
 10
-8.051650430128574
 20
3.276776694619002
 30
0.0
 11
-6.283883477519339
 21
1.509009749524921
 31
0.0
  0
LINE
  5
1094
102
{ACAD_REACTORS
330
10A7
102
}
330
1060
100
AcDbEntity
  8
0
100
AcDbLine
 10
-7.839518394079277
 20
2.711091270059114
 30
0.0
 11
-6.460660172508141
 21
1.33223305392039
 31
0.0
  0
ARC
  5
1095
330
1060
100
AcDbEntity
  8
0
100
AcDbCircle
 10
-12.57713383280133
 20
-2.521498914058611
 30
0.0
 40
0.3
100
AcDbArc
 50
45.00000003552097
 51
135.0
  0
ARC
  5
1096
102
{ACAD_REACTORS
330
10A7
102
}
330
1060
100
AcDbEntity
  8
0
100
AcDbCircle
 10
-12.29429112059733
 20
-1.743681468243266
 30
0.0
 40
0.2
100
AcDbArc
 50
135.0000000660675
 51
225.0000002990173
  0
LINE
  5
1097
330
1060
100
AcDbEntity
  8
0
100
AcDbLine
 10
-12.9899494936617
 20
-2.510050506339212
 30
0.0
 11
-12.78926586715715
 21
-2.309366879702793
 31
0.0
  0
LINE
  5
1098
330
1060
100
AcDbEntity
  8
0
100
AcDbLine
 10
-13.41421356237333
 20
-2.085786437626666
 30
0.0
 11
-7.292893218815152
 21
4.035533905932425
 31
0.0
  0
LINE
  5
1099
102
{ACAD_REACTORS
330
10A7
102
}
330
1060
100
AcDbEntity
  8
0
100
AcDbLine
 10
-12.43571247699765
 20
-1.602260112168551
 30
0.0
 11
-8.122361106474272
 21
2.711091269625285
 31
0.0
  0
ARC
  5
109A
330
1060
100
AcDbEntity
  8
0
100
AcDbCircle
 10
-2.5
 20
-3.5
 30
0.0
 40
1.0
100
AcDbArc
 50
270.0
 51
0.0
  0
ARC
  5
109B
330
1060
100
AcDbEntity
  8
0
100
AcDbCircle
 10
-7.519803902720013
 20
-4.150000000000545
 30
0.0
 40
0.75
100
AcDbArc
 50
270.0
 51
312.8334280660476
  0
ARC
  5
109C
330
1060
100
AcDbEntity
  8
0
100
AcDbCircle
 10
-6.5
 20
-5.25
 30
0.0
 40
0.75
100
AcDbArc
 50
90.0
 51
132.8334280660476
  0
LINE
  5
109D
330
1060
100
AcDbEntity
  8
0
100
AcDbLine
 10
-2.5
 20
-4.5
 30
0.0
 11
-6.5
 21
-4.5
 31
0.0
  0
ARC
  5
109E
330
1060
100
AcDbEntity
  8
0
100
AcDbCircle
 10
-10.7033008647486
 20
-2.910407640086305
 30
0.0
 40
0.75
100
AcDbArc
 50
225.0
 51
315.0
  0
ARC
  5
109F
102
{ACAD_REACTORS
330
10A7
102
}
330
1060
100
AcDbEntity
  8
0
100
AcDbCircle
 10
-10.7033008647486
 20
-2.910407640086305
 30
0.0
 40
0.5
100
AcDbArc
 50
225.0
 51
315.0
  0
LINE
  5
10A0
330
1060
100
AcDbEntity
  8
0
100
AcDbLine
 10
-1.5
 20
-5.5
 30
0.0
 11
-12.0
 21
-5.5
 31
0.0
  0
LINE
  5
10A1
330
1060
100
AcDbEntity
  8
0
100
AcDbLine
 10
-7.519803902720013
 20
-4.900000000000545
 30
0.0
 11
-12.0
 21
-4.900000000000545
 31
0.0
  0
ARC
  5
10A2
330
1060
100
AcDbEntity
  8
0
100
AcDbCircle
 10
-12.0
 20
-3.5
 30
0.0
 40
2.0
100
AcDbArc
 50
135.0
 51
270.0
  0
LINE
  5
10A3
330
1060
100
AcDbEntity
  8
0
100
AcDbLine
 10
-10.17297077881812
 20
-3.440737725935832
 30
0.0
 11
-6.283883477372
 21
0.4483495772774404
 31
0.0
  0
ARC
  5
10A4
330
1060
100
AcDbEntity
  8
0
100
AcDbCircle
 10
-12.0
 20
-3.5
 30
0.0
 40
1.399999999999999
100
AcDbArc
 50
135.0
 51
270.0
  0
LINE
  5
10A5
330
1060
100
AcDbEntity
  8
0
100
AcDbLine
 10
-13.00139790187859
 20
-1.672970777132832
 30
0.0
 11
-11.23363095093009
 21
-3.440737725682993
 31
0.0
  0
LINE
  5
10A6
330
1060
100
AcDbEntity
  8
0
100
AcDbLine
 10
-1.5
 20
3.5
 30
0.0
 11
-1.5
 21
-3.5
 31
0.0
  0
HATCH
  5
10A7
330
1060
100
AcDbEntity
  8
0
100
AcDbHatch
 10
0.0
 20
0.0
 30
0.0
210
0.0
220
0.0
230
1.0
  2
ANSI31
 70
     0
 71
     1
 91
        1
 92
        7
 72
     1
 73
     1
 93
        8
 10
-6.460660173204814
 20
1.332233054616153
 42
0.0
 10
-7.839518394101105
 20
2.711091270081851
 42
0.414213562178905
 10
-8.122361106481548
 20
2.711091269618009
 42
0.0
 10
-12.43571247701766
 20
-1.602260112190379
 42
0.4142135636146872
 10
-12.43571247604996
 20
-1.885102825264766
 42
0.0
 10
-11.05685425338015
 20
-3.263961032639599
 42
0.4142135608152901
 10
-10.34974747407432
 20
-3.263961030598693
 42
0.0
 10
-6.460660172428106
 20
0.625126272813759
 42
0.4142135628833784
 97
        8
330
1094
330
108D
330
1099
330
1096
330
10A9
330
109F
330
10A8
330
1091
 75
     0
 76
     1
 52
45.0
 41
0.25
 77
     0
 78
     1
 53
90.0
 43
-276.1145346408611
 44
-395.2719013892401
 45
-0.79375
 46
0.0000000000000002
 79
     0
 47
0.0364805528584695
 98
        1
 10
-7.399477738399582
 20
0.8532363732892918
  0
LINE
  5
10A8
102
{ACAD_REACTORS
330
10A7
102
}
330
1060
100
AcDbEntity
  8
0
100
AcDbLine
 10
-10.34974747415435
 20
-3.263961030678729
 30
0.0
 11
-6.46066017270823
 21
0.6251262725336347
 31
0.0
  0
LINE
  5
10A9
102
{ACAD_REACTORS
330
10A7
102
}
330
1060
100
AcDbEntity
  8
0
100
AcDbLine
 10
-12.43571247609543
 20
-1.885102825218382
 30
0.0
 11
-11.05685425534102
 21
-3.263961030678729
 31
0.0
  0
LINE
  5
10AA
330
1060
100
AcDbEntity
  8
0
100
AcDbLine
 10
-1.5
 20
5.5
 30
0.0
 11
1.042400829128382
 21
5.5
 31
0.0
  0
LINE
  5
10AB
330
1060
100
AcDbEntity
  8
0
100
AcDbLine
 10
-1.5
 20
-5.5
 30
0.0
 11
1.042400829128382
 21
-5.5
 31
0.0
  0
ENDBLK
  5
10AC
330
1060
100
AcDbEntity
  8
0
 62
     4
100
AcDbBlockEnd
  0
BLOCK
  5
1F86
330
1F7C
100
AcDbEntity
  8
0
100
AcDbBlockBegin
  2
*D8
 70
     1
 10
0.0
 20
0.0
 30
0.0
  3
*D8
  1

  0
LINE
  5
2217
330
1F7C
100
AcDbEntity
  8
7
100
AcDbLine
 10
5565.845176783941
 20
2893.234816964033
 30
0.0
 11
5695.296596409012
 21
2893.234816964033
 31
0.0
  0
LINE
  5
2218
330
1F7C
100
AcDbEntity
  8
7
100
AcDbLine
 10
5563.313426854843
 20
2193.252916964033
 30
0.0
 11
5695.296596409012
 21
2193.252916964033
 31
0.0
  0
LINE
  5
2219
330
1F7C
100
AcDbEntity
  8
7
100
AcDbLine
 10
5685.296596409012
 20
2873.234816964033
 30
0.0
 11
5685.296596409012
 21
2213.252916964034
 31
0.0
  0
SOLID
  5
221A
330
1F7C
100
AcDbEntity
  8
7
100
AcDbTrace
 10
5681.96326307568
 20
2873.234816964033
 30
0.0
 11
5688.629929742345
 21
2873.234816964033
 31
0.0
 12
5685.296596409012
 22
2893.234816964033
 32
0.0
 13
5685.296596409012
 23
2893.234816964033
 33
0.0
  0
SOLID
  5
221B
330
1F7C
100
AcDbEntity
  8
7
100
AcDbTrace
 10
5681.96326307568
 20
2213.252916964034
 30
0.0
 11
5688.629929742345
 21
2213.252916964034
 31
0.0
 12
5685.296596409012
 22
2193.252916964033
 32
0.0
 13
5685.296596409012
 23
2193.252916964033
 33
0.0
  0
MTEXT
  5
221C
330
1F7C
100
AcDbEntity
  8
7
100
AcDbMText
 10
5664.886925488931
 20
2543.243866964034
 30
0.0
 40
20.0
 41
0.0
 71
     5
 72
     1
  1
700
  7
SANINDUSA
 11
0.0000000000000001
 21
1.0
 31
0.0
 73
     1
 44
1.0
1001
ACAD
1000
MTEXTBEGIN
1070
    73
1070
     1
1070
    44
1040
1.0
1070
    74
1070
     0
1000
MTEXTEND
  0
POINT
  5
221D
330
1F7C
100
AcDbEntity
  8
Defpoints
 62
     0
100
AcDbPoint
 10
5555.84517678394
 20
2893.234816964033
 30
-0.0000000076263427
  0
POINT
  5
221E
330
1F7C
100
AcDbEntity
  8
Defpoints
 62
     0
100
AcDbPoint
 10
5553.313426854843
 20
2193.252916964033
 30
0.0
  0
POINT
  5
221F
330
1F7C
100
AcDbEntity
  8
Defpoints
 62
     0
100
AcDbPoint
 10
5685.296596409012
 20
2193.252916964033
 30
0.0
  0
ENDBLK
  5
1F87
330
1F7C
100
AcDbEntity
  8
0
100
AcDbBlockEnd
  0
BLOCK
  5
1F92
330
1F88
100
AcDbEntity
  8
0
100
AcDbBlockBegin
  2
*D9
 70
     1
 10
0.0
 20
0.0
 30
0.0
  3
*D9
  1

  0
LINE
  5
267C
330
1F88
100
AcDbEntity
  8
7
100
AcDbLine
 10
5563.313426854843
 20
2893.234816964033
 30
0.0
 11
5563.313426854843
 21
2962.469871469537
 31
0.0
  0
LINE
  5
267D
330
1F88
100
AcDbEntity
  8
7
100
AcDbLine
 10
3963.318226854843
 20
2893.234816964035
 30
0.0
 11
3963.318226854843
 21
2962.469871469537
 31
0.0
  0
LINE
  5
267E
330
1F88
100
AcDbEntity
  8
7
100
AcDbLine
 10
5543.313426854843
 20
2952.469871469538
 30
0.0
 11
3983.318226854843
 21
2952.469871469538
 31
0.0
  0
SOLID
  5
267F
330
1F88
100
AcDbEntity
  8
7
100
AcDbTrace
 10
5543.313426854843
 20
2955.803204802871
 30
0.0
 11
5543.313426854843
 21
2949.136538136204
 31
0.0
 12
5563.313426854843
 22
2952.469871469538
 32
0.0
 13
5563.313426854843
 23
2952.469871469538
 33
0.0
  0
SOLID
  5
2680
330
1F88
100
AcDbEntity
  8
7
100
AcDbTrace
 10
3983.318226854843
 20
2955.803204802871
 30
0.0
 11
3983.318226854843
 21
2949.136538136204
 31
0.0
 12
3963.318226854843
 22
2952.469871469538
 32
0.0
 13
3963.318226854843
 23
2952.469871469538
 33
0.0
  0
MTEXT
  5
2681
330
1F88
100
AcDbEntity
  8
7
100
AcDbMText
 10
4763.315826854843
 20
2972.879542389618
 30
0.0
 40
20.0
 41
0.0
 71
     5
 72
     1
  1
1600
  7
SANINDUSA
 73
     1
 44
1.0
1001
ACAD
1000
MTEXTBEGIN
1070
    73
1070
     1
1070
    44
1040
1.0
1070
    74
1070
     0
1000
MTEXTEND
  0
POINT
  5
2682
330
1F88
100
AcDbEntity
  8
Defpoints
 62
     0
100
AcDbPoint
 10
5563.313426854843
 20
2883.234816964034
 30
0.0
  0
POINT
  5
2683
330
1F88
100
AcDbEntity
  8
Defpoints
 62
     0
100
AcDbPoint
 10
3963.318226854843
 20
2883.234816964035
 30
0.0
  0
POINT
  5
2684
330
1F88
100
AcDbEntity
  8
Defpoints
 62
     0
100
AcDbPoint
 10
3963.318226854843
 20
2952.469871469538
 30
0.0
  0
ENDBLK
  5
1F93
330
1F88
100
AcDbEntity
  8
0
100
AcDbBlockEnd
  0
BLOCK
  5
1F9E
330
1F94
100
AcDbEntity
  8
0
100
AcDbBlockBegin
  2
*D10
 70
     1
 10
0.0
 20
0.0
 30
0.0
  3
*D10
  1

  0
LINE
  5
2205
330
1F94
100
AcDbEntity
  8
7
100
AcDbLine
 10
5553.618681548979
 20
2226.007948711218
 30
0.0
 11
5625.598384162966
 21
2226.007948711218
 31
0.0
  0
LINE
  5
2206
330
1F94
100
AcDbEntity
  8
7
100
AcDbLine
 10
5553.618681548982
 20
2848.862793204125
 30
0.0
 11
5625.598384162966
 21
2848.862793204125
 31
0.0
  0
LINE
  5
2207
330
1F94
100
AcDbEntity
  8
7
100
AcDbLine
 10
5615.598384162966
 20
2246.007948711218
 30
0.0
 11
5615.598384162966
 21
2828.862793204125
 31
0.0
  0
SOLID
  5
2208
330
1F94
100
AcDbEntity
  8
7
100
AcDbTrace
 10
5612.265050829633
 20
2246.007948711218
 30
0.0
 11
5618.931717496298
 21
2246.007948711218
 31
0.0
 12
5615.598384162966
 22
2226.007948711218
 32
0.0
 13
5615.598384162966
 23
2226.007948711218
 33
0.0
  0
SOLID
  5
2209
330
1F94
100
AcDbEntity
  8
7
100
AcDbTrace
 10
5612.265050829633
 20
2828.862793204125
 30
0.0
 11
5618.931717496298
 21
2828.862793204125
 31
0.0
 12
5615.598384162966
 22
2848.862793204125
 32
0.0
 13
5615.598384162966
 23
2848.862793204125
 33
0.0
  0
MTEXT
  5
220A
330
1F94
100
AcDbEntity
  8
7
100
AcDbMText
 10
5592.905301557189
 20
2537.435370957672
 30
0.0
 40
20.0
 41
0.0
 71
     5
 72
     1
  1
622,9
  7
SANINDUSA
 11
0.0000000000000001
 21
1.0
 31
0.0
 73
     1
 44
1.0
1001
ACAD
1000
MTEXTBEGIN
1070
    73
1070
     1
1070
    44
1040
1.0
1070
    74
1070
     0
1000
MTEXTEND
  0
POINT
  5
220B
330
1F94
100
AcDbEntity
  8
Defpoints
 62
     0
100
AcDbPoint
 10
5543.618681548978
 20
2226.007948711218
 30
-0.0000000076263427
  0
POINT
  5
220C
330
1F94
100
AcDbEntity
  8
Defpoints
 62
     0
100
AcDbPoint
 10
5543.618681548982
 20
2848.862793204125
 30
-0.0000000076263427
  0
POINT
  5
220D
330
1F94
100
AcDbEntity
  8
Defpoints
 62
     0
100
AcDbPoint
 10
5615.598384162966
 20
2848.862793204125
 30
0.0
  0
ENDBLK
  5
1F9F
330
1F94
100
AcDbEntity
  8
0
100
AcDbBlockEnd
  0
BLOCK
  5
1FAA
330
1FA0
100
AcDbEntity
  8
0
100
AcDbBlockBegin
  2
*D11
 70
     1
 10
0.0
 20
0.0
 30
0.0
  3
*D11
  1

  0
LINE
  5
2228
330
1FA0
100
AcDbEntity
  8
7
100
AcDbLine
 10
4008.290250614748
 20
2201.679517776872
 30
0.0
 11
4008.290250614748
 21
2133.252916964034
 31
0.0
  0
LINE
  5
2229
330
1FA0
100
AcDbEntity
  8
7
100
AcDbLine
 10
4726.290250614748
 20
2201.679517776875
 30
0.0
 11
4726.290250614748
 21
2133.252916964034
 31
0.0
  0
LINE
  5
222A
330
1FA0
100
AcDbEntity
  8
7
100
AcDbLine
 10
4028.290250614747
 20
2143.252916964034
 30
0.0
 11
4706.290250614747
 21
2143.252916964034
 31
0.0
  0
SOLID
  5
222B
330
1FA0
100
AcDbEntity
  8
7
100
AcDbTrace
 10
4028.290250614747
 20
2146.586250297368
 30
0.0
 11
4028.290250614747
 21
2139.919583630701
 31
0.0
 12
4008.290250614748
 22
2143.252916964034
 32
0.0
 13
4008.290250614748
 23
2143.252916964034
 33
0.0
  0
SOLID
  5
222C
330
1FA0
100
AcDbEntity
  8
7
100
AcDbTrace
 10
4706.290250614747
 20
2146.586250297368
 30
0.0
 11
4706.290250614747
 21
2139.919583630701
 31
0.0
 12
4726.290250614748
 22
2143.252916964034
 32
0.0
 13
4726.290250614748
 23
2143.252916964034
 33
0.0
  0
MTEXT
  5
222D
330
1FA0
100
AcDbEntity
  8
7
100
AcDbMText
 10
4367.290250614747
 20
2163.709599301174
 30
0.0
 40
20.0
 41
0.0
 71
     5
 72
     1
  1
718
  7
SANINDUSA
 73
     1
 44
1.0
1001
ACAD
1000
MTEXTBEGIN
1070
    73
1070
     1
1070
    44
1040
1.0
1070
    74
1070
     0
1000
MTEXTEND
  0
POINT
  5
222E
330
1FA0
100
AcDbEntity
  8
Defpoints
 62
     0
100
AcDbPoint
 10
4008.290250614748
 20
2211.679517776872
 30
0.0000001474186491
  0
POINT
  5
222F
330
1FA0
100
AcDbEntity
  8
Defpoints
 62
     0
100
AcDbPoint
 10
4726.290250614748
 20
2211.679517776875
 30
0.0000001478662821
  0
POINT
  5
2230
330
1FA0
100
AcDbEntity
  8
Defpoints
 62
     0
100
AcDbPoint
 10
4726.290250614748
 20
2143.252916964034
 30
0.0
  0
ENDBLK
  5
1FAB
330
1FA0
100
AcDbEntity
  8
0
100
AcDbBlockEnd
  0
BLOCK
  5
1FB6
330
1FAC
100
AcDbEntity
  8
0
100
AcDbBlockBegin
  2
*D12
 70
     1
 10
0.0
 20
0.0
 30
0.0
  3
*D12
  1

  0
LINE
  5
2231
330
1FAC
100
AcDbEntity
  8
7
100
AcDbLine
 10
4729.290250614748
 20
2201.679521586468
 30
0.0
 11
4729.290250614748
 21
2133.252916964034
 31
0.0
  0
LINE
  5
2232
330
1FAC
100
AcDbEntity
  8
7
100
AcDbLine
 10
5529.290250614748
 20
2201.679521586473
 30
0.0
 11
5529.290250614748
 21
2133.252916964034
 31
0.0
  0
LINE
  5
2233
330
1FAC
100
AcDbEntity
  8
7
100
AcDbLine
 10
4749.290250614748
 20
2143.252916964034
 30
0.0
 11
5509.290250614747
 21
2143.252916964034
 31
0.0
  0
SOLID
  5
2234
330
1FAC
100
AcDbEntity
  8
7
100
AcDbTrace
 10
4749.290250614748
 20
2146.586250297368
 30
0.0
 11
4749.290250614748
 21
2139.919583630701
 31
0.0
 12
4729.290250614748
 22
2143.252916964034
 32
0.0
 13
4729.290250614748
 23
2143.252916964034
 33
0.0
  0
SOLID
  5
2235
330
1FAC
100
AcDbEntity
  8
7
100
AcDbTrace
 10
5509.290250614747
 20
2146.586250297368
 30
0.0
 11
5509.290250614747
 21
2139.919583630701
 31
0.0
 12
5529.290250614748
 22
2143.252916964034
 32
0.0
 13
5529.290250614748
 23
2143.252916964034
 33
0.0
  0
MTEXT
  5
2236
330
1FAC
100
AcDbEntity
  8
7
100
AcDbMText
 10
5129.290250614747
 20
2163.709599301174
 30
0.0
 40
20.0
 41
0.0
 71
     5
 72
     1
  1
800
  7
SANINDUSA
 73
     1
 44
1.0
1001
ACAD
1000
MTEXTBEGIN
1070
    73
1070
     1
1070
    44
1040
1.0
1070
    74
1070
     0
1000
MTEXTEND
  0
POINT
  5
2237
330
1FAC
100
AcDbEntity
  8
Defpoints
 62
     0
100
AcDbPoint
 10
4729.290250614748
 20
2211.679521586468
 30
0.0000001479284879
  0
POINT
  5
2238
330
1FAC
100
AcDbEntity
  8
Defpoints
 62
     0
100
AcDbPoint
 10
5529.290250614748
 20
2211.679521586473
 30
0.0000001479284879
  0
POINT
  5
2239
330
1FAC
100
AcDbEntity
  8
Defpoints
 62
     0
100
AcDbPoint
 10
5529.290250614748
 20
2143.252916964034
 30
0.0
  0
ENDBLK
  5
1FB7
330
1FAC
100
AcDbEntity
  8
0
100
AcDbBlockEnd
  0
BLOCK
  5
2344
330
233A
100
AcDbEntity
  8
0
100
AcDbBlockBegin
  2
*D13
 70
     1
 10
0.0
 20
0.0
 30
0.0
  3
*D13
  1

  0
LINE
  5
257F
330
233A
100
AcDbEntity
  8
7
100
AcDbLine
 10
6717.03372680261
 20
1424.97236112492
 30
0.0
 11
6830.115367631468
 21
1424.97236112492
 31
0.0
  0
LINE
  5
2580
330
233A
100
AcDbEntity
  8
7
100
AcDbLine
 10
6802.413868349778
 20
1139.97236112492
 30
0.0
 11
6830.115367631468
 21
1139.97236112492
 31
0.0
  0
LINE
  5
2581
330
233A
100
AcDbEntity
  8
7
100
AcDbLine
 10
6820.115367631469
 20
1404.97236112492
 30
0.0
 11
6820.115367631469
 21
1159.97236112492
 31
0.0
  0
SOLID
  5
2582
330
233A
100
AcDbEntity
  8
7
100
AcDbTrace
 10
6816.782034298135
 20
1404.97236112492
 30
0.0
 11
6823.448700964802
 21
1404.97236112492
 31
0.0
 12
6820.115367631469
 22
1424.97236112492
 32
0.0
 13
6820.115367631469
 23
1424.97236112492
 33
0.0
  0
SOLID
  5
2583
330
233A
100
AcDbEntity
  8
7
100
AcDbTrace
 10
6816.782034298135
 20
1159.97236112492
 30
0.0
 11
6823.448700964802
 21
1159.97236112492
 31
0.0
 12
6820.115367631469
 22
1139.97236112492
 32
0.0
 13
6820.115367631469
 23
1139.97236112492
 33
0.0
  0
MTEXT
  5
2584
330
233A
100
AcDbEntity
  8
7
100
AcDbMText
 10
6799.658685294329
 20
1282.472361124922
 30
0.0
 40
20.0
 41
0.0
 71
     5
 72
     1
  1
285
  7
SANINDUSA
 11
0.0000000000000001
 21
1.0
 31
0.0
 73
     1
 44
1.0
1001
ACAD
1000
MTEXTBEGIN
1070
    73
1070
     1
1070
    44
1040
1.0
1070
    74
1070
     0
1000
MTEXTEND
  0
POINT
  5
2585
330
233A
100
AcDbEntity
  8
Defpoints
 62
     0
100
AcDbPoint
 10
6707.03372680261
 20
1424.97236112492
 30
-0.0000017937957191
  0
POINT
  5
2586
330
233A
100
AcDbEntity
  8
Defpoints
 62
     0
100
AcDbPoint
 10
6792.413868349777
 20
1139.97236112492
 30
-0.0000017937957191
  0
POINT
  5
2587
330
233A
100
AcDbEntity
  8
Defpoints
 62
     0
100
AcDbPoint
 10
6820.115367631469
 20
1139.97236112492
 30
0.0
  0
ENDBLK
  5
2345
330
233A
100
AcDbEntity
  8
0
100
AcDbBlockEnd
  0
BLOCK
  5
2352
330
2346
100
AcDbEntity
  8
0
100
AcDbBlockBegin
  2
*D14
 70
     1
 10
0.0
 20
0.0
 30
0.0
  3
*D14
  1

  0
LINE
  5
2588
330
2346
100
AcDbEntity
  8
7
100
AcDbLine
 10
7089.129489353514
 20
1139.972361124926
 30
0.0
 11
6937.415020887927
 21
1139.972361124926
 31
0.0
  0
LINE
  5
2589
330
2346
100
AcDbEntity
  8
7
100
AcDbLine
 10
7116.917834282261
 20
1129.972361124926
 30
0.0
 11
6937.415020887927
 21
1129.972361124926
 31
0.0
  0
LINE
  5
258A
330
2346
100
AcDbEntity
  8
7
100
AcDbLine
 10
6947.415020887928
 20
1159.972361124926
 30
0.0
 11
6947.415020887928
 21
1179.972361124926
 31
0.0
  0
LINE
  5
258B
330
2346
100
AcDbEntity
  8
7
100
AcDbLine
 10
6947.415020887928
 20
1109.972361124926
 30
0.0
 11
6947.415020887928
 21
1040.543214046349
 31
0.0
  0
LINE
  5
258C
330
2346
100
AcDbEntity
  8
7
100
AcDbLine
 10
6947.415020887928
 20
1139.972361124926
 30
0.0
 11
6947.415020887928
 21
1129.972361124926
 31
0.0
  0
SOLID
  5
258D
330
2346
100
AcDbEntity
  8
7
100
AcDbTrace
 10
6944.081687554595
 20
1159.972361124926
 30
0.0
 11
6950.748354221261
 21
1159.972361124926
 31
0.0
 12
6947.415020887928
 22
1139.972361124926
 32
0.0
 13
6947.415020887928
 23
1139.972361124926
 33
0.0
  0
SOLID
  5
258E
330
2346
100
AcDbEntity
  8
7
100
AcDbTrace
 10
6944.081687554595
 20
1109.972361124926
 30
0.0
 11
6950.748354221261
 21
1109.972361124926
 31
0.0
 12
6947.415020887928
 22
1129.972361124926
 32
0.0
 13
6947.415020887928
 23
1129.972361124926
 33
0.0
  0
MTEXT
  5
258F
330
2346
100
AcDbEntity
  8
7
100
AcDbMText
 10
6927.005349967847
 20
1065.257787585639
 30
0.0
 40
20.0
 41
0.0
 71
     5
 72
     1
  1
10
  7
SANINDUSA
 11
0.0000000000000001
 21
1.0
 31
0.0
 73
     1
 44
1.0
1001
ACAD
1000
MTEXTBEGIN
1070
    73
1070
     1
1070
    44
1040
1.0
1070
    74
1070
     0
1000
MTEXTEND
  0
POINT
  5
2590
330
2346
100
AcDbEntity
  8
Defpoints
 62
     0
100
AcDbPoint
 10
7099.129489353514
 20
1139.972361124926
 30
-0.0000017937957191
  0
POINT
  5
2591
330
2346
100
AcDbEntity
  8
Defpoints
 62
     0
100
AcDbPoint
 10
7126.917834282261
 20
1129.972361124926
 30
0.0
  0
POINT
  5
2592
330
2346
100
AcDbEntity
  8
Defpoints
 62
     0
100
AcDbPoint
 10
6947.415020887928
 20
1129.972361124926
 30
0.0
  0
ENDBLK
  5
2353
330
2346
100
AcDbEntity
  8
0
100
AcDbBlockEnd
  0
BLOCK
  5
235E
330
2354
100
AcDbEntity
  8
0
100
AcDbBlockBegin
  2
*D15
 70
     1
 10
0.0
 20
0.0
 30
0.0
  3
*D15
  1

  0
LINE
  5
2593
330
2354
100
AcDbEntity
  8
7
100
AcDbLine
 10
6439.582441231539
 20
1424.972361124914
 30
0.0
 11
5782.013565816623
 21
1424.972361124914
 31
0.0
  0
LINE
  5
2594
330
2354
100
AcDbEntity
  8
7
100
AcDbLine
 10
5832.013565816623
 20
1129.972361124921
 30
0.0
 11
5782.013565816623
 21
1129.972361124921
 31
0.0
  0
LINE
  5
2595
330
2354
100
AcDbEntity
  8
7
100
AcDbLine
 10
5792.013565816624
 20
1404.972361124914
 30
0.0
 11
5792.013565816624
 21
1149.972361124921
 31
0.0
  0
SOLID
  5
2596
330
2354
100
AcDbEntity
  8
7
100
AcDbTrace
 10
5788.68023248329
 20
1404.972361124914
 30
0.0
 11
5795.346899149957
 21
1404.972361124914
 31
0.0
 12
5792.013565816624
 22
1424.972361124914
 32
0.0
 13
5792.013565816624
 23
1424.972361124914
 33
0.0
  0
SOLID
  5
2597
330
2354
100
AcDbEntity
  8
7
100
AcDbTrace
 10
5788.68023248329
 20
1149.972361124921
 30
0.0
 11
5795.346899149957
 21
1149.972361124921
 31
0.0
 12
5792.013565816624
 22
1129.972361124921
 32
0.0
 13
5792.013565816624
 23
1129.972361124921
 33
0.0
  0
MTEXT
  5
2598
330
2354
100
AcDbEntity
  8
7
100
AcDbMText
 10
5771.597178979821
 20
1277.472361124919
 30
0.0
 40
20.0
 41
0.0
 71
     5
 72
     1
  1
295
  7
SANINDUSA
 11
0.0000000000000001
 21
1.0
 31
0.0
 73
     1
 44
1.0
1001
ACAD
1000
MTEXTBEGIN
1070
    73
1070
     1
1070
    44
1040
1.0
1070
    74
1070
     0
1000
MTEXTEND
  0
POINT
  5
2599
330
2354
100
AcDbEntity
  8
Defpoints
 62
     0
100
AcDbPoint
 10
6449.58244123154
 20
1424.972361124914
 30
-0.0000017937957191
  0
POINT
  5
259A
330
2354
100
AcDbEntity
  8
Defpoints
 62
     0
100
AcDbPoint
 10
5842.013565816624
 20
1129.972361124921
 30
0.0
  0
POINT
  5
259B
330
2354
100
AcDbEntity
  8
Defpoints
 62
     0
100
AcDbPoint
 10
5792.013565816624
 20
1129.972361124921
 30
0.0
  0
ENDBLK
  5
235F
330
2354
100
AcDbEntity
  8
0
100
AcDbBlockEnd
  0
BLOCK
  5
236A
330
2360
100
AcDbEntity
  8
0
100
AcDbBlockBegin
  2
*D16
 70
     1
 10
0.0
 20
0.0
 30
0.0
  3
*D16
  1

  0
LINE
  5
259C
330
2360
100
AcDbEntity
  8
7
100
AcDbLine
 10
5832.013565816623
 20
2979.972361124922
 30
0.0
 11
5782.013565816623
 21
2979.972361124922
 31
0.0
  0
LINE
  5
259D
330
2360
100
AcDbEntity
  8
7
100
AcDbLine
 10
6410.408878751738
 20
2684.972361115252
 30
0.0
 11
5782.013565816623
 21
2684.972361115252
 31
0.0
  0
LINE
  5
259E
330
2360
100
AcDbEntity
  8
7
100
AcDbLine
 10
5792.013565816624
 20
2959.972361124922
 30
0.0
 11
5792.013565816624
 21
2704.972361115252
 31
0.0
  0
SOLID
  5
259F
330
2360
100
AcDbEntity
  8
7
100
AcDbTrace
 10
5788.68023248329
 20
2959.972361124922
 30
0.0
 11
5795.346899149957
 21
2959.972361124922
 31
0.0
 12
5792.013565816624
 22
2979.972361124922
 32
0.0
 13
5792.013565816624
 23
2979.972361124922
 33
0.0
  0
SOLID
  5
25A0
330
2360
100
AcDbEntity
  8
7
100
AcDbTrace
 10
5788.68023248329
 20
2704.972361115252
 30
0.0
 11
5795.346899149957
 21
2704.972361115252
 31
0.0
 12
5792.013565816624
 22
2684.972361115252
 32
0.0
 13
5792.013565816624
 23
2684.972361115252
 33
0.0
  0
MTEXT
  5
25A1
330
2360
100
AcDbEntity
  8
7
100
AcDbMText
 10
5771.59717897982
 20
2832.472361120088
 30
0.0
 40
20.0
 41
0.0
 71
     5
 72
     1
  1
295
  7
SANINDUSA
 11
0.0000000000000001
 21
1.0
 31
0.0
 73
     1
 44
1.0
1001
ACAD
1000
MTEXTBEGIN
1070
    73
1070
     1
1070
    44
1040
1.0
1070
    74
1070
     0
1000
MTEXTEND
  0
POINT
  5
25A2
330
2360
100
AcDbEntity
  8
Defpoints
 62
     0
100
AcDbPoint
 10
5842.013565816624
 20
2979.972361124922
 30
0.0000017938277934
  0
POINT
  5
25A3
330
2360
100
AcDbEntity
  8
Defpoints
 62
     0
100
AcDbPoint
 10
6420.408878751738
 20
2684.972361115252
 30
0.0000000000320743
  0
POINT
  5
25A4
330
2360
100
AcDbEntity
  8
Defpoints
 62
     0
100
AcDbPoint
 10
5792.013565816624
 20
2684.972361115252
 30
0.0
  0
ENDBLK
  5
236B
330
2360
100
AcDbEntity
  8
0
100
AcDbBlockEnd
  0
BLOCK
  5
2376
330
236C
100
AcDbEntity
  8
0
100
AcDbBlockBegin
  2
*D17
 70
     1
 10
0.0
 20
0.0
 30
0.0
  3
*D17
  1

  0
LINE
  5
25A5
330
236C
100
AcDbEntity
  8
7
100
AcDbLine
 10
7442.008765816621
 20
2979.972361124879
 30
0.0
 11
7502.337218556421
 21
2979.972361124879
 31
0.0
  0
LINE
  5
25A6
330
236C
100
AcDbEntity
  8
7
100
AcDbLine
 10
7448.478622083027
 20
1129.972361124926
 30
0.0
 11
7502.337218556419
 21
1129.972361124926
 31
0.0
  0
LINE
  5
25A7
330
236C
100
AcDbEntity
  8
7
100
AcDbLine
 10
7492.337218556421
 20
2959.972361124879
 30
0.0
 11
7492.33721855642
 21
1149.972361124926
 31
0.0
  0
SOLID
  5
25A8
330
236C
100
AcDbEntity
  8
7
100
AcDbTrace
 10
7489.003885223088
 20
2959.972361124879
 30
0.0
 11
7495.670551889755
 21
2959.972361124879
 31
0.0
 12
7492.337218556421
 22
2979.972361124879
 32
0.0
 13
7492.337218556421
 23
2979.972361124879
 33
0.0
  0
SOLID
  5
25A9
330
236C
100
AcDbEntity
  8
7
100
AcDbTrace
 10
7489.003885223088
 20
1149.972361124926
 30
0.0
 11
7495.670551889753
 21
1149.972361124926
 31
0.0
 12
7492.33721855642
 22
1129.972361124926
 32
0.0
 13
7492.33721855642
 23
1129.972361124926
 33
0.0
  0
MTEXT
  5
25AA
330
236C
100
AcDbEntity
  8
7
100
AcDbMText
 10
7471.880536219281
 20
2054.972361124904
 30
0.0
 40
20.0
 41
0.0
 71
     5
 72
     1
  1
1850
  7
SANINDUSA
 11
0.0000000000000001
 21
1.0
 31
0.0
 73
     1
 44
1.0
1001
ACAD
1000
MTEXTBEGIN
1070
    73
1070
     1
1070
    44
1040
1.0
1070
    74
1070
     0
1000
MTEXTEND
  0
POINT
  5
25AB
330
236C
100
AcDbEntity
  8
Defpoints
 62
     0
100
AcDbPoint
 10
7432.008765816622
 20
2979.972361124879
 30
0.0
  0
POINT
  5
25AC
330
236C
100
AcDbEntity
  8
Defpoints
 62
     0
100
AcDbPoint
 10
7438.478622083026
 20
1129.972361124926
 30
0.0
  0
POINT
  5
25AD
330
236C
100
AcDbEntity
  8
Defpoints
 62
     0
100
AcDbPoint
 10
7492.33721855642
 20
1129.972361124926
 30
0.0
  0
ENDBLK
  5
2377
330
236C
100
AcDbEntity
  8
0
100
AcDbBlockEnd
  0
BLOCK
  5
2516
330
250B
100
AcDbEntity
  8
0
100
AcDbBlockBegin
  2
*D18
 70
     1
 10
0.0
 20
0.0
 30
0.0
  3
*D18
  1

  0
LINE
  5
2524
330
250B
100
AcDbEntity
  8
7
100
AcDbLine
 10
5539.290250614747
 20
2211.679521586471
 30
0.0
 11
5550.593608497044
 21
2211.679521586471
 31
0.0
  0
ARC
  5
2525
330
250B
100
AcDbEntity
  8
7
100
AcDbCircle
 10
4745.190306717919
 20
2211.679521586469
 30
0.0
 40
795.4033017791247
100
AcDbArc
 50
271.4407103632932
 51
358.559289636707
  0
SOLID
  5
2526
330
250B
100
AcDbEntity
  8
7
100
AcDbTrace
 10
4765.23063350526
 20
1413.194594689378
 30
0.0
 11
4765.146818582041
 21
1419.860734464622
 31
0.0
 12
4745.190306717919
 22
1416.276219807343
 32
0.0
 13
4745.190306717919
 23
1416.276219807343
 33
0.0
  0
SOLID
  5
2527
330
250B
100
AcDbEntity
  8
7
100
AcDbTrace
 10
5537.009093839766
 20
2191.723009722348
 30
0.0
 11
5543.675233615011
 21
2191.63919479913
 31
0.0
 12
5540.593608497045
 22
2211.679521586471
 32
0.0
 13
5540.593608497045
 23
2211.679521586471
 33
0.0
  0
MTEXT
  5
2528
102
{ACAD_XDICTIONARY
360
26F7
102
}
330
250B
100
AcDbEntity
  8
7
100
AcDbMText
 10
5291.583691457795
 20
1665.286136846594
 30
0.0
 40
20.0
 41
0.0
 71
     5
 72
     1
  1
90,0\U+00B0
  7
SANINDUSA
 11
0.7071067811865457
 21
0.7071067811865494
 31
0.0
 73
     1
 44
1.0
1001
ACAD
1000
MTEXTBEGIN
1070
    73
1070
     1
1070
    44
1040
1.0
1070
    74
1070
     0
1000
MTEXTEND
  0
POINT
  5
2529
330
250B
100
AcDbEntity
  8
Defpoints
 62
     0
100
AcDbPoint
 10
5142.891957607482
 20
1522.840055991727
 30
0.0
  0
POINT
  5
252A
330
250B
100
AcDbEntity
  8
Defpoints
 62
     0
100
AcDbPoint
 10
4729.290250614749
 20
2211.679521586469
 30
0.0000001479284879
  0
POINT
  5
252B
330
250B
100
AcDbEntity
  8
Defpoints
 62
     0
100
AcDbPoint
 10
4745.190306717919
 20
2198.779465483296
 30
0.0000001479284879
  0
POINT
  5
252C
330
250B
100
AcDbEntity
  8
Defpoints
 62
     0
100
AcDbPoint
 10
4745.190306717919
 20
1398.779465483296
 30
0.0000001479284879
  0
POINT
  5
252D
330
250B
100
AcDbEntity
  8
Defpoints
 62
     0
100
AcDbPoint
 10
5529.290250614748
 20
2211.679521586471
 30
0.0000001479284879
  0
ENDBLK
  5
2517
330
250B
100
AcDbEntity
  8
0
100
AcDbBlockEnd
  0
BLOCK
  5
25DC
330
25D2
100
AcDbEntity
  8
0
100
AcDbBlockBegin
  2
*D19
 70
     1
 10
0.0
 20
0.0
 30
0.0
  3
*D19
  1

  0
LINE
  5
25F2
330
25D2
100
AcDbEntity
  8
0
100
AcDbLine
 10
4423.790250614747
 20
2893.234816964035
 30
0.0
 11
4385.85843888137
 21
2893.234816964035
 31
0.0
  0
LINE
  5
25F3
330
25D2
100
AcDbEntity
  8
0
100
AcDbLine
 10
4416.29025061475
 20
2201.579517776877
 30
0.0
 11
4385.85843888137
 21
2201.579517776877
 31
0.0
  0
LINE
  5
25F4
330
25D2
100
AcDbEntity
  8
0
100
AcDbLine
 10
4395.858438881369
 20
2873.234816964035
 30
0.0
 11
4395.858438881369
 21
2221.579517776877
 31
0.0
  0
SOLID
  5
25F5
330
25D2
100
AcDbEntity
  8
0
100
AcDbTrace
 10
4392.525105548036
 20
2873.234816964035
 30
0.0
 11
4399.191772214702
 21
2873.234816964035
 31
0.0
 12
4395.858438881369
 22
2893.234816964035
 32
0.0
 13
4395.858438881369
 23
2893.234816964035
 33
0.0
  0
SOLID
  5
25F6
330
25D2
100
AcDbEntity
  8
0
100
AcDbTrace
 10
4392.525105548036
 20
2221.579517776877
 30
0.0
 11
4399.191772214702
 21
2221.579517776877
 31
0.0
 12
4395.858438881369
 22
2201.579517776877
 32
0.0
 13
4395.858438881369
 23
2201.579517776877
 33
0.0
  0
MTEXT
  5
25F7
330
25D2
100
AcDbEntity
  8
0
100
AcDbMText
 10
4375.442052044565
 20
2547.407167370456
 30
0.0
 40
20.0
 41
0.0
 71
     5
 72
     1
  1
420 - 720
  7
SANINDUSA
 11
0.0000000000000001
 21
1.0
 31
0.0
 73
     1
 44
1.0
1001
ACAD
1000
MTEXTBEGIN
1070
    73
1070
     1
1070
    44
1040
1.0
1070
    74
1070
     0
1000
MTEXTEND
  0
POINT
  5
25F8
330
25D2
100
AcDbEntity
  8
Defpoints
 62
     0
100
AcDbPoint
 10
4433.790250614747
 20
2893.234816964035
 30
0.0
  0
POINT
  5
25F9
330
25D2
100
AcDbEntity
  8
Defpoints
 62
     0
100
AcDbPoint
 10
4426.290250614751
 20
2201.579517776877
 30
0.0000001479286265
  0
POINT
  5
25FA
330
25D2
100
AcDbEntity
  8
Defpoints
 62
     0
100
AcDbPoint
 10
4395.858438881369
 20
2201.579517776877
 30
0.0
  0
ENDBLK
  5
25DD
330
25D2
100
AcDbEntity
  8
0
100
AcDbBlockEnd
  0
BLOCK
  5
2606
330
25FC
100
AcDbEntity
  8
0
100
AcDbBlockBegin
  2
*D20
 70
     1
 10
0.0
 20
0.0
 30
0.0
  3
*D20
  1

  0
LINE
  5
261D
330
25FC
100
AcDbEntity
  8
0
100
AcDbLine
 10
5842.013565816624
 20
2989.972361124936
 30
0.0
 11
5842.013565816624
 21
3039.972361124914
 31
0.0
  0
LINE
  5
261E
330
25FC
100
AcDbEntity
  8
0
100
AcDbLine
 10
7442.337218556421
 20
2989.972361124919
 30
0.0
 11
7442.337218556421
 21
3039.972361124914
 31
0.0
  0
LINE
  5
261F
330
25FC
100
AcDbEntity
  8
0
100
AcDbLine
 10
5862.013565816624
 20
3029.972361124914
 30
0.0
 11
7422.33721855642
 21
3029.972361124914
 31
0.0
  0
SOLID
  5
2620
330
25FC
100
AcDbEntity
  8
0
100
AcDbTrace
 10
5862.013565816624
 20
3033.305694458248
 30
0.0
 11
5862.013565816624
 21
3026.639027791581
 31
0.0
 12
5842.013565816624
 22
3029.972361124914
 32
0.0
 13
5842.013565816624
 23
3029.972361124914
 33
0.0
  0
SOLID
  5
2621
330
25FC
100
AcDbEntity
  8
0
100
AcDbTrace
 10
7422.33721855642
 20
3033.305694458248
 30
0.0
 11
7422.33721855642
 21
3026.639027791581
 31
0.0
 12
7442.337218556421
 22
3029.972361124914
 32
0.0
 13
7442.337218556421
 23
3029.972361124914
 33
0.0
  0
MTEXT
  5
2622
330
25FC
100
AcDbEntity
  8
0
100
AcDbMText
 10
6642.175392186522
 20
3050.429043462054
 30
0.0
 40
20.0
 41
0.0
 71
     5
 72
     1
  1
1580 - 1610
  7
SANINDUSA
 73
     1
 44
1.0
1001
ACAD
1000
MTEXTBEGIN
1070
    73
1070
     1
1070
    44
1040
1.0
1070
    74
1070
     0
1000
MTEXTEND
  0
POINT
  5
2623
330
25FC
100
AcDbEntity
  8
Defpoints
 62
     0
100
AcDbPoint
 10
5842.013565816624
 20
2979.972361124935
 30
0.0
  0
POINT
  5
2624
330
25FC
100
AcDbEntity
  8
Defpoints
 62
     0
100
AcDbPoint
 10
7442.337218556421
 20
2979.972361124919
 30
0.0
  0
POINT
  5
2625
330
25FC
100
AcDbEntity
  8
Defpoints
 62
     0
100
AcDbPoint
 10
7442.337218556421
 20
3029.972361124914
 30
0.0
  0
ENDBLK
  5
2607
330
25FC
100
AcDbEntity
  8
0
100
AcDbBlockEnd
  0
ENDSEC
  0
SECTION
  2
ENTITIES
  0
LINE
  5
1C57
330
1F
100
AcDbEntity
  8
SANINDUSA
100
AcDbLine
 10
5840.913119419
 20
2054.638192272934
 30
0.0000000001479285
 11
5841.713119419001
 21
2054.638192272934
 31
0.0000000001479285
  0
LINE
  5
1C58
330
1F
100
AcDbEntity
  8
SANINDUSA
100
AcDbLine
 10
5840.896619419001
 20
2054.63479221683
 30
0.0000000001479286
 11
5840.911619464597
 21
2054.63479221683
 31
0.0000000001479286
  0
LINE
  5
1C59
330
1F
100
AcDbEntity
  8
SANINDUSA
100
AcDbLine
 10
5840.844619419002
 20
2054.626792216831
 30
0.0000000001479286
 11
5840.903619419002
 21
2054.626792216831
 31
0.0000000001479286
  0
LINE
  5
1C5A
330
1F
100
AcDbEntity
  8
SANINDUSA
100
AcDbLine
 10
5840.920508307889
 20
2054.626792216831
 30
0.0000000001479286
 11
5840.920508307889
 21
2054.634792269125
 31
0.0000000001479286
  0
CIRCLE
  5
1C5B
330
1F
100
AcDbEntity
  8
SANINDUSA
100
AcDbCircle
 10
5840.911619419001
 20
2054.626792216831
 30
0.0000000001479286
 40
0.008
  0
LINE
  5
1C5C
330
1F
100
AcDbEntity
  8
SANINDUSA
100
AcDbLine
 10
5840.902730530111
 20
2054.626792216831
 30
0.0000000001479286
 11
5840.902730530111
 21
2054.63479221683
 31
0.0000000001479286
  0
LINE
  5
1C5D
330
1F
100
AcDbEntity
  8
SANINDUSA
100
AcDbLine
 10
5840.979619419002
 20
2054.636792269125
 30
0.0000000001479286
 11
5840.979619419002
 21
2054.627792216831
 31
0.0000000001479286
  0
LINE
  5
1C5E
330
1F
100
AcDbEntity
  8
SANINDUSA
100
AcDbLine
 10
5840.920508307889
 20
2054.626792216831
 30
0.0000000001479286
 11
5840.978619419001
 21
2054.626792216831
 31
0.0000000001479286
  0
ARC
  5
1C5F
330
1F
100
AcDbEntity
  8
SANINDUSA
100
AcDbCircle
 10
5840.978619419001
 20
2054.627792216831
 30
0.0000000001479286
 40
0.001
100
AcDbArc
 50
270.0
 51
0.0
  0
LINE
  5
1C60
330
1F
100
AcDbEntity
  8
SANINDUSA
100
AcDbLine
 10
5840.979619419002
 20
2054.636792269125
 30
0.0000000001479286
 11
5840.926619419001
 21
2054.636792269125
 31
0.0000000001479286
  0
LWPOLYLINE
  5
1C61
330
1F
100
AcDbEntity
  8
SANINDUSA
100
AcDbPolyline
 90
        2
 70
     0
 43
0.0
 38
0.0000000001479285
 10
5840.926619419001
 20
2054.637992269125
 10
5840.979619419002
 20
2054.637992269125
1001
GENIUS_GENREC_14
1002
{
1000
PYDIR
1011
5840.680337161922
1021
2053.603762413112
1031
0.0000000001479286
1002
}
1002
{
1000
PXDIR
1011
5840.627337161922
1021
2053.604762413113
1031
0.0000000001479286
1002
}
1002
{
1000
PORI
1011
5840.680337161922
1021
2053.604762413113
1031
0.0000000001479286
1002
}
1002
{
1000
PINS
1011
5840.680337161922
1021
2053.604762413113
1031
0.0000000001479286
1002
}
1002
{
1000
PINS2
1011
5840.627337161922
1021
2053.603762413112
1031
0.0000000001479286
1002
}
1002
{
1000
C
1070
     1
1002
}
1001
GENIUS_GENODEF_13
1002
{
1000
HIER
1070
     0
1002
}
1002
{
1000
MANEDIT
1070
     0
1002
}
1002
{
1000
NOSEL
1070
     0
1002
}
1002
{
1000
BEHIND
1070
     0
1002
}
1002
{
1000
REACTOR
1002
}
1001
GENIUS_GENOBJ-N-REC_13
1002
{
1000
OWNER
1000
GEN
1002
}
  0
LWPOLYLINE
  5
1C62
330
1F
100
AcDbEntity
  8
SANINDUSA
100
AcDbPolyline
 90
        2
 70
     0
 43
0.0
 38
0.0000000001479285
 10
5840.979619419002
 20
2054.636992269125
 10
5840.926619419001
 20
2054.636992269125
1001
GENIUS_GENREC_14
1002
{
1000
PYDIR
1011
5840.680337161922
1021
2053.603762413112
1031
0.0000000001479286
1002
}
1002
{
1000
PXDIR
1011
5840.627337161922
1021
2053.604762413113
1031
0.0000000001479286
1002
}
1002
{
1000
PORI
1011
5840.680337161922
1021
2053.604762413113
1031
0.0000000001479286
1002
}
1002
{
1000
PINS
1011
5840.680337161922
1021
2053.604762413113
1031
0.0000000001479286
1002
}
1002
{
1000
PINS2
1011
5840.627337161922
1021
2053.603762413112
1031
0.0000000001479286
1002
}
1002
{
1000
C
1070
     1
1002
}
1001
GENIUS_GENODEF_13
1002
{
1000
HIER
1070
     0
1002
}
1002
{
1000
MANEDIT
1070
     0
1002
}
1002
{
1000
NOSEL
1070
     0
1002
}
1002
{
1000
BEHIND
1070
     0
1002
}
1002
{
1000
REACTOR
1002
}
1001
GENIUS_GENOBJ-N-REC_13
1002
{
1000
OWNER
1000
GEN
1002
}
  0
LINE
  5
1C63
330
1F
100
AcDbEntity
  8
SANINDUSA
100
AcDbLine
 10
5840.978619419001
 20
2054.650592269124
 30
0.0000000001479286
 11
5840.927619419001
 21
2054.650592269124
 31
0.0000000001479286
  0
LINE
  5
1C64
330
1F
100
AcDbEntity
  8
SANINDUSA
100
AcDbLine
 10
5840.926619419001
 20
2054.645592269125
 30
0.0000000001479286
 11
5840.979619419002
 21
2054.645592269125
 31
0.0000000001479286
  0
LWPOLYLINE
  5
1C65
330
1F
100
AcDbEntity
  8
SANINDUSA
100
AcDbPolyline
 90
        4
 70
     1
 43
0.0
 38
0.0000000001479285
 10
5840.979619419002
 20
2054.645392269125
 10
5840.926619419001
 20
2054.645392269125
 10
5840.926619419001
 20
2054.644392269125
 10
5840.979619419002
 20
2054.644392269125
1001
GENIUS_GENREC_14
1002
{
1000
PYDIR
1011
5840.680337161922
1021
2053.603562413112
1031
0.0000000001479286
1002
}
1002
{
1000
PXDIR
1011
5840.627337161922
1021
2053.604562413113
1031
0.0000000001479286
1002
}
1002
{
1000
PORI
1011
5840.680337161922
1021
2053.604562413113
1031
0.0000000001479286
1002
}
1002
{
1000
PINS
1011
5840.680337161922
1021
2053.604562413113
1031
0.0000000001479286
1002
}
1002
{
1000
PINS2
1011
5840.627337161922
1021
2053.603562413112
1031
0.0000000001479286
1002
}
1002
{
1000
C
1070
     1
1002
}
1001
GENIUS_GENODEF_13
1002
{
1000
HIER
1070
     0
1002
}
1002
{
1000
MANEDIT
1070
     0
1002
}
1002
{
1000
NOSEL
1070
     0
1002
}
1002
{
1000
BEHIND
1070
     0
1002
}
1002
{
1000
REACTOR
1002
}
1001
GENIUS_GENOBJ-N-REC_13
1002
{
1000
OWNER
1000
GEN
1002
}
  0
LINE
  5
1C66
330
1F
100
AcDbEntity
  8
SANINDUSA
100
AcDbLine
 10
5840.979619419002
 20
2054.637992269125
 30
0.0000000001479286
 11
5840.979619419002
 21
2054.636992269125
 31
0.0000000001479286
1001
GENIUS_GENREC_14
1002
{
1000
PYDIR
1011
5840.979619419002
1021
2054.637992269125
1031
0.0000000001479286
1002
}
1002
{
1000
PXDIR
1011
5840.926619419001
1021
2054.636992269125
1031
0.0000000001479286
1002
}
1002
{
1000
PORI
1011
5840.979619419002
1021
2054.636992269125
1031
0.0000000001479286
1002
}
1002
{
1000
PINS
1011
5840.979619419002
1021
2054.636992269125
1031
0.0000000001479286
1002
}
1002
{
1000
PINS2
1011
5840.926619419001
1021
2054.637992269125
1031
0.0000000001479286
1002
}
1002
{
1000
C
1070
     1
1002
}
1001
GENIUS_GENODEF_13
1002
{
1000
HIER
1070
     0
1002
}
1002
{
1000
MANEDIT
1070
     0
1002
}
1002
{
1000
NOSEL
1070
     0
1002
}
1002
{
1000
BEHIND
1070
     0
1002
}
1002
{
1000
REACTOR
1002
}
1001
GENIUS_GENOBJ-N-REC_13
1002
{
1000
OWNER
1000
GEN
1002
}
  0
ARC
  5
1C67
330
1F
100
AcDbEntity
  8
SANINDUSA
100
AcDbCircle
 10
5840.978619419001
 20
2054.649592269125
 30
0.0000000001479286
 40
0.001
100
AcDbArc
 50
0.0
 51
90.0
  0
LINE
  5
1C68
330
1F
100
AcDbEntity
  8
SANINDUSA
100
AcDbLine
 10
5840.979619419002
 20
2054.645592269125
 30
0.0000000001479286
 11
5840.979619419002
 21
2054.649592269125
 31
0.0000000001479286
  0
LINE
  5
1C69
330
1F
100
AcDbEntity
  8
SANINDUSA
100
AcDbLine
 10
5840.919968961998
 20
2054.644196054325
 30
0.0000000001479285
 11
5840.922045290352
 21
2054.644487863245
 31
0.0000000001479285
  0
LINE
  5
1C6A
330
1F
100
AcDbEntity
  8
SANINDUSA
100
AcDbLine
 10
5840.924971558347
 20
2054.644307907266
 30
0.0000000001479285
 11
5840.924971558347
 21
2054.643601151632
 31
0.0000000001479285
  0
ARC
  5
1C6B
330
1F
100
AcDbEntity
  8
SANINDUSA
100
AcDbCircle
 10
5840.922076781432
 20
2054.644643763163
 30
0.0000000001479285
 40
0.0004999999999883
100
AcDbArc
 50
278.0000000128183
 51
331.8736260450295
  0
ARC
  5
1C6C
330
1F
100
AcDbEntity
  8
SANINDUSA
100
AcDbCircle
 10
5840.922371558348
 20
2054.643826133287
 30
0.0000000001479285
 40
0.0006000000000005
100
AcDbArc
 50
32.46948080063537
 51
75.89910821324153
  0
ARC
  5
1C6D
330
1F
100
AcDbEntity
  8
SANINDUSA
100
AcDbCircle
 10
5840.915510945481
 20
2054.644442002794
 30
0.0000000001479285
 40
0.00075
100
AcDbArc
 50
170.6591659035287
 51
350.6591659035287
  0
LINE
  5
1C6E
330
1F
100
AcDbEntity
  8
SANINDUSA
100
AcDbLine
 10
5840.911971558347
 20
2054.646792272935
 30
0.0000000001479285
 11
5840.911971558347
 21
2054.635592272934
 31
0.0000000001479285
  0
LINE
  5
1C6F
330
1F
100
AcDbEntity
  8
SANINDUSA
100
AcDbLine
 10
5840.913119419
 20
2054.644888703384
 30
0.0000000001479285
 11
5840.913119419
 21
2054.637495842484
 31
0.0000000001479285
  0
ARC
  5
1C70
330
1F
100
AcDbEntity
  8
SANINDUSA
100
AcDbCircle
 10
5840.91113386604
 20
2054.641192272934
 30
0.0000000001479285
 40
0.0056623076923077
100
AcDbArc
 50
81.49232710632572
 51
278.5076728936743
  0
ARC
  5
1C71
330
1F
100
AcDbEntity
  8
SANINDUSA
100
AcDbCircle
 10
5840.91113386604
 20
2054.641192272934
 30
0.0000000001479285
 40
0.0052623076923077
100
AcDbArc
 50
81.49232710632572
 51
278.5076728936743
  0
LINE
  5
1C72
330
1F
100
AcDbEntity
  8
SANINDUSA
100
AcDbLine
 10
5840.926619419001
 20
2054.634792269125
 30
0.0000000001479286
 11
5840.911619419001
 21
2054.634792216831
 31
0.0000000001479286
  0
LINE
  5
1C73
330
1F
100
AcDbEntity
  8
SANINDUSA
100
AcDbLine
 10
5840.926619419001
 20
2054.636992269125
 30
0.0000000001479286
 11
5840.926619419001
 21
2054.637992269125
 31
0.0000000001479286
1001
GENIUS_GENREC_14
1002
{
1000
PYDIR
1011
5840.979619419002
1021
2054.637992269125
1031
0.0000000001479286
1002
}
1002
{
1000
PXDIR
1011
5840.926619419001
1021
2054.636992269125
1031
0.0000000001479286
1002
}
1002
{
1000
PORI
1011
5840.979619419002
1021
2054.636992269125
1031
0.0000000001479286
1002
}
1002
{
1000
PINS
1011
5840.979619419002
1021
2054.636992269125
1031
0.0000000001479286
1002
}
1002
{
1000
PINS2
1011
5840.926619419001
1021
2054.637992269125
1031
0.0000000001479286
1002
}
1002
{
1000
C
1070
     1
1002
}
1001
GENIUS_GENODEF_13
1002
{
1000
HIER
1070
     0
1002
}
1002
{
1000
MANEDIT
1070
     0
1002
}
1002
{
1000
NOSEL
1070
     0
1002
}
1002
{
1000
BEHIND
1070
     0
1002
}
1002
{
1000
REACTOR
1002
}
1001
GENIUS_GENOBJ-N-REC_13
1002
{
1000
OWNER
1000
GEN
1002
}
  0
LINE
  5
1C74
330
1F
100
AcDbEntity
  8
SANINDUSA
100
AcDbLine
 10
5840.926619419001
 20
2054.636792269125
 30
0.0000000001479286
 11
5840.926619419001
 21
2054.634792269125
 31
0.0000000001479286
  0
LINE
  5
1C75
330
1F
100
AcDbEntity
  8
SANINDUSA
100
AcDbLine
 10
5840.913119419
 20
2054.644192272934
 30
0.0000000001479285
 11
5840.913119419
 21
2054.638192272934
 31
0.0000000001479285
  0
LINE
  5
1C76
330
1F
100
AcDbEntity
  8
SANINDUSA
100
AcDbLine
 10
5840.910119419
 20
2054.644192269125
 30
0.0000000001479286
 11
5840.910119419
 21
2054.638192269124
 31
0.0000000001479286
1001
GENIUS_GENREC_14
1002
{
1000
PYDIR
1011
5841.063119419001
1021
2054.637992269125
1031
0.0000000001479286
1002
}
1002
{
1000
PXDIR
1011
5840.913119419
1021
2054.643992269125
1031
0.0000000001479286
1002
}
1002
{
1000
PORI
1011
5841.063119419001
1021
2054.643992269125
1031
0.0000000001479286
1002
}
1002
{
1000
PINS
1011
5841.063119419001
1021
2054.643992269125
1031
0.0000000001479286
1002
}
1002
{
1000
PINS2
1011
5840.913119419
1021
2054.638192269124
1031
0.0000000001479286
1002
}
1002
{
1000
C
1070
     1
1002
}
1001
GENIUS_GENODEF_13
1002
{
1000
HIER
1070
     0
1002
}
1002
{
1000
MANEDIT
1070
     0
1002
}
1002
{
1000
NOSEL
1070
     0
1002
}
1002
{
1000
BEHIND
1070
     0
1002
}
1002
{
1000
REACTOR
1002
}
1001
GENIUS_GENOBJ-N-REC_13
1002
{
1000
OWNER
1000
GEN
1002
}
  0
LINE
  5
1C77
330
1F
100
AcDbEntity
  8
SANINDUSA
100
AcDbLine
 10
5840.924468942608
 20
2054.637484594428
 30
0.0000000001479285
 11
5840.912964640925
 21
2054.635592272934
 31
0.0000000001479285
  0
LINE
  5
1C78
330
1F
100
AcDbEntity
  8
SANINDUSA
100
AcDbLine
 10
5840.922045290352
 20
2054.637896682623
 30
0.0000000001479285
 11
5840.919968961998
 21
2054.638188491544
 31
0.0000000001479285
  0
LINE
  5
1C79
330
1F
100
AcDbEntity
  8
SANINDUSA
100
AcDbLine
 10
5840.919668942608
 20
2054.637505801539
 30
0.0000000001479285
 11
5840.922045290352
 21
2054.637896682623
 31
0.0000000001479285
  0
LINE
  5
1C7A
330
1F
100
AcDbEntity
  8
SANINDUSA
100
AcDbLine
 10
5840.922146367983
 20
2054.64414862913
 30
0.0000000001479285
 11
5840.920017672583
 21
2054.643849460501
 31
0.0000000001479285
  0
LINE
  5
1C7B
330
1F
100
AcDbEntity
  8
SANINDUSA
100
AcDbLine
 10
5840.920017672583
 20
2054.638535085368
 30
0.0000000001479285
 11
5840.922146367983
 21
2054.638235916739
 31
0.0000000001479285
  0
LINE
  5
1C7C
330
1F
100
AcDbEntity
  8
SANINDUSA
100
AcDbLine
 10
5840.924971558347
 20
2054.643601151632
 30
0.0000000001479285
 11
5840.923286587115
 21
2054.643878309461
 31
0.0000000001479285
  0
ARC
  5
1C7D
330
1F
100
AcDbEntity
  8
SANINDUSA
100
AcDbCircle
 10
5840.923383971376
 20
2054.644470353636
 30
0.0000000001479285
 40
0.0006
100
AcDbArc
 50
212.4694808006354
 51
260.6591658778191
  0
ARC
  5
1C7E
330
1F
100
AcDbEntity
  8
SANINDUSA
100
AcDbCircle
 10
5840.924371558347
 20
2054.638076638603
 30
0.0000000001479285
 40
0.0006
100
AcDbArc
 50
279.3408341221809
 51
0.0
  0
ARC
  5
1C7F
330
1F
100
AcDbEntity
  8
SANINDUSA
100
AcDbCircle
 10
5840.922371558348
 20
2054.638558412582
 30
0.0000000001479285
 40
0.0005999999999989
100
AcDbArc
 50
284.1008917867585
 51
327.5305191993646
  0
LINE
  5
1C80
330
1F
100
AcDbEntity
  8
SANINDUSA
100
AcDbLine
 10
5840.923286587115
 20
2054.638506236408
 30
0.0000000001479285
 11
5840.924971558347
 21
2054.638783394237
 31
0.0000000001479285
  0
LINE
  5
1C81
330
1F
100
AcDbEntity
  8
SANINDUSA
100
AcDbLine
 10
5840.924971558347
 20
2054.638783394237
 30
0.0000000001479285
 11
5840.924971558347
 21
2054.638076638603
 31
0.0000000001479285
  0
ARC
  5
1C82
330
1F
100
AcDbEntity
  8
SANINDUSA
100
AcDbCircle
 10
5840.923383971376
 20
2054.637914192233
 30
0.0000000001479285
 40
0.0006
100
AcDbArc
 50
99.3408341221809
 51
147.5305191993646
  0
ARC
  5
1C83
330
1F
100
AcDbEntity
  8
SANINDUSA
100
AcDbCircle
 10
5840.922076781432
 20
2054.637740782705
 30
0.0000000001479285
 40
0.0005
100
AcDbArc
 50
28.12637395497053
 51
81.99999998718174
  0
ARC
  5
1C84
330
1F
100
AcDbEntity
  8
SANINDUSA
100
AcDbCircle
 10
5840.919993317291
 20
2054.644022757413
 30
0.0000000001479285
 40
0.000175
100
AcDbArc
 50
98.00000001281823
 51
278.0000000128183
  0
ARC
  5
1C85
330
1F
100
AcDbEntity
  8
SANINDUSA
100
AcDbCircle
 10
5840.91431809689
 20
2054.637492974124
 30
0.0000000001479285
 40
0.0005
100
AcDbArc
 50
279.3408341221809
 51
9.340834096471271
  0
ARC
  5
1C86
330
1F
100
AcDbEntity
  8
SANINDUSA
100
AcDbCircle
 10
5840.91881883668
 20
2054.637163281595
 30
0.0000000001479285
 40
0.0006000000000005
100
AcDbArc
 50
51.15114899463955
 51
99.3408341221809
  0
LINE
  5
1C87
330
1F
100
AcDbEntity
  8
SANINDUSA
100
AcDbLine
 10
5840.916842095481
 20
2054.637446193794
 30
0.0000000001479285
 11
5840.918721452419
 21
2054.637755325771
 31
0.0000000001479285
  0
LINE
  5
1C88
330
1F
100
AcDbEntity
  8
SANINDUSA
100
AcDbLine
 10
5840.916251000699
 20
2054.638064273401
 30
0.0000000001479285
 11
5840.916291577475
 21
2054.637817588327
 31
0.0000000001479285
  0
LINE
  5
1C89
330
1F
100
AcDbEntity
  8
SANINDUSA
100
AcDbLine
 10
5840.914811467036
 20
2054.637574127674
 30
0.0000000001479285
 11
5840.914770890261
 21
2054.637820812748
 31
0.0000000001479285
  0
ARC
  5
1C8A
330
1F
100
AcDbEntity
  8
SANINDUSA
100
AcDbCircle
 10
5840.916760941929
 20
2054.63793956394
 30
0.0000000001479285
 40
0.0005
100
AcDbArc
 50
179.8634464257769
 51
279.3408341221809
  0
ARC
  5
1C8B
330
1F
100
AcDbEntity
  8
SANINDUSA
100
AcDbCircle
 10
5840.915510945481
 20
2054.637942543074
 30
0.0000000001479285
 40
0.00075
100
AcDbArc
 50
359.863446425777
 51
189.3408340964712
  0
ARC
  5
1C8C
330
1F
100
AcDbEntity
  8
SANINDUSA
100
AcDbCircle
 10
5840.919993317291
 20
2054.638361788455
 30
0.0000000001479285
 40
0.000175
100
AcDbArc
 50
81.99999998718174
 51
261.9999999871818
  0
ARC
  5
1C8D
330
1F
100
AcDbEntity
  8
SANINDUSA
100
AcDbCircle
 10
5840.919571558347
 20
2054.638097845715
 30
0.0000000001479285
 40
0.0006
100
AcDbArc
 50
231.1511489946395
 51
279.3408341221809
  0
LINE
  5
1C8E
330
1F
100
AcDbEntity
  8
SANINDUSA
100
AcDbLine
 10
5840.912964640925
 20
2054.635592272934
 30
0.0000000001479285
 11
5840.911971558347
 21
2054.635592272934
 31
0.0000000001479285
  0
LINE
  5
1C8F
330
1F
100
AcDbEntity
  8
SANINDUSA
100
AcDbLine
 10
5840.913816803262
 20
2054.636903798309
 30
0.0000000001479285
 11
5840.91439925044
 21
2054.636999603977
 31
0.0000000001479285
  0
ARC
  5
1C90
330
1F
100
AcDbEntity
  8
SANINDUSA
100
AcDbCircle
 10
5840.913719419001
 20
2054.637495842484
 30
0.0000000001479285
 40
0.0006
100
AcDbArc
 50
180.0
 51
279.3408341221809
  0
ARC
  5
1C91
330
1F
100
AcDbEntity
  8
SANINDUSA
100
AcDbCircle
 10
5840.927619419001
 20
2054.649592269125
 30
0.0000000001479286
 40
0.001
100
AcDbArc
 50
90.0
 51
180.0
  0
ARC
  5
1C92
330
1F
100
AcDbEntity
  8
SANINDUSA
100
AcDbCircle
 10
5840.91431809689
 20
2054.644891571745
 30
0.0000000001479285
 40
0.0005
100
AcDbArc
 50
350.6591659035287
 51
80.65916587781911
  0
LINE
  5
1C93
330
1F
100
AcDbEntity
  8
SANINDUSA
100
AcDbLine
 10
5840.912964640925
 20
2054.646792272935
 30
0.0000000001479285
 11
5840.911971558347
 21
2054.646792272935
 31
0.0000000001479285
  0
LINE
  5
1C94
330
1F
100
AcDbEntity
  8
SANINDUSA
100
AcDbLine
 10
5840.91439925044
 20
2054.645384941891
 30
0.0000000001479285
 11
5840.913816803262
 21
2054.64548074756
 31
0.0000000001479285
  0
ARC
  5
1C95
330
1F
100
AcDbEntity
  8
SANINDUSA
100
AcDbCircle
 10
5840.913719419001
 20
2054.644888703384
 30
0.0000000001479285
 40
0.0006
100
AcDbArc
 50
80.65916587781911
 51
180.0
  0
LINE
  5
1C96
330
1F
100
AcDbEntity
  8
SANINDUSA
100
AcDbLine
 10
5840.922045290352
 20
2054.644487863245
 30
0.0000000001479285
 11
5840.919668942608
 21
2054.644878744329
 31
0.0000000001479285
  0
ARC
  5
1C97
330
1F
100
AcDbEntity
  8
SANINDUSA
100
AcDbCircle
 10
5840.924371558347
 20
2054.644307907266
 30
0.0000000001479285
 40
0.0006
100
AcDbArc
 50
0.0
 51
80.65916587781911
  0
LINE
  5
1C98
330
1F
100
AcDbEntity
  8
SANINDUSA
100
AcDbLine
 10
5840.914770890261
 20
2054.644563733121
 30
0.0000000001479285
 11
5840.914811467036
 21
2054.644810418194
 31
0.0000000001479285
  0
LINE
  5
1C99
330
1F
100
AcDbEntity
  8
SANINDUSA
100
AcDbLine
 10
5840.916284407223
 20
2054.644523366249
 30
0.0000000001479285
 11
5840.916251000699
 21
2054.644320272468
 31
0.0000000001479285
  0
LINE
  5
1C9A
330
1F
100
AcDbEntity
  8
SANINDUSA
100
AcDbLine
 10
5840.918721452419
 20
2054.644629220097
 30
0.0000000001479285
 11
5840.916858930921
 21
2054.644935582844
 31
0.0000000001479285
  0
ARC
  5
1C9B
330
1F
100
AcDbEntity
  8
SANINDUSA
100
AcDbCircle
 10
5840.91881883668
 20
2054.645221264273
 30
0.0000000001479285
 40
0.0006000000000005
100
AcDbArc
 50
260.6591658778191
 51
308.8488510053605
  0
ARC
  5
1C9C
330
1F
100
AcDbEntity
  8
SANINDUSA
100
AcDbCircle
 10
5840.916777777369
 20
2054.644442212698
 30
0.0000000001479285
 40
0.0005
100
AcDbArc
 50
80.65916587781911
 51
170.6591659035287
  0
ARC
  5
1C9D
330
1F
100
AcDbEntity
  8
SANINDUSA
100
AcDbCircle
 10
5840.919571558347
 20
2054.644286700154
 30
0.0000000001479285
 40
0.0006
100
AcDbArc
 50
80.65916587781911
 51
128.8488510053604
  0
LINE
  5
1C9E
330
1F
100
AcDbEntity
  8
SANINDUSA
100
AcDbLine
 10
5840.912964640925
 20
2054.646792272935
 30
0.0000000001479285
 11
5840.924468942608
 21
2054.644899951441
 31
0.0000000001479285
  0
LINE
  5
1C9F
330
1F
100
AcDbEntity
  8
SANINDUSA
100
AcDbLine
 10
5840.926619419001
 20
2054.645592269125
 30
0.0000000001479286
 11
5840.926619419001
 21
2054.649592269125
 31
0.0000000001479286
  0
LINE
  5
1CA0
330
1F
100
AcDbEntity
  8
SANINDUSA
100
AcDbLine
 10
5840.843619419
 20
2054.636792216831
 30
0.0000000001479286
 11
5840.843619419
 21
2054.627792216831
 31
0.0000000001479286
  0
ARC
  5
1CA1
330
1F
100
AcDbEntity
  8
SANINDUSA
100
AcDbCircle
 10
5840.844619419002
 20
2054.627792216831
 30
0.0000000001479286
 40
0.001
100
AcDbArc
 50
180.0
 51
270.0
  0
LINE
  5
1CA2
330
1F
100
AcDbEntity
  8
SANINDUSA
100
AcDbLine
 10
5840.844619419002
 20
2054.650592269124
 30
0.0000000001479286
 11
5840.895619419001
 21
2054.650592269124
 31
0.0000000001479286
  0
LINE
  5
1CA3
330
1F
100
AcDbEntity
  8
SANINDUSA
100
AcDbLine
 10
5840.896619419001
 20
2054.645592269125
 30
0.0000000001479286
 11
5840.843619419
 21
2054.645592269125
 31
0.0000000001479286
  0
LINE
  5
1CA4
330
1F
100
AcDbEntity
  8
SANINDUSA
100
AcDbLine
 10
5840.896619419001
 20
2054.636792216831
 30
0.0000000001479286
 11
5840.843619419
 21
2054.636792216831
 31
0.0000000001479286
  0
LWPOLYLINE
  5
1CA5
330
1F
100
AcDbEntity
  8
SANINDUSA
100
AcDbPolyline
 90
        4
 70
     1
 43
0.0
 38
0.0000000001479285
 10
5840.843619419
 20
2054.645392269125
 10
5840.896619419001
 20
2054.645392269125
 10
5840.896619419001
 20
2054.644392269125
 10
5840.843619419
 20
2054.644392269125
1001
GENIUS_GENREC_14
1002
{
1000
PYDIR
1011
5840.979619419002
1021
2053.902844670191
1031
0.0000000001479286
1002
}
1002
{
1000
PXDIR
1011
5840.926619419001
1021
2053.903844670192
1031
0.0000000001479286
1002
}
1002
{
1000
PORI
1011
5840.979619419002
1021
2053.903844670192
1031
0.0000000001479286
1002
}
1002
{
1000
PINS
1011
5840.979619419002
1021
2053.903844670192
1031
0.0000000001479286
1002
}
1002
{
1000
PINS2
1011
5840.926619419001
1021
2053.902844670191
1031
0.0000000001479286
1002
}
1002
{
1000
C
1070
     1
1002
}
1001
GENIUS_GENODEF_13
1002
{
1000
HIER
1070
     0
1002
}
1002
{
1000
MANEDIT
1070
     0
1002
}
1002
{
1000
NOSEL
1070
     0
1002
}
1002
{
1000
BEHIND
1070
     0
1002
}
1002
{
1000
REACTOR
1002
}
1001
GENIUS_GENOBJ-N-REC_13
1002
{
1000
OWNER
1000
GEN
1002
}
  0
LWPOLYLINE
  5
1CA6
330
1F
100
AcDbEntity
  8
SANINDUSA
100
AcDbPolyline
 90
        2
 70
     0
 43
0.0
 38
0.0000000001479285
 10
5840.843619419
 20
2054.636892269124
 10
5840.896619419001
 20
2054.636892269124
1001
GENIUS_GENREC_14
1002
{
1000
PYDIR
1011
5840.979619419002
1021
2053.903144670192
1031
0.0000000001479286
1002
}
1002
{
1000
PXDIR
1011
5840.926619419001
1021
2053.904144670191
1031
0.0000000001479286
1002
}
1002
{
1000
PORI
1011
5840.979619419002
1021
2053.904144670191
1031
0.0000000001479286
1002
}
1002
{
1000
PINS
1011
5840.979619419002
1021
2053.904144670191
1031
0.0000000001479286
1002
}
1002
{
1000
PINS2
1011
5840.926619419001
1021
2053.903144670192
1031
0.0000000001479286
1002
}
1002
{
1000
C
1070
     1
1002
}
1001
GENIUS_GENODEF_13
1002
{
1000
HIER
1070
     0
1002
}
1002
{
1000
MANEDIT
1070
     0
1002
}
1002
{
1000
NOSEL
1070
     0
1002
}
1002
{
1000
BEHIND
1070
     0
1002
}
1002
{
1000
REACTOR
1002
}
1001
GENIUS_GENOBJ-N-REC_13
1002
{
1000
OWNER
1000
GEN
1002
}
  0
LWPOLYLINE
  5
1CA7
330
1F
100
AcDbEntity
  8
SANINDUSA
100
AcDbPolyline
 90
        2
 70
     0
 43
0.0
 38
0.0000000001479285
 10
5840.896619419001
 20
2054.637892269125
 10
5840.843619419
 20
2054.637892269125
1001
GENIUS_GENREC_14
1002
{
1000
PYDIR
1011
5840.979619419002
1021
2053.903144670192
1031
0.0000000001479286
1002
}
1002
{
1000
PXDIR
1011
5840.926619419001
1021
2053.904144670191
1031
0.0000000001479286
1002
}
1002
{
1000
PORI
1011
5840.979619419002
1021
2053.904144670191
1031
0.0000000001479286
1002
}
1002
{
1000
PINS
1011
5840.979619419002
1021
2053.904144670191
1031
0.0000000001479286
1002
}
1002
{
1000
PINS2
1011
5840.926619419001
1021
2053.903144670192
1031
0.0000000001479286
1002
}
1002
{
1000
C
1070
     1
1002
}
1001
GENIUS_GENODEF_13
1002
{
1000
HIER
1070
     0
1002
}
1002
{
1000
MANEDIT
1070
     0
1002
}
1002
{
1000
NOSEL
1070
     0
1002
}
1002
{
1000
BEHIND
1070
     0
1002
}
1002
{
1000
REACTOR
1002
}
1001
GENIUS_GENOBJ-N-REC_13
1002
{
1000
OWNER
1000
GEN
1002
}
  0
LINE
  5
1CA8
330
1F
100
AcDbEntity
  8
SANINDUSA
100
AcDbLine
 10
5840.896619419001
 20
2054.636892269124
 30
0.0000000001479286
 11
5840.896619419001
 21
2054.637892269125
 31
0.0000000001479286
1001
GENIUS_GENREC_14
1002
{
1000
PYDIR
1011
5840.979619419002
1021
2054.637892269125
1031
0.0000000001479286
1002
}
1002
{
1000
PXDIR
1011
5840.926619419001
1021
2054.636892269124
1031
0.0000000001479286
1002
}
1002
{
1000
PORI
1011
5840.979619419002
1021
2054.636892269124
1031
0.0000000001479286
1002
}
1002
{
1000
PINS
1011
5840.979619419002
1021
2054.636892269124
1031
0.0000000001479286
1002
}
1002
{
1000
PINS2
1011
5840.926619419001
1021
2054.637892269125
1031
0.0000000001479286
1002
}
1002
{
1000
C
1070
     1
1002
}
1001
GENIUS_GENODEF_13
1002
{
1000
HIER
1070
     0
1002
}
1002
{
1000
MANEDIT
1070
     0
1002
}
1002
{
1000
NOSEL
1070
     0
1002
}
1002
{
1000
BEHIND
1070
     0
1002
}
1002
{
1000
REACTOR
1002
}
1001
GENIUS_GENOBJ-N-REC_13
1002
{
1000
OWNER
1000
GEN
1002
}
  0
LINE
  5
1CA9
330
1F
100
AcDbEntity
  8
SANINDUSA
100
AcDbLine
 10
5840.896619419001
 20
2054.63479221683
 30
0.0000000001479286
 11
5840.896619419001
 21
2054.636792216831
 31
0.0000000001479286
  0
ARC
  5
1CAA
330
1F
100
AcDbEntity
  8
SANINDUSA
100
AcDbCircle
 10
5840.895619419001
 20
2054.649592269125
 30
0.0000000001479286
 40
0.001
100
AcDbArc
 50
0.0
 51
90.0
  0
LINE
  5
1CAB
330
1F
100
AcDbEntity
  8
SANINDUSA
100
AcDbLine
 10
5840.896619419001
 20
2054.645592269125
 30
0.0000000001479286
 11
5840.896619419001
 21
2054.649592269125
 31
0.0000000001479286
  0
LINE
  5
1CAC
330
1F
100
AcDbEntity
  8
SANINDUSA
100
AcDbLine
 10
5840.843619419
 20
2054.637892269125
 30
0.0000000001479286
 11
5840.843619419
 21
2054.636892269124
 31
0.0000000001479286
1001
GENIUS_GENREC_14
1002
{
1000
PYDIR
1011
5840.979619419002
1021
2054.637892269125
1031
0.0000000001479286
1002
}
1002
{
1000
PXDIR
1011
5840.926619419001
1021
2054.636892269124
1031
0.0000000001479286
1002
}
1002
{
1000
PORI
1011
5840.979619419002
1021
2054.636892269124
1031
0.0000000001479286
1002
}
1002
{
1000
PINS
1011
5840.979619419002
1021
2054.636892269124
1031
0.0000000001479286
1002
}
1002
{
1000
PINS2
1011
5840.926619419001
1021
2054.637892269125
1031
0.0000000001479286
1002
}
1002
{
1000
C
1070
     1
1002
}
1001
GENIUS_GENODEF_13
1002
{
1000
HIER
1070
     0
1002
}
1002
{
1000
MANEDIT
1070
     0
1002
}
1002
{
1000
NOSEL
1070
     0
1002
}
1002
{
1000
BEHIND
1070
     0
1002
}
1002
{
1000
REACTOR
1002
}
1001
GENIUS_GENOBJ-N-REC_13
1002
{
1000
OWNER
1000
GEN
1002
}
  0
ARC
  5
1CAD
330
1F
100
AcDbEntity
  8
SANINDUSA
100
AcDbCircle
 10
5840.844619419002
 20
2054.649592269125
 30
0.0000000001479286
 40
0.001
100
AcDbArc
 50
90.0
 51
180.0
  0
LINE
  5
1CAE
330
1F
100
AcDbEntity
  8
SANINDUSA
100
AcDbLine
 10
5840.843619419
 20
2054.645592269125
 30
0.0000000001479286
 11
5840.843619419
 21
2054.649592269125
 31
0.0000000001479286
  0
LINE
  5
1CB0
330
1F
100
AcDbEntity
  8
SANINDUSA
100
AcDbLine
 10
5841.713119419001
 20
2054.644192272934
 30
0.0000000001479285
 11
5841.713119419001
 21
2054.638192272934
 31
0.0000000001479285
  0
LINE
  5
1CB1
330
1F
100
AcDbEntity
  8
SANINDUSA
100
AcDbLine
 10
5840.192119419
 20
2054.644192269125
 30
0.0000000001479286
 11
5840.192119419
 21
2054.638192269124
 31
0.000000000147481
  0
LINE
  5
1CB2
330
1F
100
AcDbEntity
  8
SANINDUSA
100
AcDbLine
 10
5840.192119419
 20
2054.644192269125
 30
0.0000000001479286
 11
5840.910119419
 21
2054.644192269125
 31
0.0000000001479286
  0
LINE
  5
1CB3
330
1F
100
AcDbEntity
  8
SANINDUSA
100
AcDbLine
 10
5840.192119419
 20
2054.638192269124
 30
0.0000000001474186
 11
5840.910119419
 21
2054.638192269124
 31
0.0000000001478663
  0
LINE
  5
1CB4
330
1F
100
AcDbEntity
  8
SANINDUSA
100
AcDbLine
 10
5840.913119419
 20
2054.644192272934
 30
0.0000000001479285
 11
5841.713119419001
 21
2054.644192272934
 31
0.0000000001479285
  0
LINE
  5
1CB8
330
1F
100
AcDbEntity
  8
SANINDUSA
100
AcDbLine
 10
5841.451113777378
 20
2055.297497568312
 30
0.0
 11
5841.451113777378
 21
2055.314747568312
 31
0.0
  0
LINE
  5
1CB9
330
1F
100
AcDbEntity
  8
SANINDUSA
100
AcDbLine
 10
5841.469113777378
 20
2055.297497568312
 30
0.0
 11
5841.469113777378
 21
2055.314747568312
 31
0.0
  0
CIRCLE
  5
1CBA
330
1F
100
AcDbEntity
  8
SANINDUSA
100
AcDbCircle
 10
5841.460113777379
 20
2055.297497568312
 30
0.0
 40
0.005085
  0
LINE
  5
1CBB
330
1F
100
AcDbEntity
  8
SANINDUSA
100
AcDbLine
 10
5841.4668312918
 20
2055.279466345392
 30
0.0
 11
5841.461881544332
 21
2055.28441609286
 31
0.0
  0
LINE
  5
1CBC
330
1F
100
AcDbEntity
  8
SANINDUSA
100
AcDbLine
 10
5841.473195252831
 20
2055.295729801359
 30
0.0
 11
5841.461881544332
 21
2055.28441609286
 31
0.0
  0
ARC
  5
1CBD
330
1F
100
AcDbEntity
  8
SANINDUSA
100
AcDbCircle
 10
5841.460113777379
 20
2055.297497568312
 30
0.0
 40
0.009
100
AcDbArc
 50
180.0
 51
0.0
  0
LINE
  5
1CBE
330
1F
100
AcDbEntity
  8
SANINDUSA
100
AcDbLine
 10
5841.478145000299
 20
2055.290780053891
 30
0.0
 11
5841.4668312918
 21
2055.279466345392
 31
0.0
  0
LINE
  5
1CBF
330
1F
100
AcDbEntity
  8
SANINDUSA
100
AcDbLine
 10
5841.473195252831
 20
2055.295729801359
 30
0.0
 11
5841.469113777378
 21
2055.29981127681
 31
0.0
  0
LINE
  5
1CC0
330
1F
100
AcDbEntity
  8
SANINDUSA
100
AcDbLine
 10
5841.478145000299
 20
2055.290780053891
 30
0.0
 11
5841.473195252831
 21
2055.295729801359
 31
0.0
  0
LINE
  5
1CC1
330
1F
100
AcDbEntity
  8
SANINDUSA
100
AcDbLine
 10
5841.458013670239
 20
2055.295397461172
 30
0.0
 11
5841.458994830562
 21
2055.296858568311
 31
0.0
  0
LINE
  5
1CC2
330
1F
100
AcDbEntity
  8
SANINDUSA
100
AcDbLine
 10
5841.458013670239
 20
2055.295397461172
 30
0.0
 11
5841.459474777379
 21
2055.296858568311
 31
0.0
  0
LINE
  5
1CC3
330
1F
100
AcDbEntity
  8
SANINDUSA
100
AcDbLine
 10
5841.459474777379
 20
2055.296378621495
 30
0.0
 11
5841.458013670239
 21
2055.295397461172
 31
0.0
  0
LINE
  5
1CC4
330
1F
100
AcDbEntity
  8
SANINDUSA
100
AcDbLine
 10
5841.458013670239
 20
2055.299597675452
 30
0.0
 11
5841.459474777379
 21
2055.298616515129
 31
0.0
  0
LINE
  5
1CC5
330
1F
100
AcDbEntity
  8
SANINDUSA
100
AcDbLine
 10
5841.458013670239
 20
2055.299597675452
 30
0.0
 11
5841.459474777379
 21
2055.298136568312
 31
0.0
  0
LINE
  5
1CC6
330
1F
100
AcDbEntity
  8
SANINDUSA
100
AcDbLine
 10
5841.458994830562
 20
2055.298136568312
 30
0.0
 11
5841.458013670239
 21
2055.299597675452
 31
0.0
  0
LINE
  5
1CC7
330
1F
100
AcDbEntity
  8
SANINDUSA
100
AcDbLine
 10
5841.458994830562
 20
2055.296858568311
 30
0.0
 11
5841.457143777379
 21
2055.296858568311
 31
0.0
  0
LINE
  5
1CC8
330
1F
100
AcDbEntity
  8
SANINDUSA
100
AcDbLine
 10
5841.457143777379
 20
2055.298136568312
 30
0.0
 11
5841.458994830562
 21
2055.298136568312
 31
0.0
  0
LINE
  5
1CC9
330
1F
100
AcDbEntity
  8
SANINDUSA
100
AcDbLine
 10
5841.462213884518
 20
2055.299597675452
 30
0.0
 11
5841.461232724196
 21
2055.298136568312
 31
0.0
  0
LINE
  5
1CCA
330
1F
100
AcDbEntity
  8
SANINDUSA
100
AcDbLine
 10
5841.462213884518
 20
2055.299597675452
 30
0.0
 11
5841.460752777379
 21
2055.298136568312
 31
0.0
  0
LINE
  5
1CCB
330
1F
100
AcDbEntity
  8
SANINDUSA
100
AcDbLine
 10
5841.461232724196
 20
2055.298136568312
 30
0.0
 11
5841.460752777379
 21
2055.298136568312
 31
0.0
  0
LINE
  5
1CCC
330
1F
100
AcDbEntity
  8
SANINDUSA
100
AcDbLine
 10
5841.460752777379
 20
2055.298616515129
 30
0.0
 11
5841.462213884518
 21
2055.299597675452
 31
0.0
  0
LINE
  5
1CCD
330
1F
100
AcDbEntity
  8
SANINDUSA
100
AcDbLine
 10
5841.460752777379
 20
2055.298136568312
 30
0.0
 11
5841.460752777379
 21
2055.298616515129
 31
0.0
  0
LINE
  5
1CCE
330
1F
100
AcDbEntity
  8
SANINDUSA
100
AcDbLine
 10
5841.458994830562
 20
2055.296858568311
 30
0.0
 11
5841.459474777379
 21
2055.296858568311
 31
0.0
  0
LINE
  5
1CCF
330
1F
100
AcDbEntity
  8
SANINDUSA
100
AcDbLine
 10
5841.459474777379
 20
2055.296858568311
 30
0.0
 11
5841.459474777379
 21
2055.296378621495
 31
0.0
  0
LINE
  5
1CD0
330
1F
100
AcDbEntity
  8
SANINDUSA
100
AcDbLine
 10
5841.459474777379
 20
2055.298616515129
 30
0.0
 11
5841.459474777379
 21
2055.298136568312
 31
0.0
  0
LINE
  5
1CD1
330
1F
100
AcDbEntity
  8
SANINDUSA
100
AcDbLine
 10
5841.459474777379
 20
2055.298136568312
 30
0.0
 11
5841.458994830562
 21
2055.298136568312
 31
0.0
  0
LINE
  5
1CD2
330
1F
100
AcDbEntity
  8
SANINDUSA
100
AcDbLine
 10
5841.462213884518
 20
2055.295397461172
 30
0.0
 11
5841.460752777379
 21
2055.296378621495
 31
0.0
  0
LINE
  5
1CD3
330
1F
100
AcDbEntity
  8
SANINDUSA
100
AcDbLine
 10
5841.462213884518
 20
2055.295397461172
 30
0.0
 11
5841.460752777379
 21
2055.296858568311
 31
0.0
  0
LINE
  5
1CD4
330
1F
100
AcDbEntity
  8
SANINDUSA
100
AcDbLine
 10
5841.460752777379
 20
2055.296378621495
 30
0.0
 11
5841.460752777379
 21
2055.296858568311
 31
0.0
  0
LINE
  5
1CD5
330
1F
100
AcDbEntity
  8
SANINDUSA
100
AcDbLine
 10
5841.461232724196
 20
2055.296858568311
 30
0.0
 11
5841.462213884518
 21
2055.295397461172
 31
0.0
  0
LINE
  5
1CD6
330
1F
100
AcDbEntity
  8
SANINDUSA
100
AcDbLine
 10
5841.460752777379
 20
2055.296858568311
 30
0.0
 11
5841.461232724196
 21
2055.296858568311
 31
0.0
  0
LINE
  5
1CD7
330
1F
100
AcDbEntity
  8
SANINDUSA
100
AcDbLine
 10
5841.461232724196
 20
2055.298136568312
 30
0.0
 11
5841.463083777378
 21
2055.298136568312
 31
0.0
  0
LINE
  5
1CD8
330
1F
100
AcDbEntity
  8
SANINDUSA
100
AcDbLine
 10
5841.459474777379
 20
2055.298616515129
 30
0.0
 11
5841.459474777379
 21
2055.300467568312
 31
0.0
  0
LINE
  5
1CD9
330
1F
100
AcDbEntity
  8
SANINDUSA
100
AcDbLine
 10
5841.460752777379
 20
2055.296378621495
 30
0.0
 11
5841.460752777379
 21
2055.294527568312
 31
0.0
  0
LINE
  5
1CDA
330
1F
100
AcDbEntity
  8
SANINDUSA
100
AcDbLine
 10
5841.459474777379
 20
2055.298136568312
 30
0.0
 11
5841.460752777379
 21
2055.298136568312
 31
0.0
  0
LINE
  5
1CDB
330
1F
100
AcDbEntity
  8
SANINDUSA
100
AcDbLine
 10
5841.460752777379
 20
2055.296858568311
 30
0.0
 11
5841.459474777379
 21
2055.296858568311
 31
0.0
  0
LINE
  5
1CDC
330
1F
100
AcDbEntity
  8
SANINDUSA
100
AcDbLine
 10
5841.463083777378
 20
2055.296858568311
 30
0.0
 11
5841.461232724196
 21
2055.296858568311
 31
0.0
  0
LINE
  5
1CDD
330
1F
100
AcDbEntity
  8
SANINDUSA
100
AcDbLine
 10
5841.460113777379
 20
2055.297497568312
 30
0.0
 11
5841.459474777379
 21
2055.298136568312
 31
0.0
  0
LINE
  5
1CDE
330
1F
100
AcDbEntity
  8
SANINDUSA
100
AcDbLine
 10
5841.460113777379
 20
2055.298136568312
 30
0.0
 11
5841.460113777379
 21
2055.297497568312
 31
0.0
  0
LINE
  5
1CDF
330
1F
100
AcDbEntity
  8
SANINDUSA
100
AcDbLine
 10
5841.459474777379
 20
2055.298136568312
 30
0.0
 11
5841.459474777379
 21
2055.296858568311
 31
0.0
  0
LINE
  5
1CE0
330
1F
100
AcDbEntity
  8
SANINDUSA
100
AcDbLine
 10
5841.459474777379
 20
2055.296858568311
 30
0.0
 11
5841.460113777379
 21
2055.297497568312
 31
0.0
  0
LINE
  5
1CE1
330
1F
100
AcDbEntity
  8
SANINDUSA
100
AcDbLine
 10
5841.460113777379
 20
2055.297497568312
 30
0.0
 11
5841.460113777379
 21
2055.296858568311
 31
0.0
  0
LINE
  5
1CE2
330
1F
100
AcDbEntity
  8
SANINDUSA
100
AcDbLine
 10
5841.460752777379
 20
2055.298136568312
 30
0.0
 11
5841.460113777379
 21
2055.297497568312
 31
0.0
  0
LINE
  5
1CE3
330
1F
100
AcDbEntity
  8
SANINDUSA
100
AcDbLine
 10
5841.460113777379
 20
2055.297497568312
 30
0.0
 11
5841.460752777379
 21
2055.296858568311
 31
0.0
  0
LINE
  5
1CE4
330
1F
100
AcDbEntity
  8
SANINDUSA
100
AcDbLine
 10
5841.463083777378
 20
2055.298136568312
 30
0.0
 11
5841.463083777378
 21
2055.296858568311
 31
0.0
  0
LINE
  5
1CE5
330
1F
100
AcDbEntity
  8
SANINDUSA
100
AcDbLine
 10
5841.460752777379
 20
2055.296858568311
 30
0.0
 11
5841.460752777379
 21
2055.298136568312
 31
0.0
  0
LINE
  5
1CE6
330
1F
100
AcDbEntity
  8
SANINDUSA
100
AcDbLine
 10
5841.459474777379
 20
2055.294527568312
 30
0.0
 11
5841.459474777379
 21
2055.296378621495
 31
0.0
  0
LINE
  5
1CE7
330
1F
100
AcDbEntity
  8
SANINDUSA
100
AcDbLine
 10
5841.460113777379
 20
2055.297497568312
 30
0.0
 11
5841.460752777379
 21
2055.297497568312
 31
0.0
  0
LINE
  5
1CE8
330
1F
100
AcDbEntity
  8
SANINDUSA
100
AcDbLine
 10
5841.460752777379
 20
2055.294527568312
 30
0.0
 11
5841.459474777379
 21
2055.294527568312
 31
0.0
  0
LINE
  5
1CE9
330
1F
100
AcDbEntity
  8
SANINDUSA
100
AcDbLine
 10
5841.459474777379
 20
2055.297497568312
 30
0.0
 11
5841.460113777379
 21
2055.297497568312
 31
0.0
  0
LINE
  5
1CEA
330
1F
100
AcDbEntity
  8
SANINDUSA
100
AcDbLine
 10
5841.460752777379
 20
2055.300467568312
 30
0.0
 11
5841.460752777379
 21
2055.298616515129
 31
0.0
  0
LINE
  5
1CEB
330
1F
100
AcDbEntity
  8
SANINDUSA
100
AcDbLine
 10
5841.459474777379
 20
2055.300467568312
 30
0.0
 11
5841.460752777379
 21
2055.300467568312
 31
0.0
  0
LINE
  5
1CEC
330
1F
100
AcDbEntity
  8
SANINDUSA
100
AcDbLine
 10
5841.457143777379
 20
2055.296858568311
 30
0.0
 11
5841.457143777379
 21
2055.298136568312
 31
0.0
  0
LINE
  5
1CED
330
1F
100
AcDbEntity
  8
SANINDUSA
100
AcDbLine
 10
5841.461881544332
 20
2055.28441609286
 30
0.0
 11
5841.457372399077
 21
2055.288925238115
 31
0.0
  0
LINE
  5
1CEE
330
1F
100
AcDbEntity
  8
SANINDUSA
100
AcDbLine
 10
5841.475113777378
 20
2055.319747568312
 30
0.0
 11
5841.445113777378
 21
2055.319747568312
 31
0.0
  0
LINE
  5
1CEF
330
1F
100
AcDbEntity
  8
SANINDUSA
100
AcDbLine
 10
5841.447113777379
 20
2055.314747568312
 30
0.0
 11
5841.473113777379
 21
2055.314747568312
 31
0.0
  0
LINE
  5
1CF0
330
1F
100
AcDbEntity
  8
SANINDUSA
100
AcDbLine
 10
5841.475113777378
 20
2055.316747568312
 30
0.0
 11
5841.475113777378
 21
2055.319747568312
 31
0.0
  0
ARC
  5
1CF1
330
1F
100
AcDbEntity
  8
SANINDUSA
100
AcDbCircle
 10
5841.473113777379
 20
2055.316747568312
 30
0.0
 40
0.002
100
AcDbArc
 50
270.0
 51
0.0
  0
ARC
  5
1CF2
330
1F
100
AcDbEntity
  8
SANINDUSA
100
AcDbCircle
 10
5841.447113777379
 20
2055.316747568312
 30
0.0
 40
0.002
100
AcDbArc
 50
180.0
 51
270.0
  0
LINE
  5
1CF3
330
1F
100
AcDbEntity
  8
SANINDUSA
100
AcDbLine
 10
5841.445113777378
 20
2055.319747568312
 30
0.0
 11
5841.445113777378
 21
2055.316747568312
 31
0.0
  0
LINE
  5
1CF4
330
1F
100
AcDbEntity
  8
SANINDUSA
100
AcDbLine
 10
5841.674013578688
 20
2055.074405378847
 30
0.0
 11
5841.467891951972
 21
2055.280527005563
 31
0.0
  0
LINE
  5
1CF5
330
1F
100
AcDbEntity
  8
SANINDUSA
100
AcDbLine
 10
5841.683205966843
 20
2055.083597767003
 30
0.0
 11
5841.477084340128
 21
2055.289719393719
 31
0.0
  0
LINE
  5
1CF6
330
1F
100
AcDbEntity
  8
SANINDUSA
100
AcDbLine
 10
5841.701054793819
 20
2055.054974122106
 30
0.0
 11
5841.701394167468
 21
2055.055313495755
 31
0.0
  0
LINE
  5
1CF7
330
1F
100
AcDbEntity
  8
SANINDUSA
100
AcDbLine
 10
5841.699327849934
 20
2055.055313495755
 30
0.0
 11
5841.701054793819
 21
2055.054974122106
 31
0.0
  0
LINE
  5
1CF8
330
1F
100
AcDbEntity
  8
SANINDUSA
100
AcDbLine
 10
5841.684266627015
 20
2055.062031010177
 30
0.0
 11
5841.693725519738
 21
2055.052572117453
 31
0.0
  0
LINE
  5
1CF9
330
1F
100
AcDbEntity
  8
SANINDUSA
100
AcDbLine
 10
5841.701846008702
 20
2055.054861654522
 30
0.0
 11
5841.702297849935
 21
2055.055313495755
 31
0.0
  0
LINE
  5
1CFA
330
1F
100
AcDbEntity
  8
SANINDUSA
100
AcDbLine
 10
5841.702749691168
 20
2055.054861654522
 30
0.0
 11
5841.702297849935
 21
2055.055313495755
 31
0.0
  0
LINE
  5
1CFB
330
1F
100
AcDbEntity
  8
SANINDUSA
100
AcDbLine
 10
5841.702297849935
 20
2055.055313495755
 30
0.0
 11
5841.702297849935
 21
2055.054409813289
 31
0.0
  0
LINE
  5
1CFC
330
1F
100
AcDbEntity
  8
SANINDUSA
100
AcDbLine
 10
5841.702297849935
 20
2055.054409813289
 30
0.0
 11
5841.703201532401
 21
2055.055313495755
 31
0.0
  0
LINE
  5
1CFD
330
1F
100
AcDbEntity
  8
SANINDUSA
100
AcDbLine
 10
5841.703201532401
 20
2055.055313495755
 30
0.0
 11
5841.70354090605
 21
2055.054974122106
 31
0.0
  0
LINE
  5
1CFE
330
1F
100
AcDbEntity
  8
SANINDUSA
100
AcDbLine
 10
5841.70354090605
 20
2055.054974122106
 30
0.0
 11
5841.705267849935
 21
2055.055313495755
 31
0.0
  0
ARC
  5
1CFF
330
1F
100
AcDbEntity
  8
SANINDUSA
100
AcDbCircle
 10
5841.702297849935
 20
2055.055313495755
 30
0.0
 40
0.009
100
AcDbArc
 50
90.0
 51
270.0
  0
CIRCLE
  5
1D00
330
1F
100
AcDbEntity
  8
SANINDUSA
100
AcDbCircle
 10
5841.702297849935
 20
2055.055313495755
 30
0.0
 40
0.005085
  0
LINE
  5
1D01
330
1F
100
AcDbEntity
  8
SANINDUSA
100
AcDbLine
 10
5841.702297849935
 20
2055.054409813289
 30
0.0
 11
5841.701394167468
 21
2055.055313495755
 31
0.0
  0
LINE
  5
1D02
330
1F
100
AcDbEntity
  8
SANINDUSA
100
AcDbLine
 10
5841.702297849935
 20
2055.046313495755
 30
0.0
 11
5841.719547849935
 21
2055.046313495755
 31
0.0
  0
LINE
  5
1D03
330
1F
100
AcDbEntity
  8
SANINDUSA
100
AcDbLine
 10
5841.699745901562
 20
2055.053665229849
 30
0.0
 11
5841.700649584027
 21
2055.052761547382
 31
0.0
  0
LINE
  5
1D04
330
1F
100
AcDbEntity
  8
SANINDUSA
100
AcDbLine
 10
5841.701054793819
 20
2055.054974122106
 30
0.0
 11
5841.699745901562
 21
2055.053665229849
 31
0.0
  0
LINE
  5
1D05
330
1F
100
AcDbEntity
  8
SANINDUSA
100
AcDbLine
 10
5841.703946115842
 20
2055.052761547382
 30
0.0
 11
5841.704849798309
 21
2055.053665229849
 31
0.0
  0
LINE
  5
1D06
330
1F
100
AcDbEntity
  8
SANINDUSA
100
AcDbLine
 10
5841.704849798309
 20
2055.053665229849
 30
0.0
 11
5841.70354090605
 21
2055.054974122106
 31
0.0
  0
LINE
  5
1D07
330
1F
100
AcDbEntity
  8
SANINDUSA
100
AcDbLine
 10
5841.702637223584
 20
2055.05407043964
 30
0.0
 11
5841.703946115842
 21
2055.052761547382
 31
0.0
  0
LINE
  5
1D08
330
1F
100
AcDbEntity
  8
SANINDUSA
100
AcDbLine
 10
5841.702297849935
 20
2055.054409813289
 30
0.0
 11
5841.701958476285
 21
2055.05407043964
 31
0.0
  0
LINE
  5
1D09
330
1F
100
AcDbEntity
  8
SANINDUSA
100
AcDbLine
 10
5841.701958476285
 20
2055.05407043964
 30
0.0
 11
5841.702297849935
 21
2055.052343495756
 31
0.0
  0
LINE
  5
1D0A
330
1F
100
AcDbEntity
  8
SANINDUSA
100
AcDbLine
 10
5841.702637223584
 20
2055.05407043964
 30
0.0
 11
5841.702297849935
 21
2055.054409813289
 31
0.0
  0
LINE
  5
1D0B
330
1F
100
AcDbEntity
  8
SANINDUSA
100
AcDbLine
 10
5841.702297849935
 20
2055.052343495756
 30
0.0
 11
5841.702297849935
 21
2055.054409813289
 31
0.0
  0
LINE
  5
1D0C
330
1F
100
AcDbEntity
  8
SANINDUSA
100
AcDbLine
 10
5841.702297849935
 20
2055.052343495756
 30
0.0
 11
5841.702637223584
 21
2055.05407043964
 31
0.0
  0
LINE
  5
1D0D
330
1F
100
AcDbEntity
  8
SANINDUSA
100
AcDbLine
 10
5841.700649584027
 20
2055.052761547382
 30
0.0
 11
5841.701958476285
 21
2055.05407043964
 31
0.0
  0
LINE
  5
1D0E
330
1F
100
AcDbEntity
  8
SANINDUSA
100
AcDbLine
 10
5841.700530082983
 20
2055.068394971208
 30
0.0
 11
5841.689216374483
 21
2055.057081262708
 31
0.0
  0
LINE
  5
1D0F
330
1F
100
AcDbEntity
  8
SANINDUSA
100
AcDbLine
 10
5841.695580335514
 20
2055.073344718676
 30
0.0
 11
5841.704611558435
 21
2055.064313495755
 31
0.0
  0
LINE
  5
1D10
330
1F
100
AcDbEntity
  8
SANINDUSA
100
AcDbLine
 10
5841.702297849935
 20
2055.064313495755
 30
0.0
 11
5841.719547849935
 21
2055.064313495755
 31
0.0
  0
LINE
  5
1D11
330
1F
100
AcDbEntity
  8
SANINDUSA
100
AcDbLine
 10
5841.700649584027
 20
2055.057865444129
 30
0.0
 11
5841.699745901562
 21
2055.056961761662
 31
0.0
  0
LINE
  5
1D12
330
1F
100
AcDbEntity
  8
SANINDUSA
100
AcDbLine
 10
5841.699745901562
 20
2055.056961761662
 30
0.0
 11
5841.701054793819
 21
2055.055652869404
 31
0.0
  0
LINE
  5
1D13
330
1F
100
AcDbEntity
  8
SANINDUSA
100
AcDbLine
 10
5841.701394167468
 20
2055.055313495755
 30
0.0
 11
5841.701054793819
 21
2055.055652869404
 31
0.0
  0
LINE
  5
1D14
330
1F
100
AcDbEntity
  8
SANINDUSA
100
AcDbLine
 10
5841.701054793819
 20
2055.055652869404
 30
0.0
 11
5841.699327849934
 21
2055.055313495755
 31
0.0
  0
LINE
  5
1D15
330
1F
100
AcDbEntity
  8
SANINDUSA
100
AcDbLine
 10
5841.699327849934
 20
2055.055313495755
 30
0.0
 11
5841.701394167468
 21
2055.055313495755
 31
0.0
  0
LINE
  5
1D16
330
1F
100
AcDbEntity
  8
SANINDUSA
100
AcDbLine
 10
5841.702297849935
 20
2055.055313495755
 30
0.0
 11
5841.702749691168
 21
2055.055765336988
 31
0.0
  0
LINE
  5
1D17
330
1F
100
AcDbEntity
  8
SANINDUSA
100
AcDbLine
 10
5841.702297849935
 20
2055.056217178222
 30
0.0
 11
5841.703201532401
 21
2055.055313495755
 31
0.0
  0
LINE
  5
1D18
330
1F
100
AcDbEntity
  8
SANINDUSA
100
AcDbLine
 10
5841.704849798309
 20
2055.056961761662
 30
0.0
 11
5841.703946115842
 21
2055.057865444129
 31
0.0
  0
LINE
  5
1D19
330
1F
100
AcDbEntity
  8
SANINDUSA
100
AcDbLine
 10
5841.702297849935
 20
2055.055313495755
 30
0.0
 11
5841.702297849935
 21
2055.056217178222
 31
0.0
  0
LINE
  5
1D1A
330
1F
100
AcDbEntity
  8
SANINDUSA
100
AcDbLine
 10
5841.703201532401
 20
2055.055313495755
 30
0.0
 11
5841.702297849935
 21
2055.055313495755
 31
0.0
  0
LINE
  5
1D1B
330
1F
100
AcDbEntity
  8
SANINDUSA
100
AcDbLine
 10
5841.702297849935
 20
2055.055313495755
 30
0.0
 11
5841.701846008702
 21
2055.055765336988
 31
0.0
  0
LINE
  5
1D1C
330
1F
100
AcDbEntity
  8
SANINDUSA
100
AcDbLine
 10
5841.703946115842
 20
2055.057865444129
 30
0.0
 11
5841.702637223584
 21
2055.056556551871
 31
0.0
  0
LINE
  5
1D1D
330
1F
100
AcDbEntity
  8
SANINDUSA
100
AcDbLine
 10
5841.703540906051
 20
2055.055652869404
 30
0.0
 11
5841.704849798309
 21
2055.056961761662
 31
0.0
  0
LINE
  5
1D1E
330
1F
100
AcDbEntity
  8
SANINDUSA
100
AcDbLine
 10
5841.702297849935
 20
2055.056217178222
 30
0.0
 11
5841.702637223584
 21
2055.056556551871
 31
0.0
  0
LINE
  5
1D1F
330
1F
100
AcDbEntity
  8
SANINDUSA
100
AcDbLine
 10
5841.702637223584
 20
2055.056556551871
 30
0.0
 11
5841.702297849935
 21
2055.058283495756
 31
0.0
  0
LINE
  5
1D20
330
1F
100
AcDbEntity
  8
SANINDUSA
100
AcDbLine
 10
5841.701958476285
 20
2055.056556551871
 30
0.0
 11
5841.702297849935
 21
2055.056217178222
 31
0.0
  0
LINE
  5
1D21
330
1F
100
AcDbEntity
  8
SANINDUSA
100
AcDbLine
 10
5841.702297849935
 20
2055.058283495756
 30
0.0
 11
5841.702297849935
 21
2055.056217178222
 31
0.0
  0
LINE
  5
1D22
330
1F
100
AcDbEntity
  8
SANINDUSA
100
AcDbLine
 10
5841.702297849935
 20
2055.058283495756
 30
0.0
 11
5841.701958476285
 21
2055.056556551871
 31
0.0
  0
LINE
  5
1D23
330
1F
100
AcDbEntity
  8
SANINDUSA
100
AcDbLine
 10
5841.703540906051
 20
2055.055652869404
 30
0.0
 11
5841.703201532401
 21
2055.055313495755
 31
0.0
  0
LINE
  5
1D24
330
1F
100
AcDbEntity
  8
SANINDUSA
100
AcDbLine
 10
5841.705267849935
 20
2055.055313495755
 30
0.0
 11
5841.703201532401
 21
2055.055313495755
 31
0.0
  0
LINE
  5
1D25
330
1F
100
AcDbEntity
  8
SANINDUSA
100
AcDbLine
 10
5841.705267849935
 20
2055.055313495755
 30
0.0
 11
5841.703540906051
 21
2055.055652869404
 31
0.0
  0
LINE
  5
1D26
330
1F
100
AcDbEntity
  8
SANINDUSA
100
AcDbLine
 10
5841.701394167468
 20
2055.055313495755
 30
0.0
 11
5841.702297849935
 21
2055.055313495755
 31
0.0
  0
LINE
  5
1D27
330
1F
100
AcDbEntity
  8
SANINDUSA
100
AcDbLine
 10
5841.702297849935
 20
2055.056217178222
 30
0.0
 11
5841.701394167468
 21
2055.055313495755
 31
0.0
  0
LINE
  5
1D28
330
1F
100
AcDbEntity
  8
SANINDUSA
100
AcDbLine
 10
5841.701958476285
 20
2055.056556551871
 30
0.0
 11
5841.700649584027
 21
2055.057865444129
 31
0.0
  0
LINE
  5
1D29
330
1F
100
AcDbEntity
  8
SANINDUSA
100
AcDbLine
 10
5841.684266627015
 20
2055.084658427174
 30
0.0
 11
5841.672952918516
 21
2055.073344718676
 31
0.0
  0
LINE
  5
1D2A
330
1F
100
AcDbEntity
  8
SANINDUSA
100
AcDbLine
 10
5841.684266627015
 20
2055.084658427174
 30
0.0
 11
5841.694166121952
 21
2055.074758932238
 31
0.0
  0
LINE
  5
1D2B
330
1F
100
AcDbEntity
  8
SANINDUSA
100
AcDbLine
 10
5841.672952918516
 20
2055.073344718676
 30
0.0
 11
5841.682852413453
 21
2055.063445223739
 31
0.0
  0
LINE
  5
1D2C
330
1F
100
AcDbEntity
  8
SANINDUSA
100
AcDbLine
 10
5841.693812568561
 20
2055.071576951723
 30
0.0
 11
5841.692398354998
 21
2055.072991165285
 31
0.0
  0
LINE
  5
1D2D
330
1F
100
AcDbEntity
  8
SANINDUSA
100
AcDbLine
 10
5841.686034393968
 20
2055.06379877713
 30
0.0
 11
5841.684620180405
 21
2055.065212990692
 31
0.0
  0
LINE
  5
1D2E
330
1F
100
AcDbEntity
  8
SANINDUSA
100
AcDbLine
 10
5841.694166121952
 20
2055.074758932238
 30
0.0
 11
5841.682852413453
 21
2055.063445223739
 31
0.0
  0
LINE
  5
1D2F
330
1F
100
AcDbEntity
  8
SANINDUSA
100
AcDbLine
 10
5841.695580335514
 20
2055.073344718676
 30
0.0
 11
5841.684266627015
 21
2055.062031010177
 31
0.0
  0
LINE
  5
1D30
330
1F
100
AcDbEntity
  8
SANINDUSA
100
AcDbLine
 10
5841.737547849935
 20
2055.077813495755
 30
0.0
 11
5841.737547849935
 21
2055.032813495755
 31
0.0
  0
LINE
  5
1D31
330
1F
100
AcDbEntity
  8
SANINDUSA
100
AcDbLine
 10
5841.719547849935
 20
2055.077813495755
 30
0.0
 11
5841.719547849935
 21
2055.032813495755
 31
0.0
  0
LINE
  5
1D32
330
1F
100
AcDbEntity
  8
SANINDUSA
100
AcDbLine
 10
5841.719547849935
 20
2055.032813495755
 30
0.0
 11
5841.737547849935
 21
2055.032813495755
 31
0.0
  0
LINE
  5
1D33
330
1F
100
AcDbEntity
  8
SANINDUSA
100
AcDbLine
 10
5841.719547849935
 20
2055.077813495755
 30
0.0
 11
5841.737547849935
 21
2055.077813495755
 31
0.0
  0
LINE
  5
1D34
330
1F
100
AcDbEntity
  8
SANINDUSA
100
AcDbLine
 10
5841.727447849935
 20
2055.275375544552
 30
-0.0000000000076263
 11
5841.727447849935
 21
2054.652520700059
 31
-0.0000000000076263
  0
LINE
  5
1D35
330
1F
100
AcDbEntity
  8
SANINDUSA
100
AcDbLine
 10
5841.721447849935
 20
2055.275375544552
 30
-0.0000000000076263
 11
5841.721447849935
 21
2054.652520700059
 31
-0.0000000000076263
  0
LINE
  5
1D36
330
1F
100
AcDbEntity
  8
SANINDUSA
100
AcDbLine
 10
5841.727447849935
 20
2055.275375544552
 30
-0.0000000000076263
 11
5841.721447849935
 21
2055.275375544552
 31
-0.0000000000076263
  0
LINE
  5
1DBB
330
1F
100
AcDbEntity
  8
SANINDUSA
 48
2.0
100
AcDbLine
 10
5840.639119419001
 20
2054.680842269124
 30
0.0000000001479286
 11
5840.639119419001
 21
2055.279997568312
 31
0.0000000001479286
  0
LINE
  5
1DBC
330
1F
100
AcDbEntity
  8
SANINDUSA
 48
2.0
100
AcDbLine
 10
5840.626119419001
 20
2054.680842269124
 30
0.0000000001479286
 11
5840.626119419001
 21
2055.279997568312
 31
0.0000000001479286
  0
LINE
  5
1DBD
330
1F
100
AcDbEntity
  8
SANINDUSA
100
AcDbLine
 10
5840.641619419001
 20
2055.297497568312
 30
0.0
 11
5840.641619419001
 21
2055.314747568312
 31
0.0
  0
LINE
  5
1DBE
330
1F
100
AcDbEntity
  8
SANINDUSA
100
AcDbLine
 10
5840.623619419001
 20
2055.297497568312
 30
0.0
 11
5840.623619419001
 21
2055.314747568312
 31
0.0
  0
LINE
  5
1DBF
330
1F
100
AcDbEntity
  8
SANINDUSA
100
AcDbLine
 10
5840.631980419001
 20
2055.300467568312
 30
0.0
 11
5840.633258419
 21
2055.300467568312
 31
0.0
  0
LINE
  5
1DC0
330
1F
100
AcDbEntity
  8
SANINDUSA
100
AcDbLine
 10
5840.632619419
 20
2055.297497568312
 30
0.0
 11
5840.633258419
 21
2055.297497568312
 31
0.0
  0
LINE
  5
1DC1
330
1F
100
AcDbEntity
  8
SANINDUSA
100
AcDbLine
 10
5840.632619419
 20
2055.297497568312
 30
0.0
 11
5840.633258419
 21
2055.296858568311
 31
0.0
  0
LINE
  5
1DC2
330
1F
100
AcDbEntity
  8
SANINDUSA
100
AcDbLine
 10
5840.633258419
 20
2055.298136568312
 30
0.0
 11
5840.632619419
 21
2055.297497568312
 31
0.0
  0
LINE
  5
1DC3
330
1F
100
AcDbEntity
  8
SANINDUSA
100
AcDbLine
 10
5840.633258419
 20
2055.296858568311
 30
0.0
 11
5840.631980419001
 21
2055.296858568311
 31
0.0
  0
LINE
  5
1DC4
330
1F
100
AcDbEntity
  8
SANINDUSA
100
AcDbLine
 10
5840.631980419001
 20
2055.298136568312
 30
0.0
 11
5840.633258419
 21
2055.298136568312
 31
0.0
  0
LINE
  5
1DC5
330
1F
100
AcDbEntity
  8
SANINDUSA
100
AcDbLine
 10
5840.633258419
 20
2055.296858568311
 30
0.0
 11
5840.633258419
 21
2055.298136568312
 31
0.0
  0
LINE
  5
1DC6
330
1F
100
AcDbEntity
  8
SANINDUSA
100
AcDbLine
 10
5840.635589419001
 20
2055.298136568312
 30
0.0
 11
5840.635589419001
 21
2055.296858568311
 31
0.0
  0
LINE
  5
1DC7
330
1F
100
AcDbEntity
  8
SANINDUSA
100
AcDbLine
 10
5840.635589419001
 20
2055.296858568311
 30
0.0
 11
5840.633738365818
 21
2055.296858568311
 31
0.0
  0
LINE
  5
1DC8
330
1F
100
AcDbEntity
  8
SANINDUSA
100
AcDbLine
 10
5840.633738365818
 20
2055.298136568312
 30
0.0
 11
5840.635589419001
 21
2055.298136568312
 31
0.0
  0
LINE
  5
1DC9
330
1F
100
AcDbEntity
  8
SANINDUSA
100
AcDbLine
 10
5840.633258419
 20
2055.296858568311
 30
0.0
 11
5840.633738365818
 21
2055.296858568311
 31
0.0
  0
LINE
  5
1DCA
330
1F
100
AcDbEntity
  8
SANINDUSA
100
AcDbLine
 10
5840.633258419
 20
2055.298136568312
 30
0.0
 11
5840.633258419
 21
2055.298616515129
 31
0.0
  0
LINE
  5
1DCB
330
1F
100
AcDbEntity
  8
SANINDUSA
100
AcDbLine
 10
5840.633258419
 20
2055.298616515129
 30
0.0
 11
5840.63471952614
 21
2055.299597675452
 31
0.0
  0
LINE
  5
1DCC
330
1F
100
AcDbEntity
  8
SANINDUSA
100
AcDbLine
 10
5840.633738365818
 20
2055.298136568312
 30
0.0
 11
5840.633258419
 21
2055.298136568312
 31
0.0
  0
LINE
  5
1DCD
330
1F
100
AcDbEntity
  8
SANINDUSA
100
AcDbLine
 10
5840.63471952614
 20
2055.299597675452
 30
0.0
 11
5840.633258419
 21
2055.298136568312
 31
0.0
  0
LINE
  5
1DCE
330
1F
100
AcDbEntity
  8
SANINDUSA
100
AcDbLine
 10
5840.63471952614
 20
2055.299597675452
 30
0.0
 11
5840.633738365818
 21
2055.298136568312
 31
0.0
  0
LINE
  5
1DCF
330
1F
100
AcDbEntity
  8
SANINDUSA
100
AcDbLine
 10
5840.631980419001
 20
2055.297497568312
 30
0.0
 11
5840.632619419
 21
2055.297497568312
 31
0.0
  0
LINE
  5
1DD0
330
1F
100
AcDbEntity
  8
SANINDUSA
100
AcDbLine
 10
5840.632619419
 20
2055.297497568312
 30
0.0
 11
5840.632619419
 21
2055.296858568311
 31
0.0
  0
LINE
  5
1DD1
330
1F
100
AcDbEntity
  8
SANINDUSA
100
AcDbLine
 10
5840.631980419001
 20
2055.296858568311
 30
0.0
 11
5840.632619419
 21
2055.297497568312
 31
0.0
  0
LINE
  5
1DD2
330
1F
100
AcDbEntity
  8
SANINDUSA
100
AcDbLine
 10
5840.631980419001
 20
2055.298136568312
 30
0.0
 11
5840.631980419001
 21
2055.296858568311
 31
0.0
  0
LINE
  5
1DD3
330
1F
100
AcDbEntity
  8
SANINDUSA
100
AcDbLine
 10
5840.632619419
 20
2055.298136568312
 30
0.0
 11
5840.632619419
 21
2055.297497568312
 31
0.0
  0
LINE
  5
1DD4
330
1F
100
AcDbEntity
  8
SANINDUSA
100
AcDbLine
 10
5840.632619419
 20
2055.297497568312
 30
0.0
 11
5840.631980419001
 21
2055.298136568312
 31
0.0
  0
LINE
  5
1DD5
330
1F
100
AcDbEntity
  8
SANINDUSA
100
AcDbLine
 10
5840.631980419001
 20
2055.298136568312
 30
0.0
 11
5840.631500472184
 21
2055.298136568312
 31
0.0
  0
LINE
  5
1DD6
330
1F
100
AcDbEntity
  8
SANINDUSA
100
AcDbLine
 10
5840.631500472184
 20
2055.298136568312
 30
0.0
 11
5840.630519311861
 21
2055.299597675452
 31
0.0
  0
LINE
  5
1DD7
330
1F
100
AcDbEntity
  8
SANINDUSA
100
AcDbLine
 10
5840.631980419001
 20
2055.298616515129
 30
0.0
 11
5840.631980419001
 21
2055.298136568312
 31
0.0
  0
LINE
  5
1DD8
330
1F
100
AcDbEntity
  8
SANINDUSA
100
AcDbLine
 10
5840.630519311861
 20
2055.299597675452
 30
0.0
 11
5840.631980419001
 21
2055.298136568312
 31
0.0
  0
LINE
  5
1DD9
330
1F
100
AcDbEntity
  8
SANINDUSA
100
AcDbLine
 10
5840.630519311861
 20
2055.299597675452
 30
0.0
 11
5840.631980419001
 21
2055.298616515129
 31
0.0
  0
LINE
  5
1DDA
330
1F
100
AcDbEntity
  8
SANINDUSA
100
AcDbLine
 10
5840.631500472184
 20
2055.296858568311
 30
0.0
 11
5840.631980419001
 21
2055.296858568311
 31
0.0
  0
LINE
  5
1DDB
330
1F
100
AcDbEntity
  8
SANINDUSA
100
AcDbLine
 10
5840.629649419001
 20
2055.296858568311
 30
0.0
 11
5840.629649419001
 21
2055.298136568312
 31
0.0
  0
LINE
  5
1DDC
330
1F
100
AcDbEntity
  8
SANINDUSA
100
AcDbLine
 10
5840.629649419001
 20
2055.298136568312
 30
0.0
 11
5840.631500472184
 21
2055.298136568312
 31
0.0
  0
LINE
  5
1DDD
330
1F
100
AcDbEntity
  8
SANINDUSA
100
AcDbLine
 10
5840.631500472184
 20
2055.296858568311
 30
0.0
 11
5840.629649419001
 21
2055.296858568311
 31
0.0
  0
LINE
  5
1DDE
330
1F
100
AcDbEntity
  8
SANINDUSA
100
AcDbLine
 10
5840.633258419
 20
2055.300467568312
 30
0.0
 11
5840.633258419
 21
2055.298616515129
 31
0.0
  0
LINE
  5
1DDF
330
1F
100
AcDbEntity
  8
SANINDUSA
100
AcDbLine
 10
5840.631980419001
 20
2055.298616515129
 30
0.0
 11
5840.631980419001
 21
2055.300467568312
 31
0.0
  0
LINE
  5
1DE0
330
1F
100
AcDbEntity
  8
SANINDUSA
100
AcDbLine
 10
5840.633258419
 20
2055.294527568312
 30
0.0
 11
5840.631980419001
 21
2055.294527568312
 31
0.0
  0
LINE
  5
1DE1
330
1F
100
AcDbEntity
  8
SANINDUSA
100
AcDbLine
 10
5840.624619419001
 20
2055.279997568312
 30
0.0
 11
5840.624619419001
 21
2055.293374462686
 31
0.0
  0
LINE
  5
1DE2
330
1F
100
AcDbEntity
  8
SANINDUSA
100
AcDbLine
 10
5840.633258419
 20
2055.296378621495
 30
0.0
 11
5840.633258419
 21
2055.294527568312
 31
0.0
  0
LINE
  5
1DE3
330
1F
100
AcDbEntity
  8
SANINDUSA
100
AcDbLine
 10
5840.63471952614
 20
2055.295397461172
 30
0.0
 11
5840.633258419
 21
2055.296378621495
 31
0.0
  0
LINE
  5
1DE4
330
1F
100
AcDbEntity
  8
SANINDUSA
100
AcDbLine
 10
5840.640619419001
 20
2055.286997568312
 30
0.0
 11
5840.624619419001
 21
2055.286997568312
 31
0.0
  0
LINE
  5
1DE5
330
1F
100
AcDbEntity
  8
SANINDUSA
100
AcDbLine
 10
5840.631980419001
 20
2055.294527568312
 30
0.0
 11
5840.631980419001
 21
2055.296378621495
 31
0.0
  0
LINE
  5
1DE6
330
1F
100
AcDbEntity
  8
SANINDUSA
100
AcDbLine
 10
5840.631980419001
 20
2055.296378621495
 30
0.0
 11
5840.630519311861
 21
2055.295397461172
 31
0.0
  0
LINE
  5
1DE7
330
1F
100
AcDbEntity
  8
SANINDUSA
100
AcDbLine
 10
5840.640619419001
 20
2055.279997568312
 30
0.0
 11
5840.624619419001
 21
2055.279997568312
 31
0.0
  0
LINE
  5
1DE8
330
1F
100
AcDbEntity
  8
SANINDUSA
100
AcDbLine
 10
5840.633738365818
 20
2055.296858568311
 30
0.0
 11
5840.63471952614
 21
2055.295397461172
 31
0.0
  0
LINE
  5
1DE9
330
1F
100
AcDbEntity
  8
SANINDUSA
100
AcDbLine
 10
5840.633258419
 20
2055.296378621495
 30
0.0
 11
5840.633258419
 21
2055.296858568311
 31
0.0
  0
LINE
  5
1DEA
330
1F
100
AcDbEntity
  8
SANINDUSA
100
AcDbLine
 10
5840.63471952614
 20
2055.295397461172
 30
0.0
 11
5840.633258419
 21
2055.296858568311
 31
0.0
  0
LINE
  5
1DEB
330
1F
100
AcDbEntity
  8
SANINDUSA
100
AcDbLine
 10
5840.631980419001
 20
2055.296858568311
 30
0.0
 11
5840.631980419001
 21
2055.296378621495
 31
0.0
  0
LINE
  5
1DEC
330
1F
100
AcDbEntity
  8
SANINDUSA
100
AcDbLine
 10
5840.630519311861
 20
2055.295397461172
 30
0.0
 11
5840.631980419001
 21
2055.296858568311
 31
0.0
  0
LINE
  5
1DED
330
1F
100
AcDbEntity
  8
SANINDUSA
100
AcDbLine
 10
5840.630519311861
 20
2055.295397461172
 30
0.0
 11
5840.631500472184
 21
2055.296858568311
 31
0.0
  0
ARC
  5
1DEE
330
1F
100
AcDbEntity
  8
SANINDUSA
100
AcDbCircle
 10
5840.632619419
 20
2055.297497568312
 30
0.0
 40
0.009
100
AcDbArc
 50
180.0
 51
0.0
  0
LINE
  5
1DEF
330
1F
100
AcDbEntity
  8
SANINDUSA
100
AcDbLine
 10
5840.640619419001
 20
2055.279997568312
 30
0.0
 11
5840.640619419001
 21
2055.293374462686
 31
0.0
  0
CIRCLE
  5
1DF0
330
1F
100
AcDbEntity
  8
SANINDUSA
100
AcDbCircle
 10
5840.632619419
 20
2055.297497568312
 30
0.0
 40
0.005085
  0
LINE
  5
1DF1
330
1F
100
AcDbEntity
  8
SANINDUSA
100
AcDbLine
 10
5840.617619419001
 20
2055.319747568312
 30
0.0
 11
5840.617619419001
 21
2055.316747568312
 31
0.0
  0
LINE
  5
1DF2
330
1F
100
AcDbEntity
  8
SANINDUSA
100
AcDbLine
 10
5840.647619419002
 20
2055.316747568312
 30
0.0
 11
5840.647619419002
 21
2055.319747568312
 31
0.0
  0
LINE
  5
1DF3
330
1F
100
AcDbEntity
  8
SANINDUSA
100
AcDbLine
 10
5840.619619419001
 20
2055.314747568312
 30
0.0
 11
5840.645619419
 21
2055.314747568312
 31
0.0
  0
ARC
  5
1DF4
330
1F
100
AcDbEntity
  8
SANINDUSA
100
AcDbCircle
 10
5840.645619419
 20
2055.316747568312
 30
0.0
 40
0.002
100
AcDbArc
 50
270.0
 51
0.0
  0
ARC
  5
1DF5
330
1F
100
AcDbEntity
  8
SANINDUSA
100
AcDbCircle
 10
5840.619619419001
 20
2055.316747568312
 30
0.0
 40
0.002
100
AcDbArc
 50
180.0
 51
270.0
  0
LINE
  5
1DF6
330
1F
100
AcDbEntity
  8
SANINDUSA
100
AcDbLine
 10
5840.647619419002
 20
2055.319747568312
 30
0.0
 11
5840.617619419001
 21
2055.319747568312
 31
0.0
  0
LINE
  5
1DF7
330
1F
100
AcDbEntity
  8
SANINDUSA
100
AcDbLine
 10
5840.641619419001
 20
2054.663342269125
 30
0.0000000001479286
 11
5840.641619419001
 21
2054.646092269125
 31
0.0000000001479286
  0
LINE
  5
1DF8
330
1F
100
AcDbEntity
  8
SANINDUSA
100
AcDbLine
 10
5840.640619419001
 20
2054.680842269124
 30
0.0000000001479286
 11
5840.640619419001
 21
2054.66746537475
 31
0.0000000001479286
  0
LINE
  5
1DF9
330
1F
100
AcDbEntity
  8
SANINDUSA
100
AcDbLine
 10
5840.630519311861
 20
2054.661242161984
 30
0.0000000001479286
 11
5840.631980419001
 21
2054.662223322308
 31
0.0000000001479286
  0
LINE
  5
1DFA
330
1F
100
AcDbEntity
  8
SANINDUSA
100
AcDbLine
 10
5840.633738365818
 20
2054.663981269125
 30
0.0000000001479286
 11
5840.63471952614
 21
2054.665442376265
 31
0.0000000001479286
  0
LINE
  5
1DFB
330
1F
100
AcDbEntity
  8
SANINDUSA
100
AcDbLine
 10
5840.632619419
 20
2054.663342269125
 30
0.0000000001479286
 11
5840.633258419
 21
2054.663342269125
 31
0.0000000001479286
  0
LINE
  5
1DFC
330
1F
100
AcDbEntity
  8
SANINDUSA
100
AcDbLine
 10
5840.633258419
 20
2054.663981269125
 30
0.0000000001479286
 11
5840.633258419
 21
2054.662703269125
 31
0.0000000001479286
  0
LINE
  5
1DFD
330
1F
100
AcDbEntity
  8
SANINDUSA
100
AcDbLine
 10
5840.633258419
 20
2054.662703269125
 30
0.0000000001479286
 11
5840.632619419
 21
2054.663342269125
 31
0.0000000001479286
  0
LINE
  5
1DFE
330
1F
100
AcDbEntity
  8
SANINDUSA
100
AcDbLine
 10
5840.632619419
 20
2054.662703269125
 30
0.0000000001479286
 11
5840.632619419
 21
2054.663342269125
 31
0.0000000001479286
  0
LINE
  5
1DFF
330
1F
100
AcDbEntity
  8
SANINDUSA
100
AcDbLine
 10
5840.631980419001
 20
2054.662703269125
 30
0.0000000001479286
 11
5840.633258419
 21
2054.662703269125
 31
0.0000000001479286
  0
LINE
  5
1E00
330
1F
100
AcDbEntity
  8
SANINDUSA
100
AcDbLine
 10
5840.633258419
 20
2054.663981269125
 30
0.0000000001479286
 11
5840.633738365818
 21
2054.663981269125
 31
0.0000000001479286
  0
LINE
  5
1E01
330
1F
100
AcDbEntity
  8
SANINDUSA
100
AcDbLine
 10
5840.631980419001
 20
2054.662223322308
 30
0.0000000001479286
 11
5840.631980419001
 21
2054.662703269125
 31
0.0000000001479286
  0
LINE
  5
1E02
330
1F
100
AcDbEntity
  8
SANINDUSA
100
AcDbLine
 10
5840.623619419001
 20
2054.663342269125
 30
0.0000000001479286
 11
5840.623619419001
 21
2054.646092269125
 31
0.0000000001479286
  0
CIRCLE
  5
1E03
330
1F
100
AcDbEntity
  8
SANINDUSA
100
AcDbCircle
 10
5840.632619419
 20
2054.663342269125
 30
0.0000000001479286
 40
0.005085
  0
ARC
  5
1E04
330
1F
100
AcDbEntity
  8
SANINDUSA
100
AcDbCircle
 10
5840.632619419
 20
2054.663342269125
 30
0.0000000001479286
 40
0.009
100
AcDbArc
 50
0.0
 51
180.0
  0
LINE
  5
1E05
330
1F
100
AcDbEntity
  8
SANINDUSA
100
AcDbLine
 10
5840.631980419001
 20
2054.660372269125
 30
0.0000000001479286
 11
5840.633258419
 21
2054.660372269125
 31
0.0000000001479286
  0
LINE
  5
1E06
330
1F
100
AcDbEntity
  8
SANINDUSA
100
AcDbLine
 10
5840.631980419001
 20
2054.662223322308
 30
0.0000000001479286
 11
5840.631980419001
 21
2054.660372269125
 31
0.0000000001479286
  0
LINE
  5
1E07
330
1F
100
AcDbEntity
  8
SANINDUSA
100
AcDbLine
 10
5840.655119419
 20
2054.646092269125
 30
0.0000000001479286
 11
5840.610119419
 21
2054.646092269125
 31
0.0000000001479286
  0
LINE
  5
1E08
330
1F
100
AcDbEntity
  8
SANINDUSA
100
AcDbLine
 10
5840.655119419
 20
2054.628092269124
 30
0.0000000001479286
 11
5840.610119419
 21
2054.628092269124
 31
0.0000000001479286
  0
LINE
  5
1E09
330
1F
100
AcDbEntity
  8
SANINDUSA
100
AcDbLine
 10
5840.610119419
 20
2054.646092269125
 30
0.0000000001479286
 11
5840.610119419
 21
2054.628092269124
 31
0.0000000001479286
  0
LINE
  5
1E0A
330
1F
100
AcDbEntity
  8
SANINDUSA
100
AcDbLine
 10
5840.633258419
 20
2054.660372269125
 30
0.0000000001479286
 11
5840.633258419
 21
2054.662223322308
 31
0.0000000001479286
  0
LINE
  5
1E0B
330
1F
100
AcDbEntity
  8
SANINDUSA
100
AcDbLine
 10
5840.635589419001
 20
2054.662703269125
 30
0.0000000001479286
 11
5840.635589419001
 21
2054.663981269125
 31
0.0000000001479286
  0
LINE
  5
1E0C
330
1F
100
AcDbEntity
  8
SANINDUSA
100
AcDbLine
 10
5840.635589419001
 20
2054.663981269125
 30
0.0000000001479286
 11
5840.633738365818
 21
2054.663981269125
 31
0.0000000001479286
  0
LINE
  5
1E0D
330
1F
100
AcDbEntity
  8
SANINDUSA
100
AcDbLine
 10
5840.633738365818
 20
2054.662703269125
 30
0.0000000001479286
 11
5840.635589419001
 21
2054.662703269125
 31
0.0000000001479286
  0
LINE
  5
1E0E
330
1F
100
AcDbEntity
  8
SANINDUSA
100
AcDbLine
 10
5840.633258419
 20
2054.662703269125
 30
0.0000000001479286
 11
5840.633258419
 21
2054.662223322308
 31
0.0000000001479286
  0
LINE
  5
1E0F
330
1F
100
AcDbEntity
  8
SANINDUSA
100
AcDbLine
 10
5840.633258419
 20
2054.662223322308
 30
0.0000000001479286
 11
5840.63471952614
 21
2054.661242161984
 31
0.0000000001479286
  0
LINE
  5
1E10
330
1F
100
AcDbEntity
  8
SANINDUSA
100
AcDbLine
 10
5840.633738365818
 20
2054.662703269125
 30
0.0000000001479286
 11
5840.633258419
 21
2054.662703269125
 31
0.0000000001479286
  0
LINE
  5
1E11
330
1F
100
AcDbEntity
  8
SANINDUSA
100
AcDbLine
 10
5840.63471952614
 20
2054.661242161984
 30
0.0000000001479286
 11
5840.633258419
 21
2054.662703269125
 31
0.0000000001479286
  0
LINE
  5
1E12
330
1F
100
AcDbEntity
  8
SANINDUSA
100
AcDbLine
 10
5840.63471952614
 20
2054.661242161984
 30
0.0000000001479286
 11
5840.633738365818
 21
2054.662703269125
 31
0.0000000001479286
  0
LINE
  5
1E13
330
1F
100
AcDbEntity
  8
SANINDUSA
100
AcDbLine
 10
5840.655119419
 20
2054.646092269125
 30
0.0000000001479286
 11
5840.655119419
 21
2054.628092269124
 31
0.0000000001479286
  0
LINE
  5
1E14
330
1F
100
AcDbEntity
  8
SANINDUSA
100
AcDbLine
 10
5840.629649419001
 20
2054.663981269125
 30
0.0000000001479286
 11
5840.629649419001
 21
2054.662703269125
 31
0.0000000001479286
  0
LINE
  5
1E15
330
1F
100
AcDbEntity
  8
SANINDUSA
100
AcDbLine
 10
5840.631500472184
 20
2054.662703269125
 30
0.0000000001479286
 11
5840.630519311861
 21
2054.661242161984
 31
0.0000000001479286
  0
LINE
  5
1E16
330
1F
100
AcDbEntity
  8
SANINDUSA
100
AcDbLine
 10
5840.630519311861
 20
2054.661242161984
 30
0.0000000001479286
 11
5840.631980419001
 21
2054.662703269125
 31
0.0000000001479286
  0
LINE
  5
1E17
330
1F
100
AcDbEntity
  8
SANINDUSA
100
AcDbLine
 10
5840.629649419001
 20
2054.662703269125
 30
0.0000000001479286
 11
5840.631500472184
 21
2054.662703269125
 31
0.0000000001479286
  0
LINE
  5
1E18
330
1F
100
AcDbEntity
  8
SANINDUSA
100
AcDbLine
 10
5840.624619419001
 20
2054.680842269124
 30
0.0000000001479286
 11
5840.624619419001
 21
2054.66746537475
 31
0.0000000001479286
  0
LINE
  5
1E19
330
1F
100
AcDbEntity
  8
SANINDUSA
100
AcDbLine
 10
5840.640619419001
 20
2054.680842269124
 30
0.0000000001479286
 11
5840.624619419001
 21
2054.680842269124
 31
0.0000000001479286
  0
LINE
  5
1E1A
330
1F
100
AcDbEntity
  8
SANINDUSA
100
AcDbLine
 10
5840.631980419001
 20
2054.666312269125
 30
0.0000000001479286
 11
5840.631980419001
 21
2054.664461215942
 31
0.0000000001479286
  0
LINE
  5
1E1B
330
1F
100
AcDbEntity
  8
SANINDUSA
100
AcDbLine
 10
5840.631980419001
 20
2054.664461215942
 30
0.0000000001479286
 11
5840.630519311861
 21
2054.665442376265
 31
0.0000000001479286
  0
LINE
  5
1E1C
330
1F
100
AcDbEntity
  8
SANINDUSA
100
AcDbLine
 10
5840.630519311861
 20
2054.665442376265
 30
0.0000000001479286
 11
5840.631980419001
 21
2054.663981269125
 31
0.0000000001479286
  0
LINE
  5
1E1D
330
1F
100
AcDbEntity
  8
SANINDUSA
100
AcDbLine
 10
5840.630519311861
 20
2054.665442376265
 30
0.0000000001479286
 11
5840.631500472184
 21
2054.663981269125
 31
0.0000000001479286
  0
LINE
  5
1E1E
330
1F
100
AcDbEntity
  8
SANINDUSA
100
AcDbLine
 10
5840.631500472184
 20
2054.663981269125
 30
0.0000000001479286
 11
5840.629649419001
 21
2054.663981269125
 31
0.0000000001479286
  0
LINE
  5
1E1F
330
1F
100
AcDbEntity
  8
SANINDUSA
100
AcDbLine
 10
5840.631980419001
 20
2054.663981269125
 30
0.0000000001479286
 11
5840.631980419001
 21
2054.664461215942
 31
0.0000000001479286
  0
LINE
  5
1E20
330
1F
100
AcDbEntity
  8
SANINDUSA
100
AcDbLine
 10
5840.631500472184
 20
2054.663981269125
 30
0.0000000001479286
 11
5840.631980419001
 21
2054.663981269125
 31
0.0000000001479286
  0
LINE
  5
1E21
330
1F
100
AcDbEntity
  8
SANINDUSA
100
AcDbLine
 10
5840.633258419
 20
2054.666312269125
 30
0.0000000001479286
 11
5840.631980419001
 21
2054.666312269125
 31
0.0000000001479286
  0
LINE
  5
1E22
330
1F
100
AcDbEntity
  8
SANINDUSA
100
AcDbLine
 10
5840.63471952614
 20
2054.665442376265
 30
0.0000000001479286
 11
5840.633258419
 21
2054.663981269125
 31
0.0000000001479286
  0
LINE
  5
1E23
330
1F
100
AcDbEntity
  8
SANINDUSA
100
AcDbLine
 10
5840.63471952614
 20
2054.665442376265
 30
0.0000000001479286
 11
5840.633258419
 21
2054.664461215942
 31
0.0000000001479286
  0
LINE
  5
1E24
330
1F
100
AcDbEntity
  8
SANINDUSA
100
AcDbLine
 10
5840.631980419001
 20
2054.663342269125
 30
0.0000000001479286
 11
5840.632619419
 21
2054.663342269125
 31
0.0000000001479286
  0
LINE
  5
1E25
330
1F
100
AcDbEntity
  8
SANINDUSA
100
AcDbLine
 10
5840.632619419
 20
2054.663342269125
 30
0.0000000001479286
 11
5840.633258419
 21
2054.663981269125
 31
0.0000000001479286
  0
LINE
  5
1E26
330
1F
100
AcDbEntity
  8
SANINDUSA
100
AcDbLine
 10
5840.632619419
 20
2054.663342269125
 30
0.0000000001479286
 11
5840.632619419
 21
2054.663981269125
 31
0.0000000001479286
  0
LINE
  5
1E27
330
1F
100
AcDbEntity
  8
SANINDUSA
100
AcDbLine
 10
5840.632619419
 20
2054.663342269125
 30
0.0000000001479286
 11
5840.631980419001
 21
2054.662703269125
 31
0.0000000001479286
  0
LINE
  5
1E28
330
1F
100
AcDbEntity
  8
SANINDUSA
100
AcDbLine
 10
5840.633258419
 20
2054.664461215942
 30
0.0000000001479286
 11
5840.633258419
 21
2054.663981269125
 31
0.0000000001479286
  0
LINE
  5
1E29
330
1F
100
AcDbEntity
  8
SANINDUSA
100
AcDbLine
 10
5840.631980419001
 20
2054.662703269125
 30
0.0000000001479286
 11
5840.631500472184
 21
2054.662703269125
 31
0.0000000001479286
  0
LINE
  5
1E2A
330
1F
100
AcDbEntity
  8
SANINDUSA
100
AcDbLine
 10
5840.633258419
 20
2054.664461215942
 30
0.0000000001479286
 11
5840.633258419
 21
2054.666312269125
 31
0.0000000001479286
  0
LINE
  5
1E2B
330
1F
100
AcDbEntity
  8
SANINDUSA
100
AcDbLine
 10
5840.631980419001
 20
2054.663981269125
 30
0.0000000001479286
 11
5840.632619419
 21
2054.663342269125
 31
0.0000000001479286
  0
LINE
  5
1E2C
330
1F
100
AcDbEntity
  8
SANINDUSA
100
AcDbLine
 10
5840.631980419001
 20
2054.662703269125
 30
0.0000000001479286
 11
5840.631980419001
 21
2054.663981269125
 31
0.0000000001479286
  0
LINE
  5
1E2D
330
1F
100
AcDbEntity
  8
SANINDUSA
100
AcDbLine
 10
5840.633258419
 20
2054.663981269125
 30
0.0000000001479286
 11
5840.631980419001
 21
2054.663981269125
 31
0.0000000001479286
  0
LINE
  5
1E2E
330
1F
100
AcDbEntity
  8
SANINDUSA
100
AcDbLine
 10
5840.640619419001
 20
2054.673842269124
 30
0.0000000001479286
 11
5840.624619419001
 21
2054.673842269124
 31
0.0000000001479286
  0
CIRCLE
  5
1E34
330
1F
100
AcDbEntity
  8
SANINDUSA
100
AcDbCircle
 10
5840.911619419001
 20
2054.626792216831
 30
0.0000000001479286
 40
0.008
  0
ARC
  5
22DD
330
1F
100
AcDbEntity
  8
SANINDUSA
100
AcDbCircle
 10
5842.703648951494
 20
2055.618861124905
 30
-0.0000000017937957
 40
0.001
100
AcDbArc
 50
90.0
 51
180.0
  0
LINE
  5
22DE
330
1F
100
AcDbEntity
  8
SANINDUSA
100
AcDbLine
 10
5842.778648951494
 20
2055.619861124905
 30
-0.0000000017937957
 11
5842.837648951494
 21
2055.619861124905
 31
-0.0000000017937957
  0
ARC
  5
22DF
330
1F
100
AcDbEntity
  8
SANINDUSA
100
AcDbCircle
 10
5842.837648951494
 20
2055.618861124905
 30
-0.0000000017937957
 40
0.001
100
AcDbArc
 50
0.0
 51
90.0
  0
ARC
  5
22E0
330
1F
100
AcDbEntity
  8
SANINDUSA
100
AcDbCircle
 10
5842.777648951495
 20
2055.625361124905
 30
-0.0000000017937957
 40
0.001
100
AcDbArc
 50
0.0
 51
90.0
  0
LINE
  5
22E1
330
1F
100
AcDbEntity
  8
SANINDUSA
100
AcDbLine
 10
5842.778648951494
 20
2055.625361124905
 30
-0.0000000017937957
 11
5842.778648951494
 21
2055.619861124905
 31
-0.0000000017937957
  0
LINE
  5
22E2
330
1F
100
AcDbEntity
  8
SANINDUSA
100
AcDbLine
 10
5842.778148951495
 20
2055.604361124905
 30
-0.0000000017937957
 11
5842.778148951495
 21
2055.600361124905
 31
-0.0000000017937957
  0
LINE
  5
22E3
330
1F
100
AcDbEntity
  8
SANINDUSA
100
AcDbLine
 10
5842.778648951494
 20
2055.619861124905
 30
-0.0000000017937957
 11
5842.778648951494
 21
2055.604361124905
 31
-0.0000000017937957
  0
ARC
  5
22E4
330
1F
100
AcDbEntity
  8
SANINDUSA
100
AcDbCircle
 10
5842.763648951494
 20
2055.625361124905
 30
-0.0000000017937957
 40
0.001
100
AcDbArc
 50
90.0
 51
180.0
  0
LINE
  5
22E5
330
1F
100
AcDbEntity
  8
SANINDUSA
100
AcDbLine
 10
5842.763648951494
 20
2055.626361124905
 30
-0.0000000017937957
 11
5842.777648951495
 21
2055.626361124905
 31
-0.0000000017937957
  0
LINE
  5
22E6
330
1F
100
AcDbEntity
  8
SANINDUSA
100
AcDbLine
 10
5842.763148951494
 20
2055.604361124905
 30
-0.0000000017937957
 11
5842.763148951494
 21
2055.600361124905
 31
-0.0000000017937957
  0
LINE
  5
22E7
330
1F
100
AcDbEntity
  8
SANINDUSA
100
AcDbLine
 10
5842.762648951494
 20
2055.600361124905
 30
-0.0000000017937957
 11
5842.761760062606
 21
2055.600361124905
 31
-0.0000000017937957
  0
LINE
  5
22E8
330
1F
100
AcDbEntity
  8
SANINDUSA
100
AcDbLine
 10
5842.779537840383
 20
2055.604361124905
 30
-0.0000000017937957
 11
5842.762648951494
 21
2055.604361124905
 31
-0.0000000017937957
  0
LINE
  5
22E9
330
1F
100
AcDbEntity
  8
SANINDUSA
100
AcDbLine
 10
5842.762648951494
 20
2055.600361124905
 30
-0.0000000017937957
 11
5842.778648951495
 21
2055.600361124905
 31
-0.0000000017937957
  0
LINE
  5
22EA
330
1F
100
AcDbEntity
  8
SANINDUSA
100
AcDbLine
 10
5842.762648951494
 20
2055.604361124905
 30
-0.0000000017937957
 11
5842.762648951494
 21
2055.625361124905
 31
-0.0000000017937957
  0
LINE
  5
22EB
330
1F
100
AcDbEntity
  8
SANINDUSA
100
AcDbLine
 10
5842.761760062606
 20
2055.600361124905
 30
-0.0000000017937957
 11
5842.761760062606
 21
2055.619861124905
 31
-0.0000000017937957
  0
LINE
  5
22EC
330
1F
100
AcDbEntity
  8
SANINDUSA
100
AcDbLine
 10
5842.761760062606
 20
2055.619861124905
 30
-0.0000000017937957
 11
5842.703648951494
 21
2055.619861124905
 31
-0.0000000017937957
  0
ARC
  5
22ED
330
1F
100
AcDbEntity
  8
SANINDUSA
100
AcDbCircle
 10
5842.703648951494
 20
2055.585861124905
 30
-0.0000000017937957
 40
0.001
100
AcDbArc
 50
180.0
 51
270.0
  0
ARC
  5
22EE
330
1F
100
AcDbEntity
  8
SANINDUSA
100
AcDbCircle
 10
5842.777648951495
 20
2055.579361124905
 30
-0.0000000017937957
 40
0.001
100
AcDbArc
 50
270.0
 51
0.0
  0
ARC
  5
22EF
330
1F
100
AcDbEntity
  8
SANINDUSA
100
AcDbCircle
 10
5842.763648951494
 20
2055.579361124905
 30
-0.0000000017937957
 40
0.001
100
AcDbArc
 50
180.0
 51
270.0
  0
LINE
  5
22F0
330
1F
100
AcDbEntity
  8
SANINDUSA
100
AcDbLine
 10
5842.777648951495
 20
2055.578361124905
 30
-0.0000000017937957
 11
5842.763648951494
 21
2055.578361124905
 31
-0.0000000017937957
  0
LINE
  5
22F1
330
1F
100
AcDbEntity
  8
SANINDUSA
100
AcDbLine
 10
5842.837648951494
 20
2055.584861124905
 30
-0.0000000017937957
 11
5842.779537840383
 21
2055.584861124905
 31
-0.0000000017937957
  0
ARC
  5
22F2
330
1F
100
AcDbEntity
  8
SANINDUSA
100
AcDbCircle
 10
5842.837648951494
 20
2055.585861124905
 30
-0.0000000017937957
 40
0.001
100
AcDbArc
 50
270.0
 51
0.0
  0
LINE
  5
22F3
330
1F
100
AcDbEntity
  8
SANINDUSA
100
AcDbLine
 10
5842.703648951494
 20
2055.584861124905
 30
-0.0000000017937957
 11
5842.762648951494
 21
2055.584861124905
 31
-0.0000000017937957
  0
LINE
  5
22F4
330
1F
100
AcDbEntity
  8
SANINDUSA
100
AcDbLine
 10
5842.778648951495
 20
2055.600361124905
 30
-0.0000000017937957
 11
5842.778648951495
 21
2055.579361124905
 31
-0.0000000017937957
  0
LINE
  5
22F5
330
1F
100
AcDbEntity
  8
SANINDUSA
100
AcDbLine
 10
5842.762648951494
 20
2055.579361124905
 30
-0.0000000017937957
 11
5842.762648951494
 21
2055.600361124905
 31
-0.0000000017937957
  0
LINE
  5
22F6
330
1F
100
AcDbEntity
  8
SANINDUSA
100
AcDbLine
 10
5842.838648951494
 20
2055.618861124905
 30
-0.0000000017937957
 11
5842.838648951494
 21
2055.585861124905
 31
-0.0000000017937957
  0
LINE
  5
22F7
330
1F
100
AcDbEntity
  8
SANINDUSA
100
AcDbLine
 10
5842.779537840383
 20
2055.584861124905
 30
-0.0000000017937957
 11
5842.779537840383
 21
2055.604361124905
 31
-0.0000000017937957
  0
LINE
  5
22F8
330
1F
100
AcDbEntity
  8
SANINDUSA
100
AcDbLine
 10
5842.702648951495
 20
2055.618861124905
 30
-0.0000000017937957
 11
5842.702648951495
 21
2055.585861124905
 31
-0.0000000017937957
  0
ARC
  5
22FA
330
1F
100
AcDbEntity
  8
SANINDUSA
100
AcDbCircle
 10
5842.703648951494
 20
2054.358861124914
 30
-0.0000000017937957
 40
0.001
100
AcDbArc
 50
90.0
 51
180.0
  0
LINE
  5
22FB
330
1F
100
AcDbEntity
  8
SANINDUSA
100
AcDbLine
 10
5842.702648951495
 20
2054.358861124914
 30
-0.0000000017937957
 11
5842.702648951495
 21
2054.325861124914
 31
-0.0000000017937957
  0
ARC
  5
22FC
330
1F
100
AcDbEntity
  8
SANINDUSA
100
AcDbCircle
 10
5842.703648951494
 20
2054.325861124914
 30
-0.0000000017937957
 40
0.001
100
AcDbArc
 50
180.0
 51
270.0
  0
ARC
  5
22FD
330
1F
100
AcDbEntity
  8
SANINDUSA
100
AcDbCircle
 10
5842.777648951495
 20
2054.365361124914
 30
-0.0000000017937957
 40
0.001
100
AcDbArc
 50
0.0
 51
90.0
  0
ARC
  5
22FE
330
1F
100
AcDbEntity
  8
SANINDUSA
100
AcDbCircle
 10
5842.763648951494
 20
2054.365361124914
 30
-0.0000000017937957
 40
0.001
100
AcDbArc
 50
90.0
 51
180.0
  0
LINE
  5
22FF
330
1F
100
AcDbEntity
  8
SANINDUSA
100
AcDbLine
 10
5842.778648951494
 20
2054.359861124915
 30
-0.0000000017937957
 11
5842.837648951494
 21
2054.359861124915
 31
-0.0000000017937957
  0
LINE
  5
2300
330
1F
100
AcDbEntity
  8
SANINDUSA
100
AcDbLine
 10
5842.837648951494
 20
2054.324861124914
 30
-0.0000000017937957
 11
5842.779537840383
 21
2054.324861124914
 31
-0.0000000017937957
  0
ARC
  5
2301
330
1F
100
AcDbEntity
  8
SANINDUSA
100
AcDbCircle
 10
5842.837648951494
 20
2054.358861124914
 30
-0.0000000017937957
 40
0.001
100
AcDbArc
 50
0.0
 51
90.0
  0
ARC
  5
2302
330
1F
100
AcDbEntity
  8
SANINDUSA
100
AcDbCircle
 10
5842.837648951494
 20
2054.325861124914
 30
-0.0000000017937957
 40
0.001
100
AcDbArc
 50
270.0
 51
0.0
  0
LINE
  5
2303
330
1F
100
AcDbEntity
  8
SANINDUSA
100
AcDbLine
 10
5842.838648951494
 20
2054.358861124914
 30
-0.0000000017937957
 11
5842.838648951494
 21
2054.325861124914
 31
-0.0000000017937957
  0
LINE
  5
2304
330
1F
100
AcDbEntity
  8
SANINDUSA
100
AcDbLine
 10
5842.778648951494
 20
2054.365361124914
 30
-0.0000000017937957
 11
5842.778648951494
 21
2054.359861124915
 31
-0.0000000017937957
  0
LINE
  5
2305
330
1F
100
AcDbEntity
  8
SANINDUSA
100
AcDbLine
 10
5842.778648951495
 20
2054.340361124914
 30
-0.0000000017937957
 11
5842.778648951495
 21
2054.319361124914
 31
-0.0000000017937957
  0
LINE
  5
2306
330
1F
100
AcDbEntity
  8
SANINDUSA
100
AcDbLine
 10
5842.779537840383
 20
2054.324861124914
 30
-0.0000000017937957
 11
5842.779537840383
 21
2054.344361124915
 31
-0.0000000017937957
  0
ARC
  5
2307
330
1F
100
AcDbEntity
  8
SANINDUSA
100
AcDbCircle
 10
5842.777648951495
 20
2054.319361124914
 30
-0.0000000017937957
 40
0.001
100
AcDbArc
 50
270.0
 51
0.0
  0
LINE
  5
2308
330
1F
100
AcDbEntity
  8
SANINDUSA
100
AcDbLine
 10
5842.778148951495
 20
2054.344361124915
 30
-0.0000000017937957
 11
5842.778148951495
 21
2054.340361124914
 31
-0.0000000017937957
  0
LINE
  5
2309
330
1F
100
AcDbEntity
  8
SANINDUSA
100
AcDbLine
 10
5842.778648951494
 20
2054.359861124915
 30
-0.0000000017937957
 11
5842.778648951494
 21
2054.344361124915
 31
-0.0000000017937957
  0
LINE
  5
230A
330
1F
100
AcDbEntity
  8
SANINDUSA
100
AcDbLine
 10
5842.763648951494
 20
2054.366361124914
 30
-0.0000000017937957
 11
5842.777648951495
 21
2054.366361124914
 31
-0.0000000017937957
  0
LINE
  5
230B
330
1F
100
AcDbEntity
  8
SANINDUSA
100
AcDbLine
 10
5842.762648951494
 20
2054.319361124914
 30
-0.0000000017937957
 11
5842.762648951494
 21
2054.340361124914
 31
-0.0000000017937957
  0
ARC
  5
230C
330
1F
100
AcDbEntity
  8
SANINDUSA
100
AcDbCircle
 10
5842.763648951494
 20
2054.319361124914
 30
-0.0000000017937957
 40
0.001
100
AcDbArc
 50
180.0
 51
270.0
  0
LINE
  5
230D
330
1F
100
AcDbEntity
  8
SANINDUSA
100
AcDbLine
 10
5842.763148951494
 20
2054.344361124915
 30
-0.0000000017937957
 11
5842.763148951494
 21
2054.340361124914
 31
-0.0000000017937957
  0
LINE
  5
230E
330
1F
100
AcDbEntity
  8
SANINDUSA
100
AcDbLine
 10
5842.762648951494
 20
2054.340361124914
 30
-0.0000000017937957
 11
5842.761760062606
 21
2054.340361124914
 31
-0.0000000017937957
  0
LINE
  5
230F
330
1F
100
AcDbEntity
  8
SANINDUSA
100
AcDbLine
 10
5842.777648951495
 20
2054.318361124914
 30
-0.0000000017937957
 11
5842.763648951494
 21
2054.318361124914
 31
-0.0000000017937957
  0
LINE
  5
2310
330
1F
100
AcDbEntity
  8
SANINDUSA
100
AcDbLine
 10
5842.779537840383
 20
2054.344361124915
 30
-0.0000000017937957
 11
5842.762648951494
 21
2054.344361124915
 31
-0.0000000017937957
  0
LINE
  5
2311
330
1F
100
AcDbEntity
  8
SANINDUSA
100
AcDbLine
 10
5842.762648951494
 20
2054.340361124914
 30
-0.0000000017937957
 11
5842.778648951495
 21
2054.340361124914
 31
-0.0000000017937957
  0
LINE
  5
2312
330
1F
100
AcDbEntity
  8
SANINDUSA
100
AcDbLine
 10
5842.762648951494
 20
2054.344361124915
 30
-0.0000000017937957
 11
5842.762648951494
 21
2054.365361124914
 31
-0.0000000017937957
  0
LINE
  5
2313
330
1F
100
AcDbEntity
  8
SANINDUSA
100
AcDbLine
 10
5842.761760062606
 20
2054.340361124914
 30
-0.0000000017937957
 11
5842.761760062606
 21
2054.359861124915
 31
-0.0000000017937957
  0
LINE
  5
2314
330
1F
100
AcDbEntity
  8
SANINDUSA
100
AcDbLine
 10
5842.761760062606
 20
2054.359861124915
 30
-0.0000000017937957
 11
5842.703648951494
 21
2054.359861124915
 31
-0.0000000017937957
  0
LINE
  5
2315
330
1F
100
AcDbEntity
  8
SANINDUSA
100
AcDbLine
 10
5842.703648951494
 20
2054.324861124914
 30
-0.0000000017937957
 11
5842.762648951494
 21
2054.324861124914
 31
-0.0000000017937957
  0
LINE
  5
231B
330
1F
100
AcDbEntity
  8
SANINDUSA
100
AcDbLine
 10
5842.946448604751
 20
2055.897361124914
 30
0.0
 11
5843.589889469363
 21
2055.897361124914
 31
0.0
  0
LINE
  5
231C
330
1F
100
AcDbEntity
  8
SANINDUSA
100
AcDbLine
 10
5842.772148951494
 20
2054.057361124915
 30
0.0
 11
5843.573852827535
 21
2054.057361124915
 31
0.0
  0
LINE
  5
231E
330
1F
100
AcDbEntity
  8
SANINDUSA
100
AcDbLine
 10
5842.013565816624
 20
2054.047361124915
 30
0.0
 11
5843.613889469363
 21
2054.047361124915
 31
0.0
  0
LINE
  5
231F
330
1F
100
AcDbEntity
  8
SANINDUSA
100
AcDbLine
 10
5843.563601861082
 20
2054.057361124915
 30
0.0
 11
5843.563601861082
 21
2055.897361124914
 31
0.0
  0
LINE
  5
2320
330
1F
100
AcDbEntity
  8
SANINDUSA
100
AcDbLine
 10
5843.595589469363
 20
2054.057361124915
 30
0.0
 11
5843.595589469363
 21
2055.897361124914
 31
0.0
  0
LINE
  5
2321
330
1F
100
AcDbEntity
  8
SANINDUSA
100
AcDbLine
 10
5843.601589469363
 20
2054.057361124915
 30
0.0
 11
5843.601589469363
 21
2055.897361124914
 31
0.0
  0
LINE
  5
2322
330
1F
100
AcDbEntity
  8
SANINDUSA
100
AcDbLine
 10
5843.613889469363
 20
2054.047361124915
 30
0.0
 11
5843.613889469363
 21
2055.897361124914
 31
0.0
  0
LINE
  5
2323
330
1F
100
AcDbEntity
  8
SANINDUSA
100
AcDbLine
 10
5843.574187803005
 20
2054.047361124915
 30
0.0
 11
5843.574187803005
 21
2055.897361124914
 31
0.0
  0
LINE
  5
2328
330
1F
100
AcDbEntity
  8
SANINDUSA
100
AcDbLine
 10
5843.595589469363
 20
2054.057361124915
 30
0.0
 11
5843.601589469363
 21
2054.057361124915
 31
0.0
  0
LINE
  5
2329
330
1F
100
AcDbEntity
  8
SANINDUSA
100
AcDbLine
 10
5843.589889469363
 20
2055.897361124914
 30
0.0
 11
5843.613889469363
 21
2055.897361124914
 31
0.0
  0
LINE
  5
232A
330
1F
100
AcDbEntity
  8
SANINDUSA
100
AcDbLine
 10
5842.772148951494
 20
2054.366361124914
 30
0.0
 11
5842.772148951494
 21
2055.578361124905
 31
0.0
  0
LINE
  5
232B
330
1F
100
AcDbEntity
  8
SANINDUSA
100
AcDbLine
 10
5842.769148951495
 20
2054.366361124914
 30
0.0
 11
5842.769148951495
 21
2055.578361124905
 31
0.0
  0
LINE
  5
232C
330
1F
100
AcDbEntity
  8
SANINDUSA
100
AcDbLine
 10
5842.068415816623
 20
2054.047361124915
 30
0.0
 11
5842.068415816623
 21
2055.897361124914
 31
0.0
  0
LINE
  5
232D
330
1F
100
AcDbEntity
  8
SANINDUSA
100
AcDbLine
 10
5842.013565816624
 20
2054.047361124915
 30
0.0
 11
5842.013565816624
 21
2055.897361124914
 31
0.0
  0
LINE
  5
2332
330
1F
100
AcDbEntity
  8
SANINDUSA
100
AcDbLine
 10
5842.769148951495
 20
2054.047361124915
 30
0.0
 11
5842.769148951495
 21
2054.318361124914
 31
0.0
  0
LINE
  5
2333
330
1F
100
AcDbEntity
  8
SANINDUSA
100
AcDbLine
 10
5842.772148951494
 20
2054.057361124915
 30
0.0
 11
5842.772148951494
 21
2054.318361124914
 31
0.0
  0
LINE
  5
2335
330
1F
100
AcDbEntity
  8
SANINDUSA
100
AcDbLine
 10
5842.013565816624
 20
2055.897361124914
 30
0.0
 11
5842.946448604751
 21
2055.897361124914
 31
0.0
  0
LINE
  5
2336
330
1F
100
AcDbEntity
  8
SANINDUSA
100
AcDbLine
 10
5842.769148951495
 20
2055.626361124905
 30
0.0
 11
5842.769148951495
 21
2055.897361124914
 31
0.0
  0
LINE
  5
2337
330
1F
100
AcDbEntity
  8
SANINDUSA
100
AcDbLine
 10
5842.772148951494
 20
2055.626361124905
 30
0.0
 11
5842.772148951494
 21
2055.897361124914
 31
0.0
  0
LINE
  5
2338
330
1F
100
AcDbEntity
  8
SANINDUSA
100
AcDbLine
 10
5843.611558784328
 20
2055.897361124914
 30
0.0
 11
5843.611558784328
 21
2054.04712195327
 31
0.0
  0
LINE
  5
2339
330
1F
100
AcDbEntity
  8
SANINDUSA
100
AcDbLine
 10
5843.537601861083
 20
2055.897361124914
 30
0.0000000001555553
 11
5843.537601861083
 21
2054.057361124915
 31
0.0000000001555553
  0
LINE
  5
23D7
330
1F
100
AcDbEntity
  8
SANINDUSA
100
AcDbLine
 10
5840.199622622533
 20
2054.645192269124
 30
0.0
 11
5840.196934009382
 21
2054.645192269124
 31
0.0
  0
ARC
  5
23D8
330
1F
100
AcDbEntity
  8
SANINDUSA
100
AcDbCircle
 10
5840.199622622533
 20
2054.644692269124
 30
0.0
 40
0.0005000000000001
100
AcDbArc
 50
23.57817848029807
 51
90.0
  0
ARC
  5
23D9
330
1F
100
AcDbEntity
  8
SANINDUSA
100
AcDbCircle
 10
5840.196934009382
 20
2054.644692269124
 30
0.0
 40
0.0005
100
AcDbArc
 50
90.0
 51
160.5287793619829
  0
ARC
  5
23DA
330
1F
100
AcDbEntity
  8
SANINDUSA
100
AcDbCircle
 10
5840.200997395241
 20
2054.645292269125
 30
0.0
 40
0.0009999999999999
100
AcDbArc
 50
203.5781784802981
 51
0.0
  0
ARC
  5
23DB
330
1F
100
AcDbEntity
  8
SANINDUSA
100
AcDbCircle
 10
5840.19551979582
 20
2054.645192269124
 30
0.0
 40
0.001
100
AcDbArc
 50
199.471220638017
 51
340.5287793619829
  0
LINE
  5
23DC
330
1F
100
AcDbEntity
  8
SANINDUSA
100
AcDbLine
 10
5840.201997395241
 20
2054.645292269125
 30
0.0
 11
5840.201997395241
 21
2054.646192269125
 31
0.0
  0
ARC
  5
23DD
330
1F
100
AcDbEntity
  8
SANINDUSA
100
AcDbCircle
 10
5840.194105582257
 20
2054.644692269124
 30
0.0
 40
0.0004999999999999
100
AcDbArc
 50
19.47122063801706
 51
90.0
  0
ARC
  5
23DE
330
1F
100
AcDbEntity
  8
SANINDUSA
100
AcDbCircle
 10
5840.200997395241
 20
2054.646192269125
 30
0.0
 40
0.0009999999999999
100
AcDbArc
 50
0.0
 51
90.0
  0
LINE
  5
23DF
330
1F
100
AcDbEntity
  8
SANINDUSA
100
AcDbLine
 10
5840.194105582257
 20
2054.645192269124
 30
0.0
 11
5840.192519419001
 21
2054.645192269124
 31
0.0
  0
LINE
  5
23E0
330
1F
100
AcDbEntity
  8
SANINDUSA
100
AcDbLine
 10
5840.200997395241
 20
2054.647192269124
 30
0.0
 11
5840.16949739524
 21
2054.647192269124
 31
0.0
  0
ARC
  5
23E1
330
1F
100
AcDbEntity
  8
SANINDUSA
100
AcDbCircle
 10
5840.192519419001
 20
2054.644692269124
 30
0.0
 40
0.0005
100
AcDbArc
 50
90.0
 51
180.0
  0
ARC
  5
23E2
330
1F
100
AcDbEntity
  8
SANINDUSA
100
AcDbCircle
 10
5840.16949739524
 20
2054.646192269125
 30
0.0
 40
0.001
100
AcDbArc
 50
90.0
 51
270.0
  0
LINE
  5
23E3
330
1F
100
AcDbEntity
  8
SANINDUSA
100
AcDbLine
 10
5840.192019419
 20
2054.644692269124
 30
0.0
 11
5840.192019419
 21
2054.637692269125
 31
0.0
  0
LINE
  5
23E4
330
1F
100
AcDbEntity
  8
SANINDUSA
100
AcDbLine
 10
5840.16949739524
 20
2054.645192269124
 30
0.0
 11
5840.189519419001
 21
2054.645192269124
 31
0.0
  0
ARC
  5
23E5
330
1F
100
AcDbEntity
  8
SANINDUSA
100
AcDbCircle
 10
5840.192519419001
 20
2054.637692269125
 30
0.0
 40
0.0005
100
AcDbArc
 50
180.0
 51
270.0
  0
ARC
  5
23E6
330
1F
100
AcDbEntity
  8
SANINDUSA
100
AcDbCircle
 10
5840.189519419001
 20
2054.644692269124
 30
0.0
 40
0.0005000000000001
100
AcDbArc
 50
0.0
 51
90.0
  0
LINE
  5
23E7
330
1F
100
AcDbEntity
  8
SANINDUSA
100
AcDbLine
 10
5840.192519419001
 20
2054.637192269125
 30
0.0
 11
5840.194105582257
 21
2054.637192269125
 31
0.0
  0
LINE
  5
23E8
330
1F
100
AcDbEntity
  8
SANINDUSA
100
AcDbLine
 10
5840.190019419001
 20
2054.644692269124
 30
0.0
 11
5840.190019419001
 21
2054.637692269125
 31
0.0
  0
ARC
  5
23E9
330
1F
100
AcDbEntity
  8
SANINDUSA
100
AcDbCircle
 10
5840.194105582257
 20
2054.637692269125
 30
0.0
 40
0.0005
100
AcDbArc
 50
270.0
 51
340.5287793619829
  0
ARC
  5
23EA
330
1F
100
AcDbEntity
  8
SANINDUSA
100
AcDbCircle
 10
5840.189519419001
 20
2054.637692269125
 30
0.0
 40
0.0005000000000001
100
AcDbArc
 50
270.0
 51
0.0
  0
ARC
  5
23EB
330
1F
100
AcDbEntity
  8
SANINDUSA
100
AcDbCircle
 10
5840.19551979582
 20
2054.637192269125
 30
0.0
 40
0.001
100
AcDbArc
 50
19.47122063801706
 51
160.5287793619829
  0
LINE
  5
23EC
330
1F
100
AcDbEntity
  8
SANINDUSA
100
AcDbLine
 10
5840.189519419001
 20
2054.637192269125
 30
0.0
 11
5840.16949739524
 21
2054.637192269125
 31
0.0
  0
ARC
  5
23ED
330
1F
100
AcDbEntity
  8
SANINDUSA
100
AcDbCircle
 10
5840.196934009382
 20
2054.637692269125
 30
0.0
 40
0.0005
100
AcDbArc
 50
199.471220638017
 51
270.0
  0
ARC
  5
23EE
330
1F
100
AcDbEntity
  8
SANINDUSA
100
AcDbCircle
 10
5840.16949739524
 20
2054.636192269124
 30
0.0
 40
0.001
100
AcDbArc
 50
90.0
 51
270.0
  0
LINE
  5
23EF
330
1F
100
AcDbEntity
  8
SANINDUSA
100
AcDbLine
 10
5840.196934009382
 20
2054.637192269125
 30
0.0
 11
5840.199622622533
 21
2054.637192269125
 31
0.0
  0
LINE
  5
23F0
330
1F
100
AcDbEntity
  8
SANINDUSA
100
AcDbLine
 10
5840.16949739524
 20
2054.635192269125
 30
0.0
 11
5840.200997395241
 21
2054.635192269125
 31
0.0
  0
ARC
  5
23F1
330
1F
100
AcDbEntity
  8
SANINDUSA
100
AcDbCircle
 10
5840.199622622533
 20
2054.637692269125
 30
0.0
 40
0.0005000000000001
100
AcDbArc
 50
270.0
 51
336.4218215197019
  0
ARC
  5
23F2
330
1F
100
AcDbEntity
  8
SANINDUSA
100
AcDbCircle
 10
5840.200997395241
 20
2054.636192269124
 30
0.0
 40
0.0010000000000001
100
AcDbArc
 50
270.0
 51
0.0
  0
ARC
  5
23F3
330
1F
100
AcDbEntity
  8
SANINDUSA
100
AcDbCircle
 10
5840.200997395241
 20
2054.637092269125
 30
0.0
 40
0.0009999999999999
100
AcDbArc
 50
0.0
 51
156.4218215197019
  0
LINE
  5
23F4
330
1F
100
AcDbEntity
  8
SANINDUSA
100
AcDbLine
 10
5840.201997395241
 20
2054.636192269124
 30
0.0
 11
5840.201997395241
 21
2054.637092269125
 31
0.0
  0
ARC
  5
23F7
330
1F
100
AcDbEntity
  8
SANINDUSA
100
AcDbCircle
 10
5840.15049739524
 20
2054.648892269125
 30
0.0
 40
0.0009999999999999
100
AcDbArc
 50
90.0
 51
180.0
  0
LINE
  5
23F8
330
1F
100
AcDbEntity
  8
SANINDUSA
100
AcDbLine
 10
5840.149497395241
 20
2054.647906482687
 30
0.0
 11
5840.149497395241
 21
2054.648892269125
 31
0.0
  0
LINE
  5
23F9
330
1F
100
AcDbEntity
  8
SANINDUSA
100
AcDbLine
 10
5840.15049739524
 20
2054.649892269125
 30
0.0
 11
5840.185520699373
 21
2054.649892269125
 31
0.0
  0
ARC
  5
23FA
330
1F
100
AcDbEntity
  8
SANINDUSA
100
AcDbCircle
 10
5840.15049739524
 20
2054.647906482687
 30
0.0
 40
0.0010000000000003
100
AcDbArc
 50
180.0
 51
225.0
  0
ARC
  5
23FB
330
1F
100
AcDbEntity
  8
SANINDUSA
100
AcDbCircle
 10
5840.185520699373
 20
2054.648892269125
 30
0.0
 40
0.001
100
AcDbArc
 50
270.0
 51
90.0
  0
LINE
  5
23FC
330
1F
100
AcDbEntity
  8
SANINDUSA
100
AcDbLine
 10
5840.150704502022
 20
2054.646285162343
 30
0.0
 11
5840.149790288459
 21
2054.647199375906
 31
0.0
  0
LINE
  5
23FD
330
1F
100
AcDbEntity
  8
SANINDUSA
100
AcDbLine
 10
5840.185520699373
 20
2054.647892269125
 30
0.0
 11
5840.153997395241
 21
2054.647892269125
 31
0.0
  0
ARC
  5
23FE
330
1F
100
AcDbEntity
  8
SANINDUSA
100
AcDbCircle
 10
5840.149997395241
 20
2054.645578055562
 30
0.0
 40
0.0010000000000003
100
AcDbArc
 50
0.0
 51
45.0
  0
ARC
  5
23FF
330
1F
100
AcDbEntity
  8
SANINDUSA
100
AcDbCircle
 10
5840.153997395241
 20
2054.646892269125
 30
0.0
 40
0.001
100
AcDbArc
 50
90.0
 51
180.0
  0
LINE
  5
2400
330
1F
100
AcDbEntity
  8
SANINDUSA
100
AcDbLine
 10
5840.150997395241
 20
2054.642202929296
 30
0.0
 11
5840.150997395241
 21
2054.645578055562
 31
0.0
  0
LINE
  5
2401
330
1F
100
AcDbEntity
  8
SANINDUSA
100
AcDbLine
 10
5840.152997395241
 20
2054.646892269125
 30
0.0
 11
5840.152997395241
 21
2054.629033082847
 31
0.0
  0
ARC
  5
2402
330
1F
100
AcDbEntity
  8
SANINDUSA
100
AcDbCircle
 10
5840.15124739524
 20
2054.642202929296
 30
0.0
 40
0.0002500000000003
100
AcDbArc
 50
180.0
 51
225.0
  0
ARC
  5
2403
330
1F
100
AcDbEntity
  8
SANINDUSA
100
AcDbCircle
 10
5840.153997395241
 20
2054.629033082847
 30
0.0
 40
0.001
100
AcDbArc
 50
180.0
 51
272.1494579411624
  0
LINE
  5
2404
330
1F
100
AcDbEntity
  8
SANINDUSA
100
AcDbLine
 10
5840.151550948632
 20
2054.641545822515
 30
0.0
 11
5840.151070618546
 21
2054.642026152601
 31
0.0
  0
ARC
  5
2405
330
1F
100
AcDbEntity
  8
SANINDUSA
100
AcDbCircle
 10
5840.150407286802
 20
2054.724685828769
 30
0.0
 40
0.0967200954923435
100
AcDbArc
 50
272.1494579411624
 51
285.5601696204736
  0
ARC
  5
2406
330
1F
100
AcDbEntity
  8
SANINDUSA
100
AcDbCircle
 10
5840.151197395241
 20
2054.641192269125
 30
0.0
 40
0.0005
100
AcDbArc
 50
315.0
 51
45.0
  0
ARC
  5
2407
330
1F
100
AcDbEntity
  8
SANINDUSA
100
AcDbCircle
 10
5840.176218346001
 20
2054.631992269125
 30
0.0
 40
0.0005
100
AcDbArc
 50
285.5601696204736
 51
90.0
  0
LINE
  5
2408
330
1F
100
AcDbEntity
  8
SANINDUSA
100
AcDbLine
 10
5840.151070618546
 20
2054.640358385648
 30
0.0
 11
5840.151550948632
 21
2054.640838715734
 31
0.0
  0
LINE
  5
2409
330
1F
100
AcDbEntity
  8
SANINDUSA
100
AcDbLine
 10
5840.176218346001
 20
2054.632492269125
 30
0.0
 11
5840.163520699373
 21
2054.632492269125
 31
0.0
  0
ARC
  5
240A
330
1F
100
AcDbEntity
  8
SANINDUSA
100
AcDbCircle
 10
5840.15124739524
 20
2054.640181608953
 30
0.0
 40
0.00025
100
AcDbArc
 50
135.0
 51
180.0
  0
ARC
  5
240B
330
1F
100
AcDbEntity
  8
SANINDUSA
100
AcDbCircle
 10
5840.163520699373
 20
2054.633492269124
 30
0.0
 40
0.001
100
AcDbArc
 50
90.0
 51
270.0
  0
LINE
  5
240C
330
1F
100
AcDbEntity
  8
SANINDUSA
100
AcDbLine
 10
5840.150997395241
 20
2054.629992245463
 30
0.0
 11
5840.150997395241
 21
2054.640181608953
 31
0.0
  0
LINE
  5
240D
330
1F
100
AcDbEntity
  8
SANINDUSA
100
AcDbLine
 10
5840.163520699373
 20
2054.634492269125
 30
0.0
 11
5840.185520699373
 21
2054.634492269125
 31
0.0
  0
ARC
  5
240E
330
1F
100
AcDbEntity
  8
SANINDUSA
100
AcDbCircle
 10
5840.149997395241
 20
2054.629992245463
 30
0.0
 40
0.0010000000000003
100
AcDbArc
 50
314.9106959289493
 51
0.0
  0
ARC
  5
240F
330
1F
100
AcDbEntity
  8
SANINDUSA
100
AcDbCircle
 10
5840.185520699373
 20
2054.633492269124
 30
0.0
 40
0.001
100
AcDbArc
 50
291.0588352713053
 51
90.0
  0
LINE
  5
2410
330
1F
100
AcDbEntity
  8
SANINDUSA
100
AcDbLine
 10
5840.149796959921
 20
2054.628380419545
 30
0.0
 11
5840.150703399032
 21
2054.629284037409
 31
0.0
  0
ARC
  5
2411
330
1F
100
AcDbEntity
  8
SANINDUSA
100
AcDbCircle
 10
5840.150407286802
 20
2054.724685828769
 30
0.0
 40
0.0987200954923432
100
AcDbArc
 50
270.0522365823832
 51
291.0588352713053
  0
ARC
  5
2412
330
1F
100
AcDbEntity
  8
SANINDUSA
100
AcDbCircle
 10
5840.150502963712
 20
2054.627672211492
 30
0.0
 40
0.0010000000000003
100
AcDbArc
 50
134.9106959289492
 51
179.4659008829362
  0
ARC
  5
2413
330
1F
100
AcDbEntity
  8
SANINDUSA
100
AcDbCircle
 10
5840.15049637826
 20
2054.62696577389
 30
0.0
 40
0.001
100
AcDbArc
 50
179.4659008829362
 51
270.0522365823832
  0
LINE
  5
2414
330
1F
100
AcDbEntity
  8
SANINDUSA
100
AcDbLine
 10
5840.149496421707
 20
2054.626975095542
 30
0.0
 11
5840.149503007159
 21
2054.627681533145
 31
0.0
  0
LINE
  5
2415
330
1F
100
AcDbEntity
  8
SANINDUSA
100
AcDbLine
 10
5840.14714739524
 20
2054.62596577389
 30
0.0
 11
5840.14714739524
 21
2054.649892269125
 31
0.0
  0
LINE
  5
2416
330
1F
100
AcDbEntity
  8
SANINDUSA
100
AcDbLine
 10
5840.14714739524
 20
2054.62596577389
 30
0.0
 11
5840.148146276153
 21
2054.62596577389
 31
0.0
  0
LINE
  5
2417
330
1F
100
AcDbEntity
  8
SANINDUSA
100
AcDbLine
 10
5840.148147395241
 20
2054.649892269125
 30
0.0
 11
5840.14714739524
 21
2054.649892269125
 31
0.0
  0
ARC
  5
2418
330
1F
100
AcDbEntity
  8
SANINDUSA
100
AcDbCircle
 10
5840.148146276153
 20
2054.62696577389
 30
0.0
 40
0.0009999999999999
100
AcDbArc
 50
270.0
 51
359.4659008829362
  0
ARC
  5
2419
330
1F
100
AcDbEntity
  8
SANINDUSA
100
AcDbCircle
 10
5840.148147395241
 20
2054.648892269125
 30
0.0
 40
0.0009999999999999
100
AcDbArc
 50
0.0
 51
90.0
  0
LINE
  5
241A
330
1F
100
AcDbEntity
  8
SANINDUSA
100
AcDbLine
 10
5840.149146232706
 20
2054.626956452237
 30
0.0
 11
5840.149153022366
 21
2054.627684795724
 31
0.0
  0
LINE
  5
241B
330
1F
100
AcDbEntity
  8
SANINDUSA
100
AcDbLine
 10
5840.149147395241
 20
2054.647906482687
 30
0.0
 11
5840.149147395241
 21
2054.648892269125
 31
0.0
  0
ARC
  5
241C
330
1F
100
AcDbEntity
  8
SANINDUSA
100
AcDbCircle
 10
5840.150502963712
 20
2054.627672211492
 30
0.0
 40
0.00135
100
AcDbArc
 50
134.9106959289492
 51
179.4659008829362
  0
ARC
  5
241D
330
1F
100
AcDbEntity
  8
SANINDUSA
100
AcDbCircle
 10
5840.15049739524
 20
2054.647906482687
 30
0.0
 40
0.0013499999999998
100
AcDbArc
 50
180.0
 51
225.0
  0
LINE
  5
241E
330
1F
100
AcDbEntity
  8
SANINDUSA
100
AcDbLine
 10
5840.149549858594
 20
2054.628628292364
 30
0.0
 11
5840.150456297705
 21
2054.629531910228
 31
0.0
  0
LINE
  5
241F
330
1F
100
AcDbEntity
  8
SANINDUSA
100
AcDbLine
 10
5840.150457014649
 20
2054.64603767497
 30
0.0
 11
5840.149542801087
 21
2054.646951888532
 31
0.0
  0
ARC
  5
2420
330
1F
100
AcDbEntity
  8
SANINDUSA
100
AcDbCircle
 10
5840.149997395241
 20
2054.629992245463
 30
0.0
 40
0.0006500000000003
100
AcDbArc
 50
314.9106959289493
 51
0.0
  0
ARC
  5
2421
330
1F
100
AcDbEntity
  8
SANINDUSA
100
AcDbCircle
 10
5840.149997395241
 20
2054.645578055562
 30
0.0
 40
0.0006500000000003
100
AcDbArc
 50
0.0
 51
45.0
  0
LINE
  5
2422
330
1F
100
AcDbEntity
  8
SANINDUSA
100
AcDbLine
 10
5840.150647395241
 20
2054.629992245463
 30
0.0
 11
5840.150647395241
 21
2054.645578055562
 31
0.0
  0
LINE
  5
2423
330
1F
100
AcDbEntity
  8
SANINDUSA
100
AcDbLine
 10
5841.701119419001
 20
2054.644371585349
 30
0.0000000001479285
 11
5841.701119419001
 21
2054.643892272934
 31
0.0000000001479285
  0
LINE
  5
2424
330
1F
100
AcDbEntity
  8
SANINDUSA
100
AcDbLine
 10
5841.703619419
 20
2054.644322747942
 30
0.0000000001479285
 11
5841.703678642732
 21
2054.64392715655
 31
0.0000000001479285
  0
ARC
  5
2425
330
1F
100
AcDbEntity
  8
SANINDUSA
100
AcDbCircle
 10
5841.701919419
 20
2054.644371585349
 30
0.0000000001479285
 40
0.0008
100
AcDbArc
 50
98.51447844589834
 51
180.0
  0
ARC
  5
2426
330
1F
100
AcDbEntity
  8
SANINDUSA
100
AcDbCircle
 10
5841.704365609097
 20
2054.642715514188
 30
0.0000000001479285
 40
0.0002
100
AcDbArc
 50
188.514478449756
 51
8.514478449756042
  0
LINE
  5
2427
330
1F
100
AcDbEntity
  8
SANINDUSA
100
AcDbLine
 10
5841.701463836799
 20
2054.638788966479
 30
0.0000000001479285
 11
5841.703678642732
 21
2054.638457389319
 31
0.0000000001479285
  0
ARC
  5
2428
330
1F
100
AcDbEntity
  8
SANINDUSA
100
AcDbCircle
 10
5841.704365609097
 20
2054.63966903168
 30
0.0000000001479285
 40
0.0002
100
AcDbArc
 50
351.485521550244
 51
171.4855215502439
  0
LINE
  5
2429
330
1F
100
AcDbEntity
  8
SANINDUSA
100
AcDbLine
 10
5841.703619419
 20
2054.638061797926
 30
0.0000000001479285
 11
5841.703678642732
 21
2054.638457389319
 31
0.0000000001479285
  0
ARC
  5
242A
330
1F
100
AcDbEntity
  8
SANINDUSA
100
AcDbCircle
 10
5841.701419419001
 20
2054.638492272934
 30
0.0000000001479285
 40
0.0003
100
AcDbArc
 50
81.48552155410166
 51
180.0
  0
ARC
  5
242B
330
1F
100
AcDbEntity
  8
SANINDUSA
100
AcDbCircle
 10
5841.701419419001
 20
2054.643892272934
 30
0.0000000001479285
 40
0.0003
100
AcDbArc
 50
180.0
 51
278.5144784458983
  0
LINE
  5
242C
330
1F
100
AcDbEntity
  8
SANINDUSA
100
AcDbLine
 10
5841.701463836799
 20
2054.64359557939
 30
0.0000000001479285
 11
5841.703678642732
 21
2054.64392715655
 31
0.0000000001479285
  0
LINE
  5
242D
330
1F
100
AcDbEntity
  8
SANINDUSA
100
AcDbLine
 10
5841.704311703938
 20
2054.644426389471
 30
0.0000000001479285
 11
5841.704563404793
 21
2054.642745126054
 31
0.0000000001479285
  0
LINE
  5
242E
330
1F
100
AcDbEntity
  8
SANINDUSA
100
AcDbLine
 10
5841.703916112545
 20
2054.644367165741
 30
0.0000000001479285
 11
5841.704167813401
 21
2054.642685902323
 31
0.0000000001479285
  0
LINE
  5
242F
330
1F
100
AcDbEntity
  8
SANINDUSA
100
AcDbLine
 10
5841.706438007672
 20
2054.644744717025
 30
0.0000000001479285
 11
5841.706497231403
 21
2054.644349125632
 31
0.0000000001479285
  0
ARC
  5
2430
330
1F
100
AcDbEntity
  8
SANINDUSA
100
AcDbCircle
 10
5841.712819419001
 20
2054.644992272935
 30
0.0000000001479285
 40
0.0003
100
AcDbArc
 50
0.0
 51
98.51447844589834
  0
ARC
  5
2431
330
1F
100
AcDbEntity
  8
SANINDUSA
100
AcDbCircle
 10
5841.712077018172
 20
2054.645892272934
 30
0.0000000001479285
 40
0.0008
100
AcDbArc
 50
90.0
 51
98.51447844589834
  0
LINE
  5
2432
330
1F
100
AcDbEntity
  8
SANINDUSA
100
AcDbLine
 10
5841.711619419001
 20
2054.645115965016
 30
0.0000000001479285
 11
5841.712775001202
 21
2054.645288966479
 31
0.0000000001479285
  0
LINE
  5
2433
330
1F
100
AcDbEntity
  8
SANINDUSA
100
AcDbLine
 10
5841.711619419001
 20
2054.645115965016
 30
0.0000000001479285
 11
5841.711619419001
 21
2054.644292272934
 31
0.0000000001479285
  0
LINE
  5
2434
330
1F
100
AcDbEntity
  8
SANINDUSA
100
AcDbLine
 10
5841.711619419001
 20
2054.644292272934
 30
0.0000000001479285
 11
5841.710419419001
 21
2054.644292272934
 31
0.0000000001479285
  0
LINE
  5
2435
330
1F
100
AcDbEntity
  8
SANINDUSA
100
AcDbLine
 10
5841.710419419001
 20
2054.644936313795
 30
0.0000000001479285
 11
5841.710419419001
 21
2054.644292272934
 31
0.0000000001479285
  0
LINE
  5
2436
330
1F
100
AcDbEntity
  8
SANINDUSA
100
AcDbLine
 10
5841.706497231403
 20
2054.644349125632
 30
0.0000000001479285
 11
5841.710419419001
 21
2054.644936313795
 31
0.0000000001479285
  0
LINE
  5
2437
330
1F
100
AcDbEntity
  8
SANINDUSA
100
AcDbLine
 10
5841.711619419001
 20
2054.638092272934
 30
0.0000000001479285
 11
5841.710419419001
 21
2054.638092272934
 31
0.0000000001479285
  0
LINE
  5
2438
330
1F
100
AcDbEntity
  8
SANINDUSA
100
AcDbLine
 10
5841.701800971539
 20
2054.645162768133
 30
0.0000000001479285
 11
5841.71195857071
 21
2054.646683455719
 31
0.0000000001479285
  0
LINE
  5
2439
330
1F
100
AcDbEntity
  8
SANINDUSA
100
AcDbLine
 10
5841.703619419
 20
2054.644322747942
 30
0.0000000001479285
 11
5841.706438007672
 21
2054.644744717025
 31
0.0000000001479285
  0
ARC
  5
243A
330
1F
100
AcDbEntity
  8
SANINDUSA
100
AcDbCircle
 10
5841.701919419
 20
2054.63801296052
 30
0.0000000001479285
 40
0.0008
100
AcDbArc
 50
180.0
 51
261.4855215541017
  0
LINE
  5
243B
330
1F
100
AcDbEntity
  8
SANINDUSA
100
AcDbLine
 10
5841.706438007672
 20
2054.637639828844
 30
0.0000000001479285
 11
5841.706497231403
 21
2054.638035420236
 31
0.0000000001479285
  0
ARC
  5
243C
330
1F
100
AcDbEntity
  8
SANINDUSA
100
AcDbCircle
 10
5841.712819419001
 20
2054.637392272934
 30
0.0000000001479285
 40
0.0003
100
AcDbArc
 50
261.4855215541017
 51
0.0
  0
ARC
  5
243D
330
1F
100
AcDbEntity
  8
SANINDUSA
100
AcDbCircle
 10
5841.712077018172
 20
2054.636492272934
 30
0.0000000001479285
 40
0.0008
100
AcDbArc
 50
261.4855215541017
 51
270.0
  0
LINE
  5
243E
330
1F
100
AcDbEntity
  8
SANINDUSA
100
AcDbLine
 10
5841.712775001202
 20
2054.63709557939
 30
0.0000000001479285
 11
5841.711619419001
 21
2054.637268580852
 31
0.0000000001479285
  0
LINE
  5
243F
330
1F
100
AcDbEntity
  8
SANINDUSA
100
AcDbLine
 10
5841.706497231403
 20
2054.638035420236
 30
0.0000000001479285
 11
5841.710419419001
 21
2054.637448232074
 31
0.0000000001479285
  0
LINE
  5
2440
330
1F
100
AcDbEntity
  8
SANINDUSA
100
AcDbLine
 10
5841.71195857071
 20
2054.635701090149
 30
0.0000000001479285
 11
5841.701800971539
 21
2054.637221777735
 31
0.0000000001479285
  0
LINE
  5
2441
330
1F
100
AcDbEntity
  8
SANINDUSA
100
AcDbLine
 10
5841.713119419001
 20
2054.644992272935
 30
0.0000000001479285
 11
5841.713119419001
 21
2054.637392272934
 31
0.0000000001479285
  0
LINE
  5
2442
330
1F
100
AcDbEntity
  8
SANINDUSA
100
AcDbLine
 10
5841.701119419001
 20
2054.638492272934
 30
0.0000000001479285
 11
5841.701119419001
 21
2054.63801296052
 31
0.0000000001479285
  0
LINE
  5
2443
330
1F
100
AcDbEntity
  8
SANINDUSA
100
AcDbLine
 10
5841.710419419001
 20
2054.638092272934
 30
0.0000000001479285
 11
5841.710419419001
 21
2054.637448232074
 31
0.0000000001479285
  0
LINE
  5
2444
330
1F
100
AcDbEntity
  8
SANINDUSA
100
AcDbLine
 10
5841.711619419001
 20
2054.638092272934
 30
0.0000000001479285
 11
5841.711619419001
 21
2054.637268580852
 31
0.0000000001479285
  0
LINE
  5
2445
330
1F
100
AcDbEntity
  8
SANINDUSA
100
AcDbLine
 10
5841.703619419
 20
2054.638061797926
 30
0.0000000001479285
 11
5841.706438007672
 21
2054.637639828844
 31
0.0000000001479285
  0
LINE
  5
2446
330
1F
100
AcDbEntity
  8
SANINDUSA
100
AcDbLine
 10
5841.703916112545
 20
2054.638017380128
 30
0.0000000001479285
 11
5841.704167813401
 21
2054.639698643546
 31
0.0000000001479285
  0
LINE
  5
2447
330
1F
100
AcDbEntity
  8
SANINDUSA
100
AcDbLine
 10
5841.704311703938
 20
2054.637958156397
 30
0.0000000001479285
 11
5841.704563404793
 21
2054.639639419815
 31
0.0000000001479285
  0
LINE
  5
2448
330
1F
100
AcDbEntity
  8
SANINDUSA
100
AcDbLine
 10
5841.714619419001
 20
2054.646692272934
 30
0.0000000001479285
 11
5841.716876778314
 21
2054.646692272934
 31
0.0000000001479285
  0
ARC
  5
2449
330
1F
100
AcDbEntity
  8
SANINDUSA
100
AcDbCircle
 10
5841.715619419002
 20
2054.644692272934
 30
0.0000000001479285
 40
0.001
100
AcDbArc
 50
90.0
 51
180.0
  0
ARC
  5
244A
330
1F
100
AcDbEntity
  8
SANINDUSA
100
AcDbCircle
 10
5841.716889200103
 20
2054.645342251797
 30
0.0000000001479285
 40
0.00075
100
AcDbArc
 50
89.8050089056486
 51
132.8322405243988
  0
ARC
  5
244B
330
1F
100
AcDbEntity
  8
SANINDUSA
100
AcDbCircle
 10
5841.715869419001
 20
2054.646442272934
 30
0.0000000001479285
 40
0.00075
100
AcDbArc
 50
270.0
 51
312.8322405243988
  0
LINE
  5
244C
330
1F
100
AcDbEntity
  8
SANINDUSA
100
AcDbLine
 10
5841.715869419001
 20
2054.645692272934
 30
0.0000000001479285
 11
5841.715619419002
 21
2054.645692272934
 31
0.0000000001479285
  0
LINE
  5
244D
330
1F
100
AcDbEntity
  8
SANINDUSA
100
AcDbLine
 10
5841.720534673326
 20
2054.644256917596
 30
0.0000000001479285
 11
5841.719988048151
 21
2054.644803542772
 31
0.0000000001479285
  0
ARC
  5
244E
330
1F
100
AcDbEntity
  8
SANINDUSA
100
AcDbCircle
 10
5841.721100358751
 20
2054.643761942847
 30
0.0000000001479285
 40
0.0002
100
AcDbArc
 50
44.99999992630503
 51
134.9999999078813
  0
ARC
  5
244F
330
1F
100
AcDbEntity
  8
SANINDUSA
100
AcDbCircle
 10
5841.716876778314
 20
2054.641692272934
 30
0.0000000001479285
 40
0.005
100
AcDbArc
 50
45.0
 51
90.0
  0
ARC
  5
2450
330
1F
100
AcDbEntity
  8
SANINDUSA
100
AcDbCircle
 10
5841.716876778314
 20
2054.641692272934
 30
0.0000000001479285
 40
0.0044
100
AcDbArc
 50
45.0
 51
89.8050089056486
  0
ARC
  5
2451
330
1F
100
AcDbEntity
  8
SANINDUSA
100
AcDbCircle
 10
5841.719933632564
 20
2054.642170952598
 30
0.0000000001479285
 40
0.00075
100
AcDbArc
 50
135.0
 51
225.0000000184237
  0
ARC
  5
2452
330
1F
100
AcDbEntity
  8
SANINDUSA
100
AcDbCircle
 10
5841.719933632564
 20
2054.642170952598
 30
0.0000000001479285
 40
0.0005
100
AcDbArc
 50
135.0
 51
225.0000000184237
  0
ARC
  5
2453
330
1F
100
AcDbEntity
  8
SANINDUSA
100
AcDbCircle
 10
5841.720322541292
 20
2054.644044785561
 30
0.0000000001479285
 40
0.0003
100
AcDbArc
 50
314.9999998710338
 51
45.0
  0
LINE
  5
2454
330
1F
100
AcDbEntity
  8
SANINDUSA
100
AcDbLine
 10
5841.721171069431
 20
2054.644469049629
 30
0.0000000001479285
 11
5841.719403302477
 21
2054.642701282684
 31
0.0000000001479285
  0
LINE
  5
2455
330
1F
100
AcDbEntity
  8
SANINDUSA
100
AcDbLine
 10
5841.720958937395
 20
2054.643903364204
 30
0.0000000001479285
 11
5841.719580079173
 21
2054.642524505988
 31
0.0000000001479285
  0
ARC
  5
2456
330
1F
100
AcDbEntity
  8
SANINDUSA
100
AcDbCircle
 10
5841.725696552834
 20
2054.63867077402
 30
0.0000000001479285
 40
0.0003
100
AcDbArc
 50
45.0
 51
134.9999999815763
  0
ARC
  5
2457
330
1F
100
AcDbEntity
  8
SANINDUSA
100
AcDbCircle
 10
5841.725413710122
 20
2054.639448591466
 30
0.0000000001479285
 40
0.0002
100
AcDbArc
 50
314.9999997052201
 51
44.99999992630503
  0
LINE
  5
2458
330
1F
100
AcDbEntity
  8
SANINDUSA
100
AcDbLine
 10
5841.726109368495
 20
2054.638682222428
 30
0.0000000001479285
 11
5841.725908684868
 21
2054.638882906054
 31
0.0000000001479285
  0
LINE
  5
2459
330
1F
100
AcDbEntity
  8
SANINDUSA
100
AcDbLine
 10
5841.726533632563
 20
2054.639106486497
 30
0.0000000001479285
 11
5841.720412312219
 21
2054.64522780684
 31
0.0000000001479285
  0
LINE
  5
245A
330
1F
100
AcDbEntity
  8
SANINDUSA
100
AcDbLine
 10
5841.725555131477
 20
2054.639590012822
 30
0.0000000001479285
 11
5841.721241780107
 21
2054.643903364204
 31
0.0000000001479285
  0
ARC
  5
245B
330
1F
100
AcDbEntity
  8
SANINDUSA
100
AcDbCircle
 10
5841.715619419002
 20
2054.637692272934
 30
0.0000000001479285
 40
0.001
100
AcDbArc
 50
180.0
 51
270.0
  0
ARC
  5
245C
330
1F
100
AcDbEntity
  8
SANINDUSA
100
AcDbCircle
 10
5841.720639222904
 20
2054.637042272934
 30
0.0000000001479285
 40
0.00075
100
AcDbArc
 50
227.1665719349698
 51
270.0
  0
ARC
  5
245D
330
1F
100
AcDbEntity
  8
SANINDUSA
100
AcDbCircle
 10
5841.719619419001
 20
2054.635942272934
 30
0.0000000001479285
 40
0.00075
100
AcDbArc
 50
47.16657193496977
 51
90.0
  0
LINE
  5
245E
330
1F
100
AcDbEntity
  8
SANINDUSA
100
AcDbLine
 10
5841.715619419002
 20
2054.636692272934
 30
0.0000000001479285
 11
5841.719619419001
 21
2054.636692272934
 31
0.0000000001479285
  0
ARC
  5
245F
330
1F
100
AcDbEntity
  8
SANINDUSA
100
AcDbCircle
 10
5841.723822719866
 20
2054.638281865294
 30
0.0000000001479285
 40
0.00075
100
AcDbArc
 50
225.0
 51
315.0
  0
ARC
  5
2460
330
1F
100
AcDbEntity
  8
SANINDUSA
100
AcDbCircle
 10
5841.723822719866
 20
2054.638281865294
 30
0.0000000001479285
 40
0.0005
100
AcDbArc
 50
225.0
 51
315.0
  0
LINE
  5
2461
330
1F
100
AcDbEntity
  8
SANINDUSA
100
AcDbLine
 10
5841.714619419001
 20
2054.635692272934
 30
0.0000000001479285
 11
5841.725119419002
 21
2054.635692272934
 31
0.0000000001479285
  0
LINE
  5
2462
330
1F
100
AcDbEntity
  8
SANINDUSA
100
AcDbLine
 10
5841.720639222904
 20
2054.636292272934
 30
0.0000000001479285
 11
5841.725119419002
 21
2054.636292272934
 31
0.0000000001479285
  0
ARC
  5
2463
330
1F
100
AcDbEntity
  8
SANINDUSA
100
AcDbCircle
 10
5841.725119419002
 20
2054.637692272934
 30
0.0000000001479285
 40
0.002
100
AcDbArc
 50
270.0
 51
45.0
  0
LINE
  5
2464
330
1F
100
AcDbEntity
  8
SANINDUSA
100
AcDbLine
 10
5841.723292389779
 20
2054.637751535208
 30
0.0000000001479285
 11
5841.719403302477
 21
2054.641640622511
 31
0.0000000001479285
  0
ARC
  5
2465
330
1F
100
AcDbEntity
  8
SANINDUSA
100
AcDbCircle
 10
5841.725119419002
 20
2054.637692272934
 30
0.0000000001479285
 40
0.0014
100
AcDbArc
 50
270.0
 51
45.0
  0
LINE
  5
2466
330
1F
100
AcDbEntity
  8
SANINDUSA
100
AcDbLine
 10
5841.726120816903
 20
2054.639519302157
 30
0.0000000001479285
 11
5841.724353049952
 21
2054.637751535208
 31
0.0000000001479285
  0
LINE
  5
2467
330
1F
100
AcDbEntity
  8
SANINDUSA
100
AcDbLine
 10
5841.714619419001
 20
2054.644692272934
 30
0.0000000001479285
 11
5841.714619419001
 21
2054.637692272934
 31
0.0000000001479285
  0
HATCH
  5
2468
330
1F
100
AcDbEntity
  8
SANINDUSA
100
AcDbHatch
 10
0.0
 20
0.0
 30
0.0000000001479285
210
0.0
220
0.0
230
1.0
  2
ANSI31
 70
     0
 71
     0
 91
        1
 92
        5
 93
        8
 72
     1
 10
5841.719580079175
 20
2054.642524505989
 11
5841.720958937395
 21
2054.643903364204
 72
     3
 10
5841.721100358751
 20
2054.643761942847
 11
-0.0001414213562371
 21
0.0001414213562371
 40
1.0
 50
0.0000001129375338
 51
90.0000000749846
 73
     0
 72
     1
 10
5841.721241780107
 20
2054.643903364204
 11
5841.725555131478
 21
2054.639590012822
 72
     3
 10
5841.725413710122
 20
2054.639448591466
 11
-0.0001414213562373
 21
0.0001414213562373
 40
1.0
 50
90.00000007452401
 51
180.0000003175331
 73
     0
 72
     1
 10
5841.725555131477
 20
2054.639307170109
 11
5841.724176273253
 21
2054.637928311902
 72
     3
 10
5841.723822719866
 20
2054.638281865294
 11
-0.0003535533905931
 21
0.0003535533905931
 40
1.0
 50
180.0000003177358
 51
270.0000000130071
 73
     0
 72
     1
 10
5841.723469166475
 20
2054.637928311904
 11
5841.719580079173
 21
2054.641817399207
 72
     3
 10
5841.719933632564
 20
2054.642170952598
 11
0.0003535533905931
 21
0.0003535533905931
 40
0.9999999999999998
 50
180.0000000130071
 51
270.0000001128639
 73
     0
 97
        0
 75
     0
 76
     1
 52
45.0
 41
0.00025
 77
     0
 78
     1
 53
90.0
 43
5841.989233953642
 44
2054.245920371545
 45
0.00079375
 46
0.0
 79
     0
 47
0.0364805528584695
 98
        1
 10
5836.176429690648
 20
2052.427365987721
  0
LINE
  5
2469
330
1F
100
AcDbEntity
  8
SANINDUSA
100
AcDbLine
 10
5841.723469166475
 20
2054.637928311904
 30
0.0000000001479285
 11
5841.719580079173
 21
2054.641817399207
 31
0.0000000001479285
  0
LINE
  5
246A
330
1F
100
AcDbEntity
  8
SANINDUSA
100
AcDbLine
 10
5841.725555131477
 20
2054.639307170109
 30
0.0000000001479285
 11
5841.724176273256
 21
2054.637928311904
 31
0.0000000001479285
  0
LINE
  5
246B
330
1F
100
AcDbEntity
  8
SANINDUSA
100
AcDbLine
 10
5841.714619419001
 20
2054.646692272934
 30
0.0000000001479285
 11
5841.712077018172
 21
2054.646692272934
 31
0.0000000001479285
  0
LINE
  5
246C
330
1F
100
AcDbEntity
  8
SANINDUSA
100
AcDbLine
 10
5841.714619419001
 20
2054.635692272934
 30
0.0000000001479285
 11
5841.712077018172
 21
2054.635692272934
 31
0.0000000001479285
  0
LINE
  5
246D
330
1F
100
AcDbEntity
  8
SANINDUSA
100
AcDbLine
 10
5841.721268533711
 20
2054.664520700059
 30
0.0000000001479285
 11
5841.721747846126
 21
2054.664520700059
 31
0.0000000001479285
  0
LINE
  5
246E
330
1F
100
AcDbEntity
  8
SANINDUSA
100
AcDbLine
 10
5841.721317371117
 20
2054.662020700058
 30
0.0000000001479285
 11
5841.72171296251
 21
2054.661961476328
 31
0.0000000001479285
  0
ARC
  5
246F
330
1F
100
AcDbEntity
  8
SANINDUSA
100
AcDbCircle
 10
5841.721268533711
 20
2054.663720700059
 30
0.0000000001479285
 40
0.0008
100
AcDbArc
 50
90.0
 51
171.4855215760119
  0
ARC
  5
2470
330
1F
100
AcDbEntity
  8
SANINDUSA
100
AcDbCircle
 10
5841.722924604871
 20
2054.661274509962
 30
0.0000000001479285
 40
0.0002
100
AcDbArc
 50
261.4855215541017
 51
81.48552155410166
  0
LINE
  5
2471
330
1F
100
AcDbEntity
  8
SANINDUSA
100
AcDbLine
 10
5841.726851152582
 20
2054.664176282261
 30
0.0000000001479285
 11
5841.727182729742
 21
2054.661961476328
 31
0.0000000001479285
  0
ARC
  5
2472
330
1F
100
AcDbEntity
  8
SANINDUSA
100
AcDbCircle
 10
5841.725971087379
 20
2054.661274509962
 30
0.0000000001479285
 40
0.0002
100
AcDbArc
 50
98.51447844589834
 51
278.5144784458983
  0
LINE
  5
2473
330
1F
100
AcDbEntity
  8
SANINDUSA
100
AcDbLine
 10
5841.727578321133
 20
2054.662020700058
 30
0.0000000001479285
 11
5841.727182729742
 21
2054.661961476328
 31
0.0000000001479285
  0
ARC
  5
2474
330
1F
100
AcDbEntity
  8
SANINDUSA
100
AcDbCircle
 10
5841.727147846125
 20
2054.664220700059
 30
0.0000000001479285
 40
0.0003
100
AcDbArc
 50
90.0
 51
188.5144784239881
  0
ARC
  5
2475
330
1F
100
AcDbEntity
  8
SANINDUSA
100
AcDbCircle
 10
5841.721747846126
 20
2054.664220700059
 30
0.0000000001479285
 40
0.0003
100
AcDbArc
 50
351.4855215760119
 51
90.0
  0
LINE
  5
2476
330
1F
100
AcDbEntity
  8
SANINDUSA
100
AcDbLine
 10
5841.72204453967
 20
2054.664176282261
 30
0.0000000001479285
 11
5841.72171296251
 21
2054.661961476328
 31
0.0000000001479285
  0
LINE
  5
2477
330
1F
100
AcDbEntity
  8
SANINDUSA
100
AcDbLine
 10
5841.721213729588
 20
2054.661328415122
 30
0.0000000001479285
 11
5841.722894993006
 21
2054.661076714266
 31
0.0000000001479285
  0
LINE
  5
2478
330
1F
100
AcDbEntity
  8
SANINDUSA
100
AcDbLine
 10
5841.72127295332
 20
2054.661724006515
 30
0.0000000001479285
 11
5841.722954216737
 21
2054.661472305659
 31
0.0000000001479285
  0
LINE
  5
2479
330
1F
100
AcDbEntity
  8
SANINDUSA
100
AcDbLine
 10
5841.720895402035
 20
2054.659202111388
 30
0.0000000001479285
 11
5841.721290993428
 21
2054.659142887658
 31
0.0000000001479285
  0
ARC
  5
247A
330
1F
100
AcDbEntity
  8
SANINDUSA
100
AcDbCircle
 10
5841.720647846126
 20
2054.652820700059
 30
0.0000000001479285
 40
0.0003
100
AcDbArc
 50
171.4855215760119
 51
270.0
  0
ARC
  5
247B
330
1F
100
AcDbEntity
  8
SANINDUSA
100
AcDbCircle
 10
5841.719747846126
 20
2054.653563100888
 30
0.0000000001479285
 40
0.0008
100
AcDbArc
 50
171.4855215760119
 51
180.0
  0
LINE
  5
247C
330
1F
100
AcDbEntity
  8
SANINDUSA
100
AcDbLine
 10
5841.720524154044
 20
2054.654020700059
 30
0.0000000001479285
 11
5841.720351152581
 21
2054.652865117857
 31
0.0000000001479285
  0
LINE
  5
247D
330
1F
100
AcDbEntity
  8
SANINDUSA
100
AcDbLine
 10
5841.720524154044
 20
2054.654020700059
 30
0.0000000001479285
 11
5841.721347846125
 21
2054.654020700059
 31
0.0000000001479285
  0
LINE
  5
247E
330
1F
100
AcDbEntity
  8
SANINDUSA
100
AcDbLine
 10
5841.721347846125
 20
2054.654020700059
 30
0.0000000001479285
 11
5841.721347846125
 21
2054.655220700059
 31
0.0000000001479285
  0
LINE
  5
247F
330
1F
100
AcDbEntity
  8
SANINDUSA
100
AcDbLine
 10
5841.720703805266
 20
2054.655220700059
 30
0.0000000001479285
 11
5841.721347846125
 21
2054.655220700059
 31
0.0000000001479285
  0
LINE
  5
2480
330
1F
100
AcDbEntity
  8
SANINDUSA
100
AcDbLine
 10
5841.721290993428
 20
2054.659142887658
 30
0.0000000001479285
 11
5841.720703805266
 21
2054.655220700059
 31
0.0000000001479285
  0
LINE
  5
2481
330
1F
100
AcDbEntity
  8
SANINDUSA
100
AcDbLine
 10
5841.727547846125
 20
2054.654020700059
 30
0.0000000001479285
 11
5841.727547846125
 21
2054.655220700059
 31
0.0000000001479285
  0
LINE
  5
2482
330
1F
100
AcDbEntity
  8
SANINDUSA
100
AcDbLine
 10
5841.720477350927
 20
2054.663839147521
 30
0.0000000001479285
 11
5841.71895666334
 21
2054.65368154835
 31
0.0000000001479285
  0
LINE
  5
2483
330
1F
100
AcDbEntity
  8
SANINDUSA
100
AcDbLine
 10
5841.721317371117
 20
2054.662020700058
 30
0.0000000001479285
 11
5841.720895402035
 21
2054.659202111388
 31
0.0000000001479285
  0
ARC
  5
2484
330
1F
100
AcDbEntity
  8
SANINDUSA
100
AcDbCircle
 10
5841.72762715854
 20
2054.663720700059
 30
0.0000000001479285
 40
0.0008
100
AcDbArc
 50
8.514478423988105
 51
90.0
  0
LINE
  5
2485
330
1F
100
AcDbEntity
  8
SANINDUSA
100
AcDbLine
 10
5841.728000290216
 20
2054.659202111388
 30
0.0000000001479285
 11
5841.727604698824
 21
2054.659142887658
 31
0.0000000001479285
  0
ARC
  5
2486
330
1F
100
AcDbEntity
  8
SANINDUSA
100
AcDbCircle
 10
5841.728247846126
 20
2054.652820700059
 30
0.0000000001479285
 40
0.0003
100
AcDbArc
 50
270.0
 51
8.514478423988105
  0
ARC
  5
2487
330
1F
100
AcDbEntity
  8
SANINDUSA
100
AcDbCircle
 10
5841.729147846126
 20
2054.653563100888
 30
0.0000000001479285
 40
0.0008
100
AcDbArc
 50
0.0
 51
8.514478423988105
  0
LINE
  5
2488
330
1F
100
AcDbEntity
  8
SANINDUSA
100
AcDbLine
 10
5841.72854453967
 20
2054.652865117857
 30
0.0000000001479285
 11
5841.728371538208
 21
2054.654020700059
 31
0.0000000001479285
  0
LINE
  5
2489
330
1F
100
AcDbEntity
  8
SANINDUSA
100
AcDbLine
 10
5841.727604698824
 20
2054.659142887658
 30
0.0000000001479285
 11
5841.728191886986
 21
2054.655220700059
 31
0.0000000001479285
  0
LINE
  5
248A
330
1F
100
AcDbEntity
  8
SANINDUSA
100
AcDbLine
 10
5841.72993902891
 20
2054.65368154835
 30
0.0000000001479285
 11
5841.728418341325
 21
2054.663839147521
 31
0.0000000001479285
  0
LINE
  5
248B
330
1F
100
AcDbEntity
  8
SANINDUSA
100
AcDbLine
 10
5841.720647846126
 20
2054.652520700059
 30
0.0000000001479285
 11
5841.728247846126
 21
2054.652520700059
 31
0.0000000001479285
  0
LINE
  5
248C
330
1F
100
AcDbEntity
  8
SANINDUSA
100
AcDbLine
 10
5841.727147846125
 20
2054.664520700059
 30
0.0000000001479285
 11
5841.72762715854
 21
2054.664520700059
 31
0.0000000001479285
  0
LINE
  5
248D
330
1F
100
AcDbEntity
  8
SANINDUSA
100
AcDbLine
 10
5841.727547846125
 20
2054.655220700059
 30
0.0000000001479285
 11
5841.728191886986
 21
2054.655220700059
 31
0.0000000001479285
  0
LINE
  5
248E
330
1F
100
AcDbEntity
  8
SANINDUSA
100
AcDbLine
 10
5841.727547846125
 20
2054.654020700059
 30
0.0000000001479285
 11
5841.728371538208
 21
2054.654020700059
 31
0.0000000001479285
  0
LINE
  5
248F
330
1F
100
AcDbEntity
  8
SANINDUSA
100
AcDbLine
 10
5841.727578321133
 20
2054.662020700058
 30
0.0000000001479285
 11
5841.728000290216
 21
2054.659202111388
 31
0.0000000001479285
  0
LINE
  5
2490
330
1F
100
AcDbEntity
  8
SANINDUSA
100
AcDbLine
 10
5841.727622738932
 20
2054.661724006515
 30
0.0000000001479285
 11
5841.725941475514
 21
2054.661472305659
 31
0.0000000001479285
  0
LINE
  5
2491
330
1F
100
AcDbEntity
  8
SANINDUSA
100
AcDbLine
 10
5841.727681962663
 20
2054.661328415122
 30
0.0000000001479285
 11
5841.726000699246
 21
2054.661076714266
 31
0.0000000001479285
  0
LINE
  5
2492
330
1F
100
AcDbEntity
  8
SANINDUSA
100
AcDbLine
 10
5841.718947846126
 20
2054.651020700059
 30
0.0000000001479285
 11
5841.718947846126
 21
2054.648763340746
 31
0.0000000001479285
  0
ARC
  5
2493
330
1F
100
AcDbEntity
  8
SANINDUSA
100
AcDbCircle
 10
5841.720947846125
 20
2054.650020700059
 30
0.0000000001479285
 40
0.001
100
AcDbArc
 50
90.0
 51
180.0
  0
ARC
  5
2494
330
1F
100
AcDbEntity
  8
SANINDUSA
100
AcDbCircle
 10
5841.720297867263
 20
2054.648750918956
 30
0.0000000001479285
 40
0.00075
100
AcDbArc
 50
137.1677595124223
 51
180.1949910944401
  0
ARC
  5
2495
330
1F
100
AcDbEntity
  8
SANINDUSA
100
AcDbCircle
 10
5841.719197846126
 20
2054.649770700059
 30
0.0000000001479285
 40
0.00075
100
AcDbArc
 50
317.1677595124223
 51
0.0
  0
LINE
  5
2496
330
1F
100
AcDbEntity
  8
SANINDUSA
100
AcDbLine
 10
5841.719947846126
 20
2054.649770700059
 30
0.0000000001479285
 11
5841.719947846126
 21
2054.650020700059
 31
0.0000000001479285
  0
LINE
  5
2497
330
1F
100
AcDbEntity
  8
SANINDUSA
100
AcDbLine
 10
5841.721383201464
 20
2054.645105445734
 30
0.0000000001479285
 11
5841.720836576288
 21
2054.645652070909
 31
0.0000000001479285
  0
ARC
  5
2498
330
1F
100
AcDbEntity
  8
SANINDUSA
100
AcDbCircle
 10
5841.721878176212
 20
2054.644539760309
 30
0.0000000001479285
 40
0.0002
100
AcDbArc
 50
135.0000000921187
 51
225.000000073695
  0
ARC
  5
2499
330
1F
100
AcDbEntity
  8
SANINDUSA
100
AcDbCircle
 10
5841.723947846126
 20
2054.648763340746
 30
0.0000000001479285
 40
0.005
100
AcDbArc
 50
180.0
 51
225.0
  0
ARC
  5
249A
330
1F
100
AcDbEntity
  8
SANINDUSA
100
AcDbCircle
 10
5841.723947846126
 20
2054.648763340746
 30
0.0000000001479285
 40
0.0044
100
AcDbArc
 50
180.1949910944401
 51
225.0
  0
ARC
  5
249B
330
1F
100
AcDbEntity
  8
SANINDUSA
100
AcDbCircle
 10
5841.723469166463
 20
2054.645706486496
 30
0.0000000001479285
 40
0.00075
100
AcDbArc
 50
44.99999998157625
 51
135.0
  0
ARC
  5
249C
330
1F
100
AcDbEntity
  8
SANINDUSA
100
AcDbCircle
 10
5841.723469166463
 20
2054.645706486496
 30
0.0000000001479285
 40
0.0005
100
AcDbArc
 50
44.99999998157625
 51
135.0
  0
ARC
  5
249D
330
1F
100
AcDbEntity
  8
SANINDUSA
100
AcDbCircle
 10
5841.721595333499
 20
2054.645317577768
 30
0.0000000001479285
 40
0.0003
100
AcDbArc
 50
225.0
 51
315.0000001289662
  0
LINE
  5
249E
330
1F
100
AcDbEntity
  8
SANINDUSA
100
AcDbLine
 10
5841.721171069431
 20
2054.644469049629
 30
0.0000000001479285
 11
5841.722938836376
 21
2054.646236816581
 31
0.0000000001479285
  0
LINE
  5
249F
330
1F
100
AcDbEntity
  8
SANINDUSA
100
AcDbLine
 10
5841.721736754855
 20
2054.644681181665
 30
0.0000000001479285
 11
5841.723115613072
 21
2054.646060039886
 31
0.0000000001479285
  0
ARC
  5
24A0
330
1F
100
AcDbEntity
  8
SANINDUSA
100
AcDbCircle
 10
5841.72696934504
 20
2054.639943566226
 30
0.0000000001479285
 40
0.0003
100
AcDbArc
 50
135.0000000184237
 51
225.0
  0
ARC
  5
24A1
330
1F
100
AcDbEntity
  8
SANINDUSA
100
AcDbCircle
 10
5841.726191527595
 20
2054.640226408938
 30
0.0000000001479285
 40
0.0002
100
AcDbArc
 50
225.000000073695
 51
315.0000002947799
  0
LINE
  5
24A2
330
1F
100
AcDbEntity
  8
SANINDUSA
100
AcDbLine
 10
5841.726957896632
 20
2054.639530750566
 30
0.0000000001479285
 11
5841.726757213005
 21
2054.639731434192
 31
0.0000000001479285
  0
LINE
  5
24A3
330
1F
100
AcDbEntity
  8
SANINDUSA
100
AcDbLine
 10
5841.726533632563
 20
2054.639106486497
 30
0.0000000001479285
 11
5841.720412312219
 21
2054.64522780684
 31
0.0000000001479285
  0
LINE
  5
24A4
330
1F
100
AcDbEntity
  8
SANINDUSA
100
AcDbLine
 10
5841.726050106237
 20
2054.640084987582
 30
0.0000000001479285
 11
5841.721736754855
 21
2054.644398338952
 31
0.0000000001479285
  0
ARC
  5
24A5
330
1F
100
AcDbEntity
  8
SANINDUSA
100
AcDbCircle
 10
5841.727947846126
 20
2054.650020700059
 30
0.0000000001479285
 40
0.001
100
AcDbArc
 50
0.0
 51
90.0
  0
ARC
  5
24A6
330
1F
100
AcDbEntity
  8
SANINDUSA
100
AcDbCircle
 10
5841.728597846126
 20
2054.645000896156
 30
0.0000000001479285
 40
0.00075
100
AcDbArc
 50
0.0
 51
42.83342806503022
  0
ARC
  5
24A7
330
1F
100
AcDbEntity
  8
SANINDUSA
100
AcDbCircle
 10
5841.729697846125
 20
2054.646020700059
 30
0.0000000001479285
 40
0.00075
100
AcDbArc
 50
180.0
 51
222.8334280650302
  0
LINE
  5
24A8
330
1F
100
AcDbEntity
  8
SANINDUSA
100
AcDbLine
 10
5841.728947846125
 20
2054.650020700059
 30
0.0000000001479285
 11
5841.728947846125
 21
2054.646020700059
 31
0.0000000001479285
  0
ARC
  5
24A9
330
1F
100
AcDbEntity
  8
SANINDUSA
100
AcDbCircle
 10
5841.727358253765
 20
2054.641817399194
 30
0.0000000001479285
 40
0.00075
100
AcDbArc
 50
315.0
 51
45.0
  0
ARC
  5
24AA
330
1F
100
AcDbEntity
  8
SANINDUSA
100
AcDbCircle
 10
5841.727358253765
 20
2054.641817399194
 30
0.0000000001479285
 40
0.0005
100
AcDbArc
 50
315.0
 51
45.0
  0
LINE
  5
24AB
330
1F
100
AcDbEntity
  8
SANINDUSA
100
AcDbLine
 10
5841.729947846125
 20
2054.651020700059
 30
0.0000000001479285
 11
5841.729947846125
 21
2054.640520700059
 31
0.0000000001479285
  0
LINE
  5
24AC
330
1F
100
AcDbEntity
  8
SANINDUSA
100
AcDbLine
 10
5841.729347846126
 20
2054.645000896156
 30
0.0000000001479285
 11
5841.729347846126
 21
2054.640520700059
 31
0.0000000001479285
  0
ARC
  5
24AD
330
1F
100
AcDbEntity
  8
SANINDUSA
100
AcDbCircle
 10
5841.727947846126
 20
2054.640520700059
 30
0.0000000001479285
 40
0.002
100
AcDbArc
 50
225.0
 51
0.0
  0
LINE
  5
24AE
330
1F
100
AcDbEntity
  8
SANINDUSA
100
AcDbLine
 10
5841.727888583851
 20
2054.64234772928
 30
0.0000000001479285
 11
5841.723999496548
 21
2054.646236816582
 31
0.0000000001479285
  0
ARC
  5
24AF
330
1F
100
AcDbEntity
  8
SANINDUSA
100
AcDbCircle
 10
5841.727947846126
 20
2054.640520700059
 30
0.0000000001479285
 40
0.0014
100
AcDbArc
 50
225.0
 51
0.0
  0
LINE
  5
24B0
330
1F
100
AcDbEntity
  8
SANINDUSA
100
AcDbLine
 10
5841.726120816903
 20
2054.639519302157
 30
0.0000000001479285
 11
5841.727888583851
 21
2054.641287069108
 31
0.0000000001479285
  0
LINE
  5
24B1
330
1F
100
AcDbEntity
  8
SANINDUSA
100
AcDbLine
 10
5841.720947846125
 20
2054.651020700059
 30
0.0000000001479285
 11
5841.727947846126
 21
2054.651020700059
 31
0.0000000001479285
  0
HATCH
  5
24B2
330
1F
100
AcDbEntity
  8
SANINDUSA
100
AcDbHatch
 10
0.0
 20
0.0
 30
0.0000000001479285
210
0.0
220
0.0
230
1.0
  2
ANSI31
 70
     0
 71
     0
 91
        1
 92
        7
 72
     1
 73
     1
 93
        8
 10
5841.723115613071
 20
2054.646060039885
 42
0.0
 10
5841.721736754855
 20
2054.644681181665
 42
0.414213562178905
 10
5841.721736754855
 20
2054.644398338952
 42
0.0
 10
5841.726050106237
 20
2054.640084987582
 42
0.4142135636146872
 10
5841.726332948951
 20
2054.640084987583
 42
0.0
 10
5841.727711807158
 20
2054.641463845806
 42
0.4142135608152901
 10
5841.727711807155
 20
2054.642170952585
 42
0.0
 10
5841.723822719853
 20
2054.646060039886
 42
0.4142135628833784
 97
        0
 75
     0
 76
     1
 52
135.0
 41
0.00025
 77
     0
 78
     1
 53
180.0
 43
5842.119719747515
 44
2054.376406165418
 45
0.0
 46
-0.00079375
 79
     0
 47
0.0364805528584695
 98
        1
 10
5841.723594609753
 20
2054.645121222321
  0
LINE
  5
24B3
330
1F
100
AcDbEntity
  8
SANINDUSA
100
AcDbLine
 10
5841.727711807155
 20
2054.642170952585
 30
0.0000000001479285
 11
5841.723822719853
 21
2054.646060039886
 31
0.0000000001479285
  0
LINE
  5
24B4
330
1F
100
AcDbEntity
  8
SANINDUSA
100
AcDbLine
 10
5841.726332948951
 20
2054.640084987583
 30
0.0000000001479285
 11
5841.727711807155
 21
2054.641463845804
 31
0.0000000001479285
  0
LINE
  5
24B5
330
1F
100
AcDbEntity
  8
SANINDUSA
100
AcDbLine
 10
5841.718947846126
 20
2054.651020700059
 30
0.0000000001479285
 11
5841.718947846126
 21
2054.653563100888
 31
0.0000000001479285
  0
LINE
  5
24B6
330
1F
100
AcDbEntity
  8
SANINDUSA
100
AcDbLine
 10
5841.729947846125
 20
2054.651020700059
 30
0.0000000001479285
 11
5841.729947846125
 21
2054.653563100888
 31
0.0000000001479285
  0
LINE
  5
24B7
330
1F
100
AcDbEntity
  8
SANINDUSA
100
AcDbLine
 10
5841.720447849935
 20
2055.26777234102
 30
-0.0000000000076263
 11
5841.720447849935
 21
2055.27046095417
 31
-0.0000000000076263
  0
ARC
  5
24B8
330
1F
100
AcDbEntity
  8
SANINDUSA
100
AcDbCircle
 10
5841.720947849935
 20
2055.27046095417
 30
-0.0000000000076263
 40
0.0005
100
AcDbArc
 50
109.471220638017
 51
180.0
  0
ARC
  5
24B9
330
1F
100
AcDbEntity
  8
SANINDUSA
100
AcDbCircle
 10
5841.720947849935
 20
2055.26777234102
 30
-0.0000000000076263
 40
0.0005000000000001
100
AcDbArc
 50
180.0
 51
246.421821530124
  0
ARC
  5
24BA
330
1F
100
AcDbEntity
  8
SANINDUSA
100
AcDbCircle
 10
5841.720447849935
 20
2055.271875167733
 30
-0.0000000000076263
 40
0.001
100
AcDbArc
 50
289.471220638017
 51
70.52877936198294
  0
ARC
  5
24BB
330
1F
100
AcDbEntity
  8
SANINDUSA
100
AcDbCircle
 10
5841.720347849935
 20
2055.266397568312
 30
-0.0000000000076263
 40
0.0009999999999999
100
AcDbArc
 50
270.0
 51
66.42182153012396
  0
ARC
  5
24BC
330
1F
100
AcDbEntity
  8
SANINDUSA
100
AcDbCircle
 10
5841.720947849935
 20
2055.273289381295
 30
-0.0000000000076263
 40
0.0004999999999999
100
AcDbArc
 50
180.0
 51
250.528779361983
  0
LINE
  5
24BD
330
1F
100
AcDbEntity
  8
SANINDUSA
100
AcDbLine
 10
5841.720347849935
 20
2055.265397568311
 30
-0.0000000000076263
 11
5841.719447849936
 21
2055.265397568311
 31
-0.0000000000076263
  0
LINE
  5
24BE
330
1F
100
AcDbEntity
  8
SANINDUSA
100
AcDbLine
 10
5841.720447849935
 20
2055.273289381295
 30
-0.0000000000076263
 11
5841.720447849935
 21
2055.274875544552
 31
-0.0000000000076263
  0
ARC
  5
24BF
330
1F
100
AcDbEntity
  8
SANINDUSA
100
AcDbCircle
 10
5841.719447849936
 20
2055.266397568312
 30
-0.0000000000076263
 40
0.0009999999999999
100
AcDbArc
 50
180.0
 51
270.0
  0
ARC
  5
24C0
330
1F
100
AcDbEntity
  8
SANINDUSA
100
AcDbCircle
 10
5841.720947849935
 20
2055.274875544552
 30
-0.0000000000076263
 40
0.0005
100
AcDbArc
 50
90.0
 51
180.0
  0
LINE
  5
24C1
330
1F
100
AcDbEntity
  8
SANINDUSA
100
AcDbLine
 10
5841.718447849935
 20
2055.266397568312
 30
-0.0000000000076263
 11
5841.718447849935
 21
2055.297897568312
 31
-0.0000000000076263
  0
LINE
  5
24C2
330
1F
100
AcDbEntity
  8
SANINDUSA
100
AcDbLine
 10
5841.720947849935
 20
2055.275375544552
 30
-0.0000000000076263
 11
5841.727947849935
 21
2055.275375544552
 31
-0.0000000000076263
  0
ARC
  5
24C3
330
1F
100
AcDbEntity
  8
SANINDUSA
100
AcDbCircle
 10
5841.719447849936
 20
2055.297897568312
 30
-0.0000000000076263
 40
0.001
100
AcDbArc
 50
0.0
 51
180.0
  0
ARC
  5
24C4
330
1F
100
AcDbEntity
  8
SANINDUSA
100
AcDbCircle
 10
5841.727947849935
 20
2055.274875544552
 30
-0.0000000000076263
 40
0.0005
100
AcDbArc
 50
0.0
 51
90.0
  0
LINE
  5
24C5
330
1F
100
AcDbEntity
  8
SANINDUSA
100
AcDbLine
 10
5841.720447849935
 20
2055.297897568312
 30
-0.0000000000076263
 11
5841.720447849935
 21
2055.277875544552
 31
-0.0000000000076263
  0
LINE
  5
24C6
330
1F
100
AcDbEntity
  8
SANINDUSA
100
AcDbLine
 10
5841.728447849935
 20
2055.274875544552
 30
-0.0000000000076263
 11
5841.728447849935
 21
2055.273289381295
 31
-0.0000000000076263
  0
ARC
  5
24C7
330
1F
100
AcDbEntity
  8
SANINDUSA
100
AcDbCircle
 10
5841.720947849935
 20
2055.277875544552
 30
-0.0000000000076263
 40
0.0005000000000001
100
AcDbArc
 50
180.0
 51
270.0
  0
ARC
  5
24C8
330
1F
100
AcDbEntity
  8
SANINDUSA
100
AcDbCircle
 10
5841.727947849935
 20
2055.273289381295
 30
-0.0000000000076263
 40
0.0005
100
AcDbArc
 50
289.471220638017
 51
0.0
  0
LINE
  5
24C9
330
1F
100
AcDbEntity
  8
SANINDUSA
100
AcDbLine
 10
5841.720947849935
 20
2055.277375544552
 30
-0.0000000000076263
 11
5841.727947849935
 21
2055.277375544552
 31
-0.0000000000076263
  0
ARC
  5
24CA
330
1F
100
AcDbEntity
  8
SANINDUSA
100
AcDbCircle
 10
5841.728447849935
 20
2055.271875167733
 30
-0.0000000000076263
 40
0.001
100
AcDbArc
 50
109.471220638017
 51
250.528779361983
  0
ARC
  5
24CB
330
1F
100
AcDbEntity
  8
SANINDUSA
100
AcDbCircle
 10
5841.727947849935
 20
2055.277875544552
 30
-0.0000000000076263
 40
0.0005000000000001
100
AcDbArc
 50
270.0
 51
0.0
  0
ARC
  5
24CC
330
1F
100
AcDbEntity
  8
SANINDUSA
100
AcDbCircle
 10
5841.727947849935
 20
2055.27046095417
 30
-0.0000000000076263
 40
0.0005
100
AcDbArc
 50
0.0
 51
70.52877936198294
  0
LINE
  5
24CD
330
1F
100
AcDbEntity
  8
SANINDUSA
100
AcDbLine
 10
5841.728447849935
 20
2055.277875544552
 30
-0.0000000000076263
 11
5841.728447849935
 21
2055.297897568312
 31
-0.0000000000076263
  0
LINE
  5
24CE
330
1F
100
AcDbEntity
  8
SANINDUSA
100
AcDbLine
 10
5841.728447849935
 20
2055.27046095417
 30
-0.0000000000076263
 11
5841.728447849935
 21
2055.26777234102
 31
-0.0000000000076263
  0
ARC
  5
24CF
330
1F
100
AcDbEntity
  8
SANINDUSA
100
AcDbCircle
 10
5841.729447849935
 20
2055.297897568312
 30
-0.0000000000076263
 40
0.001
100
AcDbArc
 50
0.0
 51
180.0
  0
ARC
  5
24D0
330
1F
100
AcDbEntity
  8
SANINDUSA
100
AcDbCircle
 10
5841.727947849935
 20
2055.26777234102
 30
-0.0000000000076263
 40
0.0005000000000001
100
AcDbArc
 50
293.5781784698761
 51
0.0
  0
LINE
  5
24D1
330
1F
100
AcDbEntity
  8
SANINDUSA
100
AcDbLine
 10
5841.730447849935
 20
2055.297897568312
 30
-0.0000000000076263
 11
5841.730447849935
 21
2055.266397568312
 31
-0.0000000000076263
  0
ARC
  5
24D2
330
1F
100
AcDbEntity
  8
SANINDUSA
100
AcDbCircle
 10
5841.728547849935
 20
2055.266397568312
 30
-0.0000000000076263
 40
0.0009999999999999
100
AcDbArc
 50
113.578178469876
 51
270.0
  0
ARC
  5
24D3
330
1F
100
AcDbEntity
  8
SANINDUSA
100
AcDbCircle
 10
5841.729447849935
 20
2055.266397568312
 30
-0.0000000000076263
 40
0.0010000000000001
100
AcDbArc
 50
270.0
 51
0.0
  0
LINE
  5
24D4
330
1F
100
AcDbEntity
  8
SANINDUSA
100
AcDbLine
 10
5841.729447849935
 20
2055.265397568311
 30
-0.0000000000076263
 11
5841.728547849935
 21
2055.265397568311
 31
-0.0000000000076263
  0
ARC
  5
24D5
330
1F
100
AcDbEntity
  8
SANINDUSA
100
AcDbCircle
 10
5841.716747849935
 20
2055.316397568312
 30
-0.0000000000076263
 40
0.0009999999999999
100
AcDbArc
 50
90.0
 51
180.0
  0
LINE
  5
24D6
330
1F
100
AcDbEntity
  8
SANINDUSA
100
AcDbLine
 10
5841.715747849935
 20
2055.316397568312
 30
-0.0000000000076263
 11
5841.715747849935
 21
2055.28137426418
 31
-0.0000000000076263
  0
LINE
  5
24D7
330
1F
100
AcDbEntity
  8
SANINDUSA
100
AcDbLine
 10
5841.717733636373
 20
2055.317397568312
 30
-0.0000000000076263
 11
5841.716747849935
 21
2055.317397568312
 31
-0.0000000000076263
  0
ARC
  5
24D8
330
1F
100
AcDbEntity
  8
SANINDUSA
100
AcDbCircle
 10
5841.716747849935
 20
2055.28137426418
 30
-0.0000000000076263
 40
0.001
100
AcDbArc
 50
180.0
 51
0.0
  0
ARC
  5
24D9
330
1F
100
AcDbEntity
  8
SANINDUSA
100
AcDbCircle
 10
5841.717733636373
 20
2055.316397568312
 30
-0.0000000000076263
 40
0.0010000000000003
100
AcDbArc
 50
45.0
 51
90.0
  0
LINE
  5
24DA
330
1F
100
AcDbEntity
  8
SANINDUSA
100
AcDbLine
 10
5841.717747849935
 20
2055.28137426418
 30
-0.0000000000076263
 11
5841.717747849935
 21
2055.312897568311
 31
-0.0000000000076263
  0
LINE
  5
24DB
330
1F
100
AcDbEntity
  8
SANINDUSA
100
AcDbLine
 10
5841.719354956716
 20
2055.31619046153
 30
-0.0000000000076263
 11
5841.718440743154
 21
2055.317104675093
 31
-0.0000000000076263
  0
ARC
  5
24DC
330
1F
100
AcDbEntity
  8
SANINDUSA
100
AcDbCircle
 10
5841.718747849935
 20
2055.312897568311
 30
-0.0000000000076263
 40
0.001
100
AcDbArc
 50
90.0
 51
180.0
  0
ARC
  5
24DD
330
1F
100
AcDbEntity
  8
SANINDUSA
100
AcDbCircle
 10
5841.720062063497
 20
2055.316897568312
 30
-0.0000000000076263
 40
0.0010000000000003
100
AcDbArc
 50
225.0
 51
270.0
  0
LINE
  5
24DE
330
1F
100
AcDbEntity
  8
SANINDUSA
100
AcDbLine
 10
5841.718747849935
 20
2055.313897568312
 30
-0.0000000000076263
 11
5841.736607036212
 21
2055.313897568312
 31
-0.0000000000076263
  0
LINE
  5
24DF
330
1F
100
AcDbEntity
  8
SANINDUSA
100
AcDbLine
 10
5841.723437189763
 20
2055.315897568312
 30
-0.0000000000076263
 11
5841.720062063497
 21
2055.315897568312
 31
-0.0000000000076263
  0
ARC
  5
24E0
330
1F
100
AcDbEntity
  8
SANINDUSA
100
AcDbCircle
 10
5841.736607036212
 20
2055.312897568311
 30
-0.0000000000076263
 40
0.001
100
AcDbArc
 50
357.8505420588375
 51
90.0
  0
ARC
  5
24E1
330
1F
100
AcDbEntity
  8
SANINDUSA
100
AcDbCircle
 10
5841.723437189763
 20
2055.315647568312
 30
-0.0000000000076263
 40
0.0002500000000003
100
AcDbArc
 50
45.0
 51
90.0
  0
ARC
  5
24E2
330
1F
100
AcDbEntity
  8
SANINDUSA
100
AcDbCircle
 10
5841.640954290291
 20
2055.31648767675
 30
-0.0000000000076263
 40
0.0967200954923435
100
AcDbArc
 50
344.4398303544263
 51
357.8505420588375
  0
LINE
  5
24E3
330
1F
100
AcDbEntity
  8
SANINDUSA
100
AcDbLine
 10
5841.724094296544
 20
2055.315344014921
 30
-0.0000000000076263
 11
5841.723613966458
 21
2055.315824345007
 31
-0.0000000000076263
  0
ARC
  5
24E4
330
1F
100
AcDbEntity
  8
SANINDUSA
100
AcDbCircle
 10
5841.733647849935
 20
2055.290676617552
 30
-0.0000000000076263
 40
0.0005
100
AcDbArc
 50
180.0
 51
344.4398303544263
  0
ARC
  5
24E5
330
1F
100
AcDbEntity
  8
SANINDUSA
100
AcDbCircle
 10
5841.724447849935
 20
2055.315697568312
 30
-0.0000000000076263
 40
0.0005
100
AcDbArc
 50
225.0
 51
315.0
  0
LINE
  5
24E6
330
1F
100
AcDbEntity
  8
SANINDUSA
100
AcDbLine
 10
5841.733147849936
 20
2055.290676617552
 30
-0.0000000000076263
 11
5841.733147849936
 21
2055.30337426418
 31
-0.0000000000076263
  0
LINE
  5
24E7
330
1F
100
AcDbEntity
  8
SANINDUSA
100
AcDbLine
 10
5841.725281733412
 20
2055.315824345007
 30
-0.0000000000076263
 11
5841.724801403326
 21
2055.315344014921
 31
-0.0000000000076263
  0
ARC
  5
24E8
330
1F
100
AcDbEntity
  8
SANINDUSA
100
AcDbCircle
 10
5841.732147849935
 20
2055.30337426418
 30
-0.0000000000076263
 40
0.001
100
AcDbArc
 50
0.0
 51
180.0
  0
ARC
  5
24E9
330
1F
100
AcDbEntity
  8
SANINDUSA
100
AcDbCircle
 10
5841.725458510108
 20
2055.315647568312
 30
-0.0000000000076263
 40
0.00025
100
AcDbArc
 50
90.0
 51
135.0
  0
LINE
  5
24EA
330
1F
100
AcDbEntity
  8
SANINDUSA
100
AcDbLine
 10
5841.731147849935
 20
2055.30337426418
 30
-0.0000000000076263
 11
5841.731147849935
 21
2055.28137426418
 31
-0.0000000000076263
  0
LINE
  5
24EB
330
1F
100
AcDbEntity
  8
SANINDUSA
100
AcDbLine
 10
5841.735647873597
 20
2055.315897568312
 30
-0.0000000000076263
 11
5841.725458510108
 21
2055.315897568312
 31
-0.0000000000076263
  0
ARC
  5
24EC
330
1F
100
AcDbEntity
  8
SANINDUSA
100
AcDbCircle
 10
5841.732147849935
 20
2055.28137426418
 30
-0.0000000000076263
 40
0.001
100
AcDbArc
 50
180.0
 51
338.9411647436474
  0
ARC
  5
24ED
330
1F
100
AcDbEntity
  8
SANINDUSA
100
AcDbCircle
 10
5841.735647873597
 20
2055.316897568312
 30
-0.0000000000076263
 40
0.0010000000000003
100
AcDbArc
 50
270.0
 51
315.0893040525983
  0
ARC
  5
24EE
330
1F
100
AcDbEntity
  8
SANINDUSA
100
AcDbCircle
 10
5841.640954290291
 20
2055.31648767675
 30
-0.0000000000076263
 40
0.0987200954923432
100
AcDbArc
 50
338.9411647436474
 51
359.9477633915617
  0
LINE
  5
24EF
330
1F
100
AcDbEntity
  8
SANINDUSA
100
AcDbLine
 10
5841.737259699513
 20
2055.317098003632
 30
-0.0000000000076263
 11
5841.73635608165
 21
2055.316191564521
 31
-0.0000000000076263
  0
ARC
  5
24F0
330
1F
100
AcDbEntity
  8
SANINDUSA
100
AcDbCircle
 10
5841.73867434517
 20
2055.316398585293
 30
-0.0000000000076263
 40
0.001
100
AcDbArc
 50
359.9477633915617
 51
90.53409911730668
  0
ARC
  5
24F1
330
1F
100
AcDbEntity
  8
SANINDUSA
100
AcDbCircle
 10
5841.737967907568
 20
2055.316391999841
 30
-0.0000000000076263
 40
0.0010000000000003
100
AcDbArc
 50
90.53409911730668
 51
135.0893040525983
  0
LINE
  5
24F2
330
1F
100
AcDbEntity
  8
SANINDUSA
100
AcDbLine
 10
5841.738665023516
 20
2055.317398541846
 30
-0.0000000000076263
 11
5841.737958585914
 21
2055.317391956393
 31
-0.0000000000076263
  0
LINE
  5
24F3
330
1F
100
AcDbEntity
  8
SANINDUSA
100
AcDbLine
 10
5841.73967434517
 20
2055.319747568312
 30
-0.0000000000076263
 11
5841.715747849935
 21
2055.319747568312
 31
-0.0000000000076263
  0
LINE
  5
24F4
330
1F
100
AcDbEntity
  8
SANINDUSA
100
AcDbLine
 10
5841.715747849935
 20
2055.318747568312
 30
-0.0000000000076263
 11
5841.715747849935
 21
2055.319747568312
 31
-0.0000000000076263
  0
LINE
  5
24F5
330
1F
100
AcDbEntity
  8
SANINDUSA
100
AcDbLine
 10
5841.73967434517
 20
2055.319747568312
 30
-0.0000000000076263
 11
5841.73967434517
 21
2055.318748687399
 31
-0.0000000000076263
  0
ARC
  5
24F6
330
1F
100
AcDbEntity
  8
SANINDUSA
100
AcDbCircle
 10
5841.716747849935
 20
2055.318747568312
 30
-0.0000000000076263
 40
0.0009999999999999
100
AcDbArc
 50
180.0
 51
270.0
  0
ARC
  5
24F7
330
1F
100
AcDbEntity
  8
SANINDUSA
100
AcDbCircle
 10
5841.73867434517
 20
2055.318748687399
 30
-0.0000000000076263
 40
0.0009999999999999
100
AcDbArc
 50
270.5340991173066
 51
0.0
  0
LINE
  5
24F8
330
1F
100
AcDbEntity
  8
SANINDUSA
100
AcDbLine
 10
5841.717733636373
 20
2055.317747568312
 30
-0.0000000000076263
 11
5841.716747849935
 21
2055.317747568312
 31
-0.0000000000076263
  0
LINE
  5
24F9
330
1F
100
AcDbEntity
  8
SANINDUSA
100
AcDbLine
 10
5841.738683666823
 20
2055.317748730847
 30
-0.0000000000076263
 11
5841.737955323336
 21
2055.317741941186
 31
-0.0000000000076263
  0
ARC
  5
24FA
330
1F
100
AcDbEntity
  8
SANINDUSA
100
AcDbCircle
 10
5841.717733636373
 20
2055.316397568312
 30
-0.0000000000076263
 40
0.0013499999999998
100
AcDbArc
 50
45.0
 51
90.0
  0
ARC
  5
24FB
330
1F
100
AcDbEntity
  8
SANINDUSA
100
AcDbCircle
 10
5841.737967907568
 20
2055.316391999841
 30
-0.0000000000076263
 40
0.00135
100
AcDbArc
 50
90.53409911730668
 51
135.0893040525983
  0
LINE
  5
24FC
330
1F
100
AcDbEntity
  8
SANINDUSA
100
AcDbLine
 10
5841.71960244409
 20
2055.316437948904
 30
-0.0000000000076263
 11
5841.718688230528
 21
2055.317352162466
 31
-0.0000000000076263
  0
LINE
  5
24FD
330
1F
100
AcDbEntity
  8
SANINDUSA
100
AcDbLine
 10
5841.737011826695
 20
2055.317345104958
 30
-0.0000000000076263
 11
5841.736108208832
 21
2055.316438665848
 31
-0.0000000000076263
  0
ARC
  5
24FE
330
1F
100
AcDbEntity
  8
SANINDUSA
100
AcDbCircle
 10
5841.720062063497
 20
2055.316897568312
 30
-0.0000000000076263
 40
0.0006500000000003
100
AcDbArc
 50
225.0
 51
270.0
  0
ARC
  5
24FF
330
1F
100
AcDbEntity
  8
SANINDUSA
100
AcDbCircle
 10
5841.735647873597
 20
2055.316897568312
 30
-0.0000000000076263
 40
0.0006500000000003
100
AcDbArc
 50
270.0
 51
315.0893040525983
  0
LINE
  5
2500
330
1F
100
AcDbEntity
  8
SANINDUSA
100
AcDbLine
 10
5841.735647873597
 20
2055.316247568311
 30
-0.0000000000076263
 11
5841.720062063497
 21
2055.316247568311
 31
-0.0000000000076263
  0
ENDSEC
  0
SECTION
  2
OBJECTS
  0
DICTIONARY
  5
C
330
0
100
AcDbDictionary
281
     1
  3
ACAD_2007HEADERVARS_RT
350
26EE
  3
ACAD_COLOR
350
EE6
  3
ACAD_GROUP
350
D
  3
ACAD_LAYOUT
350
1A
  3
ACAD_MATERIAL
350
EE5
  3
ACAD_MLEADERSTYLE
350
266D
  3
ACAD_MLINESTYLE
350
17
  3
ACAD_PLOTSETTINGS
350
19
  3
ACAD_PLOTSTYLENAME
350
E
  3
ACAD_SCALELIST
350
265B
  3
ACAD_TABLESTYLE
350
EE7
  3
ACAD_VISUALSTYLE
350
2647
  3
ACDB_RECOMPOSE_DATA
350
26EC
  3
AcDbVariableDictionary
350
3D
  3
ASE_INDEX_DICTIONARY
350
E77
  3
DWGPROPS
350
26ED
  0
DICTIONARY
  5
1051
330
2
100
AcDbDictionary
280
     1
281
     1
  3
ACAD_LAYERFILTERS
360
1057
  3
ACLYDICTIONARY
360
1056
  0
DICTIONARY
  5
2685
330
10
100
AcDbDictionary
280
     1
281
     1
  3
ADSK_XREC_LAYER_RECONCILED
360
2686
  0
DICTIONARY
  5
2687
330
2F
100
AcDbDictionary
280
     1
281
     1
  3
ADSK_XREC_LAYER_RECONCILED
360
2688
  0
DICTIONARY
  5
2689
330
30
100
AcDbDictionary
280
     1
281
     1
  3
ADSK_XREC_LAYER_RECONCILED
360
268A
  0
DICTIONARY
  5
268B
330
31
100
AcDbDictionary
280
     1
281
     1
  3
ADSK_XREC_LAYER_RECONCILED
360
268C
  0
DICTIONARY
  5
268D
330
32
100
AcDbDictionary
280
     1
281
     1
  3
ADSK_XREC_LAYER_RECONCILED
360
268E
  0
DICTIONARY
  5
268F
330
33
100
AcDbDictionary
280
     1
281
     1
  3
ADSK_XREC_LAYER_RECONCILED
360
2690
  0
DICTIONARY
  5
2691
330
34
100
AcDbDictionary
280
     1
281
     1
  3
ADSK_XREC_LAYER_RECONCILED
360
2692
  0
DICTIONARY
  5
2693
330
35
100
AcDbDictionary
280
     1
281
     1
  3
ADSK_XREC_LAYER_RECONCILED
360
2694
  0
DICTIONARY
  5
2695
330
36
100
AcDbDictionary
280
     1
281
     1
  3
ADSK_XREC_LAYER_RECONCILED
360
2696
  0
DICTIONARY
  5
2697
330
37
100
AcDbDictionary
280
     1
281
     1
  3
ADSK_XREC_LAYER_RECONCILED
360
2698
  0
DICTIONARY
  5
2699
330
5D6
100
AcDbDictionary
280
     1
281
     1
  3
ADSK_XREC_LAYER_RECONCILED
360
269A
  0
DICTIONARY
  5
269B
330
8AF
100
AcDbDictionary
280
     1
281
     1
  3
ADSK_XREC_LAYER_RECONCILED
360
269C
  0
DICTIONARY
  5
269D
330
8F8
100
AcDbDictionary
280
     1
281
     1
  3
ADSK_XREC_LAYER_RECONCILED
360
269E
  0
DICTIONARY
  5
269F
330
91D
100
AcDbDictionary
280
     1
281
     1
  3
ADSK_XREC_LAYER_RECONCILED
360
26A0
  0
DICTIONARY
  5
26A1
330
C7B
100
AcDbDictionary
280
     1
281
     1
  3
ADSK_XREC_LAYER_RECONCILED
360
26A2
  0
DICTIONARY
  5
26A3
330
10E9
100
AcDbDictionary
280
     1
281
     1
  3
ADSK_XREC_LAYER_RECONCILED
360
26A4
  0
DICTIONARY
  5
23F5
330
1F
100
AcDbDictionary
280
     1
281
     1
  3
ACAD_SORTENTS
360
23F6
  0
DICTIONARY
  5
26F7
330
2528
100
AcDbDictionary
280
     1
281
     1
  3
ACAD_MTEXT_RT
360
26F8
  0
DICTIONARY
  5
26EE
102
{ACAD_REACTORS
330
C
102
}
330
C
100
AcDbDictionary
281
     1
  3
DIMJOGANG
350
26EF
  0
DICTIONARY
  5
EE6
102
{ACAD_REACTORS
330
C
102
}
330
C
100
AcDbDictionary
281
     1
  0
DICTIONARY
  5
D
102
{ACAD_REACTORS
330
C
102
}
330
C
100
AcDbDictionary
281
     1
  0
DICTIONARY
  5
1A
102
{ACAD_REACTORS
330
C
102
}
330
C
100
AcDbDictionary
281
     1
  3
Layout1
350
1E
  3
Layout2
350
26
  3
Model
350
22
  0
DICTIONARY
  5
EE5
102
{ACAD_REACTORS
330
C
102
}
330
C
100
AcDbDictionary
281
     1
  3
ByBlock
350
2637
  3
ByLayer
350
262F
  3
Global
350
263F
  0
DICTIONARY
  5
266D
102
{ACAD_REACTORS
330
C
102
}
330
C
100
AcDbDictionary
281
     1
  3
Standard
350
266E
  0
DICTIONARY
  5
17
102
{ACAD_REACTORS
330
C
102
}
330
C
100
AcDbDictionary
281
     1
  3
Standard
350
18
  0
DICTIONARY
  5
19
102
{ACAD_REACTORS
330
C
102
}
330
C
100
AcDbDictionary
281
     1
  0
ACDBDICTIONARYWDFLT
  5
E
102
{ACAD_REACTORS
330
C
102
}
330
C
100
AcDbDictionary
281
     1
  3
Normal
350
F
100
AcDbDictionaryWithDefault
340
F
  0
DICTIONARY
  5
265B
102
{ACAD_REACTORS
330
C
102
}
330
C
100
AcDbDictionary
281
     1
  3
A0
350
265C
  3
A1
350
265D
  3
A2
350
265E
  3
A3
350
265F
  3
A4
350
2660
  3
A5
350
2661
  3
A6
350
2662
  3
A7
350
2663
  3
A8
350
2664
  3
A9
350
2665
  3
B0
350
2666
  3
B1
350
2667
  3
B2
350
2668
  3
B3
350
2669
  3
B4
350
266A
  3
B5
350
266B
  3
B6
350
266C
  0
DICTIONARY
  5
EE7
102
{ACAD_REACTORS
330
C
102
}
330
C
100
AcDbDictionary
281
     1
  3
Standard
350
EE8
  0
DICTIONARY
  5
2647
102
{ACAD_REACTORS
330
C
102
}
330
C
100
AcDbDictionary
281
     1
  3
2dWireframe
350
264D
  3
3D Hidden
350
264F
  3
3dWireframe
350
264E
  3
Basic
350
264C
  3
Brighten
350
2653
  3
ColorChange
350
2657
  3
Conceptual
350
2650
  3
Dim
350
2652
  3
EdgeColorOff
350
265A
  3
Facepattern
350
2656
  3
Flat
350
2648
  3
FlatWithEdges
350
2649
  3
Gouraud
350
264A
  3
GouraudWithEdges
350
264B
  3
JitterOff
350
2658
  3
Linepattern
350
2655
  3
OverhangOff
350
2659
  3
Realistic
350
2651
  3
Thicken
350
2654
  0
XRECORD
  5
26EC
102
{ACAD_REACTORS
330
C
102
}
330
C
100
AcDbXrecord
280
     1
 90
        1
330
EE8
  0
DICTIONARY
  5
3D
102
{ACAD_REACTORS
330
C
102
}
330
C
100
AcDbDictionary
281
     1
  3
CANNOSCALE
350
26E6
  3
CMLEADERSTYLE
350
26E5
  3
CTABLESTYLE
350
1049
  3
DIMASSOC
350
3F
  3
HIDETEXT
350
3E
  3
INDEXCTL
350
26E8
  3
PROJECTNAME
350
2536
  3
SORTENTS
350
26E7
  3
XCLIPFRAME
350
26E9
  0
DICTIONARY
  5
E77
102
{ACAD_REACTORS
330
C
102
}
330
C
100
AcDbDictionary
281
     1
  3
ASEBlockHierarchyIndexRecord
350
E78
1001
DCO15
1040
1552647238.734
  0
XRECORD
  5
26ED
102
{ACAD_REACTORS
330
C
102
}
330
C
100
AcDbXrecord
280
     1
  1
DWGPROPS COOKIE
  2

  3

  4

  6

  7

  8
Julio
  9

300
=
301
=
302
=
303
=
304
=
305
=
306
=
307
=
308
=
309
=
 40
0.7051428819444445
 41
2454138.543368773
 42
2455819.44796441
  1

 90
        0
  0
DICTIONARY
  5
1057
102
{ACAD_REACTORS
330
1051
102
}
330
1051
100
AcDbDictionary
281
     1
  0
DICTIONARY
  5
1056
102
{ACAD_REACTORS
330
1051
102
}
330
1051
100
AcDbDictionary
281
     1
1001
ACAD
1000
<All
  0
XRECORD
  5
2686
102
{ACAD_REACTORS
330
2685
102
}
330
2685
100
AcDbXrecord
280
     1
290
     1
  0
XRECORD
  5
2688
102
{ACAD_REACTORS
330
2687
102
}
330
2687
100
AcDbXrecord
280
     1
290
     1
  0
XRECORD
  5
268A
102
{ACAD_REACTORS
330
2689
102
}
330
2689
100
AcDbXrecord
280
     1
290
     1
  0
XRECORD
  5
268C
102
{ACAD_REACTORS
330
268B
102
}
330
268B
100
AcDbXrecord
280
     1
290
     1
  0
XRECORD
  5
268E
102
{ACAD_REACTORS
330
268D
102
}
330
268D
100
AcDbXrecord
280
     1
290
     1
  0
XRECORD
  5
2690
102
{ACAD_REACTORS
330
268F
102
}
330
268F
100
AcDbXrecord
280
     1
290
     1
  0
XRECORD
  5
2692
102
{ACAD_REACTORS
330
2691
102
}
330
2691
100
AcDbXrecord
280
     1
290
     1
  0
XRECORD
  5
2694
102
{ACAD_REACTORS
330
2693
102
}
330
2693
100
AcDbXrecord
280
     1
290
     1
  0
XRECORD
  5
2696
102
{ACAD_REACTORS
330
2695
102
}
330
2695
100
AcDbXrecord
280
     1
290
     1
  0
XRECORD
  5
2698
102
{ACAD_REACTORS
330
2697
102
}
330
2697
100
AcDbXrecord
280
     1
290
     1
  0
XRECORD
  5
269A
102
{ACAD_REACTORS
330
2699
102
}
330
2699
100
AcDbXrecord
280
     1
290
     1
  0
XRECORD
  5
269C
102
{ACAD_REACTORS
330
269B
102
}
330
269B
100
AcDbXrecord
280
     1
290
     1
  0
XRECORD
  5
269E
102
{ACAD_REACTORS
330
269D
102
}
330
269D
100
AcDbXrecord
280
     1
290
     1
  0
XRECORD
  5
26A0
102
{ACAD_REACTORS
330
269F
102
}
330
269F
100
AcDbXrecord
280
     1
290
     1
  0
XRECORD
  5
26A2
102
{ACAD_REACTORS
330
26A1
102
}
330
26A1
100
AcDbXrecord
280
     1
290
     1
  0
XRECORD
  5
26A4
102
{ACAD_REACTORS
330
26A3
102
}
330
26A3
100
AcDbXrecord
280
     1
290
     1
  0
SORTENTSTABLE
  5
23F6
102
{ACAD_REACTORS
330
23F5
102
}
330
23F5
100
AcDbSortentsTable
330
1F
331
2489
  5
1E38
331
2301
  5
24C8
331
23E0
  5
1C8C
331
24A4
  5
1E53
331
2467
  5
1D3E
331
22DF
  5
24A6
331
2438
  5
1D0F
331
23FB
  5
1C69
331
1E27
  5
1F53
331
1DEA
  5
1F16
331
1DC4
  5
1EF0
331
1D03
  5
1DE8
331
1CDD
  5
1DC1
331
1CA0
  5
1CEA
331
1D1E
  5
1E03
331
24D7
  5
1D4D
331
2459
  5
1D30
331
22EC
  5
24B3
331
2474
  5
1E23
331
24B1
  5
1E60
331
232A
  5
24F1
331
2445
  5
1D1C
331
2408
  5
1C76
331
1E34
  5
1F60
331
1DF7
  5
1F23
331
1C5A
  5
1CA4
331
1D10
  5
1DF5
331
1CAD
  5
1CF7
331
1C70
  5
1CBA
331
1D2B
  5
1E10
331
1CEE
  5
1DD3
331
24E4
  5
1D5A
331
24BE
  5
1D70
331
2481
  5
1E30
331
24FF
  5
1D94
331
2452
  5
1D29
331
2415
  5
1C57
331
2315
  5
24DC
331
1E04
  5
1F30
331
1C67
  5
1CB1
331
1E1F
  5
1F4B
331
1CE0
  5
1DC4
331
1CBA
  5
1D98
331
1C7D
  5
1CC7
331
1CFB
  5
1DE0
331
24F1
  5
1D67
331
1CD5
  5
1DB5
331
2306
  5
24CD
331
248E
  5
1E3D
331
24CB
  5
1D7D
331
2422
  5
1C64
331
23E5
  5
1C91
331
2322
  5
24E9
331
243D
  5
1D14
331
1E11
  5
1F3D
331
1DD4
  5
1F00
331
1E2C
  5
1F58
331
1DEF
  5
1F1B
331
1C8A
  5
1CD4
331
1D08
  5
1DED
331
1CA5
  5
1CEF
331
249B
  5
1E4A
331
245E
  5
1D35
331
24DC
  5
1D52
331
23F2
  5
1C9E
331
24B6
  5
1E65
331
240D
  5
1C7B
331
244A
  5
1D21
331
1DE1
  5
1F0D
331
1DFC
  5
1F28
331
1DBB
  5
1EE7
331
1C5F
  5
1CA9
331
1D15
  5
1DFA
331
1CB2
  5
1D46
331
1C75
  5
1CBF
331
24A8
  5
1E57
331
24E9
  5
1D5F
331
22E3
  5
24AA
331
246B
  5
1D42
331
24C3
  5
1D75
331
22FE
  5
24C5
331
2486
  5
1E35
331
23D9
  5
1C85
331
2457
  5
1D2E
331
241A
  5
1C5C
331
1DC8
  5
1EF4
331
1E09
  5
1F35
331
1CE5
  5
1DC9
331
1D22
  5
1E07
331
1C82
  5
1CCC
331
1CBF
  5
1D9D
331
2478
  5
1E27
331
24F6
  5
1D8B
331
22F0
  5
24B7
331
2493
  5
1E42
331
2427
  5
1CFE
331
23EA
  5
1C96
331
230C
  5
24D3
331
1DD9
  5
1F05
331
1E16
  5
1F42
331
1CF2
  5
1DD7
331
1C8F
  5
1CD9
331
1CCC
  5
1DAA
331
1D0D
  5
1DF2
331
24A0
  5
1E4F
331
2463
  5
1D3A
331
2434
  5
1D0B
331
23F7
  5
1C65
331
244F
  5
1D26
331
1E23
  5
1F4F
331
1DE6
  5
1F12
331
1DC0
  5
1EEC
331
1D1A
  5
1DFF
331
1C9C
  5
1CE6
331
1CD9
  5
1DBD
331
24D3
  5
1D85
331
24AD
  5
1E5C
331
2470
  5
1E1F
331
24EE
  5
1D64
331
22E8
  5
24AF
331
2441
  5
1D18
331
2404
  5
1C72
331
241F
  5
1C61
331
23DE
  5
1C8A
331
1DF3
  5
1F1F
331
1DCD
  5
1EF9
331
1E0E
  5
1F3A
331
1C6C
  5
1CB6
331
1CA9
  5
1CF3
331
1CEA
  5
1DCE
331
1D27
  5
1E0C
331
24E0
  5
1D56
331
1CC4
  5
1DA2
331
1C87
  5
1CD1
331
24BA
  5
1D6C
331
24FB
  5
1D90
331
22F5
  5
24BC
331
247D
  5
1E2C
331
2411
  5
1C7F
331
2311
  5
24D8
331
23EF
  5
1C9B
331
242C
  5
1D03
331
1E00
  5
1F2C
331
1C63
  5
1CAD
331
1E1B
  5
1F47
331
1DDE
  5
1F0A
331
1C79
  5
1CC3
331
1D34
  5
1E19
331
1CF7
  5
1DDC
331
1CD1
  5
1DAF
331
1C94
  5
1CDE
331
248A
  5
1E39
331
2302
  5
24C9
331
23E1
  5
1C8D
331
24A5
  5
1E54
331
2439
  5
1D10
331
23FC
  5
1C6A
331
231E
  5
24E5
331
1DD0
  5
1EFC
331
1DEB
  5
1F17
331
1E28
  5
1F54
331
1DC5
  5
1EF1
331
1D04
  5
1DE9
331
1CDE
  5
1DC2
331
1CA1
  5
1CEB
331
1D1F
  5
1E04
331
24D8
  5
1D4E
331
245A
  5
1D31
331
24B2
  5
1E61
331
22ED
  5
24B4
331
2475
  5
1E24
331
232B
  5
24F2
331
2446
  5
1D1D
331
2409
  5
1C77
331
1DF8
  5
1F24
331
1C5B
  5
1CA5
331
1D11
  5
1DF6
331
1CAE
  5
1CF8
331
1C71
  5
1CBB
331
1D2C
  5
1E11
331
1CEF
  5
1DD4
331
24E5
  5
1D5B
331
24BF
  5
1D71
331
22FA
  5
24C1
331
2482
  5
1E31
331
2453
  5
1D2A
331
2416
  5
1C58
331
2338
  5
24FF
331
1E05
  5
1F31
331
1CE1
  5
1DC5
331
1CBB
  5
1D99
331
1C7E
  5
1CC8
331
1CFC
  5
1DE1
331
24F2
  5
1D68
331
1CD6
  5
1DB8
331
24CC
  5
1D7E
331
2307
  5
24CE
331
248F
  5
1E3E
331
2308
  5
24CF
331
2423
  5
1CFA
331
23E6
  5
1C92
331
2323
  5
24EA
331
243E
  5
1D15
331
1E12
  5
1F3E
331
1DD5
  5
1F01
331
1E2D
  5
1F59
331
1C8B
  5
1CD5
331
1CC8
  5
1DA6
331
1D09
  5
1DEE
331
1CA6
  5
1CF0
331
249C
  5
1E4B
331
245F
  5
1D36
331
24DD
  5
1D53
331
2430
  5
1D07
331
23F3
  5
1C9F
331
24B7
  5
1D69
331
240E
  5
1C7C
331
244B
  5
1D22
331
1DE2
  5
1F0E
331
1DFD
  5
1F29
331
1DBC
  5
1EE8
331
1C98
  5
1CE2
331
1D16
  5
1DFB
331
1CB3
  5
1D47
331
1C76
  5
1CC0
331
24A9
  5
1E58
331
24EA
  5
1D60
331
22E4
  5
24AB
331
246C
  5
1D43
331
24C4
  5
1D76
331
2487
  5
1E36
331
22FF
  5
24C6
331
2400
  5
1C6E
331
23DA
  5
1C86
331
241B
  5
1C5D
331
1DC9
  5
1EF5
331
1E0A
  5
1F36
331
1C68
  5
1CB2
331
1CE6
  5
1DCA
331
1D23
  5
1E08
331
1CC0
  5
1D9E
331
1C83
  5
1CCD
331
22F1
  5
24B8
331
2479
  5
1E28
331
24F7
  5
1D8C
331
2494
  5
1E43
331
230D
  5
24D4
331
23EB
  5
1C97
331
2428
  5
1CFF
331
1DDA
  5
1F06
331
1E17
  5
1F43
331
1D30
  5
1E15
331
1CF3
  5
1DD8
331
1CCD
  5
1DAB
331
1C90
  5
1CDA
331
1D0E
  5
1DF3
331
24A1
  5
1E50
331
2464
  5
1D3B
331
2435
  5
1D0C
331
23F8
  5
1C66
331
2335
  5
24FC
331
1E24
  5
1F50
331
1DE7
  5
1F13
331
1DC1
  5
1EED
331
1D00
  5
1DE5
331
1CDA
  5
1DBE
331
1C9D
  5
1CE7
331
1D1B
  5
1E00
331
24D4
  5
1D86
331
24AE
  5
1E5D
331
2471
  5
1E20
331
24EF
  5
1D65
331
22E9
  5
24B0
331
2442
  5
1D19
331
2405
  5
1C73
331
23DF
  5
1C8B
331
1DF4
  5
1F20
331
1C57
  5
1CA1
331
1DCE
  5
1EFA
331
1E0F
  5
1F3B
331
1CEB
  5
1DCF
331
1D28
  5
1E0D
331
1C6D
  5
1CB7
331
1CAA
  5
1CF4
331
24E1
  5
1D57
331
1CC5
  5
1DA3
331
24BB
  5
1D6D
331
247E
  5
1E2D
331
24FC
  5
1D91
331
22F6
  5
24BD
331
2412
  5
1C80
331
2312
  5
24D9
331
242D
  5
1D04
331
1E01
  5
1F2D
331
1C64
  5
1CAE
331
1E1C
  5
1F48
331
1DDF
  5
1F0B
331
1C7A
  5
1CC4
331
1D35
  5
1E1A
331
1CF8
  5
1DDD
331
1CD2
  5
1DB0
331
1C95
  5
1CDF
331
24C8
  5
1D7A
331
2303
  5
24CA
331
248B
  5
1E3A
331
23E2
  5
1C8E
331
24A6
  5
1E55
331
243A
  5
1D11
331
23FD
  5
1C6B
331
231F
  5
24E6
331
23D7
  5
1C83
331
1DD1
  5
1EFD
331
1DEC
  5
1F18
331
1E29
  5
1F55
331
1DC6
  5
1EF2
331
1D05
  5
1DEA
331
1CDF
  5
1DC3
331
1CA2
  5
1CEC
331
2498
  5
1E47
331
245B
  5
1D32
331
24D9
  5
1D4F
331
24B3
  5
1E62
331
22EE
  5
24B5
331
2476
  5
1E25
331
232C
  5
24F3
331
2447
  5
1D1E
331
240A
  5
1C78
331
1DF9
  5
1F25
331
1C5C
  5
1CA6
331
1D12
  5
1DF7
331
1C72
  5
1CBC
331
1D2D
  5
1E12
331
22E0
  5
24A7
331
2468
  5
1D3F
331
24E6
  5
1D5C
331
24C0
  5
1D72
331
22FB
  5
24C2
331
2483
  5
1E32
331
2454
  5
1D2B
331
2417
  5
1C59
331
2339
  5
2500
331
1E06
  5
1F32
331
1CE2
  5
1DC6
331
1CBC
  5
1D9A
331
1C7F
  5
1CC9
331
1CFD
  5
1DE2
331
24F3
  5
1D88
331
1CD7
  5
1DBB
331
24CD
  5
1D7F
331
2490
  5
1E3F
331
2309
  5
24D0
331
2424
  5
1CFB
331
23E7
  5
1C93
331
243F
  5
1D16
331
1E13
  5
1F3F
331
1DD6
  5
1F02
331
1E2E
  5
1F5A
331
1C8C
  5
1CD6
331
1CC9
  5
1DA7
331
1D0A
  5
1DEF
331
1CA7
  5
1CF1
331
2500
  5
1D95
331
249D
  5
1E4C
331
2460
  5
1D37
331
24DE
  5
1D54
331
2431
  5
1D08
331
23F4
  5
1CA0
331
240F
  5
1C7D
331
244C
  5
1D23
331
1DE3
  5
1F0F
331
1E20
  5
1F4C
331
1DFE
  5
1F2A
331
1DBD
  5
1EE9
331
1C99
  5
1CE3
331
1D17
  5
1DFC
331
24D0
  5
1D82
331
1CB4
  5
1D48
331
1C77
  5
1CC1
331
24AA
  5
1E59
331
246D
  5
1E1C
331
24EB
  5
1D61
331
22E5
  5
24AC
331
24C5
  5
1D77
331
2401
  5
1C6F
331
23DB
  5
1C87
331
241C
  5
1C5E
331
1DF0
  5
1F1C
331
1DCA
  5
1EF6
331
1E0B
  5
1F37
331
1C69
  5
1CB3
331
1CE7
  5
1DCB
331
1D24
  5
1E09
331
1CC1
  5
1D9F
331
1C84
  5
1CCE
331
22F2
  5
24B9
331
247A
  5
1E29
331
24F8
  5
1D8D
331
2495
  5
1E44
331
230E
  5
24D5
331
23EC
  5
1C98
331
2429
  5
1D00
331
1C60
  5
1CAA
331
1E18
  5
1F44
331
1DDB
  5
1F07
331
1CF4
  5
1DD9
331
1D31
  5
1E16
331
1CCE
  5
1DAC
331
1D0F
  5
1DF4
331
1C91
  5
1CDB
331
24A2
  5
1E51
331
2465
  5
1D3C
331
22DD
  5
24A4
331
231B
  5
24E2
331
23F9
  5
1C67
331
2436
  5
1D0D
331
2336
  5
24FD
331
1E25
  5
1F51
331
1DE8
  5
1F14
331
1DC2
  5
1EEE
331
1D01
  5
1DE6
331
1CDB
  5
1DBF
331
1C9E
  5
1CE8
331
1D1C
  5
1E01
331
24D5
  5
1D4B
331
24AF
  5
1E5E
331
22EA
  5
24B1
331
2472
  5
1E21
331
2328
  5
24EF
331
2443
  5
1D1A
331
2406
  5
1C74
331
1DF5
  5
1F21
331
1C58
  5
1CA2
331
1DCF
  5
1EFB
331
1D29
  5
1E0E
331
1CEC
  5
1DD0
331
1C6E
  5
1CB8
331
1CAB
  5
1CF5
331
24E2
  5
1D58
331
1CC6
  5
1DA4
331
24BC
  5
1D6E
331
247F
  5
1E2E
331
24FD
  5
1D92
331
22F7
  5
24BE
331
2413
  5
1C81
331
2450
  5
1D27
331
2313
  5
24DA
331
242E
  5
1D05
331
1E02
  5
1F2E
331
1C65
  5
1CAF
331
1E1D
  5
1F49
331
1CB8
  5
1D96
331
1C7B
  5
1CC5
331
1D36
  5
1E1B
331
1CF9
  5
1DDE
331
1CD3
  5
1DB1
331
1C96
  5
1CE0
331
24C9
  5
1D7B
331
2304
  5
24CB
331
248C
  5
1E3B
331
2420
  5
1C62
331
23E3
  5
1C8F
331
24A7
  5
1E56
331
2320
  5
24E7
331
243B
  5
1D12
331
23FE
  5
1C6C
331
1DD2
  5
1EFE
331
1DED
  5
1F19
331
1E2A
  5
1F56
331
1DC7
  5
1EF3
331
1D06
  5
1DEB
331
1C88
  5
1CD2
331
1CA3
  5
1CED
331
2499
  5
1E48
331
245C
  5
1D33
331
24DA
  5
1D50
331
24B4
  5
1E63
331
2477
  5
1E26
331
22EF
  5
24B6
331
23F0
  5
1C9C
331
232D
  5
24F4
331
2448
  5
1D1F
331
240B
  5
1C79
331
1DFA
  5
1F26
331
1C5D
  5
1CA7
331
1D13
  5
1DF8
331
1CB0
  5
1D44
331
1C73
  5
1CBD
331
1D2E
  5
1E13
331
22E1
  5
24A8
331
2469
  5
1D40
331
24E7
  5
1D5D
331
24C1
  5
1D73
331
22FC
  5
24C3
331
2484
  5
1E33
331
2455
  5
1D2C
331
2418
  5
1C5A
331
1E07
  5
1F33
331
1CE3
  5
1DC7
331
1D20
  5
1E05
331
1CBD
  5
1D9B
331
1CFE
  5
1DE3
331
1C80
  5
1CCA
331
24F4
  5
1D89
331
24CE
  5
1D80
331
2491
  5
1E40
331
230A
  5
24D1
331
2425
  5
1CFC
331
23E8
  5
1C94
331
1E14
  5
1F40
331
1DD7
  5
1F03
331
1CF0
  5
1DD5
331
1C8D
  5
1CD7
331
1CCA
  5
1DA8
331
1D0B
  5
1DF0
331
249E
  5
1E4D
331
24DF
  5
1D55
331
2461
  5
1D38
331
2432
  5
1D09
331
2332
  5
24F9
331
244D
  5
1D24
331
1DE4
  5
1F10
331
1E21
  5
1F4D
331
1DBE
  5
1EEA
331
1DFF
  5
1F2B
331
1D18
  5
1DFD
331
1C9A
  5
1CE4
331
24D1
  5
1D83
331
24AB
  5
1E5A
331
246E
  5
1E1D
331
24EC
  5
1D62
331
22E6
  5
24AD
331
2402
  5
1C70
331
24C6
  5
1D78
331
23DC
  5
1C88
331
241D
  5
1C5F
331
1DF1
  5
1F1D
331
1DCB
  5
1EF7
331
1E0C
  5
1F38
331
1C6A
  5
1CB4
331
1D25
  5
1E0A
331
1CE8
  5
1DCC
331
1CC2
  5
1DA0
331
1C85
  5
1CCF
331
24B8
  5
1D6A
331
24F9
  5
1D8E
331
22F3
  5
24BA
331
247B
  5
1E2A
331
2496
  5
1E45
331
230F
  5
24D6
331
23ED
  5
1C99
331
242A
  5
1D01
331
1C61
  5
1CAB
331
1E19
  5
1F45
331
1DDC
  5
1F08
331
1D32
  5
1E17
331
1CF5
  5
1DDA
331
1C92
  5
1CDC
331
1CCF
  5
1DAD
331
2488
  5
1E37
331
2300
  5
24C7
331
24A3
  5
1E52
331
2466
  5
1D3D
331
22DE
  5
24A5
331
231C
  5
24E3
331
2437
  5
1D0E
331
23FA
  5
1C68
331
2337
  5
24FE
331
1E26
  5
1F52
331
1DE9
  5
1F15
331
1DC3
  5
1EEF
331
1D02
  5
1DE7
331
1CDC
  5
1DC0
331
1C9F
  5
1CE9
331
1D1D
  5
1E02
331
24D6
  5
1D4C
331
2458
  5
1D2F
331
24B0
  5
1E5F
331
22EB
  5
24B2
331
2473
  5
1E22
331
2329
  5
24F0
331
2444
  5
1D1B
331
2407
  5
1C75
331
1DF6
  5
1F22
331
1C59
  5
1CA3
331
1D2A
  5
1E0F
331
1CED
  5
1DD2
331
1C6F
  5
1CB9
331
1CAC
  5
1CF6
331
24E3
  5
1D59
331
1CC7
  5
1DA5
331
24BD
  5
1D6F
331
2480
  5
1E2F
331
24FE
  5
1D93
331
22F8
  5
24BF
331
2451
  5
1D28
331
2414
  5
1C82
331
242F
  5
1D06
331
2314
  5
24DB
331
1E03
  5
1F2F
331
1C66
  5
1CB0
331
1E1E
  5
1F4A
331
1CB9
  5
1D97
331
1C7C
  5
1CC6
331
1CFA
  5
1DDF
331
24F0
  5
1D66
331
1CD4
  5
1DB2
331
1C97
  5
1CE1
331
24CA
  5
1D7C
331
2305
  5
24CC
331
248D
  5
1E3C
331
2421
  5
1C63
331
23E4
  5
1C90
331
2321
  5
24E8
331
243C
  5
1D13
331
23FF
  5
1C6D
331
1E10
  5
1F3C
331
1DD3
  5
1EFF
331
1E2B
  5
1F57
331
1DEE
  5
1F1A
331
1D07
  5
1DEC
331
1C89
  5
1CD3
331
1CA4
  5
1CEE
331
249A
  5
1E49
331
245D
  5
1D34
331
24DB
  5
1D51
331
24B5
  5
1E64
331
23F1
  5
1C9D
331
240C
  5
1C7A
331
2449
  5
1D20
331
1DE0
  5
1F0C
331
1DFB
  5
1F27
331
1C5E
  5
1CA8
331
1D14
  5
1DF9
331
1CB1
  5
1D45
331
1C74
  5
1CBE
331
1D2F
  5
1E14
331
22E2
  5
24A9
331
246A
  5
1D41
331
24E8
  5
1D5E
331
24C2
  5
1D74
331
22FD
  5
24C4
331
2485
  5
1E34
331
23D8
  5
1C84
331
2456
  5
1D2D
331
2419
  5
1C5B
331
1E08
  5
1F34
331
1CE4
  5
1DC8
331
1D21
  5
1E06
331
1CBE
  5
1D9C
331
1CFF
  5
1DE4
331
1C81
  5
1CCB
331
24F5
  5
1D8A
331
24CF
  5
1D81
331
2492
  5
1E41
331
23E9
  5
1C95
331
2426
  5
1CFD
331
230B
  5
24D2
331
1DD8
  5
1F04
331
1E15
  5
1F41
331
1CF1
  5
1DD6
331
1C8E
  5
1CD8
331
1CCB
  5
1DA9
331
1D0C
  5
1DF1
331
2462
  5
1D39
331
249F
  5
1E4E
331
2433
  5
1D0A
331
2333
  5
24FA
331
244E
  5
1D25
331
1E22
  5
1F4E
331
1DE5
  5
1F11
331
1DBF
  5
1EEB
331
1CD8
  5
1DBC
331
1D19
  5
1DFE
331
1C9B
  5
1CE5
331
24D2
  5
1D84
331
24AC
  5
1E5B
331
246F
  5
1E1E
331
24ED
  5
1D63
331
22E7
  5
24AE
331
2403
  5
1C71
331
2440
  5
1D17
331
24C7
  5
1D79
331
241E
  5
1C60
331
23DD
  5
1C89
331
1DF2
  5
1F1E
331
1DCC
  5
1EF8
331
1E0D
  5
1F39
331
1C6B
  5
1CB5
331
1CA8
  5
1CF2
331
1D26
  5
1E0B
331
1CE9
  5
1DCD
331
1CC3
  5
1DA1
331
1C86
  5
1CD0
331
24B9
  5
1D6B
331
24FA
  5
1D8F
331
22F4
  5
24BB
331
247C
  5
1E2B
331
2410
  5
1C7E
331
2497
  5
1E46
331
2310
  5
24D7
331
23EE
  5
1C9A
331
242B
  5
1D02
331
1C62
  5
1CAC
331
1E1A
  5
1F46
331
1DDD
  5
1F09
331
1D33
  5
1E18
331
1CF6
  5
1DDB
331
1C78
  5
1CC2
331
1C93
  5
1CDD
331
1CD0
  5
1DAE
  0
XRECORD
  5
26F8
102
{ACAD_REACTORS
330
26F7
102
}
330
26F7
100
AcDbXrecord
280
     1
 40
3752.0
  1
90,0°
  0
XRECORD
  5
26EF
102
{ACAD_REACTORS
330
26EE
102
}
330
26EE
100
AcDbXrecord
280
     1
 40
1.570796326794896
  0
LAYOUT
  5
1E
102
{ACAD_XDICTIONARY
360
26F0
102
}
102
{ACAD_REACTORS
330
1A
102
}
330
1A
100
AcDbPlotSettings
  1

  2
Ploter HP500
  4

  6

 40
0.0
 41
0.0
 42
0.0
 43
0.0
 44
0.0
 45
0.0
 46
0.0
 47
0.0
 48
0.0
 49
0.0
140
0.0
141
0.0
142
1.0
143
1.0
 70
   688
 72
     0
 73
     0
 74
     5
  7
sanindusa.ctb
 75
    16
147
1.0
148
0.0
149
0.0
100
AcDbLayout
  1
Layout1
 70
     1
 71
     1
 10
0.0
 20
0.0
 11
420.0
 21
297.0
 12
0.0
 22
0.0
 32
0.0
 14
1.000000000000000E+20
 24
1.000000000000000E+20
 34
1.000000000000000E+20
 15
-1.000000000000000E+20
 25
-1.000000000000000E+20
 35
-1.000000000000000E+20
146
0.0
 13
0.0
 23
0.0
 33
0.0
 16
1.0
 26
0.0
 36
0.0
 17
0.0
 27
1.0
 37
0.0
 76
     0
330
1B
  0
LAYOUT
  5
26
102
{ACAD_XDICTIONARY
360
26F4
102
}
102
{ACAD_REACTORS
330
1A
102
}
330
1A
100
AcDbPlotSettings
  1

  2
Ploter HP500
  4

  6

 40
0.0
 41
0.0
 42
0.0
 43
0.0
 44
0.0
 45
0.0
 46
0.0
 47
0.0
 48
0.0
 49
0.0
140
0.0
141
0.0
142
1.0
143
1.0
 70
   688
 72
     0
 73
     0
 74
     5
  7
sanindusa.ctb
 75
    16
147
1.0
148
0.0
149
0.0
100
AcDbLayout
  1
Layout2
 70
     1
 71
     2
 10
0.0
 20
0.0
 11
12.0
 21
9.0
 12
0.0
 22
0.0
 32
0.0
 14
0.0
 24
0.0
 34
0.0
 15
0.0
 25
0.0
 35
0.0
146
0.0
 13
0.0
 23
0.0
 33
0.0
 16
1.0
 26
0.0
 36
0.0
 17
0.0
 27
1.0
 37
0.0
 76
     0
330
23
  0
LAYOUT
  5
22
102
{ACAD_XDICTIONARY
360
26F2
102
}
102
{ACAD_REACTORS
330
1A
102
}
330
1A
100
AcDbPlotSettings
  1

  2
Ploter HP500
  4
User268
  6

 40
4.995333194732666
 41
16.97565841674804
 42
4.995330810546875
 43
16.97567749023437
 44
209.9733276367187
 45
296.9259948730469
 46
0.0
 47
0.0
 48
0.0
 49
0.0
140
0.0
141
0.0
142
1.0
143
1.0
 70
 11952
 72
     1
 73
     1
 74
     0
  7
sanindusa.ctb
 75
     0
147
1.0
148
-427.5957866592534
149
7.362384574453926
100
AcDbLayout
  1
Model
 70
     1
 71
     0
 10
0.0
 20
0.0
 11
12.0
 21
9.0
 12
0.0
 22
0.0
 32
0.0
 14
0.0
 24
0.0
 34
0.0
 15
0.0
 25
0.0
 35
0.0
146
0.0
 13
0.0
 23
0.0
 33
0.0
 16
1.0
 26
0.0
 36
0.0
 17
0.0
 27
1.0
 37
0.0
 76
     0
330
1F
331
2626
  0
MATERIAL
  5
2637
102
{ACAD_XDICTIONARY
360
2638
102
}
102
{ACAD_REACTORS
330
EE5
102
}
330
EE5
100
AcDbMaterial
  1
ByBlock
 72
     0
 43
0.0008202099737533
 43
0.0
 43
0.0
 43
0.0
 43
0.0
 43
0.0008202099737533
 43
0.0
 43
0.0
 43
0.0
 43
0.0
 43
1.0
 43
0.0
 43
0.0
 43
0.0
 43
0.0
 43
1.0
 77
     0
 47
0.0008202099737533
 47
0.0
 47
0.0
 47
0.0
 47
0.0
 47
0.0008202099737533
 47
0.0
 47
0.0
 47
0.0
 47
0.0
 47
1.0
 47
0.0
 47
0.0
 47
0.0
 47
0.0
 47
1.0
171
     0
 49
0.0008202099737533
 49
0.0
 49
0.0
 49
0.0
 49
0.0
 49
0.0008202099737533
 49
0.0
 49
0.0
 49
0.0
 49
0.0
 49
1.0
 49
0.0
 49
0.0
 49
0.0
 49
0.0
 49
1.0
175
     0
142
0.0008202099737533
142
0.0
142
0.0
142
0.0
142
0.0
142
0.0008202099737533
142
0.0
142
0.0
142
0.0
142
0.0
142
1.0
142
0.0
142
0.0
142
0.0
142
0.0
142
1.0
179
     0
144
0.0008202099737533
144
0.0
144
0.0
144
0.0
144
0.0
144
0.0008202099737533
144
0.0
144
0.0
144
0.0
144
0.0
144
1.0
144
0.0
144
0.0
144
0.0
144
0.0
144
1.0
147
0.0008202099737533
147
0.0
147
0.0
147
0.0
147
0.0
147
0.0008202099737533
147
0.0
147
0.0
147
0.0
147
0.0
147
1.0
147
0.0
147
0.0
147
0.0
147
0.0
147
1.0
  0
MATERIAL
  5
262F
102
{ACAD_XDICTIONARY
360
2630
102
}
102
{ACAD_REACTORS
330
EE5
102
}
330
EE5
100
AcDbMaterial
  1
ByLayer
 72
     0
 43
0.0008202099737533
 43
0.0
 43
0.0
 43
0.0
 43
0.0
 43
0.0008202099737533
 43
0.0
 43
0.0
 43
0.0
 43
0.0
 43
1.0
 43
0.0
 43
0.0
 43
0.0
 43
0.0
 43
1.0
 77
     0
 47
0.0008202099737533
 47
0.0
 47
0.0
 47
0.0
 47
0.0
 47
0.0008202099737533
 47
0.0
 47
0.0
 47
0.0
 47
0.0
 47
1.0
 47
0.0
 47
0.0
 47
0.0
 47
0.0
 47
1.0
171
     0
 49
0.0008202099737533
 49
0.0
 49
0.0
 49
0.0
 49
0.0
 49
0.0008202099737533
 49
0.0
 49
0.0
 49
0.0
 49
0.0
 49
1.0
 49
0.0
 49
0.0
 49
0.0
 49
0.0
 49
1.0
175
     0
142
0.0008202099737533
142
0.0
142
0.0
142
0.0
142
0.0
142
0.0008202099737533
142
0.0
142
0.0
142
0.0
142
0.0
142
1.0
142
0.0
142
0.0
142
0.0
142
0.0
142
1.0
179
     0
144
0.0008202099737533
144
0.0
144
0.0
144
0.0
144
0.0
144
0.0008202099737533
144
0.0
144
0.0
144
0.0
144
0.0
144
1.0
144
0.0
144
0.0
144
0.0
144
0.0
144
1.0
147
0.0008202099737533
147
0.0
147
0.0
147
0.0
147
0.0
147
0.0008202099737533
147
0.0
147
0.0
147
0.0
147
0.0
147
1.0
147
0.0
147
0.0
147
0.0
147
0.0
147
1.0
  0
MATERIAL
  5
263F
102
{ACAD_XDICTIONARY
360
2640
102
}
102
{ACAD_REACTORS
330
EE5
102
}
330
EE5
100
AcDbMaterial
  1
Global
 72
     0
 43
0.0008202099737533
 43
0.0
 43
0.0
 43
0.0
 43
0.0
 43
0.0008202099737533
 43
0.0
 43
0.0
 43
0.0
 43
0.0
 43
1.0
 43
0.0
 43
0.0
 43
0.0
 43
0.0
 43
1.0
 77
     0
 47
0.0008202099737533
 47
0.0
 47
0.0
 47
0.0
 47
0.0
 47
0.0008202099737533
 47
0.0
 47
0.0
 47
0.0
 47
0.0
 47
1.0
 47
0.0
 47
0.0
 47
0.0
 47
0.0
 47
1.0
171
     0
 49
0.0008202099737533
 49
0.0
 49
0.0
 49
0.0
 49
0.0
 49
0.0008202099737533
 49
0.0
 49
0.0
 49
0.0
 49
0.0
 49
1.0
 49
0.0
 49
0.0
 49
0.0
 49
0.0
 49
1.0
175
     0
142
0.0008202099737533
142
0.0
142
0.0
142
0.0
142
0.0
142
0.0008202099737533
142
0.0
142
0.0
142
0.0
142
0.0
142
1.0
142
0.0
142
0.0
142
0.0
142
0.0
142
1.0
179
     0
144
0.0008202099737533
144
0.0
144
0.0
144
0.0
144
0.0
144
0.0008202099737533
144
0.0
144
0.0
144
0.0
144
0.0
144
1.0
144
0.0
144
0.0
144
0.0
144
0.0
144
1.0
147
0.0008202099737533
147
0.0
147
0.0
147
0.0
147
0.0
147
0.0008202099737533
147
0.0
147
0.0
147
0.0
147
0.0
147
1.0
147
0.0
147
0.0
147
0.0
147
0.0
147
1.0
  0
MLEADERSTYLE
  5
266E
102
{ACAD_REACTORS
330
266D
102
}
330
266D
100
AcDbMLeaderStyle
170
     2
171
     1
172
     0
 90
        2
 40
0.0
 41
0.0
173
     1
 91
-1056964608
340
14
 92
       -2
290
     1
 42
2.0
291
     1
 43
0.36
  3
Standard
 44
4.0
300

342
11
174
     1
178
     6
175
     1
176
     0
 93
-1056964608
 45
4.0
292
     0
297
     0
 46
4.0
 94
-1056964608
 47
1.0
 49
1.0
140
1.0
293
     1
141
0.0
294
     1
177
     0
142
1.0
295
     0
296
     0
143
0.125
1001
ACAD_MLEADERVER
1070
     2
  0
MLINESTYLE
  5
18
102
{ACAD_REACTORS
330
17
102
}
330
17
100
AcDbMlineStyle
  2
STANDARD
 70
     0
  3

 62
   256
 51
90.0
 52
90.0
 71
     2
 49
0.5
 62
   256
  6
BYLAYER
 49
-0.5
 62
   256
  6
BYLAYER
  0
ACDBPLACEHOLDER
  5
F
102
{ACAD_REACTORS
330
E
102
}
330
E
  0
SCALE
  5
265C
102
{ACAD_REACTORS
330
265B
102
}
330
265B
100
AcDbScale
 70
     0
300
1:1
140
1.0
141
1.0
290
     1
  0
SCALE
  5
265D
102
{ACAD_REACTORS
330
265B
102
}
330
265B
100
AcDbScale
 70
     0
300
1:2
140
1.0
141
2.0
290
     0
  0
SCALE
  5
265E
102
{ACAD_REACTORS
330
265B
102
}
330
265B
100
AcDbScale
 70
     0
300
1:4
140
1.0
141
4.0
290
     0
  0
SCALE
  5
265F
102
{ACAD_REACTORS
330
265B
102
}
330
265B
100
AcDbScale
 70
     0
300
1:5
140
1.0
141
5.0
290
     0
  0
SCALE
  5
2660
102
{ACAD_REACTORS
330
265B
102
}
330
265B
100
AcDbScale
 70
     0
300
1:8
140
1.0
141
8.0
290
     0
  0
SCALE
  5
2661
102
{ACAD_REACTORS
330
265B
102
}
330
265B
100
AcDbScale
 70
     0
300
1:10
140
1.0
141
10.0
290
     0
  0
SCALE
  5
2662
102
{ACAD_REACTORS
330
265B
102
}
330
265B
100
AcDbScale
 70
     0
300
1:16
140
1.0
141
16.0
290
     0
  0
SCALE
  5
2663
102
{ACAD_REACTORS
330
265B
102
}
330
265B
100
AcDbScale
 70
     0
300
1:20
140
1.0
141
20.0
290
     0
  0
SCALE
  5
2664
102
{ACAD_REACTORS
330
265B
102
}
330
265B
100
AcDbScale
 70
     0
300
1:30
140
1.0
141
30.0
290
     0
  0
SCALE
  5
2665
102
{ACAD_REACTORS
330
265B
102
}
330
265B
100
AcDbScale
 70
     0
300
1:40
140
1.0
141
40.0
290
     0
  0
SCALE
  5
2666
102
{ACAD_REACTORS
330
265B
102
}
330
265B
100
AcDbScale
 70
     0
300
1:50
140
1.0
141
50.0
290
     0
  0
SCALE
  5
2667
102
{ACAD_REACTORS
330
265B
102
}
330
265B
100
AcDbScale
 70
     0
300
1:100
140
1.0
141
100.0
290
     0
  0
SCALE
  5
2668
102
{ACAD_REACTORS
330
265B
102
}
330
265B
100
AcDbScale
 70
     0
300
2:1
140
2.0
141
1.0
290
     0
  0
SCALE
  5
2669
102
{ACAD_REACTORS
330
265B
102
}
330
265B
100
AcDbScale
 70
     0
300
4:1
140
4.0
141
1.0
290
     0
  0
SCALE
  5
266A
102
{ACAD_REACTORS
330
265B
102
}
330
265B
100
AcDbScale
 70
     0
300
8:1
140
8.0
141
1.0
290
     0
  0
SCALE
  5
266B
102
{ACAD_REACTORS
330
265B
102
}
330
265B
100
AcDbScale
 70
     0
300
10:1
140
10.0
141
1.0
290
     0
  0
SCALE
  5
266C
102
{ACAD_REACTORS
330
265B
102
}
330
265B
100
AcDbScale
 70
     0
300
100:1
140
100.0
141
1.0
290
     0
  0
TABLESTYLE
  5
EE8
102
{ACAD_XDICTIONARY
360
26EA
102
}
102
{ACAD_REACTORS
330
EE7
102
}
330
EE7
100
AcDbTableStyle
  3
Standard
 70
     0
 71
     0
 40
1.5
 41
1.5
280
     0
281
     0
  7
Standard
140
4.5
170
     2
 62
     0
 63
     7
283
     0
274
    -2
284
     1
 64
     0
275
    -2
285
     1
 65
     0
276
    -2
286
     1
 66
     0
277
    -2
287
     1
 67
     0
278
    -2
288
     1
 68
     0
279
    -2
289
     1
 69
     0
  7
Standard
140
6.0
170
     5
 62
     0
 63
     7
283
     0
274
    -2
284
     1
 64
     0
275
    -2
285
     1
 65
     0
276
    -2
286
     1
 66
     0
277
    -2
287
     1
 67
     0
278
    -2
288
     1
 68
     0
279
    -2
289
     1
 69
     0
  7
Standard
140
4.5
170
     5
 62
     0
 63
     7
283
     0
274
    -2
284
     1
 64
     0
275
    -2
285
     1
 65
     0
276
    -2
286
     1
 66
     0
277
    -2
287
     1
 67
     0
278
    -2
288
     1
 68
     0
279
    -2
289
     1
 69
     0
  0
VISUALSTYLE
  5
264D
102
{ACAD_XDICTIONARY
360
2706
102
}
102
{ACAD_REACTORS
330
2647
102
}
330
2647
100
AcDbVisualStyle
  2
2dWireframe
 70
     4
 71
     0
 72
     2
 73
     0
 90
        0
 40
-0.6
 41
-30.0
 62
     5
 63
     7
 74
     1
 91
        4
 64
     7
 65
   257
 75
     1
175
     1
 42
1.0
 92
        0
 66
   257
 43
1.0
 76
     1
 77
     6
 78
     2
 67
     7
 79
     5
170
     0
171
     0
290
     0
174
     0
 93
        1
 44
0.0
173
     0
291
     0
 45
0.0
1001
ACAD
1000
AcDbSavedByObjectVersion
1070
     0
  0
VISUALSTYLE
  5
264F
102
{ACAD_XDICTIONARY
360
270A
102
}
102
{ACAD_REACTORS
330
2647
102
}
330
2647
100
AcDbVisualStyle
  2
3D Hidden
 70
     6
 71
     1
 72
     2
 73
     2
 90
        0
 40
-0.6
 41
-30.0
 62
     5
 63
     7
 74
     2
 91
        2
 64
     7
 65
   257
 75
     2
175
     1
 42
179.0
 92
        0
 66
   257
 43
1.0
 76
     1
 77
     6
 78
     2
 67
     7
 79
     3
170
     0
171
     0
290
     0
174
     0
 93
        1
 44
0.0
173
     0
291
     0
 45
0.0
1001
ACAD
1000
AcDbSavedByObjectVersion
1070
     0
  0
VISUALSTYLE
  5
264E
102
{ACAD_XDICTIONARY
360
2708
102
}
102
{ACAD_REACTORS
330
2647
102
}
330
2647
100
AcDbVisualStyle
  2
3dWireframe
 70
     5
 71
     0
 72
     2
 73
     0
 90
        0
 40
-0.6
 41
-30.0
 62
     5
 63
     7
 74
     1
 91
        4
 64
     7
 65
   257
 75
     1
175
     1
 42
1.0
 92
        0
 66
   257
 43
1.0
 76
     1
 77
     6
 78
     2
 67
     7
 79
     5
170
     0
171
     0
290
     0
174
     0
 93
        1
 44
0.0
173
     0
291
     0
 45
0.0
1001
ACAD
1000
AcDbSavedByObjectVersion
1070
     0
  0
VISUALSTYLE
  5
264C
102
{ACAD_XDICTIONARY
360
2704
102
}
102
{ACAD_REACTORS
330
2647
102
}
330
2647
100
AcDbVisualStyle
  2
Basic
 70
     7
 71
     1
 72
     0
 73
     1
 90
        0
 40
-0.6
 41
-30.0
 62
     5
 63
     7
 74
     0
 91
        4
 64
     7
 65
   257
 75
     1
175
     1
 42
1.0
 92
        8
 66
     7
 43
1.0
 76
     1
 77
     6
 78
     2
 67
     7
 79
     5
170
     0
171
     0
290
     0
174
     0
 93
        1
 44
0.0
173
     0
291
     1
 45
0.0
1001
ACAD
1000
AcDbSavedByObjectVersion
1070
     0
  0
VISUALSTYLE
  5
2653
102
{ACAD_XDICTIONARY
360
2712
102
}
102
{ACAD_REACTORS
330
2647
102
}
330
2647
100
AcDbVisualStyle
  2
Brighten
 70
    12
 71
     2
 72
     2
 73
     0
 90
        0
 40
-0.6
 41
-30.0
 62
     5
 63
     7
 74
     1
 91
        4
 64
     7
 65
   257
 75
     1
175
     1
 42
1.0
 92
        8
 66
     7
 43
1.0
 76
     1
 77
     6
 78
     2
 67
     7
 79
     5
170
     0
171
     0
290
     0
174
     0
 93
        1
 44
50.0
173
     0
291
     1
 45
0.0
1001
ACAD
1000
AcDbSavedByObjectVersion
1070
     0
  0
VISUALSTYLE
  5
2657
102
{ACAD_XDICTIONARY
360
271A
102
}
102
{ACAD_REACTORS
330
2647
102
}
330
2647
100
AcDbVisualStyle
  2
ColorChange
 70
    16
 71
     2
 72
     2
 73
     3
 90
        0
 40
-0.6
 41
-30.0
 62
     5
 63
     8
 74
     1
 91
        4
 64
     7
 65
   257
 75
     1
175
     1
 42
1.0
 92
        8
 66
     8
 43
1.0
 76
     1
 77
     6
 78
     2
 67
     7
 79
     5
170
     0
171
     0
290
     0
174
     0
 93
        1
 44
0.0
173
     0
291
     1
 45
0.0
1001
ACAD
1000
AcDbSavedByObjectVersion
1070
     0
  0
VISUALSTYLE
  5
2650
102
{ACAD_XDICTIONARY
360
270C
102
}
102
{ACAD_REACTORS
330
2647
102
}
330
2647
100
AcDbVisualStyle
  2
Conceptual
 70
     9
 71
     3
 72
     2
 73
     0
 90
        0
 40
-0.6
 41
-30.0
 62
     5
 63
     7
 74
     2
 91
        2
 64
     7
 65
   257
 75
     1
175
     1
 42
179.0
 92
        8
 66
     7
 43
1.0
 76
     1
 77
     6
 78
     2
 67
     7
 79
     3
170
     0
171
     0
290
     0
174
     0
 93
        1
 44
0.0
173
     0
291
     0
 45
0.0
1001
ACAD
1000
AcDbSavedByObjectVersion
1070
     0
  0
VISUALSTYLE
  5
2652
102
{ACAD_XDICTIONARY
360
2710
102
}
102
{ACAD_REACTORS
330
2647
102
}
330
2647
100
AcDbVisualStyle
  2
Dim
 70
    11
 71
     2
 72
     2
 73
     0
 90
        0
 40
-0.6
 41
-30.0
 62
     5
 63
     7
 74
     1
 91
        4
 64
     7
 65
   257
 75
     1
175
     1
 42
1.0
 92
        8
 66
     7
 43
1.0
 76
     1
 77
     6
 78
     2
 67
     7
 79
     5
170
     0
171
     0
290
     0
174
     0
 93
        1
 44
-50.0
173
     0
291
     1
 45
0.0
1001
ACAD
1000
AcDbSavedByObjectVersion
1070
     0
  0
VISUALSTYLE
  5
265A
102
{ACAD_XDICTIONARY
360
2720
102
}
102
{ACAD_REACTORS
330
2647
102
}
330
2647
100
AcDbVisualStyle
  2
EdgeColorOff
 70
    22
 71
     2
 72
     2
 73
     0
 90
        0
 40
-0.6
 41
-30.0
 62
     5
 63
     7
 74
     1
 91
        4
 64
     7
 65
   257
 75
     1
175
     1
 42
1.0
 92
        8
 66
     7
 43
1.0
 76
     1
 77
     6
 78
     2
 67
     7
 79
     5
170
     0
171
     0
290
     0
174
     0
 93
        1
 44
0.0
173
     0
291
     1
 45
0.0
1001
ACAD
1000
AcDbSavedByObjectVersion
1070
     0
  0
VISUALSTYLE
  5
2656
102
{ACAD_XDICTIONARY
360
2718
102
}
102
{ACAD_REACTORS
330
2647
102
}
330
2647
100
AcDbVisualStyle
  2
Facepattern
 70
    15
 71
     2
 72
     2
 73
     0
 90
        0
 40
-0.6
 41
-30.0
 62
     5
 63
     7
 74
     1
 91
        4
 64
     7
 65
   257
 75
     1
175
     1
 42
1.0
 92
        8
 66
     7
 43
1.0
 76
     1
 77
     6
 78
     2
 67
     7
 79
     5
170
     0
171
     0
290
     0
174
     0
 93
        1
 44
0.0
173
     0
291
     1
 45
0.0
1001
ACAD
1000
AcDbSavedByObjectVersion
1070
     0
  0
VISUALSTYLE
  5
2648
102
{ACAD_XDICTIONARY
360
26FC
102
}
102
{ACAD_REACTORS
330
2647
102
}
330
2647
100
AcDbVisualStyle
  2
Flat
 70
     0
 71
     2
 72
     1
 73
     1
 90
        2
 40
-0.6
 41
30.0
 62
     5
 63
     7
 74
     0
 91
        4
 64
     7
 65
   257
 75
     1
175
     1
 42
1.0
 92
        8
 66
     7
 43
1.0
 76
     1
 77
     6
 78
     2
 67
     7
 79
     5
170
     0
171
     0
290
     0
174
     0
 93
       13
 44
0.0
173
     0
291
     1
 45
0.0
1001
ACAD
1000
AcDbSavedByObjectVersion
1070
     0
  0
VISUALSTYLE
  5
2649
102
{ACAD_XDICTIONARY
360
26FE
102
}
102
{ACAD_REACTORS
330
2647
102
}
330
2647
100
AcDbVisualStyle
  2
FlatWithEdges
 70
     1
 71
     2
 72
     1
 73
     1
 90
        2
 40
-0.6
 41
30.0
 62
     5
 63
     7
 74
     1
 91
        4
 64
     7
 65
   257
 75
     1
175
     1
 42
1.0
 92
        0
 66
   257
 43
1.0
 76
     1
 77
     6
 78
     2
 67
     7
 79
     5
170
     0
171
     0
290
     0
174
     0
 93
       13
 44
0.0
173
     0
291
     1
 45
0.0
1001
ACAD
1000
AcDbSavedByObjectVersion
1070
     0
  0
VISUALSTYLE
  5
264A
102
{ACAD_XDICTIONARY
360
2700
102
}
102
{ACAD_REACTORS
330
2647
102
}
330
2647
100
AcDbVisualStyle
  2
Gouraud
 70
     2
 71
     2
 72
     2
 73
     1
 90
        2
 40
-0.6
 41
30.0
 62
     5
 63
     7
 74
     0
 91
        4
 64
     7
 65
   257
 75
     1
175
     1
 42
1.0
 92
        0
 66
     7
 43
1.0
 76
     1
 77
     6
 78
     2
 67
     7
 79
     5
170
     0
171
     0
290
     0
174
     0
 93
       13
 44
0.0
173
     0
291
     1
 45
0.0
1001
ACAD
1000
AcDbSavedByObjectVersion
1070
     0
  0
VISUALSTYLE
  5
264B
102
{ACAD_XDICTIONARY
360
2702
102
}
102
{ACAD_REACTORS
330
2647
102
}
330
2647
100
AcDbVisualStyle
  2
GouraudWithEdges
 70
     3
 71
     2
 72
     2
 73
     1
 90
        2
 40
-0.6
 41
30.0
 62
     5
 63
     7
 74
     1
 91
        4
 64
     7
 65
   257
 75
     1
175
     1
 42
1.0
 92
        0
 66
   257
 43
1.0
 76
     1
 77
     6
 78
     2
 67
     7
 79
     5
170
     0
171
     0
290
     0
174
     0
 93
       13
 44
0.0
173
     0
291
     1
 45
0.0
1001
ACAD
1000
AcDbSavedByObjectVersion
1070
     0
  0
VISUALSTYLE
  5
2658
102
{ACAD_XDICTIONARY
360
271C
102
}
102
{ACAD_REACTORS
330
2647
102
}
330
2647
100
AcDbVisualStyle
  2
JitterOff
 70
    20
 71
     2
 72
     2
 73
     0
 90
        0
 40
-0.6
 41
-30.0
 62
     5
 63
     7
 74
     1
 91
        4
 64
     7
 65
   257
 75
     1
175
     1
 42
1.0
 92
       10
 66
     7
 43
1.0
 76
     1
 77
     6
 78
     2
 67
     7
 79
     5
170
     0
171
     0
290
     0
174
     0
 93
        1
 44
0.0
173
     0
291
     1
 45
0.0
1001
ACAD
1000
AcDbSavedByObjectVersion
1070
     0
  0
VISUALSTYLE
  5
2655
102
{ACAD_XDICTIONARY
360
2716
102
}
102
{ACAD_REACTORS
330
2647
102
}
330
2647
100
AcDbVisualStyle
  2
Linepattern
 70
    14
 71
     2
 72
     2
 73
     0
 90
        0
 40
-0.6
 41
-30.0
 62
     5
 63
     7
 74
     1
 91
        4
 64
     7
 65
   257
 75
     7
175
     7
 42
1.0
 92
        8
 66
     7
 43
1.0
 76
     1
 77
     6
 78
     2
 67
     7
 79
     5
170
     0
171
     0
290
     0
174
     0
 93
        1
 44
0.0
173
     0
291
     1
 45
0.0
1001
ACAD
1000
AcDbSavedByObjectVersion
1070
     0
  0
VISUALSTYLE
  5
2659
102
{ACAD_XDICTIONARY
360
271E
102
}
102
{ACAD_REACTORS
330
2647
102
}
330
2647
100
AcDbVisualStyle
  2
OverhangOff
 70
    21
 71
     2
 72
     2
 73
     0
 90
        0
 40
-0.6
 41
-30.0
 62
     5
 63
     7
 74
     1
 91
        4
 64
     7
 65
   257
 75
     1
175
     1
 42
1.0
 92
        9
 66
     7
 43
1.0
 76
     1
 77
     6
 78
     2
 67
     7
 79
     5
170
     0
171
     0
290
     0
174
     0
 93
        1
 44
0.0
173
     0
291
     1
 45
0.0
1001
ACAD
1000
AcDbSavedByObjectVersion
1070
     0
  0
VISUALSTYLE
  5
2651
102
{ACAD_XDICTIONARY
360
270E
102
}
102
{ACAD_REACTORS
330
2647
102
}
330
2647
100
AcDbVisualStyle
  2
Realistic
 70
     8
 71
     2
 72
     2
 73
     0
 90
        0
 40
-0.6
 41
-30.0
 62
     5
 63
     7
 74
     1
 91
        0
 64
     7
 65
   257
 75
     1
175
     1
 42
1.0
 92
        8
 66
     8
 43
1.0
 76
     1
 77
     6
 78
     2
 67
     7
 79
     5
170
     0
171
     0
290
     0
174
     0
 93
       13
 44
0.0
173
     0
291
     0
 45
0.0
1001
ACAD
1000
AcDbSavedByObjectVersion
1070
     0
  0
VISUALSTYLE
  5
2654
102
{ACAD_XDICTIONARY
360
2714
102
}
102
{ACAD_REACTORS
330
2647
102
}
330
2647
100
AcDbVisualStyle
  2
Thicken
 70
    13
 71
     2
 72
     2
 73
     0
 90
        0
 40
-0.6
 41
-30.0
 62
     5
 63
     7
 74
     1
 91
        4
 64
     7
 65
   257
 75
     1
175
     1
 42
1.0
 92
       12
 66
     7
 43
1.0
 76
     1
 77
     6
 78
     2
 67
     7
 79
     5
170
     0
171
     0
290
     0
174
     0
 93
        1
 44
0.0
173
     0
291
     1
 45
0.0
1001
ACAD
1000
AcDbSavedByObjectVersion
1070
     0
  0
DICTIONARYVAR
  5
26E6
102
{ACAD_REACTORS
330
3D
102
}
330
3D
100
DictionaryVariables
280
     0
  1
1:1
  0
DICTIONARYVAR
  5
26E5
102
{ACAD_REACTORS
330
3D
102
}
330
3D
100
DictionaryVariables
280
     0
  1
STANDARD
  0
DICTIONARYVAR
  5
1049
102
{ACAD_REACTORS
330
3D
102
}
330
3D
100
DictionaryVariables
280
     0
  1
STANDARD
  0
DICTIONARYVAR
  5
3F
102
{ACAD_REACTORS
330
3D
102
}
330
3D
100
DictionaryVariables
280
     0
  1
2
  0
DICTIONARYVAR
  5
3E
102
{ACAD_REACTORS
330
3D
102
}
330
3D
100
DictionaryVariables
280
     0
  1
1
  0
DICTIONARYVAR
  5
26E8
102
{ACAD_REACTORS
330
3D
102
}
330
3D
100
DictionaryVariables
280
     0
  1
0
  0
DICTIONARYVAR
  5
2536
102
{ACAD_REACTORS
330
3D
102
}
330
3D
100
DictionaryVariables
280
     0
  1

  0
DICTIONARYVAR
  5
26E7
102
{ACAD_REACTORS
330
3D
102
}
330
3D
100
DictionaryVariables
280
     0
  1
127
  0
DICTIONARYVAR
  5
26E9
102
{ACAD_REACTORS
330
3D
102
}
330
3D
100
DictionaryVariables
280
     0
  1
2
  0
XRECORD
  5
E78
102
{ACAD_REACTORS
330
E77
102
}
330
E77
100
AcDbXrecord
280
     1
330
0
330
0
  0
DICTIONARY
  5
26F0
330
1E
100
AcDbDictionary
280
     1
281
     1
  3
ACAD_XREC_ROUNDTRIP
360
26F1
  0
DICTIONARY
  5
26F4
330
26
100
AcDbDictionary
280
     1
281
     1
  3
ACAD_XREC_ROUNDTRIP
360
26F5
  0
DICTIONARY
  5
26F2
330
22
100
AcDbDictionary
280
     1
281
     1
  3
ACAD_XREC_ROUNDTRIP
360
26F3
  0
DICTIONARY
  5
2638
330
2637
100
AcDbDictionary
280
     1
281
     1
  3
ACAD_XREC_ROUNDTRIP
360
26FA
  3
BUMPTILE
360
263A
  3
DIFFUSETILE
360
2639
  3
OPACITYTILE
360
263D
  3
REFLECTIONTILE
360
263C
  3
REFRACTIONTILE
360
263E
  3
SPECULARTILE
360
263B
  0
DICTIONARY
  5
2630
330
262F
100
AcDbDictionary
280
     1
281
     1
  3
ACAD_XREC_ROUNDTRIP
360
26F9
  3
BUMPTILE
360
2632
  3
DIFFUSETILE
360
2631
  3
OPACITYTILE
360
2635
  3
REFLECTIONTILE
360
2634
  3
REFRACTIONTILE
360
2636
  3
SPECULARTILE
360
2633
  0
DICTIONARY
  5
2640
330
263F
100
AcDbDictionary
280
     1
281
     1
  3
ACAD_XREC_ROUNDTRIP
360
26FB
  3
BUMPTILE
360
2642
  3
DIFFUSETILE
360
2641
  3
OPACITYTILE
360
2645
  3
REFLECTIONTILE
360
2644
  3
REFRACTIONTILE
360
2646
  3
SPECULARTILE
360
2643
  0
DICTIONARY
  5
26EA
330
EE8
100
AcDbDictionary
280
     1
281
     1
  3
ACAD_ROUNDTRIP_2008_TABLESTYLE_CELLSTYLEMAP
360
26EB
  3
ACAD_XREC_ROUNDTRIP
360
26F6
  0
DICTIONARY
  5
2706
330
264D
100
AcDbDictionary
280
     1
281
     1
  3
ACAD_XREC_ROUNDTRIP
360
2707
  0
DICTIONARY
  5
270A
330
264F
100
AcDbDictionary
280
     1
281
     1
  3
ACAD_XREC_ROUNDTRIP
360
270B
  0
DICTIONARY
  5
2708
330
264E
100
AcDbDictionary
280
     1
281
     1
  3
ACAD_XREC_ROUNDTRIP
360
2709
  0
DICTIONARY
  5
2704
330
264C
100
AcDbDictionary
280
     1
281
     1
  3
ACAD_XREC_ROUNDTRIP
360
2705
  0
DICTIONARY
  5
2712
330
2653
100
AcDbDictionary
280
     1
281
     1
  3
ACAD_XREC_ROUNDTRIP
360
2713
  0
DICTIONARY
  5
271A
330
2657
100
AcDbDictionary
280
     1
281
     1
  3
ACAD_XREC_ROUNDTRIP
360
271B
  0
DICTIONARY
  5
270C
330
2650
100
AcDbDictionary
280
     1
281
     1
  3
ACAD_XREC_ROUNDTRIP
360
270D
  0
DICTIONARY
  5
2710
330
2652
100
AcDbDictionary
280
     1
281
     1
  3
ACAD_XREC_ROUNDTRIP
360
2711
  0
DICTIONARY
  5
2720
330
265A
100
AcDbDictionary
280
     1
281
     1
  3
ACAD_XREC_ROUNDTRIP
360
2721
  0
DICTIONARY
  5
2718
330
2656
100
AcDbDictionary
280
     1
281
     1
  3
ACAD_XREC_ROUNDTRIP
360
2719
  0
DICTIONARY
  5
26FC
330
2648
100
AcDbDictionary
280
     1
281
     1
  3
ACAD_XREC_ROUNDTRIP
360
26FD
  0
DICTIONARY
  5
26FE
330
2649
100
AcDbDictionary
280
     1
281
     1
  3
ACAD_XREC_ROUNDTRIP
360
26FF
  0
DICTIONARY
  5
2700
330
264A
100
AcDbDictionary
280
     1
281
     1
  3
ACAD_XREC_ROUNDTRIP
360
2701
  0
DICTIONARY
  5
2702
330
264B
100
AcDbDictionary
280
     1
281
     1
  3
ACAD_XREC_ROUNDTRIP
360
2703
  0
DICTIONARY
  5
271C
330
2658
100
AcDbDictionary
280
     1
281
     1
  3
ACAD_XREC_ROUNDTRIP
360
271D
  0
DICTIONARY
  5
2716
330
2655
100
AcDbDictionary
280
     1
281
     1
  3
ACAD_XREC_ROUNDTRIP
360
2717
  0
DICTIONARY
  5
271E
330
2659
100
AcDbDictionary
280
     1
281
     1
  3
ACAD_XREC_ROUNDTRIP
360
271F
  0
DICTIONARY
  5
270E
330
2651
100
AcDbDictionary
280
     1
281
     1
  3
ACAD_XREC_ROUNDTRIP
360
270F
  0
DICTIONARY
  5
2714
330
2654
100
AcDbDictionary
280
     1
281
     1
  3
ACAD_XREC_ROUNDTRIP
360
2715
  0
XRECORD
  5
26F1
102
{ACAD_REACTORS
330
26F0
102
}
330
26F0
100
AcDbXrecord
280
     1
102
SHADEPLOT
 70
     0
102
SHADEPLOTRESLEVEL
 70
     2
102
SHADEPLOTCUSTOMDPI
 70
   300
  0
XRECORD
  5
26F5
102
{ACAD_REACTORS
330
26F4
102
}
330
26F4
100
AcDbXrecord
280
     1
102
SHADEPLOT
 70
     0
102
SHADEPLOTRESLEVEL
 70
     2
102
SHADEPLOTCUSTOMDPI
 70
   300
  0
XRECORD
  5
26F3
102
{ACAD_REACTORS
330
26F2
102
}
330
26F2
100
AcDbXrecord
280
     1
102
SHADEPLOT
 70
     0
102
SHADEPLOTRESLEVEL
 70
     2
102
SHADEPLOTCUSTOMDPI
 70
   300
  0
XRECORD
  5
26FA
102
{ACAD_REACTORS
330
2638
102
}
330
2638
100
AcDbXrecord
280
     1
102
MATERIAL
148
0.0
149
0.0
149
0.0
 93
        0
 94
      127
282
     0
 72
     0
 77
     0
171
     0
175
     0
179
     0
273
     0
  0
XRECORD
  5
263A
102
{ACAD_REACTORS
330
2638
102
}
330
2638
100
AcDbXrecord
280
     1
270
     1
271
     1
  0
XRECORD
  5
2639
102
{ACAD_REACTORS
330
2638
102
}
330
2638
100
AcDbXrecord
280
     1
270
     1
271
     1
  0
XRECORD
  5
263D
102
{ACAD_REACTORS
330
2638
102
}
330
2638
100
AcDbXrecord
280
     1
270
     1
271
     1
  0
XRECORD
  5
263C
102
{ACAD_REACTORS
330
2638
102
}
330
2638
100
AcDbXrecord
280
     1
270
     1
271
     1
  0
XRECORD
  5
263E
102
{ACAD_REACTORS
330
2638
102
}
330
2638
100
AcDbXrecord
280
     1
270
     1
271
     1
  0
XRECORD
  5
263B
102
{ACAD_REACTORS
330
2638
102
}
330
2638
100
AcDbXrecord
280
     1
270
     1
271
     1
  0
XRECORD
  5
26F9
102
{ACAD_REACTORS
330
2630
102
}
330
2630
100
AcDbXrecord
280
     1
102
MATERIAL
148
0.0
149
0.0
149
0.0
 93
        0
 94
      127
282
     0
 72
     0
 77
     0
171
     0
175
     0
179
     0
273
     0
  0
XRECORD
  5
2632
102
{ACAD_REACTORS
330
2630
102
}
330
2630
100
AcDbXrecord
280
     1
270
     1
271
     1
  0
XRECORD
  5
2631
102
{ACAD_REACTORS
330
2630
102
}
330
2630
100
AcDbXrecord
280
     1
270
     1
271
     1
  0
XRECORD
  5
2635
102
{ACAD_REACTORS
330
2630
102
}
330
2630
100
AcDbXrecord
280
     1
270
     1
271
     1
  0
XRECORD
  5
2634
102
{ACAD_REACTORS
330
2630
102
}
330
2630
100
AcDbXrecord
280
     1
270
     1
271
     1
  0
XRECORD
  5
2636
102
{ACAD_REACTORS
330
2630
102
}
330
2630
100
AcDbXrecord
280
     1
270
     1
271
     1
  0
XRECORD
  5
2633
102
{ACAD_REACTORS
330
2630
102
}
330
2630
100
AcDbXrecord
280
     1
270
     1
271
     1
  0
XRECORD
  5
26FB
102
{ACAD_REACTORS
330
2640
102
}
330
2640
100
AcDbXrecord
280
     1
102
MATERIAL
148
0.0
149
0.0
149
0.0
 93
        0
 94
      127
282
     0
 72
     0
 77
     0
171
     0
175
     0
179
     0
273
     0
  0
XRECORD
  5
2642
102
{ACAD_REACTORS
330
2640
102
}
330
2640
100
AcDbXrecord
280
     1
270
     1
271
     1
  0
XRECORD
  5
2641
102
{ACAD_REACTORS
330
2640
102
}
330
2640
100
AcDbXrecord
280
     1
270
     1
271
     1
  0
XRECORD
  5
2645
102
{ACAD_REACTORS
330
2640
102
}
330
2640
100
AcDbXrecord
280
     1
270
     1
271
     1
  0
XRECORD
  5
2644
102
{ACAD_REACTORS
330
2640
102
}
330
2640
100
AcDbXrecord
280
     1
270
     1
271
     1
  0
XRECORD
  5
2646
102
{ACAD_REACTORS
330
2640
102
}
330
2640
100
AcDbXrecord
280
     1
270
     1
271
     1
  0
XRECORD
  5
2643
102
{ACAD_REACTORS
330
2640
102
}
330
2640
100
AcDbXrecord
280
     1
270
     1
271
     1
  0
CELLSTYLEMAP
  5
26EB
102
{ACAD_REACTORS
330
26EA
102
}
330
26EA
100
AcDbCellStyleMap
 90
        3
300
CELLSTYLE
  1
TABLEFORMAT_BEGIN
 90
        5
170
     1
 91
        0
 92
    32768
 62
   257
 93
        1
300
CONTENTFORMAT
  1
CONTENTFORMAT_BEGIN
 90
        0
 91
        0
 92
        4
 93
        0
300

 40
0.0
140
1.0
 94
        5
 62
     0
340
11
144
6.0
309
CONTENTFORMAT_END
171
     1
301
MARGIN
  1
CELLMARGIN_BEGIN
 40
1.5
 40
1.5
 40
1.5
 40
1.5
 40
0.18
 40
0.18
309
CELLMARGIN_END
 94
        6
 95
        1
302
GRIDFORMAT
  1
GRIDFORMAT_BEGIN
 90
        0
 91
        1
 62
     0
 92
       -2
340
0
 93
        0
 40
0.045
309
GRIDFORMAT_END
 95
        2
302
GRIDFORMAT
  1
GRIDFORMAT_BEGIN
 90
        0
 91
        1
 62
     0
 92
       -2
340
0
 93
        0
 40
0.045
309
GRIDFORMAT_END
 95
        4
302
GRIDFORMAT
  1
GRIDFORMAT_BEGIN
 90
        0
 91
        1
 62
     0
 92
       -2
340
0
 93
        0
 40
0.045
309
GRIDFORMAT_END
 95
        8
302
GRIDFORMAT
  1
GRIDFORMAT_BEGIN
 90
        0
 91
        1
 62
     0
 92
       -2
340
0
 93
        0
 40
0.045
309
GRIDFORMAT_END
 95
       16
302
GRIDFORMAT
  1
GRIDFORMAT_BEGIN
 90
        0
 91
        1
 62
     0
 92
       -2
340
0
 93
        0
 40
0.045
309
GRIDFORMAT_END
 95
       32
302
GRIDFORMAT
  1
GRIDFORMAT_BEGIN
 90
        0
 91
        1
 62
     0
 92
       -2
340
0
 93
        0
 40
0.045
309
GRIDFORMAT_END
309
TABLEFORMAT_END
  1
CELLSTYLE_BEGIN
 90
        1
 91
        1
300
_TITLE
309
CELLSTYLE_END
300
CELLSTYLE
  1
TABLEFORMAT_BEGIN
 90
        5
170
     1
 91
        0
 92
        0
 62
   257
 93
        1
300
CONTENTFORMAT
  1
CONTENTFORMAT_BEGIN
 90
        0
 91
        0
 92
        4
 93
        0
300

 40
0.0
140
1.0
 94
        5
 62
     0
340
11
144
4.5
309
CONTENTFORMAT_END
171
     1
301
MARGIN
  1
CELLMARGIN_BEGIN
 40
1.5
 40
1.5
 40
1.5
 40
1.5
 40
0.18
 40
0.18
309
CELLMARGIN_END
 94
        6
 95
        1
302
GRIDFORMAT
  1
GRIDFORMAT_BEGIN
 90
        0
 91
        1
 62
     0
 92
       -2
340
0
 93
        0
 40
0.045
309
GRIDFORMAT_END
 95
        2
302
GRIDFORMAT
  1
GRIDFORMAT_BEGIN
 90
        0
 91
        1
 62
     0
 92
       -2
340
0
 93
        0
 40
0.045
309
GRIDFORMAT_END
 95
        4
302
GRIDFORMAT
  1
GRIDFORMAT_BEGIN
 90
        0
 91
        1
 62
     0
 92
       -2
340
0
 93
        0
 40
0.045
309
GRIDFORMAT_END
 95
        8
302
GRIDFORMAT
  1
GRIDFORMAT_BEGIN
 90
        0
 91
        1
 62
     0
 92
       -2
340
0
 93
        0
 40
0.045
309
GRIDFORMAT_END
 95
       16
302
GRIDFORMAT
  1
GRIDFORMAT_BEGIN
 90
        0
 91
        1
 62
     0
 92
       -2
340
0
 93
        0
 40
0.045
309
GRIDFORMAT_END
 95
       32
302
GRIDFORMAT
  1
GRIDFORMAT_BEGIN
 90
        0
 91
        1
 62
     0
 92
       -2
340
0
 93
        0
 40
0.045
309
GRIDFORMAT_END
309
TABLEFORMAT_END
  1
CELLSTYLE_BEGIN
 90
        2
 91
        1
300
_HEADER
309
CELLSTYLE_END
300
CELLSTYLE
  1
TABLEFORMAT_BEGIN
 90
        5
170
     1
 91
        0
 92
        0
 62
   257
 93
        1
300
CONTENTFORMAT
  1
CONTENTFORMAT_BEGIN
 90
        0
 91
        0
 92
        4
 93
        0
300

 40
0.0
140
1.0
 94
        2
 62
     0
340
11
144
4.5
309
CONTENTFORMAT_END
171
     1
301
MARGIN
  1
CELLMARGIN_BEGIN
 40
1.5
 40
1.5
 40
1.5
 40
1.5
 40
0.18
 40
0.18
309
CELLMARGIN_END
 94
        6
 95
        1
302
GRIDFORMAT
  1
GRIDFORMAT_BEGIN
 90
        0
 91
        1
 62
     0
 92
       -2
340
0
 93
        0
 40
0.045
309
GRIDFORMAT_END
 95
        2
302
GRIDFORMAT
  1
GRIDFORMAT_BEGIN
 90
        0
 91
        1
 62
     0
 92
       -2
340
0
 93
        0
 40
0.045
309
GRIDFORMAT_END
 95
        4
302
GRIDFORMAT
  1
GRIDFORMAT_BEGIN
 90
        0
 91
        1
 62
     0
 92
       -2
340
0
 93
        0
 40
0.045
309
GRIDFORMAT_END
 95
        8
302
GRIDFORMAT
  1
GRIDFORMAT_BEGIN
 90
        0
 91
        1
 62
     0
 92
       -2
340
0
 93
        0
 40
0.045
309
GRIDFORMAT_END
 95
       16
302
GRIDFORMAT
  1
GRIDFORMAT_BEGIN
 90
        0
 91
        1
 62
     0
 92
       -2
340
0
 93
        0
 40
0.045
309
GRIDFORMAT_END
 95
       32
302
GRIDFORMAT
  1
GRIDFORMAT_BEGIN
 90
        0
 91
        1
 62
     0
 92
       -2
340
0
 93
        0
 40
0.045
309
GRIDFORMAT_END
309
TABLEFORMAT_END
  1
CELLSTYLE_BEGIN
 90
        3
 91
        2
300
_DATA
309
CELLSTYLE_END
  0
XRECORD
  5
26F6
102
{ACAD_REACTORS
330
26EA
102
}
330
26EA
100
AcDbXrecord
280
     1
102
ACAD_ROUNDTRIP_PRE2007_TABLESTYLE
 90
        4
 91
        0
  1

 92
        4
 93
        0
  2

 94
        4
 95
        0
  3

  0
XRECORD
  5
2707
102
{ACAD_REACTORS
330
2706
102
}
330
2706
100
AcDbXrecord
280
     1
102
RTVSPropertyOp0
 70
     1
102
RTVSPropertyOp1
 70
     1
102
RTVSPropertyOp2
 70
     1
102
RTVSPropertyOp3
 70
     1
102
RTVSPropertyOp4
 70
     1
102
RTVSPropertyOp5
 70
     1
102
RTVSPropertyOp6
 70
     1
102
RTVSPropertyOp7
 70
     1
102
RTVSPropertyOp8
 70
     1
102
RTVSPropertyOp9
 70
     1
102
RTVSPropertyOp10
 70
     1
102
RTVSPropertyOp11
 70
     1
102
RTVSPropertyOp12
 70
     1
102
RTVSPropertyOp13
 70
     1
102
RTVSPropertyOp14
 70
     1
102
RTVSPropertyOp15
 70
     1
102
RTVSPropertyOp16
 70
     1
102
RTVSPropertyOp17
 70
     1
102
RTVSPropertyOp18
 70
     1
102
RTVSPropertyOp19
 70
     1
102
RTVSPropertyOp20
 70
     1
102
RTVSPropertyOp21
 70
     1
102
RTVSPropertyOp22
 70
     1
102
RTVSPropertyOp23
 70
     1
102
RTVSPropertyOp24
 70
     1
102
RTVSPropertyOp25
 70
     1
102
RTVSPropertyOp26
 70
     1
102
RTVSPropertyOp27
 70
     1
  0
XRECORD
  5
270B
102
{ACAD_REACTORS
330
270A
102
}
330
270A
100
AcDbXrecord
280
     1
102
RTVSPropertyOp0
 70
     1
102
RTVSPropertyOp1
 70
     1
102
RTVSPropertyOp2
 70
     1
102
RTVSPropertyOp3
 70
     1
102
RTVSPropertyOp4
 70
     1
102
RTVSPropertyOp5
 70
     1
102
RTVSPropertyOp6
 70
     1
102
RTVSPropertyOp7
 70
     1
102
RTVSPropertyOp8
 70
     1
102
RTVSPropertyOp9
 70
     1
102
RTVSPropertyOp10
 70
     1
102
RTVSPropertyOp11
 70
     1
102
RTVSPropertyOp12
 70
     1
102
RTVSPropertyOp13
 70
     1
102
RTVSPropertyOp14
 70
     1
102
RTVSPropertyOp15
 70
     1
102
RTVSPropertyOp16
 70
     1
102
RTVSPropertyOp17
 70
     1
102
RTVSPropertyOp18
 70
     1
102
RTVSPropertyOp19
 70
     1
102
RTVSPropertyOp20
 70
     1
102
RTVSPropertyOp21
 70
     1
102
RTVSPropertyOp22
 70
     1
102
RTVSPropertyOp23
 70
     1
102
RTVSPropertyOp24
 70
     1
102
RTVSPropertyOp25
 70
     1
102
RTVSPropertyOp26
 70
     1
102
RTVSPropertyOp27
 70
     1
  0
XRECORD
  5
2709
102
{ACAD_REACTORS
330
2708
102
}
330
2708
100
AcDbXrecord
280
     1
102
RTVSPropertyOp0
 70
     1
102
RTVSPropertyOp1
 70
     1
102
RTVSPropertyOp2
 70
     1
102
RTVSPropertyOp3
 70
     1
102
RTVSPropertyOp4
 70
     1
102
RTVSPropertyOp5
 70
     1
102
RTVSPropertyOp6
 70
     1
102
RTVSPropertyOp7
 70
     1
102
RTVSPropertyOp8
 70
     1
102
RTVSPropertyOp9
 70
     1
102
RTVSPropertyOp10
 70
     1
102
RTVSPropertyOp11
 70
     1
102
RTVSPropertyOp12
 70
     1
102
RTVSPropertyOp13
 70
     1
102
RTVSPropertyOp14
 70
     1
102
RTVSPropertyOp15
 70
     1
102
RTVSPropertyOp16
 70
     1
102
RTVSPropertyOp17
 70
     1
102
RTVSPropertyOp18
 70
     1
102
RTVSPropertyOp19
 70
     1
102
RTVSPropertyOp20
 70
     1
102
RTVSPropertyOp21
 70
     1
102
RTVSPropertyOp22
 70
     1
102
RTVSPropertyOp23
 70
     1
102
RTVSPropertyOp24
 70
     1
102
RTVSPropertyOp25
 70
     1
102
RTVSPropertyOp26
 70
     1
102
RTVSPropertyOp27
 70
     1
  0
XRECORD
  5
2705
102
{ACAD_REACTORS
330
2704
102
}
330
2704
100
AcDbXrecord
280
     1
102
RTVSPropertyOp0
 70
     1
102
RTVSPropertyOp1
 70
     1
102
RTVSPropertyOp2
 70
     1
102
RTVSPropertyOp3
 70
     1
102
RTVSPropertyOp4
 70
     1
102
RTVSPropertyOp5
 70
     1
102
RTVSPropertyOp6
 70
     1
102
RTVSPropertyOp7
 70
     1
102
RTVSPropertyOp8
 70
     1
102
RTVSPropertyOp9
 70
     1
102
RTVSPropertyOp10
 70
     1
102
RTVSPropertyOp11
 70
     1
102
RTVSPropertyOp12
 70
     1
102
RTVSPropertyOp13
 70
     1
102
RTVSPropertyOp14
 70
     1
102
RTVSPropertyOp15
 70
     1
102
RTVSPropertyOp16
 70
     1
102
RTVSPropertyOp17
 70
     1
102
RTVSPropertyOp18
 70
     1
102
RTVSPropertyOp19
 70
     1
102
RTVSPropertyOp20
 70
     1
102
RTVSPropertyOp21
 70
     1
102
RTVSPropertyOp22
 70
     1
102
RTVSPropertyOp23
 70
     1
102
RTVSPropertyOp24
 70
     1
102
RTVSPropertyOp25
 70
     1
102
RTVSPropertyOp26
 70
     1
102
RTVSPropertyOp27
 70
     1
  0
XRECORD
  5
2713
102
{ACAD_REACTORS
330
2712
102
}
330
2712
100
AcDbXrecord
280
     1
102
RTVSPropertyOp0
 70
     1
102
RTVSPropertyOp1
 70
     1
102
RTVSPropertyOp2
 70
     1
102
RTVSPropertyOp3
 70
     1
102
RTVSPropertyOp4
 70
     1
102
RTVSPropertyOp5
 70
     1
102
RTVSPropertyOp6
 70
     1
102
RTVSPropertyOp7
 70
     1
102
RTVSPropertyOp8
 70
     1
102
RTVSPropertyOp9
 70
     1
102
RTVSPropertyOp10
 70
     1
102
RTVSPropertyOp11
 70
     1
102
RTVSPropertyOp12
 70
     1
102
RTVSPropertyOp13
 70
     1
102
RTVSPropertyOp14
 70
     1
102
RTVSPropertyOp15
 70
     1
102
RTVSPropertyOp16
 70
     1
102
RTVSPropertyOp17
 70
     1
102
RTVSPropertyOp18
 70
     1
102
RTVSPropertyOp19
 70
     1
102
RTVSPropertyOp20
 70
     1
102
RTVSPropertyOp21
 70
     1
102
RTVSPropertyOp22
 70
     1
102
RTVSPropertyOp23
 70
     1
102
RTVSPropertyOp24
 70
     1
102
RTVSPropertyOp25
 70
     1
102
RTVSPropertyOp26
 70
     1
102
RTVSPropertyOp27
 70
     1
  0
XRECORD
  5
271B
102
{ACAD_REACTORS
330
271A
102
}
330
271A
100
AcDbXrecord
280
     1
102
RTVSPropertyOp0
 70
     1
102
RTVSPropertyOp1
 70
     1
102
RTVSPropertyOp2
 70
     1
102
RTVSPropertyOp3
 70
     1
102
RTVSPropertyOp4
 70
     1
102
RTVSPropertyOp5
 70
     1
102
RTVSPropertyOp6
 70
     1
102
RTVSPropertyOp7
 70
     1
102
RTVSPropertyOp8
 70
     1
102
RTVSPropertyOp9
 70
     1
102
RTVSPropertyOp10
 70
     1
102
RTVSPropertyOp11
 70
     1
102
RTVSPropertyOp12
 70
     1
102
RTVSPropertyOp13
 70
     1
102
RTVSPropertyOp14
 70
     1
102
RTVSPropertyOp15
 70
     1
102
RTVSPropertyOp16
 70
     1
102
RTVSPropertyOp17
 70
     1
102
RTVSPropertyOp18
 70
     1
102
RTVSPropertyOp19
 70
     1
102
RTVSPropertyOp20
 70
     1
102
RTVSPropertyOp21
 70
     1
102
RTVSPropertyOp22
 70
     1
102
RTVSPropertyOp23
 70
     1
102
RTVSPropertyOp24
 70
     1
102
RTVSPropertyOp25
 70
     1
102
RTVSPropertyOp26
 70
     1
102
RTVSPropertyOp27
 70
     1
  0
XRECORD
  5
270D
102
{ACAD_REACTORS
330
270C
102
}
330
270C
100
AcDbXrecord
280
     1
102
RTVSPropertyOp0
 70
     1
102
RTVSPropertyOp1
 70
     1
102
RTVSPropertyOp2
 70
     1
102
RTVSPropertyOp3
 70
     1
102
RTVSPropertyOp4
 70
     1
102
RTVSPropertyOp5
 70
     1
102
RTVSPropertyOp6
 70
     1
102
RTVSPropertyOp7
 70
     1
102
RTVSPropertyOp8
 70
     1
102
RTVSPropertyOp9
 70
     1
102
RTVSPropertyOp10
 70
     1
102
RTVSPropertyOp11
 70
     1
102
RTVSPropertyOp12
 70
     1
102
RTVSPropertyOp13
 70
     1
102
RTVSPropertyOp14
 70
     1
102
RTVSPropertyOp15
 70
     1
102
RTVSPropertyOp16
 70
     1
102
RTVSPropertyOp17
 70
     1
102
RTVSPropertyOp18
 70
     1
102
RTVSPropertyOp19
 70
     1
102
RTVSPropertyOp20
 70
     1
102
RTVSPropertyOp21
 70
     1
102
RTVSPropertyOp22
 70
     1
102
RTVSPropertyOp23
 70
     1
102
RTVSPropertyOp24
 70
     1
102
RTVSPropertyOp25
 70
     1
102
RTVSPropertyOp26
 70
     1
102
RTVSPropertyOp27
 70
     1
  0
XRECORD
  5
2711
102
{ACAD_REACTORS
330
2710
102
}
330
2710
100
AcDbXrecord
280
     1
102
RTVSPropertyOp0
 70
     1
102
RTVSPropertyOp1
 70
     1
102
RTVSPropertyOp2
 70
     1
102
RTVSPropertyOp3
 70
     1
102
RTVSPropertyOp4
 70
     1
102
RTVSPropertyOp5
 70
     1
102
RTVSPropertyOp6
 70
     1
102
RTVSPropertyOp7
 70
     1
102
RTVSPropertyOp8
 70
     1
102
RTVSPropertyOp9
 70
     1
102
RTVSPropertyOp10
 70
     1
102
RTVSPropertyOp11
 70
     1
102
RTVSPropertyOp12
 70
     1
102
RTVSPropertyOp13
 70
     1
102
RTVSPropertyOp14
 70
     1
102
RTVSPropertyOp15
 70
     1
102
RTVSPropertyOp16
 70
     1
102
RTVSPropertyOp17
 70
     1
102
RTVSPropertyOp18
 70
     1
102
RTVSPropertyOp19
 70
     1
102
RTVSPropertyOp20
 70
     1
102
RTVSPropertyOp21
 70
     1
102
RTVSPropertyOp22
 70
     1
102
RTVSPropertyOp23
 70
     1
102
RTVSPropertyOp24
 70
     1
102
RTVSPropertyOp25
 70
     1
102
RTVSPropertyOp26
 70
     1
102
RTVSPropertyOp27
 70
     1
  0
XRECORD
  5
2721
102
{ACAD_REACTORS
330
2720
102
}
330
2720
100
AcDbXrecord
280
     1
102
RTVSPropertyOp0
 70
     0
102
RTVSPropertyOp1
 70
     0
102
RTVSPropertyOp2
 70
     0
102
RTVSPropertyOp3
 70
     0
102
RTVSPropertyOp4
 70
     0
102
RTVSPropertyOp5
 70
     0
102
RTVSPropertyOp6
 70
     0
102
RTVSPropertyOp7
 70
     0
102
RTVSPropertyOp8
 70
     0
102
RTVSPropertyOp9
 70
     0
102
RTVSPropertyOp10
 70
     0
102
RTVSPropertyOp11
 70
     0
102
RTVSPropertyOp12
 70
     0
102
RTVSPropertyOp13
 70
     0
102
RTVSPropertyOp14
 70
     2
102
RTVSPropertyOp15
 70
     0
102
RTVSPropertyOp16
 70
     0
102
RTVSPropertyOp17
 70
     0
102
RTVSPropertyOp18
 70
     0
102
RTVSPropertyOp19
 70
     0
102
RTVSPropertyOp20
 70
     0
102
RTVSPropertyOp21
 70
     0
102
RTVSPropertyOp22
 70
     0
102
RTVSPropertyOp23
 70
     0
102
RTVSPropertyOp24
 70
     0
102
RTVSPropertyOp25
 70
     0
102
RTVSPropertyOp26
 70
     0
102
RTVSPropertyOp27
 70
     0
  0
XRECORD
  5
2719
102
{ACAD_REACTORS
330
2718
102
}
330
2718
100
AcDbXrecord
280
     1
102
RTVSPropertyOp0
 70
     1
102
RTVSPropertyOp1
 70
     1
102
RTVSPropertyOp2
 70
     1
102
RTVSPropertyOp3
 70
     1
102
RTVSPropertyOp4
 70
     1
102
RTVSPropertyOp5
 70
     1
102
RTVSPropertyOp6
 70
     1
102
RTVSPropertyOp7
 70
     1
102
RTVSPropertyOp8
 70
     1
102
RTVSPropertyOp9
 70
     1
102
RTVSPropertyOp10
 70
     1
102
RTVSPropertyOp11
 70
     1
102
RTVSPropertyOp12
 70
     1
102
RTVSPropertyOp13
 70
     1
102
RTVSPropertyOp14
 70
     1
102
RTVSPropertyOp15
 70
     1
102
RTVSPropertyOp16
 70
     1
102
RTVSPropertyOp17
 70
     1
102
RTVSPropertyOp18
 70
     1
102
RTVSPropertyOp19
 70
     1
102
RTVSPropertyOp20
 70
     1
102
RTVSPropertyOp21
 70
     1
102
RTVSPropertyOp22
 70
     1
102
RTVSPropertyOp23
 70
     1
102
RTVSPropertyOp24
 70
     1
102
RTVSPropertyOp25
 70
     1
102
RTVSPropertyOp26
 70
     1
102
RTVSPropertyOp27
 70
     1
  0
XRECORD
  5
26FD
102
{ACAD_REACTORS
330
26FC
102
}
330
26FC
100
AcDbXrecord
280
     1
102
RTVSPropertyOp0
 70
     1
102
RTVSPropertyOp1
 70
     1
102
RTVSPropertyOp2
 70
     1
102
RTVSPropertyOp3
 70
     1
102
RTVSPropertyOp4
 70
     1
102
RTVSPropertyOp5
 70
     1
102
RTVSPropertyOp6
 70
     1
102
RTVSPropertyOp7
 70
     1
102
RTVSPropertyOp8
 70
     1
102
RTVSPropertyOp9
 70
     1
102
RTVSPropertyOp10
 70
     1
102
RTVSPropertyOp11
 70
     1
102
RTVSPropertyOp12
 70
     1
102
RTVSPropertyOp13
 70
     1
102
RTVSPropertyOp14
 70
     1
102
RTVSPropertyOp15
 70
     1
102
RTVSPropertyOp16
 70
     1
102
RTVSPropertyOp17
 70
     1
102
RTVSPropertyOp18
 70
     1
102
RTVSPropertyOp19
 70
     1
102
RTVSPropertyOp20
 70
     1
102
RTVSPropertyOp21
 70
     1
102
RTVSPropertyOp22
 70
     1
102
RTVSPropertyOp23
 70
     1
102
RTVSPropertyOp24
 70
     1
102
RTVSPropertyOp25
 70
     1
102
RTVSPropertyOp26
 70
     1
102
RTVSPropertyOp27
 70
     1
  0
XRECORD
  5
26FF
102
{ACAD_REACTORS
330
26FE
102
}
330
26FE
100
AcDbXrecord
280
     1
102
RTVSPropertyOp0
 70
     1
102
RTVSPropertyOp1
 70
     1
102
RTVSPropertyOp2
 70
     1
102
RTVSPropertyOp3
 70
     1
102
RTVSPropertyOp4
 70
     1
102
RTVSPropertyOp5
 70
     1
102
RTVSPropertyOp6
 70
     1
102
RTVSPropertyOp7
 70
     1
102
RTVSPropertyOp8
 70
     1
102
RTVSPropertyOp9
 70
     1
102
RTVSPropertyOp10
 70
     1
102
RTVSPropertyOp11
 70
     1
102
RTVSPropertyOp12
 70
     1
102
RTVSPropertyOp13
 70
     1
102
RTVSPropertyOp14
 70
     1
102
RTVSPropertyOp15
 70
     1
102
RTVSPropertyOp16
 70
     1
102
RTVSPropertyOp17
 70
     1
102
RTVSPropertyOp18
 70
     1
102
RTVSPropertyOp19
 70
     1
102
RTVSPropertyOp20
 70
     1
102
RTVSPropertyOp21
 70
     1
102
RTVSPropertyOp22
 70
     1
102
RTVSPropertyOp23
 70
     1
102
RTVSPropertyOp24
 70
     1
102
RTVSPropertyOp25
 70
     1
102
RTVSPropertyOp26
 70
     1
102
RTVSPropertyOp27
 70
     1
  0
XRECORD
  5
2701
102
{ACAD_REACTORS
330
2700
102
}
330
2700
100
AcDbXrecord
280
     1
102
RTVSPropertyOp0
 70
     1
102
RTVSPropertyOp1
 70
     1
102
RTVSPropertyOp2
 70
     1
102
RTVSPropertyOp3
 70
     1
102
RTVSPropertyOp4
 70
     1
102
RTVSPropertyOp5
 70
     1
102
RTVSPropertyOp6
 70
     1
102
RTVSPropertyOp7
 70
     1
102
RTVSPropertyOp8
 70
     1
102
RTVSPropertyOp9
 70
     1
102
RTVSPropertyOp10
 70
     1
102
RTVSPropertyOp11
 70
     1
102
RTVSPropertyOp12
 70
     1
102
RTVSPropertyOp13
 70
     1
102
RTVSPropertyOp14
 70
     1
102
RTVSPropertyOp15
 70
     1
102
RTVSPropertyOp16
 70
     1
102
RTVSPropertyOp17
 70
     1
102
RTVSPropertyOp18
 70
     1
102
RTVSPropertyOp19
 70
     1
102
RTVSPropertyOp20
 70
     1
102
RTVSPropertyOp21
 70
     1
102
RTVSPropertyOp22
 70
     1
102
RTVSPropertyOp23
 70
     1
102
RTVSPropertyOp24
 70
     1
102
RTVSPropertyOp25
 70
     1
102
RTVSPropertyOp26
 70
     1
102
RTVSPropertyOp27
 70
     1
  0
XRECORD
  5
2703
102
{ACAD_REACTORS
330
2702
102
}
330
2702
100
AcDbXrecord
280
     1
102
RTVSPropertyOp0
 70
     1
102
RTVSPropertyOp1
 70
     1
102
RTVSPropertyOp2
 70
     1
102
RTVSPropertyOp3
 70
     1
102
RTVSPropertyOp4
 70
     1
102
RTVSPropertyOp5
 70
     1
102
RTVSPropertyOp6
 70
     1
102
RTVSPropertyOp7
 70
     1
102
RTVSPropertyOp8
 70
     1
102
RTVSPropertyOp9
 70
     1
102
RTVSPropertyOp10
 70
     1
102
RTVSPropertyOp11
 70
     1
102
RTVSPropertyOp12
 70
     1
102
RTVSPropertyOp13
 70
     1
102
RTVSPropertyOp14
 70
     1
102
RTVSPropertyOp15
 70
     1
102
RTVSPropertyOp16
 70
     1
102
RTVSPropertyOp17
 70
     1
102
RTVSPropertyOp18
 70
     1
102
RTVSPropertyOp19
 70
     1
102
RTVSPropertyOp20
 70
     1
102
RTVSPropertyOp21
 70
     1
102
RTVSPropertyOp22
 70
     1
102
RTVSPropertyOp23
 70
     1
102
RTVSPropertyOp24
 70
     1
102
RTVSPropertyOp25
 70
     1
102
RTVSPropertyOp26
 70
     1
102
RTVSPropertyOp27
 70
     1
  0
XRECORD
  5
271D
102
{ACAD_REACTORS
330
271C
102
}
330
271C
100
AcDbXrecord
280
     1
102
RTVSPropertyOp0
 70
     0
102
RTVSPropertyOp1
 70
     0
102
RTVSPropertyOp2
 70
     0
102
RTVSPropertyOp3
 70
     0
102
RTVSPropertyOp4
 70
     0
102
RTVSPropertyOp5
 70
     0
102
RTVSPropertyOp6
 70
     0
102
RTVSPropertyOp7
 70
     0
102
RTVSPropertyOp8
 70
     0
102
RTVSPropertyOp9
 70
     0
102
RTVSPropertyOp10
 70
     0
102
RTVSPropertyOp11
 70
     0
102
RTVSPropertyOp12
 70
     0
102
RTVSPropertyOp13
 70
     0
102
RTVSPropertyOp14
 70
     2
102
RTVSPropertyOp15
 70
     0
102
RTVSPropertyOp16
 70
     0
102
RTVSPropertyOp17
 70
     0
102
RTVSPropertyOp18
 70
     0
102
RTVSPropertyOp19
 70
     0
102
RTVSPropertyOp20
 70
     0
102
RTVSPropertyOp21
 70
     0
102
RTVSPropertyOp22
 70
     0
102
RTVSPropertyOp23
 70
     0
102
RTVSPropertyOp24
 70
     0
102
RTVSPropertyOp25
 70
     0
102
RTVSPropertyOp26
 70
     0
102
RTVSPropertyOp27
 70
     0
  0
XRECORD
  5
2717
102
{ACAD_REACTORS
330
2716
102
}
330
2716
100
AcDbXrecord
280
     1
102
RTVSPropertyOp0
 70
     1
102
RTVSPropertyOp1
 70
     1
102
RTVSPropertyOp2
 70
     1
102
RTVSPropertyOp3
 70
     1
102
RTVSPropertyOp4
 70
     1
102
RTVSPropertyOp5
 70
     1
102
RTVSPropertyOp6
 70
     1
102
RTVSPropertyOp7
 70
     1
102
RTVSPropertyOp8
 70
     1
102
RTVSPropertyOp9
 70
     1
102
RTVSPropertyOp10
 70
     1
102
RTVSPropertyOp11
 70
     1
102
RTVSPropertyOp12
 70
     1
102
RTVSPropertyOp13
 70
     1
102
RTVSPropertyOp14
 70
     1
102
RTVSPropertyOp15
 70
     1
102
RTVSPropertyOp16
 70
     1
102
RTVSPropertyOp17
 70
     1
102
RTVSPropertyOp18
 70
     1
102
RTVSPropertyOp19
 70
     1
102
RTVSPropertyOp20
 70
     1
102
RTVSPropertyOp21
 70
     1
102
RTVSPropertyOp22
 70
     1
102
RTVSPropertyOp23
 70
     1
102
RTVSPropertyOp24
 70
     1
102
RTVSPropertyOp25
 70
     1
102
RTVSPropertyOp26
 70
     1
102
RTVSPropertyOp27
 70
     1
  0
XRECORD
  5
271F
102
{ACAD_REACTORS
330
271E
102
}
330
271E
100
AcDbXrecord
280
     1
102
RTVSPropertyOp0
 70
     0
102
RTVSPropertyOp1
 70
     0
102
RTVSPropertyOp2
 70
     0
102
RTVSPropertyOp3
 70
     0
102
RTVSPropertyOp4
 70
     0
102
RTVSPropertyOp5
 70
     0
102
RTVSPropertyOp6
 70
     0
102
RTVSPropertyOp7
 70
     0
102
RTVSPropertyOp8
 70
     0
102
RTVSPropertyOp9
 70
     0
102
RTVSPropertyOp10
 70
     0
102
RTVSPropertyOp11
 70
     0
102
RTVSPropertyOp12
 70
     0
102
RTVSPropertyOp13
 70
     0
102
RTVSPropertyOp14
 70
     2
102
RTVSPropertyOp15
 70
     0
102
RTVSPropertyOp16
 70
     0
102
RTVSPropertyOp17
 70
     0
102
RTVSPropertyOp18
 70
     0
102
RTVSPropertyOp19
 70
     0
102
RTVSPropertyOp20
 70
     0
102
RTVSPropertyOp21
 70
     0
102
RTVSPropertyOp22
 70
     0
102
RTVSPropertyOp23
 70
     0
102
RTVSPropertyOp24
 70
     0
102
RTVSPropertyOp25
 70
     0
102
RTVSPropertyOp26
 70
     0
102
RTVSPropertyOp27
 70
     0
  0
XRECORD
  5
270F
102
{ACAD_REACTORS
330
270E
102
}
330
270E
100
AcDbXrecord
280
     1
102
RTVSPropertyOp0
 70
     1
102
RTVSPropertyOp1
 70
     1
102
RTVSPropertyOp2
 70
     1
102
RTVSPropertyOp3
 70
     1
102
RTVSPropertyOp4
 70
     1
102
RTVSPropertyOp5
 70
     1
102
RTVSPropertyOp6
 70
     1
102
RTVSPropertyOp7
 70
     1
102
RTVSPropertyOp8
 70
     1
102
RTVSPropertyOp9
 70
     1
102
RTVSPropertyOp10
 70
     1
102
RTVSPropertyOp11
 70
     1
102
RTVSPropertyOp12
 70
     1
102
RTVSPropertyOp13
 70
     1
102
RTVSPropertyOp14
 70
     1
102
RTVSPropertyOp15
 70
     1
102
RTVSPropertyOp16
 70
     1
102
RTVSPropertyOp17
 70
     1
102
RTVSPropertyOp18
 70
     1
102
RTVSPropertyOp19
 70
     1
102
RTVSPropertyOp20
 70
     1
102
RTVSPropertyOp21
 70
     1
102
RTVSPropertyOp22
 70
     1
102
RTVSPropertyOp23
 70
     1
102
RTVSPropertyOp24
 70
     1
102
RTVSPropertyOp25
 70
     1
102
RTVSPropertyOp26
 70
     1
102
RTVSPropertyOp27
 70
     1
  0
XRECORD
  5
2715
102
{ACAD_REACTORS
330
2714
102
}
330
2714
100
AcDbXrecord
280
     1
102
RTVSPropertyOp0
 70
     1
102
RTVSPropertyOp1
 70
     1
102
RTVSPropertyOp2
 70
     1
102
RTVSPropertyOp3
 70
     1
102
RTVSPropertyOp4
 70
     1
102
RTVSPropertyOp5
 70
     1
102
RTVSPropertyOp6
 70
     1
102
RTVSPropertyOp7
 70
     1
102
RTVSPropertyOp8
 70
     1
102
RTVSPropertyOp9
 70
     1
102
RTVSPropertyOp10
 70
     1
102
RTVSPropertyOp11
 70
     1
102
RTVSPropertyOp12
 70
     1
102
RTVSPropertyOp13
 70
     1
102
RTVSPropertyOp14
 70
     1
102
RTVSPropertyOp15
 70
     1
102
RTVSPropertyOp16
 70
     1
102
RTVSPropertyOp17
 70
     1
102
RTVSPropertyOp18
 70
     1
102
RTVSPropertyOp19
 70
     1
102
RTVSPropertyOp20
 70
     1
102
RTVSPropertyOp21
 70
     1
102
RTVSPropertyOp22
 70
     1
102
RTVSPropertyOp23
 70
     1
102
RTVSPropertyOp24
 70
     1
102
RTVSPropertyOp25
 70
     1
102
RTVSPropertyOp26
 70
     1
102
RTVSPropertyOp27
 70
     1
  0
ENDSEC
  0
EOF
