  0
SECTION
  2
HEADER
  9
$ACADVER
  1
AC1015
  9
$ACADMAINTVER
 70
    20
  9
$DWGCODEPAGE
  3
ANSI_1252
  9
$INSBASE
 10
0.0
 20
0.0
 30
0.0
  9
$EXTMIN
 10
8339.165401376034
 20
2075.393923353534
 30
-0.0000000017937957
  9
$EXTMAX
 10
8342.518351289353
 20
2077.243923353534
 30
0.0000000001555553
  9
$LIMMIN
 10
0.0
 20
0.0
  9
$LIMMAX
 10
420.0
 20
297.0
  9
$ORTHOMODE
 70
     0
  9
$REGENMODE
 70
     1
  9
$FILLMODE
 70
     1
  9
$QTEXTMODE
 70
     0
  9
$MIRRTEXT
 70
     1
  9
$LTSCALE
 40
1.0
  9
$ATTMODE
 70
     1
  9
$TEXTSIZE
 40
2.5
  9
$TRACEWID
 40
1.0
  9
$TEXTSTYLE
  7
SANINDUSA
  9
$CLAYER
  8
0
  9
$CELTYPE
  6
ByLayer
  9
$CECOLOR
 62
   256
  9
$CELTSCALE
 40
1.0
  9
$DISPSILH
 70
     0
  9
$DIMSCALE
 40
10.0
  9
$DIMASZ
 40
2.0
  9
$DIMEXO
 40
1.0
  9
$DIMDLI
 40
1.0
  9
$DIMRND
 40
0.0
  9
$DIMDLE
 40
0.0
  9
$DIMEXE
 40
1.0
  9
$DIMTP
 40
0.0
  9
$DIMTM
 40
0.0
  9
$DIMTXT
 40
2.0
  9
$DIMCEN
 40
0.0
  9
$DIMTSZ
 40
0.0
  9
$DIMTOL
 70
     0
  9
$DIMLIM
 70
     0
  9
$DIMTIH
 70
     0
  9
$DIMTOH
 70
     0
  9
$DIMSE1
 70
     0
  9
$DIMSE2
 70
     0
  9
$DIMTAD
 70
     1
  9
$DIMZIN
 70
     8
  9
$DIMBLK
  1

  9
$DIMASO
 70
     1
  9
$DIMSHO
 70
     1
  9
$DIMPOST
  1

  9
$DIMAPOST
  1

  9
$DIMALT
 70
     0
  9
$DIMALTD
 70
     3
  9
$DIMALTF
 40
0.03937007874016
  9
$DIMLFAC
 40
1.0
  9
$DIMTOFL
 70
     1
  9
$DIMTVP
 40
0.0
  9
$DIMTIX
 70
     0
  9
$DIMSOXD
 70
     0
  9
$DIMSAH
 70
     0
  9
$DIMBLK1
  1

  9
$DIMBLK2
  1

  9
$DIMSTYLE
  2
SANINDUSA
  9
$DIMCLRD
 70
   256
  9
$DIMCLRE
 70
   256
  9
$DIMCLRT
 70
   256
  9
$DIMTFAC
 40
1.0
  9
$DIMGAP
 40
1.0
  9
$DIMJUST
 70
     0
  9
$DIMSD1
 70
     0
  9
$DIMSD2
 70
     0
  9
$DIMTOLJ
 70
     0
  9
$DIMTZIN
 70
     8
  9
$DIMALTZ
 70
     0
  9
$DIMALTTZ
 70
     0
  9
$DIMUPT
 70
     0
  9
$DIMDEC
 70
     1
  9
$DIMTDEC
 70
     1
  9
$DIMALTU
 70
     2
  9
$DIMALTTD
 70
     3
  9
$DIMTXSTY
  7
SANINDUSA
  9
$DIMAUNIT
 70
     0
  9
$DIMADEC
 70
     1
  9
$DIMALTRND
 40
0.0
  9
$DIMAZIN
 70
     0
  9
$DIMDSEP
 70
    44
  9
$DIMATFIT
 70
     3
  9
$DIMFRAC
 70
     0
  9
$DIMLDRBLK
  1

  9
$DIMLUNIT
 70
     2
  9
$DIMLWD
 70
    -1
  9
$DIMLWE
 70
    -1
  9
$DIMTMOVE
 70
     0
  9
$LUNITS
 70
     2
  9
$LUPREC
 70
     4
  9
$SKETCHINC
 40
1.0
  9
$FILLETRAD
 40
0.0
  9
$AUNITS
 70
     0
  9
$AUPREC
 70
     0
  9
$MENU
  1
.
  9
$ELEVATION
 40
0.0
  9
$PELEVATION
 40
0.0
  9
$THICKNESS
 40
0.0
  9
$LIMCHECK
 70
     0
  9
$CHAMFERA
 40
10.0
  9
$CHAMFERB
 40
10.0
  9
$CHAMFERC
 40
20.0
  9
$CHAMFERD
 40
0.0
  9
$SKPOLY
 70
     0
  9
$TDCREATE
 40
2454138.543368773
  9
$TDUCREATE
 40
2454138.501702107
  9
$TDUPDATE
 40
2455818.749239178
  9
$TDUUPDATE
 40
2455818.707572511
  9
$TDINDWG
 40
0.0310778241
  9
$TDUSRTIMER
 40
0.0310778241
  9
$USRTIMER
 70
     1
  9
$ANGBASE
 50
0.0
  9
$ANGDIR
 70
     0
  9
$PDMODE
 70
     0
  9
$PDSIZE
 40
0.0
  9
$PLINEWID
 40
0.0
  9
$SPLFRAME
 70
     0
  9
$SPLINETYPE
 70
     6
  9
$SPLINESEGS
 70
     8
  9
$HANDSEED
  5
30F7
  9
$SURFTAB1
 70
     6
  9
$SURFTAB2
 70
     6
  9
$SURFTYPE
 70
     6
  9
$SURFU
 70
     6
  9
$SURFV
 70
     6
  9
$UCSBASE
  2

  9
$UCSNAME
  2

  9
$UCSORG
 10
0.0
 20
0.0
 30
0.0
  9
$UCSXDIR
 10
1.0
 20
0.0
 30
0.0
  9
$UCSYDIR
 10
0.0
 20
1.0
 30
0.0
  9
$UCSORTHOREF
  2

  9
$UCSORTHOVIEW
 70
     0
  9
$UCSORGTOP
 10
0.0
 20
0.0
 30
0.0
  9
$UCSORGBOTTOM
 10
0.0
 20
0.0
 30
0.0
  9
$UCSORGLEFT
 10
0.0
 20
0.0
 30
0.0
  9
$UCSORGRIGHT
 10
0.0
 20
0.0
 30
0.0
  9
$UCSORGFRONT
 10
0.0
 20
0.0
 30
0.0
  9
$UCSORGBACK
 10
0.0
 20
0.0
 30
0.0
  9
$PUCSBASE
  2

  9
$PUCSNAME
  2

  9
$PUCSORG
 10
0.0
 20
0.0
 30
0.0
  9
$PUCSXDIR
 10
1.0
 20
0.0
 30
0.0
  9
$PUCSYDIR
 10
0.0
 20
1.0
 30
0.0
  9
$PUCSORTHOREF
  2

  9
$PUCSORTHOVIEW
 70
     0
  9
$PUCSORGTOP
 10
0.0
 20
0.0
 30
0.0
  9
$PUCSORGBOTTOM
 10
0.0
 20
0.0
 30
0.0
  9
$PUCSORGLEFT
 10
0.0
 20
0.0
 30
0.0
  9
$PUCSORGRIGHT
 10
0.0
 20
0.0
 30
0.0
  9
$PUCSORGFRONT
 10
0.0
 20
0.0
 30
0.0
  9
$PUCSORGBACK
 10
0.0
 20
0.0
 30
0.0
  9
$USERI1
 70
     0
  9
$USERI2
 70
     0
  9
$USERI3
 70
     0
  9
$USERI4
 70
     0
  9
$USERI5
 70
     0
  9
$USERR1
 40
0.0
  9
$USERR2
 40
0.0
  9
$USERR3
 40
0.0
  9
$USERR4
 40
0.0
  9
$USERR5
 40
0.0
  9
$WORLDVIEW
 70
     1
  9
$SHADEDGE
 70
     3
  9
$SHADEDIF
 70
    70
  9
$TILEMODE
 70
     1
  9
$MAXACTVP
 70
    64
  9
$PINSBASE
 10
0.0
 20
0.0
 30
0.0
  9
$PLIMCHECK
 70
     0
  9
$PEXTMIN
 10
1.000000000000000E+20
 20
1.000000000000000E+20
 30
1.000000000000000E+20
  9
$PEXTMAX
 10
-1.000000000000000E+20
 20
-1.000000000000000E+20
 30
-1.000000000000000E+20
  9
$PLIMMIN
 10
0.0
 20
0.0
  9
$PLIMMAX
 10
420.0
 20
297.0
  9
$UNITMODE
 70
     0
  9
$VISRETAIN
 70
     1
  9
$PLINEGEN
 70
     0
  9
$PSLTSCALE
 70
     1
  9
$TREEDEPTH
 70
  3020
  9
$CMLSTYLE
  2
Standard
  9
$CMLJUST
 70
     0
  9
$CMLSCALE
 40
20.0
  9
$PROXYGRAPHICS
 70
     1
  9
$MEASUREMENT
 70
     1
  9
$CELWEIGHT
370
    -1
  9
$ENDCAPS
280
     0
  9
$JOINSTYLE
280
     0
  9
$LWDISPLAY
290
     0
  9
$INSUNITS
 70
     4
  9
$HYPERLINKBASE
  1

  9
$STYLESHEET
  1
sanindusa.ctb
  9
$XEDIT
290
     1
  9
$CEPSNTYPE
380
     0
  9
$PSTYLEMODE
290
     1
  9
$FINGERPRINTGUID
  2
{E665943D-C7C8-4C2D-9C12-2A72CFDEE590}
  9
$VERSIONGUID
  2
{DF84BBFD-69E5-4FDF-95EE-251AC39F976A}
  9
$EXTNAMES
290
     1
  9
$PSVPSCALE
 40
0.0
  9
$OLESTARTUP
290
     0
  0
ENDSEC
  0
SECTION
  2
CLASSES
  0
CLASS
  1
ACDBDICTIONARYWDFLT
  2
AcDbDictionaryWithDefault
  3
ObjectDBX Classes
 90
        0
280
     0
281
     0
  0
CLASS
  1
ACDBPLACEHOLDER
  2
AcDbPlaceHolder
  3
ObjectDBX Classes
 90
        0
280
     0
281
     0
  0
CLASS
  1
LAYOUT
  2
AcDbLayout
  3
ObjectDBX Classes
 90
        0
280
     0
281
     0
  0
CLASS
  1
DICTIONARYVAR
  2
AcDbDictionaryVar
  3
ObjectDBX Classes
 90
        0
280
     0
281
     0
  0
CLASS
  1
DIMASSOC
  2
AcDbDimAssoc
  3
"AcDbDimAssoc|Product Desc:     AcDim ARX App For Dimension|Company:          Autodesk, Inc.|WEB Address:      www.autodesk.com"
 90
        0
280
     0
281
     0
  0
CLASS
  1
TABLESTYLE
  2
AcDbTableStyle
  3
ObjectDBX Classes
 90
     4095
280
     0
281
     0
  0
CLASS
  1
SORTENTSTABLE
  2
AcDbSortentsTable
  3
ObjectDBX Classes
 90
        0
280
     0
281
     0
  0
CLASS
  1
MATERIAL
  2
AcDbMaterial
  3
ObjectDBX Classes
 90
     1153
280
     0
281
     0
  0
CLASS
  1
VISUALSTYLE
  2
AcDbVisualStyle
  3
ObjectDBX Classes
 90
     4095
280
     0
281
     0
  0
CLASS
  1
SCALE
  2
AcDbScale
  3
ObjectDBX Classes
 90
     1153
280
     0
281
     0
  0
CLASS
  1
MLEADERSTYLE
  2
AcDbMLeaderStyle
  3
ACDB_MLEADERSTYLE_CLASS
 90
     4095
280
     0
281
     0
  0
CLASS
  1
CELLSTYLEMAP
  2
AcDbCellStyleMap
  3
ObjectDBX Classes
 90
     1152
280
     0
281
     0
  0
ENDSEC
  0
SECTION
  2
TABLES
  0
TABLE
  2
VPORT
  5
8
330
0
100
AcDbSymbolTable
 70
     1
  0
VPORT
  5
2FE5
330
8
100
AcDbSymbolTableRecord
100
AcDbViewportTableRecord
  2
*Active
 70
     0
 10
0.0
 20
0.0
 11
1.0
 21
1.0
 12
8340.841876332691
 22
2076.318923353534
 13
0.0
 23
0.0
 14
10.0
 24
10.0
 15
10.0
 25
10.0
 16
0.0
 26
0.0
 36
1.0
 17
0.0
 27
0.0
 37
0.0
 40
2.045432437936868
 41
1.645464025026068
 42
50.0
 43
0.0
 44
0.0
 50
0.0
 51
0.0
 71
     0
 72
   100
 73
     1
 74
     2
 75
     0
 76
     0
 77
     0
 78
     0
281
     0
 65
     1
110
0.0
120
0.0
130
0.0
111
1.0
121
0.0
131
0.0
112
0.0
122
1.0
132
0.0
 79
     0
146
0.0
  0
ENDTAB
  0
TABLE
  2
LTYPE
  5
5
330
0
100
AcDbSymbolTable
 70
     6
  0
LTYPE
  5
14
330
5
100
AcDbSymbolTableRecord
100
AcDbLinetypeTableRecord
  2
ByBlock
 70
     0
  3

 72
    65
 73
     0
 40
0.0
  0
LTYPE
  5
15
330
5
100
AcDbSymbolTableRecord
100
AcDbLinetypeTableRecord
  2
ByLayer
 70
     0
  3

 72
    65
 73
     0
 40
0.0
  0
LTYPE
  5
16
330
5
100
AcDbSymbolTableRecord
100
AcDbLinetypeTableRecord
  2
Continuous
 70
     0
  3
Solid line
 72
    65
 73
     0
 40
0.0
  0
LTYPE
  5
2D
330
5
100
AcDbSymbolTableRecord
100
AcDbLinetypeTableRecord
  2
DASHDOT
 70
     0
  3
Dash dot __ . __ . __ . __ . __ . __ . __ . __
 72
    65
 73
     4
 40
25.4
 49
12.7
 74
     0
 49
-6.349999999999999
 74
     0
 49
0.0
 74
     0
 49
-6.349999999999999
 74
     0
  0
LTYPE
  5
2E
330
5
100
AcDbSymbolTableRecord
100
AcDbLinetypeTableRecord
  2
HIDDEN
 70
     0
  3
Hidden __ __ __ __ __ __ __ __ __ __ __ __ __ _
 72
    65
 73
     2
 40
9.524999999999998
 49
6.349999999999999
 74
     0
 49
-3.174999999999999
 74
     0
  0
LTYPE
  5
C75
330
5
100
AcDbSymbolTableRecord
100
AcDbLinetypeTableRecord
  2
AM_ISO02W050
 70
     0
  3
__ __ __ __ __ __ __ __ __ __ __ __ __ __ __
 72
    65
 73
     2
 40
7.5
 49
6.0
 74
     0
 49
-1.5
 74
     0
  0
LTYPE
  5
C76
330
5
100
AcDbSymbolTableRecord
100
AcDbLinetypeTableRecord
  2
AM_ISO08W050
 70
     0
  3
____ . ____ . ____ . ____ . ____ . ____ . ____
 72
    65
 73
     4
 40
18.0
 49
12.0
 74
     0
 49
-1.5
 74
     0
 49
3.0
 74
     0
 49
-1.5
 74
     0
  0
ENDTAB
  0
TABLE
  2
LAYER
  5
2
102
{ACAD_XDICTIONARY
360
1051
102
}
330
0
100
AcDbSymbolTable
 70
    17
  0
LAYER
  5
10
102
{ACAD_XDICTIONARY
360
3059
102
}
330
2
100
AcDbSymbolTableRecord
100
AcDbLayerTableRecord
  2
0
 70
     0
 62
     7
  6
Continuous
370
    -3
390
F
  0
LAYER
  5
2F
102
{ACAD_XDICTIONARY
360
305B
102
}
330
2
100
AcDbSymbolTableRecord
100
AcDbLayerTableRecord
  2
1
 70
     0
 62
     1
  6
Continuous
370
    -3
390
F
  0
LAYER
  5
30
102
{ACAD_XDICTIONARY
360
305D
102
}
330
2
100
AcDbSymbolTableRecord
100
AcDbLayerTableRecord
  2
2
 70
     0
 62
     2
  6
Continuous
370
    -3
390
F
  0
LAYER
  5
31
102
{ACAD_XDICTIONARY
360
305F
102
}
330
2
100
AcDbSymbolTableRecord
100
AcDbLayerTableRecord
  2
3
 70
     0
 62
     3
  6
Continuous
370
    -3
390
F
  0
LAYER
  5
32
102
{ACAD_XDICTIONARY
360
3061
102
}
330
2
100
AcDbSymbolTableRecord
100
AcDbLayerTableRecord
  2
4
 70
     0
 62
     4
  6
Continuous
370
    -3
390
F
  0
LAYER
  5
33
102
{ACAD_XDICTIONARY
360
3063
102
}
330
2
100
AcDbSymbolTableRecord
100
AcDbLayerTableRecord
  2
5
 70
     0
 62
     5
  6
Continuous
370
    -3
390
F
  0
LAYER
  5
34
102
{ACAD_XDICTIONARY
360
3065
102
}
330
2
100
AcDbSymbolTableRecord
100
AcDbLayerTableRecord
  2
6
 70
     0
 62
     6
  6
Continuous
370
    -3
390
F
  0
LAYER
  5
35
102
{ACAD_XDICTIONARY
360
3067
102
}
330
2
100
AcDbSymbolTableRecord
100
AcDbLayerTableRecord
  2
7
 70
     0
 62
     7
  6
Continuous
370
    -3
390
F
  0
LAYER
  5
36
102
{ACAD_XDICTIONARY
360
3069
102
}
330
2
100
AcDbSymbolTableRecord
100
AcDbLayerTableRecord
  2
cen
 70
     0
 62
     7
  6
DASHDOT
370
    -3
390
F
  0
LAYER
  5
37
102
{ACAD_XDICTIONARY
360
306B
102
}
330
2
100
AcDbSymbolTableRecord
100
AcDbLayerTableRecord
  2
hid
 70
     0
 62
     7
  6
HIDDEN
370
    -3
390
F
  0
LAYER
  5
5D6
102
{ACAD_XDICTIONARY
360
306D
102
}
330
2
100
AcDbSymbolTableRecord
100
AcDbLayerTableRecord
  2
hatch
 70
     0
 62
     9
  6
Continuous
370
    -3
390
F
  0
LAYER
  5
8AF
102
{ACAD_XDICTIONARY
360
306F
102
}
330
2
100
AcDbSymbolTableRecord
100
AcDbLayerTableRecord
  2
9
 70
     0
 62
     9
  6
Continuous
370
    -3
390
F
  0
LAYER
  5
8F8
102
{ACAD_XDICTIONARY
360
3071
102
}
330
2
100
AcDbSymbolTableRecord
100
AcDbLayerTableRecord
  2
leg fin
 70
     0
 62
     9
  6
Continuous
370
    -3
390
F
  0
LAYER
  5
91D
102
{ACAD_XDICTIONARY
360
3073
102
}
330
2
100
AcDbSymbolTableRecord
100
AcDbLayerTableRecord
  2
cotas
 70
     0
 62
     1
  6
Continuous
370
    -3
390
F
  0
LAYER
  5
92F
330
2
100
AcDbSymbolTableRecord
100
AcDbLayerTableRecord
  2
Defpoints
 70
     0
 62
     7
  6
Continuous
290
     0
370
    -3
390
F
  0
LAYER
  5
C7B
102
{ACAD_XDICTIONARY
360
3075
102
}
330
2
100
AcDbSymbolTableRecord
100
AcDbLayerTableRecord
  2
SANINDUSA
 70
     0
 62
     3
  6
Continuous
370
    -3
390
F
  0
LAYER
  5
10E9
102
{ACAD_XDICTIONARY
360
3077
102
}
330
2
100
AcDbSymbolTableRecord
100
AcDbLayerTableRecord
  2
quote
 70
     0
 62
   250
  6
Continuous
370
     5
390
F
  0
ENDTAB
  0
TABLE
  2
STYLE
  5
3
330
0
100
AcDbSymbolTable
 70
     4
  0
STYLE
  5
11
330
3
100
AcDbSymbolTableRecord
100
AcDbTextStyleTableRecord
  2
Standard
 70
     0
 40
0.0
 41
1.0
 50
0.0
 71
     0
 42
2.5
  3
Avgardn.ttf
  4

1001
ACAD
1000
AvantGarde Bk BT
1071
       34
  0
STYLE
  5
2C
330
3
100
AcDbSymbolTableRecord
100
AcDbTextStyleTableRecord
  2

 70
     1
 40
0.0
 41
1.0
 50
0.0
 71
     0
 42
2.5
  3
ltypeshp.shx
  4

  0
STYLE
  5
91F
330
3
100
AcDbSymbolTableRecord
100
AcDbTextStyleTableRecord
  2
SANINDUSA
 70
     0
 40
0.0
 41
1.0
 50
0.0
 71
     0
 42
2.5
  3
verdana.TTF
  4

1001
ACAD
1000
Verdana
1071
       34
  0
STYLE
  5
C7C
330
3
100
AcDbSymbolTableRecord
100
AcDbTextStyleTableRecord
  2
futura
 70
     0
 40
0.0
 41
1.0
 50
0.0
 71
     0
 42
2.5
  3
ZURCHN.TTF
  4

1001
ACAD
1000
Zurich BT
1071
       34
  0
ENDTAB
  0
TABLE
  2
VIEW
  5
6
330
0
100
AcDbSymbolTable
 70
     0
  0
ENDTAB
  0
TABLE
  2
UCS
  5
7
330
0
100
AcDbSymbolTable
 70
     0
  0
ENDTAB
  0
TABLE
  2
APPID
  5
9
330
0
100
AcDbSymbolTable
 70
    15
  0
APPID
  5
12
330
9
100
AcDbSymbolTableRecord
100
AcDbRegAppTableRecord
  2
ACAD
 70
     0
  0
APPID
  5
3A
330
9
100
AcDbSymbolTableRecord
100
AcDbRegAppTableRecord
  2
DCO15
 70
     0
  0
APPID
  5
EEE
330
9
100
AcDbSymbolTableRecord
100
AcDbRegAppTableRecord
  2
ACAD_DSTYLE_DIMTEXT_FILL
 70
     0
  0
APPID
  5
EEF
330
9
100
AcDbSymbolTableRecord
100
AcDbRegAppTableRecord
  2
ACAD_DSTYLE_DIMEXT_LENGTH
 70
     0
  0
APPID
  5
EF0
330
9
100
AcDbSymbolTableRecord
100
AcDbRegAppTableRecord
  2
ACAD_DSTYLE_DIMEXT_ENABLED
 70
     0
  0
APPID
  5
EF1
330
9
100
AcDbSymbolTableRecord
100
AcDbRegAppTableRecord
  2
ACAD_DSTYLE_DIM_LINETYPE
 70
     0
  0
APPID
  5
EF2
330
9
100
AcDbSymbolTableRecord
100
AcDbRegAppTableRecord
  2
ACAD_DSTYLE_DIM_EXT1_LINETYPE
 70
     0
  0
APPID
  5
EF3
330
9
100
AcDbSymbolTableRecord
100
AcDbRegAppTableRecord
  2
ACAD_DSTYLE_DIM_EXT2_LINETYPE
 70
     0
  0
APPID
  5
FAF
330
9
100
AcDbSymbolTableRecord
100
AcDbRegAppTableRecord
  2
ACAD_DSTYLE_DIMJOGGED_JOGANGLE_SYMBOL
 70
     0
  0
APPID
  5
1013
330
9
100
AcDbSymbolTableRecord
100
AcDbRegAppTableRecord
  2
ACAD_DSTYLE_DIMARC_LENGTH_SYMBOL
 70
     0
  0
APPID
  5
10EA
330
9
100
AcDbSymbolTableRecord
100
AcDbRegAppTableRecord
  2
GENIUS_GENREC_14
 70
     0
  0
APPID
  5
10EB
330
9
100
AcDbSymbolTableRecord
100
AcDbRegAppTableRecord
  2
GENIUS_GENODEF_13
 70
     0
  0
APPID
  5
10EC
330
9
100
AcDbSymbolTableRecord
100
AcDbRegAppTableRecord
  2
GENIUS_GENOBJ-N-REC_13
 70
     0
  0
APPID
  5
2221
330
9
100
AcDbSymbolTableRecord
100
AcDbRegAppTableRecord
  2
ACAD_EXEMPT_FROM_CAD_STANDARDS
 70
     0
  0
APPID
  5
30F6
330
9
100
AcDbSymbolTableRecord
100
AcDbRegAppTableRecord
  2
ACAD_MLEADERVER
 70
     0
  0
ENDTAB
  0
TABLE
  2
DIMSTYLE
  5
A
330
0
100
AcDbSymbolTable
 70
     4
100
AcDbDimStyleTable
 71
     1
340
921
  0
DIMSTYLE
105
45
330
A
100
AcDbSymbolTableRecord
100
AcDbDimStyleTableRecord
  2
STANDARD
 70
     0
289
     0
340
11
  0
DIMSTYLE
105
921
330
A
100
AcDbSymbolTableRecord
100
AcDbDimStyleTableRecord
  2
SANINDUSA
 70
     0
 40
10.0
 41
2.0
 42
1.0
 43
1.0
 44
1.0
 73
     0
 74
     0
 77
     1
 78
     8
140
2.0
141
0.0
143
0.03937007874016
147
1.0
171
     3
172
     1
176
   256
177
   256
178
   256
179
     1
271
     1
272
     1
274
     3
278
    44
283
     0
284
     8
340
91F
371
    -1
372
    -1
1001
ACAD_DSTYLE_DIMJOGGED_JOGANGLE_SYMBOL
1070
   384
1040
1.570796326794896
  0
DIMSTYLE
105
C7D
330
A
100
AcDbSymbolTableRecord
100
AcDbDimStyleTableRecord
  2
AM_ISO
 70
     0
  4
"
 41
2.5
 42
1.0
 43
10.0
 44
1.0
 47
0.1
 48
0.1
 73
     0
 74
     0
 77
     1
 78
     8
 79
     2
140
3.5
141
0.0
143
0.0393701
146
0.71
147
1.5
172
     1
176
   256
177
   256
178
     2
271
     2
272
     3
274
     4
283
     0
284
     8
340
11
371
    -1
372
    -1
  0
ENDTAB
  0
TABLE
  2
BLOCK_RECORD
  5
1
330
0
100
AcDbSymbolTable
 70
    23
  0
BLOCK_RECORD
  5
1F
102
{ACAD_XDICTIONARY
360
23F5
102
}
330
1
100
AcDbSymbolTableRecord
100
AcDbBlockTableRecord
  2
*Model_Space
340
22
  0
BLOCK_RECORD
  5
1B
330
1
100
AcDbSymbolTableRecord
100
AcDbBlockTableRecord
  2
*Paper_Space
340
1E
  0
BLOCK_RECORD
  5
23
330
1
100
AcDbSymbolTableRecord
100
AcDbBlockTableRecord
  2
*Paper_Space0
340
26
  0
BLOCK_RECORD
  5
919
330
1
100
AcDbSymbolTableRecord
100
AcDbBlockTableRecord
  2
_DotSmall
340
0
  0
BLOCK_RECORD
  5
922
330
1
100
AcDbSymbolTableRecord
100
AcDbBlockTableRecord
  2
base para cotas
340
0
310
2800000020000000200000000100080000000000000400000000000000000000000000000000000000000000000080000080000000808000800000008000800080800000C0C0C000C0DCC000F0CAA6000020400000206000002080000020A0000020C0000020E00000400000004020000040400000406000004080000040A0
310
000040C0000040E00000600000006020000060400000606000006080000060A0000060C0000060E00000800000008020000080400000806000008080000080A0000080C0000080E00000A0000000A0200000A0400000A0600000A0800000A0A00000A0C00000A0E00000C0000000C0200000C0400000C0600000C0800000C0
310
A00000C0C00000C0E00000E0000000E0200000E0400000E0600000E0800000E0A00000E0C00000E0E00040000000400020004000400040006000400080004000A0004000C0004000E00040200000402020004020400040206000402080004020A0004020C0004020E000404000004040200040404000404060004040800040
310
40A0004040C0004040E00040600000406020004060400040606000406080004060A0004060C0004060E00040800000408020004080400040806000408080004080A0004080C0004080E00040A0000040A0200040A0400040A0600040A0800040A0A00040A0C00040A0E00040C0000040C0200040C0400040C0600040C08000
310
40C0A00040C0C00040C0E00040E0000040E0200040E0400040E0600040E0800040E0A00040E0C00040E0E00080000000800020008000400080006000800080008000A0008000C0008000E00080200000802020008020400080206000802080008020A0008020C0008020E00080400000804020008040400080406000804080
310
008040A0008040C0008040E00080600000806020008060400080606000806080008060A0008060C0008060E00080800000808020008080400080806000808080008080A0008080C0008080E00080A0000080A0200080A0400080A0600080A0800080A0A00080A0C00080A0E00080C0000080C0200080C0400080C0600080C0
310
800080C0A00080C0C00080C0E00080E0000080E0200080E0400080E0600080E0800080E0A00080E0C00080E0E000C0000000C0002000C0004000C0006000C0008000C000A000C000C000C000E000C0200000C0202000C0204000C0206000C0208000C020A000C020C000C020E000C0400000C0402000C0404000C0406000C0
310
408000C040A000C040C000C040E000C0600000C0602000C0604000C0606000C0608000C060A000C060C000C060E000C0800000C0802000C0804000C0806000C0808000C080A000C080C000C080E000C0A00000C0A02000C0A04000C0A06000C0A08000C0A0A000C0A0C000C0A0E000C0C00000C0C02000C0C04000C0C06000
310
C0C08000C0C0A000F0FBFF00A4A0A000808080000000FF0000FF000000FFFF00FF000000FF00FF00FFFF0000FFFFFF00A4A4A4A4A4A4A4A4A4A4A4A4A4A4A4A4A4A4A4A4A4A4A4A4A4A4A4A4A4A4A4A4A4A4A4A4A4A4A4A4A4A4A4A4A4A4A4A4A4A4A4A4A4A4A4A4A4A4A4A4A4A4A4A4A4A4A4A4A4A4A4A4A4A4A4A4A4A4A4
310
A4A4A4A4A4A4A4A4A4A4A4A4A4A4A4A4A4A4A4A4A4A4A4A4A4A4A4A4A4A4A4A4A4A4A4A4A4A4A4A4A4A4A4A4A4A4A4A4A4A4A4A4A4A4A4A4A4A4A4A4A4A4A4A4A4A4A4A4A4A4A4A4A4A4A4A4A4A4A4A4A4A4A4A4A4A4A4A4A4A4A4A4A4A4A4A4A4A4A4A4A4A4A4A4A4A4A4A4A4A4A4A4A4A4A4A4A4A4A4A4A4A4A4A4A4A4A4
310
A4A4A4A4A4A4A4A4A4A4A4A4A4A4A4A4A4A4A4A4A4A4A4A4A4A4A4A4A4A4A4A4A4A4A4A4A4A4A4A4A4A4A4A4A4A4A4A4A4A4A4A4A4A4A4A4A4A4A4A4A4A4A4A4A4A4A4A4A4A4A4A4A4A4A4A4A4A4A4A4A4A4A4A4A4A4A4A4A4A4A4A4A4A4A4A4A4A4A4A4A4A4A4A4A4A4A4A4A4A4A4A4A4A4A4A4A4A4A4A4A4A4A4A4A4A4A4
310
A4A4A4A4A4A4A4A4A4A4A4A4A4A4A4A4A4A4A4A4A4A4A4A4A4A4A4A4A4A4A4A4A4A4A4A4A4A4A4A4A4A4A4A4A4A4A4A4A4A4A4A4A4A4A4A4A4A4A4A4A4A4A4A4A4A4A4A4A4A4A4A4A4A4A4A4A4A4A4A4A4A4A4A4A4A4A4A4A4A4A4A4A4A4A4A4A4A4A4A4A4A4A4A4A4A4A4A4A4A4A4A4A4A4A4A4F9F9F9F9F9F9F9F9F9F9F9
310
F9F9F9F9F9F9F9F9F9F9F9F9F9F9F9F9F9F9F9A4A4F9F9F9F9F9F9F9F9F9F9F9F9F9F9F9F9F9F9F9F9F9F9F9F9F9F9F9F9F9F9A4A4F9F9F9F9F9F9F9F9F9F9F9F9F9F9F9F9F9F9F9F9F9F9F9F9F9F9F9F9F9F9A4A4F9A4A4A4A4A4A4A4A4A4A4A4A4A4A4A4A4A4A4A4A4A4A4A4A4A4A4A4A4F9A4A4A4A4A4A4A4A4A4A4A4A4
310
A4A4A4A4A4A4A4A4A4A4A4A4A4A4A4A4A4A4A4A4A4A4A4A4A4A4A4A4A4A4A4A4A4A4A4A4A4A4A4A4A4A4A4A4A4A4A4A4A4A4A4A4A4A4A4A4A4A4A4A4A4A4A4A4A4A4A4A4A4A4A4A4A4A4A4A4A4A4A4A4A4A4A4A4A4A4A4A4A4A4A4A4A4A4A4A4A4A4A4A4A4A4A4A4A4A4A4A4A4A4A4A4A4A4A4A4A4A4A4A4A4A4A4A4A4A4A4
310
A4A4A4A4A4A4A4A4A4A4A4A4A4A4A4A4A4A4A4A4A4A4A4A4A4A4A4A4A4A4A4A4A4A4A4A4A4A4A4A4A4A4A4A4A4A4A4A4A4A4A4A4A4A4A4A4A4A4A4A4A4A4A4A4A4A4A4A4A4A4A4A4A4A4A4A4A4A4A4A4A4A4A4A4A4A4A4A4A4A4A4A4A4A4A4A4A4A4A4A4A4A4A4A4A4A4A4A4A4A4A4A4A4A4A4A4A4A4A4A4A4A4A4A4A4A4A4
310
A4A4A4A4A4A4A4A4A4A4A4A4A4A4A4A4A4A4A4A4A4A4A4A4A4A4A4A4A4A4A4A4A4A4A4A4A4A4A4A4A4A4A4A4A4A4A4A4A4A4A4A4A4A4A4A4A4A4A4A4A4A4A4A4A4A4A4A4A4A4A4A4A4A4A4A4A4A4A4A4A4A4A4A4A4A4A4A4A4A4A4A4A4A4A4A4A4A4A4A4A4A4A4A4A4A4A4A4A4A4A4A4A4A4A4A4A4A4A4A4A4A4A4A4A4A4A4
310
A4A4A4A4A4A4A4A4A4A4A4A4A4A4A4A4A4A4A4A4A4A4A4A4A4A4A4A4A4A4A4A4A4A4A4A4A4A4A4A4A4A4A4A4A4A4A4A4A4A4A4A4A4A4A4A4
1001
ACAD
1000
DesignCenter Data
1002
{
1070
     1
1070
     4
1002
}
  0
BLOCK_RECORD
  5
AA8
330
1
100
AcDbSymbolTableRecord
100
AcDbBlockTableRecord
  2
_CLOSED
340
0
  0
BLOCK_RECORD
  5
B79
330
1
100
AcDbSymbolTableRecord
100
AcDbBlockTableRecord
  2
nota revisoes
340
0
1001
ACAD
1000
DesignCenter Data
1002
{
1070
     1
1070
     4
1002
}
  0
BLOCK_RECORD
  5
B8E
330
1
100
AcDbSymbolTableRecord
100
AcDbBlockTableRecord
  2
a3l
340
0
1001
ACAD
1000
DesignCenter Data
1002
{
1070
     1
1070
     4
1002
}
  0
BLOCK_RECORD
  5
B9E
330
1
100
AcDbSymbolTableRecord
100
AcDbBlockTableRecord
  2
legenda desenvolvimento
340
0
1001
ACAD
1000
DesignCenter Data
1002
{
1070
     1
1070
     4
1002
}
  0
BLOCK_RECORD
  5
1060
330
1
100
AcDbSymbolTableRecord
100
AcDbBlockTableRecord
  2
guarnizione
340
0
  0
BLOCK_RECORD
  5
2DFB
330
1
100
AcDbSymbolTableRecord
100
AcDbBlockTableRecord
  2
*D8
340
0
  0
BLOCK_RECORD
  5
2E07
330
1
100
AcDbSymbolTableRecord
100
AcDbBlockTableRecord
  2
*D9
340
0
  0
BLOCK_RECORD
  5
2E15
330
1
100
AcDbSymbolTableRecord
100
AcDbBlockTableRecord
  2
*D10
340
0
  0
BLOCK_RECORD
  5
2E21
330
1
100
AcDbSymbolTableRecord
100
AcDbBlockTableRecord
  2
*D11
340
0
  0
BLOCK_RECORD
  5
2E2D
330
1
100
AcDbSymbolTableRecord
100
AcDbBlockTableRecord
  2
*D12
340
0
  0
BLOCK_RECORD
  5
2E68
330
1
100
AcDbSymbolTableRecord
100
AcDbBlockTableRecord
  2
*D13
340
0
  0
BLOCK_RECORD
  5
2E75
330
1
100
AcDbSymbolTableRecord
100
AcDbBlockTableRecord
  2
*D14
340
0
  0
BLOCK_RECORD
  5
2E81
330
1
100
AcDbSymbolTableRecord
100
AcDbBlockTableRecord
  2
*D15
340
0
  0
BLOCK_RECORD
  5
2E8D
330
1
100
AcDbSymbolTableRecord
100
AcDbBlockTableRecord
  2
*D16
340
0
  0
BLOCK_RECORD
  5
2E99
330
1
100
AcDbSymbolTableRecord
100
AcDbBlockTableRecord
  2
*D17
340
0
  0
BLOCK_RECORD
  5
2EA5
330
1
100
AcDbSymbolTableRecord
100
AcDbBlockTableRecord
  2
*D18
340
0
  0
BLOCK_RECORD
  5
2F88
330
1
100
AcDbSymbolTableRecord
100
AcDbBlockTableRecord
  2
*D19
340
0
  0
BLOCK_RECORD
  5
2FBB
330
1
100
AcDbSymbolTableRecord
100
AcDbBlockTableRecord
  2
*D20
340
0
  0
BLOCK_RECORD
  5
303C
330
1
100
AcDbSymbolTableRecord
100
AcDbBlockTableRecord
  2
*D22
340
0
  0
ENDTAB
  0
ENDSEC
  0
SECTION
  2
BLOCKS
  0
BLOCK
  5
20
330
1F
100
AcDbEntity
  8
0
100
AcDbBlockBegin
  2
*Model_Space
 70
     0
 10
0.0
 20
0.0
 30
0.0
  3
*Model_Space
  1

  0
ENDBLK
  5
21
330
1F
100
AcDbEntity
  8
0
100
AcDbBlockEnd
  0
BLOCK
  5
1C
330
1B
100
AcDbEntity
 67
     1
  8
0
100
AcDbBlockBegin
  2
*Paper_Space
 70
     0
 10
0.0
 20
0.0
 30
0.0
  3
*Paper_Space
  1

  0
ENDBLK
  5
1D
330
1B
100
AcDbEntity
 67
     1
  8
0
100
AcDbBlockEnd
  0
BLOCK
  5
24
330
23
100
AcDbEntity
 67
     1
  8
0
100
AcDbBlockBegin
  2
*Paper_Space0
 70
     0
 10
0.0
 20
0.0
 30
0.0
  3
*Paper_Space0
  1

  0
ENDBLK
  5
25
330
23
100
AcDbEntity
 67
     1
  8
0
100
AcDbBlockEnd
  0
BLOCK
  5
91B
330
919
100
AcDbEntity
  8
0
100
AcDbBlockBegin
  2
_DotSmall
 70
     0
 10
0.0
 20
0.0
 30
0.0
  3
_DotSmall
  1

  0
LWPOLYLINE
  5
91A
330
919
100
AcDbEntity
  8
0
  6
ByBlock
 62
     0
100
AcDbPolyline
 90
        2
 70
     1
 43
0.5
 10
-0.0625
 20
0.0
 42
1.0
 10
0.0625
 20
0.0
 42
1.0
  0
ENDBLK
  5
91C
330
919
100
AcDbEntity
  8
0
100
AcDbBlockEnd
  0
BLOCK
  5
92A
330
922
100
AcDbEntity
  8
0
100
AcDbBlockBegin
  2
base para cotas
 70
     0
 10
0.0
 20
0.0
 30
0.0
  3
base para cotas
  1

  0
LINE
  5
B36
330
922
100
AcDbEntity
  8
cotas
100
AcDbLine
 10
0.0
 20
-30.0
 30
0.0
 11
327.1260136525398
 21
-30.0
 31
0.0
  0
LINE
  5
B37
330
922
100
AcDbEntity
  8
cotas
100
AcDbLine
 10
0.0
 20
-25.0
 30
0.0
 11
327.1260136525398
 21
-25.0
 31
0.0
  0
LINE
  5
B38
330
922
100
AcDbEntity
  8
cotas
100
AcDbLine
 10
0.0
 20
-20.0
 30
0.0
 11
327.1260136525398
 21
-20.0
 31
0.0
  0
LINE
  5
B39
330
922
100
AcDbEntity
  8
cotas
100
AcDbLine
 10
0.0
 20
-15.0
 30
0.0
 11
327.1260136525398
 21
-15.0
 31
0.0
  0
LINE
  5
B3A
330
922
100
AcDbEntity
  8
cotas
100
AcDbLine
 10
0.0
 20
-10.0
 30
0.0
 11
327.1260136525398
 21
-10.0
 31
0.0
  0
LINE
  5
B3B
330
922
100
AcDbEntity
  8
cotas
100
AcDbLine
 10
0.0
 20
0.0
 30
0.0
 11
0.0
 21
-30.0
 31
0.0
  0
LINE
  5
B3C
330
922
100
AcDbEntity
  8
cotas
100
AcDbLine
 10
327.1260136525398
 20
-30.0
 30
0.0
 11
327.1260136525398
 21
0.0
 31
0.0
  0
ENDBLK
  5
92B
330
922
100
AcDbEntity
  8
0
100
AcDbBlockEnd
  0
BLOCK
  5
AAD
330
AA8
100
AcDbEntity
  8
0
100
AcDbBlockBegin
  2
_CLOSED
 70
     0
 10
0.0
 20
0.0
 30
0.0
  3
_CLOSED
  1

  0
LINE
  5
AA9
330
AA8
100
AcDbEntity
  8
0
100
AcDbLine
 10
-1.0
 20
0.166667
 30
0.0
 11
0.0
 21
0.0
 31
0.0
  0
LINE
  5
AAA
330
AA8
100
AcDbEntity
  8
0
100
AcDbLine
 10
0.0
 20
0.0
 30
0.0
 11
-1.0
 21
-0.166667
 31
0.0
  0
LINE
  5
AAB
330
AA8
100
AcDbEntity
  8
0
100
AcDbLine
 10
-1.0
 20
0.166667
 30
0.0
 11
-1.0
 21
-0.166667
 31
0.0
  0
LINE
  5
AAC
330
AA8
100
AcDbEntity
  8
0
100
AcDbLine
 10
0.0
 20
0.0
 30
0.0
 11
-1.0
 21
0.0
 31
0.0
  0
ENDBLK
  5
AAE
330
AA8
100
AcDbEntity
  8
0
100
AcDbBlockEnd
  0
BLOCK
  5
B7C
330
B79
100
AcDbEntity
  8
0
100
AcDbBlockBegin
  2
nota revisoes
 70
     0
 10
0.0
 20
0.0
 30
0.0
  3
nota revisoes
  1

  0
CIRCLE
  5
B7A
330
B79
100
AcDbEntity
  8
4
100
AcDbCircle
 10
0.0
 20
0.0
 30
0.0
 40
13.69426055101189
  0
TEXT
  5
B7B
330
B79
100
AcDbEntity
  8
4
100
AcDbText
 10
-5.496248358154345
 20
-5.354545554066362
 30
0.0
 40
12.0
  1
1
  7
SANINDUSA
 72
     1
 11
-0.249774214433728
 21
-5.354545554066362
 31
0.0
100
AcDbText
  0
ENDBLK
  5
B7D
330
B79
100
AcDbEntity
  8
0
100
AcDbBlockEnd
  0
BLOCK
  5
B9C
330
B8E
100
AcDbEntity
  8
0
100
AcDbBlockBegin
  2
a3l
 70
     0
 10
0.0
 20
0.0
 30
0.0
  3
a3l
  1

  0
LINE
  5
B8F
330
B8E
100
AcDbEntity
  8
1
100
AcDbLine
 10
-364.2925296599447
 20
-362.1188951399395
 30
0.0
 11
-364.2925296599447
 21
-65.11889513993946
 31
0.0
  0
LINE
  5
B90
330
B8E
100
AcDbEntity
  8
4
100
AcDbLine
 10
-369.2925296599447
 20
-357.1188951399395
 30
0.0
 11
-369.2925296599447
 21
-70.11889513993946
 31
0.0
  0
LINE
  5
B91
330
B8E
100
AcDbEntity
  8
1
100
AcDbLine
 10
-784.2925296599446
 20
-65.11889513993946
 30
0.0
 11
-784.2925296599446
 21
-362.1188951399395
 31
0.0
  0
LINE
  5
B92
330
B8E
100
AcDbEntity
  8
4
100
AcDbLine
 10
-759.2925296599446
 20
-357.1188951399395
 30
0.0
 11
-759.2925296599446
 21
-70.11889513993946
 31
0.0
  0
LINE
  5
B93
330
B8E
100
AcDbEntity
  8
1
100
AcDbLine
 10
-784.2925296599446
 20
-362.1188951399395
 30
0.0
 11
-364.2925296599447
 21
-362.1188951399395
 31
0.0
  0
LINE
  5
B94
330
B8E
100
AcDbEntity
  8
4
100
AcDbLine
 10
-759.2925296599446
 20
-357.1188951399395
 30
0.0
 11
-369.2925296599447
 21
-357.1188951399395
 31
0.0
  0
LINE
  5
B95
330
B8E
100
AcDbEntity
  8
1
100
AcDbLine
 10
-654.2925296599446
 20
-357.1188951399395
 30
0.0
 11
-654.2925296599446
 21
-362.1188951399395
 31
0.0
  0
LINE
  5
B96
330
B8E
100
AcDbEntity
  8
1
100
AcDbLine
 10
-364.2925296599447
 20
-65.11889513993946
 30
0.0
 11
-784.2925296599446
 21
-65.11889513993946
 31
0.0
  0
LINE
  5
B97
330
B8E
100
AcDbEntity
  8
4
100
AcDbLine
 10
-369.2925296599447
 20
-70.11889513993946
 30
0.0
 11
-759.2925296599446
 21
-70.11889513993946
 31
0.0
  0
LINE
  5
B98
330
B8E
100
AcDbEntity
  8
1
100
AcDbLine
 10
-654.2925296599446
 20
-65.11889513993946
 30
0.0
 11
-654.2925296599446
 21
-70.11889513993946
 31
0.0
  0
LINE
  5
B99
330
B8E
100
AcDbEntity
  8
1
100
AcDbLine
 10
-549.2925296599446
 20
-70.11889513993946
 30
0.0
 11
-549.2925296599446
 21
-65.11889513993946
 31
0.0
  0
LINE
  5
B9A
330
B8E
100
AcDbEntity
  8
1
100
AcDbLine
 10
-369.2925296599447
 20
-65.11889513993946
 30
0.0
 11
-364.2925296599447
 21
-65.11889513993946
 31
0.0
  0
LINE
  5
B9B
330
B8E
100
AcDbEntity
  8
1
100
AcDbLine
 10
-549.2925296599446
 20
-357.1188951399395
 30
0.0
 11
-549.2925296599446
 21
-362.1188951399395
 31
0.0
  0
ENDBLK
  5
B9D
330
B8E
100
AcDbEntity
  8
0
100
AcDbBlockEnd
  0
BLOCK
  5
C13
330
B9E
100
AcDbEntity
  8
0
100
AcDbBlockBegin
  2
legenda desenvolvimento
 70
     2
 10
0.0
 20
0.0
 30
0.0
  3
legenda desenvolvimento
  1

  0
ATTDEF
  5
B9F
330
B9E
100
AcDbEntity
  8
1
100
AcDbText
 10
-108.606245802552
 20
55.5
 30
0.0
 40
4.0
  1
XXXXXXXXXXXXXX
 41
0.8
  7
SANINDUSA
 72
     4
 11
-87.5
 21
57.5
 31
0.0
100
AcDbAttributeDefinition
  3
Nome do Produto:
  2
PRODUTO
 70
     0
  0
ATTDEF
  5
BA0
330
B9E
100
AcDbEntity
  8
1
100
AcDbText
 10
-97.9997966101695
 20
41.25
 30
0.0
 40
3.0
  1
XXXXXXXXX
 41
0.8
  7
futura
 72
     4
 11
-87.5
 21
42.75
 31
0.0
100
AcDbAttributeDefinition
  3
Nome da Peça:
  2
PECA
 70
     0
  0
ATTDEF
  5
BA1
330
B9E
100
AcDbEntity
  8
1
100
AcDbText
 10
-133.4422431161853
 20
21.11745296763252
 30
0.0
 40
2.5
  1
X
 41
0.8
  7
SANINDUSA
 72
     4
 11
-132.5
 21
22.36745296763252
 31
0.0
100
AcDbAttributeDefinition
  3
Cod. TESTE:
  2
TESTE
 70
     0
  0
ATTDEF
  5
BA2
330
B9E
100
AcDbEntity
  8
1
100
AcDbText
 10
-124.3844862323707
 20
21.11745296763252
 30
0.0
 40
2.5
  1
XX
 41
0.8
  7
SANINDUSA
 72
     4
 11
-122.5
 21
22.36745296763252
 31
0.0
100
AcDbAttributeDefinition
  3
Cod. Ano:
  2
ANO
 70
     0
  0
ATTDEF
  5
BA3
330
B9E
100
AcDbEntity
  8
1
100
AcDbText
 10
-112.526889953052
 20
21.11745296763252
 30
0.0
 40
2.5
  1
XXX
 41
0.8
  7
SANINDUSA
 72
     4
 11
-109.700160604496
 21
22.36745296763252
 31
0.0
100
AcDbAttributeDefinition
  3
Cod. Sequência:
  2
SEQUENCIA
 70
     0
  0
ATTDEF
  5
BA4
330
B9E
100
AcDbEntity
  8
1
100
AcDbText
 10
-99.35382430979316
 20
21.11745296763252
 30
0.0
 40
2.5
  1
XX
 41
0.8
  7
SANINDUSA
 72
     4
 11
-97.46933807742244
 21
22.36745296763252
 31
0.0
100
AcDbAttributeDefinition
  3
Cod. Tipo:
  2
TIPO
 70
     0
  0
ATTDEF
  5
BA5
330
B9E
100
AcDbEntity
  8
1
100
AcDbText
 10
-87.42035911468438
 20
21.11745296763252
 30
0.0
 40
2.5
  1
XXX
 41
0.8
  7
SANINDUSA
 72
     4
 11
-84.59362976612828
 21
22.36745296763252
 31
0.0
100
AcDbAttributeDefinition
  3
Cod. Produto:
  2
PRODUTO
 70
     0
  0
ATTDEF
  5
BA6
330
B9E
100
AcDbEntity
  8
1
100
AcDbText
 10
-74.62051971917853
 20
21.11745296763252
 30
0.0
 40
2.5
  1
XXX
 41
0.8
  7
SANINDUSA
 72
     4
 11
-71.79379037062244
 21
22.36745296763252
 31
0.0
100
AcDbAttributeDefinition
  3
Cod. Peça:
  2
PECA
 70
     0
  0
ATTDEF
  5
BA7
330
B9E
100
AcDbEntity
  8
1
100
AcDbText
 10
-61.10603446650329
 20
21.11745296763252
 30
0.0
 40
2.5
  1
XX
 41
0.8
  7
SANINDUSA
 72
     4
 11
-59.22154823413257
 21
22.36745296763252
 31
0.0
100
AcDbAttributeDefinition
  3
Cod. Revisão:
  2
REV
 70
     0
  0
ATTDEF
  5
BA8
330
B9E
100
AcDbEntity
  8
1
100
AcDbText
 10
-48.43615325006194
 20
21.11745296763252
 30
0.0
 40
2.5
  1
XX
 41
0.8
  7
SANINDUSA
 72
     4
 11
-46.55166701769121
 21
22.36745296763252
 31
0.0
100
AcDbAttributeDefinition
  3
Cod. Alteração:
  2
ALT
 70
     0
  0
ATTDEF
  5
BA9
330
B9E
100
AcDbEntity
  8
1
100
AcDbText
 10
-35.19086635325722
 20
23.98875083948959
 30
0.0
 40
3.0
  1
1/XXX
 41
0.8
  7
SANINDUSA
 72
     4
 11
-30.0
 21
25.25
 31
0.0
100
AcDbAttributeDefinition
  3
Escala geral:
  2
ESCALA
 70
     0
  0
ATTDEF
  5
BAA
330
B9E
100
AcDbEntity
  8
1
100
AcDbText
 10
-15.65345869711215
 20
23.75
 30
0.0
 40
3.0
  1
XXXXX
 41
0.8
  7
SANINDUSA
 72
     4
 11
-10.0
 21
25.25
 31
0.0
100
AcDbAttributeDefinition
  3
Folha:
  2
FOLHA
 70
     0
  0
ATTDEF
  5
BAB
330
B9E
100
AcDbEntity
  8
1
100
AcDbText
 10
-178.5146998822042
 20
56.9531347542807
 30
0.0
 40
2.0
  1
xx
 41
0.8
  7
SANINDUSA
 72
     4
 11
-177.2123493113513
 21
57.70330265219877
 31
0.0
100
AcDbAttributeDefinition
  3
revisão
  2
REV.
 70
     0
  0
ATTDEF
  5
BAC
330
B9E
100
AcDbEntity
  8
1
100
AcDbText
 10
-172.7849640077129
 20
56.9531347542807
 30
0.0
 40
2.0
  1
xx
 41
0.8
  7
SANINDUSA
 72
     4
 11
-171.48261343686
 21
57.70330265219877
 31
0.0
100
AcDbAttributeDefinition
  3
alteração
  2
ALT.
 70
     0
  0
ATTDEF
  5
BAD
330
B9E
100
AcDbEntity
  8
1
100
AcDbText
 10
-168.007199951307
 20
56.70330265219877
 30
0.0
 40
2.0
  1
xx/xx/xxxx
 41
0.8
  7
SANINDUSA
 11
-168.007199951307
 21
57.70330265219877
 31
0.0
100
AcDbAttributeDefinition
  3
data
  2
DATA
 70
     0
 74
     2
  0
ATTDEF
  5
BAE
330
B9E
100
AcDbEntity
  8
1
100
AcDbText
 10
-168.5396372253371
 20
13.15916722632639
 30
0.0
 40
2.0
  1
XX/XX/XXXX
 41
0.8
  7
SANINDUSA
 72
     4
 11
-161.5099528734231
 21
14.0
 31
0.0
100
AcDbAttributeDefinition
  3
Data projecto
  2
DATA_PROJ
 70
     0
  0
ATTDEF
  5
BAF
330
B9E
100
AcDbEntity
  8
1
100
AcDbText
 10
-150.8658110728766
 20
13.24983210208193
 30
0.0
 40
2.0
  1
xxxxxxxx
 41
0.8
  7
SANINDUSA
 72
     4
 11
-145.6564087894649
 21
14.0
 31
0.0
100
AcDbAttributeDefinition
  3
nome de quem projectou
  2
NOME
 70
     0
  0
ATTDEF
  5
BB0
330
B9E
100
AcDbEntity
  8
1
100
AcDbText
 10
-168.5396372253371
 20
9.159167226326394
 30
0.0
 40
2.0
  1
XX/XX/XXXX
 41
0.8
  7
SANINDUSA
 72
     4
 11
-161.5099528734231
 21
10.0
 31
0.0
100
AcDbAttributeDefinition
  3
Data desenhou
  2
DATA_DES
 70
     0
  0
ATTDEF
  5
BB1
330
B9E
100
AcDbEntity
  8
1
100
AcDbText
 10
-151.516986358303
 20
9.249832102081933
 30
0.0
 40
2.0
  1
xxxxxxxxx
 41
0.8
  7
SANINDUSA
 72
     4
 11
-145.6564087894649
 21
10.0
 31
0.0
100
AcDbAttributeDefinition
  3
nome
  2
NOME
 70
     0
  0
ATTDEF
  5
BB2
330
B9E
100
AcDbEntity
  8
1
100
AcDbText
 10
-127.2924214135946
 20
14.1979876583216
 30
0.0
 40
2.0
  1
Vitreous China
 41
0.8
  7
SANINDUSA
 72
     4
 11
-119.231709526422
 21
15.22216495852308
 31
0.0
100
AcDbAttributeDefinition
  3
Nome do Material:
  2
MATERIAL
 70
     0
  0
ATTDEF
  5
BB3
330
B9E
100
AcDbEntity
  8
1
100
AcDbText
 10
-103.1563452122093
 20
14.38019043949261
 30
0.0
 40
2.0
  1
Branco
 41
0.8
  7
SANINDUSA
 72
     4
 11
-99.33418268702462
 21
15.35937109765245
 31
0.0
100
AcDbAttributeDefinition
  3
cor da peça
  2
COR
 70
     0
  0
ATTDEF
  5
BB4
330
B9E
100
AcDbEntity
  8
1
100
AcDbText
 10
-116.7235057085292
 20
5.975822699798522
 30
0.0
 40
2.0
  1
Vidrado
 41
0.8
  7
SANINDUSA
 72
     4
 11
-112.5
 21
7.0
 31
0.0
100
AcDbAttributeDefinition
  3
Tipo de acabamento:
  2
ACABAMENTO
 70
     0
  0
ATTDEF
  5
BB5
330
B9E
100
AcDbEntity
  8
1
100
AcDbText
 10
-79.18527869967246
 20
16.65066409850533
 30
0.0
 40
2.0
  1
XXXXXXX
 41
0.8
  7
SANINDUSA
 72
     4
 11
-73.90871724903445
 21
17.65066409850533
 31
0.0
100
AcDbAttributeDefinition
  3
Normas
  2
NORMAS
 70
     0
  0
ATTDEF
  5
BB6
330
B9E
100
AcDbEntity
  8
1
100
AcDbText
 10
-30.55312290127603
 20
14.0
 30
0.0
 40
2.0
  1
XXXXXXXXXXXXXX
 41
0.8
  7
SANINDUSA
 72
     4
 11
-20.0
 21
15.0
 31
0.0
100
AcDbAttributeDefinition
  3
Substitui o desenho:
  2
SUBSTITUI
 70
     0
  0
ATTDEF
  5
BB7
330
B9E
100
AcDbEntity
  8
1
100
AcDbText
 10
-31.30691739422431
 20
6.0
 30
0.0
 40
2.0
  1
XXXXXXXXXXXXXXX
 41
0.8
  7
SANINDUSA
 72
     4
 11
-20.0
 21
7.0
 31
0.0
100
AcDbAttributeDefinition
  3
Substituido por:
  2
SUBSTITUIDO
 70
     0
  0
ATTDEF
  5
BB8
330
B9E
100
AcDbEntity
  8
1
100
AcDbText
 10
-110.0220608548302
 20
1.478208457928303
 30
0.0
 40
2.0
  1
XXXXXXXXXXXXXXXXXXXXXXXXXXXXXXXXXX
 41
0.8
  7
SANINDUSA
 11
-110.0220608548302
 21
2.478208457928303
 31
0.0
100
AcDbAttributeDefinition
  3
Localização do desenho:
  2
LOC-DWG
 70
     0
 74
     2
  0
LINE
  5
BB9
330
B9E
100
AcDbEntity
  8
3
100
AcDbLine
 10
-135.0
 20
4.0
 30
0.0
 11
0.0000000000004547
 21
4.0
 31
0.0
  0
LINE
  5
BBA
330
B9E
100
AcDbEntity
  8
3
100
AcDbLine
 10
-90.00000000000046
 20
12.0
 30
0.0
 11
-135.0
 21
12.0
 31
0.0
  0
LINE
  5
BBB
330
B9E
100
AcDbEntity
  8
3
100
AcDbLine
 10
-135.0
 20
32.5
 30
0.0
 11
-40.0
 21
32.5
 31
0.0
  0
TEXT
  5
BBC
330
B9E
100
AcDbEntity
  8
1
100
AcDbText
 10
-134.0
 20
1.25
 30
0.0
 40
2.0
  1
Localização do des.:
 41
0.8
  7
SANINDUSA
 11
-134.0
 21
2.25
 31
0.0
100
AcDbText
 73
     2
  0
LINE
  5
BBD
330
B9E
100
AcDbEntity
  8
3
100
AcDbLine
 10
-180.0
 20
65.0
 30
0.0
 11
0.0
 21
65.0
 31
0.0
  0
LINE
  5
BBE
330
B9E
100
AcDbEntity
  8
leg fin
100
AcDbLine
 10
-40.0
 20
25.05956924886846
 30
0.0
 11
-135.0
 21
25.05956924886846
 31
0.0
  0
LINE
  5
BBF
330
B9E
100
AcDbEntity
  8
leg fin
100
AcDbLine
 10
-40.0
 20
28.5
 30
0.0
 11
-135.0
 21
28.5
 31
0.0
  0
LINE
  5
BC0
330
B9E
100
AcDbEntity
  8
3
100
AcDbLine
 10
-135.0
 20
50.0
 30
0.0
 11
-40.0
 21
50.0
 31
0.0
  0
TEXT
  5
BC1
330
B9E
100
AcDbEntity
  8
1
100
AcDbText
 10
-134.0
 20
29.75
 30
0.0
 40
2.0
  1
Desenho nº:
 41
0.8
  7
SANINDUSA
 11
-134.0
 21
30.75
 31
0.0
100
AcDbText
 73
     2
  0
TEXT
  5
BC2
330
B9E
100
AcDbEntity
  8
1
100
AcDbText
 10
-134.0
 20
9.25
 30
0.0
 40
2.0
  1
Acabamento:
 41
0.8
  7
SANINDUSA
 11
-134.0
 21
10.25
 31
0.0
100
AcDbText
 73
     2
  0
LINE
  5
BC3
330
B9E
100
AcDbEntity
  8
3
100
AcDbLine
 10
-180.0
 20
20.0
 30
0.0
 11
0.0
 21
20.0
 31
0.0
  0
LINE
  5
BC4
330
B9E
100
AcDbEntity
  8
1
100
AcDbLine
 10
-174.5810776056337
 20
55.5
 30
0.0
 11
-174.5810776056337
 21
65.0
 31
0.0
  0
LINE
  5
BC5
330
B9E
100
AcDbEntity
  8
1
100
AcDbLine
 10
-168.9210461879161
 20
55.5
 30
0.0
 11
-168.9210461879161
 21
65.0
 31
0.0
  0
LINE
  5
BC6
330
B9E
100
AcDbEntity
  8
1
100
AcDbLine
 10
-154.0988595589306
 20
55.5
 30
0.0
 11
-154.0988595589306
 21
65.0
 31
0.0
  0
LINE
  5
BC7
330
B9E
100
AcDbEntity
  8
3
100
AcDbLine
 10
-180.0
 20
65.0
 30
0.0
 11
-180.0
 21
0.0
 31
0.0
  0
LINE
  5
BC8
330
B9E
100
AcDbEntity
  8
3
100
AcDbLine
 10
-135.0
 20
0.0
 30
0.0
 11
-135.0
 21
65.0
 31
0.0
  0
TEXT
  5
BC9
330
B9E
100
AcDbEntity
  8
1
100
AcDbText
 10
-179.0
 20
9.75
 30
0.0
 40
1.5
  1
Des.
 41
0.8
  7
SANINDUSA
 11
-179.0
 21
10.5
 31
0.0
100
AcDbText
 73
     2
  0
LINE
  5
BCA
330
B9E
100
AcDbEntity
  8
1
100
AcDbLine
 10
-168.9210461879161
 20
20.0
 30
0.0
 11
-168.9210461879161
 21
0.0
 31
0.0
  0
LINE
  5
BCB
330
B9E
100
AcDbEntity
  8
1
100
AcDbLine
 10
-154.0988595589306
 20
20.0
 30
0.0
 11
-154.0988595589306
 21
0.0
 31
0.0
  0
LINE
  5
BCC
330
B9E
100
AcDbEntity
  8
1
100
AcDbLine
 10
-180.0
 20
4.0
 30
0.0
 11
-135.0
 21
4.0
 31
0.0
  0
LINE
  5
BCD
330
B9E
100
AcDbEntity
  8
1
100
AcDbLine
 10
-180.0
 20
8.0
 30
0.0
 11
-135.0
 21
8.0
 31
0.0
  0
TEXT
  5
BCE
330
B9E
100
AcDbEntity
  8
1
100
AcDbText
 10
-179.0
 20
1.73257823687436
 30
0.0
 40
1.5
  1
Aprov.
 41
0.8
  7
SANINDUSA
 11
-179.0
 21
2.48257823687436
 31
0.0
100
AcDbText
 73
     2
  0
TEXT
  5
BCF
330
B9E
100
AcDbEntity
  8
1
100
AcDbText
 10
-179.0
 20
5.75
 30
0.0
 40
1.5
  1
Ver.
 41
0.8
  7
SANINDUSA
 11
-179.0
 21
6.5
 31
0.0
100
AcDbText
 73
     2
  0
LINE
  5
BD0
330
B9E
100
AcDbEntity
  8
1
100
AcDbLine
 10
-180.0
 20
16.0
 30
0.0
 11
-135.0
 21
16.0
 31
0.0
  0
LINE
  5
BD1
330
B9E
100
AcDbEntity
  8
1
100
AcDbLine
 10
-180.0
 20
12.0
 30
0.0
 11
-135.0
 21
12.0
 31
0.0
  0
TEXT
  5
BD2
330
B9E
100
AcDbEntity
  8
1
100
AcDbText
 10
-179.0
 20
13.75
 30
0.0
 40
1.5
  1
Proj.
 41
0.8
  7
SANINDUSA
 11
-179.0
 21
14.5
 31
0.0
100
AcDbText
 73
     2
  0
TEXT
  5
BD3
330
B9E
100
AcDbEntity
  8
1
100
AcDbText
 10
-167.9210461879161
 20
17.75
 30
0.0
 40
1.5
  1
Data
 41
0.8
  7
SANINDUSA
 11
-167.9210461879161
 21
18.5
 31
0.0
100
AcDbText
 73
     2
  0
TEXT
  5
BD4
330
B9E
100
AcDbEntity
  8
1
100
AcDbText
 10
-153.0988595589306
 20
17.75
 30
0.0
 40
1.5
  1
Nome
 41
0.8
  7
SANINDUSA
 11
-153.0988595589306
 21
18.5
 31
0.0
100
AcDbText
 73
     2
  0
LINE
  5
BD5
330
B9E
100
AcDbEntity
  8
leg fin
100
AcDbLine
 10
-130.0
 20
20.0
 30
0.0
 11
-130.0
 21
28.5
 31
0.0
  0
TEXT
  5
BD6
330
B9E
100
AcDbEntity
  8
1
100
AcDbText
 10
-134.0
 20
17.25
 30
0.0
 40
2.0
  1
Material:
 41
0.8
  7
SANINDUSA
 11
-134.0
 21
18.25
 31
0.0
100
AcDbText
 73
     2
  0
TEXT
  5
BD7
330
B9E
100
AcDbEntity
  8
1
100
AcDbText
 10
-129.0
 20
26.43288406845113
 30
0.0
 40
1.5
  1
Ano:
 41
0.8
  7
SANINDUSA
 11
-129.0
 21
27.18288406845113
 31
0.0
100
AcDbText
 73
     2
  0
LINE
  5
BD8
330
B9E
100
AcDbEntity
  8
1
100
AcDbLine
 10
-180.0
 20
55.5
 30
0.0
 11
-135.0
 21
55.5
 31
0.0
  0
TEXT
  5
BD9
330
B9E
100
AcDbEntity
  8
1
100
AcDbText
 10
-179.0
 20
52.67772246885193
 30
0.0
 40
1.5
  1
descrição
 41
0.8
  7
SANINDUSA
 11
-179.0
 21
53.42772246885193
 31
0.0
100
AcDbText
 73
     2
  0
TEXT
  5
BDA
330
B9E
100
AcDbEntity
  8
1
100
AcDbText
 10
-134.0
 20
47.25
 30
0.0
 40
2.0
  1
Peça:
 41
0.8
  7
SANINDUSA
 11
-134.0
 21
48.25
 31
0.0
100
AcDbText
 73
     2
  0
LINE
  5
BDB
330
B9E
100
AcDbEntity
  8
1
100
AcDbLine
 10
-180.0
 20
59.5
 30
0.0
 11
-135.0
 21
59.5
 31
0.0
  0
TEXT
  5
BDC
330
B9E
100
AcDbEntity
  8
1
100
AcDbText
 10
-173.5810776056337
 20
62.75
 30
0.0
 40
1.5
  1
Alt.
 41
0.8
  7
SANINDUSA
 11
-173.5810776056337
 21
63.5
 31
0.0
100
AcDbText
 73
     2
  0
TEXT
  5
BDD
330
B9E
100
AcDbEntity
  8
1
100
AcDbText
 10
-179.0
 20
62.75
 30
0.0
 40
1.5
  1
Rev.
 41
0.8
  7
SANINDUSA
 11
-179.0
 21
63.5
 31
0.0
100
AcDbText
 73
     2
  0
TEXT
  5
BDE
330
B9E
100
AcDbEntity
  8
1
100
AcDbText
 10
-167.9210461879161
 20
62.75
 30
0.0
 40
1.5
  1
Data
 41
0.8
  7
SANINDUSA
 11
-167.9210461879161
 21
63.5
 31
0.0
100
AcDbText
 73
     2
  0
TEXT
  5
BDF
330
B9E
100
AcDbEntity
  8
1
100
AcDbText
 10
-153.0988595589306
 20
62.75
 30
0.0
 40
1.5
  1
Nome
 41
0.8
  7
SANINDUSA
 11
-153.0988595589306
 21
63.5
 31
0.0
100
AcDbText
 73
     2
  0
TEXT
  5
BE0
330
B9E
100
AcDbEntity
  8
1
100
AcDbText
 10
-134.0
 20
62.25
 30
0.0
 40
2.0
  1
Produto:
 41
0.8
  7
SANINDUSA
 11
-134.0
 21
63.25
 31
0.0
100
AcDbText
 73
     2
  0
LINE
  5
BE1
330
B9E
100
AcDbEntity
  8
3
100
AcDbLine
 10
-40.0
 20
4.0
 30
0.0
 11
-40.0
 21
65.0
 31
0.0
  0
LWPOLYLINE
  5
BE2
102
{ACAD_REACTORS
330
BEC
102
}
330
B9E
100
AcDbEntity
  8
9
100
AcDbPolyline
 90
       12
 70
     1
 43
0.0
 10
-3.038714600644652
 20
58.90010174665076
 10
-5.726962862472191
 20
58.90010174665076
 10
-5.726962862472191
 20
58.5001017466509
 10
-3.038748516195028
 20
58.5001017466509
 42
-0.4142135623731731
 10
-2.638748516194482
 20
58.1001017466508
 10
-2.638748516194482
 20
57.42799728675596
 10
-5.21497371544865
 20
57.42799728675596
 42
0.4142135623731289
 10
-6.014973715448377
 20
56.627997286756
 10
-6.014973715448377
 20
55.92380871629643
 42
0.4142135623731132
 10
-5.21497371544865
 20
55.12380871629648
 10
-2.23871460064447
 20
55.12380871629648
 10
-2.23871460064447
 20
58.10010174665103
 42
0.4142135623730717
  0
LWPOLYLINE
  5
BE3
102
{ACAD_REACTORS
330
BEC
102
}
330
B9E
100
AcDbEntity
  8
9
100
AcDbPolyline
 90
       20
 70
     1
 43
0.0
 10
-10.01531287095122
 20
57.82799728675581
 10
-10.01531287095122
 20
58.10010174665103
 42
-0.4142135623730744
 10
-9.615312870951584
 20
58.5001017466509
 10
-6.92703069357276
 20
58.5001017466509
 10
-6.92703069357276
 20
58.90010174665076
 10
-9.615346786501959
 20
58.90010174665076
 42
0.4142135623730883
 10
-10.41534678650168
 20
58.1001017466508
 10
-10.41534678650168
 20
57.82796337120567
 42
0.4142135623730717
 10
-9.615346786501959
 20
57.02796337120571
 10
-7.423079531965413
 20
57.02796337120571
 42
-0.4142135623730847
 10
-7.023079531965322
 20
56.62796337120562
 10
-7.023079531965322
 20
55.90786840766487
 42
-0.4142135623730744
 10
-7.423079531965413
 20
55.507868407665
 10
-10.41534678650168
 20
55.507868407665
 10
-10.41534678650168
 20
55.12380871629648
 10
-7.445787917283723
 20
55.12380871629648
 42
0.4114777732064574
 10
-6.645822882998345
 20
55.9163291493976
 10
-6.639238813324936
 20
56.62051771985716
 42
0.4169546541682913
 10
-7.439203847610315
 20
57.42799728675596
 10
-9.615312870951584
 20
57.42799728675596
 42
-0.4142135623731576
  0
LWPOLYLINE
  5
BE4
102
{ACAD_REACTORS
330
BEC
102
}
330
B9E
100
AcDbEntity
  8
9
100
AcDbPolyline
 90
       12
 70
     1
 43
0.0
 10
-14.41561811090378
 20
58.90010174665076
 10
-14.79964388672215
 20
58.90010174665076
 10
-14.79964388672215
 20
55.92380871629643
 42
0.4142135623731133
 10
-13.99964388672242
 20
55.12380871629648
 10
-11.8233508563676
 20
55.12380871629648
 42
0.4142135623730872
 10
-11.02335085636741
 20
55.92380871629643
 10
-11.02335085636741
 20
58.90010174665076
 10
-11.42338477191788
 20
58.90010174665076
 10
-11.42338477191788
 20
55.91567577726095
 42
-0.4131711701795318
 10
-11.82196067063523
 20
55.51567831234956
 10
-14.0141940096214
 20
55.50787335710947
 42
-0.4152567234624407
 10
-14.41561811090378
 20
55.90787082202087
  0
LWPOLYLINE
  5
BE5
102
{ACAD_REACTORS
330
BEC
102
}
330
B9E
100
AcDbEntity
  8
9
100
AcDbPolyline
 90
        6
 70
     1
 43
0.0
 10
-15.80771578768872
 20
55.507868407665
 10
-18.39994912667453
 20
55.507868407665
 42
-0.4142135623731731
 10
-18.79994912667462
 20
55.90786840766487
 10
-18.79994912667462
 20
58.10010174665103
 42
-0.4142135623730744
 10
-18.39994912667453
 20
58.5001017466509
 10
-15.80771578768872
 20
58.5001017466509
  0
LWPOLYLINE
  5
BE6
102
{ACAD_REACTORS
330
BEC
102
}
330
B9E
100
AcDbEntity
  8
9
100
AcDbPolyline
 90
        8
 70
     1
 43
0.0
 10
-15.4236900118708
 20
59.87619128370352
 10
-15.80771578768872
 20
59.87619128370352
 10
-15.80771578768872
 20
58.90010174665076
 10
-18.39176256411201
 20
58.90010174665076
 42
0.4131164467977967
 10
-19.19175694739761
 20
58.1030995310698
 10
-19.1999120763262
 20
55.92680650071542
 42
0.4153115297271718
 10
-18.39991769304061
 20
55.12380871629648
 10
-15.4236900118708
 20
55.12380871629648
  0
LWPOLYLINE
  5
BE7
102
{ACAD_REACTORS
330
BEC
102
}
330
B9E
100
AcDbEntity
  8
9
100
AcDbPolyline
 90
       10
 70
     1
 43
0.0
 10
-20.59201288790928
 20
58.90010174665076
 10
-23.56830591826338
 20
58.90010174665076
 10
-23.56830591826338
 20
55.12380871629648
 10
-23.18424622689509
 20
55.12380871629648
 10
-23.18424622689509
 20
58.5001017466509
 10
-20.59204680345965
 20
58.5001017466509
 42
-0.4142135623730898
 10
-20.19204680345956
 20
58.1001017466508
 10
-20.19204680345956
 20
55.12380871629648
 10
-19.79201288790909
 20
55.12380871629648
 10
-19.79201288790909
 20
58.10010174665103
 42
0.4142135623731132
  0
LWPOLYLINE
  5
BE8
102
{ACAD_REACTORS
330
BEC
102
}
330
B9E
100
AcDbEntity
  8
9
100
AcDbPolyline
 90
        4
 70
     1
 43
0.0
 10
-24.19231812786165
 20
58.90010174665076
 10
-24.57637781922995
 20
58.90010174665076
 10
-24.57637781922995
 20
55.12380871629648
 10
-24.19231812786165
 20
55.12380871629648
  0
LWPOLYLINE
  5
BE9
102
{ACAD_REACTORS
330
BEC
102
}
330
B9E
100
AcDbEntity
  8
9
100
AcDbPolyline
 90
       10
 70
     1
 43
0.0
 10
-28.57661522808212
 20
58.5001017466509
 10
-25.98444972019706
 20
58.5001017466509
 42
-0.4142135623731731
 10
-25.58444972019652
 20
58.1001017466508
 10
-25.58444972019652
 20
55.12380871629648
 10
-25.2004239443786
 20
55.12380871629648
 10
-25.2004239443786
 20
58.10010174665103
 42
0.4142135623730717
 10
-26.00042394437833
 20
58.90010174665076
 10
-28.97664914363259
 20
58.90010174665076
 10
-28.97664914363259
 20
55.12380871629648
 10
-28.57661522808212
 20
55.12380871629648
  0
LWPOLYLINE
  5
BEA
102
{ACAD_REACTORS
330
BEC
102
}
330
B9E
100
AcDbEntity
  8
9
100
AcDbPolyline
 90
       12
 70
     1
 43
0.0
 10
-29.58465321349832
 20
58.10010174665103
 42
0.4142135623730716
 10
-30.3846532134985
 20
58.90010174665076
 10
-33.07296930642724
 20
58.90010174665076
 10
-33.07296930642724
 20
58.5001017466509
 10
-30.38468712904842
 20
58.5001017466509
 42
-0.4142135623730067
 10
-29.98468712904878
 20
58.1001017466508
 10
-29.98468712904878
 20
57.42799728675618
 10
-32.56098015940324
 20
57.42799728675596
 42
0.4142135623731289
 10
-33.36098015940343
 20
56.627997286756
 10
-33.36098015940343
 20
55.92380871629643
 42
0.4142135623731132
 10
-32.56098015940324
 20
55.12380871629648
 10
-29.58465321349832
 20
55.12380871629648
  0
LWPOLYLINE
  5
BEB
102
{ACAD_REACTORS
330
BEC
102
}
330
B9E
100
AcDbEntity
  8
9
100
AcDbPolyline
 90
       20
 70
     1
 43
0.0
 10
-34.7850262845518
 20
57.42799728675596
 10
-36.96125148380543
 20
57.42799728675596
 42
-0.4142135623730898
 10
-37.36125148380552
 20
57.82799728675604
 10
-37.36125148380552
 20
58.10010174665103
 42
-0.4142135623730744
 10
-36.96125148380543
 20
58.5001017466509
 10
-34.27303713752781
 20
58.50010174665067
 10
-34.27303713752781
 20
58.90010174665076
 10
-36.96128539935535
 20
58.90010174665076
 42
0.4142135623731289
 10
-37.76128539935553
 20
58.1001017466508
 10
-37.76128539935553
 20
57.82796337120567
 42
0.4142135623730716
 10
-36.9612853993558
 20
57.02796337120571
 10
-34.76901814481926
 20
57.02796337120571
 42
-0.414213562373168
 10
-34.36901814481962
 20
56.62796337120562
 10
-34.36901814481962
 20
55.90786840766487
 42
-0.4142135623730744
 10
-34.76901814481926
 20
55.507868407665
 10
-37.76128539935553
 20
55.507868407665
 10
-37.76128539935553
 20
55.12380871629648
 10
-34.7850262845518
 20
55.12380871629648
 42
0.4142135623731289
 10
-33.98502628455162
 20
55.92380871629643
 10
-33.98502628455162
 20
56.627997286756
 42
0.4142135623731132
  0
HATCH
  5
BEC
330
B9E
100
AcDbEntity
  8
9
100
AcDbHatch
 10
0.0
 20
0.0
 30
0.0
210
0.0
220
0.0
230
1.0
  2
SOLID
 70
     1
 71
     1
 91
       13
 92
        7
 72
     1
 73
     1
 93
       20
 10
-34.36901814481962
 20
55.90786840766487
 42
-0.414213562372991
 10
-34.76901814481926
 20
55.507868407665
 42
0.0
 10
-37.76128539935553
 20
55.507868407665
 42
0.0
 10
-37.76128539935553
 20
55.12380871629648
 42
0.0
 10
-34.7850262845518
 20
55.12380871629648
 42
0.4142135623731705
 10
-33.98502628455162
 20
55.92380871629666
 42
0.0
 10
-33.98502628455162
 20
56.627997286756
 42
0.4142135623731547
 10
-34.7850262845518
 20
57.42799728675596
 42
0.0
 10
-36.96125148380543
 20
57.42799728675596
 42
-0.4142135623730898
 10
-37.36125148380552
 20
57.82799728675604
 42
0.0
 10
-37.36125148380552
 20
58.1001017466508
 42
-0.4142135623731575
 10
-36.96125148380543
 20
58.5001017466509
 42
0.0
 10
-34.27303713752781
 20
58.50010174665067
 42
0.0
 10
-34.27303713752781
 20
58.90010174665076
 42
0.0
 10
-36.96128539935535
 20
58.90010174665076
 42
0.4142135623731705
 10
-37.76128539935553
 20
58.10010174665058
 42
0.0
 10
-37.76128539935553
 20
57.82796337120544
 42
0.4142135623730299
 10
-36.9612853993558
 20
57.02796337120571
 42
0.0
 10
-34.76901814481926
 20
57.02796337120571
 42
-0.4142135623730015
 10
-34.36901814481962
 20
56.62796337120608
 42
0.0
 97
        1
330
BEB
 92
        7
 72
     1
 73
     1
 93
       12
 10
-33.36098015940343
 20
55.92380871629666
 42
0.4142135623731547
 10
-32.56098015940324
 20
55.12380871629648
 42
0.0
 10
-29.58465321349877
 20
55.12380871629648
 42
0.0
 10
-29.58465321349832
 20
58.10010174665058
 42
0.4142135623731964
 10
-30.3846532134985
 20
58.90010174665076
 42
0.0
 10
-33.07296930642724
 20
58.90010174665076
 42
0.0
 10
-33.07296930642724
 20
58.50010174665067
 42
0.0
 10
-30.38468712904887
 20
58.5001017466509
 42
-0.4142135623732564
 10
-29.98468712904878
 20
58.10010174665103
 42
0.0
 10
-29.98468712904923
 20
57.42799728675596
 42
0.0
 10
-32.56098015940324
 20
57.42799728675596
 42
0.4142135623731705
 10
-33.36098015940343
 20
56.627997286756
 42
0.0
 97
        1
330
BEA
 92
       22
 72
     1
 73
     1
 93
        6
 10
-32.97692046803468
 20
56.62796337120562
 42
-0.4142135623731576
 10
-32.57692046803459
 20
57.02796337120571
 42
0.0
 10
-29.98468712904878
 20
57.02796337120571
 42
0.0
 10
-29.98468712904878
 20
55.507868407665
 42
0.0
 10
-32.57692046803459
 20
55.507868407665
 42
-0.4142135623731731
 10
-32.97692046803468
 20
55.90786840766487
 42
0.0
 97
        1
330
C11
 92
        7
 72
     1
 73
     1
 93
       10
 10
-28.57661522808212
 20
58.5001017466509
 42
0.0
 10
-25.98444972019661
 20
58.5001017466509
 42
-0.4142135623730067
 10
-25.58444972019652
 20
58.10010174665058
 42
0.0
 10
-25.58444972019606
 20
55.12380871629648
 42
0.0
 10
-25.20042394437906
 20
55.12380871629648
 42
0.0
 10
-25.2004239443786
 20
58.1001017466508
 42
0.4142135623731134
 10
-26.00042394437833
 20
58.90010174665076
 42
0.0
 10
-28.97664914363259
 20
58.90010174665076
 42
0.0
 10
-28.97664914363259
 20
55.12380871629648
 42
0.0
 10
-28.57661522808212
 20
55.12380871629648
 42
0.0
 97
        1
330
BE9
 92
        7
 72
     0
 73
     1
 93
        4
 10
-24.57637781922995
 20
55.12380871629648
 10
-24.19231812786165
 20
55.12380871629648
 10
-24.19231812786165
 20
58.90010174665076
 10
-24.57637781922995
 20
58.90010174665076
 97
        1
330
BE8
 92
        7
 72
     0
 73
     1
 93
        4
 10
-24.19231812786165
 20
59.87619128370352
 10
-24.5763778192304
 20
59.87619128370352
 10
-24.5763778192304
 20
59.28412752246913
 10
-24.1923181278612
 20
59.28412752246913
 97
        1
330
C12
 92
        7
 72
     1
 73
     1
 93
       10
 10
-23.18424622689509
 20
58.5001017466509
 42
0.0
 10
-20.59204680345965
 20
58.5001017466509
 42
-0.4142135623730898
 10
-20.19204680345956
 20
58.1001017466508
 42
0.0
 10
-20.19204680345956
 20
55.12380871629648
 42
0.0
 10
-19.79201288790909
 20
55.12380871629648
 42
0.0
 10
-19.79201288790909
 20
58.1001017466508
 42
0.4142135623731547
 10
-20.59201288790928
 20
58.90010174665076
 42
0.0
 10
-23.56830591826338
 20
58.90010174665076
 42
0.0
 10
-23.56830591826338
 20
55.12380871629648
 42
0.0
 10
-23.18424622689463
 20
55.12380871629648
 42
0.0
 97
        1
330
BE7
 92
        7
 72
     1
 73
     1
 93
        8
 10
-19.1999120763262
 20
55.92680650071542
 42
0.4153115297271299
 10
-18.39991769304061
 20
55.12380871629648
 42
0.0
 10
-15.4236900118708
 20
55.12380871629648
 42
0.0
 10
-15.4236900118708
 20
59.87619128370352
 42
0.0
 10
-15.80771578768872
 20
59.87619128370352
 42
0.0
 10
-15.80771578768872
 20
58.90010174665076
 42
0.0
 10
-18.39176256411201
 20
58.90010174665076
 42
0.4131164467977965
 10
-19.19175694739761
 20
58.1030995310698
 42
0.0
 97
        1
330
BE6
 92
       22
 72
     1
 73
     1
 93
        6
 10
-18.79994912667462
 20
58.1001017466508
 42
-0.4142135623731575
 10
-18.39994912667453
 20
58.5001017466509
 42
0.0
 10
-15.80771578768872
 20
58.50010174665067
 42
0.0
 10
-15.80771578768827
 20
55.507868407665
 42
0.0
 10
-18.39994912667453
 20
55.507868407665
 42
-0.4142135623731731
 10
-18.79994912667462
 20
55.90786840766487
 42
0.0
 97
        1
330
BE5
 92
        7
 72
     1
 73
     1
 93
       12
 10
-14.79964388672215
 20
55.92380871629621
 42
0.4142135623729885
 10
-13.99964388672242
 20
55.12380871629648
 42
0.0
 10
-11.8233508563676
 20
55.12380871629648
 42
0.4142135623731289
 10
-11.02335085636741
 20
55.92380871629666
 42
0.0
 10
-11.02335085636741
 20
58.90010174665076
 42
0.0
 10
-11.42338477191788
 20
58.90010174665076
 42
0.0
 10
-11.42338477191788
 20
55.91567577726095
 42
-0.4131711701795319
 10
-11.82196067063523
 20
55.51567831234956
 42
0.0
 10
-14.01419400962095
 20
55.50787335710947
 42
-0.4152567234626918
 10
-14.41561811090378
 20
55.90787082202087
 42
0.0
 10
-14.41561811090378
 20
58.90010174665076
 42
0.0
 10
-14.7996438867226
 20
58.90010174665076
 42
0.0
 97
        1
330
BE4
 92
        7
 72
     1
 73
     1
 93
       20
 10
-7.423079531965413
 20
57.02796337120571
 42
-0.414213562373168
 10
-7.023079531965322
 20
56.62796337120562
 42
0.0
 10
-7.023079531965322
 20
55.90786840766487
 42
-0.4142135623731575
 10
-7.423079531965413
 20
55.507868407665
 42
0.0
 10
-10.41534678650168
 20
55.507868407665
 42
0.0
 10
-10.41534678650168
 20
55.12380871629648
 42
0.0
 10
-7.445787917283723
 20
55.12380871629648
 42
0.4114777732065809
 10
-6.645822882998345
 20
55.91632914939783
 42
0.0
 10
-6.639238813324936
 20
56.62051771985716
 42
0.4169546541682913
 10
-7.439203847610315
 20
57.42799728675596
 42
0.0
 10
-9.615312870951584
 20
57.42799728675596
 42
-0.4142135623729911
 10
-10.01531287095122
 20
57.82799728675581
 42
0.0
 10
-10.01531287095122
 20
58.10010174665103
 42
-0.414213562372991
 10
-9.615312870951584
 20
58.5001017466509
 42
0.0
 10
-6.92703069357276
 20
58.50010174665067
 42
0.0
 10
-6.927030693572305
 20
58.90010174665076
 42
0.0
 10
-9.615346786501959
 20
58.90010174665076
 42
0.4142135623730467
 10
-10.41534678650168
 20
58.10010174665103
 42
0.0
 10
-10.41534678650168
 20
57.82796337120544
 42
0.4142135623730301
 10
-9.615346786501959
 20
57.02796337120571
 42
0.0
 97
        1
330
BE3
 92
        7
 72
     1
 73
     1
 93
       12
 10
-5.21497371544865
 20
57.42799728675596
 42
0.4142135623730871
 10
-6.014973715448377
 20
56.627997286756
 42
0.0
 10
-6.014973715448377
 20
55.92380871629621
 42
0.4142135623730715
 10
-5.21497371544865
 20
55.12380871629648
 42
0.0
 10
-2.23871460064447
 20
55.12380871629648
 42
0.0
 10
-2.23871460064447
 20
58.10010174665058
 42
0.414213562373155
 10
-3.038714600644652
 20
58.90010174665076
 42
0.0
 10
-5.726962862471737
 20
58.90010174665076
 42
0.0
 10
-5.726962862472191
 20
58.5001017466509
 42
0.0
 10
-3.038748516194573
 20
58.5001017466509
 42
-0.4142135623730067
 10
-2.638748516194482
 20
58.10010174665058
 42
0.0
 10
-2.638748516194482
 20
57.42799728675596
 42
0.0
 97
        1
330
BE2
 92
       22
 72
     1
 73
     1
 93
        6
 10
-2.638748516194937
 20
57.02796337120571
 42
0.0
 10
-2.638748516194482
 20
55.50786840766477
 42
0.0
 10
-5.21497371544865
 20
55.507868407665
 42
-0.4142135623731731
 10
-5.614973715448741
 20
55.90786840766509
 42
0.0
 10
-5.614973715448741
 20
56.62796337120562
 42
-0.4142135623731576
 10
-5.21497371544865
 20
57.02796337120571
 42
0.0
 97
        1
330
C0D
 75
     0
 76
     1
 47
0.0407044778999864
 98
       13
 10
-34.18710075113677
 20
56.16907953933765
 10
-33.12851374392494
 20
56.49471602641233
 10
-33.12851374392494
 20
56.49471602641233
 10
-28.77202873835904
 20
57.51232930166111
 10
-24.41554807250941
 20
57.91937341678636
 10
-24.41554807250941
 20
59.384734621186
 10
-23.31624584658039
 20
58.3264175319116
 10
-19.04119127844888
 20
57.75655517324913
 10
-19.04119127844888
 20
57.75655517324913
 10
-14.64399105416578
 20
57.43091868617466
 10
-8.048195057457178
 20
57.22739662861204
 10
-4.017427461911665
 20
57.18669281458665
 10
-4.017427461911665
 20
57.18669281458665
  0
TEXT
  5
BED
330
B9E
100
AcDbEntity
  8
leg fin
100
AcDbText
 10
3.391127401597259
 20
2.107634911895729
 30
0.0
 40
1.5
  1
Este desenho é propriedade da Sanindusa, S.A., e não pode ser copiado nem divulgado sem nossa autorização.
 50
90.0
 41
0.8
  7
SANINDUSA
100
AcDbText
  0
LINE
  5
BEE
330
B9E
100
AcDbEntity
  8
3
100
AcDbLine
 10
-90.0
 20
4.0
 30
0.0
 11
-90.0
 21
12.0
 31
0.0
  0
TEXT
  5
BEF
330
B9E
100
AcDbEntity
  8
1
100
AcDbText
 10
-39.0
 20
9.25
 30
0.0
 40
2.0
  1
Substituido por:
 41
0.8
  7
SANINDUSA
 11
-39.0
 21
10.25
 31
0.0
100
AcDbText
 73
     2
  0
POINT
  5
BF0
330
B9E
100
AcDbEntity
  8
SANINDUSA
100
AcDbPoint
 10
0.0
 20
0.0
 30
0.0
  0
TEXT
  5
BF1
330
B9E
100
AcDbEntity
  8
1
100
AcDbText
 10
-89.0
 20
16.74927010445663
 30
0.0
 40
2.0
  1
Normas:
 41
0.8
  7
SANINDUSA
 11
-89.0
 21
17.74927010445663
 31
0.0
100
AcDbText
 73
     2
  0
LINE
  5
BF2
330
B9E
100
AcDbEntity
  8
3
100
AcDbLine
 10
-90.0
 20
12.0
 30
0.0
 11
-90.0
 21
20.0
 31
0.0
  0
LINE
  5
BF3
330
B9E
100
AcDbEntity
  8
3
100
AcDbLine
 10
-110.546019464768
 20
12.0
 30
0.0
 11
-110.546019464768
 21
20.0
 31
0.0
  0
TEXT
  5
BF4
330
B9E
100
AcDbEntity
  8
1
100
AcDbText
 10
-109.6177520618648
 20
17.25
 30
0.0
 40
2.0
  1
Cor:
 41
0.8
  7
SANINDUSA
 11
-109.6177520618648
 21
18.25
 31
0.0
100
AcDbText
 73
     2
  0
LINE
  5
BF5
330
B9E
100
AcDbEntity
  8
leg fin
100
AcDbLine
 10
-91.42857142857156
 20
20.0
 30
0.0
 11
-91.42857142857156
 21
28.5
 31
0.0
  0
LINE
  5
BF6
330
B9E
100
AcDbEntity
  8
leg fin
100
AcDbLine
 10
-104.2857142857142
 20
20.0
 30
0.0
 11
-104.2857142857142
 21
28.5
 31
0.0
  0
LINE
  5
BF7
330
B9E
100
AcDbEntity
  8
leg fin
100
AcDbLine
 10
-117.1428571428573
 20
20.0
 30
0.0
 11
-117.1428571428573
 21
28.5
 31
0.0
  0
POINT
  5
BF8
330
B9E
100
AcDbEntity
  8
SANINDUSA
100
AcDbPoint
 10
-117.1428571428573
 20
28.5
 30
0.0
  0
POINT
  5
BF9
330
B9E
100
AcDbEntity
  8
SANINDUSA
100
AcDbPoint
 10
-104.2857142857142
 20
28.5
 30
0.0
  0
POINT
  5
BFA
330
B9E
100
AcDbEntity
  8
SANINDUSA
100
AcDbPoint
 10
-91.42857142857156
 20
28.5
 30
0.0
  0
TEXT
  5
BFB
330
B9E
100
AcDbEntity
  8
1
100
AcDbText
 10
-116.200160604496
 20
26.43288406845113
 30
0.0
 40
1.5
  1
Nº Seq.:
 41
0.8
  7
SANINDUSA
 11
-116.200160604496
 21
27.18288406845113
 31
0.0
100
AcDbText
 73
     2
  0
TEXT
  5
BFC
330
B9E
100
AcDbEntity
  8
1
100
AcDbText
 10
-103.2106584078738
 20
26.43288406845113
 30
0.0
 40
1.5
  1
Tipo:
 41
0.8
  7
SANINDUSA
 11
-103.2106584078738
 21
27.18288406845113
 31
0.0
100
AcDbText
 73
     2
  0
TEXT
  5
BFD
330
B9E
100
AcDbEntity
  8
1
100
AcDbText
 10
-90.22114672289353
 20
26.43288406845113
 30
0.0
 40
1.5
  1
Prod.:
 41
0.8
  7
SANINDUSA
 11
-90.22114672289353
 21
27.18288406845113
 31
0.0
100
AcDbText
 73
     2
  0
TEXT
  5
BFE
330
B9E
100
AcDbEntity
  8
1
100
AcDbText
 10
-64.77320576346574
 20
26.43288406845113
 30
0.0
 40
1.5
  1
Rev.:
 41
0.8
  7
SANINDUSA
 11
-64.77320576346574
 21
27.18288406845113
 31
0.0
100
AcDbText
 73
     2
  0
LINE
  5
BFF
330
B9E
100
AcDbEntity
  8
leg fin
100
AcDbLine
 10
-52.85714285714266
 20
20.0
 30
0.0
 11
-52.85714285714266
 21
28.5
 31
0.0
  0
LINE
  5
C00
330
B9E
100
AcDbEntity
  8
leg fin
100
AcDbLine
 10
-65.71428571428578
 20
20.0
 30
0.0
 11
-65.71428571428578
 21
28.5
 31
0.0
  0
LINE
  5
C01
330
B9E
100
AcDbEntity
  8
leg fin
100
AcDbLine
 10
-78.57142857142844
 20
20.0
 30
0.0
 11
-78.57142857142844
 21
28.5
 31
0.0
  0
POINT
  5
C02
330
B9E
100
AcDbEntity
  8
SANINDUSA
100
AcDbPoint
 10
-78.57142857142844
 20
28.5
 30
0.0
  0
POINT
  5
C03
330
B9E
100
AcDbEntity
  8
SANINDUSA
100
AcDbPoint
 10
-65.71428571428578
 20
28.5
 30
0.0
  0
POINT
  5
C04
330
B9E
100
AcDbEntity
  8
SANINDUSA
100
AcDbPoint
 10
-52.85714285714266
 20
28.5
 30
0.0
  0
TEXT
  5
C05
330
B9E
100
AcDbEntity
  8
1
100
AcDbText
 10
-77.61097961686573
 20
26.43288406845113
 30
0.0
 40
1.5
  1
Peça:
 41
0.8
  7
SANINDUSA
 11
-77.61097961686573
 21
27.18288406845113
 31
0.0
100
AcDbText
 73
     2
  0
TEXT
  5
C06
330
B9E
100
AcDbEntity
  8
1
100
AcDbText
 10
-52.06538060077036
 20
26.43288406845113
 30
0.0
 40
1.5
  1
Alt.:
 41
0.8
  7
SANINDUSA
 11
-52.06538060077036
 21
27.18288406845113
 31
0.0
100
AcDbText
 73
     2
  0
LINE
  5
C07
330
B9E
100
AcDbEntity
  8
3
100
AcDbLine
 10
0.0
 20
12.0
 30
0.0
 11
-40.0
 21
12.0
 31
0.0
  0
LINE
  5
C08
330
B9E
100
AcDbEntity
  8
3
100
AcDbLine
 10
-40.0
 20
32.5
 30
0.0
 11
0.0
 21
32.5
 31
0.0
  0
TEXT
  5
C09
330
B9E
100
AcDbEntity
  8
1
100
AcDbText
 10
-19.0
 20
29.75
 30
0.0
 40
2.0
  1
Folha:
 41
0.8
  7
SANINDUSA
 11
-19.0
 21
30.75
 31
0.0
100
AcDbText
 73
     2
  0
LINE
  5
C0A
330
B9E
100
AcDbEntity
  8
3
100
AcDbLine
 10
-20.0
 20
32.5
 30
0.0
 11
-20.0
 21
20.0
 31
0.0
  0
TEXT
  5
C0B
330
B9E
100
AcDbEntity
  8
1
100
AcDbText
 10
-39.0
 20
29.75
 30
0.0
 40
2.0
  1
Escala:
 41
0.8
  7
SANINDUSA
 11
-39.0
 21
30.75
 31
0.0
100
AcDbText
 73
     2
  0
TEXT
  5
C0C
330
B9E
100
AcDbEntity
  8
1
100
AcDbText
 10
-39.0
 20
17.25
 30
0.0
 40
2.0
  1
Substitui:
 41
0.8
  7
SANINDUSA
 11
-39.0
 21
18.25
 31
0.0
100
AcDbText
 73
     2
  0
LWPOLYLINE
  5
C0D
102
{ACAD_REACTORS
330
BEC
102
}
330
B9E
100
AcDbEntity
  8
9
100
AcDbPolyline
 90
        6
 70
     1
 43
0.0
 10
-2.638748516194482
 20
57.02796337120571
 10
-2.638748516194482
 20
55.50786840766477
 10
-5.21497371544865
 20
55.507868407665
 42
-0.4142135623730898
 10
-5.614973715448741
 20
55.90786840766487
 10
-5.614973715448741
 20
56.62796337120562
 42
-0.4142135623731576
 10
-5.21497371544865
 20
57.02796337120571
  0
LINE
  5
C0E
330
B9E
100
AcDbEntity
  8
3
100
AcDbLine
 10
-40.0
 20
50.0
 30
0.0
 11
0.0
 21
50.0
 31
0.0
  0
ATTDEF
  5
C0F
330
B9E
100
AcDbEntity
  8
1
100
AcDbText
 10
-31.30691739422431
 20
40.25
 30
0.0
 40
2.0
  1
XXXXXXXXXXXXXXX
 41
0.8
  7
SANINDUSA
 72
     4
 11
-20.0
 21
41.25
 31
0.0
100
AcDbAttributeDefinition
  3
Observações:
  2
OBS
 70
     0
  0
TEXT
  5
C10
330
B9E
100
AcDbEntity
  8
1
100
AcDbText
 10
-39.0
 20
47.25
 30
0.0
 40
2.0
  1
Observações:
 41
0.8
  7
SANINDUSA
 11
-39.0
 21
48.25
 31
0.0
100
AcDbText
 73
     2
  0
LWPOLYLINE
  5
C11
102
{ACAD_REACTORS
330
BEC
102
}
330
B9E
100
AcDbEntity
  8
9
100
AcDbPolyline
 90
        6
 70
     1
 43
0.0
 10
-29.98468712904878
 20
57.02796337120571
 10
-29.98468712904878
 20
55.507868407665
 10
-32.57692046803459
 20
55.507868407665
 42
-0.4142135623731731
 10
-32.97692046803468
 20
55.90786840766487
 10
-32.97692046803468
 20
56.62796337120562
 42
-0.4142135623731576
 10
-32.57692046803459
 20
57.02796337120571
  0
LWPOLYLINE
  5
C12
102
{ACAD_REACTORS
330
BEC
102
}
330
B9E
100
AcDbEntity
  8
9
100
AcDbPolyline
 90
        4
 70
     1
 43
0.0
 10
-24.19231812786165
 20
59.87619128370352
 10
-24.57637781922995
 20
59.87619128370352
 10
-24.57637781922995
 20
59.28412752246913
 10
-24.19231812786165
 20
59.28412752246913
  0
ENDBLK
  5
C14
330
B9E
100
AcDbEntity
  8
0
100
AcDbBlockEnd
  0
BLOCK
  5
1061
330
1060
100
AcDbEntity
  8
0
 62
     4
100
AcDbBlockBegin
  2
guarnizione
 70
     0
 10
0.0
 20
0.0
 30
0.0
  3
guarnizione
  1

  0
LINE
  5
1062
330
1060
100
AcDbEntity
  8
0
100
AcDbLine
 10
12.0
 20
3.179312414488776
 30
0.0
 11
12.0
 21
2.699999999999818
 31
0.0
  0
LINE
  5
1063
330
1060
100
AcDbEntity
  8
0
100
AcDbLine
 10
9.5
 20
3.130475008156281
 30
0.0
 11
9.440776269158959
 21
2.734883615801663
 31
0.0
  0
ARC
  5
1064
330
1060
100
AcDbEntity
  8
0
100
AcDbCircle
 10
11.19999999999891
 20
3.179312414488776
 30
0.0
 40
0.8
100
AcDbArc
 50
0.0
 51
81.48552156587461
  0
ARC
  5
1065
330
1060
100
AcDbEntity
  8
0
100
AcDbCircle
 10
8.753809903480942
 20
1.523241254200002
 30
0.0
 40
0.1999999999999504
100
AcDbArc
 50
171.485521565823
 51
351.485521565823
  0
LINE
  5
1066
330
1060
100
AcDbEntity
  8
0
100
AcDbLine
 10
11.65558220186904
 20
-2.403306455734309
 30
0.0
 11
9.440776269158959
 21
-2.734883615802573
 31
0.0
  0
ARC
  5
1067
330
1060
100
AcDbEntity
  8
0
100
AcDbCircle
 10
8.753809903480942
 20
-1.523241254200911
 30
0.0
 40
0.1999999999999504
100
AcDbArc
 50
8.514478434176927
 51
188.5144784341769
  0
LINE
  5
1068
330
1060
100
AcDbEntity
  8
0
100
AcDbLine
 10
9.5
 20
-3.130475008157191
 30
0.0
 11
9.440776269158959
 21
-2.734883615802573
 31
0.0
  0
ARC
  5
1069
330
1060
100
AcDbEntity
  8
0
100
AcDbCircle
 10
11.69999999999891
 20
-2.699999999999818
 30
0.0
 40
0.3
100
AcDbArc
 50
0.0
 51
98.51447843412536
  0
ARC
  5
106A
330
1060
100
AcDbEntity
  8
0
100
AcDbCircle
 10
11.69999999999891
 20
2.699999999999818
 30
0.0
 40
0.3
100
AcDbArc
 50
261.4855215658746
 51
0.0
  0
LINE
  5
106B
330
1060
100
AcDbEntity
  8
0
100
AcDbLine
 10
11.65558220186904
 20
2.4033064557334
 30
0.0
 11
9.440776269158959
 21
2.734883615801663
 31
0.0
  0
LINE
  5
106C
330
1060
100
AcDbEntity
  8
0
100
AcDbLine
 10
8.807715063378054
 20
3.234116537129011
 30
0.0
 11
8.556014207302723
 21
1.552853119620522
 31
0.0
  0
LINE
  5
106D
330
1060
100
AcDbEntity
  8
0
100
AcDbLine
 10
9.203306455732672
 20
3.174892806287971
 30
0.0
 11
8.951605599657341
 21
1.493629388779481
 31
0.0
  0
LINE
  5
106E
330
1060
100
AcDbEntity
  8
0
100
AcDbLine
 10
6.681411329471302
 20
3.552444090400967
 30
0.0
 11
6.622187598630262
 21
3.15685269804544
 31
0.0
  0
ARC
  5
106F
330
1060
100
AcDbEntity
  8
0
100
AcDbCircle
 10
0.2999999999992724
 20
3.800000000000181
 30
0.0
 40
0.3
100
AcDbArc
 50
81.48552156587461
 51
180.0
  0
ARC
  5
1070
330
1060
100
AcDbEntity
  8
0
100
AcDbCircle
 10
1.042400829128382
 20
4.699999999999818
 30
0.0
 40
0.8
100
AcDbArc
 50
81.48552156587461
 51
90.0
  0
LINE
  5
1071
330
1060
100
AcDbEntity
  8
0
100
AcDbLine
 10
1.5
 20
3.923692082123125
 30
0.0
 11
0.3444177981309622
 21
4.09669354426569
 31
0.0
  0
LINE
  5
1072
330
1060
100
AcDbEntity
  8
0
100
AcDbLine
 10
1.5
 20
3.923692082123125
 30
0.0
 11
1.5
 21
3.099999999999454
 31
0.0
  0
LINE
  5
1073
330
1060
100
AcDbEntity
  8
0
100
AcDbLine
 10
1.5
 20
3.099999999999454
 30
0.0
 11
2.699999999998908
 21
3.099999999999454
 31
0.0
  0
LINE
  5
1074
330
1060
100
AcDbEntity
  8
0
100
AcDbLine
 10
2.699999999998908
 20
3.744040860223321
 30
0.0
 11
2.699999999998908
 21
3.099999999999454
 31
0.0
  0
LINE
  5
1075
330
1060
100
AcDbEntity
  8
0
100
AcDbLine
 10
6.622187598630262
 20
3.15685269804544
 30
0.0
 11
2.699999999998908
 21
3.744040860223321
 31
0.0
  0
LINE
  5
1076
330
1060
100
AcDbEntity
  8
0
100
AcDbLine
 10
1.5
 20
-3.100000000000363
 30
0.0
 11
2.699999999998908
 21
-3.100000000000363
 31
0.0
  0
LINE
  5
1077
330
1060
100
AcDbEntity
  8
0
100
AcDbLine
 10
11.31844746168099
 20
3.970495199198012
 30
0.0
 11
1.160848290810463
 21
5.491182784709053
 31
0.0
  0
LINE
  5
1078
330
1060
100
AcDbEntity
  8
0
100
AcDbLine
 10
9.5
 20
3.130475008156281
 30
0.0
 11
6.681411329471302
 21
3.552444090400967
 31
0.0
  0
ARC
  5
1079
330
1060
100
AcDbEntity
  8
0
100
AcDbCircle
 10
11.19999999999891
 20
-3.179312414488776
 30
0.0
 40
0.8
100
AcDbArc
 50
278.5144784341254
 51
0.0
  0
LINE
  5
107A
330
1060
100
AcDbEntity
  8
0
100
AcDbLine
 10
6.681411329471302
 20
-3.552444090400967
 30
0.0
 11
6.622187598630262
 21
-3.15685269804635
 31
0.0
  0
ARC
  5
107B
330
1060
100
AcDbEntity
  8
0
100
AcDbCircle
 10
0.2999999999992724
 20
-3.800000000000181
 30
0.0
 40
0.3
100
AcDbArc
 50
180.0
 51
278.5144784341254
  0
ARC
  5
107C
330
1060
100
AcDbEntity
  8
0
100
AcDbCircle
 10
1.042400829128382
 20
-4.699999999999818
 30
0.0
 40
0.8
100
AcDbArc
 50
270.0
 51
278.5144784341254
  0
LINE
  5
107D
330
1060
100
AcDbEntity
  8
0
100
AcDbLine
 10
0.3444177981309622
 20
-4.096693544266599
 30
0.0
 11
1.5
 21
-3.923692082124034
 31
0.0
  0
LINE
  5
107E
330
1060
100
AcDbEntity
  8
0
100
AcDbLine
 10
6.622187598630262
 20
-3.15685269804635
 30
0.0
 11
2.699999999998908
 21
-3.744040860224231
 31
0.0
  0
LINE
  5
107F
330
1060
100
AcDbEntity
  8
0
100
AcDbLine
 10
1.160848290810463
 20
-5.491182784709963
 30
0.0
 11
11.31844746168099
 21
-3.970495199198921
 31
0.0
  0
LINE
  5
1080
330
1060
100
AcDbEntity
  8
0
100
AcDbLine
 10
0.0
 20
3.800000000000181
 30
0.0
 11
0.0
 21
-3.800000000000181
 31
0.0
  0
LINE
  5
1081
330
1060
100
AcDbEntity
  8
0
100
AcDbLine
 10
12.0
 20
-2.699999999999818
 30
0.0
 11
12.0
 21
-3.179312414488776
 31
0.0
  0
LINE
  5
1082
330
1060
100
AcDbEntity
  8
0
100
AcDbLine
 10
2.699999999998908
 20
-3.100000000000363
 30
0.0
 11
2.699999999998908
 21
-3.744040860224231
 31
0.0
  0
LINE
  5
1083
330
1060
100
AcDbEntity
  8
0
100
AcDbLine
 10
1.5
 20
-3.100000000000363
 30
0.0
 11
1.5
 21
-3.923692082124034
 31
0.0
  0
LINE
  5
1084
330
1060
100
AcDbEntity
  8
0
100
AcDbLine
 10
9.5
 20
-3.130475008157191
 30
0.0
 11
6.681411329471302
 21
-3.552444090400967
 31
0.0
  0
LINE
  5
1085
330
1060
100
AcDbEntity
  8
0
100
AcDbLine
 10
9.203306455732672
 20
-3.174892806287971
 30
0.0
 11
8.951605599657341
 21
-1.493629388780391
 31
0.0
  0
LINE
  5
1086
330
1060
100
AcDbEntity
  8
0
100
AcDbLine
 10
8.807715063378054
 20
-3.234116537129011
 30
0.0
 11
8.556014207302723
 21
-1.552853119621431
 31
0.0
  0
LINE
  5
1087
330
1060
100
AcDbEntity
  8
0
100
AcDbLine
 10
-1.5
 20
5.5
 30
0.0
 11
-3.757359312881817
 21
5.5
 31
0.0
  0
ARC
  5
1088
330
1060
100
AcDbEntity
  8
0
100
AcDbCircle
 10
-2.5
 20
3.5
 30
0.0
 40
1.0
100
AcDbArc
 50
0.0
 51
90.0
  0
ARC
  5
1089
330
1060
100
AcDbEntity
  8
0
100
AcDbCircle
 10
-3.769781102879278
 20
4.149978862833449
 30
0.0
 40
0.75
100
AcDbArc
 50
47.16775949949599
 51
90.19499109987526
  0
ARC
  5
108A
330
1060
100
AcDbEntity
  8
0
100
AcDbCircle
 10
-2.75
 20
5.25
 30
0.0
 40
0.75
100
AcDbArc
 50
227.167759499496
 51
270.0
  0
LINE
  5
108B
330
1060
100
AcDbEntity
  8
0
100
AcDbLine
 10
-2.75
 20
4.5
 30
0.0
 11
-2.5
 21
4.5
 31
0.0
  0
LINE
  5
108C
330
1060
100
AcDbEntity
  8
0
100
AcDbLine
 10
-7.415254325502246
 20
3.064644661409147
 30
0.0
 11
-6.868629150101696
 21
3.611269837220788
 31
0.0
  0
ARC
  5
108D
102
{ACAD_REACTORS
330
10A7
102
}
330
1060
100
AcDbEntity
  8
0
100
AcDbCircle
 10
-7.980939750059405
 20
2.569669913566031
 30
0.0
 40
0.2
100
AcDbArc
 50
45.0000001037625
 51
135.0000000719631
  0
ARC
  5
108E
330
1060
100
AcDbEntity
  8
0
100
AcDbCircle
 10
-3.757359312881817
 20
0.5
 30
0.0
 40
5.0
100
AcDbArc
 50
90.0
 51
135.0
  0
ARC
  5
108F
330
1060
100
AcDbEntity
  8
0
100
AcDbCircle
 10
-3.757359312881817
 20
0.5
 30
0.0
 40
4.4
100
AcDbArc
 50
90.19499109987526
 51
135.0
  0
ARC
  5
1090
330
1060
100
AcDbEntity
  8
0
100
AcDbCircle
 10
-6.814213563102384
 20
0.9786796633270569
 30
0.0
 40
0.75
100
AcDbArc
 50
314.9999999676111
 51
45.0
  0
ARC
  5
1091
102
{ACAD_REACTORS
330
10A7
102
}
330
1060
100
AcDbEntity
  8
0
100
AcDbCircle
 10
-6.814213563102384
 20
0.9786796633270569
 30
0.0
 40
0.5
100
AcDbArc
 50
314.9999999676111
 51
45.0
  0
ARC
  5
1092
330
1060
100
AcDbEntity
  8
0
100
AcDbCircle
 10
-7.203122291144609
 20
2.852512627053329
 30
0.0
 40
0.3
100
AcDbArc
 50
135.0
 51
225.0000001112794
  0
LINE
  5
1093
330
1060
100
AcDbEntity
  8
0
100
AcDbLine
 10
-8.051650430128574
 20
3.276776694619002
 30
0.0
 11
-6.283883477519339
 21
1.509009749524921
 31
0.0
  0
LINE
  5
1094
102
{ACAD_REACTORS
330
10A7
102
}
330
1060
100
AcDbEntity
  8
0
100
AcDbLine
 10
-7.839518394079277
 20
2.711091270059114
 30
0.0
 11
-6.460660172508141
 21
1.33223305392039
 31
0.0
  0
ARC
  5
1095
330
1060
100
AcDbEntity
  8
0
100
AcDbCircle
 10
-12.57713383280133
 20
-2.521498914058611
 30
0.0
 40
0.3
100
AcDbArc
 50
45.00000003552097
 51
135.0
  0
ARC
  5
1096
102
{ACAD_REACTORS
330
10A7
102
}
330
1060
100
AcDbEntity
  8
0
100
AcDbCircle
 10
-12.29429112059733
 20
-1.743681468243266
 30
0.0
 40
0.2
100
AcDbArc
 50
135.0000000660675
 51
225.0000002990173
  0
LINE
  5
1097
330
1060
100
AcDbEntity
  8
0
100
AcDbLine
 10
-12.9899494936617
 20
-2.510050506339212
 30
0.0
 11
-12.78926586715715
 21
-2.309366879702793
 31
0.0
  0
LINE
  5
1098
330
1060
100
AcDbEntity
  8
0
100
AcDbLine
 10
-13.41421356237333
 20
-2.085786437626666
 30
0.0
 11
-7.292893218815152
 21
4.035533905932425
 31
0.0
  0
LINE
  5
1099
102
{ACAD_REACTORS
330
10A7
102
}
330
1060
100
AcDbEntity
  8
0
100
AcDbLine
 10
-12.43571247699765
 20
-1.602260112168551
 30
0.0
 11
-8.122361106474272
 21
2.711091269625285
 31
0.0
  0
ARC
  5
109A
330
1060
100
AcDbEntity
  8
0
100
AcDbCircle
 10
-2.5
 20
-3.5
 30
0.0
 40
1.0
100
AcDbArc
 50
270.0
 51
0.0
  0
ARC
  5
109B
330
1060
100
AcDbEntity
  8
0
100
AcDbCircle
 10
-7.519803902720013
 20
-4.150000000000545
 30
0.0
 40
0.75
100
AcDbArc
 50
270.0
 51
312.8334280660476
  0
ARC
  5
109C
330
1060
100
AcDbEntity
  8
0
100
AcDbCircle
 10
-6.5
 20
-5.25
 30
0.0
 40
0.75
100
AcDbArc
 50
90.0
 51
132.8334280660476
  0
LINE
  5
109D
330
1060
100
AcDbEntity
  8
0
100
AcDbLine
 10
-2.5
 20
-4.5
 30
0.0
 11
-6.5
 21
-4.5
 31
0.0
  0
ARC
  5
109E
330
1060
100
AcDbEntity
  8
0
100
AcDbCircle
 10
-10.7033008647486
 20
-2.910407640086305
 30
0.0
 40
0.75
100
AcDbArc
 50
225.0
 51
315.0
  0
ARC
  5
109F
102
{ACAD_REACTORS
330
10A7
102
}
330
1060
100
AcDbEntity
  8
0
100
AcDbCircle
 10
-10.7033008647486
 20
-2.910407640086305
 30
0.0
 40
0.5
100
AcDbArc
 50
225.0
 51
315.0
  0
LINE
  5
10A0
330
1060
100
AcDbEntity
  8
0
100
AcDbLine
 10
-1.5
 20
-5.5
 30
0.0
 11
-12.0
 21
-5.5
 31
0.0
  0
LINE
  5
10A1
330
1060
100
AcDbEntity
  8
0
100
AcDbLine
 10
-7.519803902720013
 20
-4.900000000000545
 30
0.0
 11
-12.0
 21
-4.900000000000545
 31
0.0
  0
ARC
  5
10A2
330
1060
100
AcDbEntity
  8
0
100
AcDbCircle
 10
-12.0
 20
-3.5
 30
0.0
 40
2.0
100
AcDbArc
 50
135.0
 51
270.0
  0
LINE
  5
10A3
330
1060
100
AcDbEntity
  8
0
100
AcDbLine
 10
-10.17297077881812
 20
-3.440737725935832
 30
0.0
 11
-6.283883477372
 21
0.4483495772774404
 31
0.0
  0
ARC
  5
10A4
330
1060
100
AcDbEntity
  8
0
100
AcDbCircle
 10
-12.0
 20
-3.5
 30
0.0
 40
1.399999999999999
100
AcDbArc
 50
135.0
 51
270.0
  0
LINE
  5
10A5
330
1060
100
AcDbEntity
  8
0
100
AcDbLine
 10
-13.00139790187859
 20
-1.672970777132832
 30
0.0
 11
-11.23363095093009
 21
-3.440737725682993
 31
0.0
  0
LINE
  5
10A6
330
1060
100
AcDbEntity
  8
0
100
AcDbLine
 10
-1.5
 20
3.5
 30
0.0
 11
-1.5
 21
-3.5
 31
0.0
  0
HATCH
  5
10A7
330
1060
100
AcDbEntity
  8
0
100
AcDbHatch
 10
0.0
 20
0.0
 30
0.0
210
0.0
220
0.0
230
1.0
  2
ANSI31
 70
     0
 71
     1
 91
        1
 92
        7
 72
     1
 73
     1
 93
        8
 10
-6.460660173204814
 20
1.332233054616153
 42
0.0
 10
-7.839518394101105
 20
2.711091270081851
 42
0.414213562178905
 10
-8.122361106481548
 20
2.711091269618009
 42
0.0
 10
-12.43571247701766
 20
-1.602260112190379
 42
0.4142135636146872
 10
-12.43571247604996
 20
-1.885102825264766
 42
0.0
 10
-11.05685425338015
 20
-3.263961032639599
 42
0.4142135608152901
 10
-10.34974747407432
 20
-3.263961030598693
 42
0.0
 10
-6.460660172428106
 20
0.625126272813759
 42
0.4142135628833784
 97
        8
330
1094
330
108D
330
1099
330
1096
330
10A9
330
109F
330
10A8
330
1091
 75
     0
 76
     1
 52
45.0
 41
0.25
 77
     0
 78
     1
 53
90.0
 43
-276.1145346408611
 44
-395.2719013892401
 45
-0.79375
 46
0.0000000000000002
 79
     0
 47
0.0364805528584695
 98
        1
 10
-7.399477738399582
 20
0.8532363732892918
  0
LINE
  5
10A8
102
{ACAD_REACTORS
330
10A7
102
}
330
1060
100
AcDbEntity
  8
0
100
AcDbLine
 10
-10.34974747415435
 20
-3.263961030678729
 30
0.0
 11
-6.46066017270823
 21
0.6251262725336347
 31
0.0
  0
LINE
  5
10A9
102
{ACAD_REACTORS
330
10A7
102
}
330
1060
100
AcDbEntity
  8
0
100
AcDbLine
 10
-12.43571247609543
 20
-1.885102825218382
 30
0.0
 11
-11.05685425534102
 21
-3.263961030678729
 31
0.0
  0
LINE
  5
10AA
330
1060
100
AcDbEntity
  8
0
100
AcDbLine
 10
-1.5
 20
5.5
 30
0.0
 11
1.042400829128382
 21
5.5
 31
0.0
  0
LINE
  5
10AB
330
1060
100
AcDbEntity
  8
0
100
AcDbLine
 10
-1.5
 20
-5.5
 30
0.0
 11
1.042400829128382
 21
-5.5
 31
0.0
  0
ENDBLK
  5
10AC
330
1060
100
AcDbEntity
  8
0
 62
     4
100
AcDbBlockEnd
  0
BLOCK
  5
2E05
330
2DFB
100
AcDbEntity
  8
0
100
AcDbBlockBegin
  2
*D8
 70
     1
 10
0.0
 20
0.0
 30
0.0
  3
*D8
  1

  0
LINE
  5
2F4A
330
2DFB
100
AcDbEntity
  8
7
100
AcDbLine
 10
8784.772655881194
 20
1434.775969814727
 30
0.0
 11
8671.691015052335
 21
1434.775969814727
 31
0.0
  0
LINE
  5
2F4B
330
2DFB
100
AcDbEntity
  8
7
100
AcDbLine
 10
8699.392514334027
 20
1149.775969814727
 30
0.0
 11
8671.691015052335
 21
1149.775969814727
 31
0.0
  0
LINE
  5
2F4C
330
2DFB
100
AcDbEntity
  8
7
100
AcDbLine
 10
8681.691015052335
 20
1414.775969814727
 30
0.0
 11
8681.691015052335
 21
1169.775969814727
 31
0.0
  0
SOLID
  5
2F4D
330
2DFB
100
AcDbEntity
  8
7
100
AcDbTrace
 10
8678.357681719001
 20
1414.775969814727
 30
0.0
 11
8685.024348385669
 21
1414.775969814727
 31
0.0
 12
8681.691015052335
 22
1434.775969814727
 32
0.0
 13
8681.691015052335
 23
1434.775969814727
 33
0.0
  0
SOLID
  5
2F4E
330
2DFB
100
AcDbEntity
  8
7
100
AcDbTrace
 10
8678.357681719001
 20
1169.775969814727
 30
0.0
 11
8685.024348385669
 21
1169.775969814727
 31
0.0
 12
8681.691015052335
 22
1149.775969814727
 32
0.0
 13
8681.691015052335
 23
1149.775969814727
 33
0.0
  0
MTEXT
  5
2F4F
330
2DFB
100
AcDbEntity
  8
7
100
AcDbMText
 10
8661.234332715196
 20
1292.275969814728
 30
0.0
 40
20.0
 41
0.0
 71
     5
 72
     1
  1
285
  7
SANINDUSA
 11
0.0000000000000001
 21
1.0
 31
0.0
 73
     1
 44
1.0
1001
ACAD
1000
MTEXTBEGIN
1070
    73
1070
     1
1070
    44
1040
1.0
1070
    74
1070
     0
1000
MTEXTEND
  0
POINT
  5
2F50
330
2DFB
100
AcDbEntity
  8
Defpoints
 62
     0
100
AcDbPoint
 10
8794.772655881194
 20
1434.775969814727
 30
-0.0000017937957191
  0
POINT
  5
2F51
330
2DFB
100
AcDbEntity
  8
Defpoints
 62
     0
100
AcDbPoint
 10
8709.392514334025
 20
1149.775969814727
 30
-0.0000017937957191
  0
POINT
  5
2F52
330
2DFB
100
AcDbEntity
  8
Defpoints
 62
     0
100
AcDbPoint
 10
8681.691015052335
 20
1149.775969814727
 30
0.0
  0
ENDBLK
  5
2E06
330
2DFB
100
AcDbEntity
  8
0
100
AcDbBlockEnd
  0
BLOCK
  5
2E13
330
2E07
100
AcDbEntity
  8
0
100
AcDbBlockBegin
  2
*D9
 70
     1
 10
0.0
 20
0.0
 30
0.0
  3
*D9
  1

  0
LINE
  5
2F53
330
2E07
100
AcDbEntity
  8
7
100
AcDbLine
 10
8412.676893330289
 20
1149.775969814731
 30
0.0
 11
8564.391361795875
 21
1149.775969814731
 31
0.0
  0
LINE
  5
2F54
330
2E07
100
AcDbEntity
  8
7
100
AcDbLine
 10
8384.888548401541
 20
1139.775969814731
 30
0.0
 11
8564.391361795875
 21
1139.775969814731
 31
0.0
  0
LINE
  5
2F55
330
2E07
100
AcDbEntity
  8
7
100
AcDbLine
 10
8554.391361795875
 20
1169.775969814731
 30
0.0
 11
8554.391361795875
 21
1189.775969814731
 31
0.0
  0
LINE
  5
2F56
330
2E07
100
AcDbEntity
  8
7
100
AcDbLine
 10
8554.391361795875
 20
1119.775969814731
 30
0.0
 11
8554.391361795875
 21
1050.346822736155
 31
0.0
  0
LINE
  5
2F57
330
2E07
100
AcDbEntity
  8
7
100
AcDbLine
 10
8554.391361795875
 20
1149.775969814731
 30
0.0
 11
8554.391361795875
 21
1139.775969814731
 31
0.0
  0
SOLID
  5
2F58
330
2E07
100
AcDbEntity
  8
7
100
AcDbTrace
 10
8551.058028462541
 20
1169.775969814731
 30
0.0
 11
8557.724695129209
 21
1169.775969814731
 31
0.0
 12
8554.391361795875
 22
1149.775969814731
 32
0.0
 13
8554.391361795875
 23
1149.775969814731
 33
0.0
  0
SOLID
  5
2F59
330
2E07
100
AcDbEntity
  8
7
100
AcDbTrace
 10
8551.058028462541
 20
1119.775969814731
 30
0.0
 11
8557.724695129209
 21
1119.775969814731
 31
0.0
 12
8554.391361795875
 22
1139.775969814731
 32
0.0
 13
8554.391361795875
 23
1139.775969814731
 33
0.0
  0
MTEXT
  5
2F5A
330
2E07
100
AcDbEntity
  8
7
100
AcDbMText
 10
8533.981690875796
 20
1075.061396275445
 30
0.0
 40
20.0
 41
0.0
 71
     5
 72
     1
  1
10
  7
SANINDUSA
 11
0.0000000000000001
 21
1.0
 31
0.0
 73
     1
 44
1.0
1001
ACAD
1000
MTEXTBEGIN
1070
    73
1070
     1
1070
    44
1040
1.0
1070
    74
1070
     0
1000
MTEXTEND
  0
POINT
  5
2F5B
330
2E07
100
AcDbEntity
  8
Defpoints
 62
     0
100
AcDbPoint
 10
8402.676893330289
 20
1149.775969814731
 30
-0.0000017937957191
  0
POINT
  5
2F5C
330
2E07
100
AcDbEntity
  8
Defpoints
 62
     0
100
AcDbPoint
 10
8374.888548401541
 20
1139.775969814731
 30
0.0
  0
POINT
  5
2F5D
330
2E07
100
AcDbEntity
  8
Defpoints
 62
     0
100
AcDbPoint
 10
8554.391361795875
 20
1139.775969814731
 30
0.0
  0
ENDBLK
  5
2E14
330
2E07
100
AcDbEntity
  8
0
100
AcDbBlockEnd
  0
BLOCK
  5
2E1F
330
2E15
100
AcDbEntity
  8
0
100
AcDbBlockBegin
  2
*D10
 70
     1
 10
0.0
 20
0.0
 30
0.0
  3
*D10
  1

  0
LINE
  5
2F5E
330
2E15
100
AcDbEntity
  8
7
100
AcDbLine
 10
9039.523594708724
 20
1434.775969814719
 30
0.0
 11
9719.79281686718
 21
1434.775969814719
 31
0.0
  0
LINE
  5
2F5F
330
2E15
100
AcDbEntity
  8
7
100
AcDbLine
 10
9669.792816867179
 20
1139.775969814726
 30
0.0
 11
9719.79281686718
 21
1139.775969814726
 31
0.0
  0
LINE
  5
2F60
330
2E15
100
AcDbEntity
  8
7
100
AcDbLine
 10
9709.792816867178
 20
1414.775969814719
 30
0.0
 11
9709.792816867178
 21
1159.775969814726
 31
0.0
  0
SOLID
  5
2F61
330
2E15
100
AcDbEntity
  8
7
100
AcDbTrace
 10
9706.459483533846
 20
1414.775969814719
 30
0.0
 11
9713.126150200514
 21
1414.775969814719
 31
0.0
 12
9709.792816867178
 22
1434.775969814719
 32
0.0
 13
9709.792816867178
 23
1434.775969814719
 33
0.0
  0
SOLID
  5
2F62
330
2E15
100
AcDbEntity
  8
7
100
AcDbTrace
 10
9706.459483533846
 20
1159.775969814726
 30
0.0
 11
9713.126150200514
 21
1159.775969814726
 31
0.0
 12
9709.792816867178
 22
1139.775969814726
 32
0.0
 13
9709.792816867178
 23
1139.775969814726
 33
0.0
  0
MTEXT
  5
2F63
330
2E15
100
AcDbEntity
  8
7
100
AcDbMText
 10
9689.376430030376
 20
1287.275969814724
 30
0.0
 40
20.0
 41
0.0
 71
     5
 72
     1
  1
295
  7
SANINDUSA
 11
0.0000000000000001
 21
1.0
 31
0.0
 73
     1
 44
1.0
1001
ACAD
1000
MTEXTBEGIN
1070
    73
1070
     1
1070
    44
1040
1.0
1070
    74
1070
     0
1000
MTEXTEND
  0
POINT
  5
2F64
330
2E15
100
AcDbEntity
  8
Defpoints
 62
     0
100
AcDbPoint
 10
9029.523594708722
 20
1434.775969814719
 30
-0.0000017937957191
  0
POINT
  5
2F65
330
2E15
100
AcDbEntity
  8
Defpoints
 62
     0
100
AcDbPoint
 10
9659.792816867179
 20
1139.775969814726
 30
0.0
  0
POINT
  5
2F66
330
2E15
100
AcDbEntity
  8
Defpoints
 62
     0
100
AcDbPoint
 10
9709.792816867178
 20
1139.775969814726
 30
0.0
  0
ENDBLK
  5
2E20
330
2E15
100
AcDbEntity
  8
0
100
AcDbBlockEnd
  0
BLOCK
  5
2E2B
330
2E21
100
AcDbEntity
  8
0
100
AcDbBlockBegin
  2
*D11
 70
     1
 10
0.0
 20
0.0
 30
0.0
  3
*D11
  1

  0
LINE
  5
2F67
330
2E21
100
AcDbEntity
  8
7
100
AcDbLine
 10
9669.792816867179
 20
2989.775969814726
 30
0.0
 11
9719.79281686718
 21
2989.775969814726
 31
0.0
  0
LINE
  5
2F68
330
2E21
100
AcDbEntity
  8
7
100
AcDbLine
 10
9068.697157188523
 20
2694.775969805057
 30
0.0
 11
9719.79281686718
 21
2694.775969805057
 31
0.0
  0
LINE
  5
2F69
330
2E21
100
AcDbEntity
  8
7
100
AcDbLine
 10
9709.792816867178
 20
2969.775969814726
 30
0.0
 11
9709.792816867178
 21
2714.775969805057
 31
0.0
  0
SOLID
  5
2F6A
330
2E21
100
AcDbEntity
  8
7
100
AcDbTrace
 10
9706.459483533846
 20
2969.775969814726
 30
0.0
 11
9713.126150200514
 21
2969.775969814726
 31
0.0
 12
9709.792816867178
 22
2989.775969814726
 32
0.0
 13
9709.792816867178
 23
2989.775969814726
 33
0.0
  0
SOLID
  5
2F6B
330
2E21
100
AcDbEntity
  8
7
100
AcDbTrace
 10
9706.459483533846
 20
2714.775969805057
 30
0.0
 11
9713.126150200514
 21
2714.775969805057
 31
0.0
 12
9709.792816867178
 22
2694.775969805057
 32
0.0
 13
9709.792816867178
 23
2694.775969805057
 33
0.0
  0
MTEXT
  5
2F6C
330
2E21
100
AcDbEntity
  8
7
100
AcDbMText
 10
9689.376430030376
 20
2842.275969809893
 30
0.0
 40
20.0
 41
0.0
 71
     5
 72
     1
  1
295
  7
SANINDUSA
 11
0.0000000000000001
 21
1.0
 31
0.0
 73
     1
 44
1.0
1001
ACAD
1000
MTEXTBEGIN
1070
    73
1070
     1
1070
    44
1040
1.0
1070
    74
1070
     0
1000
MTEXTEND
  0
POINT
  5
2F6D
330
2E21
100
AcDbEntity
  8
Defpoints
 62
     0
100
AcDbPoint
 10
9659.792816867179
 20
2989.775969814726
 30
0.0000017938277934
  0
POINT
  5
2F6E
330
2E21
100
AcDbEntity
  8
Defpoints
 62
     0
100
AcDbPoint
 10
9058.697157188523
 20
2694.775969805057
 30
0.0000000000320743
  0
POINT
  5
2F6F
330
2E21
100
AcDbEntity
  8
Defpoints
 62
     0
100
AcDbPoint
 10
9709.792816867178
 20
2694.775969805057
 30
0.0
  0
ENDBLK
  5
2E2C
330
2E21
100
AcDbEntity
  8
0
100
AcDbBlockEnd
  0
BLOCK
  5
2E37
330
2E2D
100
AcDbEntity
  8
0
100
AcDbBlockBegin
  2
*D12
 70
     1
 10
0.0
 20
0.0
 30
0.0
  3
*D12
  1

  0
LINE
  5
2F70
330
2E2D
100
AcDbEntity
  8
7
100
AcDbLine
 10
8059.79761686718
 20
2989.775969814685
 30
0.0
 11
7999.469164127382
 21
2989.775969814685
 31
0.0
  0
LINE
  5
2F71
330
2E2D
100
AcDbEntity
  8
7
100
AcDbLine
 10
8053.327760600774
 20
1139.775969814732
 30
0.0
 11
7999.46916412738
 21
1139.775969814732
 31
0.0
  0
LINE
  5
2F72
330
2E2D
100
AcDbEntity
  8
7
100
AcDbLine
 10
8009.469164127381
 20
2969.775969814685
 30
0.0
 11
8009.469164127379
 21
1159.775969814732
 31
0.0
  0
SOLID
  5
2F73
330
2E2D
100
AcDbEntity
  8
7
100
AcDbTrace
 10
8006.135830794049
 20
2969.775969814685
 30
0.0
 11
8012.802497460715
 21
2969.775969814685
 31
0.0
 12
8009.469164127381
 22
2989.775969814685
 32
0.0
 13
8009.469164127381
 23
2989.775969814685
 33
0.0
  0
SOLID
  5
2F74
330
2E2D
100
AcDbEntity
  8
7
100
AcDbTrace
 10
8006.135830794049
 20
1159.775969814732
 30
0.0
 11
8012.802497460713
 21
1159.775969814732
 31
0.0
 12
8009.469164127379
 22
1139.775969814732
 32
0.0
 13
8009.469164127379
 23
1139.775969814732
 33
0.0
  0
MTEXT
  5
2F75
330
2E2D
100
AcDbEntity
  8
7
100
AcDbMText
 10
7989.012481790242
 20
2064.77596981471
 30
0.0
 40
20.0
 41
0.0
 71
     5
 72
     1
  1
1850
  7
SANINDUSA
 11
0.0000000000000001
 21
1.0
 31
0.0
 73
     1
 44
1.0
1001
ACAD
1000
MTEXTBEGIN
1070
    73
1070
     1
1070
    44
1040
1.0
1070
    74
1070
     0
1000
MTEXTEND
  0
POINT
  5
2F76
330
2E2D
100
AcDbEntity
  8
Defpoints
 62
     0
100
AcDbPoint
 10
8069.79761686718
 20
2989.775969814685
 30
0.0
  0
POINT
  5
2F77
330
2E2D
100
AcDbEntity
  8
Defpoints
 62
     0
100
AcDbPoint
 10
8063.327760600774
 20
1139.775969814732
 30
0.0
  0
POINT
  5
2F78
330
2E2D
100
AcDbEntity
  8
Defpoints
 62
     0
100
AcDbPoint
 10
8009.469164127379
 20
1139.775969814732
 30
0.0
  0
ENDBLK
  5
2E38
330
2E2D
100
AcDbEntity
  8
0
100
AcDbBlockEnd
  0
BLOCK
  5
2E73
330
2E68
100
AcDbEntity
  8
0
100
AcDbBlockBegin
  2
*D13
 70
     1
 10
0.0
 20
0.0
 30
0.0
  3
*D13
  1

  0
LINE
  5
2EDE
330
2E68
100
AcDbEntity
  8
7
100
AcDbLine
 10
6331.417116110066
 20
2211.67952158647
 30
0.0
 11
6320.113758227772
 21
2211.67952158647
 31
0.0
  0
ARC
  5
2EDF
330
2E68
100
AcDbEntity
  8
7
100
AcDbCircle
 10
7125.517060006895
 20
2211.679521586467
 30
0.0
 40
795.4033017791238
100
AcDbArc
 50
181.440710363293
 51
268.5592896367066
  0
SOLID
  5
2EE0
330
2E68
100
AcDbEntity
  8
7
100
AcDbTrace
 10
6327.032133109806
 20
2191.639194799129
 30
0.0
 11
6333.69827288505
 21
2191.723009722347
 31
0.0
 12
6330.113758227772
 22
2211.679521586471
 32
0.0
 13
6330.113758227772
 23
2211.679521586471
 33
0.0
  0
SOLID
  5
2EE1
330
2E68
100
AcDbEntity
  8
7
100
AcDbTrace
 10
7105.56054814277
 20
1419.860734464621
 30
0.0
 11
7105.476733219551
 21
1413.194594689378
 31
0.0
 12
7125.517060006892
 22
1416.276219807343
 32
0.0
 13
7125.517060006892
 23
1416.276219807343
 33
0.0
  0
MTEXT
  5
2EE2
102
{ACAD_XDICTIONARY
360
30CB
102
}
330
2E68
100
AcDbEntity
  8
7
100
AcDbMText
 10
6579.123675267019
 20
1665.286136846595
 30
0.0
 40
20.0
 41
0.0
 71
     5
 72
     1
  1
90,0\U+00B0
  7
SANINDUSA
 11
0.7071067811865457
 21
-0.7071067811865494
 31
0.0
 73
     1
 44
1.0
1001
ACAD
1000
MTEXTBEGIN
1070
    73
1070
     1
1070
    44
1040
1.0
1070
    74
1070
     0
1000
MTEXTEND
  0
POINT
  5
2EE3
330
2E68
100
AcDbEntity
  8
Defpoints
 62
     0
100
AcDbPoint
 10
6436.677594412152
 20
1813.977870696907
 30
0.0
  0
POINT
  5
2EE4
330
2E68
100
AcDbEntity
  8
Defpoints
 62
     0
100
AcDbPoint
 10
7141.417116110066
 20
2211.679521586467
 30
0.0000001479284879
  0
POINT
  5
2EE5
330
2E68
100
AcDbEntity
  8
Defpoints
 62
     0
100
AcDbPoint
 10
7125.517060006895
 20
2198.779465483294
 30
0.0000001479284879
  0
POINT
  5
2EE6
330
2E68
100
AcDbEntity
  8
Defpoints
 62
     0
100
AcDbPoint
 10
7125.517060006893
 20
1398.779465483295
 30
0.0000001479284879
  0
POINT
  5
2EE7
330
2E68
100
AcDbEntity
  8
Defpoints
 62
     0
100
AcDbPoint
 10
6341.417116110066
 20
2211.67952158647
 30
0.0000001479284879
  0
ENDBLK
  5
2E74
330
2E68
100
AcDbEntity
  8
0
100
AcDbBlockEnd
  0
BLOCK
  5
2E7F
330
2E75
100
AcDbEntity
  8
0
100
AcDbBlockBegin
  2
*D14
 70
     1
 10
0.0
 20
0.0
 30
0.0
  3
*D14
  1

  0
LINE
  5
2EB1
330
2E75
100
AcDbEntity
  8
7
100
AcDbLine
 10
6304.862189940872
 20
2893.234816964032
 30
0.0
 11
6175.4107703158
 21
2893.234816964032
 31
0.0
  0
LINE
  5
2EB2
330
2E75
100
AcDbEntity
  8
7
100
AcDbLine
 10
6307.393939869969
 20
2193.252916964032
 30
0.0
 11
6175.4107703158
 21
2193.252916964032
 31
0.0
  0
LINE
  5
2EB3
330
2E75
100
AcDbEntity
  8
7
100
AcDbLine
 10
6185.410770315801
 20
2873.234816964032
 30
0.0
 11
6185.410770315801
 21
2213.252916964032
 31
0.0
  0
SOLID
  5
2EB4
330
2E75
100
AcDbEntity
  8
7
100
AcDbTrace
 10
6182.077436982467
 20
2873.234816964032
 30
0.0
 11
6188.744103649134
 21
2873.234816964032
 31
0.0
 12
6185.410770315801
 22
2893.234816964032
 32
0.0
 13
6185.410770315801
 23
2893.234816964032
 33
0.0
  0
SOLID
  5
2EB5
330
2E75
100
AcDbEntity
  8
7
100
AcDbTrace
 10
6182.077436982467
 20
2213.252916964032
 30
0.0
 11
6188.744103649134
 21
2213.252916964032
 31
0.0
 12
6185.410770315801
 22
2193.252916964032
 32
0.0
 13
6185.410770315801
 23
2193.252916964032
 33
0.0
  0
MTEXT
  5
2EB6
330
2E75
100
AcDbEntity
  8
7
100
AcDbMText
 10
6165.00109939572
 20
2543.243866964033
 30
0.0
 40
20.0
 41
0.0
 71
     5
 72
     1
  1
700
  7
SANINDUSA
 11
0.0000000000000001
 21
1.0
 31
0.0
 73
     1
 44
1.0
1001
ACAD
1000
MTEXTBEGIN
1070
    73
1070
     1
1070
    44
1040
1.0
1070
    74
1070
     0
1000
MTEXTEND
  0
POINT
  5
2EB7
330
2E75
100
AcDbEntity
  8
Defpoints
 62
     0
100
AcDbPoint
 10
6314.862189940871
 20
2893.234816964032
 30
-0.0000000076263427
  0
POINT
  5
2EB8
330
2E75
100
AcDbEntity
  8
Defpoints
 62
     0
100
AcDbPoint
 10
6317.393939869969
 20
2193.252916964032
 30
0.0
  0
POINT
  5
2EB9
330
2E75
100
AcDbEntity
  8
Defpoints
 62
     0
100
AcDbPoint
 10
6185.410770315801
 20
2193.252916964032
 30
0.0
  0
ENDBLK
  5
2E80
330
2E75
100
AcDbEntity
  8
0
100
AcDbBlockEnd
  0
BLOCK
  5
2E8B
330
2E81
100
AcDbEntity
  8
0
100
AcDbBlockBegin
  2
*D15
 70
     1
 10
0.0
 20
0.0
 30
0.0
  3
*D15
  1

  0
LINE
  5
2EBA
330
2E81
100
AcDbEntity
  8
7
100
AcDbLine
 10
6307.393939869969
 20
2893.234816964032
 30
0.0
 11
6307.393939869969
 21
2962.469871469535
 31
0.0
  0
LINE
  5
2EBB
330
2E81
100
AcDbEntity
  8
7
100
AcDbLine
 10
7907.389139869971
 20
2893.234816964033
 30
0.0
 11
7907.389139869971
 21
2962.469871469535
 31
0.0
  0
LINE
  5
2EBC
330
2E81
100
AcDbEntity
  8
7
100
AcDbLine
 10
6327.39393986997
 20
2952.469871469535
 30
0.0
 11
7887.389139869971
 21
2952.469871469535
 31
0.0
  0
SOLID
  5
2EBD
330
2E81
100
AcDbEntity
  8
7
100
AcDbTrace
 10
6327.39393986997
 20
2955.803204802869
 30
0.0
 11
6327.39393986997
 21
2949.136538136201
 31
0.0
 12
6307.393939869969
 22
2952.469871469535
 32
0.0
 13
6307.393939869969
 23
2952.469871469535
 33
0.0
  0
SOLID
  5
2EBE
330
2E81
100
AcDbEntity
  8
7
100
AcDbTrace
 10
7887.389139869971
 20
2955.803204802869
 30
0.0
 11
7887.389139869971
 21
2949.136538136201
 31
0.0
 12
7907.389139869971
 22
2952.469871469535
 32
0.0
 13
7907.389139869971
 23
2952.469871469535
 33
0.0
  0
MTEXT
  5
2EBF
330
2E81
100
AcDbEntity
  8
7
100
AcDbMText
 10
7107.391539869969
 20
2972.879542389616
 30
0.0
 40
20.0
 41
0.0
 71
     5
 72
     1
  1
1600
  7
SANINDUSA
 73
     1
 44
1.0
1001
ACAD
1000
MTEXTBEGIN
1070
    73
1070
     1
1070
    44
1040
1.0
1070
    74
1070
     0
1000
MTEXTEND
  0
POINT
  5
2EC0
330
2E81
100
AcDbEntity
  8
Defpoints
 62
     0
100
AcDbPoint
 10
6307.393939869969
 20
2883.234816964032
 30
0.0
  0
POINT
  5
2EC1
330
2E81
100
AcDbEntity
  8
Defpoints
 62
     0
100
AcDbPoint
 10
7907.389139869971
 20
2883.234816964033
 30
0.0
  0
POINT
  5
2EC2
330
2E81
100
AcDbEntity
  8
Defpoints
 62
     0
100
AcDbPoint
 10
7907.389139869971
 20
2952.469871469535
 30
0.0
  0
ENDBLK
  5
2E8C
330
2E81
100
AcDbEntity
  8
0
100
AcDbBlockEnd
  0
BLOCK
  5
2E97
330
2E8D
100
AcDbEntity
  8
0
100
AcDbBlockBegin
  2
*D16
 70
     1
 10
0.0
 20
0.0
 30
0.0
  3
*D16
  1

  0
LINE
  5
2FB1
330
2E8D
100
AcDbEntity
  8
7
100
AcDbLine
 10
6317.088685175836
 20
2226.007948711217
 30
0.0
 11
6245.108982561847
 21
2226.007948711217
 31
0.0
  0
LINE
  5
2FB2
330
2E8D
100
AcDbEntity
  8
7
100
AcDbLine
 10
6317.088685175829
 20
2848.862793204124
 30
0.0
 11
6245.108982561847
 21
2848.862793204124
 31
0.0
  0
LINE
  5
2FB3
330
2E8D
100
AcDbEntity
  8
7
100
AcDbLine
 10
6255.108982561847
 20
2246.007948711217
 30
0.0
 11
6255.108982561847
 21
2828.862793204124
 31
0.0
  0
SOLID
  5
2FB4
330
2E8D
100
AcDbEntity
  8
7
100
AcDbTrace
 10
6251.775649228514
 20
2246.007948711217
 30
0.0
 11
6258.44231589518
 21
2246.007948711217
 31
0.0
 12
6255.108982561847
 22
2226.007948711217
 32
0.0
 13
6255.108982561847
 23
2226.007948711217
 33
0.0
  0
SOLID
  5
2FB5
330
2E8D
100
AcDbEntity
  8
7
100
AcDbTrace
 10
6251.775649228514
 20
2828.862793204124
 30
0.0
 11
6258.44231589518
 21
2828.862793204124
 31
0.0
 12
6255.108982561847
 22
2848.862793204124
 32
0.0
 13
6255.108982561847
 23
2848.862793204124
 33
0.0
  0
MTEXT
  5
2FB6
330
2E8D
100
AcDbEntity
  8
7
100
AcDbMText
 10
6234.692595725043
 20
2537.435370957672
 30
0.0
 40
20.0
 41
0.0
 71
     5
 72
     1
  1
623
  7
SANINDUSA
 11
0.0000000000000001
 21
1.0
 31
0.0
 73
     1
 44
1.0
1001
ACAD
1000
MTEXTBEGIN
1070
    73
1070
     1
1070
    44
1040
1.0
1070
    74
1070
     0
1000
MTEXTEND
  0
POINT
  5
2FB7
330
2E8D
100
AcDbEntity
  8
Defpoints
 62
     0
100
AcDbPoint
 10
6327.088685175835
 20
2226.007948711217
 30
-0.0000000076263427
  0
POINT
  5
2FB8
330
2E8D
100
AcDbEntity
  8
Defpoints
 62
     0
100
AcDbPoint
 10
6327.08868517583
 20
2848.862793204124
 30
-0.0000000076263427
  0
POINT
  5
2FB9
330
2E8D
100
AcDbEntity
  8
Defpoints
 62
     0
100
AcDbPoint
 10
6255.108982561847
 20
2848.862793204124
 30
0.0
  0
ENDBLK
  5
2E98
330
2E8D
100
AcDbEntity
  8
0
100
AcDbBlockEnd
  0
BLOCK
  5
2EA3
330
2E99
100
AcDbEntity
  8
0
100
AcDbBlockBegin
  2
*D17
 70
     1
 10
0.0
 20
0.0
 30
0.0
  3
*D17
  1

  0
LINE
  5
2ECC
330
2E99
100
AcDbEntity
  8
7
100
AcDbLine
 10
7862.417116110065
 20
2201.67951777687
 30
0.0
 11
7862.417116110065
 21
2133.252916964032
 31
0.0
  0
LINE
  5
2ECD
330
2E99
100
AcDbEntity
  8
7
100
AcDbLine
 10
7144.417116110066
 20
2201.679517776873
 30
0.0
 11
7144.417116110066
 21
2133.252916964032
 31
0.0
  0
LINE
  5
2ECE
330
2E99
100
AcDbEntity
  8
7
100
AcDbLine
 10
7842.417116110064
 20
2143.252916964033
 30
0.0
 11
7164.417116110065
 21
2143.252916964033
 31
0.0
  0
SOLID
  5
2ECF
330
2E99
100
AcDbEntity
  8
7
100
AcDbTrace
 10
7842.417116110064
 20
2146.586250297366
 30
0.0
 11
7842.417116110064
 21
2139.919583630699
 31
0.0
 12
7862.417116110065
 22
2143.252916964033
 32
0.0
 13
7862.417116110065
 23
2143.252916964033
 33
0.0
  0
SOLID
  5
2ED0
330
2E99
100
AcDbEntity
  8
7
100
AcDbTrace
 10
7164.417116110065
 20
2146.586250297366
 30
0.0
 11
7164.417116110065
 21
2139.919583630699
 31
0.0
 12
7144.417116110066
 22
2143.252916964033
 32
0.0
 13
7144.417116110066
 23
2143.252916964033
 33
0.0
  0
MTEXT
  5
2ED1
330
2E99
100
AcDbEntity
  8
7
100
AcDbMText
 10
7503.417116110064
 20
2163.709599301172
 30
0.0
 40
20.0
 41
0.0
 71
     5
 72
     1
  1
718
  7
SANINDUSA
 73
     1
 44
1.0
1001
ACAD
1000
MTEXTBEGIN
1070
    73
1070
     1
1070
    44
1040
1.0
1070
    74
1070
     0
1000
MTEXTEND
  0
POINT
  5
2ED2
330
2E99
100
AcDbEntity
  8
Defpoints
 62
     0
100
AcDbPoint
 10
7862.417116110065
 20
2211.67951777687
 30
0.0000001474186491
  0
POINT
  5
2ED3
330
2E99
100
AcDbEntity
  8
Defpoints
 62
     0
100
AcDbPoint
 10
7144.417116110066
 20
2211.679517776873
 30
0.0000001478662821
  0
POINT
  5
2ED4
330
2E99
100
AcDbEntity
  8
Defpoints
 62
     0
100
AcDbPoint
 10
7144.417116110066
 20
2143.252916964033
 30
0.0
  0
ENDBLK
  5
2EA4
330
2E99
100
AcDbEntity
  8
0
100
AcDbBlockEnd
  0
BLOCK
  5
2EAF
330
2EA5
100
AcDbEntity
  8
0
100
AcDbBlockBegin
  2
*D18
 70
     1
 10
0.0
 20
0.0
 30
0.0
  3
*D18
  1

  0
LINE
  5
2ED5
330
2EA5
100
AcDbEntity
  8
7
100
AcDbLine
 10
7141.417116110064
 20
2201.679521586466
 30
0.0
 11
7141.417116110064
 21
2133.252916964034
 31
0.0
  0
LINE
  5
2ED6
330
2EA5
100
AcDbEntity
  8
7
100
AcDbLine
 10
6341.417116110066
 20
2201.679521586472
 30
0.0
 11
6341.417116110066
 21
2133.252916964034
 31
0.0
  0
LINE
  5
2ED7
330
2EA5
100
AcDbEntity
  8
7
100
AcDbLine
 10
7121.417116110063
 20
2143.252916964033
 30
0.0
 11
6361.417116110065
 21
2143.252916964033
 31
0.0
  0
SOLID
  5
2ED8
330
2EA5
100
AcDbEntity
  8
7
100
AcDbTrace
 10
7121.417116110063
 20
2146.586250297367
 30
0.0
 11
7121.417116110063
 21
2139.9195836307
 31
0.0
 12
7141.417116110064
 22
2143.252916964033
 32
0.0
 13
7141.417116110064
 23
2143.252916964033
 33
0.0
  0
SOLID
  5
2ED9
330
2EA5
100
AcDbEntity
  8
7
100
AcDbTrace
 10
6361.417116110065
 20
2146.586250297367
 30
0.0
 11
6361.417116110065
 21
2139.9195836307
 31
0.0
 12
6341.417116110066
 22
2143.252916964033
 32
0.0
 13
6341.417116110066
 23
2143.252916964033
 33
0.0
  0
MTEXT
  5
2EDA
330
2EA5
100
AcDbEntity
  8
7
100
AcDbMText
 10
6741.417116110065
 20
2163.709599301173
 30
0.0
 40
20.0
 41
0.0
 71
     5
 72
     1
  1
800
  7
SANINDUSA
 73
     1
 44
1.0
1001
ACAD
1000
MTEXTBEGIN
1070
    73
1070
     1
1070
    44
1040
1.0
1070
    74
1070
     0
1000
MTEXTEND
  0
POINT
  5
2EDB
330
2EA5
100
AcDbEntity
  8
Defpoints
 62
     0
100
AcDbPoint
 10
7141.417116110064
 20
2211.679521586466
 30
0.0000001479284879
  0
POINT
  5
2EDC
330
2EA5
100
AcDbEntity
  8
Defpoints
 62
     0
100
AcDbPoint
 10
6341.417116110066
 20
2211.679521586472
 30
0.0000001479284879
  0
POINT
  5
2EDD
330
2EA5
100
AcDbEntity
  8
Defpoints
 62
     0
100
AcDbPoint
 10
6341.417116110066
 20
2143.252916964033
 30
0.0
  0
ENDBLK
  5
2EB0
330
2EA5
100
AcDbEntity
  8
0
100
AcDbBlockEnd
  0
BLOCK
  5
2F92
330
2F88
100
AcDbEntity
  8
0
100
AcDbBlockBegin
  2
*D19
 70
     1
 10
0.0
 20
0.0
 30
0.0
  3
*D19
  1

  0
LINE
  5
2FA8
330
2F88
100
AcDbEntity
  8
0
100
AcDbLine
 10
7446.917116110066
 20
2893.234816964033
 30
0.0
 11
7530.138141435471
 21
2893.234816964033
 31
0.0
  0
LINE
  5
2FA9
330
2F88
100
AcDbEntity
  8
0
100
AcDbLine
 10
7454.417116110064
 20
2201.579517776876
 30
0.0
 11
7530.138141435471
 21
2201.579517776876
 31
0.0
  0
LINE
  5
2FAA
330
2F88
100
AcDbEntity
  8
0
100
AcDbLine
 10
7520.13814143547
 20
2873.234816964033
 30
0.0
 11
7520.13814143547
 21
2221.579517776875
 31
0.0
  0
SOLID
  5
2FAB
330
2F88
100
AcDbEntity
  8
0
100
AcDbTrace
 10
7516.804808102136
 20
2873.234816964033
 30
0.0
 11
7523.471474768803
 21
2873.234816964033
 31
0.0
 12
7520.13814143547
 22
2893.234816964033
 32
0.0
 13
7520.13814143547
 23
2893.234816964033
 33
0.0
  0
SOLID
  5
2FAC
330
2F88
100
AcDbEntity
  8
0
100
AcDbTrace
 10
7516.804808102136
 20
2221.579517776875
 30
0.0
 11
7523.471474768803
 21
2221.579517776875
 31
0.0
 12
7520.13814143547
 22
2201.579517776876
 32
0.0
 13
7520.13814143547
 23
2201.579517776876
 33
0.0
  0
MTEXT
  5
2FAD
330
2F88
100
AcDbEntity
  8
0
100
AcDbMText
 10
7499.721754598666
 20
2547.407167370455
 30
0.0
 40
20.0
 41
0.0
 71
     5
 72
     1
  1
420 - 720
  7
SANINDUSA
 11
0.0000000000000001
 21
1.0
 31
0.0
 73
     1
 44
1.0
1001
ACAD
1000
MTEXTBEGIN
1070
    73
1070
     1
1070
    44
1040
1.0
1070
    74
1070
     0
1000
MTEXTEND
  0
POINT
  5
2FAE
330
2F88
100
AcDbEntity
  8
Defpoints
 62
     0
100
AcDbPoint
 10
7436.917116110065
 20
2893.234816964033
 30
0.0
  0
POINT
  5
2FAF
330
2F88
100
AcDbEntity
  8
Defpoints
 62
     0
100
AcDbPoint
 10
7444.417116110064
 20
2201.579517776876
 30
0.0000001479286265
  0
POINT
  5
2FB0
330
2F88
100
AcDbEntity
  8
Defpoints
 62
     0
100
AcDbPoint
 10
7520.13814143547
 20
2201.579517776876
 30
0.0
  0
ENDBLK
  5
2F93
330
2F88
100
AcDbEntity
  8
0
100
AcDbBlockEnd
  0
BLOCK
  5
2FC5
330
2FBB
100
AcDbEntity
  8
0
100
AcDbBlockBegin
  2
*D20
 70
     1
 10
0.0
 20
0.0
 30
0.0
  3
*D20
  1

  0
LINE
  5
2FDC
330
2FBB
100
AcDbEntity
  8
0
100
AcDbLine
 10
8059.79761686718
 20
2999.775969814685
 30
0.0
 11
8059.79761686718
 21
3049.77596981474
 31
0.0
  0
LINE
  5
2FDD
330
2FBB
100
AcDbEntity
  8
0
100
AcDbLine
 10
9659.792816867179
 20
2999.775969814719
 30
0.0
 11
9659.792816867179
 21
3049.77596981474
 31
0.0
  0
LINE
  5
2FDE
330
2FBB
100
AcDbEntity
  8
0
100
AcDbLine
 10
8079.79761686718
 20
3039.77596981474
 30
0.0
 11
9639.79281686718
 21
3039.77596981474
 31
0.0
  0
SOLID
  5
2FDF
330
2FBB
100
AcDbEntity
  8
0
100
AcDbTrace
 10
8079.79761686718
 20
3043.109303148073
 30
0.0
 11
8079.79761686718
 21
3036.442636481406
 31
0.0
 12
8059.79761686718
 22
3039.77596981474
 32
0.0
 13
8059.79761686718
 23
3039.77596981474
 33
0.0
  0
SOLID
  5
2FE0
330
2FBB
100
AcDbEntity
  8
0
100
AcDbTrace
 10
9639.79281686718
 20
3043.109303148073
 30
0.0
 11
9639.79281686718
 21
3036.442636481406
 31
0.0
 12
9659.792816867179
 22
3039.77596981474
 32
0.0
 13
9659.792816867179
 23
3039.77596981474
 33
0.0
  0
MTEXT
  5
2FE1
330
2FBB
100
AcDbEntity
  8
0
100
AcDbMText
 10
8859.79521686718
 20
3060.232652151879
 30
0.0
 40
20.0
 41
0.0
 71
     5
 72
     1
  1
1580 - 1610
  7
SANINDUSA
 73
     1
 44
1.0
1001
ACAD
1000
MTEXTBEGIN
1070
    73
1070
     1
1070
    44
1040
1.0
1070
    74
1070
     0
1000
MTEXTEND
  0
POINT
  5
2FE2
330
2FBB
100
AcDbEntity
  8
Defpoints
 62
     0
100
AcDbPoint
 10
8059.79761686718
 20
2989.775969814685
 30
0.0
  0
POINT
  5
2FE3
330
2FBB
100
AcDbEntity
  8
Defpoints
 62
     0
100
AcDbPoint
 10
9659.792816867179
 20
2989.775969814719
 30
0.0
  0
POINT
  5
2FE4
330
2FBB
100
AcDbEntity
  8
Defpoints
 62
     0
100
AcDbPoint
 10
9659.792816867179
 20
3039.77596981474
 30
0.0
  0
ENDBLK
  5
2FC6
330
2FBB
100
AcDbEntity
  8
0
100
AcDbBlockEnd
  0
BLOCK
  5
303D
330
303C
100
AcDbEntity
  8
0
100
AcDbBlockBegin
  2
*D22
 70
     1
 10
0.0
 20
0.0
 30
0.0
  3
*D22
  1

  0
LINE
  5
3049
330
303C
100
AcDbEntity
  8
0
100
AcDbLine
 10
8049.469164127382
 20
2989.775969814725
 30
0.0
 11
7984.251695810278
 21
2989.775969814725
 31
0.0
  0
LINE
  5
304A
330
303C
100
AcDbEntity
  8
0
100
AcDbLine
 10
8049.46916412738
 20
1139.775969814724
 30
0.0
 11
7984.251695810278
 21
1139.775969814724
 31
0.0
  0
LINE
  5
304B
330
303C
100
AcDbEntity
  8
0
100
AcDbLine
 10
7994.251695810278
 20
2969.775969814725
 30
0.0
 11
7994.251695810277
 21
1159.775969814724
 31
0.0
  0
SOLID
  5
304C
330
303C
100
AcDbEntity
  8
0
100
AcDbTrace
 10
7990.918362476945
 20
2969.775969814725
 30
0.0
 11
7997.585029143611
 21
2969.775969814725
 31
0.0
 12
7994.251695810278
 22
2989.775969814725
 32
0.0
 13
7994.251695810278
 23
2989.775969814725
 33
0.0
  0
SOLID
  5
304D
330
303C
100
AcDbEntity
  8
0
100
AcDbTrace
 10
7990.918362476944
 20
1159.775969814724
 30
0.0
 11
7997.585029143611
 21
1159.775969814724
 31
0.0
 12
7994.251695810277
 22
1139.775969814724
 32
0.0
 13
7994.251695810277
 23
1139.775969814724
 33
0.0
  0
MTEXT
  5
304E
330
303C
100
AcDbEntity
  8
0
100
AcDbMText
 10
7973.795013473138
 20
2064.775969814726
 30
0.0
 40
20.0
 41
0.0
 71
     5
 72
     1
  1
1850
  7
SANINDUSA
 11
0.0000000000000001
 21
1.0
 31
0.0
 73
     1
 44
1.0
1001
ACAD
1000
MTEXTBEGIN
1070
    73
1070
     1
1070
    44
1040
1.0
1070
    74
1070
     0
1000
MTEXTEND
  0
POINT
  5
304F
330
303C
100
AcDbEntity
  8
Defpoints
 62
     0
100
AcDbPoint
 10
8059.469164127381
 20
2989.775969814725
 30
0.0
  0
POINT
  5
3050
330
303C
100
AcDbEntity
  8
Defpoints
 62
     0
100
AcDbPoint
 10
8059.46916412738
 20
1139.775969814724
 30
0.0
  0
POINT
  5
3051
330
303C
100
AcDbEntity
  8
Defpoints
 62
     0
100
AcDbPoint
 10
7994.251695810277
 20
1139.775969814724
 30
0.0
  0
ENDBLK
  5
303E
330
303C
100
AcDbEntity
  8
0
100
AcDbBlockEnd
  0
ENDSEC
  0
SECTION
  2
ENTITIES
  0
LINE
  5
2954
330
1F
100
AcDbEntity
  8
SANINDUSA
100
AcDbLine
 10
8340.757928325961
 20
2076.016727935789
 30
0.0
 11
8340.757928325961
 21
2076.040654431023
 31
0.0
  0
LINE
  5
2955
330
1F
100
AcDbEntity
  8
SANINDUSA
100
AcDbLine
 10
8340.757928325961
 20
2076.016727935789
 30
0.0
 11
8340.756929445049
 21
2076.016727935789
 31
0.0
  0
LINE
  5
2956
330
1F
100
AcDbEntity
  8
SANINDUSA
100
AcDbLine
 10
8340.756928325962
 20
2076.040654431023
 30
0.0
 11
8340.757928325961
 21
2076.040654431023
 31
0.0
  0
ARC
  5
2957
330
1F
100
AcDbEntity
  8
SANINDUSA
100
AcDbCircle
 10
8340.756929445049
 20
2076.017727935789
 30
0.0
 40
0.0009999999999999
100
AcDbArc
 50
180.5340991175495
 51
270.0
  0
ARC
  5
2958
330
1F
100
AcDbEntity
  8
SANINDUSA
100
AcDbCircle
 10
8340.756928325962
 20
2076.039654431023
 30
0.0
 40
0.0009999999999999
100
AcDbArc
 50
90.0
 51
180.0
  0
LINE
  5
2959
330
1F
100
AcDbEntity
  8
SANINDUSA
100
AcDbLine
 10
8340.755929488496
 20
2076.017718614135
 30
0.0
 11
8340.755922698837
 21
2076.018446957622
 31
0.0
  0
LINE
  5
295A
330
1F
100
AcDbEntity
  8
SANINDUSA
100
AcDbLine
 10
8340.755928325961
 20
2076.038668644586
 30
0.0
 11
8340.755928325961
 21
2076.039654431023
 31
0.0
  0
ARC
  5
295B
330
1F
100
AcDbEntity
  8
SANINDUSA
100
AcDbCircle
 10
8340.754572757491
 20
2076.018434373391
 30
0.0
 40
0.00135
100
AcDbArc
 50
0.5340991175495649
 51
45.08930403414588
  0
ARC
  5
295C
330
1F
100
AcDbEntity
  8
SANINDUSA
100
AcDbCircle
 10
8340.754578325961
 20
2076.038668644586
 30
0.0
 40
0.0013499999999998
100
AcDbArc
 50
315.0
 51
0.0
  0
LINE
  5
295D
330
1F
100
AcDbEntity
  8
SANINDUSA
100
AcDbLine
 10
8340.75552586261
 20
2076.019390454264
 30
0.0
 11
8340.754619423497
 21
2076.020294072127
 31
0.0
  0
LINE
  5
295E
330
1F
100
AcDbEntity
  8
SANINDUSA
100
AcDbLine
 10
8340.754618706554
 20
2076.036799836869
 30
0.0
 11
8340.755532920118
 21
2076.037714050432
 31
0.0
  0
ARC
  5
295F
330
1F
100
AcDbEntity
  8
SANINDUSA
100
AcDbCircle
 10
8340.75507832596
 20
2076.020754407362
 30
0.0
 40
0.0006500000000003
100
AcDbArc
 50
180.0
 51
225.0893040341459
  0
ARC
  5
2960
330
1F
100
AcDbEntity
  8
SANINDUSA
100
AcDbCircle
 10
8340.75507832596
 20
2076.036340217461
 30
0.0
 40
0.0006500000000003
100
AcDbArc
 50
135.0
 51
180.0
  0
LINE
  5
2961
330
1F
100
AcDbEntity
  8
SANINDUSA
100
AcDbLine
 10
8340.754428325961
 20
2076.020754407362
 30
0.0
 11
8340.754428325961
 21
2076.036340217461
 31
0.0
  0
ARC
  5
2962
330
1F
100
AcDbEntity
  8
SANINDUSA
100
AcDbCircle
 10
8340.754578325961
 20
2076.039654431023
 30
0.0
 40
0.0009999999999999
100
AcDbArc
 50
0.0
 51
90.0
  0
LINE
  5
2963
330
1F
100
AcDbEntity
  8
SANINDUSA
100
AcDbLine
 10
8340.755578325961
 20
2076.038668644586
 30
0.0
 11
8340.755578325961
 21
2076.039654431023
 31
0.0
  0
LINE
  5
2964
330
1F
100
AcDbEntity
  8
SANINDUSA
100
AcDbLine
 10
8340.754578325961
 20
2076.040654431023
 30
0.0
 11
8340.719555021829
 21
2076.040654431023
 31
0.0
  0
ARC
  5
2965
330
1F
100
AcDbEntity
  8
SANINDUSA
100
AcDbCircle
 10
8340.754578325961
 20
2076.038668644586
 30
0.0
 40
0.0010000000000003
100
AcDbArc
 50
315.0
 51
0.0
  0
ARC
  5
2966
330
1F
100
AcDbEntity
  8
SANINDUSA
100
AcDbCircle
 10
8340.719555021829
 20
2076.039654431023
 30
0.0
 40
0.001
100
AcDbArc
 50
90.0
 51
270.0
  0
LINE
  5
2967
330
1F
100
AcDbEntity
  8
SANINDUSA
100
AcDbLine
 10
8340.75437121918
 20
2076.037047324243
 30
0.0
 11
8340.755285432742
 21
2076.037961537805
 31
0.0
  0
LINE
  5
2968
330
1F
100
AcDbEntity
  8
SANINDUSA
100
AcDbLine
 10
8340.719555021829
 20
2076.038654431024
 30
0.0
 11
8340.751078325963
 21
2076.038654431024
 31
0.0
  0
ARC
  5
2969
330
1F
100
AcDbEntity
  8
SANINDUSA
100
AcDbCircle
 10
8340.75507832596
 20
2076.036340217461
 30
0.0
 40
0.0010000000000003
100
AcDbArc
 50
135.0
 51
180.0
  0
ARC
  5
296A
330
1F
100
AcDbEntity
  8
SANINDUSA
100
AcDbCircle
 10
8340.751078325963
 20
2076.037654431023
 30
0.0
 40
0.001
100
AcDbArc
 50
0.0
 51
90.0
  0
LINE
  5
296B
330
1F
100
AcDbEntity
  8
SANINDUSA
100
AcDbLine
 10
8340.754078325961
 20
2076.032965091195
 30
0.0
 11
8340.754078325961
 21
2076.036340217461
 31
0.0
  0
LINE
  5
296C
330
1F
100
AcDbEntity
  8
SANINDUSA
100
AcDbLine
 10
8340.752078325962
 20
2076.037654431023
 30
0.0
 11
8340.752078325962
 21
2076.019795244747
 31
0.0
  0
ARC
  5
296D
330
1F
100
AcDbEntity
  8
SANINDUSA
100
AcDbCircle
 10
8340.753828325963
 20
2076.032965091195
 30
0.0
 40
0.0002500000000003
100
AcDbArc
 50
315.0
 51
0.0
  0
ARC
  5
296E
330
1F
100
AcDbEntity
  8
SANINDUSA
100
AcDbCircle
 10
8340.751078325963
 20
2076.019795244747
 30
0.0
 40
0.001
100
AcDbArc
 50
267.8505420588376
 51
0.0
  0
LINE
  5
296F
330
1F
100
AcDbEntity
  8
SANINDUSA
100
AcDbLine
 10
8340.753524772571
 20
2076.032307984414
 30
0.0
 11
8340.754005102658
 21
2076.0327883145
 31
0.0
  0
ARC
  5
2970
330
1F
100
AcDbEntity
  8
SANINDUSA
100
AcDbCircle
 10
8340.754668434399
 20
2076.115447990669
 30
0.0
 40
0.0967200954923435
100
AcDbArc
 50
254.4398303795264
 51
267.8505420588376
  0
ARC
  5
2971
330
1F
100
AcDbEntity
  8
SANINDUSA
100
AcDbCircle
 10
8340.753878325962
 20
2076.031954431024
 30
0.0
 40
0.0005
100
AcDbArc
 50
135.0
 51
225.0
  0
ARC
  5
2972
330
1F
100
AcDbEntity
  8
SANINDUSA
100
AcDbCircle
 10
8340.728857375202
 20
2076.022754431024
 30
0.0
 40
0.0005
100
AcDbArc
 50
90.0
 51
254.4398303795264
  0
LINE
  5
2973
330
1F
100
AcDbEntity
  8
SANINDUSA
100
AcDbLine
 10
8340.754005102658
 20
2076.031120547547
 30
0.0
 11
8340.753524772571
 21
2076.031600877633
 31
0.0
  0
LINE
  5
2974
330
1F
100
AcDbEntity
  8
SANINDUSA
100
AcDbLine
 10
8340.728857375202
 20
2076.023254431023
 30
0.0
 11
8340.74155502183
 21
2076.023254431023
 31
0.0
  0
ARC
  5
2975
330
1F
100
AcDbEntity
  8
SANINDUSA
100
AcDbCircle
 10
8340.753828325963
 20
2076.030943770852
 30
0.0
 40
0.00025
100
AcDbArc
 50
0.0
 51
45.0
  0
ARC
  5
2976
330
1F
100
AcDbEntity
  8
SANINDUSA
100
AcDbCircle
 10
8340.74155502183
 20
2076.024254431024
 30
0.0
 40
0.001
100
AcDbArc
 50
270.0
 51
90.0
  0
LINE
  5
2977
330
1F
100
AcDbEntity
  8
SANINDUSA
100
AcDbLine
 10
8340.754078325961
 20
2076.020754407362
 30
0.0
 11
8340.754078325961
 21
2076.030943770852
 31
0.0
  0
LINE
  5
2978
330
1F
100
AcDbEntity
  8
SANINDUSA
100
AcDbLine
 10
8340.74155502183
 20
2076.025254431024
 30
0.0
 11
8340.719555021829
 21
2076.025254431024
 31
0.0
  0
ARC
  5
2979
330
1F
100
AcDbEntity
  8
SANINDUSA
100
AcDbCircle
 10
8340.75507832596
 20
2076.020754407362
 30
0.0
 40
0.0010000000000003
100
AcDbArc
 50
180.0
 51
225.0893040341459
  0
ARC
  5
297A
330
1F
100
AcDbEntity
  8
SANINDUSA
100
AcDbCircle
 10
8340.719555021829
 20
2076.024254431024
 30
0.0
 40
0.001
100
AcDbArc
 50
90.0
 51
248.9411647773246
  0
LINE
  5
297B
330
1F
100
AcDbEntity
  8
SANINDUSA
100
AcDbLine
 10
8340.755278761283
 20
2076.019142581445
 30
0.0
 11
8340.754372322171
 21
2076.020046199309
 31
0.0
  0
ARC
  5
297C
330
1F
100
AcDbEntity
  8
SANINDUSA
100
AcDbCircle
 10
8340.754668434399
 20
2076.115447990669
 30
0.0
 40
0.0987200954923432
100
AcDbArc
 50
248.9411647773246
 51
269.9477633655066
  0
ARC
  5
297D
330
1F
100
AcDbEntity
  8
SANINDUSA
100
AcDbCircle
 10
8340.754572757491
 20
2076.018434373391
 30
0.0
 40
0.0010000000000003
100
AcDbArc
 50
0.5340991175495649
 51
45.08930403414588
  0
ARC
  5
297E
330
1F
100
AcDbEntity
  8
SANINDUSA
100
AcDbCircle
 10
8340.754579342943
 20
2076.017727935789
 30
0.0
 40
0.001
100
AcDbArc
 50
269.9477633655066
 51
0.5340991175495649
  0
LINE
  5
297F
330
1F
100
AcDbEntity
  8
SANINDUSA
100
AcDbLine
 10
8340.755579299495
 20
2076.017737257442
 30
0.0
 11
8340.755572714042
 21
2076.018443695044
 31
0.0
  0
LINE
  5
2980
330
1F
100
AcDbEntity
  8
SANINDUSA
100
AcDbLine
 10
8340.705453098669
 20
2076.035954431024
 30
0.0
 11
8340.70814171182
 21
2076.035954431024
 31
0.0
  0
ARC
  5
2981
330
1F
100
AcDbEntity
  8
SANINDUSA
100
AcDbCircle
 10
8340.705453098669
 20
2076.035454431023
 30
0.0
 40
0.0005000000000001
100
AcDbArc
 50
90.0
 51
156.4218215197019
  0
ARC
  5
2982
330
1F
100
AcDbEntity
  8
SANINDUSA
100
AcDbCircle
 10
8340.70814171182
 20
2076.035454431023
 30
0.0
 40
0.0005
100
AcDbArc
 50
19.47122063801706
 51
90.0
  0
ARC
  5
2983
330
1F
100
AcDbEntity
  8
SANINDUSA
100
AcDbCircle
 10
8340.704078325961
 20
2076.036054431023
 30
0.0
 40
0.0009999999999999
100
AcDbArc
 50
180.0
 51
336.4218215197019
  0
ARC
  5
2984
330
1F
100
AcDbEntity
  8
SANINDUSA
100
AcDbCircle
 10
8340.709555925384
 20
2076.035954431024
 30
0.0
 40
0.001
100
AcDbArc
 50
199.471220638017
 51
340.5287793619829
  0
LINE
  5
2985
330
1F
100
AcDbEntity
  8
SANINDUSA
100
AcDbLine
 10
8340.703078325962
 20
2076.036054431023
 30
0.0
 11
8340.703078325962
 21
2076.036954431023
 31
0.0
  0
ARC
  5
2986
330
1F
100
AcDbEntity
  8
SANINDUSA
100
AcDbCircle
 10
8340.710970138946
 20
2076.035454431023
 30
0.0
 40
0.0004999999999999
100
AcDbArc
 50
90.0
 51
160.5287793619829
  0
ARC
  5
2987
330
1F
100
AcDbEntity
  8
SANINDUSA
100
AcDbCircle
 10
8340.704078325961
 20
2076.036954431023
 30
0.0
 40
0.0009999999999999
100
AcDbArc
 50
90.0
 51
180.0
  0
LINE
  5
2988
330
1F
100
AcDbEntity
  8
SANINDUSA
100
AcDbLine
 10
8340.710970138946
 20
2076.035954431024
 30
0.0
 11
8340.712556302202
 21
2076.035954431024
 31
0.0
  0
LINE
  5
2989
330
1F
100
AcDbEntity
  8
SANINDUSA
100
AcDbLine
 10
8340.704078325961
 20
2076.037954431024
 30
0.0
 11
8340.73557832596
 21
2076.037954431024
 31
0.0
  0
ARC
  5
298A
330
1F
100
AcDbEntity
  8
SANINDUSA
100
AcDbCircle
 10
8340.712556302202
 20
2076.035454431023
 30
0.0
 40
0.0005
100
AcDbArc
 50
0.0
 51
90.0
  0
ARC
  5
298B
330
1F
100
AcDbEntity
  8
SANINDUSA
100
AcDbCircle
 10
8340.73557832596
 20
2076.036954431023
 30
0.0
 40
0.001
100
AcDbArc
 50
270.0
 51
90.0
  0
LINE
  5
298C
330
1F
100
AcDbEntity
  8
SANINDUSA
100
AcDbLine
 10
8340.713056302202
 20
2076.035454431023
 30
0.0
 11
8340.713056302202
 21
2076.028454431023
 31
0.0
  0
LINE
  5
298D
330
1F
100
AcDbEntity
  8
SANINDUSA
100
AcDbLine
 10
8340.73557832596
 20
2076.035954431024
 30
0.0
 11
8340.715556302203
 21
2076.035954431024
 31
0.0
  0
ARC
  5
298E
330
1F
100
AcDbEntity
  8
SANINDUSA
100
AcDbCircle
 10
8340.712556302202
 20
2076.028454431023
 30
0.0
 40
0.0005
100
AcDbArc
 50
270.0
 51
0.0
  0
ARC
  5
298F
330
1F
100
AcDbEntity
  8
SANINDUSA
100
AcDbCircle
 10
8340.715556302203
 20
2076.035454431023
 30
0.0
 40
0.0005000000000001
100
AcDbArc
 50
90.0
 51
180.0
  0
LINE
  5
2990
330
1F
100
AcDbEntity
  8
SANINDUSA
100
AcDbLine
 10
8340.712556302202
 20
2076.027954431024
 30
0.0
 11
8340.710970138946
 21
2076.027954431024
 31
0.0
  0
LINE
  5
2991
330
1F
100
AcDbEntity
  8
SANINDUSA
100
AcDbLine
 10
8340.715056302203
 20
2076.035454431023
 30
0.0
 11
8340.715056302203
 21
2076.028454431023
 31
0.0
  0
ARC
  5
2992
330
1F
100
AcDbEntity
  8
SANINDUSA
100
AcDbCircle
 10
8340.710970138946
 20
2076.028454431023
 30
0.0
 40
0.0005
100
AcDbArc
 50
199.471220638017
 51
270.0
  0
ARC
  5
2993
330
1F
100
AcDbEntity
  8
SANINDUSA
100
AcDbCircle
 10
8340.715556302203
 20
2076.028454431023
 30
0.0
 40
0.0005000000000001
100
AcDbArc
 50
180.0
 51
270.0
  0
ARC
  5
2994
330
1F
100
AcDbEntity
  8
SANINDUSA
100
AcDbCircle
 10
8340.709555925384
 20
2076.027954431024
 30
0.0
 40
0.001
100
AcDbArc
 50
19.47122063801706
 51
160.5287793619829
  0
LINE
  5
2995
330
1F
100
AcDbEntity
  8
SANINDUSA
100
AcDbLine
 10
8340.715556302203
 20
2076.027954431024
 30
0.0
 11
8340.73557832596
 21
2076.027954431024
 31
0.0
  0
ARC
  5
2996
330
1F
100
AcDbEntity
  8
SANINDUSA
100
AcDbCircle
 10
8340.70814171182
 20
2076.028454431023
 30
0.0
 40
0.0005
100
AcDbArc
 50
270.0
 51
340.5287793619829
  0
ARC
  5
2997
330
1F
100
AcDbEntity
  8
SANINDUSA
100
AcDbCircle
 10
8340.73557832596
 20
2076.026954431024
 30
0.0
 40
0.001
100
AcDbArc
 50
270.0
 51
90.0
  0
LINE
  5
2998
330
1F
100
AcDbEntity
  8
SANINDUSA
100
AcDbLine
 10
8340.70814171182
 20
2076.027954431024
 30
0.0
 11
8340.705453098669
 21
2076.027954431024
 31
0.0
  0
LINE
  5
2999
330
1F
100
AcDbEntity
  8
SANINDUSA
100
AcDbLine
 10
8340.73557832596
 20
2076.025954431024
 30
0.0
 11
8340.704078325961
 21
2076.025954431024
 31
0.0
  0
ARC
  5
299A
330
1F
100
AcDbEntity
  8
SANINDUSA
100
AcDbCircle
 10
8340.705453098669
 20
2076.028454431023
 30
0.0
 40
0.0005000000000001
100
AcDbArc
 50
203.5781784802981
 51
270.0
  0
ARC
  5
299B
330
1F
100
AcDbEntity
  8
SANINDUSA
100
AcDbCircle
 10
8340.704078325961
 20
2076.026954431024
 30
0.0
 40
0.0010000000000001
100
AcDbArc
 50
180.0
 51
270.0
  0
ARC
  5
299C
330
1F
100
AcDbEntity
  8
SANINDUSA
100
AcDbCircle
 10
8340.704078325961
 20
2076.027854431024
 30
0.0
 40
0.0009999999999999
100
AcDbArc
 50
23.57817848029807
 51
180.0
  0
LINE
  5
299D
330
1F
100
AcDbEntity
  8
SANINDUSA
100
AcDbLine
 10
8340.703078325962
 20
2076.026954431024
 30
0.0
 11
8340.703078325962
 21
2076.027854431024
 31
0.0
  0
LINE
  5
299E
330
1F
100
AcDbEntity
  8
SANINDUSA
100
AcDbLine
 10
8339.991956302201
 20
2076.028954434833
 30
0.0000000001479285
 11
8339.191956302203
 21
2076.028954434833
 31
0.0000000001479285
  0
LINE
  5
299F
330
1F
100
AcDbEntity
  8
SANINDUSA
100
AcDbLine
 10
8340.0084563022
 20
2076.02555437873
 30
0.0000000001479286
 11
8339.993456256605
 21
2076.02555437873
 31
0.0000000001479286
  0
LINE
  5
29A0
330
1F
100
AcDbEntity
  8
SANINDUSA
100
AcDbLine
 10
8340.060456302202
 20
2076.017554378729
 30
0.0000000001479286
 11
8340.001456302202
 21
2076.017554378729
 31
0.0000000001479286
  0
LINE
  5
29A1
330
1F
100
AcDbEntity
  8
SANINDUSA
100
AcDbLine
 10
8339.984567413312
 20
2076.01755437873
 30
0.0000000001479286
 11
8339.984567413312
 21
2076.025554431024
 31
0.0000000001479286
  0
CIRCLE
  5
29A2
330
1F
100
AcDbEntity
  8
SANINDUSA
100
AcDbCircle
 10
8339.993456302201
 20
2076.01755437873
 30
0.0000000001479286
 40
0.008
  0
LINE
  5
29A3
330
1F
100
AcDbEntity
  8
SANINDUSA
100
AcDbLine
 10
8340.002345191091
 20
2076.017554378729
 30
0.0000000001479286
 11
8340.002345191091
 21
2076.02555437873
 31
0.0000000001479286
  0
LINE
  5
29A4
330
1F
100
AcDbEntity
  8
SANINDUSA
100
AcDbLine
 10
8339.925456302202
 20
2076.027554431024
 30
0.0000000001479286
 11
8339.925456302202
 21
2076.01855437873
 31
0.0000000001479286
  0
LINE
  5
29A5
330
1F
100
AcDbEntity
  8
SANINDUSA
100
AcDbLine
 10
8339.984567413312
 20
2076.01755437873
 30
0.0000000001479286
 11
8339.926456302203
 21
2076.01755437873
 31
0.0000000001479286
  0
ARC
  5
29A6
330
1F
100
AcDbEntity
  8
SANINDUSA
100
AcDbCircle
 10
8339.926456302203
 20
2076.01855437873
 30
0.0000000001479286
 40
0.001
100
AcDbArc
 50
180.0
 51
270.0
  0
LINE
  5
29A7
330
1F
100
AcDbEntity
  8
SANINDUSA
100
AcDbLine
 10
8339.925456302202
 20
2076.027554431024
 30
0.0000000001479286
 11
8339.978456302203
 21
2076.027554431024
 31
0.0000000001479286
  0
LWPOLYLINE
  5
29A8
330
1F
100
AcDbEntity
  8
SANINDUSA
100
AcDbPolyline
 90
        2
 70
     0
 43
0.0
 38
0.0000000001479285
 10
8339.978456302203
 20
2076.028754431024
 10
8339.925456302202
 20
2076.028754431024
1001
GENIUS_GENREC_14
1002
{
1000
PYDIR
1011
8340.22473855928
1021
2074.994524575012
1031
0.0000000001479286
1002
}
1002
{
1000
PXDIR
1011
8340.277738559281
1021
2074.995524575011
1031
0.0000000001479286
1002
}
1002
{
1000
PORI
1011
8340.22473855928
1021
2074.995524575011
1031
0.0000000001479286
1002
}
1002
{
1000
PINS
1011
8340.22473855928
1021
2074.995524575011
1031
0.0000000001479286
1002
}
1002
{
1000
PINS2
1011
8340.277738559281
1021
2074.994524575012
1031
0.0000000001479286
1002
}
1002
{
1000
C
1070
     1
1002
}
1001
GENIUS_GENODEF_13
1002
{
1000
HIER
1070
     0
1002
}
1002
{
1000
MANEDIT
1070
     0
1002
}
1002
{
1000
NOSEL
1070
     0
1002
}
1002
{
1000
BEHIND
1070
     0
1002
}
1002
{
1000
REACTOR
1002
}
1001
GENIUS_GENOBJ-N-REC_13
1002
{
1000
OWNER
1000
GEN
1002
}
  0
LWPOLYLINE
  5
29A9
330
1F
100
AcDbEntity
  8
SANINDUSA
100
AcDbPolyline
 90
        2
 70
     0
 43
0.0
 38
0.0000000001479285
 10
8339.925456302202
 20
2076.027754431024
 10
8339.978456302203
 20
2076.027754431024
1001
GENIUS_GENREC_14
1002
{
1000
PYDIR
1011
8340.22473855928
1021
2074.994524575012
1031
0.0000000001479286
1002
}
1002
{
1000
PXDIR
1011
8340.277738559281
1021
2074.995524575011
1031
0.0000000001479286
1002
}
1002
{
1000
PORI
1011
8340.22473855928
1021
2074.995524575011
1031
0.0000000001479286
1002
}
1002
{
1000
PINS
1011
8340.22473855928
1021
2074.995524575011
1031
0.0000000001479286
1002
}
1002
{
1000
PINS2
1011
8340.277738559281
1021
2074.994524575012
1031
0.0000000001479286
1002
}
1002
{
1000
C
1070
     1
1002
}
1001
GENIUS_GENODEF_13
1002
{
1000
HIER
1070
     0
1002
}
1002
{
1000
MANEDIT
1070
     0
1002
}
1002
{
1000
NOSEL
1070
     0
1002
}
1002
{
1000
BEHIND
1070
     0
1002
}
1002
{
1000
REACTOR
1002
}
1001
GENIUS_GENOBJ-N-REC_13
1002
{
1000
OWNER
1000
GEN
1002
}
  0
LINE
  5
29AA
330
1F
100
AcDbEntity
  8
SANINDUSA
100
AcDbLine
 10
8339.926456302203
 20
2076.041354431024
 30
0.0000000001479286
 11
8339.977456302202
 21
2076.041354431024
 31
0.0000000001479286
  0
LINE
  5
29AB
330
1F
100
AcDbEntity
  8
SANINDUSA
100
AcDbLine
 10
8339.978456302203
 20
2076.036354431023
 30
0.0000000001479286
 11
8339.925456302202
 21
2076.036354431023
 31
0.0000000001479286
  0
LWPOLYLINE
  5
29AC
330
1F
100
AcDbEntity
  8
SANINDUSA
100
AcDbPolyline
 90
        4
 70
     1
 43
0.0
 38
0.0000000001479285
 10
8339.925456302202
 20
2076.036154431024
 10
8339.978456302203
 20
2076.036154431024
 10
8339.978456302203
 20
2076.035154431023
 10
8339.925456302202
 20
2076.035154431023
1001
GENIUS_GENREC_14
1002
{
1000
PYDIR
1011
8340.22473855928
1021
2074.994324575011
1031
0.0000000001479286
1002
}
1002
{
1000
PXDIR
1011
8340.277738559281
1021
2074.995324575011
1031
0.0000000001479286
1002
}
1002
{
1000
PORI
1011
8340.22473855928
1021
2074.995324575011
1031
0.0000000001479286
1002
}
1002
{
1000
PINS
1011
8340.22473855928
1021
2074.995324575011
1031
0.0000000001479286
1002
}
1002
{
1000
PINS2
1011
8340.277738559281
1021
2074.994324575011
1031
0.0000000001479286
1002
}
1002
{
1000
C
1070
     1
1002
}
1001
GENIUS_GENODEF_13
1002
{
1000
HIER
1070
     0
1002
}
1002
{
1000
MANEDIT
1070
     0
1002
}
1002
{
1000
NOSEL
1070
     0
1002
}
1002
{
1000
BEHIND
1070
     0
1002
}
1002
{
1000
REACTOR
1002
}
1001
GENIUS_GENOBJ-N-REC_13
1002
{
1000
OWNER
1000
GEN
1002
}
  0
LINE
  5
29AD
330
1F
100
AcDbEntity
  8
SANINDUSA
100
AcDbLine
 10
8339.925456302202
 20
2076.028754431024
 30
0.0000000001479286
 11
8339.925456302202
 21
2076.027754431024
 31
0.0000000001479286
1001
GENIUS_GENREC_14
1002
{
1000
PYDIR
1011
8339.925456302202
1021
2076.028754431024
1031
0.0000000001479286
1002
}
1002
{
1000
PXDIR
1011
8339.978456302203
1021
2076.027754431024
1031
0.0000000001479286
1002
}
1002
{
1000
PORI
1011
8339.925456302202
1021
2076.027754431024
1031
0.0000000001479286
1002
}
1002
{
1000
PINS
1011
8339.925456302202
1021
2076.027754431024
1031
0.0000000001479286
1002
}
1002
{
1000
PINS2
1011
8339.978456302203
1021
2076.028754431024
1031
0.0000000001479286
1002
}
1002
{
1000
C
1070
     1
1002
}
1001
GENIUS_GENODEF_13
1002
{
1000
HIER
1070
     0
1002
}
1002
{
1000
MANEDIT
1070
     0
1002
}
1002
{
1000
NOSEL
1070
     0
1002
}
1002
{
1000
BEHIND
1070
     0
1002
}
1002
{
1000
REACTOR
1002
}
1001
GENIUS_GENOBJ-N-REC_13
1002
{
1000
OWNER
1000
GEN
1002
}
  0
ARC
  5
29AE
330
1F
100
AcDbEntity
  8
SANINDUSA
100
AcDbCircle
 10
8339.926456302203
 20
2076.040354431023
 30
0.0000000001479286
 40
0.001
100
AcDbArc
 50
90.0
 51
180.0
  0
LINE
  5
29AF
330
1F
100
AcDbEntity
  8
SANINDUSA
100
AcDbLine
 10
8339.925456302202
 20
2076.036354431023
 30
0.0000000001479286
 11
8339.925456302202
 21
2076.040354431023
 31
0.0000000001479286
  0
LINE
  5
29B0
330
1F
100
AcDbEntity
  8
SANINDUSA
100
AcDbLine
 10
8339.985106759206
 20
2076.034958216224
 30
0.0000000001479285
 11
8339.983030430849
 21
2076.035250025144
 31
0.0000000001479285
  0
LINE
  5
29B1
330
1F
100
AcDbEntity
  8
SANINDUSA
100
AcDbLine
 10
8339.980104162856
 20
2076.035070069164
 30
0.0000000001479285
 11
8339.980104162856
 21
2076.03436331353
 31
0.0000000001479285
  0
ARC
  5
29B2
330
1F
100
AcDbEntity
  8
SANINDUSA
100
AcDbCircle
 10
8339.982998939772
 20
2076.035405925063
 30
0.0000000001479285
 40
0.0004999999999883
100
AcDbArc
 50
208.1263739549705
 51
262.0000000387848
  0
ARC
  5
29B3
330
1F
100
AcDbEntity
  8
SANINDUSA
100
AcDbCircle
 10
8339.982704162855
 20
2076.034588295186
 30
0.0000000001479285
 40
0.0006000000000005
100
AcDbArc
 50
104.1008917867584
 51
147.5305191993646
  0
ARC
  5
29B4
330
1F
100
AcDbEntity
  8
SANINDUSA
100
AcDbCircle
 10
8339.989564775722
 20
2076.035204164694
 30
0.0000000001479285
 40
0.00075
100
AcDbArc
 50
189.3408340880134
 51
9.340834088013414
  0
LINE
  5
29B5
330
1F
100
AcDbEntity
  8
SANINDUSA
100
AcDbLine
 10
8339.993104162855
 20
2076.037554434833
 30
0.0000000001479285
 11
8339.993104162855
 21
2076.026354434833
 31
0.0000000001479285
  0
LINE
  5
29B6
330
1F
100
AcDbEntity
  8
SANINDUSA
100
AcDbLine
 10
8339.991956302201
 20
2076.035650865283
 30
0.0000000001479285
 11
8339.991956302201
 21
2076.028258004383
 31
0.0000000001479285
  0
ARC
  5
29B7
330
1F
100
AcDbEntity
  8
SANINDUSA
100
AcDbCircle
 10
8339.993941855164
 20
2076.031954434833
 30
0.0000000001479285
 40
0.0056623076923077
100
AcDbArc
 50
261.4923271578625
 51
98.5076728421375
  0
ARC
  5
29B8
330
1F
100
AcDbEntity
  8
SANINDUSA
100
AcDbCircle
 10
8339.993941855164
 20
2076.031954434833
 30
0.0000000001479285
 40
0.0052623076923077
100
AcDbArc
 50
261.4923271578625
 51
98.5076728421375
  0
LINE
  5
29B9
330
1F
100
AcDbEntity
  8
SANINDUSA
100
AcDbLine
 10
8339.978456302203
 20
2076.025554431024
 30
0.0000000001479286
 11
8339.993456302201
 21
2076.02555437873
 31
0.0000000001479286
  0
LINE
  5
29BA
330
1F
100
AcDbEntity
  8
SANINDUSA
100
AcDbLine
 10
8339.978456302203
 20
2076.027754431024
 30
0.0000000001479286
 11
8339.978456302203
 21
2076.028754431024
 31
0.0000000001479286
1001
GENIUS_GENREC_14
1002
{
1000
PYDIR
1011
8339.925456302202
1021
2076.028754431024
1031
0.0000000001479286
1002
}
1002
{
1000
PXDIR
1011
8339.978456302203
1021
2076.027754431024
1031
0.0000000001479286
1002
}
1002
{
1000
PORI
1011
8339.925456302202
1021
2076.027754431024
1031
0.0000000001479286
1002
}
1002
{
1000
PINS
1011
8339.925456302202
1021
2076.027754431024
1031
0.0000000001479286
1002
}
1002
{
1000
PINS2
1011
8339.978456302203
1021
2076.028754431024
1031
0.0000000001479286
1002
}
1002
{
1000
C
1070
     1
1002
}
1001
GENIUS_GENODEF_13
1002
{
1000
HIER
1070
     0
1002
}
1002
{
1000
MANEDIT
1070
     0
1002
}
1002
{
1000
NOSEL
1070
     0
1002
}
1002
{
1000
BEHIND
1070
     0
1002
}
1002
{
1000
REACTOR
1002
}
1001
GENIUS_GENOBJ-N-REC_13
1002
{
1000
OWNER
1000
GEN
1002
}
  0
LINE
  5
29BB
330
1F
100
AcDbEntity
  8
SANINDUSA
100
AcDbLine
 10
8339.978456302203
 20
2076.027554431024
 30
0.0000000001479286
 11
8339.978456302203
 21
2076.025554431024
 31
0.0000000001479286
  0
LINE
  5
29BC
330
1F
100
AcDbEntity
  8
SANINDUSA
100
AcDbLine
 10
8339.991956302201
 20
2076.034954434833
 30
0.0000000001479285
 11
8339.991956302201
 21
2076.028954434833
 31
0.0000000001479285
  0
LINE
  5
29BD
330
1F
100
AcDbEntity
  8
SANINDUSA
100
AcDbLine
 10
8339.994956302202
 20
2076.034954431023
 30
0.0000000001479286
 11
8339.994956302202
 21
2076.028954431023
 31
0.0000000001479286
1001
GENIUS_GENREC_14
1002
{
1000
PYDIR
1011
8339.841956302201
1021
2076.028754431024
1031
0.0000000001479286
1002
}
1002
{
1000
PXDIR
1011
8339.991956302201
1021
2076.034754431024
1031
0.0000000001479286
1002
}
1002
{
1000
PORI
1011
8339.841956302201
1021
2076.034754431024
1031
0.0000000001479286
1002
}
1002
{
1000
PINS
1011
8339.841956302201
1021
2076.034754431024
1031
0.0000000001479286
1002
}
1002
{
1000
PINS2
1011
8339.991956302201
1021
2076.028954431023
1031
0.0000000001479286
1002
}
1002
{
1000
C
1070
     1
1002
}
1001
GENIUS_GENODEF_13
1002
{
1000
HIER
1070
     0
1002
}
1002
{
1000
MANEDIT
1070
     0
1002
}
1002
{
1000
NOSEL
1070
     0
1002
}
1002
{
1000
BEHIND
1070
     0
1002
}
1002
{
1000
REACTOR
1002
}
1001
GENIUS_GENOBJ-N-REC_13
1002
{
1000
OWNER
1000
GEN
1002
}
  0
LINE
  5
29BE
330
1F
100
AcDbEntity
  8
SANINDUSA
100
AcDbLine
 10
8339.980606778594
 20
2076.028246756326
 30
0.0000000001479285
 11
8339.992111080276
 21
2076.026354434833
 31
0.0000000001479285
  0
LINE
  5
29BF
330
1F
100
AcDbEntity
  8
SANINDUSA
100
AcDbLine
 10
8339.983030430849
 20
2076.028658844522
 30
0.0000000001479285
 11
8339.985106759206
 21
2076.028950653443
 31
0.0000000001479285
  0
LINE
  5
29C0
330
1F
100
AcDbEntity
  8
SANINDUSA
100
AcDbLine
 10
8339.985406778595
 20
2076.028267963438
 30
0.0000000001479285
 11
8339.983030430849
 21
2076.028658844522
 31
0.0000000001479285
  0
LINE
  5
29C1
330
1F
100
AcDbEntity
  8
SANINDUSA
100
AcDbLine
 10
8339.982929353221
 20
2076.034910791028
 30
0.0000000001479285
 11
8339.98505804862
 21
2076.0346116224
 31
0.0000000001479285
  0
LINE
  5
29C2
330
1F
100
AcDbEntity
  8
SANINDUSA
100
AcDbLine
 10
8339.98505804862
 20
2076.029297247266
 30
0.0000000001479285
 11
8339.982929353221
 21
2076.028998078638
 31
0.0000000001479285
  0
LINE
  5
29C3
330
1F
100
AcDbEntity
  8
SANINDUSA
100
AcDbLine
 10
8339.980104162856
 20
2076.03436331353
 30
0.0000000001479285
 11
8339.981789134085
 21
2076.034640471359
 31
0.0000000001479285
  0
ARC
  5
29C4
330
1F
100
AcDbEntity
  8
SANINDUSA
100
AcDbCircle
 10
8339.981691749827
 20
2076.035232515534
 30
0.0000000001479285
 40
0.0006
100
AcDbArc
 50
279.3408341221809
 51
327.5305191993646
  0
ARC
  5
29C5
330
1F
100
AcDbEntity
  8
SANINDUSA
100
AcDbCircle
 10
8339.980704162856
 20
2076.028838800502
 30
0.0000000001479285
 40
0.0006
100
AcDbArc
 50
180.0
 51
260.6591658778191
  0
ARC
  5
29C6
330
1F
100
AcDbEntity
  8
SANINDUSA
100
AcDbCircle
 10
8339.982704162855
 20
2076.02932057448
 30
0.0000000001479285
 40
0.0005999999999989
100
AcDbArc
 50
212.4694808006354
 51
255.8991082132415
  0
LINE
  5
29C7
330
1F
100
AcDbEntity
  8
SANINDUSA
100
AcDbLine
 10
8339.981789134085
 20
2076.029268398307
 30
0.0000000001479285
 11
8339.980104162856
 21
2076.029545556136
 31
0.0000000001479285
  0
LINE
  5
29C8
330
1F
100
AcDbEntity
  8
SANINDUSA
100
AcDbLine
 10
8339.980104162856
 20
2076.029545556136
 30
0.0000000001479285
 11
8339.980104162856
 21
2076.028838800502
 31
0.0000000001479285
  0
ARC
  5
29C9
330
1F
100
AcDbEntity
  8
SANINDUSA
100
AcDbCircle
 10
8339.981691749827
 20
2076.028676354132
 30
0.0000000001479285
 40
0.0006
100
AcDbArc
 50
32.46948080063537
 51
80.65916587781911
  0
ARC
  5
29CA
330
1F
100
AcDbEntity
  8
SANINDUSA
100
AcDbCircle
 10
8339.982998939772
 20
2076.028502944604
 30
0.0000000001479285
 40
0.0005
100
AcDbArc
 50
97.99999996121519
 51
151.8736260450294
  0
ARC
  5
29CB
330
1F
100
AcDbEntity
  8
SANINDUSA
100
AcDbCircle
 10
8339.985082403913
 20
2076.034784919312
 30
0.0000000001479285
 40
0.000175
100
AcDbArc
 50
262.0000000387848
 51
82.00000003878484
  0
ARC
  5
29CC
330
1F
100
AcDbEntity
  8
SANINDUSA
100
AcDbCircle
 10
8339.990757624313
 20
2076.028255136022
 30
0.0000000001479285
 40
0.0005
100
AcDbArc
 50
170.6591659119865
 51
260.6591658778191
  0
ARC
  5
29CD
330
1F
100
AcDbEntity
  8
SANINDUSA
100
AcDbCircle
 10
8339.986256884522
 20
2076.027925443495
 30
0.0000000001479285
 40
0.0006000000000005
100
AcDbArc
 50
80.65916587781911
 51
128.8488509647768
  0
LINE
  5
29CE
330
1F
100
AcDbEntity
  8
SANINDUSA
100
AcDbLine
 10
8339.988233625723
 20
2076.028208355693
 30
0.0000000001479285
 11
8339.986354268784
 21
2076.02851748767
 31
0.0000000001479285
  0
LINE
  5
29CF
330
1F
100
AcDbEntity
  8
SANINDUSA
100
AcDbLine
 10
8339.988824720505
 20
2076.028826435299
 30
0.0000000001479285
 11
8339.988784143729
 21
2076.028579750226
 31
0.0000000001479285
  0
LINE
  5
29D0
330
1F
100
AcDbEntity
  8
SANINDUSA
100
AcDbLine
 10
8339.990264254167
 20
2076.028336289573
 30
0.0000000001479285
 11
8339.990304830942
 21
2076.028582974646
 31
0.0000000001479285
  0
ARC
  5
29D1
330
1F
100
AcDbEntity
  8
SANINDUSA
100
AcDbCircle
 10
8339.988314779274
 20
2076.028701725839
 30
0.0000000001479285
 40
0.0005
100
AcDbArc
 50
260.6591658778191
 51
0.1365535740988651
  0
ARC
  5
29D2
330
1F
100
AcDbEntity
  8
SANINDUSA
100
AcDbCircle
 10
8339.989564775722
 20
2076.028704704973
 30
0.0000000001479285
 40
0.00075
100
AcDbArc
 50
350.6591659119866
 51
180.1365535740989
  0
ARC
  5
29D3
330
1F
100
AcDbEntity
  8
SANINDUSA
100
AcDbCircle
 10
8339.985082403913
 20
2076.029123950354
 30
0.0000000001479285
 40
0.000175
100
AcDbArc
 50
277.9999999612152
 51
97.99999996121519
  0
ARC
  5
29D4
330
1F
100
AcDbEntity
  8
SANINDUSA
100
AcDbCircle
 10
8339.985504162857
 20
2076.028860007614
 30
0.0000000001479285
 40
0.0006
100
AcDbArc
 50
260.6591658778191
 51
308.8488509647768
  0
LINE
  5
29D5
330
1F
100
AcDbEntity
  8
SANINDUSA
100
AcDbLine
 10
8339.992111080276
 20
2076.026354434833
 30
0.0000000001479285
 11
8339.993104162855
 21
2076.026354434833
 31
0.0000000001479285
  0
LINE
  5
29D6
330
1F
100
AcDbEntity
  8
SANINDUSA
100
AcDbLine
 10
8339.99125891794
 20
2076.027665960208
 30
0.0000000001479285
 11
8339.99067647076
 21
2076.027761765876
 31
0.0000000001479285
  0
ARC
  5
29D7
330
1F
100
AcDbEntity
  8
SANINDUSA
100
AcDbCircle
 10
8339.991356302203
 20
2076.028258004383
 30
0.0000000001479285
 40
0.0006
100
AcDbArc
 50
260.6591658778191
 51
0.0
  0
ARC
  5
29D8
330
1F
100
AcDbEntity
  8
SANINDUSA
100
AcDbCircle
 10
8339.977456302202
 20
2076.040354431023
 30
0.0000000001479286
 40
0.001
100
AcDbArc
 50
0.0
 51
90.0
  0
ARC
  5
29D9
330
1F
100
AcDbEntity
  8
SANINDUSA
100
AcDbCircle
 10
8339.990757624313
 20
2076.035653733644
 30
0.0000000001479285
 40
0.0005
100
AcDbArc
 50
99.3408341221809
 51
189.3408340880134
  0
LINE
  5
29DA
330
1F
100
AcDbEntity
  8
SANINDUSA
100
AcDbLine
 10
8339.992111080276
 20
2076.037554434833
 30
0.0000000001479285
 11
8339.993104162855
 21
2076.037554434833
 31
0.0000000001479285
  0
LINE
  5
29DB
330
1F
100
AcDbEntity
  8
SANINDUSA
100
AcDbLine
 10
8339.99067647076
 20
2076.03614710379
 30
0.0000000001479285
 11
8339.99125891794
 21
2076.036242909459
 31
0.0000000001479285
  0
ARC
  5
29DC
330
1F
100
AcDbEntity
  8
SANINDUSA
100
AcDbCircle
 10
8339.991356302203
 20
2076.035650865283
 30
0.0000000001479285
 40
0.0006
100
AcDbArc
 50
0.0
 51
99.3408341221809
  0
LINE
  5
29DD
330
1F
100
AcDbEntity
  8
SANINDUSA
100
AcDbLine
 10
8339.983030430849
 20
2076.035250025144
 30
0.0000000001479285
 11
8339.985406778595
 21
2076.035640906228
 31
0.0000000001479285
  0
ARC
  5
29DE
330
1F
100
AcDbEntity
  8
SANINDUSA
100
AcDbCircle
 10
8339.980704162856
 20
2076.035070069164
 30
0.0000000001479285
 40
0.0006
100
AcDbArc
 50
99.3408341221809
 51
180.0
  0
LINE
  5
29DF
330
1F
100
AcDbEntity
  8
SANINDUSA
100
AcDbLine
 10
8339.990304830942
 20
2076.03532589502
 30
0.0000000001479285
 11
8339.990264254167
 21
2076.035572580093
 31
0.0000000001479285
  0
LINE
  5
29E0
330
1F
100
AcDbEntity
  8
SANINDUSA
100
AcDbLine
 10
8339.988791313979
 20
2076.035285528148
 30
0.0000000001479285
 11
8339.988824720505
 21
2076.035082434367
 31
0.0000000001479285
  0
LINE
  5
29E1
330
1F
100
AcDbEntity
  8
SANINDUSA
100
AcDbLine
 10
8339.986354268784
 20
2076.035391381996
 30
0.0000000001479285
 11
8339.988216790281
 21
2076.035697744743
 31
0.0000000001479285
  0
ARC
  5
29E2
330
1F
100
AcDbEntity
  8
SANINDUSA
100
AcDbCircle
 10
8339.986256884522
 20
2076.035983426172
 30
0.0000000001479285
 40
0.0006000000000005
100
AcDbArc
 50
231.1511490352232
 51
279.3408341221809
  0
ARC
  5
29E3
330
1F
100
AcDbEntity
  8
SANINDUSA
100
AcDbCircle
 10
8339.988297943833
 20
2076.035204374597
 30
0.0000000001479285
 40
0.0005
100
AcDbArc
 50
9.340834088013414
 51
99.3408341221809
  0
ARC
  5
29E4
330
1F
100
AcDbEntity
  8
SANINDUSA
100
AcDbCircle
 10
8339.985504162857
 20
2076.035048862053
 30
0.0000000001479285
 40
0.0006
100
AcDbArc
 50
51.15114903522314
 51
99.3408341221809
  0
LINE
  5
29E5
330
1F
100
AcDbEntity
  8
SANINDUSA
100
AcDbLine
 10
8339.992111080276
 20
2076.037554434833
 30
0.0000000001479285
 11
8339.980606778594
 21
2076.03566211334
 31
0.0000000001479285
  0
LINE
  5
29E6
330
1F
100
AcDbEntity
  8
SANINDUSA
100
AcDbLine
 10
8339.978456302203
 20
2076.036354431023
 30
0.0000000001479286
 11
8339.978456302203
 21
2076.040354431023
 31
0.0000000001479286
  0
LINE
  5
29E7
330
1F
100
AcDbEntity
  8
SANINDUSA
100
AcDbLine
 10
8340.061456302203
 20
2076.02755437873
 30
0.0000000001479286
 11
8340.061456302201
 21
2076.018554378729
 31
0.0000000001479286
  0
ARC
  5
29E8
330
1F
100
AcDbEntity
  8
SANINDUSA
100
AcDbCircle
 10
8340.060456302202
 20
2076.018554378729
 30
0.0000000001479286
 40
0.001
100
AcDbArc
 50
270.0
 51
0.0
  0
LINE
  5
29E9
330
1F
100
AcDbEntity
  8
SANINDUSA
100
AcDbLine
 10
8340.060456302202
 20
2076.041354431024
 30
0.0000000001479286
 11
8340.009456302201
 21
2076.041354431024
 31
0.0000000001479286
  0
LINE
  5
29EA
330
1F
100
AcDbEntity
  8
SANINDUSA
100
AcDbLine
 10
8340.0084563022
 20
2076.036354431023
 30
0.0000000001479286
 11
8340.061456302201
 21
2076.036354431023
 31
0.0000000001479286
  0
LINE
  5
29EB
330
1F
100
AcDbEntity
  8
SANINDUSA
100
AcDbLine
 10
8340.0084563022
 20
2076.02755437873
 30
0.0000000001479286
 11
8340.061456302203
 21
2076.02755437873
 31
0.0000000001479286
  0
LWPOLYLINE
  5
29EC
330
1F
100
AcDbEntity
  8
SANINDUSA
100
AcDbPolyline
 90
        4
 70
     1
 43
0.0
 38
0.0000000001479285
 10
8340.061456302201
 20
2076.036154431024
 10
8340.0084563022
 20
2076.036154431024
 10
8340.0084563022
 20
2076.035154431023
 10
8340.061456302201
 20
2076.035154431023
1001
GENIUS_GENREC_14
1002
{
1000
PYDIR
1011
8339.925456302202
1021
2075.293606832091
1031
0.0000000001479286
1002
}
1002
{
1000
PXDIR
1011
8339.978456302203
1021
2075.29460683209
1031
0.0000000001479286
1002
}
1002
{
1000
PORI
1011
8339.925456302202
1021
2075.29460683209
1031
0.0000000001479286
1002
}
1002
{
1000
PINS
1011
8339.925456302202
1021
2075.29460683209
1031
0.0000000001479286
1002
}
1002
{
1000
PINS2
1011
8339.978456302203
1021
2075.293606832091
1031
0.0000000001479286
1002
}
1002
{
1000
C
1070
     1
1002
}
1001
GENIUS_GENODEF_13
1002
{
1000
HIER
1070
     0
1002
}
1002
{
1000
MANEDIT
1070
     0
1002
}
1002
{
1000
NOSEL
1070
     0
1002
}
1002
{
1000
BEHIND
1070
     0
1002
}
1002
{
1000
REACTOR
1002
}
1001
GENIUS_GENOBJ-N-REC_13
1002
{
1000
OWNER
1000
GEN
1002
}
  0
LWPOLYLINE
  5
29ED
330
1F
100
AcDbEntity
  8
SANINDUSA
100
AcDbPolyline
 90
        2
 70
     0
 43
0.0
 38
0.0000000001479285
 10
8340.061456302201
 20
2076.027654431024
 10
8340.0084563022
 20
2076.027654431024
1001
GENIUS_GENREC_14
1002
{
1000
PYDIR
1011
8339.925456302202
1021
2075.29390683209
1031
0.0000000001479286
1002
}
1002
{
1000
PXDIR
1011
8339.978456302203
1021
2075.294906832091
1031
0.0000000001479286
1002
}
1002
{
1000
PORI
1011
8339.925456302202
1021
2075.294906832091
1031
0.0000000001479286
1002
}
1002
{
1000
PINS
1011
8339.925456302202
1021
2075.294906832091
1031
0.0000000001479286
1002
}
1002
{
1000
PINS2
1011
8339.978456302203
1021
2075.29390683209
1031
0.0000000001479286
1002
}
1002
{
1000
C
1070
     1
1002
}
1001
GENIUS_GENODEF_13
1002
{
1000
HIER
1070
     0
1002
}
1002
{
1000
MANEDIT
1070
     0
1002
}
1002
{
1000
NOSEL
1070
     0
1002
}
1002
{
1000
BEHIND
1070
     0
1002
}
1002
{
1000
REACTOR
1002
}
1001
GENIUS_GENOBJ-N-REC_13
1002
{
1000
OWNER
1000
GEN
1002
}
  0
LWPOLYLINE
  5
29EE
330
1F
100
AcDbEntity
  8
SANINDUSA
100
AcDbPolyline
 90
        2
 70
     0
 43
0.0
 38
0.0000000001479285
 10
8340.0084563022
 20
2076.028654431024
 10
8340.061456302201
 20
2076.028654431024
1001
GENIUS_GENREC_14
1002
{
1000
PYDIR
1011
8339.925456302202
1021
2075.29390683209
1031
0.0000000001479286
1002
}
1002
{
1000
PXDIR
1011
8339.978456302203
1021
2075.294906832091
1031
0.0000000001479286
1002
}
1002
{
1000
PORI
1011
8339.925456302202
1021
2075.294906832091
1031
0.0000000001479286
1002
}
1002
{
1000
PINS
1011
8339.925456302202
1021
2075.294906832091
1031
0.0000000001479286
1002
}
1002
{
1000
PINS2
1011
8339.978456302203
1021
2075.29390683209
1031
0.0000000001479286
1002
}
1002
{
1000
C
1070
     1
1002
}
1001
GENIUS_GENODEF_13
1002
{
1000
HIER
1070
     0
1002
}
1002
{
1000
MANEDIT
1070
     0
1002
}
1002
{
1000
NOSEL
1070
     0
1002
}
1002
{
1000
BEHIND
1070
     0
1002
}
1002
{
1000
REACTOR
1002
}
1001
GENIUS_GENOBJ-N-REC_13
1002
{
1000
OWNER
1000
GEN
1002
}
  0
LINE
  5
29EF
330
1F
100
AcDbEntity
  8
SANINDUSA
100
AcDbLine
 10
8340.0084563022
 20
2076.027654431024
 30
0.0000000001479286
 11
8340.0084563022
 21
2076.028654431024
 31
0.0000000001479286
1001
GENIUS_GENREC_14
1002
{
1000
PYDIR
1011
8339.925456302202
1021
2076.028654431024
1031
0.0000000001479286
1002
}
1002
{
1000
PXDIR
1011
8339.978456302203
1021
2076.027654431024
1031
0.0000000001479286
1002
}
1002
{
1000
PORI
1011
8339.925456302202
1021
2076.027654431024
1031
0.0000000001479286
1002
}
1002
{
1000
PINS
1011
8339.925456302202
1021
2076.027654431024
1031
0.0000000001479286
1002
}
1002
{
1000
PINS2
1011
8339.978456302203
1021
2076.028654431024
1031
0.0000000001479286
1002
}
1002
{
1000
C
1070
     1
1002
}
1001
GENIUS_GENODEF_13
1002
{
1000
HIER
1070
     0
1002
}
1002
{
1000
MANEDIT
1070
     0
1002
}
1002
{
1000
NOSEL
1070
     0
1002
}
1002
{
1000
BEHIND
1070
     0
1002
}
1002
{
1000
REACTOR
1002
}
1001
GENIUS_GENOBJ-N-REC_13
1002
{
1000
OWNER
1000
GEN
1002
}
  0
LINE
  5
29F0
330
1F
100
AcDbEntity
  8
SANINDUSA
100
AcDbLine
 10
8340.0084563022
 20
2076.02555437873
 30
0.0000000001479286
 11
8340.0084563022
 21
2076.02755437873
 31
0.0000000001479286
  0
ARC
  5
29F1
330
1F
100
AcDbEntity
  8
SANINDUSA
100
AcDbCircle
 10
8340.009456302201
 20
2076.040354431023
 30
0.0000000001479286
 40
0.001
100
AcDbArc
 50
90.0
 51
180.0
  0
LINE
  5
29F2
330
1F
100
AcDbEntity
  8
SANINDUSA
100
AcDbLine
 10
8340.0084563022
 20
2076.036354431023
 30
0.0000000001479286
 11
8340.0084563022
 21
2076.040354431023
 31
0.0000000001479286
  0
LINE
  5
29F3
330
1F
100
AcDbEntity
  8
SANINDUSA
100
AcDbLine
 10
8340.061456302201
 20
2076.028654431024
 30
0.0000000001479286
 11
8340.061456302201
 21
2076.027654431024
 31
0.0000000001479286
1001
GENIUS_GENREC_14
1002
{
1000
PYDIR
1011
8339.925456302202
1021
2076.028654431024
1031
0.0000000001479286
1002
}
1002
{
1000
PXDIR
1011
8339.978456302203
1021
2076.027654431024
1031
0.0000000001479286
1002
}
1002
{
1000
PORI
1011
8339.925456302202
1021
2076.027654431024
1031
0.0000000001479286
1002
}
1002
{
1000
PINS
1011
8339.925456302202
1021
2076.027654431024
1031
0.0000000001479286
1002
}
1002
{
1000
PINS2
1011
8339.978456302203
1021
2076.028654431024
1031
0.0000000001479286
1002
}
1002
{
1000
C
1070
     1
1002
}
1001
GENIUS_GENODEF_13
1002
{
1000
HIER
1070
     0
1002
}
1002
{
1000
MANEDIT
1070
     0
1002
}
1002
{
1000
NOSEL
1070
     0
1002
}
1002
{
1000
BEHIND
1070
     0
1002
}
1002
{
1000
REACTOR
1002
}
1001
GENIUS_GENOBJ-N-REC_13
1002
{
1000
OWNER
1000
GEN
1002
}
  0
ARC
  5
29F4
330
1F
100
AcDbEntity
  8
SANINDUSA
100
AcDbCircle
 10
8340.060456302202
 20
2076.040354431023
 30
0.0000000001479286
 40
0.001
100
AcDbArc
 50
0.0
 51
90.0
  0
LINE
  5
29F5
330
1F
100
AcDbEntity
  8
SANINDUSA
100
AcDbLine
 10
8340.061456302201
 20
2076.036354431023
 30
0.0000000001479286
 11
8340.061456302201
 21
2076.040354431023
 31
0.0000000001479286
  0
LINE
  5
29F6
330
1F
100
AcDbEntity
  8
SANINDUSA
100
AcDbLine
 10
8339.203956302201
 20
2076.035133747248
 30
0.0000000001479285
 11
8339.203956302201
 21
2076.034654434833
 31
0.0000000001479285
  0
LINE
  5
29F7
330
1F
100
AcDbEntity
  8
SANINDUSA
100
AcDbLine
 10
8339.201456302202
 20
2076.035084909841
 30
0.0000000001479285
 11
8339.20139707847
 21
2076.034689318449
 31
0.0000000001479285
  0
ARC
  5
29F8
330
1F
100
AcDbEntity
  8
SANINDUSA
100
AcDbCircle
 10
8339.203156302202
 20
2076.035133747248
 30
0.0000000001479285
 40
0.0008
100
AcDbArc
 50
0.0
 51
81.48552155410166
  0
ARC
  5
29F9
330
1F
100
AcDbEntity
  8
SANINDUSA
100
AcDbCircle
 10
8339.200710112105
 20
2076.033477676087
 30
0.0000000001479285
 40
0.0002
100
AcDbArc
 50
171.4855215579593
 51
351.4855215579594
  0
LINE
  5
29FA
330
1F
100
AcDbEntity
  8
SANINDUSA
100
AcDbLine
 10
8339.203611884405
 20
2076.029551128378
 30
0.0000000001479285
 11
8339.20139707847
 21
2076.029219551218
 31
0.0000000001479285
  0
ARC
  5
29FB
330
1F
100
AcDbEntity
  8
SANINDUSA
100
AcDbCircle
 10
8339.200710112105
 20
2076.030431193579
 30
0.0000000001479285
 40
0.0002
100
AcDbArc
 50
8.51447844204064
 51
188.5144784420406
  0
LINE
  5
29FC
330
1F
100
AcDbEntity
  8
SANINDUSA
100
AcDbLine
 10
8339.201456302202
 20
2076.028823959825
 30
0.0000000001479285
 11
8339.20139707847
 21
2076.029219551218
 31
0.0000000001479285
  0
ARC
  5
29FD
330
1F
100
AcDbEntity
  8
SANINDUSA
100
AcDbCircle
 10
8339.203656302201
 20
2076.029254434833
 30
0.0000000001479285
 40
0.0003
100
AcDbArc
 50
0.0
 51
98.51447844589834
  0
ARC
  5
29FE
330
1F
100
AcDbEntity
  8
SANINDUSA
100
AcDbCircle
 10
8339.203656302201
 20
2076.034654434833
 30
0.0000000001479285
 40
0.0003
100
AcDbArc
 50
261.4855215541017
 51
0.0
  0
LINE
  5
29FF
330
1F
100
AcDbEntity
  8
SANINDUSA
100
AcDbLine
 10
8339.203611884405
 20
2076.034357741288
 30
0.0000000001479285
 11
8339.20139707847
 21
2076.034689318449
 31
0.0000000001479285
  0
LINE
  5
2A00
330
1F
100
AcDbEntity
  8
SANINDUSA
100
AcDbLine
 10
8339.200764017265
 20
2076.03518855137
 30
0.0000000001479285
 11
8339.200512316409
 21
2076.033507287953
 31
0.0000000001479285
  0
LINE
  5
2A01
330
1F
100
AcDbEntity
  8
SANINDUSA
100
AcDbLine
 10
8339.201159608657
 20
2076.035129327639
 30
0.0000000001479285
 11
8339.200907907802
 21
2076.033448064222
 31
0.0000000001479285
  0
LINE
  5
2A02
330
1F
100
AcDbEntity
  8
SANINDUSA
100
AcDbLine
 10
8339.198637713531
 20
2076.035506878923
 30
0.0000000001479285
 11
8339.198578489801
 21
2076.035111287531
 31
0.0000000001479285
  0
ARC
  5
2A03
330
1F
100
AcDbEntity
  8
SANINDUSA
100
AcDbCircle
 10
8339.192256302203
 20
2076.035754434833
 30
0.0000000001479285
 40
0.0003
100
AcDbArc
 50
81.48552155410166
 51
180.0
  0
ARC
  5
2A04
330
1F
100
AcDbEntity
  8
SANINDUSA
100
AcDbCircle
 10
8339.192998703031
 20
2076.036654434833
 30
0.0000000001479285
 40
0.0008
100
AcDbArc
 50
81.48552155410166
 51
90.0
  0
LINE
  5
2A05
330
1F
100
AcDbEntity
  8
SANINDUSA
100
AcDbLine
 10
8339.193456302202
 20
2076.035878126915
 30
0.0000000001479285
 11
8339.19230072
 21
2076.036051128378
 31
0.0000000001479285
  0
LINE
  5
2A06
330
1F
100
AcDbEntity
  8
SANINDUSA
100
AcDbLine
 10
8339.193456302202
 20
2076.035878126915
 30
0.0000000001479285
 11
8339.193456302202
 21
2076.035054434833
 31
0.0000000001479285
  0
LINE
  5
2A07
330
1F
100
AcDbEntity
  8
SANINDUSA
100
AcDbLine
 10
8339.193456302202
 20
2076.035054434833
 30
0.0000000001479285
 11
8339.194656302202
 21
2076.035054434833
 31
0.0000000001479285
  0
LINE
  5
2A08
330
1F
100
AcDbEntity
  8
SANINDUSA
100
AcDbLine
 10
8339.194656302202
 20
2076.035698475693
 30
0.0000000001479285
 11
8339.194656302202
 21
2076.035054434833
 31
0.0000000001479285
  0
LINE
  5
2A09
330
1F
100
AcDbEntity
  8
SANINDUSA
100
AcDbLine
 10
8339.198578489801
 20
2076.035111287531
 30
0.0000000001479285
 11
8339.194656302202
 21
2076.035698475693
 31
0.0000000001479285
  0
LINE
  5
2A0A
330
1F
100
AcDbEntity
  8
SANINDUSA
100
AcDbLine
 10
8339.193456302202
 20
2076.028854434833
 30
0.0000000001479285
 11
8339.194656302202
 21
2076.028854434833
 31
0.0000000001479285
  0
LINE
  5
2A0B
330
1F
100
AcDbEntity
  8
SANINDUSA
100
AcDbLine
 10
8339.203274749662
 20
2076.035924930032
 30
0.0000000001479285
 11
8339.193117150493
 21
2076.037445617618
 31
0.0000000001479285
  0
LINE
  5
2A0C
330
1F
100
AcDbEntity
  8
SANINDUSA
100
AcDbLine
 10
8339.201456302202
 20
2076.035084909841
 30
0.0000000001479285
 11
8339.198637713531
 21
2076.035506878923
 31
0.0000000001479285
  0
ARC
  5
2A0D
330
1F
100
AcDbEntity
  8
SANINDUSA
100
AcDbCircle
 10
8339.203156302202
 20
2076.028775122419
 30
0.0000000001479285
 40
0.0008
100
AcDbArc
 50
278.5144784458983
 51
0.0
  0
LINE
  5
2A0E
330
1F
100
AcDbEntity
  8
SANINDUSA
100
AcDbLine
 10
8339.198637713531
 20
2076.028401990743
 30
0.0000000001479285
 11
8339.198578489801
 21
2076.028797582135
 31
0.0000000001479285
  0
ARC
  5
2A0F
330
1F
100
AcDbEntity
  8
SANINDUSA
100
AcDbCircle
 10
8339.192256302203
 20
2076.028154434833
 30
0.0000000001479285
 40
0.0003
100
AcDbArc
 50
180.0
 51
278.5144784458983
  0
ARC
  5
2A10
330
1F
100
AcDbEntity
  8
SANINDUSA
100
AcDbCircle
 10
8339.192998703031
 20
2076.027254434833
 30
0.0000000001479285
 40
0.0008
100
AcDbArc
 50
270.0
 51
278.5144784458983
  0
LINE
  5
2A11
330
1F
100
AcDbEntity
  8
SANINDUSA
100
AcDbLine
 10
8339.19230072
 20
2076.027857741289
 30
0.0000000001479285
 11
8339.193456302202
 21
2076.028030742751
 31
0.0000000001479285
  0
LINE
  5
2A12
330
1F
100
AcDbEntity
  8
SANINDUSA
100
AcDbLine
 10
8339.198578489801
 20
2076.028797582135
 30
0.0000000001479285
 11
8339.194656302202
 21
2076.028210393973
 31
0.0000000001479285
  0
LINE
  5
2A13
330
1F
100
AcDbEntity
  8
SANINDUSA
100
AcDbLine
 10
8339.193117150493
 20
2076.026463252048
 30
0.0000000001479285
 11
8339.203274749662
 21
2076.027983939634
 31
0.0000000001479285
  0
LINE
  5
2A14
330
1F
100
AcDbEntity
  8
SANINDUSA
100
AcDbLine
 10
8339.191956302203
 20
2076.035754434833
 30
0.0000000001479285
 11
8339.191956302203
 21
2076.028154434833
 31
0.0000000001479285
  0
LINE
  5
2A15
330
1F
100
AcDbEntity
  8
SANINDUSA
100
AcDbLine
 10
8339.203956302201
 20
2076.029254434833
 30
0.0000000001479285
 11
8339.203956302201
 21
2076.028775122419
 31
0.0000000001479285
  0
LINE
  5
2A16
330
1F
100
AcDbEntity
  8
SANINDUSA
100
AcDbLine
 10
8339.194656302202
 20
2076.028854434833
 30
0.0000000001479285
 11
8339.194656302202
 21
2076.028210393973
 31
0.0000000001479285
  0
LINE
  5
2A17
330
1F
100
AcDbEntity
  8
SANINDUSA
100
AcDbLine
 10
8339.193456302202
 20
2076.028854434833
 30
0.0000000001479285
 11
8339.193456302202
 21
2076.028030742751
 31
0.0000000001479285
  0
LINE
  5
2A18
330
1F
100
AcDbEntity
  8
SANINDUSA
100
AcDbLine
 10
8339.201456302202
 20
2076.028823959825
 30
0.0000000001479285
 11
8339.198637713531
 21
2076.028401990743
 31
0.0000000001479285
  0
LINE
  5
2A19
330
1F
100
AcDbEntity
  8
SANINDUSA
100
AcDbLine
 10
8339.201159608657
 20
2076.028779542027
 30
0.0000000001479285
 11
8339.200907907802
 21
2076.030460805444
 31
0.0000000001479285
  0
LINE
  5
2A1A
330
1F
100
AcDbEntity
  8
SANINDUSA
100
AcDbLine
 10
8339.200764017265
 20
2076.028720318296
 30
0.0000000001479285
 11
8339.200512316409
 21
2076.030401581714
 31
0.0000000001479285
  0
LINE
  5
2A1B
330
1F
100
AcDbEntity
  8
SANINDUSA
100
AcDbLine
 10
8339.190456302203
 20
2076.037454434834
 30
0.0000000001479285
 11
8339.18819894289
 21
2076.037454434834
 31
0.0000000001479285
  0
ARC
  5
2A1C
330
1F
100
AcDbEntity
  8
SANINDUSA
100
AcDbCircle
 10
8339.189456302202
 20
2076.035454434833
 30
0.0000000001479285
 40
0.001
100
AcDbArc
 50
0.0
 51
90.0
  0
ARC
  5
2A1D
330
1F
100
AcDbEntity
  8
SANINDUSA
100
AcDbCircle
 10
8339.188186521097
 20
2076.036104413697
 30
0.0000000001479285
 40
0.00075
100
AcDbArc
 50
47.16775947560121
 51
90.19499114646132
  0
ARC
  5
2A1E
330
1F
100
AcDbEntity
  8
SANINDUSA
100
AcDbCircle
 10
8339.189206302203
 20
2076.037204434833
 30
0.0000000001479285
 40
0.00075
100
AcDbArc
 50
227.1677594756012
 51
270.0
  0
LINE
  5
2A1F
330
1F
100
AcDbEntity
  8
SANINDUSA
100
AcDbLine
 10
8339.189206302203
 20
2076.036454434833
 30
0.0000000001479285
 11
8339.189456302202
 21
2076.036454434833
 31
0.0000000001479285
  0
LINE
  5
2A20
330
1F
100
AcDbEntity
  8
SANINDUSA
100
AcDbLine
 10
8339.184541047876
 20
2076.035019079495
 30
0.0000000001479285
 11
8339.185087673051
 21
2076.03556570467
 31
0.0000000001479285
  0
ARC
  5
2A21
330
1F
100
AcDbEntity
  8
SANINDUSA
100
AcDbCircle
 10
8339.183975362452
 20
2076.034524104747
 30
0.0000000001479285
 40
0.0002
100
AcDbArc
 50
45.00000012896618
 51
135.0000000368475
  0
ARC
  5
2A22
330
1F
100
AcDbEntity
  8
SANINDUSA
100
AcDbCircle
 10
8339.18819894289
 20
2076.032454434833
 30
0.0000000001479285
 40
0.005
100
AcDbArc
 50
90.0
 51
135.0
  0
ARC
  5
2A23
330
1F
100
AcDbEntity
  8
SANINDUSA
100
AcDbCircle
 10
8339.18819894289
 20
2076.032454434833
 30
0.0000000001479285
 40
0.0044
100
AcDbArc
 50
90.19499114646132
 51
135.0
  0
ARC
  5
2A24
330
1F
100
AcDbEntity
  8
SANINDUSA
100
AcDbCircle
 10
8339.185142088638
 20
2076.032933114496
 30
0.0000000001479285
 40
0.00075
100
AcDbArc
 50
314.9999999815762
 51
45.0
  0
ARC
  5
2A25
330
1F
100
AcDbEntity
  8
SANINDUSA
100
AcDbCircle
 10
8339.185142088638
 20
2076.032933114496
 30
0.0000000001479285
 40
0.0005
100
AcDbArc
 50
314.9999999815762
 51
45.0
  0
ARC
  5
2A26
330
1F
100
AcDbEntity
  8
SANINDUSA
100
AcDbCircle
 10
8339.18475317991
 20
2076.03480694746
 30
0.0000000001479285
 40
0.0003
100
AcDbArc
 50
135.0
 51
225.0000001289662
  0
LINE
  5
2A27
330
1F
100
AcDbEntity
  8
SANINDUSA
100
AcDbLine
 10
8339.18390465177
 20
2076.035231211528
 30
0.0000000001479285
 11
8339.185672418723
 21
2076.033463444582
 31
0.0000000001479285
  0
LINE
  5
2A28
330
1F
100
AcDbEntity
  8
SANINDUSA
100
AcDbLine
 10
8339.184116783808
 20
2076.034665526103
 30
0.0000000001479285
 11
8339.185495642029
 21
2076.033286667887
 31
0.0000000001479285
  0
ARC
  5
2A29
330
1F
100
AcDbEntity
  8
SANINDUSA
100
AcDbCircle
 10
8339.179379168369
 20
2076.029432935919
 30
0.0000000001479285
 40
0.0003
100
AcDbArc
 50
45.00000001842375
 51
135.0
  0
ARC
  5
2A2A
330
1F
100
AcDbEntity
  8
SANINDUSA
100
AcDbCircle
 10
8339.179662011082
 20
2076.030210753365
 30
0.0000000001479285
 40
0.0002
100
AcDbArc
 50
135.0000000368475
 51
225.0000002947798
  0
LINE
  5
2A2B
330
1F
100
AcDbEntity
  8
SANINDUSA
100
AcDbLine
 10
8339.17896635271
 20
2076.029444384327
 30
0.0000000001479285
 11
8339.179167036334
 21
2076.029645067953
 31
0.0000000001479285
  0
LINE
  5
2A2C
330
1F
100
AcDbEntity
  8
SANINDUSA
100
AcDbLine
 10
8339.178542088639
 20
2076.029868648396
 30
0.0000000001479285
 11
8339.184663408984
 21
2076.035989968739
 31
0.0000000001479285
  0
LINE
  5
2A2D
330
1F
100
AcDbEntity
  8
SANINDUSA
100
AcDbLine
 10
8339.179520589725
 20
2076.030352174721
 30
0.0000000001479285
 11
8339.183833941095
 21
2076.034665526103
 31
0.0000000001479285
  0
ARC
  5
2A2E
330
1F
100
AcDbEntity
  8
SANINDUSA
100
AcDbCircle
 10
8339.189456302202
 20
2076.028454434833
 30
0.0000000001479285
 40
0.001
100
AcDbArc
 50
270.0
 51
0.0
  0
ARC
  5
2A2F
330
1F
100
AcDbEntity
  8
SANINDUSA
100
AcDbCircle
 10
8339.184436498298
 20
2076.027804434833
 30
0.0000000001479285
 40
0.00075
100
AcDbArc
 50
270.0
 51
312.8334280650302
  0
ARC
  5
2A30
330
1F
100
AcDbEntity
  8
SANINDUSA
100
AcDbCircle
 10
8339.185456302201
 20
2076.026704434833
 30
0.0000000001479285
 40
0.00075
100
AcDbArc
 50
90.0
 51
132.8334280650302
  0
LINE
  5
2A31
330
1F
100
AcDbEntity
  8
SANINDUSA
100
AcDbLine
 10
8339.189456302202
 20
2076.027454434833
 30
0.0000000001479285
 11
8339.185456302201
 21
2076.027454434833
 31
0.0000000001479285
  0
ARC
  5
2A32
330
1F
100
AcDbEntity
  8
SANINDUSA
100
AcDbCircle
 10
8339.181253001338
 20
2076.029044027193
 30
0.0000000001479285
 40
0.00075
100
AcDbArc
 50
225.0
 51
315.0
  0
ARC
  5
2A33
330
1F
100
AcDbEntity
  8
SANINDUSA
100
AcDbCircle
 10
8339.181253001338
 20
2076.029044027193
 30
0.0000000001479285
 40
0.0005
100
AcDbArc
 50
225.0
 51
315.0
  0
LINE
  5
2A34
330
1F
100
AcDbEntity
  8
SANINDUSA
100
AcDbLine
 10
8339.190456302203
 20
2076.026454434833
 30
0.0000000001479285
 11
8339.179956302201
 21
2076.026454434833
 31
0.0000000001479285
  0
LINE
  5
2A35
330
1F
100
AcDbEntity
  8
SANINDUSA
100
AcDbLine
 10
8339.184436498298
 20
2076.027054434833
 30
0.0000000001479285
 11
8339.179956302201
 21
2076.027054434833
 31
0.0000000001479285
  0
ARC
  5
2A36
330
1F
100
AcDbEntity
  8
SANINDUSA
100
AcDbCircle
 10
8339.179956302201
 20
2076.028454434833
 30
0.0000000001479285
 40
0.002
100
AcDbArc
 50
135.0
 51
270.0
  0
LINE
  5
2A37
330
1F
100
AcDbEntity
  8
SANINDUSA
100
AcDbLine
 10
8339.181783331424
 20
2076.028513697107
 30
0.0000000001479285
 11
8339.185672418723
 21
2076.03240278441
 31
0.0000000001479285
  0
ARC
  5
2A38
330
1F
100
AcDbEntity
  8
SANINDUSA
100
AcDbCircle
 10
8339.179956302201
 20
2076.028454434833
 30
0.0000000001479285
 40
0.0014
100
AcDbArc
 50
135.0
 51
270.0
  0
LINE
  5
2A39
330
1F
100
AcDbEntity
  8
SANINDUSA
100
AcDbLine
 10
8339.178954904301
 20
2076.030281464056
 30
0.0000000001479285
 11
8339.180722671249
 21
2076.028513697107
 31
0.0000000001479285
  0
LINE
  5
2A3A
330
1F
100
AcDbEntity
  8
SANINDUSA
100
AcDbLine
 10
8339.190456302203
 20
2076.035454434833
 30
0.0000000001479285
 11
8339.190456302203
 21
2076.028454434833
 31
0.0000000001479285
  0
HATCH
  5
2A3B
330
1F
100
AcDbEntity
  8
SANINDUSA
100
AcDbHatch
 10
0.0
 20
0.0
 30
0.0000000001479285
210
0.0
220
0.0
230
1.0
  2
ANSI31
 70
     0
 71
     0
 91
        1
 92
        5
 93
        8
 72
     1
 10
8339.185495642029
 20
2076.033286667888
 11
8339.184116783808
 21
2076.034665526103
 72
     3
 10
8339.183975362452
 20
2076.034524104747
 11
0.0001414213562371
 21
0.0001414213562371
 40
1.0
 50
0.0000001129375338
 51
90.0000000749846
 73
     1
 72
     1
 10
8339.183833941095
 20
2076.034665526103
 11
8339.179520589725
 21
2076.030352174721
 72
     3
 10
8339.179662011082
 20
2076.030210753365
 11
0.0001414213562373
 21
0.0001414213562373
 40
1.0
 50
90.00000007452401
 51
180.0000003175331
 73
     1
 72
     1
 10
8339.179520589725
 20
2076.030069332008
 11
8339.180899447947
 21
2076.028690473801
 72
     3
 10
8339.181253001338
 20
2076.029044027193
 11
0.0003535533905931
 21
0.0003535533905931
 40
1.0
 50
180.0000003177358
 51
270.0000000130071
 73
     1
 72
     1
 10
8339.181606554729
 20
2076.028690473803
 11
8339.185495642031
 21
2076.032579561106
 72
     3
 10
8339.185142088638
 20
2076.032933114496
 11
-0.0003535533905931
 21
0.0003535533905931
 40
0.9999999999999998
 50
180.0000000130071
 51
270.0000001128639
 73
     1
 97
        0
 75
     0
 76
     1
 52
45.0
 41
0.00025
 77
     0
 78
     1
 53
90.0
 43
8338.91584176756
 44
2075.636682533444
 45
-0.00079375
 46
0.0
 79
     0
 47
0.0364805528584695
 98
        1
 10
8344.728646030555
 20
2073.81812814962
  0
LINE
  5
2A3C
330
1F
100
AcDbEntity
  8
SANINDUSA
100
AcDbLine
 10
8339.181606554729
 20
2076.028690473803
 30
0.0000000001479285
 11
8339.185495642029
 21
2076.032579561106
 31
0.0000000001479285
  0
LINE
  5
2A3D
330
1F
100
AcDbEntity
  8
SANINDUSA
100
AcDbLine
 10
8339.179520589725
 20
2076.030069332008
 30
0.0000000001479285
 11
8339.180899447947
 21
2076.028690473803
 31
0.0000000001479285
  0
LINE
  5
2A3E
330
1F
100
AcDbEntity
  8
SANINDUSA
100
AcDbLine
 10
8339.190456302203
 20
2076.037454434834
 30
0.0000000001479285
 11
8339.192998703031
 21
2076.037454434834
 31
0.0000000001479285
  0
LINE
  5
2A3F
330
1F
100
AcDbEntity
  8
SANINDUSA
100
AcDbLine
 10
8339.190456302203
 20
2076.026454434833
 30
0.0000000001479285
 11
8339.192998703031
 21
2076.026454434833
 31
0.0000000001479285
  0
LINE
  5
2A40
330
1F
100
AcDbEntity
  8
SANINDUSA
100
AcDbLine
 10
8339.191956302203
 20
2076.034954434833
 30
0.0000000001479285
 11
8339.191956302203
 21
2076.028954434833
 31
0.0000000001479285
  0
LINE
  5
2A41
330
1F
100
AcDbEntity
  8
SANINDUSA
100
AcDbLine
 10
8340.712956302201
 20
2076.034954431023
 30
0.0000000001479286
 11
8340.712956302201
 21
2076.028954431023
 31
0.000000000147481
  0
LINE
  5
2A42
330
1F
100
AcDbEntity
  8
SANINDUSA
100
AcDbLine
 10
8340.712956302201
 20
2076.034954431023
 30
0.0000000001479286
 11
8339.994956302202
 21
2076.034954431023
 31
0.0000000001479286
  0
LINE
  5
2A43
330
1F
100
AcDbEntity
  8
SANINDUSA
100
AcDbLine
 10
8340.712956302201
 20
2076.028954431023
 30
0.0000000001474186
 11
8339.994956302202
 21
2076.028954431023
 31
0.0000000001478663
  0
LINE
  5
2A44
330
1F
100
AcDbEntity
  8
SANINDUSA
100
AcDbLine
 10
8339.991956302201
 20
2076.034954434833
 30
0.0000000001479285
 11
8339.191956302203
 21
2076.034954434833
 31
0.0000000001479285
  0
ARC
  5
2A45
330
1F
100
AcDbEntity
  8
SANINDUSA
100
AcDbCircle
 10
8339.188327871267
 20
2076.707159730211
 30
-0.0000000000076263
 40
0.0009999999999999
100
AcDbArc
 50
0.0
 51
90.0
  0
LINE
  5
2A46
330
1F
100
AcDbEntity
  8
SANINDUSA
100
AcDbLine
 10
8339.189327871267
 20
2076.707159730211
 30
-0.0000000000076263
 11
8339.189327871267
 21
2076.672136426079
 31
-0.0000000000076263
  0
LINE
  5
2A47
330
1F
100
AcDbEntity
  8
SANINDUSA
100
AcDbLine
 10
8339.18734208483
 20
2076.708159730211
 30
-0.0000000000076263
 11
8339.188327871267
 21
2076.708159730211
 31
-0.0000000000076263
  0
ARC
  5
2A48
330
1F
100
AcDbEntity
  8
SANINDUSA
100
AcDbCircle
 10
8339.188327871267
 20
2076.672136426079
 30
-0.0000000000076263
 40
0.001
100
AcDbArc
 50
180.0
 51
0.0
  0
ARC
  5
2A49
330
1F
100
AcDbEntity
  8
SANINDUSA
100
AcDbCircle
 10
8339.18734208483
 20
2076.707159730211
 30
-0.0000000000076263
 40
0.0010000000000003
100
AcDbArc
 50
90.0
 51
135.0
  0
LINE
  5
2A4A
330
1F
100
AcDbEntity
  8
SANINDUSA
100
AcDbLine
 10
8339.187327871268
 20
2076.672136426079
 30
-0.0000000000076263
 11
8339.187327871268
 21
2076.703659730211
 31
-0.0000000000076263
  0
LINE
  5
2A4B
330
1F
100
AcDbEntity
  8
SANINDUSA
100
AcDbLine
 10
8339.185720764486
 20
2076.70695262343
 30
-0.0000000000076263
 11
8339.186634978048
 21
2076.707866836992
 31
-0.0000000000076263
  0
ARC
  5
2A4C
330
1F
100
AcDbEntity
  8
SANINDUSA
100
AcDbCircle
 10
8339.186327871267
 20
2076.703659730211
 30
-0.0000000000076263
 40
0.001
100
AcDbArc
 50
0.0
 51
90.0
  0
ARC
  5
2A4D
330
1F
100
AcDbEntity
  8
SANINDUSA
100
AcDbCircle
 10
8339.185013657704
 20
2076.707659730211
 30
-0.0000000000076263
 40
0.0010000000000003
100
AcDbArc
 50
270.0
 51
315.0
  0
LINE
  5
2A4E
330
1F
100
AcDbEntity
  8
SANINDUSA
100
AcDbLine
 10
8339.186327871267
 20
2076.704659730211
 30
-0.0000000000076263
 11
8339.16846868499
 21
2076.704659730211
 31
-0.0000000000076263
  0
LINE
  5
2A4F
330
1F
100
AcDbEntity
  8
SANINDUSA
100
AcDbLine
 10
8339.181638531441
 20
2076.706659730211
 30
-0.0000000000076263
 11
8339.185013657704
 21
2076.706659730211
 31
-0.0000000000076263
  0
ARC
  5
2A50
330
1F
100
AcDbEntity
  8
SANINDUSA
100
AcDbCircle
 10
8339.16846868499
 20
2076.703659730211
 30
-0.0000000000076263
 40
0.001
100
AcDbArc
 50
90.0
 51
182.1494579431169
  0
ARC
  5
2A51
330
1F
100
AcDbEntity
  8
SANINDUSA
100
AcDbCircle
 10
8339.181638531441
 20
2076.706409730211
 30
-0.0000000000076263
 40
0.0002500000000003
100
AcDbArc
 50
90.0
 51
135.0
  0
ARC
  5
2A52
330
1F
100
AcDbEntity
  8
SANINDUSA
100
AcDbCircle
 10
8339.264121430913
 20
2076.707249838649
 30
-0.0000000000076263
 40
0.0967200954923435
100
AcDbArc
 50
182.1494579431169
 51
195.5601696455738
  0
LINE
  5
2A53
330
1F
100
AcDbEntity
  8
SANINDUSA
100
AcDbLine
 10
8339.180981424659
 20
2076.70610617682
 30
-0.0000000000076263
 11
8339.181461754744
 21
2076.706586506906
 31
-0.0000000000076263
  0
ARC
  5
2A54
330
1F
100
AcDbEntity
  8
SANINDUSA
100
AcDbCircle
 10
8339.171427871269
 20
2076.681438779451
 30
-0.0000000000076263
 40
0.0005
100
AcDbArc
 50
195.5601696455738
 51
0.0
  0
ARC
  5
2A55
330
1F
100
AcDbEntity
  8
SANINDUSA
100
AcDbCircle
 10
8339.180627871268
 20
2076.70645973021
 30
-0.0000000000076263
 40
0.0005
100
AcDbArc
 50
225.0
 51
315.0
  0
LINE
  5
2A56
330
1F
100
AcDbEntity
  8
SANINDUSA
100
AcDbLine
 10
8339.171927871268
 20
2076.681438779451
 30
-0.0000000000076263
 11
8339.171927871268
 21
2076.694136426079
 31
-0.0000000000076263
  0
LINE
  5
2A57
330
1F
100
AcDbEntity
  8
SANINDUSA
100
AcDbLine
 10
8339.17979398779
 20
2076.706586506906
 30
-0.0000000000076263
 11
8339.180274317879
 21
2076.70610617682
 31
-0.0000000000076263
  0
ARC
  5
2A58
330
1F
100
AcDbEntity
  8
SANINDUSA
100
AcDbCircle
 10
8339.172927871269
 20
2076.694136426079
 30
-0.0000000000076263
 40
0.001
100
AcDbArc
 50
0.0
 51
180.0
  0
ARC
  5
2A59
330
1F
100
AcDbEntity
  8
SANINDUSA
100
AcDbCircle
 10
8339.179617211096
 20
2076.706409730211
 30
-0.0000000000076263
 40
0.00025
100
AcDbArc
 50
45.0
 51
90.0
  0
LINE
  5
2A5A
330
1F
100
AcDbEntity
  8
SANINDUSA
100
AcDbLine
 10
8339.173927871266
 20
2076.694136426079
 30
-0.0000000000076263
 11
8339.173927871266
 21
2076.672136426079
 31
-0.0000000000076263
  0
LINE
  5
2A5B
330
1F
100
AcDbEntity
  8
SANINDUSA
100
AcDbLine
 10
8339.169427847606
 20
2076.706659730211
 30
-0.0000000000076263
 11
8339.179617211096
 21
2076.706659730211
 31
-0.0000000000076263
  0
ARC
  5
2A5C
330
1F
100
AcDbEntity
  8
SANINDUSA
100
AcDbCircle
 10
8339.172927871269
 20
2076.672136426079
 30
-0.0000000000076263
 40
0.001
100
AcDbArc
 50
201.0588352563526
 51
0.0
  0
ARC
  5
2A5D
330
1F
100
AcDbEntity
  8
SANINDUSA
100
AcDbCircle
 10
8339.169427847606
 20
2076.707659730211
 30
-0.0000000000076263
 40
0.0010000000000003
100
AcDbArc
 50
224.9106959474017
 51
270.0
  0
ARC
  5
2A5E
330
1F
100
AcDbEntity
  8
SANINDUSA
100
AcDbCircle
 10
8339.264121430913
 20
2076.707249838649
 30
-0.0000000000076263
 40
0.0987200954923432
100
AcDbArc
 50
180.0522366084858
 51
201.0588352563526
  0
LINE
  5
2A5F
330
1F
100
AcDbEntity
  8
SANINDUSA
100
AcDbLine
 10
8339.167816021689
 20
2076.707860165531
 30
-0.0000000000076263
 11
8339.168719639552
 21
2076.70695372642
 31
-0.0000000000076263
  0
ARC
  5
2A60
330
1F
100
AcDbEntity
  8
SANINDUSA
100
AcDbCircle
 10
8339.166401376033
 20
2076.707160747192
 30
-0.0000000000076263
 40
0.001
100
AcDbArc
 50
89.46590088269331
 51
180.0522366084858
  0
ARC
  5
2A61
330
1F
100
AcDbEntity
  8
SANINDUSA
100
AcDbCircle
 10
8339.167107813635
 20
2076.70715416174
 30
-0.0000000000076263
 40
0.0010000000000003
100
AcDbArc
 50
44.91069594740168
 51
89.46590088269331
  0
LINE
  5
2A62
330
1F
100
AcDbEntity
  8
SANINDUSA
100
AcDbLine
 10
8339.166410697686
 20
2076.708160703744
 30
-0.0000000000076263
 11
8339.167117135287
 21
2076.708154118292
 31
-0.0000000000076263
  0
LINE
  5
2A63
330
1F
100
AcDbEntity
  8
SANINDUSA
100
AcDbLine
 10
8339.184627871267
 20
2076.65853450292
 30
-0.0000000000076263
 11
8339.184627871267
 21
2076.661223116069
 31
-0.0000000000076263
  0
ARC
  5
2A64
330
1F
100
AcDbEntity
  8
SANINDUSA
100
AcDbCircle
 10
8339.184127871268
 20
2076.661223116069
 30
-0.0000000000076263
 40
0.0005
100
AcDbArc
 50
0.0
 51
70.52877936198294
  0
ARC
  5
2A65
330
1F
100
AcDbEntity
  8
SANINDUSA
100
AcDbCircle
 10
8339.184127871268
 20
2076.65853450292
 30
-0.0000000000076263
 40
0.0005000000000001
100
AcDbArc
 50
293.5781785176358
 51
0.0
  0
ARC
  5
2A66
330
1F
100
AcDbEntity
  8
SANINDUSA
100
AcDbCircle
 10
8339.184627871267
 20
2076.662637329632
 30
-0.0000000000076263
 40
0.001
100
AcDbArc
 50
109.471220638017
 51
250.528779361983
  0
ARC
  5
2A67
330
1F
100
AcDbEntity
  8
SANINDUSA
100
AcDbCircle
 10
8339.184727871268
 20
2076.657159730211
 30
-0.0000000000076263
 40
0.0009999999999999
100
AcDbArc
 50
113.5781785176358
 51
270.0
  0
ARC
  5
2A68
330
1F
100
AcDbEntity
  8
SANINDUSA
100
AcDbCircle
 10
8339.184127871268
 20
2076.664051543194
 30
-0.0000000000076263
 40
0.0004999999999999
100
AcDbArc
 50
289.471220638017
 51
0.0
  0
LINE
  5
2A69
330
1F
100
AcDbEntity
  8
SANINDUSA
100
AcDbLine
 10
8339.184727871268
 20
2076.656159730211
 30
-0.0000000000076263
 11
8339.185627871268
 21
2076.656159730211
 31
-0.0000000000076263
  0
LINE
  5
2A6A
330
1F
100
AcDbEntity
  8
SANINDUSA
100
AcDbLine
 10
8339.184627871267
 20
2076.664051543194
 30
-0.0000000000076263
 11
8339.184627871267
 21
2076.665637706451
 31
-0.0000000000076263
  0
ARC
  5
2A6B
330
1F
100
AcDbEntity
  8
SANINDUSA
100
AcDbCircle
 10
8339.185627871268
 20
2076.657159730211
 30
-0.0000000000076263
 40
0.0009999999999999
100
AcDbArc
 50
270.0
 51
0.0
  0
ARC
  5
2A6C
330
1F
100
AcDbEntity
  8
SANINDUSA
100
AcDbCircle
 10
8339.184127871268
 20
2076.665637706451
 30
-0.0000000000076263
 40
0.0005
100
AcDbArc
 50
0.0
 51
90.0
  0
LINE
  5
2A6D
330
1F
100
AcDbEntity
  8
SANINDUSA
100
AcDbLine
 10
8339.186627871269
 20
2076.657159730211
 30
-0.0000000000076263
 11
8339.186627871269
 21
2076.688659730211
 31
-0.0000000000076263
  0
LINE
  5
2A6E
330
1F
100
AcDbEntity
  8
SANINDUSA
100
AcDbLine
 10
8339.184127871268
 20
2076.666137706451
 30
-0.0000000000076263
 11
8339.177127871268
 21
2076.666137706451
 31
-0.0000000000076263
  0
ARC
  5
2A6F
330
1F
100
AcDbEntity
  8
SANINDUSA
100
AcDbCircle
 10
8339.185627871268
 20
2076.688659730211
 30
-0.0000000000076263
 40
0.001
100
AcDbArc
 50
0.0
 51
180.0
  0
ARC
  5
2A70
330
1F
100
AcDbEntity
  8
SANINDUSA
100
AcDbCircle
 10
8339.177127871268
 20
2076.665637706451
 30
-0.0000000000076263
 40
0.0005
100
AcDbArc
 50
90.0
 51
180.0
  0
LINE
  5
2A71
330
1F
100
AcDbEntity
  8
SANINDUSA
100
AcDbLine
 10
8339.184627871267
 20
2076.688659730211
 30
-0.0000000000076263
 11
8339.184627871267
 21
2076.66863770645
 31
-0.0000000000076263
  0
LINE
  5
2A72
330
1F
100
AcDbEntity
  8
SANINDUSA
100
AcDbLine
 10
8339.176627871268
 20
2076.665637706451
 30
-0.0000000000076263
 11
8339.176627871268
 21
2076.664051543194
 31
-0.0000000000076263
  0
ARC
  5
2A73
330
1F
100
AcDbEntity
  8
SANINDUSA
100
AcDbCircle
 10
8339.184127871268
 20
2076.66863770645
 30
-0.0000000000076263
 40
0.0005000000000001
100
AcDbArc
 50
270.0
 51
0.0
  0
ARC
  5
2A74
330
1F
100
AcDbEntity
  8
SANINDUSA
100
AcDbCircle
 10
8339.177127871268
 20
2076.664051543194
 30
-0.0000000000076263
 40
0.0005
100
AcDbArc
 50
180.0
 51
250.528779361983
  0
LINE
  5
2A75
330
1F
100
AcDbEntity
  8
SANINDUSA
100
AcDbLine
 10
8339.184127871268
 20
2076.668137706451
 30
-0.0000000000076263
 11
8339.177127871268
 21
2076.668137706451
 31
-0.0000000000076263
  0
ARC
  5
2A76
330
1F
100
AcDbEntity
  8
SANINDUSA
100
AcDbCircle
 10
8339.176627871268
 20
2076.662637329632
 30
-0.0000000000076263
 40
0.001
100
AcDbArc
 50
289.471220638017
 51
70.52877936198294
  0
ARC
  5
2A77
330
1F
100
AcDbEntity
  8
SANINDUSA
100
AcDbCircle
 10
8339.177127871268
 20
2076.66863770645
 30
-0.0000000000076263
 40
0.0005000000000001
100
AcDbArc
 50
180.0
 51
270.0
  0
ARC
  5
2A78
330
1F
100
AcDbEntity
  8
SANINDUSA
100
AcDbCircle
 10
8339.177127871268
 20
2076.661223116069
 30
-0.0000000000076263
 40
0.0005
100
AcDbArc
 50
109.471220638017
 51
180.0
  0
LINE
  5
2A79
330
1F
100
AcDbEntity
  8
SANINDUSA
100
AcDbLine
 10
8339.176627871268
 20
2076.66863770645
 30
-0.0000000000076263
 11
8339.176627871268
 21
2076.688659730211
 31
-0.0000000000076263
  0
LINE
  5
2A7A
330
1F
100
AcDbEntity
  8
SANINDUSA
100
AcDbLine
 10
8339.176627871268
 20
2076.661223116069
 30
-0.0000000000076263
 11
8339.176627871268
 21
2076.65853450292
 31
-0.0000000000076263
  0
ARC
  5
2A7B
330
1F
100
AcDbEntity
  8
SANINDUSA
100
AcDbCircle
 10
8339.175627871268
 20
2076.688659730211
 30
-0.0000000000076263
 40
0.001
100
AcDbArc
 50
0.0
 51
180.0
  0
ARC
  5
2A7C
330
1F
100
AcDbEntity
  8
SANINDUSA
100
AcDbCircle
 10
8339.177127871268
 20
2076.65853450292
 30
-0.0000000000076263
 40
0.0005000000000001
100
AcDbArc
 50
180.0
 51
246.4218214823642
  0
LINE
  5
2A7D
330
1F
100
AcDbEntity
  8
SANINDUSA
100
AcDbLine
 10
8339.174627871267
 20
2076.688659730211
 30
-0.0000000000076263
 11
8339.174627871267
 21
2076.657159730211
 31
-0.0000000000076263
  0
ARC
  5
2A7E
330
1F
100
AcDbEntity
  8
SANINDUSA
100
AcDbCircle
 10
8339.176527871268
 20
2076.657159730211
 30
-0.0000000000076263
 40
0.0009999999999999
100
AcDbArc
 50
270.0
 51
66.42182148236416
  0
ARC
  5
2A7F
330
1F
100
AcDbEntity
  8
SANINDUSA
100
AcDbCircle
 10
8339.175627871268
 20
2076.657159730211
 30
-0.0000000000076263
 40
0.0010000000000001
100
AcDbArc
 50
180.0
 51
270.0
  0
LINE
  5
2A80
330
1F
100
AcDbEntity
  8
SANINDUSA
100
AcDbLine
 10
8339.175627871268
 20
2076.656159730211
 30
-0.0000000000076263
 11
8339.176527871268
 21
2076.656159730211
 31
-0.0000000000076263
  0
LINE
  5
2A81
330
1F
100
AcDbEntity
  8
SANINDUSA
100
AcDbLine
 10
8339.165401376034
 20
2076.710509730211
 30
-0.0000000000076263
 11
8339.189327871267
 21
2076.710509730211
 31
-0.0000000000076263
  0
LINE
  5
2A82
330
1F
100
AcDbEntity
  8
SANINDUSA
100
AcDbLine
 10
8339.189327871267
 20
2076.709509730211
 30
-0.0000000000076263
 11
8339.189327871267
 21
2076.710509730211
 31
-0.0000000000076263
  0
LINE
  5
2A83
330
1F
100
AcDbEntity
  8
SANINDUSA
100
AcDbLine
 10
8339.165401376034
 20
2076.710509730211
 30
-0.0000000000076263
 11
8339.165401376034
 21
2076.709510849298
 31
-0.0000000000076263
  0
ARC
  5
2A84
330
1F
100
AcDbEntity
  8
SANINDUSA
100
AcDbCircle
 10
8339.188327871267
 20
2076.709509730211
 30
-0.0000000000076263
 40
0.0009999999999999
100
AcDbArc
 50
270.0
 51
0.0
  0
ARC
  5
2A85
330
1F
100
AcDbEntity
  8
SANINDUSA
100
AcDbCircle
 10
8339.166401376033
 20
2076.709510849298
 30
-0.0000000000076263
 40
0.0009999999999999
100
AcDbArc
 50
180.0
 51
269.4659008826933
  0
LINE
  5
2A86
330
1F
100
AcDbEntity
  8
SANINDUSA
100
AcDbLine
 10
8339.18734208483
 20
2076.708509730211
 30
-0.0000000000076263
 11
8339.188327871267
 21
2076.708509730211
 31
-0.0000000000076263
  0
LINE
  5
2A87
330
1F
100
AcDbEntity
  8
SANINDUSA
100
AcDbLine
 10
8339.166392054378
 20
2076.708510892746
 30
-0.0000000000076263
 11
8339.167120397865
 21
2076.708504103086
 31
-0.0000000000076263
  0
ARC
  5
2A88
330
1F
100
AcDbEntity
  8
SANINDUSA
100
AcDbCircle
 10
8339.18734208483
 20
2076.707159730211
 30
-0.0000000000076263
 40
0.0013499999999998
100
AcDbArc
 50
90.0
 51
135.0
  0
ARC
  5
2A89
330
1F
100
AcDbEntity
  8
SANINDUSA
100
AcDbCircle
 10
8339.167107813635
 20
2076.70715416174
 30
-0.0000000000076263
 40
0.00135
100
AcDbArc
 50
44.91069594740168
 51
89.46590088269331
  0
LINE
  5
2A8A
330
1F
100
AcDbEntity
  8
SANINDUSA
100
AcDbLine
 10
8339.185473277114
 20
2076.707200110803
 30
-0.0000000000076263
 11
8339.186387490675
 21
2076.708114324365
 31
-0.0000000000076263
  0
LINE
  5
2A8B
330
1F
100
AcDbEntity
  8
SANINDUSA
100
AcDbLine
 10
8339.168063894508
 20
2076.708107266858
 30
-0.0000000000076263
 11
8339.168967512371
 21
2076.707200827746
 31
-0.0000000000076263
  0
ARC
  5
2A8C
330
1F
100
AcDbEntity
  8
SANINDUSA
100
AcDbCircle
 10
8339.185013657704
 20
2076.707659730211
 30
-0.0000000000076263
 40
0.0006500000000003
100
AcDbArc
 50
270.0
 51
315.0
  0
ARC
  5
2A8D
330
1F
100
AcDbEntity
  8
SANINDUSA
100
AcDbCircle
 10
8339.169427847606
 20
2076.707659730211
 30
-0.0000000000076263
 40
0.0006500000000003
100
AcDbArc
 50
224.9106959474017
 51
270.0
  0
LINE
  5
2A8E
330
1F
100
AcDbEntity
  8
SANINDUSA
100
AcDbLine
 10
8339.169427847606
 20
2076.707009730211
 30
-0.0000000000076263
 11
8339.185013657704
 21
2076.707009730211
 31
-0.0000000000076263
  0
LINE
  5
2A8F
330
1F
100
AcDbEntity
  8
SANINDUSA
100
AcDbLine
 10
8339.453961943823
 20
2076.688259730211
 30
0.0
 11
8339.453961943823
 21
2076.705509730211
 31
0.0
  0
LINE
  5
2A90
330
1F
100
AcDbEntity
  8
SANINDUSA
100
AcDbLine
 10
8339.435961943824
 20
2076.688259730211
 30
0.0
 11
8339.435961943824
 21
2076.705509730211
 31
0.0
  0
CIRCLE
  5
2A91
330
1F
100
AcDbEntity
  8
SANINDUSA
100
AcDbCircle
 10
8339.444961943824
 20
2076.688259730211
 30
0.0
 40
0.005085
  0
LINE
  5
2A92
330
1F
100
AcDbEntity
  8
SANINDUSA
100
AcDbLine
 10
8339.438244429402
 20
2076.670228507291
 30
0.0
 11
8339.443194176871
 21
2076.675178254759
 31
0.0
  0
LINE
  5
2A93
330
1F
100
AcDbEntity
  8
SANINDUSA
100
AcDbLine
 10
8339.431880468373
 20
2076.686491963258
 30
0.0
 11
8339.443194176871
 21
2076.675178254759
 31
0.0
  0
ARC
  5
2A94
330
1F
100
AcDbEntity
  8
SANINDUSA
100
AcDbCircle
 10
8339.444961943824
 20
2076.688259730211
 30
0.0
 40
0.009
100
AcDbArc
 50
180.0
 51
0.0
  0
LINE
  5
2A95
330
1F
100
AcDbEntity
  8
SANINDUSA
100
AcDbLine
 10
8339.426930720902
 20
2076.681542215789
 30
0.0
 11
8339.438244429402
 21
2076.670228507291
 31
0.0
  0
LINE
  5
2A96
330
1F
100
AcDbEntity
  8
SANINDUSA
100
AcDbLine
 10
8339.431880468373
 20
2076.686491963258
 30
0.0
 11
8339.435961943824
 21
2076.69057343871
 31
0.0
  0
LINE
  5
2A97
330
1F
100
AcDbEntity
  8
SANINDUSA
100
AcDbLine
 10
8339.426930720902
 20
2076.681542215789
 30
0.0
 11
8339.431880468373
 21
2076.686491963258
 31
0.0
  0
LINE
  5
2A98
330
1F
100
AcDbEntity
  8
SANINDUSA
100
AcDbLine
 10
8339.447062050963
 20
2076.686159623071
 30
0.0
 11
8339.44608089064
 21
2076.687620730211
 31
0.0
  0
LINE
  5
2A99
330
1F
100
AcDbEntity
  8
SANINDUSA
100
AcDbLine
 10
8339.447062050963
 20
2076.686159623071
 30
0.0
 11
8339.445600943824
 21
2076.687620730211
 31
0.0
  0
LINE
  5
2A9A
330
1F
100
AcDbEntity
  8
SANINDUSA
100
AcDbLine
 10
8339.445600943824
 20
2076.687140783394
 30
0.0
 11
8339.447062050963
 21
2076.686159623071
 31
0.0
  0
LINE
  5
2A9B
330
1F
100
AcDbEntity
  8
SANINDUSA
100
AcDbLine
 10
8339.447062050963
 20
2076.690359837351
 30
0.0
 11
8339.445600943824
 21
2076.689378677028
 31
0.0
  0
LINE
  5
2A9C
330
1F
100
AcDbEntity
  8
SANINDUSA
100
AcDbLine
 10
8339.447062050963
 20
2076.690359837351
 30
0.0
 11
8339.445600943824
 21
2076.688898730211
 31
0.0
  0
LINE
  5
2A9D
330
1F
100
AcDbEntity
  8
SANINDUSA
100
AcDbLine
 10
8339.44608089064
 20
2076.688898730211
 30
0.0
 11
8339.447062050963
 21
2076.690359837351
 31
0.0
  0
LINE
  5
2A9E
330
1F
100
AcDbEntity
  8
SANINDUSA
100
AcDbLine
 10
8339.44608089064
 20
2076.687620730211
 30
0.0
 11
8339.447931943823
 21
2076.687620730211
 31
0.0
  0
LINE
  5
2A9F
330
1F
100
AcDbEntity
  8
SANINDUSA
100
AcDbLine
 10
8339.447931943823
 20
2076.688898730211
 30
0.0
 11
8339.44608089064
 21
2076.688898730211
 31
0.0
  0
LINE
  5
2AA0
330
1F
100
AcDbEntity
  8
SANINDUSA
100
AcDbLine
 10
8339.442861836685
 20
2076.690359837351
 30
0.0
 11
8339.443842997006
 21
2076.688898730211
 31
0.0
  0
LINE
  5
2AA1
330
1F
100
AcDbEntity
  8
SANINDUSA
100
AcDbLine
 10
8339.442861836685
 20
2076.690359837351
 30
0.0
 11
8339.444322943824
 21
2076.688898730211
 31
0.0
  0
LINE
  5
2AA2
330
1F
100
AcDbEntity
  8
SANINDUSA
100
AcDbLine
 10
8339.443842997006
 20
2076.688898730211
 30
0.0
 11
8339.444322943824
 21
2076.688898730211
 31
0.0
  0
LINE
  5
2AA3
330
1F
100
AcDbEntity
  8
SANINDUSA
100
AcDbLine
 10
8339.444322943824
 20
2076.689378677028
 30
0.0
 11
8339.442861836685
 21
2076.690359837351
 31
0.0
  0
LINE
  5
2AA4
330
1F
100
AcDbEntity
  8
SANINDUSA
100
AcDbLine
 10
8339.444322943824
 20
2076.688898730211
 30
0.0
 11
8339.444322943824
 21
2076.689378677028
 31
0.0
  0
LINE
  5
2AA5
330
1F
100
AcDbEntity
  8
SANINDUSA
100
AcDbLine
 10
8339.44608089064
 20
2076.687620730211
 30
0.0
 11
8339.445600943824
 21
2076.687620730211
 31
0.0
  0
LINE
  5
2AA6
330
1F
100
AcDbEntity
  8
SANINDUSA
100
AcDbLine
 10
8339.445600943824
 20
2076.687620730211
 30
0.0
 11
8339.445600943824
 21
2076.687140783394
 31
0.0
  0
LINE
  5
2AA7
330
1F
100
AcDbEntity
  8
SANINDUSA
100
AcDbLine
 10
8339.445600943824
 20
2076.689378677028
 30
0.0
 11
8339.445600943824
 21
2076.688898730211
 31
0.0
  0
LINE
  5
2AA8
330
1F
100
AcDbEntity
  8
SANINDUSA
100
AcDbLine
 10
8339.445600943824
 20
2076.688898730211
 30
0.0
 11
8339.44608089064
 21
2076.688898730211
 31
0.0
  0
LINE
  5
2AA9
330
1F
100
AcDbEntity
  8
SANINDUSA
100
AcDbLine
 10
8339.442861836685
 20
2076.686159623071
 30
0.0
 11
8339.444322943824
 21
2076.687140783394
 31
0.0
  0
LINE
  5
2AAA
330
1F
100
AcDbEntity
  8
SANINDUSA
100
AcDbLine
 10
8339.442861836685
 20
2076.686159623071
 30
0.0
 11
8339.444322943824
 21
2076.687620730211
 31
0.0
  0
LINE
  5
2AAB
330
1F
100
AcDbEntity
  8
SANINDUSA
100
AcDbLine
 10
8339.444322943824
 20
2076.687140783394
 30
0.0
 11
8339.444322943824
 21
2076.687620730211
 31
0.0
  0
LINE
  5
2AAC
330
1F
100
AcDbEntity
  8
SANINDUSA
100
AcDbLine
 10
8339.443842997006
 20
2076.687620730211
 30
0.0
 11
8339.442861836685
 21
2076.686159623071
 31
0.0
  0
LINE
  5
2AAD
330
1F
100
AcDbEntity
  8
SANINDUSA
100
AcDbLine
 10
8339.444322943824
 20
2076.687620730211
 30
0.0
 11
8339.443842997006
 21
2076.687620730211
 31
0.0
  0
LINE
  5
2AAE
330
1F
100
AcDbEntity
  8
SANINDUSA
100
AcDbLine
 10
8339.443842997006
 20
2076.688898730211
 30
0.0
 11
8339.441991943825
 21
2076.688898730211
 31
0.0
  0
LINE
  5
2AAF
330
1F
100
AcDbEntity
  8
SANINDUSA
100
AcDbLine
 10
8339.445600943824
 20
2076.689378677028
 30
0.0
 11
8339.445600943824
 21
2076.691229730211
 31
0.0
  0
LINE
  5
2AB0
330
1F
100
AcDbEntity
  8
SANINDUSA
100
AcDbLine
 10
8339.444322943824
 20
2076.687140783394
 30
0.0
 11
8339.444322943824
 21
2076.68528973021
 31
0.0
  0
LINE
  5
2AB1
330
1F
100
AcDbEntity
  8
SANINDUSA
100
AcDbLine
 10
8339.445600943824
 20
2076.688898730211
 30
0.0
 11
8339.444322943824
 21
2076.688898730211
 31
0.0
  0
LINE
  5
2AB2
330
1F
100
AcDbEntity
  8
SANINDUSA
100
AcDbLine
 10
8339.444322943824
 20
2076.687620730211
 30
0.0
 11
8339.445600943824
 21
2076.687620730211
 31
0.0
  0
LINE
  5
2AB3
330
1F
100
AcDbEntity
  8
SANINDUSA
100
AcDbLine
 10
8339.441991943825
 20
2076.687620730211
 30
0.0
 11
8339.443842997006
 21
2076.687620730211
 31
0.0
  0
LINE
  5
2AB4
330
1F
100
AcDbEntity
  8
SANINDUSA
100
AcDbLine
 10
8339.444961943824
 20
2076.688259730211
 30
0.0
 11
8339.445600943824
 21
2076.688898730211
 31
0.0
  0
LINE
  5
2AB5
330
1F
100
AcDbEntity
  8
SANINDUSA
100
AcDbLine
 10
8339.444961943824
 20
2076.688898730211
 30
0.0
 11
8339.444961943824
 21
2076.688259730211
 31
0.0
  0
LINE
  5
2AB6
330
1F
100
AcDbEntity
  8
SANINDUSA
100
AcDbLine
 10
8339.445600943824
 20
2076.688898730211
 30
0.0
 11
8339.445600943824
 21
2076.687620730211
 31
0.0
  0
LINE
  5
2AB7
330
1F
100
AcDbEntity
  8
SANINDUSA
100
AcDbLine
 10
8339.445600943824
 20
2076.687620730211
 30
0.0
 11
8339.444961943824
 21
2076.688259730211
 31
0.0
  0
LINE
  5
2AB8
330
1F
100
AcDbEntity
  8
SANINDUSA
100
AcDbLine
 10
8339.444961943824
 20
2076.688259730211
 30
0.0
 11
8339.444961943824
 21
2076.687620730211
 31
0.0
  0
LINE
  5
2AB9
330
1F
100
AcDbEntity
  8
SANINDUSA
100
AcDbLine
 10
8339.444322943824
 20
2076.688898730211
 30
0.0
 11
8339.444961943824
 21
2076.688259730211
 31
0.0
  0
LINE
  5
2ABA
330
1F
100
AcDbEntity
  8
SANINDUSA
100
AcDbLine
 10
8339.444961943824
 20
2076.688259730211
 30
0.0
 11
8339.444322943824
 21
2076.687620730211
 31
0.0
  0
LINE
  5
2ABB
330
1F
100
AcDbEntity
  8
SANINDUSA
100
AcDbLine
 10
8339.441991943825
 20
2076.688898730211
 30
0.0
 11
8339.441991943825
 21
2076.687620730211
 31
0.0
  0
LINE
  5
2ABC
330
1F
100
AcDbEntity
  8
SANINDUSA
100
AcDbLine
 10
8339.444322943824
 20
2076.687620730211
 30
0.0
 11
8339.444322943824
 21
2076.688898730211
 31
0.0
  0
LINE
  5
2ABD
330
1F
100
AcDbEntity
  8
SANINDUSA
100
AcDbLine
 10
8339.445600943824
 20
2076.68528973021
 30
0.0
 11
8339.445600943824
 21
2076.687140783394
 31
0.0
  0
LINE
  5
2ABE
330
1F
100
AcDbEntity
  8
SANINDUSA
100
AcDbLine
 10
8339.444961943824
 20
2076.688259730211
 30
0.0
 11
8339.444322943824
 21
2076.688259730211
 31
0.0
  0
LINE
  5
2ABF
330
1F
100
AcDbEntity
  8
SANINDUSA
100
AcDbLine
 10
8339.444322943824
 20
2076.68528973021
 30
0.0
 11
8339.445600943824
 21
2076.68528973021
 31
0.0
  0
LINE
  5
2AC0
330
1F
100
AcDbEntity
  8
SANINDUSA
100
AcDbLine
 10
8339.445600943824
 20
2076.688259730211
 30
0.0
 11
8339.444961943824
 21
2076.688259730211
 31
0.0
  0
LINE
  5
2AC1
330
1F
100
AcDbEntity
  8
SANINDUSA
100
AcDbLine
 10
8339.444322943824
 20
2076.691229730211
 30
0.0
 11
8339.444322943824
 21
2076.689378677028
 31
0.0
  0
LINE
  5
2AC2
330
1F
100
AcDbEntity
  8
SANINDUSA
100
AcDbLine
 10
8339.445600943824
 20
2076.691229730211
 30
0.0
 11
8339.444322943824
 21
2076.691229730211
 31
0.0
  0
LINE
  5
2AC3
330
1F
100
AcDbEntity
  8
SANINDUSA
100
AcDbLine
 10
8339.447931943823
 20
2076.687620730211
 30
0.0
 11
8339.447931943823
 21
2076.688898730211
 31
0.0
  0
LINE
  5
2AC4
330
1F
100
AcDbEntity
  8
SANINDUSA
100
AcDbLine
 10
8339.443194176871
 20
2076.675178254759
 30
0.0
 11
8339.447703322127
 21
2076.679687400014
 31
0.0
  0
LINE
  5
2AC5
330
1F
100
AcDbEntity
  8
SANINDUSA
100
AcDbLine
 10
8339.429961943825
 20
2076.710509730211
 30
0.0
 11
8339.459961943823
 21
2076.710509730211
 31
0.0
  0
LINE
  5
2AC6
330
1F
100
AcDbEntity
  8
SANINDUSA
100
AcDbLine
 10
8339.457961943825
 20
2076.705509730211
 30
0.0
 11
8339.431961943825
 21
2076.705509730211
 31
0.0
  0
LINE
  5
2AC7
330
1F
100
AcDbEntity
  8
SANINDUSA
100
AcDbLine
 10
8339.429961943825
 20
2076.707509730211
 30
0.0
 11
8339.429961943825
 21
2076.710509730211
 31
0.0
  0
ARC
  5
2AC8
330
1F
100
AcDbEntity
  8
SANINDUSA
100
AcDbCircle
 10
8339.431961943825
 20
2076.707509730211
 30
0.0
 40
0.002
100
AcDbArc
 50
180.0
 51
270.0
  0
ARC
  5
2AC9
330
1F
100
AcDbEntity
  8
SANINDUSA
100
AcDbCircle
 10
8339.457961943825
 20
2076.707509730211
 30
0.0
 40
0.002
100
AcDbArc
 50
270.0
 51
0.0
  0
LINE
  5
2ACA
330
1F
100
AcDbEntity
  8
SANINDUSA
100
AcDbLine
 10
8339.459961943823
 20
2076.710509730211
 30
0.0
 11
8339.459961943823
 21
2076.707509730211
 31
0.0
  0
LINE
  5
2ACB
330
1F
100
AcDbEntity
  8
SANINDUSA
100
AcDbLine
 10
8339.231062142514
 20
2076.465167540746
 30
0.0
 11
8339.437183769231
 21
2076.671289167463
 31
0.0
  0
LINE
  5
2ACC
330
1F
100
AcDbEntity
  8
SANINDUSA
100
AcDbLine
 10
8339.221869754359
 20
2076.474359928902
 30
0.0
 11
8339.427991381075
 21
2076.680481555618
 31
0.0
  0
LINE
  5
2ACD
330
1F
100
AcDbEntity
  8
SANINDUSA
100
AcDbLine
 10
8339.204020927384
 20
2076.445736284005
 30
0.0
 11
8339.203681553733
 21
2076.446075657654
 31
0.0
  0
LINE
  5
2ACE
330
1F
100
AcDbEntity
  8
SANINDUSA
100
AcDbLine
 10
8339.205747871266
 20
2076.446075657654
 30
0.0
 11
8339.204020927384
 21
2076.445736284005
 31
0.0
  0
LINE
  5
2ACF
330
1F
100
AcDbEntity
  8
SANINDUSA
100
AcDbLine
 10
8339.220809094188
 20
2076.452793172075
 30
0.0
 11
8339.211350201464
 21
2076.443334279352
 31
0.0
  0
LINE
  5
2AD0
330
1F
100
AcDbEntity
  8
SANINDUSA
100
AcDbLine
 10
8339.2032297125
 20
2076.445623816421
 30
0.0
 11
8339.202777871268
 21
2076.446075657654
 31
0.0
  0
LINE
  5
2AD1
330
1F
100
AcDbEntity
  8
SANINDUSA
100
AcDbLine
 10
8339.202326030033
 20
2076.445623816421
 30
0.0
 11
8339.202777871268
 21
2076.446075657654
 31
0.0
  0
LINE
  5
2AD2
330
1F
100
AcDbEntity
  8
SANINDUSA
100
AcDbLine
 10
8339.202777871268
 20
2076.446075657654
 30
0.0
 11
8339.202777871268
 21
2076.445171975188
 31
0.0
  0
LINE
  5
2AD3
330
1F
100
AcDbEntity
  8
SANINDUSA
100
AcDbLine
 10
8339.202777871268
 20
2076.445171975188
 30
0.0
 11
8339.2018741888
 21
2076.446075657654
 31
0.0
  0
LINE
  5
2AD4
330
1F
100
AcDbEntity
  8
SANINDUSA
100
AcDbLine
 10
8339.2018741888
 20
2076.446075657654
 30
0.0
 11
8339.201534815153
 21
2076.445736284005
 31
0.0
  0
LINE
  5
2AD5
330
1F
100
AcDbEntity
  8
SANINDUSA
100
AcDbLine
 10
8339.201534815153
 20
2076.445736284005
 30
0.0
 11
8339.199807871267
 21
2076.446075657654
 31
0.0
  0
ARC
  5
2AD6
330
1F
100
AcDbEntity
  8
SANINDUSA
100
AcDbCircle
 10
8339.202777871268
 20
2076.446075657654
 30
0.0
 40
0.009
100
AcDbArc
 50
270.0
 51
90.0
  0
CIRCLE
  5
2AD7
330
1F
100
AcDbEntity
  8
SANINDUSA
100
AcDbCircle
 10
8339.202777871268
 20
2076.446075657654
 30
0.0
 40
0.005085
  0
LINE
  5
2AD8
330
1F
100
AcDbEntity
  8
SANINDUSA
100
AcDbLine
 10
8339.202777871268
 20
2076.445171975188
 30
0.0
 11
8339.203681553733
 21
2076.446075657654
 31
0.0
  0
LINE
  5
2AD9
330
1F
100
AcDbEntity
  8
SANINDUSA
100
AcDbLine
 10
8339.202777871268
 20
2076.437075657655
 30
0.0
 11
8339.185527871268
 21
2076.437075657655
 31
0.0
  0
LINE
  5
2ADA
330
1F
100
AcDbEntity
  8
SANINDUSA
100
AcDbLine
 10
8339.205329819639
 20
2076.444427391748
 30
0.0
 11
8339.204426137174
 21
2076.443523709281
 31
0.0
  0
LINE
  5
2ADB
330
1F
100
AcDbEntity
  8
SANINDUSA
100
AcDbLine
 10
8339.204020927384
 20
2076.445736284005
 30
0.0
 11
8339.205329819639
 21
2076.444427391748
 31
0.0
  0
LINE
  5
2ADC
330
1F
100
AcDbEntity
  8
SANINDUSA
100
AcDbLine
 10
8339.201129605362
 20
2076.443523709281
 30
0.0
 11
8339.200225922894
 21
2076.444427391748
 31
0.0
  0
LINE
  5
2ADD
330
1F
100
AcDbEntity
  8
SANINDUSA
100
AcDbLine
 10
8339.200225922894
 20
2076.444427391748
 30
0.0
 11
8339.201534815153
 21
2076.445736284005
 31
0.0
  0
LINE
  5
2ADE
330
1F
100
AcDbEntity
  8
SANINDUSA
100
AcDbLine
 10
8339.20243849762
 20
2076.444832601539
 30
0.0
 11
8339.201129605362
 21
2076.443523709281
 31
0.0
  0
LINE
  5
2ADF
330
1F
100
AcDbEntity
  8
SANINDUSA
100
AcDbLine
 10
8339.202777871268
 20
2076.445171975188
 30
0.0
 11
8339.203117244917
 21
2076.444832601539
 31
0.0
  0
LINE
  5
2AE0
330
1F
100
AcDbEntity
  8
SANINDUSA
100
AcDbLine
 10
8339.203117244917
 20
2076.444832601539
 30
0.0
 11
8339.202777871268
 21
2076.443105657654
 31
0.0
  0
LINE
  5
2AE1
330
1F
100
AcDbEntity
  8
SANINDUSA
100
AcDbLine
 10
8339.20243849762
 20
2076.444832601539
 30
0.0
 11
8339.202777871268
 21
2076.445171975188
 31
0.0
  0
LINE
  5
2AE2
330
1F
100
AcDbEntity
  8
SANINDUSA
100
AcDbLine
 10
8339.202777871268
 20
2076.443105657654
 30
0.0
 11
8339.202777871268
 21
2076.445171975188
 31
0.0
  0
LINE
  5
2AE3
330
1F
100
AcDbEntity
  8
SANINDUSA
100
AcDbLine
 10
8339.202777871268
 20
2076.443105657654
 30
0.0
 11
8339.20243849762
 21
2076.444832601539
 31
0.0
  0
LINE
  5
2AE4
330
1F
100
AcDbEntity
  8
SANINDUSA
100
AcDbLine
 10
8339.204426137174
 20
2076.443523709281
 30
0.0
 11
8339.203117244917
 21
2076.444832601539
 31
0.0
  0
LINE
  5
2AE5
330
1F
100
AcDbEntity
  8
SANINDUSA
100
AcDbLine
 10
8339.204545638221
 20
2076.459157133106
 30
0.0
 11
8339.215859346721
 21
2076.447843424607
 31
0.0
  0
LINE
  5
2AE6
330
1F
100
AcDbEntity
  8
SANINDUSA
100
AcDbLine
 10
8339.209495385688
 20
2076.464106880575
 30
0.0
 11
8339.200464162768
 21
2076.455075657654
 31
0.0
  0
LINE
  5
2AE7
330
1F
100
AcDbEntity
  8
SANINDUSA
100
AcDbLine
 10
8339.202777871268
 20
2076.455075657654
 30
0.0
 11
8339.185527871268
 21
2076.455075657654
 31
0.0
  0
LINE
  5
2AE8
330
1F
100
AcDbEntity
  8
SANINDUSA
100
AcDbLine
 10
8339.204426137174
 20
2076.448627606028
 30
0.0
 11
8339.205329819639
 21
2076.447723923561
 31
0.0
  0
LINE
  5
2AE9
330
1F
100
AcDbEntity
  8
SANINDUSA
100
AcDbLine
 10
8339.205329819639
 20
2076.447723923561
 30
0.0
 11
8339.204020927384
 21
2076.446415031304
 31
0.0
  0
LINE
  5
2AEA
330
1F
100
AcDbEntity
  8
SANINDUSA
100
AcDbLine
 10
8339.203681553733
 20
2076.446075657654
 30
0.0
 11
8339.204020927384
 21
2076.446415031304
 31
0.0
  0
LINE
  5
2AEB
330
1F
100
AcDbEntity
  8
SANINDUSA
100
AcDbLine
 10
8339.204020927384
 20
2076.446415031304
 30
0.0
 11
8339.205747871266
 21
2076.446075657654
 31
0.0
  0
LINE
  5
2AEC
330
1F
100
AcDbEntity
  8
SANINDUSA
100
AcDbLine
 10
8339.205747871266
 20
2076.446075657654
 30
0.0
 11
8339.203681553733
 21
2076.446075657654
 31
0.0
  0
LINE
  5
2AED
330
1F
100
AcDbEntity
  8
SANINDUSA
100
AcDbLine
 10
8339.202777871268
 20
2076.446075657654
 30
0.0
 11
8339.202326030033
 21
2076.446527498887
 31
0.0
  0
LINE
  5
2AEE
330
1F
100
AcDbEntity
  8
SANINDUSA
100
AcDbLine
 10
8339.202777871268
 20
2076.446979340121
 30
0.0
 11
8339.2018741888
 21
2076.446075657654
 31
0.0
  0
LINE
  5
2AEF
330
1F
100
AcDbEntity
  8
SANINDUSA
100
AcDbLine
 10
8339.200225922894
 20
2076.447723923561
 30
0.0
 11
8339.201129605362
 21
2076.448627606028
 31
0.0
  0
LINE
  5
2AF0
330
1F
100
AcDbEntity
  8
SANINDUSA
100
AcDbLine
 10
8339.202777871268
 20
2076.446075657654
 30
0.0
 11
8339.202777871268
 21
2076.446979340121
 31
0.0
  0
LINE
  5
2AF1
330
1F
100
AcDbEntity
  8
SANINDUSA
100
AcDbLine
 10
8339.2018741888
 20
2076.446075657654
 30
0.0
 11
8339.202777871268
 21
2076.446075657654
 31
0.0
  0
LINE
  5
2AF2
330
1F
100
AcDbEntity
  8
SANINDUSA
100
AcDbLine
 10
8339.202777871268
 20
2076.446075657654
 30
0.0
 11
8339.2032297125
 21
2076.446527498887
 31
0.0
  0
LINE
  5
2AF3
330
1F
100
AcDbEntity
  8
SANINDUSA
100
AcDbLine
 10
8339.201129605362
 20
2076.448627606028
 30
0.0
 11
8339.20243849762
 21
2076.447318713769
 31
0.0
  0
LINE
  5
2AF4
330
1F
100
AcDbEntity
  8
SANINDUSA
100
AcDbLine
 10
8339.201534815153
 20
2076.446415031304
 30
0.0
 11
8339.200225922894
 21
2076.447723923561
 31
0.0
  0
LINE
  5
2AF5
330
1F
100
AcDbEntity
  8
SANINDUSA
100
AcDbLine
 10
8339.202777871268
 20
2076.446979340121
 30
0.0
 11
8339.20243849762
 21
2076.447318713769
 31
0.0
  0
LINE
  5
2AF6
330
1F
100
AcDbEntity
  8
SANINDUSA
100
AcDbLine
 10
8339.20243849762
 20
2076.447318713769
 30
0.0
 11
8339.202777871268
 21
2076.449045657654
 31
0.0
  0
LINE
  5
2AF7
330
1F
100
AcDbEntity
  8
SANINDUSA
100
AcDbLine
 10
8339.203117244917
 20
2076.447318713769
 30
0.0
 11
8339.202777871268
 21
2076.446979340121
 31
0.0
  0
LINE
  5
2AF8
330
1F
100
AcDbEntity
  8
SANINDUSA
100
AcDbLine
 10
8339.202777871268
 20
2076.449045657654
 30
0.0
 11
8339.202777871268
 21
2076.446979340121
 31
0.0
  0
LINE
  5
2AF9
330
1F
100
AcDbEntity
  8
SANINDUSA
100
AcDbLine
 10
8339.202777871268
 20
2076.449045657654
 30
0.0
 11
8339.203117244917
 21
2076.447318713769
 31
0.0
  0
LINE
  5
2AFA
330
1F
100
AcDbEntity
  8
SANINDUSA
100
AcDbLine
 10
8339.201534815153
 20
2076.446415031304
 30
0.0
 11
8339.2018741888
 21
2076.446075657654
 31
0.0
  0
LINE
  5
2AFB
330
1F
100
AcDbEntity
  8
SANINDUSA
100
AcDbLine
 10
8339.199807871267
 20
2076.446075657654
 30
0.0
 11
8339.2018741888
 21
2076.446075657654
 31
0.0
  0
LINE
  5
2AFC
330
1F
100
AcDbEntity
  8
SANINDUSA
100
AcDbLine
 10
8339.199807871267
 20
2076.446075657654
 30
0.0
 11
8339.201534815153
 21
2076.446415031304
 31
0.0
  0
LINE
  5
2AFD
330
1F
100
AcDbEntity
  8
SANINDUSA
100
AcDbLine
 10
8339.203681553733
 20
2076.446075657654
 30
0.0
 11
8339.202777871268
 21
2076.446075657654
 31
0.0
  0
LINE
  5
2AFE
330
1F
100
AcDbEntity
  8
SANINDUSA
100
AcDbLine
 10
8339.202777871268
 20
2076.446979340121
 30
0.0
 11
8339.203681553733
 21
2076.446075657654
 31
0.0
  0
LINE
  5
2AFF
330
1F
100
AcDbEntity
  8
SANINDUSA
100
AcDbLine
 10
8339.203117244917
 20
2076.447318713769
 30
0.0
 11
8339.204426137174
 21
2076.448627606028
 31
0.0
  0
LINE
  5
2B00
330
1F
100
AcDbEntity
  8
SANINDUSA
100
AcDbLine
 10
8339.220809094188
 20
2076.475420589074
 30
0.0
 11
8339.232122802687
 21
2076.464106880575
 31
0.0
  0
LINE
  5
2B01
330
1F
100
AcDbEntity
  8
SANINDUSA
100
AcDbLine
 10
8339.220809094188
 20
2076.475420589074
 30
0.0
 11
8339.21090959925
 21
2076.465521094137
 31
0.0
  0
LINE
  5
2B02
330
1F
100
AcDbEntity
  8
SANINDUSA
100
AcDbLine
 10
8339.232122802687
 20
2076.464106880575
 30
0.0
 11
8339.22222330775
 21
2076.454207385638
 31
0.0
  0
LINE
  5
2B03
330
1F
100
AcDbEntity
  8
SANINDUSA
100
AcDbLine
 10
8339.211263152641
 20
2076.462339113621
 30
0.0
 11
8339.212677366203
 21
2076.463753327184
 31
0.0
  0
LINE
  5
2B04
330
1F
100
AcDbEntity
  8
SANINDUSA
100
AcDbLine
 10
8339.219041327234
 20
2076.454560939029
 30
0.0
 11
8339.220455540797
 21
2076.455975152591
 31
0.0
  0
LINE
  5
2B05
330
1F
100
AcDbEntity
  8
SANINDUSA
100
AcDbLine
 10
8339.21090959925
 20
2076.465521094137
 30
0.0
 11
8339.22222330775
 21
2076.454207385638
 31
0.0
  0
LINE
  5
2B06
330
1F
100
AcDbEntity
  8
SANINDUSA
100
AcDbLine
 10
8339.209495385688
 20
2076.464106880575
 30
0.0
 11
8339.220809094188
 21
2076.452793172075
 31
0.0
  0
LINE
  5
2B07
330
1F
100
AcDbEntity
  8
SANINDUSA
100
AcDbLine
 10
8339.167527871268
 20
2076.468575657654
 30
0.0
 11
8339.167527871268
 21
2076.423575657655
 31
0.0
  0
LINE
  5
2B08
330
1F
100
AcDbEntity
  8
SANINDUSA
100
AcDbLine
 10
8339.185527871268
 20
2076.468575657654
 30
0.0
 11
8339.185527871268
 21
2076.423575657655
 31
0.0
  0
LINE
  5
2B09
330
1F
100
AcDbEntity
  8
SANINDUSA
100
AcDbLine
 10
8339.185527871268
 20
2076.423575657655
 30
0.0
 11
8339.167527871268
 21
2076.423575657655
 31
0.0
  0
LINE
  5
2B0A
330
1F
100
AcDbEntity
  8
SANINDUSA
100
AcDbLine
 10
8339.185527871268
 20
2076.468575657654
 30
0.0
 11
8339.167527871268
 21
2076.468575657654
 31
0.0
  0
LINE
  5
2B0B
330
1F
100
AcDbEntity
  8
SANINDUSA
100
AcDbLine
 10
8339.177627871269
 20
2076.666137706451
 30
-0.0000000000076263
 11
8339.177627871269
 21
2076.043282861958
 31
-0.0000000000076263
  0
LINE
  5
2B0C
330
1F
100
AcDbEntity
  8
SANINDUSA
100
AcDbLine
 10
8339.183627871268
 20
2076.666137706451
 30
-0.0000000000076263
 11
8339.183627871268
 21
2076.043282861958
 31
-0.0000000000076263
  0
LINE
  5
2B0D
330
1F
100
AcDbEntity
  8
SANINDUSA
100
AcDbLine
 10
8339.177627871269
 20
2076.666137706451
 30
-0.0000000000076263
 11
8339.183627871268
 21
2076.666137706451
 31
-0.0000000000076263
  0
LINE
  5
2B0E
330
1F
100
AcDbEntity
  8
SANINDUSA
100
AcDbLine
 10
8339.183807187492
 20
2076.055282861958
 30
0.0000000001479285
 11
8339.183327875076
 21
2076.055282861958
 31
0.0000000001479285
  0
LINE
  5
2B0F
330
1F
100
AcDbEntity
  8
SANINDUSA
100
AcDbLine
 10
8339.183758350086
 20
2076.052782861958
 30
0.0000000001479285
 11
8339.183362758694
 21
2076.052723638227
 31
0.0000000001479285
  0
ARC
  5
2B10
330
1F
100
AcDbEntity
  8
SANINDUSA
100
AcDbCircle
 10
8339.183807187492
 20
2076.054482861958
 30
0.0000000001479285
 40
0.0008
100
AcDbArc
 50
8.514478416272705
 51
90.0
  0
ARC
  5
2B11
330
1F
100
AcDbEntity
  8
SANINDUSA
100
AcDbCircle
 10
8339.182151116331
 20
2076.052036671862
 30
0.0000000001479285
 40
0.0002
100
AcDbArc
 50
98.51447844589834
 51
278.5144784458983
  0
LINE
  5
2B12
330
1F
100
AcDbEntity
  8
SANINDUSA
100
AcDbLine
 10
8339.178224568621
 20
2076.05493844416
 30
0.0000000001479285
 11
8339.177892991463
 21
2076.052723638227
 31
0.0000000001479285
  0
ARC
  5
2B13
330
1F
100
AcDbEntity
  8
SANINDUSA
100
AcDbCircle
 10
8339.179104633823
 20
2076.052036671862
 30
0.0000000001479285
 40
0.0002
100
AcDbArc
 50
261.4855215541017
 51
81.48552155410166
  0
LINE
  5
2B14
330
1F
100
AcDbEntity
  8
SANINDUSA
100
AcDbLine
 10
8339.17749740007
 20
2076.052782861958
 30
0.0000000001479285
 11
8339.177892991463
 21
2076.052723638227
 31
0.0000000001479285
  0
ARC
  5
2B15
330
1F
100
AcDbEntity
  8
SANINDUSA
100
AcDbCircle
 10
8339.177927875075
 20
2076.054982861958
 30
0.0000000001479285
 40
0.0003
100
AcDbArc
 50
351.4855215837273
 51
90.0
  0
ARC
  5
2B16
330
1F
100
AcDbEntity
  8
SANINDUSA
100
AcDbCircle
 10
8339.183327875076
 20
2076.054982861958
 30
0.0000000001479285
 40
0.0003
100
AcDbArc
 50
90.0
 51
188.5144784162727
  0
LINE
  5
2B17
330
1F
100
AcDbEntity
  8
SANINDUSA
100
AcDbLine
 10
8339.183031181532
 20
2076.05493844416
 30
0.0000000001479285
 11
8339.183362758694
 21
2076.052723638227
 31
0.0000000001479285
  0
LINE
  5
2B18
330
1F
100
AcDbEntity
  8
SANINDUSA
100
AcDbLine
 10
8339.183861991614
 20
2076.052090577022
 30
0.0000000001479285
 11
8339.182180728196
 21
2076.051838876165
 31
0.0000000001479285
  0
LINE
  5
2B19
330
1F
100
AcDbEntity
  8
SANINDUSA
100
AcDbLine
 10
8339.183802767884
 20
2076.052486168414
 30
0.0000000001479285
 11
8339.182121504466
 21
2076.052234467558
 31
0.0000000001479285
  0
LINE
  5
2B1A
330
1F
100
AcDbEntity
  8
SANINDUSA
100
AcDbLine
 10
8339.184180319168
 20
2076.049964273288
 30
0.0000000001479285
 11
8339.183784727776
 21
2076.049905049556
 31
0.0000000001479285
  0
ARC
  5
2B1B
330
1F
100
AcDbEntity
  8
SANINDUSA
100
AcDbCircle
 10
8339.184427875078
 20
2076.043582861958
 30
0.0000000001479285
 40
0.0003
100
AcDbArc
 50
270.0
 51
8.514478416272705
  0
ARC
  5
2B1C
330
1F
100
AcDbEntity
  8
SANINDUSA
100
AcDbCircle
 10
8339.185327875076
 20
2076.044325262787
 30
0.0000000001479285
 40
0.0008
100
AcDbArc
 50
0.0
 51
8.514478416272705
  0
LINE
  5
2B1D
330
1F
100
AcDbEntity
  8
SANINDUSA
100
AcDbLine
 10
8339.184551567159
 20
2076.044782861958
 30
0.0000000001479285
 11
8339.184724568621
 21
2076.043627279756
 31
0.0000000001479285
  0
LINE
  5
2B1E
330
1F
100
AcDbEntity
  8
SANINDUSA
100
AcDbLine
 10
8339.184551567159
 20
2076.044782861958
 30
0.0000000001479285
 11
8339.183727875077
 21
2076.044782861958
 31
0.0000000001479285
  0
LINE
  5
2B1F
330
1F
100
AcDbEntity
  8
SANINDUSA
100
AcDbLine
 10
8339.183727875077
 20
2076.044782861958
 30
0.0000000001479285
 11
8339.183727875077
 21
2076.045982861958
 31
0.0000000001479285
  0
LINE
  5
2B20
330
1F
100
AcDbEntity
  8
SANINDUSA
100
AcDbLine
 10
8339.184371915937
 20
2076.045982861958
 30
0.0000000001479285
 11
8339.183727875077
 21
2076.045982861958
 31
0.0000000001479285
  0
LINE
  5
2B21
330
1F
100
AcDbEntity
  8
SANINDUSA
100
AcDbLine
 10
8339.183784727776
 20
2076.049905049556
 30
0.0000000001479285
 11
8339.184371915937
 21
2076.045982861958
 31
0.0000000001479285
  0
LINE
  5
2B22
330
1F
100
AcDbEntity
  8
SANINDUSA
100
AcDbLine
 10
8339.177527875078
 20
2076.044782861958
 30
0.0000000001479285
 11
8339.177527875078
 21
2076.045982861958
 31
0.0000000001479285
  0
LINE
  5
2B23
330
1F
100
AcDbEntity
  8
SANINDUSA
100
AcDbLine
 10
8339.184598370277
 20
2076.05460130942
 30
0.0000000001479285
 11
8339.186119057862
 21
2076.044443710249
 31
0.0000000001479285
  0
LINE
  5
2B24
330
1F
100
AcDbEntity
  8
SANINDUSA
100
AcDbLine
 10
8339.183758350086
 20
2076.052782861958
 30
0.0000000001479285
 11
8339.184180319168
 21
2076.049964273288
 31
0.0000000001479285
  0
ARC
  5
2B25
330
1F
100
AcDbEntity
  8
SANINDUSA
100
AcDbCircle
 10
8339.177448562663
 20
2076.054482861958
 30
0.0000000001479285
 40
0.0008
100
AcDbArc
 50
90.0
 51
171.4855215837273
  0
LINE
  5
2B26
330
1F
100
AcDbEntity
  8
SANINDUSA
100
AcDbLine
 10
8339.177075430987
 20
2076.049964273288
 30
0.0000000001479285
 11
8339.177471022379
 21
2076.049905049556
 31
0.0000000001479285
  0
ARC
  5
2B27
330
1F
100
AcDbEntity
  8
SANINDUSA
100
AcDbCircle
 10
8339.176827875077
 20
2076.043582861958
 30
0.0000000001479285
 40
0.0003
100
AcDbArc
 50
171.4855215837273
 51
270.0
  0
ARC
  5
2B28
330
1F
100
AcDbEntity
  8
SANINDUSA
100
AcDbCircle
 10
8339.175927875078
 20
2076.044325262787
 30
0.0000000001479285
 40
0.0008
100
AcDbArc
 50
171.4855215837273
 51
180.0
  0
LINE
  5
2B29
330
1F
100
AcDbEntity
  8
SANINDUSA
100
AcDbLine
 10
8339.176531181532
 20
2076.043627279756
 30
0.0000000001479285
 11
8339.176704182994
 21
2076.044782861958
 31
0.0000000001479285
  0
LINE
  5
2B2A
330
1F
100
AcDbEntity
  8
SANINDUSA
100
AcDbLine
 10
8339.177471022379
 20
2076.049905049556
 30
0.0000000001479285
 11
8339.176883834216
 21
2076.045982861958
 31
0.0000000001479285
  0
LINE
  5
2B2B
330
1F
100
AcDbEntity
  8
SANINDUSA
100
AcDbLine
 10
8339.175136692293
 20
2076.044443710249
 30
0.0000000001479285
 11
8339.176657379878
 21
2076.05460130942
 31
0.0000000001479285
  0
LINE
  5
2B2C
330
1F
100
AcDbEntity
  8
SANINDUSA
100
AcDbLine
 10
8339.184427875078
 20
2076.043282861958
 30
0.0000000001479285
 11
8339.176827875077
 21
2076.043282861958
 31
0.0000000001479285
  0
LINE
  5
2B2D
330
1F
100
AcDbEntity
  8
SANINDUSA
100
AcDbLine
 10
8339.177927875075
 20
2076.055282861958
 30
0.0000000001479285
 11
8339.177448562663
 21
2076.055282861958
 31
0.0000000001479285
  0
LINE
  5
2B2E
330
1F
100
AcDbEntity
  8
SANINDUSA
100
AcDbLine
 10
8339.177527875078
 20
2076.045982861958
 30
0.0000000001479285
 11
8339.176883834216
 21
2076.045982861958
 31
0.0000000001479285
  0
LINE
  5
2B2F
330
1F
100
AcDbEntity
  8
SANINDUSA
100
AcDbLine
 10
8339.177527875078
 20
2076.044782861958
 30
0.0000000001479285
 11
8339.176704182994
 21
2076.044782861958
 31
0.0000000001479285
  0
LINE
  5
2B30
330
1F
100
AcDbEntity
  8
SANINDUSA
100
AcDbLine
 10
8339.17749740007
 20
2076.052782861958
 30
0.0000000001479285
 11
8339.177075430987
 21
2076.049964273288
 31
0.0000000001479285
  0
LINE
  5
2B31
330
1F
100
AcDbEntity
  8
SANINDUSA
100
AcDbLine
 10
8339.177452982271
 20
2076.052486168414
 30
0.0000000001479285
 11
8339.179134245689
 21
2076.052234467558
 31
0.0000000001479285
  0
LINE
  5
2B32
330
1F
100
AcDbEntity
  8
SANINDUSA
100
AcDbLine
 10
8339.177393758539
 20
2076.052090577022
 30
0.0000000001479285
 11
8339.179075021958
 21
2076.051838876165
 31
0.0000000001479285
  0
LINE
  5
2B33
330
1F
100
AcDbEntity
  8
SANINDUSA
100
AcDbLine
 10
8339.186127875077
 20
2076.041782861958
 30
0.0000000001479285
 11
8339.186127875077
 21
2076.039525502645
 31
0.0000000001479285
  0
ARC
  5
2B34
330
1F
100
AcDbEntity
  8
SANINDUSA
100
AcDbCircle
 10
8339.184127875077
 20
2076.040782861958
 30
0.0000000001479285
 40
0.001
100
AcDbArc
 50
0.0
 51
90.0
  0
ARC
  5
2B35
330
1F
100
AcDbEntity
  8
SANINDUSA
100
AcDbCircle
 10
8339.18477785394
 20
2076.039513080855
 30
0.0000000001479285
 40
0.00075
100
AcDbArc
 50
359.8050089055599
 51
42.83224052300503
  0
ARC
  5
2B36
330
1F
100
AcDbEntity
  8
SANINDUSA
100
AcDbCircle
 10
8339.185877875078
 20
2076.040532861957
 30
0.0000000001479285
 40
0.00075
100
AcDbArc
 50
180.0
 51
222.832240523005
  0
LINE
  5
2B37
330
1F
100
AcDbEntity
  8
SANINDUSA
100
AcDbLine
 10
8339.185127875076
 20
2076.040532861957
 30
0.0000000001479285
 11
8339.185127875076
 21
2076.040782861958
 31
0.0000000001479285
  0
LINE
  5
2B38
330
1F
100
AcDbEntity
  8
SANINDUSA
100
AcDbLine
 10
8339.183692519737
 20
2076.035867607632
 30
0.0000000001479285
 11
8339.184239144913
 21
2076.036414232808
 31
0.0000000001479285
  0
ARC
  5
2B39
330
1F
100
AcDbEntity
  8
SANINDUSA
100
AcDbCircle
 10
8339.183197544992
 20
2076.035301922208
 30
0.0000000001479285
 40
0.0002
100
AcDbArc
 50
314.9999999631526
 51
44.99999987103382
  0
ARC
  5
2B3A
330
1F
100
AcDbEntity
  8
SANINDUSA
100
AcDbCircle
 10
8339.181127875077
 20
2076.039525502645
 30
0.0000000001479285
 40
0.005
100
AcDbArc
 50
315.0
 51
0.0
  0
ARC
  5
2B3B
330
1F
100
AcDbEntity
  8
SANINDUSA
100
AcDbCircle
 10
8339.181127875077
 20
2076.039525502645
 30
0.0000000001479285
 40
0.0044
100
AcDbArc
 50
315.0
 51
359.8050089055599
  0
ARC
  5
2B3C
330
1F
100
AcDbEntity
  8
SANINDUSA
100
AcDbCircle
 10
8339.181606554742
 20
2076.036468648395
 30
0.0000000001479285
 40
0.00075
100
AcDbArc
 50
45.0
 51
135.0000000184237
  0
ARC
  5
2B3D
330
1F
100
AcDbEntity
  8
SANINDUSA
100
AcDbCircle
 10
8339.181606554742
 20
2076.036468648395
 30
0.0000000001479285
 40
0.0005
100
AcDbArc
 50
45.0
 51
135.0000000184237
  0
ARC
  5
2B3E
330
1F
100
AcDbEntity
  8
SANINDUSA
100
AcDbCircle
 10
8339.183480387704
 20
2076.036079739667
 30
0.0000000001479285
 40
0.0003
100
AcDbArc
 50
224.9999998710338
 51
315.0
  0
LINE
  5
2B3F
330
1F
100
AcDbEntity
  8
SANINDUSA
100
AcDbLine
 10
8339.18390465177
 20
2076.035231211528
 30
0.0000000001479285
 11
8339.182136884828
 21
2076.03699897848
 31
0.0000000001479285
  0
LINE
  5
2B40
330
1F
100
AcDbEntity
  8
SANINDUSA
100
AcDbLine
 10
8339.183338966348
 20
2076.035443343564
 30
0.0000000001479285
 11
8339.181960108133
 21
2076.036822201785
 31
0.0000000001479285
  0
ARC
  5
2B41
330
1F
100
AcDbEntity
  8
SANINDUSA
100
AcDbCircle
 10
8339.178106376163
 20
2076.030705728125
 30
0.0000000001479285
 40
0.0003
100
AcDbArc
 50
315.0
 51
44.99999998157625
  0
ARC
  5
2B42
330
1F
100
AcDbEntity
  8
SANINDUSA
100
AcDbCircle
 10
8339.178884193609
 20
2076.030988570838
 30
0.0000000001479285
 40
0.0002
100
AcDbArc
 50
224.9999997052201
 51
314.9999999631526
  0
LINE
  5
2B43
330
1F
100
AcDbEntity
  8
SANINDUSA
100
AcDbLine
 10
8339.178117824571
 20
2076.030292912464
 30
0.0000000001479285
 11
8339.178318508196
 21
2076.030493596091
 31
0.0000000001479285
  0
LINE
  5
2B44
330
1F
100
AcDbEntity
  8
SANINDUSA
100
AcDbLine
 10
8339.178542088639
 20
2076.029868648396
 30
0.0000000001479285
 11
8339.184663408984
 21
2076.035989968739
 31
0.0000000001479285
  0
LINE
  5
2B45
330
1F
100
AcDbEntity
  8
SANINDUSA
100
AcDbLine
 10
8339.179025614965
 20
2076.030847149481
 30
0.0000000001479285
 11
8339.183338966346
 21
2076.035160500851
 31
0.0000000001479285
  0
ARC
  5
2B46
330
1F
100
AcDbEntity
  8
SANINDUSA
100
AcDbCircle
 10
8339.177127875077
 20
2076.040782861958
 30
0.0000000001479285
 40
0.001
100
AcDbArc
 50
90.0
 51
180.0
  0
ARC
  5
2B47
330
1F
100
AcDbEntity
  8
SANINDUSA
100
AcDbCircle
 10
8339.176477875076
 20
2076.035763058055
 30
0.0000000001479285
 40
0.00075
100
AcDbArc
 50
137.1665719703978
 51
180.0
  0
ARC
  5
2B48
330
1F
100
AcDbEntity
  8
SANINDUSA
100
AcDbCircle
 10
8339.175377875077
 20
2076.036782861958
 30
0.0000000001479285
 40
0.00075
100
AcDbArc
 50
317.1665719703979
 51
0.0
  0
LINE
  5
2B49
330
1F
100
AcDbEntity
  8
SANINDUSA
100
AcDbLine
 10
8339.176127875076
 20
2076.040782861958
 30
0.0000000001479285
 11
8339.176127875076
 21
2076.036782861958
 31
0.0000000001479285
  0
ARC
  5
2B4A
330
1F
100
AcDbEntity
  8
SANINDUSA
100
AcDbCircle
 10
8339.177717467437
 20
2076.032579561093
 30
0.0000000001479285
 40
0.00075
100
AcDbArc
 50
135.0
 51
225.0
  0
ARC
  5
2B4B
330
1F
100
AcDbEntity
  8
SANINDUSA
100
AcDbCircle
 10
8339.177717467437
 20
2076.032579561093
 30
0.0000000001479285
 40
0.0005
100
AcDbArc
 50
135.0
 51
225.0
  0
LINE
  5
2B4C
330
1F
100
AcDbEntity
  8
SANINDUSA
100
AcDbLine
 10
8339.175127875076
 20
2076.041782861958
 30
0.0000000001479285
 11
8339.175127875076
 21
2076.031282861958
 31
0.0000000001479285
  0
LINE
  5
2B4D
330
1F
100
AcDbEntity
  8
SANINDUSA
100
AcDbLine
 10
8339.175727875078
 20
2076.035763058055
 30
0.0000000001479285
 11
8339.175727875078
 21
2076.031282861958
 31
0.0000000001479285
  0
ARC
  5
2B4E
330
1F
100
AcDbEntity
  8
SANINDUSA
100
AcDbCircle
 10
8339.177127875077
 20
2076.031282861958
 30
0.0000000001479285
 40
0.002
100
AcDbArc
 50
180.0
 51
315.0
  0
LINE
  5
2B4F
330
1F
100
AcDbEntity
  8
SANINDUSA
100
AcDbLine
 10
8339.17718713735
 20
2076.033109891179
 30
0.0000000001479285
 11
8339.181076224654
 21
2076.03699897848
 31
0.0000000001479285
  0
ARC
  5
2B50
330
1F
100
AcDbEntity
  8
SANINDUSA
100
AcDbCircle
 10
8339.177127875077
 20
2076.031282861958
 30
0.0000000001479285
 40
0.0014
100
AcDbArc
 50
180.0
 51
315.0
  0
LINE
  5
2B51
330
1F
100
AcDbEntity
  8
SANINDUSA
100
AcDbLine
 10
8339.178954904301
 20
2076.030281464056
 30
0.0000000001479285
 11
8339.17718713735
 21
2076.032049231007
 31
0.0000000001479285
  0
LINE
  5
2B52
330
1F
100
AcDbEntity
  8
SANINDUSA
100
AcDbLine
 10
8339.184127875077
 20
2076.041782861958
 30
0.0000000001479285
 11
8339.177127875077
 21
2076.041782861958
 31
0.0000000001479285
  0
HATCH
  5
2B53
330
1F
100
AcDbEntity
  8
SANINDUSA
100
AcDbHatch
 10
0.0
 20
0.0
 30
0.0000000001479285
210
0.0
220
0.0
230
1.0
  2
ANSI31
 70
     0
 71
     0
 91
        1
 92
        7
 72
     1
 73
     1
 93
        8
 10
8339.181960108133
 20
2076.036822201785
 42
0.0
 10
8339.183338966348
 20
2076.035443343564
 42
-0.414213562178905
 10
8339.183338966346
 20
2076.035160500851
 42
0.0
 10
8339.179025614965
 20
2076.030847149481
 42
-0.4142135636146872
 10
8339.178742772253
 20
2076.030847149482
 42
0.0
 10
8339.177363914044
 20
2076.032226007705
 42
-0.4142135608152901
 10
8339.177363914046
 20
2076.032933114484
 42
0.0
 10
8339.181253001351
 20
2076.036822201785
 42
-0.4142135628833784
 97
        0
 75
     0
 76
     1
 52
135.0
 41
0.00025
 77
     0
 78
     1
 53
360.0
 43
8338.785355973689
 44
2075.767168327317
 45
0.0
 46
-0.00079375
 79
     0
 47
0.0364805528584695
 98
        1
 10
8339.181481111451
 20
2076.03588338422
  0
LINE
  5
2B54
330
1F
100
AcDbEntity
  8
SANINDUSA
100
AcDbLine
 10
8339.177363914046
 20
2076.032933114484
 30
0.0000000001479285
 11
8339.181253001351
 21
2076.036822201785
 31
0.0000000001479285
  0
LINE
  5
2B55
330
1F
100
AcDbEntity
  8
SANINDUSA
100
AcDbLine
 10
8339.178742772253
 20
2076.030847149482
 30
0.0000000001479285
 11
8339.177363914046
 21
2076.032226007703
 31
0.0000000001479285
  0
LINE
  5
2B56
330
1F
100
AcDbEntity
  8
SANINDUSA
100
AcDbLine
 10
8339.186127875077
 20
2076.041782861958
 30
0.0000000001479285
 11
8339.186127875077
 21
2076.044325262787
 31
0.0000000001479285
  0
LINE
  5
2B57
330
1F
100
AcDbEntity
  8
SANINDUSA
100
AcDbLine
 10
8339.175127875076
 20
2076.041782861958
 30
0.0000000001479285
 11
8339.175127875076
 21
2076.044325262787
 31
0.0000000001479285
  0
LINE
  5
2BDB
330
1F
100
AcDbEntity
  8
SANINDUSA
 48
2.0
100
AcDbLine
 10
8340.265956302202
 20
2076.071604431024
 30
0.0000000001479286
 11
8340.265956302202
 21
2076.670759730211
 31
0.0000000001479286
  0
LINE
  5
2BDC
330
1F
100
AcDbEntity
  8
SANINDUSA
 48
2.0
100
AcDbLine
 10
8340.278956302201
 20
2076.071604431024
 30
0.0000000001479286
 11
8340.278956302201
 21
2076.670759730211
 31
0.0000000001479286
  0
LINE
  5
2BDD
330
1F
100
AcDbEntity
  8
SANINDUSA
100
AcDbLine
 10
8340.263456302201
 20
2076.688259730211
 30
0.0
 11
8340.263456302201
 21
2076.705509730211
 31
0.0
  0
LINE
  5
2BDE
330
1F
100
AcDbEntity
  8
SANINDUSA
100
AcDbLine
 10
8340.281456302202
 20
2076.688259730211
 30
0.0
 11
8340.281456302202
 21
2076.705509730211
 31
0.0
  0
LINE
  5
2BDF
330
1F
100
AcDbEntity
  8
SANINDUSA
100
AcDbLine
 10
8340.273095302201
 20
2076.691229730211
 30
0.0
 11
8340.271817302202
 21
2076.691229730211
 31
0.0
  0
LINE
  5
2BE0
330
1F
100
AcDbEntity
  8
SANINDUSA
100
AcDbLine
 10
8340.272456302201
 20
2076.688259730211
 30
0.0
 11
8340.271817302202
 21
2076.688259730211
 31
0.0
  0
LINE
  5
2BE1
330
1F
100
AcDbEntity
  8
SANINDUSA
100
AcDbLine
 10
8340.272456302201
 20
2076.688259730211
 30
0.0
 11
8340.271817302202
 21
2076.687620730211
 31
0.0
  0
LINE
  5
2BE2
330
1F
100
AcDbEntity
  8
SANINDUSA
100
AcDbLine
 10
8340.271817302202
 20
2076.688898730211
 30
0.0
 11
8340.272456302201
 21
2076.688259730211
 31
0.0
  0
LINE
  5
2BE3
330
1F
100
AcDbEntity
  8
SANINDUSA
100
AcDbLine
 10
8340.271817302202
 20
2076.687620730211
 30
0.0
 11
8340.273095302201
 21
2076.687620730211
 31
0.0
  0
LINE
  5
2BE4
330
1F
100
AcDbEntity
  8
SANINDUSA
100
AcDbLine
 10
8340.273095302201
 20
2076.688898730211
 30
0.0
 11
8340.271817302202
 21
2076.688898730211
 31
0.0
  0
LINE
  5
2BE5
330
1F
100
AcDbEntity
  8
SANINDUSA
100
AcDbLine
 10
8340.271817302202
 20
2076.687620730211
 30
0.0
 11
8340.271817302202
 21
2076.688898730211
 31
0.0
  0
LINE
  5
2BE6
330
1F
100
AcDbEntity
  8
SANINDUSA
100
AcDbLine
 10
8340.269486302203
 20
2076.688898730211
 30
0.0
 11
8340.269486302203
 21
2076.687620730211
 31
0.0
  0
LINE
  5
2BE7
330
1F
100
AcDbEntity
  8
SANINDUSA
100
AcDbLine
 10
8340.269486302203
 20
2076.687620730211
 30
0.0
 11
8340.271337355385
 21
2076.687620730211
 31
0.0
  0
LINE
  5
2BE8
330
1F
100
AcDbEntity
  8
SANINDUSA
100
AcDbLine
 10
8340.271337355385
 20
2076.688898730211
 30
0.0
 11
8340.269486302203
 21
2076.688898730211
 31
0.0
  0
LINE
  5
2BE9
330
1F
100
AcDbEntity
  8
SANINDUSA
100
AcDbLine
 10
8340.271817302202
 20
2076.687620730211
 30
0.0
 11
8340.271337355385
 21
2076.687620730211
 31
0.0
  0
LINE
  5
2BEA
330
1F
100
AcDbEntity
  8
SANINDUSA
100
AcDbLine
 10
8340.271817302202
 20
2076.688898730211
 30
0.0
 11
8340.271817302202
 21
2076.689378677028
 31
0.0
  0
LINE
  5
2BEB
330
1F
100
AcDbEntity
  8
SANINDUSA
100
AcDbLine
 10
8340.271817302202
 20
2076.689378677028
 30
0.0
 11
8340.270356195061
 21
2076.690359837351
 31
0.0
  0
LINE
  5
2BEC
330
1F
100
AcDbEntity
  8
SANINDUSA
100
AcDbLine
 10
8340.271337355385
 20
2076.688898730211
 30
0.0
 11
8340.271817302202
 21
2076.688898730211
 31
0.0
  0
LINE
  5
2BED
330
1F
100
AcDbEntity
  8
SANINDUSA
100
AcDbLine
 10
8340.270356195061
 20
2076.690359837351
 30
0.0
 11
8340.271817302202
 21
2076.688898730211
 31
0.0
  0
LINE
  5
2BEE
330
1F
100
AcDbEntity
  8
SANINDUSA
100
AcDbLine
 10
8340.270356195061
 20
2076.690359837351
 30
0.0
 11
8340.271337355385
 21
2076.688898730211
 31
0.0
  0
LINE
  5
2BEF
330
1F
100
AcDbEntity
  8
SANINDUSA
100
AcDbLine
 10
8340.273095302201
 20
2076.688259730211
 30
0.0
 11
8340.272456302201
 21
2076.688259730211
 31
0.0
  0
LINE
  5
2BF0
330
1F
100
AcDbEntity
  8
SANINDUSA
100
AcDbLine
 10
8340.272456302201
 20
2076.688259730211
 30
0.0
 11
8340.272456302201
 21
2076.687620730211
 31
0.0
  0
LINE
  5
2BF1
330
1F
100
AcDbEntity
  8
SANINDUSA
100
AcDbLine
 10
8340.273095302201
 20
2076.687620730211
 30
0.0
 11
8340.272456302201
 21
2076.688259730211
 31
0.0
  0
LINE
  5
2BF2
330
1F
100
AcDbEntity
  8
SANINDUSA
100
AcDbLine
 10
8340.273095302201
 20
2076.688898730211
 30
0.0
 11
8340.273095302201
 21
2076.687620730211
 31
0.0
  0
LINE
  5
2BF3
330
1F
100
AcDbEntity
  8
SANINDUSA
100
AcDbLine
 10
8340.272456302201
 20
2076.688898730211
 30
0.0
 11
8340.272456302201
 21
2076.688259730211
 31
0.0
  0
LINE
  5
2BF4
330
1F
100
AcDbEntity
  8
SANINDUSA
100
AcDbLine
 10
8340.272456302201
 20
2076.688259730211
 30
0.0
 11
8340.273095302201
 21
2076.688898730211
 31
0.0
  0
LINE
  5
2BF5
330
1F
100
AcDbEntity
  8
SANINDUSA
100
AcDbLine
 10
8340.273095302201
 20
2076.688898730211
 30
0.0
 11
8340.273575249019
 21
2076.688898730211
 31
0.0
  0
LINE
  5
2BF6
330
1F
100
AcDbEntity
  8
SANINDUSA
100
AcDbLine
 10
8340.273575249019
 20
2076.688898730211
 30
0.0
 11
8340.274556409342
 21
2076.690359837351
 31
0.0
  0
LINE
  5
2BF7
330
1F
100
AcDbEntity
  8
SANINDUSA
100
AcDbLine
 10
8340.273095302201
 20
2076.689378677028
 30
0.0
 11
8340.273095302201
 21
2076.688898730211
 31
0.0
  0
LINE
  5
2BF8
330
1F
100
AcDbEntity
  8
SANINDUSA
100
AcDbLine
 10
8340.274556409342
 20
2076.690359837351
 30
0.0
 11
8340.273095302201
 21
2076.688898730211
 31
0.0
  0
LINE
  5
2BF9
330
1F
100
AcDbEntity
  8
SANINDUSA
100
AcDbLine
 10
8340.274556409342
 20
2076.690359837351
 30
0.0
 11
8340.273095302201
 21
2076.689378677028
 31
0.0
  0
LINE
  5
2BFA
330
1F
100
AcDbEntity
  8
SANINDUSA
100
AcDbLine
 10
8340.273575249019
 20
2076.687620730211
 30
0.0
 11
8340.273095302201
 21
2076.687620730211
 31
0.0
  0
LINE
  5
2BFB
330
1F
100
AcDbEntity
  8
SANINDUSA
100
AcDbLine
 10
8340.275426302202
 20
2076.687620730211
 30
0.0
 11
8340.275426302202
 21
2076.688898730211
 31
0.0
  0
LINE
  5
2BFC
330
1F
100
AcDbEntity
  8
SANINDUSA
100
AcDbLine
 10
8340.275426302202
 20
2076.688898730211
 30
0.0
 11
8340.273575249019
 21
2076.688898730211
 31
0.0
  0
LINE
  5
2BFD
330
1F
100
AcDbEntity
  8
SANINDUSA
100
AcDbLine
 10
8340.273575249019
 20
2076.687620730211
 30
0.0
 11
8340.275426302202
 21
2076.687620730211
 31
0.0
  0
LINE
  5
2BFE
330
1F
100
AcDbEntity
  8
SANINDUSA
100
AcDbLine
 10
8340.271817302202
 20
2076.691229730211
 30
0.0
 11
8340.271817302202
 21
2076.689378677028
 31
0.0
  0
LINE
  5
2BFF
330
1F
100
AcDbEntity
  8
SANINDUSA
100
AcDbLine
 10
8340.273095302201
 20
2076.689378677028
 30
0.0
 11
8340.273095302201
 21
2076.691229730211
 31
0.0
  0
LINE
  5
2C00
330
1F
100
AcDbEntity
  8
SANINDUSA
100
AcDbLine
 10
8340.271817302202
 20
2076.68528973021
 30
0.0
 11
8340.273095302201
 21
2076.68528973021
 31
0.0
  0
LINE
  5
2C01
330
1F
100
AcDbEntity
  8
SANINDUSA
100
AcDbLine
 10
8340.280456302201
 20
2076.670759730211
 30
0.0
 11
8340.280456302201
 21
2076.684136624585
 31
0.0
  0
LINE
  5
2C02
330
1F
100
AcDbEntity
  8
SANINDUSA
100
AcDbLine
 10
8340.271817302202
 20
2076.687140783394
 30
0.0
 11
8340.271817302202
 21
2076.68528973021
 31
0.0
  0
LINE
  5
2C03
330
1F
100
AcDbEntity
  8
SANINDUSA
100
AcDbLine
 10
8340.270356195061
 20
2076.686159623071
 30
0.0
 11
8340.271817302202
 21
2076.687140783394
 31
0.0
  0
LINE
  5
2C04
330
1F
100
AcDbEntity
  8
SANINDUSA
100
AcDbLine
 10
8340.264456302202
 20
2076.677759730211
 30
0.0
 11
8340.280456302201
 21
2076.677759730211
 31
0.0
  0
LINE
  5
2C05
330
1F
100
AcDbEntity
  8
SANINDUSA
100
AcDbLine
 10
8340.273095302201
 20
2076.68528973021
 30
0.0
 11
8340.273095302201
 21
2076.687140783394
 31
0.0
  0
LINE
  5
2C06
330
1F
100
AcDbEntity
  8
SANINDUSA
100
AcDbLine
 10
8340.273095302201
 20
2076.687140783394
 30
0.0
 11
8340.274556409342
 21
2076.686159623071
 31
0.0
  0
LINE
  5
2C07
330
1F
100
AcDbEntity
  8
SANINDUSA
100
AcDbLine
 10
8340.264456302202
 20
2076.670759730211
 30
0.0
 11
8340.280456302201
 21
2076.670759730211
 31
0.0
  0
LINE
  5
2C08
330
1F
100
AcDbEntity
  8
SANINDUSA
100
AcDbLine
 10
8340.271337355385
 20
2076.687620730211
 30
0.0
 11
8340.270356195061
 21
2076.686159623071
 31
0.0
  0
LINE
  5
2C09
330
1F
100
AcDbEntity
  8
SANINDUSA
100
AcDbLine
 10
8340.271817302202
 20
2076.687140783394
 30
0.0
 11
8340.271817302202
 21
2076.687620730211
 31
0.0
  0
LINE
  5
2C0A
330
1F
100
AcDbEntity
  8
SANINDUSA
100
AcDbLine
 10
8340.270356195061
 20
2076.686159623071
 30
0.0
 11
8340.271817302202
 21
2076.687620730211
 31
0.0
  0
LINE
  5
2C0B
330
1F
100
AcDbEntity
  8
SANINDUSA
100
AcDbLine
 10
8340.273095302201
 20
2076.687620730211
 30
0.0
 11
8340.273095302201
 21
2076.687140783394
 31
0.0
  0
LINE
  5
2C0C
330
1F
100
AcDbEntity
  8
SANINDUSA
100
AcDbLine
 10
8340.274556409342
 20
2076.686159623071
 30
0.0
 11
8340.273095302201
 21
2076.687620730211
 31
0.0
  0
LINE
  5
2C0D
330
1F
100
AcDbEntity
  8
SANINDUSA
100
AcDbLine
 10
8340.274556409342
 20
2076.686159623071
 30
0.0
 11
8340.273575249019
 21
2076.687620730211
 31
0.0
  0
ARC
  5
2C0E
330
1F
100
AcDbEntity
  8
SANINDUSA
100
AcDbCircle
 10
8340.272456302201
 20
2076.688259730211
 30
0.0
 40
0.009
100
AcDbArc
 50
180.0
 51
0.0
  0
LINE
  5
2C0F
330
1F
100
AcDbEntity
  8
SANINDUSA
100
AcDbLine
 10
8340.264456302202
 20
2076.670759730211
 30
0.0
 11
8340.264456302202
 21
2076.684136624585
 31
0.0
  0
CIRCLE
  5
2C10
330
1F
100
AcDbEntity
  8
SANINDUSA
100
AcDbCircle
 10
8340.272456302201
 20
2076.688259730211
 30
0.0
 40
0.005085
  0
LINE
  5
2C11
330
1F
100
AcDbEntity
  8
SANINDUSA
100
AcDbLine
 10
8340.287456302201
 20
2076.710509730211
 30
0.0
 11
8340.287456302201
 21
2076.707509730211
 31
0.0
  0
LINE
  5
2C12
330
1F
100
AcDbEntity
  8
SANINDUSA
100
AcDbLine
 10
8340.257456302202
 20
2076.707509730211
 30
0.0
 11
8340.257456302202
 21
2076.710509730211
 31
0.0
  0
LINE
  5
2C13
330
1F
100
AcDbEntity
  8
SANINDUSA
100
AcDbLine
 10
8340.285456302202
 20
2076.705509730211
 30
0.0
 11
8340.259456302202
 21
2076.705509730211
 31
0.0
  0
ARC
  5
2C14
330
1F
100
AcDbEntity
  8
SANINDUSA
100
AcDbCircle
 10
8340.259456302202
 20
2076.707509730211
 30
0.0
 40
0.002
100
AcDbArc
 50
180.0
 51
270.0
  0
ARC
  5
2C15
330
1F
100
AcDbEntity
  8
SANINDUSA
100
AcDbCircle
 10
8340.285456302202
 20
2076.707509730211
 30
0.0
 40
0.002
100
AcDbArc
 50
270.0
 51
0.0
  0
LINE
  5
2C16
330
1F
100
AcDbEntity
  8
SANINDUSA
100
AcDbLine
 10
8340.257456302202
 20
2076.710509730211
 30
0.0
 11
8340.287456302201
 21
2076.710509730211
 31
0.0
  0
LINE
  5
2C17
330
1F
100
AcDbEntity
  8
SANINDUSA
100
AcDbLine
 10
8340.263456302201
 20
2076.054104431023
 30
0.0000000001479286
 11
8340.263456302201
 21
2076.036854431023
 31
0.0000000001479286
  0
LINE
  5
2C18
330
1F
100
AcDbEntity
  8
SANINDUSA
100
AcDbLine
 10
8340.264456302202
 20
2076.071604431024
 30
0.0000000001479286
 11
8340.264456302202
 21
2076.058227536649
 31
0.0000000001479286
  0
LINE
  5
2C19
330
1F
100
AcDbEntity
  8
SANINDUSA
100
AcDbLine
 10
8340.274556409342
 20
2076.052004323884
 30
0.0000000001479286
 11
8340.273095302201
 21
2076.052985484206
 31
0.0000000001479286
  0
LINE
  5
2C1A
330
1F
100
AcDbEntity
  8
SANINDUSA
100
AcDbLine
 10
8340.271337355385
 20
2076.054743431023
 30
0.0000000001479286
 11
8340.270356195061
 21
2076.056204538164
 31
0.0000000001479286
  0
LINE
  5
2C1B
330
1F
100
AcDbEntity
  8
SANINDUSA
100
AcDbLine
 10
8340.272456302201
 20
2076.054104431023
 30
0.0000000001479286
 11
8340.271817302202
 21
2076.054104431023
 31
0.0000000001479286
  0
LINE
  5
2C1C
330
1F
100
AcDbEntity
  8
SANINDUSA
100
AcDbLine
 10
8340.271817302202
 20
2076.054743431023
 30
0.0000000001479286
 11
8340.271817302202
 21
2076.053465431024
 31
0.0000000001479286
  0
LINE
  5
2C1D
330
1F
100
AcDbEntity
  8
SANINDUSA
100
AcDbLine
 10
8340.271817302202
 20
2076.053465431024
 30
0.0000000001479286
 11
8340.272456302201
 21
2076.054104431023
 31
0.0000000001479286
  0
LINE
  5
2C1E
330
1F
100
AcDbEntity
  8
SANINDUSA
100
AcDbLine
 10
8340.272456302201
 20
2076.053465431024
 30
0.0000000001479286
 11
8340.272456302201
 21
2076.054104431023
 31
0.0000000001479286
  0
LINE
  5
2C1F
330
1F
100
AcDbEntity
  8
SANINDUSA
100
AcDbLine
 10
8340.273095302201
 20
2076.053465431024
 30
0.0000000001479286
 11
8340.271817302202
 21
2076.053465431024
 31
0.0000000001479286
  0
LINE
  5
2C20
330
1F
100
AcDbEntity
  8
SANINDUSA
100
AcDbLine
 10
8340.271817302202
 20
2076.054743431023
 30
0.0000000001479286
 11
8340.271337355385
 21
2076.054743431023
 31
0.0000000001479286
  0
LINE
  5
2C21
330
1F
100
AcDbEntity
  8
SANINDUSA
100
AcDbLine
 10
8340.273095302201
 20
2076.052985484206
 30
0.0000000001479286
 11
8340.273095302201
 21
2076.053465431024
 31
0.0000000001479286
  0
LINE
  5
2C22
330
1F
100
AcDbEntity
  8
SANINDUSA
100
AcDbLine
 10
8340.281456302202
 20
2076.054104431023
 30
0.0000000001479286
 11
8340.281456302202
 21
2076.036854431023
 31
0.0000000001479286
  0
CIRCLE
  5
2C23
330
1F
100
AcDbEntity
  8
SANINDUSA
100
AcDbCircle
 10
8340.272456302201
 20
2076.054104431023
 30
0.0000000001479286
 40
0.005085
  0
ARC
  5
2C24
330
1F
100
AcDbEntity
  8
SANINDUSA
100
AcDbCircle
 10
8340.272456302201
 20
2076.054104431023
 30
0.0000000001479286
 40
0.009
100
AcDbArc
 50
0.0
 51
180.0
  0
LINE
  5
2C25
330
1F
100
AcDbEntity
  8
SANINDUSA
100
AcDbLine
 10
8340.273095302201
 20
2076.051134431024
 30
0.0000000001479286
 11
8340.271817302202
 21
2076.051134431024
 31
0.0000000001479286
  0
LINE
  5
2C26
330
1F
100
AcDbEntity
  8
SANINDUSA
100
AcDbLine
 10
8340.273095302201
 20
2076.052985484206
 30
0.0000000001479286
 11
8340.273095302201
 21
2076.051134431024
 31
0.0000000001479286
  0
LINE
  5
2C27
330
1F
100
AcDbEntity
  8
SANINDUSA
100
AcDbLine
 10
8340.249956302201
 20
2076.036854431023
 30
0.0000000001479286
 11
8340.294956302201
 21
2076.036854431023
 31
0.0000000001479286
  0
LINE
  5
2C28
330
1F
100
AcDbEntity
  8
SANINDUSA
100
AcDbLine
 10
8340.249956302201
 20
2076.018854431024
 30
0.0000000001479286
 11
8340.294956302201
 21
2076.018854431024
 31
0.0000000001479286
  0
LINE
  5
2C29
330
1F
100
AcDbEntity
  8
SANINDUSA
100
AcDbLine
 10
8340.294956302201
 20
2076.036854431023
 30
0.0000000001479286
 11
8340.294956302201
 21
2076.018854431024
 31
0.0000000001479286
  0
LINE
  5
2C2A
330
1F
100
AcDbEntity
  8
SANINDUSA
100
AcDbLine
 10
8340.271817302202
 20
2076.051134431024
 30
0.0000000001479286
 11
8340.271817302202
 21
2076.052985484206
 31
0.0000000001479286
  0
LINE
  5
2C2B
330
1F
100
AcDbEntity
  8
SANINDUSA
100
AcDbLine
 10
8340.269486302203
 20
2076.053465431024
 30
0.0000000001479286
 11
8340.269486302203
 21
2076.054743431023
 31
0.0000000001479286
  0
LINE
  5
2C2C
330
1F
100
AcDbEntity
  8
SANINDUSA
100
AcDbLine
 10
8340.269486302203
 20
2076.054743431023
 30
0.0000000001479286
 11
8340.271337355385
 21
2076.054743431023
 31
0.0000000001479286
  0
LINE
  5
2C2D
330
1F
100
AcDbEntity
  8
SANINDUSA
100
AcDbLine
 10
8340.271337355385
 20
2076.053465431024
 30
0.0000000001479286
 11
8340.269486302203
 21
2076.053465431024
 31
0.0000000001479286
  0
LINE
  5
2C2E
330
1F
100
AcDbEntity
  8
SANINDUSA
100
AcDbLine
 10
8340.271817302202
 20
2076.053465431024
 30
0.0000000001479286
 11
8340.271817302202
 21
2076.052985484206
 31
0.0000000001479286
  0
LINE
  5
2C2F
330
1F
100
AcDbEntity
  8
SANINDUSA
100
AcDbLine
 10
8340.271817302202
 20
2076.052985484206
 30
0.0000000001479286
 11
8340.270356195061
 21
2076.052004323884
 31
0.0000000001479286
  0
LINE
  5
2C30
330
1F
100
AcDbEntity
  8
SANINDUSA
100
AcDbLine
 10
8340.271337355385
 20
2076.053465431024
 30
0.0000000001479286
 11
8340.271817302202
 21
2076.053465431024
 31
0.0000000001479286
  0
LINE
  5
2C31
330
1F
100
AcDbEntity
  8
SANINDUSA
100
AcDbLine
 10
8340.270356195061
 20
2076.052004323884
 30
0.0000000001479286
 11
8340.271817302202
 21
2076.053465431024
 31
0.0000000001479286
  0
LINE
  5
2C32
330
1F
100
AcDbEntity
  8
SANINDUSA
100
AcDbLine
 10
8340.270356195061
 20
2076.052004323884
 30
0.0000000001479286
 11
8340.271337355385
 21
2076.053465431024
 31
0.0000000001479286
  0
LINE
  5
2C33
330
1F
100
AcDbEntity
  8
SANINDUSA
100
AcDbLine
 10
8340.249956302201
 20
2076.036854431023
 30
0.0000000001479286
 11
8340.249956302201
 21
2076.018854431024
 31
0.0000000001479286
  0
LINE
  5
2C34
330
1F
100
AcDbEntity
  8
SANINDUSA
100
AcDbLine
 10
8340.275426302202
 20
2076.054743431023
 30
0.0000000001479286
 11
8340.275426302202
 21
2076.053465431024
 31
0.0000000001479286
  0
LINE
  5
2C35
330
1F
100
AcDbEntity
  8
SANINDUSA
100
AcDbLine
 10
8340.273575249019
 20
2076.053465431024
 30
0.0000000001479286
 11
8340.274556409342
 21
2076.052004323884
 31
0.0000000001479286
  0
LINE
  5
2C36
330
1F
100
AcDbEntity
  8
SANINDUSA
100
AcDbLine
 10
8340.274556409342
 20
2076.052004323884
 30
0.0000000001479286
 11
8340.273095302201
 21
2076.053465431024
 31
0.0000000001479286
  0
LINE
  5
2C37
330
1F
100
AcDbEntity
  8
SANINDUSA
100
AcDbLine
 10
8340.275426302202
 20
2076.053465431024
 30
0.0000000001479286
 11
8340.273575249019
 21
2076.053465431024
 31
0.0000000001479286
  0
LINE
  5
2C38
330
1F
100
AcDbEntity
  8
SANINDUSA
100
AcDbLine
 10
8340.280456302201
 20
2076.071604431024
 30
0.0000000001479286
 11
8340.280456302201
 21
2076.058227536649
 31
0.0000000001479286
  0
LINE
  5
2C39
330
1F
100
AcDbEntity
  8
SANINDUSA
100
AcDbLine
 10
8340.264456302202
 20
2076.071604431024
 30
0.0000000001479286
 11
8340.280456302201
 21
2076.071604431024
 31
0.0000000001479286
  0
LINE
  5
2C3A
330
1F
100
AcDbEntity
  8
SANINDUSA
100
AcDbLine
 10
8340.273095302201
 20
2076.057074431024
 30
0.0000000001479286
 11
8340.273095302201
 21
2076.055223377841
 31
0.0000000001479286
  0
LINE
  5
2C3B
330
1F
100
AcDbEntity
  8
SANINDUSA
100
AcDbLine
 10
8340.273095302201
 20
2076.055223377841
 30
0.0000000001479286
 11
8340.274556409342
 21
2076.056204538164
 31
0.0000000001479286
  0
LINE
  5
2C3C
330
1F
100
AcDbEntity
  8
SANINDUSA
100
AcDbLine
 10
8340.274556409342
 20
2076.056204538164
 30
0.0000000001479286
 11
8340.273095302201
 21
2076.054743431023
 31
0.0000000001479286
  0
LINE
  5
2C3D
330
1F
100
AcDbEntity
  8
SANINDUSA
100
AcDbLine
 10
8340.274556409342
 20
2076.056204538164
 30
0.0000000001479286
 11
8340.273575249019
 21
2076.054743431023
 31
0.0000000001479286
  0
LINE
  5
2C3E
330
1F
100
AcDbEntity
  8
SANINDUSA
100
AcDbLine
 10
8340.273575249019
 20
2076.054743431023
 30
0.0000000001479286
 11
8340.275426302202
 21
2076.054743431023
 31
0.0000000001479286
  0
LINE
  5
2C3F
330
1F
100
AcDbEntity
  8
SANINDUSA
100
AcDbLine
 10
8340.273095302201
 20
2076.054743431023
 30
0.0000000001479286
 11
8340.273095302201
 21
2076.055223377841
 31
0.0000000001479286
  0
LINE
  5
2C40
330
1F
100
AcDbEntity
  8
SANINDUSA
100
AcDbLine
 10
8340.273575249019
 20
2076.054743431023
 30
0.0000000001479286
 11
8340.273095302201
 21
2076.054743431023
 31
0.0000000001479286
  0
LINE
  5
2C41
330
1F
100
AcDbEntity
  8
SANINDUSA
100
AcDbLine
 10
8340.271817302202
 20
2076.057074431024
 30
0.0000000001479286
 11
8340.273095302201
 21
2076.057074431024
 31
0.0000000001479286
  0
LINE
  5
2C42
330
1F
100
AcDbEntity
  8
SANINDUSA
100
AcDbLine
 10
8340.270356195061
 20
2076.056204538164
 30
0.0000000001479286
 11
8340.271817302202
 21
2076.054743431023
 31
0.0000000001479286
  0
LINE
  5
2C43
330
1F
100
AcDbEntity
  8
SANINDUSA
100
AcDbLine
 10
8340.270356195061
 20
2076.056204538164
 30
0.0000000001479286
 11
8340.271817302202
 21
2076.055223377841
 31
0.0000000001479286
  0
LINE
  5
2C44
330
1F
100
AcDbEntity
  8
SANINDUSA
100
AcDbLine
 10
8340.273095302201
 20
2076.054104431023
 30
0.0000000001479286
 11
8340.272456302201
 21
2076.054104431023
 31
0.0000000001479286
  0
LINE
  5
2C45
330
1F
100
AcDbEntity
  8
SANINDUSA
100
AcDbLine
 10
8340.272456302201
 20
2076.054104431023
 30
0.0000000001479286
 11
8340.271817302202
 21
2076.054743431023
 31
0.0000000001479286
  0
LINE
  5
2C46
330
1F
100
AcDbEntity
  8
SANINDUSA
100
AcDbLine
 10
8340.272456302201
 20
2076.054104431023
 30
0.0000000001479286
 11
8340.272456302201
 21
2076.054743431023
 31
0.0000000001479286
  0
LINE
  5
2C47
330
1F
100
AcDbEntity
  8
SANINDUSA
100
AcDbLine
 10
8340.272456302201
 20
2076.054104431023
 30
0.0000000001479286
 11
8340.273095302201
 21
2076.053465431024
 31
0.0000000001479286
  0
LINE
  5
2C48
330
1F
100
AcDbEntity
  8
SANINDUSA
100
AcDbLine
 10
8340.271817302202
 20
2076.055223377841
 30
0.0000000001479286
 11
8340.271817302202
 21
2076.054743431023
 31
0.0000000001479286
  0
LINE
  5
2C49
330
1F
100
AcDbEntity
  8
SANINDUSA
100
AcDbLine
 10
8340.273095302201
 20
2076.053465431024
 30
0.0000000001479286
 11
8340.273575249019
 21
2076.053465431024
 31
0.0000000001479286
  0
LINE
  5
2C4A
330
1F
100
AcDbEntity
  8
SANINDUSA
100
AcDbLine
 10
8340.271817302202
 20
2076.055223377841
 30
0.0000000001479286
 11
8340.271817302202
 21
2076.057074431024
 31
0.0000000001479286
  0
LINE
  5
2C4B
330
1F
100
AcDbEntity
  8
SANINDUSA
100
AcDbLine
 10
8340.273095302201
 20
2076.054743431023
 30
0.0000000001479286
 11
8340.272456302201
 21
2076.054104431023
 31
0.0000000001479286
  0
LINE
  5
2C4C
330
1F
100
AcDbEntity
  8
SANINDUSA
100
AcDbLine
 10
8340.273095302201
 20
2076.053465431024
 30
0.0000000001479286
 11
8340.273095302201
 21
2076.054743431023
 31
0.0000000001479286
  0
LINE
  5
2C4D
330
1F
100
AcDbEntity
  8
SANINDUSA
100
AcDbLine
 10
8340.271817302202
 20
2076.054743431023
 30
0.0000000001479286
 11
8340.273095302201
 21
2076.054743431023
 31
0.0000000001479286
  0
LINE
  5
2C4E
330
1F
100
AcDbEntity
  8
SANINDUSA
100
AcDbLine
 10
8340.264456302202
 20
2076.064604431024
 30
0.0000000001479286
 11
8340.280456302201
 21
2076.064604431024
 31
0.0000000001479286
  0
CIRCLE
  5
2C54
330
1F
100
AcDbEntity
  8
SANINDUSA
100
AcDbCircle
 10
8339.993456302201
 20
2076.01755437873
 30
0.0000000001479286
 40
0.008
  0
ARC
  5
2D9B
330
1F
100
AcDbEntity
  8
SANINDUSA
100
AcDbCircle
 10
8341.828268154483
 20
2076.965423353525
 30
-0.0000000017937957
 40
0.001
100
AcDbArc
 50
0.0
 51
90.0
  0
LINE
  5
2D9C
330
1F
100
AcDbEntity
  8
SANINDUSA
100
AcDbLine
 10
8341.753268154482
 20
2076.966423353524
 30
-0.0000000017937957
 11
8341.694268154482
 21
2076.966423353524
 31
-0.0000000017937957
  0
ARC
  5
2D9D
330
1F
100
AcDbEntity
  8
SANINDUSA
100
AcDbCircle
 10
8341.694268154482
 20
2076.965423353525
 30
-0.0000000017937957
 40
0.001
100
AcDbArc
 50
90.0
 51
180.0
  0
ARC
  5
2D9E
330
1F
100
AcDbEntity
  8
SANINDUSA
100
AcDbCircle
 10
8341.754268154481
 20
2076.971923353525
 30
-0.0000000017937957
 40
0.001
100
AcDbArc
 50
90.0
 51
180.0
  0
LINE
  5
2D9F
330
1F
100
AcDbEntity
  8
SANINDUSA
100
AcDbLine
 10
8341.753268154482
 20
2076.971923353525
 30
-0.0000000017937957
 11
8341.753268154482
 21
2076.966423353524
 31
-0.0000000017937957
  0
LINE
  5
2DA0
330
1F
100
AcDbEntity
  8
SANINDUSA
100
AcDbLine
 10
8341.753768154481
 20
2076.950923353524
 30
-0.0000000017937957
 11
8341.753768154481
 21
2076.946923353524
 31
-0.0000000017937957
  0
LINE
  5
2DA1
330
1F
100
AcDbEntity
  8
SANINDUSA
100
AcDbLine
 10
8341.753268154482
 20
2076.966423353524
 30
-0.0000000017937957
 11
8341.753268154482
 21
2076.950923353524
 31
-0.0000000017937957
  0
ARC
  5
2DA2
330
1F
100
AcDbEntity
  8
SANINDUSA
100
AcDbCircle
 10
8341.768268154483
 20
2076.971923353525
 30
-0.0000000017937957
 40
0.001
100
AcDbArc
 50
0.0
 51
90.0
  0
LINE
  5
2DA3
330
1F
100
AcDbEntity
  8
SANINDUSA
100
AcDbLine
 10
8341.768268154483
 20
2076.972923353524
 30
-0.0000000017937957
 11
8341.754268154481
 21
2076.972923353524
 31
-0.0000000017937957
  0
LINE
  5
2DA4
330
1F
100
AcDbEntity
  8
SANINDUSA
100
AcDbLine
 10
8341.768768154484
 20
2076.950923353524
 30
-0.0000000017937957
 11
8341.768768154484
 21
2076.946923353524
 31
-0.0000000017937957
  0
LINE
  5
2DA5
330
1F
100
AcDbEntity
  8
SANINDUSA
100
AcDbLine
 10
8341.769268154482
 20
2076.946923353524
 30
-0.0000000017937957
 11
8341.77015704337
 21
2076.946923353524
 31
-0.0000000017937957
  0
LINE
  5
2DA6
330
1F
100
AcDbEntity
  8
SANINDUSA
100
AcDbLine
 10
8341.752379265594
 20
2076.950923353524
 30
-0.0000000017937957
 11
8341.769268154484
 21
2076.950923353524
 31
-0.0000000017937957
  0
LINE
  5
2DA7
330
1F
100
AcDbEntity
  8
SANINDUSA
100
AcDbLine
 10
8341.769268154482
 20
2076.946923353524
 30
-0.0000000017937957
 11
8341.753268154482
 21
2076.946923353524
 31
-0.0000000017937957
  0
LINE
  5
2DA8
330
1F
100
AcDbEntity
  8
SANINDUSA
100
AcDbLine
 10
8341.769268154484
 20
2076.950923353524
 30
-0.0000000017937957
 11
8341.769268154484
 21
2076.971923353525
 31
-0.0000000017937957
  0
LINE
  5
2DA9
330
1F
100
AcDbEntity
  8
SANINDUSA
100
AcDbLine
 10
8341.77015704337
 20
2076.946923353524
 30
-0.0000000017937957
 11
8341.77015704337
 21
2076.966423353524
 31
-0.0000000017937957
  0
LINE
  5
2DAA
330
1F
100
AcDbEntity
  8
SANINDUSA
100
AcDbLine
 10
8341.77015704337
 20
2076.966423353524
 30
-0.0000000017937957
 11
8341.828268154483
 21
2076.966423353524
 31
-0.0000000017937957
  0
ARC
  5
2DAB
330
1F
100
AcDbEntity
  8
SANINDUSA
100
AcDbCircle
 10
8341.828268154483
 20
2076.932423353524
 30
-0.0000000017937957
 40
0.001
100
AcDbArc
 50
270.0
 51
0.0
  0
ARC
  5
2DAC
330
1F
100
AcDbEntity
  8
SANINDUSA
100
AcDbCircle
 10
8341.754268154481
 20
2076.925923353524
 30
-0.0000000017937957
 40
0.001
100
AcDbArc
 50
180.0
 51
270.0
  0
ARC
  5
2DAD
330
1F
100
AcDbEntity
  8
SANINDUSA
100
AcDbCircle
 10
8341.768268154483
 20
2076.925923353524
 30
-0.0000000017937957
 40
0.001
100
AcDbArc
 50
270.0
 51
0.0
  0
LINE
  5
2DAE
330
1F
100
AcDbEntity
  8
SANINDUSA
100
AcDbLine
 10
8341.754268154481
 20
2076.924923353525
 30
-0.0000000017937957
 11
8341.768268154483
 21
2076.924923353525
 31
-0.0000000017937957
  0
LINE
  5
2DAF
330
1F
100
AcDbEntity
  8
SANINDUSA
100
AcDbLine
 10
8341.694268154482
 20
2076.931423353524
 30
-0.0000000017937957
 11
8341.752379265594
 21
2076.931423353524
 31
-0.0000000017937957
  0
ARC
  5
2DB0
330
1F
100
AcDbEntity
  8
SANINDUSA
100
AcDbCircle
 10
8341.694268154482
 20
2076.932423353524
 30
-0.0000000017937957
 40
0.001
100
AcDbArc
 50
180.0
 51
270.0
  0
LINE
  5
2DB1
330
1F
100
AcDbEntity
  8
SANINDUSA
100
AcDbLine
 10
8341.828268154483
 20
2076.931423353524
 30
-0.0000000017937957
 11
8341.769268154482
 21
2076.931423353524
 31
-0.0000000017937957
  0
LINE
  5
2DB2
330
1F
100
AcDbEntity
  8
SANINDUSA
100
AcDbLine
 10
8341.753268154482
 20
2076.946923353524
 30
-0.0000000017937957
 11
8341.753268154482
 21
2076.925923353524
 31
-0.0000000017937957
  0
LINE
  5
2DB3
330
1F
100
AcDbEntity
  8
SANINDUSA
100
AcDbLine
 10
8341.769268154482
 20
2076.925923353524
 30
-0.0000000017937957
 11
8341.769268154482
 21
2076.946923353524
 31
-0.0000000017937957
  0
LINE
  5
2DB4
330
1F
100
AcDbEntity
  8
SANINDUSA
100
AcDbLine
 10
8341.693268154482
 20
2076.965423353525
 30
-0.0000000017937957
 11
8341.693268154482
 21
2076.932423353524
 31
-0.0000000017937957
  0
LINE
  5
2DB5
330
1F
100
AcDbEntity
  8
SANINDUSA
100
AcDbLine
 10
8341.752379265594
 20
2076.931423353524
 30
-0.0000000017937957
 11
8341.752379265594
 21
2076.950923353524
 31
-0.0000000017937957
  0
LINE
  5
2DB6
330
1F
100
AcDbEntity
  8
SANINDUSA
100
AcDbLine
 10
8341.829268154482
 20
2076.965423353525
 30
-0.0000000017937957
 11
8341.829268154482
 21
2076.932423353524
 31
-0.0000000017937957
  0
ARC
  5
2DB8
330
1F
100
AcDbEntity
  8
SANINDUSA
100
AcDbCircle
 10
8341.828268154483
 20
2075.705423353534
 30
-0.0000000017937957
 40
0.001
100
AcDbArc
 50
0.0
 51
90.0
  0
LINE
  5
2DB9
330
1F
100
AcDbEntity
  8
SANINDUSA
100
AcDbLine
 10
8341.829268154482
 20
2075.705423353534
 30
-0.0000000017937957
 11
8341.829268154482
 21
2075.672423353534
 31
-0.0000000017937957
  0
ARC
  5
2DBA
330
1F
100
AcDbEntity
  8
SANINDUSA
100
AcDbCircle
 10
8341.828268154483
 20
2075.672423353534
 30
-0.0000000017937957
 40
0.001
100
AcDbArc
 50
270.0
 51
0.0
  0
ARC
  5
2DBB
330
1F
100
AcDbEntity
  8
SANINDUSA
100
AcDbCircle
 10
8341.754268154481
 20
2075.711923353534
 30
-0.0000000017937957
 40
0.001
100
AcDbArc
 50
90.0
 51
180.0
  0
ARC
  5
2DBC
330
1F
100
AcDbEntity
  8
SANINDUSA
100
AcDbCircle
 10
8341.768268154483
 20
2075.711923353534
 30
-0.0000000017937957
 40
0.001
100
AcDbArc
 50
0.0
 51
90.0
  0
LINE
  5
2DBD
330
1F
100
AcDbEntity
  8
SANINDUSA
100
AcDbLine
 10
8341.753268154482
 20
2075.706423353534
 30
-0.0000000017937957
 11
8341.694268154482
 21
2075.706423353534
 31
-0.0000000017937957
  0
LINE
  5
2DBE
330
1F
100
AcDbEntity
  8
SANINDUSA
100
AcDbLine
 10
8341.694268154482
 20
2075.671423353534
 30
-0.0000000017937957
 11
8341.752379265594
 21
2075.671423353534
 31
-0.0000000017937957
  0
ARC
  5
2DBF
330
1F
100
AcDbEntity
  8
SANINDUSA
100
AcDbCircle
 10
8341.694268154482
 20
2075.705423353534
 30
-0.0000000017937957
 40
0.001
100
AcDbArc
 50
90.0
 51
180.0
  0
ARC
  5
2DC0
330
1F
100
AcDbEntity
  8
SANINDUSA
100
AcDbCircle
 10
8341.694268154482
 20
2075.672423353534
 30
-0.0000000017937957
 40
0.001
100
AcDbArc
 50
180.0
 51
270.0
  0
LINE
  5
2DC1
330
1F
100
AcDbEntity
  8
SANINDUSA
100
AcDbLine
 10
8341.693268154482
 20
2075.705423353534
 30
-0.0000000017937957
 11
8341.693268154482
 21
2075.672423353534
 31
-0.0000000017937957
  0
LINE
  5
2DC2
330
1F
100
AcDbEntity
  8
SANINDUSA
100
AcDbLine
 10
8341.753268154482
 20
2075.711923353534
 30
-0.0000000017937957
 11
8341.753268154482
 21
2075.706423353534
 31
-0.0000000017937957
  0
LINE
  5
2DC3
330
1F
100
AcDbEntity
  8
SANINDUSA
100
AcDbLine
 10
8341.753268154482
 20
2075.686923353534
 30
-0.0000000017937957
 11
8341.753268154482
 21
2075.665923353534
 31
-0.0000000017937957
  0
LINE
  5
2DC4
330
1F
100
AcDbEntity
  8
SANINDUSA
100
AcDbLine
 10
8341.752379265594
 20
2075.671423353534
 30
-0.0000000017937957
 11
8341.752379265594
 21
2075.690923353534
 31
-0.0000000017937957
  0
ARC
  5
2DC5
330
1F
100
AcDbEntity
  8
SANINDUSA
100
AcDbCircle
 10
8341.754268154481
 20
2075.665923353534
 30
-0.0000000017937957
 40
0.001
100
AcDbArc
 50
180.0
 51
270.0
  0
LINE
  5
2DC6
330
1F
100
AcDbEntity
  8
SANINDUSA
100
AcDbLine
 10
8341.753768154481
 20
2075.690923353534
 30
-0.0000000017937957
 11
8341.753768154481
 21
2075.686923353534
 31
-0.0000000017937957
  0
LINE
  5
2DC7
330
1F
100
AcDbEntity
  8
SANINDUSA
100
AcDbLine
 10
8341.753268154482
 20
2075.706423353534
 30
-0.0000000017937957
 11
8341.753268154482
 21
2075.690923353534
 31
-0.0000000017937957
  0
LINE
  5
2DC8
330
1F
100
AcDbEntity
  8
SANINDUSA
100
AcDbLine
 10
8341.768268154483
 20
2075.712923353534
 30
-0.0000000017937957
 11
8341.754268154481
 21
2075.712923353534
 31
-0.0000000017937957
  0
LINE
  5
2DC9
330
1F
100
AcDbEntity
  8
SANINDUSA
100
AcDbLine
 10
8341.769268154482
 20
2075.665923353534
 30
-0.0000000017937957
 11
8341.769268154482
 21
2075.686923353534
 31
-0.0000000017937957
  0
ARC
  5
2DCA
330
1F
100
AcDbEntity
  8
SANINDUSA
100
AcDbCircle
 10
8341.768268154483
 20
2075.665923353534
 30
-0.0000000017937957
 40
0.001
100
AcDbArc
 50
270.0
 51
0.0
  0
LINE
  5
2DCB
330
1F
100
AcDbEntity
  8
SANINDUSA
100
AcDbLine
 10
8341.768768154484
 20
2075.690923353534
 30
-0.0000000017937957
 11
8341.768768154484
 21
2075.686923353534
 31
-0.0000000017937957
  0
LINE
  5
2DCC
330
1F
100
AcDbEntity
  8
SANINDUSA
100
AcDbLine
 10
8341.769268154482
 20
2075.686923353534
 30
-0.0000000017937957
 11
8341.77015704337
 21
2075.686923353534
 31
-0.0000000017937957
  0
LINE
  5
2DCD
330
1F
100
AcDbEntity
  8
SANINDUSA
100
AcDbLine
 10
8341.754268154481
 20
2075.664923353534
 30
-0.0000000017937957
 11
8341.768268154483
 21
2075.664923353534
 31
-0.0000000017937957
  0
LINE
  5
2DCE
330
1F
100
AcDbEntity
  8
SANINDUSA
100
AcDbLine
 10
8341.752379265594
 20
2075.690923353534
 30
-0.0000000017937957
 11
8341.769268154484
 21
2075.690923353534
 31
-0.0000000017937957
  0
LINE
  5
2DCF
330
1F
100
AcDbEntity
  8
SANINDUSA
100
AcDbLine
 10
8341.769268154482
 20
2075.686923353534
 30
-0.0000000017937957
 11
8341.753268154482
 21
2075.686923353534
 31
-0.0000000017937957
  0
LINE
  5
2DD0
330
1F
100
AcDbEntity
  8
SANINDUSA
100
AcDbLine
 10
8341.769268154484
 20
2075.690923353534
 30
-0.0000000017937957
 11
8341.769268154484
 21
2075.711923353534
 31
-0.0000000017937957
  0
LINE
  5
2DD1
330
1F
100
AcDbEntity
  8
SANINDUSA
100
AcDbLine
 10
8341.77015704337
 20
2075.686923353534
 30
-0.0000000017937957
 11
8341.77015704337
 21
2075.706423353534
 31
-0.0000000017937957
  0
LINE
  5
2DD2
330
1F
100
AcDbEntity
  8
SANINDUSA
100
AcDbLine
 10
8341.77015704337
 20
2075.706423353534
 30
-0.0000000017937957
 11
8341.828268154483
 21
2075.706423353534
 31
-0.0000000017937957
  0
LINE
  5
2DD3
330
1F
100
AcDbEntity
  8
SANINDUSA
100
AcDbLine
 10
8341.828268154483
 20
2075.671423353534
 30
-0.0000000017937957
 11
8341.769268154482
 21
2075.671423353534
 31
-0.0000000017937957
  0
LINE
  5
2DD9
330
1F
100
AcDbEntity
  8
SANINDUSA
100
AcDbLine
 10
8341.585468501227
 20
2077.243923353534
 30
0.0
 11
8340.942027636613
 21
2077.243923353534
 31
0.0
  0
LINE
  5
2DDA
330
1F
100
AcDbEntity
  8
SANINDUSA
100
AcDbLine
 10
8341.759768154483
 20
2075.403923353534
 30
0.0
 11
8340.95806427844
 21
2075.403923353534
 31
0.0
  0
LINE
  5
2DDC
330
1F
100
AcDbEntity
  8
SANINDUSA
100
AcDbLine
 10
8342.518351289353
 20
2075.393923353534
 30
0.0
 11
8340.918027636613
 21
2075.393923353534
 31
0.0
  0
LINE
  5
2DDD
330
1F
100
AcDbEntity
  8
SANINDUSA
100
AcDbLine
 10
8340.968315244895
 20
2075.403923353534
 30
0.0
 11
8340.968315244895
 21
2077.243923353534
 31
0.0
  0
LINE
  5
2DDE
330
1F
100
AcDbEntity
  8
SANINDUSA
100
AcDbLine
 10
8340.936327636613
 20
2075.403923353534
 30
0.0
 11
8340.936327636613
 21
2077.243923353534
 31
0.0
  0
LINE
  5
2DDF
330
1F
100
AcDbEntity
  8
SANINDUSA
100
AcDbLine
 10
8340.930327636613
 20
2075.403923353534
 30
0.0
 11
8340.930327636613
 21
2077.243923353534
 31
0.0
  0
LINE
  5
2DE0
330
1F
100
AcDbEntity
  8
SANINDUSA
100
AcDbLine
 10
8340.918027636613
 20
2075.393923353534
 30
0.0
 11
8340.918027636613
 21
2077.243923353534
 31
0.0
  0
LINE
  5
2DE1
330
1F
100
AcDbEntity
  8
SANINDUSA
100
AcDbLine
 10
8340.957729302971
 20
2075.393923353534
 30
0.0
 11
8340.957729302971
 21
2077.243923353534
 31
0.0
  0
LINE
  5
2DE6
330
1F
100
AcDbEntity
  8
SANINDUSA
100
AcDbLine
 10
8340.936327636613
 20
2075.403923353534
 30
0.0
 11
8340.930327636613
 21
2075.403923353534
 31
0.0
  0
LINE
  5
2DE7
330
1F
100
AcDbEntity
  8
SANINDUSA
100
AcDbLine
 10
8340.942027636613
 20
2077.243923353534
 30
0.0
 11
8340.918027636613
 21
2077.243923353534
 31
0.0
  0
LINE
  5
2DE8
330
1F
100
AcDbEntity
  8
SANINDUSA
100
AcDbLine
 10
8341.759768154483
 20
2075.712923353534
 30
0.0
 11
8341.759768154483
 21
2076.924923353525
 31
0.0
  0
LINE
  5
2DE9
330
1F
100
AcDbEntity
  8
SANINDUSA
100
AcDbLine
 10
8341.762768154481
 20
2075.712923353534
 30
0.0
 11
8341.762768154481
 21
2076.924923353525
 31
0.0
  0
LINE
  5
2DEA
330
1F
100
AcDbEntity
  8
SANINDUSA
100
AcDbLine
 10
8342.463501289355
 20
2075.393923353534
 30
0.0
 11
8342.463501289355
 21
2077.243923353534
 31
0.0
  0
LINE
  5
2DEB
330
1F
100
AcDbEntity
  8
SANINDUSA
100
AcDbLine
 10
8342.518351289353
 20
2075.393923353534
 30
0.0
 11
8342.518351289353
 21
2077.243923353534
 31
0.0
  0
LINE
  5
2DF0
330
1F
100
AcDbEntity
  8
SANINDUSA
100
AcDbLine
 10
8341.762768154481
 20
2075.393923353534
 30
0.0
 11
8341.762768154481
 21
2075.664923353534
 31
0.0
  0
LINE
  5
2DF1
330
1F
100
AcDbEntity
  8
SANINDUSA
100
AcDbLine
 10
8341.759768154483
 20
2075.403923353534
 30
0.0
 11
8341.759768154483
 21
2075.664923353534
 31
0.0
  0
LINE
  5
2DF3
330
1F
100
AcDbEntity
  8
SANINDUSA
100
AcDbLine
 10
8342.518351289353
 20
2077.243923353534
 30
0.0
 11
8341.585468501227
 21
2077.243923353534
 31
0.0
  0
LINE
  5
2DF4
330
1F
100
AcDbEntity
  8
SANINDUSA
100
AcDbLine
 10
8341.762768154481
 20
2076.972923353524
 30
0.0
 11
8341.762768154481
 21
2077.243923353534
 31
0.0
  0
LINE
  5
2DF5
330
1F
100
AcDbEntity
  8
SANINDUSA
100
AcDbLine
 10
8341.759768154483
 20
2076.972923353524
 30
0.0
 11
8341.759768154483
 21
2077.243923353534
 31
0.0
  0
LINE
  5
2DF6
330
1F
100
AcDbEntity
  8
SANINDUSA
100
AcDbLine
 10
8340.920358321648
 20
2077.243923353534
 30
0.0
 11
8340.920358321648
 21
2075.393923353534
 31
0.0
  0
LINE
  5
2DF7
330
1F
100
AcDbEntity
  8
SANINDUSA
100
AcDbLine
 10
8340.994315244895
 20
2077.243923353534
 30
0.0000000001555553
 11
8340.994315244895
 21
2075.403923353534
 31
0.0000000001555553
  0
ENDSEC
  0
SECTION
  2
OBJECTS
  0
DICTIONARY
  5
C
330
0
100
AcDbDictionary
281
     1
  3
ACAD_2007HEADERVARS_RT
350
30C2
  3
ACAD_COLOR
350
EE6
  3
ACAD_GROUP
350
D
  3
ACAD_LAYOUT
350
1A
  3
ACAD_MATERIAL
350
EE5
  3
ACAD_MLEADERSTYLE
350
302C
  3
ACAD_MLINESTYLE
350
17
  3
ACAD_PLOTSETTINGS
350
19
  3
ACAD_PLOTSTYLENAME
350
E
  3
ACAD_SCALELIST
350
301A
  3
ACAD_TABLESTYLE
350
EE7
  3
ACAD_VISUALSTYLE
350
3006
  3
ACDB_RECOMPOSE_DATA
350
30C0
  3
AcDbVariableDictionary
350
3D
  3
ASE_INDEX_DICTIONARY
350
E77
  3
DWGPROPS
350
30C1
  0
DICTIONARY
  5
1051
330
2
100
AcDbDictionary
280
     1
281
     1
  3
ACAD_LAYERFILTERS
360
1057
  3
ACLYDICTIONARY
360
1056
  0
DICTIONARY
  5
3059
330
10
100
AcDbDictionary
280
     1
281
     1
  3
ADSK_XREC_LAYER_RECONCILED
360
305A
  0
DICTIONARY
  5
305B
330
2F
100
AcDbDictionary
280
     1
281
     1
  3
ADSK_XREC_LAYER_RECONCILED
360
305C
  0
DICTIONARY
  5
305D
330
30
100
AcDbDictionary
280
     1
281
     1
  3
ADSK_XREC_LAYER_RECONCILED
360
305E
  0
DICTIONARY
  5
305F
330
31
100
AcDbDictionary
280
     1
281
     1
  3
ADSK_XREC_LAYER_RECONCILED
360
3060
  0
DICTIONARY
  5
3061
330
32
100
AcDbDictionary
280
     1
281
     1
  3
ADSK_XREC_LAYER_RECONCILED
360
3062
  0
DICTIONARY
  5
3063
330
33
100
AcDbDictionary
280
     1
281
     1
  3
ADSK_XREC_LAYER_RECONCILED
360
3064
  0
DICTIONARY
  5
3065
330
34
100
AcDbDictionary
280
     1
281
     1
  3
ADSK_XREC_LAYER_RECONCILED
360
3066
  0
DICTIONARY
  5
3067
330
35
100
AcDbDictionary
280
     1
281
     1
  3
ADSK_XREC_LAYER_RECONCILED
360
3068
  0
DICTIONARY
  5
3069
330
36
100
AcDbDictionary
280
     1
281
     1
  3
ADSK_XREC_LAYER_RECONCILED
360
306A
  0
DICTIONARY
  5
306B
330
37
100
AcDbDictionary
280
     1
281
     1
  3
ADSK_XREC_LAYER_RECONCILED
360
306C
  0
DICTIONARY
  5
306D
330
5D6
100
AcDbDictionary
280
     1
281
     1
  3
ADSK_XREC_LAYER_RECONCILED
360
306E
  0
DICTIONARY
  5
306F
330
8AF
100
AcDbDictionary
280
     1
281
     1
  3
ADSK_XREC_LAYER_RECONCILED
360
3070
  0
DICTIONARY
  5
3071
330
8F8
100
AcDbDictionary
280
     1
281
     1
  3
ADSK_XREC_LAYER_RECONCILED
360
3072
  0
DICTIONARY
  5
3073
330
91D
100
AcDbDictionary
280
     1
281
     1
  3
ADSK_XREC_LAYER_RECONCILED
360
3074
  0
DICTIONARY
  5
3075
330
C7B
100
AcDbDictionary
280
     1
281
     1
  3
ADSK_XREC_LAYER_RECONCILED
360
3076
  0
DICTIONARY
  5
3077
330
10E9
100
AcDbDictionary
280
     1
281
     1
  3
ADSK_XREC_LAYER_RECONCILED
360
3078
  0
DICTIONARY
  5
23F5
330
1F
100
AcDbDictionary
280
     1
281
     1
  3
ACAD_SORTENTS
360
23F6
  0
DICTIONARY
  5
30CB
330
2EE2
100
AcDbDictionary
280
     1
281
     1
  3
ACAD_MTEXT_RT
360
30CC
  0
DICTIONARY
  5
30C2
102
{ACAD_REACTORS
330
C
102
}
330
C
100
AcDbDictionary
281
     1
  3
DIMJOGANG
350
30C3
  0
DICTIONARY
  5
EE6
102
{ACAD_REACTORS
330
C
102
}
330
C
100
AcDbDictionary
281
     1
  0
DICTIONARY
  5
D
102
{ACAD_REACTORS
330
C
102
}
330
C
100
AcDbDictionary
281
     1
  0
DICTIONARY
  5
1A
102
{ACAD_REACTORS
330
C
102
}
330
C
100
AcDbDictionary
281
     1
  3
Layout1
350
1E
  3
Layout2
350
26
  3
Model
350
22
  0
DICTIONARY
  5
EE5
102
{ACAD_REACTORS
330
C
102
}
330
C
100
AcDbDictionary
281
     1
  3
ByBlock
350
2FF6
  3
ByLayer
350
2FEE
  3
Global
350
2FFE
  0
DICTIONARY
  5
302C
102
{ACAD_REACTORS
330
C
102
}
330
C
100
AcDbDictionary
281
     1
  3
Standard
350
302D
  0
DICTIONARY
  5
17
102
{ACAD_REACTORS
330
C
102
}
330
C
100
AcDbDictionary
281
     1
  3
Standard
350
18
  0
DICTIONARY
  5
19
102
{ACAD_REACTORS
330
C
102
}
330
C
100
AcDbDictionary
281
     1
  0
ACDBDICTIONARYWDFLT
  5
E
102
{ACAD_REACTORS
330
C
102
}
330
C
100
AcDbDictionary
281
     1
  3
Normal
350
F
100
AcDbDictionaryWithDefault
340
F
  0
DICTIONARY
  5
301A
102
{ACAD_REACTORS
330
C
102
}
330
C
100
AcDbDictionary
281
     1
  3
A0
350
301B
  3
A1
350
301C
  3
A2
350
301D
  3
A3
350
301E
  3
A4
350
301F
  3
A5
350
3020
  3
A6
350
3021
  3
A7
350
3022
  3
A8
350
3023
  3
A9
350
3024
  3
B0
350
3025
  3
B1
350
3026
  3
B2
350
3027
  3
B3
350
3028
  3
B4
350
3029
  3
B5
350
302A
  3
B6
350
302B
  0
DICTIONARY
  5
EE7
102
{ACAD_REACTORS
330
C
102
}
330
C
100
AcDbDictionary
281
     1
  3
Standard
350
EE8
  0
DICTIONARY
  5
3006
102
{ACAD_REACTORS
330
C
102
}
330
C
100
AcDbDictionary
281
     1
  3
2dWireframe
350
300C
  3
3D Hidden
350
300E
  3
3dWireframe
350
300D
  3
Basic
350
300B
  3
Brighten
350
3012
  3
ColorChange
350
3016
  3
Conceptual
350
300F
  3
Dim
350
3011
  3
EdgeColorOff
350
3019
  3
Facepattern
350
3015
  3
Flat
350
3007
  3
FlatWithEdges
350
3008
  3
Gouraud
350
3009
  3
GouraudWithEdges
350
300A
  3
JitterOff
350
3017
  3
Linepattern
350
3014
  3
OverhangOff
350
3018
  3
Realistic
350
3010
  3
Thicken
350
3013
  0
XRECORD
  5
30C0
102
{ACAD_REACTORS
330
C
102
}
330
C
100
AcDbXrecord
280
     1
 90
        1
330
EE8
  0
DICTIONARY
  5
3D
102
{ACAD_REACTORS
330
C
102
}
330
C
100
AcDbDictionary
281
     1
  3
CANNOSCALE
350
30BA
  3
CMLEADERSTYLE
350
30B9
  3
CTABLESTYLE
350
1049
  3
DIMASSOC
350
3F
  3
HIDETEXT
350
3E
  3
INDEXCTL
350
30BC
  3
PROJECTNAME
350
2EF0
  3
SORTENTS
350
30BB
  3
XCLIPFRAME
350
30BD
  0
DICTIONARY
  5
E77
102
{ACAD_REACTORS
330
C
102
}
330
C
100
AcDbDictionary
281
     1
  3
ASEBlockHierarchyIndexRecord
350
E78
1001
DCO15
1040
1552647238.734
  0
XRECORD
  5
30C1
102
{ACAD_REACTORS
330
C
102
}
330
C
100
AcDbXrecord
280
     1
  1
DWGPROPS COOKIE
  2

  3

  4

  6

  7

  8
Julio
  9

300
=
301
=
302
=
303
=
304
=
305
=
306
=
307
=
308
=
309
=
 40
0.031077650462963
 41
2454138.543368773
 42
2455818.749239178
  1

 90
        0
  0
DICTIONARY
  5
1057
102
{ACAD_REACTORS
330
1051
102
}
330
1051
100
AcDbDictionary
281
     1
  0
DICTIONARY
  5
1056
102
{ACAD_REACTORS
330
1051
102
}
330
1051
100
AcDbDictionary
281
     1
1001
ACAD
1000
<All
  0
XRECORD
  5
305A
102
{ACAD_REACTORS
330
3059
102
}
330
3059
100
AcDbXrecord
280
     1
290
     1
  0
XRECORD
  5
305C
102
{ACAD_REACTORS
330
305B
102
}
330
305B
100
AcDbXrecord
280
     1
290
     1
  0
XRECORD
  5
305E
102
{ACAD_REACTORS
330
305D
102
}
330
305D
100
AcDbXrecord
280
     1
290
     1
  0
XRECORD
  5
3060
102
{ACAD_REACTORS
330
305F
102
}
330
305F
100
AcDbXrecord
280
     1
290
     1
  0
XRECORD
  5
3062
102
{ACAD_REACTORS
330
3061
102
}
330
3061
100
AcDbXrecord
280
     1
290
     1
  0
XRECORD
  5
3064
102
{ACAD_REACTORS
330
3063
102
}
330
3063
100
AcDbXrecord
280
     1
290
     1
  0
XRECORD
  5
3066
102
{ACAD_REACTORS
330
3065
102
}
330
3065
100
AcDbXrecord
280
     1
290
     1
  0
XRECORD
  5
3068
102
{ACAD_REACTORS
330
3067
102
}
330
3067
100
AcDbXrecord
280
     1
290
     1
  0
XRECORD
  5
306A
102
{ACAD_REACTORS
330
3069
102
}
330
3069
100
AcDbXrecord
280
     1
290
     1
  0
XRECORD
  5
306C
102
{ACAD_REACTORS
330
306B
102
}
330
306B
100
AcDbXrecord
280
     1
290
     1
  0
XRECORD
  5
306E
102
{ACAD_REACTORS
330
306D
102
}
330
306D
100
AcDbXrecord
280
     1
290
     1
  0
XRECORD
  5
3070
102
{ACAD_REACTORS
330
306F
102
}
330
306F
100
AcDbXrecord
280
     1
290
     1
  0
XRECORD
  5
3072
102
{ACAD_REACTORS
330
3071
102
}
330
3071
100
AcDbXrecord
280
     1
290
     1
  0
XRECORD
  5
3074
102
{ACAD_REACTORS
330
3073
102
}
330
3073
100
AcDbXrecord
280
     1
290
     1
  0
XRECORD
  5
3076
102
{ACAD_REACTORS
330
3075
102
}
330
3075
100
AcDbXrecord
280
     1
290
     1
  0
XRECORD
  5
3078
102
{ACAD_REACTORS
330
3077
102
}
330
3077
100
AcDbXrecord
280
     1
290
     1
  0
SORTENTSTABLE
  5
23F6
102
{ACAD_REACTORS
330
23F5
102
}
330
23F5
100
AcDbSortentsTable
330
1F
  0
XRECORD
  5
30CC
102
{ACAD_REACTORS
330
30CB
102
}
330
30CB
100
AcDbXrecord
280
     1
 40
3752.0
  1
90,0°
  0
XRECORD
  5
30C3
102
{ACAD_REACTORS
330
30C2
102
}
330
30C2
100
AcDbXrecord
280
     1
 40
1.570796326794896
  0
LAYOUT
  5
1E
102
{ACAD_XDICTIONARY
360
30C4
102
}
102
{ACAD_REACTORS
330
1A
102
}
330
1A
100
AcDbPlotSettings
  1

  2
Ploter HP500
  4

  6

 40
0.0
 41
0.0
 42
0.0
 43
0.0
 44
0.0
 45
0.0
 46
0.0
 47
0.0
 48
0.0
 49
0.0
140
0.0
141
0.0
142
1.0
143
1.0
 70
   688
 72
     0
 73
     0
 74
     5
  7
sanindusa.ctb
 75
    16
147
1.0
148
0.0
149
0.0
100
AcDbLayout
  1
Layout1
 70
     1
 71
     1
 10
0.0
 20
0.0
 11
420.0
 21
297.0
 12
0.0
 22
0.0
 32
0.0
 14
1.000000000000000E+20
 24
1.000000000000000E+20
 34
1.000000000000000E+20
 15
-1.000000000000000E+20
 25
-1.000000000000000E+20
 35
-1.000000000000000E+20
146
0.0
 13
0.0
 23
0.0
 33
0.0
 16
1.0
 26
0.0
 36
0.0
 17
0.0
 27
1.0
 37
0.0
 76
     0
330
1B
  0
LAYOUT
  5
26
102
{ACAD_XDICTIONARY
360
30C8
102
}
102
{ACAD_REACTORS
330
1A
102
}
330
1A
100
AcDbPlotSettings
  1

  2
Ploter HP500
  4

  6

 40
0.0
 41
0.0
 42
0.0
 43
0.0
 44
0.0
 45
0.0
 46
0.0
 47
0.0
 48
0.0
 49
0.0
140
0.0
141
0.0
142
1.0
143
1.0
 70
   688
 72
     0
 73
     0
 74
     5
  7
sanindusa.ctb
 75
    16
147
1.0
148
0.0
149
0.0
100
AcDbLayout
  1
Layout2
 70
     1
 71
     2
 10
0.0
 20
0.0
 11
12.0
 21
9.0
 12
0.0
 22
0.0
 32
0.0
 14
0.0
 24
0.0
 34
0.0
 15
0.0
 25
0.0
 35
0.0
146
0.0
 13
0.0
 23
0.0
 33
0.0
 16
1.0
 26
0.0
 36
0.0
 17
0.0
 27
1.0
 37
0.0
 76
     0
330
23
  0
LAYOUT
  5
22
102
{ACAD_XDICTIONARY
360
30C6
102
}
102
{ACAD_REACTORS
330
1A
102
}
330
1A
100
AcDbPlotSettings
  1

  2
Ploter HP500
  4
User268
  6

 40
4.995333194732666
 41
16.97565841674804
 42
4.995330810546875
 43
16.97567749023437
 44
209.9733276367187
 45
296.9259948730469
 46
0.0
 47
0.0
 48
0.0
 49
0.0
140
0.0
141
0.0
142
1.0
143
1.0
 70
 11952
 72
     1
 73
     1
 74
     0
  7
sanindusa.ctb
 75
     0
147
1.0
148
-427.5957866592534
149
7.362384574453926
100
AcDbLayout
  1
Model
 70
     1
 71
     0
 10
0.0
 20
0.0
 11
12.0
 21
9.0
 12
0.0
 22
0.0
 32
0.0
 14
0.0
 24
0.0
 34
0.0
 15
0.0
 25
0.0
 35
0.0
146
0.0
 13
0.0
 23
0.0
 33
0.0
 16
1.0
 26
0.0
 36
0.0
 17
0.0
 27
1.0
 37
0.0
 76
     0
330
1F
331
2FE5
  0
MATERIAL
  5
2FF6
102
{ACAD_XDICTIONARY
360
2FF7
102
}
102
{ACAD_REACTORS
330
EE5
102
}
330
EE5
100
AcDbMaterial
  1
ByBlock
 72
     0
 43
0.0008202099737533
 43
0.0
 43
0.0
 43
0.0
 43
0.0
 43
0.0008202099737533
 43
0.0
 43
0.0
 43
0.0
 43
0.0
 43
1.0
 43
0.0
 43
0.0
 43
0.0
 43
0.0
 43
1.0
 77
     0
 47
0.0008202099737533
 47
0.0
 47
0.0
 47
0.0
 47
0.0
 47
0.0008202099737533
 47
0.0
 47
0.0
 47
0.0
 47
0.0
 47
1.0
 47
0.0
 47
0.0
 47
0.0
 47
0.0
 47
1.0
171
     0
 49
0.0008202099737533
 49
0.0
 49
0.0
 49
0.0
 49
0.0
 49
0.0008202099737533
 49
0.0
 49
0.0
 49
0.0
 49
0.0
 49
1.0
 49
0.0
 49
0.0
 49
0.0
 49
0.0
 49
1.0
175
     0
142
0.0008202099737533
142
0.0
142
0.0
142
0.0
142
0.0
142
0.0008202099737533
142
0.0
142
0.0
142
0.0
142
0.0
142
1.0
142
0.0
142
0.0
142
0.0
142
0.0
142
1.0
179
     0
144
0.0008202099737533
144
0.0
144
0.0
144
0.0
144
0.0
144
0.0008202099737533
144
0.0
144
0.0
144
0.0
144
0.0
144
1.0
144
0.0
144
0.0
144
0.0
144
0.0
144
1.0
147
0.0008202099737533
147
0.0
147
0.0
147
0.0
147
0.0
147
0.0008202099737533
147
0.0
147
0.0
147
0.0
147
0.0
147
1.0
147
0.0
147
0.0
147
0.0
147
0.0
147
1.0
  0
MATERIAL
  5
2FEE
102
{ACAD_XDICTIONARY
360
2FEF
102
}
102
{ACAD_REACTORS
330
EE5
102
}
330
EE5
100
AcDbMaterial
  1
ByLayer
 72
     0
 43
0.0008202099737533
 43
0.0
 43
0.0
 43
0.0
 43
0.0
 43
0.0008202099737533
 43
0.0
 43
0.0
 43
0.0
 43
0.0
 43
1.0
 43
0.0
 43
0.0
 43
0.0
 43
0.0
 43
1.0
 77
     0
 47
0.0008202099737533
 47
0.0
 47
0.0
 47
0.0
 47
0.0
 47
0.0008202099737533
 47
0.0
 47
0.0
 47
0.0
 47
0.0
 47
1.0
 47
0.0
 47
0.0
 47
0.0
 47
0.0
 47
1.0
171
     0
 49
0.0008202099737533
 49
0.0
 49
0.0
 49
0.0
 49
0.0
 49
0.0008202099737533
 49
0.0
 49
0.0
 49
0.0
 49
0.0
 49
1.0
 49
0.0
 49
0.0
 49
0.0
 49
0.0
 49
1.0
175
     0
142
0.0008202099737533
142
0.0
142
0.0
142
0.0
142
0.0
142
0.0008202099737533
142
0.0
142
0.0
142
0.0
142
0.0
142
1.0
142
0.0
142
0.0
142
0.0
142
0.0
142
1.0
179
     0
144
0.0008202099737533
144
0.0
144
0.0
144
0.0
144
0.0
144
0.0008202099737533
144
0.0
144
0.0
144
0.0
144
0.0
144
1.0
144
0.0
144
0.0
144
0.0
144
0.0
144
1.0
147
0.0008202099737533
147
0.0
147
0.0
147
0.0
147
0.0
147
0.0008202099737533
147
0.0
147
0.0
147
0.0
147
0.0
147
1.0
147
0.0
147
0.0
147
0.0
147
0.0
147
1.0
  0
MATERIAL
  5
2FFE
102
{ACAD_XDICTIONARY
360
2FFF
102
}
102
{ACAD_REACTORS
330
EE5
102
}
330
EE5
100
AcDbMaterial
  1
Global
 72
     0
 43
0.0008202099737533
 43
0.0
 43
0.0
 43
0.0
 43
0.0
 43
0.0008202099737533
 43
0.0
 43
0.0
 43
0.0
 43
0.0
 43
1.0
 43
0.0
 43
0.0
 43
0.0
 43
0.0
 43
1.0
 77
     0
 47
0.0008202099737533
 47
0.0
 47
0.0
 47
0.0
 47
0.0
 47
0.0008202099737533
 47
0.0
 47
0.0
 47
0.0
 47
0.0
 47
1.0
 47
0.0
 47
0.0
 47
0.0
 47
0.0
 47
1.0
171
     0
 49
0.0008202099737533
 49
0.0
 49
0.0
 49
0.0
 49
0.0
 49
0.0008202099737533
 49
0.0
 49
0.0
 49
0.0
 49
0.0
 49
1.0
 49
0.0
 49
0.0
 49
0.0
 49
0.0
 49
1.0
175
     0
142
0.0008202099737533
142
0.0
142
0.0
142
0.0
142
0.0
142
0.0008202099737533
142
0.0
142
0.0
142
0.0
142
0.0
142
1.0
142
0.0
142
0.0
142
0.0
142
0.0
142
1.0
179
     0
144
0.0008202099737533
144
0.0
144
0.0
144
0.0
144
0.0
144
0.0008202099737533
144
0.0
144
0.0
144
0.0
144
0.0
144
1.0
144
0.0
144
0.0
144
0.0
144
0.0
144
1.0
147
0.0008202099737533
147
0.0
147
0.0
147
0.0
147
0.0
147
0.0008202099737533
147
0.0
147
0.0
147
0.0
147
0.0
147
1.0
147
0.0
147
0.0
147
0.0
147
0.0
147
1.0
  0
MLEADERSTYLE
  5
302D
102
{ACAD_REACTORS
330
302C
102
}
330
302C
100
AcDbMLeaderStyle
170
     2
171
     1
172
     0
 90
        2
 40
0.0
 41
0.0
173
     1
 91
-1056964608
340
14
 92
       -2
290
     1
 42
2.0
291
     1
 43
0.36
  3
Standard
 44
4.0
300

342
11
174
     1
178
     6
175
     1
176
     0
 93
-1056964608
 45
4.0
292
     0
297
     0
 46
4.0
 94
-1056964608
 47
1.0
 49
1.0
140
1.0
293
     1
141
0.0
294
     1
177
     0
142
1.0
295
     0
296
     0
143
0.125
1001
ACAD_MLEADERVER
1070
     2
  0
MLINESTYLE
  5
18
102
{ACAD_REACTORS
330
17
102
}
330
17
100
AcDbMlineStyle
  2
STANDARD
 70
     0
  3

 62
   256
 51
90.0
 52
90.0
 71
     2
 49
0.5
 62
   256
  6
BYLAYER
 49
-0.5
 62
   256
  6
BYLAYER
  0
ACDBPLACEHOLDER
  5
F
102
{ACAD_REACTORS
330
E
102
}
330
E
  0
SCALE
  5
301B
102
{ACAD_REACTORS
330
301A
102
}
330
301A
100
AcDbScale
 70
     0
300
1:1
140
1.0
141
1.0
290
     1
  0
SCALE
  5
301C
102
{ACAD_REACTORS
330
301A
102
}
330
301A
100
AcDbScale
 70
     0
300
1:2
140
1.0
141
2.0
290
     0
  0
SCALE
  5
301D
102
{ACAD_REACTORS
330
301A
102
}
330
301A
100
AcDbScale
 70
     0
300
1:4
140
1.0
141
4.0
290
     0
  0
SCALE
  5
301E
102
{ACAD_REACTORS
330
301A
102
}
330
301A
100
AcDbScale
 70
     0
300
1:5
140
1.0
141
5.0
290
     0
  0
SCALE
  5
301F
102
{ACAD_REACTORS
330
301A
102
}
330
301A
100
AcDbScale
 70
     0
300
1:8
140
1.0
141
8.0
290
     0
  0
SCALE
  5
3020
102
{ACAD_REACTORS
330
301A
102
}
330
301A
100
AcDbScale
 70
     0
300
1:10
140
1.0
141
10.0
290
     0
  0
SCALE
  5
3021
102
{ACAD_REACTORS
330
301A
102
}
330
301A
100
AcDbScale
 70
     0
300
1:16
140
1.0
141
16.0
290
     0
  0
SCALE
  5
3022
102
{ACAD_REACTORS
330
301A
102
}
330
301A
100
AcDbScale
 70
     0
300
1:20
140
1.0
141
20.0
290
     0
  0
SCALE
  5
3023
102
{ACAD_REACTORS
330
301A
102
}
330
301A
100
AcDbScale
 70
     0
300
1:30
140
1.0
141
30.0
290
     0
  0
SCALE
  5
3024
102
{ACAD_REACTORS
330
301A
102
}
330
301A
100
AcDbScale
 70
     0
300
1:40
140
1.0
141
40.0
290
     0
  0
SCALE
  5
3025
102
{ACAD_REACTORS
330
301A
102
}
330
301A
100
AcDbScale
 70
     0
300
1:50
140
1.0
141
50.0
290
     0
  0
SCALE
  5
3026
102
{ACAD_REACTORS
330
301A
102
}
330
301A
100
AcDbScale
 70
     0
300
1:100
140
1.0
141
100.0
290
     0
  0
SCALE
  5
3027
102
{ACAD_REACTORS
330
301A
102
}
330
301A
100
AcDbScale
 70
     0
300
2:1
140
2.0
141
1.0
290
     0
  0
SCALE
  5
3028
102
{ACAD_REACTORS
330
301A
102
}
330
301A
100
AcDbScale
 70
     0
300
4:1
140
4.0
141
1.0
290
     0
  0
SCALE
  5
3029
102
{ACAD_REACTORS
330
301A
102
}
330
301A
100
AcDbScale
 70
     0
300
8:1
140
8.0
141
1.0
290
     0
  0
SCALE
  5
302A
102
{ACAD_REACTORS
330
301A
102
}
330
301A
100
AcDbScale
 70
     0
300
10:1
140
10.0
141
1.0
290
     0
  0
SCALE
  5
302B
102
{ACAD_REACTORS
330
301A
102
}
330
301A
100
AcDbScale
 70
     0
300
100:1
140
100.0
141
1.0
290
     0
  0
TABLESTYLE
  5
EE8
102
{ACAD_XDICTIONARY
360
30BE
102
}
102
{ACAD_REACTORS
330
EE7
102
}
330
EE7
100
AcDbTableStyle
  3
Standard
 70
     0
 71
     0
 40
1.5
 41
1.5
280
     0
281
     0
  7
Standard
140
4.5
170
     2
 62
     0
 63
     7
283
     0
274
    -2
284
     1
 64
     0
275
    -2
285
     1
 65
     0
276
    -2
286
     1
 66
     0
277
    -2
287
     1
 67
     0
278
    -2
288
     1
 68
     0
279
    -2
289
     1
 69
     0
  7
Standard
140
6.0
170
     5
 62
     0
 63
     7
283
     0
274
    -2
284
     1
 64
     0
275
    -2
285
     1
 65
     0
276
    -2
286
     1
 66
     0
277
    -2
287
     1
 67
     0
278
    -2
288
     1
 68
     0
279
    -2
289
     1
 69
     0
  7
Standard
140
4.5
170
     5
 62
     0
 63
     7
283
     0
274
    -2
284
     1
 64
     0
275
    -2
285
     1
 65
     0
276
    -2
286
     1
 66
     0
277
    -2
287
     1
 67
     0
278
    -2
288
     1
 68
     0
279
    -2
289
     1
 69
     0
  0
VISUALSTYLE
  5
300C
102
{ACAD_XDICTIONARY
360
30DA
102
}
102
{ACAD_REACTORS
330
3006
102
}
330
3006
100
AcDbVisualStyle
  2
2dWireframe
 70
     4
 71
     0
 72
     2
 73
     0
 90
        0
 40
-0.6
 41
-30.0
 62
     5
 63
     7
 74
     1
 91
        4
 64
     7
 65
   257
 75
     1
175
     1
 42
1.0
 92
        0
 66
   257
 43
1.0
 76
     1
 77
     6
 78
     2
 67
     7
 79
     5
170
     0
171
     0
290
     0
174
     0
 93
        1
 44
0.0
173
     0
291
     0
 45
0.0
1001
ACAD
1000
AcDbSavedByObjectVersion
1070
     0
  0
VISUALSTYLE
  5
300E
102
{ACAD_XDICTIONARY
360
30DE
102
}
102
{ACAD_REACTORS
330
3006
102
}
330
3006
100
AcDbVisualStyle
  2
3D Hidden
 70
     6
 71
     1
 72
     2
 73
     2
 90
        0
 40
-0.6
 41
-30.0
 62
     5
 63
     7
 74
     2
 91
        2
 64
     7
 65
   257
 75
     2
175
     1
 42
179.0
 92
        0
 66
   257
 43
1.0
 76
     1
 77
     6
 78
     2
 67
     7
 79
     3
170
     0
171
     0
290
     0
174
     0
 93
        1
 44
0.0
173
     0
291
     0
 45
0.0
1001
ACAD
1000
AcDbSavedByObjectVersion
1070
     0
  0
VISUALSTYLE
  5
300D
102
{ACAD_XDICTIONARY
360
30DC
102
}
102
{ACAD_REACTORS
330
3006
102
}
330
3006
100
AcDbVisualStyle
  2
3dWireframe
 70
     5
 71
     0
 72
     2
 73
     0
 90
        0
 40
-0.6
 41
-30.0
 62
     5
 63
     7
 74
     1
 91
        4
 64
     7
 65
   257
 75
     1
175
     1
 42
1.0
 92
        0
 66
   257
 43
1.0
 76
     1
 77
     6
 78
     2
 67
     7
 79
     5
170
     0
171
     0
290
     0
174
     0
 93
        1
 44
0.0
173
     0
291
     0
 45
0.0
1001
ACAD
1000
AcDbSavedByObjectVersion
1070
     0
  0
VISUALSTYLE
  5
300B
102
{ACAD_XDICTIONARY
360
30D8
102
}
102
{ACAD_REACTORS
330
3006
102
}
330
3006
100
AcDbVisualStyle
  2
Basic
 70
     7
 71
     1
 72
     0
 73
     1
 90
        0
 40
-0.6
 41
-30.0
 62
     5
 63
     7
 74
     0
 91
        4
 64
     7
 65
   257
 75
     1
175
     1
 42
1.0
 92
        8
 66
     7
 43
1.0
 76
     1
 77
     6
 78
     2
 67
     7
 79
     5
170
     0
171
     0
290
     0
174
     0
 93
        1
 44
0.0
173
     0
291
     1
 45
0.0
1001
ACAD
1000
AcDbSavedByObjectVersion
1070
     0
  0
VISUALSTYLE
  5
3012
102
{ACAD_XDICTIONARY
360
30E6
102
}
102
{ACAD_REACTORS
330
3006
102
}
330
3006
100
AcDbVisualStyle
  2
Brighten
 70
    12
 71
     2
 72
     2
 73
     0
 90
        0
 40
-0.6
 41
-30.0
 62
     5
 63
     7
 74
     1
 91
        4
 64
     7
 65
   257
 75
     1
175
     1
 42
1.0
 92
        8
 66
     7
 43
1.0
 76
     1
 77
     6
 78
     2
 67
     7
 79
     5
170
     0
171
     0
290
     0
174
     0
 93
        1
 44
50.0
173
     0
291
     1
 45
0.0
1001
ACAD
1000
AcDbSavedByObjectVersion
1070
     0
  0
VISUALSTYLE
  5
3016
102
{ACAD_XDICTIONARY
360
30EE
102
}
102
{ACAD_REACTORS
330
3006
102
}
330
3006
100
AcDbVisualStyle
  2
ColorChange
 70
    16
 71
     2
 72
     2
 73
     3
 90
        0
 40
-0.6
 41
-30.0
 62
     5
 63
     8
 74
     1
 91
        4
 64
     7
 65
   257
 75
     1
175
     1
 42
1.0
 92
        8
 66
     8
 43
1.0
 76
     1
 77
     6
 78
     2
 67
     7
 79
     5
170
     0
171
     0
290
     0
174
     0
 93
        1
 44
0.0
173
     0
291
     1
 45
0.0
1001
ACAD
1000
AcDbSavedByObjectVersion
1070
     0
  0
VISUALSTYLE
  5
300F
102
{ACAD_XDICTIONARY
360
30E0
102
}
102
{ACAD_REACTORS
330
3006
102
}
330
3006
100
AcDbVisualStyle
  2
Conceptual
 70
     9
 71
     3
 72
     2
 73
     0
 90
        0
 40
-0.6
 41
-30.0
 62
     5
 63
     7
 74
     2
 91
        2
 64
     7
 65
   257
 75
     1
175
     1
 42
179.0
 92
        8
 66
     7
 43
1.0
 76
     1
 77
     6
 78
     2
 67
     7
 79
     3
170
     0
171
     0
290
     0
174
     0
 93
        1
 44
0.0
173
     0
291
     0
 45
0.0
1001
ACAD
1000
AcDbSavedByObjectVersion
1070
     0
  0
VISUALSTYLE
  5
3011
102
{ACAD_XDICTIONARY
360
30E4
102
}
102
{ACAD_REACTORS
330
3006
102
}
330
3006
100
AcDbVisualStyle
  2
Dim
 70
    11
 71
     2
 72
     2
 73
     0
 90
        0
 40
-0.6
 41
-30.0
 62
     5
 63
     7
 74
     1
 91
        4
 64
     7
 65
   257
 75
     1
175
     1
 42
1.0
 92
        8
 66
     7
 43
1.0
 76
     1
 77
     6
 78
     2
 67
     7
 79
     5
170
     0
171
     0
290
     0
174
     0
 93
        1
 44
-50.0
173
     0
291
     1
 45
0.0
1001
ACAD
1000
AcDbSavedByObjectVersion
1070
     0
  0
VISUALSTYLE
  5
3019
102
{ACAD_XDICTIONARY
360
30F4
102
}
102
{ACAD_REACTORS
330
3006
102
}
330
3006
100
AcDbVisualStyle
  2
EdgeColorOff
 70
    22
 71
     2
 72
     2
 73
     0
 90
        0
 40
-0.6
 41
-30.0
 62
     5
 63
     7
 74
     1
 91
        4
 64
     7
 65
   257
 75
     1
175
     1
 42
1.0
 92
        8
 66
     7
 43
1.0
 76
     1
 77
     6
 78
     2
 67
     7
 79
     5
170
     0
171
     0
290
     0
174
     0
 93
        1
 44
0.0
173
     0
291
     1
 45
0.0
1001
ACAD
1000
AcDbSavedByObjectVersion
1070
     0
  0
VISUALSTYLE
  5
3015
102
{ACAD_XDICTIONARY
360
30EC
102
}
102
{ACAD_REACTORS
330
3006
102
}
330
3006
100
AcDbVisualStyle
  2
Facepattern
 70
    15
 71
     2
 72
     2
 73
     0
 90
        0
 40
-0.6
 41
-30.0
 62
     5
 63
     7
 74
     1
 91
        4
 64
     7
 65
   257
 75
     1
175
     1
 42
1.0
 92
        8
 66
     7
 43
1.0
 76
     1
 77
     6
 78
     2
 67
     7
 79
     5
170
     0
171
     0
290
     0
174
     0
 93
        1
 44
0.0
173
     0
291
     1
 45
0.0
1001
ACAD
1000
AcDbSavedByObjectVersion
1070
     0
  0
VISUALSTYLE
  5
3007
102
{ACAD_XDICTIONARY
360
30D0
102
}
102
{ACAD_REACTORS
330
3006
102
}
330
3006
100
AcDbVisualStyle
  2
Flat
 70
     0
 71
     2
 72
     1
 73
     1
 90
        2
 40
-0.6
 41
30.0
 62
     5
 63
     7
 74
     0
 91
        4
 64
     7
 65
   257
 75
     1
175
     1
 42
1.0
 92
        8
 66
     7
 43
1.0
 76
     1
 77
     6
 78
     2
 67
     7
 79
     5
170
     0
171
     0
290
     0
174
     0
 93
       13
 44
0.0
173
     0
291
     1
 45
0.0
1001
ACAD
1000
AcDbSavedByObjectVersion
1070
     0
  0
VISUALSTYLE
  5
3008
102
{ACAD_XDICTIONARY
360
30D2
102
}
102
{ACAD_REACTORS
330
3006
102
}
330
3006
100
AcDbVisualStyle
  2
FlatWithEdges
 70
     1
 71
     2
 72
     1
 73
     1
 90
        2
 40
-0.6
 41
30.0
 62
     5
 63
     7
 74
     1
 91
        4
 64
     7
 65
   257
 75
     1
175
     1
 42
1.0
 92
        0
 66
   257
 43
1.0
 76
     1
 77
     6
 78
     2
 67
     7
 79
     5
170
     0
171
     0
290
     0
174
     0
 93
       13
 44
0.0
173
     0
291
     1
 45
0.0
1001
ACAD
1000
AcDbSavedByObjectVersion
1070
     0
  0
VISUALSTYLE
  5
3009
102
{ACAD_XDICTIONARY
360
30D4
102
}
102
{ACAD_REACTORS
330
3006
102
}
330
3006
100
AcDbVisualStyle
  2
Gouraud
 70
     2
 71
     2
 72
     2
 73
     1
 90
        2
 40
-0.6
 41
30.0
 62
     5
 63
     7
 74
     0
 91
        4
 64
     7
 65
   257
 75
     1
175
     1
 42
1.0
 92
        0
 66
     7
 43
1.0
 76
     1
 77
     6
 78
     2
 67
     7
 79
     5
170
     0
171
     0
290
     0
174
     0
 93
       13
 44
0.0
173
     0
291
     1
 45
0.0
1001
ACAD
1000
AcDbSavedByObjectVersion
1070
     0
  0
VISUALSTYLE
  5
300A
102
{ACAD_XDICTIONARY
360
30D6
102
}
102
{ACAD_REACTORS
330
3006
102
}
330
3006
100
AcDbVisualStyle
  2
GouraudWithEdges
 70
     3
 71
     2
 72
     2
 73
     1
 90
        2
 40
-0.6
 41
30.0
 62
     5
 63
     7
 74
     1
 91
        4
 64
     7
 65
   257
 75
     1
175
     1
 42
1.0
 92
        0
 66
   257
 43
1.0
 76
     1
 77
     6
 78
     2
 67
     7
 79
     5
170
     0
171
     0
290
     0
174
     0
 93
       13
 44
0.0
173
     0
291
     1
 45
0.0
1001
ACAD
1000
AcDbSavedByObjectVersion
1070
     0
  0
VISUALSTYLE
  5
3017
102
{ACAD_XDICTIONARY
360
30F0
102
}
102
{ACAD_REACTORS
330
3006
102
}
330
3006
100
AcDbVisualStyle
  2
JitterOff
 70
    20
 71
     2
 72
     2
 73
     0
 90
        0
 40
-0.6
 41
-30.0
 62
     5
 63
     7
 74
     1
 91
        4
 64
     7
 65
   257
 75
     1
175
     1
 42
1.0
 92
       10
 66
     7
 43
1.0
 76
     1
 77
     6
 78
     2
 67
     7
 79
     5
170
     0
171
     0
290
     0
174
     0
 93
        1
 44
0.0
173
     0
291
     1
 45
0.0
1001
ACAD
1000
AcDbSavedByObjectVersion
1070
     0
  0
VISUALSTYLE
  5
3014
102
{ACAD_XDICTIONARY
360
30EA
102
}
102
{ACAD_REACTORS
330
3006
102
}
330
3006
100
AcDbVisualStyle
  2
Linepattern
 70
    14
 71
     2
 72
     2
 73
     0
 90
        0
 40
-0.6
 41
-30.0
 62
     5
 63
     7
 74
     1
 91
        4
 64
     7
 65
   257
 75
     7
175
     7
 42
1.0
 92
        8
 66
     7
 43
1.0
 76
     1
 77
     6
 78
     2
 67
     7
 79
     5
170
     0
171
     0
290
     0
174
     0
 93
        1
 44
0.0
173
     0
291
     1
 45
0.0
1001
ACAD
1000
AcDbSavedByObjectVersion
1070
     0
  0
VISUALSTYLE
  5
3018
102
{ACAD_XDICTIONARY
360
30F2
102
}
102
{ACAD_REACTORS
330
3006
102
}
330
3006
100
AcDbVisualStyle
  2
OverhangOff
 70
    21
 71
     2
 72
     2
 73
     0
 90
        0
 40
-0.6
 41
-30.0
 62
     5
 63
     7
 74
     1
 91
        4
 64
     7
 65
   257
 75
     1
175
     1
 42
1.0
 92
        9
 66
     7
 43
1.0
 76
     1
 77
     6
 78
     2
 67
     7
 79
     5
170
     0
171
     0
290
     0
174
     0
 93
        1
 44
0.0
173
     0
291
     1
 45
0.0
1001
ACAD
1000
AcDbSavedByObjectVersion
1070
     0
  0
VISUALSTYLE
  5
3010
102
{ACAD_XDICTIONARY
360
30E2
102
}
102
{ACAD_REACTORS
330
3006
102
}
330
3006
100
AcDbVisualStyle
  2
Realistic
 70
     8
 71
     2
 72
     2
 73
     0
 90
        0
 40
-0.6
 41
-30.0
 62
     5
 63
     7
 74
     1
 91
        0
 64
     7
 65
   257
 75
     1
175
     1
 42
1.0
 92
        8
 66
     8
 43
1.0
 76
     1
 77
     6
 78
     2
 67
     7
 79
     5
170
     0
171
     0
290
     0
174
     0
 93
       13
 44
0.0
173
     0
291
     0
 45
0.0
1001
ACAD
1000
AcDbSavedByObjectVersion
1070
     0
  0
VISUALSTYLE
  5
3013
102
{ACAD_XDICTIONARY
360
30E8
102
}
102
{ACAD_REACTORS
330
3006
102
}
330
3006
100
AcDbVisualStyle
  2
Thicken
 70
    13
 71
     2
 72
     2
 73
     0
 90
        0
 40
-0.6
 41
-30.0
 62
     5
 63
     7
 74
     1
 91
        4
 64
     7
 65
   257
 75
     1
175
     1
 42
1.0
 92
       12
 66
     7
 43
1.0
 76
     1
 77
     6
 78
     2
 67
     7
 79
     5
170
     0
171
     0
290
     0
174
     0
 93
        1
 44
0.0
173
     0
291
     1
 45
0.0
1001
ACAD
1000
AcDbSavedByObjectVersion
1070
     0
  0
DICTIONARYVAR
  5
30BA
102
{ACAD_REACTORS
330
3D
102
}
330
3D
100
DictionaryVariables
280
     0
  1
1:1
  0
DICTIONARYVAR
  5
30B9
102
{ACAD_REACTORS
330
3D
102
}
330
3D
100
DictionaryVariables
280
     0
  1
STANDARD
  0
DICTIONARYVAR
  5
1049
102
{ACAD_REACTORS
330
3D
102
}
330
3D
100
DictionaryVariables
280
     0
  1
STANDARD
  0
DICTIONARYVAR
  5
3F
102
{ACAD_REACTORS
330
3D
102
}
330
3D
100
DictionaryVariables
280
     0
  1
2
  0
DICTIONARYVAR
  5
3E
102
{ACAD_REACTORS
330
3D
102
}
330
3D
100
DictionaryVariables
280
     0
  1
1
  0
DICTIONARYVAR
  5
30BC
102
{ACAD_REACTORS
330
3D
102
}
330
3D
100
DictionaryVariables
280
     0
  1
0
  0
DICTIONARYVAR
  5
2EF0
102
{ACAD_REACTORS
330
3D
102
}
330
3D
100
DictionaryVariables
280
     0
  1

  0
DICTIONARYVAR
  5
30BB
102
{ACAD_REACTORS
330
3D
102
}
330
3D
100
DictionaryVariables
280
     0
  1
127
  0
DICTIONARYVAR
  5
30BD
102
{ACAD_REACTORS
330
3D
102
}
330
3D
100
DictionaryVariables
280
     0
  1
2
  0
XRECORD
  5
E78
102
{ACAD_REACTORS
330
E77
102
}
330
E77
100
AcDbXrecord
280
     1
330
0
330
0
  0
DICTIONARY
  5
30C4
330
1E
100
AcDbDictionary
280
     1
281
     1
  3
ACAD_XREC_ROUNDTRIP
360
30C5
  0
DICTIONARY
  5
30C8
330
26
100
AcDbDictionary
280
     1
281
     1
  3
ACAD_XREC_ROUNDTRIP
360
30C9
  0
DICTIONARY
  5
30C6
330
22
100
AcDbDictionary
280
     1
281
     1
  3
ACAD_XREC_ROUNDTRIP
360
30C7
  0
DICTIONARY
  5
2FF7
330
2FF6
100
AcDbDictionary
280
     1
281
     1
  3
ACAD_XREC_ROUNDTRIP
360
30CE
  3
BUMPTILE
360
2FF9
  3
DIFFUSETILE
360
2FF8
  3
OPACITYTILE
360
2FFC
  3
REFLECTIONTILE
360
2FFB
  3
REFRACTIONTILE
360
2FFD
  3
SPECULARTILE
360
2FFA
  0
DICTIONARY
  5
2FEF
330
2FEE
100
AcDbDictionary
280
     1
281
     1
  3
ACAD_XREC_ROUNDTRIP
360
30CD
  3
BUMPTILE
360
2FF1
  3
DIFFUSETILE
360
2FF0
  3
OPACITYTILE
360
2FF4
  3
REFLECTIONTILE
360
2FF3
  3
REFRACTIONTILE
360
2FF5
  3
SPECULARTILE
360
2FF2
  0
DICTIONARY
  5
2FFF
330
2FFE
100
AcDbDictionary
280
     1
281
     1
  3
ACAD_XREC_ROUNDTRIP
360
30CF
  3
BUMPTILE
360
3001
  3
DIFFUSETILE
360
3000
  3
OPACITYTILE
360
3004
  3
REFLECTIONTILE
360
3003
  3
REFRACTIONTILE
360
3005
  3
SPECULARTILE
360
3002
  0
DICTIONARY
  5
30BE
330
EE8
100
AcDbDictionary
280
     1
281
     1
  3
ACAD_ROUNDTRIP_2008_TABLESTYLE_CELLSTYLEMAP
360
30BF
  3
ACAD_XREC_ROUNDTRIP
360
30CA
  0
DICTIONARY
  5
30DA
330
300C
100
AcDbDictionary
280
     1
281
     1
  3
ACAD_XREC_ROUNDTRIP
360
30DB
  0
DICTIONARY
  5
30DE
330
300E
100
AcDbDictionary
280
     1
281
     1
  3
ACAD_XREC_ROUNDTRIP
360
30DF
  0
DICTIONARY
  5
30DC
330
300D
100
AcDbDictionary
280
     1
281
     1
  3
ACAD_XREC_ROUNDTRIP
360
30DD
  0
DICTIONARY
  5
30D8
330
300B
100
AcDbDictionary
280
     1
281
     1
  3
ACAD_XREC_ROUNDTRIP
360
30D9
  0
DICTIONARY
  5
30E6
330
3012
100
AcDbDictionary
280
     1
281
     1
  3
ACAD_XREC_ROUNDTRIP
360
30E7
  0
DICTIONARY
  5
30EE
330
3016
100
AcDbDictionary
280
     1
281
     1
  3
ACAD_XREC_ROUNDTRIP
360
30EF
  0
DICTIONARY
  5
30E0
330
300F
100
AcDbDictionary
280
     1
281
     1
  3
ACAD_XREC_ROUNDTRIP
360
30E1
  0
DICTIONARY
  5
30E4
330
3011
100
AcDbDictionary
280
     1
281
     1
  3
ACAD_XREC_ROUNDTRIP
360
30E5
  0
DICTIONARY
  5
30F4
330
3019
100
AcDbDictionary
280
     1
281
     1
  3
ACAD_XREC_ROUNDTRIP
360
30F5
  0
DICTIONARY
  5
30EC
330
3015
100
AcDbDictionary
280
     1
281
     1
  3
ACAD_XREC_ROUNDTRIP
360
30ED
  0
DICTIONARY
  5
30D0
330
3007
100
AcDbDictionary
280
     1
281
     1
  3
ACAD_XREC_ROUNDTRIP
360
30D1
  0
DICTIONARY
  5
30D2
330
3008
100
AcDbDictionary
280
     1
281
     1
  3
ACAD_XREC_ROUNDTRIP
360
30D3
  0
DICTIONARY
  5
30D4
330
3009
100
AcDbDictionary
280
     1
281
     1
  3
ACAD_XREC_ROUNDTRIP
360
30D5
  0
DICTIONARY
  5
30D6
330
300A
100
AcDbDictionary
280
     1
281
     1
  3
ACAD_XREC_ROUNDTRIP
360
30D7
  0
DICTIONARY
  5
30F0
330
3017
100
AcDbDictionary
280
     1
281
     1
  3
ACAD_XREC_ROUNDTRIP
360
30F1
  0
DICTIONARY
  5
30EA
330
3014
100
AcDbDictionary
280
     1
281
     1
  3
ACAD_XREC_ROUNDTRIP
360
30EB
  0
DICTIONARY
  5
30F2
330
3018
100
AcDbDictionary
280
     1
281
     1
  3
ACAD_XREC_ROUNDTRIP
360
30F3
  0
DICTIONARY
  5
30E2
330
3010
100
AcDbDictionary
280
     1
281
     1
  3
ACAD_XREC_ROUNDTRIP
360
30E3
  0
DICTIONARY
  5
30E8
330
3013
100
AcDbDictionary
280
     1
281
     1
  3
ACAD_XREC_ROUNDTRIP
360
30E9
  0
XRECORD
  5
30C5
102
{ACAD_REACTORS
330
30C4
102
}
330
30C4
100
AcDbXrecord
280
     1
102
SHADEPLOT
 70
     0
102
SHADEPLOTRESLEVEL
 70
     2
102
SHADEPLOTCUSTOMDPI
 70
   300
  0
XRECORD
  5
30C9
102
{ACAD_REACTORS
330
30C8
102
}
330
30C8
100
AcDbXrecord
280
     1
102
SHADEPLOT
 70
     0
102
SHADEPLOTRESLEVEL
 70
     2
102
SHADEPLOTCUSTOMDPI
 70
   300
  0
XRECORD
  5
30C7
102
{ACAD_REACTORS
330
30C6
102
}
330
30C6
100
AcDbXrecord
280
     1
102
SHADEPLOT
 70
     0
102
SHADEPLOTRESLEVEL
 70
     2
102
SHADEPLOTCUSTOMDPI
 70
   300
  0
XRECORD
  5
30CE
102
{ACAD_REACTORS
330
2FF7
102
}
330
2FF7
100
AcDbXrecord
280
     1
102
MATERIAL
148
0.0
149
0.0
149
0.0
 93
        0
 94
      127
282
     0
 72
     0
 77
     0
171
     0
175
     0
179
     0
273
     0
  0
XRECORD
  5
2FF9
102
{ACAD_REACTORS
330
2FF7
102
}
330
2FF7
100
AcDbXrecord
280
     1
270
     1
271
     1
  0
XRECORD
  5
2FF8
102
{ACAD_REACTORS
330
2FF7
102
}
330
2FF7
100
AcDbXrecord
280
     1
270
     1
271
     1
  0
XRECORD
  5
2FFC
102
{ACAD_REACTORS
330
2FF7
102
}
330
2FF7
100
AcDbXrecord
280
     1
270
     1
271
     1
  0
XRECORD
  5
2FFB
102
{ACAD_REACTORS
330
2FF7
102
}
330
2FF7
100
AcDbXrecord
280
     1
270
     1
271
     1
  0
XRECORD
  5
2FFD
102
{ACAD_REACTORS
330
2FF7
102
}
330
2FF7
100
AcDbXrecord
280
     1
270
     1
271
     1
  0
XRECORD
  5
2FFA
102
{ACAD_REACTORS
330
2FF7
102
}
330
2FF7
100
AcDbXrecord
280
     1
270
     1
271
     1
  0
XRECORD
  5
30CD
102
{ACAD_REACTORS
330
2FEF
102
}
330
2FEF
100
AcDbXrecord
280
     1
102
MATERIAL
148
0.0
149
0.0
149
0.0
 93
        0
 94
      127
282
     0
 72
     0
 77
     0
171
     0
175
     0
179
     0
273
     0
  0
XRECORD
  5
2FF1
102
{ACAD_REACTORS
330
2FEF
102
}
330
2FEF
100
AcDbXrecord
280
     1
270
     1
271
     1
  0
XRECORD
  5
2FF0
102
{ACAD_REACTORS
330
2FEF
102
}
330
2FEF
100
AcDbXrecord
280
     1
270
     1
271
     1
  0
XRECORD
  5
2FF4
102
{ACAD_REACTORS
330
2FEF
102
}
330
2FEF
100
AcDbXrecord
280
     1
270
     1
271
     1
  0
XRECORD
  5
2FF3
102
{ACAD_REACTORS
330
2FEF
102
}
330
2FEF
100
AcDbXrecord
280
     1
270
     1
271
     1
  0
XRECORD
  5
2FF5
102
{ACAD_REACTORS
330
2FEF
102
}
330
2FEF
100
AcDbXrecord
280
     1
270
     1
271
     1
  0
XRECORD
  5
2FF2
102
{ACAD_REACTORS
330
2FEF
102
}
330
2FEF
100
AcDbXrecord
280
     1
270
     1
271
     1
  0
XRECORD
  5
30CF
102
{ACAD_REACTORS
330
2FFF
102
}
330
2FFF
100
AcDbXrecord
280
     1
102
MATERIAL
148
0.0
149
0.0
149
0.0
 93
        0
 94
      127
282
     0
 72
     0
 77
     0
171
     0
175
     0
179
     0
273
     0
  0
XRECORD
  5
3001
102
{ACAD_REACTORS
330
2FFF
102
}
330
2FFF
100
AcDbXrecord
280
     1
270
     1
271
     1
  0
XRECORD
  5
3000
102
{ACAD_REACTORS
330
2FFF
102
}
330
2FFF
100
AcDbXrecord
280
     1
270
     1
271
     1
  0
XRECORD
  5
3004
102
{ACAD_REACTORS
330
2FFF
102
}
330
2FFF
100
AcDbXrecord
280
     1
270
     1
271
     1
  0
XRECORD
  5
3003
102
{ACAD_REACTORS
330
2FFF
102
}
330
2FFF
100
AcDbXrecord
280
     1
270
     1
271
     1
  0
XRECORD
  5
3005
102
{ACAD_REACTORS
330
2FFF
102
}
330
2FFF
100
AcDbXrecord
280
     1
270
     1
271
     1
  0
XRECORD
  5
3002
102
{ACAD_REACTORS
330
2FFF
102
}
330
2FFF
100
AcDbXrecord
280
     1
270
     1
271
     1
  0
CELLSTYLEMAP
  5
30BF
102
{ACAD_REACTORS
330
30BE
102
}
330
30BE
100
AcDbCellStyleMap
 90
        3
300
CELLSTYLE
  1
TABLEFORMAT_BEGIN
 90
        5
170
     1
 91
        0
 92
    32768
 62
   257
 93
        1
300
CONTENTFORMAT
  1
CONTENTFORMAT_BEGIN
 90
        0
 91
        0
 92
        4
 93
        0
300

 40
0.0
140
1.0
 94
        5
 62
     0
340
11
144
6.0
309
CONTENTFORMAT_END
171
     1
301
MARGIN
  1
CELLMARGIN_BEGIN
 40
1.5
 40
1.5
 40
1.5
 40
1.5
 40
0.18
 40
0.18
309
CELLMARGIN_END
 94
        6
 95
        1
302
GRIDFORMAT
  1
GRIDFORMAT_BEGIN
 90
        0
 91
        1
 62
     0
 92
       -2
340
0
 93
        0
 40
0.045
309
GRIDFORMAT_END
 95
        2
302
GRIDFORMAT
  1
GRIDFORMAT_BEGIN
 90
        0
 91
        1
 62
     0
 92
       -2
340
0
 93
        0
 40
0.045
309
GRIDFORMAT_END
 95
        4
302
GRIDFORMAT
  1
GRIDFORMAT_BEGIN
 90
        0
 91
        1
 62
     0
 92
       -2
340
0
 93
        0
 40
0.045
309
GRIDFORMAT_END
 95
        8
302
GRIDFORMAT
  1
GRIDFORMAT_BEGIN
 90
        0
 91
        1
 62
     0
 92
       -2
340
0
 93
        0
 40
0.045
309
GRIDFORMAT_END
 95
       16
302
GRIDFORMAT
  1
GRIDFORMAT_BEGIN
 90
        0
 91
        1
 62
     0
 92
       -2
340
0
 93
        0
 40
0.045
309
GRIDFORMAT_END
 95
       32
302
GRIDFORMAT
  1
GRIDFORMAT_BEGIN
 90
        0
 91
        1
 62
     0
 92
       -2
340
0
 93
        0
 40
0.045
309
GRIDFORMAT_END
309
TABLEFORMAT_END
  1
CELLSTYLE_BEGIN
 90
        1
 91
        1
300
_TITLE
309
CELLSTYLE_END
300
CELLSTYLE
  1
TABLEFORMAT_BEGIN
 90
        5
170
     1
 91
        0
 92
        0
 62
   257
 93
        1
300
CONTENTFORMAT
  1
CONTENTFORMAT_BEGIN
 90
        0
 91
        0
 92
        4
 93
        0
300

 40
0.0
140
1.0
 94
        5
 62
     0
340
11
144
4.5
309
CONTENTFORMAT_END
171
     1
301
MARGIN
  1
CELLMARGIN_BEGIN
 40
1.5
 40
1.5
 40
1.5
 40
1.5
 40
0.18
 40
0.18
309
CELLMARGIN_END
 94
        6
 95
        1
302
GRIDFORMAT
  1
GRIDFORMAT_BEGIN
 90
        0
 91
        1
 62
     0
 92
       -2
340
0
 93
        0
 40
0.045
309
GRIDFORMAT_END
 95
        2
302
GRIDFORMAT
  1
GRIDFORMAT_BEGIN
 90
        0
 91
        1
 62
     0
 92
       -2
340
0
 93
        0
 40
0.045
309
GRIDFORMAT_END
 95
        4
302
GRIDFORMAT
  1
GRIDFORMAT_BEGIN
 90
        0
 91
        1
 62
     0
 92
       -2
340
0
 93
        0
 40
0.045
309
GRIDFORMAT_END
 95
        8
302
GRIDFORMAT
  1
GRIDFORMAT_BEGIN
 90
        0
 91
        1
 62
     0
 92
       -2
340
0
 93
        0
 40
0.045
309
GRIDFORMAT_END
 95
       16
302
GRIDFORMAT
  1
GRIDFORMAT_BEGIN
 90
        0
 91
        1
 62
     0
 92
       -2
340
0
 93
        0
 40
0.045
309
GRIDFORMAT_END
 95
       32
302
GRIDFORMAT
  1
GRIDFORMAT_BEGIN
 90
        0
 91
        1
 62
     0
 92
       -2
340
0
 93
        0
 40
0.045
309
GRIDFORMAT_END
309
TABLEFORMAT_END
  1
CELLSTYLE_BEGIN
 90
        2
 91
        1
300
_HEADER
309
CELLSTYLE_END
300
CELLSTYLE
  1
TABLEFORMAT_BEGIN
 90
        5
170
     1
 91
        0
 92
        0
 62
   257
 93
        1
300
CONTENTFORMAT
  1
CONTENTFORMAT_BEGIN
 90
        0
 91
        0
 92
        4
 93
        0
300

 40
0.0
140
1.0
 94
        2
 62
     0
340
11
144
4.5
309
CONTENTFORMAT_END
171
     1
301
MARGIN
  1
CELLMARGIN_BEGIN
 40
1.5
 40
1.5
 40
1.5
 40
1.5
 40
0.18
 40
0.18
309
CELLMARGIN_END
 94
        6
 95
        1
302
GRIDFORMAT
  1
GRIDFORMAT_BEGIN
 90
        0
 91
        1
 62
     0
 92
       -2
340
0
 93
        0
 40
0.045
309
GRIDFORMAT_END
 95
        2
302
GRIDFORMAT
  1
GRIDFORMAT_BEGIN
 90
        0
 91
        1
 62
     0
 92
       -2
340
0
 93
        0
 40
0.045
309
GRIDFORMAT_END
 95
        4
302
GRIDFORMAT
  1
GRIDFORMAT_BEGIN
 90
        0
 91
        1
 62
     0
 92
       -2
340
0
 93
        0
 40
0.045
309
GRIDFORMAT_END
 95
        8
302
GRIDFORMAT
  1
GRIDFORMAT_BEGIN
 90
        0
 91
        1
 62
     0
 92
       -2
340
0
 93
        0
 40
0.045
309
GRIDFORMAT_END
 95
       16
302
GRIDFORMAT
  1
GRIDFORMAT_BEGIN
 90
        0
 91
        1
 62
     0
 92
       -2
340
0
 93
        0
 40
0.045
309
GRIDFORMAT_END
 95
       32
302
GRIDFORMAT
  1
GRIDFORMAT_BEGIN
 90
        0
 91
        1
 62
     0
 92
       -2
340
0
 93
        0
 40
0.045
309
GRIDFORMAT_END
309
TABLEFORMAT_END
  1
CELLSTYLE_BEGIN
 90
        3
 91
        2
300
_DATA
309
CELLSTYLE_END
  0
XRECORD
  5
30CA
102
{ACAD_REACTORS
330
30BE
102
}
330
30BE
100
AcDbXrecord
280
     1
102
ACAD_ROUNDTRIP_PRE2007_TABLESTYLE
 90
        4
 91
        0
  1

 92
        4
 93
        0
  2

 94
        4
 95
        0
  3

  0
XRECORD
  5
30DB
102
{ACAD_REACTORS
330
30DA
102
}
330
30DA
100
AcDbXrecord
280
     1
102
RTVSPropertyOp0
 70
     1
102
RTVSPropertyOp1
 70
     1
102
RTVSPropertyOp2
 70
     1
102
RTVSPropertyOp3
 70
     1
102
RTVSPropertyOp4
 70
     1
102
RTVSPropertyOp5
 70
     1
102
RTVSPropertyOp6
 70
     1
102
RTVSPropertyOp7
 70
     1
102
RTVSPropertyOp8
 70
     1
102
RTVSPropertyOp9
 70
     1
102
RTVSPropertyOp10
 70
     1
102
RTVSPropertyOp11
 70
     1
102
RTVSPropertyOp12
 70
     1
102
RTVSPropertyOp13
 70
     1
102
RTVSPropertyOp14
 70
     1
102
RTVSPropertyOp15
 70
     1
102
RTVSPropertyOp16
 70
     1
102
RTVSPropertyOp17
 70
     1
102
RTVSPropertyOp18
 70
     1
102
RTVSPropertyOp19
 70
     1
102
RTVSPropertyOp20
 70
     1
102
RTVSPropertyOp21
 70
     1
102
RTVSPropertyOp22
 70
     1
102
RTVSPropertyOp23
 70
     1
102
RTVSPropertyOp24
 70
     1
102
RTVSPropertyOp25
 70
     1
102
RTVSPropertyOp26
 70
     1
102
RTVSPropertyOp27
 70
     1
  0
XRECORD
  5
30DF
102
{ACAD_REACTORS
330
30DE
102
}
330
30DE
100
AcDbXrecord
280
     1
102
RTVSPropertyOp0
 70
     1
102
RTVSPropertyOp1
 70
     1
102
RTVSPropertyOp2
 70
     1
102
RTVSPropertyOp3
 70
     1
102
RTVSPropertyOp4
 70
     1
102
RTVSPropertyOp5
 70
     1
102
RTVSPropertyOp6
 70
     1
102
RTVSPropertyOp7
 70
     1
102
RTVSPropertyOp8
 70
     1
102
RTVSPropertyOp9
 70
     1
102
RTVSPropertyOp10
 70
     1
102
RTVSPropertyOp11
 70
     1
102
RTVSPropertyOp12
 70
     1
102
RTVSPropertyOp13
 70
     1
102
RTVSPropertyOp14
 70
     1
102
RTVSPropertyOp15
 70
     1
102
RTVSPropertyOp16
 70
     1
102
RTVSPropertyOp17
 70
     1
102
RTVSPropertyOp18
 70
     1
102
RTVSPropertyOp19
 70
     1
102
RTVSPropertyOp20
 70
     1
102
RTVSPropertyOp21
 70
     1
102
RTVSPropertyOp22
 70
     1
102
RTVSPropertyOp23
 70
     1
102
RTVSPropertyOp24
 70
     1
102
RTVSPropertyOp25
 70
     1
102
RTVSPropertyOp26
 70
     1
102
RTVSPropertyOp27
 70
     1
  0
XRECORD
  5
30DD
102
{ACAD_REACTORS
330
30DC
102
}
330
30DC
100
AcDbXrecord
280
     1
102
RTVSPropertyOp0
 70
     1
102
RTVSPropertyOp1
 70
     1
102
RTVSPropertyOp2
 70
     1
102
RTVSPropertyOp3
 70
     1
102
RTVSPropertyOp4
 70
     1
102
RTVSPropertyOp5
 70
     1
102
RTVSPropertyOp6
 70
     1
102
RTVSPropertyOp7
 70
     1
102
RTVSPropertyOp8
 70
     1
102
RTVSPropertyOp9
 70
     1
102
RTVSPropertyOp10
 70
     1
102
RTVSPropertyOp11
 70
     1
102
RTVSPropertyOp12
 70
     1
102
RTVSPropertyOp13
 70
     1
102
RTVSPropertyOp14
 70
     1
102
RTVSPropertyOp15
 70
     1
102
RTVSPropertyOp16
 70
     1
102
RTVSPropertyOp17
 70
     1
102
RTVSPropertyOp18
 70
     1
102
RTVSPropertyOp19
 70
     1
102
RTVSPropertyOp20
 70
     1
102
RTVSPropertyOp21
 70
     1
102
RTVSPropertyOp22
 70
     1
102
RTVSPropertyOp23
 70
     1
102
RTVSPropertyOp24
 70
     1
102
RTVSPropertyOp25
 70
     1
102
RTVSPropertyOp26
 70
     1
102
RTVSPropertyOp27
 70
     1
  0
XRECORD
  5
30D9
102
{ACAD_REACTORS
330
30D8
102
}
330
30D8
100
AcDbXrecord
280
     1
102
RTVSPropertyOp0
 70
     1
102
RTVSPropertyOp1
 70
     1
102
RTVSPropertyOp2
 70
     1
102
RTVSPropertyOp3
 70
     1
102
RTVSPropertyOp4
 70
     1
102
RTVSPropertyOp5
 70
     1
102
RTVSPropertyOp6
 70
     1
102
RTVSPropertyOp7
 70
     1
102
RTVSPropertyOp8
 70
     1
102
RTVSPropertyOp9
 70
     1
102
RTVSPropertyOp10
 70
     1
102
RTVSPropertyOp11
 70
     1
102
RTVSPropertyOp12
 70
     1
102
RTVSPropertyOp13
 70
     1
102
RTVSPropertyOp14
 70
     1
102
RTVSPropertyOp15
 70
     1
102
RTVSPropertyOp16
 70
     1
102
RTVSPropertyOp17
 70
     1
102
RTVSPropertyOp18
 70
     1
102
RTVSPropertyOp19
 70
     1
102
RTVSPropertyOp20
 70
     1
102
RTVSPropertyOp21
 70
     1
102
RTVSPropertyOp22
 70
     1
102
RTVSPropertyOp23
 70
     1
102
RTVSPropertyOp24
 70
     1
102
RTVSPropertyOp25
 70
     1
102
RTVSPropertyOp26
 70
     1
102
RTVSPropertyOp27
 70
     1
  0
XRECORD
  5
30E7
102
{ACAD_REACTORS
330
30E6
102
}
330
30E6
100
AcDbXrecord
280
     1
102
RTVSPropertyOp0
 70
     1
102
RTVSPropertyOp1
 70
     1
102
RTVSPropertyOp2
 70
     1
102
RTVSPropertyOp3
 70
     1
102
RTVSPropertyOp4
 70
     1
102
RTVSPropertyOp5
 70
     1
102
RTVSPropertyOp6
 70
     1
102
RTVSPropertyOp7
 70
     1
102
RTVSPropertyOp8
 70
     1
102
RTVSPropertyOp9
 70
     1
102
RTVSPropertyOp10
 70
     1
102
RTVSPropertyOp11
 70
     1
102
RTVSPropertyOp12
 70
     1
102
RTVSPropertyOp13
 70
     1
102
RTVSPropertyOp14
 70
     1
102
RTVSPropertyOp15
 70
     1
102
RTVSPropertyOp16
 70
     1
102
RTVSPropertyOp17
 70
     1
102
RTVSPropertyOp18
 70
     1
102
RTVSPropertyOp19
 70
     1
102
RTVSPropertyOp20
 70
     1
102
RTVSPropertyOp21
 70
     1
102
RTVSPropertyOp22
 70
     1
102
RTVSPropertyOp23
 70
     1
102
RTVSPropertyOp24
 70
     1
102
RTVSPropertyOp25
 70
     1
102
RTVSPropertyOp26
 70
     1
102
RTVSPropertyOp27
 70
     1
  0
XRECORD
  5
30EF
102
{ACAD_REACTORS
330
30EE
102
}
330
30EE
100
AcDbXrecord
280
     1
102
RTVSPropertyOp0
 70
     1
102
RTVSPropertyOp1
 70
     1
102
RTVSPropertyOp2
 70
     1
102
RTVSPropertyOp3
 70
     1
102
RTVSPropertyOp4
 70
     1
102
RTVSPropertyOp5
 70
     1
102
RTVSPropertyOp6
 70
     1
102
RTVSPropertyOp7
 70
     1
102
RTVSPropertyOp8
 70
     1
102
RTVSPropertyOp9
 70
     1
102
RTVSPropertyOp10
 70
     1
102
RTVSPropertyOp11
 70
     1
102
RTVSPropertyOp12
 70
     1
102
RTVSPropertyOp13
 70
     1
102
RTVSPropertyOp14
 70
     1
102
RTVSPropertyOp15
 70
     1
102
RTVSPropertyOp16
 70
     1
102
RTVSPropertyOp17
 70
     1
102
RTVSPropertyOp18
 70
     1
102
RTVSPropertyOp19
 70
     1
102
RTVSPropertyOp20
 70
     1
102
RTVSPropertyOp21
 70
     1
102
RTVSPropertyOp22
 70
     1
102
RTVSPropertyOp23
 70
     1
102
RTVSPropertyOp24
 70
     1
102
RTVSPropertyOp25
 70
     1
102
RTVSPropertyOp26
 70
     1
102
RTVSPropertyOp27
 70
     1
  0
XRECORD
  5
30E1
102
{ACAD_REACTORS
330
30E0
102
}
330
30E0
100
AcDbXrecord
280
     1
102
RTVSPropertyOp0
 70
     1
102
RTVSPropertyOp1
 70
     1
102
RTVSPropertyOp2
 70
     1
102
RTVSPropertyOp3
 70
     1
102
RTVSPropertyOp4
 70
     1
102
RTVSPropertyOp5
 70
     1
102
RTVSPropertyOp6
 70
     1
102
RTVSPropertyOp7
 70
     1
102
RTVSPropertyOp8
 70
     1
102
RTVSPropertyOp9
 70
     1
102
RTVSPropertyOp10
 70
     1
102
RTVSPropertyOp11
 70
     1
102
RTVSPropertyOp12
 70
     1
102
RTVSPropertyOp13
 70
     1
102
RTVSPropertyOp14
 70
     1
102
RTVSPropertyOp15
 70
     1
102
RTVSPropertyOp16
 70
     1
102
RTVSPropertyOp17
 70
     1
102
RTVSPropertyOp18
 70
     1
102
RTVSPropertyOp19
 70
     1
102
RTVSPropertyOp20
 70
     1
102
RTVSPropertyOp21
 70
     1
102
RTVSPropertyOp22
 70
     1
102
RTVSPropertyOp23
 70
     1
102
RTVSPropertyOp24
 70
     1
102
RTVSPropertyOp25
 70
     1
102
RTVSPropertyOp26
 70
     1
102
RTVSPropertyOp27
 70
     1
  0
XRECORD
  5
30E5
102
{ACAD_REACTORS
330
30E4
102
}
330
30E4
100
AcDbXrecord
280
     1
102
RTVSPropertyOp0
 70
     1
102
RTVSPropertyOp1
 70
     1
102
RTVSPropertyOp2
 70
     1
102
RTVSPropertyOp3
 70
     1
102
RTVSPropertyOp4
 70
     1
102
RTVSPropertyOp5
 70
     1
102
RTVSPropertyOp6
 70
     1
102
RTVSPropertyOp7
 70
     1
102
RTVSPropertyOp8
 70
     1
102
RTVSPropertyOp9
 70
     1
102
RTVSPropertyOp10
 70
     1
102
RTVSPropertyOp11
 70
     1
102
RTVSPropertyOp12
 70
     1
102
RTVSPropertyOp13
 70
     1
102
RTVSPropertyOp14
 70
     1
102
RTVSPropertyOp15
 70
     1
102
RTVSPropertyOp16
 70
     1
102
RTVSPropertyOp17
 70
     1
102
RTVSPropertyOp18
 70
     1
102
RTVSPropertyOp19
 70
     1
102
RTVSPropertyOp20
 70
     1
102
RTVSPropertyOp21
 70
     1
102
RTVSPropertyOp22
 70
     1
102
RTVSPropertyOp23
 70
     1
102
RTVSPropertyOp24
 70
     1
102
RTVSPropertyOp25
 70
     1
102
RTVSPropertyOp26
 70
     1
102
RTVSPropertyOp27
 70
     1
  0
XRECORD
  5
30F5
102
{ACAD_REACTORS
330
30F4
102
}
330
30F4
100
AcDbXrecord
280
     1
102
RTVSPropertyOp0
 70
     0
102
RTVSPropertyOp1
 70
     0
102
RTVSPropertyOp2
 70
     0
102
RTVSPropertyOp3
 70
     0
102
RTVSPropertyOp4
 70
     0
102
RTVSPropertyOp5
 70
     0
102
RTVSPropertyOp6
 70
     0
102
RTVSPropertyOp7
 70
     0
102
RTVSPropertyOp8
 70
     0
102
RTVSPropertyOp9
 70
     0
102
RTVSPropertyOp10
 70
     0
102
RTVSPropertyOp11
 70
     0
102
RTVSPropertyOp12
 70
     0
102
RTVSPropertyOp13
 70
     0
102
RTVSPropertyOp14
 70
     2
102
RTVSPropertyOp15
 70
     0
102
RTVSPropertyOp16
 70
     0
102
RTVSPropertyOp17
 70
     0
102
RTVSPropertyOp18
 70
     0
102
RTVSPropertyOp19
 70
     0
102
RTVSPropertyOp20
 70
     0
102
RTVSPropertyOp21
 70
     0
102
RTVSPropertyOp22
 70
     0
102
RTVSPropertyOp23
 70
     0
102
RTVSPropertyOp24
 70
     0
102
RTVSPropertyOp25
 70
     0
102
RTVSPropertyOp26
 70
     0
102
RTVSPropertyOp27
 70
     0
  0
XRECORD
  5
30ED
102
{ACAD_REACTORS
330
30EC
102
}
330
30EC
100
AcDbXrecord
280
     1
102
RTVSPropertyOp0
 70
     1
102
RTVSPropertyOp1
 70
     1
102
RTVSPropertyOp2
 70
     1
102
RTVSPropertyOp3
 70
     1
102
RTVSPropertyOp4
 70
     1
102
RTVSPropertyOp5
 70
     1
102
RTVSPropertyOp6
 70
     1
102
RTVSPropertyOp7
 70
     1
102
RTVSPropertyOp8
 70
     1
102
RTVSPropertyOp9
 70
     1
102
RTVSPropertyOp10
 70
     1
102
RTVSPropertyOp11
 70
     1
102
RTVSPropertyOp12
 70
     1
102
RTVSPropertyOp13
 70
     1
102
RTVSPropertyOp14
 70
     1
102
RTVSPropertyOp15
 70
     1
102
RTVSPropertyOp16
 70
     1
102
RTVSPropertyOp17
 70
     1
102
RTVSPropertyOp18
 70
     1
102
RTVSPropertyOp19
 70
     1
102
RTVSPropertyOp20
 70
     1
102
RTVSPropertyOp21
 70
     1
102
RTVSPropertyOp22
 70
     1
102
RTVSPropertyOp23
 70
     1
102
RTVSPropertyOp24
 70
     1
102
RTVSPropertyOp25
 70
     1
102
RTVSPropertyOp26
 70
     1
102
RTVSPropertyOp27
 70
     1
  0
XRECORD
  5
30D1
102
{ACAD_REACTORS
330
30D0
102
}
330
30D0
100
AcDbXrecord
280
     1
102
RTVSPropertyOp0
 70
     1
102
RTVSPropertyOp1
 70
     1
102
RTVSPropertyOp2
 70
     1
102
RTVSPropertyOp3
 70
     1
102
RTVSPropertyOp4
 70
     1
102
RTVSPropertyOp5
 70
     1
102
RTVSPropertyOp6
 70
     1
102
RTVSPropertyOp7
 70
     1
102
RTVSPropertyOp8
 70
     1
102
RTVSPropertyOp9
 70
     1
102
RTVSPropertyOp10
 70
     1
102
RTVSPropertyOp11
 70
     1
102
RTVSPropertyOp12
 70
     1
102
RTVSPropertyOp13
 70
     1
102
RTVSPropertyOp14
 70
     1
102
RTVSPropertyOp15
 70
     1
102
RTVSPropertyOp16
 70
     1
102
RTVSPropertyOp17
 70
     1
102
RTVSPropertyOp18
 70
     1
102
RTVSPropertyOp19
 70
     1
102
RTVSPropertyOp20
 70
     1
102
RTVSPropertyOp21
 70
     1
102
RTVSPropertyOp22
 70
     1
102
RTVSPropertyOp23
 70
     1
102
RTVSPropertyOp24
 70
     1
102
RTVSPropertyOp25
 70
     1
102
RTVSPropertyOp26
 70
     1
102
RTVSPropertyOp27
 70
     1
  0
XRECORD
  5
30D3
102
{ACAD_REACTORS
330
30D2
102
}
330
30D2
100
AcDbXrecord
280
     1
102
RTVSPropertyOp0
 70
     1
102
RTVSPropertyOp1
 70
     1
102
RTVSPropertyOp2
 70
     1
102
RTVSPropertyOp3
 70
     1
102
RTVSPropertyOp4
 70
     1
102
RTVSPropertyOp5
 70
     1
102
RTVSPropertyOp6
 70
     1
102
RTVSPropertyOp7
 70
     1
102
RTVSPropertyOp8
 70
     1
102
RTVSPropertyOp9
 70
     1
102
RTVSPropertyOp10
 70
     1
102
RTVSPropertyOp11
 70
     1
102
RTVSPropertyOp12
 70
     1
102
RTVSPropertyOp13
 70
     1
102
RTVSPropertyOp14
 70
     1
102
RTVSPropertyOp15
 70
     1
102
RTVSPropertyOp16
 70
     1
102
RTVSPropertyOp17
 70
     1
102
RTVSPropertyOp18
 70
     1
102
RTVSPropertyOp19
 70
     1
102
RTVSPropertyOp20
 70
     1
102
RTVSPropertyOp21
 70
     1
102
RTVSPropertyOp22
 70
     1
102
RTVSPropertyOp23
 70
     1
102
RTVSPropertyOp24
 70
     1
102
RTVSPropertyOp25
 70
     1
102
RTVSPropertyOp26
 70
     1
102
RTVSPropertyOp27
 70
     1
  0
XRECORD
  5
30D5
102
{ACAD_REACTORS
330
30D4
102
}
330
30D4
100
AcDbXrecord
280
     1
102
RTVSPropertyOp0
 70
     1
102
RTVSPropertyOp1
 70
     1
102
RTVSPropertyOp2
 70
     1
102
RTVSPropertyOp3
 70
     1
102
RTVSPropertyOp4
 70
     1
102
RTVSPropertyOp5
 70
     1
102
RTVSPropertyOp6
 70
     1
102
RTVSPropertyOp7
 70
     1
102
RTVSPropertyOp8
 70
     1
102
RTVSPropertyOp9
 70
     1
102
RTVSPropertyOp10
 70
     1
102
RTVSPropertyOp11
 70
     1
102
RTVSPropertyOp12
 70
     1
102
RTVSPropertyOp13
 70
     1
102
RTVSPropertyOp14
 70
     1
102
RTVSPropertyOp15
 70
     1
102
RTVSPropertyOp16
 70
     1
102
RTVSPropertyOp17
 70
     1
102
RTVSPropertyOp18
 70
     1
102
RTVSPropertyOp19
 70
     1
102
RTVSPropertyOp20
 70
     1
102
RTVSPropertyOp21
 70
     1
102
RTVSPropertyOp22
 70
     1
102
RTVSPropertyOp23
 70
     1
102
RTVSPropertyOp24
 70
     1
102
RTVSPropertyOp25
 70
     1
102
RTVSPropertyOp26
 70
     1
102
RTVSPropertyOp27
 70
     1
  0
XRECORD
  5
30D7
102
{ACAD_REACTORS
330
30D6
102
}
330
30D6
100
AcDbXrecord
280
     1
102
RTVSPropertyOp0
 70
     1
102
RTVSPropertyOp1
 70
     1
102
RTVSPropertyOp2
 70
     1
102
RTVSPropertyOp3
 70
     1
102
RTVSPropertyOp4
 70
     1
102
RTVSPropertyOp5
 70
     1
102
RTVSPropertyOp6
 70
     1
102
RTVSPropertyOp7
 70
     1
102
RTVSPropertyOp8
 70
     1
102
RTVSPropertyOp9
 70
     1
102
RTVSPropertyOp10
 70
     1
102
RTVSPropertyOp11
 70
     1
102
RTVSPropertyOp12
 70
     1
102
RTVSPropertyOp13
 70
     1
102
RTVSPropertyOp14
 70
     1
102
RTVSPropertyOp15
 70
     1
102
RTVSPropertyOp16
 70
     1
102
RTVSPropertyOp17
 70
     1
102
RTVSPropertyOp18
 70
     1
102
RTVSPropertyOp19
 70
     1
102
RTVSPropertyOp20
 70
     1
102
RTVSPropertyOp21
 70
     1
102
RTVSPropertyOp22
 70
     1
102
RTVSPropertyOp23
 70
     1
102
RTVSPropertyOp24
 70
     1
102
RTVSPropertyOp25
 70
     1
102
RTVSPropertyOp26
 70
     1
102
RTVSPropertyOp27
 70
     1
  0
XRECORD
  5
30F1
102
{ACAD_REACTORS
330
30F0
102
}
330
30F0
100
AcDbXrecord
280
     1
102
RTVSPropertyOp0
 70
     0
102
RTVSPropertyOp1
 70
     0
102
RTVSPropertyOp2
 70
     0
102
RTVSPropertyOp3
 70
     0
102
RTVSPropertyOp4
 70
     0
102
RTVSPropertyOp5
 70
     0
102
RTVSPropertyOp6
 70
     0
102
RTVSPropertyOp7
 70
     0
102
RTVSPropertyOp8
 70
     0
102
RTVSPropertyOp9
 70
     0
102
RTVSPropertyOp10
 70
     0
102
RTVSPropertyOp11
 70
     0
102
RTVSPropertyOp12
 70
     0
102
RTVSPropertyOp13
 70
     0
102
RTVSPropertyOp14
 70
     2
102
RTVSPropertyOp15
 70
     0
102
RTVSPropertyOp16
 70
     0
102
RTVSPropertyOp17
 70
     0
102
RTVSPropertyOp18
 70
     0
102
RTVSPropertyOp19
 70
     0
102
RTVSPropertyOp20
 70
     0
102
RTVSPropertyOp21
 70
     0
102
RTVSPropertyOp22
 70
     0
102
RTVSPropertyOp23
 70
     0
102
RTVSPropertyOp24
 70
     0
102
RTVSPropertyOp25
 70
     0
102
RTVSPropertyOp26
 70
     0
102
RTVSPropertyOp27
 70
     0
  0
XRECORD
  5
30EB
102
{ACAD_REACTORS
330
30EA
102
}
330
30EA
100
AcDbXrecord
280
     1
102
RTVSPropertyOp0
 70
     1
102
RTVSPropertyOp1
 70
     1
102
RTVSPropertyOp2
 70
     1
102
RTVSPropertyOp3
 70
     1
102
RTVSPropertyOp4
 70
     1
102
RTVSPropertyOp5
 70
     1
102
RTVSPropertyOp6
 70
     1
102
RTVSPropertyOp7
 70
     1
102
RTVSPropertyOp8
 70
     1
102
RTVSPropertyOp9
 70
     1
102
RTVSPropertyOp10
 70
     1
102
RTVSPropertyOp11
 70
     1
102
RTVSPropertyOp12
 70
     1
102
RTVSPropertyOp13
 70
     1
102
RTVSPropertyOp14
 70
     1
102
RTVSPropertyOp15
 70
     1
102
RTVSPropertyOp16
 70
     1
102
RTVSPropertyOp17
 70
     1
102
RTVSPropertyOp18
 70
     1
102
RTVSPropertyOp19
 70
     1
102
RTVSPropertyOp20
 70
     1
102
RTVSPropertyOp21
 70
     1
102
RTVSPropertyOp22
 70
     1
102
RTVSPropertyOp23
 70
     1
102
RTVSPropertyOp24
 70
     1
102
RTVSPropertyOp25
 70
     1
102
RTVSPropertyOp26
 70
     1
102
RTVSPropertyOp27
 70
     1
  0
XRECORD
  5
30F3
102
{ACAD_REACTORS
330
30F2
102
}
330
30F2
100
AcDbXrecord
280
     1
102
RTVSPropertyOp0
 70
     0
102
RTVSPropertyOp1
 70
     0
102
RTVSPropertyOp2
 70
     0
102
RTVSPropertyOp3
 70
     0
102
RTVSPropertyOp4
 70
     0
102
RTVSPropertyOp5
 70
     0
102
RTVSPropertyOp6
 70
     0
102
RTVSPropertyOp7
 70
     0
102
RTVSPropertyOp8
 70
     0
102
RTVSPropertyOp9
 70
     0
102
RTVSPropertyOp10
 70
     0
102
RTVSPropertyOp11
 70
     0
102
RTVSPropertyOp12
 70
     0
102
RTVSPropertyOp13
 70
     0
102
RTVSPropertyOp14
 70
     2
102
RTVSPropertyOp15
 70
     0
102
RTVSPropertyOp16
 70
     0
102
RTVSPropertyOp17
 70
     0
102
RTVSPropertyOp18
 70
     0
102
RTVSPropertyOp19
 70
     0
102
RTVSPropertyOp20
 70
     0
102
RTVSPropertyOp21
 70
     0
102
RTVSPropertyOp22
 70
     0
102
RTVSPropertyOp23
 70
     0
102
RTVSPropertyOp24
 70
     0
102
RTVSPropertyOp25
 70
     0
102
RTVSPropertyOp26
 70
     0
102
RTVSPropertyOp27
 70
     0
  0
XRECORD
  5
30E3
102
{ACAD_REACTORS
330
30E2
102
}
330
30E2
100
AcDbXrecord
280
     1
102
RTVSPropertyOp0
 70
     1
102
RTVSPropertyOp1
 70
     1
102
RTVSPropertyOp2
 70
     1
102
RTVSPropertyOp3
 70
     1
102
RTVSPropertyOp4
 70
     1
102
RTVSPropertyOp5
 70
     1
102
RTVSPropertyOp6
 70
     1
102
RTVSPropertyOp7
 70
     1
102
RTVSPropertyOp8
 70
     1
102
RTVSPropertyOp9
 70
     1
102
RTVSPropertyOp10
 70
     1
102
RTVSPropertyOp11
 70
     1
102
RTVSPropertyOp12
 70
     1
102
RTVSPropertyOp13
 70
     1
102
RTVSPropertyOp14
 70
     1
102
RTVSPropertyOp15
 70
     1
102
RTVSPropertyOp16
 70
     1
102
RTVSPropertyOp17
 70
     1
102
RTVSPropertyOp18
 70
     1
102
RTVSPropertyOp19
 70
     1
102
RTVSPropertyOp20
 70
     1
102
RTVSPropertyOp21
 70
     1
102
RTVSPropertyOp22
 70
     1
102
RTVSPropertyOp23
 70
     1
102
RTVSPropertyOp24
 70
     1
102
RTVSPropertyOp25
 70
     1
102
RTVSPropertyOp26
 70
     1
102
RTVSPropertyOp27
 70
     1
  0
XRECORD
  5
30E9
102
{ACAD_REACTORS
330
30E8
102
}
330
30E8
100
AcDbXrecord
280
     1
102
RTVSPropertyOp0
 70
     1
102
RTVSPropertyOp1
 70
     1
102
RTVSPropertyOp2
 70
     1
102
RTVSPropertyOp3
 70
     1
102
RTVSPropertyOp4
 70
     1
102
RTVSPropertyOp5
 70
     1
102
RTVSPropertyOp6
 70
     1
102
RTVSPropertyOp7
 70
     1
102
RTVSPropertyOp8
 70
     1
102
RTVSPropertyOp9
 70
     1
102
RTVSPropertyOp10
 70
     1
102
RTVSPropertyOp11
 70
     1
102
RTVSPropertyOp12
 70
     1
102
RTVSPropertyOp13
 70
     1
102
RTVSPropertyOp14
 70
     1
102
RTVSPropertyOp15
 70
     1
102
RTVSPropertyOp16
 70
     1
102
RTVSPropertyOp17
 70
     1
102
RTVSPropertyOp18
 70
     1
102
RTVSPropertyOp19
 70
     1
102
RTVSPropertyOp20
 70
     1
102
RTVSPropertyOp21
 70
     1
102
RTVSPropertyOp22
 70
     1
102
RTVSPropertyOp23
 70
     1
102
RTVSPropertyOp24
 70
     1
102
RTVSPropertyOp25
 70
     1
102
RTVSPropertyOp26
 70
     1
102
RTVSPropertyOp27
 70
     1
  0
ENDSEC
  0
EOF
