  0
SECTION
  2
HEADER
  9
$ACADVER
  1
AC1015
  9
$ACADMAINTVER
 70
    20
  9
$DWGCODEPAGE
  3
ANSI_1252
  9
$INSBASE
 10
0.0
 20
0.0
 30
0.0
  9
$EXTMIN
 10
7477.58574664075
 20
2024.450685618765
 30
-0.0000000017937957
  9
$EXTMAX
 10
7480.546472925351
 20
2026.300685618764
 30
0.0000000001555553
  9
$LIMMIN
 10
0.0
 20
0.0
  9
$LIMMAX
 10
420.0
 20
297.0
  9
$ORTHOMODE
 70
     1
  9
$REGENMODE
 70
     1
  9
$FILLMODE
 70
     1
  9
$QTEXTMODE
 70
     0
  9
$MIRRTEXT
 70
     1
  9
$LTSCALE
 40
1.0
  9
$ATTMODE
 70
     1
  9
$TEXTSIZE
 40
2.5
  9
$TRACEWID
 40
1.0
  9
$TEXTSTYLE
  7
SANINDUSA
  9
$CLAYER
  8
7
  9
$CELTYPE
  6
ByLayer
  9
$CECOLOR
 62
   256
  9
$CELTSCALE
 40
1.0
  9
$DISPSILH
 70
     0
  9
$DIMSCALE
 40
10.0
  9
$DIMASZ
 40
2.0
  9
$DIMEXO
 40
1.0
  9
$DIMDLI
 40
1.0
  9
$DIMRND
 40
0.0
  9
$DIMDLE
 40
0.0
  9
$DIMEXE
 40
1.0
  9
$DIMTP
 40
0.0
  9
$DIMTM
 40
0.0
  9
$DIMTXT
 40
2.0
  9
$DIMCEN
 40
0.0
  9
$DIMTSZ
 40
0.0
  9
$DIMTOL
 70
     0
  9
$DIMLIM
 70
     0
  9
$DIMTIH
 70
     0
  9
$DIMTOH
 70
     0
  9
$DIMSE1
 70
     0
  9
$DIMSE2
 70
     0
  9
$DIMTAD
 70
     1
  9
$DIMZIN
 70
     8
  9
$DIMBLK
  1

  9
$DIMASO
 70
     1
  9
$DIMSHO
 70
     1
  9
$DIMPOST
  1

  9
$DIMAPOST
  1

  9
$DIMALT
 70
     0
  9
$DIMALTD
 70
     3
  9
$DIMALTF
 40
0.03937007874016
  9
$DIMLFAC
 40
1.0
  9
$DIMTOFL
 70
     1
  9
$DIMTVP
 40
0.0
  9
$DIMTIX
 70
     0
  9
$DIMSOXD
 70
     0
  9
$DIMSAH
 70
     0
  9
$DIMBLK1
  1

  9
$DIMBLK2
  1

  9
$DIMSTYLE
  2
SANINDUSA
  9
$DIMCLRD
 70
   256
  9
$DIMCLRE
 70
   256
  9
$DIMCLRT
 70
   256
  9
$DIMTFAC
 40
1.0
  9
$DIMGAP
 40
1.0
  9
$DIMJUST
 70
     0
  9
$DIMSD1
 70
     0
  9
$DIMSD2
 70
     0
  9
$DIMTOLJ
 70
     0
  9
$DIMTZIN
 70
     8
  9
$DIMALTZ
 70
     0
  9
$DIMALTTZ
 70
     0
  9
$DIMUPT
 70
     0
  9
$DIMDEC
 70
     1
  9
$DIMTDEC
 70
     1
  9
$DIMALTU
 70
     2
  9
$DIMALTTD
 70
     3
  9
$DIMTXSTY
  7
SANINDUSA
  9
$DIMAUNIT
 70
     0
  9
$DIMADEC
 70
     1
  9
$DIMALTRND
 40
0.0
  9
$DIMAZIN
 70
     0
  9
$DIMDSEP
 70
    44
  9
$DIMATFIT
 70
     3
  9
$DIMFRAC
 70
     0
  9
$DIMLDRBLK
  1

  9
$DIMLUNIT
 70
     2
  9
$DIMLWD
 70
    -1
  9
$DIMLWE
 70
    -1
  9
$DIMTMOVE
 70
     0
  9
$LUNITS
 70
     2
  9
$LUPREC
 70
     4
  9
$SKETCHINC
 40
1.0
  9
$FILLETRAD
 40
0.0
  9
$AUNITS
 70
     0
  9
$AUPREC
 70
     0
  9
$MENU
  1
.
  9
$ELEVATION
 40
0.0
  9
$PELEVATION
 40
0.0
  9
$THICKNESS
 40
0.0
  9
$LIMCHECK
 70
     0
  9
$CHAMFERA
 40
10.0
  9
$CHAMFERB
 40
10.0
  9
$CHAMFERC
 40
20.0
  9
$CHAMFERD
 40
0.0
  9
$SKPOLY
 70
     0
  9
$TDCREATE
 40
2454138.526907905
  9
$TDUCREATE
 40
2454138.485241239
  9
$TDUPDATE
 40
2455818.717403599
  9
$TDUUPDATE
 40
2455818.675736933
  9
$TDINDWG
 40
0.0567337616
  9
$TDUSRTIMER
 40
0.0567337616
  9
$USRTIMER
 70
     1
  9
$ANGBASE
 50
0.0
  9
$ANGDIR
 70
     0
  9
$PDMODE
 70
     0
  9
$PDSIZE
 40
0.0
  9
$PLINEWID
 40
0.0
  9
$SPLFRAME
 70
     0
  9
$SPLINETYPE
 70
     6
  9
$SPLINESEGS
 70
     8
  9
$HANDSEED
  5
2D71
  9
$SURFTAB1
 70
     6
  9
$SURFTAB2
 70
     6
  9
$SURFTYPE
 70
     6
  9
$SURFU
 70
     6
  9
$SURFV
 70
     6
  9
$UCSBASE
  2

  9
$UCSNAME
  2

  9
$UCSORG
 10
0.0
 20
0.0
 30
0.0
  9
$UCSXDIR
 10
1.0
 20
0.0
 30
0.0
  9
$UCSYDIR
 10
0.0
 20
1.0
 30
0.0
  9
$UCSORTHOREF
  2

  9
$UCSORTHOVIEW
 70
     0
  9
$UCSORGTOP
 10
0.0
 20
0.0
 30
0.0
  9
$UCSORGBOTTOM
 10
0.0
 20
0.0
 30
0.0
  9
$UCSORGLEFT
 10
0.0
 20
0.0
 30
0.0
  9
$UCSORGRIGHT
 10
0.0
 20
0.0
 30
0.0
  9
$UCSORGFRONT
 10
0.0
 20
0.0
 30
0.0
  9
$UCSORGBACK
 10
0.0
 20
0.0
 30
0.0
  9
$PUCSBASE
  2

  9
$PUCSNAME
  2

  9
$PUCSORG
 10
0.0
 20
0.0
 30
0.0
  9
$PUCSXDIR
 10
1.0
 20
0.0
 30
0.0
  9
$PUCSYDIR
 10
0.0
 20
1.0
 30
0.0
  9
$PUCSORTHOREF
  2

  9
$PUCSORTHOVIEW
 70
     0
  9
$PUCSORGTOP
 10
0.0
 20
0.0
 30
0.0
  9
$PUCSORGBOTTOM
 10
0.0
 20
0.0
 30
0.0
  9
$PUCSORGLEFT
 10
0.0
 20
0.0
 30
0.0
  9
$PUCSORGRIGHT
 10
0.0
 20
0.0
 30
0.0
  9
$PUCSORGFRONT
 10
0.0
 20
0.0
 30
0.0
  9
$PUCSORGBACK
 10
0.0
 20
0.0
 30
0.0
  9
$USERI1
 70
     0
  9
$USERI2
 70
     0
  9
$USERI3
 70
     0
  9
$USERI4
 70
     0
  9
$USERI5
 70
     0
  9
$USERR1
 40
0.0
  9
$USERR2
 40
0.0
  9
$USERR3
 40
0.0
  9
$USERR4
 40
0.0
  9
$USERR5
 40
0.0
  9
$WORLDVIEW
 70
     1
  9
$SHADEDGE
 70
     3
  9
$SHADEDIF
 70
    70
  9
$TILEMODE
 70
     1
  9
$MAXACTVP
 70
    64
  9
$PINSBASE
 10
0.0
 20
0.0
 30
0.0
  9
$PLIMCHECK
 70
     0
  9
$PEXTMIN
 10
1.000000000000000E+20
 20
1.000000000000000E+20
 30
1.000000000000000E+20
  9
$PEXTMAX
 10
-1.000000000000000E+20
 20
-1.000000000000000E+20
 30
-1.000000000000000E+20
  9
$PLIMMIN
 10
0.0
 20
0.0
  9
$PLIMMAX
 10
420.0
 20
297.0
  9
$UNITMODE
 70
     0
  9
$VISRETAIN
 70
     1
  9
$PLINEGEN
 70
     0
  9
$PSLTSCALE
 70
     1
  9
$TREEDEPTH
 70
  3020
  9
$CMLSTYLE
  2
Standard
  9
$CMLJUST
 70
     0
  9
$CMLSCALE
 40
20.0
  9
$PROXYGRAPHICS
 70
     1
  9
$MEASUREMENT
 70
     1
  9
$CELWEIGHT
370
    -1
  9
$ENDCAPS
280
     0
  9
$JOINSTYLE
280
     0
  9
$LWDISPLAY
290
     0
  9
$INSUNITS
 70
     4
  9
$HYPERLINKBASE
  1

  9
$STYLESHEET
  1
sanindusa.ctb
  9
$XEDIT
290
     1
  9
$CEPSNTYPE
380
     0
  9
$PSTYLEMODE
290
     1
  9
$FINGERPRINTGUID
  2
{D981C2D9-9F7D-455A-A0F0-824D04DFC852}
  9
$VERSIONGUID
  2
{B2873630-5AA2-4B99-B75D-581FC1DA3757}
  9
$EXTNAMES
290
     1
  9
$PSVPSCALE
 40
0.0
  9
$OLESTARTUP
290
     0
  0
ENDSEC
  0
SECTION
  2
CLASSES
  0
CLASS
  1
ACDBDICTIONARYWDFLT
  2
AcDbDictionaryWithDefault
  3
ObjectDBX Classes
 90
        0
280
     0
281
     0
  0
CLASS
  1
ACDBPLACEHOLDER
  2
AcDbPlaceHolder
  3
ObjectDBX Classes
 90
        0
280
     0
281
     0
  0
CLASS
  1
LAYOUT
  2
AcDbLayout
  3
ObjectDBX Classes
 90
        0
280
     0
281
     0
  0
CLASS
  1
DICTIONARYVAR
  2
AcDbDictionaryVar
  3
ObjectDBX Classes
 90
        0
280
     0
281
     0
  0
CLASS
  1
DIMASSOC
  2
AcDbDimAssoc
  3
"AcDbDimAssoc|Product Desc:     AcDim ARX App For Dimension|Company:          Autodesk, Inc.|WEB Address:      www.autodesk.com"
 90
        0
280
     0
281
     0
  0
CLASS
  1
TABLESTYLE
  2
AcDbTableStyle
  3
ObjectDBX Classes
 90
     4095
280
     0
281
     0
  0
CLASS
  1
SORTENTSTABLE
  2
AcDbSortentsTable
  3
ObjectDBX Classes
 90
        0
280
     0
281
     0
  0
CLASS
  1
MATERIAL
  2
AcDbMaterial
  3
ObjectDBX Classes
 90
     1153
280
     0
281
     0
  0
CLASS
  1
VISUALSTYLE
  2
AcDbVisualStyle
  3
ObjectDBX Classes
 90
     4095
280
     0
281
     0
  0
CLASS
  1
SCALE
  2
AcDbScale
  3
ObjectDBX Classes
 90
     1153
280
     0
281
     0
  0
CLASS
  1
MLEADERSTYLE
  2
AcDbMLeaderStyle
  3
ACDB_MLEADERSTYLE_CLASS
 90
     4095
280
     0
281
     0
  0
CLASS
  1
CELLSTYLEMAP
  2
AcDbCellStyleMap
  3
ObjectDBX Classes
 90
     1152
280
     0
281
     0
  0
ENDSEC
  0
SECTION
  2
TABLES
  0
TABLE
  2
VPORT
  5
8
330
0
100
AcDbSymbolTable
 70
     1
  0
VPORT
  5
2C41
330
8
100
AcDbSymbolTableRecord
100
AcDbViewportTableRecord
  2
*Active
 70
     0
 10
0.0
 20
0.0
 11
1.0
 21
1.0
 12
7479.066109783051
 22
2025.375685618764
 13
0.0
 23
0.0
 14
10.0
 24
10.0
 15
10.0
 25
10.0
 16
0.0
 26
0.0
 36
1.0
 17
0.0
 27
0.0
 37
0.0
 40
1.86156249999999
 41
1.645464025026068
 42
50.0
 43
0.0
 44
0.0
 50
0.0
 51
0.0
 71
     0
 72
   100
 73
     1
 74
     2
 75
     0
 76
     0
 77
     0
 78
     0
281
     0
 65
     1
110
0.0
120
0.0
130
0.0
111
1.0
121
0.0
131
0.0
112
0.0
122
1.0
132
0.0
 79
     0
146
0.0
  0
ENDTAB
  0
TABLE
  2
LTYPE
  5
5
330
0
100
AcDbSymbolTable
 70
     6
  0
LTYPE
  5
14
330
5
100
AcDbSymbolTableRecord
100
AcDbLinetypeTableRecord
  2
ByBlock
 70
     0
  3

 72
    65
 73
     0
 40
0.0
  0
LTYPE
  5
15
330
5
100
AcDbSymbolTableRecord
100
AcDbLinetypeTableRecord
  2
ByLayer
 70
     0
  3

 72
    65
 73
     0
 40
0.0
  0
LTYPE
  5
16
330
5
100
AcDbSymbolTableRecord
100
AcDbLinetypeTableRecord
  2
Continuous
 70
     0
  3
Solid line
 72
    65
 73
     0
 40
0.0
  0
LTYPE
  5
2D
330
5
100
AcDbSymbolTableRecord
100
AcDbLinetypeTableRecord
  2
DASHDOT
 70
     0
  3
Dash dot __ . __ . __ . __ . __ . __ . __ . __
 72
    65
 73
     4
 40
25.4
 49
12.7
 74
     0
 49
-6.349999999999999
 74
     0
 49
0.0
 74
     0
 49
-6.349999999999999
 74
     0
  0
LTYPE
  5
2E
330
5
100
AcDbSymbolTableRecord
100
AcDbLinetypeTableRecord
  2
HIDDEN
 70
     0
  3
Hidden __ __ __ __ __ __ __ __ __ __ __ __ __ _
 72
    65
 73
     2
 40
9.524999999999998
 49
6.349999999999999
 74
     0
 49
-3.174999999999999
 74
     0
  0
LTYPE
  5
C75
330
5
100
AcDbSymbolTableRecord
100
AcDbLinetypeTableRecord
  2
AM_ISO02W050
 70
     0
  3
__ __ __ __ __ __ __ __ __ __ __ __ __ __ __
 72
    65
 73
     2
 40
7.5
 49
6.0
 74
     0
 49
-1.5
 74
     0
  0
LTYPE
  5
C76
330
5
100
AcDbSymbolTableRecord
100
AcDbLinetypeTableRecord
  2
AM_ISO08W050
 70
     0
  3
____ . ____ . ____ . ____ . ____ . ____ . ____
 72
    65
 73
     4
 40
18.0
 49
12.0
 74
     0
 49
-1.5
 74
     0
 49
3.0
 74
     0
 49
-1.5
 74
     0
  0
ENDTAB
  0
TABLE
  2
LAYER
  5
2
102
{ACAD_XDICTIONARY
360
1051
102
}
330
0
100
AcDbSymbolTable
 70
    17
  0
LAYER
  5
10
102
{ACAD_XDICTIONARY
360
2CD3
102
}
330
2
100
AcDbSymbolTableRecord
100
AcDbLayerTableRecord
  2
0
 70
     0
 62
     7
  6
Continuous
370
    -3
390
F
  0
LAYER
  5
2F
102
{ACAD_XDICTIONARY
360
2CD5
102
}
330
2
100
AcDbSymbolTableRecord
100
AcDbLayerTableRecord
  2
1
 70
     0
 62
     1
  6
Continuous
370
    -3
390
F
  0
LAYER
  5
30
102
{ACAD_XDICTIONARY
360
2CD7
102
}
330
2
100
AcDbSymbolTableRecord
100
AcDbLayerTableRecord
  2
2
 70
     0
 62
     2
  6
Continuous
370
    -3
390
F
  0
LAYER
  5
31
102
{ACAD_XDICTIONARY
360
2CD9
102
}
330
2
100
AcDbSymbolTableRecord
100
AcDbLayerTableRecord
  2
3
 70
     0
 62
     3
  6
Continuous
370
    -3
390
F
  0
LAYER
  5
32
102
{ACAD_XDICTIONARY
360
2CDB
102
}
330
2
100
AcDbSymbolTableRecord
100
AcDbLayerTableRecord
  2
4
 70
     0
 62
     4
  6
Continuous
370
    -3
390
F
  0
LAYER
  5
33
102
{ACAD_XDICTIONARY
360
2CDD
102
}
330
2
100
AcDbSymbolTableRecord
100
AcDbLayerTableRecord
  2
5
 70
     0
 62
     5
  6
Continuous
370
    -3
390
F
  0
LAYER
  5
34
102
{ACAD_XDICTIONARY
360
2CDF
102
}
330
2
100
AcDbSymbolTableRecord
100
AcDbLayerTableRecord
  2
6
 70
     0
 62
     6
  6
Continuous
370
    -3
390
F
  0
LAYER
  5
35
102
{ACAD_XDICTIONARY
360
2CE1
102
}
330
2
100
AcDbSymbolTableRecord
100
AcDbLayerTableRecord
  2
7
 70
     0
 62
     7
  6
Continuous
370
    -3
390
F
  0
LAYER
  5
36
102
{ACAD_XDICTIONARY
360
2CE3
102
}
330
2
100
AcDbSymbolTableRecord
100
AcDbLayerTableRecord
  2
cen
 70
     0
 62
     7
  6
DASHDOT
370
    -3
390
F
  0
LAYER
  5
37
102
{ACAD_XDICTIONARY
360
2CE5
102
}
330
2
100
AcDbSymbolTableRecord
100
AcDbLayerTableRecord
  2
hid
 70
     0
 62
     7
  6
HIDDEN
370
    -3
390
F
  0
LAYER
  5
5D6
102
{ACAD_XDICTIONARY
360
2CE7
102
}
330
2
100
AcDbSymbolTableRecord
100
AcDbLayerTableRecord
  2
hatch
 70
     0
 62
     9
  6
Continuous
370
    -3
390
F
  0
LAYER
  5
8AF
102
{ACAD_XDICTIONARY
360
2CE9
102
}
330
2
100
AcDbSymbolTableRecord
100
AcDbLayerTableRecord
  2
9
 70
     0
 62
     9
  6
Continuous
370
    -3
390
F
  0
LAYER
  5
8F8
102
{ACAD_XDICTIONARY
360
2CEB
102
}
330
2
100
AcDbSymbolTableRecord
100
AcDbLayerTableRecord
  2
leg fin
 70
     0
 62
     9
  6
Continuous
370
    -3
390
F
  0
LAYER
  5
91D
102
{ACAD_XDICTIONARY
360
2CED
102
}
330
2
100
AcDbSymbolTableRecord
100
AcDbLayerTableRecord
  2
cotas
 70
     0
 62
     1
  6
Continuous
370
    -3
390
F
  0
LAYER
  5
92F
330
2
100
AcDbSymbolTableRecord
100
AcDbLayerTableRecord
  2
Defpoints
 70
     0
 62
     7
  6
Continuous
290
     0
370
    -3
390
F
  0
LAYER
  5
C7B
102
{ACAD_XDICTIONARY
360
2CEF
102
}
330
2
100
AcDbSymbolTableRecord
100
AcDbLayerTableRecord
  2
SANINDUSA
 70
     0
 62
     3
  6
Continuous
370
    -3
390
F
  0
LAYER
  5
10E9
102
{ACAD_XDICTIONARY
360
2CF1
102
}
330
2
100
AcDbSymbolTableRecord
100
AcDbLayerTableRecord
  2
quote
 70
     0
 62
   250
  6
Continuous
370
     5
390
F
  0
ENDTAB
  0
TABLE
  2
STYLE
  5
3
330
0
100
AcDbSymbolTable
 70
     4
  0
STYLE
  5
11
330
3
100
AcDbSymbolTableRecord
100
AcDbTextStyleTableRecord
  2
Standard
 70
     0
 40
0.0
 41
1.0
 50
0.0
 71
     0
 42
2.5
  3
Avgardn.ttf
  4

1001
ACAD
1000
AvantGarde Bk BT
1071
       34
  0
STYLE
  5
2C
330
3
100
AcDbSymbolTableRecord
100
AcDbTextStyleTableRecord
  2

 70
     1
 40
0.0
 41
1.0
 50
0.0
 71
     0
 42
2.5
  3
ltypeshp.shx
  4

  0
STYLE
  5
91F
330
3
100
AcDbSymbolTableRecord
100
AcDbTextStyleTableRecord
  2
SANINDUSA
 70
     0
 40
0.0
 41
1.0
 50
0.0
 71
     0
 42
2.5
  3
verdana.TTF
  4

1001
ACAD
1000
Verdana
1071
       34
  0
STYLE
  5
C7C
330
3
100
AcDbSymbolTableRecord
100
AcDbTextStyleTableRecord
  2
futura
 70
     0
 40
0.0
 41
1.0
 50
0.0
 71
     0
 42
2.5
  3
ZURCHN.TTF
  4

1001
ACAD
1000
Zurich BT
1071
       34
  0
ENDTAB
  0
TABLE
  2
VIEW
  5
6
330
0
100
AcDbSymbolTable
 70
     0
  0
ENDTAB
  0
TABLE
  2
UCS
  5
7
330
0
100
AcDbSymbolTable
 70
     0
  0
ENDTAB
  0
TABLE
  2
APPID
  5
9
330
0
100
AcDbSymbolTable
 70
    15
  0
APPID
  5
12
330
9
100
AcDbSymbolTableRecord
100
AcDbRegAppTableRecord
  2
ACAD
 70
     0
  0
APPID
  5
3A
330
9
100
AcDbSymbolTableRecord
100
AcDbRegAppTableRecord
  2
DCO15
 70
     0
  0
APPID
  5
EEE
330
9
100
AcDbSymbolTableRecord
100
AcDbRegAppTableRecord
  2
ACAD_DSTYLE_DIMTEXT_FILL
 70
     0
  0
APPID
  5
EEF
330
9
100
AcDbSymbolTableRecord
100
AcDbRegAppTableRecord
  2
ACAD_DSTYLE_DIMEXT_LENGTH
 70
     0
  0
APPID
  5
EF0
330
9
100
AcDbSymbolTableRecord
100
AcDbRegAppTableRecord
  2
ACAD_DSTYLE_DIMEXT_ENABLED
 70
     0
  0
APPID
  5
EF1
330
9
100
AcDbSymbolTableRecord
100
AcDbRegAppTableRecord
  2
ACAD_DSTYLE_DIM_LINETYPE
 70
     0
  0
APPID
  5
EF2
330
9
100
AcDbSymbolTableRecord
100
AcDbRegAppTableRecord
  2
ACAD_DSTYLE_DIM_EXT1_LINETYPE
 70
     0
  0
APPID
  5
EF3
330
9
100
AcDbSymbolTableRecord
100
AcDbRegAppTableRecord
  2
ACAD_DSTYLE_DIM_EXT2_LINETYPE
 70
     0
  0
APPID
  5
FAF
330
9
100
AcDbSymbolTableRecord
100
AcDbRegAppTableRecord
  2
ACAD_DSTYLE_DIMJOGGED_JOGANGLE_SYMBOL
 70
     0
  0
APPID
  5
1013
330
9
100
AcDbSymbolTableRecord
100
AcDbRegAppTableRecord
  2
ACAD_DSTYLE_DIMARC_LENGTH_SYMBOL
 70
     0
  0
APPID
  5
10EA
330
9
100
AcDbSymbolTableRecord
100
AcDbRegAppTableRecord
  2
GENIUS_GENREC_14
 70
     0
  0
APPID
  5
10EB
330
9
100
AcDbSymbolTableRecord
100
AcDbRegAppTableRecord
  2
GENIUS_GENODEF_13
 70
     0
  0
APPID
  5
10EC
330
9
100
AcDbSymbolTableRecord
100
AcDbRegAppTableRecord
  2
GENIUS_GENOBJ-N-REC_13
 70
     0
  0
APPID
  5
2040
330
9
100
AcDbSymbolTableRecord
100
AcDbRegAppTableRecord
  2
ACAD_EXEMPT_FROM_CAD_STANDARDS
 70
     0
  0
APPID
  5
2D70
330
9
100
AcDbSymbolTableRecord
100
AcDbRegAppTableRecord
  2
ACAD_MLEADERVER
 70
     0
  0
ENDTAB
  0
TABLE
  2
DIMSTYLE
  5
A
330
0
100
AcDbSymbolTable
 70
     4
100
AcDbDimStyleTable
 71
     1
340
921
  0
DIMSTYLE
105
45
330
A
100
AcDbSymbolTableRecord
100
AcDbDimStyleTableRecord
  2
STANDARD
 70
     0
289
     0
340
11
  0
DIMSTYLE
105
921
330
A
100
AcDbSymbolTableRecord
100
AcDbDimStyleTableRecord
  2
SANINDUSA
 70
     0
 40
10.0
 41
2.0
 42
1.0
 43
1.0
 44
1.0
 73
     0
 74
     0
 77
     1
 78
     8
140
2.0
141
0.0
143
0.03937007874016
147
1.0
171
     3
172
     1
176
   256
177
   256
178
   256
179
     1
271
     1
272
     1
274
     3
278
    44
283
     0
284
     8
340
91F
371
    -1
372
    -1
1001
ACAD_DSTYLE_DIMJOGGED_JOGANGLE_SYMBOL
1070
   384
1040
1.570796326794896
  0
DIMSTYLE
105
C7D
330
A
100
AcDbSymbolTableRecord
100
AcDbDimStyleTableRecord
  2
AM_ISO
 70
     0
  4
"
 41
2.5
 42
1.0
 43
10.0
 44
1.0
 47
0.1
 48
0.1
 73
     0
 74
     0
 77
     1
 78
     8
 79
     2
140
3.5
141
0.0
143
0.0393701
146
0.71
147
1.5
172
     1
176
   256
177
   256
178
     2
271
     2
272
     3
274
     4
283
     0
284
     8
340
11
371
    -1
372
    -1
  0
ENDTAB
  0
TABLE
  2
BLOCK_RECORD
  5
1
330
0
100
AcDbSymbolTable
 70
    23
  0
BLOCK_RECORD
  5
1F
102
{ACAD_XDICTIONARY
360
2207
102
}
330
1
100
AcDbSymbolTableRecord
100
AcDbBlockTableRecord
  2
*Model_Space
340
22
  0
BLOCK_RECORD
  5
1B
330
1
100
AcDbSymbolTableRecord
100
AcDbBlockTableRecord
  2
*Paper_Space
340
1E
  0
BLOCK_RECORD
  5
23
330
1
100
AcDbSymbolTableRecord
100
AcDbBlockTableRecord
  2
*Paper_Space0
340
26
  0
BLOCK_RECORD
  5
919
330
1
100
AcDbSymbolTableRecord
100
AcDbBlockTableRecord
  2
_DotSmall
340
0
  0
BLOCK_RECORD
  5
922
330
1
100
AcDbSymbolTableRecord
100
AcDbBlockTableRecord
  2
base para cotas
340
0
310
2800000020000000200000000100080000000000000400000000000000000000000000000000000000000000000080000080000000808000800000008000800080800000C0C0C000C0DCC000F0CAA6000020400000206000002080000020A0000020C0000020E00000400000004020000040400000406000004080000040A0
310
000040C0000040E00000600000006020000060400000606000006080000060A0000060C0000060E00000800000008020000080400000806000008080000080A0000080C0000080E00000A0000000A0200000A0400000A0600000A0800000A0A00000A0C00000A0E00000C0000000C0200000C0400000C0600000C0800000C0
310
A00000C0C00000C0E00000E0000000E0200000E0400000E0600000E0800000E0A00000E0C00000E0E00040000000400020004000400040006000400080004000A0004000C0004000E00040200000402020004020400040206000402080004020A0004020C0004020E000404000004040200040404000404060004040800040
310
40A0004040C0004040E00040600000406020004060400040606000406080004060A0004060C0004060E00040800000408020004080400040806000408080004080A0004080C0004080E00040A0000040A0200040A0400040A0600040A0800040A0A00040A0C00040A0E00040C0000040C0200040C0400040C0600040C08000
310
40C0A00040C0C00040C0E00040E0000040E0200040E0400040E0600040E0800040E0A00040E0C00040E0E00080000000800020008000400080006000800080008000A0008000C0008000E00080200000802020008020400080206000802080008020A0008020C0008020E00080400000804020008040400080406000804080
310
008040A0008040C0008040E00080600000806020008060400080606000806080008060A0008060C0008060E00080800000808020008080400080806000808080008080A0008080C0008080E00080A0000080A0200080A0400080A0600080A0800080A0A00080A0C00080A0E00080C0000080C0200080C0400080C0600080C0
310
800080C0A00080C0C00080C0E00080E0000080E0200080E0400080E0600080E0800080E0A00080E0C00080E0E000C0000000C0002000C0004000C0006000C0008000C000A000C000C000C000E000C0200000C0202000C0204000C0206000C0208000C020A000C020C000C020E000C0400000C0402000C0404000C0406000C0
310
408000C040A000C040C000C040E000C0600000C0602000C0604000C0606000C0608000C060A000C060C000C060E000C0800000C0802000C0804000C0806000C0808000C080A000C080C000C080E000C0A00000C0A02000C0A04000C0A06000C0A08000C0A0A000C0A0C000C0A0E000C0C00000C0C02000C0C04000C0C06000
310
C0C08000C0C0A000F0FBFF00A4A0A000808080000000FF0000FF000000FFFF00FF000000FF00FF00FFFF0000FFFFFF00A4A4A4A4A4A4A4A4A4A4A4A4A4A4A4A4A4A4A4A4A4A4A4A4A4A4A4A4A4A4A4A4A4A4A4A4A4A4A4A4A4A4A4A4A4A4A4A4A4A4A4A4A4A4A4A4A4A4A4A4A4A4A4A4A4A4A4A4A4A4A4A4A4A4A4A4A4A4A4
310
A4A4A4A4A4A4A4A4A4A4A4A4A4A4A4A4A4A4A4A4A4A4A4A4A4A4A4A4A4A4A4A4A4A4A4A4A4A4A4A4A4A4A4A4A4A4A4A4A4A4A4A4A4A4A4A4A4A4A4A4A4A4A4A4A4A4A4A4A4A4A4A4A4A4A4A4A4A4A4A4A4A4A4A4A4A4A4A4A4A4A4A4A4A4A4A4A4A4A4A4A4A4A4A4A4A4A4A4A4A4A4A4A4A4A4A4A4A4A4A4A4A4A4A4A4A4A4
310
A4A4A4A4A4A4A4A4A4A4A4A4A4A4A4A4A4A4A4A4A4A4A4A4A4A4A4A4A4A4A4A4A4A4A4A4A4A4A4A4A4A4A4A4A4A4A4A4A4A4A4A4A4A4A4A4A4A4A4A4A4A4A4A4A4A4A4A4A4A4A4A4A4A4A4A4A4A4A4A4A4A4A4A4A4A4A4A4A4A4A4A4A4A4A4A4A4A4A4A4A4A4A4A4A4A4A4A4A4A4A4A4A4A4A4A4A4A4A4A4A4A4A4A4A4A4A4
310
A4A4A4A4A4A4A4A4A4A4A4A4A4A4A4A4A4A4A4A4A4A4A4A4A4A4A4A4A4A4A4A4A4A4A4A4A4A4A4A4A4A4A4A4A4A4A4A4A4A4A4A4A4A4A4A4A4A4A4A4A4A4A4A4A4A4A4A4A4A4A4A4A4A4A4A4A4A4A4A4A4A4A4A4A4A4A4A4A4A4A4A4A4A4A4A4A4A4A4A4A4A4A4A4A4A4A4A4A4A4A4A4A4A4A4A4F9F9F9F9F9F9F9F9F9F9F9
310
F9F9F9F9F9F9F9F9F9F9F9F9F9F9F9F9F9F9F9A4A4F9F9F9F9F9F9F9F9F9F9F9F9F9F9F9F9F9F9F9F9F9F9F9F9F9F9F9F9F9F9A4A4F9F9F9F9F9F9F9F9F9F9F9F9F9F9F9F9F9F9F9F9F9F9F9F9F9F9F9F9F9F9A4A4F9A4A4A4A4A4A4A4A4A4A4A4A4A4A4A4A4A4A4A4A4A4A4A4A4A4A4A4A4F9A4A4A4A4A4A4A4A4A4A4A4A4
310
A4A4A4A4A4A4A4A4A4A4A4A4A4A4A4A4A4A4A4A4A4A4A4A4A4A4A4A4A4A4A4A4A4A4A4A4A4A4A4A4A4A4A4A4A4A4A4A4A4A4A4A4A4A4A4A4A4A4A4A4A4A4A4A4A4A4A4A4A4A4A4A4A4A4A4A4A4A4A4A4A4A4A4A4A4A4A4A4A4A4A4A4A4A4A4A4A4A4A4A4A4A4A4A4A4A4A4A4A4A4A4A4A4A4A4A4A4A4A4A4A4A4A4A4A4A4A4
310
A4A4A4A4A4A4A4A4A4A4A4A4A4A4A4A4A4A4A4A4A4A4A4A4A4A4A4A4A4A4A4A4A4A4A4A4A4A4A4A4A4A4A4A4A4A4A4A4A4A4A4A4A4A4A4A4A4A4A4A4A4A4A4A4A4A4A4A4A4A4A4A4A4A4A4A4A4A4A4A4A4A4A4A4A4A4A4A4A4A4A4A4A4A4A4A4A4A4A4A4A4A4A4A4A4A4A4A4A4A4A4A4A4A4A4A4A4A4A4A4A4A4A4A4A4A4A4
310
A4A4A4A4A4A4A4A4A4A4A4A4A4A4A4A4A4A4A4A4A4A4A4A4A4A4A4A4A4A4A4A4A4A4A4A4A4A4A4A4A4A4A4A4A4A4A4A4A4A4A4A4A4A4A4A4A4A4A4A4A4A4A4A4A4A4A4A4A4A4A4A4A4A4A4A4A4A4A4A4A4A4A4A4A4A4A4A4A4A4A4A4A4A4A4A4A4A4A4A4A4A4A4A4A4A4A4A4A4A4A4A4A4A4A4A4A4A4A4A4A4A4A4A4A4A4A4
310
A4A4A4A4A4A4A4A4A4A4A4A4A4A4A4A4A4A4A4A4A4A4A4A4A4A4A4A4A4A4A4A4A4A4A4A4A4A4A4A4A4A4A4A4A4A4A4A4A4A4A4A4A4A4A4A4
1001
ACAD
1000
DesignCenter Data
1002
{
1070
     1
1070
     4
1002
}
  0
BLOCK_RECORD
  5
AA8
330
1
100
AcDbSymbolTableRecord
100
AcDbBlockTableRecord
  2
_CLOSED
340
0
  0
BLOCK_RECORD
  5
B79
330
1
100
AcDbSymbolTableRecord
100
AcDbBlockTableRecord
  2
nota revisoes
340
0
1001
ACAD
1000
DesignCenter Data
1002
{
1070
     1
1070
     4
1002
}
  0
BLOCK_RECORD
  5
B8E
330
1
100
AcDbSymbolTableRecord
100
AcDbBlockTableRecord
  2
a3l
340
0
1001
ACAD
1000
DesignCenter Data
1002
{
1070
     1
1070
     4
1002
}
  0
BLOCK_RECORD
  5
B9E
330
1
100
AcDbSymbolTableRecord
100
AcDbBlockTableRecord
  2
legenda desenvolvimento
340
0
1001
ACAD
1000
DesignCenter Data
1002
{
1070
     1
1070
     4
1002
}
  0
BLOCK_RECORD
  5
1060
330
1
100
AcDbSymbolTableRecord
100
AcDbBlockTableRecord
  2
guarnizione
340
0
  0
BLOCK_RECORD
  5
2AF0
330
1
100
AcDbSymbolTableRecord
100
AcDbBlockTableRecord
  2
*D8
340
0
  0
BLOCK_RECORD
  5
2AFC
330
1
100
AcDbSymbolTableRecord
100
AcDbBlockTableRecord
  2
*D9
340
0
  0
BLOCK_RECORD
  5
2B0A
330
1
100
AcDbSymbolTableRecord
100
AcDbBlockTableRecord
  2
*D10
340
0
  0
BLOCK_RECORD
  5
2B16
330
1
100
AcDbSymbolTableRecord
100
AcDbBlockTableRecord
  2
*D11
340
0
  0
BLOCK_RECORD
  5
2B22
330
1
100
AcDbSymbolTableRecord
100
AcDbBlockTableRecord
  2
*D12
340
0
  0
BLOCK_RECORD
  5
2B2E
330
1
100
AcDbSymbolTableRecord
100
AcDbBlockTableRecord
  2
*D13
340
0
  0
BLOCK_RECORD
  5
2B6A
330
1
100
AcDbSymbolTableRecord
100
AcDbBlockTableRecord
  2
*D14
340
0
  0
BLOCK_RECORD
  5
2B76
330
1
100
AcDbSymbolTableRecord
100
AcDbBlockTableRecord
  2
*D15
340
0
  0
BLOCK_RECORD
  5
2B82
330
1
100
AcDbSymbolTableRecord
100
AcDbBlockTableRecord
  2
*D16
340
0
  0
BLOCK_RECORD
  5
2B8E
330
1
100
AcDbSymbolTableRecord
100
AcDbBlockTableRecord
  2
*D17
340
0
  0
BLOCK_RECORD
  5
2B9A
330
1
100
AcDbSymbolTableRecord
100
AcDbBlockTableRecord
  2
*D18
340
0
  0
BLOCK_RECORD
  5
2BEE
330
1
100
AcDbSymbolTableRecord
100
AcDbBlockTableRecord
  2
*D19
340
0
  0
BLOCK_RECORD
  5
2C17
330
1
100
AcDbSymbolTableRecord
100
AcDbBlockTableRecord
  2
*D20
340
0
  0
BLOCK_RECORD
  5
2CB0
330
1
100
AcDbSymbolTableRecord
100
AcDbBlockTableRecord
  2
*D22
340
0
  0
ENDTAB
  0
ENDSEC
  0
SECTION
  2
BLOCKS
  0
BLOCK
  5
20
330
1F
100
AcDbEntity
  8
0
100
AcDbBlockBegin
  2
*Model_Space
 70
     0
 10
0.0
 20
0.0
 30
0.0
  3
*Model_Space
  1

  0
ENDBLK
  5
21
330
1F
100
AcDbEntity
  8
0
100
AcDbBlockEnd
  0
BLOCK
  5
1C
330
1B
100
AcDbEntity
 67
     1
  8
0
100
AcDbBlockBegin
  2
*Paper_Space
 70
     0
 10
0.0
 20
0.0
 30
0.0
  3
*Paper_Space
  1

  0
ENDBLK
  5
1D
330
1B
100
AcDbEntity
 67
     1
  8
0
100
AcDbBlockEnd
  0
BLOCK
  5
24
330
23
100
AcDbEntity
 67
     1
  8
0
100
AcDbBlockBegin
  2
*Paper_Space0
 70
     0
 10
0.0
 20
0.0
 30
0.0
  3
*Paper_Space0
  1

  0
ENDBLK
  5
25
330
23
100
AcDbEntity
 67
     1
  8
0
100
AcDbBlockEnd
  0
BLOCK
  5
91B
330
919
100
AcDbEntity
  8
0
100
AcDbBlockBegin
  2
_DotSmall
 70
     0
 10
0.0
 20
0.0
 30
0.0
  3
_DotSmall
  1

  0
LWPOLYLINE
  5
91A
330
919
100
AcDbEntity
  8
0
  6
ByBlock
 62
     0
100
AcDbPolyline
 90
        2
 70
     1
 43
0.5
 10
-0.0625
 20
0.0
 42
1.0
 10
0.0625
 20
0.0
 42
1.0
  0
ENDBLK
  5
91C
330
919
100
AcDbEntity
  8
0
100
AcDbBlockEnd
  0
BLOCK
  5
92A
330
922
100
AcDbEntity
  8
0
100
AcDbBlockBegin
  2
base para cotas
 70
     0
 10
0.0
 20
0.0
 30
0.0
  3
base para cotas
  1

  0
LINE
  5
B36
330
922
100
AcDbEntity
  8
cotas
100
AcDbLine
 10
0.0
 20
-30.0
 30
0.0
 11
327.1260136525398
 21
-30.0
 31
0.0
  0
LINE
  5
B37
330
922
100
AcDbEntity
  8
cotas
100
AcDbLine
 10
0.0
 20
-25.0
 30
0.0
 11
327.1260136525398
 21
-25.0
 31
0.0
  0
LINE
  5
B38
330
922
100
AcDbEntity
  8
cotas
100
AcDbLine
 10
0.0
 20
-20.0
 30
0.0
 11
327.1260136525398
 21
-20.0
 31
0.0
  0
LINE
  5
B39
330
922
100
AcDbEntity
  8
cotas
100
AcDbLine
 10
0.0
 20
-15.0
 30
0.0
 11
327.1260136525398
 21
-15.0
 31
0.0
  0
LINE
  5
B3A
330
922
100
AcDbEntity
  8
cotas
100
AcDbLine
 10
0.0
 20
-10.0
 30
0.0
 11
327.1260136525398
 21
-10.0
 31
0.0
  0
LINE
  5
B3B
330
922
100
AcDbEntity
  8
cotas
100
AcDbLine
 10
0.0
 20
0.0
 30
0.0
 11
0.0
 21
-30.0
 31
0.0
  0
LINE
  5
B3C
330
922
100
AcDbEntity
  8
cotas
100
AcDbLine
 10
327.1260136525398
 20
-30.0
 30
0.0
 11
327.1260136525398
 21
0.0
 31
0.0
  0
ENDBLK
  5
92B
330
922
100
AcDbEntity
  8
0
100
AcDbBlockEnd
  0
BLOCK
  5
AAD
330
AA8
100
AcDbEntity
  8
0
100
AcDbBlockBegin
  2
_CLOSED
 70
     0
 10
0.0
 20
0.0
 30
0.0
  3
_CLOSED
  1

  0
LINE
  5
AA9
330
AA8
100
AcDbEntity
  8
0
100
AcDbLine
 10
-1.0
 20
0.166667
 30
0.0
 11
0.0
 21
0.0
 31
0.0
  0
LINE
  5
AAA
330
AA8
100
AcDbEntity
  8
0
100
AcDbLine
 10
0.0
 20
0.0
 30
0.0
 11
-1.0
 21
-0.166667
 31
0.0
  0
LINE
  5
AAB
330
AA8
100
AcDbEntity
  8
0
100
AcDbLine
 10
-1.0
 20
0.166667
 30
0.0
 11
-1.0
 21
-0.166667
 31
0.0
  0
LINE
  5
AAC
330
AA8
100
AcDbEntity
  8
0
100
AcDbLine
 10
0.0
 20
0.0
 30
0.0
 11
-1.0
 21
0.0
 31
0.0
  0
ENDBLK
  5
AAE
330
AA8
100
AcDbEntity
  8
0
100
AcDbBlockEnd
  0
BLOCK
  5
B7C
330
B79
100
AcDbEntity
  8
0
100
AcDbBlockBegin
  2
nota revisoes
 70
     0
 10
0.0
 20
0.0
 30
0.0
  3
nota revisoes
  1

  0
CIRCLE
  5
B7A
330
B79
100
AcDbEntity
  8
4
100
AcDbCircle
 10
0.0
 20
0.0
 30
0.0
 40
13.69426055101189
  0
TEXT
  5
B7B
330
B79
100
AcDbEntity
  8
4
100
AcDbText
 10
-5.496248358154345
 20
-5.354545554066362
 30
0.0
 40
12.0
  1
1
  7
SANINDUSA
 72
     1
 11
-0.249774214433728
 21
-5.354545554066362
 31
0.0
100
AcDbText
  0
ENDBLK
  5
B7D
330
B79
100
AcDbEntity
  8
0
100
AcDbBlockEnd
  0
BLOCK
  5
B9C
330
B8E
100
AcDbEntity
  8
0
100
AcDbBlockBegin
  2
a3l
 70
     0
 10
0.0
 20
0.0
 30
0.0
  3
a3l
  1

  0
LINE
  5
B8F
330
B8E
100
AcDbEntity
  8
1
100
AcDbLine
 10
-364.2925296599447
 20
-362.1188951399395
 30
0.0
 11
-364.2925296599447
 21
-65.11889513993946
 31
0.0
  0
LINE
  5
B90
330
B8E
100
AcDbEntity
  8
4
100
AcDbLine
 10
-369.2925296599447
 20
-357.1188951399395
 30
0.0
 11
-369.2925296599447
 21
-70.11889513993946
 31
0.0
  0
LINE
  5
B91
330
B8E
100
AcDbEntity
  8
1
100
AcDbLine
 10
-784.2925296599446
 20
-65.11889513993946
 30
0.0
 11
-784.2925296599446
 21
-362.1188951399395
 31
0.0
  0
LINE
  5
B92
330
B8E
100
AcDbEntity
  8
4
100
AcDbLine
 10
-759.2925296599446
 20
-357.1188951399395
 30
0.0
 11
-759.2925296599446
 21
-70.11889513993946
 31
0.0
  0
LINE
  5
B93
330
B8E
100
AcDbEntity
  8
1
100
AcDbLine
 10
-784.2925296599446
 20
-362.1188951399395
 30
0.0
 11
-364.2925296599447
 21
-362.1188951399395
 31
0.0
  0
LINE
  5
B94
330
B8E
100
AcDbEntity
  8
4
100
AcDbLine
 10
-759.2925296599446
 20
-357.1188951399395
 30
0.0
 11
-369.2925296599447
 21
-357.1188951399395
 31
0.0
  0
LINE
  5
B95
330
B8E
100
AcDbEntity
  8
1
100
AcDbLine
 10
-654.2925296599446
 20
-357.1188951399395
 30
0.0
 11
-654.2925296599446
 21
-362.1188951399395
 31
0.0
  0
LINE
  5
B96
330
B8E
100
AcDbEntity
  8
1
100
AcDbLine
 10
-364.2925296599447
 20
-65.11889513993946
 30
0.0
 11
-784.2925296599446
 21
-65.11889513993946
 31
0.0
  0
LINE
  5
B97
330
B8E
100
AcDbEntity
  8
4
100
AcDbLine
 10
-369.2925296599447
 20
-70.11889513993946
 30
0.0
 11
-759.2925296599446
 21
-70.11889513993946
 31
0.0
  0
LINE
  5
B98
330
B8E
100
AcDbEntity
  8
1
100
AcDbLine
 10
-654.2925296599446
 20
-65.11889513993946
 30
0.0
 11
-654.2925296599446
 21
-70.11889513993946
 31
0.0
  0
LINE
  5
B99
330
B8E
100
AcDbEntity
  8
1
100
AcDbLine
 10
-549.2925296599446
 20
-70.11889513993946
 30
0.0
 11
-549.2925296599446
 21
-65.11889513993946
 31
0.0
  0
LINE
  5
B9A
330
B8E
100
AcDbEntity
  8
1
100
AcDbLine
 10
-369.2925296599447
 20
-65.11889513993946
 30
0.0
 11
-364.2925296599447
 21
-65.11889513993946
 31
0.0
  0
LINE
  5
B9B
330
B8E
100
AcDbEntity
  8
1
100
AcDbLine
 10
-549.2925296599446
 20
-357.1188951399395
 30
0.0
 11
-549.2925296599446
 21
-362.1188951399395
 31
0.0
  0
ENDBLK
  5
B9D
330
B8E
100
AcDbEntity
  8
0
100
AcDbBlockEnd
  0
BLOCK
  5
C13
330
B9E
100
AcDbEntity
  8
0
100
AcDbBlockBegin
  2
legenda desenvolvimento
 70
     2
 10
0.0
 20
0.0
 30
0.0
  3
legenda desenvolvimento
  1

  0
ATTDEF
  5
B9F
330
B9E
100
AcDbEntity
  8
1
100
AcDbText
 10
-108.606245802552
 20
55.5
 30
0.0
 40
4.0
  1
XXXXXXXXXXXXXX
 41
0.8
  7
SANINDUSA
 72
     4
 11
-87.5
 21
57.5
 31
0.0
100
AcDbAttributeDefinition
  3
Nome do Produto:
  2
PRODUTO
 70
     0
  0
ATTDEF
  5
BA0
330
B9E
100
AcDbEntity
  8
1
100
AcDbText
 10
-97.9997966101695
 20
41.25
 30
0.0
 40
3.0
  1
XXXXXXXXX
 41
0.8
  7
futura
 72
     4
 11
-87.5
 21
42.75
 31
0.0
100
AcDbAttributeDefinition
  3
Nome da Peça:
  2
PECA
 70
     0
  0
ATTDEF
  5
BA1
330
B9E
100
AcDbEntity
  8
1
100
AcDbText
 10
-133.4422431161853
 20
21.11745296763252
 30
0.0
 40
2.5
  1
X
 41
0.8
  7
SANINDUSA
 72
     4
 11
-132.5
 21
22.36745296763252
 31
0.0
100
AcDbAttributeDefinition
  3
Cod. TESTE:
  2
TESTE
 70
     0
  0
ATTDEF
  5
BA2
330
B9E
100
AcDbEntity
  8
1
100
AcDbText
 10
-124.3844862323707
 20
21.11745296763252
 30
0.0
 40
2.5
  1
XX
 41
0.8
  7
SANINDUSA
 72
     4
 11
-122.5
 21
22.36745296763252
 31
0.0
100
AcDbAttributeDefinition
  3
Cod. Ano:
  2
ANO
 70
     0
  0
ATTDEF
  5
BA3
330
B9E
100
AcDbEntity
  8
1
100
AcDbText
 10
-112.526889953052
 20
21.11745296763252
 30
0.0
 40
2.5
  1
XXX
 41
0.8
  7
SANINDUSA
 72
     4
 11
-109.700160604496
 21
22.36745296763252
 31
0.0
100
AcDbAttributeDefinition
  3
Cod. Sequência:
  2
SEQUENCIA
 70
     0
  0
ATTDEF
  5
BA4
330
B9E
100
AcDbEntity
  8
1
100
AcDbText
 10
-99.35382430979316
 20
21.11745296763252
 30
0.0
 40
2.5
  1
XX
 41
0.8
  7
SANINDUSA
 72
     4
 11
-97.46933807742244
 21
22.36745296763252
 31
0.0
100
AcDbAttributeDefinition
  3
Cod. Tipo:
  2
TIPO
 70
     0
  0
ATTDEF
  5
BA5
330
B9E
100
AcDbEntity
  8
1
100
AcDbText
 10
-87.42035911468438
 20
21.11745296763252
 30
0.0
 40
2.5
  1
XXX
 41
0.8
  7
SANINDUSA
 72
     4
 11
-84.59362976612828
 21
22.36745296763252
 31
0.0
100
AcDbAttributeDefinition
  3
Cod. Produto:
  2
PRODUTO
 70
     0
  0
ATTDEF
  5
BA6
330
B9E
100
AcDbEntity
  8
1
100
AcDbText
 10
-74.62051971917853
 20
21.11745296763252
 30
0.0
 40
2.5
  1
XXX
 41
0.8
  7
SANINDUSA
 72
     4
 11
-71.79379037062244
 21
22.36745296763252
 31
0.0
100
AcDbAttributeDefinition
  3
Cod. Peça:
  2
PECA
 70
     0
  0
ATTDEF
  5
BA7
330
B9E
100
AcDbEntity
  8
1
100
AcDbText
 10
-61.10603446650329
 20
21.11745296763252
 30
0.0
 40
2.5
  1
XX
 41
0.8
  7
SANINDUSA
 72
     4
 11
-59.22154823413257
 21
22.36745296763252
 31
0.0
100
AcDbAttributeDefinition
  3
Cod. Revisão:
  2
REV
 70
     0
  0
ATTDEF
  5
BA8
330
B9E
100
AcDbEntity
  8
1
100
AcDbText
 10
-48.43615325006194
 20
21.11745296763252
 30
0.0
 40
2.5
  1
XX
 41
0.8
  7
SANINDUSA
 72
     4
 11
-46.55166701769121
 21
22.36745296763252
 31
0.0
100
AcDbAttributeDefinition
  3
Cod. Alteração:
  2
ALT
 70
     0
  0
ATTDEF
  5
BA9
330
B9E
100
AcDbEntity
  8
1
100
AcDbText
 10
-35.19086635325722
 20
23.98875083948959
 30
0.0
 40
3.0
  1
1/XXX
 41
0.8
  7
SANINDUSA
 72
     4
 11
-30.0
 21
25.25
 31
0.0
100
AcDbAttributeDefinition
  3
Escala geral:
  2
ESCALA
 70
     0
  0
ATTDEF
  5
BAA
330
B9E
100
AcDbEntity
  8
1
100
AcDbText
 10
-15.65345869711215
 20
23.75
 30
0.0
 40
3.0
  1
XXXXX
 41
0.8
  7
SANINDUSA
 72
     4
 11
-10.0
 21
25.25
 31
0.0
100
AcDbAttributeDefinition
  3
Folha:
  2
FOLHA
 70
     0
  0
ATTDEF
  5
BAB
330
B9E
100
AcDbEntity
  8
1
100
AcDbText
 10
-178.5146998822042
 20
56.9531347542807
 30
0.0
 40
2.0
  1
xx
 41
0.8
  7
SANINDUSA
 72
     4
 11
-177.2123493113513
 21
57.70330265219877
 31
0.0
100
AcDbAttributeDefinition
  3
revisão
  2
REV.
 70
     0
  0
ATTDEF
  5
BAC
330
B9E
100
AcDbEntity
  8
1
100
AcDbText
 10
-172.7849640077129
 20
56.9531347542807
 30
0.0
 40
2.0
  1
xx
 41
0.8
  7
SANINDUSA
 72
     4
 11
-171.48261343686
 21
57.70330265219877
 31
0.0
100
AcDbAttributeDefinition
  3
alteração
  2
ALT.
 70
     0
  0
ATTDEF
  5
BAD
330
B9E
100
AcDbEntity
  8
1
100
AcDbText
 10
-168.007199951307
 20
56.70330265219877
 30
0.0
 40
2.0
  1
xx/xx/xxxx
 41
0.8
  7
SANINDUSA
 11
-168.007199951307
 21
57.70330265219877
 31
0.0
100
AcDbAttributeDefinition
  3
data
  2
DATA
 70
     0
 74
     2
  0
ATTDEF
  5
BAE
330
B9E
100
AcDbEntity
  8
1
100
AcDbText
 10
-168.5396372253371
 20
13.15916722632639
 30
0.0
 40
2.0
  1
XX/XX/XXXX
 41
0.8
  7
SANINDUSA
 72
     4
 11
-161.5099528734231
 21
14.0
 31
0.0
100
AcDbAttributeDefinition
  3
Data projecto
  2
DATA_PROJ
 70
     0
  0
ATTDEF
  5
BAF
330
B9E
100
AcDbEntity
  8
1
100
AcDbText
 10
-150.8658110728766
 20
13.24983210208193
 30
0.0
 40
2.0
  1
xxxxxxxx
 41
0.8
  7
SANINDUSA
 72
     4
 11
-145.6564087894649
 21
14.0
 31
0.0
100
AcDbAttributeDefinition
  3
nome de quem projectou
  2
NOME
 70
     0
  0
ATTDEF
  5
BB0
330
B9E
100
AcDbEntity
  8
1
100
AcDbText
 10
-168.5396372253371
 20
9.159167226326394
 30
0.0
 40
2.0
  1
XX/XX/XXXX
 41
0.8
  7
SANINDUSA
 72
     4
 11
-161.5099528734231
 21
10.0
 31
0.0
100
AcDbAttributeDefinition
  3
Data desenhou
  2
DATA_DES
 70
     0
  0
ATTDEF
  5
BB1
330
B9E
100
AcDbEntity
  8
1
100
AcDbText
 10
-151.516986358303
 20
9.249832102081933
 30
0.0
 40
2.0
  1
xxxxxxxxx
 41
0.8
  7
SANINDUSA
 72
     4
 11
-145.6564087894649
 21
10.0
 31
0.0
100
AcDbAttributeDefinition
  3
nome
  2
NOME
 70
     0
  0
ATTDEF
  5
BB2
330
B9E
100
AcDbEntity
  8
1
100
AcDbText
 10
-127.2924214135946
 20
14.1979876583216
 30
0.0
 40
2.0
  1
Vitreous China
 41
0.8
  7
SANINDUSA
 72
     4
 11
-119.231709526422
 21
15.22216495852308
 31
0.0
100
AcDbAttributeDefinition
  3
Nome do Material:
  2
MATERIAL
 70
     0
  0
ATTDEF
  5
BB3
330
B9E
100
AcDbEntity
  8
1
100
AcDbText
 10
-103.1563452122093
 20
14.38019043949261
 30
0.0
 40
2.0
  1
Branco
 41
0.8
  7
SANINDUSA
 72
     4
 11
-99.33418268702462
 21
15.35937109765245
 31
0.0
100
AcDbAttributeDefinition
  3
cor da peça
  2
COR
 70
     0
  0
ATTDEF
  5
BB4
330
B9E
100
AcDbEntity
  8
1
100
AcDbText
 10
-116.7235057085292
 20
5.975822699798522
 30
0.0
 40
2.0
  1
Vidrado
 41
0.8
  7
SANINDUSA
 72
     4
 11
-112.5
 21
7.0
 31
0.0
100
AcDbAttributeDefinition
  3
Tipo de acabamento:
  2
ACABAMENTO
 70
     0
  0
ATTDEF
  5
BB5
330
B9E
100
AcDbEntity
  8
1
100
AcDbText
 10
-79.18527869967246
 20
16.65066409850533
 30
0.0
 40
2.0
  1
XXXXXXX
 41
0.8
  7
SANINDUSA
 72
     4
 11
-73.90871724903445
 21
17.65066409850533
 31
0.0
100
AcDbAttributeDefinition
  3
Normas
  2
NORMAS
 70
     0
  0
ATTDEF
  5
BB6
330
B9E
100
AcDbEntity
  8
1
100
AcDbText
 10
-30.55312290127603
 20
14.0
 30
0.0
 40
2.0
  1
XXXXXXXXXXXXXX
 41
0.8
  7
SANINDUSA
 72
     4
 11
-20.0
 21
15.0
 31
0.0
100
AcDbAttributeDefinition
  3
Substitui o desenho:
  2
SUBSTITUI
 70
     0
  0
ATTDEF
  5
BB7
330
B9E
100
AcDbEntity
  8
1
100
AcDbText
 10
-31.30691739422431
 20
6.0
 30
0.0
 40
2.0
  1
XXXXXXXXXXXXXXX
 41
0.8
  7
SANINDUSA
 72
     4
 11
-20.0
 21
7.0
 31
0.0
100
AcDbAttributeDefinition
  3
Substituido por:
  2
SUBSTITUIDO
 70
     0
  0
ATTDEF
  5
BB8
330
B9E
100
AcDbEntity
  8
1
100
AcDbText
 10
-110.0220608548302
 20
1.478208457928303
 30
0.0
 40
2.0
  1
XXXXXXXXXXXXXXXXXXXXXXXXXXXXXXXXXX
 41
0.8
  7
SANINDUSA
 11
-110.0220608548302
 21
2.478208457928303
 31
0.0
100
AcDbAttributeDefinition
  3
Localização do desenho:
  2
LOC-DWG
 70
     0
 74
     2
  0
LINE
  5
BB9
330
B9E
100
AcDbEntity
  8
3
100
AcDbLine
 10
-135.0
 20
4.0
 30
0.0
 11
0.0000000000004547
 21
4.0
 31
0.0
  0
LINE
  5
BBA
330
B9E
100
AcDbEntity
  8
3
100
AcDbLine
 10
-90.00000000000046
 20
12.0
 30
0.0
 11
-135.0
 21
12.0
 31
0.0
  0
LINE
  5
BBB
330
B9E
100
AcDbEntity
  8
3
100
AcDbLine
 10
-135.0
 20
32.5
 30
0.0
 11
-40.0
 21
32.5
 31
0.0
  0
TEXT
  5
BBC
330
B9E
100
AcDbEntity
  8
1
100
AcDbText
 10
-134.0
 20
1.25
 30
0.0
 40
2.0
  1
Localização do des.:
 41
0.8
  7
SANINDUSA
 11
-134.0
 21
2.25
 31
0.0
100
AcDbText
 73
     2
  0
LINE
  5
BBD
330
B9E
100
AcDbEntity
  8
3
100
AcDbLine
 10
-180.0
 20
65.0
 30
0.0
 11
0.0
 21
65.0
 31
0.0
  0
LINE
  5
BBE
330
B9E
100
AcDbEntity
  8
leg fin
100
AcDbLine
 10
-40.0
 20
25.05956924886846
 30
0.0
 11
-135.0
 21
25.05956924886846
 31
0.0
  0
LINE
  5
BBF
330
B9E
100
AcDbEntity
  8
leg fin
100
AcDbLine
 10
-40.0
 20
28.5
 30
0.0
 11
-135.0
 21
28.5
 31
0.0
  0
LINE
  5
BC0
330
B9E
100
AcDbEntity
  8
3
100
AcDbLine
 10
-135.0
 20
50.0
 30
0.0
 11
-40.0
 21
50.0
 31
0.0
  0
TEXT
  5
BC1
330
B9E
100
AcDbEntity
  8
1
100
AcDbText
 10
-134.0
 20
29.75
 30
0.0
 40
2.0
  1
Desenho nº:
 41
0.8
  7
SANINDUSA
 11
-134.0
 21
30.75
 31
0.0
100
AcDbText
 73
     2
  0
TEXT
  5
BC2
330
B9E
100
AcDbEntity
  8
1
100
AcDbText
 10
-134.0
 20
9.25
 30
0.0
 40
2.0
  1
Acabamento:
 41
0.8
  7
SANINDUSA
 11
-134.0
 21
10.25
 31
0.0
100
AcDbText
 73
     2
  0
LINE
  5
BC3
330
B9E
100
AcDbEntity
  8
3
100
AcDbLine
 10
-180.0
 20
20.0
 30
0.0
 11
0.0
 21
20.0
 31
0.0
  0
LINE
  5
BC4
330
B9E
100
AcDbEntity
  8
1
100
AcDbLine
 10
-174.5810776056337
 20
55.5
 30
0.0
 11
-174.5810776056337
 21
65.0
 31
0.0
  0
LINE
  5
BC5
330
B9E
100
AcDbEntity
  8
1
100
AcDbLine
 10
-168.9210461879161
 20
55.5
 30
0.0
 11
-168.9210461879161
 21
65.0
 31
0.0
  0
LINE
  5
BC6
330
B9E
100
AcDbEntity
  8
1
100
AcDbLine
 10
-154.0988595589306
 20
55.5
 30
0.0
 11
-154.0988595589306
 21
65.0
 31
0.0
  0
LINE
  5
BC7
330
B9E
100
AcDbEntity
  8
3
100
AcDbLine
 10
-180.0
 20
65.0
 30
0.0
 11
-180.0
 21
0.0
 31
0.0
  0
LINE
  5
BC8
330
B9E
100
AcDbEntity
  8
3
100
AcDbLine
 10
-135.0
 20
0.0
 30
0.0
 11
-135.0
 21
65.0
 31
0.0
  0
TEXT
  5
BC9
330
B9E
100
AcDbEntity
  8
1
100
AcDbText
 10
-179.0
 20
9.75
 30
0.0
 40
1.5
  1
Des.
 41
0.8
  7
SANINDUSA
 11
-179.0
 21
10.5
 31
0.0
100
AcDbText
 73
     2
  0
LINE
  5
BCA
330
B9E
100
AcDbEntity
  8
1
100
AcDbLine
 10
-168.9210461879161
 20
20.0
 30
0.0
 11
-168.9210461879161
 21
0.0
 31
0.0
  0
LINE
  5
BCB
330
B9E
100
AcDbEntity
  8
1
100
AcDbLine
 10
-154.0988595589306
 20
20.0
 30
0.0
 11
-154.0988595589306
 21
0.0
 31
0.0
  0
LINE
  5
BCC
330
B9E
100
AcDbEntity
  8
1
100
AcDbLine
 10
-180.0
 20
4.0
 30
0.0
 11
-135.0
 21
4.0
 31
0.0
  0
LINE
  5
BCD
330
B9E
100
AcDbEntity
  8
1
100
AcDbLine
 10
-180.0
 20
8.0
 30
0.0
 11
-135.0
 21
8.0
 31
0.0
  0
TEXT
  5
BCE
330
B9E
100
AcDbEntity
  8
1
100
AcDbText
 10
-179.0
 20
1.73257823687436
 30
0.0
 40
1.5
  1
Aprov.
 41
0.8
  7
SANINDUSA
 11
-179.0
 21
2.48257823687436
 31
0.0
100
AcDbText
 73
     2
  0
TEXT
  5
BCF
330
B9E
100
AcDbEntity
  8
1
100
AcDbText
 10
-179.0
 20
5.75
 30
0.0
 40
1.5
  1
Ver.
 41
0.8
  7
SANINDUSA
 11
-179.0
 21
6.5
 31
0.0
100
AcDbText
 73
     2
  0
LINE
  5
BD0
330
B9E
100
AcDbEntity
  8
1
100
AcDbLine
 10
-180.0
 20
16.0
 30
0.0
 11
-135.0
 21
16.0
 31
0.0
  0
LINE
  5
BD1
330
B9E
100
AcDbEntity
  8
1
100
AcDbLine
 10
-180.0
 20
12.0
 30
0.0
 11
-135.0
 21
12.0
 31
0.0
  0
TEXT
  5
BD2
330
B9E
100
AcDbEntity
  8
1
100
AcDbText
 10
-179.0
 20
13.75
 30
0.0
 40
1.5
  1
Proj.
 41
0.8
  7
SANINDUSA
 11
-179.0
 21
14.5
 31
0.0
100
AcDbText
 73
     2
  0
TEXT
  5
BD3
330
B9E
100
AcDbEntity
  8
1
100
AcDbText
 10
-167.9210461879161
 20
17.75
 30
0.0
 40
1.5
  1
Data
 41
0.8
  7
SANINDUSA
 11
-167.9210461879161
 21
18.5
 31
0.0
100
AcDbText
 73
     2
  0
TEXT
  5
BD4
330
B9E
100
AcDbEntity
  8
1
100
AcDbText
 10
-153.0988595589306
 20
17.75
 30
0.0
 40
1.5
  1
Nome
 41
0.8
  7
SANINDUSA
 11
-153.0988595589306
 21
18.5
 31
0.0
100
AcDbText
 73
     2
  0
LINE
  5
BD5
330
B9E
100
AcDbEntity
  8
leg fin
100
AcDbLine
 10
-130.0
 20
20.0
 30
0.0
 11
-130.0
 21
28.5
 31
0.0
  0
TEXT
  5
BD6
330
B9E
100
AcDbEntity
  8
1
100
AcDbText
 10
-134.0
 20
17.25
 30
0.0
 40
2.0
  1
Material:
 41
0.8
  7
SANINDUSA
 11
-134.0
 21
18.25
 31
0.0
100
AcDbText
 73
     2
  0
TEXT
  5
BD7
330
B9E
100
AcDbEntity
  8
1
100
AcDbText
 10
-129.0
 20
26.43288406845113
 30
0.0
 40
1.5
  1
Ano:
 41
0.8
  7
SANINDUSA
 11
-129.0
 21
27.18288406845113
 31
0.0
100
AcDbText
 73
     2
  0
LINE
  5
BD8
330
B9E
100
AcDbEntity
  8
1
100
AcDbLine
 10
-180.0
 20
55.5
 30
0.0
 11
-135.0
 21
55.5
 31
0.0
  0
TEXT
  5
BD9
330
B9E
100
AcDbEntity
  8
1
100
AcDbText
 10
-179.0
 20
52.67772246885193
 30
0.0
 40
1.5
  1
descrição
 41
0.8
  7
SANINDUSA
 11
-179.0
 21
53.42772246885193
 31
0.0
100
AcDbText
 73
     2
  0
TEXT
  5
BDA
330
B9E
100
AcDbEntity
  8
1
100
AcDbText
 10
-134.0
 20
47.25
 30
0.0
 40
2.0
  1
Peça:
 41
0.8
  7
SANINDUSA
 11
-134.0
 21
48.25
 31
0.0
100
AcDbText
 73
     2
  0
LINE
  5
BDB
330
B9E
100
AcDbEntity
  8
1
100
AcDbLine
 10
-180.0
 20
59.5
 30
0.0
 11
-135.0
 21
59.5
 31
0.0
  0
TEXT
  5
BDC
330
B9E
100
AcDbEntity
  8
1
100
AcDbText
 10
-173.5810776056337
 20
62.75
 30
0.0
 40
1.5
  1
Alt.
 41
0.8
  7
SANINDUSA
 11
-173.5810776056337
 21
63.5
 31
0.0
100
AcDbText
 73
     2
  0
TEXT
  5
BDD
330
B9E
100
AcDbEntity
  8
1
100
AcDbText
 10
-179.0
 20
62.75
 30
0.0
 40
1.5
  1
Rev.
 41
0.8
  7
SANINDUSA
 11
-179.0
 21
63.5
 31
0.0
100
AcDbText
 73
     2
  0
TEXT
  5
BDE
330
B9E
100
AcDbEntity
  8
1
100
AcDbText
 10
-167.9210461879161
 20
62.75
 30
0.0
 40
1.5
  1
Data
 41
0.8
  7
SANINDUSA
 11
-167.9210461879161
 21
63.5
 31
0.0
100
AcDbText
 73
     2
  0
TEXT
  5
BDF
330
B9E
100
AcDbEntity
  8
1
100
AcDbText
 10
-153.0988595589306
 20
62.75
 30
0.0
 40
1.5
  1
Nome
 41
0.8
  7
SANINDUSA
 11
-153.0988595589306
 21
63.5
 31
0.0
100
AcDbText
 73
     2
  0
TEXT
  5
BE0
330
B9E
100
AcDbEntity
  8
1
100
AcDbText
 10
-134.0
 20
62.25
 30
0.0
 40
2.0
  1
Produto:
 41
0.8
  7
SANINDUSA
 11
-134.0
 21
63.25
 31
0.0
100
AcDbText
 73
     2
  0
LINE
  5
BE1
330
B9E
100
AcDbEntity
  8
3
100
AcDbLine
 10
-40.0
 20
4.0
 30
0.0
 11
-40.0
 21
65.0
 31
0.0
  0
LWPOLYLINE
  5
BE2
102
{ACAD_REACTORS
330
BEC
102
}
330
B9E
100
AcDbEntity
  8
9
100
AcDbPolyline
 90
       12
 70
     1
 43
0.0
 10
-3.038714600644652
 20
58.90010174665076
 10
-5.726962862472191
 20
58.90010174665076
 10
-5.726962862472191
 20
58.5001017466509
 10
-3.038748516195028
 20
58.5001017466509
 42
-0.4142135623731731
 10
-2.638748516194482
 20
58.1001017466508
 10
-2.638748516194482
 20
57.42799728675596
 10
-5.21497371544865
 20
57.42799728675596
 42
0.4142135623731289
 10
-6.014973715448377
 20
56.627997286756
 10
-6.014973715448377
 20
55.92380871629643
 42
0.4142135623731132
 10
-5.21497371544865
 20
55.12380871629648
 10
-2.23871460064447
 20
55.12380871629648
 10
-2.23871460064447
 20
58.10010174665103
 42
0.4142135623730717
  0
LWPOLYLINE
  5
BE3
102
{ACAD_REACTORS
330
BEC
102
}
330
B9E
100
AcDbEntity
  8
9
100
AcDbPolyline
 90
       20
 70
     1
 43
0.0
 10
-10.01531287095122
 20
57.82799728675581
 10
-10.01531287095122
 20
58.10010174665103
 42
-0.4142135623730744
 10
-9.615312870951584
 20
58.5001017466509
 10
-6.92703069357276
 20
58.5001017466509
 10
-6.92703069357276
 20
58.90010174665076
 10
-9.615346786501959
 20
58.90010174665076
 42
0.4142135623730883
 10
-10.41534678650168
 20
58.1001017466508
 10
-10.41534678650168
 20
57.82796337120567
 42
0.4142135623730717
 10
-9.615346786501959
 20
57.02796337120571
 10
-7.423079531965413
 20
57.02796337120571
 42
-0.4142135623730847
 10
-7.023079531965322
 20
56.62796337120562
 10
-7.023079531965322
 20
55.90786840766487
 42
-0.4142135623730744
 10
-7.423079531965413
 20
55.507868407665
 10
-10.41534678650168
 20
55.507868407665
 10
-10.41534678650168
 20
55.12380871629648
 10
-7.445787917283723
 20
55.12380871629648
 42
0.4114777732064574
 10
-6.645822882998345
 20
55.9163291493976
 10
-6.639238813324936
 20
56.62051771985716
 42
0.4169546541682913
 10
-7.439203847610315
 20
57.42799728675596
 10
-9.615312870951584
 20
57.42799728675596
 42
-0.4142135623731576
  0
LWPOLYLINE
  5
BE4
102
{ACAD_REACTORS
330
BEC
102
}
330
B9E
100
AcDbEntity
  8
9
100
AcDbPolyline
 90
       12
 70
     1
 43
0.0
 10
-14.41561811090378
 20
58.90010174665076
 10
-14.79964388672215
 20
58.90010174665076
 10
-14.79964388672215
 20
55.92380871629643
 42
0.4142135623731133
 10
-13.99964388672242
 20
55.12380871629648
 10
-11.8233508563676
 20
55.12380871629648
 42
0.4142135623730872
 10
-11.02335085636741
 20
55.92380871629643
 10
-11.02335085636741
 20
58.90010174665076
 10
-11.42338477191788
 20
58.90010174665076
 10
-11.42338477191788
 20
55.91567577726095
 42
-0.4131711701795318
 10
-11.82196067063523
 20
55.51567831234956
 10
-14.0141940096214
 20
55.50787335710947
 42
-0.4152567234624407
 10
-14.41561811090378
 20
55.90787082202087
  0
LWPOLYLINE
  5
BE5
102
{ACAD_REACTORS
330
BEC
102
}
330
B9E
100
AcDbEntity
  8
9
100
AcDbPolyline
 90
        6
 70
     1
 43
0.0
 10
-15.80771578768872
 20
55.507868407665
 10
-18.39994912667453
 20
55.507868407665
 42
-0.4142135623731731
 10
-18.79994912667462
 20
55.90786840766487
 10
-18.79994912667462
 20
58.10010174665103
 42
-0.4142135623730744
 10
-18.39994912667453
 20
58.5001017466509
 10
-15.80771578768872
 20
58.5001017466509
  0
LWPOLYLINE
  5
BE6
102
{ACAD_REACTORS
330
BEC
102
}
330
B9E
100
AcDbEntity
  8
9
100
AcDbPolyline
 90
        8
 70
     1
 43
0.0
 10
-15.4236900118708
 20
59.87619128370352
 10
-15.80771578768872
 20
59.87619128370352
 10
-15.80771578768872
 20
58.90010174665076
 10
-18.39176256411201
 20
58.90010174665076
 42
0.4131164467977967
 10
-19.19175694739761
 20
58.1030995310698
 10
-19.1999120763262
 20
55.92680650071542
 42
0.4153115297271718
 10
-18.39991769304061
 20
55.12380871629648
 10
-15.4236900118708
 20
55.12380871629648
  0
LWPOLYLINE
  5
BE7
102
{ACAD_REACTORS
330
BEC
102
}
330
B9E
100
AcDbEntity
  8
9
100
AcDbPolyline
 90
       10
 70
     1
 43
0.0
 10
-20.59201288790928
 20
58.90010174665076
 10
-23.56830591826338
 20
58.90010174665076
 10
-23.56830591826338
 20
55.12380871629648
 10
-23.18424622689509
 20
55.12380871629648
 10
-23.18424622689509
 20
58.5001017466509
 10
-20.59204680345965
 20
58.5001017466509
 42
-0.4142135623730898
 10
-20.19204680345956
 20
58.1001017466508
 10
-20.19204680345956
 20
55.12380871629648
 10
-19.79201288790909
 20
55.12380871629648
 10
-19.79201288790909
 20
58.10010174665103
 42
0.4142135623731132
  0
LWPOLYLINE
  5
BE8
102
{ACAD_REACTORS
330
BEC
102
}
330
B9E
100
AcDbEntity
  8
9
100
AcDbPolyline
 90
        4
 70
     1
 43
0.0
 10
-24.19231812786165
 20
58.90010174665076
 10
-24.57637781922995
 20
58.90010174665076
 10
-24.57637781922995
 20
55.12380871629648
 10
-24.19231812786165
 20
55.12380871629648
  0
LWPOLYLINE
  5
BE9
102
{ACAD_REACTORS
330
BEC
102
}
330
B9E
100
AcDbEntity
  8
9
100
AcDbPolyline
 90
       10
 70
     1
 43
0.0
 10
-28.57661522808212
 20
58.5001017466509
 10
-25.98444972019706
 20
58.5001017466509
 42
-0.4142135623731731
 10
-25.58444972019652
 20
58.1001017466508
 10
-25.58444972019652
 20
55.12380871629648
 10
-25.2004239443786
 20
55.12380871629648
 10
-25.2004239443786
 20
58.10010174665103
 42
0.4142135623730717
 10
-26.00042394437833
 20
58.90010174665076
 10
-28.97664914363259
 20
58.90010174665076
 10
-28.97664914363259
 20
55.12380871629648
 10
-28.57661522808212
 20
55.12380871629648
  0
LWPOLYLINE
  5
BEA
102
{ACAD_REACTORS
330
BEC
102
}
330
B9E
100
AcDbEntity
  8
9
100
AcDbPolyline
 90
       12
 70
     1
 43
0.0
 10
-29.58465321349832
 20
58.10010174665103
 42
0.4142135623730716
 10
-30.3846532134985
 20
58.90010174665076
 10
-33.07296930642724
 20
58.90010174665076
 10
-33.07296930642724
 20
58.5001017466509
 10
-30.38468712904842
 20
58.5001017466509
 42
-0.4142135623730067
 10
-29.98468712904878
 20
58.1001017466508
 10
-29.98468712904878
 20
57.42799728675618
 10
-32.56098015940324
 20
57.42799728675596
 42
0.4142135623731289
 10
-33.36098015940343
 20
56.627997286756
 10
-33.36098015940343
 20
55.92380871629643
 42
0.4142135623731132
 10
-32.56098015940324
 20
55.12380871629648
 10
-29.58465321349832
 20
55.12380871629648
  0
LWPOLYLINE
  5
BEB
102
{ACAD_REACTORS
330
BEC
102
}
330
B9E
100
AcDbEntity
  8
9
100
AcDbPolyline
 90
       20
 70
     1
 43
0.0
 10
-34.7850262845518
 20
57.42799728675596
 10
-36.96125148380543
 20
57.42799728675596
 42
-0.4142135623730898
 10
-37.36125148380552
 20
57.82799728675604
 10
-37.36125148380552
 20
58.10010174665103
 42
-0.4142135623730744
 10
-36.96125148380543
 20
58.5001017466509
 10
-34.27303713752781
 20
58.50010174665067
 10
-34.27303713752781
 20
58.90010174665076
 10
-36.96128539935535
 20
58.90010174665076
 42
0.4142135623731289
 10
-37.76128539935553
 20
58.1001017466508
 10
-37.76128539935553
 20
57.82796337120567
 42
0.4142135623730716
 10
-36.9612853993558
 20
57.02796337120571
 10
-34.76901814481926
 20
57.02796337120571
 42
-0.414213562373168
 10
-34.36901814481962
 20
56.62796337120562
 10
-34.36901814481962
 20
55.90786840766487
 42
-0.4142135623730744
 10
-34.76901814481926
 20
55.507868407665
 10
-37.76128539935553
 20
55.507868407665
 10
-37.76128539935553
 20
55.12380871629648
 10
-34.7850262845518
 20
55.12380871629648
 42
0.4142135623731289
 10
-33.98502628455162
 20
55.92380871629643
 10
-33.98502628455162
 20
56.627997286756
 42
0.4142135623731132
  0
HATCH
  5
BEC
330
B9E
100
AcDbEntity
  8
9
100
AcDbHatch
 10
0.0
 20
0.0
 30
0.0
210
0.0
220
0.0
230
1.0
  2
SOLID
 70
     1
 71
     1
 91
       13
 92
        7
 72
     1
 73
     1
 93
       20
 10
-34.36901814481962
 20
55.90786840766487
 42
-0.414213562372991
 10
-34.76901814481926
 20
55.507868407665
 42
0.0
 10
-37.76128539935553
 20
55.507868407665
 42
0.0
 10
-37.76128539935553
 20
55.12380871629648
 42
0.0
 10
-34.7850262845518
 20
55.12380871629648
 42
0.4142135623731705
 10
-33.98502628455162
 20
55.92380871629666
 42
0.0
 10
-33.98502628455162
 20
56.627997286756
 42
0.4142135623731547
 10
-34.7850262845518
 20
57.42799728675596
 42
0.0
 10
-36.96125148380543
 20
57.42799728675596
 42
-0.4142135623730898
 10
-37.36125148380552
 20
57.82799728675604
 42
0.0
 10
-37.36125148380552
 20
58.1001017466508
 42
-0.4142135623731575
 10
-36.96125148380543
 20
58.5001017466509
 42
0.0
 10
-34.27303713752781
 20
58.50010174665067
 42
0.0
 10
-34.27303713752781
 20
58.90010174665076
 42
0.0
 10
-36.96128539935535
 20
58.90010174665076
 42
0.4142135623731705
 10
-37.76128539935553
 20
58.10010174665058
 42
0.0
 10
-37.76128539935553
 20
57.82796337120544
 42
0.4142135623730299
 10
-36.9612853993558
 20
57.02796337120571
 42
0.0
 10
-34.76901814481926
 20
57.02796337120571
 42
-0.4142135623730015
 10
-34.36901814481962
 20
56.62796337120608
 42
0.0
 97
        1
330
BEB
 92
        7
 72
     1
 73
     1
 93
       12
 10
-33.36098015940343
 20
55.92380871629666
 42
0.4142135623731547
 10
-32.56098015940324
 20
55.12380871629648
 42
0.0
 10
-29.58465321349877
 20
55.12380871629648
 42
0.0
 10
-29.58465321349832
 20
58.10010174665058
 42
0.4142135623731964
 10
-30.3846532134985
 20
58.90010174665076
 42
0.0
 10
-33.07296930642724
 20
58.90010174665076
 42
0.0
 10
-33.07296930642724
 20
58.50010174665067
 42
0.0
 10
-30.38468712904887
 20
58.5001017466509
 42
-0.4142135623732564
 10
-29.98468712904878
 20
58.10010174665103
 42
0.0
 10
-29.98468712904923
 20
57.42799728675596
 42
0.0
 10
-32.56098015940324
 20
57.42799728675596
 42
0.4142135623731705
 10
-33.36098015940343
 20
56.627997286756
 42
0.0
 97
        1
330
BEA
 92
       22
 72
     1
 73
     1
 93
        6
 10
-32.97692046803468
 20
56.62796337120562
 42
-0.4142135623731576
 10
-32.57692046803459
 20
57.02796337120571
 42
0.0
 10
-29.98468712904878
 20
57.02796337120571
 42
0.0
 10
-29.98468712904878
 20
55.507868407665
 42
0.0
 10
-32.57692046803459
 20
55.507868407665
 42
-0.4142135623731731
 10
-32.97692046803468
 20
55.90786840766487
 42
0.0
 97
        1
330
C11
 92
        7
 72
     1
 73
     1
 93
       10
 10
-28.57661522808212
 20
58.5001017466509
 42
0.0
 10
-25.98444972019661
 20
58.5001017466509
 42
-0.4142135623730067
 10
-25.58444972019652
 20
58.10010174665058
 42
0.0
 10
-25.58444972019606
 20
55.12380871629648
 42
0.0
 10
-25.20042394437906
 20
55.12380871629648
 42
0.0
 10
-25.2004239443786
 20
58.1001017466508
 42
0.4142135623731134
 10
-26.00042394437833
 20
58.90010174665076
 42
0.0
 10
-28.97664914363259
 20
58.90010174665076
 42
0.0
 10
-28.97664914363259
 20
55.12380871629648
 42
0.0
 10
-28.57661522808212
 20
55.12380871629648
 42
0.0
 97
        1
330
BE9
 92
        7
 72
     0
 73
     1
 93
        4
 10
-24.57637781922995
 20
55.12380871629648
 10
-24.19231812786165
 20
55.12380871629648
 10
-24.19231812786165
 20
58.90010174665076
 10
-24.57637781922995
 20
58.90010174665076
 97
        1
330
BE8
 92
        7
 72
     0
 73
     1
 93
        4
 10
-24.19231812786165
 20
59.87619128370352
 10
-24.5763778192304
 20
59.87619128370352
 10
-24.5763778192304
 20
59.28412752246913
 10
-24.1923181278612
 20
59.28412752246913
 97
        1
330
C12
 92
        7
 72
     1
 73
     1
 93
       10
 10
-23.18424622689509
 20
58.5001017466509
 42
0.0
 10
-20.59204680345965
 20
58.5001017466509
 42
-0.4142135623730898
 10
-20.19204680345956
 20
58.1001017466508
 42
0.0
 10
-20.19204680345956
 20
55.12380871629648
 42
0.0
 10
-19.79201288790909
 20
55.12380871629648
 42
0.0
 10
-19.79201288790909
 20
58.1001017466508
 42
0.4142135623731547
 10
-20.59201288790928
 20
58.90010174665076
 42
0.0
 10
-23.56830591826338
 20
58.90010174665076
 42
0.0
 10
-23.56830591826338
 20
55.12380871629648
 42
0.0
 10
-23.18424622689463
 20
55.12380871629648
 42
0.0
 97
        1
330
BE7
 92
        7
 72
     1
 73
     1
 93
        8
 10
-19.1999120763262
 20
55.92680650071542
 42
0.4153115297271299
 10
-18.39991769304061
 20
55.12380871629648
 42
0.0
 10
-15.4236900118708
 20
55.12380871629648
 42
0.0
 10
-15.4236900118708
 20
59.87619128370352
 42
0.0
 10
-15.80771578768872
 20
59.87619128370352
 42
0.0
 10
-15.80771578768872
 20
58.90010174665076
 42
0.0
 10
-18.39176256411201
 20
58.90010174665076
 42
0.4131164467977965
 10
-19.19175694739761
 20
58.1030995310698
 42
0.0
 97
        1
330
BE6
 92
       22
 72
     1
 73
     1
 93
        6
 10
-18.79994912667462
 20
58.1001017466508
 42
-0.4142135623731575
 10
-18.39994912667453
 20
58.5001017466509
 42
0.0
 10
-15.80771578768872
 20
58.50010174665067
 42
0.0
 10
-15.80771578768827
 20
55.507868407665
 42
0.0
 10
-18.39994912667453
 20
55.507868407665
 42
-0.4142135623731731
 10
-18.79994912667462
 20
55.90786840766487
 42
0.0
 97
        1
330
BE5
 92
        7
 72
     1
 73
     1
 93
       12
 10
-14.79964388672215
 20
55.92380871629621
 42
0.4142135623729885
 10
-13.99964388672242
 20
55.12380871629648
 42
0.0
 10
-11.8233508563676
 20
55.12380871629648
 42
0.4142135623731289
 10
-11.02335085636741
 20
55.92380871629666
 42
0.0
 10
-11.02335085636741
 20
58.90010174665076
 42
0.0
 10
-11.42338477191788
 20
58.90010174665076
 42
0.0
 10
-11.42338477191788
 20
55.91567577726095
 42
-0.4131711701795319
 10
-11.82196067063523
 20
55.51567831234956
 42
0.0
 10
-14.01419400962095
 20
55.50787335710947
 42
-0.4152567234626918
 10
-14.41561811090378
 20
55.90787082202087
 42
0.0
 10
-14.41561811090378
 20
58.90010174665076
 42
0.0
 10
-14.7996438867226
 20
58.90010174665076
 42
0.0
 97
        1
330
BE4
 92
        7
 72
     1
 73
     1
 93
       20
 10
-7.423079531965413
 20
57.02796337120571
 42
-0.414213562373168
 10
-7.023079531965322
 20
56.62796337120562
 42
0.0
 10
-7.023079531965322
 20
55.90786840766487
 42
-0.4142135623731575
 10
-7.423079531965413
 20
55.507868407665
 42
0.0
 10
-10.41534678650168
 20
55.507868407665
 42
0.0
 10
-10.41534678650168
 20
55.12380871629648
 42
0.0
 10
-7.445787917283723
 20
55.12380871629648
 42
0.4114777732065809
 10
-6.645822882998345
 20
55.91632914939783
 42
0.0
 10
-6.639238813324936
 20
56.62051771985716
 42
0.4169546541682913
 10
-7.439203847610315
 20
57.42799728675596
 42
0.0
 10
-9.615312870951584
 20
57.42799728675596
 42
-0.4142135623729911
 10
-10.01531287095122
 20
57.82799728675581
 42
0.0
 10
-10.01531287095122
 20
58.10010174665103
 42
-0.414213562372991
 10
-9.615312870951584
 20
58.5001017466509
 42
0.0
 10
-6.92703069357276
 20
58.50010174665067
 42
0.0
 10
-6.927030693572305
 20
58.90010174665076
 42
0.0
 10
-9.615346786501959
 20
58.90010174665076
 42
0.4142135623730467
 10
-10.41534678650168
 20
58.10010174665103
 42
0.0
 10
-10.41534678650168
 20
57.82796337120544
 42
0.4142135623730301
 10
-9.615346786501959
 20
57.02796337120571
 42
0.0
 97
        1
330
BE3
 92
        7
 72
     1
 73
     1
 93
       12
 10
-5.21497371544865
 20
57.42799728675596
 42
0.4142135623730871
 10
-6.014973715448377
 20
56.627997286756
 42
0.0
 10
-6.014973715448377
 20
55.92380871629621
 42
0.4142135623730715
 10
-5.21497371544865
 20
55.12380871629648
 42
0.0
 10
-2.23871460064447
 20
55.12380871629648
 42
0.0
 10
-2.23871460064447
 20
58.10010174665058
 42
0.414213562373155
 10
-3.038714600644652
 20
58.90010174665076
 42
0.0
 10
-5.726962862471737
 20
58.90010174665076
 42
0.0
 10
-5.726962862472191
 20
58.5001017466509
 42
0.0
 10
-3.038748516194573
 20
58.5001017466509
 42
-0.4142135623730067
 10
-2.638748516194482
 20
58.10010174665058
 42
0.0
 10
-2.638748516194482
 20
57.42799728675596
 42
0.0
 97
        1
330
BE2
 92
       22
 72
     1
 73
     1
 93
        6
 10
-2.638748516194937
 20
57.02796337120571
 42
0.0
 10
-2.638748516194482
 20
55.50786840766477
 42
0.0
 10
-5.21497371544865
 20
55.507868407665
 42
-0.4142135623731731
 10
-5.614973715448741
 20
55.90786840766509
 42
0.0
 10
-5.614973715448741
 20
56.62796337120562
 42
-0.4142135623731576
 10
-5.21497371544865
 20
57.02796337120571
 42
0.0
 97
        1
330
C0D
 75
     0
 76
     1
 47
0.0407044778999864
 98
       13
 10
-34.18710075113677
 20
56.16907953933765
 10
-33.12851374392494
 20
56.49471602641233
 10
-33.12851374392494
 20
56.49471602641233
 10
-28.77202873835904
 20
57.51232930166111
 10
-24.41554807250941
 20
57.91937341678636
 10
-24.41554807250941
 20
59.384734621186
 10
-23.31624584658039
 20
58.3264175319116
 10
-19.04119127844888
 20
57.75655517324913
 10
-19.04119127844888
 20
57.75655517324913
 10
-14.64399105416578
 20
57.43091868617466
 10
-8.048195057457178
 20
57.22739662861204
 10
-4.017427461911665
 20
57.18669281458665
 10
-4.017427461911665
 20
57.18669281458665
  0
TEXT
  5
BED
330
B9E
100
AcDbEntity
  8
leg fin
100
AcDbText
 10
3.391127401597259
 20
2.107634911895729
 30
0.0
 40
1.5
  1
Este desenho é propriedade da Sanindusa, S.A., e não pode ser copiado nem divulgado sem nossa autorização.
 50
90.0
 41
0.8
  7
SANINDUSA
100
AcDbText
  0
LINE
  5
BEE
330
B9E
100
AcDbEntity
  8
3
100
AcDbLine
 10
-90.0
 20
4.0
 30
0.0
 11
-90.0
 21
12.0
 31
0.0
  0
TEXT
  5
BEF
330
B9E
100
AcDbEntity
  8
1
100
AcDbText
 10
-39.0
 20
9.25
 30
0.0
 40
2.0
  1
Substituido por:
 41
0.8
  7
SANINDUSA
 11
-39.0
 21
10.25
 31
0.0
100
AcDbText
 73
     2
  0
POINT
  5
BF0
330
B9E
100
AcDbEntity
  8
SANINDUSA
100
AcDbPoint
 10
0.0
 20
0.0
 30
0.0
  0
TEXT
  5
BF1
330
B9E
100
AcDbEntity
  8
1
100
AcDbText
 10
-89.0
 20
16.74927010445663
 30
0.0
 40
2.0
  1
Normas:
 41
0.8
  7
SANINDUSA
 11
-89.0
 21
17.74927010445663
 31
0.0
100
AcDbText
 73
     2
  0
LINE
  5
BF2
330
B9E
100
AcDbEntity
  8
3
100
AcDbLine
 10
-90.0
 20
12.0
 30
0.0
 11
-90.0
 21
20.0
 31
0.0
  0
LINE
  5
BF3
330
B9E
100
AcDbEntity
  8
3
100
AcDbLine
 10
-110.546019464768
 20
12.0
 30
0.0
 11
-110.546019464768
 21
20.0
 31
0.0
  0
TEXT
  5
BF4
330
B9E
100
AcDbEntity
  8
1
100
AcDbText
 10
-109.6177520618648
 20
17.25
 30
0.0
 40
2.0
  1
Cor:
 41
0.8
  7
SANINDUSA
 11
-109.6177520618648
 21
18.25
 31
0.0
100
AcDbText
 73
     2
  0
LINE
  5
BF5
330
B9E
100
AcDbEntity
  8
leg fin
100
AcDbLine
 10
-91.42857142857156
 20
20.0
 30
0.0
 11
-91.42857142857156
 21
28.5
 31
0.0
  0
LINE
  5
BF6
330
B9E
100
AcDbEntity
  8
leg fin
100
AcDbLine
 10
-104.2857142857142
 20
20.0
 30
0.0
 11
-104.2857142857142
 21
28.5
 31
0.0
  0
LINE
  5
BF7
330
B9E
100
AcDbEntity
  8
leg fin
100
AcDbLine
 10
-117.1428571428573
 20
20.0
 30
0.0
 11
-117.1428571428573
 21
28.5
 31
0.0
  0
POINT
  5
BF8
330
B9E
100
AcDbEntity
  8
SANINDUSA
100
AcDbPoint
 10
-117.1428571428573
 20
28.5
 30
0.0
  0
POINT
  5
BF9
330
B9E
100
AcDbEntity
  8
SANINDUSA
100
AcDbPoint
 10
-104.2857142857142
 20
28.5
 30
0.0
  0
POINT
  5
BFA
330
B9E
100
AcDbEntity
  8
SANINDUSA
100
AcDbPoint
 10
-91.42857142857156
 20
28.5
 30
0.0
  0
TEXT
  5
BFB
330
B9E
100
AcDbEntity
  8
1
100
AcDbText
 10
-116.200160604496
 20
26.43288406845113
 30
0.0
 40
1.5
  1
Nº Seq.:
 41
0.8
  7
SANINDUSA
 11
-116.200160604496
 21
27.18288406845113
 31
0.0
100
AcDbText
 73
     2
  0
TEXT
  5
BFC
330
B9E
100
AcDbEntity
  8
1
100
AcDbText
 10
-103.2106584078738
 20
26.43288406845113
 30
0.0
 40
1.5
  1
Tipo:
 41
0.8
  7
SANINDUSA
 11
-103.2106584078738
 21
27.18288406845113
 31
0.0
100
AcDbText
 73
     2
  0
TEXT
  5
BFD
330
B9E
100
AcDbEntity
  8
1
100
AcDbText
 10
-90.22114672289353
 20
26.43288406845113
 30
0.0
 40
1.5
  1
Prod.:
 41
0.8
  7
SANINDUSA
 11
-90.22114672289353
 21
27.18288406845113
 31
0.0
100
AcDbText
 73
     2
  0
TEXT
  5
BFE
330
B9E
100
AcDbEntity
  8
1
100
AcDbText
 10
-64.77320576346574
 20
26.43288406845113
 30
0.0
 40
1.5
  1
Rev.:
 41
0.8
  7
SANINDUSA
 11
-64.77320576346574
 21
27.18288406845113
 31
0.0
100
AcDbText
 73
     2
  0
LINE
  5
BFF
330
B9E
100
AcDbEntity
  8
leg fin
100
AcDbLine
 10
-52.85714285714266
 20
20.0
 30
0.0
 11
-52.85714285714266
 21
28.5
 31
0.0
  0
LINE
  5
C00
330
B9E
100
AcDbEntity
  8
leg fin
100
AcDbLine
 10
-65.71428571428578
 20
20.0
 30
0.0
 11
-65.71428571428578
 21
28.5
 31
0.0
  0
LINE
  5
C01
330
B9E
100
AcDbEntity
  8
leg fin
100
AcDbLine
 10
-78.57142857142844
 20
20.0
 30
0.0
 11
-78.57142857142844
 21
28.5
 31
0.0
  0
POINT
  5
C02
330
B9E
100
AcDbEntity
  8
SANINDUSA
100
AcDbPoint
 10
-78.57142857142844
 20
28.5
 30
0.0
  0
POINT
  5
C03
330
B9E
100
AcDbEntity
  8
SANINDUSA
100
AcDbPoint
 10
-65.71428571428578
 20
28.5
 30
0.0
  0
POINT
  5
C04
330
B9E
100
AcDbEntity
  8
SANINDUSA
100
AcDbPoint
 10
-52.85714285714266
 20
28.5
 30
0.0
  0
TEXT
  5
C05
330
B9E
100
AcDbEntity
  8
1
100
AcDbText
 10
-77.61097961686573
 20
26.43288406845113
 30
0.0
 40
1.5
  1
Peça:
 41
0.8
  7
SANINDUSA
 11
-77.61097961686573
 21
27.18288406845113
 31
0.0
100
AcDbText
 73
     2
  0
TEXT
  5
C06
330
B9E
100
AcDbEntity
  8
1
100
AcDbText
 10
-52.06538060077036
 20
26.43288406845113
 30
0.0
 40
1.5
  1
Alt.:
 41
0.8
  7
SANINDUSA
 11
-52.06538060077036
 21
27.18288406845113
 31
0.0
100
AcDbText
 73
     2
  0
LINE
  5
C07
330
B9E
100
AcDbEntity
  8
3
100
AcDbLine
 10
0.0
 20
12.0
 30
0.0
 11
-40.0
 21
12.0
 31
0.0
  0
LINE
  5
C08
330
B9E
100
AcDbEntity
  8
3
100
AcDbLine
 10
-40.0
 20
32.5
 30
0.0
 11
0.0
 21
32.5
 31
0.0
  0
TEXT
  5
C09
330
B9E
100
AcDbEntity
  8
1
100
AcDbText
 10
-19.0
 20
29.75
 30
0.0
 40
2.0
  1
Folha:
 41
0.8
  7
SANINDUSA
 11
-19.0
 21
30.75
 31
0.0
100
AcDbText
 73
     2
  0
LINE
  5
C0A
330
B9E
100
AcDbEntity
  8
3
100
AcDbLine
 10
-20.0
 20
32.5
 30
0.0
 11
-20.0
 21
20.0
 31
0.0
  0
TEXT
  5
C0B
330
B9E
100
AcDbEntity
  8
1
100
AcDbText
 10
-39.0
 20
29.75
 30
0.0
 40
2.0
  1
Escala:
 41
0.8
  7
SANINDUSA
 11
-39.0
 21
30.75
 31
0.0
100
AcDbText
 73
     2
  0
TEXT
  5
C0C
330
B9E
100
AcDbEntity
  8
1
100
AcDbText
 10
-39.0
 20
17.25
 30
0.0
 40
2.0
  1
Substitui:
 41
0.8
  7
SANINDUSA
 11
-39.0
 21
18.25
 31
0.0
100
AcDbText
 73
     2
  0
LWPOLYLINE
  5
C0D
102
{ACAD_REACTORS
330
BEC
102
}
330
B9E
100
AcDbEntity
  8
9
100
AcDbPolyline
 90
        6
 70
     1
 43
0.0
 10
-2.638748516194482
 20
57.02796337120571
 10
-2.638748516194482
 20
55.50786840766477
 10
-5.21497371544865
 20
55.507868407665
 42
-0.4142135623730898
 10
-5.614973715448741
 20
55.90786840766487
 10
-5.614973715448741
 20
56.62796337120562
 42
-0.4142135623731576
 10
-5.21497371544865
 20
57.02796337120571
  0
LINE
  5
C0E
330
B9E
100
AcDbEntity
  8
3
100
AcDbLine
 10
-40.0
 20
50.0
 30
0.0
 11
0.0
 21
50.0
 31
0.0
  0
ATTDEF
  5
C0F
330
B9E
100
AcDbEntity
  8
1
100
AcDbText
 10
-31.30691739422431
 20
40.25
 30
0.0
 40
2.0
  1
XXXXXXXXXXXXXXX
 41
0.8
  7
SANINDUSA
 72
     4
 11
-20.0
 21
41.25
 31
0.0
100
AcDbAttributeDefinition
  3
Observações:
  2
OBS
 70
     0
  0
TEXT
  5
C10
330
B9E
100
AcDbEntity
  8
1
100
AcDbText
 10
-39.0
 20
47.25
 30
0.0
 40
2.0
  1
Observações:
 41
0.8
  7
SANINDUSA
 11
-39.0
 21
48.25
 31
0.0
100
AcDbText
 73
     2
  0
LWPOLYLINE
  5
C11
102
{ACAD_REACTORS
330
BEC
102
}
330
B9E
100
AcDbEntity
  8
9
100
AcDbPolyline
 90
        6
 70
     1
 43
0.0
 10
-29.98468712904878
 20
57.02796337120571
 10
-29.98468712904878
 20
55.507868407665
 10
-32.57692046803459
 20
55.507868407665
 42
-0.4142135623731731
 10
-32.97692046803468
 20
55.90786840766487
 10
-32.97692046803468
 20
56.62796337120562
 42
-0.4142135623731576
 10
-32.57692046803459
 20
57.02796337120571
  0
LWPOLYLINE
  5
C12
102
{ACAD_REACTORS
330
BEC
102
}
330
B9E
100
AcDbEntity
  8
9
100
AcDbPolyline
 90
        4
 70
     1
 43
0.0
 10
-24.19231812786165
 20
59.87619128370352
 10
-24.57637781922995
 20
59.87619128370352
 10
-24.57637781922995
 20
59.28412752246913
 10
-24.19231812786165
 20
59.28412752246913
  0
ENDBLK
  5
C14
330
B9E
100
AcDbEntity
  8
0
100
AcDbBlockEnd
  0
BLOCK
  5
1061
330
1060
100
AcDbEntity
  8
0
 62
     4
100
AcDbBlockBegin
  2
guarnizione
 70
     0
 10
0.0
 20
0.0
 30
0.0
  3
guarnizione
  1

  0
LINE
  5
1062
330
1060
100
AcDbEntity
  8
0
100
AcDbLine
 10
12.0
 20
3.179312414488776
 30
0.0
 11
12.0
 21
2.699999999999818
 31
0.0
  0
LINE
  5
1063
330
1060
100
AcDbEntity
  8
0
100
AcDbLine
 10
9.5
 20
3.130475008156281
 30
0.0
 11
9.440776269158959
 21
2.734883615801663
 31
0.0
  0
ARC
  5
1064
330
1060
100
AcDbEntity
  8
0
100
AcDbCircle
 10
11.19999999999891
 20
3.179312414488776
 30
0.0
 40
0.8
100
AcDbArc
 50
0.0
 51
81.48552156587461
  0
ARC
  5
1065
330
1060
100
AcDbEntity
  8
0
100
AcDbCircle
 10
8.753809903480942
 20
1.523241254200002
 30
0.0
 40
0.1999999999999504
100
AcDbArc
 50
171.485521565823
 51
351.485521565823
  0
LINE
  5
1066
330
1060
100
AcDbEntity
  8
0
100
AcDbLine
 10
11.65558220186904
 20
-2.403306455734309
 30
0.0
 11
9.440776269158959
 21
-2.734883615802573
 31
0.0
  0
ARC
  5
1067
330
1060
100
AcDbEntity
  8
0
100
AcDbCircle
 10
8.753809903480942
 20
-1.523241254200911
 30
0.0
 40
0.1999999999999504
100
AcDbArc
 50
8.514478434176927
 51
188.5144784341769
  0
LINE
  5
1068
330
1060
100
AcDbEntity
  8
0
100
AcDbLine
 10
9.5
 20
-3.130475008157191
 30
0.0
 11
9.440776269158959
 21
-2.734883615802573
 31
0.0
  0
ARC
  5
1069
330
1060
100
AcDbEntity
  8
0
100
AcDbCircle
 10
11.69999999999891
 20
-2.699999999999818
 30
0.0
 40
0.3
100
AcDbArc
 50
0.0
 51
98.51447843412536
  0
ARC
  5
106A
330
1060
100
AcDbEntity
  8
0
100
AcDbCircle
 10
11.69999999999891
 20
2.699999999999818
 30
0.0
 40
0.3
100
AcDbArc
 50
261.4855215658746
 51
0.0
  0
LINE
  5
106B
330
1060
100
AcDbEntity
  8
0
100
AcDbLine
 10
11.65558220186904
 20
2.4033064557334
 30
0.0
 11
9.440776269158959
 21
2.734883615801663
 31
0.0
  0
LINE
  5
106C
330
1060
100
AcDbEntity
  8
0
100
AcDbLine
 10
8.807715063378054
 20
3.234116537129011
 30
0.0
 11
8.556014207302723
 21
1.552853119620522
 31
0.0
  0
LINE
  5
106D
330
1060
100
AcDbEntity
  8
0
100
AcDbLine
 10
9.203306455732672
 20
3.174892806287971
 30
0.0
 11
8.951605599657341
 21
1.493629388779481
 31
0.0
  0
LINE
  5
106E
330
1060
100
AcDbEntity
  8
0
100
AcDbLine
 10
6.681411329471302
 20
3.552444090400967
 30
0.0
 11
6.622187598630262
 21
3.15685269804544
 31
0.0
  0
ARC
  5
106F
330
1060
100
AcDbEntity
  8
0
100
AcDbCircle
 10
0.2999999999992724
 20
3.800000000000181
 30
0.0
 40
0.3
100
AcDbArc
 50
81.48552156587461
 51
180.0
  0
ARC
  5
1070
330
1060
100
AcDbEntity
  8
0
100
AcDbCircle
 10
1.042400829128382
 20
4.699999999999818
 30
0.0
 40
0.8
100
AcDbArc
 50
81.48552156587461
 51
90.0
  0
LINE
  5
1071
330
1060
100
AcDbEntity
  8
0
100
AcDbLine
 10
1.5
 20
3.923692082123125
 30
0.0
 11
0.3444177981309622
 21
4.09669354426569
 31
0.0
  0
LINE
  5
1072
330
1060
100
AcDbEntity
  8
0
100
AcDbLine
 10
1.5
 20
3.923692082123125
 30
0.0
 11
1.5
 21
3.099999999999454
 31
0.0
  0
LINE
  5
1073
330
1060
100
AcDbEntity
  8
0
100
AcDbLine
 10
1.5
 20
3.099999999999454
 30
0.0
 11
2.699999999998908
 21
3.099999999999454
 31
0.0
  0
LINE
  5
1074
330
1060
100
AcDbEntity
  8
0
100
AcDbLine
 10
2.699999999998908
 20
3.744040860223321
 30
0.0
 11
2.699999999998908
 21
3.099999999999454
 31
0.0
  0
LINE
  5
1075
330
1060
100
AcDbEntity
  8
0
100
AcDbLine
 10
6.622187598630262
 20
3.15685269804544
 30
0.0
 11
2.699999999998908
 21
3.744040860223321
 31
0.0
  0
LINE
  5
1076
330
1060
100
AcDbEntity
  8
0
100
AcDbLine
 10
1.5
 20
-3.100000000000363
 30
0.0
 11
2.699999999998908
 21
-3.100000000000363
 31
0.0
  0
LINE
  5
1077
330
1060
100
AcDbEntity
  8
0
100
AcDbLine
 10
11.31844746168099
 20
3.970495199198012
 30
0.0
 11
1.160848290810463
 21
5.491182784709053
 31
0.0
  0
LINE
  5
1078
330
1060
100
AcDbEntity
  8
0
100
AcDbLine
 10
9.5
 20
3.130475008156281
 30
0.0
 11
6.681411329471302
 21
3.552444090400967
 31
0.0
  0
ARC
  5
1079
330
1060
100
AcDbEntity
  8
0
100
AcDbCircle
 10
11.19999999999891
 20
-3.179312414488776
 30
0.0
 40
0.8
100
AcDbArc
 50
278.5144784341254
 51
0.0
  0
LINE
  5
107A
330
1060
100
AcDbEntity
  8
0
100
AcDbLine
 10
6.681411329471302
 20
-3.552444090400967
 30
0.0
 11
6.622187598630262
 21
-3.15685269804635
 31
0.0
  0
ARC
  5
107B
330
1060
100
AcDbEntity
  8
0
100
AcDbCircle
 10
0.2999999999992724
 20
-3.800000000000181
 30
0.0
 40
0.3
100
AcDbArc
 50
180.0
 51
278.5144784341254
  0
ARC
  5
107C
330
1060
100
AcDbEntity
  8
0
100
AcDbCircle
 10
1.042400829128382
 20
-4.699999999999818
 30
0.0
 40
0.8
100
AcDbArc
 50
270.0
 51
278.5144784341254
  0
LINE
  5
107D
330
1060
100
AcDbEntity
  8
0
100
AcDbLine
 10
0.3444177981309622
 20
-4.096693544266599
 30
0.0
 11
1.5
 21
-3.923692082124034
 31
0.0
  0
LINE
  5
107E
330
1060
100
AcDbEntity
  8
0
100
AcDbLine
 10
6.622187598630262
 20
-3.15685269804635
 30
0.0
 11
2.699999999998908
 21
-3.744040860224231
 31
0.0
  0
LINE
  5
107F
330
1060
100
AcDbEntity
  8
0
100
AcDbLine
 10
1.160848290810463
 20
-5.491182784709963
 30
0.0
 11
11.31844746168099
 21
-3.970495199198921
 31
0.0
  0
LINE
  5
1080
330
1060
100
AcDbEntity
  8
0
100
AcDbLine
 10
0.0
 20
3.800000000000181
 30
0.0
 11
0.0
 21
-3.800000000000181
 31
0.0
  0
LINE
  5
1081
330
1060
100
AcDbEntity
  8
0
100
AcDbLine
 10
12.0
 20
-2.699999999999818
 30
0.0
 11
12.0
 21
-3.179312414488776
 31
0.0
  0
LINE
  5
1082
330
1060
100
AcDbEntity
  8
0
100
AcDbLine
 10
2.699999999998908
 20
-3.100000000000363
 30
0.0
 11
2.699999999998908
 21
-3.744040860224231
 31
0.0
  0
LINE
  5
1083
330
1060
100
AcDbEntity
  8
0
100
AcDbLine
 10
1.5
 20
-3.100000000000363
 30
0.0
 11
1.5
 21
-3.923692082124034
 31
0.0
  0
LINE
  5
1084
330
1060
100
AcDbEntity
  8
0
100
AcDbLine
 10
9.5
 20
-3.130475008157191
 30
0.0
 11
6.681411329471302
 21
-3.552444090400967
 31
0.0
  0
LINE
  5
1085
330
1060
100
AcDbEntity
  8
0
100
AcDbLine
 10
9.203306455732672
 20
-3.174892806287971
 30
0.0
 11
8.951605599657341
 21
-1.493629388780391
 31
0.0
  0
LINE
  5
1086
330
1060
100
AcDbEntity
  8
0
100
AcDbLine
 10
8.807715063378054
 20
-3.234116537129011
 30
0.0
 11
8.556014207302723
 21
-1.552853119621431
 31
0.0
  0
LINE
  5
1087
330
1060
100
AcDbEntity
  8
0
100
AcDbLine
 10
-1.5
 20
5.5
 30
0.0
 11
-3.757359312881817
 21
5.5
 31
0.0
  0
ARC
  5
1088
330
1060
100
AcDbEntity
  8
0
100
AcDbCircle
 10
-2.5
 20
3.5
 30
0.0
 40
1.0
100
AcDbArc
 50
0.0
 51
90.0
  0
ARC
  5
1089
330
1060
100
AcDbEntity
  8
0
100
AcDbCircle
 10
-3.769781102879278
 20
4.149978862833449
 30
0.0
 40
0.75
100
AcDbArc
 50
47.16775949949599
 51
90.19499109987526
  0
ARC
  5
108A
330
1060
100
AcDbEntity
  8
0
100
AcDbCircle
 10
-2.75
 20
5.25
 30
0.0
 40
0.75
100
AcDbArc
 50
227.167759499496
 51
270.0
  0
LINE
  5
108B
330
1060
100
AcDbEntity
  8
0
100
AcDbLine
 10
-2.75
 20
4.5
 30
0.0
 11
-2.5
 21
4.5
 31
0.0
  0
LINE
  5
108C
330
1060
100
AcDbEntity
  8
0
100
AcDbLine
 10
-7.415254325502246
 20
3.064644661409147
 30
0.0
 11
-6.868629150101696
 21
3.611269837220788
 31
0.0
  0
ARC
  5
108D
102
{ACAD_REACTORS
330
10A7
102
}
330
1060
100
AcDbEntity
  8
0
100
AcDbCircle
 10
-7.980939750059405
 20
2.569669913566031
 30
0.0
 40
0.2
100
AcDbArc
 50
45.0000001037625
 51
135.0000000719631
  0
ARC
  5
108E
330
1060
100
AcDbEntity
  8
0
100
AcDbCircle
 10
-3.757359312881817
 20
0.5
 30
0.0
 40
5.0
100
AcDbArc
 50
90.0
 51
135.0
  0
ARC
  5
108F
330
1060
100
AcDbEntity
  8
0
100
AcDbCircle
 10
-3.757359312881817
 20
0.5
 30
0.0
 40
4.4
100
AcDbArc
 50
90.19499109987526
 51
135.0
  0
ARC
  5
1090
330
1060
100
AcDbEntity
  8
0
100
AcDbCircle
 10
-6.814213563102384
 20
0.9786796633270569
 30
0.0
 40
0.75
100
AcDbArc
 50
314.9999999676111
 51
45.0
  0
ARC
  5
1091
102
{ACAD_REACTORS
330
10A7
102
}
330
1060
100
AcDbEntity
  8
0
100
AcDbCircle
 10
-6.814213563102384
 20
0.9786796633270569
 30
0.0
 40
0.5
100
AcDbArc
 50
314.9999999676111
 51
45.0
  0
ARC
  5
1092
330
1060
100
AcDbEntity
  8
0
100
AcDbCircle
 10
-7.203122291144609
 20
2.852512627053329
 30
0.0
 40
0.3
100
AcDbArc
 50
135.0
 51
225.0000001112794
  0
LINE
  5
1093
330
1060
100
AcDbEntity
  8
0
100
AcDbLine
 10
-8.051650430128574
 20
3.276776694619002
 30
0.0
 11
-6.283883477519339
 21
1.509009749524921
 31
0.0
  0
LINE
  5
1094
102
{ACAD_REACTORS
330
10A7
102
}
330
1060
100
AcDbEntity
  8
0
100
AcDbLine
 10
-7.839518394079277
 20
2.711091270059114
 30
0.0
 11
-6.460660172508141
 21
1.33223305392039
 31
0.0
  0
ARC
  5
1095
330
1060
100
AcDbEntity
  8
0
100
AcDbCircle
 10
-12.57713383280133
 20
-2.521498914058611
 30
0.0
 40
0.3
100
AcDbArc
 50
45.00000003552097
 51
135.0
  0
ARC
  5
1096
102
{ACAD_REACTORS
330
10A7
102
}
330
1060
100
AcDbEntity
  8
0
100
AcDbCircle
 10
-12.29429112059733
 20
-1.743681468243266
 30
0.0
 40
0.2
100
AcDbArc
 50
135.0000000660675
 51
225.0000002990173
  0
LINE
  5
1097
330
1060
100
AcDbEntity
  8
0
100
AcDbLine
 10
-12.9899494936617
 20
-2.510050506339212
 30
0.0
 11
-12.78926586715715
 21
-2.309366879702793
 31
0.0
  0
LINE
  5
1098
330
1060
100
AcDbEntity
  8
0
100
AcDbLine
 10
-13.41421356237333
 20
-2.085786437626666
 30
0.0
 11
-7.292893218815152
 21
4.035533905932425
 31
0.0
  0
LINE
  5
1099
102
{ACAD_REACTORS
330
10A7
102
}
330
1060
100
AcDbEntity
  8
0
100
AcDbLine
 10
-12.43571247699765
 20
-1.602260112168551
 30
0.0
 11
-8.122361106474272
 21
2.711091269625285
 31
0.0
  0
ARC
  5
109A
330
1060
100
AcDbEntity
  8
0
100
AcDbCircle
 10
-2.5
 20
-3.5
 30
0.0
 40
1.0
100
AcDbArc
 50
270.0
 51
0.0
  0
ARC
  5
109B
330
1060
100
AcDbEntity
  8
0
100
AcDbCircle
 10
-7.519803902720013
 20
-4.150000000000545
 30
0.0
 40
0.75
100
AcDbArc
 50
270.0
 51
312.8334280660476
  0
ARC
  5
109C
330
1060
100
AcDbEntity
  8
0
100
AcDbCircle
 10
-6.5
 20
-5.25
 30
0.0
 40
0.75
100
AcDbArc
 50
90.0
 51
132.8334280660476
  0
LINE
  5
109D
330
1060
100
AcDbEntity
  8
0
100
AcDbLine
 10
-2.5
 20
-4.5
 30
0.0
 11
-6.5
 21
-4.5
 31
0.0
  0
ARC
  5
109E
330
1060
100
AcDbEntity
  8
0
100
AcDbCircle
 10
-10.7033008647486
 20
-2.910407640086305
 30
0.0
 40
0.75
100
AcDbArc
 50
225.0
 51
315.0
  0
ARC
  5
109F
102
{ACAD_REACTORS
330
10A7
102
}
330
1060
100
AcDbEntity
  8
0
100
AcDbCircle
 10
-10.7033008647486
 20
-2.910407640086305
 30
0.0
 40
0.5
100
AcDbArc
 50
225.0
 51
315.0
  0
LINE
  5
10A0
330
1060
100
AcDbEntity
  8
0
100
AcDbLine
 10
-1.5
 20
-5.5
 30
0.0
 11
-12.0
 21
-5.5
 31
0.0
  0
LINE
  5
10A1
330
1060
100
AcDbEntity
  8
0
100
AcDbLine
 10
-7.519803902720013
 20
-4.900000000000545
 30
0.0
 11
-12.0
 21
-4.900000000000545
 31
0.0
  0
ARC
  5
10A2
330
1060
100
AcDbEntity
  8
0
100
AcDbCircle
 10
-12.0
 20
-3.5
 30
0.0
 40
2.0
100
AcDbArc
 50
135.0
 51
270.0
  0
LINE
  5
10A3
330
1060
100
AcDbEntity
  8
0
100
AcDbLine
 10
-10.17297077881812
 20
-3.440737725935832
 30
0.0
 11
-6.283883477372
 21
0.4483495772774404
 31
0.0
  0
ARC
  5
10A4
330
1060
100
AcDbEntity
  8
0
100
AcDbCircle
 10
-12.0
 20
-3.5
 30
0.0
 40
1.399999999999999
100
AcDbArc
 50
135.0
 51
270.0
  0
LINE
  5
10A5
330
1060
100
AcDbEntity
  8
0
100
AcDbLine
 10
-13.00139790187859
 20
-1.672970777132832
 30
0.0
 11
-11.23363095093009
 21
-3.440737725682993
 31
0.0
  0
LINE
  5
10A6
330
1060
100
AcDbEntity
  8
0
100
AcDbLine
 10
-1.5
 20
3.5
 30
0.0
 11
-1.5
 21
-3.5
 31
0.0
  0
HATCH
  5
10A7
330
1060
100
AcDbEntity
  8
0
100
AcDbHatch
 10
0.0
 20
0.0
 30
0.0
210
0.0
220
0.0
230
1.0
  2
ANSI31
 70
     0
 71
     1
 91
        1
 92
        7
 72
     1
 73
     1
 93
        8
 10
-6.460660173204814
 20
1.332233054616153
 42
0.0
 10
-7.839518394101105
 20
2.711091270081851
 42
0.414213562178905
 10
-8.122361106481548
 20
2.711091269618009
 42
0.0
 10
-12.43571247701766
 20
-1.602260112190379
 42
0.4142135636146872
 10
-12.43571247604996
 20
-1.885102825264766
 42
0.0
 10
-11.05685425338015
 20
-3.263961032639599
 42
0.4142135608152901
 10
-10.34974747407432
 20
-3.263961030598693
 42
0.0
 10
-6.460660172428106
 20
0.625126272813759
 42
0.4142135628833784
 97
        8
330
1094
330
108D
330
1099
330
1096
330
10A9
330
109F
330
10A8
330
1091
 75
     0
 76
     1
 52
45.0
 41
0.25
 77
     0
 78
     1
 53
90.0
 43
-276.1145346408611
 44
-395.2719013892401
 45
-0.79375
 46
0.0000000000000002
 79
     0
 47
0.0364805528584695
 98
        1
 10
-7.399477738399582
 20
0.8532363732892918
  0
LINE
  5
10A8
102
{ACAD_REACTORS
330
10A7
102
}
330
1060
100
AcDbEntity
  8
0
100
AcDbLine
 10
-10.34974747415435
 20
-3.263961030678729
 30
0.0
 11
-6.46066017270823
 21
0.6251262725336347
 31
0.0
  0
LINE
  5
10A9
102
{ACAD_REACTORS
330
10A7
102
}
330
1060
100
AcDbEntity
  8
0
100
AcDbLine
 10
-12.43571247609543
 20
-1.885102825218382
 30
0.0
 11
-11.05685425534102
 21
-3.263961030678729
 31
0.0
  0
LINE
  5
10AA
330
1060
100
AcDbEntity
  8
0
100
AcDbLine
 10
-1.5
 20
5.5
 30
0.0
 11
1.042400829128382
 21
5.5
 31
0.0
  0
LINE
  5
10AB
330
1060
100
AcDbEntity
  8
0
100
AcDbLine
 10
-1.5
 20
-5.5
 30
0.0
 11
1.042400829128382
 21
-5.5
 31
0.0
  0
ENDBLK
  5
10AC
330
1060
100
AcDbEntity
  8
0
 62
     4
100
AcDbBlockEnd
  0
BLOCK
  5
2AFA
330
2AF0
100
AcDbEntity
  8
0
100
AcDbBlockBegin
  2
*D8
 70
     1
 10
0.0
 20
0.0
 30
0.0
  3
*D8
  1

  0
LINE
  5
2B3B
330
2AF0
100
AcDbEntity
  8
7
100
AcDbLine
 10
7662.748121753833
 20
1359.849969978509
 30
0.0
 11
7549.666480924973
 21
1359.849969978509
 31
0.0
  0
LINE
  5
2B3C
330
2AF0
100
AcDbEntity
  8
7
100
AcDbLine
 10
7577.367980206665
 20
1074.849969978509
 30
0.0
 11
7549.666480924973
 21
1074.849969978509
 31
0.0
  0
LINE
  5
2B3D
330
2AF0
100
AcDbEntity
  8
7
100
AcDbLine
 10
7559.666480924973
 20
1339.849969978509
 30
0.0
 11
7559.666480924973
 21
1094.849969978509
 31
0.0
  0
SOLID
  5
2B3E
330
2AF0
100
AcDbEntity
  8
7
100
AcDbTrace
 10
7556.33314759164
 20
1339.849969978509
 30
0.0
 11
7562.999814258306
 21
1339.849969978509
 31
0.0
 12
7559.666480924973
 22
1359.849969978509
 32
0.0
 13
7559.666480924973
 23
1359.849969978509
 33
0.0
  0
SOLID
  5
2B3F
330
2AF0
100
AcDbEntity
  8
7
100
AcDbTrace
 10
7556.33314759164
 20
1094.849969978509
 30
0.0
 11
7562.999814258306
 21
1094.849969978509
 31
0.0
 12
7559.666480924973
 22
1074.849969978509
 32
0.0
 13
7559.666480924973
 23
1074.849969978509
 33
0.0
  0
MTEXT
  5
2B40
330
2AF0
100
AcDbEntity
  8
7
100
AcDbMText
 10
7539.209798587835
 20
1217.349969978511
 30
0.0
 40
20.0
 41
0.0
 71
     5
 72
     1
  1
285
  7
SANINDUSA
 11
0.0000000000000001
 21
1.0
 31
0.0
 73
     1
 44
1.0
1001
ACAD
1000
MTEXTBEGIN
1070
    73
1070
     1
1070
    44
1040
1.0
1070
    74
1070
     0
1000
MTEXTEND
  0
POINT
  5
2B41
330
2AF0
100
AcDbEntity
  8
Defpoints
 62
     0
100
AcDbPoint
 10
7672.748121753834
 20
1359.849969978509
 30
-0.0000017937957191
  0
POINT
  5
2B42
330
2AF0
100
AcDbEntity
  8
Defpoints
 62
     0
100
AcDbPoint
 10
7587.367980206664
 20
1074.849969978509
 30
-0.0000017937957191
  0
POINT
  5
2B43
330
2AF0
100
AcDbEntity
  8
Defpoints
 62
     0
100
AcDbPoint
 10
7559.666480924973
 20
1074.849969978509
 30
0.0
  0
ENDBLK
  5
2AFB
330
2AF0
100
AcDbEntity
  8
0
100
AcDbBlockEnd
  0
BLOCK
  5
2B08
330
2AFC
100
AcDbEntity
  8
0
100
AcDbBlockBegin
  2
*D9
 70
     1
 10
0.0
 20
0.0
 30
0.0
  3
*D9
  1

  0
LINE
  5
2B44
330
2AFC
100
AcDbEntity
  8
7
100
AcDbLine
 10
7467.952012459386
 20
1074.849969978509
 30
0.0
 11
7619.666480924974
 21
1074.849969978509
 31
0.0
  0
LINE
  5
2B45
330
2AFC
100
AcDbEntity
  8
7
100
AcDbLine
 10
7440.163667530639
 20
1064.849969978509
 30
0.0
 11
7619.666480924974
 21
1064.849969978509
 31
0.0
  0
LINE
  5
2B46
330
2AFC
100
AcDbEntity
  8
7
100
AcDbLine
 10
7609.666480924975
 20
1094.849969978509
 30
0.0
 11
7609.666480924975
 21
1114.849969978509
 31
0.0
  0
LINE
  5
2B47
330
2AFC
100
AcDbEntity
  8
7
100
AcDbLine
 10
7609.666480924975
 20
1044.849969978509
 30
0.0
 11
7609.666480924975
 21
975.4208228999331
 31
0.0
  0
LINE
  5
2B48
330
2AFC
100
AcDbEntity
  8
7
100
AcDbLine
 10
7609.666480924975
 20
1074.849969978509
 30
0.0
 11
7609.666480924975
 21
1064.849969978509
 31
0.0
  0
SOLID
  5
2B49
330
2AFC
100
AcDbEntity
  8
7
100
AcDbTrace
 10
7606.333147591641
 20
1094.849969978509
 30
0.0
 11
7612.999814258308
 21
1094.849969978509
 31
0.0
 12
7609.666480924975
 22
1074.849969978509
 32
0.0
 13
7609.666480924975
 23
1074.849969978509
 33
0.0
  0
SOLID
  5
2B4A
330
2AFC
100
AcDbEntity
  8
7
100
AcDbTrace
 10
7606.333147591641
 20
1044.849969978509
 30
0.0
 11
7612.999814258308
 21
1044.849969978509
 31
0.0
 12
7609.666480924975
 22
1064.849969978509
 32
0.0
 13
7609.666480924975
 23
1064.849969978509
 33
0.0
  0
MTEXT
  5
2B4B
330
2AFC
100
AcDbEntity
  8
7
100
AcDbMText
 10
7589.256810004894
 20
1000.135396439222
 30
0.0
 40
20.0
 41
0.0
 71
     5
 72
     1
  1
10
  7
SANINDUSA
 11
0.0000000000000001
 21
1.0
 31
0.0
 73
     1
 44
1.0
1001
ACAD
1000
MTEXTBEGIN
1070
    73
1070
     1
1070
    44
1040
1.0
1070
    74
1070
     0
1000
MTEXTEND
  0
POINT
  5
2B4C
330
2AFC
100
AcDbEntity
  8
Defpoints
 62
     0
100
AcDbPoint
 10
7457.952012459386
 20
1074.849969978509
 30
-0.0000017937957191
  0
POINT
  5
2B4D
330
2AFC
100
AcDbEntity
  8
Defpoints
 62
     0
100
AcDbPoint
 10
7430.163667530639
 20
1064.849969978509
 30
0.0
  0
POINT
  5
2B4E
330
2AFC
100
AcDbEntity
  8
Defpoints
 62
     0
100
AcDbPoint
 10
7609.666480924975
 20
1064.849969978509
 30
0.0
  0
ENDBLK
  5
2B09
330
2AFC
100
AcDbEntity
  8
0
100
AcDbBlockEnd
  0
BLOCK
  5
2B14
330
2B0A
100
AcDbEntity
  8
0
100
AcDbBlockBegin
  2
*D10
 70
     1
 10
0.0
 20
0.0
 30
0.0
  3
*D10
  1

  0
LINE
  5
2B4F
330
2B0A
100
AcDbEntity
  8
7
100
AcDbLine
 10
7917.499060581362
 20
1359.849969978502
 30
0.0
 11
8575.067935996278
 21
1359.849969978502
 31
0.0
  0
LINE
  5
2B50
330
2B0A
100
AcDbEntity
  8
7
100
AcDbLine
 10
8525.067935996277
 20
1064.849969978509
 30
0.0
 11
8575.067935996278
 21
1064.849969978509
 31
0.0
  0
LINE
  5
2B51
330
2B0A
100
AcDbEntity
  8
7
100
AcDbLine
 10
8565.067935996278
 20
1339.849969978502
 30
0.0
 11
8565.067935996278
 21
1084.849969978509
 31
0.0
  0
SOLID
  5
2B52
330
2B0A
100
AcDbEntity
  8
7
100
AcDbTrace
 10
8561.734602662943
 20
1339.849969978502
 30
0.0
 11
8568.401269329612
 21
1339.849969978502
 31
0.0
 12
8565.067935996278
 22
1359.849969978502
 32
0.0
 13
8565.067935996278
 23
1359.849969978502
 33
0.0
  0
SOLID
  5
2B53
330
2B0A
100
AcDbEntity
  8
7
100
AcDbTrace
 10
8561.734602662943
 20
1084.849969978509
 30
0.0
 11
8568.401269329612
 21
1084.849969978509
 31
0.0
 12
8565.067935996278
 22
1064.849969978509
 32
0.0
 13
8565.067935996278
 23
1064.849969978509
 33
0.0
  0
MTEXT
  5
2B54
330
2B0A
100
AcDbEntity
  8
7
100
AcDbMText
 10
8544.651549159475
 20
1212.349969978507
 30
0.0
 40
20.0
 41
0.0
 71
     5
 72
     1
  1
295
  7
SANINDUSA
 11
0.0000000000000001
 21
1.0
 31
0.0
 73
     1
 44
1.0
1001
ACAD
1000
MTEXTBEGIN
1070
    73
1070
     1
1070
    44
1040
1.0
1070
    74
1070
     0
1000
MTEXTEND
  0
POINT
  5
2B55
330
2B0A
100
AcDbEntity
  8
Defpoints
 62
     0
100
AcDbPoint
 10
7907.499060581362
 20
1359.849969978502
 30
-0.0000017937957191
  0
POINT
  5
2B56
330
2B0A
100
AcDbEntity
  8
Defpoints
 62
     0
100
AcDbPoint
 10
8515.067935996277
 20
1064.849969978509
 30
0.0
  0
POINT
  5
2B57
330
2B0A
100
AcDbEntity
  8
Defpoints
 62
     0
100
AcDbPoint
 10
8565.067935996278
 20
1064.849969978509
 30
0.0
  0
ENDBLK
  5
2B15
330
2B0A
100
AcDbEntity
  8
0
100
AcDbBlockEnd
  0
BLOCK
  5
2B20
330
2B16
100
AcDbEntity
  8
0
100
AcDbBlockBegin
  2
*D11
 70
     1
 10
0.0
 20
0.0
 30
0.0
  3
*D11
  1

  0
LINE
  5
2B58
330
2B16
100
AcDbEntity
  8
7
100
AcDbLine
 10
8525.067935996281
 20
2914.849969978508
 30
0.0
 11
8575.06793599628
 21
2914.849969978508
 31
0.0
  0
LINE
  5
2B59
330
2B16
100
AcDbEntity
  8
7
100
AcDbLine
 10
7946.672623061165
 20
2619.849969968839
 30
0.0
 11
8575.06793599628
 21
2619.849969968839
 31
0.0
  0
LINE
  5
2B5A
330
2B16
100
AcDbEntity
  8
7
100
AcDbLine
 10
8565.06793599628
 20
2894.849969978509
 30
0.0
 11
8565.06793599628
 21
2639.849969968839
 31
0.0
  0
SOLID
  5
2B5B
330
2B16
100
AcDbEntity
  8
7
100
AcDbTrace
 10
8561.734602662946
 20
2894.849969978509
 30
0.0
 11
8568.401269329614
 21
2894.849969978509
 31
0.0
 12
8565.06793599628
 22
2914.849969978508
 32
0.0
 13
8565.06793599628
 23
2914.849969978508
 33
0.0
  0
SOLID
  5
2B5C
330
2B16
100
AcDbEntity
  8
7
100
AcDbTrace
 10
8561.734602662946
 20
2639.849969968839
 30
0.0
 11
8568.401269329614
 21
2639.849969968839
 31
0.0
 12
8565.06793599628
 22
2619.849969968839
 32
0.0
 13
8565.06793599628
 23
2619.849969968839
 33
0.0
  0
MTEXT
  5
2B5D
330
2B16
100
AcDbEntity
  8
7
100
AcDbMText
 10
8544.651549159476
 20
2767.349969973676
 30
0.0
 40
20.0
 41
0.0
 71
     5
 72
     1
  1
295
  7
SANINDUSA
 11
0.0000000000000001
 21
1.0
 31
0.0
 73
     1
 44
1.0
1001
ACAD
1000
MTEXTBEGIN
1070
    73
1070
     1
1070
    44
1040
1.0
1070
    74
1070
     0
1000
MTEXTEND
  0
POINT
  5
2B5E
330
2B16
100
AcDbEntity
  8
Defpoints
 62
     0
100
AcDbPoint
 10
8515.067935996279
 20
2914.849969978508
 30
0.0000017938277934
  0
POINT
  5
2B5F
330
2B16
100
AcDbEntity
  8
Defpoints
 62
     0
100
AcDbPoint
 10
7936.672623061165
 20
2619.849969968839
 30
0.0000000000320743
  0
POINT
  5
2B60
330
2B16
100
AcDbEntity
  8
Defpoints
 62
     0
100
AcDbPoint
 10
8565.06793599628
 20
2619.849969968839
 30
0.0
  0
ENDBLK
  5
2B21
330
2B16
100
AcDbEntity
  8
0
100
AcDbBlockEnd
  0
BLOCK
  5
2B2C
330
2B22
100
AcDbEntity
  8
0
100
AcDbBlockBegin
  2
*D12
 70
     1
 10
0.0
 20
0.0
 30
0.0
  3
*D12
  1

  0
LINE
  5
2B61
330
2B22
100
AcDbEntity
  8
7
100
AcDbLine
 10
7115.07273599628
 20
2914.849969978463
 30
0.0
 11
7054.744283256481
 21
2914.849969978463
 31
0.0
  0
LINE
  5
2B62
330
2B22
100
AcDbEntity
  8
7
100
AcDbLine
 10
7108.602879729874
 20
1064.84996997851
 30
0.0
 11
7054.744283256479
 21
1064.84996997851
 31
0.0
  0
LINE
  5
2B63
330
2B22
100
AcDbEntity
  8
7
100
AcDbLine
 10
7064.74428325648
 20
2894.849969978463
 30
0.0
 11
7064.74428325648
 21
1084.84996997851
 31
0.0
  0
SOLID
  5
2B64
330
2B22
100
AcDbEntity
  8
7
100
AcDbTrace
 10
7061.410949923149
 20
2894.849969978463
 30
0.0
 11
7068.077616589814
 21
2894.849969978463
 31
0.0
 12
7064.74428325648
 22
2914.849969978463
 32
0.0
 13
7064.74428325648
 23
2914.849969978463
 33
0.0
  0
SOLID
  5
2B65
330
2B22
100
AcDbEntity
  8
7
100
AcDbTrace
 10
7061.410949923147
 20
1084.84996997851
 30
0.0
 11
7068.077616589814
 21
1084.84996997851
 31
0.0
 12
7064.74428325648
 22
1064.84996997851
 32
0.0
 13
7064.74428325648
 23
1064.84996997851
 33
0.0
  0
MTEXT
  5
2B66
330
2B22
100
AcDbEntity
  8
7
100
AcDbMText
 10
7044.287600919341
 20
1989.849969978487
 30
0.0
 40
20.0
 41
0.0
 71
     5
 72
     1
  1
1850
  7
SANINDUSA
 11
0.0000000000000001
 21
1.0
 31
0.0
 73
     1
 44
1.0
1001
ACAD
1000
MTEXTBEGIN
1070
    73
1070
     1
1070
    44
1040
1.0
1070
    74
1070
     0
1000
MTEXTEND
  0
POINT
  5
2B67
330
2B22
100
AcDbEntity
  8
Defpoints
 62
     0
100
AcDbPoint
 10
7125.072735996281
 20
2914.849969978463
 30
0.0
  0
POINT
  5
2B68
330
2B22
100
AcDbEntity
  8
Defpoints
 62
     0
100
AcDbPoint
 10
7118.602879729874
 20
1064.84996997851
 30
0.0
  0
POINT
  5
2B69
330
2B22
100
AcDbEntity
  8
Defpoints
 62
     0
100
AcDbPoint
 10
7064.74428325648
 20
1064.84996997851
 30
0.0
  0
ENDBLK
  5
2B2D
330
2B22
100
AcDbEntity
  8
0
100
AcDbBlockEnd
  0
BLOCK
  5
2B39
330
2B2E
100
AcDbEntity
  8
0
100
AcDbBlockBegin
  2
*D13
 70
     1
 10
0.0
 20
0.0
 30
0.0
  3
*D13
  1

  0
LINE
  5
2BD3
330
2B2E
100
AcDbEntity
  8
7
100
AcDbLine
 10
5570.896577563446
 20
2099.174779356133
 30
0.0
 11
5557.655844433099
 21
2099.174779356133
 31
0.0
  0
ARC
  5
2BD4
330
2B2E
100
AcDbEntity
  8
7
100
AcDbCircle
 10
6164.996521460274
 20
2099.174779356129
 30
0.0
 40
597.3406770271761
100
AcDbArc
 50
181.9184515070705
 51
268.0815484929293
  0
SOLID
  5
2BD5
330
2B2E
100
AcDbEntity
  8
7
100
AcDbTrace
 10
5564.657795539083
 20
2079.121779232954
 30
0.0
 11
5571.323527951681
 21
2079.233385003714
 31
0.0
 12
5567.655844433098
 22
2099.174779356132
 32
0.0
 13
5567.655844433098
 23
2099.174779356132
 33
0.0
  0
SOLID
  5
2BD6
330
2B2E
100
AcDbEntity
  8
7
100
AcDbTrace
 10
6145.055127107856
 20
1505.501785847537
 30
0.0
 11
6144.943521337096
 21
1498.836053434937
 31
0.0
 12
6164.996521460274
 22
1501.834102328953
 32
0.0
 13
6164.996521460274
 23
1501.834102328953
 33
0.0
  0
MTEXT
  5
2BD7
102
{ACAD_XDICTIONARY
360
2D45
102
}
330
2B2E
100
AcDbEntity
  8
7
100
AcDbMText
 10
5758.654561782108
 20
1692.832819677964
 30
0.0
 40
20.0
 41
0.0
 71
     5
 72
     1
  1
90,0\U+00B0
  7
SANINDUSA
 11
0.7071067811865463
 21
-0.7071067811865488
 31
0.0
 73
     1
 44
1.0
1001
ACAD
1000
MTEXTBEGIN
1070
    73
1070
     1
1070
    44
1040
1.0
1070
    74
1070
     0
1000
MTEXTEND
  0
POINT
  5
2BD8
330
2B2E
100
AcDbEntity
  8
Defpoints
 62
     0
100
AcDbPoint
 10
5647.684320440943
 20
1800.504440842542
 30
0.0
  0
POINT
  5
2BD9
330
2B2E
100
AcDbEntity
  8
Defpoints
 62
     0
100
AcDbPoint
 10
6180.896577563444
 20
2099.174779356129
 30
0.0000001479284879
  0
POINT
  5
2BDA
330
2B2E
100
AcDbEntity
  8
Defpoints
 62
     0
100
AcDbPoint
 10
6164.996521460274
 20
2086.274723252955
 30
0.0000001479284879
  0
POINT
  5
2BDB
330
2B2E
100
AcDbEntity
  8
Defpoints
 62
     0
100
AcDbPoint
 10
6164.996521460274
 20
1486.274723252955
 30
0.0000001479284879
  0
POINT
  5
2BDC
330
2B2E
100
AcDbEntity
  8
Defpoints
 62
     0
100
AcDbPoint
 10
5580.896577563446
 20
2099.174779356132
 30
0.0000001479284879
  0
ENDBLK
  5
2B3A
330
2B2E
100
AcDbEntity
  8
0
100
AcDbBlockEnd
  0
BLOCK
  5
2B74
330
2B6A
100
AcDbEntity
  8
0
100
AcDbBlockBegin
  2
*D14
 70
     1
 10
0.0
 20
0.0
 30
0.0
  3
*D14
  1

  0
LINE
  5
2C97
330
2B6A
100
AcDbEntity
  8
7
100
AcDbLine
 10
5544.341651394252
 20
2780.730074733694
 30
0.0
 11
5414.890231769179
 21
2780.730074733694
 31
0.0
  0
LINE
  5
2C98
330
2B6A
100
AcDbEntity
  8
7
100
AcDbLine
 10
5546.87340132335
 20
2080.748174733694
 30
0.0
 11
5414.890231769179
 21
2080.748174733694
 31
0.0
  0
LINE
  5
2C99
330
2B6A
100
AcDbEntity
  8
7
100
AcDbLine
 10
5424.890231769179
 20
2760.730074733694
 30
0.0
 11
5424.890231769179
 21
2100.748174733694
 31
0.0
  0
SOLID
  5
2C9A
330
2B6A
100
AcDbEntity
  8
7
100
AcDbTrace
 10
5421.556898435846
 20
2760.730074733694
 30
0.0
 11
5428.223565102513
 21
2760.730074733694
 31
0.0
 12
5424.890231769179
 22
2780.730074733694
 32
0.0
 13
5424.890231769179
 23
2780.730074733694
 33
0.0
  0
SOLID
  5
2C9B
330
2B6A
100
AcDbEntity
  8
7
100
AcDbTrace
 10
5421.556898435846
 20
2100.748174733694
 30
0.0
 11
5428.223565102513
 21
2100.748174733694
 31
0.0
 12
5424.890231769179
 22
2080.748174733694
 32
0.0
 13
5424.890231769179
 23
2080.748174733694
 33
0.0
  0
MTEXT
  5
2C9C
330
2B6A
100
AcDbEntity
  8
7
100
AcDbMText
 10
5404.480560849098
 20
2430.739124733694
 30
0.0
 40
20.0
 41
0.0
 71
     5
 72
     1
  1
700
  7
SANINDUSA
 11
0.0000000000000001
 21
1.0
 31
0.0
 73
     1
 44
1.0
1001
ACAD
1000
MTEXTBEGIN
1070
    73
1070
     1
1070
    44
1040
1.0
1070
    74
1070
     0
1000
MTEXTEND
  0
POINT
  5
2C9D
330
2B6A
100
AcDbEntity
  8
Defpoints
 62
     0
100
AcDbPoint
 10
5554.341651394253
 20
2780.730074733694
 30
-0.0000000076263427
  0
POINT
  5
2C9E
330
2B6A
100
AcDbEntity
  8
Defpoints
 62
     0
100
AcDbPoint
 10
5556.87340132335
 20
2080.748174733694
 30
0.0
  0
POINT
  5
2C9F
330
2B6A
100
AcDbEntity
  8
Defpoints
 62
     0
100
AcDbPoint
 10
5424.890231769179
 20
2080.748174733694
 30
0.0
  0
ENDBLK
  5
2B75
330
2B6A
100
AcDbEntity
  8
0
100
AcDbBlockEnd
  0
BLOCK
  5
2B80
330
2B76
100
AcDbEntity
  8
0
100
AcDbBlockBegin
  2
*D15
 70
     1
 10
0.0
 20
0.0
 30
0.0
  3
*D15
  1

  0
LINE
  5
2CA0
330
2B76
100
AcDbEntity
  8
7
100
AcDbLine
 10
5546.87340132335
 20
2780.730074733694
 30
0.0
 11
5546.87340132335
 21
2849.965129239197
 31
0.0
  0
LINE
  5
2CA1
330
2B76
100
AcDbEntity
  8
7
100
AcDbLine
 10
6946.868601323349
 20
2780.730074733694
 30
0.0
 11
6946.868601323349
 21
2849.965129239197
 31
0.0
  0
LINE
  5
2CA2
330
2B76
100
AcDbEntity
  8
7
100
AcDbLine
 10
5566.873401323349
 20
2839.965129239197
 30
0.0
 11
6926.868601323349
 21
2839.965129239197
 31
0.0
  0
SOLID
  5
2CA3
330
2B76
100
AcDbEntity
  8
7
100
AcDbTrace
 10
5566.873401323349
 20
2843.29846257253
 30
0.0
 11
5566.873401323349
 21
2836.631795905864
 31
0.0
 12
5546.87340132335
 22
2839.965129239197
 32
0.0
 13
5546.87340132335
 23
2839.965129239197
 33
0.0
  0
SOLID
  5
2CA4
330
2B76
100
AcDbEntity
  8
7
100
AcDbTrace
 10
6926.868601323349
 20
2843.29846257253
 30
0.0
 11
6926.868601323349
 21
2836.631795905864
 31
0.0
 12
6946.868601323349
 22
2839.965129239197
 32
0.0
 13
6946.868601323349
 23
2839.965129239197
 33
0.0
  0
MTEXT
  5
2CA5
330
2B76
100
AcDbEntity
  8
7
100
AcDbMText
 10
6246.871001323349
 20
2860.374800159278
 30
0.0
 40
20.0
 41
0.0
 71
     5
 72
     1
  1
1400
  7
SANINDUSA
 73
     1
 44
1.0
1001
ACAD
1000
MTEXTBEGIN
1070
    73
1070
     1
1070
    44
1040
1.0
1070
    74
1070
     0
1000
MTEXTEND
  0
POINT
  5
2CA6
330
2B76
100
AcDbEntity
  8
Defpoints
 62
     0
100
AcDbPoint
 10
5546.87340132335
 20
2770.730074733694
 30
0.0
  0
POINT
  5
2CA7
330
2B76
100
AcDbEntity
  8
Defpoints
 62
     0
100
AcDbPoint
 10
6946.868601323349
 20
2770.730074733694
 30
0.0
  0
POINT
  5
2CA8
330
2B76
100
AcDbEntity
  8
Defpoints
 62
     0
100
AcDbPoint
 10
6946.868601323349
 20
2839.965129239197
 30
0.0
  0
ENDBLK
  5
2B81
330
2B76
100
AcDbEntity
  8
0
100
AcDbBlockEnd
  0
BLOCK
  5
2B8C
330
2B82
100
AcDbEntity
  8
0
100
AcDbBlockBegin
  2
*D16
 70
     1
 10
0.0
 20
0.0
 30
0.0
  3
*D16
  1

  0
LINE
  5
2BB8
330
2B82
100
AcDbEntity
  8
7
100
AcDbLine
 10
5556.568146629215
 20
2113.503206480878
 30
0.0
 11
5484.588444015226
 21
2113.503206480878
 31
0.0
  0
LINE
  5
2BB9
330
2B82
100
AcDbEntity
  8
7
100
AcDbLine
 10
5556.56814662921
 20
2736.358050973786
 30
0.0
 11
5484.588444015226
 21
2736.358050973786
 31
0.0
  0
LINE
  5
2BBA
330
2B82
100
AcDbEntity
  8
7
100
AcDbLine
 10
5494.588444015226
 20
2133.503206480878
 30
0.0
 11
5494.588444015226
 21
2716.358050973786
 31
0.0
  0
SOLID
  5
2BBB
330
2B82
100
AcDbEntity
  8
7
100
AcDbTrace
 10
5491.255110681893
 20
2133.503206480878
 30
0.0
 11
5497.921777348558
 21
2133.503206480878
 31
0.0
 12
5494.588444015226
 22
2113.503206480878
 32
0.0
 13
5494.588444015226
 23
2113.503206480878
 33
0.0
  0
SOLID
  5
2BBC
330
2B82
100
AcDbEntity
  8
7
100
AcDbTrace
 10
5491.255110681893
 20
2716.358050973786
 30
0.0
 11
5497.921777348558
 21
2716.358050973786
 31
0.0
 12
5494.588444015226
 22
2736.358050973786
 32
0.0
 13
5494.588444015226
 23
2736.358050973786
 33
0.0
  0
MTEXT
  5
2BBD
330
2B82
100
AcDbEntity
  8
7
100
AcDbMText
 10
5471.895361409448
 20
2424.930628727333
 30
0.0
 40
20.0
 41
0.0
 71
     5
 72
     1
  1
622,9
  7
SANINDUSA
 11
0.0000000000000001
 21
1.0
 31
0.0
 73
     1
 44
1.0
1001
ACAD
1000
MTEXTBEGIN
1070
    73
1070
     1
1070
    44
1040
1.0
1070
    74
1070
     0
1000
MTEXTEND
  0
POINT
  5
2BBE
330
2B82
100
AcDbEntity
  8
Defpoints
 62
     0
100
AcDbPoint
 10
5566.568146629215
 20
2113.503206480878
 30
-0.0000000076263427
  0
POINT
  5
2BBF
330
2B82
100
AcDbEntity
  8
Defpoints
 62
     0
100
AcDbPoint
 10
5566.56814662921
 20
2736.358050973786
 30
-0.0000000076263427
  0
POINT
  5
2BC0
330
2B82
100
AcDbEntity
  8
Defpoints
 62
     0
100
AcDbPoint
 10
5494.588444015226
 20
2736.358050973786
 30
0.0
  0
ENDBLK
  5
2B8D
330
2B82
100
AcDbEntity
  8
0
100
AcDbBlockEnd
  0
BLOCK
  5
2B98
330
2B8E
100
AcDbEntity
  8
0
100
AcDbBlockBegin
  2
*D17
 70
     1
 10
0.0
 20
0.0
 30
0.0
  3
*D17
  1

  0
LINE
  5
2BC1
330
2B8E
100
AcDbEntity
  8
7
100
AcDbLine
 10
6901.896577563444
 20
2089.174775546533
 30
0.0
 11
6901.896577563444
 21
2020.748174733694
 31
0.0
  0
LINE
  5
2BC2
330
2B8E
100
AcDbEntity
  8
7
100
AcDbLine
 10
6183.896577563446
 20
2089.174775546532
 30
0.0
 11
6183.896577563446
 21
2020.748174733694
 31
0.0
  0
LINE
  5
2BC3
330
2B8E
100
AcDbEntity
  8
7
100
AcDbLine
 10
6881.896577563444
 20
2030.748174733695
 30
0.0
 11
6203.896577563446
 21
2030.748174733695
 31
0.0
  0
SOLID
  5
2BC4
330
2B8E
100
AcDbEntity
  8
7
100
AcDbTrace
 10
6881.896577563444
 20
2034.081508067028
 30
0.0
 11
6881.896577563444
 21
2027.414841400361
 31
0.0
 12
6901.896577563444
 22
2030.748174733695
 32
0.0
 13
6901.896577563444
 23
2030.748174733695
 33
0.0
  0
SOLID
  5
2BC5
330
2B8E
100
AcDbEntity
  8
7
100
AcDbTrace
 10
6203.896577563446
 20
2034.081508067028
 30
0.0
 11
6203.896577563446
 21
2027.414841400361
 31
0.0
 12
6183.896577563446
 22
2030.748174733695
 32
0.0
 13
6183.896577563446
 23
2030.748174733695
 33
0.0
  0
MTEXT
  5
2BC6
330
2B8E
100
AcDbEntity
  8
7
100
AcDbMText
 10
6542.896577563445
 20
2051.204857070834
 30
0.0
 40
20.0
 41
0.0
 71
     5
 72
     1
  1
718
  7
SANINDUSA
 73
     1
 44
1.0
1001
ACAD
1000
MTEXTBEGIN
1070
    73
1070
     1
1070
    44
1040
1.0
1070
    74
1070
     0
1000
MTEXTEND
  0
POINT
  5
2BC7
330
2B8E
100
AcDbEntity
  8
Defpoints
 62
     0
100
AcDbPoint
 10
6901.896577563444
 20
2099.174775546533
 30
0.0000001474809935
  0
POINT
  5
2BC8
330
2B8E
100
AcDbEntity
  8
Defpoints
 62
     0
100
AcDbPoint
 10
6183.896577563446
 20
2099.174775546532
 30
0.0000001479286265
  0
POINT
  5
2BC9
330
2B8E
100
AcDbEntity
  8
Defpoints
 62
     0
100
AcDbPoint
 10
6183.896577563446
 20
2030.748174733695
 30
0.0
  0
ENDBLK
  5
2B99
330
2B8E
100
AcDbEntity
  8
0
100
AcDbBlockEnd
  0
BLOCK
  5
2BA4
330
2B9A
100
AcDbEntity
  8
0
100
AcDbBlockBegin
  2
*D18
 70
     1
 10
0.0
 20
0.0
 30
0.0
  3
*D18
  1

  0
LINE
  5
2BCA
330
2B9A
100
AcDbEntity
  8
7
100
AcDbLine
 10
6180.896577563444
 20
2089.174779356129
 30
0.0
 11
6180.896577563444
 21
2020.748174733695
 31
0.0
  0
LINE
  5
2BCB
330
2B9A
100
AcDbEntity
  8
7
100
AcDbLine
 10
5580.896577563446
 20
2089.174779356133
 30
0.0
 11
5580.896577563446
 21
2020.748174733695
 31
0.0
  0
LINE
  5
2BCC
330
2B9A
100
AcDbEntity
  8
7
100
AcDbLine
 10
6160.896577563445
 20
2030.748174733695
 30
0.0
 11
5600.896577563446
 21
2030.748174733695
 31
0.0
  0
SOLID
  5
2BCD
330
2B9A
100
AcDbEntity
  8
7
100
AcDbTrace
 10
6160.896577563445
 20
2034.081508067028
 30
0.0
 11
6160.896577563445
 21
2027.414841400362
 31
0.0
 12
6180.896577563444
 22
2030.748174733695
 32
0.0
 13
6180.896577563444
 23
2030.748174733695
 33
0.0
  0
SOLID
  5
2BCE
330
2B9A
100
AcDbEntity
  8
7
100
AcDbTrace
 10
5600.896577563446
 20
2034.081508067028
 30
0.0
 11
5600.896577563446
 21
2027.414841400362
 31
0.0
 12
5580.896577563446
 22
2030.748174733695
 32
0.0
 13
5580.896577563446
 23
2030.748174733695
 33
0.0
  0
MTEXT
  5
2BCF
330
2B9A
100
AcDbEntity
  8
7
100
AcDbMText
 10
5880.896577563445
 20
2051.157845653776
 30
0.0
 40
20.0
 41
0.0
 71
     5
 72
     1
  1
600
  7
SANINDUSA
 73
     1
 44
1.0
1001
ACAD
1000
MTEXTBEGIN
1070
    73
1070
     1
1070
    44
1040
1.0
1070
    74
1070
     0
1000
MTEXTEND
  0
POINT
  5
2BD0
330
2B9A
100
AcDbEntity
  8
Defpoints
 62
     0
100
AcDbPoint
 10
6180.896577563444
 20
2099.174779356129
 30
0.0000001479284879
  0
POINT
  5
2BD1
330
2B9A
100
AcDbEntity
  8
Defpoints
 62
     0
100
AcDbPoint
 10
5580.896577563446
 20
2099.174779356133
 30
0.0000001479284879
  0
POINT
  5
2BD2
330
2B9A
100
AcDbEntity
  8
Defpoints
 62
     0
100
AcDbPoint
 10
5580.896577563446
 20
2030.748174733695
 30
0.0
  0
ENDBLK
  5
2BA5
330
2B9A
100
AcDbEntity
  8
0
100
AcDbBlockEnd
  0
BLOCK
  5
2BF8
330
2BEE
100
AcDbEntity
  8
0
100
AcDbBlockBegin
  2
*D19
 70
     1
 10
0.0
 20
0.0
 30
0.0
  3
*D19
  1

  0
LINE
  5
2C05
330
2BEE
100
AcDbEntity
  8
7
100
AcDbLine
 10
6486.396577563446
 20
2780.730074733694
 30
0.0
 11
6551.472671394119
 21
2780.730074733694
 31
0.0
  0
LINE
  5
2C06
330
2BEE
100
AcDbEntity
  8
7
100
AcDbLine
 10
6493.896577563443
 20
2089.074775546537
 30
0.0
 11
6551.472671394119
 21
2089.074775546537
 31
0.0
  0
LINE
  5
2C07
330
2BEE
100
AcDbEntity
  8
7
100
AcDbLine
 10
6541.472671394117
 20
2760.730074733694
 30
0.0
 11
6541.472671394117
 21
2109.074775546537
 31
0.0
  0
SOLID
  5
2C08
330
2BEE
100
AcDbEntity
  8
7
100
AcDbTrace
 10
6538.139338060784
 20
2760.730074733694
 30
0.0
 11
6544.806004727451
 21
2760.730074733694
 31
0.0
 12
6541.472671394117
 22
2780.730074733694
 32
0.0
 13
6541.472671394117
 23
2780.730074733694
 33
0.0
  0
SOLID
  5
2C09
330
2BEE
100
AcDbEntity
  8
7
100
AcDbTrace
 10
6538.139338060784
 20
2109.074775546537
 30
0.0
 11
6544.806004727451
 21
2109.074775546537
 31
0.0
 12
6541.472671394117
 22
2089.074775546537
 32
0.0
 13
6541.472671394117
 23
2089.074775546537
 33
0.0
  0
MTEXT
  5
2C0A
330
2BEE
100
AcDbEntity
  8
7
100
AcDbMText
 10
6521.056284557314
 20
2434.902425140116
 30
0.0
 40
20.0
 41
0.0
 71
     5
 72
     1
  1
420 - 720
  7
SANINDUSA
 11
0.0000000000000001
 21
1.0
 31
0.0
 73
     1
 44
1.0
1001
ACAD
1000
MTEXTBEGIN
1070
    73
1070
     1
1070
    44
1040
1.0
1070
    74
1070
     0
1000
MTEXTEND
  0
POINT
  5
2C0B
330
2BEE
100
AcDbEntity
  8
Defpoints
 62
     0
100
AcDbPoint
 10
6476.396577563446
 20
2780.730074733694
 30
0.0
  0
POINT
  5
2C0C
330
2BEE
100
AcDbEntity
  8
Defpoints
 62
     0
100
AcDbPoint
 10
6483.896577563442
 20
2089.074775546537
 30
0.0000001479286265
  0
POINT
  5
2C0D
330
2BEE
100
AcDbEntity
  8
Defpoints
 62
     0
100
AcDbPoint
 10
6541.472671394117
 20
2089.074775546537
 30
0.0
  0
ENDBLK
  5
2BF9
330
2BEE
100
AcDbEntity
  8
0
100
AcDbBlockEnd
  0
BLOCK
  5
2C21
330
2C17
100
AcDbEntity
  8
0
100
AcDbBlockBegin
  2
*D20
 70
     1
 10
0.0
 20
0.0
 30
0.0
  3
*D20
  1

  0
LINE
  5
2C38
330
2C17
100
AcDbEntity
  8
7
100
AcDbLine
 10
7115.07273599628
 20
2924.849969978462
 30
0.0
 11
7115.07273599628
 21
2974.571088789699
 31
0.0
  0
LINE
  5
2C39
330
2C17
100
AcDbEntity
  8
7
100
AcDbLine
 10
8515.067935996279
 20
2924.849969978501
 30
0.0
 11
8515.067935996279
 21
2974.571088789699
 31
0.0
  0
LINE
  5
2C3A
330
2C17
100
AcDbEntity
  8
7
100
AcDbLine
 10
7135.07273599628
 20
2964.571088789698
 30
0.0
 11
8495.06793599628
 21
2964.571088789698
 31
0.0
  0
SOLID
  5
2C3B
330
2C17
100
AcDbEntity
  8
7
100
AcDbTrace
 10
7135.07273599628
 20
2967.904422123032
 30
0.0
 11
7135.07273599628
 21
2961.237755456365
 31
0.0
 12
7115.07273599628
 22
2964.571088789698
 32
0.0
 13
7115.07273599628
 23
2964.571088789698
 33
0.0
  0
SOLID
  5
2C3C
330
2C17
100
AcDbEntity
  8
7
100
AcDbTrace
 10
8495.06793599628
 20
2967.904422123032
 30
0.0
 11
8495.06793599628
 21
2961.237755456365
 31
0.0
 12
8515.067935996279
 22
2964.571088789698
 32
0.0
 13
8515.067935996279
 23
2964.571088789698
 33
0.0
  0
MTEXT
  5
2C3D
330
2C17
100
AcDbEntity
  8
7
100
AcDbMText
 10
7815.07033599628
 20
2985.027771126837
 30
0.0
 40
20.0
 41
0.0
 71
     5
 72
     1
  1
1380 - 1410
  7
SANINDUSA
 73
     1
 44
1.0
1001
ACAD
1000
MTEXTBEGIN
1070
    73
1070
     1
1070
    44
1040
1.0
1070
    74
1070
     0
1000
MTEXTEND
  0
POINT
  5
2C3E
330
2C17
100
AcDbEntity
  8
Defpoints
 62
     0
100
AcDbPoint
 10
7115.07273599628
 20
2914.849969978463
 30
0.0
  0
POINT
  5
2C3F
330
2C17
100
AcDbEntity
  8
Defpoints
 62
     0
100
AcDbPoint
 10
8515.067935996279
 20
2914.849969978501
 30
0.0
  0
POINT
  5
2C40
330
2C17
100
AcDbEntity
  8
Defpoints
 62
     0
100
AcDbPoint
 10
8515.067935996279
 20
2964.571088789698
 30
0.0
  0
ENDBLK
  5
2C22
330
2C17
100
AcDbEntity
  8
0
100
AcDbBlockEnd
  0
BLOCK
  5
2CB1
330
2CB0
100
AcDbEntity
  8
0
100
AcDbBlockBegin
  2
*D22
 70
     1
 10
0.0
 20
0.0
 30
0.0
  3
*D22
  1

  0
LINE
  5
2CBD
330
2CB0
100
AcDbEntity
  8
7
100
AcDbLine
 10
8525.067935996281
 20
2914.849969978513
 30
0.0
 11
8669.356343891692
 21
2914.849969978513
 31
0.0
  0
LINE
  5
2CBE
330
2CB0
100
AcDbEntity
  8
7
100
AcDbLine
 10
8525.067935996277
 20
1064.849969978502
 30
0.0
 11
8669.356343891692
 21
1064.849969978502
 31
0.0
  0
LINE
  5
2CBF
330
2CB0
100
AcDbEntity
  8
7
100
AcDbLine
 10
8659.356343891692
 20
2894.849969978513
 30
0.0
 11
8659.356343891692
 21
1084.849969978502
 31
0.0
  0
SOLID
  5
2CC0
330
2CB0
100
AcDbEntity
  8
7
100
AcDbTrace
 10
8656.023010558358
 20
2894.849969978513
 30
0.0
 11
8662.689677225026
 21
2894.849969978513
 31
0.0
 12
8659.356343891692
 22
2914.849969978513
 32
0.0
 13
8659.356343891692
 23
2914.849969978513
 33
0.0
  0
SOLID
  5
2CC1
330
2CB0
100
AcDbEntity
  8
7
100
AcDbTrace
 10
8656.023010558358
 20
1084.849969978502
 30
0.0
 11
8662.689677225026
 21
1084.849969978502
 31
0.0
 12
8659.356343891692
 22
1064.849969978502
 32
0.0
 13
8659.356343891692
 23
1064.849969978502
 33
0.0
  0
MTEXT
  5
2CC2
330
2CB0
100
AcDbEntity
  8
7
100
AcDbMText
 10
8638.899661554553
 20
1989.849969978509
 30
0.0
 40
20.0
 41
0.0
 71
     5
 72
     1
  1
1850
  7
SANINDUSA
 11
0.0000000000000001
 21
1.0
 31
0.0
 73
     1
 44
1.0
1001
ACAD
1000
MTEXTBEGIN
1070
    73
1070
     1
1070
    44
1040
1.0
1070
    74
1070
     0
1000
MTEXTEND
  0
POINT
  5
2CC3
330
2CB0
100
AcDbEntity
  8
Defpoints
 62
     0
100
AcDbPoint
 10
8515.067935996279
 20
2914.849969978513
 30
0.0
  0
POINT
  5
2CC4
330
2CB0
100
AcDbEntity
  8
Defpoints
 62
     0
100
AcDbPoint
 10
8515.067935996277
 20
1064.849969978502
 30
0.0
  0
POINT
  5
2CC5
330
2CB0
100
AcDbEntity
  8
Defpoints
 62
     0
100
AcDbPoint
 10
8659.356343891692
 20
1064.849969978502
 30
0.0
  0
ENDBLK
  5
2CB2
330
2CB0
100
AcDbEntity
  8
0
100
AcDbBlockEnd
  0
ENDSEC
  0
SECTION
  2
ENTITIES
  0
LINE
  5
2740
330
1F
100
AcDbEntity
  8
SANINDUSA
100
AcDbLine
 10
7478.97827359068
 20
2025.161978170959
 30
0.0
 11
7478.97827359068
 21
2025.185904666194
 31
0.0
  0
LINE
  5
2741
330
1F
100
AcDbEntity
  8
SANINDUSA
100
AcDbLine
 10
7478.97827359068
 20
2025.161978170959
 30
0.0
 11
7478.977274709767
 21
2025.161978170959
 31
0.0
  0
LINE
  5
2742
330
1F
100
AcDbEntity
  8
SANINDUSA
100
AcDbLine
 10
7478.977273590679
 20
2025.185904666194
 30
0.0
 11
7478.97827359068
 21
2025.185904666194
 31
0.0
  0
ARC
  5
2743
330
1F
100
AcDbEntity
  8
SANINDUSA
100
AcDbCircle
 10
7478.977274709767
 20
2025.162978170959
 30
0.0
 40
0.0009999999999999
100
AcDbArc
 50
180.5340991040368
 51
270.0
  0
ARC
  5
2744
330
1F
100
AcDbEntity
  8
SANINDUSA
100
AcDbCircle
 10
7478.977273590679
 20
2025.184904666194
 30
0.0
 40
0.0009999999999999
100
AcDbArc
 50
90.0
 51
180.0
  0
LINE
  5
2745
330
1F
100
AcDbEntity
  8
SANINDUSA
100
AcDbLine
 10
7478.976274753214
 20
2025.162968849306
 30
0.0
 11
7478.976267963554
 21
2025.163697192793
 31
0.0
  0
LINE
  5
2746
330
1F
100
AcDbEntity
  8
SANINDUSA
100
AcDbLine
 10
7478.976273590679
 20
2025.183918879756
 30
0.0
 11
7478.976273590679
 21
2025.184904666194
 31
0.0
  0
ARC
  5
2747
330
1F
100
AcDbEntity
  8
SANINDUSA
100
AcDbCircle
 10
7478.974918022207
 20
2025.163684608561
 30
0.0
 40
0.00135
100
AcDbArc
 50
0.5340991040368256
 51
45.08930406185324
  0
ARC
  5
2748
330
1F
100
AcDbEntity
  8
SANINDUSA
100
AcDbCircle
 10
7478.97492359068
 20
2025.183918879756
 30
0.0
 40
0.0013499999999998
100
AcDbArc
 50
315.0
 51
0.0
  0
LINE
  5
2749
330
1F
100
AcDbEntity
  8
SANINDUSA
100
AcDbLine
 10
7478.975871127326
 20
2025.164640689434
 30
0.0
 11
7478.974964688216
 21
2025.165544307297
 31
0.0
  0
LINE
  5
274A
330
1F
100
AcDbEntity
  8
SANINDUSA
100
AcDbLine
 10
7478.974963971272
 20
2025.182050072039
 30
0.0
 11
7478.975878184835
 21
2025.182964285602
 31
0.0
  0
ARC
  5
274B
330
1F
100
AcDbEntity
  8
SANINDUSA
100
AcDbCircle
 10
7478.97542359068
 20
2025.166004642532
 30
0.0
 40
0.0006500000000003
100
AcDbArc
 50
180.0
 51
225.0893040618533
  0
ARC
  5
274C
330
1F
100
AcDbEntity
  8
SANINDUSA
100
AcDbCircle
 10
7478.97542359068
 20
2025.181590452632
 30
0.0
 40
0.0006500000000003
100
AcDbArc
 50
135.0
 51
180.0
  0
LINE
  5
274D
330
1F
100
AcDbEntity
  8
SANINDUSA
100
AcDbLine
 10
7478.97477359068
 20
2025.166004642532
 30
0.0
 11
7478.97477359068
 21
2025.181590452632
 31
0.0
  0
ARC
  5
274E
330
1F
100
AcDbEntity
  8
SANINDUSA
100
AcDbCircle
 10
7478.97492359068
 20
2025.184904666194
 30
0.0
 40
0.0009999999999999
100
AcDbArc
 50
0.0
 51
90.0
  0
LINE
  5
274F
330
1F
100
AcDbEntity
  8
SANINDUSA
100
AcDbLine
 10
7478.97592359068
 20
2025.183918879756
 30
0.0
 11
7478.97592359068
 21
2025.184904666194
 31
0.0
  0
LINE
  5
2750
330
1F
100
AcDbEntity
  8
SANINDUSA
100
AcDbLine
 10
7478.97492359068
 20
2025.185904666194
 30
0.0
 11
7478.939900286547
 21
2025.185904666194
 31
0.0
  0
ARC
  5
2751
330
1F
100
AcDbEntity
  8
SANINDUSA
100
AcDbCircle
 10
7478.97492359068
 20
2025.183918879756
 30
0.0
 40
0.0010000000000003
100
AcDbArc
 50
315.0
 51
0.0
  0
ARC
  5
2752
330
1F
100
AcDbEntity
  8
SANINDUSA
100
AcDbCircle
 10
7478.939900286547
 20
2025.184904666194
 30
0.0
 40
0.001
100
AcDbArc
 50
90.0
 51
270.0
  0
LINE
  5
2753
330
1F
100
AcDbEntity
  8
SANINDUSA
100
AcDbLine
 10
7478.974716483898
 20
2025.182297559413
 30
0.0
 11
7478.975630697461
 21
2025.183211772975
 31
0.0
  0
LINE
  5
2754
330
1F
100
AcDbEntity
  8
SANINDUSA
100
AcDbLine
 10
7478.939900286547
 20
2025.183904666194
 30
0.0
 11
7478.97142359068
 21
2025.183904666194
 31
0.0
  0
ARC
  5
2755
330
1F
100
AcDbEntity
  8
SANINDUSA
100
AcDbCircle
 10
7478.97542359068
 20
2025.181590452632
 30
0.0
 40
0.0010000000000003
100
AcDbArc
 50
135.0
 51
180.0
  0
ARC
  5
2756
330
1F
100
AcDbEntity
  8
SANINDUSA
100
AcDbCircle
 10
7478.97142359068
 20
2025.182904666194
 30
0.0
 40
0.001
100
AcDbArc
 50
0.0
 51
90.0
  0
LINE
  5
2757
330
1F
100
AcDbEntity
  8
SANINDUSA
100
AcDbLine
 10
7478.974423590679
 20
2025.178215326365
 30
0.0
 11
7478.974423590679
 21
2025.181590452632
 31
0.0
  0
LINE
  5
2758
330
1F
100
AcDbEntity
  8
SANINDUSA
100
AcDbLine
 10
7478.97242359068
 20
2025.182904666194
 30
0.0
 11
7478.97242359068
 21
2025.165045479917
 31
0.0
  0
ARC
  5
2759
330
1F
100
AcDbEntity
  8
SANINDUSA
100
AcDbCircle
 10
7478.974173590678
 20
2025.178215326365
 30
0.0
 40
0.0002500000000003
100
AcDbArc
 50
315.0
 51
0.0
  0
ARC
  5
275A
330
1F
100
AcDbEntity
  8
SANINDUSA
100
AcDbCircle
 10
7478.97142359068
 20
2025.165045479917
 30
0.0
 40
0.001
100
AcDbArc
 50
267.8505420588376
 51
0.0
  0
LINE
  5
275B
330
1F
100
AcDbEntity
  8
SANINDUSA
100
AcDbLine
 10
7478.97387003729
 20
2025.177558219585
 30
0.0
 11
7478.974350367375
 21
2025.17803854967
 31
0.0
  0
ARC
  5
275C
330
1F
100
AcDbEntity
  8
SANINDUSA
100
AcDbCircle
 10
7478.975013699117
 20
2025.260698225839
 30
0.0
 40
0.0967200954923435
100
AcDbArc
 50
254.439830383021
 51
267.8505420588376
  0
ARC
  5
275D
330
1F
100
AcDbEntity
  8
SANINDUSA
100
AcDbCircle
 10
7478.97422359068
 20
2025.177204666194
 30
0.0
 40
0.0005
100
AcDbArc
 50
135.0
 51
225.0
  0
ARC
  5
275E
330
1F
100
AcDbEntity
  8
SANINDUSA
100
AcDbCircle
 10
7478.94920263992
 20
2025.168004666194
 30
0.0
 40
0.0005
100
AcDbArc
 50
90.0
 51
254.439830383021
  0
LINE
  5
275F
330
1F
100
AcDbEntity
  8
SANINDUSA
100
AcDbLine
 10
7478.974350367375
 20
2025.176370782717
 30
0.0
 11
7478.97387003729
 21
2025.176851112803
 31
0.0
  0
LINE
  5
2760
330
1F
100
AcDbEntity
  8
SANINDUSA
100
AcDbLine
 10
7478.94920263992
 20
2025.168504666194
 30
0.0
 11
7478.961900286548
 21
2025.168504666194
 31
0.0
  0
ARC
  5
2761
330
1F
100
AcDbEntity
  8
SANINDUSA
100
AcDbCircle
 10
7478.974173590678
 20
2025.176194006022
 30
0.0
 40
0.00025
100
AcDbArc
 50
0.0
 51
45.0
  0
ARC
  5
2762
330
1F
100
AcDbEntity
  8
SANINDUSA
100
AcDbCircle
 10
7478.961900286548
 20
2025.169504666194
 30
0.0
 40
0.001
100
AcDbArc
 50
270.0
 51
90.0
  0
LINE
  5
2763
330
1F
100
AcDbEntity
  8
SANINDUSA
100
AcDbLine
 10
7478.974423590679
 20
2025.166004642532
 30
0.0
 11
7478.974423590679
 21
2025.176194006022
 31
0.0
  0
LINE
  5
2764
330
1F
100
AcDbEntity
  8
SANINDUSA
100
AcDbLine
 10
7478.961900286548
 20
2025.170504666194
 30
0.0
 11
7478.939900286547
 21
2025.170504666194
 31
0.0
  0
ARC
  5
2765
330
1F
100
AcDbEntity
  8
SANINDUSA
100
AcDbCircle
 10
7478.97542359068
 20
2025.166004642532
 30
0.0
 40
0.0010000000000003
100
AcDbArc
 50
180.0
 51
225.0893040618533
  0
ARC
  5
2766
330
1F
100
AcDbEntity
  8
SANINDUSA
100
AcDbCircle
 10
7478.939900286547
 20
2025.169504666194
 30
0.0
 40
0.001
100
AcDbArc
 50
90.0
 51
248.9411647286947
  0
LINE
  5
2767
330
1F
100
AcDbEntity
  8
SANINDUSA
100
AcDbLine
 10
7478.975624025999
 20
2025.164392816614
 30
0.0
 11
7478.974717586888
 21
2025.165296434479
 31
0.0
  0
ARC
  5
2768
330
1F
100
AcDbEntity
  8
SANINDUSA
100
AcDbCircle
 10
7478.975013699117
 20
2025.260698225839
 30
0.0
 40
0.0987200954923432
100
AcDbArc
 50
248.9411647286947
 51
269.947763417605
  0
ARC
  5
2769
330
1F
100
AcDbEntity
  8
SANINDUSA
100
AcDbCircle
 10
7478.974918022207
 20
2025.163684608561
 30
0.0
 40
0.0010000000000003
100
AcDbArc
 50
0.5340991040368256
 51
45.08930406185324
  0
ARC
  5
276A
330
1F
100
AcDbEntity
  8
SANINDUSA
100
AcDbCircle
 10
7478.974924607661
 20
2025.162978170959
 30
0.0
 40
0.001
100
AcDbArc
 50
269.947763417605
 51
0.5340991040368256
  0
LINE
  5
276B
330
1F
100
AcDbEntity
  8
SANINDUSA
100
AcDbLine
 10
7478.975924564213
 20
2025.162987492612
 30
0.0
 11
7478.975917978761
 21
2025.163693930214
 31
0.0
  0
LINE
  5
276C
330
1F
100
AcDbEntity
  8
SANINDUSA
100
AcDbLine
 10
7478.925798363388
 20
2025.181204666194
 30
0.0
 11
7478.928486976538
 21
2025.181204666194
 31
0.0
  0
ARC
  5
276D
330
1F
100
AcDbEntity
  8
SANINDUSA
100
AcDbCircle
 10
7478.925798363388
 20
2025.180704666194
 30
0.0
 40
0.0005000000000001
100
AcDbArc
 50
90.0
 51
156.4218215197019
  0
ARC
  5
276E
330
1F
100
AcDbEntity
  8
SANINDUSA
100
AcDbCircle
 10
7478.928486976538
 20
2025.180704666194
 30
0.0
 40
0.0005
100
AcDbArc
 50
19.47122063801706
 51
90.0
  0
ARC
  5
276F
330
1F
100
AcDbEntity
  8
SANINDUSA
100
AcDbCircle
 10
7478.924423590679
 20
2025.181304666194
 30
0.0
 40
0.0009999999999999
100
AcDbArc
 50
180.0
 51
336.4218215197019
  0
ARC
  5
2770
330
1F
100
AcDbEntity
  8
SANINDUSA
100
AcDbCircle
 10
7478.929901190101
 20
2025.181204666194
 30
0.0
 40
0.001
100
AcDbArc
 50
199.471220638017
 51
340.5287793619829
  0
LINE
  5
2771
330
1F
100
AcDbEntity
  8
SANINDUSA
100
AcDbLine
 10
7478.92342359068
 20
2025.181304666194
 30
0.0
 11
7478.92342359068
 21
2025.182204666194
 31
0.0
  0
ARC
  5
2772
330
1F
100
AcDbEntity
  8
SANINDUSA
100
AcDbCircle
 10
7478.931315403663
 20
2025.180704666194
 30
0.0
 40
0.0004999999999999
100
AcDbArc
 50
90.0
 51
160.5287793619829
  0
ARC
  5
2773
330
1F
100
AcDbEntity
  8
SANINDUSA
100
AcDbCircle
 10
7478.924423590679
 20
2025.182204666194
 30
0.0
 40
0.0009999999999999
100
AcDbArc
 50
90.0
 51
180.0
  0
LINE
  5
2774
330
1F
100
AcDbEntity
  8
SANINDUSA
100
AcDbLine
 10
7478.931315403663
 20
2025.181204666194
 30
0.0
 11
7478.93290156692
 21
2025.181204666194
 31
0.0
  0
LINE
  5
2775
330
1F
100
AcDbEntity
  8
SANINDUSA
100
AcDbLine
 10
7478.924423590679
 20
2025.183204666194
 30
0.0
 11
7478.955923590679
 21
2025.183204666194
 31
0.0
  0
ARC
  5
2776
330
1F
100
AcDbEntity
  8
SANINDUSA
100
AcDbCircle
 10
7478.93290156692
 20
2025.180704666194
 30
0.0
 40
0.0005
100
AcDbArc
 50
0.0
 51
90.0
  0
ARC
  5
2777
330
1F
100
AcDbEntity
  8
SANINDUSA
100
AcDbCircle
 10
7478.955923590679
 20
2025.182204666194
 30
0.0
 40
0.001
100
AcDbArc
 50
270.0
 51
90.0
  0
LINE
  5
2778
330
1F
100
AcDbEntity
  8
SANINDUSA
100
AcDbLine
 10
7478.933401566919
 20
2025.180704666194
 30
0.0
 11
7478.933401566919
 21
2025.173704666194
 31
0.0
  0
LINE
  5
2779
330
1F
100
AcDbEntity
  8
SANINDUSA
100
AcDbLine
 10
7478.955923590679
 20
2025.181204666194
 30
0.0
 11
7478.93590156692
 21
2025.181204666194
 31
0.0
  0
ARC
  5
277A
330
1F
100
AcDbEntity
  8
SANINDUSA
100
AcDbCircle
 10
7478.93290156692
 20
2025.173704666194
 30
0.0
 40
0.0005
100
AcDbArc
 50
270.0
 51
0.0
  0
ARC
  5
277B
330
1F
100
AcDbEntity
  8
SANINDUSA
100
AcDbCircle
 10
7478.93590156692
 20
2025.180704666194
 30
0.0
 40
0.0005000000000001
100
AcDbArc
 50
90.0
 51
180.0
  0
LINE
  5
277C
330
1F
100
AcDbEntity
  8
SANINDUSA
100
AcDbLine
 10
7478.93290156692
 20
2025.173204666194
 30
0.0
 11
7478.931315403663
 21
2025.173204666194
 31
0.0
  0
LINE
  5
277D
330
1F
100
AcDbEntity
  8
SANINDUSA
100
AcDbLine
 10
7478.93540156692
 20
2025.180704666194
 30
0.0
 11
7478.93540156692
 21
2025.173704666194
 31
0.0
  0
ARC
  5
277E
330
1F
100
AcDbEntity
  8
SANINDUSA
100
AcDbCircle
 10
7478.931315403663
 20
2025.173704666194
 30
0.0
 40
0.0005
100
AcDbArc
 50
199.471220638017
 51
270.0
  0
ARC
  5
277F
330
1F
100
AcDbEntity
  8
SANINDUSA
100
AcDbCircle
 10
7478.93590156692
 20
2025.173704666194
 30
0.0
 40
0.0005000000000001
100
AcDbArc
 50
180.0
 51
270.0
  0
ARC
  5
2780
330
1F
100
AcDbEntity
  8
SANINDUSA
100
AcDbCircle
 10
7478.929901190101
 20
2025.173204666194
 30
0.0
 40
0.001
100
AcDbArc
 50
19.47122063801706
 51
160.5287793619829
  0
LINE
  5
2781
330
1F
100
AcDbEntity
  8
SANINDUSA
100
AcDbLine
 10
7478.93590156692
 20
2025.173204666194
 30
0.0
 11
7478.955923590679
 21
2025.173204666194
 31
0.0
  0
ARC
  5
2782
330
1F
100
AcDbEntity
  8
SANINDUSA
100
AcDbCircle
 10
7478.928486976538
 20
2025.173704666194
 30
0.0
 40
0.0005
100
AcDbArc
 50
270.0
 51
340.5287793619829
  0
ARC
  5
2783
330
1F
100
AcDbEntity
  8
SANINDUSA
100
AcDbCircle
 10
7478.955923590679
 20
2025.172204666194
 30
0.0
 40
0.001
100
AcDbArc
 50
270.0
 51
90.0
  0
LINE
  5
2784
330
1F
100
AcDbEntity
  8
SANINDUSA
100
AcDbLine
 10
7478.928486976538
 20
2025.173204666194
 30
0.0
 11
7478.925798363388
 21
2025.173204666194
 31
0.0
  0
LINE
  5
2785
330
1F
100
AcDbEntity
  8
SANINDUSA
100
AcDbLine
 10
7478.955923590679
 20
2025.171204666194
 30
0.0
 11
7478.924423590679
 21
2025.171204666194
 31
0.0
  0
ARC
  5
2786
330
1F
100
AcDbEntity
  8
SANINDUSA
100
AcDbCircle
 10
7478.925798363388
 20
2025.173704666194
 30
0.0
 40
0.0005000000000001
100
AcDbArc
 50
203.5781784802981
 51
270.0
  0
ARC
  5
2787
330
1F
100
AcDbEntity
  8
SANINDUSA
100
AcDbCircle
 10
7478.924423590679
 20
2025.172204666194
 30
0.0
 40
0.0010000000000001
100
AcDbArc
 50
180.0
 51
270.0
  0
ARC
  5
2788
330
1F
100
AcDbEntity
  8
SANINDUSA
100
AcDbCircle
 10
7478.924423590679
 20
2025.173104666194
 30
0.0
 40
0.0009999999999999
100
AcDbArc
 50
23.57817848029807
 51
180.0
  0
LINE
  5
2789
330
1F
100
AcDbEntity
  8
SANINDUSA
100
AcDbLine
 10
7478.92342359068
 20
2025.172204666194
 30
0.0
 11
7478.92342359068
 21
2025.173104666194
 31
0.0
  0
LINE
  5
278A
330
1F
100
AcDbEntity
  8
SANINDUSA
100
AcDbLine
 10
7478.212301566919
 20
2025.174204670003
 30
0.0000000001479285
 11
7477.61230156692
 21
2025.174204670003
 31
0.0000000001479285
  0
LINE
  5
278B
330
1F
100
AcDbEntity
  8
SANINDUSA
100
AcDbLine
 10
7478.22880156692
 20
2025.1708046139
 30
0.0000000001479286
 11
7478.213801521324
 21
2025.1708046139
 31
0.0000000001479286
  0
LINE
  5
278C
330
1F
100
AcDbEntity
  8
SANINDUSA
100
AcDbLine
 10
7478.280801566921
 20
2025.1628046139
 30
0.0000000001479286
 11
7478.22180156692
 21
2025.1628046139
 31
0.0000000001479286
  0
LINE
  5
278D
330
1F
100
AcDbEntity
  8
SANINDUSA
100
AcDbLine
 10
7478.20491267803
 20
2025.1628046139
 30
0.0000000001479286
 11
7478.20491267803
 21
2025.170804666194
 31
0.0000000001479286
  0
CIRCLE
  5
278E
330
1F
100
AcDbEntity
  8
SANINDUSA
100
AcDbCircle
 10
7478.21380156692
 20
2025.1628046139
 30
0.0000000001479286
 40
0.008
  0
LINE
  5
278F
330
1F
100
AcDbEntity
  8
SANINDUSA
100
AcDbLine
 10
7478.222690455808
 20
2025.1628046139
 30
0.0000000001479286
 11
7478.222690455808
 21
2025.1708046139
 31
0.0000000001479286
  0
LINE
  5
2790
330
1F
100
AcDbEntity
  8
SANINDUSA
100
AcDbLine
 10
7478.14580156692
 20
2025.172804666194
 30
0.0000000001479286
 11
7478.14580156692
 21
2025.1638046139
 31
0.0000000001479286
  0
LINE
  5
2791
330
1F
100
AcDbEntity
  8
SANINDUSA
100
AcDbLine
 10
7478.20491267803
 20
2025.1628046139
 30
0.0000000001479286
 11
7478.146801566921
 21
2025.1628046139
 31
0.0000000001479286
  0
ARC
  5
2792
330
1F
100
AcDbEntity
  8
SANINDUSA
100
AcDbCircle
 10
7478.146801566921
 20
2025.1638046139
 30
0.0000000001479286
 40
0.001
100
AcDbArc
 50
180.0
 51
270.0
  0
LINE
  5
2793
330
1F
100
AcDbEntity
  8
SANINDUSA
100
AcDbLine
 10
7478.14580156692
 20
2025.172804666194
 30
0.0000000001479286
 11
7478.19880156692
 21
2025.172804666194
 31
0.0000000001479286
  0
LWPOLYLINE
  5
2794
330
1F
100
AcDbEntity
  8
SANINDUSA
100
AcDbPolyline
 90
        2
 70
     0
 43
0.0
 38
0.0000000001479285
 10
7478.19880156692
 20
2025.174004666194
 10
7478.14580156692
 20
2025.174004666194
1001
GENIUS_GENREC_14
1002
{
1000
PYDIR
1011
7478.445083823998
1021
2024.139774810182
1031
0.0000000001479286
1002
}
1002
{
1000
PXDIR
1011
7478.498083823999
1021
2024.140774810181
1031
0.0000000001479286
1002
}
1002
{
1000
PORI
1011
7478.445083823998
1021
2024.140774810181
1031
0.0000000001479286
1002
}
1002
{
1000
PINS
1011
7478.445083823998
1021
2024.140774810181
1031
0.0000000001479286
1002
}
1002
{
1000
PINS2
1011
7478.498083823999
1021
2024.139774810182
1031
0.0000000001479286
1002
}
1002
{
1000
C
1070
     1
1002
}
1001
GENIUS_GENODEF_13
1002
{
1000
HIER
1070
     0
1002
}
1002
{
1000
MANEDIT
1070
     0
1002
}
1002
{
1000
NOSEL
1070
     0
1002
}
1002
{
1000
BEHIND
1070
     0
1002
}
1002
{
1000
REACTOR
1002
}
1001
GENIUS_GENOBJ-N-REC_13
1002
{
1000
OWNER
1000
GEN
1002
}
  0
LWPOLYLINE
  5
2795
330
1F
100
AcDbEntity
  8
SANINDUSA
100
AcDbPolyline
 90
        2
 70
     0
 43
0.0
 38
0.0000000001479285
 10
7478.14580156692
 20
2025.173004666194
 10
7478.19880156692
 20
2025.173004666194
1001
GENIUS_GENREC_14
1002
{
1000
PYDIR
1011
7478.445083823998
1021
2024.139774810182
1031
0.0000000001479286
1002
}
1002
{
1000
PXDIR
1011
7478.498083823999
1021
2024.140774810181
1031
0.0000000001479286
1002
}
1002
{
1000
PORI
1011
7478.445083823998
1021
2024.140774810181
1031
0.0000000001479286
1002
}
1002
{
1000
PINS
1011
7478.445083823998
1021
2024.140774810181
1031
0.0000000001479286
1002
}
1002
{
1000
PINS2
1011
7478.498083823999
1021
2024.139774810182
1031
0.0000000001479286
1002
}
1002
{
1000
C
1070
     1
1002
}
1001
GENIUS_GENODEF_13
1002
{
1000
HIER
1070
     0
1002
}
1002
{
1000
MANEDIT
1070
     0
1002
}
1002
{
1000
NOSEL
1070
     0
1002
}
1002
{
1000
BEHIND
1070
     0
1002
}
1002
{
1000
REACTOR
1002
}
1001
GENIUS_GENOBJ-N-REC_13
1002
{
1000
OWNER
1000
GEN
1002
}
  0
LINE
  5
2796
330
1F
100
AcDbEntity
  8
SANINDUSA
100
AcDbLine
 10
7478.146801566921
 20
2025.186604666194
 30
0.0000000001479286
 11
7478.19780156692
 21
2025.186604666194
 31
0.0000000001479286
  0
LINE
  5
2797
330
1F
100
AcDbEntity
  8
SANINDUSA
100
AcDbLine
 10
7478.19880156692
 20
2025.181604666194
 30
0.0000000001479286
 11
7478.14580156692
 21
2025.181604666194
 31
0.0000000001479286
  0
LWPOLYLINE
  5
2798
330
1F
100
AcDbEntity
  8
SANINDUSA
100
AcDbPolyline
 90
        4
 70
     1
 43
0.0
 38
0.0000000001479285
 10
7478.14580156692
 20
2025.181404666194
 10
7478.19880156692
 20
2025.181404666194
 10
7478.19880156692
 20
2025.180404666194
 10
7478.14580156692
 20
2025.180404666194
1001
GENIUS_GENREC_14
1002
{
1000
PYDIR
1011
7478.445083823998
1021
2024.139574810182
1031
0.0000000001479286
1002
}
1002
{
1000
PXDIR
1011
7478.498083823999
1021
2024.140574810182
1031
0.0000000001479286
1002
}
1002
{
1000
PORI
1011
7478.445083823998
1021
2024.140574810182
1031
0.0000000001479286
1002
}
1002
{
1000
PINS
1011
7478.445083823998
1021
2024.140574810182
1031
0.0000000001479286
1002
}
1002
{
1000
PINS2
1011
7478.498083823999
1021
2024.139574810182
1031
0.0000000001479286
1002
}
1002
{
1000
C
1070
     1
1002
}
1001
GENIUS_GENODEF_13
1002
{
1000
HIER
1070
     0
1002
}
1002
{
1000
MANEDIT
1070
     0
1002
}
1002
{
1000
NOSEL
1070
     0
1002
}
1002
{
1000
BEHIND
1070
     0
1002
}
1002
{
1000
REACTOR
1002
}
1001
GENIUS_GENOBJ-N-REC_13
1002
{
1000
OWNER
1000
GEN
1002
}
  0
LINE
  5
2799
330
1F
100
AcDbEntity
  8
SANINDUSA
100
AcDbLine
 10
7478.14580156692
 20
2025.174004666194
 30
0.0000000001479286
 11
7478.14580156692
 21
2025.173004666194
 31
0.0000000001479286
1001
GENIUS_GENREC_14
1002
{
1000
PYDIR
1011
7478.14580156692
1021
2025.174004666194
1031
0.0000000001479286
1002
}
1002
{
1000
PXDIR
1011
7478.19880156692
1021
2025.173004666194
1031
0.0000000001479286
1002
}
1002
{
1000
PORI
1011
7478.14580156692
1021
2025.173004666194
1031
0.0000000001479286
1002
}
1002
{
1000
PINS
1011
7478.14580156692
1021
2025.173004666194
1031
0.0000000001479286
1002
}
1002
{
1000
PINS2
1011
7478.19880156692
1021
2025.174004666194
1031
0.0000000001479286
1002
}
1002
{
1000
C
1070
     1
1002
}
1001
GENIUS_GENODEF_13
1002
{
1000
HIER
1070
     0
1002
}
1002
{
1000
MANEDIT
1070
     0
1002
}
1002
{
1000
NOSEL
1070
     0
1002
}
1002
{
1000
BEHIND
1070
     0
1002
}
1002
{
1000
REACTOR
1002
}
1001
GENIUS_GENOBJ-N-REC_13
1002
{
1000
OWNER
1000
GEN
1002
}
  0
ARC
  5
279A
330
1F
100
AcDbEntity
  8
SANINDUSA
100
AcDbCircle
 10
7478.146801566921
 20
2025.185604666194
 30
0.0000000001479286
 40
0.001
100
AcDbArc
 50
90.0
 51
180.0
  0
LINE
  5
279B
330
1F
100
AcDbEntity
  8
SANINDUSA
100
AcDbLine
 10
7478.14580156692
 20
2025.181604666194
 30
0.0000000001479286
 11
7478.14580156692
 21
2025.185604666194
 31
0.0000000001479286
  0
LINE
  5
279C
330
1F
100
AcDbEntity
  8
SANINDUSA
100
AcDbLine
 10
7478.205452023923
 20
2025.180208451394
 30
0.0000000001479285
 11
7478.203375695567
 21
2025.180500260315
 31
0.0000000001479285
  0
LINE
  5
279D
330
1F
100
AcDbEntity
  8
SANINDUSA
100
AcDbLine
 10
7478.200449427574
 20
2025.180320304335
 30
0.0000000001479285
 11
7478.200449427574
 21
2025.179613548701
 31
0.0000000001479285
  0
ARC
  5
279E
330
1F
100
AcDbEntity
  8
SANINDUSA
100
AcDbCircle
 10
7478.203344204489
 20
2025.180656160233
 30
0.0000000001479285
 40
0.0004999999999883
100
AcDbArc
 50
208.1263739549705
 51
261.9999999889949
  0
ARC
  5
279F
330
1F
100
AcDbEntity
  8
SANINDUSA
100
AcDbCircle
 10
7478.203049427573
 20
2025.179838530356
 30
0.0000000001479285
 40
0.0006000000000005
100
AcDbArc
 50
104.1008917867584
 51
147.5305191993646
  0
ARC
  5
27A0
330
1F
100
AcDbEntity
  8
SANINDUSA
100
AcDbCircle
 10
7478.20991004044
 20
2025.180454399864
 30
0.0000000001479285
 40
0.00075
100
AcDbArc
 50
189.3408341093261
 51
9.340834109326083
  0
LINE
  5
27A1
330
1F
100
AcDbEntity
  8
SANINDUSA
100
AcDbLine
 10
7478.213449427574
 20
2025.182804670003
 30
0.0000000001479285
 11
7478.213449427574
 21
2025.171604670003
 31
0.0000000001479285
  0
LINE
  5
27A2
330
1F
100
AcDbEntity
  8
SANINDUSA
100
AcDbLine
 10
7478.212301566919
 20
2025.180901100454
 30
0.0000000001479285
 11
7478.212301566919
 21
2025.173508239554
 31
0.0000000001479285
  0
ARC
  5
27A3
330
1F
100
AcDbEntity
  8
SANINDUSA
100
AcDbCircle
 10
7478.214287119882
 20
2025.177204670003
 30
0.0000000001479285
 40
0.0056623076923077
100
AcDbArc
 50
261.4923271082531
 51
98.50767289174697
  0
ARC
  5
27A4
330
1F
100
AcDbEntity
  8
SANINDUSA
100
AcDbCircle
 10
7478.214287119882
 20
2025.177204670003
 30
0.0000000001479285
 40
0.0052623076923077
100
AcDbArc
 50
261.4923271082531
 51
98.50767289174697
  0
LINE
  5
27A5
330
1F
100
AcDbEntity
  8
SANINDUSA
100
AcDbLine
 10
7478.19880156692
 20
2025.170804666194
 30
0.0000000001479286
 11
7478.21380156692
 21
2025.1708046139
 31
0.0000000001479286
  0
LINE
  5
27A6
330
1F
100
AcDbEntity
  8
SANINDUSA
100
AcDbLine
 10
7478.19880156692
 20
2025.173004666194
 30
0.0000000001479286
 11
7478.19880156692
 21
2025.174004666194
 31
0.0000000001479286
1001
GENIUS_GENREC_14
1002
{
1000
PYDIR
1011
7478.14580156692
1021
2025.174004666194
1031
0.0000000001479286
1002
}
1002
{
1000
PXDIR
1011
7478.19880156692
1021
2025.173004666194
1031
0.0000000001479286
1002
}
1002
{
1000
PORI
1011
7478.14580156692
1021
2025.173004666194
1031
0.0000000001479286
1002
}
1002
{
1000
PINS
1011
7478.14580156692
1021
2025.173004666194
1031
0.0000000001479286
1002
}
1002
{
1000
PINS2
1011
7478.19880156692
1021
2025.174004666194
1031
0.0000000001479286
1002
}
1002
{
1000
C
1070
     1
1002
}
1001
GENIUS_GENODEF_13
1002
{
1000
HIER
1070
     0
1002
}
1002
{
1000
MANEDIT
1070
     0
1002
}
1002
{
1000
NOSEL
1070
     0
1002
}
1002
{
1000
BEHIND
1070
     0
1002
}
1002
{
1000
REACTOR
1002
}
1001
GENIUS_GENOBJ-N-REC_13
1002
{
1000
OWNER
1000
GEN
1002
}
  0
LINE
  5
27A7
330
1F
100
AcDbEntity
  8
SANINDUSA
100
AcDbLine
 10
7478.19880156692
 20
2025.172804666194
 30
0.0000000001479286
 11
7478.19880156692
 21
2025.170804666194
 31
0.0000000001479286
  0
LINE
  5
27A8
330
1F
100
AcDbEntity
  8
SANINDUSA
100
AcDbLine
 10
7478.212301566919
 20
2025.180204670004
 30
0.0000000001479285
 11
7478.212301566919
 21
2025.174204670003
 31
0.0000000001479285
  0
LINE
  5
27A9
330
1F
100
AcDbEntity
  8
SANINDUSA
100
AcDbLine
 10
7478.215301566919
 20
2025.180204666193
 30
0.0000000001479286
 11
7478.215301566919
 21
2025.174204666194
 31
0.0000000001479286
1001
GENIUS_GENREC_14
1002
{
1000
PYDIR
1011
7478.062301566919
1021
2025.174004666194
1031
0.0000000001479286
1002
}
1002
{
1000
PXDIR
1011
7478.212301566919
1021
2025.180004666194
1031
0.0000000001479286
1002
}
1002
{
1000
PORI
1011
7478.062301566919
1021
2025.180004666194
1031
0.0000000001479286
1002
}
1002
{
1000
PINS
1011
7478.062301566919
1021
2025.180004666194
1031
0.0000000001479286
1002
}
1002
{
1000
PINS2
1011
7478.212301566919
1021
2025.174204666194
1031
0.0000000001479286
1002
}
1002
{
1000
C
1070
     1
1002
}
1001
GENIUS_GENODEF_13
1002
{
1000
HIER
1070
     0
1002
}
1002
{
1000
MANEDIT
1070
     0
1002
}
1002
{
1000
NOSEL
1070
     0
1002
}
1002
{
1000
BEHIND
1070
     0
1002
}
1002
{
1000
REACTOR
1002
}
1001
GENIUS_GENOBJ-N-REC_13
1002
{
1000
OWNER
1000
GEN
1002
}
  0
LINE
  5
27AA
330
1F
100
AcDbEntity
  8
SANINDUSA
100
AcDbLine
 10
7478.200952043312
 20
2025.173496991496
 30
0.0000000001479285
 11
7478.212456344994
 21
2025.171604670003
 31
0.0000000001479285
  0
LINE
  5
27AB
330
1F
100
AcDbEntity
  8
SANINDUSA
100
AcDbLine
 10
7478.203375695567
 20
2025.173909079692
 30
0.0000000001479285
 11
7478.205452023923
 21
2025.174200888613
 31
0.0000000001479285
  0
LINE
  5
27AC
330
1F
100
AcDbEntity
  8
SANINDUSA
100
AcDbLine
 10
7478.205752043312
 20
2025.173518198608
 30
0.0000000001479285
 11
7478.203375695567
 21
2025.173909079692
 31
0.0000000001479285
  0
LINE
  5
27AD
330
1F
100
AcDbEntity
  8
SANINDUSA
100
AcDbLine
 10
7478.203274617938
 20
2025.180161026199
 30
0.0000000001479285
 11
7478.205403313338
 21
2025.17986185757
 31
0.0000000001479285
  0
LINE
  5
27AE
330
1F
100
AcDbEntity
  8
SANINDUSA
100
AcDbLine
 10
7478.205403313338
 20
2025.174547482436
 30
0.0000000001479285
 11
7478.203274617938
 21
2025.174248313808
 31
0.0000000001479285
  0
LINE
  5
27AF
330
1F
100
AcDbEntity
  8
SANINDUSA
100
AcDbLine
 10
7478.200449427574
 20
2025.179613548701
 30
0.0000000001479285
 11
7478.202134398805
 21
2025.17989070653
 31
0.0000000001479285
  0
ARC
  5
27B0
330
1F
100
AcDbEntity
  8
SANINDUSA
100
AcDbCircle
 10
7478.202037014544
 20
2025.180482750705
 30
0.0000000001479285
 40
0.0006
100
AcDbArc
 50
279.3408341200664
 51
327.5305191993646
  0
ARC
  5
27B1
330
1F
100
AcDbEntity
  8
SANINDUSA
100
AcDbCircle
 10
7478.201049427572
 20
2025.174089035672
 30
0.0000000001479285
 40
0.0006
100
AcDbArc
 50
180.0
 51
260.6591658799336
  0
ARC
  5
27B2
330
1F
100
AcDbEntity
  8
SANINDUSA
100
AcDbCircle
 10
7478.203049427573
 20
2025.17457080965
 30
0.0000000001479285
 40
0.0005999999999989
100
AcDbArc
 50
212.4694808006354
 51
255.8991082132415
  0
LINE
  5
27B3
330
1F
100
AcDbEntity
  8
SANINDUSA
100
AcDbLine
 10
7478.202134398805
 20
2025.174518633477
 30
0.0000000001479285
 11
7478.200449427574
 21
2025.174795791306
 31
0.0000000001479285
  0
LINE
  5
27B4
330
1F
100
AcDbEntity
  8
SANINDUSA
100
AcDbLine
 10
7478.200449427574
 20
2025.174795791306
 30
0.0000000001479285
 11
7478.200449427574
 21
2025.174089035672
 31
0.0000000001479285
  0
ARC
  5
27B5
330
1F
100
AcDbEntity
  8
SANINDUSA
100
AcDbCircle
 10
7478.202037014544
 20
2025.173926589302
 30
0.0000000001479285
 40
0.0006
100
AcDbArc
 50
32.46948080063537
 51
80.65916587993356
  0
ARC
  5
27B6
330
1F
100
AcDbEntity
  8
SANINDUSA
100
AcDbCircle
 10
7478.203344204489
 20
2025.173753179774
 30
0.0000000001479285
 40
0.0005
100
AcDbArc
 50
98.00000001100515
 51
151.8736260450294
  0
ARC
  5
27B7
330
1F
100
AcDbEntity
  8
SANINDUSA
100
AcDbCircle
 10
7478.205427668631
 20
2025.180035154482
 30
0.0000000001479285
 40
0.000175
100
AcDbArc
 50
261.9999999889949
 51
81.99999998899484
  0
ARC
  5
27B8
330
1F
100
AcDbEntity
  8
SANINDUSA
100
AcDbCircle
 10
7478.21110288903
 20
2025.173505371193
 30
0.0000000001479285
 40
0.0005
100
AcDbArc
 50
170.6591658906739
 51
260.6591658799336
  0
ARC
  5
27B9
330
1F
100
AcDbEntity
  8
SANINDUSA
100
AcDbCircle
 10
7478.206602149239
 20
2025.173175678665
 30
0.0000000001479285
 40
0.0006000000000005
100
AcDbArc
 50
80.65916587993356
 51
128.8488510135322
  0
LINE
  5
27BA
330
1F
100
AcDbEntity
  8
SANINDUSA
100
AcDbLine
 10
7478.208578890439
 20
2025.173458590863
 30
0.0000000001479285
 11
7478.206699533501
 21
2025.17376772284
 31
0.0000000001479285
  0
LINE
  5
27BB
330
1F
100
AcDbEntity
  8
SANINDUSA
100
AcDbLine
 10
7478.209169985222
 20
2025.174076670469
 30
0.0000000001479285
 11
7478.209129408445
 21
2025.173829985396
 31
0.0000000001479285
  0
LINE
  5
27BC
330
1F
100
AcDbEntity
  8
SANINDUSA
100
AcDbLine
 10
7478.210609518884
 20
2025.173586524743
 30
0.0000000001479285
 11
7478.21065009566
 21
2025.173833209817
 31
0.0000000001479285
  0
ARC
  5
27BD
330
1F
100
AcDbEntity
  8
SANINDUSA
100
AcDbCircle
 10
7478.208660043989
 20
2025.173951961009
 30
0.0000000001479285
 40
0.0005
100
AcDbArc
 50
260.6591658799336
 51
0.1365535742230598
  0
ARC
  5
27BE
330
1F
100
AcDbEntity
  8
SANINDUSA
100
AcDbCircle
 10
7478.20991004044
 20
2025.173954940143
 30
0.0000000001479285
 40
0.00075
100
AcDbArc
 50
350.6591658906739
 51
180.136553574223
  0
ARC
  5
27BF
330
1F
100
AcDbEntity
  8
SANINDUSA
100
AcDbCircle
 10
7478.205427668631
 20
2025.174374185525
 30
0.0000000001479285
 40
0.000175
100
AcDbArc
 50
278.0000000110051
 51
98.00000001100515
  0
ARC
  5
27C0
330
1F
100
AcDbEntity
  8
SANINDUSA
100
AcDbCircle
 10
7478.205849427573
 20
2025.174110242784
 30
0.0000000001479285
 40
0.0006
100
AcDbArc
 50
260.6591658799336
 51
308.8488510135322
  0
LINE
  5
27C1
330
1F
100
AcDbEntity
  8
SANINDUSA
100
AcDbLine
 10
7478.212456344994
 20
2025.171604670003
 30
0.0000000001479285
 11
7478.213449427574
 21
2025.171604670003
 31
0.0000000001479285
  0
LINE
  5
27C2
330
1F
100
AcDbEntity
  8
SANINDUSA
100
AcDbLine
 10
7478.211604182658
 20
2025.172916195378
 30
0.0000000001479285
 11
7478.21102173548
 21
2025.173012001046
 31
0.0000000001479285
  0
ARC
  5
27C3
330
1F
100
AcDbEntity
  8
SANINDUSA
100
AcDbCircle
 10
7478.211701566919
 20
2025.173508239554
 30
0.0000000001479285
 40
0.0006
100
AcDbArc
 50
260.6591658799336
 51
0.0
  0
ARC
  5
27C4
330
1F
100
AcDbEntity
  8
SANINDUSA
100
AcDbCircle
 10
7478.19780156692
 20
2025.185604666194
 30
0.0000000001479286
 40
0.001
100
AcDbArc
 50
0.0
 51
90.0
  0
ARC
  5
27C5
330
1F
100
AcDbEntity
  8
SANINDUSA
100
AcDbCircle
 10
7478.21110288903
 20
2025.180903968814
 30
0.0000000001479285
 40
0.0005
100
AcDbArc
 50
99.34083412006643
 51
189.3408341093261
  0
LINE
  5
27C6
330
1F
100
AcDbEntity
  8
SANINDUSA
100
AcDbLine
 10
7478.212456344994
 20
2025.182804670003
 30
0.0000000001479285
 11
7478.213449427574
 21
2025.182804670003
 31
0.0000000001479285
  0
LINE
  5
27C7
330
1F
100
AcDbEntity
  8
SANINDUSA
100
AcDbLine
 10
7478.21102173548
 20
2025.18139733896
 30
0.0000000001479285
 11
7478.211604182658
 21
2025.181493144629
 31
0.0000000001479285
  0
ARC
  5
27C8
330
1F
100
AcDbEntity
  8
SANINDUSA
100
AcDbCircle
 10
7478.211701566919
 20
2025.180901100454
 30
0.0000000001479285
 40
0.0006
100
AcDbArc
 50
0.0
 51
99.34083412006643
  0
LINE
  5
27C9
330
1F
100
AcDbEntity
  8
SANINDUSA
100
AcDbLine
 10
7478.203375695567
 20
2025.180500260315
 30
0.0000000001479285
 11
7478.205752043312
 21
2025.180891141399
 31
0.0000000001479285
  0
ARC
  5
27CA
330
1F
100
AcDbEntity
  8
SANINDUSA
100
AcDbCircle
 10
7478.201049427572
 20
2025.180320304335
 30
0.0000000001479285
 40
0.0006
100
AcDbArc
 50
99.34083412006643
 51
180.0
  0
LINE
  5
27CB
330
1F
100
AcDbEntity
  8
SANINDUSA
100
AcDbLine
 10
7478.21065009566
 20
2025.18057613019
 30
0.0000000001479285
 11
7478.210609518884
 21
2025.180822815263
 31
0.0000000001479285
  0
LINE
  5
27CC
330
1F
100
AcDbEntity
  8
SANINDUSA
100
AcDbLine
 10
7478.209136578697
 20
2025.180535763318
 30
0.0000000001479285
 11
7478.209169985222
 21
2025.180332669537
 31
0.0000000001479285
  0
LINE
  5
27CD
330
1F
100
AcDbEntity
  8
SANINDUSA
100
AcDbLine
 10
7478.206699533501
 20
2025.180641617167
 30
0.0000000001479285
 11
7478.208562054999
 21
2025.180947979913
 31
0.0000000001479285
  0
ARC
  5
27CE
330
1F
100
AcDbEntity
  8
SANINDUSA
100
AcDbCircle
 10
7478.206602149239
 20
2025.181233661342
 30
0.0000000001479285
 40
0.0006000000000005
100
AcDbArc
 50
231.1511489864678
 51
279.3408341200664
  0
ARC
  5
27CF
330
1F
100
AcDbEntity
  8
SANINDUSA
100
AcDbCircle
 10
7478.20864320855
 20
2025.180454609767
 30
0.0000000001479285
 40
0.0005
100
AcDbArc
 50
9.340834109326083
 51
99.34083412006643
  0
ARC
  5
27D0
330
1F
100
AcDbEntity
  8
SANINDUSA
100
AcDbCircle
 10
7478.205849427573
 20
2025.180299097223
 30
0.0000000001479285
 40
0.0006
100
AcDbArc
 50
51.15114898646778
 51
99.34083412006643
  0
LINE
  5
27D1
330
1F
100
AcDbEntity
  8
SANINDUSA
100
AcDbLine
 10
7478.212456344994
 20
2025.182804670003
 30
0.0000000001479285
 11
7478.200952043312
 21
2025.18091234851
 31
0.0000000001479285
  0
LINE
  5
27D2
330
1F
100
AcDbEntity
  8
SANINDUSA
100
AcDbLine
 10
7478.19880156692
 20
2025.181604666194
 30
0.0000000001479286
 11
7478.19880156692
 21
2025.185604666194
 31
0.0000000001479286
  0
LINE
  5
27D3
330
1F
100
AcDbEntity
  8
SANINDUSA
100
AcDbLine
 10
7478.281801566919
 20
2025.1728046139
 30
0.0000000001479286
 11
7478.281801566919
 21
2025.163804613899
 31
0.0000000001479286
  0
ARC
  5
27D4
330
1F
100
AcDbEntity
  8
SANINDUSA
100
AcDbCircle
 10
7478.280801566921
 20
2025.163804613899
 30
0.0000000001479286
 40
0.001
100
AcDbArc
 50
270.0
 51
0.0
  0
LINE
  5
27D5
330
1F
100
AcDbEntity
  8
SANINDUSA
100
AcDbLine
 10
7478.280801566921
 20
2025.186604666194
 30
0.0000000001479286
 11
7478.22980156692
 21
2025.186604666194
 31
0.0000000001479286
  0
LINE
  5
27D6
330
1F
100
AcDbEntity
  8
SANINDUSA
100
AcDbLine
 10
7478.22880156692
 20
2025.181604666194
 30
0.0000000001479286
 11
7478.281801566919
 21
2025.181604666194
 31
0.0000000001479286
  0
LINE
  5
27D7
330
1F
100
AcDbEntity
  8
SANINDUSA
100
AcDbLine
 10
7478.22880156692
 20
2025.1728046139
 30
0.0000000001479286
 11
7478.281801566919
 21
2025.1728046139
 31
0.0000000001479286
  0
LWPOLYLINE
  5
27D8
330
1F
100
AcDbEntity
  8
SANINDUSA
100
AcDbPolyline
 90
        4
 70
     1
 43
0.0
 38
0.0000000001479285
 10
7478.281801566919
 20
2025.181404666194
 10
7478.22880156692
 20
2025.181404666194
 10
7478.22880156692
 20
2025.180404666194
 10
7478.281801566919
 20
2025.180404666194
1001
GENIUS_GENREC_14
1002
{
1000
PYDIR
1011
7478.14580156692
1021
2024.438857067261
1031
0.0000000001479286
1002
}
1002
{
1000
PXDIR
1011
7478.19880156692
1021
2024.439857067261
1031
0.0000000001479286
1002
}
1002
{
1000
PORI
1011
7478.14580156692
1021
2024.439857067261
1031
0.0000000001479286
1002
}
1002
{
1000
PINS
1011
7478.14580156692
1021
2024.439857067261
1031
0.0000000001479286
1002
}
1002
{
1000
PINS2
1011
7478.19880156692
1021
2024.438857067261
1031
0.0000000001479286
1002
}
1002
{
1000
C
1070
     1
1002
}
1001
GENIUS_GENODEF_13
1002
{
1000
HIER
1070
     0
1002
}
1002
{
1000
MANEDIT
1070
     0
1002
}
1002
{
1000
NOSEL
1070
     0
1002
}
1002
{
1000
BEHIND
1070
     0
1002
}
1002
{
1000
REACTOR
1002
}
1001
GENIUS_GENOBJ-N-REC_13
1002
{
1000
OWNER
1000
GEN
1002
}
  0
LWPOLYLINE
  5
27D9
330
1F
100
AcDbEntity
  8
SANINDUSA
100
AcDbPolyline
 90
        2
 70
     0
 43
0.0
 38
0.0000000001479285
 10
7478.281801566919
 20
2025.172904666194
 10
7478.22880156692
 20
2025.172904666194
1001
GENIUS_GENREC_14
1002
{
1000
PYDIR
1011
7478.14580156692
1021
2024.439157067261
1031
0.0000000001479286
1002
}
1002
{
1000
PXDIR
1011
7478.19880156692
1021
2024.44015706726
1031
0.0000000001479286
1002
}
1002
{
1000
PORI
1011
7478.14580156692
1021
2024.44015706726
1031
0.0000000001479286
1002
}
1002
{
1000
PINS
1011
7478.14580156692
1021
2024.44015706726
1031
0.0000000001479286
1002
}
1002
{
1000
PINS2
1011
7478.19880156692
1021
2024.439157067261
1031
0.0000000001479286
1002
}
1002
{
1000
C
1070
     1
1002
}
1001
GENIUS_GENODEF_13
1002
{
1000
HIER
1070
     0
1002
}
1002
{
1000
MANEDIT
1070
     0
1002
}
1002
{
1000
NOSEL
1070
     0
1002
}
1002
{
1000
BEHIND
1070
     0
1002
}
1002
{
1000
REACTOR
1002
}
1001
GENIUS_GENOBJ-N-REC_13
1002
{
1000
OWNER
1000
GEN
1002
}
  0
LWPOLYLINE
  5
27DA
330
1F
100
AcDbEntity
  8
SANINDUSA
100
AcDbPolyline
 90
        2
 70
     0
 43
0.0
 38
0.0000000001479285
 10
7478.22880156692
 20
2025.173904666194
 10
7478.281801566919
 20
2025.173904666194
1001
GENIUS_GENREC_14
1002
{
1000
PYDIR
1011
7478.14580156692
1021
2024.439157067261
1031
0.0000000001479286
1002
}
1002
{
1000
PXDIR
1011
7478.19880156692
1021
2024.44015706726
1031
0.0000000001479286
1002
}
1002
{
1000
PORI
1011
7478.14580156692
1021
2024.44015706726
1031
0.0000000001479286
1002
}
1002
{
1000
PINS
1011
7478.14580156692
1021
2024.44015706726
1031
0.0000000001479286
1002
}
1002
{
1000
PINS2
1011
7478.19880156692
1021
2024.439157067261
1031
0.0000000001479286
1002
}
1002
{
1000
C
1070
     1
1002
}
1001
GENIUS_GENODEF_13
1002
{
1000
HIER
1070
     0
1002
}
1002
{
1000
MANEDIT
1070
     0
1002
}
1002
{
1000
NOSEL
1070
     0
1002
}
1002
{
1000
BEHIND
1070
     0
1002
}
1002
{
1000
REACTOR
1002
}
1001
GENIUS_GENOBJ-N-REC_13
1002
{
1000
OWNER
1000
GEN
1002
}
  0
LINE
  5
27DB
330
1F
100
AcDbEntity
  8
SANINDUSA
100
AcDbLine
 10
7478.22880156692
 20
2025.172904666194
 30
0.0000000001479286
 11
7478.22880156692
 21
2025.173904666194
 31
0.0000000001479286
1001
GENIUS_GENREC_14
1002
{
1000
PYDIR
1011
7478.14580156692
1021
2025.173904666194
1031
0.0000000001479286
1002
}
1002
{
1000
PXDIR
1011
7478.19880156692
1021
2025.172904666194
1031
0.0000000001479286
1002
}
1002
{
1000
PORI
1011
7478.14580156692
1021
2025.172904666194
1031
0.0000000001479286
1002
}
1002
{
1000
PINS
1011
7478.14580156692
1021
2025.172904666194
1031
0.0000000001479286
1002
}
1002
{
1000
PINS2
1011
7478.19880156692
1021
2025.173904666194
1031
0.0000000001479286
1002
}
1002
{
1000
C
1070
     1
1002
}
1001
GENIUS_GENODEF_13
1002
{
1000
HIER
1070
     0
1002
}
1002
{
1000
MANEDIT
1070
     0
1002
}
1002
{
1000
NOSEL
1070
     0
1002
}
1002
{
1000
BEHIND
1070
     0
1002
}
1002
{
1000
REACTOR
1002
}
1001
GENIUS_GENOBJ-N-REC_13
1002
{
1000
OWNER
1000
GEN
1002
}
  0
LINE
  5
27DC
330
1F
100
AcDbEntity
  8
SANINDUSA
100
AcDbLine
 10
7478.22880156692
 20
2025.1708046139
 30
0.0000000001479286
 11
7478.22880156692
 21
2025.1728046139
 31
0.0000000001479286
  0
ARC
  5
27DD
330
1F
100
AcDbEntity
  8
SANINDUSA
100
AcDbCircle
 10
7478.22980156692
 20
2025.185604666194
 30
0.0000000001479286
 40
0.001
100
AcDbArc
 50
90.0
 51
180.0
  0
LINE
  5
27DE
330
1F
100
AcDbEntity
  8
SANINDUSA
100
AcDbLine
 10
7478.22880156692
 20
2025.181604666194
 30
0.0000000001479286
 11
7478.22880156692
 21
2025.185604666194
 31
0.0000000001479286
  0
LINE
  5
27DF
330
1F
100
AcDbEntity
  8
SANINDUSA
100
AcDbLine
 10
7478.281801566919
 20
2025.173904666194
 30
0.0000000001479286
 11
7478.281801566919
 21
2025.172904666194
 31
0.0000000001479286
1001
GENIUS_GENREC_14
1002
{
1000
PYDIR
1011
7478.14580156692
1021
2025.173904666194
1031
0.0000000001479286
1002
}
1002
{
1000
PXDIR
1011
7478.19880156692
1021
2025.172904666194
1031
0.0000000001479286
1002
}
1002
{
1000
PORI
1011
7478.14580156692
1021
2025.172904666194
1031
0.0000000001479286
1002
}
1002
{
1000
PINS
1011
7478.14580156692
1021
2025.172904666194
1031
0.0000000001479286
1002
}
1002
{
1000
PINS2
1011
7478.19880156692
1021
2025.173904666194
1031
0.0000000001479286
1002
}
1002
{
1000
C
1070
     1
1002
}
1001
GENIUS_GENODEF_13
1002
{
1000
HIER
1070
     0
1002
}
1002
{
1000
MANEDIT
1070
     0
1002
}
1002
{
1000
NOSEL
1070
     0
1002
}
1002
{
1000
BEHIND
1070
     0
1002
}
1002
{
1000
REACTOR
1002
}
1001
GENIUS_GENOBJ-N-REC_13
1002
{
1000
OWNER
1000
GEN
1002
}
  0
ARC
  5
27E0
330
1F
100
AcDbEntity
  8
SANINDUSA
100
AcDbCircle
 10
7478.280801566921
 20
2025.185604666194
 30
0.0000000001479286
 40
0.001
100
AcDbArc
 50
0.0
 51
90.0
  0
LINE
  5
27E1
330
1F
100
AcDbEntity
  8
SANINDUSA
100
AcDbLine
 10
7478.281801566919
 20
2025.181604666194
 30
0.0000000001479286
 11
7478.281801566919
 21
2025.185604666194
 31
0.0000000001479286
  0
LINE
  5
27E2
330
1F
100
AcDbEntity
  8
SANINDUSA
100
AcDbLine
 10
7477.624301566919
 20
2025.180383982418
 30
0.0000000001479285
 11
7477.624301566919
 21
2025.179904670003
 31
0.0000000001479285
  0
LINE
  5
27E3
330
1F
100
AcDbEntity
  8
SANINDUSA
100
AcDbLine
 10
7477.621801566918
 20
2025.180335145011
 30
0.0000000001479285
 11
7477.621742343188
 21
2025.179939553619
 31
0.0000000001479285
  0
ARC
  5
27E4
330
1F
100
AcDbEntity
  8
SANINDUSA
100
AcDbCircle
 10
7477.623501566919
 20
2025.180383982418
 30
0.0000000001479285
 40
0.0008
100
AcDbArc
 50
0.0
 51
81.48552155217281
  0
ARC
  5
27E5
330
1F
100
AcDbEntity
  8
SANINDUSA
100
AcDbCircle
 10
7477.621055376824
 20
2025.178727911258
 30
0.0000000001479285
 40
0.0002
100
AcDbArc
 50
171.4855215631279
 51
351.4855215631279
  0
LINE
  5
27E6
330
1F
100
AcDbEntity
  8
SANINDUSA
100
AcDbLine
 10
7477.623957149122
 20
2025.174801363548
 30
0.0000000001479285
 11
7477.621742343188
 21
2025.174469786388
 31
0.0000000001479285
  0
ARC
  5
27E7
330
1F
100
AcDbEntity
  8
SANINDUSA
100
AcDbCircle
 10
7477.621055376824
 20
2025.175681428749
 30
0.0000000001479285
 40
0.0002
100
AcDbArc
 50
8.514478436872074
 51
188.514478436872
  0
LINE
  5
27E8
330
1F
100
AcDbEntity
  8
SANINDUSA
100
AcDbLine
 10
7477.621801566918
 20
2025.174074194995
 30
0.0000000001479285
 11
7477.621742343188
 21
2025.174469786388
 31
0.0000000001479285
  0
ARC
  5
27E9
330
1F
100
AcDbEntity
  8
SANINDUSA
100
AcDbCircle
 10
7477.624001566919
 20
2025.174504670003
 30
0.0000000001479285
 40
0.0003
100
AcDbArc
 50
0.0
 51
98.5144784478272
  0
ARC
  5
27EA
330
1F
100
AcDbEntity
  8
SANINDUSA
100
AcDbCircle
 10
7477.624001566919
 20
2025.179904670003
 30
0.0000000001479285
 40
0.0003
100
AcDbArc
 50
261.4855215521728
 51
0.0
  0
LINE
  5
27EB
330
1F
100
AcDbEntity
  8
SANINDUSA
100
AcDbLine
 10
7477.623957149122
 20
2025.179607976459
 30
0.0000000001479285
 11
7477.621742343188
 21
2025.179939553619
 31
0.0000000001479285
  0
LINE
  5
27EC
330
1F
100
AcDbEntity
  8
SANINDUSA
100
AcDbLine
 10
7477.621109281983
 20
2025.180438786541
 30
0.0000000001479285
 11
7477.620857581126
 21
2025.178757523123
 31
0.0000000001479285
  0
LINE
  5
27ED
330
1F
100
AcDbEntity
  8
SANINDUSA
100
AcDbLine
 10
7477.621504873375
 20
2025.18037956281
 30
0.0000000001479285
 11
7477.621253172519
 21
2025.178698299392
 31
0.0000000001479285
  0
LINE
  5
27EE
330
1F
100
AcDbEntity
  8
SANINDUSA
100
AcDbLine
 10
7477.618982978249
 20
2025.180757114094
 30
0.0000000001479285
 11
7477.618923754518
 21
2025.180361522702
 31
0.0000000001479285
  0
ARC
  5
27EF
330
1F
100
AcDbEntity
  8
SANINDUSA
100
AcDbCircle
 10
7477.612601566919
 20
2025.181004670003
 30
0.0000000001479285
 40
0.0003
100
AcDbArc
 50
81.48552155217281
 51
180.0
  0
ARC
  5
27F0
330
1F
100
AcDbEntity
  8
SANINDUSA
100
AcDbCircle
 10
7477.61334396775
 20
2025.181904670004
 30
0.0000000001479285
 40
0.0008
100
AcDbArc
 50
81.48552155217281
 51
90.0
  0
LINE
  5
27F1
330
1F
100
AcDbEntity
  8
SANINDUSA
100
AcDbLine
 10
7477.613801566919
 20
2025.181128362086
 30
0.0000000001479285
 11
7477.612645984717
 21
2025.181301363548
 31
0.0000000001479285
  0
LINE
  5
27F2
330
1F
100
AcDbEntity
  8
SANINDUSA
100
AcDbLine
 10
7477.613801566919
 20
2025.181128362086
 30
0.0000000001479285
 11
7477.613801566919
 21
2025.180304670003
 31
0.0000000001479285
  0
LINE
  5
27F3
330
1F
100
AcDbEntity
  8
SANINDUSA
100
AcDbLine
 10
7477.613801566919
 20
2025.180304670003
 30
0.0000000001479285
 11
7477.615001566919
 21
2025.180304670003
 31
0.0000000001479285
  0
LINE
  5
27F4
330
1F
100
AcDbEntity
  8
SANINDUSA
100
AcDbLine
 10
7477.615001566919
 20
2025.180948710863
 30
0.0000000001479285
 11
7477.615001566919
 21
2025.180304670003
 31
0.0000000001479285
  0
LINE
  5
27F5
330
1F
100
AcDbEntity
  8
SANINDUSA
100
AcDbLine
 10
7477.618923754518
 20
2025.180361522702
 30
0.0000000001479285
 11
7477.615001566919
 21
2025.180948710863
 31
0.0000000001479285
  0
LINE
  5
27F6
330
1F
100
AcDbEntity
  8
SANINDUSA
100
AcDbLine
 10
7477.613801566919
 20
2025.174104670004
 30
0.0000000001479285
 11
7477.615001566919
 21
2025.174104670004
 31
0.0000000001479285
  0
LINE
  5
27F7
330
1F
100
AcDbEntity
  8
SANINDUSA
100
AcDbLine
 10
7477.623620014381
 20
2025.181175165203
 30
0.0000000001479285
 11
7477.61346241521
 21
2025.182695852788
 31
0.0000000001479285
  0
LINE
  5
27F8
330
1F
100
AcDbEntity
  8
SANINDUSA
100
AcDbLine
 10
7477.621801566918
 20
2025.180335145011
 30
0.0000000001479285
 11
7477.618982978249
 21
2025.180757114094
 31
0.0000000001479285
  0
ARC
  5
27F9
330
1F
100
AcDbEntity
  8
SANINDUSA
100
AcDbCircle
 10
7477.623501566919
 20
2025.174025357589
 30
0.0000000001479285
 40
0.0008
100
AcDbArc
 50
278.5144784478272
 51
0.0
  0
LINE
  5
27FA
330
1F
100
AcDbEntity
  8
SANINDUSA
100
AcDbLine
 10
7477.618982978249
 20
2025.173652225913
 30
0.0000000001479285
 11
7477.618923754518
 21
2025.174047817305
 31
0.0000000001479285
  0
ARC
  5
27FB
330
1F
100
AcDbEntity
  8
SANINDUSA
100
AcDbCircle
 10
7477.612601566919
 20
2025.173404670003
 30
0.0000000001479285
 40
0.0003
100
AcDbArc
 50
180.0
 51
278.5144784478272
  0
ARC
  5
27FC
330
1F
100
AcDbEntity
  8
SANINDUSA
100
AcDbCircle
 10
7477.61334396775
 20
2025.172504670003
 30
0.0000000001479285
 40
0.0008
100
AcDbArc
 50
270.0
 51
278.5144784478272
  0
LINE
  5
27FD
330
1F
100
AcDbEntity
  8
SANINDUSA
100
AcDbLine
 10
7477.612645984717
 20
2025.173107976459
 30
0.0000000001479285
 11
7477.613801566919
 21
2025.173280977921
 31
0.0000000001479285
  0
LINE
  5
27FE
330
1F
100
AcDbEntity
  8
SANINDUSA
100
AcDbLine
 10
7477.618923754518
 20
2025.174047817305
 30
0.0000000001479285
 11
7477.615001566919
 21
2025.173460629143
 31
0.0000000001479285
  0
LINE
  5
27FF
330
1F
100
AcDbEntity
  8
SANINDUSA
100
AcDbLine
 10
7477.61346241521
 20
2025.171713487219
 30
0.0000000001479285
 11
7477.623620014381
 21
2025.173234174804
 31
0.0000000001479285
  0
LINE
  5
2800
330
1F
100
AcDbEntity
  8
SANINDUSA
100
AcDbLine
 10
7477.61230156692
 20
2025.181004670003
 30
0.0000000001479285
 11
7477.61230156692
 21
2025.173404670003
 31
0.0000000001479285
  0
LINE
  5
2801
330
1F
100
AcDbEntity
  8
SANINDUSA
100
AcDbLine
 10
7477.624301566919
 20
2025.174504670003
 30
0.0000000001479285
 11
7477.624301566919
 21
2025.174025357589
 31
0.0000000001479285
  0
LINE
  5
2802
330
1F
100
AcDbEntity
  8
SANINDUSA
100
AcDbLine
 10
7477.615001566919
 20
2025.174104670004
 30
0.0000000001479285
 11
7477.615001566919
 21
2025.173460629143
 31
0.0000000001479285
  0
LINE
  5
2803
330
1F
100
AcDbEntity
  8
SANINDUSA
100
AcDbLine
 10
7477.613801566919
 20
2025.174104670004
 30
0.0000000001479285
 11
7477.613801566919
 21
2025.173280977921
 31
0.0000000001479285
  0
LINE
  5
2804
330
1F
100
AcDbEntity
  8
SANINDUSA
100
AcDbLine
 10
7477.621801566918
 20
2025.174074194995
 30
0.0000000001479285
 11
7477.618982978249
 21
2025.173652225913
 31
0.0000000001479285
  0
LINE
  5
2805
330
1F
100
AcDbEntity
  8
SANINDUSA
100
AcDbLine
 10
7477.621504873375
 20
2025.174029777197
 30
0.0000000001479285
 11
7477.621253172519
 21
2025.175711040615
 31
0.0000000001479285
  0
LINE
  5
2806
330
1F
100
AcDbEntity
  8
SANINDUSA
100
AcDbLine
 10
7477.621109281983
 20
2025.173970553467
 30
0.0000000001479285
 11
7477.620857581126
 21
2025.175651816883
 31
0.0000000001479285
  0
LINE
  5
2807
330
1F
100
AcDbEntity
  8
SANINDUSA
100
AcDbLine
 10
7477.610801566919
 20
2025.182704670004
 30
0.0000000001479285
 11
7477.608544207607
 21
2025.182704670004
 31
0.0000000001479285
  0
ARC
  5
2808
330
1F
100
AcDbEntity
  8
SANINDUSA
100
AcDbCircle
 10
7477.609801566919
 20
2025.180704670003
 30
0.0000000001479285
 40
0.001
100
AcDbArc
 50
0.0
 51
90.0
  0
ARC
  5
2809
330
1F
100
AcDbEntity
  8
SANINDUSA
100
AcDbCircle
 10
7477.608531785818
 20
2025.181354648866
 30
0.0000000001479285
 40
0.00075
100
AcDbArc
 50
47.16775948445802
 51
90.19499109435139
  0
ARC
  5
280A
330
1F
100
AcDbEntity
  8
SANINDUSA
100
AcDbCircle
 10
7477.60955156692
 20
2025.182454670003
 30
0.0000000001479285
 40
0.00075
100
AcDbArc
 50
227.167759484458
 51
270.0
  0
LINE
  5
280B
330
1F
100
AcDbEntity
  8
SANINDUSA
100
AcDbLine
 10
7477.60955156692
 20
2025.181704670004
 30
0.0000000001479285
 11
7477.609801566919
 21
2025.181704670004
 31
0.0000000001479285
  0
LINE
  5
280C
330
1F
100
AcDbEntity
  8
SANINDUSA
100
AcDbLine
 10
7477.604886312594
 20
2025.180269314665
 30
0.0000000001479285
 11
7477.60543293777
 21
2025.180815939841
 31
0.0000000001479285
  0
ARC
  5
280D
330
1F
100
AcDbEntity
  8
SANINDUSA
100
AcDbCircle
 10
7477.604320627169
 20
2025.179774339917
 30
0.0000000001479285
 40
0.0002
100
AcDbArc
 50
45.0000000921187
 51
135.0000000736949
  0
ARC
  5
280E
330
1F
100
AcDbEntity
  8
SANINDUSA
100
AcDbCircle
 10
7477.608544207607
 20
2025.177704670003
 30
0.0000000001479285
 40
0.005
100
AcDbArc
 50
90.0
 51
135.0
  0
ARC
  5
280F
330
1F
100
AcDbEntity
  8
SANINDUSA
100
AcDbCircle
 10
7477.608544207607
 20
2025.177704670003
 30
0.0000000001479285
 40
0.0044
100
AcDbArc
 50
90.19499109435139
 51
135.0
  0
ARC
  5
2810
330
1F
100
AcDbEntity
  8
SANINDUSA
100
AcDbCircle
 10
7477.605487353357
 20
2025.178183349666
 30
0.0000000001479285
 40
0.00075
100
AcDbArc
 50
314.9999999815762
 51
45.0
  0
ARC
  5
2811
330
1F
100
AcDbEntity
  8
SANINDUSA
100
AcDbCircle
 10
7477.605487353357
 20
2025.178183349666
 30
0.0000000001479285
 40
0.0005
100
AcDbArc
 50
314.9999999815762
 51
45.0
  0
ARC
  5
2812
330
1F
100
AcDbEntity
  8
SANINDUSA
100
AcDbCircle
 10
7477.605098444628
 20
2025.18005718263
 30
0.0000000001479285
 40
0.0003
100
AcDbArc
 50
135.0
 51
225.0000001289662
  0
LINE
  5
2813
330
1F
100
AcDbEntity
  8
SANINDUSA
100
AcDbLine
 10
7477.60424991649
 20
2025.180481446698
 30
0.0000000001479285
 11
7477.606017683442
 21
2025.178713679753
 31
0.0000000001479285
  0
LINE
  5
2814
330
1F
100
AcDbEntity
  8
SANINDUSA
100
AcDbLine
 10
7477.604462048525
 20
2025.179915761273
 30
0.0000000001479285
 11
7477.605840906747
 21
2025.178536903057
 31
0.0000000001479285
  0
ARC
  5
2815
330
1F
100
AcDbEntity
  8
SANINDUSA
100
AcDbCircle
 10
7477.599724433087
 20
2025.174683171089
 30
0.0000000001479285
 40
0.0003
100
AcDbArc
 50
45.00000001842375
 51
135.0
  0
ARC
  5
2816
330
1F
100
AcDbEntity
  8
SANINDUSA
100
AcDbCircle
 10
7477.6000072758
 20
2025.175460988535
 30
0.0000000001479285
 40
0.0002
100
AcDbArc
 50
135.0000000736949
 51
225.0000002947798
  0
LINE
  5
2817
330
1F
100
AcDbEntity
  8
SANINDUSA
100
AcDbLine
 10
7477.599311617426
 20
2025.174694619497
 30
0.0000000001479285
 11
7477.599512301053
 21
2025.174895303123
 31
0.0000000001479285
  0
LINE
  5
2818
330
1F
100
AcDbEntity
  8
SANINDUSA
100
AcDbLine
 10
7477.598887353358
 20
2025.175118883566
 30
0.0000000001479285
 11
7477.6050086737
 21
2025.181240203909
 31
0.0000000001479285
  0
LINE
  5
2819
330
1F
100
AcDbEntity
  8
SANINDUSA
100
AcDbLine
 10
7477.599865854442
 20
2025.175602409891
 30
0.0000000001479285
 11
7477.604179205814
 21
2025.179915761273
 31
0.0000000001479285
  0
ARC
  5
281A
330
1F
100
AcDbEntity
  8
SANINDUSA
100
AcDbCircle
 10
7477.609801566919
 20
2025.173704670004
 30
0.0000000001479285
 40
0.001
100
AcDbArc
 50
270.0
 51
0.0
  0
ARC
  5
281B
330
1F
100
AcDbEntity
  8
SANINDUSA
100
AcDbCircle
 10
7477.604781763017
 20
2025.173054670003
 30
0.0000000001479285
 40
0.00075
100
AcDbArc
 50
270.0
 51
312.8334280650302
  0
ARC
  5
281C
330
1F
100
AcDbEntity
  8
SANINDUSA
100
AcDbCircle
 10
7477.60580156692
 20
2025.171954670003
 30
0.0000000001479285
 40
0.00075
100
AcDbArc
 50
90.0
 51
132.8334280650302
  0
LINE
  5
281D
330
1F
100
AcDbEntity
  8
SANINDUSA
100
AcDbLine
 10
7477.609801566919
 20
2025.172704670004
 30
0.0000000001479285
 11
7477.60580156692
 21
2025.172704670004
 31
0.0000000001479285
  0
ARC
  5
281E
330
1F
100
AcDbEntity
  8
SANINDUSA
100
AcDbCircle
 10
7477.601598266055
 20
2025.174294262363
 30
0.0000000001479285
 40
0.00075
100
AcDbArc
 50
225.0
 51
315.0
  0
ARC
  5
281F
330
1F
100
AcDbEntity
  8
SANINDUSA
100
AcDbCircle
 10
7477.601598266055
 20
2025.174294262363
 30
0.0000000001479285
 40
0.0005
100
AcDbArc
 50
225.0
 51
315.0
  0
LINE
  5
2820
330
1F
100
AcDbEntity
  8
SANINDUSA
100
AcDbLine
 10
7477.610801566919
 20
2025.171704670003
 30
0.0000000001479285
 11
7477.600301566919
 21
2025.171704670003
 31
0.0000000001479285
  0
LINE
  5
2821
330
1F
100
AcDbEntity
  8
SANINDUSA
100
AcDbLine
 10
7477.604781763017
 20
2025.172304670003
 30
0.0000000001479285
 11
7477.600301566919
 21
2025.172304670003
 31
0.0000000001479285
  0
ARC
  5
2822
330
1F
100
AcDbEntity
  8
SANINDUSA
100
AcDbCircle
 10
7477.600301566919
 20
2025.173704670004
 30
0.0000000001479285
 40
0.002
100
AcDbArc
 50
135.0
 51
270.0
  0
LINE
  5
2823
330
1F
100
AcDbEntity
  8
SANINDUSA
100
AcDbLine
 10
7477.60212859614
 20
2025.173763932277
 30
0.0000000001479285
 11
7477.606017683442
 21
2025.177653019581
 31
0.0000000001479285
  0
ARC
  5
2824
330
1F
100
AcDbEntity
  8
SANINDUSA
100
AcDbCircle
 10
7477.600301566919
 20
2025.173704670004
 30
0.0000000001479285
 40
0.0014
100
AcDbArc
 50
135.0
 51
270.0
  0
LINE
  5
2825
330
1F
100
AcDbEntity
  8
SANINDUSA
100
AcDbLine
 10
7477.599300169018
 20
2025.175531699226
 30
0.0000000001479285
 11
7477.601067935968
 21
2025.173763932277
 31
0.0000000001479285
  0
LINE
  5
2826
330
1F
100
AcDbEntity
  8
SANINDUSA
100
AcDbLine
 10
7477.610801566919
 20
2025.180704670003
 30
0.0000000001479285
 11
7477.610801566919
 21
2025.173704670004
 31
0.0000000001479285
  0
HATCH
  5
2827
330
1F
100
AcDbEntity
  8
SANINDUSA
100
AcDbHatch
 10
0.0
 20
0.0
 30
0.0000000001479285
210
0.0
220
0.0
230
1.0
  2
ANSI31
 70
     0
 71
     0
 91
        1
 92
        5
 93
        8
 72
     1
 10
7477.605840906746
 20
2025.178536903058
 11
7477.604462048525
 21
2025.179915761273
 72
     3
 10
7477.604320627169
 20
2025.179774339917
 11
0.0001414213562371
 21
0.0001414213562371
 40
1.0
 50
0.0000001129375338
 51
90.0000000749846
 73
     1
 72
     1
 10
7477.604179205814
 20
2025.179915761273
 11
7477.599865854442
 21
2025.175602409891
 72
     3
 10
7477.6000072758
 20
2025.175460988535
 11
0.0001414213562373
 21
0.0001414213562373
 40
1.0
 50
90.00000007452401
 51
180.0000003175331
 73
     1
 72
     1
 10
7477.599865854443
 20
2025.175319567178
 11
7477.601244712666
 21
2025.173940708971
 72
     3
 10
7477.601598266055
 20
2025.174294262363
 11
0.0003535533905931
 21
0.0003535533905931
 40
1.0
 50
180.0000003177358
 51
270.0000000130071
 73
     1
 72
     1
 10
7477.601951819446
 20
2025.173940708973
 11
7477.605840906747
 21
2025.177829796276
 72
     3
 10
7477.605487353357
 20
2025.178183349666
 11
-0.0003535533905931
 21
0.0003535533905931
 40
0.9999999999999998
 50
180.0000000130071
 51
270.0000001128639
 73
     1
 97
        0
 75
     0
 76
     1
 52
45.0
 41
0.00025
 77
     0
 78
     1
 53
90.0
 43
7477.336187032278
 44
2024.781932768614
 45
-0.00079375
 46
0.0
 79
     0
 47
0.0364805528584695
 98
        1
 10
7482.561814766561
 20
2023.07588312702
  0
LINE
  5
2828
330
1F
100
AcDbEntity
  8
SANINDUSA
100
AcDbLine
 10
7477.601951819446
 20
2025.173940708973
 30
0.0000000001479285
 11
7477.605840906746
 21
2025.177829796276
 31
0.0000000001479285
  0
LINE
  5
2829
330
1F
100
AcDbEntity
  8
SANINDUSA
100
AcDbLine
 10
7477.599865854443
 20
2025.175319567178
 30
0.0000000001479285
 11
7477.601244712665
 21
2025.173940708973
 31
0.0000000001479285
  0
LINE
  5
282A
330
1F
100
AcDbEntity
  8
SANINDUSA
100
AcDbLine
 10
7477.610801566919
 20
2025.182704670004
 30
0.0000000001479285
 11
7477.61334396775
 21
2025.182704670004
 31
0.0000000001479285
  0
LINE
  5
282B
330
1F
100
AcDbEntity
  8
SANINDUSA
100
AcDbLine
 10
7477.610801566919
 20
2025.171704670003
 30
0.0000000001479285
 11
7477.61334396775
 21
2025.171704670003
 31
0.0000000001479285
  0
LINE
  5
282C
330
1F
100
AcDbEntity
  8
SANINDUSA
100
AcDbLine
 10
7477.61230156692
 20
2025.180204670004
 30
0.0000000001479285
 11
7477.61230156692
 21
2025.174204670003
 31
0.0000000001479285
  0
LINE
  5
282D
330
1F
100
AcDbEntity
  8
SANINDUSA
100
AcDbLine
 10
7478.933301566918
 20
2025.180204666193
 30
0.0000000001479286
 11
7478.933301566918
 21
2025.174204666194
 31
0.000000000147481
  0
LINE
  5
282E
330
1F
100
AcDbEntity
  8
SANINDUSA
100
AcDbLine
 10
7478.933301566918
 20
2025.180204666193
 30
0.0000000001479286
 11
7478.215301566919
 21
2025.180204666193
 31
0.0000000001479286
  0
LINE
  5
282F
330
1F
100
AcDbEntity
  8
SANINDUSA
100
AcDbLine
 10
7478.933301566918
 20
2025.174204666194
 30
0.000000000147481
 11
7478.215301566919
 21
2025.174204666194
 31
0.0000000001479286
  0
LINE
  5
2830
330
1F
100
AcDbEntity
  8
SANINDUSA
100
AcDbLine
 10
7478.212301566919
 20
2025.180204670004
 30
0.0000000001479285
 11
7477.61230156692
 21
2025.180204670004
 31
0.0000000001479285
  0
ARC
  5
2831
330
1F
100
AcDbEntity
  8
SANINDUSA
100
AcDbCircle
 10
7477.608673135986
 20
2025.852409965381
 30
-0.0000000000076263
 40
0.0009999999999999
100
AcDbArc
 50
0.0
 51
90.0
  0
LINE
  5
2832
330
1F
100
AcDbEntity
  8
SANINDUSA
100
AcDbLine
 10
7477.609673135986
 20
2025.852409965381
 30
-0.0000000000076263
 11
7477.609673135986
 21
2025.817386661249
 31
-0.0000000000076263
  0
LINE
  5
2833
330
1F
100
AcDbEntity
  8
SANINDUSA
100
AcDbLine
 10
7477.607687349548
 20
2025.853409965381
 30
-0.0000000000076263
 11
7477.608673135986
 21
2025.853409965381
 31
-0.0000000000076263
  0
ARC
  5
2834
330
1F
100
AcDbEntity
  8
SANINDUSA
100
AcDbCircle
 10
7477.608673135986
 20
2025.817386661249
 30
-0.0000000000076263
 40
0.001
100
AcDbArc
 50
180.0
 51
0.0
  0
ARC
  5
2835
330
1F
100
AcDbEntity
  8
SANINDUSA
100
AcDbCircle
 10
7477.607687349548
 20
2025.852409965381
 30
-0.0000000000076263
 40
0.0010000000000003
100
AcDbArc
 50
90.0
 51
135.0
  0
LINE
  5
2836
330
1F
100
AcDbEntity
  8
SANINDUSA
100
AcDbLine
 10
7477.607673135985
 20
2025.817386661249
 30
-0.0000000000076263
 11
7477.607673135985
 21
2025.848909965381
 31
-0.0000000000076263
  0
LINE
  5
2837
330
1F
100
AcDbEntity
  8
SANINDUSA
100
AcDbLine
 10
7477.606066029204
 20
2025.8522028586
 30
-0.0000000000076263
 11
7477.606980242767
 21
2025.853117072162
 31
-0.0000000000076263
  0
ARC
  5
2838
330
1F
100
AcDbEntity
  8
SANINDUSA
100
AcDbCircle
 10
7477.606673135984
 20
2025.848909965381
 30
-0.0000000000076263
 40
0.001
100
AcDbArc
 50
0.0
 51
90.0
  0
ARC
  5
2839
330
1F
100
AcDbEntity
  8
SANINDUSA
100
AcDbCircle
 10
7477.605358922423
 20
2025.852909965381
 30
-0.0000000000076263
 40
0.0010000000000003
100
AcDbArc
 50
270.0
 51
315.0
  0
LINE
  5
283A
330
1F
100
AcDbEntity
  8
SANINDUSA
100
AcDbLine
 10
7477.606673135984
 20
2025.849909965381
 30
-0.0000000000076263
 11
7477.588813949708
 21
2025.849909965381
 31
-0.0000000000076263
  0
LINE
  5
283B
330
1F
100
AcDbEntity
  8
SANINDUSA
100
AcDbLine
 10
7477.601983796157
 20
2025.851909965381
 30
-0.0000000000076263
 11
7477.605358922423
 21
2025.851909965381
 31
-0.0000000000076263
  0
ARC
  5
283C
330
1F
100
AcDbEntity
  8
SANINDUSA
100
AcDbCircle
 10
7477.588813949708
 20
2025.848909965381
 30
-0.0000000000076263
 40
0.001
100
AcDbArc
 50
90.0
 51
182.149457928144
  0
ARC
  5
283D
330
1F
100
AcDbEntity
  8
SANINDUSA
100
AcDbCircle
 10
7477.601983796157
 20
2025.851659965381
 30
-0.0000000000076263
 40
0.0002500000000003
100
AcDbArc
 50
90.0
 51
135.0
  0
ARC
  5
283E
330
1F
100
AcDbEntity
  8
SANINDUSA
100
AcDbCircle
 10
7477.684466695631
 20
2025.852500073819
 30
-0.0000000000076263
 40
0.0967200954923435
100
AcDbArc
 50
182.149457928144
 51
195.5601696455738
  0
LINE
  5
283F
330
1F
100
AcDbEntity
  8
SANINDUSA
100
AcDbLine
 10
7477.601326689375
 20
2025.85135641199
 30
-0.0000000000076263
 11
7477.60180701946
 21
2025.851836742076
 31
-0.0000000000076263
  0
ARC
  5
2840
330
1F
100
AcDbEntity
  8
SANINDUSA
100
AcDbCircle
 10
7477.591773135985
 20
2025.826689014621
 30
-0.0000000000076263
 40
0.0005
100
AcDbArc
 50
195.5601696455738
 51
0.0
  0
ARC
  5
2841
330
1F
100
AcDbEntity
  8
SANINDUSA
100
AcDbCircle
 10
7477.600973135984
 20
2025.851709965381
 30
-0.0000000000076263
 40
0.0005
100
AcDbArc
 50
225.0
 51
315.0
  0
LINE
  5
2842
330
1F
100
AcDbEntity
  8
SANINDUSA
100
AcDbLine
 10
7477.592273135986
 20
2025.826689014621
 30
-0.0000000000076263
 11
7477.592273135986
 21
2025.839386661249
 31
-0.0000000000076263
  0
LINE
  5
2843
330
1F
100
AcDbEntity
  8
SANINDUSA
100
AcDbLine
 10
7477.600139252508
 20
2025.851836742076
 30
-0.0000000000076263
 11
7477.600619582595
 21
2025.85135641199
 31
-0.0000000000076263
  0
ARC
  5
2844
330
1F
100
AcDbEntity
  8
SANINDUSA
100
AcDbCircle
 10
7477.593273135986
 20
2025.839386661249
 30
-0.0000000000076263
 40
0.001
100
AcDbArc
 50
0.0
 51
180.0
  0
ARC
  5
2845
330
1F
100
AcDbEntity
  8
SANINDUSA
100
AcDbCircle
 10
7477.599962475813
 20
2025.851659965381
 30
-0.0000000000076263
 40
0.00025
100
AcDbArc
 50
45.0
 51
90.0
  0
LINE
  5
2846
330
1F
100
AcDbEntity
  8
SANINDUSA
100
AcDbLine
 10
7477.594273135986
 20
2025.839386661249
 30
-0.0000000000076263
 11
7477.594273135986
 21
2025.817386661249
 31
-0.0000000000076263
  0
LINE
  5
2847
330
1F
100
AcDbEntity
  8
SANINDUSA
100
AcDbLine
 10
7477.589773112324
 20
2025.851909965381
 30
-0.0000000000076263
 11
7477.599962475813
 21
2025.851909965381
 31
-0.0000000000076263
  0
ARC
  5
2848
330
1F
100
AcDbEntity
  8
SANINDUSA
100
AcDbCircle
 10
7477.593273135986
 20
2025.817386661249
 30
-0.0000000000076263
 40
0.001
100
AcDbArc
 50
201.0588352563526
 51
0.0
  0
ARC
  5
2849
330
1F
100
AcDbEntity
  8
SANINDUSA
100
AcDbCircle
 10
7477.589773112324
 20
2025.852909965381
 30
-0.0000000000076263
 40
0.0010000000000003
100
AcDbArc
 50
224.9106959474017
 51
270.0
  0
ARC
  5
284A
330
1F
100
AcDbEntity
  8
SANINDUSA
100
AcDbCircle
 10
7477.684466695631
 20
2025.852500073819
 30
-0.0000000000076263
 40
0.0987200954923432
100
AcDbArc
 50
180.0522365954107
 51
201.0588352563526
  0
LINE
  5
284B
330
1F
100
AcDbEntity
  8
SANINDUSA
100
AcDbLine
 10
7477.588161286405
 20
2025.853110400701
 30
-0.0000000000076263
 11
7477.589064904271
 21
2025.85220396159
 31
-0.0000000000076263
  0
ARC
  5
284C
330
1F
100
AcDbEntity
  8
SANINDUSA
100
AcDbCircle
 10
7477.58674664075
 20
2025.852410982362
 30
-0.0000000000076263
 40
0.001
100
AcDbArc
 50
89.46590088281475
 51
180.0522365954107
  0
ARC
  5
284D
330
1F
100
AcDbEntity
  8
SANINDUSA
100
AcDbCircle
 10
7477.587453078353
 20
2025.85240439691
 30
-0.0000000000076263
 40
0.0010000000000003
100
AcDbArc
 50
44.91069594740168
 51
89.46590088281475
  0
LINE
  5
284E
330
1F
100
AcDbEntity
  8
SANINDUSA
100
AcDbLine
 10
7477.586755962403
 20
2025.853410938915
 30
-0.0000000000076263
 11
7477.587462400006
 21
2025.853404353462
 31
-0.0000000000076263
  0
LINE
  5
284F
330
1F
100
AcDbEntity
  8
SANINDUSA
100
AcDbLine
 10
7477.604973135986
 20
2025.803784738089
 30
-0.0000000000076263
 11
7477.604973135986
 21
2025.80647335124
 31
-0.0000000000076263
  0
ARC
  5
2850
330
1F
100
AcDbEntity
  8
SANINDUSA
100
AcDbCircle
 10
7477.604473135986
 20
2025.80647335124
 30
-0.0000000000076263
 40
0.0005
100
AcDbArc
 50
0.0
 51
70.52877936198294
  0
ARC
  5
2851
330
1F
100
AcDbEntity
  8
SANINDUSA
100
AcDbCircle
 10
7477.604473135986
 20
2025.803784738089
 30
-0.0000000000076263
 40
0.0005000000000001
100
AcDbArc
 50
293.578178475087
 51
0.0
  0
ARC
  5
2852
330
1F
100
AcDbEntity
  8
SANINDUSA
100
AcDbCircle
 10
7477.604973135986
 20
2025.807887564802
 30
-0.0000000000076263
 40
0.001
100
AcDbArc
 50
109.471220638017
 51
250.528779361983
  0
ARC
  5
2853
330
1F
100
AcDbEntity
  8
SANINDUSA
100
AcDbCircle
 10
7477.605073135986
 20
2025.802409965381
 30
-0.0000000000076263
 40
0.0009999999999999
100
AcDbArc
 50
113.578178475087
 51
270.0
  0
ARC
  5
2854
330
1F
100
AcDbEntity
  8
SANINDUSA
100
AcDbCircle
 10
7477.604473135986
 20
2025.809301778364
 30
-0.0000000000076263
 40
0.0004999999999999
100
AcDbArc
 50
289.471220638017
 51
0.0
  0
LINE
  5
2855
330
1F
100
AcDbEntity
  8
SANINDUSA
100
AcDbLine
 10
7477.605073135986
 20
2025.801409965381
 30
-0.0000000000076263
 11
7477.605973135985
 21
2025.801409965381
 31
-0.0000000000076263
  0
LINE
  5
2856
330
1F
100
AcDbEntity
  8
SANINDUSA
100
AcDbLine
 10
7477.604973135986
 20
2025.809301778364
 30
-0.0000000000076263
 11
7477.604973135986
 21
2025.810887941621
 31
-0.0000000000076263
  0
ARC
  5
2857
330
1F
100
AcDbEntity
  8
SANINDUSA
100
AcDbCircle
 10
7477.605973135985
 20
2025.802409965381
 30
-0.0000000000076263
 40
0.0009999999999999
100
AcDbArc
 50
270.0
 51
0.0
  0
ARC
  5
2858
330
1F
100
AcDbEntity
  8
SANINDUSA
100
AcDbCircle
 10
7477.604473135986
 20
2025.810887941621
 30
-0.0000000000076263
 40
0.0005
100
AcDbArc
 50
0.0
 51
90.0
  0
LINE
  5
2859
330
1F
100
AcDbEntity
  8
SANINDUSA
100
AcDbLine
 10
7477.606973135985
 20
2025.802409965381
 30
-0.0000000000076263
 11
7477.606973135985
 21
2025.833909965381
 31
-0.0000000000076263
  0
LINE
  5
285A
330
1F
100
AcDbEntity
  8
SANINDUSA
100
AcDbLine
 10
7477.604473135986
 20
2025.811387941621
 30
-0.0000000000076263
 11
7477.597473135985
 21
2025.811387941621
 31
-0.0000000000076263
  0
ARC
  5
285B
330
1F
100
AcDbEntity
  8
SANINDUSA
100
AcDbCircle
 10
7477.605973135985
 20
2025.833909965381
 30
-0.0000000000076263
 40
0.001
100
AcDbArc
 50
0.0
 51
180.0
  0
ARC
  5
285C
330
1F
100
AcDbEntity
  8
SANINDUSA
100
AcDbCircle
 10
7477.597473135985
 20
2025.810887941621
 30
-0.0000000000076263
 40
0.0005
100
AcDbArc
 50
90.0
 51
180.0
  0
LINE
  5
285D
330
1F
100
AcDbEntity
  8
SANINDUSA
100
AcDbLine
 10
7477.604973135986
 20
2025.833909965381
 30
-0.0000000000076263
 11
7477.604973135986
 21
2025.813887941621
 31
-0.0000000000076263
  0
LINE
  5
285E
330
1F
100
AcDbEntity
  8
SANINDUSA
100
AcDbLine
 10
7477.596973135985
 20
2025.810887941621
 30
-0.0000000000076263
 11
7477.596973135985
 21
2025.809301778364
 31
-0.0000000000076263
  0
ARC
  5
285F
330
1F
100
AcDbEntity
  8
SANINDUSA
100
AcDbCircle
 10
7477.604473135986
 20
2025.813887941621
 30
-0.0000000000076263
 40
0.0005000000000001
100
AcDbArc
 50
270.0
 51
0.0
  0
ARC
  5
2860
330
1F
100
AcDbEntity
  8
SANINDUSA
100
AcDbCircle
 10
7477.597473135985
 20
2025.809301778364
 30
-0.0000000000076263
 40
0.0005
100
AcDbArc
 50
180.0
 51
250.528779361983
  0
LINE
  5
2861
330
1F
100
AcDbEntity
  8
SANINDUSA
100
AcDbLine
 10
7477.604473135986
 20
2025.813387941621
 30
-0.0000000000076263
 11
7477.597473135985
 21
2025.813387941621
 31
-0.0000000000076263
  0
ARC
  5
2862
330
1F
100
AcDbEntity
  8
SANINDUSA
100
AcDbCircle
 10
7477.596973135985
 20
2025.807887564802
 30
-0.0000000000076263
 40
0.001
100
AcDbArc
 50
289.471220638017
 51
70.52877936198294
  0
ARC
  5
2863
330
1F
100
AcDbEntity
  8
SANINDUSA
100
AcDbCircle
 10
7477.597473135985
 20
2025.813887941621
 30
-0.0000000000076263
 40
0.0005000000000001
100
AcDbArc
 50
180.0
 51
270.0
  0
ARC
  5
2864
330
1F
100
AcDbEntity
  8
SANINDUSA
100
AcDbCircle
 10
7477.597473135985
 20
2025.80647335124
 30
-0.0000000000076263
 40
0.0005
100
AcDbArc
 50
109.471220638017
 51
180.0
  0
LINE
  5
2865
330
1F
100
AcDbEntity
  8
SANINDUSA
100
AcDbLine
 10
7477.596973135985
 20
2025.813887941621
 30
-0.0000000000076263
 11
7477.596973135985
 21
2025.833909965381
 31
-0.0000000000076263
  0
LINE
  5
2866
330
1F
100
AcDbEntity
  8
SANINDUSA
100
AcDbLine
 10
7477.596973135985
 20
2025.80647335124
 30
-0.0000000000076263
 11
7477.596973135985
 21
2025.803784738089
 31
-0.0000000000076263
  0
ARC
  5
2867
330
1F
100
AcDbEntity
  8
SANINDUSA
100
AcDbCircle
 10
7477.595973135986
 20
2025.833909965381
 30
-0.0000000000076263
 40
0.001
100
AcDbArc
 50
0.0
 51
180.0
  0
ARC
  5
2868
330
1F
100
AcDbEntity
  8
SANINDUSA
100
AcDbCircle
 10
7477.597473135985
 20
2025.803784738089
 30
-0.0000000000076263
 40
0.0005000000000001
100
AcDbArc
 50
180.0
 51
246.4218215249129
  0
LINE
  5
2869
330
1F
100
AcDbEntity
  8
SANINDUSA
100
AcDbLine
 10
7477.594973135985
 20
2025.833909965381
 30
-0.0000000000076263
 11
7477.594973135985
 21
2025.802409965381
 31
-0.0000000000076263
  0
ARC
  5
286A
330
1F
100
AcDbEntity
  8
SANINDUSA
100
AcDbCircle
 10
7477.596873135985
 20
2025.802409965381
 30
-0.0000000000076263
 40
0.0009999999999999
100
AcDbArc
 50
270.0
 51
66.42182152491294
  0
ARC
  5
286B
330
1F
100
AcDbEntity
  8
SANINDUSA
100
AcDbCircle
 10
7477.595973135986
 20
2025.802409965381
 30
-0.0000000000076263
 40
0.0010000000000001
100
AcDbArc
 50
180.0
 51
270.0
  0
LINE
  5
286C
330
1F
100
AcDbEntity
  8
SANINDUSA
100
AcDbLine
 10
7477.595973135986
 20
2025.801409965381
 30
-0.0000000000076263
 11
7477.596873135985
 21
2025.801409965381
 31
-0.0000000000076263
  0
LINE
  5
286D
330
1F
100
AcDbEntity
  8
SANINDUSA
100
AcDbLine
 10
7477.58574664075
 20
2025.855759965381
 30
-0.0000000000076263
 11
7477.609673135986
 21
2025.855759965381
 31
-0.0000000000076263
  0
LINE
  5
286E
330
1F
100
AcDbEntity
  8
SANINDUSA
100
AcDbLine
 10
7477.609673135986
 20
2025.854759965381
 30
-0.0000000000076263
 11
7477.609673135986
 21
2025.855759965381
 31
-0.0000000000076263
  0
LINE
  5
286F
330
1F
100
AcDbEntity
  8
SANINDUSA
100
AcDbLine
 10
7477.58574664075
 20
2025.855759965381
 30
-0.0000000000076263
 11
7477.58574664075
 21
2025.854761084469
 31
-0.0000000000076263
  0
ARC
  5
2870
330
1F
100
AcDbEntity
  8
SANINDUSA
100
AcDbCircle
 10
7477.608673135986
 20
2025.854759965381
 30
-0.0000000000076263
 40
0.0009999999999999
100
AcDbArc
 50
270.0
 51
0.0
  0
ARC
  5
2871
330
1F
100
AcDbEntity
  8
SANINDUSA
100
AcDbCircle
 10
7477.58674664075
 20
2025.854761084469
 30
-0.0000000000076263
 40
0.0009999999999999
100
AcDbArc
 50
180.0
 51
269.4659008828148
  0
LINE
  5
2872
330
1F
100
AcDbEntity
  8
SANINDUSA
100
AcDbLine
 10
7477.607687349548
 20
2025.853759965381
 30
-0.0000000000076263
 11
7477.608673135986
 21
2025.853759965381
 31
-0.0000000000076263
  0
LINE
  5
2873
330
1F
100
AcDbEntity
  8
SANINDUSA
100
AcDbLine
 10
7477.586737319096
 20
2025.853761127916
 30
-0.0000000000076263
 11
7477.587465662584
 21
2025.853754338256
 31
-0.0000000000076263
  0
ARC
  5
2874
330
1F
100
AcDbEntity
  8
SANINDUSA
100
AcDbCircle
 10
7477.607687349548
 20
2025.852409965381
 30
-0.0000000000076263
 40
0.0013499999999998
100
AcDbArc
 50
90.0
 51
135.0
  0
ARC
  5
2875
330
1F
100
AcDbEntity
  8
SANINDUSA
100
AcDbCircle
 10
7477.587453078353
 20
2025.85240439691
 30
-0.0000000000076263
 40
0.00135
100
AcDbArc
 50
44.91069594740168
 51
89.46590088281475
  0
LINE
  5
2876
330
1F
100
AcDbEntity
  8
SANINDUSA
100
AcDbLine
 10
7477.605818541831
 20
2025.852450345973
 30
-0.0000000000076263
 11
7477.606732755393
 21
2025.853364559536
 31
-0.0000000000076263
  0
LINE
  5
2877
330
1F
100
AcDbEntity
  8
SANINDUSA
100
AcDbLine
 10
7477.588409159226
 20
2025.853357502028
 30
-0.0000000000076263
 11
7477.589312777088
 21
2025.852451062917
 31
-0.0000000000076263
  0
ARC
  5
2878
330
1F
100
AcDbEntity
  8
SANINDUSA
100
AcDbCircle
 10
7477.605358922423
 20
2025.852909965381
 30
-0.0000000000076263
 40
0.0006500000000003
100
AcDbArc
 50
270.0
 51
315.0
  0
ARC
  5
2879
330
1F
100
AcDbEntity
  8
SANINDUSA
100
AcDbCircle
 10
7477.589773112324
 20
2025.852909965381
 30
-0.0000000000076263
 40
0.0006500000000003
100
AcDbArc
 50
224.9106959474017
 51
270.0
  0
LINE
  5
287A
330
1F
100
AcDbEntity
  8
SANINDUSA
100
AcDbLine
 10
7477.589773112324
 20
2025.852259965381
 30
-0.0000000000076263
 11
7477.605358922423
 21
2025.852259965381
 31
-0.0000000000076263
  0
LINE
  5
287B
330
1F
100
AcDbEntity
  8
SANINDUSA
100
AcDbLine
 10
7477.874307208542
 20
2025.833509965381
 30
0.0
 11
7477.874307208542
 21
2025.850759965381
 31
0.0
  0
LINE
  5
287C
330
1F
100
AcDbEntity
  8
SANINDUSA
100
AcDbLine
 10
7477.856307208542
 20
2025.833509965381
 30
0.0
 11
7477.856307208542
 21
2025.850759965381
 31
0.0
  0
CIRCLE
  5
287D
330
1F
100
AcDbEntity
  8
SANINDUSA
100
AcDbCircle
 10
7477.865307208542
 20
2025.833509965381
 30
0.0
 40
0.005085
  0
LINE
  5
287E
330
1F
100
AcDbEntity
  8
SANINDUSA
100
AcDbLine
 10
7477.858589694121
 20
2025.81547874246
 30
0.0
 11
7477.863539441589
 21
2025.820428489929
 31
0.0
  0
LINE
  5
287F
330
1F
100
AcDbEntity
  8
SANINDUSA
100
AcDbLine
 10
7477.852225733089
 20
2025.831742198428
 30
0.0
 11
7477.863539441589
 21
2025.820428489929
 31
0.0
  0
ARC
  5
2880
330
1F
100
AcDbEntity
  8
SANINDUSA
100
AcDbCircle
 10
7477.865307208542
 20
2025.833509965381
 30
0.0
 40
0.009
100
AcDbArc
 50
180.0
 51
0.0
  0
LINE
  5
2881
330
1F
100
AcDbEntity
  8
SANINDUSA
100
AcDbLine
 10
7477.847275985621
 20
2025.82679245096
 30
0.0
 11
7477.858589694121
 21
2025.81547874246
 31
0.0
  0
LINE
  5
2882
330
1F
100
AcDbEntity
  8
SANINDUSA
100
AcDbLine
 10
7477.852225733089
 20
2025.831742198428
 30
0.0
 11
7477.856307208542
 21
2025.83582367388
 31
0.0
  0
LINE
  5
2883
330
1F
100
AcDbEntity
  8
SANINDUSA
100
AcDbLine
 10
7477.847275985621
 20
2025.82679245096
 30
0.0
 11
7477.852225733089
 21
2025.831742198428
 31
0.0
  0
LINE
  5
2884
330
1F
100
AcDbEntity
  8
SANINDUSA
100
AcDbLine
 10
7477.867407315682
 20
2025.831409858241
 30
0.0
 11
7477.866426155358
 21
2025.832870965381
 31
0.0
  0
LINE
  5
2885
330
1F
100
AcDbEntity
  8
SANINDUSA
100
AcDbLine
 10
7477.867407315682
 20
2025.831409858241
 30
0.0
 11
7477.865946208542
 21
2025.832870965381
 31
0.0
  0
LINE
  5
2886
330
1F
100
AcDbEntity
  8
SANINDUSA
100
AcDbLine
 10
7477.865946208542
 20
2025.832391018564
 30
0.0
 11
7477.867407315682
 21
2025.831409858241
 31
0.0
  0
LINE
  5
2887
330
1F
100
AcDbEntity
  8
SANINDUSA
100
AcDbLine
 10
7477.867407315682
 20
2025.835610072521
 30
0.0
 11
7477.865946208542
 21
2025.834628912198
 31
0.0
  0
LINE
  5
2888
330
1F
100
AcDbEntity
  8
SANINDUSA
100
AcDbLine
 10
7477.867407315682
 20
2025.835610072521
 30
0.0
 11
7477.865946208542
 21
2025.834148965381
 31
0.0
  0
LINE
  5
2889
330
1F
100
AcDbEntity
  8
SANINDUSA
100
AcDbLine
 10
7477.866426155358
 20
2025.834148965381
 30
0.0
 11
7477.867407315682
 21
2025.835610072521
 31
0.0
  0
LINE
  5
288A
330
1F
100
AcDbEntity
  8
SANINDUSA
100
AcDbLine
 10
7477.866426155358
 20
2025.832870965381
 30
0.0
 11
7477.868277208542
 21
2025.832870965381
 31
0.0
  0
LINE
  5
288B
330
1F
100
AcDbEntity
  8
SANINDUSA
100
AcDbLine
 10
7477.868277208542
 20
2025.834148965381
 30
0.0
 11
7477.866426155358
 21
2025.834148965381
 31
0.0
  0
LINE
  5
288C
330
1F
100
AcDbEntity
  8
SANINDUSA
100
AcDbLine
 10
7477.863207101401
 20
2025.835610072521
 30
0.0
 11
7477.864188261723
 21
2025.834148965381
 31
0.0
  0
LINE
  5
288D
330
1F
100
AcDbEntity
  8
SANINDUSA
100
AcDbLine
 10
7477.863207101401
 20
2025.835610072521
 30
0.0
 11
7477.864668208543
 21
2025.834148965381
 31
0.0
  0
LINE
  5
288E
330
1F
100
AcDbEntity
  8
SANINDUSA
100
AcDbLine
 10
7477.864188261723
 20
2025.834148965381
 30
0.0
 11
7477.864668208543
 21
2025.834148965381
 31
0.0
  0
LINE
  5
288F
330
1F
100
AcDbEntity
  8
SANINDUSA
100
AcDbLine
 10
7477.864668208543
 20
2025.834628912198
 30
0.0
 11
7477.863207101401
 21
2025.835610072521
 31
0.0
  0
LINE
  5
2890
330
1F
100
AcDbEntity
  8
SANINDUSA
100
AcDbLine
 10
7477.864668208543
 20
2025.834148965381
 30
0.0
 11
7477.864668208543
 21
2025.834628912198
 31
0.0
  0
LINE
  5
2891
330
1F
100
AcDbEntity
  8
SANINDUSA
100
AcDbLine
 10
7477.866426155358
 20
2025.832870965381
 30
0.0
 11
7477.865946208542
 21
2025.832870965381
 31
0.0
  0
LINE
  5
2892
330
1F
100
AcDbEntity
  8
SANINDUSA
100
AcDbLine
 10
7477.865946208542
 20
2025.832870965381
 30
0.0
 11
7477.865946208542
 21
2025.832391018564
 31
0.0
  0
LINE
  5
2893
330
1F
100
AcDbEntity
  8
SANINDUSA
100
AcDbLine
 10
7477.865946208542
 20
2025.834628912198
 30
0.0
 11
7477.865946208542
 21
2025.834148965381
 31
0.0
  0
LINE
  5
2894
330
1F
100
AcDbEntity
  8
SANINDUSA
100
AcDbLine
 10
7477.865946208542
 20
2025.834148965381
 30
0.0
 11
7477.866426155358
 21
2025.834148965381
 31
0.0
  0
LINE
  5
2895
330
1F
100
AcDbEntity
  8
SANINDUSA
100
AcDbLine
 10
7477.863207101401
 20
2025.831409858241
 30
0.0
 11
7477.864668208543
 21
2025.832391018564
 31
0.0
  0
LINE
  5
2896
330
1F
100
AcDbEntity
  8
SANINDUSA
100
AcDbLine
 10
7477.863207101401
 20
2025.831409858241
 30
0.0
 11
7477.864668208543
 21
2025.832870965381
 31
0.0
  0
LINE
  5
2897
330
1F
100
AcDbEntity
  8
SANINDUSA
100
AcDbLine
 10
7477.864668208543
 20
2025.832391018564
 30
0.0
 11
7477.864668208543
 21
2025.832870965381
 31
0.0
  0
LINE
  5
2898
330
1F
100
AcDbEntity
  8
SANINDUSA
100
AcDbLine
 10
7477.864188261723
 20
2025.832870965381
 30
0.0
 11
7477.863207101401
 21
2025.831409858241
 31
0.0
  0
LINE
  5
2899
330
1F
100
AcDbEntity
  8
SANINDUSA
100
AcDbLine
 10
7477.864668208543
 20
2025.832870965381
 30
0.0
 11
7477.864188261723
 21
2025.832870965381
 31
0.0
  0
LINE
  5
289A
330
1F
100
AcDbEntity
  8
SANINDUSA
100
AcDbLine
 10
7477.864188261723
 20
2025.834148965381
 30
0.0
 11
7477.862337208541
 21
2025.834148965381
 31
0.0
  0
LINE
  5
289B
330
1F
100
AcDbEntity
  8
SANINDUSA
100
AcDbLine
 10
7477.865946208542
 20
2025.834628912198
 30
0.0
 11
7477.865946208542
 21
2025.836479965381
 31
0.0
  0
LINE
  5
289C
330
1F
100
AcDbEntity
  8
SANINDUSA
100
AcDbLine
 10
7477.864668208543
 20
2025.832391018564
 30
0.0
 11
7477.864668208543
 21
2025.830539965381
 31
0.0
  0
LINE
  5
289D
330
1F
100
AcDbEntity
  8
SANINDUSA
100
AcDbLine
 10
7477.865946208542
 20
2025.834148965381
 30
0.0
 11
7477.864668208543
 21
2025.834148965381
 31
0.0
  0
LINE
  5
289E
330
1F
100
AcDbEntity
  8
SANINDUSA
100
AcDbLine
 10
7477.864668208543
 20
2025.832870965381
 30
0.0
 11
7477.865946208542
 21
2025.832870965381
 31
0.0
  0
LINE
  5
289F
330
1F
100
AcDbEntity
  8
SANINDUSA
100
AcDbLine
 10
7477.862337208541
 20
2025.832870965381
 30
0.0
 11
7477.864188261723
 21
2025.832870965381
 31
0.0
  0
LINE
  5
28A0
330
1F
100
AcDbEntity
  8
SANINDUSA
100
AcDbLine
 10
7477.865307208542
 20
2025.833509965381
 30
0.0
 11
7477.865946208542
 21
2025.834148965381
 31
0.0
  0
LINE
  5
28A1
330
1F
100
AcDbEntity
  8
SANINDUSA
100
AcDbLine
 10
7477.865307208542
 20
2025.834148965381
 30
0.0
 11
7477.865307208542
 21
2025.833509965381
 31
0.0
  0
LINE
  5
28A2
330
1F
100
AcDbEntity
  8
SANINDUSA
100
AcDbLine
 10
7477.865946208542
 20
2025.834148965381
 30
0.0
 11
7477.865946208542
 21
2025.832870965381
 31
0.0
  0
LINE
  5
28A3
330
1F
100
AcDbEntity
  8
SANINDUSA
100
AcDbLine
 10
7477.865946208542
 20
2025.832870965381
 30
0.0
 11
7477.865307208542
 21
2025.833509965381
 31
0.0
  0
LINE
  5
28A4
330
1F
100
AcDbEntity
  8
SANINDUSA
100
AcDbLine
 10
7477.865307208542
 20
2025.833509965381
 30
0.0
 11
7477.865307208542
 21
2025.832870965381
 31
0.0
  0
LINE
  5
28A5
330
1F
100
AcDbEntity
  8
SANINDUSA
100
AcDbLine
 10
7477.864668208543
 20
2025.834148965381
 30
0.0
 11
7477.865307208542
 21
2025.833509965381
 31
0.0
  0
LINE
  5
28A6
330
1F
100
AcDbEntity
  8
SANINDUSA
100
AcDbLine
 10
7477.865307208542
 20
2025.833509965381
 30
0.0
 11
7477.864668208543
 21
2025.832870965381
 31
0.0
  0
LINE
  5
28A7
330
1F
100
AcDbEntity
  8
SANINDUSA
100
AcDbLine
 10
7477.862337208541
 20
2025.834148965381
 30
0.0
 11
7477.862337208541
 21
2025.832870965381
 31
0.0
  0
LINE
  5
28A8
330
1F
100
AcDbEntity
  8
SANINDUSA
100
AcDbLine
 10
7477.864668208543
 20
2025.832870965381
 30
0.0
 11
7477.864668208543
 21
2025.834148965381
 31
0.0
  0
LINE
  5
28A9
330
1F
100
AcDbEntity
  8
SANINDUSA
100
AcDbLine
 10
7477.865946208542
 20
2025.830539965381
 30
0.0
 11
7477.865946208542
 21
2025.832391018564
 31
0.0
  0
LINE
  5
28AA
330
1F
100
AcDbEntity
  8
SANINDUSA
100
AcDbLine
 10
7477.865307208542
 20
2025.833509965381
 30
0.0
 11
7477.864668208543
 21
2025.833509965381
 31
0.0
  0
LINE
  5
28AB
330
1F
100
AcDbEntity
  8
SANINDUSA
100
AcDbLine
 10
7477.864668208543
 20
2025.830539965381
 30
0.0
 11
7477.865946208542
 21
2025.830539965381
 31
0.0
  0
LINE
  5
28AC
330
1F
100
AcDbEntity
  8
SANINDUSA
100
AcDbLine
 10
7477.865946208542
 20
2025.833509965381
 30
0.0
 11
7477.865307208542
 21
2025.833509965381
 31
0.0
  0
LINE
  5
28AD
330
1F
100
AcDbEntity
  8
SANINDUSA
100
AcDbLine
 10
7477.864668208543
 20
2025.836479965381
 30
0.0
 11
7477.864668208543
 21
2025.834628912198
 31
0.0
  0
LINE
  5
28AE
330
1F
100
AcDbEntity
  8
SANINDUSA
100
AcDbLine
 10
7477.865946208542
 20
2025.836479965381
 30
0.0
 11
7477.864668208543
 21
2025.836479965381
 31
0.0
  0
LINE
  5
28AF
330
1F
100
AcDbEntity
  8
SANINDUSA
100
AcDbLine
 10
7477.868277208542
 20
2025.832870965381
 30
0.0
 11
7477.868277208542
 21
2025.834148965381
 31
0.0
  0
LINE
  5
28B0
330
1F
100
AcDbEntity
  8
SANINDUSA
100
AcDbLine
 10
7477.863539441589
 20
2025.820428489929
 30
0.0
 11
7477.868048586843
 21
2025.824937635184
 31
0.0
  0
LINE
  5
28B1
330
1F
100
AcDbEntity
  8
SANINDUSA
100
AcDbLine
 10
7477.850307208541
 20
2025.855759965381
 30
0.0
 11
7477.880307208541
 21
2025.855759965381
 31
0.0
  0
LINE
  5
28B2
330
1F
100
AcDbEntity
  8
SANINDUSA
100
AcDbLine
 10
7477.878307208541
 20
2025.850759965381
 30
0.0
 11
7477.852307208542
 21
2025.850759965381
 31
0.0
  0
LINE
  5
28B3
330
1F
100
AcDbEntity
  8
SANINDUSA
100
AcDbLine
 10
7477.850307208541
 20
2025.852759965381
 30
0.0
 11
7477.850307208541
 21
2025.855759965381
 31
0.0
  0
ARC
  5
28B4
330
1F
100
AcDbEntity
  8
SANINDUSA
100
AcDbCircle
 10
7477.852307208542
 20
2025.852759965381
 30
0.0
 40
0.002
100
AcDbArc
 50
180.0
 51
270.0
  0
ARC
  5
28B5
330
1F
100
AcDbEntity
  8
SANINDUSA
100
AcDbCircle
 10
7477.878307208541
 20
2025.852759965381
 30
0.0
 40
0.002
100
AcDbArc
 50
270.0
 51
0.0
  0
LINE
  5
28B6
330
1F
100
AcDbEntity
  8
SANINDUSA
100
AcDbLine
 10
7477.880307208541
 20
2025.855759965381
 30
0.0
 11
7477.880307208541
 21
2025.852759965381
 31
0.0
  0
LINE
  5
28B7
330
1F
100
AcDbEntity
  8
SANINDUSA
100
AcDbLine
 10
7477.651407407233
 20
2025.610417775917
 30
0.0
 11
7477.857529033949
 21
2025.816539402633
 31
0.0
  0
LINE
  5
28B8
330
1F
100
AcDbEntity
  8
SANINDUSA
100
AcDbLine
 10
7477.642215019078
 20
2025.619610164072
 30
0.0
 11
7477.848336645793
 21
2025.825731790788
 31
0.0
  0
LINE
  5
28B9
330
1F
100
AcDbEntity
  8
SANINDUSA
100
AcDbLine
 10
7477.624366192102
 20
2025.590986519175
 30
0.0
 11
7477.624026818451
 21
2025.591325892825
 31
0.0
  0
LINE
  5
28BA
330
1F
100
AcDbEntity
  8
SANINDUSA
100
AcDbLine
 10
7477.626093135985
 20
2025.591325892825
 30
0.0
 11
7477.624366192102
 21
2025.590986519175
 31
0.0
  0
LINE
  5
28BB
330
1F
100
AcDbEntity
  8
SANINDUSA
100
AcDbLine
 10
7477.641154358906
 20
2025.598043407246
 30
0.0
 11
7477.631695466183
 21
2025.588584514522
 31
0.0
  0
LINE
  5
28BC
330
1F
100
AcDbEntity
  8
SANINDUSA
100
AcDbLine
 10
7477.623574977219
 20
2025.590874051591
 30
0.0
 11
7477.623123135986
 21
2025.591325892825
 31
0.0
  0
LINE
  5
28BD
330
1F
100
AcDbEntity
  8
SANINDUSA
100
AcDbLine
 10
7477.622671294752
 20
2025.590874051591
 30
0.0
 11
7477.623123135986
 21
2025.591325892825
 31
0.0
  0
LINE
  5
28BE
330
1F
100
AcDbEntity
  8
SANINDUSA
100
AcDbLine
 10
7477.623123135986
 20
2025.591325892825
 30
0.0
 11
7477.623123135986
 21
2025.590422210358
 31
0.0
  0
LINE
  5
28BF
330
1F
100
AcDbEntity
  8
SANINDUSA
100
AcDbLine
 10
7477.623123135986
 20
2025.590422210358
 30
0.0
 11
7477.622219453518
 21
2025.591325892825
 31
0.0
  0
LINE
  5
28C0
330
1F
100
AcDbEntity
  8
SANINDUSA
100
AcDbLine
 10
7477.622219453518
 20
2025.591325892825
 30
0.0
 11
7477.62188007987
 21
2025.590986519175
 31
0.0
  0
LINE
  5
28C1
330
1F
100
AcDbEntity
  8
SANINDUSA
100
AcDbLine
 10
7477.62188007987
 20
2025.590986519175
 30
0.0
 11
7477.620153135984
 21
2025.591325892825
 31
0.0
  0
ARC
  5
28C2
330
1F
100
AcDbEntity
  8
SANINDUSA
100
AcDbCircle
 10
7477.623123135986
 20
2025.591325892825
 30
0.0
 40
0.009
100
AcDbArc
 50
270.0
 51
90.0
  0
CIRCLE
  5
28C3
330
1F
100
AcDbEntity
  8
SANINDUSA
100
AcDbCircle
 10
7477.623123135986
 20
2025.591325892825
 30
0.0
 40
0.005085
  0
LINE
  5
28C4
330
1F
100
AcDbEntity
  8
SANINDUSA
100
AcDbLine
 10
7477.623123135986
 20
2025.590422210358
 30
0.0
 11
7477.624026818451
 21
2025.591325892825
 31
0.0
  0
LINE
  5
28C5
330
1F
100
AcDbEntity
  8
SANINDUSA
100
AcDbLine
 10
7477.623123135986
 20
2025.582325892825
 30
0.0
 11
7477.605873135985
 21
2025.582325892825
 31
0.0
  0
LINE
  5
28C6
330
1F
100
AcDbEntity
  8
SANINDUSA
100
AcDbLine
 10
7477.625675084358
 20
2025.589677626918
 30
0.0
 11
7477.624771401892
 21
2025.588773944452
 31
0.0
  0
LINE
  5
28C7
330
1F
100
AcDbEntity
  8
SANINDUSA
100
AcDbLine
 10
7477.624366192102
 20
2025.590986519175
 30
0.0
 11
7477.625675084358
 21
2025.589677626918
 31
0.0
  0
LINE
  5
28C8
330
1F
100
AcDbEntity
  8
SANINDUSA
100
AcDbLine
 10
7477.621474870078
 20
2025.588773944452
 30
0.0
 11
7477.620571187611
 21
2025.589677626918
 31
0.0
  0
LINE
  5
28C9
330
1F
100
AcDbEntity
  8
SANINDUSA
100
AcDbLine
 10
7477.620571187611
 20
2025.589677626918
 30
0.0
 11
7477.62188007987
 21
2025.590986519175
 31
0.0
  0
LINE
  5
28CA
330
1F
100
AcDbEntity
  8
SANINDUSA
100
AcDbLine
 10
7477.622783762337
 20
2025.590082836709
 30
0.0
 11
7477.621474870078
 21
2025.588773944452
 31
0.0
  0
LINE
  5
28CB
330
1F
100
AcDbEntity
  8
SANINDUSA
100
AcDbLine
 10
7477.623123135986
 20
2025.590422210358
 30
0.0
 11
7477.623462509633
 21
2025.590082836709
 31
0.0
  0
LINE
  5
28CC
330
1F
100
AcDbEntity
  8
SANINDUSA
100
AcDbLine
 10
7477.623462509633
 20
2025.590082836709
 30
0.0
 11
7477.623123135986
 21
2025.588355892824
 31
0.0
  0
LINE
  5
28CD
330
1F
100
AcDbEntity
  8
SANINDUSA
100
AcDbLine
 10
7477.622783762337
 20
2025.590082836709
 30
0.0
 11
7477.623123135986
 21
2025.590422210358
 31
0.0
  0
LINE
  5
28CE
330
1F
100
AcDbEntity
  8
SANINDUSA
100
AcDbLine
 10
7477.623123135986
 20
2025.588355892824
 30
0.0
 11
7477.623123135986
 21
2025.590422210358
 31
0.0
  0
LINE
  5
28CF
330
1F
100
AcDbEntity
  8
SANINDUSA
100
AcDbLine
 10
7477.623123135986
 20
2025.588355892824
 30
0.0
 11
7477.622783762337
 21
2025.590082836709
 31
0.0
  0
LINE
  5
28D0
330
1F
100
AcDbEntity
  8
SANINDUSA
100
AcDbLine
 10
7477.624771401892
 20
2025.588773944452
 30
0.0
 11
7477.623462509633
 21
2025.590082836709
 31
0.0
  0
LINE
  5
28D1
330
1F
100
AcDbEntity
  8
SANINDUSA
100
AcDbLine
 10
7477.624890902937
 20
2025.604407368277
 30
0.0
 11
7477.636204611437
 21
2025.593093659777
 31
0.0
  0
LINE
  5
28D2
330
1F
100
AcDbEntity
  8
SANINDUSA
100
AcDbLine
 10
7477.629840650407
 20
2025.609357115745
 30
0.0
 11
7477.620809427486
 21
2025.600325892825
 31
0.0
  0
LINE
  5
28D3
330
1F
100
AcDbEntity
  8
SANINDUSA
100
AcDbLine
 10
7477.623123135986
 20
2025.600325892825
 30
0.0
 11
7477.605873135985
 21
2025.600325892825
 31
0.0
  0
LINE
  5
28D4
330
1F
100
AcDbEntity
  8
SANINDUSA
100
AcDbLine
 10
7477.624771401892
 20
2025.593877841198
 30
0.0
 11
7477.625675084358
 21
2025.592974158731
 31
0.0
  0
LINE
  5
28D5
330
1F
100
AcDbEntity
  8
SANINDUSA
100
AcDbLine
 10
7477.625675084358
 20
2025.592974158731
 30
0.0
 11
7477.624366192102
 21
2025.591665266473
 31
0.0
  0
LINE
  5
28D6
330
1F
100
AcDbEntity
  8
SANINDUSA
100
AcDbLine
 10
7477.624026818451
 20
2025.591325892825
 30
0.0
 11
7477.624366192102
 21
2025.591665266473
 31
0.0
  0
LINE
  5
28D7
330
1F
100
AcDbEntity
  8
SANINDUSA
100
AcDbLine
 10
7477.624366192102
 20
2025.591665266473
 30
0.0
 11
7477.626093135985
 21
2025.591325892825
 31
0.0
  0
LINE
  5
28D8
330
1F
100
AcDbEntity
  8
SANINDUSA
100
AcDbLine
 10
7477.626093135985
 20
2025.591325892825
 30
0.0
 11
7477.624026818451
 21
2025.591325892825
 31
0.0
  0
LINE
  5
28D9
330
1F
100
AcDbEntity
  8
SANINDUSA
100
AcDbLine
 10
7477.623123135986
 20
2025.591325892825
 30
0.0
 11
7477.622671294752
 21
2025.591777734058
 31
0.0
  0
LINE
  5
28DA
330
1F
100
AcDbEntity
  8
SANINDUSA
100
AcDbLine
 10
7477.623123135986
 20
2025.592229575291
 30
0.0
 11
7477.622219453518
 21
2025.591325892825
 31
0.0
  0
LINE
  5
28DB
330
1F
100
AcDbEntity
  8
SANINDUSA
100
AcDbLine
 10
7477.620571187611
 20
2025.592974158731
 30
0.0
 11
7477.621474870078
 21
2025.593877841198
 31
0.0
  0
LINE
  5
28DC
330
1F
100
AcDbEntity
  8
SANINDUSA
100
AcDbLine
 10
7477.623123135986
 20
2025.591325892825
 30
0.0
 11
7477.623123135986
 21
2025.592229575291
 31
0.0
  0
LINE
  5
28DD
330
1F
100
AcDbEntity
  8
SANINDUSA
100
AcDbLine
 10
7477.622219453518
 20
2025.591325892825
 30
0.0
 11
7477.623123135986
 21
2025.591325892825
 31
0.0
  0
LINE
  5
28DE
330
1F
100
AcDbEntity
  8
SANINDUSA
100
AcDbLine
 10
7477.623123135986
 20
2025.591325892825
 30
0.0
 11
7477.623574977219
 21
2025.591777734058
 31
0.0
  0
LINE
  5
28DF
330
1F
100
AcDbEntity
  8
SANINDUSA
100
AcDbLine
 10
7477.621474870078
 20
2025.593877841198
 30
0.0
 11
7477.622783762337
 21
2025.59256894894
 31
0.0
  0
LINE
  5
28E0
330
1F
100
AcDbEntity
  8
SANINDUSA
100
AcDbLine
 10
7477.62188007987
 20
2025.591665266473
 30
0.0
 11
7477.620571187611
 21
2025.592974158731
 31
0.0
  0
LINE
  5
28E1
330
1F
100
AcDbEntity
  8
SANINDUSA
100
AcDbLine
 10
7477.623123135986
 20
2025.592229575291
 30
0.0
 11
7477.622783762337
 21
2025.59256894894
 31
0.0
  0
LINE
  5
28E2
330
1F
100
AcDbEntity
  8
SANINDUSA
100
AcDbLine
 10
7477.622783762337
 20
2025.59256894894
 30
0.0
 11
7477.623123135986
 21
2025.594295892824
 31
0.0
  0
LINE
  5
28E3
330
1F
100
AcDbEntity
  8
SANINDUSA
100
AcDbLine
 10
7477.623462509633
 20
2025.59256894894
 30
0.0
 11
7477.623123135986
 21
2025.592229575291
 31
0.0
  0
LINE
  5
28E4
330
1F
100
AcDbEntity
  8
SANINDUSA
100
AcDbLine
 10
7477.623123135986
 20
2025.594295892824
 30
0.0
 11
7477.623123135986
 21
2025.592229575291
 31
0.0
  0
LINE
  5
28E5
330
1F
100
AcDbEntity
  8
SANINDUSA
100
AcDbLine
 10
7477.623123135986
 20
2025.594295892824
 30
0.0
 11
7477.623462509633
 21
2025.59256894894
 31
0.0
  0
LINE
  5
28E6
330
1F
100
AcDbEntity
  8
SANINDUSA
100
AcDbLine
 10
7477.62188007987
 20
2025.591665266473
 30
0.0
 11
7477.622219453518
 21
2025.591325892825
 31
0.0
  0
LINE
  5
28E7
330
1F
100
AcDbEntity
  8
SANINDUSA
100
AcDbLine
 10
7477.620153135984
 20
2025.591325892825
 30
0.0
 11
7477.622219453518
 21
2025.591325892825
 31
0.0
  0
LINE
  5
28E8
330
1F
100
AcDbEntity
  8
SANINDUSA
100
AcDbLine
 10
7477.620153135984
 20
2025.591325892825
 30
0.0
 11
7477.62188007987
 21
2025.591665266473
 31
0.0
  0
LINE
  5
28E9
330
1F
100
AcDbEntity
  8
SANINDUSA
100
AcDbLine
 10
7477.624026818451
 20
2025.591325892825
 30
0.0
 11
7477.623123135986
 21
2025.591325892825
 31
0.0
  0
LINE
  5
28EA
330
1F
100
AcDbEntity
  8
SANINDUSA
100
AcDbLine
 10
7477.623123135986
 20
2025.592229575291
 30
0.0
 11
7477.624026818451
 21
2025.591325892825
 31
0.0
  0
LINE
  5
28EB
330
1F
100
AcDbEntity
  8
SANINDUSA
100
AcDbLine
 10
7477.623462509633
 20
2025.59256894894
 30
0.0
 11
7477.624771401892
 21
2025.593877841198
 31
0.0
  0
LINE
  5
28EC
330
1F
100
AcDbEntity
  8
SANINDUSA
100
AcDbLine
 10
7477.641154358906
 20
2025.620670824244
 30
0.0
 11
7477.652468067404
 21
2025.609357115745
 31
0.0
  0
LINE
  5
28ED
330
1F
100
AcDbEntity
  8
SANINDUSA
100
AcDbLine
 10
7477.641154358906
 20
2025.620670824244
 30
0.0
 11
7477.631254863969
 21
2025.610771329307
 31
0.0
  0
LINE
  5
28EE
330
1F
100
AcDbEntity
  8
SANINDUSA
100
AcDbLine
 10
7477.652468067404
 20
2025.609357115745
 30
0.0
 11
7477.642568572467
 21
2025.599457620808
 31
0.0
  0
LINE
  5
28EF
330
1F
100
AcDbEntity
  8
SANINDUSA
100
AcDbLine
 10
7477.63160841736
 20
2025.607589348792
 30
0.0
 11
7477.633022630922
 21
2025.609003562355
 31
0.0
  0
LINE
  5
28F0
330
1F
100
AcDbEntity
  8
SANINDUSA
100
AcDbLine
 10
7477.639386591953
 20
2025.599811174199
 30
0.0
 11
7477.640800805516
 21
2025.601225387761
 31
0.0
  0
LINE
  5
28F1
330
1F
100
AcDbEntity
  8
SANINDUSA
100
AcDbLine
 10
7477.631254863969
 20
2025.610771329307
 30
0.0
 11
7477.642568572467
 21
2025.599457620808
 31
0.0
  0
LINE
  5
28F2
330
1F
100
AcDbEntity
  8
SANINDUSA
100
AcDbLine
 10
7477.629840650407
 20
2025.609357115745
 30
0.0
 11
7477.641154358906
 21
2025.598043407246
 31
0.0
  0
LINE
  5
28F3
330
1F
100
AcDbEntity
  8
SANINDUSA
100
AcDbLine
 10
7477.587873135985
 20
2025.613825892825
 30
0.0
 11
7477.587873135985
 21
2025.568825892825
 31
0.0
  0
LINE
  5
28F4
330
1F
100
AcDbEntity
  8
SANINDUSA
100
AcDbLine
 10
7477.605873135985
 20
2025.613825892825
 30
0.0
 11
7477.605873135985
 21
2025.568825892825
 31
0.0
  0
LINE
  5
28F5
330
1F
100
AcDbEntity
  8
SANINDUSA
100
AcDbLine
 10
7477.605873135985
 20
2025.568825892825
 30
0.0
 11
7477.587873135985
 21
2025.568825892825
 31
0.0
  0
LINE
  5
28F6
330
1F
100
AcDbEntity
  8
SANINDUSA
100
AcDbLine
 10
7477.605873135985
 20
2025.613825892825
 30
0.0
 11
7477.587873135985
 21
2025.613825892825
 31
0.0
  0
LINE
  5
28F7
330
1F
100
AcDbEntity
  8
SANINDUSA
100
AcDbLine
 10
7477.597973135985
 20
2025.811387941621
 30
-0.0000000000076263
 11
7477.597973135985
 21
2025.188533097128
 31
-0.0000000000076263
  0
LINE
  5
28F8
330
1F
100
AcDbEntity
  8
SANINDUSA
100
AcDbLine
 10
7477.603973135986
 20
2025.811387941621
 30
-0.0000000000076263
 11
7477.603973135986
 21
2025.188533097128
 31
-0.0000000000076263
  0
LINE
  5
28F9
330
1F
100
AcDbEntity
  8
SANINDUSA
100
AcDbLine
 10
7477.597973135985
 20
2025.811387941621
 30
-0.0000000000076263
 11
7477.603973135986
 21
2025.811387941621
 31
-0.0000000000076263
  0
LINE
  5
28FA
330
1F
100
AcDbEntity
  8
SANINDUSA
100
AcDbLine
 10
7477.604152452208
 20
2025.200533097128
 30
0.0000000001479285
 11
7477.603673139795
 21
2025.200533097128
 31
0.0000000001479285
  0
LINE
  5
28FB
330
1F
100
AcDbEntity
  8
SANINDUSA
100
AcDbLine
 10
7477.604103614803
 20
2025.198033097128
 30
0.0000000001479285
 11
7477.60370802341
 21
2025.197973873397
 31
0.0000000001479285
  0
ARC
  5
28FC
330
1F
100
AcDbEntity
  8
SANINDUSA
100
AcDbCircle
 10
7477.604152452208
 20
2025.199733097128
 30
0.0000000001479285
 40
0.0008
100
AcDbArc
 50
8.514478436872074
 51
90.0
  0
ARC
  5
28FD
330
1F
100
AcDbEntity
  8
SANINDUSA
100
AcDbCircle
 10
7477.602496381049
 20
2025.197286907032
 30
0.0000000001479285
 40
0.0002
100
AcDbArc
 50
98.5144784478272
 51
278.5144784478272
  0
LINE
  5
28FE
330
1F
100
AcDbEntity
  8
SANINDUSA
100
AcDbLine
 10
7477.598569833339
 20
2025.20018867933
 30
0.0000000001479285
 11
7477.598238256179
 21
2025.197973873397
 31
0.0000000001479285
  0
ARC
  5
28FF
330
1F
100
AcDbEntity
  8
SANINDUSA
100
AcDbCircle
 10
7477.59944989854
 20
2025.197286907032
 30
0.0000000001479285
 40
0.0002
100
AcDbArc
 50
261.4855215521728
 51
81.48552155217281
  0
LINE
  5
2900
330
1F
100
AcDbEntity
  8
SANINDUSA
100
AcDbLine
 10
7477.597842664787
 20
2025.198033097128
 30
0.0000000001479285
 11
7477.598238256179
 21
2025.197973873397
 31
0.0000000001479285
  0
ARC
  5
2901
330
1F
100
AcDbEntity
  8
SANINDUSA
100
AcDbCircle
 10
7477.598273139794
 20
2025.200233097129
 30
0.0000000001479285
 40
0.0003
100
AcDbArc
 50
351.4855215631279
 51
90.0
  0
ARC
  5
2902
330
1F
100
AcDbEntity
  8
SANINDUSA
100
AcDbCircle
 10
7477.603673139795
 20
2025.200233097129
 30
0.0000000001479285
 40
0.0003
100
AcDbArc
 50
90.0
 51
188.514478436872
  0
LINE
  5
2903
330
1F
100
AcDbEntity
  8
SANINDUSA
100
AcDbLine
 10
7477.60337644625
 20
2025.20018867933
 30
0.0000000001479285
 11
7477.60370802341
 21
2025.197973873397
 31
0.0000000001479285
  0
LINE
  5
2904
330
1F
100
AcDbEntity
  8
SANINDUSA
100
AcDbLine
 10
7477.604207256331
 20
2025.197340812192
 30
0.0000000001479285
 11
7477.602525992914
 21
2025.197089111336
 31
0.0000000001479285
  0
LINE
  5
2905
330
1F
100
AcDbEntity
  8
SANINDUSA
100
AcDbLine
 10
7477.604148032601
 20
2025.197736403584
 30
0.0000000001479285
 11
7477.602466769184
 21
2025.197484702728
 31
0.0000000001479285
  0
LINE
  5
2906
330
1F
100
AcDbEntity
  8
SANINDUSA
100
AcDbLine
 10
7477.604525583885
 20
2025.195214508458
 30
0.0000000001479285
 11
7477.604129992492
 21
2025.195155284727
 31
0.0000000001479285
  0
ARC
  5
2907
330
1F
100
AcDbEntity
  8
SANINDUSA
100
AcDbCircle
 10
7477.604773139795
 20
2025.188833097128
 30
0.0000000001479285
 40
0.0003
100
AcDbArc
 50
270.0
 51
8.514478436872074
  0
ARC
  5
2908
330
1F
100
AcDbEntity
  8
SANINDUSA
100
AcDbCircle
 10
7477.605673139795
 20
2025.189575497957
 30
0.0000000001479285
 40
0.0008
100
AcDbArc
 50
0.0
 51
8.514478436872074
  0
LINE
  5
2909
330
1F
100
AcDbEntity
  8
SANINDUSA
100
AcDbLine
 10
7477.604896831876
 20
2025.190033097128
 30
0.0000000001479285
 11
7477.605069833339
 21
2025.188877514926
 31
0.0000000001479285
  0
LINE
  5
290A
330
1F
100
AcDbEntity
  8
SANINDUSA
100
AcDbLine
 10
7477.604896831876
 20
2025.190033097128
 30
0.0000000001479285
 11
7477.604073139794
 21
2025.190033097128
 31
0.0000000001479285
  0
LINE
  5
290B
330
1F
100
AcDbEntity
  8
SANINDUSA
100
AcDbLine
 10
7477.604073139794
 20
2025.190033097128
 30
0.0000000001479285
 11
7477.604073139794
 21
2025.191233097128
 31
0.0000000001479285
  0
LINE
  5
290C
330
1F
100
AcDbEntity
  8
SANINDUSA
100
AcDbLine
 10
7477.604717180655
 20
2025.191233097128
 30
0.0000000001479285
 11
7477.604073139794
 21
2025.191233097128
 31
0.0000000001479285
  0
LINE
  5
290D
330
1F
100
AcDbEntity
  8
SANINDUSA
100
AcDbLine
 10
7477.604129992492
 20
2025.195155284727
 30
0.0000000001479285
 11
7477.604717180655
 21
2025.191233097128
 31
0.0000000001479285
  0
LINE
  5
290E
330
1F
100
AcDbEntity
  8
SANINDUSA
100
AcDbLine
 10
7477.597873139794
 20
2025.190033097128
 30
0.0000000001479285
 11
7477.597873139794
 21
2025.191233097128
 31
0.0000000001479285
  0
LINE
  5
290F
330
1F
100
AcDbEntity
  8
SANINDUSA
100
AcDbLine
 10
7477.604943634993
 20
2025.19985154459
 30
0.0000000001479285
 11
7477.60646432258
 21
2025.189693945419
 31
0.0000000001479285
  0
LINE
  5
2910
330
1F
100
AcDbEntity
  8
SANINDUSA
100
AcDbLine
 10
7477.604103614803
 20
2025.198033097128
 30
0.0000000001479285
 11
7477.604525583885
 21
2025.195214508458
 31
0.0000000001479285
  0
ARC
  5
2911
330
1F
100
AcDbEntity
  8
SANINDUSA
100
AcDbCircle
 10
7477.59779382738
 20
2025.199733097128
 30
0.0000000001479285
 40
0.0008
100
AcDbArc
 50
90.0
 51
171.4855215631279
  0
LINE
  5
2912
330
1F
100
AcDbEntity
  8
SANINDUSA
100
AcDbLine
 10
7477.597420695705
 20
2025.195214508458
 30
0.0000000001479285
 11
7477.597816287097
 21
2025.195155284727
 31
0.0000000001479285
  0
ARC
  5
2913
330
1F
100
AcDbEntity
  8
SANINDUSA
100
AcDbCircle
 10
7477.597173139795
 20
2025.188833097128
 30
0.0000000001479285
 40
0.0003
100
AcDbArc
 50
171.4855215631279
 51
270.0
  0
ARC
  5
2914
330
1F
100
AcDbEntity
  8
SANINDUSA
100
AcDbCircle
 10
7477.596273139795
 20
2025.189575497957
 30
0.0000000001479285
 40
0.0008
100
AcDbArc
 50
171.4855215631279
 51
180.0
  0
LINE
  5
2915
330
1F
100
AcDbEntity
  8
SANINDUSA
100
AcDbLine
 10
7477.59687644625
 20
2025.188877514926
 30
0.0000000001479285
 11
7477.597049447712
 21
2025.190033097128
 31
0.0000000001479285
  0
LINE
  5
2916
330
1F
100
AcDbEntity
  8
SANINDUSA
100
AcDbLine
 10
7477.597816287097
 20
2025.195155284727
 30
0.0000000001479285
 11
7477.597229098934
 21
2025.191233097128
 31
0.0000000001479285
  0
LINE
  5
2917
330
1F
100
AcDbEntity
  8
SANINDUSA
100
AcDbLine
 10
7477.59548195701
 20
2025.189693945419
 30
0.0000000001479285
 11
7477.597002644596
 21
2025.19985154459
 31
0.0000000001479285
  0
LINE
  5
2918
330
1F
100
AcDbEntity
  8
SANINDUSA
100
AcDbLine
 10
7477.604773139795
 20
2025.188533097128
 30
0.0000000001479285
 11
7477.597173139795
 21
2025.188533097128
 31
0.0000000001479285
  0
LINE
  5
2919
330
1F
100
AcDbEntity
  8
SANINDUSA
100
AcDbLine
 10
7477.598273139794
 20
2025.200533097128
 30
0.0000000001479285
 11
7477.59779382738
 21
2025.200533097128
 31
0.0000000001479285
  0
LINE
  5
291A
330
1F
100
AcDbEntity
  8
SANINDUSA
100
AcDbLine
 10
7477.597873139794
 20
2025.191233097128
 30
0.0000000001479285
 11
7477.597229098934
 21
2025.191233097128
 31
0.0000000001479285
  0
LINE
  5
291B
330
1F
100
AcDbEntity
  8
SANINDUSA
100
AcDbLine
 10
7477.597873139794
 20
2025.190033097128
 30
0.0000000001479285
 11
7477.597049447712
 21
2025.190033097128
 31
0.0000000001479285
  0
LINE
  5
291C
330
1F
100
AcDbEntity
  8
SANINDUSA
100
AcDbLine
 10
7477.597842664787
 20
2025.198033097128
 30
0.0000000001479285
 11
7477.597420695705
 21
2025.195214508458
 31
0.0000000001479285
  0
LINE
  5
291D
330
1F
100
AcDbEntity
  8
SANINDUSA
100
AcDbLine
 10
7477.597798246988
 20
2025.197736403584
 30
0.0000000001479285
 11
7477.599479510407
 21
2025.197484702728
 31
0.0000000001479285
  0
LINE
  5
291E
330
1F
100
AcDbEntity
  8
SANINDUSA
100
AcDbLine
 10
7477.597739023257
 20
2025.197340812192
 30
0.0000000001479285
 11
7477.599420286676
 21
2025.197089111336
 31
0.0000000001479285
  0
LINE
  5
291F
330
1F
100
AcDbEntity
  8
SANINDUSA
100
AcDbLine
 10
7477.606473139795
 20
2025.187033097128
 30
0.0000000001479285
 11
7477.606473139795
 21
2025.184775737816
 31
0.0000000001479285
  0
ARC
  5
2920
330
1F
100
AcDbEntity
  8
SANINDUSA
100
AcDbCircle
 10
7477.604473139795
 20
2025.186033097128
 30
0.0000000001479285
 40
0.001
100
AcDbArc
 50
0.0
 51
90.0
  0
ARC
  5
2921
330
1F
100
AcDbEntity
  8
SANINDUSA
100
AcDbCircle
 10
7477.605123118657
 20
2025.184763316025
 30
0.0000000001479285
 40
0.00075
100
AcDbArc
 50
359.8050089055599
 51
42.83224048757769
  0
ARC
  5
2922
330
1F
100
AcDbEntity
  8
SANINDUSA
100
AcDbCircle
 10
7477.606223139794
 20
2025.185783097128
 30
0.0000000001479285
 40
0.00075
100
AcDbArc
 50
180.0
 51
222.8322404875777
  0
LINE
  5
2923
330
1F
100
AcDbEntity
  8
SANINDUSA
100
AcDbLine
 10
7477.605473139795
 20
2025.185783097128
 30
0.0000000001479285
 11
7477.605473139795
 21
2025.186033097128
 31
0.0000000001479285
  0
LINE
  5
2924
330
1F
100
AcDbEntity
  8
SANINDUSA
100
AcDbLine
 10
7477.604037784455
 20
2025.181117842803
 30
0.0000000001479285
 11
7477.604584409632
 21
2025.181664467978
 31
0.0000000001479285
  0
ARC
  5
2925
330
1F
100
AcDbEntity
  8
SANINDUSA
100
AcDbCircle
 10
7477.603542809709
 20
2025.180552157378
 30
0.0000000001479285
 40
0.0002
100
AcDbArc
 50
314.999999926305
 51
44.99999990788129
  0
ARC
  5
2926
330
1F
100
AcDbEntity
  8
SANINDUSA
100
AcDbCircle
 10
7477.601473139795
 20
2025.184775737816
 30
0.0000000001479285
 40
0.005
100
AcDbArc
 50
315.0
 51
0.0
  0
ARC
  5
2927
330
1F
100
AcDbEntity
  8
SANINDUSA
100
AcDbCircle
 10
7477.601473139795
 20
2025.184775737816
 30
0.0000000001479285
 40
0.0044
100
AcDbArc
 50
315.0
 51
359.8050089055599
  0
ARC
  5
2928
330
1F
100
AcDbEntity
  8
SANINDUSA
100
AcDbCircle
 10
7477.601951819458
 20
2025.181718883565
 30
0.0000000001479285
 40
0.00075
100
AcDbArc
 50
45.0
 51
135.0000000184237
  0
ARC
  5
2929
330
1F
100
AcDbEntity
  8
SANINDUSA
100
AcDbCircle
 10
7477.601951819458
 20
2025.181718883565
 30
0.0000000001479285
 40
0.0005
100
AcDbArc
 50
45.0
 51
135.0000000184237
  0
ARC
  5
292A
330
1F
100
AcDbEntity
  8
SANINDUSA
100
AcDbCircle
 10
7477.603825652422
 20
2025.181329974837
 30
0.0000000001479285
 40
0.0003
100
AcDbArc
 50
224.9999998710338
 51
315.0
  0
LINE
  5
292B
330
1F
100
AcDbEntity
  8
SANINDUSA
100
AcDbLine
 10
7477.60424991649
 20
2025.180481446698
 30
0.0000000001479285
 11
7477.602482149544
 21
2025.182249213651
 31
0.0000000001479285
  0
LINE
  5
292C
330
1F
100
AcDbEntity
  8
SANINDUSA
100
AcDbLine
 10
7477.603684231064
 20
2025.180693578734
 30
0.0000000001479285
 11
7477.602305372849
 21
2025.182072436956
 31
0.0000000001479285
  0
ARC
  5
292D
330
1F
100
AcDbEntity
  8
SANINDUSA
100
AcDbCircle
 10
7477.598451640881
 20
2025.175955963296
 30
0.0000000001479285
 40
0.0003
100
AcDbArc
 50
315.0
 51
44.99999998157625
  0
ARC
  5
292E
330
1F
100
AcDbEntity
  8
SANINDUSA
100
AcDbCircle
 10
7477.599229458326
 20
2025.176238806007
 30
0.0000000001479285
 40
0.0002
100
AcDbArc
 50
224.9999997052201
 51
314.999999926305
  0
LINE
  5
292F
330
1F
100
AcDbEntity
  8
SANINDUSA
100
AcDbLine
 10
7477.598463089288
 20
2025.175543147634
 30
0.0000000001479285
 11
7477.598663772915
 21
2025.175743831261
 31
0.0000000001479285
  0
LINE
  5
2930
330
1F
100
AcDbEntity
  8
SANINDUSA
100
AcDbLine
 10
7477.598887353358
 20
2025.175118883566
 30
0.0000000001479285
 11
7477.6050086737
 21
2025.181240203909
 31
0.0000000001479285
  0
LINE
  5
2931
330
1F
100
AcDbEntity
  8
SANINDUSA
100
AcDbLine
 10
7477.599370879682
 20
2025.176097384651
 30
0.0000000001479285
 11
7477.603684231064
 21
2025.180410736022
 31
0.0000000001479285
  0
ARC
  5
2932
330
1F
100
AcDbEntity
  8
SANINDUSA
100
AcDbCircle
 10
7477.597473139795
 20
2025.186033097128
 30
0.0000000001479285
 40
0.001
100
AcDbArc
 50
90.0
 51
180.0
  0
ARC
  5
2933
330
1F
100
AcDbEntity
  8
SANINDUSA
100
AcDbCircle
 10
7477.596823139795
 20
2025.181013293225
 30
0.0000000001479285
 40
0.00075
100
AcDbArc
 50
137.1665719349697
 51
180.0
  0
ARC
  5
2934
330
1F
100
AcDbEntity
  8
SANINDUSA
100
AcDbCircle
 10
7477.595723139794
 20
2025.182033097128
 30
0.0000000001479285
 40
0.00075
100
AcDbArc
 50
317.1665719349698
 51
0.0
  0
LINE
  5
2935
330
1F
100
AcDbEntity
  8
SANINDUSA
100
AcDbLine
 10
7477.596473139795
 20
2025.186033097128
 30
0.0000000001479285
 11
7477.596473139795
 21
2025.182033097128
 31
0.0000000001479285
  0
ARC
  5
2936
330
1F
100
AcDbEntity
  8
SANINDUSA
100
AcDbCircle
 10
7477.598062732154
 20
2025.177829796263
 30
0.0000000001479285
 40
0.00075
100
AcDbArc
 50
135.0
 51
225.0
  0
ARC
  5
2937
330
1F
100
AcDbEntity
  8
SANINDUSA
100
AcDbCircle
 10
7477.598062732154
 20
2025.177829796263
 30
0.0000000001479285
 40
0.0005
100
AcDbArc
 50
135.0
 51
225.0
  0
LINE
  5
2938
330
1F
100
AcDbEntity
  8
SANINDUSA
100
AcDbLine
 10
7477.595473139794
 20
2025.187033097128
 30
0.0000000001479285
 11
7477.595473139794
 21
2025.176533097128
 31
0.0000000001479285
  0
LINE
  5
2939
330
1F
100
AcDbEntity
  8
SANINDUSA
100
AcDbLine
 10
7477.596073139794
 20
2025.181013293225
 30
0.0000000001479285
 11
7477.596073139794
 21
2025.176533097128
 31
0.0000000001479285
  0
ARC
  5
293A
330
1F
100
AcDbEntity
  8
SANINDUSA
100
AcDbCircle
 10
7477.597473139795
 20
2025.176533097128
 30
0.0000000001479285
 40
0.002
100
AcDbArc
 50
180.0
 51
315.0
  0
LINE
  5
293B
330
1F
100
AcDbEntity
  8
SANINDUSA
100
AcDbLine
 10
7477.597532402068
 20
2025.178360126349
 30
0.0000000001479285
 11
7477.601421489372
 21
2025.182249213651
 31
0.0000000001479285
  0
ARC
  5
293C
330
1F
100
AcDbEntity
  8
SANINDUSA
100
AcDbCircle
 10
7477.597473139795
 20
2025.176533097128
 30
0.0000000001479285
 40
0.0014
100
AcDbArc
 50
180.0
 51
315.0
  0
LINE
  5
293D
330
1F
100
AcDbEntity
  8
SANINDUSA
100
AcDbLine
 10
7477.599300169018
 20
2025.175531699226
 30
0.0000000001479285
 11
7477.597532402069
 21
2025.177299466177
 31
0.0000000001479285
  0
LINE
  5
293E
330
1F
100
AcDbEntity
  8
SANINDUSA
100
AcDbLine
 10
7477.604473139795
 20
2025.187033097128
 30
0.0000000001479285
 11
7477.597473139795
 21
2025.187033097128
 31
0.0000000001479285
  0
HATCH
  5
293F
330
1F
100
AcDbEntity
  8
SANINDUSA
100
AcDbHatch
 10
0.0
 20
0.0
 30
0.0000000001479285
210
0.0
220
0.0
230
1.0
  2
ANSI31
 70
     0
 71
     0
 91
        1
 92
        7
 72
     1
 73
     1
 93
        8
 10
7477.602305372849
 20
2025.182072436955
 42
0.0
 10
7477.603684231064
 20
2025.180693578734
 42
-0.414213562178905
 10
7477.603684231064
 20
2025.180410736021
 42
0.0
 10
7477.599370879682
 20
2025.176097384651
 42
-0.4142135636146872
 10
7477.599088036969
 20
2025.176097384652
 42
0.0
 10
7477.597709178763
 20
2025.177476242875
 42
-0.4142135608152901
 10
7477.597709178763
 20
2025.178183349654
 42
0.0
 10
7477.601598266068
 20
2025.182072436956
 42
-0.4142135628833784
 97
        0
 75
     0
 76
     1
 52
135.0
 41
0.00025
 77
     0
 78
     1
 53
360.0
 43
7477.205701238405
 44
2024.912418562487
 45
0.0
 46
-0.00079375
 79
     0
 47
0.0364805528584695
 98
        1
 10
7477.601826376169
 20
2025.18113361939
  0
LINE
  5
2940
330
1F
100
AcDbEntity
  8
SANINDUSA
100
AcDbLine
 10
7477.597709178763
 20
2025.178183349654
 30
0.0000000001479285
 11
7477.601598266068
 21
2025.182072436956
 31
0.0000000001479285
  0
LINE
  5
2941
330
1F
100
AcDbEntity
  8
SANINDUSA
100
AcDbLine
 10
7477.599088036969
 20
2025.176097384652
 30
0.0000000001479285
 11
7477.597709178763
 21
2025.177476242873
 31
0.0000000001479285
  0
LINE
  5
2942
330
1F
100
AcDbEntity
  8
SANINDUSA
100
AcDbLine
 10
7477.606473139795
 20
2025.187033097128
 30
0.0000000001479285
 11
7477.606473139795
 21
2025.189575497957
 31
0.0000000001479285
  0
LINE
  5
2943
330
1F
100
AcDbEntity
  8
SANINDUSA
100
AcDbLine
 10
7477.595473139794
 20
2025.187033097128
 30
0.0000000001479285
 11
7477.595473139794
 21
2025.189575497957
 31
0.0000000001479285
  0
LINE
  5
29C7
330
1F
100
AcDbEntity
  8
SANINDUSA
 48
2.0
100
AcDbLine
 10
7478.48630156692
 20
2025.216854666194
 30
0.0000000001479286
 11
7478.48630156692
 21
2025.816009965381
 31
0.0000000001479286
  0
LINE
  5
29C8
330
1F
100
AcDbEntity
  8
SANINDUSA
 48
2.0
100
AcDbLine
 10
7478.49930156692
 20
2025.216854666194
 30
0.0000000001479286
 11
7478.49930156692
 21
2025.816009965381
 31
0.0000000001479286
  0
LINE
  5
29C9
330
1F
100
AcDbEntity
  8
SANINDUSA
100
AcDbLine
 10
7478.48380156692
 20
2025.833509965381
 30
0.0
 11
7478.48380156692
 21
2025.850759965381
 31
0.0
  0
LINE
  5
29CA
330
1F
100
AcDbEntity
  8
SANINDUSA
100
AcDbLine
 10
7478.50180156692
 20
2025.833509965381
 30
0.0
 11
7478.50180156692
 21
2025.850759965381
 31
0.0
  0
LINE
  5
29CB
330
1F
100
AcDbEntity
  8
SANINDUSA
100
AcDbLine
 10
7478.493440566919
 20
2025.836479965381
 30
0.0
 11
7478.49216256692
 21
2025.836479965381
 31
0.0
  0
LINE
  5
29CC
330
1F
100
AcDbEntity
  8
SANINDUSA
100
AcDbLine
 10
7478.492801566919
 20
2025.833509965381
 30
0.0
 11
7478.49216256692
 21
2025.833509965381
 31
0.0
  0
LINE
  5
29CD
330
1F
100
AcDbEntity
  8
SANINDUSA
100
AcDbLine
 10
7478.492801566919
 20
2025.833509965381
 30
0.0
 11
7478.49216256692
 21
2025.832870965381
 31
0.0
  0
LINE
  5
29CE
330
1F
100
AcDbEntity
  8
SANINDUSA
100
AcDbLine
 10
7478.49216256692
 20
2025.834148965381
 30
0.0
 11
7478.492801566919
 21
2025.833509965381
 31
0.0
  0
LINE
  5
29CF
330
1F
100
AcDbEntity
  8
SANINDUSA
100
AcDbLine
 10
7478.49216256692
 20
2025.832870965381
 30
0.0
 11
7478.493440566919
 21
2025.832870965381
 31
0.0
  0
LINE
  5
29D0
330
1F
100
AcDbEntity
  8
SANINDUSA
100
AcDbLine
 10
7478.493440566919
 20
2025.834148965381
 30
0.0
 11
7478.49216256692
 21
2025.834148965381
 31
0.0
  0
LINE
  5
29D1
330
1F
100
AcDbEntity
  8
SANINDUSA
100
AcDbLine
 10
7478.49216256692
 20
2025.832870965381
 30
0.0
 11
7478.49216256692
 21
2025.834148965381
 31
0.0
  0
LINE
  5
29D2
330
1F
100
AcDbEntity
  8
SANINDUSA
100
AcDbLine
 10
7478.489831566919
 20
2025.834148965381
 30
0.0
 11
7478.489831566919
 21
2025.832870965381
 31
0.0
  0
LINE
  5
29D3
330
1F
100
AcDbEntity
  8
SANINDUSA
100
AcDbLine
 10
7478.489831566919
 20
2025.832870965381
 30
0.0
 11
7478.491682620102
 21
2025.832870965381
 31
0.0
  0
LINE
  5
29D4
330
1F
100
AcDbEntity
  8
SANINDUSA
100
AcDbLine
 10
7478.491682620102
 20
2025.834148965381
 30
0.0
 11
7478.489831566919
 21
2025.834148965381
 31
0.0
  0
LINE
  5
29D5
330
1F
100
AcDbEntity
  8
SANINDUSA
100
AcDbLine
 10
7478.49216256692
 20
2025.832870965381
 30
0.0
 11
7478.491682620102
 21
2025.832870965381
 31
0.0
  0
LINE
  5
29D6
330
1F
100
AcDbEntity
  8
SANINDUSA
100
AcDbLine
 10
7478.49216256692
 20
2025.834148965381
 30
0.0
 11
7478.49216256692
 21
2025.834628912198
 31
0.0
  0
LINE
  5
29D7
330
1F
100
AcDbEntity
  8
SANINDUSA
100
AcDbLine
 10
7478.49216256692
 20
2025.834628912198
 30
0.0
 11
7478.490701459779
 21
2025.835610072521
 31
0.0
  0
LINE
  5
29D8
330
1F
100
AcDbEntity
  8
SANINDUSA
100
AcDbLine
 10
7478.491682620102
 20
2025.834148965381
 30
0.0
 11
7478.49216256692
 21
2025.834148965381
 31
0.0
  0
LINE
  5
29D9
330
1F
100
AcDbEntity
  8
SANINDUSA
100
AcDbLine
 10
7478.490701459779
 20
2025.835610072521
 30
0.0
 11
7478.49216256692
 21
2025.834148965381
 31
0.0
  0
LINE
  5
29DA
330
1F
100
AcDbEntity
  8
SANINDUSA
100
AcDbLine
 10
7478.490701459779
 20
2025.835610072521
 30
0.0
 11
7478.491682620102
 21
2025.834148965381
 31
0.0
  0
LINE
  5
29DB
330
1F
100
AcDbEntity
  8
SANINDUSA
100
AcDbLine
 10
7478.493440566919
 20
2025.833509965381
 30
0.0
 11
7478.492801566919
 21
2025.833509965381
 31
0.0
  0
LINE
  5
29DC
330
1F
100
AcDbEntity
  8
SANINDUSA
100
AcDbLine
 10
7478.492801566919
 20
2025.833509965381
 30
0.0
 11
7478.492801566919
 21
2025.832870965381
 31
0.0
  0
LINE
  5
29DD
330
1F
100
AcDbEntity
  8
SANINDUSA
100
AcDbLine
 10
7478.493440566919
 20
2025.832870965381
 30
0.0
 11
7478.492801566919
 21
2025.833509965381
 31
0.0
  0
LINE
  5
29DE
330
1F
100
AcDbEntity
  8
SANINDUSA
100
AcDbLine
 10
7478.493440566919
 20
2025.834148965381
 30
0.0
 11
7478.493440566919
 21
2025.832870965381
 31
0.0
  0
LINE
  5
29DF
330
1F
100
AcDbEntity
  8
SANINDUSA
100
AcDbLine
 10
7478.492801566919
 20
2025.834148965381
 30
0.0
 11
7478.492801566919
 21
2025.833509965381
 31
0.0
  0
LINE
  5
29E0
330
1F
100
AcDbEntity
  8
SANINDUSA
100
AcDbLine
 10
7478.492801566919
 20
2025.833509965381
 30
0.0
 11
7478.493440566919
 21
2025.834148965381
 31
0.0
  0
LINE
  5
29E1
330
1F
100
AcDbEntity
  8
SANINDUSA
100
AcDbLine
 10
7478.493440566919
 20
2025.834148965381
 30
0.0
 11
7478.493920513736
 21
2025.834148965381
 31
0.0
  0
LINE
  5
29E2
330
1F
100
AcDbEntity
  8
SANINDUSA
100
AcDbLine
 10
7478.493920513736
 20
2025.834148965381
 30
0.0
 11
7478.49490167406
 21
2025.835610072521
 31
0.0
  0
LINE
  5
29E3
330
1F
100
AcDbEntity
  8
SANINDUSA
100
AcDbLine
 10
7478.493440566919
 20
2025.834628912198
 30
0.0
 11
7478.493440566919
 21
2025.834148965381
 31
0.0
  0
LINE
  5
29E4
330
1F
100
AcDbEntity
  8
SANINDUSA
100
AcDbLine
 10
7478.49490167406
 20
2025.835610072521
 30
0.0
 11
7478.493440566919
 21
2025.834148965381
 31
0.0
  0
LINE
  5
29E5
330
1F
100
AcDbEntity
  8
SANINDUSA
100
AcDbLine
 10
7478.49490167406
 20
2025.835610072521
 30
0.0
 11
7478.493440566919
 21
2025.834628912198
 31
0.0
  0
LINE
  5
29E6
330
1F
100
AcDbEntity
  8
SANINDUSA
100
AcDbLine
 10
7478.493920513736
 20
2025.832870965381
 30
0.0
 11
7478.493440566919
 21
2025.832870965381
 31
0.0
  0
LINE
  5
29E7
330
1F
100
AcDbEntity
  8
SANINDUSA
100
AcDbLine
 10
7478.495771566919
 20
2025.832870965381
 30
0.0
 11
7478.495771566919
 21
2025.834148965381
 31
0.0
  0
LINE
  5
29E8
330
1F
100
AcDbEntity
  8
SANINDUSA
100
AcDbLine
 10
7478.495771566919
 20
2025.834148965381
 30
0.0
 11
7478.493920513736
 21
2025.834148965381
 31
0.0
  0
LINE
  5
29E9
330
1F
100
AcDbEntity
  8
SANINDUSA
100
AcDbLine
 10
7478.493920513736
 20
2025.832870965381
 30
0.0
 11
7478.495771566919
 21
2025.832870965381
 31
0.0
  0
LINE
  5
29EA
330
1F
100
AcDbEntity
  8
SANINDUSA
100
AcDbLine
 10
7478.49216256692
 20
2025.836479965381
 30
0.0
 11
7478.49216256692
 21
2025.834628912198
 31
0.0
  0
LINE
  5
29EB
330
1F
100
AcDbEntity
  8
SANINDUSA
100
AcDbLine
 10
7478.493440566919
 20
2025.834628912198
 30
0.0
 11
7478.493440566919
 21
2025.836479965381
 31
0.0
  0
LINE
  5
29EC
330
1F
100
AcDbEntity
  8
SANINDUSA
100
AcDbLine
 10
7478.49216256692
 20
2025.830539965381
 30
0.0
 11
7478.493440566919
 21
2025.830539965381
 31
0.0
  0
LINE
  5
29ED
330
1F
100
AcDbEntity
  8
SANINDUSA
100
AcDbLine
 10
7478.500801566919
 20
2025.816009965381
 30
0.0
 11
7478.500801566919
 21
2025.829386859755
 31
0.0
  0
LINE
  5
29EE
330
1F
100
AcDbEntity
  8
SANINDUSA
100
AcDbLine
 10
7478.49216256692
 20
2025.832391018564
 30
0.0
 11
7478.49216256692
 21
2025.830539965381
 31
0.0
  0
LINE
  5
29EF
330
1F
100
AcDbEntity
  8
SANINDUSA
100
AcDbLine
 10
7478.490701459779
 20
2025.831409858241
 30
0.0
 11
7478.49216256692
 21
2025.832391018564
 31
0.0
  0
LINE
  5
29F0
330
1F
100
AcDbEntity
  8
SANINDUSA
100
AcDbLine
 10
7478.48480156692
 20
2025.823009965381
 30
0.0
 11
7478.500801566919
 21
2025.823009965381
 31
0.0
  0
LINE
  5
29F1
330
1F
100
AcDbEntity
  8
SANINDUSA
100
AcDbLine
 10
7478.493440566919
 20
2025.830539965381
 30
0.0
 11
7478.493440566919
 21
2025.832391018564
 31
0.0
  0
LINE
  5
29F2
330
1F
100
AcDbEntity
  8
SANINDUSA
100
AcDbLine
 10
7478.493440566919
 20
2025.832391018564
 30
0.0
 11
7478.49490167406
 21
2025.831409858241
 31
0.0
  0
LINE
  5
29F3
330
1F
100
AcDbEntity
  8
SANINDUSA
100
AcDbLine
 10
7478.48480156692
 20
2025.816009965381
 30
0.0
 11
7478.500801566919
 21
2025.816009965381
 31
0.0
  0
LINE
  5
29F4
330
1F
100
AcDbEntity
  8
SANINDUSA
100
AcDbLine
 10
7478.491682620102
 20
2025.832870965381
 30
0.0
 11
7478.490701459779
 21
2025.831409858241
 31
0.0
  0
LINE
  5
29F5
330
1F
100
AcDbEntity
  8
SANINDUSA
100
AcDbLine
 10
7478.49216256692
 20
2025.832391018564
 30
0.0
 11
7478.49216256692
 21
2025.832870965381
 31
0.0
  0
LINE
  5
29F6
330
1F
100
AcDbEntity
  8
SANINDUSA
100
AcDbLine
 10
7478.490701459779
 20
2025.831409858241
 30
0.0
 11
7478.49216256692
 21
2025.832870965381
 31
0.0
  0
LINE
  5
29F7
330
1F
100
AcDbEntity
  8
SANINDUSA
100
AcDbLine
 10
7478.493440566919
 20
2025.832870965381
 30
0.0
 11
7478.493440566919
 21
2025.832391018564
 31
0.0
  0
LINE
  5
29F8
330
1F
100
AcDbEntity
  8
SANINDUSA
100
AcDbLine
 10
7478.49490167406
 20
2025.831409858241
 30
0.0
 11
7478.493440566919
 21
2025.832870965381
 31
0.0
  0
LINE
  5
29F9
330
1F
100
AcDbEntity
  8
SANINDUSA
100
AcDbLine
 10
7478.49490167406
 20
2025.831409858241
 30
0.0
 11
7478.493920513736
 21
2025.832870965381
 31
0.0
  0
ARC
  5
29FA
330
1F
100
AcDbEntity
  8
SANINDUSA
100
AcDbCircle
 10
7478.492801566919
 20
2025.833509965381
 30
0.0
 40
0.009
100
AcDbArc
 50
180.0
 51
0.0
  0
LINE
  5
29FB
330
1F
100
AcDbEntity
  8
SANINDUSA
100
AcDbLine
 10
7478.48480156692
 20
2025.816009965381
 30
0.0
 11
7478.48480156692
 21
2025.829386859755
 31
0.0
  0
CIRCLE
  5
29FC
330
1F
100
AcDbEntity
  8
SANINDUSA
100
AcDbCircle
 10
7478.492801566919
 20
2025.833509965381
 30
0.0
 40
0.005085
  0
LINE
  5
29FD
330
1F
100
AcDbEntity
  8
SANINDUSA
100
AcDbLine
 10
7478.507801566919
 20
2025.855759965381
 30
0.0
 11
7478.507801566919
 21
2025.852759965381
 31
0.0
  0
LINE
  5
29FE
330
1F
100
AcDbEntity
  8
SANINDUSA
100
AcDbLine
 10
7478.477801566919
 20
2025.852759965381
 30
0.0
 11
7478.477801566919
 21
2025.855759965381
 31
0.0
  0
LINE
  5
29FF
330
1F
100
AcDbEntity
  8
SANINDUSA
100
AcDbLine
 10
7478.505801566919
 20
2025.850759965381
 30
0.0
 11
7478.479801566919
 21
2025.850759965381
 31
0.0
  0
ARC
  5
2A00
330
1F
100
AcDbEntity
  8
SANINDUSA
100
AcDbCircle
 10
7478.479801566919
 20
2025.852759965381
 30
0.0
 40
0.002
100
AcDbArc
 50
180.0
 51
270.0
  0
ARC
  5
2A01
330
1F
100
AcDbEntity
  8
SANINDUSA
100
AcDbCircle
 10
7478.505801566919
 20
2025.852759965381
 30
0.0
 40
0.002
100
AcDbArc
 50
270.0
 51
0.0
  0
LINE
  5
2A02
330
1F
100
AcDbEntity
  8
SANINDUSA
100
AcDbLine
 10
7478.477801566919
 20
2025.855759965381
 30
0.0
 11
7478.507801566919
 21
2025.855759965381
 31
0.0
  0
LINE
  5
2A03
330
1F
100
AcDbEntity
  8
SANINDUSA
100
AcDbLine
 10
7478.48380156692
 20
2025.199354666194
 30
0.0000000001479286
 11
7478.48380156692
 21
2025.182104666194
 31
0.0000000001479286
  0
LINE
  5
2A04
330
1F
100
AcDbEntity
  8
SANINDUSA
100
AcDbLine
 10
7478.48480156692
 20
2025.216854666194
 30
0.0000000001479286
 11
7478.48480156692
 21
2025.203477771819
 31
0.0000000001479286
  0
LINE
  5
2A05
330
1F
100
AcDbEntity
  8
SANINDUSA
100
AcDbLine
 10
7478.49490167406
 20
2025.197254559054
 30
0.0000000001479286
 11
7478.493440566919
 21
2025.198235719377
 31
0.0000000001479286
  0
LINE
  5
2A06
330
1F
100
AcDbEntity
  8
SANINDUSA
100
AcDbLine
 10
7478.491682620102
 20
2025.199993666194
 30
0.0000000001479286
 11
7478.490701459779
 21
2025.201454773334
 31
0.0000000001479286
  0
LINE
  5
2A07
330
1F
100
AcDbEntity
  8
SANINDUSA
100
AcDbLine
 10
7478.492801566919
 20
2025.199354666194
 30
0.0000000001479286
 11
7478.49216256692
 21
2025.199354666194
 31
0.0000000001479286
  0
LINE
  5
2A08
330
1F
100
AcDbEntity
  8
SANINDUSA
100
AcDbLine
 10
7478.49216256692
 20
2025.199993666194
 30
0.0000000001479286
 11
7478.49216256692
 21
2025.198715666194
 31
0.0000000001479286
  0
LINE
  5
2A09
330
1F
100
AcDbEntity
  8
SANINDUSA
100
AcDbLine
 10
7478.49216256692
 20
2025.198715666194
 30
0.0000000001479286
 11
7478.492801566919
 21
2025.199354666194
 31
0.0000000001479286
  0
LINE
  5
2A0A
330
1F
100
AcDbEntity
  8
SANINDUSA
100
AcDbLine
 10
7478.492801566919
 20
2025.198715666194
 30
0.0000000001479286
 11
7478.492801566919
 21
2025.199354666194
 31
0.0000000001479286
  0
LINE
  5
2A0B
330
1F
100
AcDbEntity
  8
SANINDUSA
100
AcDbLine
 10
7478.493440566919
 20
2025.198715666194
 30
0.0000000001479286
 11
7478.49216256692
 21
2025.198715666194
 31
0.0000000001479286
  0
LINE
  5
2A0C
330
1F
100
AcDbEntity
  8
SANINDUSA
100
AcDbLine
 10
7478.49216256692
 20
2025.199993666194
 30
0.0000000001479286
 11
7478.491682620102
 21
2025.199993666194
 31
0.0000000001479286
  0
LINE
  5
2A0D
330
1F
100
AcDbEntity
  8
SANINDUSA
100
AcDbLine
 10
7478.493440566919
 20
2025.198235719377
 30
0.0000000001479286
 11
7478.493440566919
 21
2025.198715666194
 31
0.0000000001479286
  0
LINE
  5
2A0E
330
1F
100
AcDbEntity
  8
SANINDUSA
100
AcDbLine
 10
7478.50180156692
 20
2025.199354666194
 30
0.0000000001479286
 11
7478.50180156692
 21
2025.182104666194
 31
0.0000000001479286
  0
CIRCLE
  5
2A0F
330
1F
100
AcDbEntity
  8
SANINDUSA
100
AcDbCircle
 10
7478.492801566919
 20
2025.199354666194
 30
0.0000000001479286
 40
0.005085
  0
ARC
  5
2A10
330
1F
100
AcDbEntity
  8
SANINDUSA
100
AcDbCircle
 10
7478.492801566919
 20
2025.199354666194
 30
0.0000000001479286
 40
0.009
100
AcDbArc
 50
0.0
 51
180.0
  0
LINE
  5
2A11
330
1F
100
AcDbEntity
  8
SANINDUSA
100
AcDbLine
 10
7478.493440566919
 20
2025.196384666194
 30
0.0000000001479286
 11
7478.49216256692
 21
2025.196384666194
 31
0.0000000001479286
  0
LINE
  5
2A12
330
1F
100
AcDbEntity
  8
SANINDUSA
100
AcDbLine
 10
7478.493440566919
 20
2025.198235719377
 30
0.0000000001479286
 11
7478.493440566919
 21
2025.196384666194
 31
0.0000000001479286
  0
LINE
  5
2A13
330
1F
100
AcDbEntity
  8
SANINDUSA
100
AcDbLine
 10
7478.470301566919
 20
2025.182104666194
 30
0.0000000001479286
 11
7478.515301566919
 21
2025.182104666194
 31
0.0000000001479286
  0
LINE
  5
2A14
330
1F
100
AcDbEntity
  8
SANINDUSA
100
AcDbLine
 10
7478.470301566919
 20
2025.164104666194
 30
0.0000000001479286
 11
7478.515301566919
 21
2025.164104666194
 31
0.0000000001479286
  0
LINE
  5
2A15
330
1F
100
AcDbEntity
  8
SANINDUSA
100
AcDbLine
 10
7478.515301566919
 20
2025.182104666194
 30
0.0000000001479286
 11
7478.515301566919
 21
2025.164104666194
 31
0.0000000001479286
  0
LINE
  5
2A16
330
1F
100
AcDbEntity
  8
SANINDUSA
100
AcDbLine
 10
7478.49216256692
 20
2025.196384666194
 30
0.0000000001479286
 11
7478.49216256692
 21
2025.198235719377
 31
0.0000000001479286
  0
LINE
  5
2A17
330
1F
100
AcDbEntity
  8
SANINDUSA
100
AcDbLine
 10
7478.489831566919
 20
2025.198715666194
 30
0.0000000001479286
 11
7478.489831566919
 21
2025.199993666194
 31
0.0000000001479286
  0
LINE
  5
2A18
330
1F
100
AcDbEntity
  8
SANINDUSA
100
AcDbLine
 10
7478.489831566919
 20
2025.199993666194
 30
0.0000000001479286
 11
7478.491682620102
 21
2025.199993666194
 31
0.0000000001479286
  0
LINE
  5
2A19
330
1F
100
AcDbEntity
  8
SANINDUSA
100
AcDbLine
 10
7478.491682620102
 20
2025.198715666194
 30
0.0000000001479286
 11
7478.489831566919
 21
2025.198715666194
 31
0.0000000001479286
  0
LINE
  5
2A1A
330
1F
100
AcDbEntity
  8
SANINDUSA
100
AcDbLine
 10
7478.49216256692
 20
2025.198715666194
 30
0.0000000001479286
 11
7478.49216256692
 21
2025.198235719377
 31
0.0000000001479286
  0
LINE
  5
2A1B
330
1F
100
AcDbEntity
  8
SANINDUSA
100
AcDbLine
 10
7478.49216256692
 20
2025.198235719377
 30
0.0000000001479286
 11
7478.490701459779
 21
2025.197254559054
 31
0.0000000001479286
  0
LINE
  5
2A1C
330
1F
100
AcDbEntity
  8
SANINDUSA
100
AcDbLine
 10
7478.491682620102
 20
2025.198715666194
 30
0.0000000001479286
 11
7478.49216256692
 21
2025.198715666194
 31
0.0000000001479286
  0
LINE
  5
2A1D
330
1F
100
AcDbEntity
  8
SANINDUSA
100
AcDbLine
 10
7478.490701459779
 20
2025.197254559054
 30
0.0000000001479286
 11
7478.49216256692
 21
2025.198715666194
 31
0.0000000001479286
  0
LINE
  5
2A1E
330
1F
100
AcDbEntity
  8
SANINDUSA
100
AcDbLine
 10
7478.490701459779
 20
2025.197254559054
 30
0.0000000001479286
 11
7478.491682620102
 21
2025.198715666194
 31
0.0000000001479286
  0
LINE
  5
2A1F
330
1F
100
AcDbEntity
  8
SANINDUSA
100
AcDbLine
 10
7478.470301566919
 20
2025.182104666194
 30
0.0000000001479286
 11
7478.470301566919
 21
2025.164104666194
 31
0.0000000001479286
  0
LINE
  5
2A20
330
1F
100
AcDbEntity
  8
SANINDUSA
100
AcDbLine
 10
7478.495771566919
 20
2025.199993666194
 30
0.0000000001479286
 11
7478.495771566919
 21
2025.198715666194
 31
0.0000000001479286
  0
LINE
  5
2A21
330
1F
100
AcDbEntity
  8
SANINDUSA
100
AcDbLine
 10
7478.493920513736
 20
2025.198715666194
 30
0.0000000001479286
 11
7478.49490167406
 21
2025.197254559054
 31
0.0000000001479286
  0
LINE
  5
2A22
330
1F
100
AcDbEntity
  8
SANINDUSA
100
AcDbLine
 10
7478.49490167406
 20
2025.197254559054
 30
0.0000000001479286
 11
7478.493440566919
 21
2025.198715666194
 31
0.0000000001479286
  0
LINE
  5
2A23
330
1F
100
AcDbEntity
  8
SANINDUSA
100
AcDbLine
 10
7478.495771566919
 20
2025.198715666194
 30
0.0000000001479286
 11
7478.493920513736
 21
2025.198715666194
 31
0.0000000001479286
  0
LINE
  5
2A24
330
1F
100
AcDbEntity
  8
SANINDUSA
100
AcDbLine
 10
7478.500801566919
 20
2025.216854666194
 30
0.0000000001479286
 11
7478.500801566919
 21
2025.203477771819
 31
0.0000000001479286
  0
LINE
  5
2A25
330
1F
100
AcDbEntity
  8
SANINDUSA
100
AcDbLine
 10
7478.48480156692
 20
2025.216854666194
 30
0.0000000001479286
 11
7478.500801566919
 21
2025.216854666194
 31
0.0000000001479286
  0
LINE
  5
2A26
330
1F
100
AcDbEntity
  8
SANINDUSA
100
AcDbLine
 10
7478.493440566919
 20
2025.202324666194
 30
0.0000000001479286
 11
7478.493440566919
 21
2025.200473613011
 31
0.0000000001479286
  0
LINE
  5
2A27
330
1F
100
AcDbEntity
  8
SANINDUSA
100
AcDbLine
 10
7478.493440566919
 20
2025.200473613011
 30
0.0000000001479286
 11
7478.49490167406
 21
2025.201454773334
 31
0.0000000001479286
  0
LINE
  5
2A28
330
1F
100
AcDbEntity
  8
SANINDUSA
100
AcDbLine
 10
7478.49490167406
 20
2025.201454773334
 30
0.0000000001479286
 11
7478.493440566919
 21
2025.199993666194
 31
0.0000000001479286
  0
LINE
  5
2A29
330
1F
100
AcDbEntity
  8
SANINDUSA
100
AcDbLine
 10
7478.49490167406
 20
2025.201454773334
 30
0.0000000001479286
 11
7478.493920513736
 21
2025.199993666194
 31
0.0000000001479286
  0
LINE
  5
2A2A
330
1F
100
AcDbEntity
  8
SANINDUSA
100
AcDbLine
 10
7478.493920513736
 20
2025.199993666194
 30
0.0000000001479286
 11
7478.495771566919
 21
2025.199993666194
 31
0.0000000001479286
  0
LINE
  5
2A2B
330
1F
100
AcDbEntity
  8
SANINDUSA
100
AcDbLine
 10
7478.493440566919
 20
2025.199993666194
 30
0.0000000001479286
 11
7478.493440566919
 21
2025.200473613011
 31
0.0000000001479286
  0
LINE
  5
2A2C
330
1F
100
AcDbEntity
  8
SANINDUSA
100
AcDbLine
 10
7478.493920513736
 20
2025.199993666194
 30
0.0000000001479286
 11
7478.493440566919
 21
2025.199993666194
 31
0.0000000001479286
  0
LINE
  5
2A2D
330
1F
100
AcDbEntity
  8
SANINDUSA
100
AcDbLine
 10
7478.49216256692
 20
2025.202324666194
 30
0.0000000001479286
 11
7478.493440566919
 21
2025.202324666194
 31
0.0000000001479286
  0
LINE
  5
2A2E
330
1F
100
AcDbEntity
  8
SANINDUSA
100
AcDbLine
 10
7478.490701459779
 20
2025.201454773334
 30
0.0000000001479286
 11
7478.49216256692
 21
2025.199993666194
 31
0.0000000001479286
  0
LINE
  5
2A2F
330
1F
100
AcDbEntity
  8
SANINDUSA
100
AcDbLine
 10
7478.490701459779
 20
2025.201454773334
 30
0.0000000001479286
 11
7478.49216256692
 21
2025.200473613011
 31
0.0000000001479286
  0
LINE
  5
2A30
330
1F
100
AcDbEntity
  8
SANINDUSA
100
AcDbLine
 10
7478.493440566919
 20
2025.199354666194
 30
0.0000000001479286
 11
7478.492801566919
 21
2025.199354666194
 31
0.0000000001479286
  0
LINE
  5
2A31
330
1F
100
AcDbEntity
  8
SANINDUSA
100
AcDbLine
 10
7478.492801566919
 20
2025.199354666194
 30
0.0000000001479286
 11
7478.49216256692
 21
2025.199993666194
 31
0.0000000001479286
  0
LINE
  5
2A32
330
1F
100
AcDbEntity
  8
SANINDUSA
100
AcDbLine
 10
7478.492801566919
 20
2025.199354666194
 30
0.0000000001479286
 11
7478.492801566919
 21
2025.199993666194
 31
0.0000000001479286
  0
LINE
  5
2A33
330
1F
100
AcDbEntity
  8
SANINDUSA
100
AcDbLine
 10
7478.492801566919
 20
2025.199354666194
 30
0.0000000001479286
 11
7478.493440566919
 21
2025.198715666194
 31
0.0000000001479286
  0
LINE
  5
2A34
330
1F
100
AcDbEntity
  8
SANINDUSA
100
AcDbLine
 10
7478.49216256692
 20
2025.200473613011
 30
0.0000000001479286
 11
7478.49216256692
 21
2025.199993666194
 31
0.0000000001479286
  0
LINE
  5
2A35
330
1F
100
AcDbEntity
  8
SANINDUSA
100
AcDbLine
 10
7478.493440566919
 20
2025.198715666194
 30
0.0000000001479286
 11
7478.493920513736
 21
2025.198715666194
 31
0.0000000001479286
  0
LINE
  5
2A36
330
1F
100
AcDbEntity
  8
SANINDUSA
100
AcDbLine
 10
7478.49216256692
 20
2025.200473613011
 30
0.0000000001479286
 11
7478.49216256692
 21
2025.202324666194
 31
0.0000000001479286
  0
LINE
  5
2A37
330
1F
100
AcDbEntity
  8
SANINDUSA
100
AcDbLine
 10
7478.493440566919
 20
2025.199993666194
 30
0.0000000001479286
 11
7478.492801566919
 21
2025.199354666194
 31
0.0000000001479286
  0
LINE
  5
2A38
330
1F
100
AcDbEntity
  8
SANINDUSA
100
AcDbLine
 10
7478.493440566919
 20
2025.198715666194
 30
0.0000000001479286
 11
7478.493440566919
 21
2025.199993666194
 31
0.0000000001479286
  0
LINE
  5
2A39
330
1F
100
AcDbEntity
  8
SANINDUSA
100
AcDbLine
 10
7478.49216256692
 20
2025.199993666194
 30
0.0000000001479286
 11
7478.493440566919
 21
2025.199993666194
 31
0.0000000001479286
  0
LINE
  5
2A3A
330
1F
100
AcDbEntity
  8
SANINDUSA
100
AcDbLine
 10
7478.48480156692
 20
2025.209854666194
 30
0.0000000001479286
 11
7478.500801566919
 21
2025.209854666194
 31
0.0000000001479286
  0
CIRCLE
  5
2A40
330
1F
100
AcDbEntity
  8
SANINDUSA
100
AcDbCircle
 10
7478.21380156692
 20
2025.1628046139
 30
0.0000000001479286
 40
0.008
  0
ARC
  5
2A93
330
1F
100
AcDbEntity
  8
SANINDUSA
100
AcDbCircle
 10
7479.879090137226
 20
2026.022185618755
 30
-0.0000000017937957
 40
0.001
100
AcDbArc
 50
0.0
 51
90.0
  0
LINE
  5
2A94
330
1F
100
AcDbEntity
  8
SANINDUSA
100
AcDbLine
 10
7479.804090137225
 20
2026.023185618755
 30
-0.0000000017937957
 11
7479.745090137225
 21
2026.023185618755
 31
-0.0000000017937957
  0
ARC
  5
2A95
330
1F
100
AcDbEntity
  8
SANINDUSA
100
AcDbCircle
 10
7479.745090137225
 20
2026.022185618755
 30
-0.0000000017937957
 40
0.001
100
AcDbArc
 50
90.0
 51
180.0
  0
ARC
  5
2A96
330
1F
100
AcDbEntity
  8
SANINDUSA
100
AcDbCircle
 10
7479.805090137225
 20
2026.028685618755
 30
-0.0000000017937957
 40
0.001
100
AcDbArc
 50
90.0
 51
180.0
  0
LINE
  5
2A97
330
1F
100
AcDbEntity
  8
SANINDUSA
100
AcDbLine
 10
7479.804090137225
 20
2026.028685618755
 30
-0.0000000017937957
 11
7479.804090137225
 21
2026.023185618755
 31
-0.0000000017937957
  0
LINE
  5
2A98
330
1F
100
AcDbEntity
  8
SANINDUSA
100
AcDbLine
 10
7479.804590137224
 20
2026.007685618755
 30
-0.0000000017937957
 11
7479.804590137224
 21
2026.003685618755
 31
-0.0000000017937957
  0
LINE
  5
2A99
330
1F
100
AcDbEntity
  8
SANINDUSA
100
AcDbLine
 10
7479.804090137225
 20
2026.023185618755
 30
-0.0000000017937957
 11
7479.804090137225
 21
2026.007685618755
 31
-0.0000000017937957
  0
ARC
  5
2A9A
330
1F
100
AcDbEntity
  8
SANINDUSA
100
AcDbCircle
 10
7479.819090137225
 20
2026.028685618755
 30
-0.0000000017937957
 40
0.001
100
AcDbArc
 50
0.0
 51
90.0
  0
LINE
  5
2A9B
330
1F
100
AcDbEntity
  8
SANINDUSA
100
AcDbLine
 10
7479.819090137225
 20
2026.029685618755
 30
-0.0000000017937957
 11
7479.805090137225
 21
2026.029685618755
 31
-0.0000000017937957
  0
LINE
  5
2A9C
330
1F
100
AcDbEntity
  8
SANINDUSA
100
AcDbLine
 10
7479.819590137225
 20
2026.007685618755
 30
-0.0000000017937957
 11
7479.819590137225
 21
2026.003685618755
 31
-0.0000000017937957
  0
LINE
  5
2A9D
330
1F
100
AcDbEntity
  8
SANINDUSA
100
AcDbLine
 10
7479.820090137225
 20
2026.003685618755
 30
-0.0000000017937957
 11
7479.820979026114
 21
2026.003685618755
 31
-0.0000000017937957
  0
LINE
  5
2A9E
330
1F
100
AcDbEntity
  8
SANINDUSA
100
AcDbLine
 10
7479.803201248336
 20
2026.007685618755
 30
-0.0000000017937957
 11
7479.820090137225
 21
2026.007685618755
 31
-0.0000000017937957
  0
LINE
  5
2A9F
330
1F
100
AcDbEntity
  8
SANINDUSA
100
AcDbLine
 10
7479.820090137225
 20
2026.003685618755
 30
-0.0000000017937957
 11
7479.804090137225
 21
2026.003685618755
 31
-0.0000000017937957
  0
LINE
  5
2AA0
330
1F
100
AcDbEntity
  8
SANINDUSA
100
AcDbLine
 10
7479.820090137225
 20
2026.007685618755
 30
-0.0000000017937957
 11
7479.820090137225
 21
2026.028685618755
 31
-0.0000000017937957
  0
LINE
  5
2AA1
330
1F
100
AcDbEntity
  8
SANINDUSA
100
AcDbLine
 10
7479.820979026114
 20
2026.003685618755
 30
-0.0000000017937957
 11
7479.820979026114
 21
2026.023185618755
 31
-0.0000000017937957
  0
LINE
  5
2AA2
330
1F
100
AcDbEntity
  8
SANINDUSA
100
AcDbLine
 10
7479.820979026114
 20
2026.023185618755
 30
-0.0000000017937957
 11
7479.879090137226
 21
2026.023185618755
 31
-0.0000000017937957
  0
ARC
  5
2AA3
330
1F
100
AcDbEntity
  8
SANINDUSA
100
AcDbCircle
 10
7479.879090137226
 20
2025.989185618755
 30
-0.0000000017937957
 40
0.001
100
AcDbArc
 50
270.0
 51
0.0
  0
ARC
  5
2AA4
330
1F
100
AcDbEntity
  8
SANINDUSA
100
AcDbCircle
 10
7479.805090137225
 20
2025.982685618755
 30
-0.0000000017937957
 40
0.001
100
AcDbArc
 50
180.0
 51
270.0
  0
ARC
  5
2AA5
330
1F
100
AcDbEntity
  8
SANINDUSA
100
AcDbCircle
 10
7479.819090137225
 20
2025.982685618755
 30
-0.0000000017937957
 40
0.001
100
AcDbArc
 50
270.0
 51
0.0
  0
LINE
  5
2AA6
330
1F
100
AcDbEntity
  8
SANINDUSA
100
AcDbLine
 10
7479.805090137225
 20
2025.981685618755
 30
-0.0000000017937957
 11
7479.819090137225
 21
2025.981685618755
 31
-0.0000000017937957
  0
LINE
  5
2AA7
330
1F
100
AcDbEntity
  8
SANINDUSA
100
AcDbLine
 10
7479.745090137225
 20
2025.988185618755
 30
-0.0000000017937957
 11
7479.803201248336
 21
2025.988185618755
 31
-0.0000000017937957
  0
ARC
  5
2AA8
330
1F
100
AcDbEntity
  8
SANINDUSA
100
AcDbCircle
 10
7479.745090137225
 20
2025.989185618755
 30
-0.0000000017937957
 40
0.001
100
AcDbArc
 50
180.0
 51
270.0
  0
LINE
  5
2AA9
330
1F
100
AcDbEntity
  8
SANINDUSA
100
AcDbLine
 10
7479.879090137226
 20
2025.988185618755
 30
-0.0000000017937957
 11
7479.820090137225
 21
2025.988185618755
 31
-0.0000000017937957
  0
LINE
  5
2AAA
330
1F
100
AcDbEntity
  8
SANINDUSA
100
AcDbLine
 10
7479.804090137225
 20
2026.003685618755
 30
-0.0000000017937957
 11
7479.804090137225
 21
2025.982685618755
 31
-0.0000000017937957
  0
LINE
  5
2AAB
330
1F
100
AcDbEntity
  8
SANINDUSA
100
AcDbLine
 10
7479.820090137225
 20
2025.982685618755
 30
-0.0000000017937957
 11
7479.820090137225
 21
2026.003685618755
 31
-0.0000000017937957
  0
LINE
  5
2AAC
330
1F
100
AcDbEntity
  8
SANINDUSA
100
AcDbLine
 10
7479.744090137225
 20
2026.022185618755
 30
-0.0000000017937957
 11
7479.744090137225
 21
2025.989185618755
 31
-0.0000000017937957
  0
LINE
  5
2AAD
330
1F
100
AcDbEntity
  8
SANINDUSA
100
AcDbLine
 10
7479.803201248336
 20
2025.988185618755
 30
-0.0000000017937957
 11
7479.803201248336
 21
2026.007685618755
 31
-0.0000000017937957
  0
LINE
  5
2AAE
330
1F
100
AcDbEntity
  8
SANINDUSA
100
AcDbLine
 10
7479.880090137225
 20
2026.022185618755
 30
-0.0000000017937957
 11
7479.880090137225
 21
2025.989185618755
 31
-0.0000000017937957
  0
ARC
  5
2AB0
330
1F
100
AcDbEntity
  8
SANINDUSA
100
AcDbCircle
 10
7479.879090137226
 20
2024.762185618764
 30
-0.0000000017937957
 40
0.001
100
AcDbArc
 50
0.0
 51
90.0
  0
LINE
  5
2AB1
330
1F
100
AcDbEntity
  8
SANINDUSA
100
AcDbLine
 10
7479.880090137225
 20
2024.762185618764
 30
-0.0000000017937957
 11
7479.880090137225
 21
2024.729185618765
 31
-0.0000000017937957
  0
ARC
  5
2AB2
330
1F
100
AcDbEntity
  8
SANINDUSA
100
AcDbCircle
 10
7479.879090137226
 20
2024.729185618765
 30
-0.0000000017937957
 40
0.001
100
AcDbArc
 50
270.0
 51
0.0
  0
ARC
  5
2AB3
330
1F
100
AcDbEntity
  8
SANINDUSA
100
AcDbCircle
 10
7479.805090137225
 20
2024.768685618764
 30
-0.0000000017937957
 40
0.001
100
AcDbArc
 50
90.0
 51
180.0
  0
ARC
  5
2AB4
330
1F
100
AcDbEntity
  8
SANINDUSA
100
AcDbCircle
 10
7479.819090137225
 20
2024.768685618764
 30
-0.0000000017937957
 40
0.001
100
AcDbArc
 50
0.0
 51
90.0
  0
LINE
  5
2AB5
330
1F
100
AcDbEntity
  8
SANINDUSA
100
AcDbLine
 10
7479.804090137225
 20
2024.763185618764
 30
-0.0000000017937957
 11
7479.745090137225
 21
2024.763185618764
 31
-0.0000000017937957
  0
LINE
  5
2AB6
330
1F
100
AcDbEntity
  8
SANINDUSA
100
AcDbLine
 10
7479.745090137225
 20
2024.728185618764
 30
-0.0000000017937957
 11
7479.803201248336
 21
2024.728185618764
 31
-0.0000000017937957
  0
ARC
  5
2AB7
330
1F
100
AcDbEntity
  8
SANINDUSA
100
AcDbCircle
 10
7479.745090137225
 20
2024.762185618764
 30
-0.0000000017937957
 40
0.001
100
AcDbArc
 50
90.0
 51
180.0
  0
ARC
  5
2AB8
330
1F
100
AcDbEntity
  8
SANINDUSA
100
AcDbCircle
 10
7479.745090137225
 20
2024.729185618765
 30
-0.0000000017937957
 40
0.001
100
AcDbArc
 50
180.0
 51
270.0
  0
LINE
  5
2AB9
330
1F
100
AcDbEntity
  8
SANINDUSA
100
AcDbLine
 10
7479.744090137225
 20
2024.762185618764
 30
-0.0000000017937957
 11
7479.744090137225
 21
2024.729185618765
 31
-0.0000000017937957
  0
LINE
  5
2ABA
330
1F
100
AcDbEntity
  8
SANINDUSA
100
AcDbLine
 10
7479.804090137225
 20
2024.768685618764
 30
-0.0000000017937957
 11
7479.804090137225
 21
2024.763185618764
 31
-0.0000000017937957
  0
LINE
  5
2ABB
330
1F
100
AcDbEntity
  8
SANINDUSA
100
AcDbLine
 10
7479.804090137225
 20
2024.743685618764
 30
-0.0000000017937957
 11
7479.804090137225
 21
2024.722685618764
 31
-0.0000000017937957
  0
LINE
  5
2ABC
330
1F
100
AcDbEntity
  8
SANINDUSA
100
AcDbLine
 10
7479.803201248336
 20
2024.728185618764
 30
-0.0000000017937957
 11
7479.803201248336
 21
2024.747685618764
 31
-0.0000000017937957
  0
ARC
  5
2ABD
330
1F
100
AcDbEntity
  8
SANINDUSA
100
AcDbCircle
 10
7479.805090137225
 20
2024.722685618764
 30
-0.0000000017937957
 40
0.001
100
AcDbArc
 50
180.0
 51
270.0
  0
LINE
  5
2ABE
330
1F
100
AcDbEntity
  8
SANINDUSA
100
AcDbLine
 10
7479.804590137224
 20
2024.747685618764
 30
-0.0000000017937957
 11
7479.804590137224
 21
2024.743685618764
 31
-0.0000000017937957
  0
LINE
  5
2ABF
330
1F
100
AcDbEntity
  8
SANINDUSA
100
AcDbLine
 10
7479.804090137225
 20
2024.763185618764
 30
-0.0000000017937957
 11
7479.804090137225
 21
2024.747685618764
 31
-0.0000000017937957
  0
LINE
  5
2AC0
330
1F
100
AcDbEntity
  8
SANINDUSA
100
AcDbLine
 10
7479.819090137225
 20
2024.769685618764
 30
-0.0000000017937957
 11
7479.805090137225
 21
2024.769685618764
 31
-0.0000000017937957
  0
LINE
  5
2AC1
330
1F
100
AcDbEntity
  8
SANINDUSA
100
AcDbLine
 10
7479.820090137225
 20
2024.722685618764
 30
-0.0000000017937957
 11
7479.820090137225
 21
2024.743685618764
 31
-0.0000000017937957
  0
ARC
  5
2AC2
330
1F
100
AcDbEntity
  8
SANINDUSA
100
AcDbCircle
 10
7479.819090137225
 20
2024.722685618764
 30
-0.0000000017937957
 40
0.001
100
AcDbArc
 50
270.0
 51
0.0
  0
LINE
  5
2AC3
330
1F
100
AcDbEntity
  8
SANINDUSA
100
AcDbLine
 10
7479.819590137225
 20
2024.747685618764
 30
-0.0000000017937957
 11
7479.819590137225
 21
2024.743685618764
 31
-0.0000000017937957
  0
LINE
  5
2AC4
330
1F
100
AcDbEntity
  8
SANINDUSA
100
AcDbLine
 10
7479.820090137225
 20
2024.743685618764
 30
-0.0000000017937957
 11
7479.820979026114
 21
2024.743685618764
 31
-0.0000000017937957
  0
LINE
  5
2AC5
330
1F
100
AcDbEntity
  8
SANINDUSA
100
AcDbLine
 10
7479.805090137225
 20
2024.721685618764
 30
-0.0000000017937957
 11
7479.819090137225
 21
2024.721685618764
 31
-0.0000000017937957
  0
LINE
  5
2AC6
330
1F
100
AcDbEntity
  8
SANINDUSA
100
AcDbLine
 10
7479.803201248336
 20
2024.747685618764
 30
-0.0000000017937957
 11
7479.820090137225
 21
2024.747685618764
 31
-0.0000000017937957
  0
LINE
  5
2AC7
330
1F
100
AcDbEntity
  8
SANINDUSA
100
AcDbLine
 10
7479.820090137225
 20
2024.743685618764
 30
-0.0000000017937957
 11
7479.804090137225
 21
2024.743685618764
 31
-0.0000000017937957
  0
LINE
  5
2AC8
330
1F
100
AcDbEntity
  8
SANINDUSA
100
AcDbLine
 10
7479.820090137225
 20
2024.747685618764
 30
-0.0000000017937957
 11
7479.820090137225
 21
2024.768685618764
 31
-0.0000000017937957
  0
LINE
  5
2AC9
330
1F
100
AcDbEntity
  8
SANINDUSA
100
AcDbLine
 10
7479.820979026114
 20
2024.743685618764
 30
-0.0000000017937957
 11
7479.820979026114
 21
2024.763185618764
 31
-0.0000000017937957
  0
LINE
  5
2ACA
330
1F
100
AcDbEntity
  8
SANINDUSA
100
AcDbLine
 10
7479.820979026114
 20
2024.763185618764
 30
-0.0000000017937957
 11
7479.879090137226
 21
2024.763185618764
 31
-0.0000000017937957
  0
LINE
  5
2ACB
330
1F
100
AcDbEntity
  8
SANINDUSA
100
AcDbLine
 10
7479.879090137226
 20
2024.728185618764
 30
-0.0000000017937957
 11
7479.820090137225
 21
2024.728185618764
 31
-0.0000000017937957
  0
LINE
  5
2AD1
330
1F
100
AcDbEntity
  8
SANINDUSA
  6
Continuous
100
AcDbLine
 10
7479.810590137225
 20
2026.300685618764
 30
0.0
 11
7479.170149272611
 21
2026.300685618764
 31
0.0
  0
LINE
  5
2AD2
330
1F
100
AcDbEntity
  8
SANINDUSA
100
AcDbLine
 10
7479.810590137225
 20
2024.460685618764
 30
0.0
 11
7479.186185914439
 21
2024.460685618764
 31
0.0
  0
LINE
  5
2AD4
330
1F
100
AcDbEntity
  8
SANINDUSA
  6
Continuous
100
AcDbLine
 10
7480.546472925351
 20
2024.450685618765
 30
0.0
 11
7479.146149272613
 21
2024.450685618765
 31
0.0
  0
LINE
  5
2AD5
330
1F
100
AcDbEntity
  8
SANINDUSA
100
AcDbLine
 10
7479.196436880894
 20
2024.460685618764
 30
0.0
 11
7479.196436880894
 21
2026.300685618764
 31
0.0
  0
LINE
  5
2AD6
330
1F
100
AcDbEntity
  8
SANINDUSA
100
AcDbLine
 10
7479.164449272613
 20
2024.460685618764
 30
0.0
 11
7479.164449272613
 21
2026.300685618764
 31
0.0
  0
LINE
  5
2AD7
330
1F
100
AcDbEntity
  8
SANINDUSA
100
AcDbLine
 10
7479.158449272613
 20
2024.460685618764
 30
0.0
 11
7479.158449272613
 21
2026.300685618764
 31
0.0
  0
LINE
  5
2AD8
330
1F
100
AcDbEntity
  8
SANINDUSA
100
AcDbLine
 10
7479.146149272613
 20
2024.450685618765
 30
0.0
 11
7479.146149272613
 21
2026.300685618764
 31
0.0
  0
LINE
  5
2AD9
330
1F
100
AcDbEntity
  8
SANINDUSA
100
AcDbLine
 10
7479.185850938971
 20
2024.450685618765
 30
0.0
 11
7479.185850938971
 21
2026.300685618764
 31
0.0
  0
LINE
  5
2ADE
330
1F
100
AcDbEntity
  8
SANINDUSA
100
AcDbLine
 10
7479.164449272613
 20
2024.460685618764
 30
0.0
 11
7479.158449272613
 21
2024.460685618764
 31
0.0
  0
LINE
  5
2ADF
330
1F
100
AcDbEntity
  8
SANINDUSA
100
AcDbLine
 10
7479.170149272611
 20
2026.300685618764
 30
0.0
 11
7479.146149272613
 21
2026.300685618764
 31
0.0
  0
LINE
  5
2AE0
330
1F
100
AcDbEntity
  8
SANINDUSA
  6
Continuous
100
AcDbLine
 10
7479.810590137225
 20
2024.769685618764
 30
0.0
 11
7479.810590137225
 21
2025.981685618755
 31
0.0
  0
LINE
  5
2AE1
330
1F
100
AcDbEntity
  8
SANINDUSA
  6
Continuous
100
AcDbLine
 10
7479.813590137225
 20
2024.769685618764
 30
0.0
 11
7479.813590137225
 21
2025.981685618755
 31
0.0
  0
LINE
  5
2AE2
330
1F
100
AcDbEntity
  8
SANINDUSA
  6
Continuous
100
AcDbLine
 10
7480.491622925352
 20
2024.450685618765
 30
0.0
 11
7480.491622925352
 21
2026.300685618764
 31
0.0
  0
LINE
  5
2AE3
330
1F
100
AcDbEntity
  8
SANINDUSA
  6
Continuous
100
AcDbLine
 10
7480.546472925351
 20
2024.450685618765
 30
0.0
 11
7480.546472925351
 21
2026.300685618764
 31
0.0
  0
LINE
  5
2AE8
330
1F
100
AcDbEntity
  8
SANINDUSA
  6
Continuous
100
AcDbLine
 10
7479.813590137225
 20
2024.450685618765
 30
0.0
 11
7479.813590137225
 21
2024.721685618764
 31
0.0
  0
LINE
  5
2AE9
330
1F
100
AcDbEntity
  8
SANINDUSA
  6
Continuous
100
AcDbLine
 10
7479.810590137225
 20
2024.460685618764
 30
0.0
 11
7479.810590137225
 21
2024.721685618764
 31
0.0
  0
LINE
  5
2AEB
330
1F
100
AcDbEntity
  8
SANINDUSA
  6
Continuous
100
AcDbLine
 10
7480.546472925351
 20
2026.300685618764
 30
0.0
 11
7479.813590137225
 21
2026.300685618764
 31
0.0
  0
LINE
  5
2AEC
330
1F
100
AcDbEntity
  8
SANINDUSA
  6
Continuous
100
AcDbLine
 10
7479.813590137225
 20
2026.029685618755
 30
0.0
 11
7479.813590137225
 21
2026.300685618764
 31
0.0
  0
LINE
  5
2AED
330
1F
100
AcDbEntity
  8
SANINDUSA
  6
Continuous
100
AcDbLine
 10
7479.810590137225
 20
2026.029685618755
 30
0.0
 11
7479.810590137225
 21
2026.300685618764
 31
0.0
  0
LINE
  5
2AEE
330
1F
100
AcDbEntity
  8
SANINDUSA
100
AcDbLine
 10
7479.148479957648
 20
2026.300685618764
 30
0.0
 11
7479.148479957648
 21
2024.450685618765
 31
0.0
  0
LINE
  5
2AEF
330
1F
100
AcDbEntity
  8
SANINDUSA
100
AcDbLine
 10
7479.222436880893
 20
2026.300685618764
 30
0.0000000001555553
 11
7479.222436880893
 21
2024.460685618764
 31
0.0000000001555553
  0
ENDSEC
  0
SECTION
  2
OBJECTS
  0
DICTIONARY
  5
C
330
0
100
AcDbDictionary
281
     1
  3
ACAD_2007HEADERVARS_RT
350
2D3C
  3
ACAD_COLOR
350
EE6
  3
ACAD_GROUP
350
D
  3
ACAD_LAYOUT
350
1A
  3
ACAD_MATERIAL
350
EE5
  3
ACAD_MLEADERSTYLE
350
2C88
  3
ACAD_MLINESTYLE
350
17
  3
ACAD_PLOTSETTINGS
350
19
  3
ACAD_PLOTSTYLENAME
350
E
  3
ACAD_SCALELIST
350
2C76
  3
ACAD_TABLESTYLE
350
EE7
  3
ACAD_VISUALSTYLE
350
2C62
  3
ACDB_RECOMPOSE_DATA
350
2D3A
  3
AcDbVariableDictionary
350
3D
  3
ASE_INDEX_DICTIONARY
350
E77
  3
DWGPROPS
350
2D3B
  0
DICTIONARY
  5
1051
330
2
100
AcDbDictionary
280
     1
281
     1
  3
ACAD_LAYERFILTERS
360
1057
  3
ACLYDICTIONARY
360
1056
  0
DICTIONARY
  5
2CD3
330
10
100
AcDbDictionary
280
     1
281
     1
  3
ADSK_XREC_LAYER_RECONCILED
360
2CD4
  0
DICTIONARY
  5
2CD5
330
2F
100
AcDbDictionary
280
     1
281
     1
  3
ADSK_XREC_LAYER_RECONCILED
360
2CD6
  0
DICTIONARY
  5
2CD7
330
30
100
AcDbDictionary
280
     1
281
     1
  3
ADSK_XREC_LAYER_RECONCILED
360
2CD8
  0
DICTIONARY
  5
2CD9
330
31
100
AcDbDictionary
280
     1
281
     1
  3
ADSK_XREC_LAYER_RECONCILED
360
2CDA
  0
DICTIONARY
  5
2CDB
330
32
100
AcDbDictionary
280
     1
281
     1
  3
ADSK_XREC_LAYER_RECONCILED
360
2CDC
  0
DICTIONARY
  5
2CDD
330
33
100
AcDbDictionary
280
     1
281
     1
  3
ADSK_XREC_LAYER_RECONCILED
360
2CDE
  0
DICTIONARY
  5
2CDF
330
34
100
AcDbDictionary
280
     1
281
     1
  3
ADSK_XREC_LAYER_RECONCILED
360
2CE0
  0
DICTIONARY
  5
2CE1
330
35
100
AcDbDictionary
280
     1
281
     1
  3
ADSK_XREC_LAYER_RECONCILED
360
2CE2
  0
DICTIONARY
  5
2CE3
330
36
100
AcDbDictionary
280
     1
281
     1
  3
ADSK_XREC_LAYER_RECONCILED
360
2CE4
  0
DICTIONARY
  5
2CE5
330
37
100
AcDbDictionary
280
     1
281
     1
  3
ADSK_XREC_LAYER_RECONCILED
360
2CE6
  0
DICTIONARY
  5
2CE7
330
5D6
100
AcDbDictionary
280
     1
281
     1
  3
ADSK_XREC_LAYER_RECONCILED
360
2CE8
  0
DICTIONARY
  5
2CE9
330
8AF
100
AcDbDictionary
280
     1
281
     1
  3
ADSK_XREC_LAYER_RECONCILED
360
2CEA
  0
DICTIONARY
  5
2CEB
330
8F8
100
AcDbDictionary
280
     1
281
     1
  3
ADSK_XREC_LAYER_RECONCILED
360
2CEC
  0
DICTIONARY
  5
2CED
330
91D
100
AcDbDictionary
280
     1
281
     1
  3
ADSK_XREC_LAYER_RECONCILED
360
2CEE
  0
DICTIONARY
  5
2CEF
330
C7B
100
AcDbDictionary
280
     1
281
     1
  3
ADSK_XREC_LAYER_RECONCILED
360
2CF0
  0
DICTIONARY
  5
2CF1
330
10E9
100
AcDbDictionary
280
     1
281
     1
  3
ADSK_XREC_LAYER_RECONCILED
360
2CF2
  0
DICTIONARY
  5
2207
330
1F
100
AcDbDictionary
280
     1
281
     1
  3
ACAD_SORTENTS
360
2208
  0
DICTIONARY
  5
2D45
330
2BD7
100
AcDbDictionary
280
     1
281
     1
  3
ACAD_MTEXT_RT
360
2D46
  0
DICTIONARY
  5
2D3C
102
{ACAD_REACTORS
330
C
102
}
330
C
100
AcDbDictionary
281
     1
  3
DIMJOGANG
350
2D3D
  0
DICTIONARY
  5
EE6
102
{ACAD_REACTORS
330
C
102
}
330
C
100
AcDbDictionary
281
     1
  0
DICTIONARY
  5
D
102
{ACAD_REACTORS
330
C
102
}
330
C
100
AcDbDictionary
281
     1
  0
DICTIONARY
  5
1A
102
{ACAD_REACTORS
330
C
102
}
330
C
100
AcDbDictionary
281
     1
  3
Layout1
350
1E
  3
Layout2
350
26
  3
Model
350
22
  0
DICTIONARY
  5
EE5
102
{ACAD_REACTORS
330
C
102
}
330
C
100
AcDbDictionary
281
     1
  3
ByBlock
350
2C52
  3
ByLayer
350
2C4A
  3
Global
350
2C5A
  0
DICTIONARY
  5
2C88
102
{ACAD_REACTORS
330
C
102
}
330
C
100
AcDbDictionary
281
     1
  3
Standard
350
2C89
  0
DICTIONARY
  5
17
102
{ACAD_REACTORS
330
C
102
}
330
C
100
AcDbDictionary
281
     1
  3
Standard
350
18
  0
DICTIONARY
  5
19
102
{ACAD_REACTORS
330
C
102
}
330
C
100
AcDbDictionary
281
     1
  0
ACDBDICTIONARYWDFLT
  5
E
102
{ACAD_REACTORS
330
C
102
}
330
C
100
AcDbDictionary
281
     1
  3
Normal
350
F
100
AcDbDictionaryWithDefault
340
F
  0
DICTIONARY
  5
2C76
102
{ACAD_REACTORS
330
C
102
}
330
C
100
AcDbDictionary
281
     1
  3
A0
350
2C77
  3
A1
350
2C78
  3
A2
350
2C79
  3
A3
350
2C7A
  3
A4
350
2C7B
  3
A5
350
2C7C
  3
A6
350
2C7D
  3
A7
350
2C7E
  3
A8
350
2C7F
  3
A9
350
2C80
  3
B0
350
2C81
  3
B1
350
2C82
  3
B2
350
2C83
  3
B3
350
2C84
  3
B4
350
2C85
  3
B5
350
2C86
  3
B6
350
2C87
  0
DICTIONARY
  5
EE7
102
{ACAD_REACTORS
330
C
102
}
330
C
100
AcDbDictionary
281
     1
  3
Standard
350
EE8
  0
DICTIONARY
  5
2C62
102
{ACAD_REACTORS
330
C
102
}
330
C
100
AcDbDictionary
281
     1
  3
2dWireframe
350
2C68
  3
3D Hidden
350
2C6A
  3
3dWireframe
350
2C69
  3
Basic
350
2C67
  3
Brighten
350
2C6E
  3
ColorChange
350
2C72
  3
Conceptual
350
2C6B
  3
Dim
350
2C6D
  3
EdgeColorOff
350
2C75
  3
Facepattern
350
2C71
  3
Flat
350
2C63
  3
FlatWithEdges
350
2C64
  3
Gouraud
350
2C65
  3
GouraudWithEdges
350
2C66
  3
JitterOff
350
2C73
  3
Linepattern
350
2C70
  3
OverhangOff
350
2C74
  3
Realistic
350
2C6C
  3
Thicken
350
2C6F
  0
XRECORD
  5
2D3A
102
{ACAD_REACTORS
330
C
102
}
330
C
100
AcDbXrecord
280
     1
 90
        1
330
EE8
  0
DICTIONARY
  5
3D
102
{ACAD_REACTORS
330
C
102
}
330
C
100
AcDbDictionary
281
     1
  3
CANNOSCALE
350
2D34
  3
CMLEADERSTYLE
350
2D33
  3
CTABLESTYLE
350
1049
  3
DIMASSOC
350
3F
  3
HIDETEXT
350
3E
  3
INDEXCTL
350
2D36
  3
PROJECTNAME
350
2BE5
  3
SORTENTS
350
2D35
  3
XCLIPFRAME
350
2D37
  0
DICTIONARY
  5
E77
102
{ACAD_REACTORS
330
C
102
}
330
C
100
AcDbDictionary
281
     1
  3
ASEBlockHierarchyIndexRecord
350
E78
1001
DCO15
1040
1552647238.734
  0
XRECORD
  5
2D3B
102
{ACAD_REACTORS
330
C
102
}
330
C
100
AcDbXrecord
280
     1
  1
DWGPROPS COOKIE
  2

  3

  4

  6

  7

  8
Julio
  9

300
=
301
=
302
=
303
=
304
=
305
=
306
=
307
=
308
=
309
=
 40
0.0567333912037037
 41
2454138.526907905
 42
2455818.717403599
  1

 90
        0
  0
DICTIONARY
  5
1057
102
{ACAD_REACTORS
330
1051
102
}
330
1051
100
AcDbDictionary
281
     1
  0
DICTIONARY
  5
1056
102
{ACAD_REACTORS
330
1051
102
}
330
1051
100
AcDbDictionary
281
     1
1001
ACAD
1000
<All
  0
XRECORD
  5
2CD4
102
{ACAD_REACTORS
330
2CD3
102
}
330
2CD3
100
AcDbXrecord
280
     1
290
     1
  0
XRECORD
  5
2CD6
102
{ACAD_REACTORS
330
2CD5
102
}
330
2CD5
100
AcDbXrecord
280
     1
290
     1
  0
XRECORD
  5
2CD8
102
{ACAD_REACTORS
330
2CD7
102
}
330
2CD7
100
AcDbXrecord
280
     1
290
     1
  0
XRECORD
  5
2CDA
102
{ACAD_REACTORS
330
2CD9
102
}
330
2CD9
100
AcDbXrecord
280
     1
290
     1
  0
XRECORD
  5
2CDC
102
{ACAD_REACTORS
330
2CDB
102
}
330
2CDB
100
AcDbXrecord
280
     1
290
     1
  0
XRECORD
  5
2CDE
102
{ACAD_REACTORS
330
2CDD
102
}
330
2CDD
100
AcDbXrecord
280
     1
290
     1
  0
XRECORD
  5
2CE0
102
{ACAD_REACTORS
330
2CDF
102
}
330
2CDF
100
AcDbXrecord
280
     1
290
     1
  0
XRECORD
  5
2CE2
102
{ACAD_REACTORS
330
2CE1
102
}
330
2CE1
100
AcDbXrecord
280
     1
290
     1
  0
XRECORD
  5
2CE4
102
{ACAD_REACTORS
330
2CE3
102
}
330
2CE3
100
AcDbXrecord
280
     1
290
     1
  0
XRECORD
  5
2CE6
102
{ACAD_REACTORS
330
2CE5
102
}
330
2CE5
100
AcDbXrecord
280
     1
290
     1
  0
XRECORD
  5
2CE8
102
{ACAD_REACTORS
330
2CE7
102
}
330
2CE7
100
AcDbXrecord
280
     1
290
     1
  0
XRECORD
  5
2CEA
102
{ACAD_REACTORS
330
2CE9
102
}
330
2CE9
100
AcDbXrecord
280
     1
290
     1
  0
XRECORD
  5
2CEC
102
{ACAD_REACTORS
330
2CEB
102
}
330
2CEB
100
AcDbXrecord
280
     1
290
     1
  0
XRECORD
  5
2CEE
102
{ACAD_REACTORS
330
2CED
102
}
330
2CED
100
AcDbXrecord
280
     1
290
     1
  0
XRECORD
  5
2CF0
102
{ACAD_REACTORS
330
2CEF
102
}
330
2CEF
100
AcDbXrecord
280
     1
290
     1
  0
XRECORD
  5
2CF2
102
{ACAD_REACTORS
330
2CF1
102
}
330
2CF1
100
AcDbXrecord
280
     1
290
     1
  0
SORTENTSTABLE
  5
2208
102
{ACAD_REACTORS
330
2207
102
}
330
2207
100
AcDbSortentsTable
330
1F
  0
XRECORD
  5
2D46
102
{ACAD_REACTORS
330
2D45
102
}
330
2D45
100
AcDbXrecord
280
     1
 40
3752.0
  1
90,0°
  0
XRECORD
  5
2D3D
102
{ACAD_REACTORS
330
2D3C
102
}
330
2D3C
100
AcDbXrecord
280
     1
 40
1.570796326794896
  0
LAYOUT
  5
1E
102
{ACAD_XDICTIONARY
360
2D3E
102
}
102
{ACAD_REACTORS
330
1A
102
}
330
1A
100
AcDbPlotSettings
  1

  2
Ploter HP500
  4

  6

 40
0.0
 41
0.0
 42
0.0
 43
0.0
 44
0.0
 45
0.0
 46
0.0
 47
0.0
 48
0.0
 49
0.0
140
0.0
141
0.0
142
1.0
143
1.0
 70
   688
 72
     0
 73
     0
 74
     5
  7
sanindusa.ctb
 75
    16
147
1.0
148
0.0
149
0.0
100
AcDbLayout
  1
Layout1
 70
     1
 71
     1
 10
0.0
 20
0.0
 11
420.0
 21
297.0
 12
0.0
 22
0.0
 32
0.0
 14
1.000000000000000E+20
 24
1.000000000000000E+20
 34
1.000000000000000E+20
 15
-1.000000000000000E+20
 25
-1.000000000000000E+20
 35
-1.000000000000000E+20
146
0.0
 13
0.0
 23
0.0
 33
0.0
 16
1.0
 26
0.0
 36
0.0
 17
0.0
 27
1.0
 37
0.0
 76
     0
330
1B
  0
LAYOUT
  5
26
102
{ACAD_XDICTIONARY
360
2D42
102
}
102
{ACAD_REACTORS
330
1A
102
}
330
1A
100
AcDbPlotSettings
  1

  2
Ploter HP500
  4

  6

 40
0.0
 41
0.0
 42
0.0
 43
0.0
 44
0.0
 45
0.0
 46
0.0
 47
0.0
 48
0.0
 49
0.0
140
0.0
141
0.0
142
1.0
143
1.0
 70
   688
 72
     0
 73
     0
 74
     5
  7
sanindusa.ctb
 75
    16
147
1.0
148
0.0
149
0.0
100
AcDbLayout
  1
Layout2
 70
     1
 71
     2
 10
0.0
 20
0.0
 11
12.0
 21
9.0
 12
0.0
 22
0.0
 32
0.0
 14
0.0
 24
0.0
 34
0.0
 15
0.0
 25
0.0
 35
0.0
146
0.0
 13
0.0
 23
0.0
 33
0.0
 16
1.0
 26
0.0
 36
0.0
 17
0.0
 27
1.0
 37
0.0
 76
     0
330
23
  0
LAYOUT
  5
22
102
{ACAD_XDICTIONARY
360
2D40
102
}
102
{ACAD_REACTORS
330
1A
102
}
330
1A
100
AcDbPlotSettings
  1

  2
Ploter HP500
  4
User268
  6

 40
4.995333194732666
 41
16.97565841674804
 42
4.995330810546875
 43
16.97567749023437
 44
209.9733276367187
 45
296.9259948730469
 46
0.0
 47
0.0
 48
0.0
 49
0.0
140
0.0
141
0.0
142
1.0
143
1.0
 70
 11952
 72
     1
 73
     1
 74
     0
  7
sanindusa.ctb
 75
     0
147
1.0
148
-427.5957866592534
149
7.362384574453926
100
AcDbLayout
  1
Model
 70
     1
 71
     0
 10
0.0
 20
0.0
 11
12.0
 21
9.0
 12
0.0
 22
0.0
 32
0.0
 14
0.0
 24
0.0
 34
0.0
 15
0.0
 25
0.0
 35
0.0
146
0.0
 13
0.0
 23
0.0
 33
0.0
 16
1.0
 26
0.0
 36
0.0
 17
0.0
 27
1.0
 37
0.0
 76
     0
330
1F
331
2C41
  0
MATERIAL
  5
2C52
102
{ACAD_XDICTIONARY
360
2C53
102
}
102
{ACAD_REACTORS
330
EE5
102
}
330
EE5
100
AcDbMaterial
  1
ByBlock
 72
     0
 43
0.0008202099737533
 43
0.0
 43
0.0
 43
0.0
 43
0.0
 43
0.0008202099737533
 43
0.0
 43
0.0
 43
0.0
 43
0.0
 43
1.0
 43
0.0
 43
0.0
 43
0.0
 43
0.0
 43
1.0
 77
     0
 47
0.0008202099737533
 47
0.0
 47
0.0
 47
0.0
 47
0.0
 47
0.0008202099737533
 47
0.0
 47
0.0
 47
0.0
 47
0.0
 47
1.0
 47
0.0
 47
0.0
 47
0.0
 47
0.0
 47
1.0
171
     0
 49
0.0008202099737533
 49
0.0
 49
0.0
 49
0.0
 49
0.0
 49
0.0008202099737533
 49
0.0
 49
0.0
 49
0.0
 49
0.0
 49
1.0
 49
0.0
 49
0.0
 49
0.0
 49
0.0
 49
1.0
175
     0
142
0.0008202099737533
142
0.0
142
0.0
142
0.0
142
0.0
142
0.0008202099737533
142
0.0
142
0.0
142
0.0
142
0.0
142
1.0
142
0.0
142
0.0
142
0.0
142
0.0
142
1.0
179
     0
144
0.0008202099737533
144
0.0
144
0.0
144
0.0
144
0.0
144
0.0008202099737533
144
0.0
144
0.0
144
0.0
144
0.0
144
1.0
144
0.0
144
0.0
144
0.0
144
0.0
144
1.0
147
0.0008202099737533
147
0.0
147
0.0
147
0.0
147
0.0
147
0.0008202099737533
147
0.0
147
0.0
147
0.0
147
0.0
147
1.0
147
0.0
147
0.0
147
0.0
147
0.0
147
1.0
  0
MATERIAL
  5
2C4A
102
{ACAD_XDICTIONARY
360
2C4B
102
}
102
{ACAD_REACTORS
330
EE5
102
}
330
EE5
100
AcDbMaterial
  1
ByLayer
 72
     0
 43
0.0008202099737533
 43
0.0
 43
0.0
 43
0.0
 43
0.0
 43
0.0008202099737533
 43
0.0
 43
0.0
 43
0.0
 43
0.0
 43
1.0
 43
0.0
 43
0.0
 43
0.0
 43
0.0
 43
1.0
 77
     0
 47
0.0008202099737533
 47
0.0
 47
0.0
 47
0.0
 47
0.0
 47
0.0008202099737533
 47
0.0
 47
0.0
 47
0.0
 47
0.0
 47
1.0
 47
0.0
 47
0.0
 47
0.0
 47
0.0
 47
1.0
171
     0
 49
0.0008202099737533
 49
0.0
 49
0.0
 49
0.0
 49
0.0
 49
0.0008202099737533
 49
0.0
 49
0.0
 49
0.0
 49
0.0
 49
1.0
 49
0.0
 49
0.0
 49
0.0
 49
0.0
 49
1.0
175
     0
142
0.0008202099737533
142
0.0
142
0.0
142
0.0
142
0.0
142
0.0008202099737533
142
0.0
142
0.0
142
0.0
142
0.0
142
1.0
142
0.0
142
0.0
142
0.0
142
0.0
142
1.0
179
     0
144
0.0008202099737533
144
0.0
144
0.0
144
0.0
144
0.0
144
0.0008202099737533
144
0.0
144
0.0
144
0.0
144
0.0
144
1.0
144
0.0
144
0.0
144
0.0
144
0.0
144
1.0
147
0.0008202099737533
147
0.0
147
0.0
147
0.0
147
0.0
147
0.0008202099737533
147
0.0
147
0.0
147
0.0
147
0.0
147
1.0
147
0.0
147
0.0
147
0.0
147
0.0
147
1.0
  0
MATERIAL
  5
2C5A
102
{ACAD_XDICTIONARY
360
2C5B
102
}
102
{ACAD_REACTORS
330
EE5
102
}
330
EE5
100
AcDbMaterial
  1
Global
 72
     0
 43
0.0008202099737533
 43
0.0
 43
0.0
 43
0.0
 43
0.0
 43
0.0008202099737533
 43
0.0
 43
0.0
 43
0.0
 43
0.0
 43
1.0
 43
0.0
 43
0.0
 43
0.0
 43
0.0
 43
1.0
 77
     0
 47
0.0008202099737533
 47
0.0
 47
0.0
 47
0.0
 47
0.0
 47
0.0008202099737533
 47
0.0
 47
0.0
 47
0.0
 47
0.0
 47
1.0
 47
0.0
 47
0.0
 47
0.0
 47
0.0
 47
1.0
171
     0
 49
0.0008202099737533
 49
0.0
 49
0.0
 49
0.0
 49
0.0
 49
0.0008202099737533
 49
0.0
 49
0.0
 49
0.0
 49
0.0
 49
1.0
 49
0.0
 49
0.0
 49
0.0
 49
0.0
 49
1.0
175
     0
142
0.0008202099737533
142
0.0
142
0.0
142
0.0
142
0.0
142
0.0008202099737533
142
0.0
142
0.0
142
0.0
142
0.0
142
1.0
142
0.0
142
0.0
142
0.0
142
0.0
142
1.0
179
     0
144
0.0008202099737533
144
0.0
144
0.0
144
0.0
144
0.0
144
0.0008202099737533
144
0.0
144
0.0
144
0.0
144
0.0
144
1.0
144
0.0
144
0.0
144
0.0
144
0.0
144
1.0
147
0.0008202099737533
147
0.0
147
0.0
147
0.0
147
0.0
147
0.0008202099737533
147
0.0
147
0.0
147
0.0
147
0.0
147
1.0
147
0.0
147
0.0
147
0.0
147
0.0
147
1.0
  0
MLEADERSTYLE
  5
2C89
102
{ACAD_REACTORS
330
2C88
102
}
330
2C88
100
AcDbMLeaderStyle
170
     2
171
     1
172
     0
 90
        2
 40
0.0
 41
0.0
173
     1
 91
-1056964608
340
14
 92
       -2
290
     1
 42
2.0
291
     1
 43
0.36
  3
Standard
 44
4.0
300

342
11
174
     1
178
     6
175
     1
176
     0
 93
-1056964608
 45
4.0
292
     0
297
     0
 46
4.0
 94
-1056964608
 47
1.0
 49
1.0
140
1.0
293
     1
141
0.0
294
     1
177
     0
142
1.0
295
     0
296
     0
143
0.125
1001
ACAD_MLEADERVER
1070
     2
  0
MLINESTYLE
  5
18
102
{ACAD_REACTORS
330
17
102
}
330
17
100
AcDbMlineStyle
  2
STANDARD
 70
     0
  3

 62
   256
 51
90.0
 52
90.0
 71
     2
 49
0.5
 62
   256
  6
BYLAYER
 49
-0.5
 62
   256
  6
BYLAYER
  0
ACDBPLACEHOLDER
  5
F
102
{ACAD_REACTORS
330
E
102
}
330
E
  0
SCALE
  5
2C77
102
{ACAD_REACTORS
330
2C76
102
}
330
2C76
100
AcDbScale
 70
     0
300
1:1
140
1.0
141
1.0
290
     1
  0
SCALE
  5
2C78
102
{ACAD_REACTORS
330
2C76
102
}
330
2C76
100
AcDbScale
 70
     0
300
1:2
140
1.0
141
2.0
290
     0
  0
SCALE
  5
2C79
102
{ACAD_REACTORS
330
2C76
102
}
330
2C76
100
AcDbScale
 70
     0
300
1:4
140
1.0
141
4.0
290
     0
  0
SCALE
  5
2C7A
102
{ACAD_REACTORS
330
2C76
102
}
330
2C76
100
AcDbScale
 70
     0
300
1:5
140
1.0
141
5.0
290
     0
  0
SCALE
  5
2C7B
102
{ACAD_REACTORS
330
2C76
102
}
330
2C76
100
AcDbScale
 70
     0
300
1:8
140
1.0
141
8.0
290
     0
  0
SCALE
  5
2C7C
102
{ACAD_REACTORS
330
2C76
102
}
330
2C76
100
AcDbScale
 70
     0
300
1:10
140
1.0
141
10.0
290
     0
  0
SCALE
  5
2C7D
102
{ACAD_REACTORS
330
2C76
102
}
330
2C76
100
AcDbScale
 70
     0
300
1:16
140
1.0
141
16.0
290
     0
  0
SCALE
  5
2C7E
102
{ACAD_REACTORS
330
2C76
102
}
330
2C76
100
AcDbScale
 70
     0
300
1:20
140
1.0
141
20.0
290
     0
  0
SCALE
  5
2C7F
102
{ACAD_REACTORS
330
2C76
102
}
330
2C76
100
AcDbScale
 70
     0
300
1:30
140
1.0
141
30.0
290
     0
  0
SCALE
  5
2C80
102
{ACAD_REACTORS
330
2C76
102
}
330
2C76
100
AcDbScale
 70
     0
300
1:40
140
1.0
141
40.0
290
     0
  0
SCALE
  5
2C81
102
{ACAD_REACTORS
330
2C76
102
}
330
2C76
100
AcDbScale
 70
     0
300
1:50
140
1.0
141
50.0
290
     0
  0
SCALE
  5
2C82
102
{ACAD_REACTORS
330
2C76
102
}
330
2C76
100
AcDbScale
 70
     0
300
1:100
140
1.0
141
100.0
290
     0
  0
SCALE
  5
2C83
102
{ACAD_REACTORS
330
2C76
102
}
330
2C76
100
AcDbScale
 70
     0
300
2:1
140
2.0
141
1.0
290
     0
  0
SCALE
  5
2C84
102
{ACAD_REACTORS
330
2C76
102
}
330
2C76
100
AcDbScale
 70
     0
300
4:1
140
4.0
141
1.0
290
     0
  0
SCALE
  5
2C85
102
{ACAD_REACTORS
330
2C76
102
}
330
2C76
100
AcDbScale
 70
     0
300
8:1
140
8.0
141
1.0
290
     0
  0
SCALE
  5
2C86
102
{ACAD_REACTORS
330
2C76
102
}
330
2C76
100
AcDbScale
 70
     0
300
10:1
140
10.0
141
1.0
290
     0
  0
SCALE
  5
2C87
102
{ACAD_REACTORS
330
2C76
102
}
330
2C76
100
AcDbScale
 70
     0
300
100:1
140
100.0
141
1.0
290
     0
  0
TABLESTYLE
  5
EE8
102
{ACAD_XDICTIONARY
360
2D38
102
}
102
{ACAD_REACTORS
330
EE7
102
}
330
EE7
100
AcDbTableStyle
  3
Standard
 70
     0
 71
     0
 40
1.5
 41
1.5
280
     0
281
     0
  7
Standard
140
4.5
170
     2
 62
     0
 63
     7
283
     0
274
    -2
284
     1
 64
     0
275
    -2
285
     1
 65
     0
276
    -2
286
     1
 66
     0
277
    -2
287
     1
 67
     0
278
    -2
288
     1
 68
     0
279
    -2
289
     1
 69
     0
  7
Standard
140
6.0
170
     5
 62
     0
 63
     7
283
     0
274
    -2
284
     1
 64
     0
275
    -2
285
     1
 65
     0
276
    -2
286
     1
 66
     0
277
    -2
287
     1
 67
     0
278
    -2
288
     1
 68
     0
279
    -2
289
     1
 69
     0
  7
Standard
140
4.5
170
     5
 62
     0
 63
     7
283
     0
274
    -2
284
     1
 64
     0
275
    -2
285
     1
 65
     0
276
    -2
286
     1
 66
     0
277
    -2
287
     1
 67
     0
278
    -2
288
     1
 68
     0
279
    -2
289
     1
 69
     0
  0
VISUALSTYLE
  5
2C68
102
{ACAD_XDICTIONARY
360
2D54
102
}
102
{ACAD_REACTORS
330
2C62
102
}
330
2C62
100
AcDbVisualStyle
  2
2dWireframe
 70
     4
 71
     0
 72
     2
 73
     0
 90
        0
 40
-0.6
 41
-30.0
 62
     5
 63
     7
 74
     1
 91
        4
 64
     7
 65
   257
 75
     1
175
     1
 42
1.0
 92
        0
 66
   257
 43
1.0
 76
     1
 77
     6
 78
     2
 67
     7
 79
     5
170
     0
171
     0
290
     0
174
     0
 93
        1
 44
0.0
173
     0
291
     0
 45
0.0
1001
ACAD
1000
AcDbSavedByObjectVersion
1070
     0
  0
VISUALSTYLE
  5
2C6A
102
{ACAD_XDICTIONARY
360
2D58
102
}
102
{ACAD_REACTORS
330
2C62
102
}
330
2C62
100
AcDbVisualStyle
  2
3D Hidden
 70
     6
 71
     1
 72
     2
 73
     2
 90
        0
 40
-0.6
 41
-30.0
 62
     5
 63
     7
 74
     2
 91
        2
 64
     7
 65
   257
 75
     2
175
     1
 42
179.0
 92
        0
 66
   257
 43
1.0
 76
     1
 77
     6
 78
     2
 67
     7
 79
     3
170
     0
171
     0
290
     0
174
     0
 93
        1
 44
0.0
173
     0
291
     0
 45
0.0
1001
ACAD
1000
AcDbSavedByObjectVersion
1070
     0
  0
VISUALSTYLE
  5
2C69
102
{ACAD_XDICTIONARY
360
2D56
102
}
102
{ACAD_REACTORS
330
2C62
102
}
330
2C62
100
AcDbVisualStyle
  2
3dWireframe
 70
     5
 71
     0
 72
     2
 73
     0
 90
        0
 40
-0.6
 41
-30.0
 62
     5
 63
     7
 74
     1
 91
        4
 64
     7
 65
   257
 75
     1
175
     1
 42
1.0
 92
        0
 66
   257
 43
1.0
 76
     1
 77
     6
 78
     2
 67
     7
 79
     5
170
     0
171
     0
290
     0
174
     0
 93
        1
 44
0.0
173
     0
291
     0
 45
0.0
1001
ACAD
1000
AcDbSavedByObjectVersion
1070
     0
  0
VISUALSTYLE
  5
2C67
102
{ACAD_XDICTIONARY
360
2D52
102
}
102
{ACAD_REACTORS
330
2C62
102
}
330
2C62
100
AcDbVisualStyle
  2
Basic
 70
     7
 71
     1
 72
     0
 73
     1
 90
        0
 40
-0.6
 41
-30.0
 62
     5
 63
     7
 74
     0
 91
        4
 64
     7
 65
   257
 75
     1
175
     1
 42
1.0
 92
        8
 66
     7
 43
1.0
 76
     1
 77
     6
 78
     2
 67
     7
 79
     5
170
     0
171
     0
290
     0
174
     0
 93
        1
 44
0.0
173
     0
291
     1
 45
0.0
1001
ACAD
1000
AcDbSavedByObjectVersion
1070
     0
  0
VISUALSTYLE
  5
2C6E
102
{ACAD_XDICTIONARY
360
2D60
102
}
102
{ACAD_REACTORS
330
2C62
102
}
330
2C62
100
AcDbVisualStyle
  2
Brighten
 70
    12
 71
     2
 72
     2
 73
     0
 90
        0
 40
-0.6
 41
-30.0
 62
     5
 63
     7
 74
     1
 91
        4
 64
     7
 65
   257
 75
     1
175
     1
 42
1.0
 92
        8
 66
     7
 43
1.0
 76
     1
 77
     6
 78
     2
 67
     7
 79
     5
170
     0
171
     0
290
     0
174
     0
 93
        1
 44
50.0
173
     0
291
     1
 45
0.0
1001
ACAD
1000
AcDbSavedByObjectVersion
1070
     0
  0
VISUALSTYLE
  5
2C72
102
{ACAD_XDICTIONARY
360
2D68
102
}
102
{ACAD_REACTORS
330
2C62
102
}
330
2C62
100
AcDbVisualStyle
  2
ColorChange
 70
    16
 71
     2
 72
     2
 73
     3
 90
        0
 40
-0.6
 41
-30.0
 62
     5
 63
     8
 74
     1
 91
        4
 64
     7
 65
   257
 75
     1
175
     1
 42
1.0
 92
        8
 66
     8
 43
1.0
 76
     1
 77
     6
 78
     2
 67
     7
 79
     5
170
     0
171
     0
290
     0
174
     0
 93
        1
 44
0.0
173
     0
291
     1
 45
0.0
1001
ACAD
1000
AcDbSavedByObjectVersion
1070
     0
  0
VISUALSTYLE
  5
2C6B
102
{ACAD_XDICTIONARY
360
2D5A
102
}
102
{ACAD_REACTORS
330
2C62
102
}
330
2C62
100
AcDbVisualStyle
  2
Conceptual
 70
     9
 71
     3
 72
     2
 73
     0
 90
        0
 40
-0.6
 41
-30.0
 62
     5
 63
     7
 74
     2
 91
        2
 64
     7
 65
   257
 75
     1
175
     1
 42
179.0
 92
        8
 66
     7
 43
1.0
 76
     1
 77
     6
 78
     2
 67
     7
 79
     3
170
     0
171
     0
290
     0
174
     0
 93
        1
 44
0.0
173
     0
291
     0
 45
0.0
1001
ACAD
1000
AcDbSavedByObjectVersion
1070
     0
  0
VISUALSTYLE
  5
2C6D
102
{ACAD_XDICTIONARY
360
2D5E
102
}
102
{ACAD_REACTORS
330
2C62
102
}
330
2C62
100
AcDbVisualStyle
  2
Dim
 70
    11
 71
     2
 72
     2
 73
     0
 90
        0
 40
-0.6
 41
-30.0
 62
     5
 63
     7
 74
     1
 91
        4
 64
     7
 65
   257
 75
     1
175
     1
 42
1.0
 92
        8
 66
     7
 43
1.0
 76
     1
 77
     6
 78
     2
 67
     7
 79
     5
170
     0
171
     0
290
     0
174
     0
 93
        1
 44
-50.0
173
     0
291
     1
 45
0.0
1001
ACAD
1000
AcDbSavedByObjectVersion
1070
     0
  0
VISUALSTYLE
  5
2C75
102
{ACAD_XDICTIONARY
360
2D6E
102
}
102
{ACAD_REACTORS
330
2C62
102
}
330
2C62
100
AcDbVisualStyle
  2
EdgeColorOff
 70
    22
 71
     2
 72
     2
 73
     0
 90
        0
 40
-0.6
 41
-30.0
 62
     5
 63
     7
 74
     1
 91
        4
 64
     7
 65
   257
 75
     1
175
     1
 42
1.0
 92
        8
 66
     7
 43
1.0
 76
     1
 77
     6
 78
     2
 67
     7
 79
     5
170
     0
171
     0
290
     0
174
     0
 93
        1
 44
0.0
173
     0
291
     1
 45
0.0
1001
ACAD
1000
AcDbSavedByObjectVersion
1070
     0
  0
VISUALSTYLE
  5
2C71
102
{ACAD_XDICTIONARY
360
2D66
102
}
102
{ACAD_REACTORS
330
2C62
102
}
330
2C62
100
AcDbVisualStyle
  2
Facepattern
 70
    15
 71
     2
 72
     2
 73
     0
 90
        0
 40
-0.6
 41
-30.0
 62
     5
 63
     7
 74
     1
 91
        4
 64
     7
 65
   257
 75
     1
175
     1
 42
1.0
 92
        8
 66
     7
 43
1.0
 76
     1
 77
     6
 78
     2
 67
     7
 79
     5
170
     0
171
     0
290
     0
174
     0
 93
        1
 44
0.0
173
     0
291
     1
 45
0.0
1001
ACAD
1000
AcDbSavedByObjectVersion
1070
     0
  0
VISUALSTYLE
  5
2C63
102
{ACAD_XDICTIONARY
360
2D4A
102
}
102
{ACAD_REACTORS
330
2C62
102
}
330
2C62
100
AcDbVisualStyle
  2
Flat
 70
     0
 71
     2
 72
     1
 73
     1
 90
        2
 40
-0.6
 41
30.0
 62
     5
 63
     7
 74
     0
 91
        4
 64
     7
 65
   257
 75
     1
175
     1
 42
1.0
 92
        8
 66
     7
 43
1.0
 76
     1
 77
     6
 78
     2
 67
     7
 79
     5
170
     0
171
     0
290
     0
174
     0
 93
       13
 44
0.0
173
     0
291
     1
 45
0.0
1001
ACAD
1000
AcDbSavedByObjectVersion
1070
     0
  0
VISUALSTYLE
  5
2C64
102
{ACAD_XDICTIONARY
360
2D4C
102
}
102
{ACAD_REACTORS
330
2C62
102
}
330
2C62
100
AcDbVisualStyle
  2
FlatWithEdges
 70
     1
 71
     2
 72
     1
 73
     1
 90
        2
 40
-0.6
 41
30.0
 62
     5
 63
     7
 74
     1
 91
        4
 64
     7
 65
   257
 75
     1
175
     1
 42
1.0
 92
        0
 66
   257
 43
1.0
 76
     1
 77
     6
 78
     2
 67
     7
 79
     5
170
     0
171
     0
290
     0
174
     0
 93
       13
 44
0.0
173
     0
291
     1
 45
0.0
1001
ACAD
1000
AcDbSavedByObjectVersion
1070
     0
  0
VISUALSTYLE
  5
2C65
102
{ACAD_XDICTIONARY
360
2D4E
102
}
102
{ACAD_REACTORS
330
2C62
102
}
330
2C62
100
AcDbVisualStyle
  2
Gouraud
 70
     2
 71
     2
 72
     2
 73
     1
 90
        2
 40
-0.6
 41
30.0
 62
     5
 63
     7
 74
     0
 91
        4
 64
     7
 65
   257
 75
     1
175
     1
 42
1.0
 92
        0
 66
     7
 43
1.0
 76
     1
 77
     6
 78
     2
 67
     7
 79
     5
170
     0
171
     0
290
     0
174
     0
 93
       13
 44
0.0
173
     0
291
     1
 45
0.0
1001
ACAD
1000
AcDbSavedByObjectVersion
1070
     0
  0
VISUALSTYLE
  5
2C66
102
{ACAD_XDICTIONARY
360
2D50
102
}
102
{ACAD_REACTORS
330
2C62
102
}
330
2C62
100
AcDbVisualStyle
  2
GouraudWithEdges
 70
     3
 71
     2
 72
     2
 73
     1
 90
        2
 40
-0.6
 41
30.0
 62
     5
 63
     7
 74
     1
 91
        4
 64
     7
 65
   257
 75
     1
175
     1
 42
1.0
 92
        0
 66
   257
 43
1.0
 76
     1
 77
     6
 78
     2
 67
     7
 79
     5
170
     0
171
     0
290
     0
174
     0
 93
       13
 44
0.0
173
     0
291
     1
 45
0.0
1001
ACAD
1000
AcDbSavedByObjectVersion
1070
     0
  0
VISUALSTYLE
  5
2C73
102
{ACAD_XDICTIONARY
360
2D6A
102
}
102
{ACAD_REACTORS
330
2C62
102
}
330
2C62
100
AcDbVisualStyle
  2
JitterOff
 70
    20
 71
     2
 72
     2
 73
     0
 90
        0
 40
-0.6
 41
-30.0
 62
     5
 63
     7
 74
     1
 91
        4
 64
     7
 65
   257
 75
     1
175
     1
 42
1.0
 92
       10
 66
     7
 43
1.0
 76
     1
 77
     6
 78
     2
 67
     7
 79
     5
170
     0
171
     0
290
     0
174
     0
 93
        1
 44
0.0
173
     0
291
     1
 45
0.0
1001
ACAD
1000
AcDbSavedByObjectVersion
1070
     0
  0
VISUALSTYLE
  5
2C70
102
{ACAD_XDICTIONARY
360
2D64
102
}
102
{ACAD_REACTORS
330
2C62
102
}
330
2C62
100
AcDbVisualStyle
  2
Linepattern
 70
    14
 71
     2
 72
     2
 73
     0
 90
        0
 40
-0.6
 41
-30.0
 62
     5
 63
     7
 74
     1
 91
        4
 64
     7
 65
   257
 75
     7
175
     7
 42
1.0
 92
        8
 66
     7
 43
1.0
 76
     1
 77
     6
 78
     2
 67
     7
 79
     5
170
     0
171
     0
290
     0
174
     0
 93
        1
 44
0.0
173
     0
291
     1
 45
0.0
1001
ACAD
1000
AcDbSavedByObjectVersion
1070
     0
  0
VISUALSTYLE
  5
2C74
102
{ACAD_XDICTIONARY
360
2D6C
102
}
102
{ACAD_REACTORS
330
2C62
102
}
330
2C62
100
AcDbVisualStyle
  2
OverhangOff
 70
    21
 71
     2
 72
     2
 73
     0
 90
        0
 40
-0.6
 41
-30.0
 62
     5
 63
     7
 74
     1
 91
        4
 64
     7
 65
   257
 75
     1
175
     1
 42
1.0
 92
        9
 66
     7
 43
1.0
 76
     1
 77
     6
 78
     2
 67
     7
 79
     5
170
     0
171
     0
290
     0
174
     0
 93
        1
 44
0.0
173
     0
291
     1
 45
0.0
1001
ACAD
1000
AcDbSavedByObjectVersion
1070
     0
  0
VISUALSTYLE
  5
2C6C
102
{ACAD_XDICTIONARY
360
2D5C
102
}
102
{ACAD_REACTORS
330
2C62
102
}
330
2C62
100
AcDbVisualStyle
  2
Realistic
 70
     8
 71
     2
 72
     2
 73
     0
 90
        0
 40
-0.6
 41
-30.0
 62
     5
 63
     7
 74
     1
 91
        0
 64
     7
 65
   257
 75
     1
175
     1
 42
1.0
 92
        8
 66
     8
 43
1.0
 76
     1
 77
     6
 78
     2
 67
     7
 79
     5
170
     0
171
     0
290
     0
174
     0
 93
       13
 44
0.0
173
     0
291
     0
 45
0.0
1001
ACAD
1000
AcDbSavedByObjectVersion
1070
     0
  0
VISUALSTYLE
  5
2C6F
102
{ACAD_XDICTIONARY
360
2D62
102
}
102
{ACAD_REACTORS
330
2C62
102
}
330
2C62
100
AcDbVisualStyle
  2
Thicken
 70
    13
 71
     2
 72
     2
 73
     0
 90
        0
 40
-0.6
 41
-30.0
 62
     5
 63
     7
 74
     1
 91
        4
 64
     7
 65
   257
 75
     1
175
     1
 42
1.0
 92
       12
 66
     7
 43
1.0
 76
     1
 77
     6
 78
     2
 67
     7
 79
     5
170
     0
171
     0
290
     0
174
     0
 93
        1
 44
0.0
173
     0
291
     1
 45
0.0
1001
ACAD
1000
AcDbSavedByObjectVersion
1070
     0
  0
DICTIONARYVAR
  5
2D34
102
{ACAD_REACTORS
330
3D
102
}
330
3D
100
DictionaryVariables
280
     0
  1
1:1
  0
DICTIONARYVAR
  5
2D33
102
{ACAD_REACTORS
330
3D
102
}
330
3D
100
DictionaryVariables
280
     0
  1
STANDARD
  0
DICTIONARYVAR
  5
1049
102
{ACAD_REACTORS
330
3D
102
}
330
3D
100
DictionaryVariables
280
     0
  1
STANDARD
  0
DICTIONARYVAR
  5
3F
102
{ACAD_REACTORS
330
3D
102
}
330
3D
100
DictionaryVariables
280
     0
  1
2
  0
DICTIONARYVAR
  5
3E
102
{ACAD_REACTORS
330
3D
102
}
330
3D
100
DictionaryVariables
280
     0
  1
1
  0
DICTIONARYVAR
  5
2D36
102
{ACAD_REACTORS
330
3D
102
}
330
3D
100
DictionaryVariables
280
     0
  1
0
  0
DICTIONARYVAR
  5
2BE5
102
{ACAD_REACTORS
330
3D
102
}
330
3D
100
DictionaryVariables
280
     0
  1

  0
DICTIONARYVAR
  5
2D35
102
{ACAD_REACTORS
330
3D
102
}
330
3D
100
DictionaryVariables
280
     0
  1
127
  0
DICTIONARYVAR
  5
2D37
102
{ACAD_REACTORS
330
3D
102
}
330
3D
100
DictionaryVariables
280
     0
  1
2
  0
XRECORD
  5
E78
102
{ACAD_REACTORS
330
E77
102
}
330
E77
100
AcDbXrecord
280
     1
330
0
330
0
  0
DICTIONARY
  5
2D3E
330
1E
100
AcDbDictionary
280
     1
281
     1
  3
ACAD_XREC_ROUNDTRIP
360
2D3F
  0
DICTIONARY
  5
2D42
330
26
100
AcDbDictionary
280
     1
281
     1
  3
ACAD_XREC_ROUNDTRIP
360
2D43
  0
DICTIONARY
  5
2D40
330
22
100
AcDbDictionary
280
     1
281
     1
  3
ACAD_XREC_ROUNDTRIP
360
2D41
  0
DICTIONARY
  5
2C53
330
2C52
100
AcDbDictionary
280
     1
281
     1
  3
ACAD_XREC_ROUNDTRIP
360
2D48
  3
BUMPTILE
360
2C55
  3
DIFFUSETILE
360
2C54
  3
OPACITYTILE
360
2C58
  3
REFLECTIONTILE
360
2C57
  3
REFRACTIONTILE
360
2C59
  3
SPECULARTILE
360
2C56
  0
DICTIONARY
  5
2C4B
330
2C4A
100
AcDbDictionary
280
     1
281
     1
  3
ACAD_XREC_ROUNDTRIP
360
2D47
  3
BUMPTILE
360
2C4D
  3
DIFFUSETILE
360
2C4C
  3
OPACITYTILE
360
2C50
  3
REFLECTIONTILE
360
2C4F
  3
REFRACTIONTILE
360
2C51
  3
SPECULARTILE
360
2C4E
  0
DICTIONARY
  5
2C5B
330
2C5A
100
AcDbDictionary
280
     1
281
     1
  3
ACAD_XREC_ROUNDTRIP
360
2D49
  3
BUMPTILE
360
2C5D
  3
DIFFUSETILE
360
2C5C
  3
OPACITYTILE
360
2C60
  3
REFLECTIONTILE
360
2C5F
  3
REFRACTIONTILE
360
2C61
  3
SPECULARTILE
360
2C5E
  0
DICTIONARY
  5
2D38
330
EE8
100
AcDbDictionary
280
     1
281
     1
  3
ACAD_ROUNDTRIP_2008_TABLESTYLE_CELLSTYLEMAP
360
2D39
  3
ACAD_XREC_ROUNDTRIP
360
2D44
  0
DICTIONARY
  5
2D54
330
2C68
100
AcDbDictionary
280
     1
281
     1
  3
ACAD_XREC_ROUNDTRIP
360
2D55
  0
DICTIONARY
  5
2D58
330
2C6A
100
AcDbDictionary
280
     1
281
     1
  3
ACAD_XREC_ROUNDTRIP
360
2D59
  0
DICTIONARY
  5
2D56
330
2C69
100
AcDbDictionary
280
     1
281
     1
  3
ACAD_XREC_ROUNDTRIP
360
2D57
  0
DICTIONARY
  5
2D52
330
2C67
100
AcDbDictionary
280
     1
281
     1
  3
ACAD_XREC_ROUNDTRIP
360
2D53
  0
DICTIONARY
  5
2D60
330
2C6E
100
AcDbDictionary
280
     1
281
     1
  3
ACAD_XREC_ROUNDTRIP
360
2D61
  0
DICTIONARY
  5
2D68
330
2C72
100
AcDbDictionary
280
     1
281
     1
  3
ACAD_XREC_ROUNDTRIP
360
2D69
  0
DICTIONARY
  5
2D5A
330
2C6B
100
AcDbDictionary
280
     1
281
     1
  3
ACAD_XREC_ROUNDTRIP
360
2D5B
  0
DICTIONARY
  5
2D5E
330
2C6D
100
AcDbDictionary
280
     1
281
     1
  3
ACAD_XREC_ROUNDTRIP
360
2D5F
  0
DICTIONARY
  5
2D6E
330
2C75
100
AcDbDictionary
280
     1
281
     1
  3
ACAD_XREC_ROUNDTRIP
360
2D6F
  0
DICTIONARY
  5
2D66
330
2C71
100
AcDbDictionary
280
     1
281
     1
  3
ACAD_XREC_ROUNDTRIP
360
2D67
  0
DICTIONARY
  5
2D4A
330
2C63
100
AcDbDictionary
280
     1
281
     1
  3
ACAD_XREC_ROUNDTRIP
360
2D4B
  0
DICTIONARY
  5
2D4C
330
2C64
100
AcDbDictionary
280
     1
281
     1
  3
ACAD_XREC_ROUNDTRIP
360
2D4D
  0
DICTIONARY
  5
2D4E
330
2C65
100
AcDbDictionary
280
     1
281
     1
  3
ACAD_XREC_ROUNDTRIP
360
2D4F
  0
DICTIONARY
  5
2D50
330
2C66
100
AcDbDictionary
280
     1
281
     1
  3
ACAD_XREC_ROUNDTRIP
360
2D51
  0
DICTIONARY
  5
2D6A
330
2C73
100
AcDbDictionary
280
     1
281
     1
  3
ACAD_XREC_ROUNDTRIP
360
2D6B
  0
DICTIONARY
  5
2D64
330
2C70
100
AcDbDictionary
280
     1
281
     1
  3
ACAD_XREC_ROUNDTRIP
360
2D65
  0
DICTIONARY
  5
2D6C
330
2C74
100
AcDbDictionary
280
     1
281
     1
  3
ACAD_XREC_ROUNDTRIP
360
2D6D
  0
DICTIONARY
  5
2D5C
330
2C6C
100
AcDbDictionary
280
     1
281
     1
  3
ACAD_XREC_ROUNDTRIP
360
2D5D
  0
DICTIONARY
  5
2D62
330
2C6F
100
AcDbDictionary
280
     1
281
     1
  3
ACAD_XREC_ROUNDTRIP
360
2D63
  0
XRECORD
  5
2D3F
102
{ACAD_REACTORS
330
2D3E
102
}
330
2D3E
100
AcDbXrecord
280
     1
102
SHADEPLOT
 70
     0
102
SHADEPLOTRESLEVEL
 70
     2
102
SHADEPLOTCUSTOMDPI
 70
   300
  0
XRECORD
  5
2D43
102
{ACAD_REACTORS
330
2D42
102
}
330
2D42
100
AcDbXrecord
280
     1
102
SHADEPLOT
 70
     0
102
SHADEPLOTRESLEVEL
 70
     2
102
SHADEPLOTCUSTOMDPI
 70
   300
  0
XRECORD
  5
2D41
102
{ACAD_REACTORS
330
2D40
102
}
330
2D40
100
AcDbXrecord
280
     1
102
SHADEPLOT
 70
     0
102
SHADEPLOTRESLEVEL
 70
     2
102
SHADEPLOTCUSTOMDPI
 70
   300
  0
XRECORD
  5
2D48
102
{ACAD_REACTORS
330
2C53
102
}
330
2C53
100
AcDbXrecord
280
     1
102
MATERIAL
148
0.0
149
0.0
149
0.0
 93
        0
 94
      127
282
     0
 72
     0
 77
     0
171
     0
175
     0
179
     0
273
     0
  0
XRECORD
  5
2C55
102
{ACAD_REACTORS
330
2C53
102
}
330
2C53
100
AcDbXrecord
280
     1
270
     1
271
     1
  0
XRECORD
  5
2C54
102
{ACAD_REACTORS
330
2C53
102
}
330
2C53
100
AcDbXrecord
280
     1
270
     1
271
     1
  0
XRECORD
  5
2C58
102
{ACAD_REACTORS
330
2C53
102
}
330
2C53
100
AcDbXrecord
280
     1
270
     1
271
     1
  0
XRECORD
  5
2C57
102
{ACAD_REACTORS
330
2C53
102
}
330
2C53
100
AcDbXrecord
280
     1
270
     1
271
     1
  0
XRECORD
  5
2C59
102
{ACAD_REACTORS
330
2C53
102
}
330
2C53
100
AcDbXrecord
280
     1
270
     1
271
     1
  0
XRECORD
  5
2C56
102
{ACAD_REACTORS
330
2C53
102
}
330
2C53
100
AcDbXrecord
280
     1
270
     1
271
     1
  0
XRECORD
  5
2D47
102
{ACAD_REACTORS
330
2C4B
102
}
330
2C4B
100
AcDbXrecord
280
     1
102
MATERIAL
148
0.0
149
0.0
149
0.0
 93
        0
 94
      127
282
     0
 72
     0
 77
     0
171
     0
175
     0
179
     0
273
     0
  0
XRECORD
  5
2C4D
102
{ACAD_REACTORS
330
2C4B
102
}
330
2C4B
100
AcDbXrecord
280
     1
270
     1
271
     1
  0
XRECORD
  5
2C4C
102
{ACAD_REACTORS
330
2C4B
102
}
330
2C4B
100
AcDbXrecord
280
     1
270
     1
271
     1
  0
XRECORD
  5
2C50
102
{ACAD_REACTORS
330
2C4B
102
}
330
2C4B
100
AcDbXrecord
280
     1
270
     1
271
     1
  0
XRECORD
  5
2C4F
102
{ACAD_REACTORS
330
2C4B
102
}
330
2C4B
100
AcDbXrecord
280
     1
270
     1
271
     1
  0
XRECORD
  5
2C51
102
{ACAD_REACTORS
330
2C4B
102
}
330
2C4B
100
AcDbXrecord
280
     1
270
     1
271
     1
  0
XRECORD
  5
2C4E
102
{ACAD_REACTORS
330
2C4B
102
}
330
2C4B
100
AcDbXrecord
280
     1
270
     1
271
     1
  0
XRECORD
  5
2D49
102
{ACAD_REACTORS
330
2C5B
102
}
330
2C5B
100
AcDbXrecord
280
     1
102
MATERIAL
148
0.0
149
0.0
149
0.0
 93
        0
 94
      127
282
     0
 72
     0
 77
     0
171
     0
175
     0
179
     0
273
     0
  0
XRECORD
  5
2C5D
102
{ACAD_REACTORS
330
2C5B
102
}
330
2C5B
100
AcDbXrecord
280
     1
270
     1
271
     1
  0
XRECORD
  5
2C5C
102
{ACAD_REACTORS
330
2C5B
102
}
330
2C5B
100
AcDbXrecord
280
     1
270
     1
271
     1
  0
XRECORD
  5
2C60
102
{ACAD_REACTORS
330
2C5B
102
}
330
2C5B
100
AcDbXrecord
280
     1
270
     1
271
     1
  0
XRECORD
  5
2C5F
102
{ACAD_REACTORS
330
2C5B
102
}
330
2C5B
100
AcDbXrecord
280
     1
270
     1
271
     1
  0
XRECORD
  5
2C61
102
{ACAD_REACTORS
330
2C5B
102
}
330
2C5B
100
AcDbXrecord
280
     1
270
     1
271
     1
  0
XRECORD
  5
2C5E
102
{ACAD_REACTORS
330
2C5B
102
}
330
2C5B
100
AcDbXrecord
280
     1
270
     1
271
     1
  0
CELLSTYLEMAP
  5
2D39
102
{ACAD_REACTORS
330
2D38
102
}
330
2D38
100
AcDbCellStyleMap
 90
        3
300
CELLSTYLE
  1
TABLEFORMAT_BEGIN
 90
        5
170
     1
 91
        0
 92
    32768
 62
   257
 93
        1
300
CONTENTFORMAT
  1
CONTENTFORMAT_BEGIN
 90
        0
 91
        0
 92
        4
 93
        0
300

 40
0.0
140
1.0
 94
        5
 62
     0
340
11
144
6.0
309
CONTENTFORMAT_END
171
     1
301
MARGIN
  1
CELLMARGIN_BEGIN
 40
1.5
 40
1.5
 40
1.5
 40
1.5
 40
0.18
 40
0.18
309
CELLMARGIN_END
 94
        6
 95
        1
302
GRIDFORMAT
  1
GRIDFORMAT_BEGIN
 90
        0
 91
        1
 62
     0
 92
       -2
340
0
 93
        0
 40
0.045
309
GRIDFORMAT_END
 95
        2
302
GRIDFORMAT
  1
GRIDFORMAT_BEGIN
 90
        0
 91
        1
 62
     0
 92
       -2
340
0
 93
        0
 40
0.045
309
GRIDFORMAT_END
 95
        4
302
GRIDFORMAT
  1
GRIDFORMAT_BEGIN
 90
        0
 91
        1
 62
     0
 92
       -2
340
0
 93
        0
 40
0.045
309
GRIDFORMAT_END
 95
        8
302
GRIDFORMAT
  1
GRIDFORMAT_BEGIN
 90
        0
 91
        1
 62
     0
 92
       -2
340
0
 93
        0
 40
0.045
309
GRIDFORMAT_END
 95
       16
302
GRIDFORMAT
  1
GRIDFORMAT_BEGIN
 90
        0
 91
        1
 62
     0
 92
       -2
340
0
 93
        0
 40
0.045
309
GRIDFORMAT_END
 95
       32
302
GRIDFORMAT
  1
GRIDFORMAT_BEGIN
 90
        0
 91
        1
 62
     0
 92
       -2
340
0
 93
        0
 40
0.045
309
GRIDFORMAT_END
309
TABLEFORMAT_END
  1
CELLSTYLE_BEGIN
 90
        1
 91
        1
300
_TITLE
309
CELLSTYLE_END
300
CELLSTYLE
  1
TABLEFORMAT_BEGIN
 90
        5
170
     1
 91
        0
 92
        0
 62
   257
 93
        1
300
CONTENTFORMAT
  1
CONTENTFORMAT_BEGIN
 90
        0
 91
        0
 92
        4
 93
        0
300

 40
0.0
140
1.0
 94
        5
 62
     0
340
11
144
4.5
309
CONTENTFORMAT_END
171
     1
301
MARGIN
  1
CELLMARGIN_BEGIN
 40
1.5
 40
1.5
 40
1.5
 40
1.5
 40
0.18
 40
0.18
309
CELLMARGIN_END
 94
        6
 95
        1
302
GRIDFORMAT
  1
GRIDFORMAT_BEGIN
 90
        0
 91
        1
 62
     0
 92
       -2
340
0
 93
        0
 40
0.045
309
GRIDFORMAT_END
 95
        2
302
GRIDFORMAT
  1
GRIDFORMAT_BEGIN
 90
        0
 91
        1
 62
     0
 92
       -2
340
0
 93
        0
 40
0.045
309
GRIDFORMAT_END
 95
        4
302
GRIDFORMAT
  1
GRIDFORMAT_BEGIN
 90
        0
 91
        1
 62
     0
 92
       -2
340
0
 93
        0
 40
0.045
309
GRIDFORMAT_END
 95
        8
302
GRIDFORMAT
  1
GRIDFORMAT_BEGIN
 90
        0
 91
        1
 62
     0
 92
       -2
340
0
 93
        0
 40
0.045
309
GRIDFORMAT_END
 95
       16
302
GRIDFORMAT
  1
GRIDFORMAT_BEGIN
 90
        0
 91
        1
 62
     0
 92
       -2
340
0
 93
        0
 40
0.045
309
GRIDFORMAT_END
 95
       32
302
GRIDFORMAT
  1
GRIDFORMAT_BEGIN
 90
        0
 91
        1
 62
     0
 92
       -2
340
0
 93
        0
 40
0.045
309
GRIDFORMAT_END
309
TABLEFORMAT_END
  1
CELLSTYLE_BEGIN
 90
        2
 91
        1
300
_HEADER
309
CELLSTYLE_END
300
CELLSTYLE
  1
TABLEFORMAT_BEGIN
 90
        5
170
     1
 91
        0
 92
        0
 62
   257
 93
        1
300
CONTENTFORMAT
  1
CONTENTFORMAT_BEGIN
 90
        0
 91
        0
 92
        4
 93
        0
300

 40
0.0
140
1.0
 94
        2
 62
     0
340
11
144
4.5
309
CONTENTFORMAT_END
171
     1
301
MARGIN
  1
CELLMARGIN_BEGIN
 40
1.5
 40
1.5
 40
1.5
 40
1.5
 40
0.18
 40
0.18
309
CELLMARGIN_END
 94
        6
 95
        1
302
GRIDFORMAT
  1
GRIDFORMAT_BEGIN
 90
        0
 91
        1
 62
     0
 92
       -2
340
0
 93
        0
 40
0.045
309
GRIDFORMAT_END
 95
        2
302
GRIDFORMAT
  1
GRIDFORMAT_BEGIN
 90
        0
 91
        1
 62
     0
 92
       -2
340
0
 93
        0
 40
0.045
309
GRIDFORMAT_END
 95
        4
302
GRIDFORMAT
  1
GRIDFORMAT_BEGIN
 90
        0
 91
        1
 62
     0
 92
       -2
340
0
 93
        0
 40
0.045
309
GRIDFORMAT_END
 95
        8
302
GRIDFORMAT
  1
GRIDFORMAT_BEGIN
 90
        0
 91
        1
 62
     0
 92
       -2
340
0
 93
        0
 40
0.045
309
GRIDFORMAT_END
 95
       16
302
GRIDFORMAT
  1
GRIDFORMAT_BEGIN
 90
        0
 91
        1
 62
     0
 92
       -2
340
0
 93
        0
 40
0.045
309
GRIDFORMAT_END
 95
       32
302
GRIDFORMAT
  1
GRIDFORMAT_BEGIN
 90
        0
 91
        1
 62
     0
 92
       -2
340
0
 93
        0
 40
0.045
309
GRIDFORMAT_END
309
TABLEFORMAT_END
  1
CELLSTYLE_BEGIN
 90
        3
 91
        2
300
_DATA
309
CELLSTYLE_END
  0
XRECORD
  5
2D44
102
{ACAD_REACTORS
330
2D38
102
}
330
2D38
100
AcDbXrecord
280
     1
102
ACAD_ROUNDTRIP_PRE2007_TABLESTYLE
 90
        4
 91
        0
  1

 92
        4
 93
        0
  2

 94
        4
 95
        0
  3

  0
XRECORD
  5
2D55
102
{ACAD_REACTORS
330
2D54
102
}
330
2D54
100
AcDbXrecord
280
     1
102
RTVSPropertyOp0
 70
     1
102
RTVSPropertyOp1
 70
     1
102
RTVSPropertyOp2
 70
     1
102
RTVSPropertyOp3
 70
     1
102
RTVSPropertyOp4
 70
     1
102
RTVSPropertyOp5
 70
     1
102
RTVSPropertyOp6
 70
     1
102
RTVSPropertyOp7
 70
     1
102
RTVSPropertyOp8
 70
     1
102
RTVSPropertyOp9
 70
     1
102
RTVSPropertyOp10
 70
     1
102
RTVSPropertyOp11
 70
     1
102
RTVSPropertyOp12
 70
     1
102
RTVSPropertyOp13
 70
     1
102
RTVSPropertyOp14
 70
     1
102
RTVSPropertyOp15
 70
     1
102
RTVSPropertyOp16
 70
     1
102
RTVSPropertyOp17
 70
     1
102
RTVSPropertyOp18
 70
     1
102
RTVSPropertyOp19
 70
     1
102
RTVSPropertyOp20
 70
     1
102
RTVSPropertyOp21
 70
     1
102
RTVSPropertyOp22
 70
     1
102
RTVSPropertyOp23
 70
     1
102
RTVSPropertyOp24
 70
     1
102
RTVSPropertyOp25
 70
     1
102
RTVSPropertyOp26
 70
     1
102
RTVSPropertyOp27
 70
     1
  0
XRECORD
  5
2D59
102
{ACAD_REACTORS
330
2D58
102
}
330
2D58
100
AcDbXrecord
280
     1
102
RTVSPropertyOp0
 70
     1
102
RTVSPropertyOp1
 70
     1
102
RTVSPropertyOp2
 70
     1
102
RTVSPropertyOp3
 70
     1
102
RTVSPropertyOp4
 70
     1
102
RTVSPropertyOp5
 70
     1
102
RTVSPropertyOp6
 70
     1
102
RTVSPropertyOp7
 70
     1
102
RTVSPropertyOp8
 70
     1
102
RTVSPropertyOp9
 70
     1
102
RTVSPropertyOp10
 70
     1
102
RTVSPropertyOp11
 70
     1
102
RTVSPropertyOp12
 70
     1
102
RTVSPropertyOp13
 70
     1
102
RTVSPropertyOp14
 70
     1
102
RTVSPropertyOp15
 70
     1
102
RTVSPropertyOp16
 70
     1
102
RTVSPropertyOp17
 70
     1
102
RTVSPropertyOp18
 70
     1
102
RTVSPropertyOp19
 70
     1
102
RTVSPropertyOp20
 70
     1
102
RTVSPropertyOp21
 70
     1
102
RTVSPropertyOp22
 70
     1
102
RTVSPropertyOp23
 70
     1
102
RTVSPropertyOp24
 70
     1
102
RTVSPropertyOp25
 70
     1
102
RTVSPropertyOp26
 70
     1
102
RTVSPropertyOp27
 70
     1
  0
XRECORD
  5
2D57
102
{ACAD_REACTORS
330
2D56
102
}
330
2D56
100
AcDbXrecord
280
     1
102
RTVSPropertyOp0
 70
     1
102
RTVSPropertyOp1
 70
     1
102
RTVSPropertyOp2
 70
     1
102
RTVSPropertyOp3
 70
     1
102
RTVSPropertyOp4
 70
     1
102
RTVSPropertyOp5
 70
     1
102
RTVSPropertyOp6
 70
     1
102
RTVSPropertyOp7
 70
     1
102
RTVSPropertyOp8
 70
     1
102
RTVSPropertyOp9
 70
     1
102
RTVSPropertyOp10
 70
     1
102
RTVSPropertyOp11
 70
     1
102
RTVSPropertyOp12
 70
     1
102
RTVSPropertyOp13
 70
     1
102
RTVSPropertyOp14
 70
     1
102
RTVSPropertyOp15
 70
     1
102
RTVSPropertyOp16
 70
     1
102
RTVSPropertyOp17
 70
     1
102
RTVSPropertyOp18
 70
     1
102
RTVSPropertyOp19
 70
     1
102
RTVSPropertyOp20
 70
     1
102
RTVSPropertyOp21
 70
     1
102
RTVSPropertyOp22
 70
     1
102
RTVSPropertyOp23
 70
     1
102
RTVSPropertyOp24
 70
     1
102
RTVSPropertyOp25
 70
     1
102
RTVSPropertyOp26
 70
     1
102
RTVSPropertyOp27
 70
     1
  0
XRECORD
  5
2D53
102
{ACAD_REACTORS
330
2D52
102
}
330
2D52
100
AcDbXrecord
280
     1
102
RTVSPropertyOp0
 70
     1
102
RTVSPropertyOp1
 70
     1
102
RTVSPropertyOp2
 70
     1
102
RTVSPropertyOp3
 70
     1
102
RTVSPropertyOp4
 70
     1
102
RTVSPropertyOp5
 70
     1
102
RTVSPropertyOp6
 70
     1
102
RTVSPropertyOp7
 70
     1
102
RTVSPropertyOp8
 70
     1
102
RTVSPropertyOp9
 70
     1
102
RTVSPropertyOp10
 70
     1
102
RTVSPropertyOp11
 70
     1
102
RTVSPropertyOp12
 70
     1
102
RTVSPropertyOp13
 70
     1
102
RTVSPropertyOp14
 70
     1
102
RTVSPropertyOp15
 70
     1
102
RTVSPropertyOp16
 70
     1
102
RTVSPropertyOp17
 70
     1
102
RTVSPropertyOp18
 70
     1
102
RTVSPropertyOp19
 70
     1
102
RTVSPropertyOp20
 70
     1
102
RTVSPropertyOp21
 70
     1
102
RTVSPropertyOp22
 70
     1
102
RTVSPropertyOp23
 70
     1
102
RTVSPropertyOp24
 70
     1
102
RTVSPropertyOp25
 70
     1
102
RTVSPropertyOp26
 70
     1
102
RTVSPropertyOp27
 70
     1
  0
XRECORD
  5
2D61
102
{ACAD_REACTORS
330
2D60
102
}
330
2D60
100
AcDbXrecord
280
     1
102
RTVSPropertyOp0
 70
     1
102
RTVSPropertyOp1
 70
     1
102
RTVSPropertyOp2
 70
     1
102
RTVSPropertyOp3
 70
     1
102
RTVSPropertyOp4
 70
     1
102
RTVSPropertyOp5
 70
     1
102
RTVSPropertyOp6
 70
     1
102
RTVSPropertyOp7
 70
     1
102
RTVSPropertyOp8
 70
     1
102
RTVSPropertyOp9
 70
     1
102
RTVSPropertyOp10
 70
     1
102
RTVSPropertyOp11
 70
     1
102
RTVSPropertyOp12
 70
     1
102
RTVSPropertyOp13
 70
     1
102
RTVSPropertyOp14
 70
     1
102
RTVSPropertyOp15
 70
     1
102
RTVSPropertyOp16
 70
     1
102
RTVSPropertyOp17
 70
     1
102
RTVSPropertyOp18
 70
     1
102
RTVSPropertyOp19
 70
     1
102
RTVSPropertyOp20
 70
     1
102
RTVSPropertyOp21
 70
     1
102
RTVSPropertyOp22
 70
     1
102
RTVSPropertyOp23
 70
     1
102
RTVSPropertyOp24
 70
     1
102
RTVSPropertyOp25
 70
     1
102
RTVSPropertyOp26
 70
     1
102
RTVSPropertyOp27
 70
     1
  0
XRECORD
  5
2D69
102
{ACAD_REACTORS
330
2D68
102
}
330
2D68
100
AcDbXrecord
280
     1
102
RTVSPropertyOp0
 70
     1
102
RTVSPropertyOp1
 70
     1
102
RTVSPropertyOp2
 70
     1
102
RTVSPropertyOp3
 70
     1
102
RTVSPropertyOp4
 70
     1
102
RTVSPropertyOp5
 70
     1
102
RTVSPropertyOp6
 70
     1
102
RTVSPropertyOp7
 70
     1
102
RTVSPropertyOp8
 70
     1
102
RTVSPropertyOp9
 70
     1
102
RTVSPropertyOp10
 70
     1
102
RTVSPropertyOp11
 70
     1
102
RTVSPropertyOp12
 70
     1
102
RTVSPropertyOp13
 70
     1
102
RTVSPropertyOp14
 70
     1
102
RTVSPropertyOp15
 70
     1
102
RTVSPropertyOp16
 70
     1
102
RTVSPropertyOp17
 70
     1
102
RTVSPropertyOp18
 70
     1
102
RTVSPropertyOp19
 70
     1
102
RTVSPropertyOp20
 70
     1
102
RTVSPropertyOp21
 70
     1
102
RTVSPropertyOp22
 70
     1
102
RTVSPropertyOp23
 70
     1
102
RTVSPropertyOp24
 70
     1
102
RTVSPropertyOp25
 70
     1
102
RTVSPropertyOp26
 70
     1
102
RTVSPropertyOp27
 70
     1
  0
XRECORD
  5
2D5B
102
{ACAD_REACTORS
330
2D5A
102
}
330
2D5A
100
AcDbXrecord
280
     1
102
RTVSPropertyOp0
 70
     1
102
RTVSPropertyOp1
 70
     1
102
RTVSPropertyOp2
 70
     1
102
RTVSPropertyOp3
 70
     1
102
RTVSPropertyOp4
 70
     1
102
RTVSPropertyOp5
 70
     1
102
RTVSPropertyOp6
 70
     1
102
RTVSPropertyOp7
 70
     1
102
RTVSPropertyOp8
 70
     1
102
RTVSPropertyOp9
 70
     1
102
RTVSPropertyOp10
 70
     1
102
RTVSPropertyOp11
 70
     1
102
RTVSPropertyOp12
 70
     1
102
RTVSPropertyOp13
 70
     1
102
RTVSPropertyOp14
 70
     1
102
RTVSPropertyOp15
 70
     1
102
RTVSPropertyOp16
 70
     1
102
RTVSPropertyOp17
 70
     1
102
RTVSPropertyOp18
 70
     1
102
RTVSPropertyOp19
 70
     1
102
RTVSPropertyOp20
 70
     1
102
RTVSPropertyOp21
 70
     1
102
RTVSPropertyOp22
 70
     1
102
RTVSPropertyOp23
 70
     1
102
RTVSPropertyOp24
 70
     1
102
RTVSPropertyOp25
 70
     1
102
RTVSPropertyOp26
 70
     1
102
RTVSPropertyOp27
 70
     1
  0
XRECORD
  5
2D5F
102
{ACAD_REACTORS
330
2D5E
102
}
330
2D5E
100
AcDbXrecord
280
     1
102
RTVSPropertyOp0
 70
     1
102
RTVSPropertyOp1
 70
     1
102
RTVSPropertyOp2
 70
     1
102
RTVSPropertyOp3
 70
     1
102
RTVSPropertyOp4
 70
     1
102
RTVSPropertyOp5
 70
     1
102
RTVSPropertyOp6
 70
     1
102
RTVSPropertyOp7
 70
     1
102
RTVSPropertyOp8
 70
     1
102
RTVSPropertyOp9
 70
     1
102
RTVSPropertyOp10
 70
     1
102
RTVSPropertyOp11
 70
     1
102
RTVSPropertyOp12
 70
     1
102
RTVSPropertyOp13
 70
     1
102
RTVSPropertyOp14
 70
     1
102
RTVSPropertyOp15
 70
     1
102
RTVSPropertyOp16
 70
     1
102
RTVSPropertyOp17
 70
     1
102
RTVSPropertyOp18
 70
     1
102
RTVSPropertyOp19
 70
     1
102
RTVSPropertyOp20
 70
     1
102
RTVSPropertyOp21
 70
     1
102
RTVSPropertyOp22
 70
     1
102
RTVSPropertyOp23
 70
     1
102
RTVSPropertyOp24
 70
     1
102
RTVSPropertyOp25
 70
     1
102
RTVSPropertyOp26
 70
     1
102
RTVSPropertyOp27
 70
     1
  0
XRECORD
  5
2D6F
102
{ACAD_REACTORS
330
2D6E
102
}
330
2D6E
100
AcDbXrecord
280
     1
102
RTVSPropertyOp0
 70
     0
102
RTVSPropertyOp1
 70
     0
102
RTVSPropertyOp2
 70
     0
102
RTVSPropertyOp3
 70
     0
102
RTVSPropertyOp4
 70
     0
102
RTVSPropertyOp5
 70
     0
102
RTVSPropertyOp6
 70
     0
102
RTVSPropertyOp7
 70
     0
102
RTVSPropertyOp8
 70
     0
102
RTVSPropertyOp9
 70
     0
102
RTVSPropertyOp10
 70
     0
102
RTVSPropertyOp11
 70
     0
102
RTVSPropertyOp12
 70
     0
102
RTVSPropertyOp13
 70
     0
102
RTVSPropertyOp14
 70
     2
102
RTVSPropertyOp15
 70
     0
102
RTVSPropertyOp16
 70
     0
102
RTVSPropertyOp17
 70
     0
102
RTVSPropertyOp18
 70
     0
102
RTVSPropertyOp19
 70
     0
102
RTVSPropertyOp20
 70
     0
102
RTVSPropertyOp21
 70
     0
102
RTVSPropertyOp22
 70
     0
102
RTVSPropertyOp23
 70
     0
102
RTVSPropertyOp24
 70
     0
102
RTVSPropertyOp25
 70
     0
102
RTVSPropertyOp26
 70
     0
102
RTVSPropertyOp27
 70
     0
  0
XRECORD
  5
2D67
102
{ACAD_REACTORS
330
2D66
102
}
330
2D66
100
AcDbXrecord
280
     1
102
RTVSPropertyOp0
 70
     1
102
RTVSPropertyOp1
 70
     1
102
RTVSPropertyOp2
 70
     1
102
RTVSPropertyOp3
 70
     1
102
RTVSPropertyOp4
 70
     1
102
RTVSPropertyOp5
 70
     1
102
RTVSPropertyOp6
 70
     1
102
RTVSPropertyOp7
 70
     1
102
RTVSPropertyOp8
 70
     1
102
RTVSPropertyOp9
 70
     1
102
RTVSPropertyOp10
 70
     1
102
RTVSPropertyOp11
 70
     1
102
RTVSPropertyOp12
 70
     1
102
RTVSPropertyOp13
 70
     1
102
RTVSPropertyOp14
 70
     1
102
RTVSPropertyOp15
 70
     1
102
RTVSPropertyOp16
 70
     1
102
RTVSPropertyOp17
 70
     1
102
RTVSPropertyOp18
 70
     1
102
RTVSPropertyOp19
 70
     1
102
RTVSPropertyOp20
 70
     1
102
RTVSPropertyOp21
 70
     1
102
RTVSPropertyOp22
 70
     1
102
RTVSPropertyOp23
 70
     1
102
RTVSPropertyOp24
 70
     1
102
RTVSPropertyOp25
 70
     1
102
RTVSPropertyOp26
 70
     1
102
RTVSPropertyOp27
 70
     1
  0
XRECORD
  5
2D4B
102
{ACAD_REACTORS
330
2D4A
102
}
330
2D4A
100
AcDbXrecord
280
     1
102
RTVSPropertyOp0
 70
     1
102
RTVSPropertyOp1
 70
     1
102
RTVSPropertyOp2
 70
     1
102
RTVSPropertyOp3
 70
     1
102
RTVSPropertyOp4
 70
     1
102
RTVSPropertyOp5
 70
     1
102
RTVSPropertyOp6
 70
     1
102
RTVSPropertyOp7
 70
     1
102
RTVSPropertyOp8
 70
     1
102
RTVSPropertyOp9
 70
     1
102
RTVSPropertyOp10
 70
     1
102
RTVSPropertyOp11
 70
     1
102
RTVSPropertyOp12
 70
     1
102
RTVSPropertyOp13
 70
     1
102
RTVSPropertyOp14
 70
     1
102
RTVSPropertyOp15
 70
     1
102
RTVSPropertyOp16
 70
     1
102
RTVSPropertyOp17
 70
     1
102
RTVSPropertyOp18
 70
     1
102
RTVSPropertyOp19
 70
     1
102
RTVSPropertyOp20
 70
     1
102
RTVSPropertyOp21
 70
     1
102
RTVSPropertyOp22
 70
     1
102
RTVSPropertyOp23
 70
     1
102
RTVSPropertyOp24
 70
     1
102
RTVSPropertyOp25
 70
     1
102
RTVSPropertyOp26
 70
     1
102
RTVSPropertyOp27
 70
     1
  0
XRECORD
  5
2D4D
102
{ACAD_REACTORS
330
2D4C
102
}
330
2D4C
100
AcDbXrecord
280
     1
102
RTVSPropertyOp0
 70
     1
102
RTVSPropertyOp1
 70
     1
102
RTVSPropertyOp2
 70
     1
102
RTVSPropertyOp3
 70
     1
102
RTVSPropertyOp4
 70
     1
102
RTVSPropertyOp5
 70
     1
102
RTVSPropertyOp6
 70
     1
102
RTVSPropertyOp7
 70
     1
102
RTVSPropertyOp8
 70
     1
102
RTVSPropertyOp9
 70
     1
102
RTVSPropertyOp10
 70
     1
102
RTVSPropertyOp11
 70
     1
102
RTVSPropertyOp12
 70
     1
102
RTVSPropertyOp13
 70
     1
102
RTVSPropertyOp14
 70
     1
102
RTVSPropertyOp15
 70
     1
102
RTVSPropertyOp16
 70
     1
102
RTVSPropertyOp17
 70
     1
102
RTVSPropertyOp18
 70
     1
102
RTVSPropertyOp19
 70
     1
102
RTVSPropertyOp20
 70
     1
102
RTVSPropertyOp21
 70
     1
102
RTVSPropertyOp22
 70
     1
102
RTVSPropertyOp23
 70
     1
102
RTVSPropertyOp24
 70
     1
102
RTVSPropertyOp25
 70
     1
102
RTVSPropertyOp26
 70
     1
102
RTVSPropertyOp27
 70
     1
  0
XRECORD
  5
2D4F
102
{ACAD_REACTORS
330
2D4E
102
}
330
2D4E
100
AcDbXrecord
280
     1
102
RTVSPropertyOp0
 70
     1
102
RTVSPropertyOp1
 70
     1
102
RTVSPropertyOp2
 70
     1
102
RTVSPropertyOp3
 70
     1
102
RTVSPropertyOp4
 70
     1
102
RTVSPropertyOp5
 70
     1
102
RTVSPropertyOp6
 70
     1
102
RTVSPropertyOp7
 70
     1
102
RTVSPropertyOp8
 70
     1
102
RTVSPropertyOp9
 70
     1
102
RTVSPropertyOp10
 70
     1
102
RTVSPropertyOp11
 70
     1
102
RTVSPropertyOp12
 70
     1
102
RTVSPropertyOp13
 70
     1
102
RTVSPropertyOp14
 70
     1
102
RTVSPropertyOp15
 70
     1
102
RTVSPropertyOp16
 70
     1
102
RTVSPropertyOp17
 70
     1
102
RTVSPropertyOp18
 70
     1
102
RTVSPropertyOp19
 70
     1
102
RTVSPropertyOp20
 70
     1
102
RTVSPropertyOp21
 70
     1
102
RTVSPropertyOp22
 70
     1
102
RTVSPropertyOp23
 70
     1
102
RTVSPropertyOp24
 70
     1
102
RTVSPropertyOp25
 70
     1
102
RTVSPropertyOp26
 70
     1
102
RTVSPropertyOp27
 70
     1
  0
XRECORD
  5
2D51
102
{ACAD_REACTORS
330
2D50
102
}
330
2D50
100
AcDbXrecord
280
     1
102
RTVSPropertyOp0
 70
     1
102
RTVSPropertyOp1
 70
     1
102
RTVSPropertyOp2
 70
     1
102
RTVSPropertyOp3
 70
     1
102
RTVSPropertyOp4
 70
     1
102
RTVSPropertyOp5
 70
     1
102
RTVSPropertyOp6
 70
     1
102
RTVSPropertyOp7
 70
     1
102
RTVSPropertyOp8
 70
     1
102
RTVSPropertyOp9
 70
     1
102
RTVSPropertyOp10
 70
     1
102
RTVSPropertyOp11
 70
     1
102
RTVSPropertyOp12
 70
     1
102
RTVSPropertyOp13
 70
     1
102
RTVSPropertyOp14
 70
     1
102
RTVSPropertyOp15
 70
     1
102
RTVSPropertyOp16
 70
     1
102
RTVSPropertyOp17
 70
     1
102
RTVSPropertyOp18
 70
     1
102
RTVSPropertyOp19
 70
     1
102
RTVSPropertyOp20
 70
     1
102
RTVSPropertyOp21
 70
     1
102
RTVSPropertyOp22
 70
     1
102
RTVSPropertyOp23
 70
     1
102
RTVSPropertyOp24
 70
     1
102
RTVSPropertyOp25
 70
     1
102
RTVSPropertyOp26
 70
     1
102
RTVSPropertyOp27
 70
     1
  0
XRECORD
  5
2D6B
102
{ACAD_REACTORS
330
2D6A
102
}
330
2D6A
100
AcDbXrecord
280
     1
102
RTVSPropertyOp0
 70
     0
102
RTVSPropertyOp1
 70
     0
102
RTVSPropertyOp2
 70
     0
102
RTVSPropertyOp3
 70
     0
102
RTVSPropertyOp4
 70
     0
102
RTVSPropertyOp5
 70
     0
102
RTVSPropertyOp6
 70
     0
102
RTVSPropertyOp7
 70
     0
102
RTVSPropertyOp8
 70
     0
102
RTVSPropertyOp9
 70
     0
102
RTVSPropertyOp10
 70
     0
102
RTVSPropertyOp11
 70
     0
102
RTVSPropertyOp12
 70
     0
102
RTVSPropertyOp13
 70
     0
102
RTVSPropertyOp14
 70
     2
102
RTVSPropertyOp15
 70
     0
102
RTVSPropertyOp16
 70
     0
102
RTVSPropertyOp17
 70
     0
102
RTVSPropertyOp18
 70
     0
102
RTVSPropertyOp19
 70
     0
102
RTVSPropertyOp20
 70
     0
102
RTVSPropertyOp21
 70
     0
102
RTVSPropertyOp22
 70
     0
102
RTVSPropertyOp23
 70
     0
102
RTVSPropertyOp24
 70
     0
102
RTVSPropertyOp25
 70
     0
102
RTVSPropertyOp26
 70
     0
102
RTVSPropertyOp27
 70
     0
  0
XRECORD
  5
2D65
102
{ACAD_REACTORS
330
2D64
102
}
330
2D64
100
AcDbXrecord
280
     1
102
RTVSPropertyOp0
 70
     1
102
RTVSPropertyOp1
 70
     1
102
RTVSPropertyOp2
 70
     1
102
RTVSPropertyOp3
 70
     1
102
RTVSPropertyOp4
 70
     1
102
RTVSPropertyOp5
 70
     1
102
RTVSPropertyOp6
 70
     1
102
RTVSPropertyOp7
 70
     1
102
RTVSPropertyOp8
 70
     1
102
RTVSPropertyOp9
 70
     1
102
RTVSPropertyOp10
 70
     1
102
RTVSPropertyOp11
 70
     1
102
RTVSPropertyOp12
 70
     1
102
RTVSPropertyOp13
 70
     1
102
RTVSPropertyOp14
 70
     1
102
RTVSPropertyOp15
 70
     1
102
RTVSPropertyOp16
 70
     1
102
RTVSPropertyOp17
 70
     1
102
RTVSPropertyOp18
 70
     1
102
RTVSPropertyOp19
 70
     1
102
RTVSPropertyOp20
 70
     1
102
RTVSPropertyOp21
 70
     1
102
RTVSPropertyOp22
 70
     1
102
RTVSPropertyOp23
 70
     1
102
RTVSPropertyOp24
 70
     1
102
RTVSPropertyOp25
 70
     1
102
RTVSPropertyOp26
 70
     1
102
RTVSPropertyOp27
 70
     1
  0
XRECORD
  5
2D6D
102
{ACAD_REACTORS
330
2D6C
102
}
330
2D6C
100
AcDbXrecord
280
     1
102
RTVSPropertyOp0
 70
     0
102
RTVSPropertyOp1
 70
     0
102
RTVSPropertyOp2
 70
     0
102
RTVSPropertyOp3
 70
     0
102
RTVSPropertyOp4
 70
     0
102
RTVSPropertyOp5
 70
     0
102
RTVSPropertyOp6
 70
     0
102
RTVSPropertyOp7
 70
     0
102
RTVSPropertyOp8
 70
     0
102
RTVSPropertyOp9
 70
     0
102
RTVSPropertyOp10
 70
     0
102
RTVSPropertyOp11
 70
     0
102
RTVSPropertyOp12
 70
     0
102
RTVSPropertyOp13
 70
     0
102
RTVSPropertyOp14
 70
     2
102
RTVSPropertyOp15
 70
     0
102
RTVSPropertyOp16
 70
     0
102
RTVSPropertyOp17
 70
     0
102
RTVSPropertyOp18
 70
     0
102
RTVSPropertyOp19
 70
     0
102
RTVSPropertyOp20
 70
     0
102
RTVSPropertyOp21
 70
     0
102
RTVSPropertyOp22
 70
     0
102
RTVSPropertyOp23
 70
     0
102
RTVSPropertyOp24
 70
     0
102
RTVSPropertyOp25
 70
     0
102
RTVSPropertyOp26
 70
     0
102
RTVSPropertyOp27
 70
     0
  0
XRECORD
  5
2D5D
102
{ACAD_REACTORS
330
2D5C
102
}
330
2D5C
100
AcDbXrecord
280
     1
102
RTVSPropertyOp0
 70
     1
102
RTVSPropertyOp1
 70
     1
102
RTVSPropertyOp2
 70
     1
102
RTVSPropertyOp3
 70
     1
102
RTVSPropertyOp4
 70
     1
102
RTVSPropertyOp5
 70
     1
102
RTVSPropertyOp6
 70
     1
102
RTVSPropertyOp7
 70
     1
102
RTVSPropertyOp8
 70
     1
102
RTVSPropertyOp9
 70
     1
102
RTVSPropertyOp10
 70
     1
102
RTVSPropertyOp11
 70
     1
102
RTVSPropertyOp12
 70
     1
102
RTVSPropertyOp13
 70
     1
102
RTVSPropertyOp14
 70
     1
102
RTVSPropertyOp15
 70
     1
102
RTVSPropertyOp16
 70
     1
102
RTVSPropertyOp17
 70
     1
102
RTVSPropertyOp18
 70
     1
102
RTVSPropertyOp19
 70
     1
102
RTVSPropertyOp20
 70
     1
102
RTVSPropertyOp21
 70
     1
102
RTVSPropertyOp22
 70
     1
102
RTVSPropertyOp23
 70
     1
102
RTVSPropertyOp24
 70
     1
102
RTVSPropertyOp25
 70
     1
102
RTVSPropertyOp26
 70
     1
102
RTVSPropertyOp27
 70
     1
  0
XRECORD
  5
2D63
102
{ACAD_REACTORS
330
2D62
102
}
330
2D62
100
AcDbXrecord
280
     1
102
RTVSPropertyOp0
 70
     1
102
RTVSPropertyOp1
 70
     1
102
RTVSPropertyOp2
 70
     1
102
RTVSPropertyOp3
 70
     1
102
RTVSPropertyOp4
 70
     1
102
RTVSPropertyOp5
 70
     1
102
RTVSPropertyOp6
 70
     1
102
RTVSPropertyOp7
 70
     1
102
RTVSPropertyOp8
 70
     1
102
RTVSPropertyOp9
 70
     1
102
RTVSPropertyOp10
 70
     1
102
RTVSPropertyOp11
 70
     1
102
RTVSPropertyOp12
 70
     1
102
RTVSPropertyOp13
 70
     1
102
RTVSPropertyOp14
 70
     1
102
RTVSPropertyOp15
 70
     1
102
RTVSPropertyOp16
 70
     1
102
RTVSPropertyOp17
 70
     1
102
RTVSPropertyOp18
 70
     1
102
RTVSPropertyOp19
 70
     1
102
RTVSPropertyOp20
 70
     1
102
RTVSPropertyOp21
 70
     1
102
RTVSPropertyOp22
 70
     1
102
RTVSPropertyOp23
 70
     1
102
RTVSPropertyOp24
 70
     1
102
RTVSPropertyOp25
 70
     1
102
RTVSPropertyOp26
 70
     1
102
RTVSPropertyOp27
 70
     1
  0
ENDSEC
  0
EOF
