  0
SECTION
  2
HEADER
  9
$ACADVER
  1
AC1015
  9
$ACADMAINTVER
 70
    20
  9
$DWGCODEPAGE
  3
ANSI_1252
  9
$INSBASE
 10
0.0
 20
0.0
 30
0.0
  9
$EXTMIN
 10
4721.291132069736
 20
1027.692988475303
 30
-0.0000000017937957
  9
$EXTMAX
 10
4723.782941264552
 20
1029.542988475303
 30
0.0000000000545592
  9
$LIMMIN
 10
0.0
 20
0.0
  9
$LIMMAX
 10
420.0
 20
297.0
  9
$ORTHOMODE
 70
     0
  9
$REGENMODE
 70
     1
  9
$FILLMODE
 70
     1
  9
$QTEXTMODE
 70
     0
  9
$MIRRTEXT
 70
     1
  9
$LTSCALE
 40
1.0
  9
$ATTMODE
 70
     1
  9
$TEXTSIZE
 40
2.5
  9
$TRACEWID
 40
1.0
  9
$TEXTSTYLE
  7
SANINDUSA
  9
$CLAYER
  8
cotas
  9
$CELTYPE
  6
ByLayer
  9
$CECOLOR
 62
   256
  9
$CELTSCALE
 40
1.0
  9
$DISPSILH
 70
     0
  9
$DIMSCALE
 40
1.0
  9
$DIMASZ
 40
2.0
  9
$DIMEXO
 40
1.0
  9
$DIMDLI
 40
1.0
  9
$DIMRND
 40
0.0
  9
$DIMDLE
 40
0.0
  9
$DIMEXE
 40
1.0
  9
$DIMTP
 40
0.0
  9
$DIMTM
 40
0.0
  9
$DIMTXT
 40
2.0
  9
$DIMCEN
 40
0.0
  9
$DIMTSZ
 40
0.0
  9
$DIMTOL
 70
     0
  9
$DIMLIM
 70
     0
  9
$DIMTIH
 70
     0
  9
$DIMTOH
 70
     0
  9
$DIMSE1
 70
     0
  9
$DIMSE2
 70
     0
  9
$DIMTAD
 70
     1
  9
$DIMZIN
 70
     8
  9
$DIMBLK
  1

  9
$DIMASO
 70
     1
  9
$DIMSHO
 70
     1
  9
$DIMPOST
  1

  9
$DIMAPOST
  1

  9
$DIMALT
 70
     0
  9
$DIMALTD
 70
     3
  9
$DIMALTF
 40
0.03937007874016
  9
$DIMLFAC
 40
1.0
  9
$DIMTOFL
 70
     1
  9
$DIMTVP
 40
0.0
  9
$DIMTIX
 70
     0
  9
$DIMSOXD
 70
     0
  9
$DIMSAH
 70
     0
  9
$DIMBLK1
  1

  9
$DIMBLK2
  1

  9
$DIMSTYLE
  2
SANINDUSA
  9
$DIMCLRD
 70
   256
  9
$DIMCLRE
 70
   256
  9
$DIMCLRT
 70
   256
  9
$DIMTFAC
 40
1.0
  9
$DIMGAP
 40
1.0
  9
$DIMJUST
 70
     0
  9
$DIMSD1
 70
     0
  9
$DIMSD2
 70
     0
  9
$DIMTOLJ
 70
     0
  9
$DIMTZIN
 70
     8
  9
$DIMALTZ
 70
     0
  9
$DIMALTTZ
 70
     0
  9
$DIMUPT
 70
     0
  9
$DIMDEC
 70
     1
  9
$DIMTDEC
 70
     1
  9
$DIMALTU
 70
     2
  9
$DIMALTTD
 70
     3
  9
$DIMTXSTY
  7
SANINDUSA
  9
$DIMAUNIT
 70
     0
  9
$DIMADEC
 70
     1
  9
$DIMALTRND
 40
0.0
  9
$DIMAZIN
 70
     0
  9
$DIMDSEP
 70
    44
  9
$DIMATFIT
 70
     3
  9
$DIMFRAC
 70
     0
  9
$DIMLDRBLK
  1

  9
$DIMLUNIT
 70
     2
  9
$DIMLWD
 70
    -1
  9
$DIMLWE
 70
    -1
  9
$DIMTMOVE
 70
     0
  9
$LUNITS
 70
     2
  9
$LUPREC
 70
     4
  9
$SKETCHINC
 40
1.0
  9
$FILLETRAD
 40
0.0
  9
$AUNITS
 70
     0
  9
$AUPREC
 70
     0
  9
$MENU
  1
.
  9
$ELEVATION
 40
0.0
  9
$PELEVATION
 40
0.0
  9
$THICKNESS
 40
0.0
  9
$LIMCHECK
 70
     0
  9
$CHAMFERA
 40
10.0
  9
$CHAMFERB
 40
10.0
  9
$CHAMFERC
 40
20.0
  9
$CHAMFERD
 40
0.0
  9
$SKPOLY
 70
     0
  9
$TDCREATE
 40
2453259.379268114
  9
$TDUCREATE
 40
2453259.337601447
  9
$TDUPDATE
 40
2455818.686201169
  9
$TDUUPDATE
 40
2455818.644534502
  9
$TDINDWG
 40
0.0575994676
  9
$TDUSRTIMER
 40
0.0575994676
  9
$USRTIMER
 70
     1
  9
$ANGBASE
 50
0.0
  9
$ANGDIR
 70
     0
  9
$PDMODE
 70
     0
  9
$PDSIZE
 40
0.0
  9
$PLINEWID
 40
0.0
  9
$SPLFRAME
 70
     0
  9
$SPLINETYPE
 70
     6
  9
$SPLINESEGS
 70
     8
  9
$HANDSEED
  5
21C9
  9
$SURFTAB1
 70
     6
  9
$SURFTAB2
 70
     6
  9
$SURFTYPE
 70
     6
  9
$SURFU
 70
     6
  9
$SURFV
 70
     6
  9
$UCSBASE
  2

  9
$UCSNAME
  2

  9
$UCSORG
 10
0.0
 20
0.0
 30
0.0
  9
$UCSXDIR
 10
1.0
 20
0.0
 30
0.0
  9
$UCSYDIR
 10
0.0
 20
1.0
 30
0.0
  9
$UCSORTHOREF
  2

  9
$UCSORTHOVIEW
 70
     0
  9
$UCSORGTOP
 10
0.0
 20
0.0
 30
0.0
  9
$UCSORGBOTTOM
 10
0.0
 20
0.0
 30
0.0
  9
$UCSORGLEFT
 10
0.0
 20
0.0
 30
0.0
  9
$UCSORGRIGHT
 10
0.0
 20
0.0
 30
0.0
  9
$UCSORGFRONT
 10
0.0
 20
0.0
 30
0.0
  9
$UCSORGBACK
 10
0.0
 20
0.0
 30
0.0
  9
$PUCSBASE
  2

  9
$PUCSNAME
  2

  9
$PUCSORG
 10
0.0
 20
0.0
 30
0.0
  9
$PUCSXDIR
 10
1.0
 20
0.0
 30
0.0
  9
$PUCSYDIR
 10
0.0
 20
1.0
 30
0.0
  9
$PUCSORTHOREF
  2

  9
$PUCSORTHOVIEW
 70
     0
  9
$PUCSORGTOP
 10
0.0
 20
0.0
 30
0.0
  9
$PUCSORGBOTTOM
 10
0.0
 20
0.0
 30
0.0
  9
$PUCSORGLEFT
 10
0.0
 20
0.0
 30
0.0
  9
$PUCSORGRIGHT
 10
0.0
 20
0.0
 30
0.0
  9
$PUCSORGFRONT
 10
0.0
 20
0.0
 30
0.0
  9
$PUCSORGBACK
 10
0.0
 20
0.0
 30
0.0
  9
$USERI1
 70
     0
  9
$USERI2
 70
     0
  9
$USERI3
 70
     0
  9
$USERI4
 70
     0
  9
$USERI5
 70
     0
  9
$USERR1
 40
0.0
  9
$USERR2
 40
0.0
  9
$USERR3
 40
0.0
  9
$USERR4
 40
0.0
  9
$USERR5
 40
0.0
  9
$WORLDVIEW
 70
     1
  9
$SHADEDGE
 70
     3
  9
$SHADEDIF
 70
    70
  9
$TILEMODE
 70
     1
  9
$MAXACTVP
 70
    64
  9
$PINSBASE
 10
0.0
 20
0.0
 30
0.0
  9
$PLIMCHECK
 70
     0
  9
$PEXTMIN
 10
1.000000000000000E+20
 20
1.000000000000000E+20
 30
1.000000000000000E+20
  9
$PEXTMAX
 10
-1.000000000000000E+20
 20
-1.000000000000000E+20
 30
-1.000000000000000E+20
  9
$PLIMMIN
 10
0.0
 20
0.0
  9
$PLIMMAX
 10
420.0
 20
297.0
  9
$UNITMODE
 70
     0
  9
$VISRETAIN
 70
     1
  9
$PLINEGEN
 70
     0
  9
$PSLTSCALE
 70
     1
  9
$TREEDEPTH
 70
  3020
  9
$CMLSTYLE
  2
Standard
  9
$CMLJUST
 70
     0
  9
$CMLSCALE
 40
20.0
  9
$PROXYGRAPHICS
 70
     1
  9
$MEASUREMENT
 70
     1
  9
$CELWEIGHT
370
    -1
  9
$ENDCAPS
280
     0
  9
$JOINSTYLE
280
     0
  9
$LWDISPLAY
290
     0
  9
$INSUNITS
 70
     4
  9
$HYPERLINKBASE
  1

  9
$STYLESHEET
  1
monochrome.ctb
  9
$XEDIT
290
     1
  9
$CEPSNTYPE
380
     0
  9
$PSTYLEMODE
290
     1
  9
$FINGERPRINTGUID
  2
{B98A73AA-52AA-4C10-B469-C0E7150AC31F}
  9
$VERSIONGUID
  2
{C3739758-9F37-4511-A383-94B21738F8A8}
  9
$EXTNAMES
290
     1
  9
$PSVPSCALE
 40
0.0
  9
$OLESTARTUP
290
     0
  0
ENDSEC
  0
SECTION
  2
CLASSES
  0
CLASS
  1
ACDBDICTIONARYWDFLT
  2
AcDbDictionaryWithDefault
  3
ObjectDBX Classes
 90
        0
280
     0
281
     0
  0
CLASS
  1
ACDBPLACEHOLDER
  2
AcDbPlaceHolder
  3
ObjectDBX Classes
 90
        0
280
     0
281
     0
  0
CLASS
  1
LAYOUT
  2
AcDbLayout
  3
ObjectDBX Classes
 90
        0
280
     0
281
     0
  0
CLASS
  1
DICTIONARYVAR
  2
AcDbDictionaryVar
  3
ObjectDBX Classes
 90
        0
280
     0
281
     0
  0
CLASS
  1
DIMASSOC
  2
AcDbDimAssoc
  3
"AcDbDimAssoc|Product Desc:     AcDim ARX App For Dimension|Company:          Autodesk, Inc.|WEB Address:      www.autodesk.com"
 90
        0
280
     0
281
     0
  0
CLASS
  1
MATERIAL
  2
AcDbMaterial
  3
ObjectDBX Classes
 90
     1153
280
     0
281
     0
  0
CLASS
  1
VISUALSTYLE
  2
AcDbVisualStyle
  3
ObjectDBX Classes
 90
     4095
280
     0
281
     0
  0
CLASS
  1
TABLESTYLE
  2
AcDbTableStyle
  3
ObjectDBX Classes
 90
     4095
280
     0
281
     0
  0
CLASS
  1
SCALE
  2
AcDbScale
  3
ObjectDBX Classes
 90
     1153
280
     0
281
     0
  0
CLASS
  1
MLEADERSTYLE
  2
AcDbMLeaderStyle
  3
ACDB_MLEADERSTYLE_CLASS
 90
     4095
280
     0
281
     0
  0
CLASS
  1
CELLSTYLEMAP
  2
AcDbCellStyleMap
  3
ObjectDBX Classes
 90
     1152
280
     0
281
     0
  0
ENDSEC
  0
SECTION
  2
TABLES
  0
TABLE
  2
VPORT
  5
8
330
0
100
AcDbSymbolTable
 70
     1
  0
VPORT
  5
20BA
330
8
100
AcDbSymbolTableRecord
100
AcDbViewportTableRecord
  2
*Active
 70
     0
 10
0.0
 20
0.0
 11
1.0
 21
1.0
 12
4722.537036667143
 22
1028.617988475303
 13
0.0
 23
0.0
 14
10.0
 24
10.0
 15
10.0
 25
10.0
 16
0.0
 26
0.0
 36
1.0
 17
0.0
 27
0.0
 37
0.0
 40
1.861562499999763
 41
1.645464025026068
 42
50.0
 43
0.0
 44
0.0
 50
0.0
 51
0.0
 71
     0
 72
   100
 73
     1
 74
     2
 75
     0
 76
     0
 77
     0
 78
     0
281
     0
 65
     1
110
0.0
120
0.0
130
0.0
111
1.0
121
0.0
131
0.0
112
0.0
122
1.0
132
0.0
 79
     0
146
0.0
  0
ENDTAB
  0
TABLE
  2
LTYPE
  5
5
330
0
100
AcDbSymbolTable
 70
     5
  0
LTYPE
  5
14
330
5
100
AcDbSymbolTableRecord
100
AcDbLinetypeTableRecord
  2
ByBlock
 70
     0
  3

 72
    65
 73
     0
 40
0.0
  0
LTYPE
  5
15
330
5
100
AcDbSymbolTableRecord
100
AcDbLinetypeTableRecord
  2
ByLayer
 70
     0
  3

 72
    65
 73
     0
 40
0.0
  0
LTYPE
  5
16
330
5
100
AcDbSymbolTableRecord
100
AcDbLinetypeTableRecord
  2
Continuous
 70
     0
  3
Solid line
 72
    65
 73
     0
 40
0.0
  0
LTYPE
  5
2D
330
5
100
AcDbSymbolTableRecord
100
AcDbLinetypeTableRecord
  2
DASHDOT
 70
     0
  3
Dash dot __ . __ . __ . __ . __ . __ . __ . __
 72
    65
 73
     4
 40
25.4
 49
12.7
 74
     0
 49
-6.349999999999999
 74
     0
 49
0.0
 74
     0
 49
-6.349999999999999
 74
     0
  0
LTYPE
  5
2E
330
5
100
AcDbSymbolTableRecord
100
AcDbLinetypeTableRecord
  2
HIDDEN
 70
     0
  3
Hidden __ __ __ __ __ __ __ __ __ __ __ __ __ _
 72
    65
 73
     2
 40
9.524999999999998
 49
6.349999999999999
 74
     0
 49
-3.174999999999999
 74
     0
  0
LTYPE
  5
D04
330
5
100
AcDbSymbolTableRecord
100
AcDbLinetypeTableRecord
  2
CENTER
 70
     0
  3
____ _ ____ _ ____ _ ____ _ ____ _ ____ _ ____ 
 72
    65
 73
     4
 40
2.0
 49
1.25
 74
     0
 49
-0.25
 74
     0
 49
0.25
 74
     0
 49
-0.25
 74
     0
  0
ENDTAB
  0
TABLE
  2
LAYER
  5
2
330
0
100
AcDbSymbolTable
 70
    17
  0
LAYER
  5
10
102
{ACAD_XDICTIONARY
360
2126
102
}
330
2
100
AcDbSymbolTableRecord
100
AcDbLayerTableRecord
  2
0
 70
     0
 62
     7
  6
Continuous
370
    -3
390
F
  0
LAYER
  5
2F
102
{ACAD_XDICTIONARY
360
2128
102
}
330
2
100
AcDbSymbolTableRecord
100
AcDbLayerTableRecord
  2
1
 70
     0
 62
     1
  6
Continuous
370
    -3
390
F
  0
LAYER
  5
30
102
{ACAD_XDICTIONARY
360
212A
102
}
330
2
100
AcDbSymbolTableRecord
100
AcDbLayerTableRecord
  2
2
 70
     0
 62
     2
  6
Continuous
370
    -3
390
F
  0
LAYER
  5
31
102
{ACAD_XDICTIONARY
360
212C
102
}
330
2
100
AcDbSymbolTableRecord
100
AcDbLayerTableRecord
  2
3
 70
     0
 62
     3
  6
Continuous
370
    -3
390
F
  0
LAYER
  5
32
102
{ACAD_XDICTIONARY
360
212E
102
}
330
2
100
AcDbSymbolTableRecord
100
AcDbLayerTableRecord
  2
4
 70
     0
 62
     4
  6
Continuous
370
    -3
390
F
  0
LAYER
  5
33
102
{ACAD_XDICTIONARY
360
2130
102
}
330
2
100
AcDbSymbolTableRecord
100
AcDbLayerTableRecord
  2
5
 70
     0
 62
     5
  6
Continuous
370
    -3
390
F
  0
LAYER
  5
34
102
{ACAD_XDICTIONARY
360
2132
102
}
330
2
100
AcDbSymbolTableRecord
100
AcDbLayerTableRecord
  2
6
 70
     0
 62
     6
  6
Continuous
370
    -3
390
F
  0
LAYER
  5
35
102
{ACAD_XDICTIONARY
360
2134
102
}
330
2
100
AcDbSymbolTableRecord
100
AcDbLayerTableRecord
  2
7
 70
     0
 62
     7
  6
Continuous
370
    -3
390
F
  0
LAYER
  5
36
102
{ACAD_XDICTIONARY
360
2136
102
}
330
2
100
AcDbSymbolTableRecord
100
AcDbLayerTableRecord
  2
cen
 70
     0
 62
     7
  6
DASHDOT
370
    -3
390
F
  0
LAYER
  5
37
102
{ACAD_XDICTIONARY
360
2138
102
}
330
2
100
AcDbSymbolTableRecord
100
AcDbLayerTableRecord
  2
hid
 70
     0
 62
     7
  6
HIDDEN
370
    -3
390
F
  0
LAYER
  5
5D6
102
{ACAD_XDICTIONARY
360
213A
102
}
330
2
100
AcDbSymbolTableRecord
100
AcDbLayerTableRecord
  2
hatch
 70
     0
 62
     9
  6
Continuous
370
    -3
390
F
  0
LAYER
  5
8AF
102
{ACAD_XDICTIONARY
360
213C
102
}
330
2
100
AcDbSymbolTableRecord
100
AcDbLayerTableRecord
  2
9
 70
     0
 62
     9
  6
Continuous
370
    -3
390
F
  0
LAYER
  5
8F8
102
{ACAD_XDICTIONARY
360
213E
102
}
330
2
100
AcDbSymbolTableRecord
100
AcDbLayerTableRecord
  2
leg fin
 70
     0
 62
     9
  6
Continuous
370
    -3
390
F
  0
LAYER
  5
91D
102
{ACAD_XDICTIONARY
360
2140
102
}
330
2
100
AcDbSymbolTableRecord
100
AcDbLayerTableRecord
  2
cotas
 70
     0
 62
     1
  6
Continuous
370
    -3
390
F
  0
LAYER
  5
92F
330
2
100
AcDbSymbolTableRecord
100
AcDbLayerTableRecord
  2
Defpoints
 70
     0
 62
     7
  6
Continuous
290
     0
370
    -3
390
F
  0
LAYER
  5
D05
102
{ACAD_XDICTIONARY
360
2142
102
}
330
2
100
AcDbSymbolTableRecord
100
AcDbLayerTableRecord
  2
quote
 70
     0
 62
     7
  6
Continuous
370
    18
390
F
  0
LAYER
  5
2125
102
{ACAD_XDICTIONARY
360
2144
102
}
330
2
100
AcDbSymbolTableRecord
100
AcDbLayerTableRecord
  2
SANINDUSA
 70
     0
 62
     3
  6
Continuous
370
    -3
390
F
  0
ENDTAB
  0
TABLE
  2
STYLE
  5
3
330
0
100
AcDbSymbolTable
 70
     4
  0
STYLE
  5
11
330
3
100
AcDbSymbolTableRecord
100
AcDbTextStyleTableRecord
  2
Standard
 70
     0
 40
0.0
 41
1.0
 50
0.0
 71
     0
 42
2.5
  3
Avgardn.ttf
  4

1001
ACAD
1000
AvantGarde Bk BT
1071
       34
  0
STYLE
  5
2C
330
3
100
AcDbSymbolTableRecord
100
AcDbTextStyleTableRecord
  2

 70
     1
 40
0.0
 41
1.0
 50
0.0
 71
     0
 42
2.5
  3
ltypeshp.shx
  4

  0
STYLE
  5
91F
330
3
100
AcDbSymbolTableRecord
100
AcDbTextStyleTableRecord
  2
SANINDUSA
 70
     0
 40
0.0
 41
1.0
 50
0.0
 71
     0
 42
2.5
  3
verdana.TTF
  4

1001
ACAD
1000
Verdana
1071
       34
  0
STYLE
  5
D06
330
3
100
AcDbSymbolTableRecord
100
AcDbTextStyleTableRecord
  2
ISOCP
 70
     0
 40
0.0
 41
1.0
 50
0.0
 71
     0
 42
2.5
  3
isocp
  4

  0
ENDTAB
  0
TABLE
  2
VIEW
  5
6
330
0
100
AcDbSymbolTable
 70
     0
  0
ENDTAB
  0
TABLE
  2
UCS
  5
7
330
0
100
AcDbSymbolTable
 70
     0
  0
ENDTAB
  0
TABLE
  2
APPID
  5
9
330
0
100
AcDbSymbolTable
 70
     8
  0
APPID
  5
12
330
9
100
AcDbSymbolTableRecord
100
AcDbRegAppTableRecord
  2
ACAD
 70
     0
  0
APPID
  5
3A
330
9
100
AcDbSymbolTableRecord
100
AcDbRegAppTableRecord
  2
DCO15
 70
     0
  0
APPID
  5
D08
330
9
100
AcDbSymbolTableRecord
100
AcDbRegAppTableRecord
  2
GENIUS_GENDTOL_13
 70
     0
  0
APPID
  5
D09
330
9
100
AcDbSymbolTableRecord
100
AcDbRegAppTableRecord
  2
GENIUS_GENREC_14
 70
     0
  0
APPID
  5
D0A
330
9
100
AcDbSymbolTableRecord
100
AcDbRegAppTableRecord
  2
GENIUS_GENODEF_13
 70
     0
  0
APPID
  5
D0B
330
9
100
AcDbSymbolTableRecord
100
AcDbRegAppTableRecord
  2
GENIUS_GENOBJ-N-REC_13
 70
     0
  0
APPID
  5
2106
330
9
100
AcDbSymbolTableRecord
100
AcDbRegAppTableRecord
  2
ACAD_EXEMPT_FROM_CAD_STANDARDS
 70
     0
  0
APPID
  5
21C8
330
9
100
AcDbSymbolTableRecord
100
AcDbRegAppTableRecord
  2
ACAD_MLEADERVER
 70
     0
  0
ENDTAB
  0
TABLE
  2
DIMSTYLE
  5
A
330
0
100
AcDbSymbolTable
 70
     4
100
AcDbDimStyleTable
 71
     1
340
921
  0
DIMSTYLE
105
45
330
A
100
AcDbSymbolTableRecord
100
AcDbDimStyleTableRecord
  2
STANDARD
 70
     0
289
     0
340
11
  0
DIMSTYLE
105
921
330
A
100
AcDbSymbolTableRecord
100
AcDbDimStyleTableRecord
  2
SANINDUSA
 70
     0
 41
2.0
 42
1.0
 43
1.0
 44
1.0
 73
     0
 74
     0
 77
     1
 78
     8
140
2.0
141
0.0
143
0.03937007874016
147
1.0
171
     3
172
     1
176
   256
177
   256
178
   256
179
     1
271
     1
272
     1
274
     3
278
    44
283
     0
284
     8
340
91F
371
    -1
372
    -1
  0
DIMSTYLE
105
D07
330
A
100
AcDbSymbolTableRecord
100
AcDbDimStyleTableRecord
  2
ISO-35
 70
     0
 41
3.5
 42
0.875
 43
5.25
 44
1.75
 45
0.5
 73
     0
 74
     0
 77
     1
 78
     8
140
3.5
141
3.5
143
0.0394
147
0.875
171
     4
172
     1
176
   256
177
   256
178
   256
271
     1
272
     1
273
     8
274
     4
340
11
371
    -1
372
    -1
  0
ENDTAB
  0
TABLE
  2
BLOCK_RECORD
  5
1
330
0
100
AcDbSymbolTable
 70
    30
  0
BLOCK_RECORD
  5
1F
330
1
100
AcDbSymbolTableRecord
100
AcDbBlockTableRecord
  2
*Model_Space
340
22
  0
BLOCK_RECORD
  5
1B
330
1
100
AcDbSymbolTableRecord
100
AcDbBlockTableRecord
  2
*Paper_Space
340
1E
  0
BLOCK_RECORD
  5
23
330
1
100
AcDbSymbolTableRecord
100
AcDbBlockTableRecord
  2
*Paper_Space0
340
26
  0
BLOCK_RECORD
  5
919
330
1
100
AcDbSymbolTableRecord
100
AcDbBlockTableRecord
  2
_DotSmall
340
0
  0
BLOCK_RECORD
  5
922
330
1
100
AcDbSymbolTableRecord
100
AcDbBlockTableRecord
  2
base para cotas
340
0
310
2800000020000000200000000100080000000000000400000000000000000000000000000000000000000000000080000080000000808000800000008000800080800000C0C0C000C0DCC000F0CAA6000020400000206000002080000020A0000020C0000020E00000400000004020000040400000406000004080000040A0
310
000040C0000040E00000600000006020000060400000606000006080000060A0000060C0000060E00000800000008020000080400000806000008080000080A0000080C0000080E00000A0000000A0200000A0400000A0600000A0800000A0A00000A0C00000A0E00000C0000000C0200000C0400000C0600000C0800000C0
310
A00000C0C00000C0E00000E0000000E0200000E0400000E0600000E0800000E0A00000E0C00000E0E00040000000400020004000400040006000400080004000A0004000C0004000E00040200000402020004020400040206000402080004020A0004020C0004020E000404000004040200040404000404060004040800040
310
40A0004040C0004040E00040600000406020004060400040606000406080004060A0004060C0004060E00040800000408020004080400040806000408080004080A0004080C0004080E00040A0000040A0200040A0400040A0600040A0800040A0A00040A0C00040A0E00040C0000040C0200040C0400040C0600040C08000
310
40C0A00040C0C00040C0E00040E0000040E0200040E0400040E0600040E0800040E0A00040E0C00040E0E00080000000800020008000400080006000800080008000A0008000C0008000E00080200000802020008020400080206000802080008020A0008020C0008020E00080400000804020008040400080406000804080
310
008040A0008040C0008040E00080600000806020008060400080606000806080008060A0008060C0008060E00080800000808020008080400080806000808080008080A0008080C0008080E00080A0000080A0200080A0400080A0600080A0800080A0A00080A0C00080A0E00080C0000080C0200080C0400080C0600080C0
310
800080C0A00080C0C00080C0E00080E0000080E0200080E0400080E0600080E0800080E0A00080E0C00080E0E000C0000000C0002000C0004000C0006000C0008000C000A000C000C000C000E000C0200000C0202000C0204000C0206000C0208000C020A000C020C000C020E000C0400000C0402000C0404000C0406000C0
310
408000C040A000C040C000C040E000C0600000C0602000C0604000C0606000C0608000C060A000C060C000C060E000C0800000C0802000C0804000C0806000C0808000C080A000C080C000C080E000C0A00000C0A02000C0A04000C0A06000C0A08000C0A0A000C0A0C000C0A0E000C0C00000C0C02000C0C04000C0C06000
310
C0C08000C0C0A000F0FBFF00A4A0A000808080000000FF0000FF000000FFFF00FF000000FF00FF00FFFF0000FFFFFF00A4A4A4A4A4A4A4A4A4A4A4A4A4A4A4A4A4A4A4A4A4A4A4A4A4A4A4A4A4A4A4A4A4A4A4A4A4A4A4A4A4A4A4A4A4A4A4A4A4A4A4A4A4A4A4A4A4A4A4A4A4A4A4A4A4A4A4A4A4A4A4A4A4A4A4A4A4A4A4
310
A4A4A4A4A4A4A4A4A4A4A4A4A4A4A4A4A4A4A4A4A4A4A4A4A4A4A4A4A4A4A4A4A4A4A4A4A4A4A4A4A4A4A4A4A4A4A4A4A4A4A4A4A4A4A4A4A4A4A4A4A4A4A4A4A4A4A4A4A4A4A4A4A4A4A4A4A4A4A4A4A4A4A4A4A4A4A4A4A4A4A4A4A4A4A4A4A4A4A4A4A4A4A4A4A4A4A4A4A4A4A4A4A4A4A4A4A4A4A4A4A4A4A4A4A4A4A4
310
A4A4A4A4A4A4A4A4A4A4A4A4A4A4A4A4A4A4A4A4A4A4A4A4A4A4A4A4A4A4A4A4A4A4A4A4A4A4A4A4A4A4A4A4A4A4A4A4A4A4A4A4A4A4A4A4A4A4A4A4A4A4A4A4A4A4A4A4A4A4A4A4A4A4A4A4A4A4A4A4A4A4A4A4A4A4A4A4A4A4A4A4A4A4A4A4A4A4A4A4A4A4A4A4A4A4A4A4A4A4A4A4A4A4A4A4A4A4A4A4A4A4A4A4A4A4A4
310
A4A4A4A4A4A4A4A4A4A4A4A4A4A4A4A4A4A4A4A4A4A4A4A4A4A4A4A4A4A4A4A4A4A4A4A4A4A4A4A4A4A4A4A4A4A4A4A4A4A4A4A4A4A4A4A4A4A4A4A4A4A4A4A4A4A4A4A4A4A4A4A4A4A4A4A4A4A4A4A4A4A4A4A4A4A4A4A4A4A4A4A4A4A4A4A4A4A4A4A4A4A4A4A4A4A4A4A4A4A4A4A4A4A4A4A4F9F9F9F9F9F9F9F9F9F9F9
310
F9F9F9F9F9F9F9F9F9F9F9F9F9F9F9F9F9F9F9A4A4F9F9F9F9F9F9F9F9F9F9F9F9F9F9F9F9F9F9F9F9F9F9F9F9F9F9F9F9F9F9A4A4F9F9F9F9F9F9F9F9F9F9F9F9F9F9F9F9F9F9F9F9F9F9F9F9F9F9F9F9F9F9A4A4F9A4A4A4A4A4A4A4A4A4A4A4A4A4A4A4A4A4A4A4A4A4A4A4A4A4A4A4A4F9A4A4A4A4A4A4A4A4A4A4A4A4
310
A4A4A4A4A4A4A4A4A4A4A4A4A4A4A4A4A4A4A4A4A4A4A4A4A4A4A4A4A4A4A4A4A4A4A4A4A4A4A4A4A4A4A4A4A4A4A4A4A4A4A4A4A4A4A4A4A4A4A4A4A4A4A4A4A4A4A4A4A4A4A4A4A4A4A4A4A4A4A4A4A4A4A4A4A4A4A4A4A4A4A4A4A4A4A4A4A4A4A4A4A4A4A4A4A4A4A4A4A4A4A4A4A4A4A4A4A4A4A4A4A4A4A4A4A4A4A4
310
A4A4A4A4A4A4A4A4A4A4A4A4A4A4A4A4A4A4A4A4A4A4A4A4A4A4A4A4A4A4A4A4A4A4A4A4A4A4A4A4A4A4A4A4A4A4A4A4A4A4A4A4A4A4A4A4A4A4A4A4A4A4A4A4A4A4A4A4A4A4A4A4A4A4A4A4A4A4A4A4A4A4A4A4A4A4A4A4A4A4A4A4A4A4A4A4A4A4A4A4A4A4A4A4A4A4A4A4A4A4A4A4A4A4A4A4A4A4A4A4A4A4A4A4A4A4A4
310
A4A4A4A4A4A4A4A4A4A4A4A4A4A4A4A4A4A4A4A4A4A4A4A4A4A4A4A4A4A4A4A4A4A4A4A4A4A4A4A4A4A4A4A4A4A4A4A4A4A4A4A4A4A4A4A4A4A4A4A4A4A4A4A4A4A4A4A4A4A4A4A4A4A4A4A4A4A4A4A4A4A4A4A4A4A4A4A4A4A4A4A4A4A4A4A4A4A4A4A4A4A4A4A4A4A4A4A4A4A4A4A4A4A4A4A4A4A4A4A4A4A4A4A4A4A4A4
310
A4A4A4A4A4A4A4A4A4A4A4A4A4A4A4A4A4A4A4A4A4A4A4A4A4A4A4A4A4A4A4A4A4A4A4A4A4A4A4A4A4A4A4A4A4A4A4A4A4A4A4A4A4A4A4A4
1001
ACAD
1000
DesignCenter Data
1002
{
1070
     1
1070
     4
1002
}
  0
BLOCK_RECORD
  5
AA8
330
1
100
AcDbSymbolTableRecord
100
AcDbBlockTableRecord
  2
_CLOSED
340
0
  0
BLOCK_RECORD
  5
C8D
330
1
100
AcDbSymbolTableRecord
100
AcDbBlockTableRecord
  2
guarnizione
340
0
102
{BLKREFS
331
1835
102
}
  0
BLOCK_RECORD
  5
195F
330
1
100
AcDbSymbolTableRecord
100
AcDbBlockTableRecord
  2
*D16
340
0
  0
BLOCK_RECORD
  5
196B
330
1
100
AcDbSymbolTableRecord
100
AcDbBlockTableRecord
  2
*D17
340
0
  0
BLOCK_RECORD
  5
1977
330
1
100
AcDbSymbolTableRecord
100
AcDbBlockTableRecord
  2
*D18
340
0
  0
BLOCK_RECORD
  5
1983
330
1
100
AcDbSymbolTableRecord
100
AcDbBlockTableRecord
  2
*D19
340
0
  0
BLOCK_RECORD
  5
198F
330
1
100
AcDbSymbolTableRecord
100
AcDbBlockTableRecord
  2
*D20
340
0
  0
BLOCK_RECORD
  5
199D
330
1
100
AcDbSymbolTableRecord
100
AcDbBlockTableRecord
  2
*D21
340
0
  0
BLOCK_RECORD
  5
19A9
330
1
100
AcDbSymbolTableRecord
100
AcDbBlockTableRecord
  2
*D22
340
0
  0
BLOCK_RECORD
  5
19B5
330
1
100
AcDbSymbolTableRecord
100
AcDbBlockTableRecord
  2
*D23
340
0
  0
BLOCK_RECORD
  5
19C1
330
1
100
AcDbSymbolTableRecord
100
AcDbBlockTableRecord
  2
*D24
340
0
  0
BLOCK_RECORD
  5
19CD
330
1
100
AcDbSymbolTableRecord
100
AcDbBlockTableRecord
  2
*D25
340
0
  0
BLOCK_RECORD
  5
19D9
330
1
100
AcDbSymbolTableRecord
100
AcDbBlockTableRecord
  2
*D26
340
0
  0
BLOCK_RECORD
  5
1E82
330
1
100
AcDbSymbolTableRecord
100
AcDbBlockTableRecord
  2
*D27
340
0
  0
BLOCK_RECORD
  5
210E
330
1
100
AcDbSymbolTableRecord
100
AcDbBlockTableRecord
  2
*D29
340
0
  0
ENDTAB
  0
ENDSEC
  0
SECTION
  2
BLOCKS
  0
BLOCK
  5
20
330
1F
100
AcDbEntity
  8
0
100
AcDbBlockBegin
  2
*Model_Space
 70
     0
 10
0.0
 20
0.0
 30
0.0
  3
*Model_Space
  1

  0
ENDBLK
  5
21
330
1F
100
AcDbEntity
  8
0
100
AcDbBlockEnd
  0
BLOCK
  5
1C
330
1B
100
AcDbEntity
 67
     1
  8
0
100
AcDbBlockBegin
  2
*Paper_Space
 70
     0
 10
0.0
 20
0.0
 30
0.0
  3
*Paper_Space
  1

  0
ENDBLK
  5
1D
330
1B
100
AcDbEntity
 67
     1
  8
0
100
AcDbBlockEnd
  0
BLOCK
  5
24
330
23
100
AcDbEntity
 67
     1
  8
0
100
AcDbBlockBegin
  2
*Paper_Space0
 70
     0
 10
0.0
 20
0.0
 30
0.0
  3
*Paper_Space0
  1

  0
ENDBLK
  5
25
330
23
100
AcDbEntity
 67
     1
  8
0
100
AcDbBlockEnd
  0
BLOCK
  5
91B
330
919
100
AcDbEntity
  8
0
100
AcDbBlockBegin
  2
_DotSmall
 70
     0
 10
0.0
 20
0.0
 30
0.0
  3
_DotSmall
  1

  0
LWPOLYLINE
  5
91A
330
919
100
AcDbEntity
  8
0
  6
ByBlock
 62
     0
100
AcDbPolyline
 90
        2
 70
     1
 43
0.5
 10
-0.0625
 20
0.0
 42
1.0
 10
0.0625
 20
0.0
 42
1.0
  0
ENDBLK
  5
91C
330
919
100
AcDbEntity
  8
0
100
AcDbBlockEnd
  0
BLOCK
  5
92A
330
922
100
AcDbEntity
  8
0
100
AcDbBlockBegin
  2
base para cotas
 70
     0
 10
0.0
 20
0.0
 30
0.0
  3
base para cotas
  1

  0
LINE
  5
B36
330
922
100
AcDbEntity
  8
cotas
100
AcDbLine
 10
0.0
 20
-30.0
 30
0.0
 11
327.1260136525398
 21
-30.0
 31
0.0
  0
LINE
  5
B37
330
922
100
AcDbEntity
  8
cotas
100
AcDbLine
 10
0.0
 20
-25.0
 30
0.0
 11
327.1260136525398
 21
-25.0
 31
0.0
  0
LINE
  5
B38
330
922
100
AcDbEntity
  8
cotas
100
AcDbLine
 10
0.0
 20
-20.0
 30
0.0
 11
327.1260136525398
 21
-20.0
 31
0.0
  0
LINE
  5
B39
330
922
100
AcDbEntity
  8
cotas
100
AcDbLine
 10
0.0
 20
-15.0
 30
0.0
 11
327.1260136525398
 21
-15.0
 31
0.0
  0
LINE
  5
B3A
330
922
100
AcDbEntity
  8
cotas
100
AcDbLine
 10
0.0
 20
-10.0
 30
0.0
 11
327.1260136525398
 21
-10.0
 31
0.0
  0
LINE
  5
B3B
330
922
100
AcDbEntity
  8
cotas
100
AcDbLine
 10
0.0
 20
0.0
 30
0.0
 11
0.0
 21
-30.0
 31
0.0
  0
LINE
  5
B3C
330
922
100
AcDbEntity
  8
cotas
100
AcDbLine
 10
327.1260136525398
 20
-30.0
 30
0.0
 11
327.1260136525398
 21
0.0
 31
0.0
  0
ENDBLK
  5
92B
330
922
100
AcDbEntity
  8
0
100
AcDbBlockEnd
  0
BLOCK
  5
AAD
330
AA8
100
AcDbEntity
  8
0
100
AcDbBlockBegin
  2
_CLOSED
 70
     0
 10
0.0
 20
0.0
 30
0.0
  3
_CLOSED
  1

  0
LINE
  5
AA9
330
AA8
100
AcDbEntity
  8
0
100
AcDbLine
 10
-1.0
 20
0.166667
 30
0.0
 11
0.0
 21
0.0
 31
0.0
  0
LINE
  5
AAA
330
AA8
100
AcDbEntity
  8
0
100
AcDbLine
 10
0.0
 20
0.0
 30
0.0
 11
-1.0
 21
-0.166667
 31
0.0
  0
LINE
  5
AAB
330
AA8
100
AcDbEntity
  8
0
100
AcDbLine
 10
-1.0
 20
0.166667
 30
0.0
 11
-1.0
 21
-0.166667
 31
0.0
  0
LINE
  5
AAC
330
AA8
100
AcDbEntity
  8
0
100
AcDbLine
 10
0.0
 20
0.0
 30
0.0
 11
-1.0
 21
0.0
 31
0.0
  0
ENDBLK
  5
AAE
330
AA8
100
AcDbEntity
  8
0
100
AcDbBlockEnd
  0
BLOCK
  5
CD8
330
C8D
100
AcDbEntity
  8
0
 62
     4
100
AcDbBlockBegin
  2
guarnizione
 70
     0
 10
0.0
 20
0.0
 30
0.0
  3
guarnizione
  1

  0
LINE
  5
C8E
330
C8D
100
AcDbEntity
  8
0
100
AcDbLine
 10
12.0
 20
3.179312414488776
 30
0.0
 11
12.0
 21
2.699999999999818
 31
0.0
  0
LINE
  5
C8F
330
C8D
100
AcDbEntity
  8
0
100
AcDbLine
 10
9.5
 20
3.130475008156281
 30
0.0
 11
9.440776269158959
 21
2.734883615801663
 31
0.0
  0
ARC
  5
C90
330
C8D
100
AcDbEntity
  8
0
100
AcDbCircle
 10
11.19999999999891
 20
3.179312414488776
 30
0.0
 40
0.8
100
AcDbArc
 50
0.0
 51
81.48552156587461
  0
ARC
  5
C91
330
C8D
100
AcDbEntity
  8
0
100
AcDbCircle
 10
8.753809903480942
 20
1.523241254200002
 30
0.0
 40
0.1999999999999504
100
AcDbArc
 50
171.485521565823
 51
351.485521565823
  0
LINE
  5
C92
330
C8D
100
AcDbEntity
  8
0
100
AcDbLine
 10
11.65558220186904
 20
-2.403306455734309
 30
0.0
 11
9.440776269158959
 21
-2.734883615802573
 31
0.0
  0
ARC
  5
C93
330
C8D
100
AcDbEntity
  8
0
100
AcDbCircle
 10
8.753809903480942
 20
-1.523241254200911
 30
0.0
 40
0.1999999999999504
100
AcDbArc
 50
8.514478434176927
 51
188.5144784341769
  0
LINE
  5
C94
330
C8D
100
AcDbEntity
  8
0
100
AcDbLine
 10
9.5
 20
-3.130475008157191
 30
0.0
 11
9.440776269158959
 21
-2.734883615802573
 31
0.0
  0
ARC
  5
C95
330
C8D
100
AcDbEntity
  8
0
100
AcDbCircle
 10
11.69999999999891
 20
-2.699999999999818
 30
0.0
 40
0.3
100
AcDbArc
 50
0.0
 51
98.51447843412536
  0
ARC
  5
C96
330
C8D
100
AcDbEntity
  8
0
100
AcDbCircle
 10
11.69999999999891
 20
2.699999999999818
 30
0.0
 40
0.3
100
AcDbArc
 50
261.4855215658746
 51
0.0
  0
LINE
  5
C97
330
C8D
100
AcDbEntity
  8
0
100
AcDbLine
 10
11.65558220186904
 20
2.4033064557334
 30
0.0
 11
9.440776269158959
 21
2.734883615801663
 31
0.0
  0
LINE
  5
C98
330
C8D
100
AcDbEntity
  8
0
100
AcDbLine
 10
8.807715063378054
 20
3.234116537129011
 30
0.0
 11
8.556014207302723
 21
1.552853119620522
 31
0.0
  0
LINE
  5
C99
330
C8D
100
AcDbEntity
  8
0
100
AcDbLine
 10
9.203306455732672
 20
3.174892806287971
 30
0.0
 11
8.951605599657341
 21
1.493629388779481
 31
0.0
  0
LINE
  5
C9A
330
C8D
100
AcDbEntity
  8
0
100
AcDbLine
 10
6.681411329471302
 20
3.552444090400967
 30
0.0
 11
6.622187598630262
 21
3.15685269804544
 31
0.0
  0
ARC
  5
C9B
330
C8D
100
AcDbEntity
  8
0
100
AcDbCircle
 10
0.2999999999992724
 20
3.800000000000181
 30
0.0
 40
0.3
100
AcDbArc
 50
81.48552156587461
 51
180.0
  0
ARC
  5
C9C
330
C8D
100
AcDbEntity
  8
0
100
AcDbCircle
 10
1.042400829128382
 20
4.699999999999818
 30
0.0
 40
0.8
100
AcDbArc
 50
81.48552156587461
 51
90.0
  0
LINE
  5
C9D
330
C8D
100
AcDbEntity
  8
0
100
AcDbLine
 10
1.5
 20
3.923692082123125
 30
0.0
 11
0.3444177981309622
 21
4.09669354426569
 31
0.0
  0
LINE
  5
C9E
330
C8D
100
AcDbEntity
  8
0
100
AcDbLine
 10
1.5
 20
3.923692082123125
 30
0.0
 11
1.5
 21
3.099999999999454
 31
0.0
  0
LINE
  5
C9F
330
C8D
100
AcDbEntity
  8
0
100
AcDbLine
 10
1.5
 20
3.099999999999454
 30
0.0
 11
2.699999999998908
 21
3.099999999999454
 31
0.0
  0
LINE
  5
CA0
330
C8D
100
AcDbEntity
  8
0
100
AcDbLine
 10
2.699999999998908
 20
3.744040860223321
 30
0.0
 11
2.699999999998908
 21
3.099999999999454
 31
0.0
  0
LINE
  5
CA1
330
C8D
100
AcDbEntity
  8
0
100
AcDbLine
 10
6.622187598630262
 20
3.15685269804544
 30
0.0
 11
2.699999999998908
 21
3.744040860223321
 31
0.0
  0
LINE
  5
CA2
330
C8D
100
AcDbEntity
  8
0
100
AcDbLine
 10
1.5
 20
-3.100000000000363
 30
0.0
 11
2.699999999998908
 21
-3.100000000000363
 31
0.0
  0
LINE
  5
CA3
330
C8D
100
AcDbEntity
  8
0
100
AcDbLine
 10
11.31844746168099
 20
3.970495199198012
 30
0.0
 11
1.160848290810463
 21
5.491182784709053
 31
0.0
  0
LINE
  5
CA4
330
C8D
100
AcDbEntity
  8
0
100
AcDbLine
 10
9.5
 20
3.130475008156281
 30
0.0
 11
6.681411329471302
 21
3.552444090400967
 31
0.0
  0
ARC
  5
CA5
330
C8D
100
AcDbEntity
  8
0
100
AcDbCircle
 10
11.19999999999891
 20
-3.179312414488776
 30
0.0
 40
0.8
100
AcDbArc
 50
278.5144784341254
 51
0.0
  0
LINE
  5
CA6
330
C8D
100
AcDbEntity
  8
0
100
AcDbLine
 10
6.681411329471302
 20
-3.552444090400967
 30
0.0
 11
6.622187598630262
 21
-3.15685269804635
 31
0.0
  0
ARC
  5
CA7
330
C8D
100
AcDbEntity
  8
0
100
AcDbCircle
 10
0.2999999999992724
 20
-3.800000000000181
 30
0.0
 40
0.3
100
AcDbArc
 50
180.0
 51
278.5144784341254
  0
ARC
  5
CA8
330
C8D
100
AcDbEntity
  8
0
100
AcDbCircle
 10
1.042400829128382
 20
-4.699999999999818
 30
0.0
 40
0.8
100
AcDbArc
 50
270.0
 51
278.5144784341254
  0
LINE
  5
CA9
330
C8D
100
AcDbEntity
  8
0
100
AcDbLine
 10
0.3444177981309622
 20
-4.096693544266599
 30
0.0
 11
1.5
 21
-3.923692082124034
 31
0.0
  0
LINE
  5
CAA
330
C8D
100
AcDbEntity
  8
0
100
AcDbLine
 10
6.622187598630262
 20
-3.15685269804635
 30
0.0
 11
2.699999999998908
 21
-3.744040860224231
 31
0.0
  0
LINE
  5
CAB
330
C8D
100
AcDbEntity
  8
0
100
AcDbLine
 10
1.160848290810463
 20
-5.491182784709963
 30
0.0
 11
11.31844746168099
 21
-3.970495199198921
 31
0.0
  0
LINE
  5
CAC
330
C8D
100
AcDbEntity
  8
0
100
AcDbLine
 10
0.0
 20
3.800000000000181
 30
0.0
 11
0.0
 21
-3.800000000000181
 31
0.0
  0
LINE
  5
CAD
330
C8D
100
AcDbEntity
  8
0
100
AcDbLine
 10
12.0
 20
-2.699999999999818
 30
0.0
 11
12.0
 21
-3.179312414488776
 31
0.0
  0
LINE
  5
CAE
330
C8D
100
AcDbEntity
  8
0
100
AcDbLine
 10
2.699999999998908
 20
-3.100000000000363
 30
0.0
 11
2.699999999998908
 21
-3.744040860224231
 31
0.0
  0
LINE
  5
CAF
330
C8D
100
AcDbEntity
  8
0
100
AcDbLine
 10
1.5
 20
-3.100000000000363
 30
0.0
 11
1.5
 21
-3.923692082124034
 31
0.0
  0
LINE
  5
CB0
330
C8D
100
AcDbEntity
  8
0
100
AcDbLine
 10
9.5
 20
-3.130475008157191
 30
0.0
 11
6.681411329471302
 21
-3.552444090400967
 31
0.0
  0
LINE
  5
CB1
330
C8D
100
AcDbEntity
  8
0
100
AcDbLine
 10
9.203306455732672
 20
-3.174892806287971
 30
0.0
 11
8.951605599657341
 21
-1.493629388780391
 31
0.0
  0
LINE
  5
CB2
330
C8D
100
AcDbEntity
  8
0
100
AcDbLine
 10
8.807715063378054
 20
-3.234116537129011
 30
0.0
 11
8.556014207302723
 21
-1.552853119621431
 31
0.0
  0
LINE
  5
CB3
330
C8D
100
AcDbEntity
  8
0
100
AcDbLine
 10
-1.5
 20
5.5
 30
0.0
 11
-3.757359312881817
 21
5.5
 31
0.0
  0
ARC
  5
CB4
330
C8D
100
AcDbEntity
  8
0
100
AcDbCircle
 10
-2.5
 20
3.5
 30
0.0
 40
1.0
100
AcDbArc
 50
0.0
 51
90.0
  0
ARC
  5
CB5
330
C8D
100
AcDbEntity
  8
0
100
AcDbCircle
 10
-3.769781102879278
 20
4.149978862833449
 30
0.0
 40
0.75
100
AcDbArc
 50
47.16775949949599
 51
90.19499109987526
  0
ARC
  5
CB6
330
C8D
100
AcDbEntity
  8
0
100
AcDbCircle
 10
-2.75
 20
5.25
 30
0.0
 40
0.75
100
AcDbArc
 50
227.167759499496
 51
270.0
  0
LINE
  5
CB7
330
C8D
100
AcDbEntity
  8
0
100
AcDbLine
 10
-2.75
 20
4.5
 30
0.0
 11
-2.5
 21
4.5
 31
0.0
  0
LINE
  5
CB8
330
C8D
100
AcDbEntity
  8
0
100
AcDbLine
 10
-7.415254325502246
 20
3.064644661409147
 30
0.0
 11
-6.868629150101696
 21
3.611269837220788
 31
0.0
  0
ARC
  5
CB9
102
{ACAD_REACTORS
330
CD3
102
}
330
C8D
100
AcDbEntity
  8
0
100
AcDbCircle
 10
-7.980939750059405
 20
2.569669913566031
 30
0.0
 40
0.2
100
AcDbArc
 50
45.0000001037625
 51
135.0000000719631
  0
ARC
  5
CBA
330
C8D
100
AcDbEntity
  8
0
100
AcDbCircle
 10
-3.757359312881817
 20
0.5
 30
0.0
 40
5.0
100
AcDbArc
 50
90.0
 51
135.0
  0
ARC
  5
CBB
330
C8D
100
AcDbEntity
  8
0
100
AcDbCircle
 10
-3.757359312881817
 20
0.5
 30
0.0
 40
4.4
100
AcDbArc
 50
90.19499109987526
 51
135.0
  0
ARC
  5
CBC
330
C8D
100
AcDbEntity
  8
0
100
AcDbCircle
 10
-6.814213563102384
 20
0.9786796633270569
 30
0.0
 40
0.75
100
AcDbArc
 50
314.9999999676111
 51
45.0
  0
ARC
  5
CBD
102
{ACAD_REACTORS
330
CD3
102
}
330
C8D
100
AcDbEntity
  8
0
100
AcDbCircle
 10
-6.814213563102384
 20
0.9786796633270569
 30
0.0
 40
0.5
100
AcDbArc
 50
314.9999999676111
 51
45.0
  0
ARC
  5
CBE
330
C8D
100
AcDbEntity
  8
0
100
AcDbCircle
 10
-7.203122291144609
 20
2.852512627053329
 30
0.0
 40
0.3
100
AcDbArc
 50
135.0
 51
225.0000001112794
  0
LINE
  5
CBF
330
C8D
100
AcDbEntity
  8
0
100
AcDbLine
 10
-8.051650430128574
 20
3.276776694619002
 30
0.0
 11
-6.283883477519339
 21
1.509009749524921
 31
0.0
  0
LINE
  5
CC0
102
{ACAD_REACTORS
330
CD3
102
}
330
C8D
100
AcDbEntity
  8
0
100
AcDbLine
 10
-7.839518394079277
 20
2.711091270059114
 30
0.0
 11
-6.460660172508141
 21
1.33223305392039
 31
0.0
  0
ARC
  5
CC1
330
C8D
100
AcDbEntity
  8
0
100
AcDbCircle
 10
-12.57713383280133
 20
-2.521498914058611
 30
0.0
 40
0.3
100
AcDbArc
 50
45.00000003552097
 51
135.0
  0
ARC
  5
CC2
102
{ACAD_REACTORS
330
CD3
102
}
330
C8D
100
AcDbEntity
  8
0
100
AcDbCircle
 10
-12.29429112059733
 20
-1.743681468243266
 30
0.0
 40
0.2
100
AcDbArc
 50
135.0000000660675
 51
225.0000002990173
  0
LINE
  5
CC3
330
C8D
100
AcDbEntity
  8
0
100
AcDbLine
 10
-12.9899494936617
 20
-2.510050506339212
 30
0.0
 11
-12.78926586715715
 21
-2.309366879702793
 31
0.0
  0
LINE
  5
CC4
330
C8D
100
AcDbEntity
  8
0
100
AcDbLine
 10
-13.41421356237333
 20
-2.085786437626666
 30
0.0
 11
-7.292893218815152
 21
4.035533905932425
 31
0.0
  0
LINE
  5
CC5
102
{ACAD_REACTORS
330
CD3
102
}
330
C8D
100
AcDbEntity
  8
0
100
AcDbLine
 10
-12.43571247699765
 20
-1.602260112168551
 30
0.0
 11
-8.122361106474272
 21
2.711091269625285
 31
0.0
  0
ARC
  5
CC6
330
C8D
100
AcDbEntity
  8
0
100
AcDbCircle
 10
-2.5
 20
-3.5
 30
0.0
 40
1.0
100
AcDbArc
 50
270.0
 51
0.0
  0
ARC
  5
CC7
330
C8D
100
AcDbEntity
  8
0
100
AcDbCircle
 10
-7.519803902720013
 20
-4.150000000000545
 30
0.0
 40
0.75
100
AcDbArc
 50
270.0
 51
312.8334280660476
  0
ARC
  5
CC8
330
C8D
100
AcDbEntity
  8
0
100
AcDbCircle
 10
-6.5
 20
-5.25
 30
0.0
 40
0.75
100
AcDbArc
 50
90.0
 51
132.8334280660476
  0
LINE
  5
CC9
330
C8D
100
AcDbEntity
  8
0
100
AcDbLine
 10
-2.5
 20
-4.5
 30
0.0
 11
-6.5
 21
-4.5
 31
0.0
  0
ARC
  5
CCA
330
C8D
100
AcDbEntity
  8
0
100
AcDbCircle
 10
-10.7033008647486
 20
-2.910407640086305
 30
0.0
 40
0.75
100
AcDbArc
 50
225.0
 51
315.0
  0
ARC
  5
CCB
102
{ACAD_REACTORS
330
CD3
102
}
330
C8D
100
AcDbEntity
  8
0
100
AcDbCircle
 10
-10.7033008647486
 20
-2.910407640086305
 30
0.0
 40
0.5
100
AcDbArc
 50
225.0
 51
315.0
  0
LINE
  5
CCC
330
C8D
100
AcDbEntity
  8
0
100
AcDbLine
 10
-1.5
 20
-5.5
 30
0.0
 11
-12.0
 21
-5.5
 31
0.0
  0
LINE
  5
CCD
330
C8D
100
AcDbEntity
  8
0
100
AcDbLine
 10
-7.519803902720013
 20
-4.900000000000545
 30
0.0
 11
-12.0
 21
-4.900000000000545
 31
0.0
  0
ARC
  5
CCE
330
C8D
100
AcDbEntity
  8
0
100
AcDbCircle
 10
-12.0
 20
-3.5
 30
0.0
 40
2.0
100
AcDbArc
 50
135.0
 51
270.0
  0
LINE
  5
CCF
330
C8D
100
AcDbEntity
  8
0
100
AcDbLine
 10
-10.17297077881812
 20
-3.440737725935832
 30
0.0
 11
-6.283883477372
 21
0.4483495772774404
 31
0.0
  0
ARC
  5
CD0
330
C8D
100
AcDbEntity
  8
0
100
AcDbCircle
 10
-12.0
 20
-3.5
 30
0.0
 40
1.399999999999999
100
AcDbArc
 50
135.0
 51
270.0
  0
LINE
  5
CD1
330
C8D
100
AcDbEntity
  8
0
100
AcDbLine
 10
-13.00139790187859
 20
-1.672970777132832
 30
0.0
 11
-11.23363095093009
 21
-3.440737725682993
 31
0.0
  0
LINE
  5
CD2
330
C8D
100
AcDbEntity
  8
0
100
AcDbLine
 10
-1.5
 20
3.5
 30
0.0
 11
-1.5
 21
-3.5
 31
0.0
  0
HATCH
  5
CD3
330
C8D
100
AcDbEntity
  8
0
100
AcDbHatch
 10
0.0
 20
0.0
 30
0.0
210
0.0
220
0.0
230
1.0
  2
ANSI31
 70
     0
 71
     1
 91
        1
 92
        7
 72
     1
 73
     1
 93
        8
 10
-6.460660173204814
 20
1.332233054616153
 42
0.0
 10
-7.839518394101105
 20
2.711091270081851
 42
0.414213562178905
 10
-8.122361106481548
 20
2.711091269618009
 42
0.0
 10
-12.43571247701766
 20
-1.602260112190379
 42
0.4142135636146872
 10
-12.43571247604996
 20
-1.885102825264766
 42
0.0
 10
-11.05685425338015
 20
-3.263961032639599
 42
0.4142135608152901
 10
-10.34974747407432
 20
-3.263961030598693
 42
0.0
 10
-6.460660172428106
 20
0.625126272813759
 42
0.4142135628833784
 97
        8
330
CC0
330
CB9
330
CC5
330
CC2
330
CD5
330
CCB
330
CD4
330
CBD
 75
     0
 76
     1
 52
45.0
 41
0.25
 77
     0
 78
     1
 53
90.0
 43
-276.1145346408611
 44
-395.2719013892401
 45
-0.79375
 46
0.0000000000000002
 79
     0
 47
0.0364805528584695
 98
        1
 10
-7.399477738399582
 20
0.8532363732892918
  0
LINE
  5
CD4
102
{ACAD_REACTORS
330
CD3
102
}
330
C8D
100
AcDbEntity
  8
0
100
AcDbLine
 10
-10.34974747415435
 20
-3.263961030678729
 30
0.0
 11
-6.46066017270823
 21
0.6251262725336347
 31
0.0
  0
LINE
  5
CD5
102
{ACAD_REACTORS
330
CD3
102
}
330
C8D
100
AcDbEntity
  8
0
100
AcDbLine
 10
-12.43571247609543
 20
-1.885102825218382
 30
0.0
 11
-11.05685425534102
 21
-3.263961030678729
 31
0.0
  0
LINE
  5
CD6
330
C8D
100
AcDbEntity
  8
0
100
AcDbLine
 10
-1.5
 20
5.5
 30
0.0
 11
1.042400829128382
 21
5.5
 31
0.0
  0
LINE
  5
CD7
330
C8D
100
AcDbEntity
  8
0
100
AcDbLine
 10
-1.5
 20
-5.5
 30
0.0
 11
1.042400829128382
 21
-5.5
 31
0.0
  0
ENDBLK
  5
CD9
330
C8D
100
AcDbEntity
  8
0
 62
     4
100
AcDbBlockEnd
  0
BLOCK
  5
1969
330
195F
100
AcDbEntity
  8
0
100
AcDbBlockBegin
  2
*D16
 70
     1
 10
0.0
 20
0.0
 30
0.0
  3
*D16
  1

  0
LINE
  5
1FFC
330
195F
100
AcDbEntity
  8
quote
100
AcDbLine
 10
4483.108350579289
 20
1304.184443440142
 30
0.0
 11
4465.471092391974
 21
1304.184443440142
 31
0.0
  0
LINE
  5
1FFD
330
195F
100
AcDbEntity
  8
quote
100
AcDbLine
 10
4483.108350579289
 20
1120.184443440142
 30
0.0
 11
4465.471092391974
 21
1120.184443440142
 31
0.0
  0
LINE
  5
1FFE
330
195F
100
AcDbEntity
  8
quote
100
AcDbLine
 10
4466.471092391975
 20
1302.184443440142
 30
0.0
 11
4466.471092391975
 21
1122.184443440142
 31
0.0
  0
SOLID
  5
1FFF
330
195F
100
AcDbEntity
  8
quote
100
AcDbTrace
 10
4466.137759058642
 20
1302.184443440142
 30
0.0
 11
4466.804425725308
 21
1302.184443440142
 31
0.0
 12
4466.471092391975
 22
1304.184443440142
 32
0.0
 13
4466.471092391975
 23
1304.184443440142
 33
0.0
  0
SOLID
  5
2000
330
195F
100
AcDbEntity
  8
quote
100
AcDbTrace
 10
4466.137759058642
 20
1122.184443440142
 30
0.0
 11
4466.804425725308
 21
1122.184443440142
 31
0.0
 12
4466.471092391975
 22
1120.184443440142
 32
0.0
 13
4466.471092391975
 23
1120.184443440142
 33
0.0
  0
MTEXT
  5
2001
330
195F
100
AcDbEntity
  8
quote
100
AcDbMText
 10
4464.425424158261
 20
1212.184443440143
 30
0.0
 40
2.0
 41
0.0
 71
     5
 72
     1
  1
1840
  7
SANINDUSA
 11
0.0000000000000001
 21
1.0
 31
0.0
 73
     1
 44
1.0
1001
ACAD
1000
MTEXTBEGIN
1070
    73
1070
     1
1070
    44
1040
1.0
1070
    74
1070
     0
1000
MTEXTEND
  0
POINT
  5
2002
330
195F
100
AcDbEntity
  8
Defpoints
 62
     0
100
AcDbPoint
 10
4484.10835057929
 20
1304.184443440142
 30
0.0
  0
POINT
  5
2003
330
195F
100
AcDbEntity
  8
Defpoints
 62
     0
100
AcDbPoint
 10
4484.10835057929
 20
1120.184443440142
 30
0.0
  0
POINT
  5
2004
330
195F
100
AcDbEntity
  8
Defpoints
 62
     0
100
AcDbPoint
 10
4466.471092391975
 20
1120.184443440142
 30
0.0
  0
ENDBLK
  5
196A
330
195F
100
AcDbEntity
  8
0
100
AcDbBlockEnd
  0
BLOCK
  5
1975
330
196B
100
AcDbEntity
  8
0
100
AcDbBlockBegin
  2
*D17
 70
     1
 10
0.0
 20
0.0
 30
0.0
  3
*D17
  1

  0
LINE
  5
1FBB
330
196B
100
AcDbEntity
  8
quote
100
AcDbLine
 10
4505.930466884844
 20
1304.184443440138
 30
0.0
 11
4510.930466884843
 21
1304.184443440138
 31
0.0
  0
LINE
  5
1FBC
330
196B
100
AcDbEntity
  8
quote
100
AcDbLine
 10
4506.577452511485
 20
1119.184443440143
 30
0.0
 11
4510.930466884843
 21
1119.184443440143
 31
0.0
  0
LINE
  5
1FBD
330
196B
100
AcDbEntity
  8
quote
100
AcDbLine
 10
4509.930466884844
 20
1302.184443440138
 30
0.0
 11
4509.930466884844
 21
1121.184443440142
 31
0.0
  0
SOLID
  5
1FBE
330
196B
100
AcDbEntity
  8
quote
100
AcDbTrace
 10
4509.597133551511
 20
1302.184443440138
 30
0.0
 11
4510.263800218177
 21
1302.184443440138
 31
0.0
 12
4509.930466884844
 22
1304.184443440138
 32
0.0
 13
4509.930466884844
 23
1304.184443440138
 33
0.0
  0
SOLID
  5
1FBF
330
196B
100
AcDbEntity
  8
quote
100
AcDbTrace
 10
4509.597133551511
 20
1121.184443440142
 30
0.0
 11
4510.263800218177
 21
1121.184443440142
 31
0.0
 12
4509.930466884844
 22
1119.184443440143
 32
0.0
 13
4509.930466884844
 23
1119.184443440143
 33
0.0
  0
MTEXT
  5
1FC0
330
196B
100
AcDbEntity
  8
quote
100
AcDbMText
 10
4507.884798651129
 20
1211.684443440141
 30
0.0
 40
2.0
 41
0.0
 71
     5
 72
     1
  1
1850
  7
SANINDUSA
 11
0.0000000000000001
 21
1.0
 31
0.0
 73
     1
 44
1.0
1001
ACAD
1000
MTEXTBEGIN
1070
    73
1070
     1
1070
    44
1040
1.0
1070
    74
1070
     0
1000
MTEXTEND
  0
POINT
  5
1FC1
330
196B
100
AcDbEntity
  8
Defpoints
 62
     0
100
AcDbPoint
 10
4504.930466884844
 20
1304.184443440138
 30
0.0
  0
POINT
  5
1FC2
330
196B
100
AcDbEntity
  8
Defpoints
 62
     0
100
AcDbPoint
 10
4505.577452511484
 20
1119.184443440143
 30
0.0
  0
POINT
  5
1FC3
330
196B
100
AcDbEntity
  8
Defpoints
 62
     0
100
AcDbPoint
 10
4509.930466884844
 20
1119.184443440143
 30
0.0
  0
ENDBLK
  5
1976
330
196B
100
AcDbEntity
  8
0
100
AcDbBlockEnd
  0
BLOCK
  5
1981
330
1977
100
AcDbEntity
  8
0
100
AcDbBlockBegin
  2
*D18
 70
     1
 10
0.0
 20
0.0
 30
0.0
  3
*D18
  1

  0
LINE
  5
1FDF
330
1977
100
AcDbEntity
  8
quote
100
AcDbLine
 10
4424.115891861528
 20
1148.684443440142
 30
0.0
 11
4379.850466884844
 21
1148.684443440142
 31
0.0
  0
LINE
  5
1FE0
330
1977
100
AcDbEntity
  8
quote
100
AcDbLine
 10
4384.850466884844
 20
1119.184443440143
 30
0.0
 11
4379.850466884844
 21
1119.184443440143
 31
0.0
  0
LINE
  5
1FE1
330
1977
100
AcDbEntity
  8
quote
100
AcDbLine
 10
4380.850466884845
 20
1146.684443440142
 30
0.0
 11
4380.850466884845
 21
1121.184443440142
 31
0.0
  0
SOLID
  5
1FE2
330
1977
100
AcDbEntity
  8
quote
100
AcDbTrace
 10
4380.517133551512
 20
1146.684443440142
 30
0.0
 11
4381.183800218177
 21
1146.684443440142
 31
0.0
 12
4380.850466884845
 22
1148.684443440142
 32
0.0
 13
4380.850466884845
 23
1148.684443440142
 33
0.0
  0
SOLID
  5
1FE3
330
1977
100
AcDbEntity
  8
quote
100
AcDbTrace
 10
4380.517133551512
 20
1121.184443440142
 30
0.0
 11
4381.183800218177
 21
1121.184443440142
 31
0.0
 12
4380.850466884845
 22
1119.184443440143
 32
0.0
 13
4380.850466884845
 23
1119.184443440143
 33
0.0
  0
MTEXT
  5
1FE4
330
1977
100
AcDbEntity
  8
quote
100
AcDbMText
 10
4378.808828201164
 20
1133.934443440143
 30
0.0
 40
2.0
 41
0.0
 71
     5
 72
     1
  1
295
  7
SANINDUSA
 11
0.0000000000000001
 21
1.0
 31
0.0
 73
     1
 44
1.0
1001
ACAD
1000
MTEXTBEGIN
1070
    73
1070
     1
1070
    44
1040
1.0
1070
    74
1070
     0
1000
MTEXTEND
  0
POINT
  5
1FE5
330
1977
100
AcDbEntity
  8
Defpoints
 62
     0
100
AcDbPoint
 10
4425.115891861528
 20
1148.684443440142
 30
-0.0000001793795719
  0
POINT
  5
1FE6
330
1977
100
AcDbEntity
  8
Defpoints
 62
     0
100
AcDbPoint
 10
4385.850466884845
 20
1119.184443440143
 30
0.0
  0
POINT
  5
1FE7
330
1977
100
AcDbEntity
  8
Defpoints
 62
     0
100
AcDbPoint
 10
4380.850466884845
 20
1119.184443440143
 30
0.0
  0
ENDBLK
  5
1982
330
1977
100
AcDbEntity
  8
0
100
AcDbBlockEnd
  0
BLOCK
  5
198D
330
1983
100
AcDbEntity
  8
0
100
AcDbBlockBegin
  2
*D19
 70
     1
 10
0.0
 20
0.0
 30
0.0
  3
*D19
  1

  0
LINE
  5
1FE8
330
1983
100
AcDbEntity
  8
quote
100
AcDbLine
 10
4457.471092391974
 20
1148.684443440142
 30
0.0
 11
4462.471092391974
 21
1148.684443440142
 31
0.0
  0
LINE
  5
1FE9
330
1983
100
AcDbEntity
  8
quote
100
AcDbLine
 10
4459.700942463805
 20
1120.184443440142
 30
0.0
 11
4462.471092391974
 21
1120.184443440142
 31
0.0
  0
LINE
  5
1FEA
330
1983
100
AcDbEntity
  8
quote
100
AcDbLine
 10
4461.471092391974
 20
1146.684443440142
 30
0.0
 11
4461.471092391974
 21
1122.184443440142
 31
0.0
  0
SOLID
  5
1FEB
330
1983
100
AcDbEntity
  8
quote
100
AcDbTrace
 10
4461.137759058641
 20
1146.684443440142
 30
0.0
 11
4461.804425725307
 21
1146.684443440142
 31
0.0
 12
4461.471092391974
 22
1148.684443440142
 32
0.0
 13
4461.471092391974
 23
1148.684443440142
 33
0.0
  0
SOLID
  5
1FEC
330
1983
100
AcDbEntity
  8
quote
100
AcDbTrace
 10
4461.137759058641
 20
1122.184443440142
 30
0.0
 11
4461.804425725307
 21
1122.184443440142
 31
0.0
 12
4461.471092391974
 22
1120.184443440142
 32
0.0
 13
4461.471092391974
 23
1120.184443440142
 33
0.0
  0
MTEXT
  5
1FED
330
1983
100
AcDbEntity
  8
quote
100
AcDbMText
 10
4459.42542415826
 20
1134.434443440143
 30
0.0
 40
2.0
 41
0.0
 71
     5
 72
     1
  1
285
  7
SANINDUSA
 11
0.0000000000000001
 21
1.0
 31
0.0
 73
     1
 44
1.0
1001
ACAD
1000
MTEXTBEGIN
1070
    73
1070
     1
1070
    44
1040
1.0
1070
    74
1070
     0
1000
MTEXTEND
  0
POINT
  5
1FEE
330
1983
100
AcDbEntity
  8
Defpoints
 62
     0
100
AcDbPoint
 10
4456.471092391974
 20
1148.684443440142
 30
-0.0000001793795719
  0
POINT
  5
1FEF
330
1983
100
AcDbEntity
  8
Defpoints
 62
     0
100
AcDbPoint
 10
4458.700942463805
 20
1120.184443440142
 30
-0.0000001793795719
  0
POINT
  5
1FF0
330
1983
100
AcDbEntity
  8
Defpoints
 62
     0
100
AcDbPoint
 10
4461.471092391974
 20
1120.184443440142
 30
0.0
  0
ENDBLK
  5
198E
330
1983
100
AcDbEntity
  8
0
100
AcDbBlockEnd
  0
BLOCK
  5
199B
330
198F
100
AcDbEntity
  8
0
100
AcDbBlockBegin
  2
*D20
 70
     1
 10
0.0
 20
0.0
 30
0.0
  3
*D20
  1

  0
LINE
  5
1FF1
330
198F
100
AcDbEntity
  8
quote
100
AcDbLine
 10
4470.642539238533
 20
1120.184443440142
 30
0.0
 11
4455.471092391975
 21
1120.184443440142
 31
0.0
  0
LINE
  5
1FF2
330
198F
100
AcDbEntity
  8
quote
100
AcDbLine
 10
4473.421373731408
 20
1119.184443440143
 30
0.0
 11
4455.471092391975
 21
1119.184443440143
 31
0.0
  0
LINE
  5
1FF3
330
198F
100
AcDbEntity
  8
quote
100
AcDbLine
 10
4456.471092391974
 20
1122.184443440142
 30
0.0
 11
4456.471092391974
 21
1124.184443440142
 31
0.0
  0
LINE
  5
1FF4
330
198F
100
AcDbEntity
  8
quote
100
AcDbLine
 10
4456.471092391974
 20
1117.184443440142
 30
0.0
 11
4456.471092391974
 21
1110.241528732285
 31
0.0
  0
LINE
  5
1FF5
330
198F
100
AcDbEntity
  8
quote
100
AcDbLine
 10
4456.471092391974
 20
1120.184443440142
 30
0.0
 11
4456.471092391974
 21
1119.184443440143
 31
0.0
  0
SOLID
  5
1FF6
330
198F
100
AcDbEntity
  8
quote
100
AcDbTrace
 10
4456.137759058641
 20
1122.184443440142
 30
0.0
 11
4456.804425725308
 21
1122.184443440142
 31
0.0
 12
4456.471092391974
 22
1120.184443440142
 32
0.0
 13
4456.471092391974
 23
1120.184443440142
 33
0.0
  0
SOLID
  5
1FF7
330
198F
100
AcDbEntity
  8
quote
100
AcDbTrace
 10
4456.137759058641
 20
1117.184443440142
 30
0.0
 11
4456.804425725308
 21
1117.184443440142
 31
0.0
 12
4456.471092391974
 22
1119.184443440143
 32
0.0
 13
4456.471092391974
 23
1119.184443440143
 33
0.0
  0
MTEXT
  5
1FF8
330
198F
100
AcDbEntity
  8
quote
100
AcDbMText
 10
4454.430125299967
 20
1112.712986086214
 30
0.0
 40
2.0
 41
0.0
 71
     5
 72
     1
  1
10
  7
SANINDUSA
 11
0.0000000000000001
 21
1.0
 31
0.0
 73
     1
 44
1.0
1001
ACAD
1000
MTEXTBEGIN
1070
    73
1070
     1
1070
    44
1040
1.0
1070
    74
1070
     0
1000
MTEXTEND
  0
POINT
  5
1FF9
330
198F
100
AcDbEntity
  8
Defpoints
 62
     0
100
AcDbPoint
 10
4471.642539238533
 20
1120.184443440142
 30
-0.0000001793795719
  0
POINT
  5
1FFA
330
198F
100
AcDbEntity
  8
Defpoints
 62
     0
100
AcDbPoint
 10
4474.421373731408
 20
1119.184443440143
 30
0.0
  0
POINT
  5
1FFB
330
198F
100
AcDbEntity
  8
Defpoints
 62
     0
100
AcDbPoint
 10
4456.471092391974
 20
1119.184443440143
 30
0.0
  0
ENDBLK
  5
199C
330
198F
100
AcDbEntity
  8
0
100
AcDbBlockEnd
  0
BLOCK
  5
19A7
330
199D
100
AcDbEntity
  8
0
100
AcDbBlockBegin
  2
*D21
 70
     1
 10
0.0
 20
0.0
 30
0.0
  3
*D21
  1

  0
LINE
  5
1FD6
330
199D
100
AcDbEntity
  8
quote
100
AcDbLine
 10
4384.850466884844
 20
1304.184443440142
 30
0.0
 11
4379.850466884844
 21
1304.184443440142
 31
0.0
  0
LINE
  5
1FD7
330
199D
100
AcDbEntity
  8
quote
100
AcDbLine
 10
4424.716920361308
 20
1274.684443439175
 30
0.0
 11
4379.850466884844
 21
1274.684443439175
 31
0.0
  0
LINE
  5
1FD8
330
199D
100
AcDbEntity
  8
quote
100
AcDbLine
 10
4380.850466884845
 20
1302.184443440143
 30
0.0
 11
4380.850466884845
 21
1276.684443439175
 31
0.0
  0
SOLID
  5
1FD9
330
199D
100
AcDbEntity
  8
quote
100
AcDbTrace
 10
4380.517133551512
 20
1302.184443440143
 30
0.0
 11
4381.183800218177
 21
1302.184443440143
 31
0.0
 12
4380.850466884845
 22
1304.184443440142
 32
0.0
 13
4380.850466884845
 23
1304.184443440142
 33
0.0
  0
SOLID
  5
1FDA
330
199D
100
AcDbEntity
  8
quote
100
AcDbTrace
 10
4380.517133551512
 20
1276.684443439175
 30
0.0
 11
4381.183800218177
 21
1276.684443439175
 31
0.0
 12
4380.850466884845
 22
1274.684443439175
 32
0.0
 13
4380.850466884845
 23
1274.684443439175
 33
0.0
  0
MTEXT
  5
1FDB
330
199D
100
AcDbEntity
  8
quote
100
AcDbMText
 10
4378.808828201164
 20
1289.43444343966
 30
0.0
 40
2.0
 41
0.0
 71
     5
 72
     1
  1
295
  7
SANINDUSA
 11
0.0000000000000001
 21
1.0
 31
0.0
 73
     1
 44
1.0
1001
ACAD
1000
MTEXTBEGIN
1070
    73
1070
     1
1070
    44
1040
1.0
1070
    74
1070
     0
1000
MTEXTEND
  0
POINT
  5
1FDC
330
199D
100
AcDbEntity
  8
Defpoints
 62
     0
100
AcDbPoint
 10
4385.850466884845
 20
1304.184443440142
 30
0.0000001793827793
  0
POINT
  5
1FDD
330
199D
100
AcDbEntity
  8
Defpoints
 62
     0
100
AcDbPoint
 10
4425.716920361309
 20
1274.684443439175
 30
0.0000000000032074
  0
POINT
  5
1FDE
330
199D
100
AcDbEntity
  8
Defpoints
 62
     0
100
AcDbPoint
 10
4380.850466884845
 20
1274.684443439175
 30
0.0
  0
ENDBLK
  5
19A8
330
199D
100
AcDbEntity
  8
0
100
AcDbBlockEnd
  0
BLOCK
  5
19B3
330
19A9
100
AcDbEntity
  8
0
100
AcDbBlockBegin
  2
*D22
 70
     1
 10
0.0
 20
0.0
 30
0.0
  3
*D22
  1

  0
LINE
  5
1FCD
330
19A9
100
AcDbEntity
  8
quote
100
AcDbLine
 10
4502.250466884844
 20
1305.184443440142
 30
0.0
 11
4502.250466884844
 21
1310.184443440143
 31
0.0
  0
LINE
  5
1FCE
330
19A9
100
AcDbEntity
  8
quote
100
AcDbLine
 10
4442.250466884844
 20
1305.184443440142
 30
0.0
 11
4442.250466884844
 21
1310.184443440143
 31
0.0
  0
LINE
  5
1FCF
330
19A9
100
AcDbEntity
  8
quote
100
AcDbLine
 10
4500.250466884844
 20
1309.184443440143
 30
0.0
 11
4444.250466884844
 21
1309.184443440143
 31
0.0
  0
SOLID
  5
1FD0
330
19A9
100
AcDbEntity
  8
quote
100
AcDbTrace
 10
4500.250466884844
 20
1309.517776773476
 30
0.0
 11
4500.250466884844
 21
1308.851110106809
 31
0.0
 12
4502.250466884844
 22
1309.184443440143
 32
0.0
 13
4502.250466884844
 23
1309.184443440143
 33
0.0
  0
SOLID
  5
1FD1
330
19A9
100
AcDbEntity
  8
quote
100
AcDbTrace
 10
4444.250466884844
 20
1309.517776773476
 30
0.0
 11
4444.250466884844
 21
1308.851110106809
 31
0.0
 12
4442.250466884844
 22
1309.184443440143
 32
0.0
 13
4442.250466884844
 23
1309.184443440143
 33
0.0
  0
MTEXT
  5
1FD2
330
19A9
100
AcDbEntity
  8
quote
100
AcDbMText
 10
4472.250466884844
 20
1311.225410532151
 30
0.0
 40
2.0
 41
0.0
 71
     5
 72
     1
  1
600
  7
SANINDUSA
 73
     1
 44
1.0
1001
ACAD
1000
MTEXTBEGIN
1070
    73
1070
     1
1070
    44
1040
1.0
1070
    74
1070
     0
1000
MTEXTEND
  0
POINT
  5
1FD3
330
19A9
100
AcDbEntity
  8
Defpoints
 62
     0
100
AcDbPoint
 10
4502.250466884844
 20
1304.184443440142
 30
0.0
  0
POINT
  5
1FD4
330
19A9
100
AcDbEntity
  8
Defpoints
 62
     0
100
AcDbPoint
 10
4442.250466884844
 20
1304.184443440142
 30
0.0
  0
POINT
  5
1FD5
330
19A9
100
AcDbEntity
  8
Defpoints
 62
     0
100
AcDbPoint
 10
4442.250466884844
 20
1309.184443440143
 30
0.0
  0
ENDBLK
  5
19B4
330
19A9
100
AcDbEntity
  8
0
100
AcDbBlockEnd
  0
BLOCK
  5
19BF
330
19B5
100
AcDbEntity
  8
0
100
AcDbBlockBegin
  2
*D23
 70
     1
 10
0.0
 20
0.0
 30
0.0
  3
*D23
  1

  0
LINE
  5
1FC4
330
19B5
100
AcDbEntity
  8
quote
100
AcDbLine
 10
4441.950466884843
 20
1305.184443440142
 30
0.0
 11
4441.950466884843
 21
1310.184443440143
 31
0.0
  0
LINE
  5
1FC5
330
19B5
100
AcDbEntity
  8
quote
100
AcDbLine
 10
4385.850466884845
 20
1305.184443440143
 30
0.0
 11
4385.850466884845
 21
1310.184443440143
 31
0.0
  0
LINE
  5
1FC6
330
19B5
100
AcDbEntity
  8
quote
100
AcDbLine
 10
4439.950466884844
 20
1309.184443440143
 30
0.0
 11
4387.850466884844
 21
1309.184443440143
 31
0.0
  0
SOLID
  5
1FC7
330
19B5
100
AcDbEntity
  8
quote
100
AcDbTrace
 10
4439.950466884844
 20
1309.517776773476
 30
0.0
 11
4439.950466884844
 21
1308.851110106809
 31
0.0
 12
4441.950466884843
 22
1309.184443440143
 32
0.0
 13
4441.950466884843
 23
1309.184443440143
 33
0.0
  0
SOLID
  5
1FC8
330
19B5
100
AcDbEntity
  8
quote
100
AcDbTrace
 10
4387.850466884844
 20
1309.517776773476
 30
0.0
 11
4387.850466884844
 21
1308.851110106809
 31
0.0
 12
4385.850466884845
 22
1309.184443440143
 32
0.0
 13
4385.850466884845
 23
1309.184443440143
 33
0.0
  0
MTEXT
  5
1FC9
330
19B5
100
AcDbEntity
  8
quote
100
AcDbMText
 10
4413.900466884845
 20
1311.224067348806
 30
0.0
 40
2.0
 41
0.0
 71
     5
 72
     1
  1
561
  7
SANINDUSA
 73
     1
 44
1.0
1001
ACAD
1000
MTEXTBEGIN
1070
    73
1070
     1
1070
    44
1040
1.0
1070
    74
1070
     0
1000
MTEXTEND
  0
POINT
  5
1FCA
330
19B5
100
AcDbEntity
  8
Defpoints
 62
     0
100
AcDbPoint
 10
4441.950466884843
 20
1304.184443440142
 30
0.0
  0
POINT
  5
1FCB
330
19B5
100
AcDbEntity
  8
Defpoints
 62
     0
100
AcDbPoint
 10
4385.850466884845
 20
1304.184443440143
 30
0.0
  0
POINT
  5
1FCC
330
19B5
100
AcDbEntity
  8
Defpoints
 62
     0
100
AcDbPoint
 10
4385.850466884845
 20
1309.184443440143
 30
0.0
  0
ENDBLK
  5
19C0
330
19B5
100
AcDbEntity
  8
0
100
AcDbBlockEnd
  0
BLOCK
  5
19CB
330
19C1
100
AcDbEntity
  8
0
100
AcDbBlockBegin
  2
*D24
 70
     1
 10
0.0
 20
0.0
 30
0.0
  3
*D24
  1

  0
LINE
  5
20A6
330
19C1
100
AcDbEntity
  8
quote
100
AcDbLine
 10
4441.229973939604
 20
1088.436571628063
 30
0.0
 11
4441.229973939604
 21
1099.606571627509
 31
0.0
  0
LINE
  5
20A7
330
19C1
100
AcDbEntity
  8
quote
100
AcDbLine
 10
4384.850466884844
 20
1089.606571627509
 30
0.0
 11
4384.850466884844
 21
1099.606571627509
 31
0.0
  0
LINE
  5
20A8
330
19C1
100
AcDbEntity
  8
quote
100
AcDbLine
 10
4439.229973939603
 20
1098.606571627509
 30
0.0
 11
4386.850466884844
 21
1098.606571627509
 31
0.0
  0
SOLID
  5
20A9
330
19C1
100
AcDbEntity
  8
quote
100
AcDbTrace
 10
4439.229973939603
 20
1098.939904960842
 30
0.0
 11
4439.229973939603
 21
1098.273238294176
 31
0.0
 12
4441.229973939604
 22
1098.606571627509
 32
0.0
 13
4441.229973939604
 23
1098.606571627509
 33
0.0
  0
SOLID
  5
20AA
330
19C1
100
AcDbEntity
  8
quote
100
AcDbTrace
 10
4386.850466884844
 20
1098.939904960842
 30
0.0
 11
4386.850466884844
 21
1098.273238294176
 31
0.0
 12
4384.850466884844
 22
1098.606571627509
 32
0.0
 13
4384.850466884844
 23
1098.606571627509
 33
0.0
  0
MTEXT
  5
20AB
330
19C1
100
AcDbEntity
  8
quote
100
AcDbMText
 10
4413.040220412224
 20
1100.877894663104
 30
0.0
 40
2.0
 41
0.0
 71
     5
 72
     1
  1
563,8
  7
SANINDUSA
 73
     1
 44
1.0
1001
ACAD
1000
MTEXTBEGIN
1070
    73
1070
     1
1070
    44
1040
1.0
1070
    74
1070
     0
1000
MTEXTEND
  0
POINT
  5
20AC
330
19C1
100
AcDbEntity
  8
Defpoints
 62
     0
100
AcDbPoint
 10
4441.229973939604
 20
1087.436571628063
 30
0.0000000000000025
  0
POINT
  5
20AD
330
19C1
100
AcDbEntity
  8
Defpoints
 62
     0
100
AcDbPoint
 10
4384.850466884844
 20
1088.606571627509
 30
-0.0000000054558729
  0
POINT
  5
20AE
330
19C1
100
AcDbEntity
  8
Defpoints
 62
     0
100
AcDbPoint
 10
4384.850466884844
 20
1098.606571627509
 30
0.0
  0
ENDBLK
  5
19CC
330
19C1
100
AcDbEntity
  8
0
100
AcDbBlockEnd
  0
BLOCK
  5
19D7
330
19CD
100
AcDbEntity
  8
0
100
AcDbBlockBegin
  2
*D25
 70
     1
 10
0.0
 20
0.0
 30
0.0
  3
*D25
  1

  0
LINE
  5
20AF
330
19CD
100
AcDbEntity
  8
quote
100
AcDbLine
 10
4441.229973939604
 20
1088.436570473312
 30
0.0
 11
4441.229973939604
 21
1094.606571627509
 31
0.0
  0
LINE
  5
20B0
330
19CD
100
AcDbEntity
  8
quote
100
AcDbLine
 10
4389.347669260835
 20
1088.436571628063
 30
0.0
 11
4389.347669260835
 21
1094.606571627509
 31
0.0
  0
LINE
  5
20B1
330
19CD
100
AcDbEntity
  8
quote
100
AcDbLine
 10
4439.229973939603
 20
1093.606571627509
 30
0.0
 11
4391.347669260835
 21
1093.606571627509
 31
0.0
  0
SOLID
  5
20B2
330
19CD
100
AcDbEntity
  8
quote
100
AcDbTrace
 10
4439.229973939603
 20
1093.939904960842
 30
0.0
 11
4439.229973939603
 21
1093.273238294176
 31
0.0
 12
4441.229973939604
 22
1093.606571627509
 32
0.0
 13
4441.229973939604
 23
1093.606571627509
 33
0.0
  0
SOLID
  5
20B3
330
19CD
100
AcDbEntity
  8
quote
100
AcDbTrace
 10
4391.347669260835
 20
1093.939904960842
 30
0.0
 11
4391.347669260835
 21
1093.273238294176
 31
0.0
 12
4389.347669260835
 22
1093.606571627509
 32
0.0
 13
4389.347669260835
 23
1093.606571627509
 33
0.0
  0
MTEXT
  5
20B4
330
19CD
100
AcDbEntity
  8
quote
100
AcDbMText
 10
4415.28882160022
 20
1095.877894663104
 30
0.0
 40
2.0
 41
0.0
 71
     5
 72
     1
  1
518,8
  7
SANINDUSA
 73
     1
 44
1.0
1001
ACAD
1000
MTEXTBEGIN
1070
    73
1070
     1
1070
    44
1040
1.0
1070
    74
1070
     0
1000
MTEXTEND
  0
POINT
  5
20B5
330
19CD
100
AcDbEntity
  8
Defpoints
 62
     0
100
AcDbPoint
 10
4441.229973939604
 20
1087.436570473312
 30
0.0000000000000025
  0
POINT
  5
20B6
330
19CD
100
AcDbEntity
  8
Defpoints
 62
     0
100
AcDbPoint
 10
4389.347669260835
 20
1087.436571628063
 30
-0.0000000007829077
  0
POINT
  5
20B7
330
19CD
100
AcDbEntity
  8
Defpoints
 62
     0
100
AcDbPoint
 10
4389.347669260835
 20
1093.606571627509
 30
0.0
  0
ENDBLK
  5
19D8
330
19CD
100
AcDbEntity
  8
0
100
AcDbBlockEnd
  0
BLOCK
  5
19E3
330
19D9
100
AcDbEntity
  8
0
100
AcDbBlockBegin
  2
*D26
 70
     1
 10
0.0
 20
0.0
 30
0.0
  3
*D26
  1

  0
LINE
  5
209D
330
19D9
100
AcDbEntity
  8
quote
100
AcDbLine
 10
4501.546592555931
 20
1088.436571140878
 30
0.0
 11
4501.546592555931
 21
1095.871238719905
 31
0.0
  0
LINE
  5
209E
330
19D9
100
AcDbEntity
  8
quote
100
AcDbLine
 10
4441.529973939604
 20
1088.436571140878
 30
0.0
 11
4441.529973939604
 21
1095.871238719905
 31
0.0
  0
LINE
  5
209F
330
19D9
100
AcDbEntity
  8
quote
100
AcDbLine
 10
4499.546592555932
 20
1094.871238719905
 30
0.0
 11
4443.529973939604
 21
1094.871238719905
 31
0.0
  0
SOLID
  5
20A0
330
19D9
100
AcDbEntity
  8
quote
100
AcDbTrace
 10
4499.546592555932
 20
1095.204572053238
 30
0.0
 11
4499.546592555932
 21
1094.537905386572
 31
0.0
 12
4501.546592555931
 22
1094.871238719905
 32
0.0
 13
4501.546592555931
 23
1094.871238719905
 33
0.0
  0
SOLID
  5
20A1
330
19D9
100
AcDbEntity
  8
quote
100
AcDbTrace
 10
4443.529973939604
 20
1095.204572053238
 30
0.0
 11
4443.529973939604
 21
1094.537905386572
 31
0.0
 12
4441.529973939604
 22
1094.871238719905
 32
0.0
 13
4441.529973939604
 23
1094.871238719905
 33
0.0
  0
MTEXT
  5
20A2
330
19D9
100
AcDbEntity
  8
quote
100
AcDbMText
 10
4471.538283247768
 20
1097.140546980483
 30
0.0
 40
2.0
 41
0.0
 71
     5
 72
     1
  1
600,2
  7
SANINDUSA
 73
     1
 44
1.0
1001
ACAD
1000
MTEXTBEGIN
1070
    73
1070
     1
1070
    44
1040
1.0
1070
    74
1070
     0
1000
MTEXTEND
  0
POINT
  5
20A3
330
19D9
100
AcDbEntity
  8
Defpoints
 62
     0
100
AcDbPoint
 10
4501.546592555931
 20
1087.436571140877
 30
0.0000000000000462
  0
POINT
  5
20A4
330
19D9
100
AcDbEntity
  8
Defpoints
 62
     0
100
AcDbPoint
 10
4441.529973939604
 20
1087.436571140877
 30
0.0
  0
POINT
  5
20A5
330
19D9
100
AcDbEntity
  8
Defpoints
 62
     0
100
AcDbPoint
 10
4441.529973939604
 20
1094.871238719905
 30
0.0
  0
ENDBLK
  5
19E4
330
19D9
100
AcDbEntity
  8
0
100
AcDbBlockEnd
  0
BLOCK
  5
1E8C
330
1E82
100
AcDbEntity
  8
0
100
AcDbBlockBegin
  2
*D27
 70
     1
 10
0.0
 20
0.0
 30
0.0
  3
*D27
  1

  0
ARC
  5
2094
330
1E82
100
AcDbEntity
  8
7
100
AcDbCircle
 10
4443.119979836529
 20
1087.436571140877
 30
0.0
 40
30.1816476975166
100
AcDbArc
 50
273.7974247308894
 51
356.2025752691107
  0
SOLID
  5
2095
330
1E82
100
AcDbEntity
  8
7
100
AcDbTrace
 10
4445.12992599722
 20
1056.988038557639
 30
0.0
 11
4445.107837519039
 21
1057.654339198173
 31
0.0
 12
4443.119979836527
 22
1057.25492344336
 32
0.0
 13
4443.119979836527
 23
1057.25492344336
 33
0.0
  0
SOLID
  5
2096
330
1E82
100
AcDbEntity
  8
7
100
AcDbTrace
 10
4472.902211779231
 20
1085.448713458366
 30
0.0
 11
4473.568512419766
 21
1085.426624980184
 31
0.0
 12
4473.301627534045
 22
1087.436571140877
 32
0.0
 13
4473.301627534045
 23
1087.436571140877
 33
0.0
  0
MTEXT
  5
2097
102
{ACAD_XDICTIONARY
360
219C
102
}
330
1E82
100
AcDbEntity
  8
7
100
AcDbMText
 10
4462.857459218194
 20
1067.69909175921
 30
0.0
 40
2.0
 41
0.0
 71
     5
 72
     1
  1
90,0\U+00B0
  7
SANINDUSA
 11
0.7071067811865476
 21
0.7071067811865475
 31
0.0
 73
     1
 44
1.0
1001
ACAD
1000
MTEXTBEGIN
1070
    73
1070
     1
1070
    44
1040
1.0
1070
    74
1070
     0
1000
MTEXTEND
  0
POINT
  5
2098
330
1E82
100
AcDbEntity
  8
Defpoints
 62
     0
100
AcDbPoint
 10
4458.210803685287
 20
1061.298497506755
 30
0.0
  0
POINT
  5
2099
330
1E82
100
AcDbEntity
  8
Defpoints
 62
     0
100
AcDbPoint
 10
4441.529973939605
 20
1087.436571140877
 30
0.0
  0
POINT
  5
209A
330
1E82
100
AcDbEntity
  8
Defpoints
 62
     0
100
AcDbPoint
 10
4443.119979836529
 20
1086.146565243954
 30
0.0
  0
POINT
  5
209B
330
1E82
100
AcDbEntity
  8
Defpoints
 62
     0
100
AcDbPoint
 10
4443.119979836527
 20
1026.129946627625
 30
0.0
  0
POINT
  5
209C
330
1E82
100
AcDbEntity
  8
Defpoints
 62
     0
100
AcDbPoint
 10
4501.546592555931
 20
1087.436571140877
 30
0.0000000000000462
  0
ENDBLK
  5
1E8D
330
1E82
100
AcDbEntity
  8
0
100
AcDbBlockEnd
  0
BLOCK
  5
210F
330
210E
100
AcDbEntity
  8
0
100
AcDbBlockBegin
  2
*D29
 70
     1
 10
0.0
 20
0.0
 30
0.0
  3
*D29
  1

  0
LINE
  5
211B
330
210E
100
AcDbEntity
  8
cotas
100
AcDbLine
 10
4505.930466884843
 20
1304.184443440142
 30
0.0
 11
4511.11763092425
 21
1304.184443440142
 31
0.0
  0
LINE
  5
211C
330
210E
100
AcDbEntity
  8
cotas
100
AcDbLine
 10
4505.930466884844
 20
1119.184443440142
 30
0.0
 11
4511.11763092425
 21
1119.184443440142
 31
0.0
  0
LINE
  5
211D
330
210E
100
AcDbEntity
  8
cotas
100
AcDbLine
 10
4510.11763092425
 20
1302.184443440142
 30
0.0
 11
4510.11763092425
 21
1121.184443440142
 31
0.0
  0
SOLID
  5
211E
330
210E
100
AcDbEntity
  8
cotas
100
AcDbTrace
 10
4509.784297590917
 20
1302.184443440142
 30
0.0
 11
4510.450964257583
 21
1302.184443440142
 31
0.0
 12
4510.11763092425
 22
1304.184443440142
 32
0.0
 13
4510.11763092425
 23
1304.184443440142
 33
0.0
  0
SOLID
  5
211F
330
210E
100
AcDbEntity
  8
cotas
100
AcDbTrace
 10
4509.784297590917
 20
1121.184443440142
 30
0.0
 11
4510.450964257583
 21
1121.184443440142
 31
0.0
 12
4510.11763092425
 22
1119.184443440142
 32
0.0
 13
4510.11763092425
 23
1119.184443440142
 33
0.0
  0
MTEXT
  5
2120
330
210E
100
AcDbEntity
  8
cotas
100
AcDbMText
 10
4508.071962690536
 20
1211.684443440143
 30
0.0
 40
2.0
 41
0.0
 71
     5
 72
     1
  1
185
  7
SANINDUSA
 11
0.0000000000000001
 21
1.0
 31
0.0
 73
     1
 44
1.0
1001
ACAD
1000
MTEXTBEGIN
1070
    73
1070
     1
1070
    44
1040
1.0
1070
    74
1070
     0
1000
MTEXTEND
  0
POINT
  5
2121
330
210E
100
AcDbEntity
  8
Defpoints
 62
     0
100
AcDbPoint
 10
4504.930466884843
 20
1304.184443440142
 30
0.0
  0
POINT
  5
2122
330
210E
100
AcDbEntity
  8
Defpoints
 62
     0
100
AcDbPoint
 10
4504.930466884844
 20
1119.184443440142
 30
0.0
  0
POINT
  5
2123
330
210E
100
AcDbEntity
  8
Defpoints
 62
     0
100
AcDbPoint
 10
4510.11763092425
 20
1119.184443440142
 30
0.0
  0
ENDBLK
  5
2110
330
210E
100
AcDbEntity
  8
0
100
AcDbBlockEnd
  0
ENDSEC
  0
SECTION
  2
ENTITIES
  0
LINE
  5
1833
330
1F
100
AcDbEntity
  8
SANINDUSA
100
AcDbLine
 10
4723.768941264552
 20
1028.638943180625
 30
0.0000000000545592
 11
4723.768941264552
 21
1028.644943180626
 31
0.0000000000545587
  0
LINE
  5
1834
330
1F
100
AcDbEntity
  8
SANINDUSA
100
AcDbLine
 10
4723.768941264552
 20
1028.644943180626
 30
0.000000000054559
 11
4723.768941264552
 21
1028.638943180625
 31
0.000000000054559
  0
INSERT
  5
1835
330
1F
100
AcDbEntity
  8
SANINDUSA
100
AcDbBlockReference
  2
guarnizione
 10
4723.768941264552
 20
1028.641943180626
 30
0.000000000054559
 41
-0.001
 42
0.001
 43
0.001
  0
LINE
  5
1837
330
1F
100
AcDbEntity
  8
SANINDUSA
100
AcDbLine
 10
4723.168775078388
 20
1028.644943180626
 30
0.0000000000545587
 11
4723.768941264552
 21
1028.644943180626
 31
0.0000000000545587
  0
LINE
  5
1838
330
1F
100
AcDbEntity
  8
SANINDUSA
100
AcDbLine
 10
4723.168775078388
 20
1028.638943180625
 30
0.0000000000545587
 11
4723.768941264552
 21
1028.638943180625
 31
0.0000000000545592
  0
ARC
  5
1839
330
1F
100
AcDbEntity
  8
SANINDUSA
100
AcDbCircle
 10
4723.178027217734
 20
1028.644577040978
 30
0.0000000000545587
 40
0.0005999999999989
100
AcDbArc
 50
32.46948080063537
 51
75.89910821324153
  0
ARC
  5
183A
330
1F
100
AcDbEntity
  8
SANINDUSA
100
AcDbCircle
 10
4723.180027217735
 20
1028.645058814957
 30
0.0000000000545587
 40
0.0006
100
AcDbArc
 50
0.0
 51
80.65916587993356
  0
ARC
  5
183B
330
1F
100
AcDbEntity
  8
SANINDUSA
100
AcDbCircle
 10
4723.179039630764
 20
1028.638665099924
 30
0.0000000000545587
 40
0.0006
100
AcDbArc
 50
99.34083412006643
 51
147.5305191993646
  0
ARC
  5
183C
330
1F
100
AcDbEntity
  8
SANINDUSA
100
AcDbCircle
 10
4723.178027217734
 20
1028.639309320273
 30
0.0000000000545587
 40
0.0006000000000005
100
AcDbArc
 50
284.1008917867585
 51
327.5305191993646
  0
ARC
  5
183D
330
1F
100
AcDbEntity
  8
SANINDUSA
100
AcDbCircle
 10
4723.17773244082
 20
1028.638491690396
 30
0.0000000000545587
 40
0.0004999999999883
100
AcDbArc
 50
28.12637395497053
 51
81.99999998899484
  0
ARC
  5
183E
330
1F
100
AcDbEntity
  8
SANINDUSA
100
AcDbCircle
 10
4723.180027217735
 20
1028.638827546294
 30
0.0000000000545587
 40
0.0006
100
AcDbArc
 50
279.3408341200664
 51
0.0
  0
LINE
  5
183F
330
1F
100
AcDbEntity
  8
SANINDUSA
100
AcDbLine
 10
4723.180627217735
 20
1028.638827546294
 30
0.0000000000545587
 11
4723.180627217735
 21
1028.639534301929
 31
0.0000000000545587
  0
LINE
  5
1840
330
1F
100
AcDbEntity
  8
SANINDUSA
100
AcDbLine
 10
4723.180627217735
 20
1028.639534301929
 30
0.0000000000545587
 11
4723.178942246503
 21
1028.639257144099
 31
0.0000000000545587
  0
LINE
  5
1841
330
1F
100
AcDbEntity
  8
SANINDUSA
100
AcDbLine
 10
4723.17567333197
 20
1028.644600368193
 30
0.0000000000545587
 11
4723.177802027371
 21
1028.644899536821
 31
0.0000000000545587
  0
LINE
  5
1842
330
1F
100
AcDbEntity
  8
SANINDUSA
100
AcDbLine
 10
4723.177802027371
 20
1028.638986824431
 30
0.0000000000545587
 11
4723.17567333197
 21
1028.639285993059
 31
0.0000000000545587
  0
LINE
  5
1843
330
1F
100
AcDbEntity
  8
SANINDUSA
100
AcDbLine
 10
4723.175624621386
 20
1028.638939399235
 30
0.0000000000545587
 11
4723.177700949741
 21
1028.638647590315
 31
0.0000000000545587
  0
LINE
  5
1844
330
1F
100
AcDbEntity
  8
SANINDUSA
100
AcDbLine
 10
4723.177700949741
 20
1028.638647590315
 30
0.0000000000545587
 11
4723.175324601996
 21
1028.63825670923
 31
0.0000000000545587
  0
LINE
  5
1845
330
1F
100
AcDbEntity
  8
SANINDUSA
100
AcDbLine
 10
4723.175324601996
 20
1028.645629652021
 30
0.0000000000545587
 11
4723.177700949741
 21
1028.645238770937
 31
0.0000000000545587
  0
LINE
  5
1846
330
1F
100
AcDbEntity
  8
SANINDUSA
100
AcDbLine
 10
4723.177700949741
 20
1028.645238770937
 30
0.0000000000545587
 11
4723.175624621386
 21
1028.644946962016
 31
0.0000000000545587
  0
LINE
  5
1847
330
1F
100
AcDbEntity
  8
SANINDUSA
100
AcDbLine
 10
4723.180124601996
 20
1028.645650859132
 30
0.0000000000545587
 11
4723.168620300313
 21
1028.647543180626
 31
0.0000000000545587
  0
ARC
  5
1848
330
1F
100
AcDbEntity
  8
SANINDUSA
100
AcDbCircle
 10
4723.169375078389
 20
1028.638246750176
 30
0.0000000000545587
 40
0.0006
100
AcDbArc
 50
180.0
 51
279.3408341200664
  0
LINE
  5
1849
330
1F
100
AcDbEntity
  8
SANINDUSA
100
AcDbLine
 10
4723.170054909828
 20
1028.637750511669
 30
0.0000000000545587
 11
4723.169472462649
 21
1028.637654706
 31
0.0000000000545587
  0
LINE
  5
184A
330
1F
100
AcDbEntity
  8
SANINDUSA
100
AcDbLine
 10
4723.168620300313
 20
1028.636343180626
 30
0.0000000000545587
 11
4723.167627217736
 21
1028.636343180626
 31
0.0000000000545587
  0
ARC
  5
184B
330
1F
100
AcDbEntity
  8
SANINDUSA
100
AcDbCircle
 10
4723.169973756277
 20
1028.638243881815
 30
0.0000000000545587
 40
0.0005
100
AcDbArc
 50
279.3408341200664
 51
9.340834109326083
  0
LINE
  5
184C
330
1F
100
AcDbEntity
  8
SANINDUSA
100
AcDbLine
 10
4723.152275078389
 20
1028.635543121656
 30
0.0000000000545588
 11
4723.167275123985
 21
1028.635543121656
 31
0.0000000000545588
  0
CIRCLE
  5
184D
330
1F
100
AcDbEntity
  8
SANINDUSA
100
AcDbCircle
 10
4723.167275078389
 20
1028.627543121656
 30
0.0000000000545588
 40
0.008
  0
ARC
  5
184E
330
1F
100
AcDbEntity
  8
SANINDUSA
100
AcDbCircle
 10
4723.166789525428
 20
1028.641943180626
 30
0.0000000000545587
 40
0.0052623076923077
100
AcDbArc
 50
81.49232710825302
 51
278.507672891747
  0
ARC
  5
184F
330
1F
100
AcDbEntity
  8
SANINDUSA
100
AcDbCircle
 10
4723.166789525428
 20
1028.641943180626
 30
0.0000000000545587
 40
0.0056623076923077
100
AcDbArc
 50
81.49232710825302
 51
278.507672891747
  0
LINE
  5
1850
330
1F
100
AcDbEntity
  8
SANINDUSA
100
AcDbLine
 10
4723.100275078389
 20
1028.627543121656
 30
0.0000000000545588
 11
4723.15927507839
 21
1028.627543121656
 31
0.0000000000545588
  0
LWPOLYLINE
  5
1851
330
1F
100
AcDbEntity
  8
SANINDUSA
100
AcDbPolyline
 90
        2
 70
     0
 43
0.0
 10
4723.152275078389
 20
1028.63864317395
 10
4723.099275078388
 20
1028.63864317395
1001
GENIUS_GENREC_14
1002
{
1000
PYDIR
1011
4723.23527507839
1021
1028.017325165005
1031
0.0000000000545588
1002
}
1002
{
1000
PXDIR
1011
4723.182275078388
1021
1028.016325165005
1031
0.0000000000545588
1002
}
1002
{
1000
PORI
1011
4723.23527507839
1021
1028.016325165005
1031
0.0000000000545588
1002
}
1002
{
1000
PINS
1011
4723.23527507839
1021
1028.016325165005
1031
0.0000000000545588
1002
}
1002
{
1000
PINS2
1011
4723.182275078388
1021
1028.017325165005
1031
0.0000000000545588
1002
}
1002
{
1000
C
1070
     1
1002
}
1001
GENIUS_GENODEF_13
1002
{
1000
HIER
1070
     0
1002
}
1002
{
1000
MANEDIT
1070
     0
1002
}
1002
{
1000
NOSEL
1070
     0
1002
}
1002
{
1000
BEHIND
1070
     0
1002
}
1002
{
1000
REACTOR
1002
}
1001
GENIUS_GENOBJ-N-REC_13
1002
{
1000
OWNER
1000
GEN
1002
}
  0
LWPOLYLINE
  5
1852
330
1F
100
AcDbEntity
  8
SANINDUSA
100
AcDbPolyline
 90
        2
 70
     0
 43
0.0
 10
4723.099275078388
 20
1028.63764317395
 10
4723.152275078389
 20
1028.63764317395
1001
GENIUS_GENREC_14
1002
{
1000
PYDIR
1011
4723.23527507839
1021
1028.017325165005
1031
0.0000000000545588
1002
}
1002
{
1000
PXDIR
1011
4723.182275078388
1021
1028.016325165005
1031
0.0000000000545588
1002
}
1002
{
1000
PORI
1011
4723.23527507839
1021
1028.016325165005
1031
0.0000000000545588
1002
}
1002
{
1000
PINS
1011
4723.23527507839
1021
1028.016325165005
1031
0.0000000000545588
1002
}
1002
{
1000
PINS2
1011
4723.182275078388
1021
1028.017325165005
1031
0.0000000000545588
1002
}
1002
{
1000
C
1070
     1
1002
}
1001
GENIUS_GENODEF_13
1002
{
1000
HIER
1070
     0
1002
}
1002
{
1000
MANEDIT
1070
     0
1002
}
1002
{
1000
NOSEL
1070
     0
1002
}
1002
{
1000
BEHIND
1070
     0
1002
}
1002
{
1000
REACTOR
1002
}
1001
GENIUS_GENOBJ-N-REC_13
1002
{
1000
OWNER
1000
GEN
1002
}
  0
LWPOLYLINE
  5
1853
330
1F
100
AcDbEntity
  8
SANINDUSA
100
AcDbPolyline
 90
        4
 70
     1
 43
0.0
 10
4723.099275078388
 20
1028.64614317395
 10
4723.152275078389
 20
1028.64614317395
 10
4723.152275078389
 20
1028.64514317395
 10
4723.099275078388
 20
1028.64514317395
1001
GENIUS_GENREC_14
1002
{
1000
PYDIR
1011
4723.23527507839
1021
1028.017625165005
1031
0.0000000000545588
1002
}
1002
{
1000
PXDIR
1011
4723.182275078388
1021
1028.016625165005
1031
0.0000000000545588
1002
}
1002
{
1000
PORI
1011
4723.23527507839
1021
1028.016625165005
1031
0.0000000000545588
1002
}
1002
{
1000
PINS
1011
4723.23527507839
1021
1028.016625165005
1031
0.0000000000545588
1002
}
1002
{
1000
PINS2
1011
4723.182275078388
1021
1028.017625165005
1031
0.0000000000545588
1002
}
1002
{
1000
C
1070
     1
1002
}
1001
GENIUS_GENODEF_13
1002
{
1000
HIER
1070
     0
1002
}
1002
{
1000
MANEDIT
1070
     0
1002
}
1002
{
1000
NOSEL
1070
     0
1002
}
1002
{
1000
BEHIND
1070
     0
1002
}
1002
{
1000
REACTOR
1002
}
1001
GENIUS_GENOBJ-N-REC_13
1002
{
1000
OWNER
1000
GEN
1002
}
  0
LINE
  5
1854
330
1F
100
AcDbEntity
  8
SANINDUSA
100
AcDbLine
 10
4723.152275078389
 20
1028.637543121656
 30
0.0000000000545588
 11
4723.099275078388
 21
1028.637543121656
 31
0.0000000000545588
  0
LINE
  5
1855
330
1F
100
AcDbEntity
  8
SANINDUSA
100
AcDbLine
 10
4723.152275078389
 20
1028.64634317395
 30
0.0000000000545588
 11
4723.099275078388
 21
1028.64634317395
 31
0.0000000000545588
  0
LINE
  5
1856
330
1F
100
AcDbEntity
  8
SANINDUSA
100
AcDbLine
 10
4723.100275078389
 20
1028.65134317395
 30
0.0000000000545588
 11
4723.151275078389
 21
1028.65134317395
 31
0.0000000000545588
  0
LINE
  5
1857
330
1F
100
AcDbEntity
  8
SANINDUSA
100
AcDbLine
 10
4723.23527507839
 20
1028.63754317395
 30
0.0000000000545588
 11
4723.23527507839
 21
1028.628543121656
 31
0.0000000000545588
  0
ARC
  5
1858
330
1F
100
AcDbEntity
  8
SANINDUSA
100
AcDbCircle
 10
4723.234275078389
 20
1028.628543121656
 30
0.0000000000545588
 40
0.001
100
AcDbArc
 50
270.0
 51
0.0
  0
LINE
  5
1859
330
1F
100
AcDbEntity
  8
SANINDUSA
100
AcDbLine
 10
4723.23527507839
 20
1028.63874317395
 30
0.0000000000545588
 11
4723.23527507839
 21
1028.63774317395
 31
0.0000000000545588
1001
GENIUS_GENREC_14
1002
{
1000
PYDIR
1011
4723.23527507839
1021
1028.63874317395
1031
0.0000000000545588
1002
}
1002
{
1000
PXDIR
1011
4723.182275078388
1021
1028.63774317395
1031
0.0000000000545588
1002
}
1002
{
1000
PORI
1011
4723.23527507839
1021
1028.63774317395
1031
0.0000000000545588
1002
}
1002
{
1000
PINS
1011
4723.23527507839
1021
1028.63774317395
1031
0.0000000000545588
1002
}
1002
{
1000
PINS2
1011
4723.182275078388
1021
1028.63874317395
1031
0.0000000000545588
1002
}
1002
{
1000
C
1070
     1
1002
}
1001
GENIUS_GENODEF_13
1002
{
1000
HIER
1070
     0
1002
}
1002
{
1000
MANEDIT
1070
     0
1002
}
1002
{
1000
NOSEL
1070
     0
1002
}
1002
{
1000
BEHIND
1070
     0
1002
}
1002
{
1000
REACTOR
1002
}
1001
GENIUS_GENOBJ-N-REC_13
1002
{
1000
OWNER
1000
GEN
1002
}
  0
LINE
  5
185A
330
1F
100
AcDbEntity
  8
SANINDUSA
100
AcDbLine
 10
4723.23527507839
 20
1028.64634317395
 30
0.0000000000545588
 11
4723.23527507839
 21
1028.65034317395
 31
0.0000000000545588
  0
ARC
  5
185B
330
1F
100
AcDbEntity
  8
SANINDUSA
100
AcDbCircle
 10
4723.234275078389
 20
1028.65034317395
 30
0.0000000000545588
 40
0.001
100
AcDbArc
 50
0.0
 51
90.0
  0
LWPOLYLINE
  5
185C
330
1F
100
AcDbEntity
  8
SANINDUSA
100
AcDbPolyline
 90
        2
 70
     0
 43
0.0
 10
4723.23527507839
 20
1028.63774317395
 10
4723.182275078388
 20
1028.63774317395
1001
GENIUS_GENREC_14
1002
{
1000
PYDIR
1011
4722.93599282131
1021
1028.316707422084
1031
0.0000000000545588
1002
}
1002
{
1000
PXDIR
1011
4722.88299282131
1021
1028.315707422084
1031
0.0000000000545588
1002
}
1002
{
1000
PORI
1011
4722.93599282131
1021
1028.315707422084
1031
0.0000000000545588
1002
}
1002
{
1000
PINS
1011
4722.93599282131
1021
1028.315707422084
1031
0.0000000000545588
1002
}
1002
{
1000
PINS2
1011
4722.88299282131
1021
1028.316707422084
1031
0.0000000000545588
1002
}
1002
{
1000
C
1070
     1
1002
}
1001
GENIUS_GENODEF_13
1002
{
1000
HIER
1070
     0
1002
}
1002
{
1000
MANEDIT
1070
     0
1002
}
1002
{
1000
NOSEL
1070
     0
1002
}
1002
{
1000
BEHIND
1070
     0
1002
}
1002
{
1000
REACTOR
1002
}
1001
GENIUS_GENOBJ-N-REC_13
1002
{
1000
OWNER
1000
GEN
1002
}
  0
LWPOLYLINE
  5
185D
330
1F
100
AcDbEntity
  8
SANINDUSA
100
AcDbPolyline
 90
        2
 70
     0
 43
0.0
 10
4723.182275078388
 20
1028.63874317395
 10
4723.23527507839
 20
1028.63874317395
1001
GENIUS_GENREC_14
1002
{
1000
PYDIR
1011
4722.93599282131
1021
1028.316707422084
1031
0.0000000000545588
1002
}
1002
{
1000
PXDIR
1011
4722.88299282131
1021
1028.315707422084
1031
0.0000000000545588
1002
}
1002
{
1000
PORI
1011
4722.93599282131
1021
1028.315707422084
1031
0.0000000000545588
1002
}
1002
{
1000
PINS
1011
4722.93599282131
1021
1028.315707422084
1031
0.0000000000545588
1002
}
1002
{
1000
PINS2
1011
4722.88299282131
1021
1028.316707422084
1031
0.0000000000545588
1002
}
1002
{
1000
C
1070
     1
1002
}
1001
GENIUS_GENODEF_13
1002
{
1000
HIER
1070
     0
1002
}
1002
{
1000
MANEDIT
1070
     0
1002
}
1002
{
1000
NOSEL
1070
     0
1002
}
1002
{
1000
BEHIND
1070
     0
1002
}
1002
{
1000
REACTOR
1002
}
1001
GENIUS_GENOBJ-N-REC_13
1002
{
1000
OWNER
1000
GEN
1002
}
  0
LWPOLYLINE
  5
185E
330
1F
100
AcDbEntity
  8
SANINDUSA
100
AcDbPolyline
 90
        4
 70
     1
 43
0.0
 10
4723.23527507839
 20
1028.64614317395
 10
4723.182275078388
 20
1028.64614317395
 10
4723.182275078388
 20
1028.64514317395
 10
4723.23527507839
 20
1028.64514317395
1001
GENIUS_GENREC_14
1002
{
1000
PYDIR
1011
4722.93599282131
1021
1028.316907422084
1031
0.0000000000545588
1002
}
1002
{
1000
PXDIR
1011
4722.88299282131
1021
1028.315907422084
1031
0.0000000000545588
1002
}
1002
{
1000
PORI
1011
4722.93599282131
1021
1028.315907422084
1031
0.0000000000545588
1002
}
1002
{
1000
PINS
1011
4722.93599282131
1021
1028.315907422084
1031
0.0000000000545588
1002
}
1002
{
1000
PINS2
1011
4722.88299282131
1021
1028.316907422084
1031
0.0000000000545588
1002
}
1002
{
1000
C
1070
     1
1002
}
1001
GENIUS_GENODEF_13
1002
{
1000
HIER
1070
     0
1002
}
1002
{
1000
MANEDIT
1070
     0
1002
}
1002
{
1000
NOSEL
1070
     0
1002
}
1002
{
1000
BEHIND
1070
     0
1002
}
1002
{
1000
REACTOR
1002
}
1001
GENIUS_GENOBJ-N-REC_13
1002
{
1000
OWNER
1000
GEN
1002
}
  0
LINE
  5
185F
330
1F
100
AcDbEntity
  8
SANINDUSA
100
AcDbLine
 10
4723.234275078389
 20
1028.65134317395
 30
0.0000000000545588
 11
4723.183275078389
 21
1028.65134317395
 31
0.0000000000545588
  0
LINE
  5
1860
330
1F
100
AcDbEntity
  8
SANINDUSA
100
AcDbLine
 10
4723.176163967277
 20
1028.627543121656
 30
0.0000000000545588
 11
4723.234275078389
 21
1028.627543121656
 31
0.0000000000545588
  0
LINE
  5
1861
330
1F
100
AcDbEntity
  8
SANINDUSA
100
AcDbLine
 10
4723.23527507839
 20
1028.63754317395
 30
0.0000000000545588
 11
4723.182275078388
 21
1028.63754317395
 31
0.0000000000545588
  0
LINE
  5
1862
330
1F
100
AcDbEntity
  8
SANINDUSA
100
AcDbLine
 10
4723.182275078388
 20
1028.64634317395
 30
0.0000000000545588
 11
4723.23527507839
 21
1028.64634317395
 31
0.0000000000545588
  0
LINE
  5
1865
330
1F
100
AcDbEntity
  8
SANINDUSA
100
AcDbLine
 10
4722.646952031602
 20
1028.644943185498
 30
0.0
 11
4723.165775078388
 21
1028.644943185498
 31
0.0000000000545588
  0
LINE
  5
1866
330
1F
100
AcDbEntity
  8
SANINDUSA
100
AcDbLine
 10
4722.646952031602
 20
1028.638943185498
 30
0.0000000000467297
 11
4723.165775078388
 21
1028.638943185498
 31
0.0000000000400096
  0
REGION
  5
1867
330
1F
100
AcDbEntity
  8
SANINDUSA
100
AcDbModelerGeometry
 70
     1
  1
koo hi n o          
  1
ni ^ *+0;:,4 ^ *+0\^ [ nf ^ LR mnjqoqoqkmnk QK o  
  1
n fqfffffffffffffffj:rooh n:rono 
  1
=0;& {rn {n {rn {rn |
  1
3*2/ {rn {rn {m {o |
  1
,7:33 {rn {rn {rn {l {rn {n |
  1
9><: {rn {rn {k {m {rn {j -:):-,:; ;0*=3: 0*+ |
  1
300/ {rn {rn {i {l |
  1
/3>1:r,*-9><: {rn khmmqioknmhmmmgmih nomgqilgjfjmmhooli rkqjkhkhljogfilfomh:roni o o rn roqoon rnqmmkioiljlgmmlhhm:ronf o -:):-,:@) V V V V |
  1
<0:;8: {rn {h {g {rn {f -:):-,:; {k {rn |
  1
<0:;8: {rn {no {i {rn {nn 90-(>-; {k {rn |
  1
<0:;8: {rn {i {nm {rn {nl 90-(>-; {k {rn |
  1
:;8: {rn {nk {nj {i {ni 90-(>-; |
  1
<0:;8: {rn {nh {h {rn {ng -:):-,:; {k {rn |
  1
:;8: {rn {nk {nf {h {mo 90-(>-; |
  1
<0:;8: {rn {g {mn {rn {mm -:):-,:; {k {rn |
  1
:;8: {rn {ml {nj {g {mk 90-(>-; |
  1
):-+:' {rn {f {mj |
  1
):-+:' {rn {f {mi |
  1
,+->687+r<*-): {rn khmmqionfgooohgknn nomgqimihniifomjhk o rfqimjkigimhjginlnl:rong oqoon o V V |
  1
<0:;8: {rn {mh {no {rn {mg 90-(>-; {k {rn |
  1
:;8: {rn {mf {nf {no {lo 90-(>-; |
  1
):-+:' {rn {ng {ln |
  1
,+->687+r<*-): {rn khmmqionfgooohgknn nomgqimihniifomjhk o oqoon nqnlfliiiiknjjnjgg:roni o V V |
  1
<0:;8: {rn {nm {lm {rn {ll 90-(>-; {k {rn |
  1
:;8: {rn {ml {lk {nm {lj 90-(>-; |
  1
):-+:' {rn {nl {li |
  1
,+->687+r<*-): {rn khmmqiomfgooohgknl nomgqijoiklngjkfml o roqoon mqgmffmkghfjonjlnn:ronh o V V |
  1
/061+ {rn khmmqionfgooohgknn nomgqimihniifomjhk o |
  1
/061+ {rn khmmqionfgooohgknn nomgqijoiklngjkfml o |
  1
<0:;8: {rn {lh {nh {rn {lg 90-(>-; {k {rn |
  1
:;8: {rn {mf {lf {nh {ko 90-(>-; |
  1
):-+:' {rn {mg {kn |
  1
:336/,:r<*-): {rn khmmqiomfhgggghjli nomgqimhhniifomjhl o o o rn oqoooffffffffffffggik nqmmkioiljlgmmmlhg:ronf o n V V |
  1
/061+ {rn khmmqiomfhgggghjli nomgqimihniifomjhk o |
  1
<0:;8: {rn {mn {km {rn {kl 90-(>-; {k {rn |
  1
:;8: {rn {kk {lk {mn {kj 90-(>-; |
  1
):-+:' {rn {mm {ki |
  1
:336/,:r<*-): {rn khmmqiomfgooohgknl nomgqikfiklngjkfmn o o o rn oqoooffffffffffffggik nqmmkioiljlgmmmlhg:ronf o n V V |
  1
/061+ {rn khmmqiomfgooohgknl nomgqijoiklngjkfml o |
  1
<0:;8: {rn {kh {mh {rn {kg 90-(>-; {k {rn |
  1
:;8: {rn {lf {kf {mh {jo 90-(>-; |
  1
):-+:' {rn {lg {jn |
  1
,+->687+r<*-): {rn khmmqiolfhggkjloil nomgqimhhohligiokm o fqlmnijlooiinfggni:rooi oqoooffffjijjmkkghihkg o V V |
  1
/061+ {rn khmmqiolfhggkjloil nomgqimhhohligiokm o |
  1
<0:;8: {rn {lm {jm {rn {jl 90-(>-; {k {rn |
  1
:;8: {rn {jk {kk {lm {jj 90-(>-; |
  1
):-+:' {rn {ll {ji |
  1
,+->687+r<*-): {rn khmmqiolfgooohgknj nomgqikgijhlffojki o rnqmmkioiljlgmmlhhm:ronf oqoon o V V |
  1
/061+ {rn khmmqiolfgooohgknj nomgqikfiklngjkfmn o |
  1
<0:;8: {rn {jh {lh {rn {jg -:):-,:; {k {rn |
  1
:;8: {rn {kf {jf {lh {io 90-(>-; |
  1
):-+:' {rn {kg {in |
  1
:336/,:r<*-): {rn khmmqiojlljjhilnmk nomgqimgkmlnmhgjfi o o o rn oqoonlkfffffffffffiff nqijlmngjhhiionhnn:ronf o n V V |
  1
/061+ {rn khmmqiolfgjilkfiim nomgqimgkljhnmofnm o |
  1
<0:;8: {rn {km {jh {rn {im -:):-,:; {k {rn |
  1
:;8: {rn {il {jk {km {ik 90-(>-; |
  1
):-+:' {rn {kl {ij |
  1
:336/,:r<*-): {rn khmmqiojllooohgknn nomgqikgijhlffojki o o o rn oqoonlkffffffffffhjlh nqijlmngjhhijffog:ronf o n V V |
  1
/061+ {rn khmmqiolfgooohgknj nomgqikgijhlffojki o |
  1
<0:;8: {rn {jm {kh {rn {ii 90-(>-; {k {rn |
  1
:;8: {rn {ih {jf {kh {ig 90-(>-; |
  1
):-+:' {rn {jg {if |
  1
,+->687+r<*-): {rn khmmqioklgmkhnnfkm nomgqimflhfmoghlm o oqooohogmogojljfkmkmn oqooohoioolhfofkngkkmm o V V |
  1
/061+ {rn khmmqioklgmkhnnfkm nomgqimflhfmoghlm o |
  1
:;8: {rn {il {ho {jm {hn 90-(>-; |
  1
):-+:' {rn {jl {hm |
  1
,+->687+r<*-): {rn khmmqiojmgfimhmkfj nomgqikihggjfnllhi o roqooohohnoihgnngijgokh oqooohohnoihgnngijnkjj o V V |
  1
/061+ {rn khmmqioklhjknligil nomgqikhhomgokfoon o |
  1
:;8: {rn {ih {ho {jh {hl 90-(>-; |
  1
):-+:' {rn {ii {hk |
  1
:336/,:r<*-): {rn khmmqiokglooohgkn nomgqilohklningloh o o o rn oqoooijoooooooooolnhn hqfjffknmffgkfllig:romo o n V V |
  1
/061+ {rn khmmqiojmggfnolojh nomgqilomgmgmijfjh o |
  1
):-+:' {rn {im {hj |
  1
:336/,:r<*-): {rn khmmqiokglooohgkn nomgqikilmgfhnfmfh o o o rn oqoooijoooooooooominkg hqfjffknmffgkgijih:romo o n V V |
  1
/061+ {rn khmmqiojmgfimhmkfj nomgqikihggjfnllhi o |
  1
,+->687+r<*-): {rn khmmqiojkgooohgkof nomgqilohklningloh o rnqmmkioiljlgmmlhhm:ronf oqoon o V V |
  1
/061+ {rn khmmqiojkgooohgkof nomgqilohklningloh o |
  1
/061+ {rn khmmqiojkgooohgkof nomgqikilmgfhnfmfh o |
  0
LINE
  5
1868
330
1F
100
AcDbEntity
  8
SANINDUSA
100
AcDbLine
 10
4722.646952031602
 20
1028.638943185498
 30
0.0
 11
4722.646952031602
 21
1028.644943185498
 31
0.0
  0
REGION
  5
1869
330
1F
100
AcDbEntity
  8
SANINDUSA
100
AcDbModelerGeometry
 70
     1
  1
koo nji n o         
  1
ni ^ *+0;:,4 ^ *+0\^ [ nf ^ LR mnjqoqoqkmnk QK o  
  1
n fqfffffffffffffffj:rooh n:rono 
  1
=0;& {rn {n {rn {rn |
  1
3*2/ {rn {rn {m {o |
  1
,7:33 {rn {rn {rn {l {rn {n |
  1
9><: {rn {rn {k {m {rn {j 90-(>-; ;0*=3: 0*+ |
  1
300/ {rn {rn {i {l |
  1
/3>1:r,*-9><: {rn khmmqikhhlgignllnm nomgqiknfklngjkfhh o o o n oqoon mqglmhkfmmininjong:ronf o -:):-,:@) V V V V |
  1
<0:;8: {rn {h {g {rn {f -:):-,:; {k {rn |
  1
<0:;8: {rn {no {i {rn {nn 90-(>-; {k {rn |
  1
<0:;8: {rn {i {nm {rn {nl 90-(>-; {k {rn |
  1
:;8: {rn {nk {nj {i {ni 90-(>-; |
  1
<0:;8: {rn {nh {h {rn {ng -:):-,:; {k {rn |
  1
:;8: {rn {nk {nf {h {mo 90-(>-; |
  1
<0:;8: {rn {g {mn {rn {mm -:):-,:; {k {rn |
  1
:;8: {rn {ml {nj {g {mk 90-(>-; |
  1
):-+:' {rn {f {mj |
  1
):-+:' {rn {f {mi |
  1
,+->687+r<*-): {rn khmmqijkkjjmljnlmk nomgqikjfklngjkfhg o roqoon nqomogllmiioofnjg:ronh o V V |
  1
<0:;8: {rn {mh {no {rn {mg 90-(>-; {k {rn |
  1
:;8: {rn {mf {nf {no {lo 90-(>-; |
  1
):-+:' {rn {ng {ln |
  1
:336/,:r<*-): {rn khmmqijkkjjmljnlmk nomgqikjkklngjkfhh o o o rn oqooojooooooooooonligk nqknilhkinlogoglkf:ronf o n V V |
  1
<0:;8: {rn {nm {lm {rn {ll 90-(>-; {k {rn |
  1
:;8: {rn {ml {lk {nm {lj 90-(>-; |
  1
):-+:' {rn {nl {li |
  1
:336/,:r<*-): {rn khmmqijnhiiimnfgmj nomgqikjkklngjkfhh o o o rn oqooojoooooooooooomgjm nqknilhkinlogohigh:ronf o n V V |
  1
/061+ {rn khmmqijkkjjmljnlmk nomgqikjfklngjkfhg o |
  1
/061+ {rn khmmqijnhiiimnfgmj nomgqikjfklngjkfhg o |
  1
<0:;8: {rn {lh {nh {rn {lg -:):-,:; {k {rn |
  1
:;8: {rn {mf {lf {nh {ko 90-(>-; |
  1
):-+:' {rn {mg {kn |
  1
:336/,:r<*-): {rn khmmqijjglooohgknk nomgqikioklngjkfhg o o o rn oqoooffffffffffffghjlk mqglmhkfmmininkmkg:ronf o n V V |
  1
/061+ {rn khmmqijkfnlkfmhomh nomgqikjiklngjkfhi o |
  1
<0:;8: {rn {mn {km {rn {kl -:):-,:; {k {rn |
  1
:;8: {rn {kk {lk {mn {kj 90-(>-; |
  1
):-+:' {rn {mm {ki |
  1
:336/,:r<*-): {rn khmmqijoljmkogkmon nomgqikjfklngjkfhg o o o rn oqooofffffffffffffhlhg lqfkmfhmmjohgiikmj:ronf o n V V |
  1
/061+ {rn khmmqijnmfjmnhkinh nomgqikjiofgjmnikk o |
  1
<0:;8: {rn {kh {mh {rn {kg 90-(>-; {k {rn |
  1
:;8: {rn {kf {lf {mh {jo 90-(>-; |
  1
):-+:' {rn {lg {jn |
  1
,+->687+r<*-): {rn khmmqijiglooohgkni nomgqikioklngjkfhg o rnqhmmjmimonjlilkjg:ronf oqoonoooooooooooooooj o V V |
  1
/061+ {rn khmmqijiglooohgkni nomgqikioklngjkfhg o |
  1
<0:;8: {rn {lm {jm {rn {jl 90-(>-; {k {rn |
  1
:;8: {rn {kk {jk {lm {jj 90-(>-; |
  1
):-+:' {rn {ll {ji |
  1
:336/,:r<*-): {rn khmmqikgflgnfkgjhh nomgqikjkklngjkfhh o o o rn oqoookffffffffffffkjg nqknilhkinlogohnhf:ronf o n V V |
  1
/061+ {rn khmmqikfkofjfflhgj nomgqikjiofgjmnikk o |
  1
<0:;8: {rn {jh {lh {rn {jg -:):-,:; {k {rn |
  1
:;8: {rn {kf {jf {lh {io 90-(>-; |
  1
):-+:' {rn {kg {in |
  1
:336/,:r<*-): {rn khmmqijjglooohgknk nomgqikifklngjkfhg o o o rn oqoooffffffffffffghfmk mqglmhkfmmininkmhh:ronf o n V V |
  1
/061+ {rn khmmqijiglooohgkni nomgqikifklngjkfhg o |
  1
<0:;8: {rn {km {im {rn {il -:):-,:; {k {rn |
  1
:;8: {rn {ik {jk {km {ij 90-(>-; |
  1
):-+:' {rn {kl {ii |
  1
,+->687+r<*-): {rn khmmqikgflgnfkgjhh nomgqikjfklngjkfhg o roqoon rmqglmhkfmmininjong:ronf o V V |
  1
/061+ {rn khmmqikgflgnfkgjhh nomgqikjfklngjkfhg o |
  1
<0:;8: {rn {ih {kh {rn {ig 90-(>-; {k {rn |
  1
:;8: {rn {if {jf {kh {ho 90-(>-; |
  1
):-+:' {rn {jg {hn |
  1
,+->687+r<*-): {rn khmmqijjglooohgknk nomgqikhfklngjkfhg o roqoon rnqnhnkjllkmlnimhji:rong o V V |
  1
/061+ {rn khmmqijjglooohgknk nomgqikhfklngjkfhg o |
  1
<0:;8: {rn {jm {hm {rn {hl 90-(>-; {k {rn |
  1
:;8: {rn {ik {hk {jm {hj 90-(>-; |
  1
):-+:' {rn {jl {hi |
  1
:336/,:r<*-): {rn khmmqikhljmolnionl nomgqikjkklngjkfhh o o o rn oqooojooooooooooooooon nqknilhkinlogohjof:ronf o n V V |
  1
/061+ {rn khmmqikhljmolnionl nomgqikjfklngjkfhg o |
  1
<0:;8: {rn {hh {jh {rn {hg 90-(>-; {k {rn |
  1
:;8: {rn {if {hf {jh {go 90-(>-; |
  1
):-+:' {rn {ig {gn |
  1
:336/,:r<*-): {rn khmmqimkllooohgknl nomgqikifklngjkfhg o o o rn oqoon mqglmhkfmmininjong:ronf o n V V |
  1
/061+ {rn khmmqimkllooohgknl nomgqikhfklngjkfhg o |
  1
<0:;8: {rn {im {gm {rn {gl -:):-,:; {k {rn |
  1
:;8: {rn {gk {hk {im {gj 90-(>-; |
  1
):-+:' {rn {il {gi |
  1
,+->687+r<*-): {rn khmmqikigjmolnionm nomgqikjkklngjkfhh o lqmhonhghmknihohmi:ronh roqoonoooooooooooooooj o V V |
  1
/061+ {rn khmmqikigjmolnionm nomgqikjkklngjkfhh o |
  1
<0:;8: {rn {gh {ih {rn {gg 90-(>-; {k {rn |
  1
:;8: {rn {hf {gf {ih {fo 90-(>-; |
  1
):-+:' {rn {hg {fn |
  1
,+->687+r<*-): {rn khmmqimkllooohgknl nomgqikjfklngjkfhg o oqoon nqnhngjhmohimjjmil:ronh o V V |
  1
/061+ {rn khmmqimkllooohgknl nomgqikjfklngjkfhg o |
  1
<0:;8: {rn {hm {fm {rn {fl 90-(>-; {k {rn |
  1
:;8: {rn {gk {fk {hm {fj 90-(>-; |
  1
):-+:' {rn {hl {fi |
  1
:336/,:r<*-): {rn khmmqikhljmolnionl nomgqilgkklngjkfhi o o o rn oqooojooooooooooooooon nqknilhkinlogohjof:ronf o n V V |
  1
/061+ {rn khmmqikigjmolnionm nomgqilgkklngjkfhi o |
  1
<0:;8: {rn {fh {hh {rn {fg 90-(>-; {k {rn |
  1
:;8: {rn {gf {ff {hh {noo 90-(>-; |
  1
):-+:' {rn {gg {non |
  1
:336/,:r<*-): {rn khmmqikkljmolnioni nomgqikjkklngjkfhh o o o rn oqooojooooooooooonnfni nqknilhkinlogogmkn:ronf o n V V |
  1
/061+ {rn khmmqikkljmolnioni nomgqikjfklngjkfhg o |
  1
<0:;8: {rn {gm {nom {rn {nol -:):-,:; {k {rn |
  1
:;8: {rn {nok {fk {gm {noj 90-(>-; |
  1
):-+:' {rn {gl {noi |
  1
,+->687+r<*-): {rn khmmqikhljmolnionl nomgqilhfklngjkfhg o oqoonoooooooooooooooj rnqhjljgokimminhinm:ronh o V V |
  1
/061+ {rn khmmqikhljmolnionl nomgqilhfklngjkfhg o |
  1
<0:;8: {rn {noh {gh {rn {nog 90-(>-; {k {rn |
  1
:;8: {rn {ff {nof {gh {nno 90-(>-; |
  1
):-+:' {rn {fg {nnn |
  1
,+->687+r<*-): {rn khmmqikkgjmolnionh nomgqikjkklngjkfhh o nqilmjffhimgkkfiij:ronh roqoonoooooooooooooooj o V V |
  1
/061+ {rn khmmqikkgjmolnionh nomgqikjkklngjkfhh o |
  1
<0:;8: {rn {fm {nnm {rn {nnl 90-(>-; {k {rn |
  1
:;8: {rn {nok {nnk {fm {nnj 90-(>-; |
  1
):-+:' {rn {fl {nni |
  1
:336/,:r<*-): {rn khmmqikgflgnfkgjhh nomgqilgkklngjkfhi o o o rn oqooojoooooooooooomgjm nqknilhkinlogohigh:ronf o n V V |
  1
/061+ {rn khmmqikgflgnfkgjhh nomgqilhfklngjkfhg o |
  1
<0:;8: {rn {nnh {fh {rn {nng -:):-,:; {k {rn |
  1
:;8: {rn {nof {nnf {fh {nmo 90-(>-; |
  1
):-+:' {rn {nog {nmn |
  1
:336/,:r<*-): {rn khmmqikkljmolnioni nomgqilgkklngjkfhi o o o rn oqooojooooooooooonoig nqiflflolifmlhnojj:ronf o n V V |
  1
/061+ {rn khmmqikkgjmolnionh nomgqilgkklngjkfhi o |
  1
<0:;8: {rn {nom {nmm {rn {nml -:):-,:; {k {rn |
  1
:;8: {rn {nmk {nnk {nom {nmj 90-(>-; |
  1
):-+:' {rn {nol {nmi |
  1
:336/,:r<*-): {rn khmmqijoljmkogkmon nomgqilhfklngjkfhg o o o rn oqoooffffffffffffffmij lqlghgiohlgkhkohil:ronf o n V V |
  1
/061+ {rn khmmqikfkofjfflhgj nomgqilgmhijngglnm o |
  1
<0:;8: {rn {nmh {noh {rn {nmg 90-(>-; {k {rn |
  1
:;8: {rn {nmf {nnf {noh {nlo 90-(>-; |
  1
):-+:' {rn {nng {nln |
  1
,+->687+r<*-): {rn khmmqikkljmolnioni nomgqilhfklngjkfhg o roqoonoooooooooooooooj rnqhmijikgjkimggjkm:rong o V V |
  1
/061+ {rn khmmqikkljmolnioni nomgqilhfklngjkfhg o |
  1
<0:;8: {rn {nnm {nlm {rn {nll 90-(>-; {k {rn |
  1
:;8: {rn {nmk {nlk {nnm {nlj 90-(>-; |
  1
):-+:' {rn {nnl {nli |
  1
:336/,:r<*-): {rn khmmqijnhiiimnfgmj nomgqilgkklngjkfhi o o o rn oqoookffffffffffffikhh nqnlggnggjifmkkkok:ronf o n V V |
  1
/061+ {rn khmmqijnmfjmnhkinh nomgqilgmhijngglnm o |
  1
<0:;8: {rn {nlh {nnh {rn {nlg -:):-,:; {k {rn |
  1
:;8: {rn {nmf {nlf {nnh {nko 90-(>-; |
  1
):-+:' {rn {nmg {nkn |
  1
:336/,:r<*-): {rn khmmqimkllooohgknl nomgqilifklngjkfhg o o o rn oqoon mqglmhkfmmininjong:ronf o n V V |
  1
/061+ {rn khmmqimkllooohgknl nomgqilhfklngjkfhg o |
  1
<0:;8: {rn {nmm {nlh {rn {nkm -:):-,:; {k {rn |
  1
:;8: {rn {nkl {nlk {nmm {nkk 90-(>-; |
  1
):-+:' {rn {nml {nkj |
  1
,+->687+r<*-): {rn khmmqijnhiiimnfgmj nomgqilhfklngjkfhg o oqoonoooooooooooooooj fqiofnkglmfkihkikh:rong o V V |
  1
/061+ {rn khmmqijnhiiimnfgmj nomgqilhfklngjkfhg o |
  1
<0:;8: {rn {nlm {nmh {rn {nki 90-(>-; {k {rn |
  1
:;8: {rn {nkh {nlf {nmh {nkg 90-(>-; |
  1
):-+:' {rn {nlg {nkf |
  1
,+->687+r<*-): {rn khmmqimkllooohgknl nomgqiljfklngjkfhg o oqoon nqnhnkjllkmlnimhji:rong o V V |
  1
/061+ {rn khmmqimkllooohgknl nomgqiljfklngjkfhg o |
  1
:;8: {rn {nkl {njo {nlm {njn 90-(>-; |
  1
):-+:' {rn {nll {njm |
  1
:336/,:r<*-): {rn khmmqijkkjjmljnlmk nomgqilgkklngjkfhi o o o rn oqooojoooooooooooognnn nqnlggnggjifmkjnni:ronf o n V V |
  1
/061+ {rn khmmqijkkjjmljnlmk nomgqilhfklngjkfhg o |
  1
:;8: {rn {nkh {njo {nlh {njl 90-(>-; |
  1
):-+:' {rn {nki {njk |
  1
:336/,:r<*-): {rn khmmqijjglooohgknk nomgqilifklngjkfhg o o o rn oqoonoooooooooooonnli mqglmhkfmmininjhnm:ronf o n V V |
  1
/061+ {rn khmmqijjglooohgknk nomgqiljfklngjkfhg o |
  1
):-+:' {rn {nkm {njj |
  1
:336/,:r<*-): {rn khmmqijjglooohgknk nomgqilhgklngjkfhg o o o rn oqoooffffffffffffflioj mqglmhkfmmininkimg:ronf o n V V |
  1
/061+ {rn khmmqijkfnlkfmhomh nomgqilgmklngjkfhh o |
  1
,+->687+r<*-): {rn khmmqijiglooohgkni nomgqilifklngjkfhg o rnqhmmjmimonjlilkjg:ronf oqoonoooooooooooooooj o V V |
  1
/061+ {rn khmmqijiglooohgkni nomgqilifklngjkfhg o |
  1
/061+ {rn khmmqijiglooohgkni nomgqilhgklngjkfhg o |
  0
REGION
  5
186A
330
1F
100
AcDbEntity
  8
SANINDUSA
100
AcDbModelerGeometry
 70
     1
  1
koo nji n o         
  1
ni ^ *+0;:,4 ^ *+0\^ [ nf ^ LR mnjqoqoqkmnk QK o  
  1
n fqfffffffffffffffj:rooh n:rono 
  1
=0;& {rn {n {rn {rn |
  1
3*2/ {rn {rn {m {o |
  1
,7:33 {rn {rn {rn {l {rn {n |
  1
9><: {rn {rn {k {m {rn {j 90-(>-; ;0*=3: 0*+ |
  1
300/ {rn {rn {i {l |
  1
/3>1:r,*-9><: {rn khmmqinllfofjinkjg nomgqilgimgllkonhl o o o n oqoon mqglmhkfmmininjong:ronf o -:):-,:@) V V V V |
  1
<0:;8: {rn {h {g {rn {f -:):-,:; {k {rn |
  1
<0:;8: {rn {no {i {rn {nn -:):-,:; {k {rn |
  1
<0:;8: {rn {i {nm {rn {nl -:):-,:; {k {rn |
  1
:;8: {rn {nk {nj {i {ni 90-(>-; |
  1
<0:;8: {rn {nh {h {rn {ng -:):-,:; {k {rn |
  1
:;8: {rn {nf {nk {h {mo 90-(>-; |
  1
<0:;8: {rn {g {mn {rn {mm -:):-,:; {k {rn |
  1
:;8: {rn {nj {ml {g {mk 90-(>-; |
  1
):-+:' {rn {f {mj |
  1
):-+:' {rn {f {mi |
  1
:336/,:r<*-): {rn khmmqiojllooohgknn nomgqikfiklngjkfhg o o o rn roqooohohnoihgnngilghni oqooohohnoihgnngijkhjn o n V V |
  1
<0:;8: {rn {mh {no {rn {mg -:):-,:; {k {rn |
  1
:;8: {rn {mf {nf {no {lo 90-(>-; |
  1
):-+:' {rn {ng {ln |
  1
,+->687+r<*-): {rn khmmqiokllooohgkng nomgqikgijhlffoion o rnqhmmjmimonjlilkjg:ronf oqoonoooooooooooooooj o V V |
  1
<0:;8: {rn {nm {lm {rn {ll -:):-,:; {k {rn |
  1
:;8: {rn {ml {lk {nm {lj 90-(>-; |
  1
):-+:' {rn {nl {li |
  1
,+->687+r<*-): {rn khmmqiojllooohgknn nomgqijoiklngjkfhg o oqoon mqglmhkfmmininjong:ronf o V V |
  1
/061+ {rn khmmqiokllooohgkng nomgqikfiklngjkfhg o |
  1
/061+ {rn khmmqiojllooohgknn nomgqijoiklngjkfhg o |
  1
<0:;8: {rn {lh {nh {rn {lg -:):-,:; {k {rn |
  1
:;8: {rn {lf {mf {nh {ko 90-(>-; |
  1
):-+:' {rn {mg {kn |
  1
:336/,:r<*-): {rn khmmqiojllooohgknn nomgqikgijhlffoion o o o rn roqooofmlghfjlmjnnjhigf roqooolgmiglklmlijmoffh o n V V |
  1
/061+ {rn khmmqiokllooohgkng nomgqikgijhlffoion o |
  1
<0:;8: {rn {mn {km {rn {kl -:):-,:; {k {rn |
  1
:;8: {rn {lk {kk {mn {kj 90-(>-; |
  1
):-+:' {rn {mm {ki |
  1
:336/,:r<*-): {rn khmmqikoljllnnfhlh nomgqikfiklngjkfhg o o o rn oqoon mqglmhkfmmininjong:ronf o n V V |
  1
/061+ {rn khmmqikoljllnnfhlh nomgqijoiklngjkfhg o |
  1
<0:;8: {rn {kh {mh {rn {kg -:):-,:; {k {rn |
  1
:;8: {rn {kf {lf {mh {jo 90-(>-; |
  1
):-+:' {rn {lg {jn |
  1
,+->687+r<*-): {rn khmmqiojjlhnnkimmm nomgqikholiohghnii o roqooohohnoihgnngiimkgm oqooohohnoihgnngikhokl o V V |
  1
/061+ {rn khmmqiokimmfonojff nomgqikhfjomfmmhgf o |
  1
<0:;8: {rn {lm {jm {rn {jl -:):-,:; {k {rn |
  1
:;8: {rn {kk {jk {lm {jj 90-(>-; |
  1
):-+:' {rn {ll {ji |
  1
,+->687+r<*-): {rn khmmqikoljllnnfhlh nomgqikgiklngjkfhg o roqoonoooooooooooooooj hqhijgkmoojfnimljn:rong o V V |
  1
/061+ {rn khmmqikoljllnnfhlh nomgqikgiklngjkfhg o |
  1
<0:;8: {rn {jh {lh {rn {jg -:):-,:; {k {rn |
  1
:;8: {rn {jf {kf {lh {io 90-(>-; |
  1
):-+:' {rn {kg {in |
  1
:336/,:r<*-): {rn khmmqiokglooohgkn nomgqikilmgfhnfljk o o o n oqooofmlghfjlmjnnjgfol oqooolgmiglklmlijmnkhf o n V V |
  1
/061+ {rn khmmqiojjlhnnkimmm nomgqikholiohghnii o |
  1
<0:;8: {rn {km {im {rn {il -:):-,:; {k {rn |
  1
:;8: {rn {jk {ik {km {ij 90-(>-; |
  1
):-+:' {rn {kl {ii |
  1
:336/,:r<*-): {rn khmmqiogglooohgkng nomgqikhiklngjkfhg o o o n roqooohohnoihgnngijkhhl oqooohohnoihgnngijkhk o n V V |
  1
/061+ {rn khmmqiogglooohgkng nomgqikgiklngjkfhg o |
  1
<0:;8: {rn {ih {kh {rn {ig -:):-,:; {k {rn |
  1
:;8: {rn {if {jf {kh {ho 90-(>-; |
  1
):-+:' {rn {jg {hn |
  1
,+->687+r<*-): {rn khmmqiojglooohgknm nomgqikmfjlgkjiifi o rnqhmmjmimonjlilkjg:ronf oqoonoooooooooooooooj o V V |
  1
/061+ {rn khmmqiojglooohgknm nomgqikilmgfhnfljk o |
  1
<0:;8: {rn {jm {hm {rn {hl -:):-,:; {k {rn |
  1
:;8: {rn {ik {hk {jm {hj 90-(>-; |
  1
):-+:' {rn {jl {hi |
  1
,+->687+r<*-): {rn khmmqiohglooohgkni nomgqikhiklngjkfhg o nqhmmjmimonjlilkjg:ronf roqoonoooooooooooooooj o V V |
  1
/061+ {rn khmmqiohglooohgkni nomgqikhiklngjkfhg o |
  1
<0:;8: {rn {hh {jh {rn {hg -:):-,:; {k {rn |
  1
:;8: {rn {hf {if {jh {go 90-(>-; |
  1
):-+:' {rn {ig {gn |
  1
:336/,:r<*-): {rn khmmqioiogooohgknm nomgqikmfjlgkjiifi o o o rn roqooomlofifgglnmgnninf rfqjihogjgofnmlnifk:rooj o n V V |
  1
/061+ {rn khmmqiojglooohgknm nomgqikmfjlgkjiifi o |
  1
<0:;8: {rn {im {gm {rn {gl -:):-,:; {k {rn |
  1
:;8: {rn {hk {gk {im {gj 90-(>-; |
  1
):-+:' {rn {il {gi |
  1
:336/,:r<*-): {rn khmmqiogglooohgkng nomgqimfhglfffmmoj o o o n roqoooiflhnfjifojiohklh roqooohmomkjmohfolfjn o n V V |
  1
/061+ {rn khmmqiohglooohgkni nomgqimfhglfffmmoj o |
  1
<0:;8: {rn {gh {ih {rn {gg -:):-,:; {k {rn |
  1
:;8: {rn {gf {hf {ih {fo 90-(>-; |
  1
):-+:' {rn {hg {fn |
  1
,+->687+r<*-): {rn khmmqioilgljinmlmm nomgqikmmfihlggggl o roqooohohnoihgnngiinojn oqooohohnoihgnngikgkhk o V V |
  1
/061+ {rn khmmqiojfolmlnnkjf nomgqikmhhhoigfhkl o |
  1
<0:;8: {rn {hm {fm {rn {fl -:):-,:; {k {rn |
  1
:;8: {rn {gk {fk {hm {fj 90-(>-; |
  1
):-+:' {rn {hl {fi |
  1
:336/,:r<*-): {rn khmmqiojmlfgffkolk nomgqhmjklihkjnkmg o o o n oqonkgggmlgfilhjniok roqofjjihlklgiohgggfg o n V V |
  1
/061+ {rn khmmqioggihjnkni nomgqimghgkhomgl o |
  1
<0:;8: {rn {fh {hh {rn {fg -:):-,:; {k {rn |
  1
:;8: {rn {ff {gf {hh {noo 90-(>-; |
  1
):-+:' {rn {gg {non |
  1
:336/,:r<*-): {rn khmmqioiolooohgkni nomgqiknfklngjkfhh o o o n oqoookffffffffffffhkn rgqomnohjlfkjflhil:ronh o n V V |
  1
/061+ {rn khmmqioilgljinmlmm nomgqikmmfihlggggl o |
  1
<0:;8: {rn {gm {nom {rn {nol -:):-,:; {k {rn |
  1
:;8: {rn {fk {nok {gm {noj 90-(>-; |
  1
):-+:' {rn {gl {noi |
  1
:336/,:r<*-): {rn khmmqilnojofjgion nomgqilmhklngjkfhh o o o n oqoookfjlfhkhiigfkifjk iqhigjjfhljgoffokg:rooj o n V V |
  1
/061+ {rn khmmqilnngjoglifhl nomgqilmminjnogjgn o |
  1
<0:;8: {rn {noh {gh {rn {nog -:):-,:; {k {rn |
  1
:;8: {rn {nof {ff {gh {nno 90-(>-; |
  1
):-+:' {rn {fg {nnn |
  1
,+->687+r<*-): {rn khmmqiojfolmlnnkjf nomgqiknnoflomomnl o oqooohohnoihgnngiilnkl oqooohohnoihgnngikikmj o V V |
  1
/061+ {rn khmmqioilgljinmlmm nomgqiknjgfilmnohn o |
  1
<0:;8: {rn {fm {nnm {rn {nnl -:):-,:; {k {rn |
  1
:;8: {rn {nok {nnk {fm {nnj 90-(>-; |
  1
):-+:' {rn {fl {nni |
  1
,+->687+r<*-): {rn khmmqilnojofjgion nomgqillmklngjkfhg o roqoon rmqglmhkfmmininjong:ronf o V V |
  1
/061+ {rn khmmqilnojofjgion nomgqillmklngjkfhg o |
  1
<0:;8: {rn {nnh {fh {rn {nng -:):-,:; {k {rn |
  1
:;8: {rn {nnf {nof {fh {nmo 90-(>-; |
  1
):-+:' {rn {nog {nmn |
  1
:336/,:r<*-): {rn khmmqioiogooohgknm nomgqikoflmjmjlmi o o o rn roqooomlofifgglnmhgmlih fqjihogjgofnmlllgg:rooj o n V V |
  1
/061+ {rn khmmqiojfolmlnnkjf nomgqiknnoflomomnl o |
  1
<0:;8: {rn {nom {nmm {rn {nml -:):-,:; {k {rn |
  1
:;8: {rn {nnk {nmk {nom {nmj 90-(>-; |
  1
):-+:' {rn {nol {nmi |
  1
:336/,:r<*-): {rn khmmqingljllnnfhmf nomgqilkmklngjkfhg o o o rn roqoon rmqglmhkfmmininjong:ronf o n V V |
  1
/061+ {rn khmmqingljllnnfhmf nomgqillmklngjkfhg o |
  1
<0:;8: {rn {nmh {noh {rn {nmg -:):-,:; {k {rn |
  1
:;8: {rn {nmf {nnf {noh {nlo 90-(>-; |
  1
):-+:' {rn {nng {nln |
  1
,+->687+r<*-): {rn khmmqiojglooohgknm nomgqilohklninglin o rnqhmmjmimonjlilkjg:ronf oqoonoooooooooooooooj o V V |
  1
/061+ {rn khmmqiojglooohgknm nomgqikoflmjmjlmi o |
  1
<0:;8: {rn {nnm {nlm {rn {nll -:):-,:; {k {rn |
  1
:;8: {rn {nmk {nlk {nnm {nlj 90-(>-; |
  1
):-+:' {rn {nnl {nli |
  1
,+->687+r<*-): {rn khmmqingljllnnfhmf nomgqiljmklngjkfhg o oqoon nqihnojlhollfhjfjf:rong o V V |
  1
/061+ {rn khmmqingljllnnfhmf nomgqiljmklngjkfhg o |
  1
<0:;8: {rn {nlh {nnh {rn {nlg -:):-,:; {k {rn |
  1
:;8: {rn {nlf {nmf {nnh {nko 90-(>-; |
  1
):-+:' {rn {nmg {nkn |
  1
:336/,:r<*-): {rn khmmqiokglooohgkn nomgqilohklninglin o o o n oqooofmljgnonhmhjkofkl roqooolglkollngljfjkhgn o n V V |
  1
/061+ {rn khmmqiojglooohgknm nomgqilohklninglin o |
  1
<0:;8: {rn {nmm {nlh {rn {nkm -:):-,:; {k {rn |
  1
:;8: {rn {nlk {nkl {nmm {nkk 90-(>-; |
  1
):-+:' {rn {nml {nkj |
  1
:336/,:r<*-): {rn khmmqikoljllnnfhlh nomgqilkmklngjkfhg o o o rn oqooofglninmnnfhgihiff oqooongmhkollgljoffjjj o n V V |
  1
/061+ {rn khmmqikoljllnnfhlh nomgqiljmklngjkfhg o |
  1
<0:;8: {rn {nlm {nmh {rn {nki -:):-,:; {k {rn |
  1
:;8: {rn {nkh {nlf {nmh {nkg 90-(>-; |
  1
):-+:' {rn {nlg {nkf |
  1
,+->687+r<*-): {rn khmmqiokimfjhmjmof nomgqimfnlnlljfngg o oqooohogmogojljfknfhhi oqooohoioolhfofknggghg o V V |
  1
/061+ {rn khmmqiojjlionnilmj nomgqiloolkfjlhgmi o |
  1
:;8: {rn {nkl {njo {nlm {njn 90-(>-; |
  1
):-+:' {rn {nll {njm |
  1
:336/,:r<*-): {rn khmmqiojmlfgffkolk nomgqhmjklihkjnkmg o o o rn oqongogklgjjgfoogjf roqofhokfjljokmoghhfg o n V V |
  1
/061+ {rn khmmqikohnmilglfgl nomgqillloffhljiom o |
  1
:;8: {rn {njo {nkh {nlh {njl 90-(>-; |
  1
):-+:' {rn {nki {njk |
  1
:336/,:r<*-): {rn khmmqiojlljjhilnmk nomgqimgkmlnmhgijn o o o rn roqooofmnhglfgfimfinhik oqooolghholgjnkflgglln o n V V |
  1
/061+ {rn khmmqiokimfjhmjmof nomgqimfnlnlljfngg o |
  1
):-+:' {rn {nkm {njj |
  1
:336/,:r<*-): {rn khmmqiojlmgffogjfi nomgqimhhniifomimg o o o rn roqooohnoohlfljigjoojnj roqooohoknmhnmlliigkhif o n V V |
  1
/061+ {rn khmmqiojlmffomjioh nomgqimihniifoihgk o |
  1
,+->687+r<*-): {rn khmmqioklmfolklohh nomgqimhhmionnfnjh o fqlmnijlooiihoikmi:rooi oqoooffffjijjmkkghihoj o V V |
  1
/061+ {rn khmmqioklljinfhjfh nomgqimgklmkkfjngm o |
  1
/061+ {rn khmmqioklmfolklohh nomgqimhhmionnfnjh o |
  0
LINE
  5
186B
330
1F
100
AcDbEntity
  8
SANINDUSA
100
AcDbLine
 10
4723.099275078388
 20
1028.637543121656
 30
0.0000000000545588
 11
4723.099275078388
 21
1028.628543121656
 31
0.0000000000545588
  0
ARC
  5
186C
330
1F
100
AcDbEntity
  8
SANINDUSA
100
AcDbCircle
 10
4723.100275078389
 20
1028.628543121656
 30
0.0000000000545588
 40
0.001
100
AcDbArc
 50
180.0
 51
270.0
  0
LINE
  5
186D
330
1F
100
AcDbEntity
  8
SANINDUSA
100
AcDbLine
 10
4723.099275078388
 20
1028.63864317395
 30
0.0000000000545588
 11
4723.099275078388
 21
1028.63764317395
 31
0.0000000000545588
1001
GENIUS_GENREC_14
1002
{
1000
PYDIR
1011
4723.23527507839
1021
1028.63864317395
1031
0.0000000000545588
1002
}
1002
{
1000
PXDIR
1011
4723.182275078388
1021
1028.63764317395
1031
0.0000000000545588
1002
}
1002
{
1000
PORI
1011
4723.23527507839
1021
1028.63764317395
1031
0.0000000000545588
1002
}
1002
{
1000
PINS
1011
4723.23527507839
1021
1028.63764317395
1031
0.0000000000545588
1002
}
1002
{
1000
PINS2
1011
4723.182275078388
1021
1028.63864317395
1031
0.0000000000545588
1002
}
1002
{
1000
C
1070
     1
1002
}
1001
GENIUS_GENODEF_13
1002
{
1000
HIER
1070
     0
1002
}
1002
{
1000
MANEDIT
1070
     0
1002
}
1002
{
1000
NOSEL
1070
     0
1002
}
1002
{
1000
BEHIND
1070
     0
1002
}
1002
{
1000
REACTOR
1002
}
1001
GENIUS_GENOBJ-N-REC_13
1002
{
1000
OWNER
1000
GEN
1002
}
  0
LINE
  5
186E
330
1F
100
AcDbEntity
  8
SANINDUSA
100
AcDbLine
 10
4723.099275078388
 20
1028.64634317395
 30
0.0000000000545588
 11
4723.099275078388
 21
1028.65034317395
 31
0.0000000000545588
  0
ARC
  5
186F
330
1F
100
AcDbEntity
  8
SANINDUSA
100
AcDbCircle
 10
4723.100275078389
 20
1028.65034317395
 30
0.0000000000545588
 40
0.001
100
AcDbArc
 50
90.0
 51
180.0
  0
LINE
  5
1870
330
1F
100
AcDbEntity
  8
SANINDUSA
100
AcDbLine
 10
4723.152275078389
 20
1028.635543121656
 30
0.0000000000545588
 11
4723.152275078389
 21
1028.637543121656
 31
0.0000000000545588
  0
LINE
  5
1871
330
1F
100
AcDbEntity
  8
SANINDUSA
100
AcDbLine
 10
4723.152275078389
 20
1028.63764317395
 30
0.0000000000545588
 11
4723.152275078389
 21
1028.63864317395
 31
0.0000000000545588
1001
GENIUS_GENREC_14
1002
{
1000
PYDIR
1011
4723.23527507839
1021
1028.63864317395
1031
0.0000000000545588
1002
}
1002
{
1000
PXDIR
1011
4723.182275078388
1021
1028.63764317395
1031
0.0000000000545588
1002
}
1002
{
1000
PORI
1011
4723.23527507839
1021
1028.63764317395
1031
0.0000000000545588
1002
}
1002
{
1000
PINS
1011
4723.23527507839
1021
1028.63764317395
1031
0.0000000000545588
1002
}
1002
{
1000
PINS2
1011
4723.182275078388
1021
1028.63864317395
1031
0.0000000000545588
1002
}
1002
{
1000
C
1070
     1
1002
}
1001
GENIUS_GENODEF_13
1002
{
1000
HIER
1070
     0
1002
}
1002
{
1000
MANEDIT
1070
     0
1002
}
1002
{
1000
NOSEL
1070
     0
1002
}
1002
{
1000
BEHIND
1070
     0
1002
}
1002
{
1000
REACTOR
1002
}
1001
GENIUS_GENOBJ-N-REC_13
1002
{
1000
OWNER
1000
GEN
1002
}
  0
LINE
  5
1872
330
1F
100
AcDbEntity
  8
SANINDUSA
100
AcDbLine
 10
4723.152275078389
 20
1028.64634317395
 30
0.0000000000545588
 11
4723.152275078389
 21
1028.65034317395
 31
0.0000000000545588
  0
ARC
  5
1873
330
1F
100
AcDbEntity
  8
SANINDUSA
100
AcDbCircle
 10
4723.151275078389
 20
1028.65034317395
 30
0.0000000000545588
 40
0.001
100
AcDbArc
 50
0.0
 51
90.0
  0
LINE
  5
1874
330
1F
100
AcDbEntity
  8
SANINDUSA
100
AcDbLine
 10
4723.158386189499
 20
1028.627543121656
 30
0.0000000000545588
 11
4723.158386189499
 21
1028.635543121656
 31
0.0000000000545588
  0
LINE
  5
1875
330
1F
100
AcDbEntity
  8
SANINDUSA
100
AcDbLine
 10
4723.182275078388
 20
1028.63554317395
 30
0.0000000000545588
 11
4723.167275078389
 21
1028.635543121656
 31
0.0000000000545588
  0
LINE
  5
1876
330
1F
100
AcDbEntity
  8
SANINDUSA
100
AcDbLine
 10
4723.182275078388
 20
1028.63754317395
 30
0.0000000000545588
 11
4723.182275078388
 21
1028.63554317395
 31
0.0000000000545588
  0
LINE
  5
1877
330
1F
100
AcDbEntity
  8
SANINDUSA
100
AcDbLine
 10
4723.182275078388
 20
1028.63774317395
 30
0.0000000000545588
 11
4723.182275078388
 21
1028.63874317395
 31
0.0000000000545588
1001
GENIUS_GENREC_14
1002
{
1000
PYDIR
1011
4723.23527507839
1021
1028.63874317395
1031
0.0000000000545588
1002
}
1002
{
1000
PXDIR
1011
4723.182275078388
1021
1028.63774317395
1031
0.0000000000545588
1002
}
1002
{
1000
PORI
1011
4723.23527507839
1021
1028.63774317395
1031
0.0000000000545588
1002
}
1002
{
1000
PINS
1011
4723.23527507839
1021
1028.63774317395
1031
0.0000000000545588
1002
}
1002
{
1000
PINS2
1011
4723.182275078388
1021
1028.63874317395
1031
0.0000000000545588
1002
}
1002
{
1000
C
1070
     1
1002
}
1001
GENIUS_GENODEF_13
1002
{
1000
HIER
1070
     0
1002
}
1002
{
1000
MANEDIT
1070
     0
1002
}
1002
{
1000
NOSEL
1070
     0
1002
}
1002
{
1000
BEHIND
1070
     0
1002
}
1002
{
1000
REACTOR
1002
}
1001
GENIUS_GENOBJ-N-REC_13
1002
{
1000
OWNER
1000
GEN
1002
}
  0
LINE
  5
1878
330
1F
100
AcDbEntity
  8
SANINDUSA
100
AcDbLine
 10
4723.182275078388
 20
1028.64634317395
 30
0.0000000000545588
 11
4723.182275078388
 21
1028.65034317395
 31
0.0000000000545588
  0
LINE
  5
1879
330
1F
100
AcDbEntity
  8
SANINDUSA
100
AcDbLine
 10
4723.176163967277
 20
1028.627543121656
 30
0.0000000000545588
 11
4723.176163967277
 21
1028.63554317395
 31
0.0000000000545588
  0
LINE
  5
187A
330
1F
100
AcDbEntity
  8
SANINDUSA
100
AcDbLine
 10
4723.165775078388
 20
1028.644943185498
 30
0.0000000000545588
 11
4723.165775078388
 21
1028.63894317395
 31
0.0000000000545588
1001
GENIUS_GENREC_14
1002
{
1000
PYDIR
1011
4723.318775078388
1021
1028.63874317395
1031
0.0000000000545588
1002
}
1002
{
1000
PXDIR
1011
4723.168775078388
1021
1028.64474317395
1031
0.0000000000545588
1002
}
1002
{
1000
PORI
1011
4723.318775078388
1021
1028.64474317395
1031
0.0000000000545588
1002
}
1002
{
1000
PINS
1011
4723.318775078388
1021
1028.64474317395
1031
0.0000000000545588
1002
}
1002
{
1000
PINS2
1011
4723.168775078388
1021
1028.63894317395
1031
0.0000000000545588
1002
}
1002
{
1000
C
1070
     1
1002
}
1001
GENIUS_GENODEF_13
1002
{
1000
HIER
1070
     0
1002
}
1002
{
1000
MANEDIT
1070
     0
1002
}
1002
{
1000
NOSEL
1070
     0
1002
}
1002
{
1000
BEHIND
1070
     0
1002
}
1002
{
1000
REACTOR
1002
}
1001
GENIUS_GENOBJ-N-REC_13
1002
{
1000
OWNER
1000
GEN
1002
}
  0
LINE
  5
187B
330
1F
100
AcDbEntity
  8
SANINDUSA
100
AcDbLine
 10
4723.168775078388
 20
1028.644943180626
 30
0.0000000000545588
 11
4723.168775078388
 21
1028.638943180625
 31
0.0000000000545586
  0
LINE
  5
187C
330
1F
100
AcDbEntity
  8
SANINDUSA
100
AcDbLine
 10
4723.168775078388
 20
1028.644943180626
 30
0.0000000000545587
 11
4723.168775078388
 21
1028.638943180625
 31
0.0000000000545587
  0
ARC
  5
187D
330
1F
100
AcDbEntity
  8
SANINDUSA
100
AcDbCircle
 10
4723.183275078389
 20
1028.65034317395
 30
0.0000000000545588
 40
0.001
100
AcDbArc
 50
90.0
 51
180.0
  0
LINE
  5
187E
330
1F
100
AcDbEntity
  8
SANINDUSA
100
AcDbLine
 10
4723.168775078388
 20
1028.638246750176
 30
0.0000000000545587
 11
4723.168775078388
 21
1028.645639611076
 31
0.0000000000545587
  0
LINE
  5
187F
330
1F
100
AcDbEntity
  8
SANINDUSA
100
AcDbLine
 10
4723.167627217736
 20
1028.636343180626
 30
0.0000000000545587
 11
4723.167627217736
 21
1028.647543180626
 31
0.0000000000545587
  0
LINE
  5
1880
330
1F
100
AcDbEntity
  8
SANINDUSA
100
AcDbLine
 10
4723.168620300313
 20
1028.636343180626
 30
0.0000000000545587
 11
4723.180124601996
 21
1028.638235502119
 31
0.0000000000545587
  0
ARC
  5
1881
330
1F
100
AcDbEntity
  8
SANINDUSA
100
AcDbCircle
 10
4723.169375078389
 20
1028.645639611076
 30
0.0000000000545587
 40
0.0006
100
AcDbArc
 50
80.65916587993356
 51
180.0
  0
LINE
  5
1882
330
1F
100
AcDbEntity
  8
SANINDUSA
100
AcDbLine
 10
4723.169472462649
 20
1028.646231655251
 30
0.0000000000545587
 11
4723.170054909828
 21
1028.646135849583
 31
0.0000000000545587
  0
LINE
  5
1883
330
1F
100
AcDbEntity
  8
SANINDUSA
100
AcDbLine
 10
4723.168620300313
 20
1028.647543180626
 30
0.0000000000545587
 11
4723.167627217736
 21
1028.647543180626
 31
0.0000000000545587
  0
ARC
  5
1884
330
1F
100
AcDbEntity
  8
SANINDUSA
100
AcDbCircle
 10
4723.175227217735
 20
1028.645037607845
 30
0.0000000000545587
 40
0.0006
100
AcDbArc
 50
80.65916587993356
 51
128.8488510135322
  0
ARC
  5
1885
330
1F
100
AcDbEntity
  8
SANINDUSA
100
AcDbCircle
 10
4723.175648976678
 20
1028.644773665104
 30
0.0000000000545587
 40
0.000175
100
AcDbArc
 50
98.00000001100515
 51
278.0000000110051
  0
ARC
  5
1886
330
1F
100
AcDbEntity
  8
SANINDUSA
100
AcDbCircle
 10
4723.171166604869
 20
1028.645192910486
 30
0.0000000000545587
 40
0.00075
100
AcDbArc
 50
170.6591658906739
 51
0.1365535742230598
  0
ARC
  5
1887
330
1F
100
AcDbEntity
  8
SANINDUSA
100
AcDbCircle
 10
4723.172416601317
 20
1028.64519588962
 30
0.0000000000545587
 40
0.0005
100
AcDbArc
 50
80.65916587993356
 51
180.136553574223
  0
LINE
  5
1888
330
1F
100
AcDbEntity
  8
SANINDUSA
100
AcDbLine
 10
4723.170467126425
 20
1028.645561325886
 30
0.0000000000545587
 11
4723.170426549649
 21
1028.645314640812
 31
0.0000000000545587
  0
LINE
  5
1889
330
1F
100
AcDbEntity
  8
SANINDUSA
100
AcDbLine
 10
4723.171906660087
 20
1028.64507118016
 30
0.0000000000545587
 11
4723.171947236862
 21
1028.645317865233
 31
0.0000000000545587
  0
LINE
  5
188A
330
1F
100
AcDbEntity
  8
SANINDUSA
100
AcDbLine
 10
4723.172497754869
 20
1028.645689259766
 30
0.0000000000545587
 11
4723.174377111807
 21
1028.645380127789
 31
0.0000000000545587
  0
ARC
  5
188B
330
1F
100
AcDbEntity
  8
SANINDUSA
100
AcDbCircle
 10
4723.174474496068
 20
1028.645972171964
 30
0.0000000000545587
 40
0.0006000000000005
100
AcDbArc
 50
260.6591658799336
 51
308.8488510135322
  0
ARC
  5
188C
330
1F
100
AcDbEntity
  8
SANINDUSA
100
AcDbCircle
 10
4723.169973756277
 20
1028.645642479436
 30
0.0000000000545587
 40
0.0005
100
AcDbArc
 50
350.6591658906739
 51
80.65916587993356
  0
ARC
  5
188D
330
1F
100
AcDbEntity
  8
SANINDUSA
100
AcDbCircle
 10
4723.175227217735
 20
1028.638848753406
 30
0.0000000000545587
 40
0.0006
100
AcDbArc
 50
231.1511489864678
 51
279.3408341200664
  0
ARC
  5
188E
330
1F
100
AcDbEntity
  8
SANINDUSA
100
AcDbCircle
 10
4723.175648976678
 20
1028.639112696147
 30
0.0000000000545587
 40
0.000175
100
AcDbArc
 50
81.99999998899484
 51
261.9999999889949
  0
ARC
  5
188F
330
1F
100
AcDbEntity
  8
SANINDUSA
100
AcDbCircle
 10
4723.172433436757
 20
1028.638693240862
 30
0.0000000000545587
 40
0.0005
100
AcDbArc
 50
189.3408341093261
 51
279.3408341200664
  0
ARC
  5
1890
330
1F
100
AcDbEntity
  8
SANINDUSA
100
AcDbCircle
 10
4723.174474496068
 20
1028.637914189287
 30
0.0000000000545587
 40
0.0006000000000005
100
AcDbArc
 50
51.15114898646778
 51
99.34083412006643
  0
LINE
  5
1891
330
1F
100
AcDbEntity
  8
SANINDUSA
100
AcDbLine
 10
4723.174377111807
 20
1028.638506233463
 30
0.0000000000545587
 11
4723.172514590308
 21
1028.638199870716
 31
0.0000000000545587
  0
LINE
  5
1892
330
1F
100
AcDbEntity
  8
SANINDUSA
100
AcDbLine
 10
4723.171940066611
 20
1028.638612087311
 30
0.0000000000545587
 11
4723.171906660087
 21
1028.638815181092
 31
0.0000000000545587
  0
ARC
  5
1893
330
1F
100
AcDbEntity
  8
SANINDUSA
100
AcDbCircle
 10
4723.171166604869
 20
1028.638693450765
 30
0.0000000000545587
 40
0.00075
100
AcDbArc
 50
9.340834109326083
 51
189.3408341093261
  0
LINE
  5
1894
330
1F
100
AcDbEntity
  8
SANINDUSA
100
AcDbLine
 10
4723.170426549649
 20
1028.638571720439
 30
0.0000000000545587
 11
4723.170467126425
 21
1028.638325035366
 31
0.0000000000545587
  0
ARC
  5
1895
330
1F
100
AcDbEntity
  8
SANINDUSA
100
AcDbCircle
 10
4723.17773244082
 20
1028.645394670855
 30
0.0000000000545587
 40
0.0005
100
AcDbArc
 50
278.0000000110051
 51
331.8736260450295
  0
ARC
  5
1896
330
1F
100
AcDbEntity
  8
SANINDUSA
100
AcDbCircle
 10
4723.179039630764
 20
1028.645221261327
 30
0.0000000000545587
 40
0.0006
100
AcDbArc
 50
212.4694808006354
 51
260.6591658799336
  0
LINE
  5
1897
330
1F
100
AcDbEntity
  8
SANINDUSA
100
AcDbLine
 10
4723.180627217735
 20
1028.644352059323
 30
0.0000000000545587
 11
4723.180627217735
 21
1028.645058814957
 31
0.0000000000545587
  0
LINE
  5
1898
330
1F
100
AcDbEntity
  8
SANINDUSA
100
AcDbLine
 10
4723.178942246503
 20
1028.644629217152
 30
0.0000000000545587
 11
4723.180627217735
 21
1028.644352059323
 31
0.0000000000545587
  0
LINE
  5
18FD
330
1F
100
AcDbEntity
  8
SANINDUSA
100
AcDbLine
 10
4721.291132069736
 20
1029.542988475303
 30
0.0
 11
4721.852132069735
 21
1029.542988475303
 31
0.0
  0
LINE
  5
191C
330
1F
100
AcDbEntity
  8
SANINDUSA
100
AcDbLine
 10
4721.855132069735
 20
1029.271988475294
 30
0.0
 11
4721.855132069735
 21
1029.542988475303
 31
0.0
  0
LINE
  5
191D
330
1F
100
AcDbEntity
  8
SANINDUSA
100
AcDbLine
 10
4721.852132069735
 20
1029.271988475294
 30
0.0
 11
4721.852132069735
 21
1029.542988475303
 31
0.0
  0
LINE
  5
191E
330
1F
100
AcDbEntity
  8
SANINDUSA
100
AcDbLine
 10
4722.457932069736
 20
1029.542988475303
 30
0.0
 11
4722.481932069735
 21
1029.542988475303
 31
0.0
  0
CIRCLE
  5
191F
330
1F
100
AcDbEntity
  8
SANINDUSA
100
AcDbCircle
 10
4722.405132069735
 20
1028.622987707356
 30
0.0
 40
0.004
  0
LINE
  5
1920
330
1F
100
AcDbEntity
  8
SANINDUSA
100
AcDbLine
 10
4721.855132069735
 20
1029.542988475303
 30
0.0
 11
4722.455132069735
 21
1029.542988475303
 31
0.0
  0
LINE
  5
192A
330
1F
100
AcDbEntity
  8
SANINDUSA
100
AcDbLine
 10
4721.291132069736
 20
1027.692988475303
 30
0.0
 11
4722.481932069735
 21
1027.692988475303
 31
0.0
  0
LINE
  5
192D
330
1F
100
AcDbEntity
  8
SANINDUSA
100
AcDbLine
 10
4721.345982069735
 20
1027.692988475303
 30
0.0
 11
4721.345982069735
 21
1029.542988475303
 31
0.0
  0
LINE
  5
192E
330
1F
100
AcDbEntity
  8
SANINDUSA
100
AcDbLine
 10
4721.291132069736
 20
1027.692988475303
 30
0.0
 11
4721.291132069736
 21
1029.542988475303
 31
0.0
  0
LINE
  5
192F
330
1F
100
AcDbEntity
  8
SANINDUSA
100
AcDbLine
 10
4722.455132069735
 20
1027.702988475303
 30
0.0
 11
4722.455132069735
 21
1029.542988475303
 31
0.0
  0
LINE
  5
1930
330
1F
100
AcDbEntity
  8
SANINDUSA
100
AcDbLine
 10
4722.463632069735
 20
1027.702988475303
 30
0.0
 11
4722.463632069735
 21
1029.542988475303
 31
0.0
  0
LINE
  5
1931
330
1F
100
AcDbEntity
  8
SANINDUSA
100
AcDbLine
 10
4722.469632069736
 20
1027.702988475303
 30
0.0
 11
4722.469632069736
 21
1029.542988475303
 31
0.0
  0
LINE
  5
1932
330
1F
100
AcDbEntity
  8
SANINDUSA
100
AcDbLine
 10
4722.481932069735
 20
1027.692988475303
 30
0.0
 11
4722.481932069735
 21
1029.542988475303
 31
0.0
  0
LINE
  5
1933
330
1F
100
AcDbEntity
  8
SANINDUSA
100
AcDbLine
 10
4722.457932069736
 20
1027.692988475303
 30
0.0
 11
4722.457932069736
 21
1029.542988475303
 31
0.0
  0
LINE
  5
1935
330
1F
100
AcDbEntity
  8
SANINDUSA
100
AcDbLine
 10
4721.852132069735
 20
1028.011988475303
 30
0.0
 11
4721.852132069735
 21
1029.223988475294
 31
0.0
  0
LINE
  5
1936
330
1F
100
AcDbEntity
  8
SANINDUSA
100
AcDbLine
 10
4721.855132069735
 20
1028.011988475303
 30
0.0
 11
4721.855132069735
 21
1029.223988475294
 31
0.0
  0
LINE
  5
193B
330
1F
100
AcDbEntity
  8
SANINDUSA
100
AcDbLine
 10
4721.855132069735
 20
1027.702988475303
 30
0.0
 11
4722.455132069735
 21
1027.702988475303
 31
0.0
  0
LINE
  5
193E
330
1F
100
AcDbEntity
  8
SANINDUSA
100
AcDbLine
 10
4722.463632069735
 20
1027.702988475303
 30
0.0
 11
4722.469632069736
 21
1027.702988475303
 31
0.0
  0
LINE
  5
1944
330
1F
100
AcDbEntity
  8
SANINDUSA
100
AcDbLine
 10
4721.855132069735
 20
1027.702988475303
 30
0.0
 11
4721.855132069735
 21
1027.963988475303
 31
0.0
  0
LINE
  5
1945
330
1F
100
AcDbEntity
  8
SANINDUSA
100
AcDbLine
 10
4721.852132069735
 20
1027.692988475303
 30
0.0
 11
4721.852132069735
 21
1027.963988475303
 31
0.0
  0
LINE
  5
205C
330
1F
100
AcDbEntity
  8
SANINDUSA
100
AcDbLine
 10
4721.861632069735
 20
1027.964988475303
 30
-0.0000000017937957
 11
4721.861632069735
 21
1027.985988475303
 31
-0.0000000017937957
  0
LINE
  5
205D
330
1F
100
AcDbEntity
  8
SANINDUSA
100
AcDbLine
 10
4721.921632069735
 20
1028.004488475303
 30
-0.0000000017937957
 11
4721.921632069735
 21
1027.971488475303
 31
-0.0000000017937957
  0
ARC
  5
205E
330
1F
100
AcDbEntity
  8
SANINDUSA
100
AcDbCircle
 10
4721.920632069735
 20
1028.004488475303
 30
-0.0000000017937957
 40
0.001
100
AcDbArc
 50
0.0
 51
90.0
  0
LINE
  5
205F
330
1F
100
AcDbEntity
  8
SANINDUSA
100
AcDbLine
 10
4721.860632069735
 20
1028.011988475303
 30
-0.0000000017937957
 11
4721.846632069735
 21
1028.011988475303
 31
-0.0000000017937957
  0
LINE
  5
2060
330
1F
100
AcDbEntity
  8
SANINDUSA
100
AcDbLine
 10
4721.861632069735
 20
1027.985988475303
 30
-0.0000000017937957
 11
4721.845632069735
 21
1027.985988475303
 31
-0.0000000017937957
  0
LINE
  5
2061
330
1F
100
AcDbEntity
  8
SANINDUSA
100
AcDbLine
 10
4721.844743180846
 20
1027.989988475303
 30
-0.0000000017937957
 11
4721.861632069735
 21
1027.989988475303
 31
-0.0000000017937957
  0
ARC
  5
2062
330
1F
100
AcDbEntity
  8
SANINDUSA
100
AcDbCircle
 10
4721.860632069735
 20
1028.010988475303
 30
-0.0000000017937957
 40
0.001
100
AcDbArc
 50
0.0
 51
90.0
  0
LINE
  5
2063
330
1F
100
AcDbEntity
  8
SANINDUSA
100
AcDbLine
 10
4721.861632069735
 20
1027.985988475303
 30
-0.0000000017937957
 11
4721.862520958624
 21
1027.985988475303
 31
-0.0000000017937957
  0
LINE
  5
2064
330
1F
100
AcDbEntity
  8
SANINDUSA
100
AcDbLine
 10
4721.861132069736
 20
1027.989988475303
 30
-0.0000000017937957
 11
4721.861132069736
 21
1027.985988475303
 31
-0.0000000017937957
  0
LINE
  5
2065
330
1F
100
AcDbEntity
  8
SANINDUSA
100
AcDbLine
 10
4721.862520958624
 20
1027.985988475303
 30
-0.0000000017937957
 11
4721.862520958624
 21
1028.005488475303
 31
-0.0000000017937957
  0
LINE
  5
2066
330
1F
100
AcDbEntity
  8
SANINDUSA
100
AcDbLine
 10
4721.861632069735
 20
1027.989988475303
 30
-0.0000000017937957
 11
4721.861632069735
 21
1028.010988475303
 31
-0.0000000017937957
  0
LINE
  5
2067
330
1F
100
AcDbEntity
  8
SANINDUSA
100
AcDbLine
 10
4721.862520958624
 20
1028.005488475303
 30
-0.0000000017937957
 11
4721.920632069735
 21
1028.005488475303
 31
-0.0000000017937957
  0
ARC
  5
2068
330
1F
100
AcDbEntity
  8
SANINDUSA
100
AcDbCircle
 10
4721.920632069735
 20
1027.971488475303
 30
-0.0000000017937957
 40
0.001
100
AcDbArc
 50
270.0
 51
0.0
  0
LINE
  5
2069
330
1F
100
AcDbEntity
  8
SANINDUSA
100
AcDbLine
 10
4721.846632069735
 20
1027.963988475303
 30
-0.0000000017937957
 11
4721.860632069735
 21
1027.963988475303
 31
-0.0000000017937957
  0
ARC
  5
206A
330
1F
100
AcDbEntity
  8
SANINDUSA
100
AcDbCircle
 10
4721.860632069735
 20
1027.964988475303
 30
-0.0000000017937957
 40
0.001
100
AcDbArc
 50
270.0
 51
0.0
  0
LINE
  5
206B
330
1F
100
AcDbEntity
  8
SANINDUSA
100
AcDbLine
 10
4721.920632069735
 20
1027.970488475303
 30
-0.0000000017937957
 11
4721.861632069735
 21
1027.970488475303
 31
-0.0000000017937957
  0
LINE
  5
206C
330
1F
100
AcDbEntity
  8
SANINDUSA
100
AcDbLine
 10
4721.845632069735
 20
1027.985988475303
 30
-0.0000000017937957
 11
4721.845632069735
 21
1027.964988475303
 31
-0.0000000017937957
  0
LINE
  5
206D
330
1F
100
AcDbEntity
  8
SANINDUSA
100
AcDbLine
 10
4721.846132069734
 20
1027.989988475303
 30
-0.0000000017937957
 11
4721.846132069734
 21
1027.985988475303
 31
-0.0000000017937957
  0
LINE
  5
206E
330
1F
100
AcDbEntity
  8
SANINDUSA
100
AcDbLine
 10
4721.845632069735
 20
1028.010988475303
 30
-0.0000000017937957
 11
4721.845632069735
 21
1028.005488475303
 31
-0.0000000017937957
  0
LINE
  5
206F
330
1F
100
AcDbEntity
  8
SANINDUSA
100
AcDbLine
 10
4721.845632069735
 20
1028.005488475303
 30
-0.0000000017937957
 11
4721.845632069735
 21
1027.989988475303
 31
-0.0000000017937957
  0
ARC
  5
2070
330
1F
100
AcDbEntity
  8
SANINDUSA
100
AcDbCircle
 10
4721.846632069735
 20
1028.010988475303
 30
-0.0000000017937957
 40
0.001
100
AcDbArc
 50
90.0
 51
180.0
  0
ARC
  5
2071
330
1F
100
AcDbEntity
  8
SANINDUSA
100
AcDbCircle
 10
4721.786632069735
 20
1028.004488475303
 30
-0.0000000017937957
 40
0.001
100
AcDbArc
 50
90.0
 51
180.0
  0
LINE
  5
2072
330
1F
100
AcDbEntity
  8
SANINDUSA
100
AcDbLine
 10
4721.845632069735
 20
1028.005488475303
 30
-0.0000000017937957
 11
4721.786632069735
 21
1028.005488475303
 31
-0.0000000017937957
  0
ARC
  5
2073
330
1F
100
AcDbEntity
  8
SANINDUSA
100
AcDbCircle
 10
4721.846632069735
 20
1027.964988475303
 30
-0.0000000017937957
 40
0.001
100
AcDbArc
 50
180.0
 51
270.0
  0
ARC
  5
2074
330
1F
100
AcDbEntity
  8
SANINDUSA
100
AcDbCircle
 10
4721.786632069735
 20
1027.971488475303
 30
-0.0000000017937957
 40
0.001
100
AcDbArc
 50
180.0
 51
270.0
  0
LINE
  5
2075
330
1F
100
AcDbEntity
  8
SANINDUSA
100
AcDbLine
 10
4721.786632069735
 20
1027.970488475303
 30
-0.0000000017937957
 11
4721.844743180846
 21
1027.970488475303
 31
-0.0000000017937957
  0
LINE
  5
2076
330
1F
100
AcDbEntity
  8
SANINDUSA
100
AcDbLine
 10
4721.785632069735
 20
1028.004488475303
 30
-0.0000000017937957
 11
4721.785632069735
 21
1027.971488475303
 31
-0.0000000017937957
  0
LINE
  5
2077
330
1F
100
AcDbEntity
  8
SANINDUSA
100
AcDbLine
 10
4721.844743180846
 20
1027.970488475303
 30
-0.0000000017937957
 11
4721.844743180846
 21
1027.989988475303
 31
-0.0000000017937957
  0
LINE
  5
2078
330
1F
100
AcDbEntity
  8
SANINDUSA
100
AcDbLine
 10
4721.861632069735
 20
1029.224988475293
 30
-0.0000000017937957
 11
4721.861632069735
 21
1029.245988475294
 31
-0.0000000017937957
  0
LINE
  5
2079
330
1F
100
AcDbEntity
  8
SANINDUSA
100
AcDbLine
 10
4721.921632069735
 20
1029.264488475293
 30
-0.0000000017937957
 11
4721.921632069735
 21
1029.231488475293
 31
-0.0000000017937957
  0
ARC
  5
207A
330
1F
100
AcDbEntity
  8
SANINDUSA
100
AcDbCircle
 10
4721.920632069735
 20
1029.264488475293
 30
-0.0000000017937957
 40
0.001
100
AcDbArc
 50
0.0
 51
90.0
  0
LINE
  5
207B
330
1F
100
AcDbEntity
  8
SANINDUSA
100
AcDbLine
 10
4721.860632069735
 20
1029.271988475294
 30
-0.0000000017937957
 11
4721.846632069735
 21
1029.271988475294
 31
-0.0000000017937957
  0
LINE
  5
207C
330
1F
100
AcDbEntity
  8
SANINDUSA
100
AcDbLine
 10
4721.861632069735
 20
1029.245988475294
 30
-0.0000000017937957
 11
4721.845632069735
 21
1029.245988475294
 31
-0.0000000017937957
  0
LINE
  5
207D
330
1F
100
AcDbEntity
  8
SANINDUSA
100
AcDbLine
 10
4721.844743180846
 20
1029.249988475293
 30
-0.0000000017937957
 11
4721.861632069735
 21
1029.249988475293
 31
-0.0000000017937957
  0
ARC
  5
207E
330
1F
100
AcDbEntity
  8
SANINDUSA
100
AcDbCircle
 10
4721.860632069735
 20
1029.270988475293
 30
-0.0000000017937957
 40
0.001
100
AcDbArc
 50
0.0
 51
90.0
  0
LINE
  5
207F
330
1F
100
AcDbEntity
  8
SANINDUSA
100
AcDbLine
 10
4721.861632069735
 20
1029.245988475294
 30
-0.0000000017937957
 11
4721.862520958624
 21
1029.245988475294
 31
-0.0000000017937957
  0
LINE
  5
2080
330
1F
100
AcDbEntity
  8
SANINDUSA
100
AcDbLine
 10
4721.861132069736
 20
1029.249988475293
 30
-0.0000000017937957
 11
4721.861132069736
 21
1029.245988475294
 31
-0.0000000017937957
  0
LINE
  5
2081
330
1F
100
AcDbEntity
  8
SANINDUSA
100
AcDbLine
 10
4721.862520958624
 20
1029.245988475294
 30
-0.0000000017937957
 11
4721.862520958624
 21
1029.265488475293
 31
-0.0000000017937957
  0
LINE
  5
2082
330
1F
100
AcDbEntity
  8
SANINDUSA
100
AcDbLine
 10
4721.861632069735
 20
1029.249988475293
 30
-0.0000000017937957
 11
4721.861632069735
 21
1029.270988475293
 31
-0.0000000017937957
  0
LINE
  5
2083
330
1F
100
AcDbEntity
  8
SANINDUSA
100
AcDbLine
 10
4721.862520958624
 20
1029.265488475293
 30
-0.0000000017937957
 11
4721.920632069735
 21
1029.265488475293
 31
-0.0000000017937957
  0
ARC
  5
2084
330
1F
100
AcDbEntity
  8
SANINDUSA
100
AcDbCircle
 10
4721.920632069735
 20
1029.231488475293
 30
-0.0000000017937957
 40
0.001
100
AcDbArc
 50
270.0
 51
0.0
  0
LINE
  5
2085
330
1F
100
AcDbEntity
  8
SANINDUSA
100
AcDbLine
 10
4721.846632069735
 20
1029.223988475294
 30
-0.0000000017937957
 11
4721.860632069735
 21
1029.223988475294
 31
-0.0000000017937957
  0
ARC
  5
2086
330
1F
100
AcDbEntity
  8
SANINDUSA
100
AcDbCircle
 10
4721.860632069735
 20
1029.224988475293
 30
-0.0000000017937957
 40
0.001
100
AcDbArc
 50
270.0
 51
0.0
  0
LINE
  5
2087
330
1F
100
AcDbEntity
  8
SANINDUSA
100
AcDbLine
 10
4721.920632069735
 20
1029.230488475294
 30
-0.0000000017937957
 11
4721.861632069735
 21
1029.230488475294
 31
-0.0000000017937957
  0
LINE
  5
2088
330
1F
100
AcDbEntity
  8
SANINDUSA
100
AcDbLine
 10
4721.845632069735
 20
1029.245988475294
 30
-0.0000000017937957
 11
4721.845632069735
 21
1029.224988475293
 31
-0.0000000017937957
  0
LINE
  5
2089
330
1F
100
AcDbEntity
  8
SANINDUSA
100
AcDbLine
 10
4721.846132069734
 20
1029.249988475293
 30
-0.0000000017937957
 11
4721.846132069734
 21
1029.245988475294
 31
-0.0000000017937957
  0
LINE
  5
208A
330
1F
100
AcDbEntity
  8
SANINDUSA
100
AcDbLine
 10
4721.845632069735
 20
1029.270988475293
 30
-0.0000000017937957
 11
4721.845632069735
 21
1029.265488475293
 31
-0.0000000017937957
  0
LINE
  5
208B
330
1F
100
AcDbEntity
  8
SANINDUSA
100
AcDbLine
 10
4721.845632069735
 20
1029.265488475293
 30
-0.0000000017937957
 11
4721.845632069735
 21
1029.249988475293
 31
-0.0000000017937957
  0
ARC
  5
208C
330
1F
100
AcDbEntity
  8
SANINDUSA
100
AcDbCircle
 10
4721.846632069735
 20
1029.270988475293
 30
-0.0000000017937957
 40
0.001
100
AcDbArc
 50
90.0
 51
180.0
  0
ARC
  5
208D
330
1F
100
AcDbEntity
  8
SANINDUSA
100
AcDbCircle
 10
4721.786632069735
 20
1029.264488475293
 30
-0.0000000017937957
 40
0.001
100
AcDbArc
 50
90.0
 51
180.0
  0
LINE
  5
208E
330
1F
100
AcDbEntity
  8
SANINDUSA
100
AcDbLine
 10
4721.845632069735
 20
1029.265488475293
 30
-0.0000000017937957
 11
4721.786632069735
 21
1029.265488475293
 31
-0.0000000017937957
  0
ARC
  5
208F
330
1F
100
AcDbEntity
  8
SANINDUSA
100
AcDbCircle
 10
4721.846632069735
 20
1029.224988475293
 30
-0.0000000017937957
 40
0.001
100
AcDbArc
 50
180.0
 51
270.0
  0
ARC
  5
2090
330
1F
100
AcDbEntity
  8
SANINDUSA
100
AcDbCircle
 10
4721.786632069735
 20
1029.231488475293
 30
-0.0000000017937957
 40
0.001
100
AcDbArc
 50
180.0
 51
270.0
  0
LINE
  5
2091
330
1F
100
AcDbEntity
  8
SANINDUSA
100
AcDbLine
 10
4721.786632069735
 20
1029.230488475294
 30
-0.0000000017937957
 11
4721.844743180846
 21
1029.230488475294
 31
-0.0000000017937957
  0
LINE
  5
2092
330
1F
100
AcDbEntity
  8
SANINDUSA
100
AcDbLine
 10
4721.785632069735
 20
1029.264488475293
 30
-0.0000000017937957
 11
4721.785632069735
 21
1029.231488475293
 31
-0.0000000017937957
  0
LINE
  5
2093
330
1F
100
AcDbEntity
  8
SANINDUSA
100
AcDbLine
 10
4721.844743180846
 20
1029.230488475294
 30
-0.0000000017937957
 11
4721.844743180846
 21
1029.249988475293
 31
-0.0000000017937957
  0
ENDSEC
  0
SECTION
  2
OBJECTS
  0
DICTIONARY
  5
C
330
0
100
AcDbDictionary
281
     1
  3
ACAD_COLOR
350
20E9
  3
ACAD_GROUP
350
D
  3
ACAD_LAYOUT
350
1A
  3
ACAD_MATERIAL
350
20BC
  3
ACAD_MLEADERSTYLE
350
20FE
  3
ACAD_MLINESTYLE
350
17
  3
ACAD_PLOTSETTINGS
350
19
  3
ACAD_PLOTSTYLENAME
350
E
  3
ACAD_SCALELIST
350
20EC
  3
ACAD_TABLESTYLE
350
20EA
  3
ACAD_VISUALSTYLE
350
20D5
  3
ACDB_RECOMPOSE_DATA
350
2194
  3
AcDbVariableDictionary
350
3D
  3
ASE_INDEX_DICTIONARY
350
2017
  3
DWGPROPS
350
2195
  0
DICTIONARY
  5
2126
330
10
100
AcDbDictionary
280
     1
281
     1
  3
ADSK_XREC_LAYER_RECONCILED
360
2127
  0
DICTIONARY
  5
2128
330
2F
100
AcDbDictionary
280
     1
281
     1
  3
ADSK_XREC_LAYER_RECONCILED
360
2129
  0
DICTIONARY
  5
212A
330
30
100
AcDbDictionary
280
     1
281
     1
  3
ADSK_XREC_LAYER_RECONCILED
360
212B
  0
DICTIONARY
  5
212C
330
31
100
AcDbDictionary
280
     1
281
     1
  3
ADSK_XREC_LAYER_RECONCILED
360
212D
  0
DICTIONARY
  5
212E
330
32
100
AcDbDictionary
280
     1
281
     1
  3
ADSK_XREC_LAYER_RECONCILED
360
212F
  0
DICTIONARY
  5
2130
330
33
100
AcDbDictionary
280
     1
281
     1
  3
ADSK_XREC_LAYER_RECONCILED
360
2131
  0
DICTIONARY
  5
2132
330
34
100
AcDbDictionary
280
     1
281
     1
  3
ADSK_XREC_LAYER_RECONCILED
360
2133
  0
DICTIONARY
  5
2134
330
35
100
AcDbDictionary
280
     1
281
     1
  3
ADSK_XREC_LAYER_RECONCILED
360
2135
  0
DICTIONARY
  5
2136
330
36
100
AcDbDictionary
280
     1
281
     1
  3
ADSK_XREC_LAYER_RECONCILED
360
2137
  0
DICTIONARY
  5
2138
330
37
100
AcDbDictionary
280
     1
281
     1
  3
ADSK_XREC_LAYER_RECONCILED
360
2139
  0
DICTIONARY
  5
213A
330
5D6
100
AcDbDictionary
280
     1
281
     1
  3
ADSK_XREC_LAYER_RECONCILED
360
213B
  0
DICTIONARY
  5
213C
330
8AF
100
AcDbDictionary
280
     1
281
     1
  3
ADSK_XREC_LAYER_RECONCILED
360
213D
  0
DICTIONARY
  5
213E
330
8F8
100
AcDbDictionary
280
     1
281
     1
  3
ADSK_XREC_LAYER_RECONCILED
360
213F
  0
DICTIONARY
  5
2140
330
91D
100
AcDbDictionary
280
     1
281
     1
  3
ADSK_XREC_LAYER_RECONCILED
360
2141
  0
DICTIONARY
  5
2142
330
D05
100
AcDbDictionary
280
     1
281
     1
  3
ADSK_XREC_LAYER_RECONCILED
360
2143
  0
DICTIONARY
  5
2144
330
2125
100
AcDbDictionary
280
     1
281
     1
  3
ADSK_XREC_LAYER_RECONCILED
360
2145
  0
DICTIONARY
  5
219C
330
2097
100
AcDbDictionary
280
     1
281
     1
  3
ACAD_MTEXT_RT
360
219D
  0
DICTIONARY
  5
20E9
102
{ACAD_REACTORS
330
C
102
}
330
C
100
AcDbDictionary
281
     1
  0
DICTIONARY
  5
D
102
{ACAD_REACTORS
330
C
102
}
330
C
100
AcDbDictionary
281
     1
  0
DICTIONARY
  5
1A
102
{ACAD_REACTORS
330
C
102
}
330
C
100
AcDbDictionary
281
     1
  3
Layout1
350
1E
  3
Layout2
350
26
  3
Model
350
22
  0
DICTIONARY
  5
20BC
102
{ACAD_REACTORS
330
C
102
}
330
C
100
AcDbDictionary
281
     1
  3
ByBlock
350
20C5
  3
ByLayer
350
20BD
  3
Global
350
20CD
  0
DICTIONARY
  5
20FE
102
{ACAD_REACTORS
330
C
102
}
330
C
100
AcDbDictionary
281
     1
  3
Standard
350
20FF
  0
DICTIONARY
  5
17
102
{ACAD_REACTORS
330
C
102
}
330
C
100
AcDbDictionary
281
     1
  3
Standard
350
18
  0
DICTIONARY
  5
19
102
{ACAD_REACTORS
330
C
102
}
330
C
100
AcDbDictionary
281
     1
  0
ACDBDICTIONARYWDFLT
  5
E
102
{ACAD_REACTORS
330
C
102
}
330
C
100
AcDbDictionary
281
     1
  3
Normal
350
F
100
AcDbDictionaryWithDefault
340
F
  0
DICTIONARY
  5
20EC
102
{ACAD_REACTORS
330
C
102
}
330
C
100
AcDbDictionary
281
     1
  3
A0
350
20ED
  3
A1
350
20EE
  3
A2
350
20EF
  3
A3
350
20F0
  3
A4
350
20F1
  3
A5
350
20F2
  3
A6
350
20F3
  3
A7
350
20F4
  3
A8
350
20F5
  3
A9
350
20F6
  3
B0
350
20F7
  3
B1
350
20F8
  3
B2
350
20F9
  3
B3
350
20FA
  3
B4
350
20FB
  3
B5
350
20FC
  3
B6
350
20FD
  0
DICTIONARY
  5
20EA
102
{ACAD_REACTORS
330
C
102
}
330
C
100
AcDbDictionary
281
     1
  3
Standard
350
20EB
  0
DICTIONARY
  5
20D5
102
{ACAD_REACTORS
330
C
102
}
330
C
100
AcDbDictionary
281
     1
  3
2dWireframe
350
20DB
  3
3D Hidden
350
20DD
  3
3dWireframe
350
20DC
  3
Basic
350
20DA
  3
Brighten
350
20E1
  3
ColorChange
350
20E5
  3
Conceptual
350
20DE
  3
Dim
350
20E0
  3
EdgeColorOff
350
20E8
  3
Facepattern
350
20E4
  3
Flat
350
20D6
  3
FlatWithEdges
350
20D7
  3
Gouraud
350
20D8
  3
GouraudWithEdges
350
20D9
  3
JitterOff
350
20E6
  3
Linepattern
350
20E3
  3
OverhangOff
350
20E7
  3
Realistic
350
20DF
  3
Thicken
350
20E2
  0
XRECORD
  5
2194
102
{ACAD_REACTORS
330
C
102
}
330
C
100
AcDbXrecord
280
     1
 90
        1
330
20EB
  0
DICTIONARY
  5
3D
102
{ACAD_REACTORS
330
C
102
}
330
C
100
AcDbDictionary
281
     1
  3
CANNOSCALE
350
218E
  3
CMLEADERSTYLE
350
218D
  3
CTABLESTYLE
350
218C
  3
DIMASSOC
350
3F
  3
HIDETEXT
350
3E
  3
INDEXCTL
350
2190
  3
SORTENTS
350
218F
  3
XCLIPFRAME
350
2191
  0
DICTIONARY
  5
2017
102
{ACAD_REACTORS
330
C
102
}
330
C
100
AcDbDictionary
281
     1
  3
ASEBlockHierarchyIndexRecord
350
2018
1001
DCO15
1040
1508224869.187
  0
XRECORD
  5
2195
102
{ACAD_REACTORS
330
C
102
}
330
C
100
AcDbXrecord
280
     1
  1
DWGPROPS COOKIE
  2

  3

  4

  6

  7

  8
Julio
  9

300
=
301
=
302
=
303
=
304
=
305
=
306
=
307
=
308
=
309
=
 40
0.0575991087962963
 41
2453259.379268114
 42
2455818.686201169
  1

 90
        0
  0
XRECORD
  5
2127
102
{ACAD_REACTORS
330
2126
102
}
330
2126
100
AcDbXrecord
280
     1
290
     1
  0
XRECORD
  5
2129
102
{ACAD_REACTORS
330
2128
102
}
330
2128
100
AcDbXrecord
280
     1
290
     1
  0
XRECORD
  5
212B
102
{ACAD_REACTORS
330
212A
102
}
330
212A
100
AcDbXrecord
280
     1
290
     1
  0
XRECORD
  5
212D
102
{ACAD_REACTORS
330
212C
102
}
330
212C
100
AcDbXrecord
280
     1
290
     1
  0
XRECORD
  5
212F
102
{ACAD_REACTORS
330
212E
102
}
330
212E
100
AcDbXrecord
280
     1
290
     1
  0
XRECORD
  5
2131
102
{ACAD_REACTORS
330
2130
102
}
330
2130
100
AcDbXrecord
280
     1
290
     1
  0
XRECORD
  5
2133
102
{ACAD_REACTORS
330
2132
102
}
330
2132
100
AcDbXrecord
280
     1
290
     1
  0
XRECORD
  5
2135
102
{ACAD_REACTORS
330
2134
102
}
330
2134
100
AcDbXrecord
280
     1
290
     1
  0
XRECORD
  5
2137
102
{ACAD_REACTORS
330
2136
102
}
330
2136
100
AcDbXrecord
280
     1
290
     1
  0
XRECORD
  5
2139
102
{ACAD_REACTORS
330
2138
102
}
330
2138
100
AcDbXrecord
280
     1
290
     1
  0
XRECORD
  5
213B
102
{ACAD_REACTORS
330
213A
102
}
330
213A
100
AcDbXrecord
280
     1
290
     1
  0
XRECORD
  5
213D
102
{ACAD_REACTORS
330
213C
102
}
330
213C
100
AcDbXrecord
280
     1
290
     1
  0
XRECORD
  5
213F
102
{ACAD_REACTORS
330
213E
102
}
330
213E
100
AcDbXrecord
280
     1
290
     1
  0
XRECORD
  5
2141
102
{ACAD_REACTORS
330
2140
102
}
330
2140
100
AcDbXrecord
280
     1
290
     1
  0
XRECORD
  5
2143
102
{ACAD_REACTORS
330
2142
102
}
330
2142
100
AcDbXrecord
280
     1
290
     1
  0
XRECORD
  5
2145
102
{ACAD_REACTORS
330
2144
102
}
330
2144
100
AcDbXrecord
280
     1
290
     1
  0
XRECORD
  5
219D
102
{ACAD_REACTORS
330
219C
102
}
330
219C
100
AcDbXrecord
280
     1
 40
3752.0
  1
90,0°
  0
LAYOUT
  5
1E
102
{ACAD_XDICTIONARY
360
2196
102
}
102
{ACAD_REACTORS
330
1A
102
}
330
1A
100
AcDbPlotSettings
  1

  2
Ploter HP500
  4

  6

 40
0.0
 41
0.0
 42
0.0
 43
0.0
 44
0.0
 45
0.0
 46
0.0
 47
0.0
 48
0.0
 49
0.0
140
0.0
141
0.0
142
1.0
143
1.0
 70
   688
 72
     0
 73
     0
 74
     5
  7
monochrome.ctb
 75
    16
147
1.0
148
0.0
149
0.0
100
AcDbLayout
  1
Layout1
 70
     1
 71
     1
 10
0.0
 20
0.0
 11
420.0
 21
297.0
 12
0.0
 22
0.0
 32
0.0
 14
1.000000000000000E+20
 24
1.000000000000000E+20
 34
1.000000000000000E+20
 15
-1.000000000000000E+20
 25
-1.000000000000000E+20
 35
-1.000000000000000E+20
146
0.0
 13
0.0
 23
0.0
 33
0.0
 16
1.0
 26
0.0
 36
0.0
 17
0.0
 27
1.0
 37
0.0
 76
     0
330
1B
  0
LAYOUT
  5
26
102
{ACAD_XDICTIONARY
360
219A
102
}
102
{ACAD_REACTORS
330
1A
102
}
330
1A
100
AcDbPlotSettings
  1

  2
Ploter HP500
  4

  6

 40
0.0
 41
0.0
 42
0.0
 43
0.0
 44
0.0
 45
0.0
 46
0.0
 47
0.0
 48
0.0
 49
0.0
140
0.0
141
0.0
142
1.0
143
1.0
 70
   688
 72
     0
 73
     0
 74
     5
  7
monochrome.ctb
 75
    16
147
1.0
148
0.0
149
0.0
100
AcDbLayout
  1
Layout2
 70
     1
 71
     2
 10
0.0
 20
0.0
 11
12.0
 21
9.0
 12
0.0
 22
0.0
 32
0.0
 14
0.0
 24
0.0
 34
0.0
 15
0.0
 25
0.0
 35
0.0
146
0.0
 13
0.0
 23
0.0
 33
0.0
 16
1.0
 26
0.0
 36
0.0
 17
0.0
 27
1.0
 37
0.0
 76
     0
330
23
  0
LAYOUT
  5
22
102
{ACAD_XDICTIONARY
360
2198
102
}
102
{ACAD_REACTORS
330
1A
102
}
330
1A
100
AcDbPlotSettings
  1

  2
Ploter HP500
  4
User268
  6

 40
4.995333194732666
 41
16.97565841674804
 42
4.995330810546875
 43
16.97567749023437
 44
209.9733276367187
 45
296.9259948730469
 46
0.0
 47
0.0
 48
0.0
 49
0.0
140
0.0
141
0.0
142
1.0
143
1.0
 70
 11952
 72
     1
 73
     1
 74
     0
  7

 75
     0
147
1.0
148
-427.5957866592534
149
7.362384574453926
100
AcDbLayout
  1
Model
 70
     1
 71
     0
 10
0.0
 20
0.0
 11
12.0
 21
9.0
 12
0.0
 22
0.0
 32
0.0
 14
0.0
 24
0.0
 34
0.0
 15
0.0
 25
0.0
 35
0.0
146
0.0
 13
0.0
 23
0.0
 33
0.0
 16
1.0
 26
0.0
 36
0.0
 17
0.0
 27
1.0
 37
0.0
 76
     0
330
1F
331
20BA
  0
MATERIAL
  5
20C5
102
{ACAD_XDICTIONARY
360
20C6
102
}
102
{ACAD_REACTORS
330
20BC
102
}
330
20BC
100
AcDbMaterial
  1
ByBlock
 72
     0
 43
0.0008202099737533
 43
0.0
 43
0.0
 43
0.0
 43
0.0
 43
0.0008202099737533
 43
0.0
 43
0.0
 43
0.0
 43
0.0
 43
1.0
 43
0.0
 43
0.0
 43
0.0
 43
0.0
 43
1.0
 77
     0
 47
0.0008202099737533
 47
0.0
 47
0.0
 47
0.0
 47
0.0
 47
0.0008202099737533
 47
0.0
 47
0.0
 47
0.0
 47
0.0
 47
1.0
 47
0.0
 47
0.0
 47
0.0
 47
0.0
 47
1.0
171
     0
 49
0.0008202099737533
 49
0.0
 49
0.0
 49
0.0
 49
0.0
 49
0.0008202099737533
 49
0.0
 49
0.0
 49
0.0
 49
0.0
 49
1.0
 49
0.0
 49
0.0
 49
0.0
 49
0.0
 49
1.0
175
     0
142
0.0008202099737533
142
0.0
142
0.0
142
0.0
142
0.0
142
0.0008202099737533
142
0.0
142
0.0
142
0.0
142
0.0
142
1.0
142
0.0
142
0.0
142
0.0
142
0.0
142
1.0
179
     0
144
0.0008202099737533
144
0.0
144
0.0
144
0.0
144
0.0
144
0.0008202099737533
144
0.0
144
0.0
144
0.0
144
0.0
144
1.0
144
0.0
144
0.0
144
0.0
144
0.0
144
1.0
147
0.0008202099737533
147
0.0
147
0.0
147
0.0
147
0.0
147
0.0008202099737533
147
0.0
147
0.0
147
0.0
147
0.0
147
1.0
147
0.0
147
0.0
147
0.0
147
0.0
147
1.0
  0
MATERIAL
  5
20BD
102
{ACAD_XDICTIONARY
360
20BE
102
}
102
{ACAD_REACTORS
330
20BC
102
}
330
20BC
100
AcDbMaterial
  1
ByLayer
 72
     0
 43
0.0008202099737533
 43
0.0
 43
0.0
 43
0.0
 43
0.0
 43
0.0008202099737533
 43
0.0
 43
0.0
 43
0.0
 43
0.0
 43
1.0
 43
0.0
 43
0.0
 43
0.0
 43
0.0
 43
1.0
 77
     0
 47
0.0008202099737533
 47
0.0
 47
0.0
 47
0.0
 47
0.0
 47
0.0008202099737533
 47
0.0
 47
0.0
 47
0.0
 47
0.0
 47
1.0
 47
0.0
 47
0.0
 47
0.0
 47
0.0
 47
1.0
171
     0
 49
0.0008202099737533
 49
0.0
 49
0.0
 49
0.0
 49
0.0
 49
0.0008202099737533
 49
0.0
 49
0.0
 49
0.0
 49
0.0
 49
1.0
 49
0.0
 49
0.0
 49
0.0
 49
0.0
 49
1.0
175
     0
142
0.0008202099737533
142
0.0
142
0.0
142
0.0
142
0.0
142
0.0008202099737533
142
0.0
142
0.0
142
0.0
142
0.0
142
1.0
142
0.0
142
0.0
142
0.0
142
0.0
142
1.0
179
     0
144
0.0008202099737533
144
0.0
144
0.0
144
0.0
144
0.0
144
0.0008202099737533
144
0.0
144
0.0
144
0.0
144
0.0
144
1.0
144
0.0
144
0.0
144
0.0
144
0.0
144
1.0
147
0.0008202099737533
147
0.0
147
0.0
147
0.0
147
0.0
147
0.0008202099737533
147
0.0
147
0.0
147
0.0
147
0.0
147
1.0
147
0.0
147
0.0
147
0.0
147
0.0
147
1.0
  0
MATERIAL
  5
20CD
102
{ACAD_XDICTIONARY
360
20CE
102
}
102
{ACAD_REACTORS
330
20BC
102
}
330
20BC
100
AcDbMaterial
  1
Global
 72
     0
 43
0.0008202099737533
 43
0.0
 43
0.0
 43
0.0
 43
0.0
 43
0.0008202099737533
 43
0.0
 43
0.0
 43
0.0
 43
0.0
 43
1.0
 43
0.0
 43
0.0
 43
0.0
 43
0.0
 43
1.0
 77
     0
 47
0.0008202099737533
 47
0.0
 47
0.0
 47
0.0
 47
0.0
 47
0.0008202099737533
 47
0.0
 47
0.0
 47
0.0
 47
0.0
 47
1.0
 47
0.0
 47
0.0
 47
0.0
 47
0.0
 47
1.0
171
     0
 49
0.0008202099737533
 49
0.0
 49
0.0
 49
0.0
 49
0.0
 49
0.0008202099737533
 49
0.0
 49
0.0
 49
0.0
 49
0.0
 49
1.0
 49
0.0
 49
0.0
 49
0.0
 49
0.0
 49
1.0
175
     0
142
0.0008202099737533
142
0.0
142
0.0
142
0.0
142
0.0
142
0.0008202099737533
142
0.0
142
0.0
142
0.0
142
0.0
142
1.0
142
0.0
142
0.0
142
0.0
142
0.0
142
1.0
179
     0
144
0.0008202099737533
144
0.0
144
0.0
144
0.0
144
0.0
144
0.0008202099737533
144
0.0
144
0.0
144
0.0
144
0.0
144
1.0
144
0.0
144
0.0
144
0.0
144
0.0
144
1.0
147
0.0008202099737533
147
0.0
147
0.0
147
0.0
147
0.0
147
0.0008202099737533
147
0.0
147
0.0
147
0.0
147
0.0
147
1.0
147
0.0
147
0.0
147
0.0
147
0.0
147
1.0
  0
MLEADERSTYLE
  5
20FF
102
{ACAD_REACTORS
330
20FE
102
}
330
20FE
100
AcDbMLeaderStyle
170
     2
171
     1
172
     0
 90
        2
 40
0.0
 41
0.0
173
     1
 91
-1056964608
340
14
 92
       -2
290
     1
 42
2.0
291
     1
 43
0.36
  3
Standard
 44
4.0
300

342
11
174
     1
178
     6
175
     1
176
     0
 93
-1056964608
 45
4.0
292
     0
297
     0
 46
4.0
 94
-1056964608
 47
1.0
 49
1.0
140
1.0
293
     1
141
0.0
294
     1
177
     0
142
1.0
295
     0
296
     0
143
0.125
1001
ACAD_MLEADERVER
1070
     2
  0
MLINESTYLE
  5
18
102
{ACAD_REACTORS
330
17
102
}
330
17
100
AcDbMlineStyle
  2
STANDARD
 70
     0
  3

 62
   256
 51
90.0
 52
90.0
 71
     2
 49
0.5
 62
   256
  6
BYLAYER
 49
-0.5
 62
   256
  6
BYLAYER
  0
ACDBPLACEHOLDER
  5
F
102
{ACAD_REACTORS
330
E
102
}
330
E
  0
SCALE
  5
20ED
102
{ACAD_REACTORS
330
20EC
102
}
330
20EC
100
AcDbScale
 70
     0
300
1:1
140
1.0
141
1.0
290
     1
  0
SCALE
  5
20EE
102
{ACAD_REACTORS
330
20EC
102
}
330
20EC
100
AcDbScale
 70
     0
300
1:2
140
1.0
141
2.0
290
     0
  0
SCALE
  5
20EF
102
{ACAD_REACTORS
330
20EC
102
}
330
20EC
100
AcDbScale
 70
     0
300
1:4
140
1.0
141
4.0
290
     0
  0
SCALE
  5
20F0
102
{ACAD_REACTORS
330
20EC
102
}
330
20EC
100
AcDbScale
 70
     0
300
1:5
140
1.0
141
5.0
290
     0
  0
SCALE
  5
20F1
102
{ACAD_REACTORS
330
20EC
102
}
330
20EC
100
AcDbScale
 70
     0
300
1:8
140
1.0
141
8.0
290
     0
  0
SCALE
  5
20F2
102
{ACAD_REACTORS
330
20EC
102
}
330
20EC
100
AcDbScale
 70
     0
300
1:10
140
1.0
141
10.0
290
     0
  0
SCALE
  5
20F3
102
{ACAD_REACTORS
330
20EC
102
}
330
20EC
100
AcDbScale
 70
     0
300
1:16
140
1.0
141
16.0
290
     0
  0
SCALE
  5
20F4
102
{ACAD_REACTORS
330
20EC
102
}
330
20EC
100
AcDbScale
 70
     0
300
1:20
140
1.0
141
20.0
290
     0
  0
SCALE
  5
20F5
102
{ACAD_REACTORS
330
20EC
102
}
330
20EC
100
AcDbScale
 70
     0
300
1:30
140
1.0
141
30.0
290
     0
  0
SCALE
  5
20F6
102
{ACAD_REACTORS
330
20EC
102
}
330
20EC
100
AcDbScale
 70
     0
300
1:40
140
1.0
141
40.0
290
     0
  0
SCALE
  5
20F7
102
{ACAD_REACTORS
330
20EC
102
}
330
20EC
100
AcDbScale
 70
     0
300
1:50
140
1.0
141
50.0
290
     0
  0
SCALE
  5
20F8
102
{ACAD_REACTORS
330
20EC
102
}
330
20EC
100
AcDbScale
 70
     0
300
1:100
140
1.0
141
100.0
290
     0
  0
SCALE
  5
20F9
102
{ACAD_REACTORS
330
20EC
102
}
330
20EC
100
AcDbScale
 70
     0
300
2:1
140
2.0
141
1.0
290
     0
  0
SCALE
  5
20FA
102
{ACAD_REACTORS
330
20EC
102
}
330
20EC
100
AcDbScale
 70
     0
300
4:1
140
4.0
141
1.0
290
     0
  0
SCALE
  5
20FB
102
{ACAD_REACTORS
330
20EC
102
}
330
20EC
100
AcDbScale
 70
     0
300
8:1
140
8.0
141
1.0
290
     0
  0
SCALE
  5
20FC
102
{ACAD_REACTORS
330
20EC
102
}
330
20EC
100
AcDbScale
 70
     0
300
10:1
140
10.0
141
1.0
290
     0
  0
SCALE
  5
20FD
102
{ACAD_REACTORS
330
20EC
102
}
330
20EC
100
AcDbScale
 70
     0
300
100:1
140
100.0
141
1.0
290
     0
  0
TABLESTYLE
  5
20EB
102
{ACAD_XDICTIONARY
360
2192
102
}
102
{ACAD_REACTORS
330
20EA
102
}
330
20EA
100
AcDbTableStyle
  3
Standard
 70
     0
 71
     0
 40
1.5
 41
1.5
280
     0
281
     0
  7
Standard
140
4.5
170
     2
 62
     0
 63
     7
283
     0
274
    -2
284
     1
 64
     0
275
    -2
285
     1
 65
     0
276
    -2
286
     1
 66
     0
277
    -2
287
     1
 67
     0
278
    -2
288
     1
 68
     0
279
    -2
289
     1
 69
     0
  7
Standard
140
6.0
170
     5
 62
     0
 63
     7
283
     0
274
    -2
284
     1
 64
     0
275
    -2
285
     1
 65
     0
276
    -2
286
     1
 66
     0
277
    -2
287
     1
 67
     0
278
    -2
288
     1
 68
     0
279
    -2
289
     1
 69
     0
  7
Standard
140
4.5
170
     5
 62
     0
 63
     7
283
     0
274
    -2
284
     1
 64
     0
275
    -2
285
     1
 65
     0
276
    -2
286
     1
 66
     0
277
    -2
287
     1
 67
     0
278
    -2
288
     1
 68
     0
279
    -2
289
     1
 69
     0
  0
VISUALSTYLE
  5
20DB
102
{ACAD_XDICTIONARY
360
21AB
102
}
102
{ACAD_REACTORS
330
20D5
102
}
330
20D5
100
AcDbVisualStyle
  2
2dWireframe
 70
     4
 71
     0
 72
     2
 73
     0
 90
        0
 40
-0.6
 41
-30.0
 62
     5
 63
     7
 74
     1
 91
        4
 64
     7
 65
   257
 75
     1
175
     1
 42
1.0
 92
        0
 66
   257
 43
1.0
 76
     1
 77
     6
 78
     2
 67
     7
 79
     5
170
     0
171
     0
290
     0
174
     0
 93
        1
 44
0.0
173
     0
291
     0
 45
0.0
1001
ACAD
1000
AcDbSavedByObjectVersion
1070
     0
  0
VISUALSTYLE
  5
20DD
102
{ACAD_XDICTIONARY
360
21AF
102
}
102
{ACAD_REACTORS
330
20D5
102
}
330
20D5
100
AcDbVisualStyle
  2
3D Hidden
 70
     6
 71
     1
 72
     2
 73
     2
 90
        0
 40
-0.6
 41
-30.0
 62
     5
 63
     7
 74
     2
 91
        2
 64
     7
 65
   257
 75
     2
175
     1
 42
179.0
 92
        0
 66
   257
 43
1.0
 76
     1
 77
     6
 78
     2
 67
     7
 79
     3
170
     0
171
     0
290
     0
174
     0
 93
        1
 44
0.0
173
     0
291
     0
 45
0.0
1001
ACAD
1000
AcDbSavedByObjectVersion
1070
     0
  0
VISUALSTYLE
  5
20DC
102
{ACAD_XDICTIONARY
360
21AD
102
}
102
{ACAD_REACTORS
330
20D5
102
}
330
20D5
100
AcDbVisualStyle
  2
3dWireframe
 70
     5
 71
     0
 72
     2
 73
     0
 90
        0
 40
-0.6
 41
-30.0
 62
     5
 63
     7
 74
     1
 91
        4
 64
     7
 65
   257
 75
     1
175
     1
 42
1.0
 92
        0
 66
   257
 43
1.0
 76
     1
 77
     6
 78
     2
 67
     7
 79
     5
170
     0
171
     0
290
     0
174
     0
 93
        1
 44
0.0
173
     0
291
     0
 45
0.0
1001
ACAD
1000
AcDbSavedByObjectVersion
1070
     0
  0
VISUALSTYLE
  5
20DA
102
{ACAD_XDICTIONARY
360
21A9
102
}
102
{ACAD_REACTORS
330
20D5
102
}
330
20D5
100
AcDbVisualStyle
  2
Basic
 70
     7
 71
     1
 72
     0
 73
     1
 90
        0
 40
-0.6
 41
-30.0
 62
     5
 63
     7
 74
     0
 91
        4
 64
     7
 65
   257
 75
     1
175
     1
 42
1.0
 92
        8
 66
     7
 43
1.0
 76
     1
 77
     6
 78
     2
 67
     7
 79
     5
170
     0
171
     0
290
     0
174
     0
 93
        1
 44
0.0
173
     0
291
     1
 45
0.0
1001
ACAD
1000
AcDbSavedByObjectVersion
1070
     0
  0
VISUALSTYLE
  5
20E1
102
{ACAD_XDICTIONARY
360
21B7
102
}
102
{ACAD_REACTORS
330
20D5
102
}
330
20D5
100
AcDbVisualStyle
  2
Brighten
 70
    12
 71
     2
 72
     2
 73
     0
 90
        0
 40
-0.6
 41
-30.0
 62
     5
 63
     7
 74
     1
 91
        4
 64
     7
 65
   257
 75
     1
175
     1
 42
1.0
 92
        8
 66
     7
 43
1.0
 76
     1
 77
     6
 78
     2
 67
     7
 79
     5
170
     0
171
     0
290
     0
174
     0
 93
        1
 44
50.0
173
     0
291
     1
 45
0.0
1001
ACAD
1000
AcDbSavedByObjectVersion
1070
     0
  0
VISUALSTYLE
  5
20E5
102
{ACAD_XDICTIONARY
360
21BF
102
}
102
{ACAD_REACTORS
330
20D5
102
}
330
20D5
100
AcDbVisualStyle
  2
ColorChange
 70
    16
 71
     2
 72
     2
 73
     3
 90
        0
 40
-0.6
 41
-30.0
 62
     5
 63
     8
 74
     1
 91
        4
 64
     7
 65
   257
 75
     1
175
     1
 42
1.0
 92
        8
 66
     8
 43
1.0
 76
     1
 77
     6
 78
     2
 67
     7
 79
     5
170
     0
171
     0
290
     0
174
     0
 93
        1
 44
0.0
173
     0
291
     1
 45
0.0
1001
ACAD
1000
AcDbSavedByObjectVersion
1070
     0
  0
VISUALSTYLE
  5
20DE
102
{ACAD_XDICTIONARY
360
21B1
102
}
102
{ACAD_REACTORS
330
20D5
102
}
330
20D5
100
AcDbVisualStyle
  2
Conceptual
 70
     9
 71
     3
 72
     2
 73
     0
 90
        0
 40
-0.6
 41
-30.0
 62
     5
 63
     7
 74
     2
 91
        2
 64
     7
 65
   257
 75
     1
175
     1
 42
179.0
 92
        8
 66
     7
 43
1.0
 76
     1
 77
     6
 78
     2
 67
     7
 79
     3
170
     0
171
     0
290
     0
174
     0
 93
        1
 44
0.0
173
     0
291
     0
 45
0.0
1001
ACAD
1000
AcDbSavedByObjectVersion
1070
     0
  0
VISUALSTYLE
  5
20E0
102
{ACAD_XDICTIONARY
360
21B5
102
}
102
{ACAD_REACTORS
330
20D5
102
}
330
20D5
100
AcDbVisualStyle
  2
Dim
 70
    11
 71
     2
 72
     2
 73
     0
 90
        0
 40
-0.6
 41
-30.0
 62
     5
 63
     7
 74
     1
 91
        4
 64
     7
 65
   257
 75
     1
175
     1
 42
1.0
 92
        8
 66
     7
 43
1.0
 76
     1
 77
     6
 78
     2
 67
     7
 79
     5
170
     0
171
     0
290
     0
174
     0
 93
        1
 44
-50.0
173
     0
291
     1
 45
0.0
1001
ACAD
1000
AcDbSavedByObjectVersion
1070
     0
  0
VISUALSTYLE
  5
20E8
102
{ACAD_XDICTIONARY
360
21C5
102
}
102
{ACAD_REACTORS
330
20D5
102
}
330
20D5
100
AcDbVisualStyle
  2
EdgeColorOff
 70
    22
 71
     2
 72
     2
 73
     0
 90
        0
 40
-0.6
 41
-30.0
 62
     5
 63
     7
 74
     1
 91
        4
 64
     7
 65
   257
 75
     1
175
     1
 42
1.0
 92
        8
 66
     7
 43
1.0
 76
     1
 77
     6
 78
     2
 67
     7
 79
     5
170
     0
171
     0
290
     0
174
     0
 93
        1
 44
0.0
173
     0
291
     1
 45
0.0
1001
ACAD
1000
AcDbSavedByObjectVersion
1070
     0
  0
VISUALSTYLE
  5
20E4
102
{ACAD_XDICTIONARY
360
21BD
102
}
102
{ACAD_REACTORS
330
20D5
102
}
330
20D5
100
AcDbVisualStyle
  2
Facepattern
 70
    15
 71
     2
 72
     2
 73
     0
 90
        0
 40
-0.6
 41
-30.0
 62
     5
 63
     7
 74
     1
 91
        4
 64
     7
 65
   257
 75
     1
175
     1
 42
1.0
 92
        8
 66
     7
 43
1.0
 76
     1
 77
     6
 78
     2
 67
     7
 79
     5
170
     0
171
     0
290
     0
174
     0
 93
        1
 44
0.0
173
     0
291
     1
 45
0.0
1001
ACAD
1000
AcDbSavedByObjectVersion
1070
     0
  0
VISUALSTYLE
  5
20D6
102
{ACAD_XDICTIONARY
360
21A1
102
}
102
{ACAD_REACTORS
330
20D5
102
}
330
20D5
100
AcDbVisualStyle
  2
Flat
 70
     0
 71
     2
 72
     1
 73
     1
 90
        2
 40
-0.6
 41
30.0
 62
     5
 63
     7
 74
     0
 91
        4
 64
     7
 65
   257
 75
     1
175
     1
 42
1.0
 92
        8
 66
     7
 43
1.0
 76
     1
 77
     6
 78
     2
 67
     7
 79
     5
170
     0
171
     0
290
     0
174
     0
 93
       13
 44
0.0
173
     0
291
     1
 45
0.0
1001
ACAD
1000
AcDbSavedByObjectVersion
1070
     0
  0
VISUALSTYLE
  5
20D7
102
{ACAD_XDICTIONARY
360
21A3
102
}
102
{ACAD_REACTORS
330
20D5
102
}
330
20D5
100
AcDbVisualStyle
  2
FlatWithEdges
 70
     1
 71
     2
 72
     1
 73
     1
 90
        2
 40
-0.6
 41
30.0
 62
     5
 63
     7
 74
     1
 91
        4
 64
     7
 65
   257
 75
     1
175
     1
 42
1.0
 92
        0
 66
   257
 43
1.0
 76
     1
 77
     6
 78
     2
 67
     7
 79
     5
170
     0
171
     0
290
     0
174
     0
 93
       13
 44
0.0
173
     0
291
     1
 45
0.0
1001
ACAD
1000
AcDbSavedByObjectVersion
1070
     0
  0
VISUALSTYLE
  5
20D8
102
{ACAD_XDICTIONARY
360
21A5
102
}
102
{ACAD_REACTORS
330
20D5
102
}
330
20D5
100
AcDbVisualStyle
  2
Gouraud
 70
     2
 71
     2
 72
     2
 73
     1
 90
        2
 40
-0.6
 41
30.0
 62
     5
 63
     7
 74
     0
 91
        4
 64
     7
 65
   257
 75
     1
175
     1
 42
1.0
 92
        0
 66
     7
 43
1.0
 76
     1
 77
     6
 78
     2
 67
     7
 79
     5
170
     0
171
     0
290
     0
174
     0
 93
       13
 44
0.0
173
     0
291
     1
 45
0.0
1001
ACAD
1000
AcDbSavedByObjectVersion
1070
     0
  0
VISUALSTYLE
  5
20D9
102
{ACAD_XDICTIONARY
360
21A7
102
}
102
{ACAD_REACTORS
330
20D5
102
}
330
20D5
100
AcDbVisualStyle
  2
GouraudWithEdges
 70
     3
 71
     2
 72
     2
 73
     1
 90
        2
 40
-0.6
 41
30.0
 62
     5
 63
     7
 74
     1
 91
        4
 64
     7
 65
   257
 75
     1
175
     1
 42
1.0
 92
        0
 66
   257
 43
1.0
 76
     1
 77
     6
 78
     2
 67
     7
 79
     5
170
     0
171
     0
290
     0
174
     0
 93
       13
 44
0.0
173
     0
291
     1
 45
0.0
1001
ACAD
1000
AcDbSavedByObjectVersion
1070
     0
  0
VISUALSTYLE
  5
20E6
102
{ACAD_XDICTIONARY
360
21C1
102
}
102
{ACAD_REACTORS
330
20D5
102
}
330
20D5
100
AcDbVisualStyle
  2
JitterOff
 70
    20
 71
     2
 72
     2
 73
     0
 90
        0
 40
-0.6
 41
-30.0
 62
     5
 63
     7
 74
     1
 91
        4
 64
     7
 65
   257
 75
     1
175
     1
 42
1.0
 92
       10
 66
     7
 43
1.0
 76
     1
 77
     6
 78
     2
 67
     7
 79
     5
170
     0
171
     0
290
     0
174
     0
 93
        1
 44
0.0
173
     0
291
     1
 45
0.0
1001
ACAD
1000
AcDbSavedByObjectVersion
1070
     0
  0
VISUALSTYLE
  5
20E3
102
{ACAD_XDICTIONARY
360
21BB
102
}
102
{ACAD_REACTORS
330
20D5
102
}
330
20D5
100
AcDbVisualStyle
  2
Linepattern
 70
    14
 71
     2
 72
     2
 73
     0
 90
        0
 40
-0.6
 41
-30.0
 62
     5
 63
     7
 74
     1
 91
        4
 64
     7
 65
   257
 75
     7
175
     7
 42
1.0
 92
        8
 66
     7
 43
1.0
 76
     1
 77
     6
 78
     2
 67
     7
 79
     5
170
     0
171
     0
290
     0
174
     0
 93
        1
 44
0.0
173
     0
291
     1
 45
0.0
1001
ACAD
1000
AcDbSavedByObjectVersion
1070
     0
  0
VISUALSTYLE
  5
20E7
102
{ACAD_XDICTIONARY
360
21C3
102
}
102
{ACAD_REACTORS
330
20D5
102
}
330
20D5
100
AcDbVisualStyle
  2
OverhangOff
 70
    21
 71
     2
 72
     2
 73
     0
 90
        0
 40
-0.6
 41
-30.0
 62
     5
 63
     7
 74
     1
 91
        4
 64
     7
 65
   257
 75
     1
175
     1
 42
1.0
 92
        9
 66
     7
 43
1.0
 76
     1
 77
     6
 78
     2
 67
     7
 79
     5
170
     0
171
     0
290
     0
174
     0
 93
        1
 44
0.0
173
     0
291
     1
 45
0.0
1001
ACAD
1000
AcDbSavedByObjectVersion
1070
     0
  0
VISUALSTYLE
  5
20DF
102
{ACAD_XDICTIONARY
360
21B3
102
}
102
{ACAD_REACTORS
330
20D5
102
}
330
20D5
100
AcDbVisualStyle
  2
Realistic
 70
     8
 71
     2
 72
     2
 73
     0
 90
        0
 40
-0.6
 41
-30.0
 62
     5
 63
     7
 74
     1
 91
        0
 64
     7
 65
   257
 75
     1
175
     1
 42
1.0
 92
        8
 66
     8
 43
1.0
 76
     1
 77
     6
 78
     2
 67
     7
 79
     5
170
     0
171
     0
290
     0
174
     0
 93
       13
 44
0.0
173
     0
291
     0
 45
0.0
1001
ACAD
1000
AcDbSavedByObjectVersion
1070
     0
  0
VISUALSTYLE
  5
20E2
102
{ACAD_XDICTIONARY
360
21B9
102
}
102
{ACAD_REACTORS
330
20D5
102
}
330
20D5
100
AcDbVisualStyle
  2
Thicken
 70
    13
 71
     2
 72
     2
 73
     0
 90
        0
 40
-0.6
 41
-30.0
 62
     5
 63
     7
 74
     1
 91
        4
 64
     7
 65
   257
 75
     1
175
     1
 42
1.0
 92
       12
 66
     7
 43
1.0
 76
     1
 77
     6
 78
     2
 67
     7
 79
     5
170
     0
171
     0
290
     0
174
     0
 93
        1
 44
0.0
173
     0
291
     1
 45
0.0
1001
ACAD
1000
AcDbSavedByObjectVersion
1070
     0
  0
DICTIONARYVAR
  5
218E
102
{ACAD_REACTORS
330
3D
102
}
330
3D
100
DictionaryVariables
280
     0
  1
1:1
  0
DICTIONARYVAR
  5
218D
102
{ACAD_REACTORS
330
3D
102
}
330
3D
100
DictionaryVariables
280
     0
  1
STANDARD
  0
DICTIONARYVAR
  5
218C
102
{ACAD_REACTORS
330
3D
102
}
330
3D
100
DictionaryVariables
280
     0
  1
STANDARD
  0
DICTIONARYVAR
  5
3F
102
{ACAD_REACTORS
330
3D
102
}
330
3D
100
DictionaryVariables
280
     0
  1
2
  0
DICTIONARYVAR
  5
3E
102
{ACAD_REACTORS
330
3D
102
}
330
3D
100
DictionaryVariables
280
     0
  1
1
  0
DICTIONARYVAR
  5
2190
102
{ACAD_REACTORS
330
3D
102
}
330
3D
100
DictionaryVariables
280
     0
  1
0
  0
DICTIONARYVAR
  5
218F
102
{ACAD_REACTORS
330
3D
102
}
330
3D
100
DictionaryVariables
280
     0
  1
127
  0
DICTIONARYVAR
  5
2191
102
{ACAD_REACTORS
330
3D
102
}
330
3D
100
DictionaryVariables
280
     0
  1
2
  0
XRECORD
  5
2018
102
{ACAD_REACTORS
330
2017
102
}
330
2017
100
AcDbXrecord
280
     1
330
1835
330
1E1F
  0
DICTIONARY
  5
2196
330
1E
100
AcDbDictionary
280
     1
281
     1
  3
ACAD_XREC_ROUNDTRIP
360
2197
  0
DICTIONARY
  5
219A
330
26
100
AcDbDictionary
280
     1
281
     1
  3
ACAD_XREC_ROUNDTRIP
360
219B
  0
DICTIONARY
  5
2198
330
22
100
AcDbDictionary
280
     1
281
     1
  3
ACAD_XREC_ROUNDTRIP
360
2199
  0
DICTIONARY
  5
20C6
330
20C5
100
AcDbDictionary
280
     1
281
     1
  3
ACAD_XREC_ROUNDTRIP
360
219F
  3
BUMPTILE
360
20C8
  3
DIFFUSETILE
360
20C7
  3
OPACITYTILE
360
20CB
  3
REFLECTIONTILE
360
20CA
  3
REFRACTIONTILE
360
20CC
  3
SPECULARTILE
360
20C9
  0
DICTIONARY
  5
20BE
330
20BD
100
AcDbDictionary
280
     1
281
     1
  3
ACAD_XREC_ROUNDTRIP
360
219E
  3
BUMPTILE
360
20C0
  3
DIFFUSETILE
360
20BF
  3
OPACITYTILE
360
20C3
  3
REFLECTIONTILE
360
20C2
  3
REFRACTIONTILE
360
20C4
  3
SPECULARTILE
360
20C1
  0
DICTIONARY
  5
20CE
330
20CD
100
AcDbDictionary
280
     1
281
     1
  3
ACAD_XREC_ROUNDTRIP
360
21A0
  3
BUMPTILE
360
20D0
  3
DIFFUSETILE
360
20CF
  3
OPACITYTILE
360
20D3
  3
REFLECTIONTILE
360
20D2
  3
REFRACTIONTILE
360
20D4
  3
SPECULARTILE
360
20D1
  0
DICTIONARY
  5
2192
330
20EB
100
AcDbDictionary
280
     1
281
     1
  3
ACAD_ROUNDTRIP_2008_TABLESTYLE_CELLSTYLEMAP
360
2193
  3
ACAD_XREC_ROUNDTRIP
360
21C7
  0
DICTIONARY
  5
21AB
330
20DB
100
AcDbDictionary
280
     1
281
     1
  3
ACAD_XREC_ROUNDTRIP
360
21AC
  0
DICTIONARY
  5
21AF
330
20DD
100
AcDbDictionary
280
     1
281
     1
  3
ACAD_XREC_ROUNDTRIP
360
21B0
  0
DICTIONARY
  5
21AD
330
20DC
100
AcDbDictionary
280
     1
281
     1
  3
ACAD_XREC_ROUNDTRIP
360
21AE
  0
DICTIONARY
  5
21A9
330
20DA
100
AcDbDictionary
280
     1
281
     1
  3
ACAD_XREC_ROUNDTRIP
360
21AA
  0
DICTIONARY
  5
21B7
330
20E1
100
AcDbDictionary
280
     1
281
     1
  3
ACAD_XREC_ROUNDTRIP
360
21B8
  0
DICTIONARY
  5
21BF
330
20E5
100
AcDbDictionary
280
     1
281
     1
  3
ACAD_XREC_ROUNDTRIP
360
21C0
  0
DICTIONARY
  5
21B1
330
20DE
100
AcDbDictionary
280
     1
281
     1
  3
ACAD_XREC_ROUNDTRIP
360
21B2
  0
DICTIONARY
  5
21B5
330
20E0
100
AcDbDictionary
280
     1
281
     1
  3
ACAD_XREC_ROUNDTRIP
360
21B6
  0
DICTIONARY
  5
21C5
330
20E8
100
AcDbDictionary
280
     1
281
     1
  3
ACAD_XREC_ROUNDTRIP
360
21C6
  0
DICTIONARY
  5
21BD
330
20E4
100
AcDbDictionary
280
     1
281
     1
  3
ACAD_XREC_ROUNDTRIP
360
21BE
  0
DICTIONARY
  5
21A1
330
20D6
100
AcDbDictionary
280
     1
281
     1
  3
ACAD_XREC_ROUNDTRIP
360
21A2
  0
DICTIONARY
  5
21A3
330
20D7
100
AcDbDictionary
280
     1
281
     1
  3
ACAD_XREC_ROUNDTRIP
360
21A4
  0
DICTIONARY
  5
21A5
330
20D8
100
AcDbDictionary
280
     1
281
     1
  3
ACAD_XREC_ROUNDTRIP
360
21A6
  0
DICTIONARY
  5
21A7
330
20D9
100
AcDbDictionary
280
     1
281
     1
  3
ACAD_XREC_ROUNDTRIP
360
21A8
  0
DICTIONARY
  5
21C1
330
20E6
100
AcDbDictionary
280
     1
281
     1
  3
ACAD_XREC_ROUNDTRIP
360
21C2
  0
DICTIONARY
  5
21BB
330
20E3
100
AcDbDictionary
280
     1
281
     1
  3
ACAD_XREC_ROUNDTRIP
360
21BC
  0
DICTIONARY
  5
21C3
330
20E7
100
AcDbDictionary
280
     1
281
     1
  3
ACAD_XREC_ROUNDTRIP
360
21C4
  0
DICTIONARY
  5
21B3
330
20DF
100
AcDbDictionary
280
     1
281
     1
  3
ACAD_XREC_ROUNDTRIP
360
21B4
  0
DICTIONARY
  5
21B9
330
20E2
100
AcDbDictionary
280
     1
281
     1
  3
ACAD_XREC_ROUNDTRIP
360
21BA
  0
XRECORD
  5
2197
102
{ACAD_REACTORS
330
2196
102
}
330
2196
100
AcDbXrecord
280
     1
102
SHADEPLOT
 70
     0
102
SHADEPLOTRESLEVEL
 70
     2
102
SHADEPLOTCUSTOMDPI
 70
   300
  0
XRECORD
  5
219B
102
{ACAD_REACTORS
330
219A
102
}
330
219A
100
AcDbXrecord
280
     1
102
SHADEPLOT
 70
     0
102
SHADEPLOTRESLEVEL
 70
     2
102
SHADEPLOTCUSTOMDPI
 70
   300
  0
XRECORD
  5
2199
102
{ACAD_REACTORS
330
2198
102
}
330
2198
100
AcDbXrecord
280
     1
102
SHADEPLOT
 70
     0
102
SHADEPLOTRESLEVEL
 70
     2
102
SHADEPLOTCUSTOMDPI
 70
   300
  0
XRECORD
  5
219F
102
{ACAD_REACTORS
330
20C6
102
}
330
20C6
100
AcDbXrecord
280
     1
102
MATERIAL
148
0.0
149
0.0
149
0.0
 93
        0
 94
      127
282
     0
 72
     0
 77
     0
171
     0
175
     0
179
     0
273
     0
  0
XRECORD
  5
20C8
102
{ACAD_REACTORS
330
20C6
102
}
330
20C6
100
AcDbXrecord
280
     1
270
     1
271
     1
  0
XRECORD
  5
20C7
102
{ACAD_REACTORS
330
20C6
102
}
330
20C6
100
AcDbXrecord
280
     1
270
     1
271
     1
  0
XRECORD
  5
20CB
102
{ACAD_REACTORS
330
20C6
102
}
330
20C6
100
AcDbXrecord
280
     1
270
     1
271
     1
  0
XRECORD
  5
20CA
102
{ACAD_REACTORS
330
20C6
102
}
330
20C6
100
AcDbXrecord
280
     1
270
     1
271
     1
  0
XRECORD
  5
20CC
102
{ACAD_REACTORS
330
20C6
102
}
330
20C6
100
AcDbXrecord
280
     1
270
     1
271
     1
  0
XRECORD
  5
20C9
102
{ACAD_REACTORS
330
20C6
102
}
330
20C6
100
AcDbXrecord
280
     1
270
     1
271
     1
  0
XRECORD
  5
219E
102
{ACAD_REACTORS
330
20BE
102
}
330
20BE
100
AcDbXrecord
280
     1
102
MATERIAL
148
0.0
149
0.0
149
0.0
 93
        0
 94
      127
282
     0
 72
     0
 77
     0
171
     0
175
     0
179
     0
273
     0
  0
XRECORD
  5
20C0
102
{ACAD_REACTORS
330
20BE
102
}
330
20BE
100
AcDbXrecord
280
     1
270
     1
271
     1
  0
XRECORD
  5
20BF
102
{ACAD_REACTORS
330
20BE
102
}
330
20BE
100
AcDbXrecord
280
     1
270
     1
271
     1
  0
XRECORD
  5
20C3
102
{ACAD_REACTORS
330
20BE
102
}
330
20BE
100
AcDbXrecord
280
     1
270
     1
271
     1
  0
XRECORD
  5
20C2
102
{ACAD_REACTORS
330
20BE
102
}
330
20BE
100
AcDbXrecord
280
     1
270
     1
271
     1
  0
XRECORD
  5
20C4
102
{ACAD_REACTORS
330
20BE
102
}
330
20BE
100
AcDbXrecord
280
     1
270
     1
271
     1
  0
XRECORD
  5
20C1
102
{ACAD_REACTORS
330
20BE
102
}
330
20BE
100
AcDbXrecord
280
     1
270
     1
271
     1
  0
XRECORD
  5
21A0
102
{ACAD_REACTORS
330
20CE
102
}
330
20CE
100
AcDbXrecord
280
     1
102
MATERIAL
148
0.0
149
0.0
149
0.0
 93
        0
 94
      127
282
     0
 72
     0
 77
     0
171
     0
175
     0
179
     0
273
     0
  0
XRECORD
  5
20D0
102
{ACAD_REACTORS
330
20CE
102
}
330
20CE
100
AcDbXrecord
280
     1
270
     1
271
     1
  0
XRECORD
  5
20CF
102
{ACAD_REACTORS
330
20CE
102
}
330
20CE
100
AcDbXrecord
280
     1
270
     1
271
     1
  0
XRECORD
  5
20D3
102
{ACAD_REACTORS
330
20CE
102
}
330
20CE
100
AcDbXrecord
280
     1
270
     1
271
     1
  0
XRECORD
  5
20D2
102
{ACAD_REACTORS
330
20CE
102
}
330
20CE
100
AcDbXrecord
280
     1
270
     1
271
     1
  0
XRECORD
  5
20D4
102
{ACAD_REACTORS
330
20CE
102
}
330
20CE
100
AcDbXrecord
280
     1
270
     1
271
     1
  0
XRECORD
  5
20D1
102
{ACAD_REACTORS
330
20CE
102
}
330
20CE
100
AcDbXrecord
280
     1
270
     1
271
     1
  0
CELLSTYLEMAP
  5
2193
102
{ACAD_REACTORS
330
2192
102
}
330
2192
100
AcDbCellStyleMap
 90
        3
300
CELLSTYLE
  1
TABLEFORMAT_BEGIN
 90
        5
170
     1
 91
        0
 92
    32768
 62
   257
 93
        1
300
CONTENTFORMAT
  1
CONTENTFORMAT_BEGIN
 90
        0
 91
        0
 92
      512
 93
        0
300

 40
0.0
140
1.0
 94
        5
 62
     0
340
11
144
6.0
309
CONTENTFORMAT_END
171
     1
301
MARGIN
  1
CELLMARGIN_BEGIN
 40
1.5
 40
1.5
 40
1.5
 40
1.5
 40
4.5
 40
4.5
309
CELLMARGIN_END
 94
        6
 95
        1
302
GRIDFORMAT
  1
GRIDFORMAT_BEGIN
 90
        0
 91
        1
 62
     0
 92
       -2
340
0
 93
        0
 40
1.125
309
GRIDFORMAT_END
 95
        2
302
GRIDFORMAT
  1
GRIDFORMAT_BEGIN
 90
        0
 91
        1
 62
     0
 92
       -2
340
0
 93
        0
 40
1.125
309
GRIDFORMAT_END
 95
        4
302
GRIDFORMAT
  1
GRIDFORMAT_BEGIN
 90
        0
 91
        1
 62
     0
 92
       -2
340
0
 93
        0
 40
1.125
309
GRIDFORMAT_END
 95
        8
302
GRIDFORMAT
  1
GRIDFORMAT_BEGIN
 90
        0
 91
        1
 62
     0
 92
       -2
340
0
 93
        0
 40
1.125
309
GRIDFORMAT_END
 95
       16
302
GRIDFORMAT
  1
GRIDFORMAT_BEGIN
 90
        0
 91
        1
 62
     0
 92
       -2
340
0
 93
        0
 40
1.125
309
GRIDFORMAT_END
 95
       32
302
GRIDFORMAT
  1
GRIDFORMAT_BEGIN
 90
        0
 91
        1
 62
     0
 92
       -2
340
0
 93
        0
 40
1.125
309
GRIDFORMAT_END
309
TABLEFORMAT_END
  1
CELLSTYLE_BEGIN
 90
        1
 91
        1
300
_TITLE
309
CELLSTYLE_END
300
CELLSTYLE
  1
TABLEFORMAT_BEGIN
 90
        5
170
     1
 91
        0
 92
        0
 62
   257
 93
        1
300
CONTENTFORMAT
  1
CONTENTFORMAT_BEGIN
 90
        0
 91
        0
 92
      512
 93
        0
300

 40
0.0
140
1.0
 94
        5
 62
     0
340
11
144
4.5
309
CONTENTFORMAT_END
171
     1
301
MARGIN
  1
CELLMARGIN_BEGIN
 40
1.5
 40
1.5
 40
1.5
 40
1.5
 40
4.5
 40
4.5
309
CELLMARGIN_END
 94
        6
 95
        1
302
GRIDFORMAT
  1
GRIDFORMAT_BEGIN
 90
        0
 91
        1
 62
     0
 92
       -2
340
0
 93
        0
 40
1.125
309
GRIDFORMAT_END
 95
        2
302
GRIDFORMAT
  1
GRIDFORMAT_BEGIN
 90
        0
 91
        1
 62
     0
 92
       -2
340
0
 93
        0
 40
1.125
309
GRIDFORMAT_END
 95
        4
302
GRIDFORMAT
  1
GRIDFORMAT_BEGIN
 90
        0
 91
        1
 62
     0
 92
       -2
340
0
 93
        0
 40
1.125
309
GRIDFORMAT_END
 95
        8
302
GRIDFORMAT
  1
GRIDFORMAT_BEGIN
 90
        0
 91
        1
 62
     0
 92
       -2
340
0
 93
        0
 40
1.125
309
GRIDFORMAT_END
 95
       16
302
GRIDFORMAT
  1
GRIDFORMAT_BEGIN
 90
        0
 91
        1
 62
     0
 92
       -2
340
0
 93
        0
 40
1.125
309
GRIDFORMAT_END
 95
       32
302
GRIDFORMAT
  1
GRIDFORMAT_BEGIN
 90
        0
 91
        1
 62
     0
 92
       -2
340
0
 93
        0
 40
1.125
309
GRIDFORMAT_END
309
TABLEFORMAT_END
  1
CELLSTYLE_BEGIN
 90
        2
 91
        1
300
_HEADER
309
CELLSTYLE_END
300
CELLSTYLE
  1
TABLEFORMAT_BEGIN
 90
        5
170
     1
 91
        0
 92
        0
 62
   257
 93
        1
300
CONTENTFORMAT
  1
CONTENTFORMAT_BEGIN
 90
        0
 91
        0
 92
      512
 93
        0
300

 40
0.0
140
1.0
 94
        2
 62
     0
340
11
144
4.5
309
CONTENTFORMAT_END
171
     1
301
MARGIN
  1
CELLMARGIN_BEGIN
 40
1.5
 40
1.5
 40
1.5
 40
1.5
 40
4.5
 40
4.5
309
CELLMARGIN_END
 94
        6
 95
        1
302
GRIDFORMAT
  1
GRIDFORMAT_BEGIN
 90
        0
 91
        1
 62
     0
 92
       -2
340
0
 93
        0
 40
1.125
309
GRIDFORMAT_END
 95
        2
302
GRIDFORMAT
  1
GRIDFORMAT_BEGIN
 90
        0
 91
        1
 62
     0
 92
       -2
340
0
 93
        0
 40
1.125
309
GRIDFORMAT_END
 95
        4
302
GRIDFORMAT
  1
GRIDFORMAT_BEGIN
 90
        0
 91
        1
 62
     0
 92
       -2
340
0
 93
        0
 40
1.125
309
GRIDFORMAT_END
 95
        8
302
GRIDFORMAT
  1
GRIDFORMAT_BEGIN
 90
        0
 91
        1
 62
     0
 92
       -2
340
0
 93
        0
 40
1.125
309
GRIDFORMAT_END
 95
       16
302
GRIDFORMAT
  1
GRIDFORMAT_BEGIN
 90
        0
 91
        1
 62
     0
 92
       -2
340
0
 93
        0
 40
1.125
309
GRIDFORMAT_END
 95
       32
302
GRIDFORMAT
  1
GRIDFORMAT_BEGIN
 90
        0
 91
        1
 62
     0
 92
       -2
340
0
 93
        0
 40
1.125
309
GRIDFORMAT_END
309
TABLEFORMAT_END
  1
CELLSTYLE_BEGIN
 90
        3
 91
        2
300
_DATA
309
CELLSTYLE_END
  0
XRECORD
  5
21C7
102
{ACAD_REACTORS
330
2192
102
}
330
2192
100
AcDbXrecord
280
     1
102
ACAD_ROUNDTRIP_PRE2007_TABLESTYLE
 90
      512
 91
        0
  1

 92
      512
 93
        0
  2

 94
      512
 95
        0
  3

  0
XRECORD
  5
21AC
102
{ACAD_REACTORS
330
21AB
102
}
330
21AB
100
AcDbXrecord
280
     1
102
RTVSPropertyOp0
 70
     1
102
RTVSPropertyOp1
 70
     1
102
RTVSPropertyOp2
 70
     1
102
RTVSPropertyOp3
 70
     1
102
RTVSPropertyOp4
 70
     1
102
RTVSPropertyOp5
 70
     1
102
RTVSPropertyOp6
 70
     1
102
RTVSPropertyOp7
 70
     1
102
RTVSPropertyOp8
 70
     1
102
RTVSPropertyOp9
 70
     1
102
RTVSPropertyOp10
 70
     1
102
RTVSPropertyOp11
 70
     1
102
RTVSPropertyOp12
 70
     1
102
RTVSPropertyOp13
 70
     1
102
RTVSPropertyOp14
 70
     1
102
RTVSPropertyOp15
 70
     1
102
RTVSPropertyOp16
 70
     1
102
RTVSPropertyOp17
 70
     1
102
RTVSPropertyOp18
 70
     1
102
RTVSPropertyOp19
 70
     1
102
RTVSPropertyOp20
 70
     1
102
RTVSPropertyOp21
 70
     1
102
RTVSPropertyOp22
 70
     1
102
RTVSPropertyOp23
 70
     1
102
RTVSPropertyOp24
 70
     1
102
RTVSPropertyOp25
 70
     1
102
RTVSPropertyOp26
 70
     1
102
RTVSPropertyOp27
 70
     1
  0
XRECORD
  5
21B0
102
{ACAD_REACTORS
330
21AF
102
}
330
21AF
100
AcDbXrecord
280
     1
102
RTVSPropertyOp0
 70
     1
102
RTVSPropertyOp1
 70
     1
102
RTVSPropertyOp2
 70
     1
102
RTVSPropertyOp3
 70
     1
102
RTVSPropertyOp4
 70
     1
102
RTVSPropertyOp5
 70
     1
102
RTVSPropertyOp6
 70
     1
102
RTVSPropertyOp7
 70
     1
102
RTVSPropertyOp8
 70
     1
102
RTVSPropertyOp9
 70
     1
102
RTVSPropertyOp10
 70
     1
102
RTVSPropertyOp11
 70
     1
102
RTVSPropertyOp12
 70
     1
102
RTVSPropertyOp13
 70
     1
102
RTVSPropertyOp14
 70
     1
102
RTVSPropertyOp15
 70
     1
102
RTVSPropertyOp16
 70
     1
102
RTVSPropertyOp17
 70
     1
102
RTVSPropertyOp18
 70
     1
102
RTVSPropertyOp19
 70
     1
102
RTVSPropertyOp20
 70
     1
102
RTVSPropertyOp21
 70
     1
102
RTVSPropertyOp22
 70
     1
102
RTVSPropertyOp23
 70
     1
102
RTVSPropertyOp24
 70
     1
102
RTVSPropertyOp25
 70
     1
102
RTVSPropertyOp26
 70
     1
102
RTVSPropertyOp27
 70
     1
  0
XRECORD
  5
21AE
102
{ACAD_REACTORS
330
21AD
102
}
330
21AD
100
AcDbXrecord
280
     1
102
RTVSPropertyOp0
 70
     1
102
RTVSPropertyOp1
 70
     1
102
RTVSPropertyOp2
 70
     1
102
RTVSPropertyOp3
 70
     1
102
RTVSPropertyOp4
 70
     1
102
RTVSPropertyOp5
 70
     1
102
RTVSPropertyOp6
 70
     1
102
RTVSPropertyOp7
 70
     1
102
RTVSPropertyOp8
 70
     1
102
RTVSPropertyOp9
 70
     1
102
RTVSPropertyOp10
 70
     1
102
RTVSPropertyOp11
 70
     1
102
RTVSPropertyOp12
 70
     1
102
RTVSPropertyOp13
 70
     1
102
RTVSPropertyOp14
 70
     1
102
RTVSPropertyOp15
 70
     1
102
RTVSPropertyOp16
 70
     1
102
RTVSPropertyOp17
 70
     1
102
RTVSPropertyOp18
 70
     1
102
RTVSPropertyOp19
 70
     1
102
RTVSPropertyOp20
 70
     1
102
RTVSPropertyOp21
 70
     1
102
RTVSPropertyOp22
 70
     1
102
RTVSPropertyOp23
 70
     1
102
RTVSPropertyOp24
 70
     1
102
RTVSPropertyOp25
 70
     1
102
RTVSPropertyOp26
 70
     1
102
RTVSPropertyOp27
 70
     1
  0
XRECORD
  5
21AA
102
{ACAD_REACTORS
330
21A9
102
}
330
21A9
100
AcDbXrecord
280
     1
102
RTVSPropertyOp0
 70
     1
102
RTVSPropertyOp1
 70
     1
102
RTVSPropertyOp2
 70
     1
102
RTVSPropertyOp3
 70
     1
102
RTVSPropertyOp4
 70
     1
102
RTVSPropertyOp5
 70
     1
102
RTVSPropertyOp6
 70
     1
102
RTVSPropertyOp7
 70
     1
102
RTVSPropertyOp8
 70
     1
102
RTVSPropertyOp9
 70
     1
102
RTVSPropertyOp10
 70
     1
102
RTVSPropertyOp11
 70
     1
102
RTVSPropertyOp12
 70
     1
102
RTVSPropertyOp13
 70
     1
102
RTVSPropertyOp14
 70
     1
102
RTVSPropertyOp15
 70
     1
102
RTVSPropertyOp16
 70
     1
102
RTVSPropertyOp17
 70
     1
102
RTVSPropertyOp18
 70
     1
102
RTVSPropertyOp19
 70
     1
102
RTVSPropertyOp20
 70
     1
102
RTVSPropertyOp21
 70
     1
102
RTVSPropertyOp22
 70
     1
102
RTVSPropertyOp23
 70
     1
102
RTVSPropertyOp24
 70
     1
102
RTVSPropertyOp25
 70
     1
102
RTVSPropertyOp26
 70
     1
102
RTVSPropertyOp27
 70
     1
  0
XRECORD
  5
21B8
102
{ACAD_REACTORS
330
21B7
102
}
330
21B7
100
AcDbXrecord
280
     1
102
RTVSPropertyOp0
 70
     1
102
RTVSPropertyOp1
 70
     1
102
RTVSPropertyOp2
 70
     1
102
RTVSPropertyOp3
 70
     1
102
RTVSPropertyOp4
 70
     1
102
RTVSPropertyOp5
 70
     1
102
RTVSPropertyOp6
 70
     1
102
RTVSPropertyOp7
 70
     1
102
RTVSPropertyOp8
 70
     1
102
RTVSPropertyOp9
 70
     1
102
RTVSPropertyOp10
 70
     1
102
RTVSPropertyOp11
 70
     1
102
RTVSPropertyOp12
 70
     1
102
RTVSPropertyOp13
 70
     1
102
RTVSPropertyOp14
 70
     1
102
RTVSPropertyOp15
 70
     1
102
RTVSPropertyOp16
 70
     1
102
RTVSPropertyOp17
 70
     1
102
RTVSPropertyOp18
 70
     1
102
RTVSPropertyOp19
 70
     1
102
RTVSPropertyOp20
 70
     1
102
RTVSPropertyOp21
 70
     1
102
RTVSPropertyOp22
 70
     1
102
RTVSPropertyOp23
 70
     1
102
RTVSPropertyOp24
 70
     1
102
RTVSPropertyOp25
 70
     1
102
RTVSPropertyOp26
 70
     1
102
RTVSPropertyOp27
 70
     1
  0
XRECORD
  5
21C0
102
{ACAD_REACTORS
330
21BF
102
}
330
21BF
100
AcDbXrecord
280
     1
102
RTVSPropertyOp0
 70
     1
102
RTVSPropertyOp1
 70
     1
102
RTVSPropertyOp2
 70
     1
102
RTVSPropertyOp3
 70
     1
102
RTVSPropertyOp4
 70
     1
102
RTVSPropertyOp5
 70
     1
102
RTVSPropertyOp6
 70
     1
102
RTVSPropertyOp7
 70
     1
102
RTVSPropertyOp8
 70
     1
102
RTVSPropertyOp9
 70
     1
102
RTVSPropertyOp10
 70
     1
102
RTVSPropertyOp11
 70
     1
102
RTVSPropertyOp12
 70
     1
102
RTVSPropertyOp13
 70
     1
102
RTVSPropertyOp14
 70
     1
102
RTVSPropertyOp15
 70
     1
102
RTVSPropertyOp16
 70
     1
102
RTVSPropertyOp17
 70
     1
102
RTVSPropertyOp18
 70
     1
102
RTVSPropertyOp19
 70
     1
102
RTVSPropertyOp20
 70
     1
102
RTVSPropertyOp21
 70
     1
102
RTVSPropertyOp22
 70
     1
102
RTVSPropertyOp23
 70
     1
102
RTVSPropertyOp24
 70
     1
102
RTVSPropertyOp25
 70
     1
102
RTVSPropertyOp26
 70
     1
102
RTVSPropertyOp27
 70
     1
  0
XRECORD
  5
21B2
102
{ACAD_REACTORS
330
21B1
102
}
330
21B1
100
AcDbXrecord
280
     1
102
RTVSPropertyOp0
 70
     1
102
RTVSPropertyOp1
 70
     1
102
RTVSPropertyOp2
 70
     1
102
RTVSPropertyOp3
 70
     1
102
RTVSPropertyOp4
 70
     1
102
RTVSPropertyOp5
 70
     1
102
RTVSPropertyOp6
 70
     1
102
RTVSPropertyOp7
 70
     1
102
RTVSPropertyOp8
 70
     1
102
RTVSPropertyOp9
 70
     1
102
RTVSPropertyOp10
 70
     1
102
RTVSPropertyOp11
 70
     1
102
RTVSPropertyOp12
 70
     1
102
RTVSPropertyOp13
 70
     1
102
RTVSPropertyOp14
 70
     1
102
RTVSPropertyOp15
 70
     1
102
RTVSPropertyOp16
 70
     1
102
RTVSPropertyOp17
 70
     1
102
RTVSPropertyOp18
 70
     1
102
RTVSPropertyOp19
 70
     1
102
RTVSPropertyOp20
 70
     1
102
RTVSPropertyOp21
 70
     1
102
RTVSPropertyOp22
 70
     1
102
RTVSPropertyOp23
 70
     1
102
RTVSPropertyOp24
 70
     1
102
RTVSPropertyOp25
 70
     1
102
RTVSPropertyOp26
 70
     1
102
RTVSPropertyOp27
 70
     1
  0
XRECORD
  5
21B6
102
{ACAD_REACTORS
330
21B5
102
}
330
21B5
100
AcDbXrecord
280
     1
102
RTVSPropertyOp0
 70
     1
102
RTVSPropertyOp1
 70
     1
102
RTVSPropertyOp2
 70
     1
102
RTVSPropertyOp3
 70
     1
102
RTVSPropertyOp4
 70
     1
102
RTVSPropertyOp5
 70
     1
102
RTVSPropertyOp6
 70
     1
102
RTVSPropertyOp7
 70
     1
102
RTVSPropertyOp8
 70
     1
102
RTVSPropertyOp9
 70
     1
102
RTVSPropertyOp10
 70
     1
102
RTVSPropertyOp11
 70
     1
102
RTVSPropertyOp12
 70
     1
102
RTVSPropertyOp13
 70
     1
102
RTVSPropertyOp14
 70
     1
102
RTVSPropertyOp15
 70
     1
102
RTVSPropertyOp16
 70
     1
102
RTVSPropertyOp17
 70
     1
102
RTVSPropertyOp18
 70
     1
102
RTVSPropertyOp19
 70
     1
102
RTVSPropertyOp20
 70
     1
102
RTVSPropertyOp21
 70
     1
102
RTVSPropertyOp22
 70
     1
102
RTVSPropertyOp23
 70
     1
102
RTVSPropertyOp24
 70
     1
102
RTVSPropertyOp25
 70
     1
102
RTVSPropertyOp26
 70
     1
102
RTVSPropertyOp27
 70
     1
  0
XRECORD
  5
21C6
102
{ACAD_REACTORS
330
21C5
102
}
330
21C5
100
AcDbXrecord
280
     1
102
RTVSPropertyOp0
 70
     0
102
RTVSPropertyOp1
 70
     0
102
RTVSPropertyOp2
 70
     0
102
RTVSPropertyOp3
 70
     0
102
RTVSPropertyOp4
 70
     0
102
RTVSPropertyOp5
 70
     0
102
RTVSPropertyOp6
 70
     0
102
RTVSPropertyOp7
 70
     0
102
RTVSPropertyOp8
 70
     0
102
RTVSPropertyOp9
 70
     0
102
RTVSPropertyOp10
 70
     0
102
RTVSPropertyOp11
 70
     0
102
RTVSPropertyOp12
 70
     0
102
RTVSPropertyOp13
 70
     0
102
RTVSPropertyOp14
 70
     2
102
RTVSPropertyOp15
 70
     0
102
RTVSPropertyOp16
 70
     0
102
RTVSPropertyOp17
 70
     0
102
RTVSPropertyOp18
 70
     0
102
RTVSPropertyOp19
 70
     0
102
RTVSPropertyOp20
 70
     0
102
RTVSPropertyOp21
 70
     0
102
RTVSPropertyOp22
 70
     0
102
RTVSPropertyOp23
 70
     0
102
RTVSPropertyOp24
 70
     0
102
RTVSPropertyOp25
 70
     0
102
RTVSPropertyOp26
 70
     0
102
RTVSPropertyOp27
 70
     0
  0
XRECORD
  5
21BE
102
{ACAD_REACTORS
330
21BD
102
}
330
21BD
100
AcDbXrecord
280
     1
102
RTVSPropertyOp0
 70
     1
102
RTVSPropertyOp1
 70
     1
102
RTVSPropertyOp2
 70
     1
102
RTVSPropertyOp3
 70
     1
102
RTVSPropertyOp4
 70
     1
102
RTVSPropertyOp5
 70
     1
102
RTVSPropertyOp6
 70
     1
102
RTVSPropertyOp7
 70
     1
102
RTVSPropertyOp8
 70
     1
102
RTVSPropertyOp9
 70
     1
102
RTVSPropertyOp10
 70
     1
102
RTVSPropertyOp11
 70
     1
102
RTVSPropertyOp12
 70
     1
102
RTVSPropertyOp13
 70
     1
102
RTVSPropertyOp14
 70
     1
102
RTVSPropertyOp15
 70
     1
102
RTVSPropertyOp16
 70
     1
102
RTVSPropertyOp17
 70
     1
102
RTVSPropertyOp18
 70
     1
102
RTVSPropertyOp19
 70
     1
102
RTVSPropertyOp20
 70
     1
102
RTVSPropertyOp21
 70
     1
102
RTVSPropertyOp22
 70
     1
102
RTVSPropertyOp23
 70
     1
102
RTVSPropertyOp24
 70
     1
102
RTVSPropertyOp25
 70
     1
102
RTVSPropertyOp26
 70
     1
102
RTVSPropertyOp27
 70
     1
  0
XRECORD
  5
21A2
102
{ACAD_REACTORS
330
21A1
102
}
330
21A1
100
AcDbXrecord
280
     1
102
RTVSPropertyOp0
 70
     1
102
RTVSPropertyOp1
 70
     1
102
RTVSPropertyOp2
 70
     1
102
RTVSPropertyOp3
 70
     1
102
RTVSPropertyOp4
 70
     1
102
RTVSPropertyOp5
 70
     1
102
RTVSPropertyOp6
 70
     1
102
RTVSPropertyOp7
 70
     1
102
RTVSPropertyOp8
 70
     1
102
RTVSPropertyOp9
 70
     1
102
RTVSPropertyOp10
 70
     1
102
RTVSPropertyOp11
 70
     1
102
RTVSPropertyOp12
 70
     1
102
RTVSPropertyOp13
 70
     1
102
RTVSPropertyOp14
 70
     1
102
RTVSPropertyOp15
 70
     1
102
RTVSPropertyOp16
 70
     1
102
RTVSPropertyOp17
 70
     1
102
RTVSPropertyOp18
 70
     1
102
RTVSPropertyOp19
 70
     1
102
RTVSPropertyOp20
 70
     1
102
RTVSPropertyOp21
 70
     1
102
RTVSPropertyOp22
 70
     1
102
RTVSPropertyOp23
 70
     1
102
RTVSPropertyOp24
 70
     1
102
RTVSPropertyOp25
 70
     1
102
RTVSPropertyOp26
 70
     1
102
RTVSPropertyOp27
 70
     1
  0
XRECORD
  5
21A4
102
{ACAD_REACTORS
330
21A3
102
}
330
21A3
100
AcDbXrecord
280
     1
102
RTVSPropertyOp0
 70
     1
102
RTVSPropertyOp1
 70
     1
102
RTVSPropertyOp2
 70
     1
102
RTVSPropertyOp3
 70
     1
102
RTVSPropertyOp4
 70
     1
102
RTVSPropertyOp5
 70
     1
102
RTVSPropertyOp6
 70
     1
102
RTVSPropertyOp7
 70
     1
102
RTVSPropertyOp8
 70
     1
102
RTVSPropertyOp9
 70
     1
102
RTVSPropertyOp10
 70
     1
102
RTVSPropertyOp11
 70
     1
102
RTVSPropertyOp12
 70
     1
102
RTVSPropertyOp13
 70
     1
102
RTVSPropertyOp14
 70
     1
102
RTVSPropertyOp15
 70
     1
102
RTVSPropertyOp16
 70
     1
102
RTVSPropertyOp17
 70
     1
102
RTVSPropertyOp18
 70
     1
102
RTVSPropertyOp19
 70
     1
102
RTVSPropertyOp20
 70
     1
102
RTVSPropertyOp21
 70
     1
102
RTVSPropertyOp22
 70
     1
102
RTVSPropertyOp23
 70
     1
102
RTVSPropertyOp24
 70
     1
102
RTVSPropertyOp25
 70
     1
102
RTVSPropertyOp26
 70
     1
102
RTVSPropertyOp27
 70
     1
  0
XRECORD
  5
21A6
102
{ACAD_REACTORS
330
21A5
102
}
330
21A5
100
AcDbXrecord
280
     1
102
RTVSPropertyOp0
 70
     1
102
RTVSPropertyOp1
 70
     1
102
RTVSPropertyOp2
 70
     1
102
RTVSPropertyOp3
 70
     1
102
RTVSPropertyOp4
 70
     1
102
RTVSPropertyOp5
 70
     1
102
RTVSPropertyOp6
 70
     1
102
RTVSPropertyOp7
 70
     1
102
RTVSPropertyOp8
 70
     1
102
RTVSPropertyOp9
 70
     1
102
RTVSPropertyOp10
 70
     1
102
RTVSPropertyOp11
 70
     1
102
RTVSPropertyOp12
 70
     1
102
RTVSPropertyOp13
 70
     1
102
RTVSPropertyOp14
 70
     1
102
RTVSPropertyOp15
 70
     1
102
RTVSPropertyOp16
 70
     1
102
RTVSPropertyOp17
 70
     1
102
RTVSPropertyOp18
 70
     1
102
RTVSPropertyOp19
 70
     1
102
RTVSPropertyOp20
 70
     1
102
RTVSPropertyOp21
 70
     1
102
RTVSPropertyOp22
 70
     1
102
RTVSPropertyOp23
 70
     1
102
RTVSPropertyOp24
 70
     1
102
RTVSPropertyOp25
 70
     1
102
RTVSPropertyOp26
 70
     1
102
RTVSPropertyOp27
 70
     1
  0
XRECORD
  5
21A8
102
{ACAD_REACTORS
330
21A7
102
}
330
21A7
100
AcDbXrecord
280
     1
102
RTVSPropertyOp0
 70
     1
102
RTVSPropertyOp1
 70
     1
102
RTVSPropertyOp2
 70
     1
102
RTVSPropertyOp3
 70
     1
102
RTVSPropertyOp4
 70
     1
102
RTVSPropertyOp5
 70
     1
102
RTVSPropertyOp6
 70
     1
102
RTVSPropertyOp7
 70
     1
102
RTVSPropertyOp8
 70
     1
102
RTVSPropertyOp9
 70
     1
102
RTVSPropertyOp10
 70
     1
102
RTVSPropertyOp11
 70
     1
102
RTVSPropertyOp12
 70
     1
102
RTVSPropertyOp13
 70
     1
102
RTVSPropertyOp14
 70
     1
102
RTVSPropertyOp15
 70
     1
102
RTVSPropertyOp16
 70
     1
102
RTVSPropertyOp17
 70
     1
102
RTVSPropertyOp18
 70
     1
102
RTVSPropertyOp19
 70
     1
102
RTVSPropertyOp20
 70
     1
102
RTVSPropertyOp21
 70
     1
102
RTVSPropertyOp22
 70
     1
102
RTVSPropertyOp23
 70
     1
102
RTVSPropertyOp24
 70
     1
102
RTVSPropertyOp25
 70
     1
102
RTVSPropertyOp26
 70
     1
102
RTVSPropertyOp27
 70
     1
  0
XRECORD
  5
21C2
102
{ACAD_REACTORS
330
21C1
102
}
330
21C1
100
AcDbXrecord
280
     1
102
RTVSPropertyOp0
 70
     0
102
RTVSPropertyOp1
 70
     0
102
RTVSPropertyOp2
 70
     0
102
RTVSPropertyOp3
 70
     0
102
RTVSPropertyOp4
 70
     0
102
RTVSPropertyOp5
 70
     0
102
RTVSPropertyOp6
 70
     0
102
RTVSPropertyOp7
 70
     0
102
RTVSPropertyOp8
 70
     0
102
RTVSPropertyOp9
 70
     0
102
RTVSPropertyOp10
 70
     0
102
RTVSPropertyOp11
 70
     0
102
RTVSPropertyOp12
 70
     0
102
RTVSPropertyOp13
 70
     0
102
RTVSPropertyOp14
 70
     2
102
RTVSPropertyOp15
 70
     0
102
RTVSPropertyOp16
 70
     0
102
RTVSPropertyOp17
 70
     0
102
RTVSPropertyOp18
 70
     0
102
RTVSPropertyOp19
 70
     0
102
RTVSPropertyOp20
 70
     0
102
RTVSPropertyOp21
 70
     0
102
RTVSPropertyOp22
 70
     0
102
RTVSPropertyOp23
 70
     0
102
RTVSPropertyOp24
 70
     0
102
RTVSPropertyOp25
 70
     0
102
RTVSPropertyOp26
 70
     0
102
RTVSPropertyOp27
 70
     0
  0
XRECORD
  5
21BC
102
{ACAD_REACTORS
330
21BB
102
}
330
21BB
100
AcDbXrecord
280
     1
102
RTVSPropertyOp0
 70
     1
102
RTVSPropertyOp1
 70
     1
102
RTVSPropertyOp2
 70
     1
102
RTVSPropertyOp3
 70
     1
102
RTVSPropertyOp4
 70
     1
102
RTVSPropertyOp5
 70
     1
102
RTVSPropertyOp6
 70
     1
102
RTVSPropertyOp7
 70
     1
102
RTVSPropertyOp8
 70
     1
102
RTVSPropertyOp9
 70
     1
102
RTVSPropertyOp10
 70
     1
102
RTVSPropertyOp11
 70
     1
102
RTVSPropertyOp12
 70
     1
102
RTVSPropertyOp13
 70
     1
102
RTVSPropertyOp14
 70
     1
102
RTVSPropertyOp15
 70
     1
102
RTVSPropertyOp16
 70
     1
102
RTVSPropertyOp17
 70
     1
102
RTVSPropertyOp18
 70
     1
102
RTVSPropertyOp19
 70
     1
102
RTVSPropertyOp20
 70
     1
102
RTVSPropertyOp21
 70
     1
102
RTVSPropertyOp22
 70
     1
102
RTVSPropertyOp23
 70
     1
102
RTVSPropertyOp24
 70
     1
102
RTVSPropertyOp25
 70
     1
102
RTVSPropertyOp26
 70
     1
102
RTVSPropertyOp27
 70
     1
  0
XRECORD
  5
21C4
102
{ACAD_REACTORS
330
21C3
102
}
330
21C3
100
AcDbXrecord
280
     1
102
RTVSPropertyOp0
 70
     0
102
RTVSPropertyOp1
 70
     0
102
RTVSPropertyOp2
 70
     0
102
RTVSPropertyOp3
 70
     0
102
RTVSPropertyOp4
 70
     0
102
RTVSPropertyOp5
 70
     0
102
RTVSPropertyOp6
 70
     0
102
RTVSPropertyOp7
 70
     0
102
RTVSPropertyOp8
 70
     0
102
RTVSPropertyOp9
 70
     0
102
RTVSPropertyOp10
 70
     0
102
RTVSPropertyOp11
 70
     0
102
RTVSPropertyOp12
 70
     0
102
RTVSPropertyOp13
 70
     0
102
RTVSPropertyOp14
 70
     2
102
RTVSPropertyOp15
 70
     0
102
RTVSPropertyOp16
 70
     0
102
RTVSPropertyOp17
 70
     0
102
RTVSPropertyOp18
 70
     0
102
RTVSPropertyOp19
 70
     0
102
RTVSPropertyOp20
 70
     0
102
RTVSPropertyOp21
 70
     0
102
RTVSPropertyOp22
 70
     0
102
RTVSPropertyOp23
 70
     0
102
RTVSPropertyOp24
 70
     0
102
RTVSPropertyOp25
 70
     0
102
RTVSPropertyOp26
 70
     0
102
RTVSPropertyOp27
 70
     0
  0
XRECORD
  5
21B4
102
{ACAD_REACTORS
330
21B3
102
}
330
21B3
100
AcDbXrecord
280
     1
102
RTVSPropertyOp0
 70
     1
102
RTVSPropertyOp1
 70
     1
102
RTVSPropertyOp2
 70
     1
102
RTVSPropertyOp3
 70
     1
102
RTVSPropertyOp4
 70
     1
102
RTVSPropertyOp5
 70
     1
102
RTVSPropertyOp6
 70
     1
102
RTVSPropertyOp7
 70
     1
102
RTVSPropertyOp8
 70
     1
102
RTVSPropertyOp9
 70
     1
102
RTVSPropertyOp10
 70
     1
102
RTVSPropertyOp11
 70
     1
102
RTVSPropertyOp12
 70
     1
102
RTVSPropertyOp13
 70
     1
102
RTVSPropertyOp14
 70
     1
102
RTVSPropertyOp15
 70
     1
102
RTVSPropertyOp16
 70
     1
102
RTVSPropertyOp17
 70
     1
102
RTVSPropertyOp18
 70
     1
102
RTVSPropertyOp19
 70
     1
102
RTVSPropertyOp20
 70
     1
102
RTVSPropertyOp21
 70
     1
102
RTVSPropertyOp22
 70
     1
102
RTVSPropertyOp23
 70
     1
102
RTVSPropertyOp24
 70
     1
102
RTVSPropertyOp25
 70
     1
102
RTVSPropertyOp26
 70
     1
102
RTVSPropertyOp27
 70
     1
  0
XRECORD
  5
21BA
102
{ACAD_REACTORS
330
21B9
102
}
330
21B9
100
AcDbXrecord
280
     1
102
RTVSPropertyOp0
 70
     1
102
RTVSPropertyOp1
 70
     1
102
RTVSPropertyOp2
 70
     1
102
RTVSPropertyOp3
 70
     1
102
RTVSPropertyOp4
 70
     1
102
RTVSPropertyOp5
 70
     1
102
RTVSPropertyOp6
 70
     1
102
RTVSPropertyOp7
 70
     1
102
RTVSPropertyOp8
 70
     1
102
RTVSPropertyOp9
 70
     1
102
RTVSPropertyOp10
 70
     1
102
RTVSPropertyOp11
 70
     1
102
RTVSPropertyOp12
 70
     1
102
RTVSPropertyOp13
 70
     1
102
RTVSPropertyOp14
 70
     1
102
RTVSPropertyOp15
 70
     1
102
RTVSPropertyOp16
 70
     1
102
RTVSPropertyOp17
 70
     1
102
RTVSPropertyOp18
 70
     1
102
RTVSPropertyOp19
 70
     1
102
RTVSPropertyOp20
 70
     1
102
RTVSPropertyOp21
 70
     1
102
RTVSPropertyOp22
 70
     1
102
RTVSPropertyOp23
 70
     1
102
RTVSPropertyOp24
 70
     1
102
RTVSPropertyOp25
 70
     1
102
RTVSPropertyOp26
 70
     1
102
RTVSPropertyOp27
 70
     1
  0
ENDSEC
  0
EOF
