  0
SECTION
  2
HEADER
  9
$ACADVER
  1
AC1015
  9
$ACADMAINTVER
 70
    20
  9
$DWGCODEPAGE
  3
ANSI_1252
  9
$INSBASE
 10
0.0
 20
0.0
 30
0.0
  9
$EXTMIN
 10
384.3958368143063
 20
181.5050571143577
 30
-0.0000000017937957
  9
$EXTMAX
 10
386.840670570849
 20
183.3550571143577
 30
0.0000000000000004
  9
$LIMMIN
 10
0.0
 20
0.0
  9
$LIMMAX
 10
420.0
 20
297.0
  9
$ORTHOMODE
 70
     0
  9
$REGENMODE
 70
     1
  9
$FILLMODE
 70
     1
  9
$QTEXTMODE
 70
     0
  9
$MIRRTEXT
 70
     1
  9
$LTSCALE
 40
1.0
  9
$ATTMODE
 70
     1
  9
$TEXTSIZE
 40
2.5
  9
$TRACEWID
 40
1.0
  9
$TEXTSTYLE
  7
SANINDUSA
  9
$CLAYER
  8
cotas
  9
$CELTYPE
  6
ByLayer
  9
$CECOLOR
 62
   256
  9
$CELTSCALE
 40
1.0
  9
$DISPSILH
 70
     0
  9
$DIMSCALE
 40
1.0
  9
$DIMASZ
 40
2.0
  9
$DIMEXO
 40
1.0
  9
$DIMDLI
 40
1.0
  9
$DIMRND
 40
0.0
  9
$DIMDLE
 40
0.0
  9
$DIMEXE
 40
1.0
  9
$DIMTP
 40
0.0
  9
$DIMTM
 40
0.0
  9
$DIMTXT
 40
2.0
  9
$DIMCEN
 40
0.0
  9
$DIMTSZ
 40
0.0
  9
$DIMTOL
 70
     0
  9
$DIMLIM
 70
     0
  9
$DIMTIH
 70
     0
  9
$DIMTOH
 70
     0
  9
$DIMSE1
 70
     0
  9
$DIMSE2
 70
     0
  9
$DIMTAD
 70
     1
  9
$DIMZIN
 70
     8
  9
$DIMBLK
  1

  9
$DIMASO
 70
     1
  9
$DIMSHO
 70
     1
  9
$DIMPOST
  1

  9
$DIMAPOST
  1

  9
$DIMALT
 70
     0
  9
$DIMALTD
 70
     3
  9
$DIMALTF
 40
0.03937007874016
  9
$DIMLFAC
 40
1.0
  9
$DIMTOFL
 70
     1
  9
$DIMTVP
 40
0.0
  9
$DIMTIX
 70
     0
  9
$DIMSOXD
 70
     0
  9
$DIMSAH
 70
     0
  9
$DIMBLK1
  1

  9
$DIMBLK2
  1

  9
$DIMSTYLE
  2
SANINDUSA
  9
$DIMCLRD
 70
   256
  9
$DIMCLRE
 70
   256
  9
$DIMCLRT
 70
   256
  9
$DIMTFAC
 40
1.0
  9
$DIMGAP
 40
1.0
  9
$DIMJUST
 70
     0
  9
$DIMSD1
 70
     0
  9
$DIMSD2
 70
     0
  9
$DIMTOLJ
 70
     0
  9
$DIMTZIN
 70
     8
  9
$DIMALTZ
 70
     0
  9
$DIMALTTZ
 70
     0
  9
$DIMUPT
 70
     0
  9
$DIMDEC
 70
     1
  9
$DIMTDEC
 70
     1
  9
$DIMALTU
 70
     2
  9
$DIMALTTD
 70
     3
  9
$DIMTXSTY
  7
SANINDUSA
  9
$DIMAUNIT
 70
     0
  9
$DIMADEC
 70
     1
  9
$DIMALTRND
 40
0.0
  9
$DIMAZIN
 70
     0
  9
$DIMDSEP
 70
    44
  9
$DIMATFIT
 70
     3
  9
$DIMFRAC
 70
     0
  9
$DIMLDRBLK
  1

  9
$DIMLUNIT
 70
     2
  9
$DIMLWD
 70
    -1
  9
$DIMLWE
 70
    -1
  9
$DIMTMOVE
 70
     0
  9
$LUNITS
 70
     2
  9
$LUPREC
 70
     4
  9
$SKETCHINC
 40
1.0
  9
$FILLETRAD
 40
0.0
  9
$AUNITS
 70
     0
  9
$AUPREC
 70
     0
  9
$MENU
  1
.
  9
$ELEVATION
 40
0.0
  9
$PELEVATION
 40
0.0
  9
$THICKNESS
 40
0.0
  9
$LIMCHECK
 70
     0
  9
$CHAMFERA
 40
10.0
  9
$CHAMFERB
 40
10.0
  9
$CHAMFERC
 40
20.0
  9
$CHAMFERD
 40
0.0
  9
$SKPOLY
 70
     0
  9
$TDCREATE
 40
2453259.477927326
  9
$TDUCREATE
 40
2453259.436260660
  9
$TDUPDATE
 40
2455818.672388415
  9
$TDUUPDATE
 40
2455818.630721748
  9
$TDINDWG
 40
0.0572462847
  9
$TDUSRTIMER
 40
0.0572462847
  9
$USRTIMER
 70
     1
  9
$ANGBASE
 50
0.0
  9
$ANGDIR
 70
     0
  9
$PDMODE
 70
     0
  9
$PDSIZE
 40
0.0
  9
$PLINEWID
 40
0.0
  9
$SPLFRAME
 70
     0
  9
$SPLINETYPE
 70
     6
  9
$SPLINESEGS
 70
     8
  9
$HANDSEED
  5
141C
  9
$SURFTAB1
 70
     6
  9
$SURFTAB2
 70
     6
  9
$SURFTYPE
 70
     6
  9
$SURFU
 70
     6
  9
$SURFV
 70
     6
  9
$UCSBASE
  2

  9
$UCSNAME
  2

  9
$UCSORG
 10
0.0
 20
0.0
 30
0.0
  9
$UCSXDIR
 10
1.0
 20
0.0
 30
0.0
  9
$UCSYDIR
 10
0.0
 20
1.0
 30
0.0
  9
$UCSORTHOREF
  2

  9
$UCSORTHOVIEW
 70
     0
  9
$UCSORGTOP
 10
0.0
 20
0.0
 30
0.0
  9
$UCSORGBOTTOM
 10
0.0
 20
0.0
 30
0.0
  9
$UCSORGLEFT
 10
0.0
 20
0.0
 30
0.0
  9
$UCSORGRIGHT
 10
0.0
 20
0.0
 30
0.0
  9
$UCSORGFRONT
 10
0.0
 20
0.0
 30
0.0
  9
$UCSORGBACK
 10
0.0
 20
0.0
 30
0.0
  9
$PUCSBASE
  2

  9
$PUCSNAME
  2

  9
$PUCSORG
 10
0.0
 20
0.0
 30
0.0
  9
$PUCSXDIR
 10
1.0
 20
0.0
 30
0.0
  9
$PUCSYDIR
 10
0.0
 20
1.0
 30
0.0
  9
$PUCSORTHOREF
  2

  9
$PUCSORTHOVIEW
 70
     0
  9
$PUCSORGTOP
 10
0.0
 20
0.0
 30
0.0
  9
$PUCSORGBOTTOM
 10
0.0
 20
0.0
 30
0.0
  9
$PUCSORGLEFT
 10
0.0
 20
0.0
 30
0.0
  9
$PUCSORGRIGHT
 10
0.0
 20
0.0
 30
0.0
  9
$PUCSORGFRONT
 10
0.0
 20
0.0
 30
0.0
  9
$PUCSORGBACK
 10
0.0
 20
0.0
 30
0.0
  9
$USERI1
 70
     0
  9
$USERI2
 70
     0
  9
$USERI3
 70
     0
  9
$USERI4
 70
     0
  9
$USERI5
 70
     0
  9
$USERR1
 40
0.0
  9
$USERR2
 40
0.0
  9
$USERR3
 40
0.0
  9
$USERR4
 40
0.0
  9
$USERR5
 40
0.0
  9
$WORLDVIEW
 70
     1
  9
$SHADEDGE
 70
     3
  9
$SHADEDIF
 70
    70
  9
$TILEMODE
 70
     1
  9
$MAXACTVP
 70
    64
  9
$PINSBASE
 10
0.0
 20
0.0
 30
0.0
  9
$PLIMCHECK
 70
     0
  9
$PEXTMIN
 10
1.000000000000000E+20
 20
1.000000000000000E+20
 30
1.000000000000000E+20
  9
$PEXTMAX
 10
-1.000000000000000E+20
 20
-1.000000000000000E+20
 30
-1.000000000000000E+20
  9
$PLIMMIN
 10
0.0
 20
0.0
  9
$PLIMMAX
 10
420.0
 20
297.0
  9
$UNITMODE
 70
     0
  9
$VISRETAIN
 70
     1
  9
$PLINEGEN
 70
     0
  9
$PSLTSCALE
 70
     1
  9
$TREEDEPTH
 70
  3020
  9
$CMLSTYLE
  2
Standard
  9
$CMLJUST
 70
     0
  9
$CMLSCALE
 40
20.0
  9
$PROXYGRAPHICS
 70
     1
  9
$MEASUREMENT
 70
     1
  9
$CELWEIGHT
370
    -1
  9
$ENDCAPS
280
     0
  9
$JOINSTYLE
280
     0
  9
$LWDISPLAY
290
     0
  9
$INSUNITS
 70
     4
  9
$HYPERLINKBASE
  1

  9
$STYLESHEET
  1
monochrome.ctb
  9
$XEDIT
290
     1
  9
$CEPSNTYPE
380
     0
  9
$PSTYLEMODE
290
     1
  9
$FINGERPRINTGUID
  2
{B98A73AA-52AA-4C10-B469-C0E7150AC31F}
  9
$VERSIONGUID
  2
{F0E57F76-3DA7-47C0-B033-9BD2D3F67BFA}
  9
$EXTNAMES
290
     1
  9
$PSVPSCALE
 40
0.0
  9
$OLESTARTUP
290
     0
  0
ENDSEC
  0
SECTION
  2
CLASSES
  0
CLASS
  1
ACDBDICTIONARYWDFLT
  2
AcDbDictionaryWithDefault
  3
ObjectDBX Classes
 90
        0
280
     0
281
     0
  0
CLASS
  1
ACDBPLACEHOLDER
  2
AcDbPlaceHolder
  3
ObjectDBX Classes
 90
        0
280
     0
281
     0
  0
CLASS
  1
LAYOUT
  2
AcDbLayout
  3
ObjectDBX Classes
 90
        0
280
     0
281
     0
  0
CLASS
  1
DICTIONARYVAR
  2
AcDbDictionaryVar
  3
ObjectDBX Classes
 90
        0
280
     0
281
     0
  0
CLASS
  1
DIMASSOC
  2
AcDbDimAssoc
  3
"AcDbDimAssoc|Product Desc:     AcDim ARX App For Dimension|Company:          Autodesk, Inc.|WEB Address:      www.autodesk.com"
 90
        0
280
     0
281
     0
  0
CLASS
  1
MATERIAL
  2
AcDbMaterial
  3
ObjectDBX Classes
 90
     1153
280
     0
281
     0
  0
CLASS
  1
VISUALSTYLE
  2
AcDbVisualStyle
  3
ObjectDBX Classes
 90
     4095
280
     0
281
     0
  0
CLASS
  1
TABLESTYLE
  2
AcDbTableStyle
  3
ObjectDBX Classes
 90
     4095
280
     0
281
     0
  0
CLASS
  1
SCALE
  2
AcDbScale
  3
ObjectDBX Classes
 90
     1153
280
     0
281
     0
  0
CLASS
  1
MLEADERSTYLE
  2
AcDbMLeaderStyle
  3
ACDB_MLEADERSTYLE_CLASS
 90
     4095
280
     0
281
     0
  0
CLASS
  1
CELLSTYLEMAP
  2
AcDbCellStyleMap
  3
ObjectDBX Classes
 90
     1152
280
     0
281
     0
  0
ENDSEC
  0
SECTION
  2
TABLES
  0
TABLE
  2
VPORT
  5
8
330
0
100
AcDbSymbolTable
 70
     1
  0
VPORT
  5
12EF
330
8
100
AcDbSymbolTableRecord
100
AcDbViewportTableRecord
  2
*Active
 70
     0
 10
0.0
 20
0.0
 11
1.0
 21
1.0
 12
385.6182536925777
 22
182.4300571143577
 13
0.0
 23
0.0
 14
10.0
 24
10.0
 15
10.0
 25
10.0
 16
0.0
 26
0.0
 36
1.0
 17
0.0
 27
0.0
 37
0.0
 40
1.861562500000019
 41
1.645464025026068
 42
50.0
 43
0.0
 44
0.0
 50
0.0
 51
0.0
 71
     0
 72
   100
 73
     1
 74
     2
 75
     0
 76
     0
 77
     0
 78
     0
281
     0
 65
     1
110
0.0
120
0.0
130
0.0
111
1.0
121
0.0
131
0.0
112
0.0
122
1.0
132
0.0
 79
     0
146
0.0
  0
ENDTAB
  0
TABLE
  2
LTYPE
  5
5
330
0
100
AcDbSymbolTable
 70
     5
  0
LTYPE
  5
14
330
5
100
AcDbSymbolTableRecord
100
AcDbLinetypeTableRecord
  2
ByBlock
 70
     0
  3

 72
    65
 73
     0
 40
0.0
  0
LTYPE
  5
15
330
5
100
AcDbSymbolTableRecord
100
AcDbLinetypeTableRecord
  2
ByLayer
 70
     0
  3

 72
    65
 73
     0
 40
0.0
  0
LTYPE
  5
16
330
5
100
AcDbSymbolTableRecord
100
AcDbLinetypeTableRecord
  2
Continuous
 70
     0
  3
Solid line
 72
    65
 73
     0
 40
0.0
  0
LTYPE
  5
2D
330
5
100
AcDbSymbolTableRecord
100
AcDbLinetypeTableRecord
  2
DASHDOT
 70
     0
  3
Dash dot __ . __ . __ . __ . __ . __ . __ . __
 72
    65
 73
     4
 40
25.4
 49
12.7
 74
     0
 49
-6.349999999999999
 74
     0
 49
0.0
 74
     0
 49
-6.349999999999999
 74
     0
  0
LTYPE
  5
2E
330
5
100
AcDbSymbolTableRecord
100
AcDbLinetypeTableRecord
  2
HIDDEN
 70
     0
  3
Hidden __ __ __ __ __ __ __ __ __ __ __ __ __ _
 72
    65
 73
     2
 40
9.524999999999998
 49
6.349999999999999
 74
     0
 49
-3.174999999999999
 74
     0
  0
LTYPE
  5
C78
330
5
100
AcDbSymbolTableRecord
100
AcDbLinetypeTableRecord
  2
CENTER
 70
     0
  3
____ _ ____ _ ____ _ ____ _ ____ _ ____ _ ____ 
 72
    65
 73
     4
 40
2.0
 49
1.25
 74
     0
 49
-0.25
 74
     0
 49
0.25
 74
     0
 49
-0.25
 74
     0
  0
ENDTAB
  0
TABLE
  2
LAYER
  5
2
330
0
100
AcDbSymbolTable
 70
    17
  0
LAYER
  5
10
102
{ACAD_XDICTIONARY
360
1380
102
}
330
2
100
AcDbSymbolTableRecord
100
AcDbLayerTableRecord
  2
0
 70
     0
 62
     7
  6
Continuous
370
    -3
390
F
  0
LAYER
  5
2F
102
{ACAD_XDICTIONARY
360
1382
102
}
330
2
100
AcDbSymbolTableRecord
100
AcDbLayerTableRecord
  2
1
 70
     0
 62
     1
  6
Continuous
370
    -3
390
F
  0
LAYER
  5
30
102
{ACAD_XDICTIONARY
360
1384
102
}
330
2
100
AcDbSymbolTableRecord
100
AcDbLayerTableRecord
  2
2
 70
     0
 62
     2
  6
Continuous
370
    -3
390
F
  0
LAYER
  5
31
102
{ACAD_XDICTIONARY
360
1386
102
}
330
2
100
AcDbSymbolTableRecord
100
AcDbLayerTableRecord
  2
3
 70
     0
 62
     3
  6
Continuous
370
    -3
390
F
  0
LAYER
  5
32
102
{ACAD_XDICTIONARY
360
1388
102
}
330
2
100
AcDbSymbolTableRecord
100
AcDbLayerTableRecord
  2
4
 70
     0
 62
     4
  6
Continuous
370
    -3
390
F
  0
LAYER
  5
33
102
{ACAD_XDICTIONARY
360
138A
102
}
330
2
100
AcDbSymbolTableRecord
100
AcDbLayerTableRecord
  2
5
 70
     0
 62
     5
  6
Continuous
370
    -3
390
F
  0
LAYER
  5
34
102
{ACAD_XDICTIONARY
360
138C
102
}
330
2
100
AcDbSymbolTableRecord
100
AcDbLayerTableRecord
  2
6
 70
     0
 62
     6
  6
Continuous
370
    -3
390
F
  0
LAYER
  5
35
102
{ACAD_XDICTIONARY
360
138E
102
}
330
2
100
AcDbSymbolTableRecord
100
AcDbLayerTableRecord
  2
7
 70
     0
 62
     7
  6
Continuous
370
    -3
390
F
  0
LAYER
  5
36
102
{ACAD_XDICTIONARY
360
1390
102
}
330
2
100
AcDbSymbolTableRecord
100
AcDbLayerTableRecord
  2
cen
 70
     0
 62
     7
  6
DASHDOT
370
    -3
390
F
  0
LAYER
  5
37
102
{ACAD_XDICTIONARY
360
1392
102
}
330
2
100
AcDbSymbolTableRecord
100
AcDbLayerTableRecord
  2
hid
 70
     0
 62
     7
  6
HIDDEN
370
    -3
390
F
  0
LAYER
  5
5D6
102
{ACAD_XDICTIONARY
360
1394
102
}
330
2
100
AcDbSymbolTableRecord
100
AcDbLayerTableRecord
  2
hatch
 70
     0
 62
     9
  6
Continuous
370
    -3
390
F
  0
LAYER
  5
8AF
102
{ACAD_XDICTIONARY
360
1396
102
}
330
2
100
AcDbSymbolTableRecord
100
AcDbLayerTableRecord
  2
9
 70
     0
 62
     9
  6
Continuous
370
    -3
390
F
  0
LAYER
  5
8F8
102
{ACAD_XDICTIONARY
360
1398
102
}
330
2
100
AcDbSymbolTableRecord
100
AcDbLayerTableRecord
  2
leg fin
 70
     0
 62
     9
  6
Continuous
370
    -3
390
F
  0
LAYER
  5
91D
102
{ACAD_XDICTIONARY
360
139A
102
}
330
2
100
AcDbSymbolTableRecord
100
AcDbLayerTableRecord
  2
cotas
 70
     0
 62
     1
  6
Continuous
370
    -3
390
F
  0
LAYER
  5
92F
330
2
100
AcDbSymbolTableRecord
100
AcDbLayerTableRecord
  2
Defpoints
 70
     0
 62
     7
  6
Continuous
290
     0
370
    -3
390
F
  0
LAYER
  5
C79
102
{ACAD_XDICTIONARY
360
139C
102
}
330
2
100
AcDbSymbolTableRecord
100
AcDbLayerTableRecord
  2
quote
 70
     0
 62
     7
  6
Continuous
370
    18
390
F
  0
LAYER
  5
137F
102
{ACAD_XDICTIONARY
360
139E
102
}
330
2
100
AcDbSymbolTableRecord
100
AcDbLayerTableRecord
  2
SANINDUSA
 70
     0
 62
     3
  6
Continuous
370
    -3
390
F
  0
ENDTAB
  0
TABLE
  2
STYLE
  5
3
330
0
100
AcDbSymbolTable
 70
     3
  0
STYLE
  5
11
330
3
100
AcDbSymbolTableRecord
100
AcDbTextStyleTableRecord
  2
Standard
 70
     0
 40
0.0
 41
1.0
 50
0.0
 71
     0
 42
2.5
  3
Avgardn.ttf
  4

1001
ACAD
1000
AvantGarde Bk BT
1071
       34
  0
STYLE
  5
2C
330
3
100
AcDbSymbolTableRecord
100
AcDbTextStyleTableRecord
  2

 70
     1
 40
0.0
 41
1.0
 50
0.0
 71
     0
 42
2.5
  3
ltypeshp.shx
  4

  0
STYLE
  5
91F
330
3
100
AcDbSymbolTableRecord
100
AcDbTextStyleTableRecord
  2
SANINDUSA
 70
     0
 40
0.0
 41
1.0
 50
0.0
 71
     0
 42
2.5
  3
verdana.TTF
  4

1001
ACAD
1000
Verdana
1071
       34
  0
ENDTAB
  0
TABLE
  2
VIEW
  5
6
330
0
100
AcDbSymbolTable
 70
     0
  0
ENDTAB
  0
TABLE
  2
UCS
  5
7
330
0
100
AcDbSymbolTable
 70
     0
  0
ENDTAB
  0
TABLE
  2
APPID
  5
9
330
0
100
AcDbSymbolTable
 70
     7
  0
APPID
  5
12
330
9
100
AcDbSymbolTableRecord
100
AcDbRegAppTableRecord
  2
ACAD
 70
     0
  0
APPID
  5
3A
330
9
100
AcDbSymbolTableRecord
100
AcDbRegAppTableRecord
  2
DCO15
 70
     0
  0
APPID
  5
C7A
330
9
100
AcDbSymbolTableRecord
100
AcDbRegAppTableRecord
  2
GENIUS_GENREC_14
 70
     0
  0
APPID
  5
C7B
330
9
100
AcDbSymbolTableRecord
100
AcDbRegAppTableRecord
  2
GENIUS_GENODEF_13
 70
     0
  0
APPID
  5
C7C
330
9
100
AcDbSymbolTableRecord
100
AcDbRegAppTableRecord
  2
GENIUS_GENOBJ-N-REC_13
 70
     0
  0
APPID
  5
133A
330
9
100
AcDbSymbolTableRecord
100
AcDbRegAppTableRecord
  2
ACAD_EXEMPT_FROM_CAD_STANDARDS
 70
     0
  0
APPID
  5
141B
330
9
100
AcDbSymbolTableRecord
100
AcDbRegAppTableRecord
  2
ACAD_MLEADERVER
 70
     0
  0
ENDTAB
  0
TABLE
  2
DIMSTYLE
  5
A
330
0
100
AcDbSymbolTable
 70
     3
100
AcDbDimStyleTable
 71
     1
340
921
  0
DIMSTYLE
105
45
330
A
100
AcDbSymbolTableRecord
100
AcDbDimStyleTableRecord
  2
STANDARD
 70
     0
289
     0
340
11
  0
DIMSTYLE
105
921
330
A
100
AcDbSymbolTableRecord
100
AcDbDimStyleTableRecord
  2
SANINDUSA
 70
     0
 41
2.0
 42
1.0
 43
1.0
 44
1.0
 73
     0
 74
     0
 77
     1
 78
     8
140
2.0
141
0.0
143
0.03937007874016
147
1.0
171
     3
172
     1
176
   256
177
   256
178
   256
179
     1
271
     1
272
     1
274
     3
278
    44
283
     0
284
     8
340
91F
371
    -1
372
    -1
  0
ENDTAB
  0
TABLE
  2
BLOCK_RECORD
  5
1
330
0
100
AcDbSymbolTable
 70
    31
  0
BLOCK_RECORD
  5
1F
330
1
100
AcDbSymbolTableRecord
100
AcDbBlockTableRecord
  2
*Model_Space
340
22
  0
BLOCK_RECORD
  5
1B
330
1
100
AcDbSymbolTableRecord
100
AcDbBlockTableRecord
  2
*Paper_Space
340
1E
  0
BLOCK_RECORD
  5
23
330
1
100
AcDbSymbolTableRecord
100
AcDbBlockTableRecord
  2
*Paper_Space0
340
26
  0
BLOCK_RECORD
  5
919
330
1
100
AcDbSymbolTableRecord
100
AcDbBlockTableRecord
  2
_DotSmall
340
0
  0
BLOCK_RECORD
  5
922
330
1
100
AcDbSymbolTableRecord
100
AcDbBlockTableRecord
  2
base para cotas
340
0
310
2800000020000000200000000100080000000000000400000000000000000000000000000000000000000000000080000080000000808000800000008000800080800000C0C0C000C0DCC000F0CAA6000020400000206000002080000020A0000020C0000020E00000400000004020000040400000406000004080000040A0
310
000040C0000040E00000600000006020000060400000606000006080000060A0000060C0000060E00000800000008020000080400000806000008080000080A0000080C0000080E00000A0000000A0200000A0400000A0600000A0800000A0A00000A0C00000A0E00000C0000000C0200000C0400000C0600000C0800000C0
310
A00000C0C00000C0E00000E0000000E0200000E0400000E0600000E0800000E0A00000E0C00000E0E00040000000400020004000400040006000400080004000A0004000C0004000E00040200000402020004020400040206000402080004020A0004020C0004020E000404000004040200040404000404060004040800040
310
40A0004040C0004040E00040600000406020004060400040606000406080004060A0004060C0004060E00040800000408020004080400040806000408080004080A0004080C0004080E00040A0000040A0200040A0400040A0600040A0800040A0A00040A0C00040A0E00040C0000040C0200040C0400040C0600040C08000
310
40C0A00040C0C00040C0E00040E0000040E0200040E0400040E0600040E0800040E0A00040E0C00040E0E00080000000800020008000400080006000800080008000A0008000C0008000E00080200000802020008020400080206000802080008020A0008020C0008020E00080400000804020008040400080406000804080
310
008040A0008040C0008040E00080600000806020008060400080606000806080008060A0008060C0008060E00080800000808020008080400080806000808080008080A0008080C0008080E00080A0000080A0200080A0400080A0600080A0800080A0A00080A0C00080A0E00080C0000080C0200080C0400080C0600080C0
310
800080C0A00080C0C00080C0E00080E0000080E0200080E0400080E0600080E0800080E0A00080E0C00080E0E000C0000000C0002000C0004000C0006000C0008000C000A000C000C000C000E000C0200000C0202000C0204000C0206000C0208000C020A000C020C000C020E000C0400000C0402000C0404000C0406000C0
310
408000C040A000C040C000C040E000C0600000C0602000C0604000C0606000C0608000C060A000C060C000C060E000C0800000C0802000C0804000C0806000C0808000C080A000C080C000C080E000C0A00000C0A02000C0A04000C0A06000C0A08000C0A0A000C0A0C000C0A0E000C0C00000C0C02000C0C04000C0C06000
310
C0C08000C0C0A000F0FBFF00A4A0A000808080000000FF0000FF000000FFFF00FF000000FF00FF00FFFF0000FFFFFF00A4A4A4A4A4A4A4A4A4A4A4A4A4A4A4A4A4A4A4A4A4A4A4A4A4A4A4A4A4A4A4A4A4A4A4A4A4A4A4A4A4A4A4A4A4A4A4A4A4A4A4A4A4A4A4A4A4A4A4A4A4A4A4A4A4A4A4A4A4A4A4A4A4A4A4A4A4A4A4
310
A4A4A4A4A4A4A4A4A4A4A4A4A4A4A4A4A4A4A4A4A4A4A4A4A4A4A4A4A4A4A4A4A4A4A4A4A4A4A4A4A4A4A4A4A4A4A4A4A4A4A4A4A4A4A4A4A4A4A4A4A4A4A4A4A4A4A4A4A4A4A4A4A4A4A4A4A4A4A4A4A4A4A4A4A4A4A4A4A4A4A4A4A4A4A4A4A4A4A4A4A4A4A4A4A4A4A4A4A4A4A4A4A4A4A4A4A4A4A4A4A4A4A4A4A4A4A4
310
A4A4A4A4A4A4A4A4A4A4A4A4A4A4A4A4A4A4A4A4A4A4A4A4A4A4A4A4A4A4A4A4A4A4A4A4A4A4A4A4A4A4A4A4A4A4A4A4A4A4A4A4A4A4A4A4A4A4A4A4A4A4A4A4A4A4A4A4A4A4A4A4A4A4A4A4A4A4A4A4A4A4A4A4A4A4A4A4A4A4A4A4A4A4A4A4A4A4A4A4A4A4A4A4A4A4A4A4A4A4A4A4A4A4A4A4A4A4A4A4A4A4A4A4A4A4A4
310
A4A4A4A4A4A4A4A4A4A4A4A4A4A4A4A4A4A4A4A4A4A4A4A4A4A4A4A4A4A4A4A4A4A4A4A4A4A4A4A4A4A4A4A4A4A4A4A4A4A4A4A4A4A4A4A4A4A4A4A4A4A4A4A4A4A4A4A4A4A4A4A4A4A4A4A4A4A4A4A4A4A4A4A4A4A4A4A4A4A4A4A4A4A4A4A4A4A4A4A4A4A4A4A4A4A4A4A4A4A4A4A4A4A4A4A4F9F9F9F9F9F9F9F9F9F9F9
310
F9F9F9F9F9F9F9F9F9F9F9F9F9F9F9F9F9F9F9A4A4F9F9F9F9F9F9F9F9F9F9F9F9F9F9F9F9F9F9F9F9F9F9F9F9F9F9F9F9F9F9A4A4F9F9F9F9F9F9F9F9F9F9F9F9F9F9F9F9F9F9F9F9F9F9F9F9F9F9F9F9F9F9A4A4F9A4A4A4A4A4A4A4A4A4A4A4A4A4A4A4A4A4A4A4A4A4A4A4A4A4A4A4A4F9A4A4A4A4A4A4A4A4A4A4A4A4
310
A4A4A4A4A4A4A4A4A4A4A4A4A4A4A4A4A4A4A4A4A4A4A4A4A4A4A4A4A4A4A4A4A4A4A4A4A4A4A4A4A4A4A4A4A4A4A4A4A4A4A4A4A4A4A4A4A4A4A4A4A4A4A4A4A4A4A4A4A4A4A4A4A4A4A4A4A4A4A4A4A4A4A4A4A4A4A4A4A4A4A4A4A4A4A4A4A4A4A4A4A4A4A4A4A4A4A4A4A4A4A4A4A4A4A4A4A4A4A4A4A4A4A4A4A4A4A4
310
A4A4A4A4A4A4A4A4A4A4A4A4A4A4A4A4A4A4A4A4A4A4A4A4A4A4A4A4A4A4A4A4A4A4A4A4A4A4A4A4A4A4A4A4A4A4A4A4A4A4A4A4A4A4A4A4A4A4A4A4A4A4A4A4A4A4A4A4A4A4A4A4A4A4A4A4A4A4A4A4A4A4A4A4A4A4A4A4A4A4A4A4A4A4A4A4A4A4A4A4A4A4A4A4A4A4A4A4A4A4A4A4A4A4A4A4A4A4A4A4A4A4A4A4A4A4A4
310
A4A4A4A4A4A4A4A4A4A4A4A4A4A4A4A4A4A4A4A4A4A4A4A4A4A4A4A4A4A4A4A4A4A4A4A4A4A4A4A4A4A4A4A4A4A4A4A4A4A4A4A4A4A4A4A4A4A4A4A4A4A4A4A4A4A4A4A4A4A4A4A4A4A4A4A4A4A4A4A4A4A4A4A4A4A4A4A4A4A4A4A4A4A4A4A4A4A4A4A4A4A4A4A4A4A4A4A4A4A4A4A4A4A4A4A4A4A4A4A4A4A4A4A4A4A4A4
310
A4A4A4A4A4A4A4A4A4A4A4A4A4A4A4A4A4A4A4A4A4A4A4A4A4A4A4A4A4A4A4A4A4A4A4A4A4A4A4A4A4A4A4A4A4A4A4A4A4A4A4A4A4A4A4A4
1001
ACAD
1000
DesignCenter Data
1002
{
1070
     1
1070
     4
1002
}
  0
BLOCK_RECORD
  5
AA8
330
1
100
AcDbSymbolTableRecord
100
AcDbBlockTableRecord
  2
_CLOSED
340
0
  0
BLOCK_RECORD
  5
BA5
330
1
100
AcDbSymbolTableRecord
100
AcDbBlockTableRecord
  2
guarnizione
340
0
102
{BLKREFS
331
E77
102
}
  0
BLOCK_RECORD
  5
ED9
330
1
100
AcDbSymbolTableRecord
100
AcDbBlockTableRecord
  2
*D16
340
0
  0
BLOCK_RECORD
  5
EE5
330
1
100
AcDbSymbolTableRecord
100
AcDbBlockTableRecord
  2
*D17
340
0
  0
BLOCK_RECORD
  5
EF1
330
1
100
AcDbSymbolTableRecord
100
AcDbBlockTableRecord
  2
*D18
340
0
  0
BLOCK_RECORD
  5
EFD
330
1
100
AcDbSymbolTableRecord
100
AcDbBlockTableRecord
  2
*D19
340
0
  0
BLOCK_RECORD
  5
F0B
330
1
100
AcDbSymbolTableRecord
100
AcDbBlockTableRecord
  2
*D20
340
0
  0
BLOCK_RECORD
  5
F17
330
1
100
AcDbSymbolTableRecord
100
AcDbBlockTableRecord
  2
*D21
340
0
  0
BLOCK_RECORD
  5
F23
330
1
100
AcDbSymbolTableRecord
100
AcDbBlockTableRecord
  2
*D22
340
0
  0
BLOCK_RECORD
  5
F2F
330
1
100
AcDbSymbolTableRecord
100
AcDbBlockTableRecord
  2
*D23
340
0
  0
BLOCK_RECORD
  5
F3B
330
1
100
AcDbSymbolTableRecord
100
AcDbBlockTableRecord
  2
*D24
340
0
  0
BLOCK_RECORD
  5
F47
330
1
100
AcDbSymbolTableRecord
100
AcDbBlockTableRecord
  2
*D25
340
0
  0
BLOCK_RECORD
  5
F53
330
1
100
AcDbSymbolTableRecord
100
AcDbBlockTableRecord
  2
*D26
340
0
  0
BLOCK_RECORD
  5
10F6
330
1
100
AcDbSymbolTableRecord
100
AcDbBlockTableRecord
  2
*D27
340
0
  0
BLOCK_RECORD
  5
1342
330
1
100
AcDbSymbolTableRecord
100
AcDbBlockTableRecord
  2
*D29
340
0
  0
BLOCK_RECORD
  5
1361
330
1
100
AcDbSymbolTableRecord
100
AcDbBlockTableRecord
  2
*D30
340
0
  0
ENDTAB
  0
ENDSEC
  0
SECTION
  2
BLOCKS
  0
BLOCK
  5
20
330
1F
100
AcDbEntity
  8
0
100
AcDbBlockBegin
  2
*Model_Space
 70
     0
 10
0.0
 20
0.0
 30
0.0
  3
*Model_Space
  1

  0
ENDBLK
  5
21
330
1F
100
AcDbEntity
  8
0
100
AcDbBlockEnd
  0
BLOCK
  5
1C
330
1B
100
AcDbEntity
 67
     1
  8
0
100
AcDbBlockBegin
  2
*Paper_Space
 70
     0
 10
0.0
 20
0.0
 30
0.0
  3
*Paper_Space
  1

  0
ENDBLK
  5
1D
330
1B
100
AcDbEntity
 67
     1
  8
0
100
AcDbBlockEnd
  0
BLOCK
  5
24
330
23
100
AcDbEntity
 67
     1
  8
0
100
AcDbBlockBegin
  2
*Paper_Space0
 70
     0
 10
0.0
 20
0.0
 30
0.0
  3
*Paper_Space0
  1

  0
ENDBLK
  5
25
330
23
100
AcDbEntity
 67
     1
  8
0
100
AcDbBlockEnd
  0
BLOCK
  5
91B
330
919
100
AcDbEntity
  8
0
100
AcDbBlockBegin
  2
_DotSmall
 70
     0
 10
0.0
 20
0.0
 30
0.0
  3
_DotSmall
  1

  0
LWPOLYLINE
  5
91A
330
919
100
AcDbEntity
  8
0
  6
ByBlock
 62
     0
100
AcDbPolyline
 90
        2
 70
     1
 43
0.5
 10
-0.0625
 20
0.0
 42
1.0
 10
0.0625
 20
0.0
 42
1.0
  0
ENDBLK
  5
91C
330
919
100
AcDbEntity
  8
0
100
AcDbBlockEnd
  0
BLOCK
  5
92A
330
922
100
AcDbEntity
  8
0
100
AcDbBlockBegin
  2
base para cotas
 70
     0
 10
0.0
 20
0.0
 30
0.0
  3
base para cotas
  1

  0
LINE
  5
B36
330
922
100
AcDbEntity
  8
cotas
100
AcDbLine
 10
0.0
 20
-30.0
 30
0.0
 11
327.1260136525398
 21
-30.0
 31
0.0
  0
LINE
  5
B37
330
922
100
AcDbEntity
  8
cotas
100
AcDbLine
 10
0.0
 20
-25.0
 30
0.0
 11
327.1260136525398
 21
-25.0
 31
0.0
  0
LINE
  5
B38
330
922
100
AcDbEntity
  8
cotas
100
AcDbLine
 10
0.0
 20
-20.0
 30
0.0
 11
327.1260136525398
 21
-20.0
 31
0.0
  0
LINE
  5
B39
330
922
100
AcDbEntity
  8
cotas
100
AcDbLine
 10
0.0
 20
-15.0
 30
0.0
 11
327.1260136525398
 21
-15.0
 31
0.0
  0
LINE
  5
B3A
330
922
100
AcDbEntity
  8
cotas
100
AcDbLine
 10
0.0
 20
-10.0
 30
0.0
 11
327.1260136525398
 21
-10.0
 31
0.0
  0
LINE
  5
B3B
330
922
100
AcDbEntity
  8
cotas
100
AcDbLine
 10
0.0
 20
0.0
 30
0.0
 11
0.0
 21
-30.0
 31
0.0
  0
LINE
  5
B3C
330
922
100
AcDbEntity
  8
cotas
100
AcDbLine
 10
327.1260136525398
 20
-30.0
 30
0.0
 11
327.1260136525398
 21
0.0
 31
0.0
  0
ENDBLK
  5
92B
330
922
100
AcDbEntity
  8
0
100
AcDbBlockEnd
  0
BLOCK
  5
AAD
330
AA8
100
AcDbEntity
  8
0
100
AcDbBlockBegin
  2
_CLOSED
 70
     0
 10
0.0
 20
0.0
 30
0.0
  3
_CLOSED
  1

  0
LINE
  5
AA9
330
AA8
100
AcDbEntity
  8
0
100
AcDbLine
 10
-1.0
 20
0.166667
 30
0.0
 11
0.0
 21
0.0
 31
0.0
  0
LINE
  5
AAA
330
AA8
100
AcDbEntity
  8
0
100
AcDbLine
 10
0.0
 20
0.0
 30
0.0
 11
-1.0
 21
-0.166667
 31
0.0
  0
LINE
  5
AAB
330
AA8
100
AcDbEntity
  8
0
100
AcDbLine
 10
-1.0
 20
0.166667
 30
0.0
 11
-1.0
 21
-0.166667
 31
0.0
  0
LINE
  5
AAC
330
AA8
100
AcDbEntity
  8
0
100
AcDbLine
 10
0.0
 20
0.0
 30
0.0
 11
-1.0
 21
0.0
 31
0.0
  0
ENDBLK
  5
AAE
330
AA8
100
AcDbEntity
  8
0
100
AcDbBlockEnd
  0
BLOCK
  5
BF0
330
BA5
100
AcDbEntity
  8
0
 62
     4
100
AcDbBlockBegin
  2
guarnizione
 70
     0
 10
0.0
 20
0.0
 30
0.0
  3
guarnizione
  1

  0
LINE
  5
BA6
330
BA5
100
AcDbEntity
  8
0
100
AcDbLine
 10
12.0
 20
3.179312414488776
 30
0.0
 11
12.0
 21
2.699999999999818
 31
0.0
  0
LINE
  5
BA7
330
BA5
100
AcDbEntity
  8
0
100
AcDbLine
 10
9.5
 20
3.130475008156281
 30
0.0
 11
9.440776269158959
 21
2.734883615801663
 31
0.0
  0
ARC
  5
BA8
330
BA5
100
AcDbEntity
  8
0
100
AcDbCircle
 10
11.19999999999891
 20
3.179312414488776
 30
0.0
 40
0.8
100
AcDbArc
 50
0.0
 51
81.48552156587461
  0
ARC
  5
BA9
330
BA5
100
AcDbEntity
  8
0
100
AcDbCircle
 10
8.753809903480942
 20
1.523241254200002
 30
0.0
 40
0.1999999999999504
100
AcDbArc
 50
171.485521565823
 51
351.485521565823
  0
LINE
  5
BAA
330
BA5
100
AcDbEntity
  8
0
100
AcDbLine
 10
11.65558220186904
 20
-2.403306455734309
 30
0.0
 11
9.440776269158959
 21
-2.734883615802573
 31
0.0
  0
ARC
  5
BAB
330
BA5
100
AcDbEntity
  8
0
100
AcDbCircle
 10
8.753809903480942
 20
-1.523241254200911
 30
0.0
 40
0.1999999999999504
100
AcDbArc
 50
8.514478434176927
 51
188.5144784341769
  0
LINE
  5
BAC
330
BA5
100
AcDbEntity
  8
0
100
AcDbLine
 10
9.5
 20
-3.130475008157191
 30
0.0
 11
9.440776269158959
 21
-2.734883615802573
 31
0.0
  0
ARC
  5
BAD
330
BA5
100
AcDbEntity
  8
0
100
AcDbCircle
 10
11.69999999999891
 20
-2.699999999999818
 30
0.0
 40
0.3
100
AcDbArc
 50
0.0
 51
98.51447843412536
  0
ARC
  5
BAE
330
BA5
100
AcDbEntity
  8
0
100
AcDbCircle
 10
11.69999999999891
 20
2.699999999999818
 30
0.0
 40
0.3
100
AcDbArc
 50
261.4855215658746
 51
0.0
  0
LINE
  5
BAF
330
BA5
100
AcDbEntity
  8
0
100
AcDbLine
 10
11.65558220186904
 20
2.4033064557334
 30
0.0
 11
9.440776269158959
 21
2.734883615801663
 31
0.0
  0
LINE
  5
BB0
330
BA5
100
AcDbEntity
  8
0
100
AcDbLine
 10
8.807715063378054
 20
3.234116537129011
 30
0.0
 11
8.556014207302723
 21
1.552853119620522
 31
0.0
  0
LINE
  5
BB1
330
BA5
100
AcDbEntity
  8
0
100
AcDbLine
 10
9.203306455732672
 20
3.174892806287971
 30
0.0
 11
8.951605599657341
 21
1.493629388779481
 31
0.0
  0
LINE
  5
BB2
330
BA5
100
AcDbEntity
  8
0
100
AcDbLine
 10
6.681411329471302
 20
3.552444090400967
 30
0.0
 11
6.622187598630262
 21
3.15685269804544
 31
0.0
  0
ARC
  5
BB3
330
BA5
100
AcDbEntity
  8
0
100
AcDbCircle
 10
0.2999999999992724
 20
3.800000000000181
 30
0.0
 40
0.3
100
AcDbArc
 50
81.48552156587461
 51
180.0
  0
ARC
  5
BB4
330
BA5
100
AcDbEntity
  8
0
100
AcDbCircle
 10
1.042400829128382
 20
4.699999999999818
 30
0.0
 40
0.8
100
AcDbArc
 50
81.48552156587461
 51
90.0
  0
LINE
  5
BB5
330
BA5
100
AcDbEntity
  8
0
100
AcDbLine
 10
1.5
 20
3.923692082123125
 30
0.0
 11
0.3444177981309622
 21
4.09669354426569
 31
0.0
  0
LINE
  5
BB6
330
BA5
100
AcDbEntity
  8
0
100
AcDbLine
 10
1.5
 20
3.923692082123125
 30
0.0
 11
1.5
 21
3.099999999999454
 31
0.0
  0
LINE
  5
BB7
330
BA5
100
AcDbEntity
  8
0
100
AcDbLine
 10
1.5
 20
3.099999999999454
 30
0.0
 11
2.699999999998908
 21
3.099999999999454
 31
0.0
  0
LINE
  5
BB8
330
BA5
100
AcDbEntity
  8
0
100
AcDbLine
 10
2.699999999998908
 20
3.744040860223321
 30
0.0
 11
2.699999999998908
 21
3.099999999999454
 31
0.0
  0
LINE
  5
BB9
330
BA5
100
AcDbEntity
  8
0
100
AcDbLine
 10
6.622187598630262
 20
3.15685269804544
 30
0.0
 11
2.699999999998908
 21
3.744040860223321
 31
0.0
  0
LINE
  5
BBA
330
BA5
100
AcDbEntity
  8
0
100
AcDbLine
 10
1.5
 20
-3.100000000000363
 30
0.0
 11
2.699999999998908
 21
-3.100000000000363
 31
0.0
  0
LINE
  5
BBB
330
BA5
100
AcDbEntity
  8
0
100
AcDbLine
 10
11.31844746168099
 20
3.970495199198012
 30
0.0
 11
1.160848290810463
 21
5.491182784709053
 31
0.0
  0
LINE
  5
BBC
330
BA5
100
AcDbEntity
  8
0
100
AcDbLine
 10
9.5
 20
3.130475008156281
 30
0.0
 11
6.681411329471302
 21
3.552444090400967
 31
0.0
  0
ARC
  5
BBD
330
BA5
100
AcDbEntity
  8
0
100
AcDbCircle
 10
11.19999999999891
 20
-3.179312414488776
 30
0.0
 40
0.8
100
AcDbArc
 50
278.5144784341254
 51
0.0
  0
LINE
  5
BBE
330
BA5
100
AcDbEntity
  8
0
100
AcDbLine
 10
6.681411329471302
 20
-3.552444090400967
 30
0.0
 11
6.622187598630262
 21
-3.15685269804635
 31
0.0
  0
ARC
  5
BBF
330
BA5
100
AcDbEntity
  8
0
100
AcDbCircle
 10
0.2999999999992724
 20
-3.800000000000181
 30
0.0
 40
0.3
100
AcDbArc
 50
180.0
 51
278.5144784341254
  0
ARC
  5
BC0
330
BA5
100
AcDbEntity
  8
0
100
AcDbCircle
 10
1.042400829128382
 20
-4.699999999999818
 30
0.0
 40
0.8
100
AcDbArc
 50
270.0
 51
278.5144784341254
  0
LINE
  5
BC1
330
BA5
100
AcDbEntity
  8
0
100
AcDbLine
 10
0.3444177981309622
 20
-4.096693544266599
 30
0.0
 11
1.5
 21
-3.923692082124034
 31
0.0
  0
LINE
  5
BC2
330
BA5
100
AcDbEntity
  8
0
100
AcDbLine
 10
6.622187598630262
 20
-3.15685269804635
 30
0.0
 11
2.699999999998908
 21
-3.744040860224231
 31
0.0
  0
LINE
  5
BC3
330
BA5
100
AcDbEntity
  8
0
100
AcDbLine
 10
1.160848290810463
 20
-5.491182784709963
 30
0.0
 11
11.31844746168099
 21
-3.970495199198921
 31
0.0
  0
LINE
  5
BC4
330
BA5
100
AcDbEntity
  8
0
100
AcDbLine
 10
0.0
 20
3.800000000000181
 30
0.0
 11
0.0
 21
-3.800000000000181
 31
0.0
  0
LINE
  5
BC5
330
BA5
100
AcDbEntity
  8
0
100
AcDbLine
 10
12.0
 20
-2.699999999999818
 30
0.0
 11
12.0
 21
-3.179312414488776
 31
0.0
  0
LINE
  5
BC6
330
BA5
100
AcDbEntity
  8
0
100
AcDbLine
 10
2.699999999998908
 20
-3.100000000000363
 30
0.0
 11
2.699999999998908
 21
-3.744040860224231
 31
0.0
  0
LINE
  5
BC7
330
BA5
100
AcDbEntity
  8
0
100
AcDbLine
 10
1.5
 20
-3.100000000000363
 30
0.0
 11
1.5
 21
-3.923692082124034
 31
0.0
  0
LINE
  5
BC8
330
BA5
100
AcDbEntity
  8
0
100
AcDbLine
 10
9.5
 20
-3.130475008157191
 30
0.0
 11
6.681411329471302
 21
-3.552444090400967
 31
0.0
  0
LINE
  5
BC9
330
BA5
100
AcDbEntity
  8
0
100
AcDbLine
 10
9.203306455732672
 20
-3.174892806287971
 30
0.0
 11
8.951605599657341
 21
-1.493629388780391
 31
0.0
  0
LINE
  5
BCA
330
BA5
100
AcDbEntity
  8
0
100
AcDbLine
 10
8.807715063378054
 20
-3.234116537129011
 30
0.0
 11
8.556014207302723
 21
-1.552853119621431
 31
0.0
  0
LINE
  5
BCB
330
BA5
100
AcDbEntity
  8
0
100
AcDbLine
 10
-1.5
 20
5.5
 30
0.0
 11
-3.757359312881817
 21
5.5
 31
0.0
  0
ARC
  5
BCC
330
BA5
100
AcDbEntity
  8
0
100
AcDbCircle
 10
-2.5
 20
3.5
 30
0.0
 40
1.0
100
AcDbArc
 50
0.0
 51
90.0
  0
ARC
  5
BCD
330
BA5
100
AcDbEntity
  8
0
100
AcDbCircle
 10
-3.769781102879278
 20
4.149978862833449
 30
0.0
 40
0.75
100
AcDbArc
 50
47.16775949949599
 51
90.19499109987526
  0
ARC
  5
BCE
330
BA5
100
AcDbEntity
  8
0
100
AcDbCircle
 10
-2.75
 20
5.25
 30
0.0
 40
0.75
100
AcDbArc
 50
227.167759499496
 51
270.0
  0
LINE
  5
BCF
330
BA5
100
AcDbEntity
  8
0
100
AcDbLine
 10
-2.75
 20
4.5
 30
0.0
 11
-2.5
 21
4.5
 31
0.0
  0
LINE
  5
BD0
330
BA5
100
AcDbEntity
  8
0
100
AcDbLine
 10
-7.415254325502246
 20
3.064644661409147
 30
0.0
 11
-6.868629150101696
 21
3.611269837220788
 31
0.0
  0
ARC
  5
BD1
102
{ACAD_REACTORS
330
BEB
102
}
330
BA5
100
AcDbEntity
  8
0
100
AcDbCircle
 10
-7.980939750059405
 20
2.569669913566031
 30
0.0
 40
0.2
100
AcDbArc
 50
45.0000001037625
 51
135.0000000719631
  0
ARC
  5
BD2
330
BA5
100
AcDbEntity
  8
0
100
AcDbCircle
 10
-3.757359312881817
 20
0.5
 30
0.0
 40
5.0
100
AcDbArc
 50
90.0
 51
135.0
  0
ARC
  5
BD3
330
BA5
100
AcDbEntity
  8
0
100
AcDbCircle
 10
-3.757359312881817
 20
0.5
 30
0.0
 40
4.4
100
AcDbArc
 50
90.19499109987526
 51
135.0
  0
ARC
  5
BD4
330
BA5
100
AcDbEntity
  8
0
100
AcDbCircle
 10
-6.814213563102384
 20
0.9786796633270569
 30
0.0
 40
0.75
100
AcDbArc
 50
314.9999999676111
 51
45.0
  0
ARC
  5
BD5
102
{ACAD_REACTORS
330
BEB
102
}
330
BA5
100
AcDbEntity
  8
0
100
AcDbCircle
 10
-6.814213563102384
 20
0.9786796633270569
 30
0.0
 40
0.5
100
AcDbArc
 50
314.9999999676111
 51
45.0
  0
ARC
  5
BD6
330
BA5
100
AcDbEntity
  8
0
100
AcDbCircle
 10
-7.203122291144609
 20
2.852512627053329
 30
0.0
 40
0.3
100
AcDbArc
 50
135.0
 51
225.0000001112794
  0
LINE
  5
BD7
330
BA5
100
AcDbEntity
  8
0
100
AcDbLine
 10
-8.051650430128574
 20
3.276776694619002
 30
0.0
 11
-6.283883477519339
 21
1.509009749524921
 31
0.0
  0
LINE
  5
BD8
102
{ACAD_REACTORS
330
BEB
102
}
330
BA5
100
AcDbEntity
  8
0
100
AcDbLine
 10
-7.839518394079277
 20
2.711091270059114
 30
0.0
 11
-6.460660172508141
 21
1.33223305392039
 31
0.0
  0
ARC
  5
BD9
330
BA5
100
AcDbEntity
  8
0
100
AcDbCircle
 10
-12.57713383280133
 20
-2.521498914058611
 30
0.0
 40
0.3
100
AcDbArc
 50
45.00000003552097
 51
135.0
  0
ARC
  5
BDA
102
{ACAD_REACTORS
330
BEB
102
}
330
BA5
100
AcDbEntity
  8
0
100
AcDbCircle
 10
-12.29429112059733
 20
-1.743681468243266
 30
0.0
 40
0.2
100
AcDbArc
 50
135.0000000660675
 51
225.0000002990173
  0
LINE
  5
BDB
330
BA5
100
AcDbEntity
  8
0
100
AcDbLine
 10
-12.9899494936617
 20
-2.510050506339212
 30
0.0
 11
-12.78926586715715
 21
-2.309366879702793
 31
0.0
  0
LINE
  5
BDC
330
BA5
100
AcDbEntity
  8
0
100
AcDbLine
 10
-13.41421356237333
 20
-2.085786437626666
 30
0.0
 11
-7.292893218815152
 21
4.035533905932425
 31
0.0
  0
LINE
  5
BDD
102
{ACAD_REACTORS
330
BEB
102
}
330
BA5
100
AcDbEntity
  8
0
100
AcDbLine
 10
-12.43571247699765
 20
-1.602260112168551
 30
0.0
 11
-8.122361106474272
 21
2.711091269625285
 31
0.0
  0
ARC
  5
BDE
330
BA5
100
AcDbEntity
  8
0
100
AcDbCircle
 10
-2.5
 20
-3.5
 30
0.0
 40
1.0
100
AcDbArc
 50
270.0
 51
0.0
  0
ARC
  5
BDF
330
BA5
100
AcDbEntity
  8
0
100
AcDbCircle
 10
-7.519803902720013
 20
-4.150000000000545
 30
0.0
 40
0.75
100
AcDbArc
 50
270.0
 51
312.8334280660476
  0
ARC
  5
BE0
330
BA5
100
AcDbEntity
  8
0
100
AcDbCircle
 10
-6.5
 20
-5.25
 30
0.0
 40
0.75
100
AcDbArc
 50
90.0
 51
132.8334280660476
  0
LINE
  5
BE1
330
BA5
100
AcDbEntity
  8
0
100
AcDbLine
 10
-2.5
 20
-4.5
 30
0.0
 11
-6.5
 21
-4.5
 31
0.0
  0
ARC
  5
BE2
330
BA5
100
AcDbEntity
  8
0
100
AcDbCircle
 10
-10.7033008647486
 20
-2.910407640086305
 30
0.0
 40
0.75
100
AcDbArc
 50
225.0
 51
315.0
  0
ARC
  5
BE3
102
{ACAD_REACTORS
330
BEB
102
}
330
BA5
100
AcDbEntity
  8
0
100
AcDbCircle
 10
-10.7033008647486
 20
-2.910407640086305
 30
0.0
 40
0.5
100
AcDbArc
 50
225.0
 51
315.0
  0
LINE
  5
BE4
330
BA5
100
AcDbEntity
  8
0
100
AcDbLine
 10
-1.5
 20
-5.5
 30
0.0
 11
-12.0
 21
-5.5
 31
0.0
  0
LINE
  5
BE5
330
BA5
100
AcDbEntity
  8
0
100
AcDbLine
 10
-7.519803902720013
 20
-4.900000000000545
 30
0.0
 11
-12.0
 21
-4.900000000000545
 31
0.0
  0
ARC
  5
BE6
330
BA5
100
AcDbEntity
  8
0
100
AcDbCircle
 10
-12.0
 20
-3.5
 30
0.0
 40
2.0
100
AcDbArc
 50
135.0
 51
270.0
  0
LINE
  5
BE7
330
BA5
100
AcDbEntity
  8
0
100
AcDbLine
 10
-10.17297077881812
 20
-3.440737725935832
 30
0.0
 11
-6.283883477372
 21
0.4483495772774404
 31
0.0
  0
ARC
  5
BE8
330
BA5
100
AcDbEntity
  8
0
100
AcDbCircle
 10
-12.0
 20
-3.5
 30
0.0
 40
1.399999999999999
100
AcDbArc
 50
135.0
 51
270.0
  0
LINE
  5
BE9
330
BA5
100
AcDbEntity
  8
0
100
AcDbLine
 10
-13.00139790187859
 20
-1.672970777132832
 30
0.0
 11
-11.23363095093009
 21
-3.440737725682993
 31
0.0
  0
LINE
  5
BEA
330
BA5
100
AcDbEntity
  8
0
100
AcDbLine
 10
-1.5
 20
3.5
 30
0.0
 11
-1.5
 21
-3.5
 31
0.0
  0
HATCH
  5
BEB
330
BA5
100
AcDbEntity
  8
0
100
AcDbHatch
 10
0.0
 20
0.0
 30
0.0
210
0.0
220
0.0
230
1.0
  2
ANSI31
 70
     0
 71
     1
 91
        1
 92
        7
 72
     1
 73
     1
 93
        8
 10
-6.460660173204814
 20
1.332233054616153
 42
0.0
 10
-7.839518394101105
 20
2.711091270081851
 42
0.414213562178905
 10
-8.122361106481548
 20
2.711091269618009
 42
0.0
 10
-12.43571247701766
 20
-1.602260112190379
 42
0.4142135636146872
 10
-12.43571247604996
 20
-1.885102825264766
 42
0.0
 10
-11.05685425338015
 20
-3.263961032639599
 42
0.4142135608152901
 10
-10.34974747407432
 20
-3.263961030598693
 42
0.0
 10
-6.460660172428106
 20
0.625126272813759
 42
0.4142135628833784
 97
        8
330
BD8
330
BD1
330
BDD
330
BDA
330
BED
330
BE3
330
BEC
330
BD5
 75
     0
 76
     1
 52
45.0
 41
0.25
 77
     0
 78
     1
 53
90.0
 43
-276.1145346408611
 44
-395.2719013892401
 45
-0.79375
 46
0.0000000000000002
 79
     0
 47
0.0364805528584695
 98
        1
 10
-7.399477738399582
 20
0.8532363732892918
  0
LINE
  5
BEC
102
{ACAD_REACTORS
330
BEB
102
}
330
BA5
100
AcDbEntity
  8
0
100
AcDbLine
 10
-10.34974747415435
 20
-3.263961030678729
 30
0.0
 11
-6.46066017270823
 21
0.6251262725336347
 31
0.0
  0
LINE
  5
BED
102
{ACAD_REACTORS
330
BEB
102
}
330
BA5
100
AcDbEntity
  8
0
100
AcDbLine
 10
-12.43571247609543
 20
-1.885102825218382
 30
0.0
 11
-11.05685425534102
 21
-3.263961030678729
 31
0.0
  0
LINE
  5
BEE
330
BA5
100
AcDbEntity
  8
0
100
AcDbLine
 10
-1.5
 20
5.5
 30
0.0
 11
1.042400829128382
 21
5.5
 31
0.0
  0
LINE
  5
BEF
330
BA5
100
AcDbEntity
  8
0
100
AcDbLine
 10
-1.5
 20
-5.5
 30
0.0
 11
1.042400829128382
 21
-5.5
 31
0.0
  0
ENDBLK
  5
BF1
330
BA5
100
AcDbEntity
  8
0
 62
     4
100
AcDbBlockEnd
  0
BLOCK
  5
EE3
330
ED9
100
AcDbEntity
  8
0
100
AcDbBlockBegin
  2
*D16
 70
     1
 10
0.0
 20
0.0
 30
0.0
  3
*D16
  1

  0
LINE
  5
12D1
330
ED9
100
AcDbEntity
  8
quote
100
AcDbLine
 10
124.254504480161
 20
302.9031843512344
 30
0.0
 11
124.254504480161
 21
307.9031843512342
 31
0.0
  0
LINE
  5
12D2
330
ED9
100
AcDbEntity
  8
quote
100
AcDbLine
 10
184.2545044801606
 20
302.9031843512342
 30
0.0
 11
184.2545044801606
 21
307.9031843512342
 31
0.0
  0
LINE
  5
12D3
330
ED9
100
AcDbEntity
  8
quote
100
AcDbLine
 10
126.254504480161
 20
306.9031843512342
 30
0.0
 11
182.2545044801606
 21
306.9031843512342
 31
0.0
  0
SOLID
  5
12D4
330
ED9
100
AcDbEntity
  8
quote
100
AcDbTrace
 10
126.254504480161
 20
307.2365176845675
 30
0.0
 11
126.254504480161
 21
306.5698510179009
 31
0.0
 12
124.254504480161
 22
306.9031843512342
 32
0.0
 13
124.254504480161
 23
306.9031843512342
 33
0.0
  0
SOLID
  5
12D5
330
ED9
100
AcDbEntity
  8
quote
100
AcDbTrace
 10
182.2545044801606
 20
307.2365176845675
 30
0.0
 11
182.2545044801606
 21
306.5698510179009
 31
0.0
 12
184.2545044801606
 22
306.9031843512342
 32
0.0
 13
184.2545044801606
 23
306.9031843512342
 33
0.0
  0
MTEXT
  5
12D6
330
ED9
100
AcDbEntity
  8
quote
100
AcDbMText
 10
154.2545044801608
 20
308.9441514432422
 30
0.0
 40
2.0
 41
0.0
 71
     5
 72
     1
  1
600
  7
SANINDUSA
 73
     1
 44
1.0
1001
ACAD
1000
MTEXTBEGIN
1070
    73
1070
     1
1070
    44
1040
1.0
1070
    74
1070
     0
1000
MTEXTEND
  0
POINT
  5
12D7
330
ED9
100
AcDbEntity
  8
Defpoints
 62
     0
100
AcDbPoint
 10
124.254504480161
 20
301.9031843512344
 30
0.0
  0
POINT
  5
12D8
330
ED9
100
AcDbEntity
  8
Defpoints
 62
     0
100
AcDbPoint
 10
184.2545044801606
 20
301.9031843512342
 30
0.0
  0
POINT
  5
12D9
330
ED9
100
AcDbEntity
  8
Defpoints
 62
     0
100
AcDbPoint
 10
184.2545044801606
 20
306.9031843512342
 30
0.0
  0
ENDBLK
  5
EE4
330
ED9
100
AcDbEntity
  8
0
100
AcDbBlockEnd
  0
BLOCK
  5
EEF
330
EE5
100
AcDbEntity
  8
0
100
AcDbBlockBegin
  2
*D17
 70
     1
 10
0.0
 20
0.0
 30
0.0
  3
*D17
  1

  0
LINE
  5
127E
330
EE5
100
AcDbEntity
  8
quote
100
AcDbLine
 10
184.5545044801608
 20
302.9031843512342
 30
0.0
 11
184.5545044801608
 21
307.9031843512342
 31
0.0
  0
LINE
  5
127F
330
EE5
100
AcDbEntity
  8
quote
100
AcDbLine
 10
240.6545044801607
 20
302.9031843512346
 30
0.0
 11
240.6545044801607
 21
307.9031843512342
 31
0.0
  0
LINE
  5
1280
330
EE5
100
AcDbEntity
  8
quote
100
AcDbLine
 10
186.5545044801608
 20
306.9031843512342
 30
0.0
 11
238.6545044801607
 21
306.9031843512342
 31
0.0
  0
SOLID
  5
1281
330
EE5
100
AcDbEntity
  8
quote
100
AcDbTrace
 10
186.5545044801608
 20
307.2365176845675
 30
0.0
 11
186.5545044801608
 21
306.5698510179009
 31
0.0
 12
184.5545044801608
 22
306.9031843512342
 32
0.0
 13
184.5545044801608
 23
306.9031843512342
 33
0.0
  0
SOLID
  5
1282
330
EE5
100
AcDbEntity
  8
quote
100
AcDbTrace
 10
238.6545044801607
 20
307.2365176845675
 30
0.0
 11
238.6545044801607
 21
306.5698510179009
 31
0.0
 12
240.6545044801607
 22
306.9031843512342
 32
0.0
 13
240.6545044801607
 23
306.9031843512342
 33
0.0
  0
MTEXT
  5
1283
330
EE5
100
AcDbEntity
  8
quote
100
AcDbMText
 10
212.6045044801608
 20
308.9428082598977
 30
0.0
 40
2.0
 41
0.0
 71
     5
 72
     1
  1
561
  7
SANINDUSA
 73
     1
 44
1.0
1001
ACAD
1000
MTEXTBEGIN
1070
    73
1070
     1
1070
    44
1040
1.0
1070
    74
1070
     0
1000
MTEXTEND
  0
POINT
  5
1284
330
EE5
100
AcDbEntity
  8
Defpoints
 62
     0
100
AcDbPoint
 10
184.5545044801608
 20
301.9031843512342
 30
0.0
  0
POINT
  5
1285
330
EE5
100
AcDbEntity
  8
Defpoints
 62
     0
100
AcDbPoint
 10
240.6545044801607
 20
301.9031843512347
 30
0.0
  0
POINT
  5
1286
330
EE5
100
AcDbEntity
  8
Defpoints
 62
     0
100
AcDbPoint
 10
240.6545044801607
 20
306.9031843512342
 30
0.0
  0
ENDBLK
  5
EF0
330
EE5
100
AcDbEntity
  8
0
100
AcDbBlockEnd
  0
BLOCK
  5
EFB
330
EF1
100
AcDbEntity
  8
0
100
AcDbBlockBegin
  2
*D18
 70
     1
 10
0.0
 20
0.0
 30
0.0
  3
*D18
  1

  0
LINE
  5
12E3
330
EF1
100
AcDbEntity
  8
quote
100
AcDbLine
 10
241.6545044801607
 20
301.9031843512344
 30
0.0
 11
246.6545044801607
 21
301.9031843512344
 31
0.0
  0
LINE
  5
12E4
330
EF1
100
AcDbEntity
  8
quote
100
AcDbLine
 10
229.9607296124443
 20
272.4031843502678
 30
0.0
 11
246.6545044801607
 21
272.4031843502678
 31
0.0
  0
LINE
  5
12E5
330
EF1
100
AcDbEntity
  8
quote
100
AcDbLine
 10
245.6545044801607
 20
299.9031843512344
 30
0.0
 11
245.6545044801607
 21
274.4031843502678
 31
0.0
  0
SOLID
  5
12E6
330
EF1
100
AcDbEntity
  8
quote
100
AcDbTrace
 10
245.3211711468274
 20
299.9031843512344
 30
0.0
 11
245.987837813494
 21
299.9031843512344
 31
0.0
 12
245.6545044801607
 22
301.9031843512344
 32
0.0
 13
245.6545044801607
 23
301.9031843512344
 33
0.0
  0
SOLID
  5
12E7
330
EF1
100
AcDbEntity
  8
quote
100
AcDbTrace
 10
245.3211711468274
 20
274.4031843502678
 30
0.0
 11
245.987837813494
 21
274.4031843502678
 31
0.0
 12
245.6545044801607
 22
272.4031843502678
 32
0.0
 13
245.6545044801607
 23
272.4031843502678
 33
0.0
  0
MTEXT
  5
12E8
330
EF1
100
AcDbEntity
  8
quote
100
AcDbMText
 10
243.6128657964804
 20
287.1531843507512
 30
0.0
 40
2.0
 41
0.0
 71
     5
 72
     1
  1
295
  7
SANINDUSA
 11
0.0000000000000001
 21
1.0
 31
0.0
 73
     1
 44
1.0
1001
ACAD
1000
MTEXTBEGIN
1070
    73
1070
     1
1070
    44
1040
1.0
1070
    74
1070
     0
1000
MTEXTEND
  0
POINT
  5
12E9
330
EF1
100
AcDbEntity
  8
Defpoints
 62
     0
100
AcDbPoint
 10
240.6545044801607
 20
301.9031843512344
 30
0.0000001793827793
  0
POINT
  5
12EA
330
EF1
100
AcDbEntity
  8
Defpoints
 62
     0
100
AcDbPoint
 10
228.9607296124442
 20
272.4031843502678
 30
0.0000000000032074
  0
POINT
  5
12EB
330
EF1
100
AcDbEntity
  8
Defpoints
 62
     0
100
AcDbPoint
 10
245.6545044801607
 20
272.4031843502678
 30
0.0
  0
ENDBLK
  5
EFC
330
EF1
100
AcDbEntity
  8
0
100
AcDbBlockEnd
  0
BLOCK
  5
F09
330
EFD
100
AcDbEntity
  8
0
100
AcDbBlockBegin
  2
*D19
 70
     1
 10
0.0
 20
0.0
 30
0.0
  3
*D19
  1

  0
LINE
  5
12C6
330
EFD
100
AcDbEntity
  8
quote
100
AcDbLine
 10
155.8624321264717
 20
117.9031843512344
 30
0.0
 11
171.0338789730305
 21
117.9031843512344
 31
0.0
  0
LINE
  5
12C7
330
EFD
100
AcDbEntity
  8
quote
100
AcDbLine
 10
153.0835976335972
 20
116.9031843512344
 30
0.0
 11
171.0338789730305
 21
116.9031843512344
 31
0.0
  0
LINE
  5
12C8
330
EFD
100
AcDbEntity
  8
quote
100
AcDbLine
 10
170.0338789730305
 20
119.9031843512344
 30
0.0
 11
170.0338789730305
 21
121.9031843512344
 31
0.0
  0
LINE
  5
12C9
330
EFD
100
AcDbEntity
  8
quote
100
AcDbLine
 10
170.0338789730305
 20
114.9031843512344
 30
0.0
 11
170.0338789730305
 21
107.9602696433768
 31
0.0
  0
LINE
  5
12CA
330
EFD
100
AcDbEntity
  8
quote
100
AcDbLine
 10
170.0338789730305
 20
117.9031843512344
 30
0.0
 11
170.0338789730305
 21
116.9031843512344
 31
0.0
  0
SOLID
  5
12CB
330
EFD
100
AcDbEntity
  8
quote
100
AcDbTrace
 10
169.7005456396972
 20
119.9031843512344
 30
0.0
 11
170.3672123063639
 21
119.9031843512344
 31
0.0
 12
170.0338789730305
 22
117.9031843512344
 32
0.0
 13
170.0338789730305
 23
117.9031843512344
 33
0.0
  0
SOLID
  5
12CC
330
EFD
100
AcDbEntity
  8
quote
100
AcDbTrace
 10
169.7005456396972
 20
114.9031843512344
 30
0.0
 11
170.3672123063639
 21
114.9031843512344
 31
0.0
 12
170.0338789730305
 22
116.9031843512344
 32
0.0
 13
170.0338789730305
 23
116.9031843512344
 33
0.0
  0
MTEXT
  5
12CD
330
EFD
100
AcDbEntity
  8
quote
100
AcDbMText
 10
167.9929118810224
 20
110.4317269973056
 30
0.0
 40
2.0
 41
0.0
 71
     5
 72
     1
  1
10
  7
SANINDUSA
 11
0.0000000000000001
 21
1.0
 31
0.0
 73
     1
 44
1.0
1001
ACAD
1000
MTEXTBEGIN
1070
    73
1070
     1
1070
    44
1040
1.0
1070
    74
1070
     0
1000
MTEXTEND
  0
POINT
  5
12CE
330
EFD
100
AcDbEntity
  8
Defpoints
 62
     0
100
AcDbPoint
 10
154.8624321264717
 20
117.9031843512344
 30
-0.0000001793795719
  0
POINT
  5
12CF
330
EFD
100
AcDbEntity
  8
Defpoints
 62
     0
100
AcDbPoint
 10
152.0835976335972
 20
116.9031843512344
 30
0.0
  0
POINT
  5
12D0
330
EFD
100
AcDbEntity
  8
Defpoints
 62
     0
100
AcDbPoint
 10
170.0338789730305
 20
116.9031843512344
 30
0.0
  0
ENDBLK
  5
F0A
330
EFD
100
AcDbEntity
  8
0
100
AcDbBlockEnd
  0
BLOCK
  5
F15
330
F0B
100
AcDbEntity
  8
0
100
AcDbBlockBegin
  2
*D20
 70
     1
 10
0.0
 20
0.0
 30
0.0
  3
*D20
  1

  0
LINE
  5
12BD
330
F0B
100
AcDbEntity
  8
quote
100
AcDbLine
 10
169.0338789730305
 20
146.4031843512344
 30
0.0
 11
164.0338789730305
 21
146.4031843512344
 31
0.0
  0
LINE
  5
12BE
330
F0B
100
AcDbEntity
  8
quote
100
AcDbLine
 10
166.8040289012003
 20
117.9031843512344
 30
0.0
 11
164.0338789730305
 21
117.9031843512344
 31
0.0
  0
LINE
  5
12BF
330
F0B
100
AcDbEntity
  8
quote
100
AcDbLine
 10
165.0338789730305
 20
144.4031843512344
 30
0.0
 11
165.0338789730305
 21
119.9031843512344
 31
0.0
  0
SOLID
  5
12C0
330
F0B
100
AcDbEntity
  8
quote
100
AcDbTrace
 10
164.7005456396972
 20
144.4031843512344
 30
0.0
 11
165.3672123063639
 21
144.4031843512344
 31
0.0
 12
165.0338789730305
 22
146.4031843512344
 32
0.0
 13
165.0338789730305
 23
146.4031843512344
 33
0.0
  0
SOLID
  5
12C1
330
F0B
100
AcDbEntity
  8
quote
100
AcDbTrace
 10
164.7005456396972
 20
119.9031843512344
 30
0.0
 11
165.3672123063639
 21
119.9031843512344
 31
0.0
 12
165.0338789730305
 22
117.9031843512344
 32
0.0
 13
165.0338789730305
 23
117.9031843512344
 33
0.0
  0
MTEXT
  5
12C2
330
F0B
100
AcDbEntity
  8
quote
100
AcDbMText
 10
162.9882107393166
 20
132.1531843512344
 30
0.0
 40
2.0
 41
0.0
 71
     5
 72
     1
  1
285
  7
SANINDUSA
 11
0.0000000000000001
 21
1.0
 31
0.0
 73
     1
 44
1.0
1001
ACAD
1000
MTEXTBEGIN
1070
    73
1070
     1
1070
    44
1040
1.0
1070
    74
1070
     0
1000
MTEXTEND
  0
POINT
  5
12C3
330
F0B
100
AcDbEntity
  8
Defpoints
 62
     0
100
AcDbPoint
 10
170.0338789730305
 20
146.4031843512344
 30
-0.0000001793795719
  0
POINT
  5
12C4
330
F0B
100
AcDbEntity
  8
Defpoints
 62
     0
100
AcDbPoint
 10
167.8040289012003
 20
117.9031843512344
 30
-0.0000001793795719
  0
POINT
  5
12C5
330
F0B
100
AcDbEntity
  8
Defpoints
 62
     0
100
AcDbPoint
 10
165.0338789730305
 20
117.9031843512344
 30
0.0
  0
ENDBLK
  5
F16
330
F0B
100
AcDbEntity
  8
0
100
AcDbBlockEnd
  0
BLOCK
  5
F21
330
F17
100
AcDbEntity
  8
0
100
AcDbBlockBegin
  2
*D21
 70
     1
 10
0.0
 20
0.0
 30
0.0
  3
*D21
  1

  0
LINE
  5
12DA
330
F17
100
AcDbEntity
  8
quote
100
AcDbLine
 10
229.744539276792
 20
146.4031843512344
 30
0.0
 11
246.6545044801607
 21
146.4031843512344
 31
0.0
  0
LINE
  5
12DB
330
F17
100
AcDbEntity
  8
quote
100
AcDbLine
 10
241.6545044801607
 20
116.9031843512344
 30
0.0
 11
246.6545044801607
 21
116.9031843512344
 31
0.0
  0
LINE
  5
12DC
330
F17
100
AcDbEntity
  8
quote
100
AcDbLine
 10
245.6545044801607
 20
144.4031843512344
 30
0.0
 11
245.6545044801607
 21
118.9031843512344
 31
0.0
  0
SOLID
  5
12DD
330
F17
100
AcDbEntity
  8
quote
100
AcDbTrace
 10
245.3211711468274
 20
144.4031843512344
 30
0.0
 11
245.987837813494
 21
144.4031843512344
 31
0.0
 12
245.6545044801607
 22
146.4031843512344
 32
0.0
 13
245.6545044801607
 23
146.4031843512344
 33
0.0
  0
SOLID
  5
12DE
330
F17
100
AcDbEntity
  8
quote
100
AcDbTrace
 10
245.3211711468274
 20
118.9031843512344
 30
0.0
 11
245.987837813494
 21
118.9031843512344
 31
0.0
 12
245.6545044801607
 22
116.9031843512344
 32
0.0
 13
245.6545044801607
 23
116.9031843512344
 33
0.0
  0
MTEXT
  5
12DF
330
F17
100
AcDbEntity
  8
quote
100
AcDbMText
 10
243.6128657964804
 20
131.6531843512344
 30
0.0
 40
2.0
 41
0.0
 71
     5
 72
     1
  1
295
  7
SANINDUSA
 11
0.0000000000000001
 21
1.0
 31
0.0
 73
     1
 44
1.0
1001
ACAD
1000
MTEXTBEGIN
1070
    73
1070
     1
1070
    44
1040
1.0
1070
    74
1070
     0
1000
MTEXTEND
  0
POINT
  5
12E0
330
F17
100
AcDbEntity
  8
Defpoints
 62
     0
100
AcDbPoint
 10
228.7445392767919
 20
146.4031843512344
 30
-0.0000001793795719
  0
POINT
  5
12E1
330
F17
100
AcDbEntity
  8
Defpoints
 62
     0
100
AcDbPoint
 10
240.6545044801607
 20
116.9031843512344
 30
0.0
  0
POINT
  5
12E2
330
F17
100
AcDbEntity
  8
Defpoints
 62
     0
100
AcDbPoint
 10
245.6545044801607
 20
116.9031843512344
 30
0.0
  0
ENDBLK
  5
F22
330
F17
100
AcDbEntity
  8
0
100
AcDbBlockEnd
  0
BLOCK
  5
F2D
330
F23
100
AcDbEntity
  8
0
100
AcDbBlockBegin
  2
*D22
 70
     1
 10
0.0
 20
0.0
 30
0.0
  3
*D22
  1

  0
LINE
  5
12A2
330
F23
100
AcDbEntity
  8
quote
100
AcDbLine
 10
120.5745044801608
 20
301.9031843512301
 30
0.0
 11
115.5745044801608
 21
301.9031843512301
 31
0.0
  0
LINE
  5
12A3
330
F23
100
AcDbEntity
  8
quote
100
AcDbLine
 10
119.9275188535209
 20
116.9031843512344
 30
0.0
 11
115.5745044801607
 21
116.9031843512344
 31
0.0
  0
LINE
  5
12A4
330
F23
100
AcDbEntity
  8
quote
100
AcDbLine
 10
116.5745044801608
 20
299.9031843512301
 30
0.0
 11
116.5745044801607
 21
118.9031843512344
 31
0.0
  0
SOLID
  5
12A5
330
F23
100
AcDbEntity
  8
quote
100
AcDbTrace
 10
116.2411711468275
 20
299.9031843512301
 30
0.0
 11
116.9078378134941
 21
299.9031843512301
 31
0.0
 12
116.5745044801608
 22
301.9031843512301
 32
0.0
 13
116.5745044801608
 23
301.9031843512301
 33
0.0
  0
SOLID
  5
12A6
330
F23
100
AcDbEntity
  8
quote
100
AcDbTrace
 10
116.2411711468274
 20
118.9031843512344
 30
0.0
 11
116.907837813494
 21
118.9031843512344
 31
0.0
 12
116.5745044801607
 22
116.9031843512344
 32
0.0
 13
116.5745044801607
 23
116.9031843512344
 33
0.0
  0
MTEXT
  5
12A7
330
F23
100
AcDbEntity
  8
quote
100
AcDbMText
 10
114.5288362464468
 20
209.4031843512322
 30
0.0
 40
2.0
 41
0.0
 71
     5
 72
     1
  1
1850
  7
SANINDUSA
 11
0.0000000000000001
 21
1.0
 31
0.0
 73
     1
 44
1.0
1001
ACAD
1000
MTEXTBEGIN
1070
    73
1070
     1
1070
    44
1040
1.0
1070
    74
1070
     0
1000
MTEXTEND
  0
POINT
  5
12A8
330
F23
100
AcDbEntity
  8
Defpoints
 62
     0
100
AcDbPoint
 10
121.5745044801607
 20
301.9031843512301
 30
0.0
  0
POINT
  5
12A9
330
F23
100
AcDbEntity
  8
Defpoints
 62
     0
100
AcDbPoint
 10
120.9275188535209
 20
116.9031843512344
 30
0.0
  0
POINT
  5
12AA
330
F23
100
AcDbEntity
  8
Defpoints
 62
     0
100
AcDbPoint
 10
116.5745044801607
 20
116.9031843512344
 30
0.0
  0
ENDBLK
  5
F2E
330
F23
100
AcDbEntity
  8
0
100
AcDbBlockEnd
  0
BLOCK
  5
F39
330
F2F
100
AcDbEntity
  8
0
100
AcDbBlockBegin
  2
*D23
 70
     1
 10
0.0
 20
0.0
 30
0.0
  3
*D23
  1

  0
LINE
  5
1299
330
F2F
100
AcDbEntity
  8
quote
100
AcDbLine
 10
143.3966207857158
 20
301.9031843512342
 30
0.0
 11
161.0338789730305
 21
301.9031843512341
 31
0.0
  0
LINE
  5
129A
330
F2F
100
AcDbEntity
  8
quote
100
AcDbLine
 10
143.3966207857153
 20
117.9031843512344
 30
0.0
 11
161.0338789730305
 21
117.9031843512344
 31
0.0
  0
LINE
  5
129B
330
F2F
100
AcDbEntity
  8
quote
100
AcDbLine
 10
160.0338789730305
 20
299.9031843512342
 30
0.0
 11
160.0338789730305
 21
119.9031843512344
 31
0.0
  0
SOLID
  5
129C
330
F2F
100
AcDbEntity
  8
quote
100
AcDbTrace
 10
159.7005456396972
 20
299.9031843512342
 30
0.0
 11
160.3672123063639
 21
299.9031843512341
 31
0.0
 12
160.0338789730305
 22
301.9031843512342
 32
0.0
 13
160.0338789730305
 23
301.9031843512342
 33
0.0
  0
SOLID
  5
129D
330
F2F
100
AcDbEntity
  8
quote
100
AcDbTrace
 10
159.7005456396972
 20
119.9031843512344
 30
0.0
 11
160.3672123063638
 21
119.9031843512344
 31
0.0
 12
160.0338789730305
 22
117.9031843512344
 32
0.0
 13
160.0338789730305
 23
117.9031843512344
 33
0.0
  0
MTEXT
  5
129E
330
F2F
100
AcDbEntity
  8
quote
100
AcDbMText
 10
157.9882107393166
 20
209.9031843512343
 30
0.0
 40
2.0
 41
0.0
 71
     5
 72
     1
  1
1840
  7
SANINDUSA
 11
0.0000000000000001
 21
1.0
 31
0.0
 73
     1
 44
1.0
1001
ACAD
1000
MTEXTBEGIN
1070
    73
1070
     1
1070
    44
1040
1.0
1070
    74
1070
     0
1000
MTEXTEND
  0
POINT
  5
129F
330
F2F
100
AcDbEntity
  8
Defpoints
 62
     0
100
AcDbPoint
 10
142.3966207857158
 20
301.9031843512342
 30
0.0
  0
POINT
  5
12A0
330
F2F
100
AcDbEntity
  8
Defpoints
 62
     0
100
AcDbPoint
 10
142.3966207857153
 20
117.9031843512344
 30
0.0
  0
POINT
  5
12A1
330
F2F
100
AcDbEntity
  8
Defpoints
 62
     0
100
AcDbPoint
 10
160.0338789730305
 20
117.9031843512344
 30
0.0
  0
ENDBLK
  5
F3A
330
F2F
100
AcDbEntity
  8
0
100
AcDbBlockEnd
  0
BLOCK
  5
F45
330
F3B
100
AcDbEntity
  8
0
100
AcDbBlockBegin
  2
*D24
 70
     1
 10
0.0
 20
0.0
 30
0.0
  3
*D24
  1

  0
LINE
  5
1290
330
F3B
100
AcDbEntity
  8
quote
100
AcDbLine
 10
184.2749974254011
 20
82.86865411215895
 30
0.0
 11
184.2749974254011
 21
89.038655266356
 31
0.0
  0
LINE
  5
1291
330
F3B
100
AcDbEntity
  8
quote
100
AcDbLine
 10
236.1573021041694
 20
82.86865526690935
 30
0.0
 11
236.1573021041694
 21
89.038655266356
 31
0.0
  0
LINE
  5
1292
330
F3B
100
AcDbEntity
  8
quote
100
AcDbLine
 10
186.274997425401
 20
88.038655266356
 30
0.0
 11
234.1573021041694
 21
88.038655266356
 31
0.0
  0
SOLID
  5
1293
330
F3B
100
AcDbEntity
  8
quote
100
AcDbTrace
 10
186.274997425401
 20
88.37198859968934
 30
0.0
 11
186.274997425401
 21
87.70532193302267
 31
0.0
 12
184.2749974254011
 22
88.038655266356
 32
0.0
 13
184.2749974254011
 23
88.038655266356
 33
0.0
  0
SOLID
  5
1294
330
F3B
100
AcDbEntity
  8
quote
100
AcDbTrace
 10
234.1573021041694
 20
88.37198859968934
 30
0.0
 11
234.1573021041694
 21
87.70532193302267
 31
0.0
 12
236.1573021041694
 22
88.038655266356
 32
0.0
 13
236.1573021041694
 23
88.038655266356
 33
0.0
  0
MTEXT
  5
1295
330
F3B
100
AcDbEntity
  8
quote
100
AcDbMText
 10
210.2161497647852
 20
90.30997830195037
 30
0.0
 40
2.0
 41
0.0
 71
     5
 72
     1
  1
518,8
  7
SANINDUSA
 73
     1
 44
1.0
1001
ACAD
1000
MTEXTBEGIN
1070
    73
1070
     1
1070
    44
1040
1.0
1070
    74
1070
     0
1000
MTEXTEND
  0
POINT
  5
1296
330
F3B
100
AcDbEntity
  8
Defpoints
 62
     0
100
AcDbPoint
 10
184.2749974254011
 20
81.86865411215896
 30
0.0000000000000025
  0
POINT
  5
1297
330
F3B
100
AcDbEntity
  8
Defpoints
 62
     0
100
AcDbPoint
 10
236.1573021041694
 20
81.86865526690935
 30
-0.0000000007829077
  0
POINT
  5
1298
330
F3B
100
AcDbEntity
  8
Defpoints
 62
     0
100
AcDbPoint
 10
236.1573021041694
 20
88.038655266356
 30
0.0
  0
ENDBLK
  5
F46
330
F3B
100
AcDbEntity
  8
0
100
AcDbBlockEnd
  0
BLOCK
  5
F51
330
F47
100
AcDbEntity
  8
0
100
AcDbBlockBegin
  2
*D25
 70
     1
 10
0.0
 20
0.0
 30
0.0
  3
*D25
  1

  0
LINE
  5
1287
330
F47
100
AcDbEntity
  8
quote
100
AcDbLine
 10
184.2749974254011
 20
82.86865526690981
 30
0.0
 11
184.2749974254011
 21
94.038655266356
 31
0.0
  0
LINE
  5
1288
330
F47
100
AcDbEntity
  8
quote
100
AcDbLine
 10
240.6545044801607
 20
84.038655266356
 30
0.0
 11
240.6545044801607
 21
94.038655266356
 31
0.0
  0
LINE
  5
1289
330
F47
100
AcDbEntity
  8
quote
100
AcDbLine
 10
186.274997425401
 20
93.038655266356
 30
0.0
 11
238.6545044801607
 21
93.038655266356
 31
0.0
  0
SOLID
  5
128A
330
F47
100
AcDbEntity
  8
quote
100
AcDbTrace
 10
186.274997425401
 20
93.37198859968934
 30
0.0
 11
186.274997425401
 21
92.70532193302267
 31
0.0
 12
184.2749974254011
 22
93.038655266356
 32
0.0
 13
184.2749974254011
 23
93.038655266356
 33
0.0
  0
SOLID
  5
128B
330
F47
100
AcDbEntity
  8
quote
100
AcDbTrace
 10
238.6545044801607
 20
93.37198859968934
 30
0.0
 11
238.6545044801607
 21
92.70532193302267
 31
0.0
 12
240.6545044801607
 22
93.038655266356
 32
0.0
 13
240.6545044801607
 23
93.038655266356
 33
0.0
  0
MTEXT
  5
128C
330
F47
100
AcDbEntity
  8
quote
100
AcDbMText
 10
212.4647509527809
 20
95.30997830195037
 30
0.0
 40
2.0
 41
0.0
 71
     5
 72
     1
  1
563,8
  7
SANINDUSA
 73
     1
 44
1.0
1001
ACAD
1000
MTEXTBEGIN
1070
    73
1070
     1
1070
    44
1040
1.0
1070
    74
1070
     0
1000
MTEXTEND
  0
POINT
  5
128D
330
F47
100
AcDbEntity
  8
Defpoints
 62
     0
100
AcDbPoint
 10
184.2749974254011
 20
81.86865526690981
 30
0.0000000000000025
  0
POINT
  5
128E
330
F47
100
AcDbEntity
  8
Defpoints
 62
     0
100
AcDbPoint
 10
240.6545044801607
 20
83.038655266356
 30
-0.0000000054558729
  0
POINT
  5
128F
330
F47
100
AcDbEntity
  8
Defpoints
 62
     0
100
AcDbPoint
 10
240.6545044801607
 20
93.038655266356
 30
0.0
  0
ENDBLK
  5
F52
330
F47
100
AcDbEntity
  8
0
100
AcDbBlockEnd
  0
BLOCK
  5
F5D
330
F53
100
AcDbEntity
  8
0
100
AcDbBlockBegin
  2
*D26
 70
     1
 10
0.0
 20
0.0
 30
0.0
  3
*D26
  1

  0
LINE
  5
12B4
330
F53
100
AcDbEntity
  8
quote
100
AcDbLine
 10
123.9583788090735
 20
82.86865477972444
 30
0.0
 11
123.9583788090735
 21
94.038655266356
 31
0.0
  0
LINE
  5
12B5
330
F53
100
AcDbEntity
  8
quote
100
AcDbLine
 10
183.9749974254009
 20
82.86865477972396
 30
0.0
 11
183.9749974254009
 21
94.038655266356
 31
0.0
  0
LINE
  5
12B6
330
F53
100
AcDbEntity
  8
quote
100
AcDbLine
 10
125.9583788090735
 20
93.038655266356
 30
0.0
 11
181.9749974254009
 21
93.038655266356
 31
0.0
  0
SOLID
  5
12B7
330
F53
100
AcDbEntity
  8
quote
100
AcDbTrace
 10
125.9583788090735
 20
93.37198859968934
 30
0.0
 11
125.9583788090735
 21
92.70532193302267
 31
0.0
 12
123.9583788090735
 22
93.038655266356
 32
0.0
 13
123.9583788090735
 23
93.038655266356
 33
0.0
  0
SOLID
  5
12B8
330
F53
100
AcDbEntity
  8
quote
100
AcDbTrace
 10
181.9749974254009
 20
93.37198859968934
 30
0.0
 11
181.9749974254009
 21
92.70532193302267
 31
0.0
 12
183.9749974254009
 22
93.038655266356
 32
0.0
 13
183.9749974254009
 23
93.038655266356
 33
0.0
  0
MTEXT
  5
12B9
330
F53
100
AcDbEntity
  8
quote
100
AcDbMText
 10
153.9666881172372
 20
95.30796352693357
 30
0.0
 40
2.0
 41
0.0
 71
     5
 72
     1
  1
600,2
  7
SANINDUSA
 73
     1
 44
1.0
1001
ACAD
1000
MTEXTBEGIN
1070
    73
1070
     1
1070
    44
1040
1.0
1070
    74
1070
     0
1000
MTEXTEND
  0
POINT
  5
12BA
330
F53
100
AcDbEntity
  8
Defpoints
 62
     0
100
AcDbPoint
 10
123.9583788090735
 20
81.86865477972444
 30
0.0000000000000462
  0
POINT
  5
12BB
330
F53
100
AcDbEntity
  8
Defpoints
 62
     0
100
AcDbPoint
 10
183.9749974254009
 20
81.86865477972396
 30
0.0
  0
POINT
  5
12BC
330
F53
100
AcDbEntity
  8
Defpoints
 62
     0
100
AcDbPoint
 10
183.9749974254009
 20
93.038655266356
 30
0.0
  0
ENDBLK
  5
F5E
330
F53
100
AcDbEntity
  8
0
100
AcDbBlockEnd
  0
BLOCK
  5
1100
330
10F6
100
AcDbEntity
  8
0
100
AcDbBlockBegin
  2
*D27
 70
     1
 10
0.0
 20
0.0
 30
0.0
  3
*D27
  1

  0
ARC
  5
12AB
330
10F6
100
AcDbEntity
  8
7
100
AcDbCircle
 10
182.3849915284767
 20
81.868654779724
 30
0.0
 40
28.18125192846089
100
AcDbArc
 50
184.067087617537
 51
265.932912382463
  0
SOLID
  5
12AC
330
10F6
100
AcDbEntity
  8
7
100
AcDbTrace
 10
153.9415853599776
 20
79.8580861373891
 30
0.0
 11
154.6078321758722
 21
79.88174252669215
 31
0.0
 12
154.2037396000158
 22
81.86865477972419
 32
0.0
 13
154.2037396000158
 23
81.86865477972419
 33
0.0
  0
SOLID
  5
12AD
330
10F6
100
AcDbEntity
  8
7
100
AcDbTrace
 10
180.3980792754449
 20
54.09149542711947
 30
0.0
 11
180.3744228861419
 21
53.42524861122493
 31
0.0
 12
182.3849915284769
 22
53.6874028512631
 32
0.0
 13
182.3849915284769
 23
53.6874028512631
 33
0.0
  0
MTEXT
  5
12AE
102
{ACAD_XDICTIONARY
360
13EF
102
}
330
10F6
100
AcDbEntity
  8
7
100
AcDbMText
 10
164.062005560167
 20
63.54566881141427
 30
0.0
 40
2.0
 41
0.0
 71
     5
 72
     1
  1
90,0\U+00B0
  7
SANINDUSA
 11
0.7071067811865476
 21
-0.7071067811865475
 31
0.0
 73
     1
 44
1.0
1001
ACAD
1000
MTEXTBEGIN
1070
    73
1070
     1
1070
    44
1040
1.0
1070
    74
1070
     0
1000
MTEXTEND
  0
POINT
  5
12AF
330
10F6
100
AcDbEntity
  8
Defpoints
 62
     0
100
AcDbPoint
 10
157.9793114479803
 20
67.77802881549361
 30
0.0
  0
POINT
  5
12B0
330
10F6
100
AcDbEntity
  8
Defpoints
 62
     0
100
AcDbPoint
 10
183.9749974254006
 20
81.86865477972396
 30
-0.0000000054558959
  0
POINT
  5
12B1
330
10F6
100
AcDbEntity
  8
Defpoints
 62
     0
100
AcDbPoint
 10
182.3849915284767
 20
80.57864888280139
 30
-0.0000000054558959
  0
POINT
  5
12B2
330
10F6
100
AcDbEntity
  8
Defpoints
 62
     0
100
AcDbPoint
 10
182.3849915284772
 20
20.56203026647353
 30
-0.0000000054558959
  0
POINT
  5
12B3
330
10F6
100
AcDbEntity
  8
Defpoints
 62
     0
100
AcDbPoint
 10
123.9583788090732
 20
81.86865477972441
 30
-0.0000000054558496
  0
ENDBLK
  5
1101
330
10F6
100
AcDbEntity
  8
0
100
AcDbBlockEnd
  0
BLOCK
  5
1343
330
1342
100
AcDbEntity
  8
0
100
AcDbBlockBegin
  2
*D29
 70
     1
 10
0.0
 20
0.0
 30
0.0
  3
*D29
  1

  0
LINE
  5
134F
330
1342
100
AcDbEntity
  8
cotas
100
AcDbLine
 10
1244.254504480161
 20
1133.503875503572
 30
0.0
 11
1324.717503741695
 21
1133.503875503572
 31
0.0
  0
LINE
  5
1350
330
1342
100
AcDbEntity
  8
cotas
100
AcDbLine
 10
1244.254504480161
 20
-716.4961244964278
 30
0.0
 11
1324.717503741694
 21
-716.496124496428
 31
0.0
  0
LINE
  5
1351
330
1342
100
AcDbEntity
  8
cotas
100
AcDbLine
 10
1323.717503741695
 20
1131.503875503572
 30
0.0
 11
1323.717503741695
 21
-714.496124496428
 31
0.0
  0
SOLID
  5
1352
330
1342
100
AcDbEntity
  8
cotas
100
AcDbTrace
 10
1323.384170408362
 20
1131.503875503572
 30
0.0
 11
1324.050837075028
 21
1131.503875503572
 31
0.0
 12
1323.717503741695
 22
1133.503875503572
 32
0.0
 13
1323.717503741695
 23
1133.503875503572
 33
0.0
  0
SOLID
  5
1353
330
1342
100
AcDbEntity
  8
cotas
100
AcDbTrace
 10
1323.384170408361
 20
-714.496124496428
 30
0.0
 11
1324.050837075028
 21
-714.496124496428
 31
0.0
 12
1323.717503741695
 22
-716.496124496428
 32
0.0
 13
1323.717503741695
 23
-716.496124496428
 33
0.0
  0
MTEXT
  5
1354
330
1342
100
AcDbEntity
  8
cotas
100
AcDbMText
 10
1321.671835507981
 20
208.5038755035722
 30
0.0
 40
2.0
 41
0.0
 71
     5
 72
     1
  1
1850
  7
SANINDUSA
 11
0.0000000000000001
 21
1.0
 31
0.0
 73
     1
 44
1.0
1001
ACAD
1000
MTEXTBEGIN
1070
    73
1070
     1
1070
    44
1040
1.0
1070
    74
1070
     0
1000
MTEXTEND
  0
POINT
  5
1355
330
1342
100
AcDbEntity
  8
Defpoints
 62
     0
100
AcDbPoint
 10
1243.254504480161
 20
1133.503875503572
 30
0.0
  0
POINT
  5
1356
330
1342
100
AcDbEntity
  8
Defpoints
 62
     0
100
AcDbPoint
 10
1243.254504480161
 20
-716.4961244964278
 30
0.0
  0
POINT
  5
1357
330
1342
100
AcDbEntity
  8
Defpoints
 62
     0
100
AcDbPoint
 10
1323.717503741695
 20
-716.496124496428
 30
0.0
  0
ENDBLK
  5
1344
330
1342
100
AcDbEntity
  8
0
100
AcDbBlockEnd
  0
BLOCK
  5
1362
330
1361
100
AcDbEntity
  8
0
100
AcDbBlockBegin
  2
*D30
 70
     1
 10
0.0
 20
0.0
 30
0.0
  3
*D30
  1

  0
LINE
  5
136E
330
1361
100
AcDbEntity
  8
cotas
100
AcDbLine
 10
1244.254504480161
 20
1133.503875503576
 30
0.0
 11
1519.607298434637
 21
1133.503875503576
 31
0.0
  0
LINE
  5
136F
330
1361
100
AcDbEntity
  8
cotas
100
AcDbLine
 10
1244.254504480161
 20
-716.4961244964278
 30
0.0
 11
1519.607298434636
 21
-716.496124496428
 31
0.0
  0
LINE
  5
1370
330
1361
100
AcDbEntity
  8
cotas
100
AcDbLine
 10
1518.607298434637
 20
1131.503875503576
 30
0.0
 11
1518.607298434636
 21
-714.496124496428
 31
0.0
  0
SOLID
  5
1371
330
1361
100
AcDbEntity
  8
cotas
100
AcDbTrace
 10
1518.273965101303
 20
1131.503875503576
 30
0.0
 11
1518.94063176797
 21
1131.503875503576
 31
0.0
 12
1518.607298434637
 22
1133.503875503576
 32
0.0
 13
1518.607298434637
 23
1133.503875503576
 33
0.0
  0
SOLID
  5
1372
330
1361
100
AcDbEntity
  8
cotas
100
AcDbTrace
 10
1518.273965101303
 20
-714.496124496428
 30
0.0
 11
1518.94063176797
 21
-714.496124496428
 31
0.0
 12
1518.607298434636
 22
-716.496124496428
 32
0.0
 13
1518.607298434636
 23
-716.496124496428
 33
0.0
  0
MTEXT
  5
1373
330
1361
100
AcDbEntity
  8
cotas
100
AcDbMText
 10
1516.561630200923
 20
208.5038755035745
 30
0.0
 40
2.0
 41
0.0
 71
     5
 72
     1
  1
1850
  7
SANINDUSA
 11
0.0000000000000001
 21
1.0
 31
0.0
 73
     1
 44
1.0
1001
ACAD
1000
MTEXTBEGIN
1070
    73
1070
     1
1070
    44
1040
1.0
1070
    74
1070
     0
1000
MTEXTEND
  0
POINT
  5
1374
330
1361
100
AcDbEntity
  8
Defpoints
 62
     0
100
AcDbPoint
 10
1243.254504480161
 20
1133.503875503576
 30
0.0
  0
POINT
  5
1375
330
1361
100
AcDbEntity
  8
Defpoints
 62
     0
100
AcDbPoint
 10
1243.254504480161
 20
-716.4961244964278
 30
0.0
  0
POINT
  5
1376
330
1361
100
AcDbEntity
  8
Defpoints
 62
     0
100
AcDbPoint
 10
1518.607298434636
 20
-716.496124496428
 30
0.0
  0
ENDBLK
  5
1363
330
1361
100
AcDbEntity
  8
0
100
AcDbBlockEnd
  0
ENDSEC
  0
SECTION
  2
ENTITIES
  0
LINE
  5
DB3
330
1F
100
AcDbEntity
  8
SANINDUSA
100
AcDbLine
 10
386.2766705708491
 20
183.0840571143481
 30
0.0
 11
386.2766705708491
 21
183.3550571143577
 31
0.0
  0
LINE
  5
DB4
330
1F
100
AcDbEntity
  8
SANINDUSA
100
AcDbLine
 10
386.2796705708491
 20
183.0840571143481
 30
0.0
 11
386.2796705708491
 21
183.3550571143577
 31
0.0
  0
LINE
  5
DB5
330
1F
100
AcDbEntity
  8
SANINDUSA
100
AcDbLine
 10
386.7858205708491
 20
181.5050571143577
 30
0.0
 11
386.7858205708491
 21
183.3550571143577
 31
0.0
  0
LINE
  5
DB6
330
1F
100
AcDbEntity
  8
SANINDUSA
100
AcDbLine
 10
386.840670570849
 20
181.5050571143577
 30
0.0
 11
386.840670570849
 21
183.3550571143577
 31
0.0
  0
LINE
  5
DB7
330
1F
100
AcDbEntity
  8
SANINDUSA
100
AcDbLine
 10
385.6766705708491
 20
181.5150571143577
 30
0.0
 11
385.6766705708491
 21
183.3550571143577
 31
0.0
  0
LINE
  5
DB8
330
1F
100
AcDbEntity
  8
SANINDUSA
100
AcDbLine
 10
385.668170570849
 20
181.5150571143577
 30
0.0
 11
385.668170570849
 21
183.3550571143577
 31
0.0
  0
LINE
  5
DB9
330
1F
100
AcDbEntity
  8
SANINDUSA
100
AcDbLine
 10
385.6621705708491
 20
181.5150571143577
 30
0.0
 11
385.6621705708491
 21
183.3550571143577
 31
0.0
  0
LINE
  5
DBA
330
1F
100
AcDbEntity
  8
SANINDUSA
100
AcDbLine
 10
385.6498705708491
 20
181.5050571143577
 30
0.0
 11
385.6498705708491
 21
183.3550571143577
 31
0.0
  0
LINE
  5
DBB
330
1F
100
AcDbEntity
  8
SANINDUSA
100
AcDbLine
 10
385.6738705708491
 20
181.5050571143577
 30
0.0
 11
385.6738705708491
 21
183.3550571143577
 31
0.0
  0
LINE
  5
DC0
330
1F
100
AcDbEntity
  8
SANINDUSA
100
AcDbLine
 10
385.5318260472573
 20
182.4518226257579
 30
-0.0000000000545588
 11
385.0130030004696
 21
182.4518226257579
 31
0.0
  0
LINE
  5
DC1
330
1F
100
AcDbEntity
  8
SANINDUSA
100
AcDbLine
 10
385.5318260472573
 20
182.4458226257578
 30
-0.0000000000078291
 11
385.0130030004696
 21
182.4458226257578
 31
-0.0000000000145492
  0
LINE
  5
DC2
330
1F
100
AcDbEntity
  8
SANINDUSA
100
AcDbLine
 10
386.2796705708491
 20
181.8240571143577
 30
0.0
 11
386.2796705708491
 21
183.036057114348
 31
0.0
  0
LINE
  5
DC3
330
1F
100
AcDbEntity
  8
SANINDUSA
100
AcDbLine
 10
386.2766705708491
 20
181.8240571143577
 30
0.0
 11
386.2766705708491
 21
183.036057114348
 31
0.0
  0
LINE
  5
DC4
330
1F
100
AcDbEntity
  8
SANINDUSA
100
AcDbLine
 10
386.2766705708491
 20
181.5150571143577
 30
0.0
 11
386.2766705708491
 21
181.7760571143577
 31
0.0
  0
LINE
  5
DC5
330
1F
100
AcDbEntity
  8
SANINDUSA
100
AcDbLine
 10
386.2796705708491
 20
181.5050571143577
 30
0.0
 11
386.2796705708491
 21
181.7760571143577
 31
0.0
  0
LINE
  5
DC7
330
1F
100
AcDbEntity
  8
SANINDUSA
100
AcDbLine
 10
386.840670570849
 20
181.5050571143577
 30
0.0
 11
385.6498705708491
 21
181.5050571143577
 31
0.0
  0
LINE
  5
DC8
330
1F
100
AcDbEntity
  8
SANINDUSA
100
AcDbLine
 10
386.2766705708491
 20
181.5150571143577
 30
0.0
 11
385.6766705708491
 21
181.5150571143577
 31
0.0
  0
LINE
  5
DC9
330
1F
100
AcDbEntity
  8
SANINDUSA
100
AcDbLine
 10
385.668170570849
 20
181.5150571143577
 30
0.0
 11
385.6621705708491
 21
181.5150571143577
 31
0.0
  0
CIRCLE
  5
E53
330
1F
100
AcDbEntity
  8
SANINDUSA
100
AcDbCircle
 10
385.7266705708491
 20
182.4350563464107
 30
0.0
 40
0.004
  0
LINE
  5
E73
330
1F
100
AcDbEntity
  8
SANINDUSA
100
AcDbLine
 10
385.0100030004696
 20
182.451822620886
 30
0.0
 11
384.4098368143063
 21
182.451822620886
 31
0.0
  0
LINE
  5
E74
330
1F
100
AcDbEntity
  8
SANINDUSA
100
AcDbLine
 10
385.0100030004696
 20
182.445822620886
 30
0.0
 11
384.4098368143063
 21
182.445822620886
 31
0.0000000000000004
  0
LINE
  5
E75
330
1F
100
AcDbEntity
  8
SANINDUSA
100
AcDbLine
 10
384.4098368143063
 20
182.445822620886
 30
0.0000000000000004
 11
384.4098368143063
 21
182.451822620886
 31
0.0
  0
LINE
  5
E76
330
1F
100
AcDbEntity
  8
SANINDUSA
100
AcDbLine
 10
384.4098368143063
 20
182.451822620886
 30
0.0000000000000002
 11
384.4098368143063
 21
182.445822620886
 31
0.0000000000000002
  0
INSERT
  5
E77
330
1F
100
AcDbEntity
  8
SANINDUSA
100
AcDbBlockReference
  2
guarnizione
 10
384.4098368143063
 20
182.448822620886
 30
0.0000000000000002
 41
0.001
 42
0.001
 43
0.001
  0
LINE
  5
E78
330
1F
100
AcDbEntity
  8
SANINDUSA
100
AcDbLine
 10
385.0265030004697
 20
182.4424225619166
 30
0.0
 11
385.0115029548733
 21
182.4424225619166
 31
0.0
  0
CIRCLE
  5
E79
330
1F
100
AcDbEntity
  8
SANINDUSA
100
AcDbCircle
 10
385.0115030004696
 20
182.4344225619168
 30
0.0
 40
0.008
  0
ARC
  5
E7A
330
1F
100
AcDbEntity
  8
SANINDUSA
100
AcDbCircle
 10
385.011988553431
 20
182.448822620886
 30
0.0
 40
0.0052623076923077
100
AcDbArc
 50
261.4923271268566
 51
98.5076728731434
  0
ARC
  5
E7B
330
1F
100
AcDbEntity
  8
SANINDUSA
100
AcDbCircle
 10
385.011988553431
 20
182.448822620886
 30
0.0
 40
0.0056623076923077
100
AcDbArc
 50
261.4923271268566
 51
98.5076728731434
  0
LINE
  5
E7C
330
1F
100
AcDbEntity
  8
SANINDUSA
100
AcDbLine
 10
384.9965030004696
 20
182.4424226142103
 30
0.0
 11
385.0115030004696
 21
182.4424225619168
 31
0.0
  0
LINE
  5
E7D
330
1F
100
AcDbEntity
  8
SANINDUSA
100
AcDbLine
 10
384.9965030004696
 20
182.4444226142103
 30
0.0
 11
384.9965030004696
 21
182.4424226142103
 31
0.0
  0
LINE
  5
E7E
330
1F
100
AcDbEntity
  8
SANINDUSA
100
AcDbLine
 10
384.9965030004696
 20
182.4446226142103
 30
0.0
 11
384.9965030004696
 21
182.4456226142103
 31
0.0
1001
GENIUS_GENREC_14
1002
{
1000
PYDIR
1011
384.9435030004696
1021
182.4456226142103
1031
0.0
1002
}
1002
{
1000
PXDIR
1011
384.9965030004696
1021
182.4446226142103
1031
0.0
1002
}
1002
{
1000
PORI
1011
384.9435030004696
1021
182.4446226142103
1031
0.0
1002
}
1002
{
1000
PINS
1011
384.9435030004696
1021
182.4446226142103
1031
0.0
1002
}
1002
{
1000
PINS2
1011
384.9965030004696
1021
182.4456226142103
1031
0.0
1002
}
1002
{
1000
C
1070
     1
1002
}
1001
GENIUS_GENODEF_13
1002
{
1000
HIER
1070
     0
1002
}
1002
{
1000
MANEDIT
1070
     0
1002
}
1002
{
1000
NOSEL
1070
     0
1002
}
1002
{
1000
BEHIND
1070
     0
1002
}
1002
{
1000
REACTOR
1002
}
1001
GENIUS_GENOBJ-N-REC_13
1002
{
1000
OWNER
1000
GEN
1002
}
  0
LINE
  5
E7F
330
1F
100
AcDbEntity
  8
SANINDUSA
100
AcDbLine
 10
384.9965030004696
 20
182.4532226142103
 30
0.0
 11
384.9965030004696
 21
182.4572226142104
 31
0.0
  0
LINE
  5
E80
330
1F
100
AcDbEntity
  8
SANINDUSA
100
AcDbLine
 10
385.0026141115806
 20
182.4344225619168
 30
0.0
 11
385.0026141115806
 21
182.4424226142103
 31
0.0
  0
LINE
  5
E81
330
1F
100
AcDbEntity
  8
SANINDUSA
100
AcDbLine
 10
385.0130030004696
 20
182.4518226257579
 30
0.0
 11
385.0130030004696
 21
182.4458226142103
 31
0.0
1001
GENIUS_GENREC_14
1002
{
1000
PYDIR
1011
384.8600030004696
1021
182.4456226142103
1031
0.0
1002
}
1002
{
1000
PXDIR
1011
385.0100030004696
1021
182.4516226142103
1031
0.0
1002
}
1002
{
1000
PORI
1011
384.8600030004696
1021
182.4516226142103
1031
0.0
1002
}
1002
{
1000
PINS
1011
384.8600030004696
1021
182.4516226142103
1031
0.0
1002
}
1002
{
1000
PINS2
1011
385.0100030004696
1021
182.4458226142103
1031
0.0
1002
}
1002
{
1000
C
1070
     1
1002
}
1001
GENIUS_GENODEF_13
1002
{
1000
HIER
1070
     0
1002
}
1002
{
1000
MANEDIT
1070
     0
1002
}
1002
{
1000
NOSEL
1070
     0
1002
}
1002
{
1000
BEHIND
1070
     0
1002
}
1002
{
1000
REACTOR
1002
}
1001
GENIUS_GENOBJ-N-REC_13
1002
{
1000
OWNER
1000
GEN
1002
}
  0
LINE
  5
E82
330
1F
100
AcDbEntity
  8
SANINDUSA
100
AcDbLine
 10
385.0100030004696
 20
182.451822620886
 30
0.0000000000000001
 11
385.0100030004696
 21
182.445822620886
 31
-0.0000000000000001
  0
LINE
  5
E83
330
1F
100
AcDbEntity
  8
SANINDUSA
100
AcDbLine
 10
385.0100030004696
 20
182.451822620886
 30
0.0
 11
385.0100030004696
 21
182.445822620886
 31
0.0
  0
ARC
  5
E84
330
1F
100
AcDbEntity
  8
SANINDUSA
100
AcDbCircle
 10
384.9955030004696
 20
182.4572226142104
 30
0.0
 40
0.001
100
AcDbArc
 50
0.0
 51
90.0
  0
LINE
  5
E85
330
1F
100
AcDbEntity
  8
SANINDUSA
100
AcDbLine
 10
385.0100030004696
 20
182.4451261904359
 30
0.0
 11
385.0100030004696
 21
182.4525190513361
 31
0.0
  0
LINE
  5
E86
330
1F
100
AcDbEntity
  8
SANINDUSA
100
AcDbLine
 10
385.0111508611233
 20
182.443222620886
 30
0.0
 11
385.0111508611233
 21
182.454422620886
 31
0.0
  0
LINE
  5
E87
330
1F
100
AcDbEntity
  8
SANINDUSA
100
AcDbLine
 10
385.0101577785448
 20
182.443222620886
 30
0.0
 11
384.9986534768623
 21
182.4451149423792
 31
0.0
  0
ARC
  5
E88
330
1F
100
AcDbEntity
  8
SANINDUSA
100
AcDbCircle
 10
385.0094030004696
 20
182.4525190513361
 30
0.0
 40
0.0006
100
AcDbArc
 50
0.0
 51
99.34083410184145
  0
LINE
  5
E89
330
1F
100
AcDbEntity
  8
SANINDUSA
100
AcDbLine
 10
385.0093056162086
 20
182.4531110955115
 30
0.0
 11
385.0087231690296
 21
182.4530152898429
 31
0.0
  0
LINE
  5
E8A
330
1F
100
AcDbEntity
  8
SANINDUSA
100
AcDbLine
 10
385.0101577785448
 20
182.454422620886
 30
0.0
 11
385.0111508611233
 21
182.454422620886
 31
0.0
  0
ARC
  5
E8B
330
1F
100
AcDbEntity
  8
SANINDUSA
100
AcDbCircle
 10
385.0035508611234
 20
182.4519170481055
 30
0.0
 40
0.0006
100
AcDbArc
 50
51.15114899865663
 51
99.34083410184145
  0
ARC
  5
E8C
330
1F
100
AcDbEntity
  8
SANINDUSA
100
AcDbCircle
 10
385.0031291021804
 20
182.4516531053647
 30
0.0
 40
0.000175
100
AcDbArc
 50
262.0000000014424
 51
82.00000000144234
  0
ARC
  5
E8D
330
1F
100
AcDbEntity
  8
SANINDUSA
100
AcDbCircle
 10
385.0076114739904
 20
182.4520723507464
 30
0.0
 40
0.00075
100
AcDbArc
 50
179.8634464274131
 51
9.340834101841444
  0
ARC
  5
E8E
330
1F
100
AcDbEntity
  8
SANINDUSA
100
AcDbCircle
 10
385.0063614775405
 20
182.4520753298804
 30
0.0
 40
0.0005
100
AcDbArc
 50
359.8634464274132
 51
99.34083410184145
  0
LINE
  5
E8F
330
1F
100
AcDbEntity
  8
SANINDUSA
100
AcDbLine
 10
385.0083109524343
 20
182.4524407661458
 30
0.0
 11
385.0083515292097
 21
182.4521940810727
 31
0.0
  0
LINE
  5
E91
330
1F
100
AcDbEntity
  8
SANINDUSA
100
AcDbLine
 10
385.0062803239896
 20
182.4525687000266
 30
0.0
 11
385.004400967051
 21
182.4522595680491
 31
0.0
  0
ARC
  5
E92
330
1F
100
AcDbEntity
  8
SANINDUSA
100
AcDbCircle
 10
385.00430358279
 20
182.4528516122246
 30
0.0
 40
0.0006000000000005
100
AcDbArc
 50
231.1511489986566
 51
279.3408341018414
  0
ARC
  5
E93
330
1F
100
AcDbEntity
  8
SANINDUSA
100
AcDbCircle
 10
385.0088043225805
 20
182.4525219196966
 30
0.0
 40
0.0005
100
AcDbArc
 50
99.34083410184145
 51
189.3408341018414
  0
ARC
  5
E94
330
1F
100
AcDbEntity
  8
SANINDUSA
100
AcDbCircle
 10
385.0035508611234
 20
182.4457281936664
 30
0.0
 40
0.0006
100
AcDbArc
 50
260.6591658981585
 51
308.8488510013434
  0
ARC
  5
E95
330
1F
100
AcDbEntity
  8
SANINDUSA
100
AcDbCircle
 10
385.0031291021804
 20
182.4459921364072
 30
0.0
 40
0.000175
100
AcDbArc
 50
277.9999999985577
 51
97.99999999855764
  0
ARC
  5
E96
330
1F
100
AcDbEntity
  8
SANINDUSA
100
AcDbCircle
 10
385.0063446421012
 20
182.4455726811222
 30
0.0
 40
0.0005
100
AcDbArc
 50
260.6591658981585
 51
350.6591658981585
  0
ARC
  5
E97
330
1F
100
AcDbEntity
  8
SANINDUSA
100
AcDbCircle
 10
385.00430358279
 20
182.4447936295474
 30
0.0
 40
0.0006000000000005
100
AcDbArc
 50
80.65916589815856
 51
128.8488510013434
  0
LINE
  5
E98
330
1F
100
AcDbEntity
  8
SANINDUSA
100
AcDbLine
 10
385.004400967051
 20
182.4453856737228
 30
0.0
 11
385.0062634885503
 21
182.4450793109759
 31
0.0
  0
LINE
  5
E99
330
1F
100
AcDbEntity
  8
SANINDUSA
100
AcDbLine
 10
385.0068380122474
 20
182.4454915275713
 30
0.0
 11
385.0068714187711
 21
182.4456946213519
 31
0.0
  0
ARC
  5
E9A
330
1F
100
AcDbEntity
  8
SANINDUSA
100
AcDbCircle
 10
385.0076114739904
 20
182.4455728910256
 30
0.0
 40
0.00075
100
AcDbArc
 50
350.6591658981585
 51
170.6591658981585
  0
LINE
  5
E9B
330
1F
100
AcDbEntity
  8
SANINDUSA
100
AcDbLine
 10
385.0083515292097
 20
182.4454511606993
 30
0.0
 11
385.0083109524343
 21
182.4452044756262
 31
0.0
  0
ARC
  5
E9C
330
1F
100
AcDbEntity
  8
SANINDUSA
100
AcDbCircle
 10
385.0010456380386
 20
182.4522741111154
 30
0.0
 40
0.0005
100
AcDbArc
 50
208.126373965718
 51
262.0000000014424
  0
ARC
  5
E9D
330
1F
100
AcDbEntity
  8
SANINDUSA
100
AcDbCircle
 10
384.9997384480939
 20
182.4521007015876
 30
0.0
 40
0.0006
100
AcDbArc
 50
279.3408341018414
 51
327.5305192067331
  0
LINE
  5
E9E
330
1F
100
AcDbEntity
  8
SANINDUSA
100
AcDbLine
 10
384.9981508611234
 20
182.4512314995832
 30
0.0
 11
384.9981508611234
 21
182.4519382552173
 31
0.0
  0
LINE
  5
E9F
330
1F
100
AcDbEntity
  8
SANINDUSA
100
AcDbLine
 10
384.999835832355
 20
182.4515086574121
 30
0.0
 11
384.9981508611234
 21
182.4512314995832
 31
0.0
  0
ARC
  5
EA0
330
1F
100
AcDbEntity
  8
SANINDUSA
100
AcDbCircle
 10
385.0007508611233
 20
182.4514564812387
 30
0.0
 40
0.0005999999999989
100
AcDbArc
 50
104.1008918065044
 51
147.530519206733
  0
ARC
  5
EA1
330
1F
100
AcDbEntity
  8
SANINDUSA
100
AcDbCircle
 10
384.9987508611233
 20
182.4519382552173
 30
0.0
 40
0.0006
100
AcDbArc
 50
99.34083410184145
 51
180.0
  0
ARC
  5
EA2
330
1F
100
AcDbEntity
  8
SANINDUSA
100
AcDbCircle
 10
384.9997384480939
 20
182.4455445401844
 30
0.0
 40
0.0006
100
AcDbArc
 50
32.46948079326694
 51
80.65916589815856
  0
ARC
  5
EA3
330
1F
100
AcDbEntity
  8
SANINDUSA
100
AcDbCircle
 10
385.0007508611233
 20
182.4461887605333
 30
0.0
 40
0.0006000000000005
100
AcDbArc
 50
212.4694807932669
 51
255.8991081934956
  0
ARC
  5
EA4
330
1F
100
AcDbEntity
  8
SANINDUSA
100
AcDbCircle
 10
385.0010456380386
 20
182.4453711306566
 30
0.0
 40
0.0004999999999883
100
AcDbArc
 50
98.00000000178284
 51
151.8736260357181
  0
ARC
  5
EA5
330
1F
100
AcDbEntity
  8
SANINDUSA
100
AcDbCircle
 10
384.9987508611233
 20
182.4457069865547
 30
0.0
 40
0.0006
100
AcDbArc
 50
180.0
 51
260.6591658981585
  0
LINE
  5
EA6
330
1F
100
AcDbEntity
  8
SANINDUSA
100
AcDbLine
 10
384.9981508611234
 20
182.4457069865547
 30
0.0
 11
384.9981508611234
 21
182.4464137421888
 31
0.0
  0
LINE
  5
EA7
330
1F
100
AcDbEntity
  8
SANINDUSA
100
AcDbLine
 10
384.9981508611234
 20
182.4464137421888
 30
0.0
 11
384.999835832355
 21
182.4461365843599
 31
0.0
  0
LINE
  5
EA8
330
1F
100
AcDbEntity
  8
SANINDUSA
100
AcDbLine
 10
385.0031047468878
 20
182.4514798084527
 30
0.0
 11
385.0009760514881
 21
182.451778977081
 31
0.0
  0
LINE
  5
EA9
330
1F
100
AcDbEntity
  8
SANINDUSA
100
AcDbLine
 10
385.0009760514881
 20
182.445866264691
 30
0.0
 11
385.0031047468878
 21
182.4461654333193
 31
0.0
  0
LINE
  5
EAA
330
1F
100
AcDbEntity
  8
SANINDUSA
100
AcDbLine
 10
385.0031534574731
 20
182.4458188394952
 30
0.0
 11
385.0010771291175
 21
182.445527030575
 31
0.0
  0
LINE
  5
EAB
330
1F
100
AcDbEntity
  8
SANINDUSA
100
AcDbLine
 10
385.0010771291175
 20
182.445527030575
 30
0.0
 11
385.0034534768623
 21
182.445136149491
 31
0.0
  0
LINE
  5
EAC
330
1F
100
AcDbEntity
  8
SANINDUSA
100
AcDbLine
 10
385.0034534768623
 20
182.452509092281
 30
0.0
 11
385.0010771291175
 21
182.452118211197
 31
0.0
  0
LINE
  5
EAD
330
1F
100
AcDbEntity
  8
SANINDUSA
100
AcDbLine
 10
385.0010771291175
 20
182.452118211197
 30
0.0
 11
385.0031534574731
 21
182.4518264022768
 31
0.0
  0
LINE
  5
EAE
330
1F
100
AcDbEntity
  8
SANINDUSA
100
AcDbLine
 10
384.9986534768623
 20
182.4525302993928
 30
0.0
 11
385.0101577785448
 21
182.454422620886
 31
0.0
  0
ARC
  5
EAF
330
1F
100
AcDbEntity
  8
SANINDUSA
100
AcDbCircle
 10
385.0094030004696
 20
182.4451261904359
 30
0.0
 40
0.0006
100
AcDbArc
 50
260.6591658981585
 51
0.0
  0
LINE
  5
EB0
330
1F
100
AcDbEntity
  8
SANINDUSA
100
AcDbLine
 10
385.0087231690296
 20
182.4446299519291
 30
0.0
 11
385.0093056162086
 21
182.4445341462604
 31
0.0
  0
LINE
  5
EB1
330
1F
100
AcDbEntity
  8
SANINDUSA
100
AcDbLine
 10
385.0101577785448
 20
182.443222620886
 30
0.0
 11
385.0111508611233
 21
182.443222620886
 31
0.0
  0
ARC
  5
EB2
330
1F
100
AcDbEntity
  8
SANINDUSA
100
AcDbCircle
 10
385.0088043225805
 20
182.4451233220753
 30
0.0
 40
0.0005
100
AcDbArc
 50
170.6591658981585
 51
260.6591658981585
  0
LINE
  5
EB3
330
1F
100
AcDbEntity
  8
SANINDUSA
100
AcDbLine
 10
384.9435030004696
 20
182.4444226142103
 30
0.0
 11
384.9435030004696
 21
182.4354225619167
 31
0.0
  0
ARC
  5
EB4
330
1F
100
AcDbEntity
  8
SANINDUSA
100
AcDbCircle
 10
384.9445030004696
 20
182.4354225619167
 30
0.0
 40
0.001
100
AcDbArc
 50
180.0
 51
270.0
  0
LINE
  5
EB5
330
1F
100
AcDbEntity
  8
SANINDUSA
100
AcDbLine
 10
384.9435030004696
 20
182.4456226142103
 30
0.0
 11
384.9435030004696
 21
182.4446226142103
 31
0.0
1001
GENIUS_GENREC_14
1002
{
1000
PYDIR
1011
384.9435030004696
1021
182.4456226142103
1031
0.0
1002
}
1002
{
1000
PXDIR
1011
384.9965030004696
1021
182.4446226142103
1031
0.0
1002
}
1002
{
1000
PORI
1011
384.9435030004696
1021
182.4446226142103
1031
0.0
1002
}
1002
{
1000
PINS
1011
384.9435030004696
1021
182.4446226142103
1031
0.0
1002
}
1002
{
1000
PINS2
1011
384.9965030004696
1021
182.4456226142103
1031
0.0
1002
}
1002
{
1000
C
1070
     1
1002
}
1001
GENIUS_GENODEF_13
1002
{
1000
HIER
1070
     0
1002
}
1002
{
1000
MANEDIT
1070
     0
1002
}
1002
{
1000
NOSEL
1070
     0
1002
}
1002
{
1000
BEHIND
1070
     0
1002
}
1002
{
1000
REACTOR
1002
}
1001
GENIUS_GENOBJ-N-REC_13
1002
{
1000
OWNER
1000
GEN
1002
}
  0
LINE
  5
EB6
330
1F
100
AcDbEntity
  8
SANINDUSA
100
AcDbLine
 10
384.9435030004696
 20
182.4532226142103
 30
0.0
 11
384.9435030004696
 21
182.4572226142104
 31
0.0
  0
ARC
  5
EB7
330
1F
100
AcDbEntity
  8
SANINDUSA
100
AcDbCircle
 10
384.9445030004696
 20
182.4572226142104
 30
0.0
 40
0.001
100
AcDbArc
 50
90.0
 51
180.0
  0
LWPOLYLINE
  5
EB8
330
1F
100
AcDbEntity
  8
SANINDUSA
100
AcDbPolyline
 90
        2
 70
     0
 43
0.0
 10
384.9435030004696
 20
182.4446226142103
 10
384.9965030004696
 20
182.4446226142103
1001
GENIUS_GENREC_14
1002
{
1000
PYDIR
1011
385.2427852575488
1021
182.1235868623444
1031
0.0
1002
}
1002
{
1000
PXDIR
1011
385.2957852575487
1021
182.1225868623444
1031
0.0
1002
}
1002
{
1000
PORI
1011
385.2427852575488
1021
182.1225868623444
1031
0.0
1002
}
1002
{
1000
PINS
1011
385.2427852575488
1021
182.1225868623444
1031
0.0
1002
}
1002
{
1000
PINS2
1011
385.2957852575487
1021
182.1235868623444
1031
0.0
1002
}
1002
{
1000
C
1070
     1
1002
}
1001
GENIUS_GENODEF_13
1002
{
1000
HIER
1070
     0
1002
}
1002
{
1000
MANEDIT
1070
     0
1002
}
1002
{
1000
NOSEL
1070
     0
1002
}
1002
{
1000
BEHIND
1070
     0
1002
}
1002
{
1000
REACTOR
1002
}
1001
GENIUS_GENOBJ-N-REC_13
1002
{
1000
OWNER
1000
GEN
1002
}
  0
LWPOLYLINE
  5
EB9
330
1F
100
AcDbEntity
  8
SANINDUSA
100
AcDbPolyline
 90
        2
 70
     0
 43
0.0
 10
384.9965030004696
 20
182.4456226142103
 10
384.9435030004696
 20
182.4456226142103
1001
GENIUS_GENREC_14
1002
{
1000
PYDIR
1011
385.2427852575488
1021
182.1235868623444
1031
0.0
1002
}
1002
{
1000
PXDIR
1011
385.2957852575487
1021
182.1225868623444
1031
0.0
1002
}
1002
{
1000
PORI
1011
385.2427852575488
1021
182.1225868623444
1031
0.0
1002
}
1002
{
1000
PINS
1011
385.2427852575488
1021
182.1225868623444
1031
0.0
1002
}
1002
{
1000
PINS2
1011
385.2957852575487
1021
182.1235868623444
1031
0.0
1002
}
1002
{
1000
C
1070
     1
1002
}
1001
GENIUS_GENODEF_13
1002
{
1000
HIER
1070
     0
1002
}
1002
{
1000
MANEDIT
1070
     0
1002
}
1002
{
1000
NOSEL
1070
     0
1002
}
1002
{
1000
BEHIND
1070
     0
1002
}
1002
{
1000
REACTOR
1002
}
1001
GENIUS_GENOBJ-N-REC_13
1002
{
1000
OWNER
1000
GEN
1002
}
  0
LWPOLYLINE
  5
EBA
330
1F
100
AcDbEntity
  8
SANINDUSA
100
AcDbPolyline
 90
        4
 70
     1
 43
0.0
 10
384.9435030004696
 20
182.4530226142103
 10
384.9965030004696
 20
182.4530226142103
 10
384.9965030004696
 20
182.4520226142103
 10
384.9435030004696
 20
182.4520226142103
1001
GENIUS_GENREC_14
1002
{
1000
PYDIR
1011
385.2427852575488
1021
182.1237868623444
1031
0.0
1002
}
1002
{
1000
PXDIR
1011
385.2957852575487
1021
182.1227868623444
1031
0.0
1002
}
1002
{
1000
PORI
1011
385.2427852575488
1021
182.1227868623444
1031
0.0
1002
}
1002
{
1000
PINS
1011
385.2427852575488
1021
182.1227868623444
1031
0.0
1002
}
1002
{
1000
PINS2
1011
385.2957852575487
1021
182.1237868623444
1031
0.0
1002
}
1002
{
1000
C
1070
     1
1002
}
1001
GENIUS_GENODEF_13
1002
{
1000
HIER
1070
     0
1002
}
1002
{
1000
MANEDIT
1070
     0
1002
}
1002
{
1000
NOSEL
1070
     0
1002
}
1002
{
1000
BEHIND
1070
     0
1002
}
1002
{
1000
REACTOR
1002
}
1001
GENIUS_GENOBJ-N-REC_13
1002
{
1000
OWNER
1000
GEN
1002
}
  0
LINE
  5
EBB
330
1F
100
AcDbEntity
  8
SANINDUSA
100
AcDbLine
 10
384.9445030004696
 20
182.4582226142103
 30
0.0
 11
384.9955030004696
 21
182.4582226142103
 31
0.0
  0
LINE
  5
EBC
330
1F
100
AcDbEntity
  8
SANINDUSA
100
AcDbLine
 10
385.0026141115806
 20
182.4344225619168
 30
0.0
 11
384.9445030004696
 21
182.4344225619168
 31
0.0
  0
LINE
  5
EBD
330
1F
100
AcDbEntity
  8
SANINDUSA
100
AcDbLine
 10
384.9435030004696
 20
182.4444226142103
 30
0.0
 11
384.9965030004696
 21
182.4444226142103
 31
0.0
  0
LINE
  5
EBE
330
1F
100
AcDbEntity
  8
SANINDUSA
100
AcDbLine
 10
384.9965030004696
 20
182.4532226142103
 30
0.0
 11
384.9435030004696
 21
182.4532226142103
 31
0.0
  0
LINE
  5
EBF
330
1F
100
AcDbEntity
  8
SANINDUSA
100
AcDbLine
 10
385.0795030004697
 20
182.4444225619166
 30
0.0
 11
385.0795030004696
 21
182.4354225619162
 31
0.0
  0
ARC
  5
EC0
330
1F
100
AcDbEntity
  8
SANINDUSA
100
AcDbCircle
 10
385.0785030004696
 20
182.4354225619162
 30
0.0
 40
0.001
100
AcDbArc
 50
270.0
 51
0.0
  0
LINE
  5
EC1
330
1F
100
AcDbEntity
  8
SANINDUSA
100
AcDbLine
 10
385.0795030004696
 20
182.4455226142103
 30
0.0
 11
385.0795030004696
 21
182.4445226142103
 31
0.0
1001
GENIUS_GENREC_14
1002
{
1000
PYDIR
1011
384.9435030004696
1021
182.4455226142103
1031
0.0
1002
}
1002
{
1000
PXDIR
1011
384.9965030004696
1021
182.4445226142103
1031
0.0
1002
}
1002
{
1000
PORI
1011
384.9435030004696
1021
182.4445226142103
1031
0.0
1002
}
1002
{
1000
PINS
1011
384.9435030004696
1021
182.4445226142103
1031
0.0
1002
}
1002
{
1000
PINS2
1011
384.9965030004696
1021
182.4455226142103
1031
0.0
1002
}
1002
{
1000
C
1070
     1
1002
}
1001
GENIUS_GENODEF_13
1002
{
1000
HIER
1070
     0
1002
}
1002
{
1000
MANEDIT
1070
     0
1002
}
1002
{
1000
NOSEL
1070
     0
1002
}
1002
{
1000
BEHIND
1070
     0
1002
}
1002
{
1000
REACTOR
1002
}
1001
GENIUS_GENOBJ-N-REC_13
1002
{
1000
OWNER
1000
GEN
1002
}
  0
LINE
  5
EC2
330
1F
100
AcDbEntity
  8
SANINDUSA
100
AcDbLine
 10
385.0795030004696
 20
182.4532226142103
 30
0.0
 11
385.0795030004696
 21
182.4572226142104
 31
0.0
  0
ARC
  5
EC3
330
1F
100
AcDbEntity
  8
SANINDUSA
100
AcDbCircle
 10
385.0785030004696
 20
182.4572226142104
 30
0.0
 40
0.001
100
AcDbArc
 50
0.0
 51
90.0
  0
LINE
  5
EC4
330
1F
100
AcDbEntity
  8
SANINDUSA
100
AcDbLine
 10
385.0265030004697
 20
182.4424225619166
 30
0.0
 11
385.0265030004697
 21
182.4444225619166
 31
0.0
  0
LINE
  5
EC5
330
1F
100
AcDbEntity
  8
SANINDUSA
100
AcDbLine
 10
385.0265030004696
 20
182.4445226142103
 30
0.0
 11
385.0265030004696
 21
182.4455226142103
 31
0.0
1001
GENIUS_GENREC_14
1002
{
1000
PYDIR
1011
384.9435030004696
1021
182.4455226142103
1031
0.0
1002
}
1002
{
1000
PXDIR
1011
384.9965030004696
1021
182.4445226142103
1031
0.0
1002
}
1002
{
1000
PORI
1011
384.9435030004696
1021
182.4445226142103
1031
0.0
1002
}
1002
{
1000
PINS
1011
384.9435030004696
1021
182.4445226142103
1031
0.0
1002
}
1002
{
1000
PINS2
1011
384.9965030004696
1021
182.4455226142103
1031
0.0
1002
}
1002
{
1000
C
1070
     1
1002
}
1001
GENIUS_GENODEF_13
1002
{
1000
HIER
1070
     0
1002
}
1002
{
1000
MANEDIT
1070
     0
1002
}
1002
{
1000
NOSEL
1070
     0
1002
}
1002
{
1000
BEHIND
1070
     0
1002
}
1002
{
1000
REACTOR
1002
}
1001
GENIUS_GENOBJ-N-REC_13
1002
{
1000
OWNER
1000
GEN
1002
}
  0
LINE
  5
EC6
330
1F
100
AcDbEntity
  8
SANINDUSA
100
AcDbLine
 10
385.0265030004696
 20
182.4532226142103
 30
0.0
 11
385.0265030004696
 21
182.4572226142104
 31
0.0
  0
ARC
  5
EC7
330
1F
100
AcDbEntity
  8
SANINDUSA
100
AcDbCircle
 10
385.0275030004696
 20
182.4572226142104
 30
0.0
 40
0.001
100
AcDbArc
 50
90.0
 51
180.0
  0
LINE
  5
EC8
330
1F
100
AcDbEntity
  8
SANINDUSA
100
AcDbLine
 10
385.0203918893586
 20
182.4344225619162
 30
0.0
 11
385.0203918893586
 21
182.4424225619166
 31
0.0
  0
LINE
  5
EC9
330
1F
100
AcDbEntity
  8
SANINDUSA
100
AcDbLine
 10
385.0785030004696
 20
182.4344225619162
 30
0.0
 11
385.0195030004696
 21
182.4344225619162
 31
0.0
  0
LWPOLYLINE
  5
ECA
330
1F
100
AcDbEntity
  8
SANINDUSA
100
AcDbPolyline
 90
        2
 70
     0
 43
0.0
 10
385.0265030004696
 20
182.4455226142103
 10
385.0795030004696
 20
182.4455226142103
1001
GENIUS_GENREC_14
1002
{
1000
PYDIR
1011
384.9435030004696
1021
181.8242046052653
1031
0.0
1002
}
1002
{
1000
PXDIR
1011
384.9965030004696
1021
181.8232046052653
1031
0.0
1002
}
1002
{
1000
PORI
1011
384.9435030004696
1021
181.8232046052653
1031
0.0
1002
}
1002
{
1000
PINS
1011
384.9435030004696
1021
181.8232046052653
1031
0.0
1002
}
1002
{
1000
PINS2
1011
384.9965030004696
1021
181.8242046052653
1031
0.0
1002
}
1002
{
1000
C
1070
     1
1002
}
1001
GENIUS_GENODEF_13
1002
{
1000
HIER
1070
     0
1002
}
1002
{
1000
MANEDIT
1070
     0
1002
}
1002
{
1000
NOSEL
1070
     0
1002
}
1002
{
1000
BEHIND
1070
     0
1002
}
1002
{
1000
REACTOR
1002
}
1001
GENIUS_GENOBJ-N-REC_13
1002
{
1000
OWNER
1000
GEN
1002
}
  0
LWPOLYLINE
  5
ECB
330
1F
100
AcDbEntity
  8
SANINDUSA
100
AcDbPolyline
 90
        2
 70
     0
 43
0.0
 10
385.0795030004696
 20
182.4445226142103
 10
385.0265030004696
 20
182.4445226142103
1001
GENIUS_GENREC_14
1002
{
1000
PYDIR
1011
384.9435030004696
1021
181.8242046052653
1031
0.0
1002
}
1002
{
1000
PXDIR
1011
384.9965030004696
1021
181.8232046052653
1031
0.0
1002
}
1002
{
1000
PORI
1011
384.9435030004696
1021
181.8232046052653
1031
0.0
1002
}
1002
{
1000
PINS
1011
384.9435030004696
1021
181.8232046052653
1031
0.0
1002
}
1002
{
1000
PINS2
1011
384.9965030004696
1021
181.8242046052653
1031
0.0
1002
}
1002
{
1000
C
1070
     1
1002
}
1001
GENIUS_GENODEF_13
1002
{
1000
HIER
1070
     0
1002
}
1002
{
1000
MANEDIT
1070
     0
1002
}
1002
{
1000
NOSEL
1070
     0
1002
}
1002
{
1000
BEHIND
1070
     0
1002
}
1002
{
1000
REACTOR
1002
}
1001
GENIUS_GENOBJ-N-REC_13
1002
{
1000
OWNER
1000
GEN
1002
}
  0
LWPOLYLINE
  5
ECC
330
1F
100
AcDbEntity
  8
SANINDUSA
100
AcDbPolyline
 90
        4
 70
     1
 43
0.0
 10
385.0795030004696
 20
182.4530226142103
 10
385.0265030004696
 20
182.4530226142103
 10
385.0265030004696
 20
182.4520226142103
 10
385.0795030004696
 20
182.4520226142103
1001
GENIUS_GENREC_14
1002
{
1000
PYDIR
1011
384.9435030004696
1021
181.8245046052653
1031
0.0
1002
}
1002
{
1000
PXDIR
1011
384.9965030004696
1021
181.8235046052653
1031
0.0
1002
}
1002
{
1000
PORI
1011
384.9435030004696
1021
181.8235046052653
1031
0.0
1002
}
1002
{
1000
PINS
1011
384.9435030004696
1021
181.8235046052653
1031
0.0
1002
}
1002
{
1000
PINS2
1011
384.9965030004696
1021
181.8245046052653
1031
0.0
1002
}
1002
{
1000
C
1070
     1
1002
}
1001
GENIUS_GENODEF_13
1002
{
1000
HIER
1070
     0
1002
}
1002
{
1000
MANEDIT
1070
     0
1002
}
1002
{
1000
NOSEL
1070
     0
1002
}
1002
{
1000
BEHIND
1070
     0
1002
}
1002
{
1000
REACTOR
1002
}
1001
GENIUS_GENOBJ-N-REC_13
1002
{
1000
OWNER
1000
GEN
1002
}
  0
LINE
  5
ECD
330
1F
100
AcDbEntity
  8
SANINDUSA
100
AcDbLine
 10
385.0265030004697
 20
182.4444225619166
 30
0.0
 11
385.0795030004697
 21
182.4444225619166
 31
0.0
  0
LINE
  5
ECE
330
1F
100
AcDbEntity
  8
SANINDUSA
100
AcDbLine
 10
385.0265030004696
 20
182.4532226142103
 30
0.0
 11
385.0795030004696
 21
182.4532226142103
 31
0.0
  0
LINE
  5
ECF
330
1F
100
AcDbEntity
  8
SANINDUSA
100
AcDbLine
 10
385.0785030004696
 20
182.4582226142103
 30
0.0
 11
385.0275030004696
 21
182.4582226142103
 31
0.0
  0
REGION
  5
ED0
330
1F
100
AcDbEntity
  8
SANINDUSA
100
AcDbModelerGeometry
 70
     1
  1
koo nji n o         
  1
ni ^ *+0;:,4 ^ *+0\^ [ nf ^ LR mnjqoqoqkmnk QK o  
  1
n fqfffffffffffffffj:rooh n:rono 
  1
=0;& {rn {n {rn {rn |
  1
3*2/ {rn {rn {m {o |
  1
,7:33 {rn {rn {rn {l {rn {n |
  1
9><: {rn {rn {k {m {rn {j 90-(>-; ;0*=3: 0*+ |
  1
300/ {rn {rn {i {l |
  1
/3>1:r,*-9><: {rn lgjqjlnolflfhjmhmj ngmqkkggmmimjhjhgg rjqkjjghjliklijnogj:ronn o o n roqoon jqmgnfinfllgoimjih:ronf o 90-(>-;@) V V V V |
  1
<0:;8: {rn {h {g {rn {f 90-(>-; {k {rn |
  1
<0:;8: {rn {no {i {rn {nn -:):-,:; {k {rn |
  1
<0:;8: {rn {i {nm {rn {nl -:):-,:; {k {rn |
  1
:;8: {rn {nk {nj {i {ni 90-(>-; |
  1
<0:;8: {rn {nh {h {rn {ng 90-(>-; {k {rn |
  1
:;8: {rn {nf {nj {h {mo 90-(>-; |
  1
<0:;8: {rn {g {mn {rn {mm 90-(>-; {k {rn |
  1
:;8: {rn {nk {ml {g {mk 90-(>-; |
  1
):-+:' {rn {f {mj |
  1
):-+:' {rn {f {mi |
  1
,+->687+r<*-): {rn lgjqjmklmmgklhmjhn ngmqkjmgmmimjhjhgg rjqkjjghjliklijnogj:ronn oqoon fqfilknnlgflmhnoim:rong o V V |
  1
<0:;8: {rn {mh {no {rn {mg -:):-,:; {k {rn |
  1
:;8: {rn {nf {mf {no {lo 90-(>-; |
  1
):-+:' {rn {nn {ln |
  1
:336/,:r<*-): {rn lgjqjmhonnkjighjfl ngmqkjmlmmimjhjhgi rjqkjjghjliklijnogj:ronn o o n roqooojoooooooooooomgjm mqikofgofiifolmni:ronf o n V V |
  1
<0:;8: {rn {nm {lm {rn {ll -:):-,:; {k {rn |
  1
:;8: {rn {lk {ml {nm {lj 90-(>-; |
  1
):-+:' {rn {mm {li |
  1
:336/,:r<*-): {rn lgjqjmklmmgklhmjhn ngmqkjmlmmimjhjhgi rjqkjjghjliklijnogj:ronn o o n roqooojooooooooooonligk mqikofgofiifoljkhl:ronf o n V V |
  1
/061+ {rn lgjqjmklmmgklhmjhn ngmqkjmgmmimjhjhgg rjqkjjghjliklijnogj:ronn |
  1
/061+ {rn lgjqjmhonnkjighjfl ngmqkjmgmmimjhjhgg rjqkjjghjliklijnogj:ronn |
  1
<0:;8: {rn {lh {nh {rn {lg 90-(>-; {k {rn |
  1
:;8: {rn {lf {mf {nh {ko 90-(>-; |
  1
):-+:' {rn {ng {kn |
  1
:336/,:r<*-): {rn lgjqjmgkmjihoklgln ngmqkjmgmmimjhjhgg rjqkjjghjliklijnogj:ronn o o n roqooofffffffffffffhlhg iqlfmngkfjgklnllmk:ronf o n V V |
  1
/061+ {rn lgjqjmhkgmginlfihm ngmqkjmkgfmfmkmkjl rjqkjjghjliklijnogj:ronn |
  1
<0:;8: {rn {mn {km {rn {kl 90-(>-; {k {rn |
  1
:;8: {rn {lk {kk {mn {kj 90-(>-; |
  1
):-+:' {rn {ll {ki |
  1
:336/,:r<*-): {rn lgjqjmmfkgohnonhm ngmqkjmfmmimjhjhgg rjqkjjghjliklijnogj:ronn o o n roqoooffffffffffffghjlk jqmgnfinfllgojghkk:ronf o n V V |
  1
/061+ {rn lgjqjmlgikjginjimn ngmqkjmjmmimjhjhgh rjqkjjghjliklijnogj:ronn |
  1
<0:;8: {rn {kh {mh {rn {kg -:):-,:; {k {rn |
  1
:;8: {rn {lf {kf {mh {jo 90-(>-; |
  1
):-+:' {rn {mg {jn |
  1
:336/,:r<*-): {rn lgjqjmfglfggkoooif ngmqkjmlmmimjhjhgi rjqkjjghjliklijnogj:ronn o o n roqoookffffffffffffkjg mqikofgofiifomfimh:ronf o n V V |
  1
/061+ {rn lgjqjmfligkhfkhff ngmqkjmkgfmfmkmkjl rjqkjjghjliklijnogj:ronn |
  1
<0:;8: {rn {lm {jm {rn {jl -:):-,:; {k {rn |
  1
:;8: {rn {jk {kk {lm {jj 90-(>-; |
  1
):-+:' {rn {kl {ji |
  1
,+->687+r<*-): {rn lgjqjmnfkgohnonhmm ngmqkjmfmmimjhjhgg rjqkjjghjliklijnogj:ronn kqnhnhlgfofngnnonn:ronf oqoonoooooooooooooooj o V V |
  1
/061+ {rn lgjqjmnfkgohnonhmm ngmqkjmfmmimjhjhgg rjqkjjghjliklijnogj:ronn |
  1
<0:;8: {rn {jh {lh {rn {jg 90-(>-; {k {rn |
  1
:;8: {rn {jf {kf {lh {io 90-(>-; |
  1
):-+:' {rn {lg {in |
  1
,+->687+r<*-): {rn lgjqjmfglfggkoooif ngmqkjmgmmimjhjhgg rjqkjjghjliklijnogj:ronn oqoon rjqmgnfinfllgoimjih:ronf o V V |
  1
/061+ {rn lgjqjmfglfggkoooif ngmqkjmgmmimjhjhgg rjqkjjghjliklijnogj:ronn |
  1
<0:;8: {rn {km {im {rn {il 90-(>-; {k {rn |
  1
:;8: {rn {jk {ik {km {ij 90-(>-; |
  1
):-+:' {rn {jl {ii |
  1
:336/,:r<*-): {rn lgjqjmmfkgohnonhm ngmqkjlgmmimjhjhgg rjqkjjghjliklijnogj:ronn o o n roqoooffffffffffffghfmk jqmgnfinfllgojggh:ronf o n V V |
  1
/061+ {rn lgjqjmnfkgohnonhmm ngmqkjlgmmimjhjhgg rjqkjjghjliklijnogj:ronn |
  1
<0:;8: {rn {ih {kh {rn {ig -:):-,:; {k {rn |
  1
:;8: {rn {jf {if {kh {ho 90-(>-; |
  1
):-+:' {rn {kg {hn |
  1
:336/,:r<*-): {rn lgjqjlnkmiokhmjhl ngmqkjmlmmimjhjhgi rjqkjjghjliklijnogj:ronn o o n roqooojooooooooooooooon mqikofgofiifolnmgk:ronf o n V V |
  1
/061+ {rn lgjqjlnkmiokhmjhl ngmqkjmgmmimjhjhgg rjqkjjghjliklijnogj:ronn |
  1
<0:;8: {rn {jm {hm {rn {hl -:):-,:; {k {rn |
  1
:;8: {rn {hk {ik {jm {hj 90-(>-; |
  1
):-+:' {rn {il {hi |
  1
,+->687+r<*-): {rn lgjqjmmfkgohnonhm ngmqkjkgmmimjhjhgi rjqkjjghjliklijnogj:ronn oqoon rnqknilhkinlogohjof:rong o V V |
  1
/061+ {rn lgjqjmmfkgohnonhm ngmqkjkgmmimjhjhgi rjqkjjghjliklijnogj:ronn |
  1
<0:;8: {rn {hh {jh {rn {hg 90-(>-; {k {rn |
  1
:;8: {rn {hf {if {jh {go 90-(>-; |
  1
):-+:' {rn {jg {gn |
  1
,+->687+r<*-): {rn lgjqjlnfmiokhmjhmf ngmqkjmlmmimjhjhgi rjqkjjghjliklijnogj:ronn rlqmfkihogjnmkljmol:ronh roqoonoooooooooooooooj o V V |
  1
/061+ {rn lgjqjlnfmiokhmjhmf ngmqkjmlmmimjhjhgi rjqkjjghjliklijnogj:ronn |
  1
<0:;8: {rn {im {gm {rn {gl -:):-,:; {k {rn |
  1
:;8: {rn {hk {gk {im {gj 90-(>-; |
  1
):-+:' {rn {hl {gi |
  1
:336/,:r<*-): {rn lgjqjjkkkgohnonhnf ngmqkjlgmmimjhjhgg rjqkjjghjliklijnogj:ronn o o n roqoon jqmgnfinfllgoimjih:ronf o n V V |
  1
/061+ {rn lgjqjjkkkgohnonhnf ngmqkjkgmmimjhjhgi rjqkjjghjliklijnogj:ronn |
  1
<0:;8: {rn {gh {ih {rn {gg -:):-,:; {k {rn |
  1
:;8: {rn {hf {gf {ih {fo 90-(>-; |
  1
):-+:' {rn {ig {fn |
  1
:336/,:r<*-): {rn lgjqjlnkmiokhmjhl ngmqkkjlmmimjhjhgg rjqkjjghjliklijnogj:ronn o o n roqooojooooooooooooooon mqikofgofiifolnmgk:ronf o n V V |
  1
/061+ {rn lgjqjlnfmiokhmjhmf ngmqkkjlmmimjhjhgj rjqkjjghjliklijnogj:ronn |
  1
<0:;8: {rn {hm {fm {rn {fl -:):-,:; {k {rn |
  1
:;8: {rn {gk {fk {hm {fj 90-(>-; |
  1
):-+:' {rn {gl {fi |
  1
,+->687+r<*-): {rn lgjqjjkkkgohnonhnf ngmqkjmgmmimjhjhgg rjqkjjghjliklijnogj:ronn roqoon nqnfilkfllkhonfhlg:ronh o V V |
  1
/061+ {rn lgjqjjkkkgohnonhnf ngmqkjmgmmimjhjhgg rjqkjjghjliklijnogj:ronn |
  1
<0:;8: {rn {fh {hh {rn {fg 90-(>-; {k {rn |
  1
:;8: {rn {ff {gf {hh {noo 90-(>-; |
  1
):-+:' {rn {hg {non |
  1
,+->687+r<*-): {rn lgjqjlnkmiokhmjhl ngmqkkkgmmimjhjhgh rjqkjjghjliklijnogj:ronn roqoonoooooooooooooooj rnqhmfogglljngjlnlg:ronh o V V |
  1
/061+ {rn lgjqjlnkmiokhmjhl ngmqkkkgmmimjhjhgh rjqkjjghjliklijnogj:ronn |
  1
<0:;8: {rn {gm {nom {rn {nol -:):-,:; {k {rn |
  1
:;8: {rn {fk {nok {gm {noj 90-(>-; |
  1
):-+:' {rn {fl {noi |
  1
:336/,:r<*-): {rn lgjqjlkkmiokhmjhmg ngmqkjmlmmimjhjhgi rjqkjjghjliklijnogj:ronn o o n roqooojooooooooooonnfni mqikofgofiifolkfmg:ronf o n V V |
  1
/061+ {rn lgjqjlkkmiokhmjhmg ngmqkjmgmmimjhjhgg rjqkjjghjliklijnogj:ronn |
  1
<0:;8: {rn {noh {gh {rn {nog -:):-,:; {k {rn |
  1
:;8: {rn {ff {nof {gh {nno 90-(>-; |
  1
):-+:' {rn {gg {nnn |
  1
:336/,:r<*-): {rn lgjqjmfglfggkoooif ngmqkkjlmmimjhjhgj rjqkjjghjliklijnogj:ronn o o n roqooojoooooooooooomgjm mqikofgofiifolmni:ronf o n V V |
  1
/061+ {rn lgjqjmfglfggkoooif ngmqkkkgmmimjhjhgh rjqkjjghjliklijnogj:ronn |
  1
<0:;8: {rn {fm {nnm {rn {nnl -:):-,:; {k {rn |
  1
:;8: {rn {nok {nnk {fm {nnj 90-(>-; |
  1
):-+:' {rn {nol {nni |
  1
,+->687+r<*-): {rn lgjqjllfmiokhmjhl ngmqkjmlmmimjhjhgi rjqkjjghjliklijnogj:ronn rnqijhofnggffmnknkm:ronh roqoonoooooooooooooooj o V V |
  1
/061+ {rn lgjqjllfmiokhmjhl ngmqkjmlmmimjhjhgi rjqkjjghjliklijnogj:ronn |
  1
<0:;8: {rn {nnh {fh {rn {nng 90-(>-; {k {rn |
  1
:;8: {rn {nnf {nof {fh {nmo 90-(>-; |
  1
):-+:' {rn {fg {nmn |
  1
:336/,:r<*-): {rn lgjqjmgkmjihoklgln ngmqkkkgmmimjhjhgh rjqkjjghjliklijnogj:ronn o o n roqoooffffffffffffffmij jqglhohlkkinnggnll:ronf o n V V |
  1
/061+ {rn lgjqjmfligkhfkhff ngmqkkjnjjfjfofnmn rjqkjjghjliklijnogj:ronn |
  1
<0:;8: {rn {nom {nmm {rn {nml 90-(>-; {k {rn |
  1
:;8: {rn {nnk {nmk {nom {nmj 90-(>-; |
  1
):-+:' {rn {nnl {nmi |
  1
:336/,:r<*-): {rn lgjqjlkkmiokhmjhmg ngmqkkjlmmimjhjhgj rjqkjjghjliklijnogj:ronn o o n roqooojooooooooooonoig mqfngjlihmlojfhkkh:ronf o n V V |
  1
/061+ {rn lgjqjllfmiokhmjhl ngmqkkjlmmimjhjhgj rjqkjjghjliklijnogj:ronn |
  1
<0:;8: {rn {nmh {noh {rn {nmg -:):-,:; {k {rn |
  1
:;8: {rn {nnf {nmf {noh {nlo 90-(>-; |
  1
):-+:' {rn {nog {nln |
  1
:336/,:r<*-): {rn lgjqjmhonnkjighjfl ngmqkkjlmmimjhjhgg rjqkjjghjliklijnogj:ronn o o n roqoookffffffffffffikhh mqlilkmjmnohkihlni:ronf o n V V |
  1
/061+ {rn lgjqjmhkgmginlfihm ngmqkkjnjjfjfofnmn rjqkjjghjliklijnogj:ronn |
  1
<0:;8: {rn {nnm {nlm {rn {nll -:):-,:; {k {rn |
  1
:;8: {rn {nlk {nmk {nnm {nlj 90-(>-; |
  1
):-+:' {rn {nml {nli |
  1
,+->687+r<*-): {rn lgjqjlkkmiokhmjhmg ngmqkkkgmmimjhjhgh rjqkjjghjliklijnogj:ronn oqoonoooooooooooooooj rnqfhnkginmjlfllmfj:rong o V V |
  1
/061+ {rn lgjqjlkkmiokhmjhmg ngmqkkkgmmimjhjhgh rjqkjjghjliklijnogj:ronn |
  1
<0:;8: {rn {nlh {nnh {rn {nlg 90-(>-; {k {rn |
  1
:;8: {rn {nlf {nmf {nnh {nko 90-(>-; |
  1
):-+:' {rn {nng {nkn |
  1
,+->687+r<*-): {rn lgjqjmhonnkjighjfl ngmqkkkgmmimjhjhgh rjqkjjghjliklijnogj:ronn roqoonoooooooooooooooj fqgjkoifioomlnfkom:rong o V V |
  1
/061+ {rn lgjqjmhonnkjighjfl ngmqkkkgmmimjhjhgh rjqkjjghjliklijnogj:ronn |
  1
<0:;8: {rn {nmm {nlh {rn {nkm 90-(>-; {k {rn |
  1
:;8: {rn {nlk {nkl {nmm {nkk 90-(>-; |
  1
):-+:' {rn {nll {nkj |
  1
:336/,:r<*-): {rn lgjqjjkkkgohnonhnf ngmqkklgmmimjhjhgi rjqkjjghjliklijnogj:ronn o o n roqoon jqmgnfinfllgoimjih:ronf o n V V |
  1
/061+ {rn lgjqjjkkkgohnonhnf ngmqkkkgmmimjhjhgh rjqkjjghjliklijnogj:ronn |
  1
<0:;8: {rn {nlm {nmh {rn {nki -:):-,:; {k {rn |
  1
:;8: {rn {nlf {nkh {nmh {nkg 90-(>-; |
  1
):-+:' {rn {nmg {nkf |
  1
:336/,:r<*-): {rn lgjqjmklmmgklhmjhn ngmqkkjlmmimjhjhgg rjqkjjghjliklijnogj:ronn o o n roqooojoooooooooooognnn mqlilkmjmnohkhogif:ronf o n V V |
  1
/061+ {rn lgjqjmklmmgklhmjhn ngmqkkkgmmimjhjhgh rjqkjjghjliklijnogj:ronn |
  1
:;8: {rn {njo {nkl {nlm {njn 90-(>-; |
  1
):-+:' {rn {nkm {njm |
  1
,+->687+r<*-): {rn lgjqjjkkkgohnonhnf ngmqkkmgmmimjhjhgg rjqkjjghjliklijnogj:ronn roqoon nqknilhkinlogohjof:rong o V V |
  1
/061+ {rn lgjqjjkkkgohnonhnf ngmqkkmgmmimjhjhgg rjqkjjghjliklijnogj:ronn |
  1
:;8: {rn {njo {nkh {nlh {njl 90-(>-; |
  1
):-+:' {rn {nlg {njk |
  1
:336/,:r<*-): {rn lgjqjmmfkgohnonhm ngmqkkkhmmimjhjhgi rjqkjjghjliklijnogj:ronn o o n roqoooffffffffffffflioj jqmgnfinfllgoioiol:ronf o n V V |
  1
/061+ {rn lgjqjmlgikjginjimn ngmqkkjnmmimjhjhgg rjqkjjghjliklijnogj:ronn |
  1
):-+:' {rn {nki {njj |
  1
:336/,:r<*-): {rn lgjqjmmfkgohnonhm ngmqkklgmmimjhjhgi rjqkjjghjliklijnogj:ronn o o n roqoonoooooooooooonnli jqmgnfinfllgoiiokk:ronf o n V V |
  1
/061+ {rn lgjqjmmfkgohnonhm ngmqkkmgmmimjhjhgg rjqkjjghjliklijnogj:ronn |
  1
,+->687+r<*-): {rn lgjqjmnfkgohnonhmm ngmqkklgmmimjhjhgi rjqkjjghjliklijnogj:ronn kqnhnhlgfofngnnonn:ronf oqoonoooooooooooooooj o V V |
  1
/061+ {rn lgjqjmnfkgohnonhmm ngmqkkkhmmimjhjhgi rjqkjjghjliklijnogj:ronn |
  1
/061+ {rn lgjqjmnfkgohnonhmm ngmqkklgmmimjhjhgi rjqkjjghjliklijnogj:ronn |
  0
LINE
  5
ED1
330
1F
100
AcDbEntity
  8
SANINDUSA
100
AcDbLine
 10
385.5318260472573
 20
182.4458226257578
 30
-0.0000000000545588
 11
385.5318260472573
 21
182.4518226257579
 31
-0.0000000000545588
  0
REGION
  5
ED2
330
1F
100
AcDbEntity
  8
SANINDUSA
100
AcDbModelerGeometry
 70
     1
  1
koo hi n o          
  1
ni ^ *+0;:,4 ^ *+0\^ [ nf ^ LR mnjqoqoqkmnk QK o  
  1
n fqfffffffffffffffj:rooh n:rono 
  1
=0;& {rn {n {rn {rn |
  1
3*2/ {rn {rn {m {o |
  1
,7:33 {rn {rn {rn {l {rn {n |
  1
9><: {rn {rn {k {m {rn {j -:):-,:; ;0*=3: 0*+ |
  1
300/ {rn {rn {i {l |
  1
/3>1:r,*-9><: {rn lgjqjhkijogjiolmoi ngmqkkjkhkiihmilg rjqkjjfmoglfnoonfg:ronn o o rn oqoon rlqihlgnfoinkihnlng:ronf o 90-(>-;@) V V V V |
  1
<0:;8: {rn {h {g {rn {f 90-(>-; {k {rn |
  1
<0:;8: {rn {no {i {rn {nn -:):-,:; {k {rn |
  1
<0:;8: {rn {i {nm {rn {nl -:):-,:; {k {rn |
  1
:;8: {rn {nk {nj {i {ni 90-(>-; |
  1
<0:;8: {rn {nh {h {rn {ng 90-(>-; {k {rn |
  1
:;8: {rn {nf {nj {h {mo 90-(>-; |
  1
<0:;8: {rn {g {mn {rn {mm 90-(>-; {k {rn |
  1
:;8: {rn {nk {ml {g {mk 90-(>-; |
  1
):-+:' {rn {f {mj |
  1
):-+:' {rn {f {mi |
  1
,+->687+r<*-): {rn lgjqjhihfgohnonhmn ngmqklljfinlojnhlh rjqkjjghjliklijnogj:ronn fqgholgfgfgljoioih:rong oqoon o V V |
  1
<0:;8: {rn {mh {no {rn {mg -:):-,:; {k {rn |
  1
:;8: {rn {nf {mf {no {lo 90-(>-; |
  1
):-+:' {rn {nn {ln |
  1
,+->687+r<*-): {rn lgjqjhjhfgohnonhml ngmqkjhjmmimjhjmlm rjqkjjghjliklijnogj:ronn oqoon mqgojklmhjmkmjoglk:ronh o V V |
  1
<0:;8: {rn {nm {lm {rn {ll -:):-,:; {k {rn |
  1
:;8: {rn {lk {ml {nm {lj 90-(>-; |
  1
):-+:' {rn {mm {li |
  1
,+->687+r<*-): {rn lgjqjhihfgohnonhmn ngmqklljfinlojnhlh rjqkjjghjliklijnogj:ronn roqoon nqnkngnjghigimgoli:roni o V V |
  1
/061+ {rn lgjqjhihfgohnonhmn ngmqklljfinlojnhlh rjqkjjghjliklijnogj:ronn |
  1
/061+ {rn lgjqjhihfgohnonhmn ngmqkjhjmmimjhjmlm rjqkjjghjliklijnogj:ronn |
  1
<0:;8: {rn {lh {nh {rn {lg -:):-,:; {k {rn |
  1
:;8: {rn {lf {mf {nh {ko 90-(>-; |
  1
):-+:' {rn {ng {kn |
  1
:336/,:r<*-): {rn lgjqjhjhfgohnonhml ngmqkjijmmimjhjmln rjqkjjghjliklijnogj:ronn o o n roqoooffffffffffffggik lqihlgnfoinkiihnkk:ronf o n V V |
  1
/061+ {rn lgjqjhjhfgohnonhml ngmqkjhjmmimjhjmlm rjqkjjghjliklijnogj:ronn |
  1
<0:;8: {rn {mn {km {rn {kl -:):-,:; {k {rn |
  1
:;8: {rn {lk {kk {mn {kj 90-(>-; |
  1
):-+:' {rn {ll {ki |
  1
:336/,:r<*-): {rn lgjqjhjhffnfonokhi ngmqklkjfinlojnhlg rjqkjjghjliklijnogj:ronn o o n roqoooffffffffffffggik lqihlgnfoinkiihnkk:ronf o n V V |
  1
/061+ {rn lgjqjhjhffnfonokhi ngmqklljfinlojnhlh rjqkjjghjliklijnogj:ronn |
  1
<0:;8: {rn {kh {mh {rn {kg -:):-,:; {k {rn |
  1
:;8: {rn {kf {lf {mh {jo 90-(>-; |
  1
):-+:' {rn {mg {jn |
  1
,+->687+r<*-): {rn lgjqjhkhfgohnonhm ngmqkjjjliglflnkh rjqkjjghjliklijnogj:ronn lqihlgnfoinkihnlng:ronf oqoon o V V |
  1
/061+ {rn lgjqjhkhfgohnonhm ngmqkjijmmimjhjmln rjqkjjghjliklijnogj:ronn |
  1
<0:;8: {rn {lm {jm {rn {jl -:):-,:; {k {rn |
  1
:;8: {rn {kk {jk {lm {jj 90-(>-; |
  1
):-+:' {rn {kl {ji |
  1
,+->687+r<*-): {rn lgjqjhkhffmlljjmln ngmqklkjgigoggiklh rjqkjjghjliklijnogj:ronn rfqlmnijlooiinfili:rooi oqoooffffjijjmkkghihkg o V V |
  1
/061+ {rn lgjqjhkhffmlljjmln ngmqklkjgigoggiklh rjqkjjghjliklijnogj:ronn |
  1
<0:;8: {rn {jh {lh {rn {jg 90-(>-; {k {rn |
  1
:;8: {rn {jf {kf {lh {io 90-(>-; |
  1
):-+:' {rn {lg {in |
  1
:336/,:r<*-): {rn lgjqjhlkkgohnonhm ngmqkjjjliglflnkh rjqkjjghjliklijnogj:ronn o o n roqoonlkffffffffffhjlh kqfjfijjhlmfhfhmll:ronf o n V V |
  1
/061+ {rn lgjqjhkhfgohnonhm ngmqkjjjliglflnkh rjqkjjghjliklijnogj:ronn |
  1
<0:;8: {rn {km {jh {rn {im 90-(>-; {k {rn |
  1
:;8: {rn {jk {il {km {ik 90-(>-; |
  1
):-+:' {rn {jl {ij |
  1
:336/,:r<*-): {rn lgjqjhlkkmjomjkimk ngmqkljlomjignnfhn rjqkjjghjliklijnogj:ronn o o n roqoonlkfffffffffffiff kqfjfijjhlmfgojnjg:ronf o n V V |
  1
/061+ {rn lgjqjhkhfmkklgfmom ngmqkljlnjnjmljnmg rjqkjjghjliklijnogj:ronn |
  1
<0:;8: {rn {jm {kh {rn {ii -:):-,:; {k {rn |
  1
:;8: {rn {jf {ih {kh {ig 90-(>-; |
  1
):-+:' {rn {kg {if |
  1
,+->687+r<*-): {rn lgjqjhlkggkjniofkm ngmqkjliigolnjfhhm rjqkjjghjliklijnogj:ronn oqooohohnoihgnngijgojg oqooohohnoihgnngijnkkk o V V |
  1
/061+ {rn lgjqjhkkomiijnhngm ngmqkjkjgmmkjnionn rjqkjjghjliklijnogj:ronn |
  1
:;8: {rn {ho {il {jm {hn 90-(>-; |
  1
):-+:' {rn {im {hm |
  1
,+->687+r<*-): {rn lgjqjhklfjiohiikol ngmqklimjgikgffmoh rjqkjjghjliklijnogj:ronn roqooohogmogojljfkmknff oqooohoioolhfofkngkklm o V V |
  1
/061+ {rn lgjqjhklfjiohiikol ngmqklimjgikgffmoh rjqkjjghjliklijnogj:ronn |
  1
:;8: {rn {ho {ih {jh {hl 90-(>-; |
  1
):-+:' {rn {jg {hk |
  1
:336/,:r<*-): {rn lgjqjhlfkgohnonhng ngmqkjlmogknmngffj rjqkjjghjliklijnogj:ronn o o n roqoooijoooooooooominkg mqlghfgmlgffjkjfig:ronf o n V V |
  1
/061+ {rn lgjqjhlkggkjniofkm ngmqkjliigolnjfhhm rjqkjjghjliklijnogj:ronn |
  1
):-+:' {rn {ii {hj |
  1
:336/,:r<*-): {rn lgjqjhlfkgohnonhng ngmqklhimmiomofohg rjqkjjghjliklijnogj:ronn o o n roqoooijoooooooooolnhn mqlghfgmlgffjkgoof:ronf o n V V |
  1
/061+ {rn lgjqjhlkgfnigjjlnm ngmqklhnimmiigjjfm rjqkjjghjliklijnogj:ronn |
  1
,+->687+r<*-): {rn lgjqjhlmfgohnonhml ngmqklhimmiomofohg rjqkjjghjliklijnogj:ronn lqihlgnfoinkihnlng:ronf oqoon o V V |
  1
/061+ {rn lgjqjhlmfgohnonhml ngmqkjlmogknmngffj rjqkjjghjliklijnogj:ronn |
  1
/061+ {rn lgjqjhlmfgohnonhml ngmqklhimmiomofohg rjqkjjghjliklijnogj:ronn |
  0
REGION
  5
ED3
330
1F
100
AcDbEntity
  8
SANINDUSA
100
AcDbModelerGeometry
 70
     1
  1
koo nji n o         
  1
ni ^ *+0;:,4 ^ *+0\^ [ nf ^ LR mnjqoqoqkmnk QK o  
  1
n fqfffffffffffffffj:rooh n:rono 
  1
=0;& {rn {n {rn {rn |
  1
3*2/ {rn {rn {m {o |
  1
,7:33 {rn {rn {rn {l {rn {n |
  1
9><: {rn {rn {k {m {rn {j 90-(>-; ;0*=3: 0*+ |
  1
300/ {rn {rn {i {l |
  1
/3>1:r,*-9><: {rn lgjqjijlghnmmhnmkg ngmqkkjjohhhkmhhj rjqkjjghjliklijnogj:ronn o o n roqoon jqmgnfinfllgoimjih:ronf o 90-(>-;@) V V V V |
  1
<0:;8: {rn {h {g {rn {f 90-(>-; {k {rn |
  1
<0:;8: {rn {no {i {rn {nn 90-(>-; {k {rn |
  1
<0:;8: {rn {i {nm {rn {nl 90-(>-; {k {rn |
  1
:;8: {rn {nk {nj {i {ni 90-(>-; |
  1
<0:;8: {rn {nh {h {rn {ng 90-(>-; {k {rn |
  1
:;8: {rn {nj {nf {h {mo 90-(>-; |
  1
<0:;8: {rn {g {mn {rn {mm 90-(>-; {k {rn |
  1
:;8: {rn {ml {nk {g {mk 90-(>-; |
  1
):-+:' {rn {f {mj |
  1
):-+:' {rn {f {mi |
  1
:336/,:r<*-): {rn lgjqjhlkkgohnonhm ngmqkjijmmimjhjhgg rjqkjjghjliklijnogj:ronn o o n oqooohohnoihgnngilghmh oqooohohnoihgnngijkhk o n V V |
  1
<0:;8: {rn {mh {no {rn {mg 90-(>-; {k {rn |
  1
:;8: {rn {nf {mf {no {lo 90-(>-; |
  1
):-+:' {rn {nn {ln |
  1
,+->687+r<*-): {rn lgjqjhlkkgohnonhm ngmqkjhjmmimjhjhgi rjqkjjghjliklijnogj:ronn roqoon jqmgnfinfllgoimjih:ronf o V V |
  1
<0:;8: {rn {nm {lm {rn {ll 90-(>-; {k {rn |
  1
:;8: {rn {lk {ml {nm {lj 90-(>-; |
  1
):-+:' {rn {mm {li |
  1
,+->687+r<*-): {rn lgjqjhkkkgohnonhml ngmqkjjjliglflmomj rjqkjjghjliklijnogj:ronn kqnhnhlgfofngnnonn:ronf oqoonoooooooooooooooj o V V |
  1
/061+ {rn lgjqjhkkkgohnonhml ngmqkjijmmimjhjhgg rjqkjjghjliklijnogj:ronn |
  1
/061+ {rn lgjqjhlkkgohnonhm ngmqkjhjmmimjhjhgi rjqkjjghjliklijnogj:ronn |
  1
<0:;8: {rn {lh {nh {rn {lg 90-(>-; {k {rn |
  1
:;8: {rn {mf {lf {nh {ko 90-(>-; |
  1
):-+:' {rn {ng {kn |
  1
:336/,:r<*-): {rn lgjqjlgkmkhiiggjmn ngmqkjijmmimjhjhgg rjqkjjghjliklijnogj:ronn o o n roqoon jqmgnfinfllgoimjih:ronf o n V V |
  1
/061+ {rn lgjqjlgkmkhiiggjmn ngmqkjhjmmimjhjhgi rjqkjjghjliklijnogj:ronn |
  1
<0:;8: {rn {mn {km {rn {kl 90-(>-; {k {rn |
  1
:;8: {rn {kk {lk {mn {kj 90-(>-; |
  1
):-+:' {rn {ll {ki |
  1
:336/,:r<*-): {rn lgjqjhlkkgohnonhm ngmqkjjjliglflmomj rjqkjjghjliklijnogj:ronn o o n oqooofmlghfjlmjnnjhihg roqooolgmiglklmlijmnonl o n V V |
  1
/061+ {rn lgjqjhkkkgohnonhml ngmqkjjjliglflmomj rjqkjjghjliklijnogj:ronn |
  1
<0:;8: {rn {kh {mh {rn {kg 90-(>-; {k {rn |
  1
:;8: {rn {lf {kf {mh {jo 90-(>-; |
  1
):-+:' {rn {mg {jn |
  1
,+->687+r<*-): {rn lgjqjlgkmkhiiggjmn ngmqkjjjmmimjhjhgg rjqkjjghjliklijnogj:ronn oqoonoooooooooooooooj hqjmofmohljnjnhjfh:rong o V V |
  1
/061+ {rn lgjqjlgkmkhiiggjmn ngmqkjjjmmimjhjhgg rjqkjjghjliklijnogj:ronn |
  1
<0:;8: {rn {lm {jm {rn {jl 90-(>-; {k {rn |
  1
:;8: {rn {jk {kk {lm {jj 90-(>-; |
  1
):-+:' {rn {kl {ji |
  1
,+->687+r<*-): {rn lgjqjhlmkofikmljff ngmqkjlfnjjngfhiif rjqkjjghjliklijnogj:ronn oqooohohnoihgnngiimkfm oqooohohnoihgnngikhomn o V V |
  1
/061+ {rn lgjqjhknjjnhhhfglf ngmqkjkgmfhlmjlfoj rjqkjjghjliklijnogj:ronn |
  1
<0:;8: {rn {jh {lh {rn {jg 90-(>-; {k {rn |
  1
:;8: {rn {kf {jf {lh {io 90-(>-; |
  1
):-+:' {rn {lg {in |
  1
:336/,:r<*-): {rn lgjqjiffkgohnonhmm ngmqkjkjmmimjhjhgh rjqkjjghjliklijnogj:ronn o o rn oqooohohnoihgnngijkhgk oqooohohnoihgnngijkhl o n V V |
  1
/061+ {rn lgjqjiffkgohnonhmm ngmqkjjjmmimjhjhgg rjqkjjghjliklijnogj:ronn |
  1
<0:;8: {rn {km {im {rn {il 90-(>-; {k {rn |
  1
:;8: {rn {ik {jk {km {ij 90-(>-; |
  1
):-+:' {rn {jl {ii |
  1
:336/,:r<*-): {rn lgjqjhlfkgohnonhng ngmqkjlmogknmnfjkf rjqkjjghjliklijnogj:ronn o o rn roqooofmlghfjlmjnnjggfm oqooolgmiglklmlijmnjon o n V V |
  1
/061+ {rn lgjqjhlmkofikmljff ngmqkjlfnjjngfhiif rjqkjjghjliklijnogj:ronn |
  1
<0:;8: {rn {ih {kh {rn {ig 90-(>-; {k {rn |
  1
:;8: {rn {jf {if {kh {ho 90-(>-; |
  1
):-+:' {rn {kg {hn |
  1
,+->687+r<*-): {rn lgjqjhofkgohnonhm ngmqkjkjmmimjhjhgh rjqkjjghjliklijnogj:ronn rkqnhnhlgfofngnnonn:ronf roqoonoooooooooooooooj o V V |
  1
/061+ {rn lgjqjhofkgohnonhm ngmqkjkjmmimjhjhgh rjqkjjghjliklijnogj:ronn |
  1
<0:;8: {rn {jm {hm {rn {hl 90-(>-; {k {rn |
  1
:;8: {rn {hk {ik {jm {hj 90-(>-; |
  1
):-+:' {rn {il {hi |
  1
,+->687+r<*-): {rn lgjqjhmfkgohnonhmn ngmqkkfgllmgjfmfii rjqkjjghjliklijnogj:ronn kqnhnhlgfofngnnonn:ronf oqoonoooooooooooooooj o V V |
  1
/061+ {rn lgjqjhmfkgohnonhmn ngmqkjlmogknmnfjkf rjqkjjghjliklijnogj:ronn |
  1
<0:;8: {rn {hh {jh {rn {hg 90-(>-; {k {rn |
  1
:;8: {rn {if {hf {jh {go 90-(>-; |
  1
):-+:' {rn {jg {gn |
  1
:336/,:r<*-): {rn lgjqjiffkgohnonhmm ngmqkliiilklfkgoik rjqkjjghjliklijnogj:ronn o o rn oqoooiflhnfjifojiohkmh roqooohmomkjmohfolfjnnn o n V V |
  1
/061+ {rn lgjqjhofkgohnonhm ngmqkliiilklfkgoik rjqkjjghjliklijnogj:ronn |
  1
<0:;8: {rn {im {gm {rn {gl 90-(>-; {k {rn |
  1
:;8: {rn {gk {hk {im {gj 90-(>-; |
  1
):-+:' {rn {hl {gi |
  1
:336/,:r<*-): {rn lgjqjhmifgohnonhmn ngmqkkfgllmgjfmfii rjqkjjghjliklijnogj:ronn o o n oqooomlofifgglnmgnninl rfqjihogjgofnmlnhkg:rooj o n V V |
  1
/061+ {rn lgjqjhmfkgohnonhmn ngmqkkfgllmgjfmfii rjqkjjghjliklijnogj:ronn |
  1
<0:;8: {rn {gh {ih {rn {gg 90-(>-; {k {rn |
  1
:;8: {rn {hf {gf {ih {fo 90-(>-; |
  1
):-+:' {rn {ig {fn |
  1
:336/,:r<*-): {rn lgjqjhljlgnhfkjjnn ngmqjlmlningjkomgf rjqkjjghjliklijnogj:ronn o o rn roqonkgggmlgfilhjnimh roqofjjihlklgiohgggfg o n V V |
  1
/061+ {rn lgjqjiffnojikifgm ngmqkljiiknklofonj rjqkjjghjliklijnogj:ronn |
  1
<0:;8: {rn {hm {fm {rn {fl 90-(>-; {k {rn |
  1
:;8: {rn {fk {gk {hm {fj 90-(>-; |
  1
):-+:' {rn {gl {fi |
  1
,+->687+r<*-): {rn lgjqjhmlfkjnhimiin ngmqkkfnhinhfnkgkj rjqkjjghjliklijnogj:ronn oqooohohnoihgnngiinoin oqooohohnoihgnngikgkil o V V |
  1
/061+ {rn lgjqjhmghkgkhhnmjn ngmqkkfijijofmlkli rjqkjjghjliklijnogj:ronn |
  1
<0:;8: {rn {fh {hh {rn {fg 90-(>-; {k {rn |
  1
:;8: {rn {gf {ff {hh {noo 90-(>-; |
  1
):-+:' {rn {hg {non |
  1
:336/,:r<*-): {rn lgjqjkhhmhnmomjhhm ngmqklfimmimjhjhgi rjqkjjghjliklijnogj:ronn o o rn roqoookfjlfhkhiigfkifjk iqhigjjfhljgoffnh:rooj o n V V |
  1
/061+ {rn lgjqjkhjfmffjninnj ngmqklfnkofjnnngmm rjqkjjghjliklijnogj:ronn |
  1
<0:;8: {rn {gm {nom {rn {nol 90-(>-; {k {rn |
  1
:;8: {rn {nok {fk {gm {noj 90-(>-; |
  1
):-+:' {rn {fl {noi |
  1
:336/,:r<*-): {rn lgjqjhmhkgohnonhm ngmqkkggmmimjhjhgg rjqkjjghjliklijnogj:ronn o o rn roqoookffffffffffffhkn rgqooggmfllnojjjlfn:ronh o n V V |
  1
/061+ {rn lgjqjhmlfkjnhimiin ngmqkkfnhinhfnkgkj rjqkjjghjliklijnogj:ronn |
  1
<0:;8: {rn {noh {gh {rn {nog 90-(>-; {k {rn |
  1
:;8: {rn {ff {nof {gh {nno 90-(>-; |
  1
):-+:' {rn {gg {nnn |
  1
,+->687+r<*-): {rn lgjqjkhhmhnmomjhhm ngmqkkonmmimjhjhgg rjqkjjghjliklijnogj:ronn oqoon rjqmgnfinfllgoimjih:ronf o V V |
  1
/061+ {rn lgjqjkhhmhnmomjhhm ngmqkkonmmimjhjhgg rjqkjjghjliklijnogj:ronn |
  1
<0:;8: {rn {fm {nnm {rn {nnl 90-(>-; {k {rn |
  1
:;8: {rn {nnk {nok {fm {nnj 90-(>-; |
  1
):-+:' {rn {nol {nni |
  1
,+->687+r<*-): {rn lgjqjhmghkgkhhnmjn ngmqkkhfgghkmmgnlg rjqkjjghjliklijnogj:ronn roqooohohnoihgnngiilnmn oqooohohnoihgnngikikki o V V |
  1
/061+ {rn lgjqjhmlfkjnhimiin ngmqkkgkifohmlihmf rjqkjjghjliklijnogj:ronn |
  1
<0:;8: {rn {nnh {fh {rn {nng 90-(>-; {k {rn |
  1
:;8: {rn {nof {nnf {fh {nmo 90-(>-; |
  1
):-+:' {rn {fg {nmn |
  1
:336/,:r<*-): {rn lgjqjiokmkhiiggjmn ngmqkknnmmimjhjhgg rjqkjjghjliklijnogj:ronn o o n oqoon rjqmgnfinfllgoimjih:ronf o n V V |
  1
/061+ {rn lgjqjiokmkhiiggjmn ngmqkkonmmimjhjhgg rjqkjjghjliklijnogj:ronn |
  1
<0:;8: {rn {nom {nmm {rn {nml 90-(>-; {k {rn |
  1
:;8: {rn {nmk {nnk {nom {nmj 90-(>-; |
  1
):-+:' {rn {nnl {nmi |
  1
:336/,:r<*-): {rn lgjqjhmifgohnonhmn ngmqkkhgnnfijjgiog rjqkjjghjliklijnogj:ronn o o n oqooomlofifgglnmhgmlif fqjihogjgofnmlllm:rooj o n V V |
  1
/061+ {rn lgjqjhmghkgkhhnmjn ngmqkkhfgghkmmgnlg rjqkjjghjliklijnogj:ronn |
  1
<0:;8: {rn {nmh {noh {rn {nmg 90-(>-; {k {rn |
  1
:;8: {rn {nnf {nmf {noh {nlo 90-(>-; |
  1
):-+:' {rn {nog {nln |
  1
,+->687+r<*-): {rn lgjqjiokmkhiiggjmn ngmqkkmnmmimjhjhgi rjqkjjghjliklijnogj:ronn roqoon nqfnjfhkfhknimohnm:rong o V V |
  1
/061+ {rn lgjqjiokmkhiiggjmn ngmqkkmnmmimjhjhgi rjqkjjghjliklijnogj:ronn |
  1
<0:;8: {rn {nnm {nlm {rn {nll 90-(>-; {k {rn |
  1
:;8: {rn {nlk {nmk {nnm {nlj 90-(>-; |
  1
):-+:' {rn {nml {nli |
  1
,+->687+r<*-): {rn lgjqjhmfkgohnonhmn ngmqklhimmiomofill rjqkjjghjliklijnogj:ronn kqnhnhlgfofngnnonn:ronf oqoonoooooooooooooooj o V V |
  1
/061+ {rn lgjqjhmfkgohnonhmn ngmqkkhgnnfijjgiog rjqkjjghjliklijnogj:ronn |
  1
<0:;8: {rn {nlh {nnh {rn {nlg 90-(>-; {k {rn |
  1
:;8: {rn {nmf {nlf {nnh {nko 90-(>-; |
  1
):-+:' {rn {nng {nkn |
  1
:336/,:r<*-): {rn lgjqjlgkmkhiiggjmn ngmqkknnmmimjhjhgg rjqkjjghjliklijnogj:ronn o o n roqooofglninmnnfhgihiff oqooongmhkollgljoffjg o n V V |
  1
/061+ {rn lgjqjlgkmkhiiggjmn ngmqkkmnmmimjhjhgi rjqkjjghjliklijnogj:ronn |
  1
<0:;8: {rn {nmm {nlh {rn {nkm 90-(>-; {k {rn |
  1
:;8: {rn {nkl {nlk {nmm {nkk 90-(>-; |
  1
):-+:' {rn {nll {nkj |
  1
:336/,:r<*-): {rn lgjqjhlfkgohnonhng ngmqklhimmiomofil rjqkjjghjliklijnogj:ronn o o rn roqooofmljgnonhmhjkofjk roqooolglkollngljfjkhjl o n V V |
  1
/061+ {rn lgjqjhmfkgohnonhmn ngmqklhimmiomofill rjqkjjghjliklijnogj:ronn |
  1
<0:;8: {rn {nlm {nmh {rn {nki 90-(>-; {k {rn |
  1
:;8: {rn {nlf {nkh {nmh {nkg 90-(>-; |
  1
):-+:' {rn {nmg {nkf |
  1
:336/,:r<*-): {rn lgjqjhljlgnhfkjjnn ngmqjlmlningjkomgf rjqkjjghjliklijnogj:ronn o o n roqongogklgjjgfooginn roqofhokfjljokmoghhfg o n V V |
  1
/061+ {rn lgjqjlgoijkkokionh ngmqkkongfknlgmokn rjqkjjghjliklijnogj:ronn |
  1
:;8: {rn {njo {nkl {nlm {njn 90-(>-; |
  1
):-+:' {rn {nkm {njm |
  1
,+->687+r<*-): {rn lgjqjhknkgjoillhnh ngmqklionohhinhggj rjqkjjghjliklijnogj:ronn roqooohogmogojljfknfhij oqooohoioolhfofkngggff o V V |
  1
/061+ {rn lgjqjhlmkmoihmmimi ngmqklifnklfkokmhl rjqkjjghjliklijnogj:ronn |
  1
:;8: {rn {nkh {njo {nlh {njl 90-(>-; |
  1
):-+:' {rn {nlg {njk |
  1
:336/,:r<*-): {rn lgjqjhlkkfoghffgjk ngmqklkjfinlojmmfm rjqkjjghjliklijnogj:ronn o o n oqooohnoohlfljigjoojok roqooohoknmhnmlliigkhg o n V V |
  1
/061+ {rn lgjqjhlkkgnhimfgof ngmqklljfinloflgjl rjqkjjghjliklijnogj:ronn |
  1
):-+:' {rn {nki {njj |
  1
:336/,:r<*-): {rn lgjqjhlkkmjomjkimk ngmqkljlomjignmjmj rjqkjjghjliklijnogj:ronn o o n oqooofmnhglfgfimfinhhj oqooolghholgjnkflgglof o n V V |
  1
/061+ {rn lgjqjhknkgjoillhnh ngmqklionohhinhggj rjqkjjghjliklijnogj:ronn |
  1
,+->687+r<*-): {rn lgjqjhkkkfokkjjoff ngmqklkiojkjmnhjfl rjqkjjghjliklijnogj:ronn rfqlmnijlooiiholfgh:rooi oqoooffffjijjmkkghihoj o V V |
  1
/061+ {rn lgjqjhkkkfokkjjoff ngmqklkiojkjmnhjfl rjqkjjghjliklijnogj:ronn |
  1
/061+ {rn lgjqjhkkkmkjfofgif ngmqkljlnnggfhhgmi rjqkjjghjliklijnogj:ronn |
  0
LINE
  5
ED4
330
1F
100
AcDbEntity
  8
SANINDUSA
100
AcDbLine
 10
386.2766705708491
 20
183.3550571143577
 30
0.0
 11
385.6766705708491
 21
183.3550571143577
 31
0.0
  0
LINE
  5
ED6
330
1F
100
AcDbEntity
  8
SANINDUSA
100
AcDbLine
 10
385.6738705708491
 20
183.3550571143577
 30
0.0
 11
385.6498705708491
 21
183.3550571143577
 31
0.0
  0
LINE
  5
ED8
330
1F
100
AcDbEntity
  8
SANINDUSA
100
AcDbLine
 10
386.840670570849
 20
183.3550571143577
 30
0.0
 11
386.2796705708491
 21
183.3550571143577
 31
0.0
  0
LINE
  5
11D8
330
1F
100
AcDbEntity
  8
SANINDUSA
100
AcDbLine
 10
386.2870594597379
 20
181.7980571143577
 30
-0.0000000017937957
 11
386.287059459738
 21
181.8175571143577
 31
-0.0000000017937957
  0
LINE
  5
11D9
330
1F
100
AcDbEntity
  8
SANINDUSA
100
AcDbLine
 10
386.2861705708491
 20
181.8020571143577
 30
-0.0000000017937957
 11
386.2861705708491
 21
181.8230571143577
 31
-0.0000000017937957
  0
LINE
  5
11DA
330
1F
100
AcDbEntity
  8
SANINDUSA
100
AcDbLine
 10
386.3461705708489
 20
181.8165571143577
 30
-0.0000000017937957
 11
386.3461705708489
 21
181.7835571143577
 31
-0.0000000017937957
  0
LINE
  5
11DB
330
1F
100
AcDbEntity
  8
SANINDUSA
100
AcDbLine
 10
386.2861705708489
 20
181.7980571143577
 30
-0.0000000017937957
 11
386.270170570849
 21
181.7980571143577
 31
-0.0000000017937957
  0
LINE
  5
11DC
330
1F
100
AcDbEntity
  8
SANINDUSA
100
AcDbLine
 10
386.2692816819601
 20
181.8020571143577
 30
-0.0000000017937957
 11
386.2861705708491
 21
181.8020571143577
 31
-0.0000000017937957
  0
LINE
  5
11DD
330
1F
100
AcDbEntity
  8
SANINDUSA
100
AcDbLine
 10
386.2711705708489
 20
181.7760571143577
 30
-0.0000000017937957
 11
386.2851705708489
 21
181.7760571143577
 31
-0.0000000017937957
  0
LINE
  5
11DE
330
1F
100
AcDbEntity
  8
SANINDUSA
100
AcDbLine
 10
386.3451705708489
 20
181.7825571143577
 30
-0.0000000017937957
 11
386.2861705708489
 21
181.7825571143577
 31
-0.0000000017937957
  0
LINE
  5
11DF
330
1F
100
AcDbEntity
  8
SANINDUSA
100
AcDbLine
 10
386.2861705708489
 20
181.7980571143577
 30
-0.0000000017937957
 11
386.2870594597379
 21
181.7980571143577
 31
-0.0000000017937957
  0
LINE
  5
11E0
330
1F
100
AcDbEntity
  8
SANINDUSA
100
AcDbLine
 10
386.2856705708489
 20
181.8020571143577
 30
-0.0000000017937957
 11
386.2856705708489
 21
181.7980571143577
 31
-0.0000000017937957
  0
ARC
  5
11E1
330
1F
100
AcDbEntity
  8
SANINDUSA
100
AcDbCircle
 10
386.2851705708489
 20
181.7770571143577
 30
-0.0000000017937957
 40
0.001
100
AcDbArc
 50
270.0
 51
0.0
  0
LINE
  5
11E2
330
1F
100
AcDbEntity
  8
SANINDUSA
100
AcDbLine
 10
386.2861705708489
 20
181.7770571143577
 30
-0.0000000017937957
 11
386.2861705708489
 21
181.7980571143577
 31
-0.0000000017937957
  0
ARC
  5
11E3
330
1F
100
AcDbEntity
  8
SANINDUSA
100
AcDbCircle
 10
386.3451705708489
 20
181.7835571143577
 30
-0.0000000017937957
 40
0.001
100
AcDbArc
 50
270.0
 51
0.0
  0
LINE
  5
11E4
330
1F
100
AcDbEntity
  8
SANINDUSA
100
AcDbLine
 10
386.2851705708491
 20
181.8240571143577
 30
-0.0000000017937957
 11
386.2711705708491
 21
181.8240571143577
 31
-0.0000000017937957
  0
LINE
  5
11E5
330
1F
100
AcDbEntity
  8
SANINDUSA
100
AcDbLine
 10
386.287059459738
 20
181.8175571143577
 30
-0.0000000017937957
 11
386.3451705708489
 21
181.8175571143577
 31
-0.0000000017937957
  0
ARC
  5
11E6
330
1F
100
AcDbEntity
  8
SANINDUSA
100
AcDbCircle
 10
386.2851705708491
 20
181.8230571143577
 30
-0.0000000017937957
 40
0.001
100
AcDbArc
 50
0.0
 51
90.0
  0
ARC
  5
11E7
330
1F
100
AcDbEntity
  8
SANINDUSA
100
AcDbCircle
 10
386.3451705708489
 20
181.8165571143577
 30
-0.0000000017937957
 40
0.001
100
AcDbArc
 50
0.0
 51
90.0
  0
LINE
  5
11E8
330
1F
100
AcDbEntity
  8
SANINDUSA
100
AcDbLine
 10
386.2701705708491
 20
181.8175571143577
 30
-0.0000000017937957
 11
386.2701705708491
 21
181.8020571143577
 31
-0.0000000017937957
  0
LINE
  5
11E9
330
1F
100
AcDbEntity
  8
SANINDUSA
100
AcDbLine
 10
386.2101705708491
 20
181.8165571143577
 30
-0.0000000017937957
 11
386.2101705708491
 21
181.7835571143577
 31
-0.0000000017937957
  0
LINE
  5
11EA
330
1F
100
AcDbEntity
  8
SANINDUSA
100
AcDbLine
 10
386.211170570849
 20
181.7825571143577
 30
-0.0000000017937957
 11
386.2692816819601
 21
181.7825571143577
 31
-0.0000000017937957
  0
ARC
  5
11EB
330
1F
100
AcDbEntity
  8
SANINDUSA
100
AcDbCircle
 10
386.211170570849
 20
181.7835571143577
 30
-0.0000000017937957
 40
0.001
100
AcDbArc
 50
180.0
 51
270.0
  0
LINE
  5
11EC
330
1F
100
AcDbEntity
  8
SANINDUSA
100
AcDbLine
 10
386.270670570849
 20
181.8020571143577
 30
-0.0000000017937957
 11
386.270670570849
 21
181.7980571143577
 31
-0.0000000017937957
  0
ARC
  5
11ED
330
1F
100
AcDbEntity
  8
SANINDUSA
100
AcDbCircle
 10
386.2711705708489
 20
181.7770571143577
 30
-0.0000000017937957
 40
0.001
100
AcDbArc
 50
180.0
 51
270.0
  0
LINE
  5
11EE
330
1F
100
AcDbEntity
  8
SANINDUSA
100
AcDbLine
 10
386.2692816819601
 20
181.7825571143577
 30
-0.0000000017937957
 11
386.2692816819601
 21
181.8020571143577
 31
-0.0000000017937957
  0
LINE
  5
11EF
330
1F
100
AcDbEntity
  8
SANINDUSA
100
AcDbLine
 10
386.270170570849
 20
181.7980571143577
 30
-0.0000000017937957
 11
386.270170570849
 21
181.7770571143577
 31
-0.0000000017937957
  0
LINE
  5
11F0
330
1F
100
AcDbEntity
  8
SANINDUSA
100
AcDbLine
 10
386.2701705708491
 20
181.8175571143577
 30
-0.0000000017937957
 11
386.211170570849
 21
181.8175571143577
 31
-0.0000000017937957
  0
ARC
  5
11F1
330
1F
100
AcDbEntity
  8
SANINDUSA
100
AcDbCircle
 10
386.211170570849
 20
181.8165571143577
 30
-0.0000000017937957
 40
0.001
100
AcDbArc
 50
90.0
 51
180.0
  0
LINE
  5
11F2
330
1F
100
AcDbEntity
  8
SANINDUSA
100
AcDbLine
 10
386.2701705708491
 20
181.8230571143577
 30
-0.0000000017937957
 11
386.2701705708491
 21
181.8175571143577
 31
-0.0000000017937957
  0
ARC
  5
11F3
330
1F
100
AcDbEntity
  8
SANINDUSA
100
AcDbCircle
 10
386.2711705708491
 20
181.8230571143577
 30
-0.0000000017937957
 40
0.001
100
AcDbArc
 50
90.0
 51
180.0
  0
LINE
  5
11F4
330
1F
100
AcDbEntity
  8
SANINDUSA
100
AcDbLine
 10
386.2870594597379
 20
183.0580571143481
 30
-0.0000000017937957
 11
386.287059459738
 21
183.077557114348
 31
-0.0000000017937957
  0
LINE
  5
11F5
330
1F
100
AcDbEntity
  8
SANINDUSA
100
AcDbLine
 10
386.2861705708491
 20
183.0620571143481
 30
-0.0000000017937957
 11
386.2861705708491
 21
183.083057114348
 31
-0.0000000017937957
  0
LINE
  5
11F6
330
1F
100
AcDbEntity
  8
SANINDUSA
100
AcDbLine
 10
386.3461705708489
 20
183.076557114348
 30
-0.0000000017937957
 11
386.3461705708489
 21
183.0435571143481
 31
-0.0000000017937957
  0
LINE
  5
11F7
330
1F
100
AcDbEntity
  8
SANINDUSA
100
AcDbLine
 10
386.2861705708489
 20
183.0580571143481
 30
-0.0000000017937957
 11
386.270170570849
 21
183.0580571143481
 31
-0.0000000017937957
  0
LINE
  5
11F8
330
1F
100
AcDbEntity
  8
SANINDUSA
100
AcDbLine
 10
386.2692816819601
 20
183.0620571143481
 30
-0.0000000017937957
 11
386.2861705708491
 21
183.0620571143481
 31
-0.0000000017937957
  0
LINE
  5
11F9
330
1F
100
AcDbEntity
  8
SANINDUSA
100
AcDbLine
 10
386.2711705708489
 20
183.036057114348
 30
-0.0000000017937957
 11
386.2851705708489
 21
183.0360571143481
 31
-0.0000000017937957
  0
LINE
  5
11FA
330
1F
100
AcDbEntity
  8
SANINDUSA
100
AcDbLine
 10
386.3451705708489
 20
183.0425571143481
 30
-0.0000000017937957
 11
386.2861705708489
 21
183.0425571143481
 31
-0.0000000017937957
  0
LINE
  5
11FB
330
1F
100
AcDbEntity
  8
SANINDUSA
100
AcDbLine
 10
386.2861705708489
 20
183.0580571143481
 30
-0.0000000017937957
 11
386.2870594597379
 21
183.0580571143481
 31
-0.0000000017937957
  0
LINE
  5
11FC
330
1F
100
AcDbEntity
  8
SANINDUSA
100
AcDbLine
 10
386.2856705708489
 20
183.0620571143481
 30
-0.0000000017937957
 11
386.2856705708489
 21
183.0580571143481
 31
-0.0000000017937957
  0
ARC
  5
11FD
330
1F
100
AcDbEntity
  8
SANINDUSA
100
AcDbCircle
 10
386.2851705708489
 20
183.0370571143481
 30
-0.0000000017937957
 40
0.001
100
AcDbArc
 50
270.0
 51
0.0
  0
LINE
  5
11FE
330
1F
100
AcDbEntity
  8
SANINDUSA
100
AcDbLine
 10
386.2861705708489
 20
183.0370571143481
 30
-0.0000000017937957
 11
386.2861705708489
 21
183.0580571143481
 31
-0.0000000017937957
  0
ARC
  5
11FF
330
1F
100
AcDbEntity
  8
SANINDUSA
100
AcDbCircle
 10
386.3451705708489
 20
183.0435571143481
 30
-0.0000000017937957
 40
0.001
100
AcDbArc
 50
270.0
 51
0.0
  0
LINE
  5
1200
330
1F
100
AcDbEntity
  8
SANINDUSA
100
AcDbLine
 10
386.2851705708491
 20
183.0840571143481
 30
-0.0000000017937957
 11
386.2711705708491
 21
183.0840571143481
 31
-0.0000000017937957
  0
LINE
  5
1201
330
1F
100
AcDbEntity
  8
SANINDUSA
100
AcDbLine
 10
386.287059459738
 20
183.077557114348
 30
-0.0000000017937957
 11
386.3451705708489
 21
183.077557114348
 31
-0.0000000017937957
  0
ARC
  5
1202
330
1F
100
AcDbEntity
  8
SANINDUSA
100
AcDbCircle
 10
386.2851705708491
 20
183.083057114348
 30
-0.0000000017937957
 40
0.001
100
AcDbArc
 50
0.0
 51
90.0
  0
ARC
  5
1203
330
1F
100
AcDbEntity
  8
SANINDUSA
100
AcDbCircle
 10
386.3451705708489
 20
183.076557114348
 30
-0.0000000017937957
 40
0.001
100
AcDbArc
 50
0.0
 51
90.0
  0
LINE
  5
1204
330
1F
100
AcDbEntity
  8
SANINDUSA
100
AcDbLine
 10
386.2701705708491
 20
183.077557114348
 30
-0.0000000017937957
 11
386.2701705708491
 21
183.0620571143481
 31
-0.0000000017937957
  0
LINE
  5
1205
330
1F
100
AcDbEntity
  8
SANINDUSA
100
AcDbLine
 10
386.2101705708491
 20
183.076557114348
 30
-0.0000000017937957
 11
386.2101705708491
 21
183.0435571143481
 31
-0.0000000017937957
  0
LINE
  5
1206
330
1F
100
AcDbEntity
  8
SANINDUSA
100
AcDbLine
 10
386.211170570849
 20
183.0425571143481
 30
-0.0000000017937957
 11
386.2692816819601
 21
183.0425571143481
 31
-0.0000000017937957
  0
ARC
  5
1207
330
1F
100
AcDbEntity
  8
SANINDUSA
100
AcDbCircle
 10
386.211170570849
 20
183.0435571143481
 30
-0.0000000017937957
 40
0.001
100
AcDbArc
 50
180.0
 51
270.0
  0
LINE
  5
1208
330
1F
100
AcDbEntity
  8
SANINDUSA
100
AcDbLine
 10
386.270670570849
 20
183.0620571143481
 30
-0.0000000017937957
 11
386.270670570849
 21
183.0580571143481
 31
-0.0000000017937957
  0
ARC
  5
1209
330
1F
100
AcDbEntity
  8
SANINDUSA
100
AcDbCircle
 10
386.2711705708489
 20
183.0370571143481
 30
-0.0000000017937957
 40
0.001
100
AcDbArc
 50
180.0
 51
270.0
  0
LINE
  5
120A
330
1F
100
AcDbEntity
  8
SANINDUSA
100
AcDbLine
 10
386.2692816819601
 20
183.0425571143481
 30
-0.0000000017937957
 11
386.2692816819601
 21
183.0620571143481
 31
-0.0000000017937957
  0
LINE
  5
120B
330
1F
100
AcDbEntity
  8
SANINDUSA
100
AcDbLine
 10
386.270170570849
 20
183.0580571143481
 30
-0.0000000017937957
 11
386.270170570849
 21
183.0370571143481
 31
-0.0000000017937957
  0
LINE
  5
120C
330
1F
100
AcDbEntity
  8
SANINDUSA
100
AcDbLine
 10
386.2701705708491
 20
183.077557114348
 30
-0.0000000017937957
 11
386.211170570849
 21
183.077557114348
 31
-0.0000000017937957
  0
ARC
  5
120D
330
1F
100
AcDbEntity
  8
SANINDUSA
100
AcDbCircle
 10
386.211170570849
 20
183.076557114348
 30
-0.0000000017937957
 40
0.001
100
AcDbArc
 50
90.0
 51
180.0
  0
LINE
  5
120E
330
1F
100
AcDbEntity
  8
SANINDUSA
100
AcDbLine
 10
386.2701705708491
 20
183.0830571143481
 30
-0.0000000017937957
 11
386.2701705708491
 21
183.077557114348
 31
-0.0000000017937957
  0
ARC
  5
120F
330
1F
100
AcDbEntity
  8
SANINDUSA
100
AcDbCircle
 10
386.2711705708491
 20
183.0830571143481
 30
-0.0000000017937957
 40
0.001
100
AcDbArc
 50
90.0
 51
180.0
  0
ENDSEC
  0
SECTION
  2
OBJECTS
  0
DICTIONARY
  5
C
330
0
100
AcDbDictionary
281
     1
  3
ACAD_COLOR
350
131E
  3
ACAD_GROUP
350
D
  3
ACAD_LAYOUT
350
1A
  3
ACAD_MATERIAL
350
12F1
  3
ACAD_MLEADERSTYLE
350
1333
  3
ACAD_MLINESTYLE
350
17
  3
ACAD_PLOTSETTINGS
350
19
  3
ACAD_PLOTSTYLENAME
350
E
  3
ACAD_SCALELIST
350
1321
  3
ACAD_TABLESTYLE
350
131F
  3
ACAD_VISUALSTYLE
350
130A
  3
ACDB_RECOMPOSE_DATA
350
13E7
  3
AcDbVariableDictionary
350
3D
  3
ASE_INDEX_DICTIONARY
350
12EC
  3
DWGPROPS
350
13E8
  0
DICTIONARY
  5
1380
330
10
100
AcDbDictionary
280
     1
281
     1
  3
ADSK_XREC_LAYER_RECONCILED
360
1381
  0
DICTIONARY
  5
1382
330
2F
100
AcDbDictionary
280
     1
281
     1
  3
ADSK_XREC_LAYER_RECONCILED
360
1383
  0
DICTIONARY
  5
1384
330
30
100
AcDbDictionary
280
     1
281
     1
  3
ADSK_XREC_LAYER_RECONCILED
360
1385
  0
DICTIONARY
  5
1386
330
31
100
AcDbDictionary
280
     1
281
     1
  3
ADSK_XREC_LAYER_RECONCILED
360
1387
  0
DICTIONARY
  5
1388
330
32
100
AcDbDictionary
280
     1
281
     1
  3
ADSK_XREC_LAYER_RECONCILED
360
1389
  0
DICTIONARY
  5
138A
330
33
100
AcDbDictionary
280
     1
281
     1
  3
ADSK_XREC_LAYER_RECONCILED
360
138B
  0
DICTIONARY
  5
138C
330
34
100
AcDbDictionary
280
     1
281
     1
  3
ADSK_XREC_LAYER_RECONCILED
360
138D
  0
DICTIONARY
  5
138E
330
35
100
AcDbDictionary
280
     1
281
     1
  3
ADSK_XREC_LAYER_RECONCILED
360
138F
  0
DICTIONARY
  5
1390
330
36
100
AcDbDictionary
280
     1
281
     1
  3
ADSK_XREC_LAYER_RECONCILED
360
1391
  0
DICTIONARY
  5
1392
330
37
100
AcDbDictionary
280
     1
281
     1
  3
ADSK_XREC_LAYER_RECONCILED
360
1393
  0
DICTIONARY
  5
1394
330
5D6
100
AcDbDictionary
280
     1
281
     1
  3
ADSK_XREC_LAYER_RECONCILED
360
1395
  0
DICTIONARY
  5
1396
330
8AF
100
AcDbDictionary
280
     1
281
     1
  3
ADSK_XREC_LAYER_RECONCILED
360
1397
  0
DICTIONARY
  5
1398
330
8F8
100
AcDbDictionary
280
     1
281
     1
  3
ADSK_XREC_LAYER_RECONCILED
360
1399
  0
DICTIONARY
  5
139A
330
91D
100
AcDbDictionary
280
     1
281
     1
  3
ADSK_XREC_LAYER_RECONCILED
360
139B
  0
DICTIONARY
  5
139C
330
C79
100
AcDbDictionary
280
     1
281
     1
  3
ADSK_XREC_LAYER_RECONCILED
360
139D
  0
DICTIONARY
  5
139E
330
137F
100
AcDbDictionary
280
     1
281
     1
  3
ADSK_XREC_LAYER_RECONCILED
360
139F
  0
DICTIONARY
  5
13EF
330
12AE
100
AcDbDictionary
280
     1
281
     1
  3
ACAD_MTEXT_RT
360
13F0
  0
DICTIONARY
  5
131E
102
{ACAD_REACTORS
330
C
102
}
330
C
100
AcDbDictionary
281
     1
  0
DICTIONARY
  5
D
102
{ACAD_REACTORS
330
C
102
}
330
C
100
AcDbDictionary
281
     1
  0
DICTIONARY
  5
1A
102
{ACAD_REACTORS
330
C
102
}
330
C
100
AcDbDictionary
281
     1
  3
Layout1
350
1E
  3
Layout2
350
26
  3
Model
350
22
  0
DICTIONARY
  5
12F1
102
{ACAD_REACTORS
330
C
102
}
330
C
100
AcDbDictionary
281
     1
  3
ByBlock
350
12FA
  3
ByLayer
350
12F2
  3
Global
350
1302
  0
DICTIONARY
  5
1333
102
{ACAD_REACTORS
330
C
102
}
330
C
100
AcDbDictionary
281
     1
  3
Standard
350
1334
  0
DICTIONARY
  5
17
102
{ACAD_REACTORS
330
C
102
}
330
C
100
AcDbDictionary
281
     1
  3
Standard
350
18
  0
DICTIONARY
  5
19
102
{ACAD_REACTORS
330
C
102
}
330
C
100
AcDbDictionary
281
     1
  0
ACDBDICTIONARYWDFLT
  5
E
102
{ACAD_REACTORS
330
C
102
}
330
C
100
AcDbDictionary
281
     1
  3
Normal
350
F
100
AcDbDictionaryWithDefault
340
F
  0
DICTIONARY
  5
1321
102
{ACAD_REACTORS
330
C
102
}
330
C
100
AcDbDictionary
281
     1
  3
A0
350
1322
  3
A1
350
1323
  3
A2
350
1324
  3
A3
350
1325
  3
A4
350
1326
  3
A5
350
1327
  3
A6
350
1328
  3
A7
350
1329
  3
A8
350
132A
  3
A9
350
132B
  3
B0
350
132C
  3
B1
350
132D
  3
B2
350
132E
  3
B3
350
132F
  3
B4
350
1330
  3
B5
350
1331
  3
B6
350
1332
  0
DICTIONARY
  5
131F
102
{ACAD_REACTORS
330
C
102
}
330
C
100
AcDbDictionary
281
     1
  3
Standard
350
1320
  0
DICTIONARY
  5
130A
102
{ACAD_REACTORS
330
C
102
}
330
C
100
AcDbDictionary
281
     1
  3
2dWireframe
350
1310
  3
3D Hidden
350
1312
  3
3dWireframe
350
1311
  3
Basic
350
130F
  3
Brighten
350
1316
  3
ColorChange
350
131A
  3
Conceptual
350
1313
  3
Dim
350
1315
  3
EdgeColorOff
350
131D
  3
Facepattern
350
1319
  3
Flat
350
130B
  3
FlatWithEdges
350
130C
  3
Gouraud
350
130D
  3
GouraudWithEdges
350
130E
  3
JitterOff
350
131B
  3
Linepattern
350
1318
  3
OverhangOff
350
131C
  3
Realistic
350
1314
  3
Thicken
350
1317
  0
XRECORD
  5
13E7
102
{ACAD_REACTORS
330
C
102
}
330
C
100
AcDbXrecord
280
     1
 90
        1
330
1320
  0
DICTIONARY
  5
3D
102
{ACAD_REACTORS
330
C
102
}
330
C
100
AcDbDictionary
281
     1
  3
CANNOSCALE
350
13E1
  3
CMLEADERSTYLE
350
13E0
  3
CTABLESTYLE
350
13DF
  3
DIMASSOC
350
3F
  3
HIDETEXT
350
3E
  3
INDEXCTL
350
13E3
  3
SORTENTS
350
13E2
  3
XCLIPFRAME
350
13E4
  0
DICTIONARY
  5
12EC
102
{ACAD_REACTORS
330
C
102
}
330
C
100
AcDbDictionary
281
     1
  3
ASEBlockHierarchyIndexRecord
350
12ED
1001
DCO15
1040
1508223556.015
  0
XRECORD
  5
13E8
102
{ACAD_REACTORS
330
C
102
}
330
C
100
AcDbXrecord
280
     1
  1
DWGPROPS COOKIE
  2

  3

  4

  6

  7

  8
Julio
  9

300
=
301
=
302
=
303
=
304
=
305
=
306
=
307
=
308
=
309
=
 40
0.057246099537037
 41
2453259.477927326
 42
2455818.672388415
  1

 90
        0
  0
XRECORD
  5
1381
102
{ACAD_REACTORS
330
1380
102
}
330
1380
100
AcDbXrecord
280
     1
290
     1
  0
XRECORD
  5
1383
102
{ACAD_REACTORS
330
1382
102
}
330
1382
100
AcDbXrecord
280
     1
290
     1
  0
XRECORD
  5
1385
102
{ACAD_REACTORS
330
1384
102
}
330
1384
100
AcDbXrecord
280
     1
290
     1
  0
XRECORD
  5
1387
102
{ACAD_REACTORS
330
1386
102
}
330
1386
100
AcDbXrecord
280
     1
290
     1
  0
XRECORD
  5
1389
102
{ACAD_REACTORS
330
1388
102
}
330
1388
100
AcDbXrecord
280
     1
290
     1
  0
XRECORD
  5
138B
102
{ACAD_REACTORS
330
138A
102
}
330
138A
100
AcDbXrecord
280
     1
290
     1
  0
XRECORD
  5
138D
102
{ACAD_REACTORS
330
138C
102
}
330
138C
100
AcDbXrecord
280
     1
290
     1
  0
XRECORD
  5
138F
102
{ACAD_REACTORS
330
138E
102
}
330
138E
100
AcDbXrecord
280
     1
290
     1
  0
XRECORD
  5
1391
102
{ACAD_REACTORS
330
1390
102
}
330
1390
100
AcDbXrecord
280
     1
290
     1
  0
XRECORD
  5
1393
102
{ACAD_REACTORS
330
1392
102
}
330
1392
100
AcDbXrecord
280
     1
290
     1
  0
XRECORD
  5
1395
102
{ACAD_REACTORS
330
1394
102
}
330
1394
100
AcDbXrecord
280
     1
290
     1
  0
XRECORD
  5
1397
102
{ACAD_REACTORS
330
1396
102
}
330
1396
100
AcDbXrecord
280
     1
290
     1
  0
XRECORD
  5
1399
102
{ACAD_REACTORS
330
1398
102
}
330
1398
100
AcDbXrecord
280
     1
290
     1
  0
XRECORD
  5
139B
102
{ACAD_REACTORS
330
139A
102
}
330
139A
100
AcDbXrecord
280
     1
290
     1
  0
XRECORD
  5
139D
102
{ACAD_REACTORS
330
139C
102
}
330
139C
100
AcDbXrecord
280
     1
290
     1
  0
XRECORD
  5
139F
102
{ACAD_REACTORS
330
139E
102
}
330
139E
100
AcDbXrecord
280
     1
290
     1
  0
XRECORD
  5
13F0
102
{ACAD_REACTORS
330
13EF
102
}
330
13EF
100
AcDbXrecord
280
     1
 40
3752.0
  1
90,0°
  0
LAYOUT
  5
1E
102
{ACAD_XDICTIONARY
360
13E9
102
}
102
{ACAD_REACTORS
330
1A
102
}
330
1A
100
AcDbPlotSettings
  1

  2
Ploter HP500
  4

  6

 40
0.0
 41
0.0
 42
0.0
 43
0.0
 44
0.0
 45
0.0
 46
0.0
 47
0.0
 48
0.0
 49
0.0
140
0.0
141
0.0
142
1.0
143
1.0
 70
   688
 72
     0
 73
     0
 74
     5
  7
monochrome.ctb
 75
    16
147
1.0
148
0.0
149
0.0
100
AcDbLayout
  1
Layout1
 70
     1
 71
     1
 10
0.0
 20
0.0
 11
420.0
 21
297.0
 12
0.0
 22
0.0
 32
0.0
 14
1.000000000000000E+20
 24
1.000000000000000E+20
 34
1.000000000000000E+20
 15
-1.000000000000000E+20
 25
-1.000000000000000E+20
 35
-1.000000000000000E+20
146
0.0
 13
0.0
 23
0.0
 33
0.0
 16
1.0
 26
0.0
 36
0.0
 17
0.0
 27
1.0
 37
0.0
 76
     0
330
1B
  0
LAYOUT
  5
26
102
{ACAD_XDICTIONARY
360
13ED
102
}
102
{ACAD_REACTORS
330
1A
102
}
330
1A
100
AcDbPlotSettings
  1

  2
Ploter HP500
  4

  6

 40
0.0
 41
0.0
 42
0.0
 43
0.0
 44
0.0
 45
0.0
 46
0.0
 47
0.0
 48
0.0
 49
0.0
140
0.0
141
0.0
142
1.0
143
1.0
 70
   688
 72
     0
 73
     0
 74
     5
  7
monochrome.ctb
 75
    16
147
1.0
148
0.0
149
0.0
100
AcDbLayout
  1
Layout2
 70
     1
 71
     2
 10
0.0
 20
0.0
 11
12.0
 21
9.0
 12
0.0
 22
0.0
 32
0.0
 14
0.0
 24
0.0
 34
0.0
 15
0.0
 25
0.0
 35
0.0
146
0.0
 13
0.0
 23
0.0
 33
0.0
 16
1.0
 26
0.0
 36
0.0
 17
0.0
 27
1.0
 37
0.0
 76
     0
330
23
  0
LAYOUT
  5
22
102
{ACAD_XDICTIONARY
360
13EB
102
}
102
{ACAD_REACTORS
330
1A
102
}
330
1A
100
AcDbPlotSettings
  1

  2
Ploter HP500
  4
User268
  6

 40
4.995333194732666
 41
16.97565841674804
 42
4.995330810546875
 43
16.97567749023437
 44
209.9733276367187
 45
296.9259948730469
 46
0.0
 47
0.0
 48
0.0
 49
0.0
140
0.0
141
0.0
142
1.0
143
1.0
 70
 11952
 72
     1
 73
     1
 74
     0
  7

 75
     0
147
1.0
148
-427.5957866592534
149
7.362384574453926
100
AcDbLayout
  1
Model
 70
     1
 71
     0
 10
0.0
 20
0.0
 11
12.0
 21
9.0
 12
0.0
 22
0.0
 32
0.0
 14
0.0
 24
0.0
 34
0.0
 15
0.0
 25
0.0
 35
0.0
146
0.0
 13
0.0
 23
0.0
 33
0.0
 16
1.0
 26
0.0
 36
0.0
 17
0.0
 27
1.0
 37
0.0
 76
     0
330
1F
331
12EF
  0
MATERIAL
  5
12FA
102
{ACAD_XDICTIONARY
360
12FB
102
}
102
{ACAD_REACTORS
330
12F1
102
}
330
12F1
100
AcDbMaterial
  1
ByBlock
 72
     0
 43
0.0008202099737533
 43
0.0
 43
0.0
 43
0.0
 43
0.0
 43
0.0008202099737533
 43
0.0
 43
0.0
 43
0.0
 43
0.0
 43
1.0
 43
0.0
 43
0.0
 43
0.0
 43
0.0
 43
1.0
 77
     0
 47
0.0008202099737533
 47
0.0
 47
0.0
 47
0.0
 47
0.0
 47
0.0008202099737533
 47
0.0
 47
0.0
 47
0.0
 47
0.0
 47
1.0
 47
0.0
 47
0.0
 47
0.0
 47
0.0
 47
1.0
171
     0
 49
0.0008202099737533
 49
0.0
 49
0.0
 49
0.0
 49
0.0
 49
0.0008202099737533
 49
0.0
 49
0.0
 49
0.0
 49
0.0
 49
1.0
 49
0.0
 49
0.0
 49
0.0
 49
0.0
 49
1.0
175
     0
142
0.0008202099737533
142
0.0
142
0.0
142
0.0
142
0.0
142
0.0008202099737533
142
0.0
142
0.0
142
0.0
142
0.0
142
1.0
142
0.0
142
0.0
142
0.0
142
0.0
142
1.0
179
     0
144
0.0008202099737533
144
0.0
144
0.0
144
0.0
144
0.0
144
0.0008202099737533
144
0.0
144
0.0
144
0.0
144
0.0
144
1.0
144
0.0
144
0.0
144
0.0
144
0.0
144
1.0
147
0.0008202099737533
147
0.0
147
0.0
147
0.0
147
0.0
147
0.0008202099737533
147
0.0
147
0.0
147
0.0
147
0.0
147
1.0
147
0.0
147
0.0
147
0.0
147
0.0
147
1.0
  0
MATERIAL
  5
12F2
102
{ACAD_XDICTIONARY
360
12F3
102
}
102
{ACAD_REACTORS
330
12F1
102
}
330
12F1
100
AcDbMaterial
  1
ByLayer
 72
     0
 43
0.0008202099737533
 43
0.0
 43
0.0
 43
0.0
 43
0.0
 43
0.0008202099737533
 43
0.0
 43
0.0
 43
0.0
 43
0.0
 43
1.0
 43
0.0
 43
0.0
 43
0.0
 43
0.0
 43
1.0
 77
     0
 47
0.0008202099737533
 47
0.0
 47
0.0
 47
0.0
 47
0.0
 47
0.0008202099737533
 47
0.0
 47
0.0
 47
0.0
 47
0.0
 47
1.0
 47
0.0
 47
0.0
 47
0.0
 47
0.0
 47
1.0
171
     0
 49
0.0008202099737533
 49
0.0
 49
0.0
 49
0.0
 49
0.0
 49
0.0008202099737533
 49
0.0
 49
0.0
 49
0.0
 49
0.0
 49
1.0
 49
0.0
 49
0.0
 49
0.0
 49
0.0
 49
1.0
175
     0
142
0.0008202099737533
142
0.0
142
0.0
142
0.0
142
0.0
142
0.0008202099737533
142
0.0
142
0.0
142
0.0
142
0.0
142
1.0
142
0.0
142
0.0
142
0.0
142
0.0
142
1.0
179
     0
144
0.0008202099737533
144
0.0
144
0.0
144
0.0
144
0.0
144
0.0008202099737533
144
0.0
144
0.0
144
0.0
144
0.0
144
1.0
144
0.0
144
0.0
144
0.0
144
0.0
144
1.0
147
0.0008202099737533
147
0.0
147
0.0
147
0.0
147
0.0
147
0.0008202099737533
147
0.0
147
0.0
147
0.0
147
0.0
147
1.0
147
0.0
147
0.0
147
0.0
147
0.0
147
1.0
  0
MATERIAL
  5
1302
102
{ACAD_XDICTIONARY
360
1303
102
}
102
{ACAD_REACTORS
330
12F1
102
}
330
12F1
100
AcDbMaterial
  1
Global
 72
     0
 43
0.0008202099737533
 43
0.0
 43
0.0
 43
0.0
 43
0.0
 43
0.0008202099737533
 43
0.0
 43
0.0
 43
0.0
 43
0.0
 43
1.0
 43
0.0
 43
0.0
 43
0.0
 43
0.0
 43
1.0
 77
     0
 47
0.0008202099737533
 47
0.0
 47
0.0
 47
0.0
 47
0.0
 47
0.0008202099737533
 47
0.0
 47
0.0
 47
0.0
 47
0.0
 47
1.0
 47
0.0
 47
0.0
 47
0.0
 47
0.0
 47
1.0
171
     0
 49
0.0008202099737533
 49
0.0
 49
0.0
 49
0.0
 49
0.0
 49
0.0008202099737533
 49
0.0
 49
0.0
 49
0.0
 49
0.0
 49
1.0
 49
0.0
 49
0.0
 49
0.0
 49
0.0
 49
1.0
175
     0
142
0.0008202099737533
142
0.0
142
0.0
142
0.0
142
0.0
142
0.0008202099737533
142
0.0
142
0.0
142
0.0
142
0.0
142
1.0
142
0.0
142
0.0
142
0.0
142
0.0
142
1.0
179
     0
144
0.0008202099737533
144
0.0
144
0.0
144
0.0
144
0.0
144
0.0008202099737533
144
0.0
144
0.0
144
0.0
144
0.0
144
1.0
144
0.0
144
0.0
144
0.0
144
0.0
144
1.0
147
0.0008202099737533
147
0.0
147
0.0
147
0.0
147
0.0
147
0.0008202099737533
147
0.0
147
0.0
147
0.0
147
0.0
147
1.0
147
0.0
147
0.0
147
0.0
147
0.0
147
1.0
  0
MLEADERSTYLE
  5
1334
102
{ACAD_REACTORS
330
1333
102
}
330
1333
100
AcDbMLeaderStyle
170
     2
171
     1
172
     0
 90
        2
 40
0.0
 41
0.0
173
     1
 91
-1056964608
340
14
 92
       -2
290
     1
 42
2.0
291
     1
 43
0.36
  3
Standard
 44
4.0
300

342
11
174
     1
178
     6
175
     1
176
     0
 93
-1056964608
 45
4.0
292
     0
297
     0
 46
4.0
 94
-1056964608
 47
1.0
 49
1.0
140
1.0
293
     1
141
0.0
294
     1
177
     0
142
1.0
295
     0
296
     0
143
0.125
1001
ACAD_MLEADERVER
1070
     2
  0
MLINESTYLE
  5
18
102
{ACAD_REACTORS
330
17
102
}
330
17
100
AcDbMlineStyle
  2
STANDARD
 70
     0
  3

 62
   256
 51
90.0
 52
90.0
 71
     2
 49
0.5
 62
   256
  6
BYLAYER
 49
-0.5
 62
   256
  6
BYLAYER
  0
ACDBPLACEHOLDER
  5
F
102
{ACAD_REACTORS
330
E
102
}
330
E
  0
SCALE
  5
1322
102
{ACAD_REACTORS
330
1321
102
}
330
1321
100
AcDbScale
 70
     0
300
1:1
140
1.0
141
1.0
290
     1
  0
SCALE
  5
1323
102
{ACAD_REACTORS
330
1321
102
}
330
1321
100
AcDbScale
 70
     0
300
1:2
140
1.0
141
2.0
290
     0
  0
SCALE
  5
1324
102
{ACAD_REACTORS
330
1321
102
}
330
1321
100
AcDbScale
 70
     0
300
1:4
140
1.0
141
4.0
290
     0
  0
SCALE
  5
1325
102
{ACAD_REACTORS
330
1321
102
}
330
1321
100
AcDbScale
 70
     0
300
1:5
140
1.0
141
5.0
290
     0
  0
SCALE
  5
1326
102
{ACAD_REACTORS
330
1321
102
}
330
1321
100
AcDbScale
 70
     0
300
1:8
140
1.0
141
8.0
290
     0
  0
SCALE
  5
1327
102
{ACAD_REACTORS
330
1321
102
}
330
1321
100
AcDbScale
 70
     0
300
1:10
140
1.0
141
10.0
290
     0
  0
SCALE
  5
1328
102
{ACAD_REACTORS
330
1321
102
}
330
1321
100
AcDbScale
 70
     0
300
1:16
140
1.0
141
16.0
290
     0
  0
SCALE
  5
1329
102
{ACAD_REACTORS
330
1321
102
}
330
1321
100
AcDbScale
 70
     0
300
1:20
140
1.0
141
20.0
290
     0
  0
SCALE
  5
132A
102
{ACAD_REACTORS
330
1321
102
}
330
1321
100
AcDbScale
 70
     0
300
1:30
140
1.0
141
30.0
290
     0
  0
SCALE
  5
132B
102
{ACAD_REACTORS
330
1321
102
}
330
1321
100
AcDbScale
 70
     0
300
1:40
140
1.0
141
40.0
290
     0
  0
SCALE
  5
132C
102
{ACAD_REACTORS
330
1321
102
}
330
1321
100
AcDbScale
 70
     0
300
1:50
140
1.0
141
50.0
290
     0
  0
SCALE
  5
132D
102
{ACAD_REACTORS
330
1321
102
}
330
1321
100
AcDbScale
 70
     0
300
1:100
140
1.0
141
100.0
290
     0
  0
SCALE
  5
132E
102
{ACAD_REACTORS
330
1321
102
}
330
1321
100
AcDbScale
 70
     0
300
2:1
140
2.0
141
1.0
290
     0
  0
SCALE
  5
132F
102
{ACAD_REACTORS
330
1321
102
}
330
1321
100
AcDbScale
 70
     0
300
4:1
140
4.0
141
1.0
290
     0
  0
SCALE
  5
1330
102
{ACAD_REACTORS
330
1321
102
}
330
1321
100
AcDbScale
 70
     0
300
8:1
140
8.0
141
1.0
290
     0
  0
SCALE
  5
1331
102
{ACAD_REACTORS
330
1321
102
}
330
1321
100
AcDbScale
 70
     0
300
10:1
140
10.0
141
1.0
290
     0
  0
SCALE
  5
1332
102
{ACAD_REACTORS
330
1321
102
}
330
1321
100
AcDbScale
 70
     0
300
100:1
140
100.0
141
1.0
290
     0
  0
TABLESTYLE
  5
1320
102
{ACAD_XDICTIONARY
360
13E5
102
}
102
{ACAD_REACTORS
330
131F
102
}
330
131F
100
AcDbTableStyle
  3
Standard
 70
     0
 71
     0
 40
1.5
 41
1.5
280
     0
281
     0
  7
Standard
140
4.5
170
     2
 62
     0
 63
     7
283
     0
274
    -2
284
     1
 64
     0
275
    -2
285
     1
 65
     0
276
    -2
286
     1
 66
     0
277
    -2
287
     1
 67
     0
278
    -2
288
     1
 68
     0
279
    -2
289
     1
 69
     0
  7
Standard
140
6.0
170
     5
 62
     0
 63
     7
283
     0
274
    -2
284
     1
 64
     0
275
    -2
285
     1
 65
     0
276
    -2
286
     1
 66
     0
277
    -2
287
     1
 67
     0
278
    -2
288
     1
 68
     0
279
    -2
289
     1
 69
     0
  7
Standard
140
4.5
170
     5
 62
     0
 63
     7
283
     0
274
    -2
284
     1
 64
     0
275
    -2
285
     1
 65
     0
276
    -2
286
     1
 66
     0
277
    -2
287
     1
 67
     0
278
    -2
288
     1
 68
     0
279
    -2
289
     1
 69
     0
  0
VISUALSTYLE
  5
1310
102
{ACAD_XDICTIONARY
360
13FE
102
}
102
{ACAD_REACTORS
330
130A
102
}
330
130A
100
AcDbVisualStyle
  2
2dWireframe
 70
     4
 71
     0
 72
     2
 73
     0
 90
        0
 40
-0.6
 41
-30.0
 62
     5
 63
     7
 74
     1
 91
        4
 64
     7
 65
   257
 75
     1
175
     1
 42
1.0
 92
        0
 66
   257
 43
1.0
 76
     1
 77
     6
 78
     2
 67
     7
 79
     5
170
     0
171
     0
290
     0
174
     0
 93
        1
 44
0.0
173
     0
291
     0
 45
0.0
1001
ACAD
1000
AcDbSavedByObjectVersion
1070
     0
  0
VISUALSTYLE
  5
1312
102
{ACAD_XDICTIONARY
360
1402
102
}
102
{ACAD_REACTORS
330
130A
102
}
330
130A
100
AcDbVisualStyle
  2
3D Hidden
 70
     6
 71
     1
 72
     2
 73
     2
 90
        0
 40
-0.6
 41
-30.0
 62
     5
 63
     7
 74
     2
 91
        2
 64
     7
 65
   257
 75
     2
175
     1
 42
179.0
 92
        0
 66
   257
 43
1.0
 76
     1
 77
     6
 78
     2
 67
     7
 79
     3
170
     0
171
     0
290
     0
174
     0
 93
        1
 44
0.0
173
     0
291
     0
 45
0.0
1001
ACAD
1000
AcDbSavedByObjectVersion
1070
     0
  0
VISUALSTYLE
  5
1311
102
{ACAD_XDICTIONARY
360
1400
102
}
102
{ACAD_REACTORS
330
130A
102
}
330
130A
100
AcDbVisualStyle
  2
3dWireframe
 70
     5
 71
     0
 72
     2
 73
     0
 90
        0
 40
-0.6
 41
-30.0
 62
     5
 63
     7
 74
     1
 91
        4
 64
     7
 65
   257
 75
     1
175
     1
 42
1.0
 92
        0
 66
   257
 43
1.0
 76
     1
 77
     6
 78
     2
 67
     7
 79
     5
170
     0
171
     0
290
     0
174
     0
 93
        1
 44
0.0
173
     0
291
     0
 45
0.0
1001
ACAD
1000
AcDbSavedByObjectVersion
1070
     0
  0
VISUALSTYLE
  5
130F
102
{ACAD_XDICTIONARY
360
13FC
102
}
102
{ACAD_REACTORS
330
130A
102
}
330
130A
100
AcDbVisualStyle
  2
Basic
 70
     7
 71
     1
 72
     0
 73
     1
 90
        0
 40
-0.6
 41
-30.0
 62
     5
 63
     7
 74
     0
 91
        4
 64
     7
 65
   257
 75
     1
175
     1
 42
1.0
 92
        8
 66
     7
 43
1.0
 76
     1
 77
     6
 78
     2
 67
     7
 79
     5
170
     0
171
     0
290
     0
174
     0
 93
        1
 44
0.0
173
     0
291
     1
 45
0.0
1001
ACAD
1000
AcDbSavedByObjectVersion
1070
     0
  0
VISUALSTYLE
  5
1316
102
{ACAD_XDICTIONARY
360
140A
102
}
102
{ACAD_REACTORS
330
130A
102
}
330
130A
100
AcDbVisualStyle
  2
Brighten
 70
    12
 71
     2
 72
     2
 73
     0
 90
        0
 40
-0.6
 41
-30.0
 62
     5
 63
     7
 74
     1
 91
        4
 64
     7
 65
   257
 75
     1
175
     1
 42
1.0
 92
        8
 66
     7
 43
1.0
 76
     1
 77
     6
 78
     2
 67
     7
 79
     5
170
     0
171
     0
290
     0
174
     0
 93
        1
 44
50.0
173
     0
291
     1
 45
0.0
1001
ACAD
1000
AcDbSavedByObjectVersion
1070
     0
  0
VISUALSTYLE
  5
131A
102
{ACAD_XDICTIONARY
360
1412
102
}
102
{ACAD_REACTORS
330
130A
102
}
330
130A
100
AcDbVisualStyle
  2
ColorChange
 70
    16
 71
     2
 72
     2
 73
     3
 90
        0
 40
-0.6
 41
-30.0
 62
     5
 63
     8
 74
     1
 91
        4
 64
     7
 65
   257
 75
     1
175
     1
 42
1.0
 92
        8
 66
     8
 43
1.0
 76
     1
 77
     6
 78
     2
 67
     7
 79
     5
170
     0
171
     0
290
     0
174
     0
 93
        1
 44
0.0
173
     0
291
     1
 45
0.0
1001
ACAD
1000
AcDbSavedByObjectVersion
1070
     0
  0
VISUALSTYLE
  5
1313
102
{ACAD_XDICTIONARY
360
1404
102
}
102
{ACAD_REACTORS
330
130A
102
}
330
130A
100
AcDbVisualStyle
  2
Conceptual
 70
     9
 71
     3
 72
     2
 73
     0
 90
        0
 40
-0.6
 41
-30.0
 62
     5
 63
     7
 74
     2
 91
        2
 64
     7
 65
   257
 75
     1
175
     1
 42
179.0
 92
        8
 66
     7
 43
1.0
 76
     1
 77
     6
 78
     2
 67
     7
 79
     3
170
     0
171
     0
290
     0
174
     0
 93
        1
 44
0.0
173
     0
291
     0
 45
0.0
1001
ACAD
1000
AcDbSavedByObjectVersion
1070
     0
  0
VISUALSTYLE
  5
1315
102
{ACAD_XDICTIONARY
360
1408
102
}
102
{ACAD_REACTORS
330
130A
102
}
330
130A
100
AcDbVisualStyle
  2
Dim
 70
    11
 71
     2
 72
     2
 73
     0
 90
        0
 40
-0.6
 41
-30.0
 62
     5
 63
     7
 74
     1
 91
        4
 64
     7
 65
   257
 75
     1
175
     1
 42
1.0
 92
        8
 66
     7
 43
1.0
 76
     1
 77
     6
 78
     2
 67
     7
 79
     5
170
     0
171
     0
290
     0
174
     0
 93
        1
 44
-50.0
173
     0
291
     1
 45
0.0
1001
ACAD
1000
AcDbSavedByObjectVersion
1070
     0
  0
VISUALSTYLE
  5
131D
102
{ACAD_XDICTIONARY
360
1418
102
}
102
{ACAD_REACTORS
330
130A
102
}
330
130A
100
AcDbVisualStyle
  2
EdgeColorOff
 70
    22
 71
     2
 72
     2
 73
     0
 90
        0
 40
-0.6
 41
-30.0
 62
     5
 63
     7
 74
     1
 91
        4
 64
     7
 65
   257
 75
     1
175
     1
 42
1.0
 92
        8
 66
     7
 43
1.0
 76
     1
 77
     6
 78
     2
 67
     7
 79
     5
170
     0
171
     0
290
     0
174
     0
 93
        1
 44
0.0
173
     0
291
     1
 45
0.0
1001
ACAD
1000
AcDbSavedByObjectVersion
1070
     0
  0
VISUALSTYLE
  5
1319
102
{ACAD_XDICTIONARY
360
1410
102
}
102
{ACAD_REACTORS
330
130A
102
}
330
130A
100
AcDbVisualStyle
  2
Facepattern
 70
    15
 71
     2
 72
     2
 73
     0
 90
        0
 40
-0.6
 41
-30.0
 62
     5
 63
     7
 74
     1
 91
        4
 64
     7
 65
   257
 75
     1
175
     1
 42
1.0
 92
        8
 66
     7
 43
1.0
 76
     1
 77
     6
 78
     2
 67
     7
 79
     5
170
     0
171
     0
290
     0
174
     0
 93
        1
 44
0.0
173
     0
291
     1
 45
0.0
1001
ACAD
1000
AcDbSavedByObjectVersion
1070
     0
  0
VISUALSTYLE
  5
130B
102
{ACAD_XDICTIONARY
360
13F4
102
}
102
{ACAD_REACTORS
330
130A
102
}
330
130A
100
AcDbVisualStyle
  2
Flat
 70
     0
 71
     2
 72
     1
 73
     1
 90
        2
 40
-0.6
 41
30.0
 62
     5
 63
     7
 74
     0
 91
        4
 64
     7
 65
   257
 75
     1
175
     1
 42
1.0
 92
        8
 66
     7
 43
1.0
 76
     1
 77
     6
 78
     2
 67
     7
 79
     5
170
     0
171
     0
290
     0
174
     0
 93
       13
 44
0.0
173
     0
291
     1
 45
0.0
1001
ACAD
1000
AcDbSavedByObjectVersion
1070
     0
  0
VISUALSTYLE
  5
130C
102
{ACAD_XDICTIONARY
360
13F6
102
}
102
{ACAD_REACTORS
330
130A
102
}
330
130A
100
AcDbVisualStyle
  2
FlatWithEdges
 70
     1
 71
     2
 72
     1
 73
     1
 90
        2
 40
-0.6
 41
30.0
 62
     5
 63
     7
 74
     1
 91
        4
 64
     7
 65
   257
 75
     1
175
     1
 42
1.0
 92
        0
 66
   257
 43
1.0
 76
     1
 77
     6
 78
     2
 67
     7
 79
     5
170
     0
171
     0
290
     0
174
     0
 93
       13
 44
0.0
173
     0
291
     1
 45
0.0
1001
ACAD
1000
AcDbSavedByObjectVersion
1070
     0
  0
VISUALSTYLE
  5
130D
102
{ACAD_XDICTIONARY
360
13F8
102
}
102
{ACAD_REACTORS
330
130A
102
}
330
130A
100
AcDbVisualStyle
  2
Gouraud
 70
     2
 71
     2
 72
     2
 73
     1
 90
        2
 40
-0.6
 41
30.0
 62
     5
 63
     7
 74
     0
 91
        4
 64
     7
 65
   257
 75
     1
175
     1
 42
1.0
 92
        0
 66
     7
 43
1.0
 76
     1
 77
     6
 78
     2
 67
     7
 79
     5
170
     0
171
     0
290
     0
174
     0
 93
       13
 44
0.0
173
     0
291
     1
 45
0.0
1001
ACAD
1000
AcDbSavedByObjectVersion
1070
     0
  0
VISUALSTYLE
  5
130E
102
{ACAD_XDICTIONARY
360
13FA
102
}
102
{ACAD_REACTORS
330
130A
102
}
330
130A
100
AcDbVisualStyle
  2
GouraudWithEdges
 70
     3
 71
     2
 72
     2
 73
     1
 90
        2
 40
-0.6
 41
30.0
 62
     5
 63
     7
 74
     1
 91
        4
 64
     7
 65
   257
 75
     1
175
     1
 42
1.0
 92
        0
 66
   257
 43
1.0
 76
     1
 77
     6
 78
     2
 67
     7
 79
     5
170
     0
171
     0
290
     0
174
     0
 93
       13
 44
0.0
173
     0
291
     1
 45
0.0
1001
ACAD
1000
AcDbSavedByObjectVersion
1070
     0
  0
VISUALSTYLE
  5
131B
102
{ACAD_XDICTIONARY
360
1414
102
}
102
{ACAD_REACTORS
330
130A
102
}
330
130A
100
AcDbVisualStyle
  2
JitterOff
 70
    20
 71
     2
 72
     2
 73
     0
 90
        0
 40
-0.6
 41
-30.0
 62
     5
 63
     7
 74
     1
 91
        4
 64
     7
 65
   257
 75
     1
175
     1
 42
1.0
 92
       10
 66
     7
 43
1.0
 76
     1
 77
     6
 78
     2
 67
     7
 79
     5
170
     0
171
     0
290
     0
174
     0
 93
        1
 44
0.0
173
     0
291
     1
 45
0.0
1001
ACAD
1000
AcDbSavedByObjectVersion
1070
     0
  0
VISUALSTYLE
  5
1318
102
{ACAD_XDICTIONARY
360
140E
102
}
102
{ACAD_REACTORS
330
130A
102
}
330
130A
100
AcDbVisualStyle
  2
Linepattern
 70
    14
 71
     2
 72
     2
 73
     0
 90
        0
 40
-0.6
 41
-30.0
 62
     5
 63
     7
 74
     1
 91
        4
 64
     7
 65
   257
 75
     7
175
     7
 42
1.0
 92
        8
 66
     7
 43
1.0
 76
     1
 77
     6
 78
     2
 67
     7
 79
     5
170
     0
171
     0
290
     0
174
     0
 93
        1
 44
0.0
173
     0
291
     1
 45
0.0
1001
ACAD
1000
AcDbSavedByObjectVersion
1070
     0
  0
VISUALSTYLE
  5
131C
102
{ACAD_XDICTIONARY
360
1416
102
}
102
{ACAD_REACTORS
330
130A
102
}
330
130A
100
AcDbVisualStyle
  2
OverhangOff
 70
    21
 71
     2
 72
     2
 73
     0
 90
        0
 40
-0.6
 41
-30.0
 62
     5
 63
     7
 74
     1
 91
        4
 64
     7
 65
   257
 75
     1
175
     1
 42
1.0
 92
        9
 66
     7
 43
1.0
 76
     1
 77
     6
 78
     2
 67
     7
 79
     5
170
     0
171
     0
290
     0
174
     0
 93
        1
 44
0.0
173
     0
291
     1
 45
0.0
1001
ACAD
1000
AcDbSavedByObjectVersion
1070
     0
  0
VISUALSTYLE
  5
1314
102
{ACAD_XDICTIONARY
360
1406
102
}
102
{ACAD_REACTORS
330
130A
102
}
330
130A
100
AcDbVisualStyle
  2
Realistic
 70
     8
 71
     2
 72
     2
 73
     0
 90
        0
 40
-0.6
 41
-30.0
 62
     5
 63
     7
 74
     1
 91
        0
 64
     7
 65
   257
 75
     1
175
     1
 42
1.0
 92
        8
 66
     8
 43
1.0
 76
     1
 77
     6
 78
     2
 67
     7
 79
     5
170
     0
171
     0
290
     0
174
     0
 93
       13
 44
0.0
173
     0
291
     0
 45
0.0
1001
ACAD
1000
AcDbSavedByObjectVersion
1070
     0
  0
VISUALSTYLE
  5
1317
102
{ACAD_XDICTIONARY
360
140C
102
}
102
{ACAD_REACTORS
330
130A
102
}
330
130A
100
AcDbVisualStyle
  2
Thicken
 70
    13
 71
     2
 72
     2
 73
     0
 90
        0
 40
-0.6
 41
-30.0
 62
     5
 63
     7
 74
     1
 91
        4
 64
     7
 65
   257
 75
     1
175
     1
 42
1.0
 92
       12
 66
     7
 43
1.0
 76
     1
 77
     6
 78
     2
 67
     7
 79
     5
170
     0
171
     0
290
     0
174
     0
 93
        1
 44
0.0
173
     0
291
     1
 45
0.0
1001
ACAD
1000
AcDbSavedByObjectVersion
1070
     0
  0
DICTIONARYVAR
  5
13E1
102
{ACAD_REACTORS
330
3D
102
}
330
3D
100
DictionaryVariables
280
     0
  1
1:1
  0
DICTIONARYVAR
  5
13E0
102
{ACAD_REACTORS
330
3D
102
}
330
3D
100
DictionaryVariables
280
     0
  1
STANDARD
  0
DICTIONARYVAR
  5
13DF
102
{ACAD_REACTORS
330
3D
102
}
330
3D
100
DictionaryVariables
280
     0
  1
STANDARD
  0
DICTIONARYVAR
  5
3F
102
{ACAD_REACTORS
330
3D
102
}
330
3D
100
DictionaryVariables
280
     0
  1
2
  0
DICTIONARYVAR
  5
3E
102
{ACAD_REACTORS
330
3D
102
}
330
3D
100
DictionaryVariables
280
     0
  1
1
  0
DICTIONARYVAR
  5
13E3
102
{ACAD_REACTORS
330
3D
102
}
330
3D
100
DictionaryVariables
280
     0
  1
0
  0
DICTIONARYVAR
  5
13E2
102
{ACAD_REACTORS
330
3D
102
}
330
3D
100
DictionaryVariables
280
     0
  1
127
  0
DICTIONARYVAR
  5
13E4
102
{ACAD_REACTORS
330
3D
102
}
330
3D
100
DictionaryVariables
280
     0
  1
2
  0
XRECORD
  5
12ED
102
{ACAD_REACTORS
330
12EC
102
}
330
12EC
100
AcDbXrecord
280
     1
330
1040
330
E77
  0
DICTIONARY
  5
13E9
330
1E
100
AcDbDictionary
280
     1
281
     1
  3
ACAD_XREC_ROUNDTRIP
360
13EA
  0
DICTIONARY
  5
13ED
330
26
100
AcDbDictionary
280
     1
281
     1
  3
ACAD_XREC_ROUNDTRIP
360
13EE
  0
DICTIONARY
  5
13EB
330
22
100
AcDbDictionary
280
     1
281
     1
  3
ACAD_XREC_ROUNDTRIP
360
13EC
  0
DICTIONARY
  5
12FB
330
12FA
100
AcDbDictionary
280
     1
281
     1
  3
ACAD_XREC_ROUNDTRIP
360
13F2
  3
BUMPTILE
360
12FD
  3
DIFFUSETILE
360
12FC
  3
OPACITYTILE
360
1300
  3
REFLECTIONTILE
360
12FF
  3
REFRACTIONTILE
360
1301
  3
SPECULARTILE
360
12FE
  0
DICTIONARY
  5
12F3
330
12F2
100
AcDbDictionary
280
     1
281
     1
  3
ACAD_XREC_ROUNDTRIP
360
13F1
  3
BUMPTILE
360
12F5
  3
DIFFUSETILE
360
12F4
  3
OPACITYTILE
360
12F8
  3
REFLECTIONTILE
360
12F7
  3
REFRACTIONTILE
360
12F9
  3
SPECULARTILE
360
12F6
  0
DICTIONARY
  5
1303
330
1302
100
AcDbDictionary
280
     1
281
     1
  3
ACAD_XREC_ROUNDTRIP
360
13F3
  3
BUMPTILE
360
1305
  3
DIFFUSETILE
360
1304
  3
OPACITYTILE
360
1308
  3
REFLECTIONTILE
360
1307
  3
REFRACTIONTILE
360
1309
  3
SPECULARTILE
360
1306
  0
DICTIONARY
  5
13E5
330
1320
100
AcDbDictionary
280
     1
281
     1
  3
ACAD_ROUNDTRIP_2008_TABLESTYLE_CELLSTYLEMAP
360
13E6
  3
ACAD_XREC_ROUNDTRIP
360
141A
  0
DICTIONARY
  5
13FE
330
1310
100
AcDbDictionary
280
     1
281
     1
  3
ACAD_XREC_ROUNDTRIP
360
13FF
  0
DICTIONARY
  5
1402
330
1312
100
AcDbDictionary
280
     1
281
     1
  3
ACAD_XREC_ROUNDTRIP
360
1403
  0
DICTIONARY
  5
1400
330
1311
100
AcDbDictionary
280
     1
281
     1
  3
ACAD_XREC_ROUNDTRIP
360
1401
  0
DICTIONARY
  5
13FC
330
130F
100
AcDbDictionary
280
     1
281
     1
  3
ACAD_XREC_ROUNDTRIP
360
13FD
  0
DICTIONARY
  5
140A
330
1316
100
AcDbDictionary
280
     1
281
     1
  3
ACAD_XREC_ROUNDTRIP
360
140B
  0
DICTIONARY
  5
1412
330
131A
100
AcDbDictionary
280
     1
281
     1
  3
ACAD_XREC_ROUNDTRIP
360
1413
  0
DICTIONARY
  5
1404
330
1313
100
AcDbDictionary
280
     1
281
     1
  3
ACAD_XREC_ROUNDTRIP
360
1405
  0
DICTIONARY
  5
1408
330
1315
100
AcDbDictionary
280
     1
281
     1
  3
ACAD_XREC_ROUNDTRIP
360
1409
  0
DICTIONARY
  5
1418
330
131D
100
AcDbDictionary
280
     1
281
     1
  3
ACAD_XREC_ROUNDTRIP
360
1419
  0
DICTIONARY
  5
1410
330
1319
100
AcDbDictionary
280
     1
281
     1
  3
ACAD_XREC_ROUNDTRIP
360
1411
  0
DICTIONARY
  5
13F4
330
130B
100
AcDbDictionary
280
     1
281
     1
  3
ACAD_XREC_ROUNDTRIP
360
13F5
  0
DICTIONARY
  5
13F6
330
130C
100
AcDbDictionary
280
     1
281
     1
  3
ACAD_XREC_ROUNDTRIP
360
13F7
  0
DICTIONARY
  5
13F8
330
130D
100
AcDbDictionary
280
     1
281
     1
  3
ACAD_XREC_ROUNDTRIP
360
13F9
  0
DICTIONARY
  5
13FA
330
130E
100
AcDbDictionary
280
     1
281
     1
  3
ACAD_XREC_ROUNDTRIP
360
13FB
  0
DICTIONARY
  5
1414
330
131B
100
AcDbDictionary
280
     1
281
     1
  3
ACAD_XREC_ROUNDTRIP
360
1415
  0
DICTIONARY
  5
140E
330
1318
100
AcDbDictionary
280
     1
281
     1
  3
ACAD_XREC_ROUNDTRIP
360
140F
  0
DICTIONARY
  5
1416
330
131C
100
AcDbDictionary
280
     1
281
     1
  3
ACAD_XREC_ROUNDTRIP
360
1417
  0
DICTIONARY
  5
1406
330
1314
100
AcDbDictionary
280
     1
281
     1
  3
ACAD_XREC_ROUNDTRIP
360
1407
  0
DICTIONARY
  5
140C
330
1317
100
AcDbDictionary
280
     1
281
     1
  3
ACAD_XREC_ROUNDTRIP
360
140D
  0
XRECORD
  5
13EA
102
{ACAD_REACTORS
330
13E9
102
}
330
13E9
100
AcDbXrecord
280
     1
102
SHADEPLOT
 70
     0
102
SHADEPLOTRESLEVEL
 70
     2
102
SHADEPLOTCUSTOMDPI
 70
   300
  0
XRECORD
  5
13EE
102
{ACAD_REACTORS
330
13ED
102
}
330
13ED
100
AcDbXrecord
280
     1
102
SHADEPLOT
 70
     0
102
SHADEPLOTRESLEVEL
 70
     2
102
SHADEPLOTCUSTOMDPI
 70
   300
  0
XRECORD
  5
13EC
102
{ACAD_REACTORS
330
13EB
102
}
330
13EB
100
AcDbXrecord
280
     1
102
SHADEPLOT
 70
     0
102
SHADEPLOTRESLEVEL
 70
     2
102
SHADEPLOTCUSTOMDPI
 70
   300
  0
XRECORD
  5
13F2
102
{ACAD_REACTORS
330
12FB
102
}
330
12FB
100
AcDbXrecord
280
     1
102
MATERIAL
148
0.0
149
0.0
149
0.0
 93
        0
 94
      127
282
     0
 72
     0
 77
     0
171
     0
175
     0
179
     0
273
     0
  0
XRECORD
  5
12FD
102
{ACAD_REACTORS
330
12FB
102
}
330
12FB
100
AcDbXrecord
280
     1
270
     1
271
     1
  0
XRECORD
  5
12FC
102
{ACAD_REACTORS
330
12FB
102
}
330
12FB
100
AcDbXrecord
280
     1
270
     1
271
     1
  0
XRECORD
  5
1300
102
{ACAD_REACTORS
330
12FB
102
}
330
12FB
100
AcDbXrecord
280
     1
270
     1
271
     1
  0
XRECORD
  5
12FF
102
{ACAD_REACTORS
330
12FB
102
}
330
12FB
100
AcDbXrecord
280
     1
270
     1
271
     1
  0
XRECORD
  5
1301
102
{ACAD_REACTORS
330
12FB
102
}
330
12FB
100
AcDbXrecord
280
     1
270
     1
271
     1
  0
XRECORD
  5
12FE
102
{ACAD_REACTORS
330
12FB
102
}
330
12FB
100
AcDbXrecord
280
     1
270
     1
271
     1
  0
XRECORD
  5
13F1
102
{ACAD_REACTORS
330
12F3
102
}
330
12F3
100
AcDbXrecord
280
     1
102
MATERIAL
148
0.0
149
0.0
149
0.0
 93
        0
 94
      127
282
     0
 72
     0
 77
     0
171
     0
175
     0
179
     0
273
     0
  0
XRECORD
  5
12F5
102
{ACAD_REACTORS
330
12F3
102
}
330
12F3
100
AcDbXrecord
280
     1
270
     1
271
     1
  0
XRECORD
  5
12F4
102
{ACAD_REACTORS
330
12F3
102
}
330
12F3
100
AcDbXrecord
280
     1
270
     1
271
     1
  0
XRECORD
  5
12F8
102
{ACAD_REACTORS
330
12F3
102
}
330
12F3
100
AcDbXrecord
280
     1
270
     1
271
     1
  0
XRECORD
  5
12F7
102
{ACAD_REACTORS
330
12F3
102
}
330
12F3
100
AcDbXrecord
280
     1
270
     1
271
     1
  0
XRECORD
  5
12F9
102
{ACAD_REACTORS
330
12F3
102
}
330
12F3
100
AcDbXrecord
280
     1
270
     1
271
     1
  0
XRECORD
  5
12F6
102
{ACAD_REACTORS
330
12F3
102
}
330
12F3
100
AcDbXrecord
280
     1
270
     1
271
     1
  0
XRECORD
  5
13F3
102
{ACAD_REACTORS
330
1303
102
}
330
1303
100
AcDbXrecord
280
     1
102
MATERIAL
148
0.0
149
0.0
149
0.0
 93
        0
 94
      127
282
     0
 72
     0
 77
     0
171
     0
175
     0
179
     0
273
     0
  0
XRECORD
  5
1305
102
{ACAD_REACTORS
330
1303
102
}
330
1303
100
AcDbXrecord
280
     1
270
     1
271
     1
  0
XRECORD
  5
1304
102
{ACAD_REACTORS
330
1303
102
}
330
1303
100
AcDbXrecord
280
     1
270
     1
271
     1
  0
XRECORD
  5
1308
102
{ACAD_REACTORS
330
1303
102
}
330
1303
100
AcDbXrecord
280
     1
270
     1
271
     1
  0
XRECORD
  5
1307
102
{ACAD_REACTORS
330
1303
102
}
330
1303
100
AcDbXrecord
280
     1
270
     1
271
     1
  0
XRECORD
  5
1309
102
{ACAD_REACTORS
330
1303
102
}
330
1303
100
AcDbXrecord
280
     1
270
     1
271
     1
  0
XRECORD
  5
1306
102
{ACAD_REACTORS
330
1303
102
}
330
1303
100
AcDbXrecord
280
     1
270
     1
271
     1
  0
CELLSTYLEMAP
  5
13E6
102
{ACAD_REACTORS
330
13E5
102
}
330
13E5
100
AcDbCellStyleMap
 90
        3
300
CELLSTYLE
  1
TABLEFORMAT_BEGIN
 90
        5
170
     1
 91
        0
 92
    32768
 62
   257
 93
        1
300
CONTENTFORMAT
  1
CONTENTFORMAT_BEGIN
 90
        0
 91
        0
 92
      512
 93
        0
300

 40
0.0
140
1.0
 94
        5
 62
     0
340
11
144
6.0
309
CONTENTFORMAT_END
171
     1
301
MARGIN
  1
CELLMARGIN_BEGIN
 40
1.5
 40
1.5
 40
1.5
 40
1.5
 40
4.5
 40
4.5
309
CELLMARGIN_END
 94
        6
 95
        1
302
GRIDFORMAT
  1
GRIDFORMAT_BEGIN
 90
        0
 91
        1
 62
     0
 92
       -2
340
0
 93
        0
 40
1.125
309
GRIDFORMAT_END
 95
        2
302
GRIDFORMAT
  1
GRIDFORMAT_BEGIN
 90
        0
 91
        1
 62
     0
 92
       -2
340
0
 93
        0
 40
1.125
309
GRIDFORMAT_END
 95
        4
302
GRIDFORMAT
  1
GRIDFORMAT_BEGIN
 90
        0
 91
        1
 62
     0
 92
       -2
340
0
 93
        0
 40
1.125
309
GRIDFORMAT_END
 95
        8
302
GRIDFORMAT
  1
GRIDFORMAT_BEGIN
 90
        0
 91
        1
 62
     0
 92
       -2
340
0
 93
        0
 40
1.125
309
GRIDFORMAT_END
 95
       16
302
GRIDFORMAT
  1
GRIDFORMAT_BEGIN
 90
        0
 91
        1
 62
     0
 92
       -2
340
0
 93
        0
 40
1.125
309
GRIDFORMAT_END
 95
       32
302
GRIDFORMAT
  1
GRIDFORMAT_BEGIN
 90
        0
 91
        1
 62
     0
 92
       -2
340
0
 93
        0
 40
1.125
309
GRIDFORMAT_END
309
TABLEFORMAT_END
  1
CELLSTYLE_BEGIN
 90
        1
 91
        1
300
_TITLE
309
CELLSTYLE_END
300
CELLSTYLE
  1
TABLEFORMAT_BEGIN
 90
        5
170
     1
 91
        0
 92
        0
 62
   257
 93
        1
300
CONTENTFORMAT
  1
CONTENTFORMAT_BEGIN
 90
        0
 91
        0
 92
      512
 93
        0
300

 40
0.0
140
1.0
 94
        5
 62
     0
340
11
144
4.5
309
CONTENTFORMAT_END
171
     1
301
MARGIN
  1
CELLMARGIN_BEGIN
 40
1.5
 40
1.5
 40
1.5
 40
1.5
 40
4.5
 40
4.5
309
CELLMARGIN_END
 94
        6
 95
        1
302
GRIDFORMAT
  1
GRIDFORMAT_BEGIN
 90
        0
 91
        1
 62
     0
 92
       -2
340
0
 93
        0
 40
1.125
309
GRIDFORMAT_END
 95
        2
302
GRIDFORMAT
  1
GRIDFORMAT_BEGIN
 90
        0
 91
        1
 62
     0
 92
       -2
340
0
 93
        0
 40
1.125
309
GRIDFORMAT_END
 95
        4
302
GRIDFORMAT
  1
GRIDFORMAT_BEGIN
 90
        0
 91
        1
 62
     0
 92
       -2
340
0
 93
        0
 40
1.125
309
GRIDFORMAT_END
 95
        8
302
GRIDFORMAT
  1
GRIDFORMAT_BEGIN
 90
        0
 91
        1
 62
     0
 92
       -2
340
0
 93
        0
 40
1.125
309
GRIDFORMAT_END
 95
       16
302
GRIDFORMAT
  1
GRIDFORMAT_BEGIN
 90
        0
 91
        1
 62
     0
 92
       -2
340
0
 93
        0
 40
1.125
309
GRIDFORMAT_END
 95
       32
302
GRIDFORMAT
  1
GRIDFORMAT_BEGIN
 90
        0
 91
        1
 62
     0
 92
       -2
340
0
 93
        0
 40
1.125
309
GRIDFORMAT_END
309
TABLEFORMAT_END
  1
CELLSTYLE_BEGIN
 90
        2
 91
        1
300
_HEADER
309
CELLSTYLE_END
300
CELLSTYLE
  1
TABLEFORMAT_BEGIN
 90
        5
170
     1
 91
        0
 92
        0
 62
   257
 93
        1
300
CONTENTFORMAT
  1
CONTENTFORMAT_BEGIN
 90
        0
 91
        0
 92
      512
 93
        0
300

 40
0.0
140
1.0
 94
        2
 62
     0
340
11
144
4.5
309
CONTENTFORMAT_END
171
     1
301
MARGIN
  1
CELLMARGIN_BEGIN
 40
1.5
 40
1.5
 40
1.5
 40
1.5
 40
4.5
 40
4.5
309
CELLMARGIN_END
 94
        6
 95
        1
302
GRIDFORMAT
  1
GRIDFORMAT_BEGIN
 90
        0
 91
        1
 62
     0
 92
       -2
340
0
 93
        0
 40
1.125
309
GRIDFORMAT_END
 95
        2
302
GRIDFORMAT
  1
GRIDFORMAT_BEGIN
 90
        0
 91
        1
 62
     0
 92
       -2
340
0
 93
        0
 40
1.125
309
GRIDFORMAT_END
 95
        4
302
GRIDFORMAT
  1
GRIDFORMAT_BEGIN
 90
        0
 91
        1
 62
     0
 92
       -2
340
0
 93
        0
 40
1.125
309
GRIDFORMAT_END
 95
        8
302
GRIDFORMAT
  1
GRIDFORMAT_BEGIN
 90
        0
 91
        1
 62
     0
 92
       -2
340
0
 93
        0
 40
1.125
309
GRIDFORMAT_END
 95
       16
302
GRIDFORMAT
  1
GRIDFORMAT_BEGIN
 90
        0
 91
        1
 62
     0
 92
       -2
340
0
 93
        0
 40
1.125
309
GRIDFORMAT_END
 95
       32
302
GRIDFORMAT
  1
GRIDFORMAT_BEGIN
 90
        0
 91
        1
 62
     0
 92
       -2
340
0
 93
        0
 40
1.125
309
GRIDFORMAT_END
309
TABLEFORMAT_END
  1
CELLSTYLE_BEGIN
 90
        3
 91
        2
300
_DATA
309
CELLSTYLE_END
  0
XRECORD
  5
141A
102
{ACAD_REACTORS
330
13E5
102
}
330
13E5
100
AcDbXrecord
280
     1
102
ACAD_ROUNDTRIP_PRE2007_TABLESTYLE
 90
      512
 91
        0
  1

 92
      512
 93
        0
  2

 94
      512
 95
        0
  3

  0
XRECORD
  5
13FF
102
{ACAD_REACTORS
330
13FE
102
}
330
13FE
100
AcDbXrecord
280
     1
102
RTVSPropertyOp0
 70
     1
102
RTVSPropertyOp1
 70
     1
102
RTVSPropertyOp2
 70
     1
102
RTVSPropertyOp3
 70
     1
102
RTVSPropertyOp4
 70
     1
102
RTVSPropertyOp5
 70
     1
102
RTVSPropertyOp6
 70
     1
102
RTVSPropertyOp7
 70
     1
102
RTVSPropertyOp8
 70
     1
102
RTVSPropertyOp9
 70
     1
102
RTVSPropertyOp10
 70
     1
102
RTVSPropertyOp11
 70
     1
102
RTVSPropertyOp12
 70
     1
102
RTVSPropertyOp13
 70
     1
102
RTVSPropertyOp14
 70
     1
102
RTVSPropertyOp15
 70
     1
102
RTVSPropertyOp16
 70
     1
102
RTVSPropertyOp17
 70
     1
102
RTVSPropertyOp18
 70
     1
102
RTVSPropertyOp19
 70
     1
102
RTVSPropertyOp20
 70
     1
102
RTVSPropertyOp21
 70
     1
102
RTVSPropertyOp22
 70
     1
102
RTVSPropertyOp23
 70
     1
102
RTVSPropertyOp24
 70
     1
102
RTVSPropertyOp25
 70
     1
102
RTVSPropertyOp26
 70
     1
102
RTVSPropertyOp27
 70
     1
  0
XRECORD
  5
1403
102
{ACAD_REACTORS
330
1402
102
}
330
1402
100
AcDbXrecord
280
     1
102
RTVSPropertyOp0
 70
     1
102
RTVSPropertyOp1
 70
     1
102
RTVSPropertyOp2
 70
     1
102
RTVSPropertyOp3
 70
     1
102
RTVSPropertyOp4
 70
     1
102
RTVSPropertyOp5
 70
     1
102
RTVSPropertyOp6
 70
     1
102
RTVSPropertyOp7
 70
     1
102
RTVSPropertyOp8
 70
     1
102
RTVSPropertyOp9
 70
     1
102
RTVSPropertyOp10
 70
     1
102
RTVSPropertyOp11
 70
     1
102
RTVSPropertyOp12
 70
     1
102
RTVSPropertyOp13
 70
     1
102
RTVSPropertyOp14
 70
     1
102
RTVSPropertyOp15
 70
     1
102
RTVSPropertyOp16
 70
     1
102
RTVSPropertyOp17
 70
     1
102
RTVSPropertyOp18
 70
     1
102
RTVSPropertyOp19
 70
     1
102
RTVSPropertyOp20
 70
     1
102
RTVSPropertyOp21
 70
     1
102
RTVSPropertyOp22
 70
     1
102
RTVSPropertyOp23
 70
     1
102
RTVSPropertyOp24
 70
     1
102
RTVSPropertyOp25
 70
     1
102
RTVSPropertyOp26
 70
     1
102
RTVSPropertyOp27
 70
     1
  0
XRECORD
  5
1401
102
{ACAD_REACTORS
330
1400
102
}
330
1400
100
AcDbXrecord
280
     1
102
RTVSPropertyOp0
 70
     1
102
RTVSPropertyOp1
 70
     1
102
RTVSPropertyOp2
 70
     1
102
RTVSPropertyOp3
 70
     1
102
RTVSPropertyOp4
 70
     1
102
RTVSPropertyOp5
 70
     1
102
RTVSPropertyOp6
 70
     1
102
RTVSPropertyOp7
 70
     1
102
RTVSPropertyOp8
 70
     1
102
RTVSPropertyOp9
 70
     1
102
RTVSPropertyOp10
 70
     1
102
RTVSPropertyOp11
 70
     1
102
RTVSPropertyOp12
 70
     1
102
RTVSPropertyOp13
 70
     1
102
RTVSPropertyOp14
 70
     1
102
RTVSPropertyOp15
 70
     1
102
RTVSPropertyOp16
 70
     1
102
RTVSPropertyOp17
 70
     1
102
RTVSPropertyOp18
 70
     1
102
RTVSPropertyOp19
 70
     1
102
RTVSPropertyOp20
 70
     1
102
RTVSPropertyOp21
 70
     1
102
RTVSPropertyOp22
 70
     1
102
RTVSPropertyOp23
 70
     1
102
RTVSPropertyOp24
 70
     1
102
RTVSPropertyOp25
 70
     1
102
RTVSPropertyOp26
 70
     1
102
RTVSPropertyOp27
 70
     1
  0
XRECORD
  5
13FD
102
{ACAD_REACTORS
330
13FC
102
}
330
13FC
100
AcDbXrecord
280
     1
102
RTVSPropertyOp0
 70
     1
102
RTVSPropertyOp1
 70
     1
102
RTVSPropertyOp2
 70
     1
102
RTVSPropertyOp3
 70
     1
102
RTVSPropertyOp4
 70
     1
102
RTVSPropertyOp5
 70
     1
102
RTVSPropertyOp6
 70
     1
102
RTVSPropertyOp7
 70
     1
102
RTVSPropertyOp8
 70
     1
102
RTVSPropertyOp9
 70
     1
102
RTVSPropertyOp10
 70
     1
102
RTVSPropertyOp11
 70
     1
102
RTVSPropertyOp12
 70
     1
102
RTVSPropertyOp13
 70
     1
102
RTVSPropertyOp14
 70
     1
102
RTVSPropertyOp15
 70
     1
102
RTVSPropertyOp16
 70
     1
102
RTVSPropertyOp17
 70
     1
102
RTVSPropertyOp18
 70
     1
102
RTVSPropertyOp19
 70
     1
102
RTVSPropertyOp20
 70
     1
102
RTVSPropertyOp21
 70
     1
102
RTVSPropertyOp22
 70
     1
102
RTVSPropertyOp23
 70
     1
102
RTVSPropertyOp24
 70
     1
102
RTVSPropertyOp25
 70
     1
102
RTVSPropertyOp26
 70
     1
102
RTVSPropertyOp27
 70
     1
  0
XRECORD
  5
140B
102
{ACAD_REACTORS
330
140A
102
}
330
140A
100
AcDbXrecord
280
     1
102
RTVSPropertyOp0
 70
     1
102
RTVSPropertyOp1
 70
     1
102
RTVSPropertyOp2
 70
     1
102
RTVSPropertyOp3
 70
     1
102
RTVSPropertyOp4
 70
     1
102
RTVSPropertyOp5
 70
     1
102
RTVSPropertyOp6
 70
     1
102
RTVSPropertyOp7
 70
     1
102
RTVSPropertyOp8
 70
     1
102
RTVSPropertyOp9
 70
     1
102
RTVSPropertyOp10
 70
     1
102
RTVSPropertyOp11
 70
     1
102
RTVSPropertyOp12
 70
     1
102
RTVSPropertyOp13
 70
     1
102
RTVSPropertyOp14
 70
     1
102
RTVSPropertyOp15
 70
     1
102
RTVSPropertyOp16
 70
     1
102
RTVSPropertyOp17
 70
     1
102
RTVSPropertyOp18
 70
     1
102
RTVSPropertyOp19
 70
     1
102
RTVSPropertyOp20
 70
     1
102
RTVSPropertyOp21
 70
     1
102
RTVSPropertyOp22
 70
     1
102
RTVSPropertyOp23
 70
     1
102
RTVSPropertyOp24
 70
     1
102
RTVSPropertyOp25
 70
     1
102
RTVSPropertyOp26
 70
     1
102
RTVSPropertyOp27
 70
     1
  0
XRECORD
  5
1413
102
{ACAD_REACTORS
330
1412
102
}
330
1412
100
AcDbXrecord
280
     1
102
RTVSPropertyOp0
 70
     1
102
RTVSPropertyOp1
 70
     1
102
RTVSPropertyOp2
 70
     1
102
RTVSPropertyOp3
 70
     1
102
RTVSPropertyOp4
 70
     1
102
RTVSPropertyOp5
 70
     1
102
RTVSPropertyOp6
 70
     1
102
RTVSPropertyOp7
 70
     1
102
RTVSPropertyOp8
 70
     1
102
RTVSPropertyOp9
 70
     1
102
RTVSPropertyOp10
 70
     1
102
RTVSPropertyOp11
 70
     1
102
RTVSPropertyOp12
 70
     1
102
RTVSPropertyOp13
 70
     1
102
RTVSPropertyOp14
 70
     1
102
RTVSPropertyOp15
 70
     1
102
RTVSPropertyOp16
 70
     1
102
RTVSPropertyOp17
 70
     1
102
RTVSPropertyOp18
 70
     1
102
RTVSPropertyOp19
 70
     1
102
RTVSPropertyOp20
 70
     1
102
RTVSPropertyOp21
 70
     1
102
RTVSPropertyOp22
 70
     1
102
RTVSPropertyOp23
 70
     1
102
RTVSPropertyOp24
 70
     1
102
RTVSPropertyOp25
 70
     1
102
RTVSPropertyOp26
 70
     1
102
RTVSPropertyOp27
 70
     1
  0
XRECORD
  5
1405
102
{ACAD_REACTORS
330
1404
102
}
330
1404
100
AcDbXrecord
280
     1
102
RTVSPropertyOp0
 70
     1
102
RTVSPropertyOp1
 70
     1
102
RTVSPropertyOp2
 70
     1
102
RTVSPropertyOp3
 70
     1
102
RTVSPropertyOp4
 70
     1
102
RTVSPropertyOp5
 70
     1
102
RTVSPropertyOp6
 70
     1
102
RTVSPropertyOp7
 70
     1
102
RTVSPropertyOp8
 70
     1
102
RTVSPropertyOp9
 70
     1
102
RTVSPropertyOp10
 70
     1
102
RTVSPropertyOp11
 70
     1
102
RTVSPropertyOp12
 70
     1
102
RTVSPropertyOp13
 70
     1
102
RTVSPropertyOp14
 70
     1
102
RTVSPropertyOp15
 70
     1
102
RTVSPropertyOp16
 70
     1
102
RTVSPropertyOp17
 70
     1
102
RTVSPropertyOp18
 70
     1
102
RTVSPropertyOp19
 70
     1
102
RTVSPropertyOp20
 70
     1
102
RTVSPropertyOp21
 70
     1
102
RTVSPropertyOp22
 70
     1
102
RTVSPropertyOp23
 70
     1
102
RTVSPropertyOp24
 70
     1
102
RTVSPropertyOp25
 70
     1
102
RTVSPropertyOp26
 70
     1
102
RTVSPropertyOp27
 70
     1
  0
XRECORD
  5
1409
102
{ACAD_REACTORS
330
1408
102
}
330
1408
100
AcDbXrecord
280
     1
102
RTVSPropertyOp0
 70
     1
102
RTVSPropertyOp1
 70
     1
102
RTVSPropertyOp2
 70
     1
102
RTVSPropertyOp3
 70
     1
102
RTVSPropertyOp4
 70
     1
102
RTVSPropertyOp5
 70
     1
102
RTVSPropertyOp6
 70
     1
102
RTVSPropertyOp7
 70
     1
102
RTVSPropertyOp8
 70
     1
102
RTVSPropertyOp9
 70
     1
102
RTVSPropertyOp10
 70
     1
102
RTVSPropertyOp11
 70
     1
102
RTVSPropertyOp12
 70
     1
102
RTVSPropertyOp13
 70
     1
102
RTVSPropertyOp14
 70
     1
102
RTVSPropertyOp15
 70
     1
102
RTVSPropertyOp16
 70
     1
102
RTVSPropertyOp17
 70
     1
102
RTVSPropertyOp18
 70
     1
102
RTVSPropertyOp19
 70
     1
102
RTVSPropertyOp20
 70
     1
102
RTVSPropertyOp21
 70
     1
102
RTVSPropertyOp22
 70
     1
102
RTVSPropertyOp23
 70
     1
102
RTVSPropertyOp24
 70
     1
102
RTVSPropertyOp25
 70
     1
102
RTVSPropertyOp26
 70
     1
102
RTVSPropertyOp27
 70
     1
  0
XRECORD
  5
1419
102
{ACAD_REACTORS
330
1418
102
}
330
1418
100
AcDbXrecord
280
     1
102
RTVSPropertyOp0
 70
     0
102
RTVSPropertyOp1
 70
     0
102
RTVSPropertyOp2
 70
     0
102
RTVSPropertyOp3
 70
     0
102
RTVSPropertyOp4
 70
     0
102
RTVSPropertyOp5
 70
     0
102
RTVSPropertyOp6
 70
     0
102
RTVSPropertyOp7
 70
     0
102
RTVSPropertyOp8
 70
     0
102
RTVSPropertyOp9
 70
     0
102
RTVSPropertyOp10
 70
     0
102
RTVSPropertyOp11
 70
     0
102
RTVSPropertyOp12
 70
     0
102
RTVSPropertyOp13
 70
     0
102
RTVSPropertyOp14
 70
     2
102
RTVSPropertyOp15
 70
     0
102
RTVSPropertyOp16
 70
     0
102
RTVSPropertyOp17
 70
     0
102
RTVSPropertyOp18
 70
     0
102
RTVSPropertyOp19
 70
     0
102
RTVSPropertyOp20
 70
     0
102
RTVSPropertyOp21
 70
     0
102
RTVSPropertyOp22
 70
     0
102
RTVSPropertyOp23
 70
     0
102
RTVSPropertyOp24
 70
     0
102
RTVSPropertyOp25
 70
     0
102
RTVSPropertyOp26
 70
     0
102
RTVSPropertyOp27
 70
     0
  0
XRECORD
  5
1411
102
{ACAD_REACTORS
330
1410
102
}
330
1410
100
AcDbXrecord
280
     1
102
RTVSPropertyOp0
 70
     1
102
RTVSPropertyOp1
 70
     1
102
RTVSPropertyOp2
 70
     1
102
RTVSPropertyOp3
 70
     1
102
RTVSPropertyOp4
 70
     1
102
RTVSPropertyOp5
 70
     1
102
RTVSPropertyOp6
 70
     1
102
RTVSPropertyOp7
 70
     1
102
RTVSPropertyOp8
 70
     1
102
RTVSPropertyOp9
 70
     1
102
RTVSPropertyOp10
 70
     1
102
RTVSPropertyOp11
 70
     1
102
RTVSPropertyOp12
 70
     1
102
RTVSPropertyOp13
 70
     1
102
RTVSPropertyOp14
 70
     1
102
RTVSPropertyOp15
 70
     1
102
RTVSPropertyOp16
 70
     1
102
RTVSPropertyOp17
 70
     1
102
RTVSPropertyOp18
 70
     1
102
RTVSPropertyOp19
 70
     1
102
RTVSPropertyOp20
 70
     1
102
RTVSPropertyOp21
 70
     1
102
RTVSPropertyOp22
 70
     1
102
RTVSPropertyOp23
 70
     1
102
RTVSPropertyOp24
 70
     1
102
RTVSPropertyOp25
 70
     1
102
RTVSPropertyOp26
 70
     1
102
RTVSPropertyOp27
 70
     1
  0
XRECORD
  5
13F5
102
{ACAD_REACTORS
330
13F4
102
}
330
13F4
100
AcDbXrecord
280
     1
102
RTVSPropertyOp0
 70
     1
102
RTVSPropertyOp1
 70
     1
102
RTVSPropertyOp2
 70
     1
102
RTVSPropertyOp3
 70
     1
102
RTVSPropertyOp4
 70
     1
102
RTVSPropertyOp5
 70
     1
102
RTVSPropertyOp6
 70
     1
102
RTVSPropertyOp7
 70
     1
102
RTVSPropertyOp8
 70
     1
102
RTVSPropertyOp9
 70
     1
102
RTVSPropertyOp10
 70
     1
102
RTVSPropertyOp11
 70
     1
102
RTVSPropertyOp12
 70
     1
102
RTVSPropertyOp13
 70
     1
102
RTVSPropertyOp14
 70
     1
102
RTVSPropertyOp15
 70
     1
102
RTVSPropertyOp16
 70
     1
102
RTVSPropertyOp17
 70
     1
102
RTVSPropertyOp18
 70
     1
102
RTVSPropertyOp19
 70
     1
102
RTVSPropertyOp20
 70
     1
102
RTVSPropertyOp21
 70
     1
102
RTVSPropertyOp22
 70
     1
102
RTVSPropertyOp23
 70
     1
102
RTVSPropertyOp24
 70
     1
102
RTVSPropertyOp25
 70
     1
102
RTVSPropertyOp26
 70
     1
102
RTVSPropertyOp27
 70
     1
  0
XRECORD
  5
13F7
102
{ACAD_REACTORS
330
13F6
102
}
330
13F6
100
AcDbXrecord
280
     1
102
RTVSPropertyOp0
 70
     1
102
RTVSPropertyOp1
 70
     1
102
RTVSPropertyOp2
 70
     1
102
RTVSPropertyOp3
 70
     1
102
RTVSPropertyOp4
 70
     1
102
RTVSPropertyOp5
 70
     1
102
RTVSPropertyOp6
 70
     1
102
RTVSPropertyOp7
 70
     1
102
RTVSPropertyOp8
 70
     1
102
RTVSPropertyOp9
 70
     1
102
RTVSPropertyOp10
 70
     1
102
RTVSPropertyOp11
 70
     1
102
RTVSPropertyOp12
 70
     1
102
RTVSPropertyOp13
 70
     1
102
RTVSPropertyOp14
 70
     1
102
RTVSPropertyOp15
 70
     1
102
RTVSPropertyOp16
 70
     1
102
RTVSPropertyOp17
 70
     1
102
RTVSPropertyOp18
 70
     1
102
RTVSPropertyOp19
 70
     1
102
RTVSPropertyOp20
 70
     1
102
RTVSPropertyOp21
 70
     1
102
RTVSPropertyOp22
 70
     1
102
RTVSPropertyOp23
 70
     1
102
RTVSPropertyOp24
 70
     1
102
RTVSPropertyOp25
 70
     1
102
RTVSPropertyOp26
 70
     1
102
RTVSPropertyOp27
 70
     1
  0
XRECORD
  5
13F9
102
{ACAD_REACTORS
330
13F8
102
}
330
13F8
100
AcDbXrecord
280
     1
102
RTVSPropertyOp0
 70
     1
102
RTVSPropertyOp1
 70
     1
102
RTVSPropertyOp2
 70
     1
102
RTVSPropertyOp3
 70
     1
102
RTVSPropertyOp4
 70
     1
102
RTVSPropertyOp5
 70
     1
102
RTVSPropertyOp6
 70
     1
102
RTVSPropertyOp7
 70
     1
102
RTVSPropertyOp8
 70
     1
102
RTVSPropertyOp9
 70
     1
102
RTVSPropertyOp10
 70
     1
102
RTVSPropertyOp11
 70
     1
102
RTVSPropertyOp12
 70
     1
102
RTVSPropertyOp13
 70
     1
102
RTVSPropertyOp14
 70
     1
102
RTVSPropertyOp15
 70
     1
102
RTVSPropertyOp16
 70
     1
102
RTVSPropertyOp17
 70
     1
102
RTVSPropertyOp18
 70
     1
102
RTVSPropertyOp19
 70
     1
102
RTVSPropertyOp20
 70
     1
102
RTVSPropertyOp21
 70
     1
102
RTVSPropertyOp22
 70
     1
102
RTVSPropertyOp23
 70
     1
102
RTVSPropertyOp24
 70
     1
102
RTVSPropertyOp25
 70
     1
102
RTVSPropertyOp26
 70
     1
102
RTVSPropertyOp27
 70
     1
  0
XRECORD
  5
13FB
102
{ACAD_REACTORS
330
13FA
102
}
330
13FA
100
AcDbXrecord
280
     1
102
RTVSPropertyOp0
 70
     1
102
RTVSPropertyOp1
 70
     1
102
RTVSPropertyOp2
 70
     1
102
RTVSPropertyOp3
 70
     1
102
RTVSPropertyOp4
 70
     1
102
RTVSPropertyOp5
 70
     1
102
RTVSPropertyOp6
 70
     1
102
RTVSPropertyOp7
 70
     1
102
RTVSPropertyOp8
 70
     1
102
RTVSPropertyOp9
 70
     1
102
RTVSPropertyOp10
 70
     1
102
RTVSPropertyOp11
 70
     1
102
RTVSPropertyOp12
 70
     1
102
RTVSPropertyOp13
 70
     1
102
RTVSPropertyOp14
 70
     1
102
RTVSPropertyOp15
 70
     1
102
RTVSPropertyOp16
 70
     1
102
RTVSPropertyOp17
 70
     1
102
RTVSPropertyOp18
 70
     1
102
RTVSPropertyOp19
 70
     1
102
RTVSPropertyOp20
 70
     1
102
RTVSPropertyOp21
 70
     1
102
RTVSPropertyOp22
 70
     1
102
RTVSPropertyOp23
 70
     1
102
RTVSPropertyOp24
 70
     1
102
RTVSPropertyOp25
 70
     1
102
RTVSPropertyOp26
 70
     1
102
RTVSPropertyOp27
 70
     1
  0
XRECORD
  5
1415
102
{ACAD_REACTORS
330
1414
102
}
330
1414
100
AcDbXrecord
280
     1
102
RTVSPropertyOp0
 70
     0
102
RTVSPropertyOp1
 70
     0
102
RTVSPropertyOp2
 70
     0
102
RTVSPropertyOp3
 70
     0
102
RTVSPropertyOp4
 70
     0
102
RTVSPropertyOp5
 70
     0
102
RTVSPropertyOp6
 70
     0
102
RTVSPropertyOp7
 70
     0
102
RTVSPropertyOp8
 70
     0
102
RTVSPropertyOp9
 70
     0
102
RTVSPropertyOp10
 70
     0
102
RTVSPropertyOp11
 70
     0
102
RTVSPropertyOp12
 70
     0
102
RTVSPropertyOp13
 70
     0
102
RTVSPropertyOp14
 70
     2
102
RTVSPropertyOp15
 70
     0
102
RTVSPropertyOp16
 70
     0
102
RTVSPropertyOp17
 70
     0
102
RTVSPropertyOp18
 70
     0
102
RTVSPropertyOp19
 70
     0
102
RTVSPropertyOp20
 70
     0
102
RTVSPropertyOp21
 70
     0
102
RTVSPropertyOp22
 70
     0
102
RTVSPropertyOp23
 70
     0
102
RTVSPropertyOp24
 70
     0
102
RTVSPropertyOp25
 70
     0
102
RTVSPropertyOp26
 70
     0
102
RTVSPropertyOp27
 70
     0
  0
XRECORD
  5
140F
102
{ACAD_REACTORS
330
140E
102
}
330
140E
100
AcDbXrecord
280
     1
102
RTVSPropertyOp0
 70
     1
102
RTVSPropertyOp1
 70
     1
102
RTVSPropertyOp2
 70
     1
102
RTVSPropertyOp3
 70
     1
102
RTVSPropertyOp4
 70
     1
102
RTVSPropertyOp5
 70
     1
102
RTVSPropertyOp6
 70
     1
102
RTVSPropertyOp7
 70
     1
102
RTVSPropertyOp8
 70
     1
102
RTVSPropertyOp9
 70
     1
102
RTVSPropertyOp10
 70
     1
102
RTVSPropertyOp11
 70
     1
102
RTVSPropertyOp12
 70
     1
102
RTVSPropertyOp13
 70
     1
102
RTVSPropertyOp14
 70
     1
102
RTVSPropertyOp15
 70
     1
102
RTVSPropertyOp16
 70
     1
102
RTVSPropertyOp17
 70
     1
102
RTVSPropertyOp18
 70
     1
102
RTVSPropertyOp19
 70
     1
102
RTVSPropertyOp20
 70
     1
102
RTVSPropertyOp21
 70
     1
102
RTVSPropertyOp22
 70
     1
102
RTVSPropertyOp23
 70
     1
102
RTVSPropertyOp24
 70
     1
102
RTVSPropertyOp25
 70
     1
102
RTVSPropertyOp26
 70
     1
102
RTVSPropertyOp27
 70
     1
  0
XRECORD
  5
1417
102
{ACAD_REACTORS
330
1416
102
}
330
1416
100
AcDbXrecord
280
     1
102
RTVSPropertyOp0
 70
     0
102
RTVSPropertyOp1
 70
     0
102
RTVSPropertyOp2
 70
     0
102
RTVSPropertyOp3
 70
     0
102
RTVSPropertyOp4
 70
     0
102
RTVSPropertyOp5
 70
     0
102
RTVSPropertyOp6
 70
     0
102
RTVSPropertyOp7
 70
     0
102
RTVSPropertyOp8
 70
     0
102
RTVSPropertyOp9
 70
     0
102
RTVSPropertyOp10
 70
     0
102
RTVSPropertyOp11
 70
     0
102
RTVSPropertyOp12
 70
     0
102
RTVSPropertyOp13
 70
     0
102
RTVSPropertyOp14
 70
     2
102
RTVSPropertyOp15
 70
     0
102
RTVSPropertyOp16
 70
     0
102
RTVSPropertyOp17
 70
     0
102
RTVSPropertyOp18
 70
     0
102
RTVSPropertyOp19
 70
     0
102
RTVSPropertyOp20
 70
     0
102
RTVSPropertyOp21
 70
     0
102
RTVSPropertyOp22
 70
     0
102
RTVSPropertyOp23
 70
     0
102
RTVSPropertyOp24
 70
     0
102
RTVSPropertyOp25
 70
     0
102
RTVSPropertyOp26
 70
     0
102
RTVSPropertyOp27
 70
     0
  0
XRECORD
  5
1407
102
{ACAD_REACTORS
330
1406
102
}
330
1406
100
AcDbXrecord
280
     1
102
RTVSPropertyOp0
 70
     1
102
RTVSPropertyOp1
 70
     1
102
RTVSPropertyOp2
 70
     1
102
RTVSPropertyOp3
 70
     1
102
RTVSPropertyOp4
 70
     1
102
RTVSPropertyOp5
 70
     1
102
RTVSPropertyOp6
 70
     1
102
RTVSPropertyOp7
 70
     1
102
RTVSPropertyOp8
 70
     1
102
RTVSPropertyOp9
 70
     1
102
RTVSPropertyOp10
 70
     1
102
RTVSPropertyOp11
 70
     1
102
RTVSPropertyOp12
 70
     1
102
RTVSPropertyOp13
 70
     1
102
RTVSPropertyOp14
 70
     1
102
RTVSPropertyOp15
 70
     1
102
RTVSPropertyOp16
 70
     1
102
RTVSPropertyOp17
 70
     1
102
RTVSPropertyOp18
 70
     1
102
RTVSPropertyOp19
 70
     1
102
RTVSPropertyOp20
 70
     1
102
RTVSPropertyOp21
 70
     1
102
RTVSPropertyOp22
 70
     1
102
RTVSPropertyOp23
 70
     1
102
RTVSPropertyOp24
 70
     1
102
RTVSPropertyOp25
 70
     1
102
RTVSPropertyOp26
 70
     1
102
RTVSPropertyOp27
 70
     1
  0
XRECORD
  5
140D
102
{ACAD_REACTORS
330
140C
102
}
330
140C
100
AcDbXrecord
280
     1
102
RTVSPropertyOp0
 70
     1
102
RTVSPropertyOp1
 70
     1
102
RTVSPropertyOp2
 70
     1
102
RTVSPropertyOp3
 70
     1
102
RTVSPropertyOp4
 70
     1
102
RTVSPropertyOp5
 70
     1
102
RTVSPropertyOp6
 70
     1
102
RTVSPropertyOp7
 70
     1
102
RTVSPropertyOp8
 70
     1
102
RTVSPropertyOp9
 70
     1
102
RTVSPropertyOp10
 70
     1
102
RTVSPropertyOp11
 70
     1
102
RTVSPropertyOp12
 70
     1
102
RTVSPropertyOp13
 70
     1
102
RTVSPropertyOp14
 70
     1
102
RTVSPropertyOp15
 70
     1
102
RTVSPropertyOp16
 70
     1
102
RTVSPropertyOp17
 70
     1
102
RTVSPropertyOp18
 70
     1
102
RTVSPropertyOp19
 70
     1
102
RTVSPropertyOp20
 70
     1
102
RTVSPropertyOp21
 70
     1
102
RTVSPropertyOp22
 70
     1
102
RTVSPropertyOp23
 70
     1
102
RTVSPropertyOp24
 70
     1
102
RTVSPropertyOp25
 70
     1
102
RTVSPropertyOp26
 70
     1
102
RTVSPropertyOp27
 70
     1
  0
ENDSEC
  0
EOF
