  0
SECTION
  2
HEADER
  9
$ACADVER
  1
AC1015
  9
$ACADMAINTVER
 70
    20
  9
$DWGCODEPAGE
  3
ANSI_1252
  9
$INSBASE
 10
0.0
 20
0.0
 30
0.0
  9
$EXTMIN
 10
428.7325595105071
 20
396.4140396792606
 30
-0.0000000017937957
  9
$EXTMAX
 10
431.0056171965244
 20
398.2640396792606
 30
0.0000000000000005
  9
$LIMMIN
 10
0.0
 20
0.0
  9
$LIMMAX
 10
420.0
 20
297.0
  9
$ORTHOMODE
 70
     0
  9
$REGENMODE
 70
     1
  9
$FILLMODE
 70
     1
  9
$QTEXTMODE
 70
     0
  9
$MIRRTEXT
 70
     1
  9
$LTSCALE
 40
1.0
  9
$ATTMODE
 70
     1
  9
$TEXTSIZE
 40
2.5
  9
$TRACEWID
 40
1.0
  9
$TEXTSTYLE
  7
SANINDUSA
  9
$CLAYER
  8
cotas
  9
$CELTYPE
  6
ByLayer
  9
$CECOLOR
 62
   256
  9
$CELTSCALE
 40
1.0
  9
$DISPSILH
 70
     0
  9
$DIMSCALE
 40
1.0
  9
$DIMASZ
 40
2.0
  9
$DIMEXO
 40
1.0
  9
$DIMDLI
 40
1.0
  9
$DIMRND
 40
0.0
  9
$DIMDLE
 40
0.0
  9
$DIMEXE
 40
1.0
  9
$DIMTP
 40
0.0
  9
$DIMTM
 40
0.0
  9
$DIMTXT
 40
2.0
  9
$DIMCEN
 40
0.0
  9
$DIMTSZ
 40
0.0
  9
$DIMTOL
 70
     0
  9
$DIMLIM
 70
     0
  9
$DIMTIH
 70
     0
  9
$DIMTOH
 70
     0
  9
$DIMSE1
 70
     0
  9
$DIMSE2
 70
     0
  9
$DIMTAD
 70
     1
  9
$DIMZIN
 70
     8
  9
$DIMBLK
  1

  9
$DIMASO
 70
     1
  9
$DIMSHO
 70
     1
  9
$DIMPOST
  1

  9
$DIMAPOST
  1

  9
$DIMALT
 70
     0
  9
$DIMALTD
 70
     3
  9
$DIMALTF
 40
0.03937007874016
  9
$DIMLFAC
 40
1.0
  9
$DIMTOFL
 70
     1
  9
$DIMTVP
 40
0.0
  9
$DIMTIX
 70
     0
  9
$DIMSOXD
 70
     0
  9
$DIMSAH
 70
     0
  9
$DIMBLK1
  1

  9
$DIMBLK2
  1

  9
$DIMSTYLE
  2
SANINDUSA
  9
$DIMCLRD
 70
   256
  9
$DIMCLRE
 70
   256
  9
$DIMCLRT
 70
   256
  9
$DIMTFAC
 40
1.0
  9
$DIMGAP
 40
1.0
  9
$DIMJUST
 70
     0
  9
$DIMSD1
 70
     0
  9
$DIMSD2
 70
     0
  9
$DIMTOLJ
 70
     0
  9
$DIMTZIN
 70
     8
  9
$DIMALTZ
 70
     0
  9
$DIMALTTZ
 70
     0
  9
$DIMUPT
 70
     0
  9
$DIMDEC
 70
     1
  9
$DIMTDEC
 70
     1
  9
$DIMALTU
 70
     2
  9
$DIMALTTD
 70
     3
  9
$DIMTXSTY
  7
SANINDUSA
  9
$DIMAUNIT
 70
     0
  9
$DIMADEC
 70
     1
  9
$DIMALTRND
 40
0.0
  9
$DIMAZIN
 70
     0
  9
$DIMDSEP
 70
    44
  9
$DIMATFIT
 70
     3
  9
$DIMFRAC
 70
     0
  9
$DIMLDRBLK
  1

  9
$DIMLUNIT
 70
     2
  9
$DIMLWD
 70
    -1
  9
$DIMLWE
 70
    -1
  9
$DIMTMOVE
 70
     0
  9
$LUNITS
 70
     2
  9
$LUPREC
 70
     4
  9
$SKETCHINC
 40
1.0
  9
$FILLETRAD
 40
0.0
  9
$AUNITS
 70
     0
  9
$AUPREC
 70
     0
  9
$MENU
  1
.
  9
$ELEVATION
 40
0.0
  9
$PELEVATION
 40
0.0
  9
$THICKNESS
 40
0.0
  9
$LIMCHECK
 70
     0
  9
$CHAMFERA
 40
10.0
  9
$CHAMFERB
 40
10.0
  9
$CHAMFERC
 40
20.0
  9
$CHAMFERD
 40
0.0
  9
$SKPOLY
 70
     0
  9
$TDCREATE
 40
2453259.674318206
  9
$TDUCREATE
 40
2453259.632651540
  9
$TDUPDATE
 40
2455818.530675637
  9
$TDUUPDATE
 40
2455818.489008970
  9
$TDINDWG
 40
0.0170314352
  9
$TDUSRTIMER
 40
0.0170314352
  9
$USRTIMER
 70
     1
  9
$ANGBASE
 50
0.0
  9
$ANGDIR
 70
     0
  9
$PDMODE
 70
     0
  9
$PDSIZE
 40
0.0
  9
$PLINEWID
 40
0.0
  9
$SPLFRAME
 70
     0
  9
$SPLINETYPE
 70
     6
  9
$SPLINESEGS
 70
     8
  9
$HANDSEED
  5
1269
  9
$SURFTAB1
 70
     6
  9
$SURFTAB2
 70
     6
  9
$SURFTYPE
 70
     6
  9
$SURFU
 70
     6
  9
$SURFV
 70
     6
  9
$UCSBASE
  2

  9
$UCSNAME
  2

  9
$UCSORG
 10
0.0
 20
0.0
 30
0.0
  9
$UCSXDIR
 10
1.0
 20
0.0
 30
0.0
  9
$UCSYDIR
 10
0.0
 20
1.0
 30
0.0
  9
$UCSORTHOREF
  2

  9
$UCSORTHOVIEW
 70
     0
  9
$UCSORGTOP
 10
0.0
 20
0.0
 30
0.0
  9
$UCSORGBOTTOM
 10
0.0
 20
0.0
 30
0.0
  9
$UCSORGLEFT
 10
0.0
 20
0.0
 30
0.0
  9
$UCSORGRIGHT
 10
0.0
 20
0.0
 30
0.0
  9
$UCSORGFRONT
 10
0.0
 20
0.0
 30
0.0
  9
$UCSORGBACK
 10
0.0
 20
0.0
 30
0.0
  9
$PUCSBASE
  2

  9
$PUCSNAME
  2

  9
$PUCSORG
 10
0.0
 20
0.0
 30
0.0
  9
$PUCSXDIR
 10
1.0
 20
0.0
 30
0.0
  9
$PUCSYDIR
 10
0.0
 20
1.0
 30
0.0
  9
$PUCSORTHOREF
  2

  9
$PUCSORTHOVIEW
 70
     0
  9
$PUCSORGTOP
 10
0.0
 20
0.0
 30
0.0
  9
$PUCSORGBOTTOM
 10
0.0
 20
0.0
 30
0.0
  9
$PUCSORGLEFT
 10
0.0
 20
0.0
 30
0.0
  9
$PUCSORGRIGHT
 10
0.0
 20
0.0
 30
0.0
  9
$PUCSORGFRONT
 10
0.0
 20
0.0
 30
0.0
  9
$PUCSORGBACK
 10
0.0
 20
0.0
 30
0.0
  9
$USERI1
 70
     0
  9
$USERI2
 70
     0
  9
$USERI3
 70
     0
  9
$USERI4
 70
     0
  9
$USERI5
 70
     0
  9
$USERR1
 40
0.0
  9
$USERR2
 40
0.0
  9
$USERR3
 40
0.0
  9
$USERR4
 40
0.0
  9
$USERR5
 40
0.0
  9
$WORLDVIEW
 70
     1
  9
$SHADEDGE
 70
     3
  9
$SHADEDIF
 70
    70
  9
$TILEMODE
 70
     1
  9
$MAXACTVP
 70
    64
  9
$PINSBASE
 10
0.0
 20
0.0
 30
0.0
  9
$PLIMCHECK
 70
     0
  9
$PEXTMIN
 10
1.000000000000000E+20
 20
1.000000000000000E+20
 30
1.000000000000000E+20
  9
$PEXTMAX
 10
-1.000000000000000E+20
 20
-1.000000000000000E+20
 30
-1.000000000000000E+20
  9
$PLIMMIN
 10
0.0
 20
0.0
  9
$PLIMMAX
 10
420.0
 20
297.0
  9
$UNITMODE
 70
     0
  9
$VISRETAIN
 70
     1
  9
$PLINEGEN
 70
     0
  9
$PSLTSCALE
 70
     1
  9
$TREEDEPTH
 70
  3020
  9
$CMLSTYLE
  2
Standard
  9
$CMLJUST
 70
     0
  9
$CMLSCALE
 40
20.0
  9
$PROXYGRAPHICS
 70
     1
  9
$MEASUREMENT
 70
     1
  9
$CELWEIGHT
370
    -1
  9
$ENDCAPS
280
     0
  9
$JOINSTYLE
280
     0
  9
$LWDISPLAY
290
     0
  9
$INSUNITS
 70
     4
  9
$HYPERLINKBASE
  1

  9
$STYLESHEET
  1
monochrome.ctb
  9
$XEDIT
290
     1
  9
$CEPSNTYPE
380
     0
  9
$PSTYLEMODE
290
     1
  9
$FINGERPRINTGUID
  2
{B98A73AA-52AA-4C10-B469-C0E7150AC31F}
  9
$VERSIONGUID
  2
{DE91016E-5BBB-4E3C-B557-BC18D8D6610A}
  9
$EXTNAMES
290
     1
  9
$PSVPSCALE
 40
0.0
  9
$OLESTARTUP
290
     0
  0
ENDSEC
  0
SECTION
  2
CLASSES
  0
CLASS
  1
ACDBDICTIONARYWDFLT
  2
AcDbDictionaryWithDefault
  3
ObjectDBX Classes
 90
        0
280
     0
281
     0
  0
CLASS
  1
ACDBPLACEHOLDER
  2
AcDbPlaceHolder
  3
ObjectDBX Classes
 90
        0
280
     0
281
     0
  0
CLASS
  1
LAYOUT
  2
AcDbLayout
  3
ObjectDBX Classes
 90
        0
280
     0
281
     0
  0
CLASS
  1
DICTIONARYVAR
  2
AcDbDictionaryVar
  3
ObjectDBX Classes
 90
        0
280
     0
281
     0
  0
CLASS
  1
DIMASSOC
  2
AcDbDimAssoc
  3
"AcDbDimAssoc|Product Desc:     AcDim ARX App For Dimension|Company:          Autodesk, Inc.|WEB Address:      www.autodesk.com"
 90
        0
280
     0
281
     0
  0
CLASS
  1
MATERIAL
  2
AcDbMaterial
  3
ObjectDBX Classes
 90
     1153
280
     0
281
     0
  0
CLASS
  1
VISUALSTYLE
  2
AcDbVisualStyle
  3
ObjectDBX Classes
 90
     4095
280
     0
281
     0
  0
CLASS
  1
TABLESTYLE
  2
AcDbTableStyle
  3
ObjectDBX Classes
 90
     4095
280
     0
281
     0
  0
CLASS
  1
SCALE
  2
AcDbScale
  3
ObjectDBX Classes
 90
     1153
280
     0
281
     0
  0
CLASS
  1
MLEADERSTYLE
  2
AcDbMLeaderStyle
  3
ACDB_MLEADERSTYLE_CLASS
 90
     4095
280
     0
281
     0
  0
CLASS
  1
AEC_REFEDIT_STATUS_TRACKER
  2
AecDbRefEditStatusTracker
  3
AecArchBase60|Product Desc: Autodesk Architectural Desktop 2007 |Company: Autodesk,Inc. |WEB Address: www.autodesk.com
 90
      129
280
     0
281
     0
  0
CLASS
  1
NPOCOLLECTION
  2
AcDbImpNonPersistentObjectsCollection
  3
ObjectDBX Classes
 90
     1153
280
     0
281
     0
  0
CLASS
  1
CELLSTYLEMAP
  2
AcDbCellStyleMap
  3
ObjectDBX Classes
 90
     1152
280
     0
281
     0
  0
ENDSEC
  0
SECTION
  2
TABLES
  0
TABLE
  2
VPORT
  5
8
330
0
100
AcDbSymbolTable
 70
     1
  0
VPORT
  5
1178
330
8
100
AcDbSymbolTableRecord
100
AcDbViewportTableRecord
  2
*Active
 70
     0
 10
0.0
 20
0.0
 11
1.0
 21
1.0
 12
429.8690883535159
 22
397.3390396792606
 13
0.0
 23
0.0
 14
10.0
 24
10.0
 15
10.0
 25
10.0
 16
0.0
 26
0.0
 36
1.0
 17
0.0
 27
0.0
 37
0.0
 40
1.86156249999999
 41
1.645464025026068
 42
50.0
 43
0.0
 44
0.0
 50
0.0
 51
0.0
 71
     0
 72
   100
 73
     1
 74
     2
 75
     0
 76
     0
 77
     0
 78
     0
281
     0
 65
     1
110
0.0
120
0.0
130
0.0
111
1.0
121
0.0
131
0.0
112
0.0
122
1.0
132
0.0
 79
     0
146
0.0
  0
ENDTAB
  0
TABLE
  2
LTYPE
  5
5
330
0
100
AcDbSymbolTable
 70
     5
  0
LTYPE
  5
14
330
5
100
AcDbSymbolTableRecord
100
AcDbLinetypeTableRecord
  2
ByBlock
 70
     0
  3

 72
    65
 73
     0
 40
0.0
  0
LTYPE
  5
15
330
5
100
AcDbSymbolTableRecord
100
AcDbLinetypeTableRecord
  2
ByLayer
 70
     0
  3

 72
    65
 73
     0
 40
0.0
  0
LTYPE
  5
16
330
5
100
AcDbSymbolTableRecord
100
AcDbLinetypeTableRecord
  2
Continuous
 70
     0
  3
Solid line
 72
    65
 73
     0
 40
0.0
  0
LTYPE
  5
2D
330
5
100
AcDbSymbolTableRecord
100
AcDbLinetypeTableRecord
  2
DASHDOT
 70
     0
  3
Dash dot __ . __ . __ . __ . __ . __ . __ . __
 72
    65
 73
     4
 40
25.4
 49
12.7
 74
     0
 49
-6.349999999999999
 74
     0
 49
0.0
 74
     0
 49
-6.349999999999999
 74
     0
  0
LTYPE
  5
2E
330
5
100
AcDbSymbolTableRecord
100
AcDbLinetypeTableRecord
  2
HIDDEN
 70
     0
  3
Hidden __ __ __ __ __ __ __ __ __ __ __ __ __ _
 72
    65
 73
     2
 40
9.524999999999998
 49
6.349999999999999
 74
     0
 49
-3.174999999999999
 74
     0
  0
LTYPE
  5
C78
330
5
100
AcDbSymbolTableRecord
100
AcDbLinetypeTableRecord
  2
CENTER
 70
     0
  3
____ _ ____ _ ____ _ ____ _ ____ _ ____ _ ____ 
 72
    65
 73
     4
 40
2.0
 49
1.25
 74
     0
 49
-0.25
 74
     0
 49
0.25
 74
     0
 49
-0.25
 74
     0
  0
ENDTAB
  0
TABLE
  2
LAYER
  5
2
330
0
100
AcDbSymbolTable
 70
    17
  0
LAYER
  5
10
102
{ACAD_XDICTIONARY
360
11CD
102
}
330
2
100
AcDbSymbolTableRecord
100
AcDbLayerTableRecord
  2
0
 70
     0
 62
     7
  6
Continuous
370
    -3
390
F
  0
LAYER
  5
2F
102
{ACAD_XDICTIONARY
360
11CF
102
}
330
2
100
AcDbSymbolTableRecord
100
AcDbLayerTableRecord
  2
1
 70
     0
 62
     1
  6
Continuous
370
    -3
390
F
  0
LAYER
  5
30
102
{ACAD_XDICTIONARY
360
11D1
102
}
330
2
100
AcDbSymbolTableRecord
100
AcDbLayerTableRecord
  2
2
 70
     0
 62
     2
  6
Continuous
370
    -3
390
F
  0
LAYER
  5
31
102
{ACAD_XDICTIONARY
360
11D3
102
}
330
2
100
AcDbSymbolTableRecord
100
AcDbLayerTableRecord
  2
3
 70
     0
 62
     3
  6
Continuous
370
    -3
390
F
  0
LAYER
  5
32
102
{ACAD_XDICTIONARY
360
11D5
102
}
330
2
100
AcDbSymbolTableRecord
100
AcDbLayerTableRecord
  2
4
 70
     0
 62
     4
  6
Continuous
370
    -3
390
F
  0
LAYER
  5
33
102
{ACAD_XDICTIONARY
360
11D7
102
}
330
2
100
AcDbSymbolTableRecord
100
AcDbLayerTableRecord
  2
5
 70
     0
 62
     5
  6
Continuous
370
    -3
390
F
  0
LAYER
  5
34
102
{ACAD_XDICTIONARY
360
11D9
102
}
330
2
100
AcDbSymbolTableRecord
100
AcDbLayerTableRecord
  2
6
 70
     0
 62
     6
  6
Continuous
370
    -3
390
F
  0
LAYER
  5
35
102
{ACAD_XDICTIONARY
360
11DB
102
}
330
2
100
AcDbSymbolTableRecord
100
AcDbLayerTableRecord
  2
7
 70
     0
 62
     7
  6
Continuous
370
    -3
390
F
  0
LAYER
  5
36
102
{ACAD_XDICTIONARY
360
11DD
102
}
330
2
100
AcDbSymbolTableRecord
100
AcDbLayerTableRecord
  2
cen
 70
     0
 62
     7
  6
DASHDOT
370
    -3
390
F
  0
LAYER
  5
37
102
{ACAD_XDICTIONARY
360
11DF
102
}
330
2
100
AcDbSymbolTableRecord
100
AcDbLayerTableRecord
  2
hid
 70
     0
 62
     7
  6
HIDDEN
370
    -3
390
F
  0
LAYER
  5
5D6
102
{ACAD_XDICTIONARY
360
11E1
102
}
330
2
100
AcDbSymbolTableRecord
100
AcDbLayerTableRecord
  2
hatch
 70
     0
 62
     9
  6
Continuous
370
    -3
390
F
  0
LAYER
  5
8AF
102
{ACAD_XDICTIONARY
360
11E3
102
}
330
2
100
AcDbSymbolTableRecord
100
AcDbLayerTableRecord
  2
9
 70
     0
 62
     9
  6
Continuous
370
    -3
390
F
  0
LAYER
  5
8F8
102
{ACAD_XDICTIONARY
360
11E5
102
}
330
2
100
AcDbSymbolTableRecord
100
AcDbLayerTableRecord
  2
leg fin
 70
     0
 62
     9
  6
Continuous
370
    -3
390
F
  0
LAYER
  5
91D
102
{ACAD_XDICTIONARY
360
11E7
102
}
330
2
100
AcDbSymbolTableRecord
100
AcDbLayerTableRecord
  2
cotas
 70
     0
 62
     1
  6
Continuous
370
    -3
390
F
  0
LAYER
  5
92F
330
2
100
AcDbSymbolTableRecord
100
AcDbLayerTableRecord
  2
Defpoints
 70
     0
 62
     7
  6
Continuous
290
     0
370
    -3
390
F
  0
LAYER
  5
C79
102
{ACAD_XDICTIONARY
360
11E9
102
}
330
2
100
AcDbSymbolTableRecord
100
AcDbLayerTableRecord
  2
quote
 70
     0
 62
     7
  6
Continuous
370
    18
390
F
  0
LAYER
  5
11CC
102
{ACAD_XDICTIONARY
360
11EB
102
}
330
2
100
AcDbSymbolTableRecord
100
AcDbLayerTableRecord
  2
SANINDUSA
 70
     0
 62
     3
  6
Continuous
370
    -3
390
F
  0
ENDTAB
  0
TABLE
  2
STYLE
  5
3
330
0
100
AcDbSymbolTable
 70
     3
  0
STYLE
  5
11
330
3
100
AcDbSymbolTableRecord
100
AcDbTextStyleTableRecord
  2
Standard
 70
     0
 40
0.0
 41
1.0
 50
0.0
 71
     0
 42
2.5
  3
Avgardn.ttf
  4

1001
ACAD
1000
AvantGarde Bk BT
1071
       34
  0
STYLE
  5
2C
330
3
100
AcDbSymbolTableRecord
100
AcDbTextStyleTableRecord
  2

 70
     1
 40
0.0
 41
1.0
 50
0.0
 71
     0
 42
2.5
  3
ltypeshp.shx
  4

  0
STYLE
  5
91F
330
3
100
AcDbSymbolTableRecord
100
AcDbTextStyleTableRecord
  2
SANINDUSA
 70
     0
 40
0.0
 41
1.0
 50
0.0
 71
     0
 42
2.5
  3
verdana.TTF
  4

1001
ACAD
1000
Verdana
1071
       34
  0
ENDTAB
  0
TABLE
  2
VIEW
  5
6
330
0
100
AcDbSymbolTable
 70
     0
  0
ENDTAB
  0
TABLE
  2
UCS
  5
7
330
0
100
AcDbSymbolTable
 70
     0
  0
ENDTAB
  0
TABLE
  2
APPID
  5
9
330
0
100
AcDbSymbolTable
 70
     6
  0
APPID
  5
12
330
9
100
AcDbSymbolTableRecord
100
AcDbRegAppTableRecord
  2
ACAD
 70
     0
  0
APPID
  5
3A
330
9
100
AcDbSymbolTableRecord
100
AcDbRegAppTableRecord
  2
DCO15
 70
     0
  0
APPID
  5
C7A
330
9
100
AcDbSymbolTableRecord
100
AcDbRegAppTableRecord
  2
GENIUS_GENREC_14
 70
     0
  0
APPID
  5
C7B
330
9
100
AcDbSymbolTableRecord
100
AcDbRegAppTableRecord
  2
GENIUS_GENODEF_13
 70
     0
  0
APPID
  5
C7C
330
9
100
AcDbSymbolTableRecord
100
AcDbRegAppTableRecord
  2
GENIUS_GENOBJ-N-REC_13
 70
     0
  0
APPID
  5
1268
330
9
100
AcDbSymbolTableRecord
100
AcDbRegAppTableRecord
  2
ACAD_MLEADERVER
 70
     0
  0
ENDTAB
  0
TABLE
  2
DIMSTYLE
  5
A
330
0
100
AcDbSymbolTable
 70
     3
100
AcDbDimStyleTable
 71
     1
340
921
  0
DIMSTYLE
105
45
330
A
100
AcDbSymbolTableRecord
100
AcDbDimStyleTableRecord
  2
STANDARD
 70
     0
289
     0
340
11
  0
DIMSTYLE
105
921
330
A
100
AcDbSymbolTableRecord
100
AcDbDimStyleTableRecord
  2
SANINDUSA
 70
     0
 41
2.0
 42
1.0
 43
1.0
 44
1.0
 73
     0
 74
     0
 77
     1
 78
     8
140
2.0
141
0.0
143
0.03937007874016
147
1.0
171
     3
172
     1
176
   256
177
   256
178
   256
179
     1
271
     1
272
     1
274
     3
278
    44
283
     0
284
     8
340
91F
371
    -1
372
    -1
  0
ENDTAB
  0
TABLE
  2
BLOCK_RECORD
  5
1
330
0
100
AcDbSymbolTable
 70
    29
  0
BLOCK_RECORD
  5
1F
330
1
100
AcDbSymbolTableRecord
100
AcDbBlockTableRecord
  2
*Model_Space
340
22
  0
BLOCK_RECORD
  5
1B
330
1
100
AcDbSymbolTableRecord
100
AcDbBlockTableRecord
  2
*Paper_Space
340
1E
  0
BLOCK_RECORD
  5
23
330
1
100
AcDbSymbolTableRecord
100
AcDbBlockTableRecord
  2
*Paper_Space0
340
26
  0
BLOCK_RECORD
  5
919
330
1
100
AcDbSymbolTableRecord
100
AcDbBlockTableRecord
  2
_DotSmall
340
0
  0
BLOCK_RECORD
  5
922
330
1
100
AcDbSymbolTableRecord
100
AcDbBlockTableRecord
  2
base para cotas
340
0
310
2800000020000000200000000100080000000000000400000000000000000000000000000000000000000000000080000080000000808000800000008000800080800000C0C0C000C0DCC000F0CAA6000020400000206000002080000020A0000020C0000020E00000400000004020000040400000406000004080000040A0
310
000040C0000040E00000600000006020000060400000606000006080000060A0000060C0000060E00000800000008020000080400000806000008080000080A0000080C0000080E00000A0000000A0200000A0400000A0600000A0800000A0A00000A0C00000A0E00000C0000000C0200000C0400000C0600000C0800000C0
310
A00000C0C00000C0E00000E0000000E0200000E0400000E0600000E0800000E0A00000E0C00000E0E00040000000400020004000400040006000400080004000A0004000C0004000E00040200000402020004020400040206000402080004020A0004020C0004020E000404000004040200040404000404060004040800040
310
40A0004040C0004040E00040600000406020004060400040606000406080004060A0004060C0004060E00040800000408020004080400040806000408080004080A0004080C0004080E00040A0000040A0200040A0400040A0600040A0800040A0A00040A0C00040A0E00040C0000040C0200040C0400040C0600040C08000
310
40C0A00040C0C00040C0E00040E0000040E0200040E0400040E0600040E0800040E0A00040E0C00040E0E00080000000800020008000400080006000800080008000A0008000C0008000E00080200000802020008020400080206000802080008020A0008020C0008020E00080400000804020008040400080406000804080
310
008040A0008040C0008040E00080600000806020008060400080606000806080008060A0008060C0008060E00080800000808020008080400080806000808080008080A0008080C0008080E00080A0000080A0200080A0400080A0600080A0800080A0A00080A0C00080A0E00080C0000080C0200080C0400080C0600080C0
310
800080C0A00080C0C00080C0E00080E0000080E0200080E0400080E0600080E0800080E0A00080E0C00080E0E000C0000000C0002000C0004000C0006000C0008000C000A000C000C000C000E000C0200000C0202000C0204000C0206000C0208000C020A000C020C000C020E000C0400000C0402000C0404000C0406000C0
310
408000C040A000C040C000C040E000C0600000C0602000C0604000C0606000C0608000C060A000C060C000C060E000C0800000C0802000C0804000C0806000C0808000C080A000C080C000C080E000C0A00000C0A02000C0A04000C0A06000C0A08000C0A0A000C0A0C000C0A0E000C0C00000C0C02000C0C04000C0C06000
310
C0C08000C0C0A000F0FBFF00A4A0A000808080000000FF0000FF000000FFFF00FF000000FF00FF00FFFF0000FFFFFF00A4A4A4A4A4A4A4A4A4A4A4A4A4A4A4A4A4A4A4A4A4A4A4A4A4A4A4A4A4A4A4A4A4A4A4A4A4A4A4A4A4A4A4A4A4A4A4A4A4A4A4A4A4A4A4A4A4A4A4A4A4A4A4A4A4A4A4A4A4A4A4A4A4A4A4A4A4A4A4
310
A4A4A4A4A4A4A4A4A4A4A4A4A4A4A4A4A4A4A4A4A4A4A4A4A4A4A4A4A4A4A4A4A4A4A4A4A4A4A4A4A4A4A4A4A4A4A4A4A4A4A4A4A4A4A4A4A4A4A4A4A4A4A4A4A4A4A4A4A4A4A4A4A4A4A4A4A4A4A4A4A4A4A4A4A4A4A4A4A4A4A4A4A4A4A4A4A4A4A4A4A4A4A4A4A4A4A4A4A4A4A4A4A4A4A4A4A4A4A4A4A4A4A4A4A4A4A4
310
A4A4A4A4A4A4A4A4A4A4A4A4A4A4A4A4A4A4A4A4A4A4A4A4A4A4A4A4A4A4A4A4A4A4A4A4A4A4A4A4A4A4A4A4A4A4A4A4A4A4A4A4A4A4A4A4A4A4A4A4A4A4A4A4A4A4A4A4A4A4A4A4A4A4A4A4A4A4A4A4A4A4A4A4A4A4A4A4A4A4A4A4A4A4A4A4A4A4A4A4A4A4A4A4A4A4A4A4A4A4A4A4A4A4A4A4A4A4A4A4A4A4A4A4A4A4A4
310
A4A4A4A4A4A4A4A4A4A4A4A4A4A4A4A4A4A4A4A4A4A4A4A4A4A4A4A4A4A4A4A4A4A4A4A4A4A4A4A4A4A4A4A4A4A4A4A4A4A4A4A4A4A4A4A4A4A4A4A4A4A4A4A4A4A4A4A4A4A4A4A4A4A4A4A4A4A4A4A4A4A4A4A4A4A4A4A4A4A4A4A4A4A4A4A4A4A4A4A4A4A4A4A4A4A4A4A4A4A4A4A4A4A4A4A4F9F9F9F9F9F9F9F9F9F9F9
310
F9F9F9F9F9F9F9F9F9F9F9F9F9F9F9F9F9F9F9A4A4F9F9F9F9F9F9F9F9F9F9F9F9F9F9F9F9F9F9F9F9F9F9F9F9F9F9F9F9F9F9A4A4F9F9F9F9F9F9F9F9F9F9F9F9F9F9F9F9F9F9F9F9F9F9F9F9F9F9F9F9F9F9A4A4F9A4A4A4A4A4A4A4A4A4A4A4A4A4A4A4A4A4A4A4A4A4A4A4A4A4A4A4A4F9A4A4A4A4A4A4A4A4A4A4A4A4
310
A4A4A4A4A4A4A4A4A4A4A4A4A4A4A4A4A4A4A4A4A4A4A4A4A4A4A4A4A4A4A4A4A4A4A4A4A4A4A4A4A4A4A4A4A4A4A4A4A4A4A4A4A4A4A4A4A4A4A4A4A4A4A4A4A4A4A4A4A4A4A4A4A4A4A4A4A4A4A4A4A4A4A4A4A4A4A4A4A4A4A4A4A4A4A4A4A4A4A4A4A4A4A4A4A4A4A4A4A4A4A4A4A4A4A4A4A4A4A4A4A4A4A4A4A4A4A4
310
A4A4A4A4A4A4A4A4A4A4A4A4A4A4A4A4A4A4A4A4A4A4A4A4A4A4A4A4A4A4A4A4A4A4A4A4A4A4A4A4A4A4A4A4A4A4A4A4A4A4A4A4A4A4A4A4A4A4A4A4A4A4A4A4A4A4A4A4A4A4A4A4A4A4A4A4A4A4A4A4A4A4A4A4A4A4A4A4A4A4A4A4A4A4A4A4A4A4A4A4A4A4A4A4A4A4A4A4A4A4A4A4A4A4A4A4A4A4A4A4A4A4A4A4A4A4A4
310
A4A4A4A4A4A4A4A4A4A4A4A4A4A4A4A4A4A4A4A4A4A4A4A4A4A4A4A4A4A4A4A4A4A4A4A4A4A4A4A4A4A4A4A4A4A4A4A4A4A4A4A4A4A4A4A4A4A4A4A4A4A4A4A4A4A4A4A4A4A4A4A4A4A4A4A4A4A4A4A4A4A4A4A4A4A4A4A4A4A4A4A4A4A4A4A4A4A4A4A4A4A4A4A4A4A4A4A4A4A4A4A4A4A4A4A4A4A4A4A4A4A4A4A4A4A4A4
310
A4A4A4A4A4A4A4A4A4A4A4A4A4A4A4A4A4A4A4A4A4A4A4A4A4A4A4A4A4A4A4A4A4A4A4A4A4A4A4A4A4A4A4A4A4A4A4A4A4A4A4A4A4A4A4A4
1001
ACAD
1000
DesignCenter Data
1002
{
1070
     1
1070
     4
1002
}
  0
BLOCK_RECORD
  5
AA8
330
1
100
AcDbSymbolTableRecord
100
AcDbBlockTableRecord
  2
_CLOSED
340
0
  0
BLOCK_RECORD
  5
BA5
330
1
100
AcDbSymbolTableRecord
100
AcDbBlockTableRecord
  2
guarnizione
340
0
102
{BLKREFS
331
E51
102
}
  0
BLOCK_RECORD
  5
E9D
330
1
100
AcDbSymbolTableRecord
100
AcDbBlockTableRecord
  2
*D16
340
0
  0
BLOCK_RECORD
  5
EA9
330
1
100
AcDbSymbolTableRecord
100
AcDbBlockTableRecord
  2
*D17
340
0
  0
BLOCK_RECORD
  5
EB5
330
1
100
AcDbSymbolTableRecord
100
AcDbBlockTableRecord
  2
*D18
340
0
  0
BLOCK_RECORD
  5
EC1
330
1
100
AcDbSymbolTableRecord
100
AcDbBlockTableRecord
  2
*D19
340
0
  0
BLOCK_RECORD
  5
ECF
330
1
100
AcDbSymbolTableRecord
100
AcDbBlockTableRecord
  2
*D20
340
0
  0
BLOCK_RECORD
  5
EDB
330
1
100
AcDbSymbolTableRecord
100
AcDbBlockTableRecord
  2
*D21
340
0
  0
BLOCK_RECORD
  5
EE7
330
1
100
AcDbSymbolTableRecord
100
AcDbBlockTableRecord
  2
*D22
340
0
  0
BLOCK_RECORD
  5
EF3
330
1
100
AcDbSymbolTableRecord
100
AcDbBlockTableRecord
  2
*D23
340
0
  0
BLOCK_RECORD
  5
EFF
330
1
100
AcDbSymbolTableRecord
100
AcDbBlockTableRecord
  2
*D24
340
0
  0
BLOCK_RECORD
  5
F0B
330
1
100
AcDbSymbolTableRecord
100
AcDbBlockTableRecord
  2
*D25
340
0
  0
BLOCK_RECORD
  5
F17
330
1
100
AcDbSymbolTableRecord
100
AcDbBlockTableRecord
  2
*D26
340
0
  0
BLOCK_RECORD
  5
107C
330
1
100
AcDbSymbolTableRecord
100
AcDbBlockTableRecord
  2
*D27
340
0
  0
ENDTAB
  0
ENDSEC
  0
SECTION
  2
BLOCKS
  0
BLOCK
  5
20
330
1F
100
AcDbEntity
  8
0
100
AcDbBlockBegin
  2
*Model_Space
 70
     0
 10
0.0
 20
0.0
 30
0.0
  3
*Model_Space
  1

  0
ENDBLK
  5
21
330
1F
100
AcDbEntity
  8
0
100
AcDbBlockEnd
  0
BLOCK
  5
1C
330
1B
100
AcDbEntity
 67
     1
  8
0
100
AcDbBlockBegin
  2
*Paper_Space
 70
     0
 10
0.0
 20
0.0
 30
0.0
  3
*Paper_Space
  1

  0
ENDBLK
  5
1D
330
1B
100
AcDbEntity
 67
     1
  8
0
100
AcDbBlockEnd
  0
BLOCK
  5
24
330
23
100
AcDbEntity
 67
     1
  8
0
100
AcDbBlockBegin
  2
*Paper_Space0
 70
     0
 10
0.0
 20
0.0
 30
0.0
  3
*Paper_Space0
  1

  0
ENDBLK
  5
25
330
23
100
AcDbEntity
 67
     1
  8
0
100
AcDbBlockEnd
  0
BLOCK
  5
91B
330
919
100
AcDbEntity
  8
0
100
AcDbBlockBegin
  2
_DotSmall
 70
     0
 10
0.0
 20
0.0
 30
0.0
  3
_DotSmall
  1

  0
LWPOLYLINE
  5
91A
330
919
100
AcDbEntity
  8
0
  6
ByBlock
 62
     0
100
AcDbPolyline
 90
        2
 70
     1
 43
0.5
 10
-0.0625
 20
0.0
 42
1.0
 10
0.0625
 20
0.0
 42
1.0
  0
ENDBLK
  5
91C
330
919
100
AcDbEntity
  8
0
100
AcDbBlockEnd
  0
BLOCK
  5
92A
330
922
100
AcDbEntity
  8
0
100
AcDbBlockBegin
  2
base para cotas
 70
     0
 10
0.0
 20
0.0
 30
0.0
  3
base para cotas
  1

  0
LINE
  5
B36
330
922
100
AcDbEntity
  8
cotas
100
AcDbLine
 10
0.0
 20
-30.0
 30
0.0
 11
327.1260136525398
 21
-30.0
 31
0.0
  0
LINE
  5
B37
330
922
100
AcDbEntity
  8
cotas
100
AcDbLine
 10
0.0
 20
-25.0
 30
0.0
 11
327.1260136525398
 21
-25.0
 31
0.0
  0
LINE
  5
B38
330
922
100
AcDbEntity
  8
cotas
100
AcDbLine
 10
0.0
 20
-20.0
 30
0.0
 11
327.1260136525398
 21
-20.0
 31
0.0
  0
LINE
  5
B39
330
922
100
AcDbEntity
  8
cotas
100
AcDbLine
 10
0.0
 20
-15.0
 30
0.0
 11
327.1260136525398
 21
-15.0
 31
0.0
  0
LINE
  5
B3A
330
922
100
AcDbEntity
  8
cotas
100
AcDbLine
 10
0.0
 20
-10.0
 30
0.0
 11
327.1260136525398
 21
-10.0
 31
0.0
  0
LINE
  5
B3B
330
922
100
AcDbEntity
  8
cotas
100
AcDbLine
 10
0.0
 20
0.0
 30
0.0
 11
0.0
 21
-30.0
 31
0.0
  0
LINE
  5
B3C
330
922
100
AcDbEntity
  8
cotas
100
AcDbLine
 10
327.1260136525398
 20
-30.0
 30
0.0
 11
327.1260136525398
 21
0.0
 31
0.0
  0
ENDBLK
  5
92B
330
922
100
AcDbEntity
  8
0
100
AcDbBlockEnd
  0
BLOCK
  5
AAD
330
AA8
100
AcDbEntity
  8
0
100
AcDbBlockBegin
  2
_CLOSED
 70
     0
 10
0.0
 20
0.0
 30
0.0
  3
_CLOSED
  1

  0
LINE
  5
AA9
330
AA8
100
AcDbEntity
  8
0
100
AcDbLine
 10
-1.0
 20
0.166667
 30
0.0
 11
0.0
 21
0.0
 31
0.0
  0
LINE
  5
AAA
330
AA8
100
AcDbEntity
  8
0
100
AcDbLine
 10
0.0
 20
0.0
 30
0.0
 11
-1.0
 21
-0.166667
 31
0.0
  0
LINE
  5
AAB
330
AA8
100
AcDbEntity
  8
0
100
AcDbLine
 10
-1.0
 20
0.166667
 30
0.0
 11
-1.0
 21
-0.166667
 31
0.0
  0
LINE
  5
AAC
330
AA8
100
AcDbEntity
  8
0
100
AcDbLine
 10
0.0
 20
0.0
 30
0.0
 11
-1.0
 21
0.0
 31
0.0
  0
ENDBLK
  5
AAE
330
AA8
100
AcDbEntity
  8
0
100
AcDbBlockEnd
  0
BLOCK
  5
BF0
330
BA5
100
AcDbEntity
  8
0
100
AcDbBlockBegin
  2
guarnizione
 70
     0
 10
0.0
 20
0.0
 30
0.0
  3
guarnizione
  1

  0
LINE
  5
BA6
330
BA5
100
AcDbEntity
  8
0
100
AcDbLine
 10
12.0
 20
3.179312414488776
 30
0.0
 11
12.0
 21
2.699999999999818
 31
0.0
  0
LINE
  5
BA7
330
BA5
100
AcDbEntity
  8
0
100
AcDbLine
 10
9.5
 20
3.130475008156281
 30
0.0
 11
9.440776269158959
 21
2.734883615801663
 31
0.0
  0
ARC
  5
BA8
330
BA5
100
AcDbEntity
  8
0
100
AcDbCircle
 10
11.19999999999891
 20
3.179312414488776
 30
0.0
 40
0.8
100
AcDbArc
 50
0.0
 51
81.48552156587461
  0
ARC
  5
BA9
330
BA5
100
AcDbEntity
  8
0
100
AcDbCircle
 10
8.753809903480942
 20
1.523241254200002
 30
0.0
 40
0.1999999999999504
100
AcDbArc
 50
171.485521565823
 51
351.485521565823
  0
LINE
  5
BAA
330
BA5
100
AcDbEntity
  8
0
100
AcDbLine
 10
11.65558220186904
 20
-2.403306455734309
 30
0.0
 11
9.440776269158959
 21
-2.734883615802573
 31
0.0
  0
ARC
  5
BAB
330
BA5
100
AcDbEntity
  8
0
100
AcDbCircle
 10
8.753809903480942
 20
-1.523241254200911
 30
0.0
 40
0.1999999999999504
100
AcDbArc
 50
8.514478434176927
 51
188.5144784341769
  0
LINE
  5
BAC
330
BA5
100
AcDbEntity
  8
0
100
AcDbLine
 10
9.5
 20
-3.130475008157191
 30
0.0
 11
9.440776269158959
 21
-2.734883615802573
 31
0.0
  0
ARC
  5
BAD
330
BA5
100
AcDbEntity
  8
0
100
AcDbCircle
 10
11.69999999999891
 20
-2.699999999999818
 30
0.0
 40
0.3
100
AcDbArc
 50
0.0
 51
98.51447843412536
  0
ARC
  5
BAE
330
BA5
100
AcDbEntity
  8
0
100
AcDbCircle
 10
11.69999999999891
 20
2.699999999999818
 30
0.0
 40
0.3
100
AcDbArc
 50
261.4855215658746
 51
0.0
  0
LINE
  5
BAF
330
BA5
100
AcDbEntity
  8
0
100
AcDbLine
 10
11.65558220186904
 20
2.4033064557334
 30
0.0
 11
9.440776269158959
 21
2.734883615801663
 31
0.0
  0
LINE
  5
BB0
330
BA5
100
AcDbEntity
  8
0
100
AcDbLine
 10
8.807715063378054
 20
3.234116537129011
 30
0.0
 11
8.556014207302723
 21
1.552853119620522
 31
0.0
  0
LINE
  5
BB1
330
BA5
100
AcDbEntity
  8
0
100
AcDbLine
 10
9.203306455732672
 20
3.174892806287971
 30
0.0
 11
8.951605599657341
 21
1.493629388779481
 31
0.0
  0
LINE
  5
BB2
330
BA5
100
AcDbEntity
  8
0
100
AcDbLine
 10
6.681411329471302
 20
3.552444090400967
 30
0.0
 11
6.622187598630262
 21
3.15685269804544
 31
0.0
  0
ARC
  5
BB3
330
BA5
100
AcDbEntity
  8
0
100
AcDbCircle
 10
0.2999999999992724
 20
3.800000000000181
 30
0.0
 40
0.3
100
AcDbArc
 50
81.48552156587461
 51
180.0
  0
ARC
  5
BB4
330
BA5
100
AcDbEntity
  8
0
100
AcDbCircle
 10
1.042400829128382
 20
4.699999999999818
 30
0.0
 40
0.8
100
AcDbArc
 50
81.48552156587461
 51
90.0
  0
LINE
  5
BB5
330
BA5
100
AcDbEntity
  8
0
100
AcDbLine
 10
1.5
 20
3.923692082123125
 30
0.0
 11
0.3444177981309622
 21
4.09669354426569
 31
0.0
  0
LINE
  5
BB6
330
BA5
100
AcDbEntity
  8
0
100
AcDbLine
 10
1.5
 20
3.923692082123125
 30
0.0
 11
1.5
 21
3.099999999999454
 31
0.0
  0
LINE
  5
BB7
330
BA5
100
AcDbEntity
  8
0
100
AcDbLine
 10
1.5
 20
3.099999999999454
 30
0.0
 11
2.699999999998908
 21
3.099999999999454
 31
0.0
  0
LINE
  5
BB8
330
BA5
100
AcDbEntity
  8
0
100
AcDbLine
 10
2.699999999998908
 20
3.744040860223321
 30
0.0
 11
2.699999999998908
 21
3.099999999999454
 31
0.0
  0
LINE
  5
BB9
330
BA5
100
AcDbEntity
  8
0
100
AcDbLine
 10
6.622187598630262
 20
3.15685269804544
 30
0.0
 11
2.699999999998908
 21
3.744040860223321
 31
0.0
  0
LINE
  5
BBA
330
BA5
100
AcDbEntity
  8
0
100
AcDbLine
 10
1.5
 20
-3.100000000000363
 30
0.0
 11
2.699999999998908
 21
-3.100000000000363
 31
0.0
  0
LINE
  5
BBB
330
BA5
100
AcDbEntity
  8
0
100
AcDbLine
 10
11.31844746168099
 20
3.970495199198012
 30
0.0
 11
1.160848290810463
 21
5.491182784709053
 31
0.0
  0
LINE
  5
BBC
330
BA5
100
AcDbEntity
  8
0
100
AcDbLine
 10
9.5
 20
3.130475008156281
 30
0.0
 11
6.681411329471302
 21
3.552444090400967
 31
0.0
  0
ARC
  5
BBD
330
BA5
100
AcDbEntity
  8
0
100
AcDbCircle
 10
11.19999999999891
 20
-3.179312414488776
 30
0.0
 40
0.8
100
AcDbArc
 50
278.5144784341254
 51
0.0
  0
LINE
  5
BBE
330
BA5
100
AcDbEntity
  8
0
100
AcDbLine
 10
6.681411329471302
 20
-3.552444090400967
 30
0.0
 11
6.622187598630262
 21
-3.15685269804635
 31
0.0
  0
ARC
  5
BBF
330
BA5
100
AcDbEntity
  8
0
100
AcDbCircle
 10
0.2999999999992724
 20
-3.800000000000181
 30
0.0
 40
0.3
100
AcDbArc
 50
180.0
 51
278.5144784341254
  0
ARC
  5
BC0
330
BA5
100
AcDbEntity
  8
0
100
AcDbCircle
 10
1.042400829128382
 20
-4.699999999999818
 30
0.0
 40
0.8
100
AcDbArc
 50
270.0
 51
278.5144784341254
  0
LINE
  5
BC1
330
BA5
100
AcDbEntity
  8
0
100
AcDbLine
 10
0.3444177981309622
 20
-4.096693544266599
 30
0.0
 11
1.5
 21
-3.923692082124034
 31
0.0
  0
LINE
  5
BC2
330
BA5
100
AcDbEntity
  8
0
100
AcDbLine
 10
6.622187598630262
 20
-3.15685269804635
 30
0.0
 11
2.699999999998908
 21
-3.744040860224231
 31
0.0
  0
LINE
  5
BC3
330
BA5
100
AcDbEntity
  8
0
100
AcDbLine
 10
1.160848290810463
 20
-5.491182784709963
 30
0.0
 11
11.31844746168099
 21
-3.970495199198921
 31
0.0
  0
LINE
  5
BC4
330
BA5
100
AcDbEntity
  8
0
100
AcDbLine
 10
0.0
 20
3.800000000000181
 30
0.0
 11
0.0
 21
-3.800000000000181
 31
0.0
  0
LINE
  5
BC5
330
BA5
100
AcDbEntity
  8
0
100
AcDbLine
 10
12.0
 20
-2.699999999999818
 30
0.0
 11
12.0
 21
-3.179312414488776
 31
0.0
  0
LINE
  5
BC6
330
BA5
100
AcDbEntity
  8
0
100
AcDbLine
 10
2.699999999998908
 20
-3.100000000000363
 30
0.0
 11
2.699999999998908
 21
-3.744040860224231
 31
0.0
  0
LINE
  5
BC7
330
BA5
100
AcDbEntity
  8
0
100
AcDbLine
 10
1.5
 20
-3.100000000000363
 30
0.0
 11
1.5
 21
-3.923692082124034
 31
0.0
  0
LINE
  5
BC8
330
BA5
100
AcDbEntity
  8
0
100
AcDbLine
 10
9.5
 20
-3.130475008157191
 30
0.0
 11
6.681411329471302
 21
-3.552444090400967
 31
0.0
  0
LINE
  5
BC9
330
BA5
100
AcDbEntity
  8
0
100
AcDbLine
 10
9.203306455732672
 20
-3.174892806287971
 30
0.0
 11
8.951605599657341
 21
-1.493629388780391
 31
0.0
  0
LINE
  5
BCA
330
BA5
100
AcDbEntity
  8
0
100
AcDbLine
 10
8.807715063378054
 20
-3.234116537129011
 30
0.0
 11
8.556014207302723
 21
-1.552853119621431
 31
0.0
  0
LINE
  5
BCB
330
BA5
100
AcDbEntity
  8
0
100
AcDbLine
 10
-1.5
 20
5.5
 30
0.0
 11
-3.757359312881817
 21
5.5
 31
0.0
  0
ARC
  5
BCC
330
BA5
100
AcDbEntity
  8
0
100
AcDbCircle
 10
-2.5
 20
3.5
 30
0.0
 40
1.0
100
AcDbArc
 50
0.0
 51
90.0
  0
ARC
  5
BCD
330
BA5
100
AcDbEntity
  8
0
100
AcDbCircle
 10
-3.769781102879278
 20
4.149978862833449
 30
0.0
 40
0.75
100
AcDbArc
 50
47.16775949949599
 51
90.19499109987526
  0
ARC
  5
BCE
330
BA5
100
AcDbEntity
  8
0
100
AcDbCircle
 10
-2.75
 20
5.25
 30
0.0
 40
0.75
100
AcDbArc
 50
227.167759499496
 51
270.0
  0
LINE
  5
BCF
330
BA5
100
AcDbEntity
  8
0
100
AcDbLine
 10
-2.75
 20
4.5
 30
0.0
 11
-2.5
 21
4.5
 31
0.0
  0
LINE
  5
BD0
330
BA5
100
AcDbEntity
  8
0
100
AcDbLine
 10
-7.415254325502246
 20
3.064644661409147
 30
0.0
 11
-6.868629150101696
 21
3.611269837220788
 31
0.0
  0
ARC
  5
BD1
102
{ACAD_REACTORS
330
BEB
102
}
330
BA5
100
AcDbEntity
  8
0
100
AcDbCircle
 10
-7.980939750059405
 20
2.569669913566031
 30
0.0
 40
0.2
100
AcDbArc
 50
45.0000001037625
 51
135.0000000719631
  0
ARC
  5
BD2
330
BA5
100
AcDbEntity
  8
0
100
AcDbCircle
 10
-3.757359312881817
 20
0.5
 30
0.0
 40
5.0
100
AcDbArc
 50
90.0
 51
135.0
  0
ARC
  5
BD3
330
BA5
100
AcDbEntity
  8
0
100
AcDbCircle
 10
-3.757359312881817
 20
0.5
 30
0.0
 40
4.4
100
AcDbArc
 50
90.19499109987526
 51
135.0
  0
ARC
  5
BD4
330
BA5
100
AcDbEntity
  8
0
100
AcDbCircle
 10
-6.814213563102384
 20
0.9786796633270569
 30
0.0
 40
0.75
100
AcDbArc
 50
314.9999999676111
 51
45.0
  0
ARC
  5
BD5
102
{ACAD_REACTORS
330
BEB
102
}
330
BA5
100
AcDbEntity
  8
0
100
AcDbCircle
 10
-6.814213563102384
 20
0.9786796633270569
 30
0.0
 40
0.5
100
AcDbArc
 50
314.9999999676111
 51
45.0
  0
ARC
  5
BD6
330
BA5
100
AcDbEntity
  8
0
100
AcDbCircle
 10
-7.203122291144609
 20
2.852512627053329
 30
0.0
 40
0.3
100
AcDbArc
 50
135.0
 51
225.0000001112794
  0
LINE
  5
BD7
330
BA5
100
AcDbEntity
  8
0
100
AcDbLine
 10
-8.051650430128574
 20
3.276776694619002
 30
0.0
 11
-6.283883477519339
 21
1.509009749524921
 31
0.0
  0
LINE
  5
BD8
102
{ACAD_REACTORS
330
BEB
102
}
330
BA5
100
AcDbEntity
  8
0
100
AcDbLine
 10
-7.839518394079277
 20
2.711091270059114
 30
0.0
 11
-6.460660172508141
 21
1.33223305392039
 31
0.0
  0
ARC
  5
BD9
330
BA5
100
AcDbEntity
  8
0
100
AcDbCircle
 10
-12.57713383280133
 20
-2.521498914058611
 30
0.0
 40
0.3
100
AcDbArc
 50
45.00000003552097
 51
135.0
  0
ARC
  5
BDA
102
{ACAD_REACTORS
330
BEB
102
}
330
BA5
100
AcDbEntity
  8
0
100
AcDbCircle
 10
-12.29429112059733
 20
-1.743681468243266
 30
0.0
 40
0.2
100
AcDbArc
 50
135.0000000660675
 51
225.0000002990173
  0
LINE
  5
BDB
330
BA5
100
AcDbEntity
  8
0
100
AcDbLine
 10
-12.9899494936617
 20
-2.510050506339212
 30
0.0
 11
-12.78926586715715
 21
-2.309366879702793
 31
0.0
  0
LINE
  5
BDC
330
BA5
100
AcDbEntity
  8
0
100
AcDbLine
 10
-13.41421356237333
 20
-2.085786437626666
 30
0.0
 11
-7.292893218815152
 21
4.035533905932425
 31
0.0
  0
LINE
  5
BDD
102
{ACAD_REACTORS
330
BEB
102
}
330
BA5
100
AcDbEntity
  8
0
100
AcDbLine
 10
-12.43571247699765
 20
-1.602260112168551
 30
0.0
 11
-8.122361106474272
 21
2.711091269625285
 31
0.0
  0
ARC
  5
BDE
330
BA5
100
AcDbEntity
  8
0
100
AcDbCircle
 10
-2.5
 20
-3.5
 30
0.0
 40
1.0
100
AcDbArc
 50
270.0
 51
0.0
  0
ARC
  5
BDF
330
BA5
100
AcDbEntity
  8
0
100
AcDbCircle
 10
-7.519803902720013
 20
-4.150000000000545
 30
0.0
 40
0.75
100
AcDbArc
 50
270.0
 51
312.8334280660476
  0
ARC
  5
BE0
330
BA5
100
AcDbEntity
  8
0
100
AcDbCircle
 10
-6.5
 20
-5.25
 30
0.0
 40
0.75
100
AcDbArc
 50
90.0
 51
132.8334280660476
  0
LINE
  5
BE1
330
BA5
100
AcDbEntity
  8
0
100
AcDbLine
 10
-2.5
 20
-4.5
 30
0.0
 11
-6.5
 21
-4.5
 31
0.0
  0
ARC
  5
BE2
330
BA5
100
AcDbEntity
  8
0
100
AcDbCircle
 10
-10.7033008647486
 20
-2.910407640086305
 30
0.0
 40
0.75
100
AcDbArc
 50
225.0
 51
315.0
  0
ARC
  5
BE3
102
{ACAD_REACTORS
330
BEB
102
}
330
BA5
100
AcDbEntity
  8
0
100
AcDbCircle
 10
-10.7033008647486
 20
-2.910407640086305
 30
0.0
 40
0.5
100
AcDbArc
 50
225.0
 51
315.0
  0
LINE
  5
BE4
330
BA5
100
AcDbEntity
  8
0
100
AcDbLine
 10
-1.5
 20
-5.5
 30
0.0
 11
-12.0
 21
-5.5
 31
0.0
  0
LINE
  5
BE5
330
BA5
100
AcDbEntity
  8
0
100
AcDbLine
 10
-7.519803902720013
 20
-4.900000000000545
 30
0.0
 11
-12.0
 21
-4.900000000000545
 31
0.0
  0
ARC
  5
BE6
330
BA5
100
AcDbEntity
  8
0
100
AcDbCircle
 10
-12.0
 20
-3.5
 30
0.0
 40
2.0
100
AcDbArc
 50
135.0
 51
270.0
  0
LINE
  5
BE7
330
BA5
100
AcDbEntity
  8
0
100
AcDbLine
 10
-10.17297077881812
 20
-3.440737725935832
 30
0.0
 11
-6.283883477372
 21
0.4483495772774404
 31
0.0
  0
ARC
  5
BE8
330
BA5
100
AcDbEntity
  8
0
100
AcDbCircle
 10
-12.0
 20
-3.5
 30
0.0
 40
1.399999999999999
100
AcDbArc
 50
135.0
 51
270.0
  0
LINE
  5
BE9
330
BA5
100
AcDbEntity
  8
0
100
AcDbLine
 10
-13.00139790187859
 20
-1.672970777132832
 30
0.0
 11
-11.23363095093009
 21
-3.440737725682993
 31
0.0
  0
LINE
  5
BEA
330
BA5
100
AcDbEntity
  8
0
100
AcDbLine
 10
-1.5
 20
3.5
 30
0.0
 11
-1.5
 21
-3.5
 31
0.0
  0
HATCH
  5
BEB
330
BA5
100
AcDbEntity
  8
0
100
AcDbHatch
 10
0.0
 20
0.0
 30
0.0
210
0.0
220
0.0
230
1.0
  2
ANSI31
 70
     0
 71
     1
 91
        1
 92
        7
 72
     1
 73
     1
 93
        8
 10
-6.460660173204814
 20
1.332233054616153
 42
0.0
 10
-7.839518394101105
 20
2.711091270081851
 42
0.414213562178905
 10
-8.122361106481548
 20
2.711091269618009
 42
0.0
 10
-12.43571247701766
 20
-1.602260112190379
 42
0.4142135636146872
 10
-12.43571247604996
 20
-1.885102825264766
 42
0.0
 10
-11.05685425338015
 20
-3.263961032639599
 42
0.4142135608152901
 10
-10.34974747407432
 20
-3.263961030598693
 42
0.0
 10
-6.460660172428106
 20
0.625126272813759
 42
0.4142135628833784
 97
        8
330
BD8
330
BD1
330
BDD
330
BDA
330
BED
330
BE3
330
BEC
330
BD5
 75
     0
 76
     1
 52
45.0
 41
0.25
 77
     0
 78
     1
 53
90.0
 43
-276.1145346408611
 44
-395.2719013892401
 45
-0.79375
 46
0.0000000000000002
 79
     0
 47
0.0364805528584695
 98
        1
 10
-7.399477738399582
 20
0.8532363732892918
  0
LINE
  5
BEC
102
{ACAD_REACTORS
330
BEB
102
}
330
BA5
100
AcDbEntity
  8
0
100
AcDbLine
 10
-10.34974747415435
 20
-3.263961030678729
 30
0.0
 11
-6.46066017270823
 21
0.6251262725336347
 31
0.0
  0
LINE
  5
BED
102
{ACAD_REACTORS
330
BEB
102
}
330
BA5
100
AcDbEntity
  8
0
100
AcDbLine
 10
-12.43571247609543
 20
-1.885102825218382
 30
0.0
 11
-11.05685425534102
 21
-3.263961030678729
 31
0.0
  0
LINE
  5
BEE
330
BA5
100
AcDbEntity
  8
0
100
AcDbLine
 10
-1.5
 20
5.5
 30
0.0
 11
1.042400829128382
 21
5.5
 31
0.0
  0
LINE
  5
BEF
330
BA5
100
AcDbEntity
  8
0
100
AcDbLine
 10
-1.5
 20
-5.5
 30
0.0
 11
1.042400829128382
 21
-5.5
 31
0.0
  0
ENDBLK
  5
BF1
330
BA5
100
AcDbEntity
  8
0
100
AcDbBlockEnd
  0
BLOCK
  5
EA7
330
E9D
100
AcDbEntity
  8
0
100
AcDbBlockBegin
  2
*D16
 70
     1
 10
0.0
 20
0.0
 30
0.0
  3
*D16
  1

  0
LINE
  5
1166
330
E9D
100
AcDbEntity
  8
7
100
AcDbLine
 10
237.4169127647982
 20
366.9595850474962
 30
0.0
 11
219.7796545774835
 21
366.9595850474962
 31
0.0
  0
LINE
  5
1167
330
E9D
100
AcDbEntity
  8
7
100
AcDbLine
 10
237.4169127647987
 20
182.9595850474961
 30
0.0
 11
219.7796545774835
 21
182.9595850474961
 31
0.0
  0
LINE
  5
1168
330
E9D
100
AcDbEntity
  8
7
100
AcDbLine
 10
220.7796545774836
 20
364.9595850474962
 30
0.0
 11
220.7796545774835
 21
184.9595850474961
 31
0.0
  0
SOLID
  5
1169
330
E9D
100
AcDbEntity
  8
7
100
AcDbTrace
 10
220.4463212441502
 20
364.9595850474962
 30
0.0
 11
221.1129879108169
 21
364.9595850474962
 31
0.0
 12
220.7796545774836
 22
366.9595850474962
 32
0.0
 13
220.7796545774836
 23
366.9595850474962
 33
0.0
  0
SOLID
  5
116A
330
E9D
100
AcDbEntity
  8
7
100
AcDbTrace
 10
220.4463212441501
 20
184.9595850474961
 30
0.0
 11
221.1129879108168
 21
184.9595850474961
 31
0.0
 12
220.7796545774835
 22
182.9595850474961
 32
0.0
 13
220.7796545774835
 23
182.9595850474961
 33
0.0
  0
MTEXT
  5
116B
330
E9D
100
AcDbEntity
  8
7
100
AcDbMText
 10
218.7339863437696
 20
274.9595850474962
 30
0.0
 40
2.0
 41
0.0
 71
     5
 72
     1
  1
1840
  7
SANINDUSA
 11
0.0000000000000001
 21
1.0
 31
0.0
 73
     1
 44
1.0
1001
ACAD
1000
MTEXTBEGIN
1070
    73
1070
     1
1070
    44
1040
1.0
1070
    74
1070
     0
1000
MTEXTEND
  0
POINT
  5
116C
330
E9D
100
AcDbEntity
  8
Defpoints
 62
     0
100
AcDbPoint
 10
238.4169127647982
 20
366.9595850474962
 30
0.0
  0
POINT
  5
116D
330
E9D
100
AcDbEntity
  8
Defpoints
 62
     0
100
AcDbPoint
 10
238.4169127647987
 20
182.9595850474961
 30
0.0
  0
POINT
  5
116E
330
E9D
100
AcDbEntity
  8
Defpoints
 62
     0
100
AcDbPoint
 10
220.7796545774835
 20
182.9595850474961
 30
0.0
  0
ENDBLK
  5
EA8
330
E9D
100
AcDbEntity
  8
0
100
AcDbBlockEnd
  0
BLOCK
  5
EB3
330
EA9
100
AcDbEntity
  8
0
100
AcDbBlockBegin
  2
*D17
 70
     1
 10
0.0
 20
0.0
 30
0.0
  3
*D17
  1

  0
LINE
  5
115D
330
EA9
100
AcDbEntity
  8
7
100
AcDbLine
 10
259.9290290703528
 20
366.959585047492
 30
0.0
 11
264.9290290703528
 21
366.959585047492
 31
0.0
  0
LINE
  5
115E
330
EA9
100
AcDbEntity
  8
7
100
AcDbLine
 10
260.8860146969931
 20
181.9595850474961
 30
0.0
 11
264.9290290703528
 21
181.9595850474961
 31
0.0
  0
LINE
  5
115F
330
EA9
100
AcDbEntity
  8
7
100
AcDbLine
 10
263.9290290703528
 20
364.959585047492
 30
0.0
 11
263.9290290703528
 21
183.9595850474961
 31
0.0
  0
SOLID
  5
1160
330
EA9
100
AcDbEntity
  8
7
100
AcDbTrace
 10
263.5956957370195
 20
364.959585047492
 30
0.0
 11
264.2623624036862
 21
364.959585047492
 31
0.0
 12
263.9290290703528
 22
366.959585047492
 32
0.0
 13
263.9290290703528
 23
366.959585047492
 33
0.0
  0
SOLID
  5
1161
330
EA9
100
AcDbEntity
  8
7
100
AcDbTrace
 10
263.5956957370195
 20
183.9595850474961
 30
0.0
 11
264.2623624036862
 21
183.9595850474961
 31
0.0
 12
263.9290290703528
 22
181.9595850474961
 32
0.0
 13
263.9290290703528
 23
181.9595850474961
 33
0.0
  0
MTEXT
  5
1162
330
EA9
100
AcDbEntity
  8
7
100
AcDbMText
 10
261.8833608366389
 20
274.4595850474941
 30
0.0
 40
2.0
 41
0.0
 71
     5
 72
     1
  1
1850
  7
SANINDUSA
 11
0.0000000000000001
 21
1.0
 31
0.0
 73
     1
 44
1.0
1001
ACAD
1000
MTEXTBEGIN
1070
    73
1070
     1
1070
    44
1040
1.0
1070
    74
1070
     0
1000
MTEXTEND
  0
POINT
  5
1163
330
EA9
100
AcDbEntity
  8
Defpoints
 62
     0
100
AcDbPoint
 10
258.9290290703528
 20
366.959585047492
 30
0.0
  0
POINT
  5
1164
330
EA9
100
AcDbEntity
  8
Defpoints
 62
     0
100
AcDbPoint
 10
259.8860146969931
 20
181.9595850474961
 30
0.0
  0
POINT
  5
1165
330
EA9
100
AcDbEntity
  8
Defpoints
 62
     0
100
AcDbPoint
 10
263.9290290703528
 20
181.9595850474961
 30
0.0
  0
ENDBLK
  5
EB4
330
EA9
100
AcDbEntity
  8
0
100
AcDbBlockEnd
  0
BLOCK
  5
EBF
330
EB5
100
AcDbEntity
  8
0
100
AcDbBlockBegin
  2
*D18
 70
     1
 10
0.0
 20
0.0
 30
0.0
  3
*D18
  1

  0
LINE
  5
1130
330
EB5
100
AcDbEntity
  8
7
100
AcDbLine
 10
178.8923920100263
 20
211.4595850474962
 30
0.0
 11
144.1290290703531
 21
211.4595850474962
 31
0.0
  0
LINE
  5
1131
330
EB5
100
AcDbEntity
  8
7
100
AcDbLine
 10
149.1290290703531
 20
181.9595850474957
 30
0.0
 11
144.1290290703531
 21
181.9595850474957
 31
0.0
  0
LINE
  5
1132
330
EB5
100
AcDbEntity
  8
7
100
AcDbLine
 10
145.1290290703531
 20
209.4595850474961
 30
0.0
 11
145.1290290703531
 21
183.9595850474957
 31
0.0
  0
SOLID
  5
1133
330
EB5
100
AcDbEntity
  8
7
100
AcDbTrace
 10
144.7956957370198
 20
209.4595850474961
 30
0.0
 11
145.4623624036865
 21
209.4595850474961
 31
0.0
 12
145.1290290703531
 22
211.4595850474962
 32
0.0
 13
145.1290290703531
 23
211.4595850474962
 33
0.0
  0
SOLID
  5
1134
330
EB5
100
AcDbEntity
  8
7
100
AcDbTrace
 10
144.7956957370197
 20
183.9595850474957
 30
0.0
 11
145.4623624036864
 21
183.9595850474957
 31
0.0
 12
145.1290290703531
 22
181.9595850474957
 32
0.0
 13
145.1290290703531
 23
181.9595850474957
 33
0.0
  0
MTEXT
  5
1135
330
EB5
100
AcDbEntity
  8
7
100
AcDbMText
 10
143.0873903866727
 20
196.7095850474959
 30
0.0
 40
2.0
 41
0.0
 71
     5
 72
     1
  1
295
  7
SANINDUSA
 11
0.0000000000000001
 21
1.0
 31
0.0
 73
     1
 44
1.0
1001
ACAD
1000
MTEXTBEGIN
1070
    73
1070
     1
1070
    44
1040
1.0
1070
    74
1070
     0
1000
MTEXTEND
  0
POINT
  5
1136
330
EB5
100
AcDbEntity
  8
Defpoints
 62
     0
100
AcDbPoint
 10
179.8923920100263
 20
211.4595850474962
 30
-0.0000001793795719
  0
POINT
  5
1137
330
EB5
100
AcDbEntity
  8
Defpoints
 62
     0
100
AcDbPoint
 10
150.1290290703531
 20
181.9595850474957
 30
0.0
  0
POINT
  5
1138
330
EB5
100
AcDbEntity
  8
Defpoints
 62
     0
100
AcDbPoint
 10
145.1290290703531
 20
181.9595850474957
 30
0.0
  0
ENDBLK
  5
EC0
330
EB5
100
AcDbEntity
  8
0
100
AcDbBlockEnd
  0
BLOCK
  5
ECD
330
EC1
100
AcDbEntity
  8
0
100
AcDbBlockBegin
  2
*D19
 70
     1
 10
0.0
 20
0.0
 30
0.0
  3
*D19
  1

  0
LINE
  5
1125
330
EC1
100
AcDbEntity
  8
7
100
AcDbLine
 10
224.9511014240423
 20
182.9595850474964
 30
0.0
 11
209.7796545774835
 21
182.9595850474964
 31
0.0
  0
LINE
  5
1126
330
EC1
100
AcDbEntity
  8
7
100
AcDbLine
 10
227.7299359169173
 20
181.9595850474964
 30
0.0
 11
209.7796545774835
 21
181.9595850474964
 31
0.0
  0
LINE
  5
1127
330
EC1
100
AcDbEntity
  8
7
100
AcDbLine
 10
210.7796545774835
 20
184.9595850474964
 30
0.0
 11
210.7796545774835
 21
186.9595850474963
 31
0.0
  0
LINE
  5
1128
330
EC1
100
AcDbEntity
  8
7
100
AcDbLine
 10
210.7796545774835
 20
179.9595850474964
 30
0.0
 11
210.7796545774835
 21
173.0166703396387
 31
0.0
  0
LINE
  5
1129
330
EC1
100
AcDbEntity
  8
7
100
AcDbLine
 10
210.7796545774835
 20
182.9595850474964
 30
0.0
 11
210.7796545774835
 21
181.9595850474964
 31
0.0
  0
SOLID
  5
112A
330
EC1
100
AcDbEntity
  8
7
100
AcDbTrace
 10
210.4463212441501
 20
184.9595850474964
 30
0.0
 11
211.1129879108168
 21
184.9595850474964
 31
0.0
 12
210.7796545774835
 22
182.9595850474964
 32
0.0
 13
210.7796545774835
 23
182.9595850474964
 33
0.0
  0
SOLID
  5
112B
330
EC1
100
AcDbEntity
  8
7
100
AcDbTrace
 10
210.4463212441501
 20
179.9595850474964
 30
0.0
 11
211.1129879108168
 21
179.9595850474964
 31
0.0
 12
210.7796545774835
 22
181.9595850474964
 32
0.0
 13
210.7796545774835
 23
181.9595850474964
 33
0.0
  0
MTEXT
  5
112C
330
EC1
100
AcDbEntity
  8
7
100
AcDbMText
 10
208.7386874854754
 20
175.4881276935676
 30
0.0
 40
2.0
 41
0.0
 71
     5
 72
     1
  1
10
  7
SANINDUSA
 11
0.0000000000000001
 21
1.0
 31
0.0
 73
     1
 44
1.0
1001
ACAD
1000
MTEXTBEGIN
1070
    73
1070
     1
1070
    44
1040
1.0
1070
    74
1070
     0
1000
MTEXTEND
  0
POINT
  5
112D
330
EC1
100
AcDbEntity
  8
Defpoints
 62
     0
100
AcDbPoint
 10
225.9511014240423
 20
182.9595850474964
 30
-0.0000001793795719
  0
POINT
  5
112E
330
EC1
100
AcDbEntity
  8
Defpoints
 62
     0
100
AcDbPoint
 10
228.7299359169173
 20
181.9595850474964
 30
0.0
  0
POINT
  5
112F
330
EC1
100
AcDbEntity
  8
Defpoints
 62
     0
100
AcDbPoint
 10
210.7796545774835
 20
181.9595850474964
 30
0.0
  0
ENDBLK
  5
ECE
330
EC1
100
AcDbEntity
  8
0
100
AcDbBlockEnd
  0
BLOCK
  5
ED9
330
ECF
100
AcDbEntity
  8
0
100
AcDbBlockBegin
  2
*D20
 70
     1
 10
0.0
 20
0.0
 30
0.0
  3
*D20
  1

  0
LINE
  5
116F
330
ECF
100
AcDbEntity
  8
7
100
AcDbLine
 10
211.7796545774835
 20
211.4595850474962
 30
0.0
 11
216.7796545774835
 21
211.4595850474962
 31
0.0
  0
LINE
  5
1170
330
ECF
100
AcDbEntity
  8
7
100
AcDbLine
 10
214.0095046493137
 20
182.9595850474964
 30
0.0
 11
216.7796545774835
 21
182.9595850474964
 31
0.0
  0
LINE
  5
1171
330
ECF
100
AcDbEntity
  8
7
100
AcDbLine
 10
215.7796545774835
 20
209.4595850474961
 30
0.0
 11
215.7796545774835
 21
184.9595850474964
 31
0.0
  0
SOLID
  5
1172
330
ECF
100
AcDbEntity
  8
7
100
AcDbTrace
 10
215.4463212441502
 20
209.4595850474961
 30
0.0
 11
216.1129879108169
 21
209.4595850474961
 31
0.0
 12
215.7796545774835
 22
211.4595850474962
 32
0.0
 13
215.7796545774835
 23
211.4595850474962
 33
0.0
  0
SOLID
  5
1173
330
ECF
100
AcDbEntity
  8
7
100
AcDbTrace
 10
215.4463212441501
 20
184.9595850474964
 30
0.0
 11
216.1129879108168
 21
184.9595850474964
 31
0.0
 12
215.7796545774835
 22
182.9595850474964
 32
0.0
 13
215.7796545774835
 23
182.9595850474964
 33
0.0
  0
MTEXT
  5
1174
330
ECF
100
AcDbEntity
  8
7
100
AcDbMText
 10
213.7339863437695
 20
197.2095850474963
 30
0.0
 40
2.0
 41
0.0
 71
     5
 72
     1
  1
285
  7
SANINDUSA
 11
0.0000000000000001
 21
1.0
 31
0.0
 73
     1
 44
1.0
1001
ACAD
1000
MTEXTBEGIN
1070
    73
1070
     1
1070
    44
1040
1.0
1070
    74
1070
     0
1000
MTEXTEND
  0
POINT
  5
1175
330
ECF
100
AcDbEntity
  8
Defpoints
 62
     0
100
AcDbPoint
 10
210.7796545774835
 20
211.4595850474962
 30
-0.0000001793795719
  0
POINT
  5
1176
330
ECF
100
AcDbEntity
  8
Defpoints
 62
     0
100
AcDbPoint
 10
213.0095046493137
 20
182.9595850474964
 30
-0.0000001793795719
  0
POINT
  5
1177
330
ECF
100
AcDbEntity
  8
Defpoints
 62
     0
100
AcDbPoint
 10
215.7796545774835
 20
182.9595850474964
 30
0.0
  0
ENDBLK
  5
EDA
330
ECF
100
AcDbEntity
  8
0
100
AcDbBlockEnd
  0
BLOCK
  5
EE5
330
EDB
100
AcDbEntity
  8
0
100
AcDbBlockBegin
  2
*D21
 70
     1
 10
0.0
 20
0.0
 30
0.0
  3
*D21
  1

  0
LINE
  5
1142
330
EDB
100
AcDbEntity
  8
7
100
AcDbLine
 10
195.7963789564504
 20
150.4746257286871
 30
0.0000000000000025
 11
195.7963789564504
 21
161.6446257286874
 31
0.0000000000000025
  0
LINE
  5
1143
330
EDB
100
AcDbEntity
  8
7
100
AcDbLine
 10
149.9792468983299
 20
151.6446257286874
 30
0.0000000000000025
 11
149.9792468983299
 21
161.6446257286874
 31
0.0000000000000025
  0
LINE
  5
1144
330
EDB
100
AcDbEntity
  8
7
100
AcDbLine
 10
193.7963789564504
 20
160.6446257286874
 30
0.0000000000000025
 11
151.9792468983299
 21
160.6446257286874
 31
0.0000000000000025
  0
SOLID
  5
1145
330
EDB
100
AcDbEntity
  8
7
100
AcDbTrace
 10
193.7963789564504
 20
160.9779590620207
 30
0.0000000000000025
 11
193.7963789564504
 21
160.311292395354
 31
0.0000000000000025
 12
195.7963789564504
 22
160.6446257286874
 32
0.0000000000000025
 13
195.7963789564504
 23
160.6446257286874
 33
0.0000000000000025
  0
SOLID
  5
1146
330
EDB
100
AcDbEntity
  8
7
100
AcDbTrace
 10
151.9792468983299
 20
160.9779590620207
 30
0.0000000000000025
 11
151.9792468983299
 21
160.311292395354
 31
0.0000000000000025
 12
149.9792468983299
 22
160.6446257286874
 32
0.0000000000000025
 13
149.9792468983299
 23
160.6446257286874
 33
0.0000000000000025
  0
MTEXT
  5
1147
330
EDB
100
AcDbEntity
  8
7
100
AcDbMText
 10
172.8878129273902
 20
162.9159487642817
 30
0.0000000000000025
 40
2.0
 41
0.0
 71
     5
 72
     1
  1
458,2
  7
SANINDUSA
 73
     1
 44
1.0
1001
ACAD
1000
MTEXTBEGIN
1070
    73
1070
     1
1070
    44
1040
1.0
1070
    74
1070
     0
1000
MTEXTEND
  0
POINT
  5
1148
330
EDB
100
AcDbEntity
  8
Defpoints
 62
     0
100
AcDbPoint
 10
195.7963789564504
 20
149.4746257286871
 30
0.0000000000000049
  0
POINT
  5
1149
330
EDB
100
AcDbEntity
  8
Defpoints
 62
     0
100
AcDbPoint
 10
149.9792468983299
 20
150.6446257286874
 30
0.0000000000000049
  0
POINT
  5
114A
330
EDB
100
AcDbEntity
  8
Defpoints
 62
     0
100
AcDbPoint
 10
149.9792468983299
 20
160.6446257286874
 30
0.0000000000000025
  0
ENDBLK
  5
EE6
330
EDB
100
AcDbEntity
  8
0
100
AcDbBlockEnd
  0
BLOCK
  5
EF1
330
EE7
100
AcDbEntity
  8
0
100
AcDbBlockBegin
  2
*D22
 70
     1
 10
0.0
 20
0.0
 30
0.0
  3
*D22
  1

  0
LINE
  5
1113
330
EE7
100
AcDbEntity
  8
7
100
AcDbLine
 10
196.0963789564506
 20
150.4746263962519
 30
0.0000000000000025
 11
196.0963789564506
 21
156.6446257286874
 31
0.0000000000000025
  0
LINE
  5
1114
330
EE7
100
AcDbEntity
  8
7
100
AcDbLine
 10
256.0963789564506
 20
150.4746263962528
 30
0.0000000000000025
 11
256.0963789564506
 21
156.6446257286874
 31
0.0000000000000025
  0
LINE
  5
1115
330
EE7
100
AcDbEntity
  8
7
100
AcDbLine
 10
198.0963789564506
 20
155.6446257286874
 30
0.0000000000000025
 11
254.0963789564506
 21
155.6446257286874
 31
0.0000000000000025
  0
SOLID
  5
1116
330
EE7
100
AcDbEntity
  8
7
100
AcDbTrace
 10
198.0963789564506
 20
155.9779590620207
 30
0.0000000000000025
 11
198.0963789564506
 21
155.311292395354
 31
0.0000000000000025
 12
196.0963789564506
 22
155.6446257286874
 32
0.0000000000000025
 13
196.0963789564506
 23
155.6446257286874
 33
0.0000000000000025
  0
SOLID
  5
1117
330
EE7
100
AcDbEntity
  8
7
100
AcDbTrace
 10
254.0963789564506
 20
155.9779590620207
 30
0.0000000000000025
 11
254.0963789564506
 21
155.311292395354
 31
0.0000000000000025
 12
256.0963789564506
 22
155.6446257286874
 32
0.0000000000000025
 13
256.0963789564506
 23
155.6446257286874
 33
0.0000000000000025
  0
MTEXT
  5
1118
330
EE7
100
AcDbEntity
  8
7
100
AcDbMText
 10
226.0963789564506
 20
157.6855928206954
 30
0.0000000000000025
 40
2.0
 41
0.0
 71
     5
 72
     1
  1
600
  7
SANINDUSA
 73
     1
 44
1.0
1001
ACAD
1000
MTEXTBEGIN
1070
    73
1070
     1
1070
    44
1040
1.0
1070
    74
1070
     0
1000
MTEXTEND
  0
POINT
  5
1119
330
EE7
100
AcDbEntity
  8
Defpoints
 62
     0
100
AcDbPoint
 10
196.0963789564506
 20
149.4746263962519
 30
0.0000000000000025
  0
POINT
  5
111A
330
EE7
100
AcDbEntity
  8
Defpoints
 62
     0
100
AcDbPoint
 10
256.0963789564506
 20
149.4746263962528
 30
0.0000000000000025
  0
POINT
  5
111B
330
EE7
100
AcDbEntity
  8
Defpoints
 62
     0
100
AcDbPoint
 10
256.0963789564506
 20
155.6446257286874
 30
0.0000000000000025
  0
ENDBLK
  5
EF2
330
EE7
100
AcDbEntity
  8
0
100
AcDbBlockEnd
  0
BLOCK
  5
EFD
330
EF3
100
AcDbEntity
  8
0
100
AcDbBlockBegin
  2
*D23
 70
     1
 10
0.0
 20
0.0
 30
0.0
  3
*D23
  1

  0
LINE
  5
1139
330
EF3
100
AcDbEntity
  8
7
100
AcDbLine
 10
195.7963789564504
 20
150.4746257286871
 30
0.0000000000000066
 11
195.7963789564504
 21
156.6446257286874
 31
0.0000000000000066
  0
LINE
  5
113A
330
EF3
100
AcDbEntity
  8
7
100
AcDbLine
 10
154.4764492743214
 20
150.4746257286866
 30
0.0000000000000066
 11
154.4764492743214
 21
156.6446257286874
 31
0.0000000000000066
  0
LINE
  5
113B
330
EF3
100
AcDbEntity
  8
7
100
AcDbLine
 10
193.7963789564504
 20
155.6446257286874
 30
0.0000000000000066
 11
156.4764492743214
 21
155.6446257286874
 31
0.0000000000000066
  0
SOLID
  5
113C
330
EF3
100
AcDbEntity
  8
7
100
AcDbTrace
 10
193.7963789564504
 20
155.9779590620207
 30
0.0000000000000066
 11
193.7963789564504
 21
155.311292395354
 31
0.0000000000000066
 12
195.7963789564504
 22
155.6446257286874
 32
0.0000000000000066
 13
195.7963789564504
 23
155.6446257286874
 33
0.0000000000000066
  0
SOLID
  5
113D
330
EF3
100
AcDbEntity
  8
7
100
AcDbTrace
 10
156.4764492743214
 20
155.9779590620207
 30
0.0000000000000066
 11
156.4764492743214
 21
155.311292395354
 31
0.0000000000000066
 12
154.4764492743214
 22
155.6446257286874
 32
0.0000000000000066
 13
154.4764492743214
 23
155.6446257286874
 33
0.0000000000000066
  0
MTEXT
  5
113E
330
EF3
100
AcDbEntity
  8
7
100
AcDbMText
 10
175.1364141153859
 20
157.9139339892649
 30
0.0000000000000066
 40
2.0
 41
0.0
 71
     5
 72
     1
  1
413,2
  7
SANINDUSA
 73
     1
 44
1.0
1001
ACAD
1000
MTEXTBEGIN
1070
    73
1070
     1
1070
    44
1040
1.0
1070
    74
1070
     0
1000
MTEXTEND
  0
POINT
  5
113F
330
EF3
100
AcDbEntity
  8
Defpoints
 62
     0
100
AcDbPoint
 10
195.7963789564504
 20
149.4746257286871
 30
0.0000000000000049
  0
POINT
  5
1140
330
EF3
100
AcDbEntity
  8
Defpoints
 62
     0
100
AcDbPoint
 10
154.4764492743214
 20
149.4746257286866
 30
-0.0000000054558663
  0
POINT
  5
1141
330
EF3
100
AcDbEntity
  8
Defpoints
 62
     0
100
AcDbPoint
 10
154.4764492743214
 20
155.6446257286874
 30
0.0000000000000066
  0
ENDBLK
  5
EFE
330
EF3
100
AcDbEntity
  8
0
100
AcDbBlockEnd
  0
BLOCK
  5
F09
330
EFF
100
AcDbEntity
  8
0
100
AcDbBlockBegin
  2
*D24
 70
     1
 10
0.0
 20
0.0
 30
0.0
  3
*D24
  1

  0
LINE
  5
114B
330
EFF
100
AcDbEntity
  8
7
100
AcDbLine
 10
149.1290290703531
 20
366.9595850474959
 30
0.0
 11
144.1290290703531
 21
366.9595850474959
 31
0.0
  0
LINE
  5
114C
330
EFF
100
AcDbEntity
  8
7
100
AcDbLine
 10
177.8236848103617
 20
337.4595850465296
 30
0.0
 11
144.1290290703531
 21
337.4595850465296
 31
0.0
  0
LINE
  5
114D
330
EFF
100
AcDbEntity
  8
7
100
AcDbLine
 10
145.1290290703531
 20
364.9595850474959
 30
0.0
 11
145.1290290703531
 21
339.4595850465296
 31
0.0
  0
SOLID
  5
114E
330
EFF
100
AcDbEntity
  8
7
100
AcDbTrace
 10
144.7956957370197
 20
364.9595850474959
 30
0.0
 11
145.4623624036864
 21
364.9595850474959
 31
0.0
 12
145.1290290703531
 22
366.9595850474959
 32
0.0
 13
145.1290290703531
 23
366.9595850474959
 33
0.0
  0
SOLID
  5
114F
330
EFF
100
AcDbEntity
  8
7
100
AcDbTrace
 10
144.7956957370197
 20
339.4595850465296
 30
0.0
 11
145.4623624036864
 21
339.4595850465296
 31
0.0
 12
145.1290290703531
 22
337.4595850465296
 32
0.0
 13
145.1290290703531
 23
337.4595850465296
 33
0.0
  0
MTEXT
  5
1150
330
EFF
100
AcDbEntity
  8
7
100
AcDbMText
 10
143.0873903866727
 20
352.2095850470128
 30
0.0
 40
2.0
 41
0.0
 71
     5
 72
     1
  1
295
  7
SANINDUSA
 11
0.0000000000000001
 21
1.0
 31
0.0
 73
     1
 44
1.0
1001
ACAD
1000
MTEXTBEGIN
1070
    73
1070
     1
1070
    44
1040
1.0
1070
    74
1070
     0
1000
MTEXTEND
  0
POINT
  5
1151
330
EFF
100
AcDbEntity
  8
Defpoints
 62
     0
100
AcDbPoint
 10
150.1290290703531
 20
366.9595850474959
 30
0.0000001793827793
  0
POINT
  5
1152
330
EFF
100
AcDbEntity
  8
Defpoints
 62
     0
100
AcDbPoint
 10
178.8236848103617
 20
337.4595850465296
 30
0.0000000000032074
  0
POINT
  5
1153
330
EFF
100
AcDbEntity
  8
Defpoints
 62
     0
100
AcDbPoint
 10
145.1290290703531
 20
337.4595850465296
 30
0.0
  0
ENDBLK
  5
F0A
330
EFF
100
AcDbEntity
  8
0
100
AcDbBlockEnd
  0
BLOCK
  5
F15
330
F0B
100
AcDbEntity
  8
0
100
AcDbBlockBegin
  2
*D25
 70
     1
 10
0.0
 20
0.0
 30
0.0
  3
*D25
  1

  0
LINE
  5
1154
330
F0B
100
AcDbEntity
  8
7
100
AcDbLine
 10
195.9490290703532
 20
367.9595850474961
 30
0.0
 11
195.9490290703532
 21
372.9595850474959
 31
0.0
  0
LINE
  5
1155
330
F0B
100
AcDbEntity
  8
7
100
AcDbLine
 10
150.1290290703531
 20
367.9595850474966
 30
0.0
 11
150.1290290703531
 21
372.9595850474959
 31
0.0
  0
LINE
  5
1156
330
F0B
100
AcDbEntity
  8
7
100
AcDbLine
 10
193.9490290703533
 20
371.9595850474959
 30
0.0
 11
152.1290290703531
 21
371.9595850474959
 31
0.0
  0
SOLID
  5
1157
330
F0B
100
AcDbEntity
  8
7
100
AcDbTrace
 10
193.9490290703533
 20
372.2929183808292
 30
0.0
 11
193.9490290703533
 21
371.6262517141626
 31
0.0
 12
195.9490290703532
 22
371.9595850474959
 32
0.0
 13
195.9490290703532
 23
371.9595850474959
 33
0.0
  0
SOLID
  5
1158
330
F0B
100
AcDbEntity
  8
7
100
AcDbTrace
 10
152.1290290703531
 20
372.2929183808292
 30
0.0
 11
152.1290290703531
 21
371.6262517141626
 31
0.0
 12
150.1290290703531
 22
371.9595850474959
 32
0.0
 13
150.1290290703531
 23
371.9595850474959
 33
0.0
  0
MTEXT
  5
1159
330
F0B
100
AcDbEntity
  8
7
100
AcDbMText
 10
173.0390290703532
 20
374.2309080830903
 30
0.0
 40
2.0
 41
0.0
 71
     5
 72
     1
  1
458,2
  7
SANINDUSA
 73
     1
 44
1.0
1001
ACAD
1000
MTEXTBEGIN
1070
    73
1070
     1
1070
    44
1040
1.0
1070
    74
1070
     0
1000
MTEXTEND
  0
POINT
  5
115A
330
F0B
100
AcDbEntity
  8
Defpoints
 62
     0
100
AcDbPoint
 10
195.9490290703532
 20
366.9595850474962
 30
0.0
  0
POINT
  5
115B
330
F0B
100
AcDbEntity
  8
Defpoints
 62
     0
100
AcDbPoint
 10
150.1290290703531
 20
366.9595850474966
 30
0.0
  0
POINT
  5
115C
330
F0B
100
AcDbEntity
  8
Defpoints
 62
     0
100
AcDbPoint
 10
150.1290290703531
 20
371.9595850474959
 30
0.0
  0
ENDBLK
  5
F16
330
F0B
100
AcDbEntity
  8
0
100
AcDbBlockEnd
  0
BLOCK
  5
F21
330
F17
100
AcDbEntity
  8
0
100
AcDbBlockBegin
  2
*D26
 70
     1
 10
0.0
 20
0.0
 30
0.0
  3
*D26
  1

  0
LINE
  5
111C
330
F17
100
AcDbEntity
  8
7
100
AcDbLine
 10
256.249029070353
 20
367.9595850474964
 30
0.0
 11
256.249029070353
 21
372.9595850474959
 31
0.0
  0
LINE
  5
111D
330
F17
100
AcDbEntity
  8
7
100
AcDbLine
 10
196.249029070353
 20
367.9595850474961
 30
0.0
 11
196.249029070353
 21
372.9595850474959
 31
0.0
  0
LINE
  5
111E
330
F17
100
AcDbEntity
  8
7
100
AcDbLine
 10
254.249029070353
 20
371.9595850474959
 30
0.0
 11
198.249029070353
 21
371.9595850474959
 31
0.0
  0
SOLID
  5
111F
330
F17
100
AcDbEntity
  8
7
100
AcDbTrace
 10
254.249029070353
 20
372.2929183808292
 30
0.0
 11
254.249029070353
 21
371.6262517141626
 31
0.0
 12
256.249029070353
 22
371.9595850474959
 32
0.0
 13
256.249029070353
 23
371.9595850474959
 33
0.0
  0
SOLID
  5
1120
330
F17
100
AcDbEntity
  8
7
100
AcDbTrace
 10
198.249029070353
 20
372.2929183808292
 30
0.0
 11
198.249029070353
 21
371.6262517141626
 31
0.0
 12
196.249029070353
 22
371.9595850474959
 32
0.0
 13
196.249029070353
 23
371.9595850474959
 33
0.0
  0
MTEXT
  5
1121
330
F17
100
AcDbEntity
  8
7
100
AcDbMText
 10
226.249029070353
 20
374.000552139504
 30
0.0
 40
2.0
 41
0.0
 71
     5
 72
     1
  1
600
  7
SANINDUSA
 73
     1
 44
1.0
1001
ACAD
1000
MTEXTBEGIN
1070
    73
1070
     1
1070
    44
1040
1.0
1070
    74
1070
     0
1000
MTEXTEND
  0
POINT
  5
1122
330
F17
100
AcDbEntity
  8
Defpoints
 62
     0
100
AcDbPoint
 10
256.249029070353
 20
366.9595850474964
 30
0.0
  0
POINT
  5
1123
330
F17
100
AcDbEntity
  8
Defpoints
 62
     0
100
AcDbPoint
 10
196.249029070353
 20
366.9595850474962
 30
0.0
  0
POINT
  5
1124
330
F17
100
AcDbEntity
  8
Defpoints
 62
     0
100
AcDbPoint
 10
196.249029070353
 20
371.9595850474959
 30
0.0
  0
ENDBLK
  5
F22
330
F17
100
AcDbEntity
  8
0
100
AcDbBlockEnd
  0
BLOCK
  5
1086
330
107C
100
AcDbEntity
  8
0
100
AcDbBlockBegin
  2
*D27
 70
     1
 10
0.0
 20
0.0
 30
0.0
  3
*D27
  1

  0
ARC
  5
110A
330
107C
100
AcDbEntity
  8
7
100
AcDbCircle
 10
197.6863848533747
 20
149.4746263962521
 30
0.0
 40
38.16162229143374
100
AcDbArc
 50
273.003139556899
 51
356.9968604431005
  0
SOLID
  5
110B
330
107C
100
AcDbEntity
  8
7
100
AcDbTrace
 10
199.6944328470975
 20
111.0321939091058
 30
0.0
 11
199.6769632892894
 21
111.6986316473788
 31
0.0
 12
197.6863848533745
 22
111.3130041048183
 32
0.0
 13
197.6863848533745
 23
111.3130041048183
 33
0.0
  0
SOLID
  5
110C
330
107C
100
AcDbEntity
  8
7
100
AcDbTrace
 10
235.4623796022481
 20
147.484047960337
 30
0.0
 11
236.1288173405211
 21
147.4665784025291
 31
0.0
 12
235.8480071448085
 22
149.4746263962521
 32
0.0
 13
235.8480071448085
 23
149.4746263962521
 33
0.0
  0
MTEXT
  5
110D
102
{ACAD_XDICTIONARY
360
123C
102
}
330
107C
100
AcDbEntity
  8
7
100
AcDbMText
 10
223.0665583840957
 20
124.0944528655309
 30
0.0
 40
2.0
 41
0.0
 71
     5
 72
     1
  1
90,0\U+00B0
  7
SANINDUSA
 11
0.7071067811865501
 21
0.7071067811865451
 31
0.0
 73
     1
 44
1.0
1001
ACAD
1000
MTEXTBEGIN
1070
    73
1070
     1
1070
    44
1040
1.0
1070
    74
1070
     0
1000
MTEXTEND
  0
POINT
  5
110E
330
107C
100
AcDbEntity
  8
Defpoints
 62
     0
100
AcDbPoint
 10
216.7671959990915
 20
116.4256920422439
 30
0.0
  0
POINT
  5
110F
330
107C
100
AcDbEntity
  8
Defpoints
 62
     0
100
AcDbPoint
 10
197.6863848533747
 20
148.184620499329
 30
0.0000000000000025
  0
POINT
  5
1110
330
107C
100
AcDbEntity
  8
Defpoints
 62
     0
100
AcDbPoint
 10
196.0963789564515
 20
149.4746263962521
 30
-0.0000000000000068
  0
POINT
  5
1111
330
107C
100
AcDbEntity
  8
Defpoints
 62
     0
100
AcDbPoint
 10
256.0963789564506
 20
149.4746263962521
 30
0.0000000000000484
  0
POINT
  5
1112
330
107C
100
AcDbEntity
  8
Defpoints
 62
     0
100
AcDbPoint
 10
197.6863848533743
 20
88.1846204993279
 30
0.0000000000000025
  0
ENDBLK
  5
1087
330
107C
100
AcDbEntity
  8
0
100
AcDbBlockEnd
  0
ENDSEC
  0
SECTION
  2
ENTITIES
  0
LINE
  5
D91
330
1F
100
AcDbEntity
  8
SANINDUSA
100
AcDbLine
 10
428.7874095105071
 20
396.4140396792607
 30
0.0
 11
428.7874095105071
 21
398.2640396792606
 31
0.0
  0
LINE
  5
D92
330
1F
100
AcDbEntity
  8
SANINDUSA
100
AcDbLine
 10
428.7325595105071
 20
396.4140396792606
 30
0.0
 11
428.7325595105071
 21
398.2640396792606
 31
0.0
  0
LINE
  5
D93
330
1F
100
AcDbEntity
  8
SANINDUSA
100
AcDbLine
 10
429.7937595105072
 20
396.4240396792606
 30
0.0
 11
429.7937595105072
 21
398.2640396792606
 31
0.0
  0
LINE
  5
D94
330
1F
100
AcDbEntity
  8
SANINDUSA
100
AcDbLine
 10
429.8022595105072
 20
396.4240396792606
 30
0.0
 11
429.8022595105072
 21
398.2640396792606
 31
0.0
  0
LINE
  5
D95
330
1F
100
AcDbEntity
  8
SANINDUSA
100
AcDbLine
 10
429.8082595105071
 20
396.4240396792606
 30
0.0
 11
429.8082595105071
 21
398.2640396792606
 31
0.0
  0
LINE
  5
D96
330
1F
100
AcDbEntity
  8
SANINDUSA
100
AcDbLine
 10
429.8205595105072
 20
396.4140396792607
 30
0.0
 11
429.8205595105072
 21
398.2640396792606
 31
0.0
  0
LINE
  5
D97
330
1F
100
AcDbEntity
  8
SANINDUSA
100
AcDbLine
 10
429.7965595105072
 20
396.4140396792607
 30
0.0
 11
429.7965595105072
 21
398.2640396792606
 31
0.0
  0
LINE
  5
D98
330
1F
100
AcDbEntity
  8
SANINDUSA
100
AcDbLine
 10
429.1937595105072
 20
396.7330396792606
 30
0.0
 11
429.1937595105072
 21
397.9450396792509
 31
0.0
  0
LINE
  5
D99
330
1F
100
AcDbEntity
  8
SANINDUSA
100
AcDbLine
 10
429.1907595105072
 20
396.7330396792606
 30
0.0
 11
429.1907595105072
 21
397.9450396792509
 31
0.0
  0
LINE
  5
DA2
330
1F
100
AcDbEntity
  8
SANINDUSA
100
AcDbLine
 10
428.7325595105071
 20
396.4140396792607
 30
0.0
 11
429.8205595105072
 21
396.4140396792607
 31
0.0
  0
LINE
  5
DAA
330
1F
100
AcDbEntity
  8
SANINDUSA
100
AcDbLine
 10
430.3916171965244
 20
397.3540971011937
 30
0.0
 11
430.9916171965244
 21
397.3540971011937
 31
0.0
  0
LINE
  5
DAB
330
1F
100
AcDbEntity
  8
SANINDUSA
100
AcDbLine
 10
430.3916171965244
 20
397.3480971011937
 30
-0.0000000000000001
 11
430.9916171965244
 21
397.3480971011937
 31
0.0000000000000005
  0
LWPOLYLINE
  5
DB1
330
1F
100
AcDbEntity
  8
SANINDUSA
100
AcDbPolyline
 90
        2
 70
     0
 43
0.0
 10
430.3221171965244
 20
397.346797094518
 10
430.3751171965244
 20
397.346797094518
1001
GENIUS_GENREC_14
1002
{
1000
PYDIR
1011
430.4581171965244
1021
397.484318546367
1031
0.0
1002
}
1002
{
1000
PXDIR
1011
430.4051171965244
1021
397.485318546367
1031
0.0
1002
}
1002
{
1000
PORI
1011
430.4581171965244
1021
397.485318546367
1031
0.0
1002
}
1002
{
1000
PINS
1011
430.4581171965244
1021
397.485318546367
1031
0.0
1002
}
1002
{
1000
PINS2
1011
430.4051171965244
1021
397.484318546367
1031
0.0
1002
}
1002
{
1000
C
1070
     1
1002
}
1001
GENIUS_GENODEF_13
1002
{
1000
HIER
1070
     0
1002
}
1002
{
1000
MANEDIT
1070
     0
1002
}
1002
{
1000
NOSEL
1070
     0
1002
}
1002
{
1000
BEHIND
1070
     0
1002
}
1002
{
1000
REACTOR
1002
}
1001
GENIUS_GENOBJ-N-REC_13
1002
{
1000
OWNER
1000
GEN
1002
}
  0
LINE
  5
DB2
330
1F
100
AcDbEntity
  8
SANINDUSA
100
AcDbLine
 10
430.3751171965243
 20
397.3466970422243
 30
0.0
 11
430.3221171965243
 21
397.3466970422243
 31
0.0
  0
LWPOLYLINE
  5
DB3
330
1F
100
AcDbEntity
  8
SANINDUSA
100
AcDbPolyline
 90
        2
 70
     0
 43
0.0
 10
430.3751171965244
 20
397.347797094518
 10
430.3221171965244
 20
397.347797094518
1001
GENIUS_GENREC_14
1002
{
1000
PYDIR
1011
430.4581171965244
1021
397.484318546367
1031
0.0
1002
}
1002
{
1000
PXDIR
1011
430.4051171965244
1021
397.485318546367
1031
0.0
1002
}
1002
{
1000
PORI
1011
430.4581171965244
1021
397.485318546367
1031
0.0
1002
}
1002
{
1000
PINS
1011
430.4581171965244
1021
397.485318546367
1031
0.0
1002
}
1002
{
1000
PINS2
1011
430.4051171965244
1021
397.484318546367
1031
0.0
1002
}
1002
{
1000
C
1070
     1
1002
}
1001
GENIUS_GENODEF_13
1002
{
1000
HIER
1070
     0
1002
}
1002
{
1000
MANEDIT
1070
     0
1002
}
1002
{
1000
NOSEL
1070
     0
1002
}
1002
{
1000
BEHIND
1070
     0
1002
}
1002
{
1000
REACTOR
1002
}
1001
GENIUS_GENOBJ-N-REC_13
1002
{
1000
OWNER
1000
GEN
1002
}
  0
LWPOLYLINE
  5
DB4
330
1F
100
AcDbEntity
  8
SANINDUSA
100
AcDbPolyline
 90
        4
 70
     1
 43
0.0
 10
430.3221171965244
 20
397.355297094518
 10
430.3751171965244
 20
397.355297094518
 10
430.3751171965244
 20
397.354297094518
 10
430.3221171965244
 20
397.354297094518
1001
GENIUS_GENREC_14
1002
{
1000
PYDIR
1011
430.4581171965244
1021
397.484018546367
1031
0.0
1002
}
1002
{
1000
PXDIR
1011
430.4051171965244
1021
397.485018546367
1031
0.0
1002
}
1002
{
1000
PORI
1011
430.4581171965244
1021
397.485018546367
1031
0.0
1002
}
1002
{
1000
PINS
1011
430.4581171965244
1021
397.485018546367
1031
0.0
1002
}
1002
{
1000
PINS2
1011
430.4051171965244
1021
397.484018546367
1031
0.0
1002
}
1002
{
1000
C
1070
     1
1002
}
1001
GENIUS_GENODEF_13
1002
{
1000
HIER
1070
     0
1002
}
1002
{
1000
MANEDIT
1070
     0
1002
}
1002
{
1000
NOSEL
1070
     0
1002
}
1002
{
1000
BEHIND
1070
     0
1002
}
1002
{
1000
REACTOR
1002
}
1001
GENIUS_GENOBJ-N-REC_13
1002
{
1000
OWNER
1000
GEN
1002
}
  0
LINE
  5
DB5
330
1F
100
AcDbEntity
  8
SANINDUSA
100
AcDbLine
 10
430.3751171965244
 20
397.355497094518
 30
0.0
 11
430.3221171965244
 21
397.355497094518
 31
0.0
  0
LINE
  5
DB6
330
1F
100
AcDbEntity
  8
SANINDUSA
100
AcDbLine
 10
430.3231171965244
 20
397.360497094518
 30
0.0
 11
430.3741171965244
 21
397.360497094518
 31
0.0
  0
LINE
  5
DB7
330
1F
100
AcDbEntity
  8
SANINDUSA
100
AcDbLine
 10
430.3231171965244
 20
397.3366970422238
 30
0.0
 11
430.3821171965244
 21
397.3366970422238
 31
0.0
  0
LINE
  5
DB8
330
1F
100
AcDbEntity
  8
SANINDUSA
100
AcDbLine
 10
429.9754178997031
 20
397.354097094518
 30
-0.0000000000166021
 11
430.3886171965244
 21
397.354097094518
 31
-0.0000000000020355
  0
LINE
  5
DB9
330
1F
100
AcDbEntity
  8
SANINDUSA
100
AcDbLine
 10
429.9754178997031
 20
397.348097094518
 30
-0.0000000000052603
 11
430.3886171965244
 21
397.348097094518
 31
-0.0000000000106434
  0
LINE
  5
DBA
330
1F
100
AcDbEntity
  8
SANINDUSA
100
AcDbLine
 10
430.3221171965244
 20
397.347797094518
 30
0.0
 11
430.3221171965244
 21
397.346797094518
 31
0.0
1001
GENIUS_GENREC_14
1002
{
1000
PYDIR
1011
430.4581171965244
1021
397.347797094518
1031
0.0
1002
}
1002
{
1000
PXDIR
1011
430.4051171965244
1021
397.346797094518
1031
0.0
1002
}
1002
{
1000
PORI
1011
430.4581171965244
1021
397.346797094518
1031
0.0
1002
}
1002
{
1000
PINS
1011
430.4581171965244
1021
397.346797094518
1031
0.0
1002
}
1002
{
1000
PINS2
1011
430.4051171965244
1021
397.347797094518
1031
0.0
1002
}
1002
{
1000
C
1070
     1
1002
}
1001
GENIUS_GENODEF_13
1002
{
1000
HIER
1070
     0
1002
}
1002
{
1000
MANEDIT
1070
     0
1002
}
1002
{
1000
NOSEL
1070
     0
1002
}
1002
{
1000
BEHIND
1070
     0
1002
}
1002
{
1000
REACTOR
1002
}
1001
GENIUS_GENOBJ-N-REC_13
1002
{
1000
OWNER
1000
GEN
1002
}
  0
LINE
  5
DBB
330
1F
100
AcDbEntity
  8
SANINDUSA
100
AcDbLine
 10
430.3221171965244
 20
397.355497094518
 30
0.0
 11
430.3221171965244
 21
397.359497094518
 31
0.0
  0
ARC
  5
DBC
330
1F
100
AcDbEntity
  8
SANINDUSA
100
AcDbCircle
 10
430.3231171965244
 20
397.359497094518
 30
0.0
 40
0.001
100
AcDbArc
 50
90.0
 51
180.0
  0
ARC
  5
DBD
330
1F
100
AcDbEntity
  8
SANINDUSA
100
AcDbCircle
 10
430.3231171965244
 20
397.3376970422238
 30
0.0
 40
0.001
100
AcDbArc
 50
180.0
 51
270.0
  0
LINE
  5
DBE
330
1F
100
AcDbEntity
  8
SANINDUSA
100
AcDbLine
 10
430.3221171965243
 20
397.3466970422243
 30
0.0
 11
430.3221171965244
 21
397.3376970422238
 31
0.0
  0
LINE
  5
DBF
330
1F
100
AcDbEntity
  8
SANINDUSA
100
AcDbLine
 10
429.9754178997031
 20
397.348097094518
 30
-0.0000000000545587
 11
429.9754178997031
 21
397.354097094518
 31
-0.0000000000545587
  0
LINE
  5
DC1
330
1F
100
AcDbEntity
  8
SANINDUSA
100
AcDbLine
 10
430.4581171965244
 20
397.347897094518
 30
0.0
 11
430.4581171965244
 21
397.346897094518
 31
0.0
1001
GENIUS_GENREC_14
1002
{
1000
PYDIR
1011
430.4581171965244
1021
397.347897094518
1031
0.0
1002
}
1002
{
1000
PXDIR
1011
430.4051171965244
1021
397.346897094518
1031
0.0
1002
}
1002
{
1000
PORI
1011
430.4581171965244
1021
397.346897094518
1031
0.0
1002
}
1002
{
1000
PINS
1011
430.4581171965244
1021
397.346897094518
1031
0.0
1002
}
1002
{
1000
PINS2
1011
430.4051171965244
1021
397.347897094518
1031
0.0
1002
}
1002
{
1000
C
1070
     1
1002
}
1001
GENIUS_GENODEF_13
1002
{
1000
HIER
1070
     0
1002
}
1002
{
1000
MANEDIT
1070
     0
1002
}
1002
{
1000
NOSEL
1070
     0
1002
}
1002
{
1000
BEHIND
1070
     0
1002
}
1002
{
1000
REACTOR
1002
}
1001
GENIUS_GENOBJ-N-REC_13
1002
{
1000
OWNER
1000
GEN
1002
}
  0
LINE
  5
DC2
330
1F
100
AcDbEntity
  8
SANINDUSA
100
AcDbLine
 10
430.4581171965244
 20
397.355497094518
 30
0.0
 11
430.4581171965244
 21
397.359497094518
 31
0.0
  0
ARC
  5
DC3
330
1F
100
AcDbEntity
  8
SANINDUSA
100
AcDbCircle
 10
430.4571171965244
 20
397.359497094518
 30
0.0
 40
0.001
100
AcDbArc
 50
0.0
 51
90.0
  0
ARC
  5
DC4
330
1F
100
AcDbEntity
  8
SANINDUSA
100
AcDbCircle
 10
430.4571171965244
 20
397.3376970422244
 30
0.0
 40
0.001
100
AcDbArc
 50
270.0
 51
0.0
  0
LINE
  5
DC5
330
1F
100
AcDbEntity
  8
SANINDUSA
100
AcDbLine
 10
430.4581171965244
 20
397.346697094518
 30
0.0
 11
430.4581171965244
 21
397.3376970422244
 31
0.0
  0
LINE
  5
DC6
330
1F
100
AcDbEntity
  8
SANINDUSA
100
AcDbLine
 10
430.4051171965244
 20
397.346897094518
 30
0.0
 11
430.4051171965244
 21
397.347897094518
 31
0.0
1001
GENIUS_GENREC_14
1002
{
1000
PYDIR
1011
430.4581171965244
1021
397.347897094518
1031
0.0
1002
}
1002
{
1000
PXDIR
1011
430.4051171965244
1021
397.346897094518
1031
0.0
1002
}
1002
{
1000
PORI
1011
430.4581171965244
1021
397.346897094518
1031
0.0
1002
}
1002
{
1000
PINS
1011
430.4581171965244
1021
397.346897094518
1031
0.0
1002
}
1002
{
1000
PINS2
1011
430.4051171965244
1021
397.347897094518
1031
0.0
1002
}
1002
{
1000
C
1070
     1
1002
}
1001
GENIUS_GENODEF_13
1002
{
1000
HIER
1070
     0
1002
}
1002
{
1000
MANEDIT
1070
     0
1002
}
1002
{
1000
NOSEL
1070
     0
1002
}
1002
{
1000
BEHIND
1070
     0
1002
}
1002
{
1000
REACTOR
1002
}
1001
GENIUS_GENOBJ-N-REC_13
1002
{
1000
OWNER
1000
GEN
1002
}
  0
LINE
  5
DC7
330
1F
100
AcDbEntity
  8
SANINDUSA
100
AcDbLine
 10
430.4005430678764
 20
397.3478015108827
 30
0.0
 11
430.398466739521
 21
397.3480933198029
 31
0.0
  0
LINE
  5
DC8
330
1F
100
AcDbEntity
  8
SANINDUSA
100
AcDbLine
 10
430.3981667201317
 20
397.3474106297986
 30
0.0
 11
430.4005430678764
 21
397.3478015108827
 31
0.0
  0
LINE
  5
DC9
330
1F
100
AcDbEntity
  8
SANINDUSA
100
AcDbLine
 10
430.4005430678764
 20
397.3543926915046
 30
0.0
 11
430.3981667201317
 21
397.3547835725887
 31
0.0
  0
LINE
  5
DCA
330
1F
100
AcDbEntity
  8
SANINDUSA
100
AcDbLine
 10
430.398466739521
 20
397.3541008825844
 30
0.0
 11
430.4005430678764
 21
397.3543926915046
 31
0.0
  0
LINE
  5
DCB
330
1F
100
AcDbEntity
  8
SANINDUSA
100
AcDbLine
 10
430.4006441455059
 20
397.3540534573887
 30
0.0
 11
430.3985154501062
 21
397.3537542887603
 31
0.0
  0
LINE
  5
DCC
330
1F
100
AcDbEntity
  8
SANINDUSA
100
AcDbLine
 10
430.3985154501062
 20
397.3484399136269
 30
0.0
 11
430.4006441455059
 21
397.3481407449987
 31
0.0
  0
LINE
  5
DCD
330
1F
100
AcDbEntity
  8
SANINDUSA
100
AcDbLine
 10
430.4034693358707
 20
397.3535059798909
 30
0.0
 11
430.401784364639
 21
397.3537831377198
 31
0.0
  0
LINE
  5
DCE
330
1F
100
AcDbEntity
  8
SANINDUSA
100
AcDbLine
 10
430.4034693358707
 20
397.3542127355249
 30
0.0
 11
430.4034693358707
 21
397.3535059798909
 31
0.0
  0
ARC
  5
DCF
330
1F
100
AcDbEntity
  8
SANINDUSA
100
AcDbCircle
 10
430.4028693358707
 20
397.3542127355249
 30
0.0
 40
0.0006
100
AcDbArc
 50
0.0
 51
80.65916589815856
  0
ARC
  5
DD0
330
1F
100
AcDbEntity
  8
SANINDUSA
100
AcDbCircle
 10
430.4005745589554
 20
397.354548591423
 30
0.0
 40
0.0004999999999883
100
AcDbArc
 50
278.0000000017828
 51
331.873626034282
  0
ARC
  5
DD1
330
1F
100
AcDbEntity
  8
SANINDUSA
100
AcDbCircle
 10
430.4008693358706
 20
397.3537309615464
 30
0.0
 40
0.0006000000000005
100
AcDbArc
 50
32.46948079189306
 51
75.89910819349554
  0
ARC
  5
DD2
330
1F
100
AcDbEntity
  8
SANINDUSA
100
AcDbCircle
 10
430.4018817489001
 20
397.3543751818953
 30
0.0
 40
0.0006
100
AcDbArc
 50
212.4694807918931
 51
260.6591658981585
  0
ARC
  5
DD3
330
1F
100
AcDbEntity
  8
SANINDUSA
100
AcDbCircle
 10
430.4028693358707
 20
397.3479814668623
 30
0.0
 40
0.0006
100
AcDbArc
 50
279.3408341018414
 51
0.0
  0
ARC
  5
DD4
330
1F
100
AcDbEntity
  8
SANINDUSA
100
AcDbCircle
 10
430.4008693358706
 20
397.348463240841
 30
0.0
 40
0.0005999999999989
100
AcDbArc
 50
284.1008918065045
 51
327.5305192081069
  0
LINE
  5
DD5
330
1F
100
AcDbEntity
  8
SANINDUSA
100
AcDbLine
 10
430.401784364639
 20
397.3484110646675
 30
0.0
 11
430.4034693358707
 21
397.3486882224964
 31
0.0
  0
LINE
  5
DD6
330
1F
100
AcDbEntity
  8
SANINDUSA
100
AcDbLine
 10
430.4034693358707
 20
397.3486882224964
 30
0.0
 11
430.4034693358707
 21
397.3479814668623
 31
0.0
  0
ARC
  5
DD7
330
1F
100
AcDbEntity
  8
SANINDUSA
100
AcDbCircle
 10
430.4018817489001
 20
397.3478190204921
 30
0.0
 40
0.0006
100
AcDbArc
 50
99.34083410184145
 51
147.5305192081069
  0
ARC
  5
DD8
330
1F
100
AcDbEntity
  8
SANINDUSA
100
AcDbCircle
 10
430.4005745589554
 20
397.3476456109643
 30
0.0
 40
0.0005
100
AcDbArc
 50
28.12637396571802
 51
82.00000000144234
  0
LINE
  5
DD9
330
1F
100
AcDbEntity
  8
SANINDUSA
100
AcDbLine
 10
430.3947821847466
 20
397.3544281945083
 30
0.0
 11
430.394748778223
 21
397.3542251007277
 31
0.0
  0
LINE
  5
DDA
330
1F
100
AcDbEntity
  8
SANINDUSA
100
AcDbLine
 10
430.397219229943
 20
397.3545340483568
 30
0.0
 11
430.3953567084437
 21
397.3548404111037
 31
0.0
  0
ARC
  5
DDB
330
1F
100
AcDbEntity
  8
SANINDUSA
100
AcDbCircle
 10
430.3973166142041
 20
397.3551260925323
 30
0.0
 40
0.0006000000000005
100
AcDbArc
 50
260.6591658981585
 51
308.8488510013434
  0
ARC
  5
DDC
330
1F
100
AcDbEntity
  8
SANINDUSA
100
AcDbCircle
 10
430.3952755548928
 20
397.3543470409575
 30
0.0
 40
0.0005
100
AcDbArc
 50
80.65916589815856
 51
170.6591658981585
  0
ARC
  5
DDD
330
1F
100
AcDbEntity
  8
SANINDUSA
100
AcDbCircle
 10
430.3984910948137
 20
397.3539275856724
 30
0.0
 40
0.000175
100
AcDbArc
 50
97.99999999855764
 51
277.9999999985577
  0
ARC
  5
DDE
330
1F
100
AcDbEntity
  8
SANINDUSA
100
AcDbCircle
 10
430.3980693358707
 20
397.3541915284132
 30
0.0
 40
0.0006
100
AcDbArc
 50
80.65916589815856
 51
128.8488510013434
  0
ARC
  5
DDF
330
1F
100
AcDbEntity
  8
SANINDUSA
100
AcDbCircle
 10
430.3973166142041
 20
397.3470681098551
 30
0.0
 40
0.0006000000000005
100
AcDbArc
 50
51.15114899865663
 51
99.34083410184145
  0
LINE
  5
DE0
330
1F
100
AcDbEntity
  8
SANINDUSA
100
AcDbLine
 10
430.3953398730044
 20
397.3473510220531
 30
0.0
 11
430.397219229943
 21
397.3476601540305
 31
0.0
  0
LINE
  5
DE1
330
1F
100
AcDbEntity
  8
SANINDUSA
100
AcDbLine
 10
430.394748778223
 20
397.3479691016596
 30
0.0
 11
430.3947893549985
 21
397.3477224165865
 31
0.0
  0
ARC
  5
DE2
330
1F
100
AcDbEntity
  8
SANINDUSA
100
AcDbCircle
 10
430.3984910948137
 20
397.3482666167149
 30
0.0
 40
0.000175
100
AcDbArc
 50
82.00000000144234
 51
262.0000000014424
  0
ARC
  5
DE3
330
1F
100
AcDbEntity
  8
SANINDUSA
100
AcDbCircle
 10
430.3980693358707
 20
397.3480026739741
 30
0.0
 40
0.0006
100
AcDbArc
 50
231.1511489986566
 51
279.3408341018414
  0
ARC
  5
DE4
330
1F
100
AcDbEntity
  8
SANINDUSA
100
AcDbCircle
 10
430.3952587194536
 20
397.3478443921993
 30
0.0
 40
0.0005
100
AcDbArc
 50
179.8634464290415
 51
279.3408341018414
  0
LINE
  5
DE5
330
1F
100
AcDbEntity
  8
SANINDUSA
100
AcDbLine
 10
430.4051171965244
 20
397.355497094518
 30
0.0
 11
430.4051171965244
 21
397.359497094518
 31
0.0
  0
ARC
  5
DE6
330
1F
100
AcDbEntity
  8
SANINDUSA
100
AcDbCircle
 10
430.4061171965244
 20
397.359497094518
 30
0.0
 40
0.001
100
AcDbArc
 50
90.0
 51
180.0
  0
LINE
  5
DE7
330
1F
100
AcDbEntity
  8
SANINDUSA
100
AcDbLine
 10
430.3914624184492
 20
397.3454971011936
 30
0.0
 11
430.3904693358707
 21
397.3454971011936
 31
0.0
  0
LINE
  5
DE8
330
1F
100
AcDbEntity
  8
SANINDUSA
100
AcDbLine
 10
430.3914624184492
 20
397.3566971011936
 30
0.0
 11
430.3904693358707
 21
397.3566971011936
 31
0.0
  0
LINE
  5
DE9
330
1F
100
AcDbEntity
  8
SANINDUSA
100
AcDbLine
 10
430.3904693358707
 20
397.3566971011936
 30
0.0
 11
430.3904693358707
 21
397.3454971011936
 31
0.0
  0
LINE
  5
DEA
330
1F
100
AcDbEntity
  8
SANINDUSA
100
AcDbLine
 10
430.3886171965244
 20
397.354097094518
 30
0.0
 11
430.3886171965244
 21
397.348097094518
 31
0.0
1001
GENIUS_GENREC_14
1002
{
1000
PYDIR
1011
430.5416171965244
1021
397.347897094518
1031
0.0
1002
}
1002
{
1000
PXDIR
1011
430.3916171965244
1021
397.353897094518
1031
0.0
1002
}
1002
{
1000
PORI
1011
430.5416171965244
1021
397.353897094518
1031
0.0
1002
}
1002
{
1000
PINS
1011
430.5416171965244
1021
397.353897094518
1031
0.0
1002
}
1002
{
1000
PINS2
1011
430.3916171965244
1021
397.348097094518
1031
0.0
1002
}
1002
{
1000
C
1070
     1
1002
}
1001
GENIUS_GENODEF_13
1002
{
1000
HIER
1070
     0
1002
}
1002
{
1000
MANEDIT
1070
     0
1002
}
1002
{
1000
NOSEL
1070
     0
1002
}
1002
{
1000
BEHIND
1070
     0
1002
}
1002
{
1000
REACTOR
1002
}
1001
GENIUS_GENOBJ-N-REC_13
1002
{
1000
OWNER
1000
GEN
1002
}
  0
LINE
  5
DEB
330
1F
100
AcDbEntity
  8
SANINDUSA
100
AcDbLine
 10
430.3751171965244
 20
397.346797094518
 30
0.0
 11
430.3751171965244
 21
397.347797094518
 31
0.0
1001
GENIUS_GENREC_14
1002
{
1000
PYDIR
1011
430.4581171965244
1021
397.347797094518
1031
0.0
1002
}
1002
{
1000
PXDIR
1011
430.4051171965244
1021
397.346797094518
1031
0.0
1002
}
1002
{
1000
PORI
1011
430.4581171965244
1021
397.346797094518
1031
0.0
1002
}
1002
{
1000
PINS
1011
430.4581171965244
1021
397.346797094518
1031
0.0
1002
}
1002
{
1000
PINS2
1011
430.4051171965244
1021
397.347797094518
1031
0.0
1002
}
1002
{
1000
C
1070
     1
1002
}
1001
GENIUS_GENODEF_13
1002
{
1000
HIER
1070
     0
1002
}
1002
{
1000
MANEDIT
1070
     0
1002
}
1002
{
1000
NOSEL
1070
     0
1002
}
1002
{
1000
BEHIND
1070
     0
1002
}
1002
{
1000
REACTOR
1002
}
1001
GENIUS_GENOBJ-N-REC_13
1002
{
1000
OWNER
1000
GEN
1002
}
  0
ARC
  5
DEC
330
1F
100
AcDbEntity
  8
SANINDUSA
100
AcDbCircle
 10
430.3741171965244
 20
397.359497094518
 30
0.0
 40
0.001
100
AcDbArc
 50
0.0
 51
90.0
  0
LINE
  5
DED
330
1F
100
AcDbEntity
  8
SANINDUSA
100
AcDbLine
 10
430.3751171965244
 20
397.355497094518
 30
0.0
 11
430.3751171965244
 21
397.359497094518
 31
0.0
  0
ARC
  5
DEE
330
1F
100
AcDbEntity
  8
SANINDUSA
100
AcDbCircle
 10
430.3922171965244
 20
397.3474006707435
 30
0.0
 40
0.0006
100
AcDbArc
 50
180.0
 51
279.3408341018414
  0
LINE
  5
DEF
330
1F
100
AcDbEntity
  8
SANINDUSA
100
AcDbLine
 10
430.3923145807854
 20
397.3468086265681
 30
0.0
 11
430.3928970279645
 21
397.3469044322368
 31
0.0
  0
LINE
  5
DF0
330
1F
100
AcDbEntity
  8
SANINDUSA
100
AcDbLine
 10
430.3928970279645
 20
397.3552897701505
 30
0.0
 11
430.3923145807854
 21
397.3553855758192
 31
0.0
  0
ARC
  5
DF1
330
1F
100
AcDbEntity
  8
SANINDUSA
100
AcDbCircle
 10
430.3922171965244
 20
397.3547935316437
 30
0.0
 40
0.0006
100
AcDbArc
 50
80.65916589815856
 51
180.0
  0
LINE
  5
DF2
330
1F
100
AcDbEntity
  8
SANINDUSA
100
AcDbLine
 10
430.3916171965244
 20
397.3547935316437
 30
0.0
 11
430.3916171965244
 21
397.3474006707435
 31
0.0
  0
LINE
  5
DF3
330
1F
100
AcDbEntity
  8
SANINDUSA
100
AcDbLine
 10
430.3916171965244
 20
397.3540971011937
 30
0.0000000000000001
 11
430.3916171965244
 21
397.3480971011937
 31
-0.0000000000000001
  0
LINE
  5
DF4
330
1F
100
AcDbEntity
  8
SANINDUSA
100
AcDbLine
 10
430.3916171965244
 20
397.3540971011937
 30
0.0
 11
430.3916171965244
 21
397.3480971011937
 31
0.0
  0
ARC
  5
DF5
330
1F
100
AcDbEntity
  8
SANINDUSA
100
AcDbCircle
 10
430.389631643563
 20
397.3510971011937
 30
0.0
 40
0.0056623076923077
100
AcDbArc
 50
81.49232712661566
 51
278.5076728733843
  0
ARC
  5
DF6
330
1F
100
AcDbEntity
  8
SANINDUSA
100
AcDbCircle
 10
430.389631643563
 20
397.3510971011937
 30
0.0
 40
0.0052623076923077
100
AcDbArc
 50
81.49232712661566
 51
278.5076728733843
  0
ARC
  5
DF7
330
1F
100
AcDbEntity
  8
SANINDUSA
100
AcDbCircle
 10
430.3928158744136
 20
397.347397802383
 30
0.0
 40
0.0005
100
AcDbArc
 50
279.3408341018414
 51
9.340834101841444
  0
LINE
  5
DF8
330
1F
100
AcDbEntity
  8
SANINDUSA
100
AcDbLine
 10
430.4029667201318
 20
397.3473894226869
 30
0.0
 11
430.3914624184492
 21
397.3454971011936
 31
0.0
  0
ARC
  5
DF9
330
1F
100
AcDbEntity
  8
SANINDUSA
100
AcDbCircle
 10
430.3928158744136
 20
397.3547964000043
 30
0.0
 40
0.0005
100
AcDbArc
 50
350.6591658981585
 51
80.65916589815856
  0
LINE
  5
DFA
330
1F
100
AcDbEntity
  8
SANINDUSA
100
AcDbLine
 10
430.3932686677844
 20
397.3544685613803
 30
0.0
 11
430.3933092445598
 21
397.3547152464535
 31
0.0
  0
LINE
  5
DFB
330
1F
100
AcDbEntity
  8
SANINDUSA
100
AcDbLine
 10
430.3933092445598
 20
397.3474789559339
 30
0.0
 11
430.3932686677844
 21
397.3477256410069
 31
0.0
  0
LINE
  5
DFC
330
1F
100
AcDbEntity
  8
SANINDUSA
100
AcDbLine
 10
430.3914624184492
 20
397.3566971011936
 30
0.0
 11
430.4029667201318
 21
397.3548047797004
 31
0.0
  0
ARC
  5
DFD
330
1F
100
AcDbEntity
  8
SANINDUSA
100
AcDbCircle
 10
430.3940087230037
 20
397.354346831054
 30
0.0
 40
0.00075
100
AcDbArc
 50
170.6591658981585
 51
350.6591658981585
  0
ARC
  5
DFE
330
1F
100
AcDbEntity
  8
SANINDUSA
100
AcDbCircle
 10
430.3940087230037
 20
397.3478473713333
 30
0.0
 40
0.00075
100
AcDbArc
 50
359.8634464290416
 51
189.3408341018414
  0
LINE
  5
E00
330
1F
100
AcDbEntity
  8
SANINDUSA
100
AcDbLine
 10
430.3990060854133
 20
397.3366970422244
 30
0.0
 11
430.3990060854133
 21
397.344697094518
 31
0.0
  0
LINE
  5
E35
330
1F
100
AcDbEntity
  8
SANINDUSA
100
AcDbLine
 10
430.3812283076354
 20
397.3366970422238
 30
0.0
 11
430.3812283076354
 21
397.3446970422243
 31
0.0
  0
LINE
  5
E36
330
1F
100
AcDbEntity
  8
SANINDUSA
100
AcDbLine
 10
430.3751171965243
 20
397.3446970422243
 30
0.0
 11
430.3901172421206
 21
397.3446970422243
 31
0.0
  0
LINE
  5
E37
330
1F
100
AcDbEntity
  8
SANINDUSA
100
AcDbLine
 10
430.4051171965244
 20
397.344697094518
 30
0.0
 11
430.3901171965244
 21
397.3446970422244
 31
0.0
  0
CIRCLE
  5
E39
330
1F
100
AcDbEntity
  8
SANINDUSA
100
AcDbCircle
 10
430.3901171965244
 20
397.3366970422244
 30
0.0
 40
0.008
  0
LINE
  5
E46
330
1F
100
AcDbEntity
  8
SANINDUSA
100
AcDbLine
 10
430.4051171965244
 20
397.346697094518
 30
0.0
 11
430.4051171965244
 21
397.344697094518
 31
0.0
  0
LINE
  5
E47
330
1F
100
AcDbEntity
  8
SANINDUSA
100
AcDbLine
 10
430.3751171965243
 20
397.3446970422243
 30
0.0
 11
430.3751171965243
 21
397.3466970422243
 31
0.0
  0
LINE
  5
E48
330
1F
100
AcDbEntity
  8
SANINDUSA
100
AcDbLine
 10
430.3990060854133
 20
397.3366970422244
 30
0.0
 11
430.4571171965244
 21
397.3366970422244
 31
0.0
  0
LWPOLYLINE
  5
E49
330
1F
100
AcDbEntity
  8
SANINDUSA
100
AcDbPolyline
 90
        2
 70
     0
 43
0.0
 10
430.4581171965244
 20
397.346897094518
 10
430.4051171965244
 20
397.346897094518
1001
GENIUS_GENREC_14
1002
{
1000
PYDIR
1011
430.1588349394452
1021
397.1849362892878
1031
0.0
1002
}
1002
{
1000
PXDIR
1011
430.1058349394453
1021
397.1859362892879
1031
0.0
1002
}
1002
{
1000
PORI
1011
430.1588349394452
1021
397.1859362892879
1031
0.0
1002
}
1002
{
1000
PINS
1011
430.1588349394452
1021
397.1859362892879
1031
0.0
1002
}
1002
{
1000
PINS2
1011
430.1058349394453
1021
397.1849362892878
1031
0.0
1002
}
1002
{
1000
C
1070
     1
1002
}
1001
GENIUS_GENODEF_13
1002
{
1000
HIER
1070
     0
1002
}
1002
{
1000
MANEDIT
1070
     0
1002
}
1002
{
1000
NOSEL
1070
     0
1002
}
1002
{
1000
BEHIND
1070
     0
1002
}
1002
{
1000
REACTOR
1002
}
1001
GENIUS_GENOBJ-N-REC_13
1002
{
1000
OWNER
1000
GEN
1002
}
  0
LINE
  5
E4A
330
1F
100
AcDbEntity
  8
SANINDUSA
100
AcDbLine
 10
430.4581171965244
 20
397.346697094518
 30
0.0
 11
430.4051171965244
 21
397.346697094518
 31
0.0
  0
LWPOLYLINE
  5
E4B
330
1F
100
AcDbEntity
  8
SANINDUSA
100
AcDbPolyline
 90
        2
 70
     0
 43
0.0
 10
430.4051171965244
 20
397.347897094518
 10
430.4581171965244
 20
397.347897094518
1001
GENIUS_GENREC_14
1002
{
1000
PYDIR
1011
430.1588349394452
1021
397.1849362892878
1031
0.0
1002
}
1002
{
1000
PXDIR
1011
430.1058349394453
1021
397.1859362892879
1031
0.0
1002
}
1002
{
1000
PORI
1011
430.1588349394452
1021
397.1859362892879
1031
0.0
1002
}
1002
{
1000
PINS
1011
430.1588349394452
1021
397.1859362892879
1031
0.0
1002
}
1002
{
1000
PINS2
1011
430.1058349394453
1021
397.1849362892878
1031
0.0
1002
}
1002
{
1000
C
1070
     1
1002
}
1001
GENIUS_GENODEF_13
1002
{
1000
HIER
1070
     0
1002
}
1002
{
1000
MANEDIT
1070
     0
1002
}
1002
{
1000
NOSEL
1070
     0
1002
}
1002
{
1000
BEHIND
1070
     0
1002
}
1002
{
1000
REACTOR
1002
}
1001
GENIUS_GENOBJ-N-REC_13
1002
{
1000
OWNER
1000
GEN
1002
}
  0
LWPOLYLINE
  5
E4C
330
1F
100
AcDbEntity
  8
SANINDUSA
100
AcDbPolyline
 90
        4
 70
     1
 43
0.0
 10
430.4581171965244
 20
397.355297094518
 10
430.4051171965244
 20
397.355297094518
 10
430.4051171965244
 20
397.354297094518
 10
430.4581171965244
 20
397.354297094518
1001
GENIUS_GENREC_14
1002
{
1000
PYDIR
1011
430.1588349394452
1021
397.1847362892878
1031
0.0
1002
}
1002
{
1000
PXDIR
1011
430.1058349394453
1021
397.1857362892878
1031
0.0
1002
}
1002
{
1000
PORI
1011
430.1588349394452
1021
397.1857362892878
1031
0.0
1002
}
1002
{
1000
PINS
1011
430.1588349394452
1021
397.1857362892878
1031
0.0
1002
}
1002
{
1000
PINS2
1011
430.1058349394453
1021
397.1847362892878
1031
0.0
1002
}
1002
{
1000
C
1070
     1
1002
}
1001
GENIUS_GENODEF_13
1002
{
1000
HIER
1070
     0
1002
}
1002
{
1000
MANEDIT
1070
     0
1002
}
1002
{
1000
NOSEL
1070
     0
1002
}
1002
{
1000
BEHIND
1070
     0
1002
}
1002
{
1000
REACTOR
1002
}
1001
GENIUS_GENOBJ-N-REC_13
1002
{
1000
OWNER
1000
GEN
1002
}
  0
LINE
  5
E4D
330
1F
100
AcDbEntity
  8
SANINDUSA
100
AcDbLine
 10
430.4051171965244
 20
397.355497094518
 30
0.0
 11
430.4581171965244
 21
397.355497094518
 31
0.0
  0
LINE
  5
E4E
330
1F
100
AcDbEntity
  8
SANINDUSA
100
AcDbLine
 10
430.4571171965244
 20
397.360497094518
 30
0.0
 11
430.4061171965244
 21
397.360497094518
 31
0.0
  0
LINE
  5
E50
330
1F
100
AcDbEntity
  8
SANINDUSA
100
AcDbLine
 10
430.9916171965244
 20
397.3540971011937
 30
0.0
 11
430.9916171965244
 21
397.3480971011937
 31
0.0
  0
INSERT
  5
E51
330
1F
100
AcDbEntity
  8
SANINDUSA
100
AcDbBlockReference
  2
guarnizione
 10
430.9916171965244
 20
397.3510971011937
 30
0.0
 41
-0.001
 42
0.001
 43
0.001
  0
LINE
  5
E52
330
1F
100
AcDbEntity
  8
SANINDUSA
100
AcDbLine
 10
429.1937595105072
 20
396.4240396792606
 30
0.0
 11
429.7937595105072
 21
396.4240396792606
 31
0.0
  0
LINE
  5
E71
330
1F
100
AcDbEntity
  8
SANINDUSA
100
AcDbLine
 10
429.1907595105072
 20
396.4140396792606
 30
0.0
 11
429.1907595105072
 21
396.6850396792606
 31
0.0
  0
LINE
  5
E72
330
1F
100
AcDbEntity
  8
SANINDUSA
100
AcDbLine
 10
429.1937595105072
 20
396.4240396792606
 30
0.0
 11
429.1937595105072
 21
396.6850396792606
 31
0.0
  0
LINE
  5
E73
330
1F
100
AcDbEntity
  8
SANINDUSA
100
AcDbLine
 10
429.8022595105072
 20
396.4240396792606
 30
0.0
 11
429.8082595105071
 21
396.4240396792606
 31
0.0
  0
CIRCLE
  5
E75
330
1F
100
AcDbEntity
  8
SANINDUSA
100
AcDbCircle
 10
429.7437595105072
 20
397.3440389113136
 30
0.0
 40
0.004
  0
LINE
  5
E79
330
1F
100
AcDbEntity
  8
SANINDUSA
100
AcDbLine
 10
428.7325595105071
 20
398.2640396792606
 30
0.0
 11
429.1907595105072
 21
398.2640396792606
 31
0.0
  0
LINE
  5
E7B
330
1F
100
AcDbEntity
  8
SANINDUSA
100
AcDbLine
 10
429.1937595105072
 20
398.2640396792606
 30
0.0
 11
429.7965595105072
 21
398.2640396792606
 31
0.0
  0
LINE
  5
E9A
330
1F
100
AcDbEntity
  8
SANINDUSA
100
AcDbLine
 10
429.1937595105072
 20
397.9930396792509
 30
0.0
 11
429.1937595105072
 21
398.2640396792606
 31
0.0
  0
LINE
  5
E9B
330
1F
100
AcDbEntity
  8
SANINDUSA
100
AcDbLine
 10
429.1907595105072
 20
397.9930396792509
 30
0.0
 11
429.1907595105072
 21
398.2640396792606
 31
0.0
  0
LINE
  5
E9C
330
1F
100
AcDbEntity
  8
SANINDUSA
100
AcDbLine
 10
429.7965595105072
 20
398.2640396792606
 30
0.0
 11
429.8205595105072
 21
398.2640396792606
 31
0.0
  0
ARC
  5
FCA
330
1F
100
AcDbEntity
  8
SANINDUSA
100
AcDbCircle
 10
429.259259510507
 20
396.7255396792607
 30
-0.0000000017937957
 40
0.001
100
AcDbArc
 50
0.0
 51
90.0
  0
ARC
  5
FCB
330
1F
100
AcDbEntity
  8
SANINDUSA
100
AcDbCircle
 10
429.259259510507
 20
396.6925396792606
 30
-0.0000000017937957
 40
0.001
100
AcDbArc
 50
270.0
 51
0.0
  0
LINE
  5
FCC
330
1F
100
AcDbEntity
  8
SANINDUSA
100
AcDbLine
 10
429.1997595105071
 20
396.7110396792606
 30
-0.0000000017937957
 11
429.1997595105071
 21
396.7070396792606
 31
-0.0000000017937957
  0
LINE
  5
FCD
330
1F
100
AcDbEntity
  8
SANINDUSA
100
AcDbLine
 10
429.201148399396
 20
396.7070396792606
 30
-0.0000000017937957
 11
429.201148399396
 21
396.7265396792607
 31
-0.0000000017937957
  0
LINE
  5
FCE
330
1F
100
AcDbEntity
  8
SANINDUSA
100
AcDbLine
 10
429.259259510507
 20
396.6915396792606
 30
-0.0000000017937957
 11
429.2002595105071
 21
396.6915396792606
 31
-0.0000000017937957
  0
LINE
  5
FCF
330
1F
100
AcDbEntity
  8
SANINDUSA
100
AcDbLine
 10
429.2002595105071
 20
396.7070396792606
 30
-0.0000000017937957
 11
429.184259510507
 21
396.7070396792606
 31
-0.0000000017937957
  0
LINE
  5
FD0
330
1F
100
AcDbEntity
  8
SANINDUSA
100
AcDbLine
 10
429.2002595105071
 20
396.7070396792606
 30
-0.0000000017937957
 11
429.201148399396
 21
396.7070396792606
 31
-0.0000000017937957
  0
LINE
  5
FD1
330
1F
100
AcDbEntity
  8
SANINDUSA
100
AcDbLine
 10
429.185259510507
 20
396.6850396792606
 30
-0.0000000017937957
 11
429.199259510507
 21
396.6850396792606
 31
-0.0000000017937957
  0
ARC
  5
FD2
330
1F
100
AcDbEntity
  8
SANINDUSA
100
AcDbCircle
 10
429.199259510507
 20
396.6860396792607
 30
-0.0000000017937957
 40
0.001
100
AcDbArc
 50
270.0
 51
0.0
  0
LINE
  5
FD3
330
1F
100
AcDbEntity
  8
SANINDUSA
100
AcDbLine
 10
429.2002595105071
 20
396.6860396792607
 30
-0.0000000017937957
 11
429.2002595105071
 21
396.7070396792606
 31
-0.0000000017937957
  0
LINE
  5
FD4
330
1F
100
AcDbEntity
  8
SANINDUSA
100
AcDbLine
 10
429.201148399396
 20
396.7265396792607
 30
-0.0000000017937957
 11
429.259259510507
 21
396.7265396792607
 31
-0.0000000017937957
  0
LINE
  5
FD5
330
1F
100
AcDbEntity
  8
SANINDUSA
100
AcDbLine
 10
429.1992595105072
 20
396.7330396792606
 30
-0.0000000017937957
 11
429.1852595105072
 21
396.7330396792606
 31
-0.0000000017937957
  0
LINE
  5
FD6
330
1F
100
AcDbEntity
  8
SANINDUSA
100
AcDbLine
 10
429.1833706216181
 20
396.7110396792606
 30
-0.0000000017937957
 11
429.2002595105071
 21
396.7110396792606
 31
-0.0000000017937957
  0
ARC
  5
FD7
330
1F
100
AcDbEntity
  8
SANINDUSA
100
AcDbCircle
 10
429.1992595105072
 20
396.7320396792607
 30
-0.0000000017937957
 40
0.001
100
AcDbArc
 50
0.0
 51
90.0
  0
LINE
  5
FD8
330
1F
100
AcDbEntity
  8
SANINDUSA
100
AcDbLine
 10
429.2002595105071
 20
396.7110396792606
 30
-0.0000000017937957
 11
429.2002595105071
 21
396.7320396792607
 31
-0.0000000017937957
  0
LINE
  5
FD9
330
1F
100
AcDbEntity
  8
SANINDUSA
100
AcDbLine
 10
429.260259510507
 20
396.7255396792607
 30
-0.0000000017937957
 11
429.260259510507
 21
396.6925396792606
 31
-0.0000000017937957
  0
LINE
  5
FDA
330
1F
100
AcDbEntity
  8
SANINDUSA
100
AcDbLine
 10
429.1842595105072
 20
396.7265396792607
 30
-0.0000000017937957
 11
429.1252595105071
 21
396.7265396792607
 31
-0.0000000017937957
  0
LINE
  5
FDB
330
1F
100
AcDbEntity
  8
SANINDUSA
100
AcDbLine
 10
429.1252595105071
 20
396.6915396792606
 30
-0.0000000017937957
 11
429.1833706216181
 21
396.6915396792606
 31
-0.0000000017937957
  0
LINE
  5
FDC
330
1F
100
AcDbEntity
  8
SANINDUSA
100
AcDbLine
 10
429.1242595105072
 20
396.7255396792607
 30
-0.0000000017937957
 11
429.1242595105072
 21
396.6925396792606
 31
-0.0000000017937957
  0
ARC
  5
FDD
330
1F
100
AcDbEntity
  8
SANINDUSA
100
AcDbCircle
 10
429.1252595105071
 20
396.6925396792606
 30
-0.0000000017937957
 40
0.001
100
AcDbArc
 50
180.0
 51
270.0
  0
ARC
  5
FDE
330
1F
100
AcDbEntity
  8
SANINDUSA
100
AcDbCircle
 10
429.1252595105071
 20
396.7255396792607
 30
-0.0000000017937957
 40
0.001
100
AcDbArc
 50
90.0
 51
180.0
  0
LINE
  5
FDF
330
1F
100
AcDbEntity
  8
SANINDUSA
100
AcDbLine
 10
429.184759510507
 20
396.7110396792606
 30
-0.0000000017937957
 11
429.184759510507
 21
396.7070396792606
 31
-0.0000000017937957
  0
LINE
  5
FE0
330
1F
100
AcDbEntity
  8
SANINDUSA
100
AcDbLine
 10
429.1833706216181
 20
396.6915396792606
 30
-0.0000000017937957
 11
429.1833706216181
 21
396.7110396792606
 31
-0.0000000017937957
  0
ARC
  5
FE1
330
1F
100
AcDbEntity
  8
SANINDUSA
100
AcDbCircle
 10
429.185259510507
 20
396.6860396792607
 30
-0.0000000017937957
 40
0.001
100
AcDbArc
 50
180.0
 51
270.0
  0
LINE
  5
FE2
330
1F
100
AcDbEntity
  8
SANINDUSA
100
AcDbLine
 10
429.184259510507
 20
396.7070396792606
 30
-0.0000000017937957
 11
429.184259510507
 21
396.6860396792607
 31
-0.0000000017937957
  0
LINE
  5
FE3
330
1F
100
AcDbEntity
  8
SANINDUSA
100
AcDbLine
 10
429.1842595105072
 20
396.7320396792607
 30
-0.0000000017937957
 11
429.1842595105072
 21
396.7265396792607
 31
-0.0000000017937957
  0
LINE
  5
FE4
330
1F
100
AcDbEntity
  8
SANINDUSA
100
AcDbLine
 10
429.1842595105072
 20
396.7265396792607
 30
-0.0000000017937957
 11
429.1842595105072
 21
396.7110396792606
 31
-0.0000000017937957
  0
ARC
  5
FE5
330
1F
100
AcDbEntity
  8
SANINDUSA
100
AcDbCircle
 10
429.1852595105072
 20
396.7320396792607
 30
-0.0000000017937957
 40
0.001
100
AcDbArc
 50
90.0
 51
180.0
  0
ARC
  5
FE6
330
1F
100
AcDbEntity
  8
SANINDUSA
100
AcDbCircle
 10
429.259259510507
 20
397.985539679251
 30
-0.0000000017937957
 40
0.001
100
AcDbArc
 50
0.0
 51
90.0
  0
ARC
  5
FE7
330
1F
100
AcDbEntity
  8
SANINDUSA
100
AcDbCircle
 10
429.259259510507
 20
397.952539679251
 30
-0.0000000017937957
 40
0.001
100
AcDbArc
 50
270.0
 51
0.0
  0
LINE
  5
FE8
330
1F
100
AcDbEntity
  8
SANINDUSA
100
AcDbLine
 10
429.1997595105071
 20
397.971039679251
 30
-0.0000000017937957
 11
429.1997595105071
 21
397.967039679251
 31
-0.0000000017937957
  0
LINE
  5
FE9
330
1F
100
AcDbEntity
  8
SANINDUSA
100
AcDbLine
 10
429.201148399396
 20
397.967039679251
 30
-0.0000000017937957
 11
429.201148399396
 21
397.986539679251
 31
-0.0000000017937957
  0
LINE
  5
FEA
330
1F
100
AcDbEntity
  8
SANINDUSA
100
AcDbLine
 10
429.259259510507
 20
397.951539679251
 30
-0.0000000017937957
 11
429.2002595105071
 21
397.951539679251
 31
-0.0000000017937957
  0
LINE
  5
FEB
330
1F
100
AcDbEntity
  8
SANINDUSA
100
AcDbLine
 10
429.2002595105071
 20
397.967039679251
 30
-0.0000000017937957
 11
429.184259510507
 21
397.967039679251
 31
-0.0000000017937957
  0
LINE
  5
FEC
330
1F
100
AcDbEntity
  8
SANINDUSA
100
AcDbLine
 10
429.2002595105071
 20
397.967039679251
 30
-0.0000000017937957
 11
429.201148399396
 21
397.967039679251
 31
-0.0000000017937957
  0
LINE
  5
FED
330
1F
100
AcDbEntity
  8
SANINDUSA
100
AcDbLine
 10
429.185259510507
 20
397.9450396792509
 30
-0.0000000017937957
 11
429.199259510507
 21
397.9450396792509
 31
-0.0000000017937957
  0
ARC
  5
FEE
330
1F
100
AcDbEntity
  8
SANINDUSA
100
AcDbCircle
 10
429.199259510507
 20
397.946039679251
 30
-0.0000000017937957
 40
0.001
100
AcDbArc
 50
270.0
 51
0.0
  0
LINE
  5
FEF
330
1F
100
AcDbEntity
  8
SANINDUSA
100
AcDbLine
 10
429.2002595105071
 20
397.946039679251
 30
-0.0000000017937957
 11
429.2002595105071
 21
397.967039679251
 31
-0.0000000017937957
  0
LINE
  5
FF0
330
1F
100
AcDbEntity
  8
SANINDUSA
100
AcDbLine
 10
429.201148399396
 20
397.986539679251
 30
-0.0000000017937957
 11
429.259259510507
 21
397.986539679251
 31
-0.0000000017937957
  0
LINE
  5
FF1
330
1F
100
AcDbEntity
  8
SANINDUSA
100
AcDbLine
 10
429.1992595105072
 20
397.9930396792509
 30
-0.0000000017937957
 11
429.1852595105072
 21
397.9930396792509
 31
-0.0000000017937957
  0
LINE
  5
FF2
330
1F
100
AcDbEntity
  8
SANINDUSA
100
AcDbLine
 10
429.1833706216181
 20
397.971039679251
 30
-0.0000000017937957
 11
429.2002595105071
 21
397.971039679251
 31
-0.0000000017937957
  0
ARC
  5
FF3
330
1F
100
AcDbEntity
  8
SANINDUSA
100
AcDbCircle
 10
429.1992595105072
 20
397.992039679251
 30
-0.0000000017937957
 40
0.001
100
AcDbArc
 50
0.0
 51
90.0
  0
LINE
  5
FF4
330
1F
100
AcDbEntity
  8
SANINDUSA
100
AcDbLine
 10
429.2002595105071
 20
397.971039679251
 30
-0.0000000017937957
 11
429.2002595105071
 21
397.992039679251
 31
-0.0000000017937957
  0
LINE
  5
FF5
330
1F
100
AcDbEntity
  8
SANINDUSA
100
AcDbLine
 10
429.260259510507
 20
397.985539679251
 30
-0.0000000017937957
 11
429.260259510507
 21
397.952539679251
 31
-0.0000000017937957
  0
LINE
  5
FF6
330
1F
100
AcDbEntity
  8
SANINDUSA
100
AcDbLine
 10
429.1842595105072
 20
397.986539679251
 30
-0.0000000017937957
 11
429.1252595105071
 21
397.986539679251
 31
-0.0000000017937957
  0
LINE
  5
FF7
330
1F
100
AcDbEntity
  8
SANINDUSA
100
AcDbLine
 10
429.1252595105071
 20
397.951539679251
 30
-0.0000000017937957
 11
429.1833706216181
 21
397.951539679251
 31
-0.0000000017937957
  0
LINE
  5
FF8
330
1F
100
AcDbEntity
  8
SANINDUSA
100
AcDbLine
 10
429.1242595105072
 20
397.985539679251
 30
-0.0000000017937957
 11
429.1242595105072
 21
397.952539679251
 31
-0.0000000017937957
  0
ARC
  5
FF9
330
1F
100
AcDbEntity
  8
SANINDUSA
100
AcDbCircle
 10
429.1252595105071
 20
397.952539679251
 30
-0.0000000017937957
 40
0.001
100
AcDbArc
 50
180.0
 51
270.0
  0
ARC
  5
FFA
330
1F
100
AcDbEntity
  8
SANINDUSA
100
AcDbCircle
 10
429.1252595105071
 20
397.985539679251
 30
-0.0000000017937957
 40
0.001
100
AcDbArc
 50
90.0
 51
180.0
  0
LINE
  5
FFB
330
1F
100
AcDbEntity
  8
SANINDUSA
100
AcDbLine
 10
429.184759510507
 20
397.971039679251
 30
-0.0000000017937957
 11
429.184759510507
 21
397.967039679251
 31
-0.0000000017937957
  0
LINE
  5
FFC
330
1F
100
AcDbEntity
  8
SANINDUSA
100
AcDbLine
 10
429.1833706216181
 20
397.951539679251
 30
-0.0000000017937957
 11
429.1833706216181
 21
397.971039679251
 31
-0.0000000017937957
  0
ARC
  5
FFD
330
1F
100
AcDbEntity
  8
SANINDUSA
100
AcDbCircle
 10
429.185259510507
 20
397.946039679251
 30
-0.0000000017937957
 40
0.001
100
AcDbArc
 50
180.0
 51
270.0
  0
LINE
  5
FFE
330
1F
100
AcDbEntity
  8
SANINDUSA
100
AcDbLine
 10
429.184259510507
 20
397.967039679251
 30
-0.0000000017937957
 11
429.184259510507
 21
397.946039679251
 31
-0.0000000017937957
  0
LINE
  5
FFF
330
1F
100
AcDbEntity
  8
SANINDUSA
100
AcDbLine
 10
429.1842595105072
 20
397.992039679251
 30
-0.0000000017937957
 11
429.1842595105072
 21
397.986539679251
 31
-0.0000000017937957
  0
LINE
  5
1000
330
1F
100
AcDbEntity
  8
SANINDUSA
100
AcDbLine
 10
429.1842595105072
 20
397.986539679251
 30
-0.0000000017937957
 11
429.1842595105072
 21
397.971039679251
 31
-0.0000000017937957
  0
ARC
  5
1001
330
1F
100
AcDbEntity
  8
SANINDUSA
100
AcDbCircle
 10
429.1852595105072
 20
397.992039679251
 30
-0.0000000017937957
 40
0.001
100
AcDbArc
 50
90.0
 51
180.0
  0
ARC
  5
1031
330
1F
100
AcDbEntity
  8
SANINDUSA
100
AcDbCircle
 10
429.9337958759432
 20
397.358797094518
 30
-0.0000000000545587
 40
0.0009999999999999
100
AcDbArc
 50
90.0
 51
180.0
  0
LINE
  5
1032
330
1F
100
AcDbEntity
  8
SANINDUSA
100
AcDbLine
 10
429.9327958759432
 20
397.3578113080804
 30
-0.0000000000545587
 11
429.9327958759432
 21
397.358797094518
 31
-0.0000000000545587
  0
LINE
  5
1033
330
1F
100
AcDbEntity
  8
SANINDUSA
100
AcDbLine
 10
429.9337958759432
 20
397.359797094518
 30
-0.0000000000545587
 11
429.9688191800752
 21
397.359797094518
 31
-0.0000000000545587
  0
ARC
  5
1034
330
1F
100
AcDbEntity
  8
SANINDUSA
100
AcDbCircle
 10
429.9337958759432
 20
397.3578113080804
 30
-0.0000000000545587
 40
0.0010000000000003
100
AcDbArc
 50
180.0
 51
225.0
  0
ARC
  5
1035
330
1F
100
AcDbEntity
  8
SANINDUSA
100
AcDbCircle
 10
429.9688191800752
 20
397.358797094518
 30
-0.0000000000545587
 40
0.001
100
AcDbArc
 50
270.0
 51
90.0
  0
LINE
  5
1036
330
1F
100
AcDbEntity
  8
SANINDUSA
100
AcDbLine
 10
429.9340029827244
 20
397.3561899877368
 30
-0.0000000000545587
 11
429.933088769162
 21
397.3571042012992
 31
-0.0000000000545587
  0
LINE
  5
1037
330
1F
100
AcDbEntity
  8
SANINDUSA
100
AcDbLine
 10
429.9688191800752
 20
397.357797094518
 30
-0.0000000000545587
 11
429.9372958759432
 21
397.357797094518
 31
-0.0000000000545587
  0
ARC
  5
1038
330
1F
100
AcDbEntity
  8
SANINDUSA
100
AcDbCircle
 10
429.9332958759432
 20
397.3554828809556
 30
-0.0000000000545587
 40
0.0010000000000003
100
AcDbArc
 50
0.0
 51
45.0
  0
ARC
  5
1039
330
1F
100
AcDbEntity
  8
SANINDUSA
100
AcDbCircle
 10
429.9372958759432
 20
397.356797094518
 30
-0.0000000000545587
 40
0.001
100
AcDbArc
 50
90.0
 51
180.0
  0
LINE
  5
103A
330
1F
100
AcDbEntity
  8
SANINDUSA
100
AcDbLine
 10
429.9342958759432
 20
397.3521077546898
 30
-0.0000000000545587
 11
429.9342958759432
 21
397.3554828809556
 31
-0.0000000000545587
  0
LINE
  5
103B
330
1F
100
AcDbEntity
  8
SANINDUSA
100
AcDbLine
 10
429.9362958759432
 20
397.356797094518
 30
-0.0000000000545587
 11
429.9362958759432
 21
397.3389379082408
 31
-0.0000000000545587
  0
ARC
  5
103C
330
1F
100
AcDbEntity
  8
SANINDUSA
100
AcDbCircle
 10
429.9345458759431
 20
397.3521077546898
 30
-0.0000000000545587
 40
0.0002500000000003
100
AcDbArc
 50
180.0
 51
225.0
  0
ARC
  5
103D
330
1F
100
AcDbEntity
  8
SANINDUSA
100
AcDbCircle
 10
429.9372958759432
 20
397.3389379082408
 30
-0.0000000000545587
 40
0.001
100
AcDbArc
 50
180.0
 51
272.1494579347754
  0
LINE
  5
103E
330
1F
100
AcDbEntity
  8
SANINDUSA
100
AcDbLine
 10
429.9348494293338
 20
397.3514506479086
 30
-0.0000000000545587
 11
429.9343690992479
 21
397.3519309779945
 31
-0.0000000000545587
  0
ARC
  5
103F
330
1F
100
AcDbEntity
  8
SANINDUSA
100
AcDbCircle
 10
429.9337057675053
 20
397.434590654163
 30
-0.0000000000545587
 40
0.0967200954923435
100
AcDbArc
 50
272.1494579347754
 51
285.5601696429527
  0
ARC
  5
1040
330
1F
100
AcDbEntity
  8
SANINDUSA
100
AcDbCircle
 10
429.9344958759432
 20
397.351097094518
 30
-0.0000000000545587
 40
0.0005
100
AcDbArc
 50
315.0
 51
45.0
  0
ARC
  5
1041
330
1F
100
AcDbEntity
  8
SANINDUSA
100
AcDbCircle
 10
429.9595168267027
 20
397.341897094518
 30
-0.0000000000545587
 40
0.0005
100
AcDbArc
 50
285.5601696429527
 51
90.0
  0
LINE
  5
1042
330
1F
100
AcDbEntity
  8
SANINDUSA
100
AcDbLine
 10
429.9343690992479
 20
397.3502632110415
 30
-0.0000000000545587
 11
429.9348494293338
 21
397.3507435411274
 31
-0.0000000000545587
  0
LINE
  5
1043
330
1F
100
AcDbEntity
  8
SANINDUSA
100
AcDbLine
 10
429.9595168267027
 20
397.342397094518
 30
-0.0000000000545587
 11
429.9468191800752
 21
397.342397094518
 31
-0.0000000000545587
  0
ARC
  5
1044
330
1F
100
AcDbEntity
  8
SANINDUSA
100
AcDbCircle
 10
429.9345458759431
 20
397.3500864343462
 30
-0.0000000000545587
 40
0.00025
100
AcDbArc
 50
135.0
 51
180.0
  0
ARC
  5
1045
330
1F
100
AcDbEntity
  8
SANINDUSA
100
AcDbCircle
 10
429.9468191800752
 20
397.343397094518
 30
-0.0000000000545587
 40
0.001
100
AcDbArc
 50
90.0
 51
270.0
  0
LINE
  5
1046
330
1F
100
AcDbEntity
  8
SANINDUSA
100
AcDbLine
 10
429.9342958759432
 20
397.3398970708565
 30
-0.0000000000545587
 11
429.9342958759432
 21
397.3500864343462
 31
-0.0000000000545587
  0
LINE
  5
1047
330
1F
100
AcDbEntity
  8
SANINDUSA
100
AcDbLine
 10
429.9468191800752
 20
397.344397094518
 30
-0.0000000000545587
 11
429.9688191800752
 21
397.344397094518
 31
-0.0000000000545587
  0
ARC
  5
1048
330
1F
100
AcDbEntity
  8
SANINDUSA
100
AcDbCircle
 10
429.9332958759432
 20
397.3398970708565
 30
-0.0000000000545587
 40
0.0010000000000003
100
AcDbArc
 50
314.9106959496867
 51
0.0
  0
ARC
  5
1049
330
1F
100
AcDbEntity
  8
SANINDUSA
100
AcDbCircle
 10
429.9688191800752
 20
397.343397094518
 30
-0.0000000000545587
 40
0.001
100
AcDbArc
 50
291.0588352481606
 51
90.0
  0
LINE
  5
104A
330
1F
100
AcDbEntity
  8
SANINDUSA
100
AcDbLine
 10
429.9330954406232
 20
397.338285244939
 30
-0.0000000000545587
 11
429.9340018797342
 21
397.3391888628029
 31
-0.0000000000545587
  0
ARC
  5
104B
330
1F
100
AcDbEntity
  8
SANINDUSA
100
AcDbCircle
 10
429.9337057675053
 20
397.434590654163
 30
-0.0000000000545587
 40
0.0987200954923432
100
AcDbArc
 50
270.0522365954197
 51
291.0588352481606
  0
ARC
  5
104C
330
1F
100
AcDbEntity
  8
SANINDUSA
100
AcDbCircle
 10
429.9338014444142
 20
397.3375770368854
 30
-0.0000000000545587
 40
0.0010000000000003
100
AcDbArc
 50
134.9106959496867
 51
179.4659008892979
  0
ARC
  5
104D
330
1F
100
AcDbEntity
  8
SANINDUSA
100
AcDbCircle
 10
429.9337948589618
 20
397.336870599283
 30
-0.0000000000545587
 40
0.001
100
AcDbArc
 50
179.4659008892979
 51
270.0522365954197
  0
LINE
  5
104E
330
1F
100
AcDbEntity
  8
SANINDUSA
100
AcDbLine
 10
429.9327949024094
 20
397.3368799209361
 30
-0.0000000000545587
 11
429.9328014878617
 21
397.3375863585384
 31
-0.0000000000545587
  0
LINE
  5
104F
330
1F
100
AcDbEntity
  8
SANINDUSA
100
AcDbLine
 10
429.9829211032347
 20
397.355097094518
 30
-0.0000000000545587
 11
429.9802324900845
 21
397.355097094518
 31
-0.0000000000545587
  0
ARC
  5
1050
330
1F
100
AcDbEntity
  8
SANINDUSA
100
AcDbCircle
 10
429.9829211032347
 20
397.354597094518
 30
-0.0000000000545587
 40
0.0005000000000001
100
AcDbArc
 50
23.57817847845152
 51
90.0
  0
ARC
  5
1051
330
1F
100
AcDbEntity
  8
SANINDUSA
100
AcDbCircle
 10
429.9802324900845
 20
397.354597094518
 30
-0.0000000000545587
 40
0.0005
100
AcDbArc
 50
90.0
 51
160.5287793650535
  0
ARC
  5
1052
330
1F
100
AcDbEntity
  8
SANINDUSA
100
AcDbCircle
 10
429.9842958759432
 20
397.355197094518
 30
-0.0000000000545587
 40
0.0009999999999999
100
AcDbArc
 50
203.5781784784515
 51
0.0
  0
ARC
  5
1053
330
1F
100
AcDbEntity
  8
SANINDUSA
100
AcDbCircle
 10
429.9788182765221
 20
397.355097094518
 30
-0.0000000000545587
 40
0.001
100
AcDbArc
 50
199.4712206349464
 51
340.5287793650535
  0
LINE
  5
1054
330
1F
100
AcDbEntity
  8
SANINDUSA
100
AcDbLine
 10
429.9852958759432
 20
397.355197094518
 30
-0.0000000000545587
 11
429.9852958759432
 21
397.356097094518
 31
-0.0000000000545587
  0
ARC
  5
1055
330
1F
100
AcDbEntity
  8
SANINDUSA
100
AcDbCircle
 10
429.9774040629598
 20
397.354597094518
 30
-0.0000000000545587
 40
0.0004999999999999
100
AcDbArc
 50
19.47122063494644
 51
90.0
  0
ARC
  5
1056
330
1F
100
AcDbEntity
  8
SANINDUSA
100
AcDbCircle
 10
429.9842958759432
 20
397.356097094518
 30
-0.0000000000545587
 40
0.0009999999999999
100
AcDbArc
 50
0.0
 51
90.0
  0
LINE
  5
1057
330
1F
100
AcDbEntity
  8
SANINDUSA
100
AcDbLine
 10
429.9774040629598
 20
397.355097094518
 30
-0.0000000000545587
 11
429.9758178997031
 21
397.355097094518
 31
-0.0000000000545587
  0
LINE
  5
1058
330
1F
100
AcDbEntity
  8
SANINDUSA
100
AcDbLine
 10
429.9842958759432
 20
397.357097094518
 30
-0.0000000000545587
 11
429.9527958759433
 21
397.357097094518
 31
-0.0000000000545587
  0
ARC
  5
1059
330
1F
100
AcDbEntity
  8
SANINDUSA
100
AcDbCircle
 10
429.9758178997031
 20
397.354597094518
 30
-0.0000000000545587
 40
0.0005
100
AcDbArc
 50
90.0
 51
180.0
  0
ARC
  5
105A
330
1F
100
AcDbEntity
  8
SANINDUSA
100
AcDbCircle
 10
429.9527958759433
 20
397.356097094518
 30
-0.0000000000545587
 40
0.001
100
AcDbArc
 50
90.0
 51
270.0
  0
LINE
  5
105B
330
1F
100
AcDbEntity
  8
SANINDUSA
100
AcDbLine
 10
429.9753178997031
 20
397.354597094518
 30
-0.0000000000545587
 11
429.9753178997031
 21
397.347597094518
 31
-0.0000000000545587
  0
LINE
  5
105C
330
1F
100
AcDbEntity
  8
SANINDUSA
100
AcDbLine
 10
429.9527958759433
 20
397.355097094518
 30
-0.0000000000545587
 11
429.9728178997031
 21
397.355097094518
 31
-0.0000000000545587
  0
ARC
  5
105D
330
1F
100
AcDbEntity
  8
SANINDUSA
100
AcDbCircle
 10
429.9758178997031
 20
397.347597094518
 30
-0.0000000000545587
 40
0.0005
100
AcDbArc
 50
180.0
 51
270.0
  0
ARC
  5
105E
330
1F
100
AcDbEntity
  8
SANINDUSA
100
AcDbCircle
 10
429.9728178997031
 20
397.354597094518
 30
-0.0000000000545587
 40
0.0005000000000001
100
AcDbArc
 50
0.0
 51
90.0
  0
LINE
  5
105F
330
1F
100
AcDbEntity
  8
SANINDUSA
100
AcDbLine
 10
429.9758178997031
 20
397.347097094518
 30
-0.0000000000545587
 11
429.9774040629598
 21
397.347097094518
 31
-0.0000000000545587
  0
LINE
  5
1060
330
1F
100
AcDbEntity
  8
SANINDUSA
100
AcDbLine
 10
429.9733178997031
 20
397.354597094518
 30
-0.0000000000545587
 11
429.9733178997031
 21
397.347597094518
 31
-0.0000000000545587
  0
ARC
  5
1061
330
1F
100
AcDbEntity
  8
SANINDUSA
100
AcDbCircle
 10
429.9774040629598
 20
397.347597094518
 30
-0.0000000000545587
 40
0.0005
100
AcDbArc
 50
270.0
 51
340.5287793650535
  0
ARC
  5
1062
330
1F
100
AcDbEntity
  8
SANINDUSA
100
AcDbCircle
 10
429.9728178997031
 20
397.347597094518
 30
-0.0000000000545587
 40
0.0005000000000001
100
AcDbArc
 50
270.0
 51
0.0
  0
ARC
  5
1063
330
1F
100
AcDbEntity
  8
SANINDUSA
100
AcDbCircle
 10
429.9788182765221
 20
397.347097094518
 30
-0.0000000000545587
 40
0.001
100
AcDbArc
 50
19.47122063494644
 51
160.5287793650535
  0
LINE
  5
1064
330
1F
100
AcDbEntity
  8
SANINDUSA
100
AcDbLine
 10
429.9728178997031
 20
397.347097094518
 30
-0.0000000000545587
 11
429.9527958759433
 21
397.347097094518
 31
-0.0000000000545587
  0
ARC
  5
1065
330
1F
100
AcDbEntity
  8
SANINDUSA
100
AcDbCircle
 10
429.9802324900845
 20
397.347597094518
 30
-0.0000000000545587
 40
0.0005
100
AcDbArc
 50
199.4712206349464
 51
270.0
  0
ARC
  5
1066
330
1F
100
AcDbEntity
  8
SANINDUSA
100
AcDbCircle
 10
429.9527958759433
 20
397.3460970945181
 30
-0.0000000000545587
 40
0.001
100
AcDbArc
 50
90.0
 51
270.0
  0
LINE
  5
1067
330
1F
100
AcDbEntity
  8
SANINDUSA
100
AcDbLine
 10
429.9802324900845
 20
397.347097094518
 30
-0.0000000000545587
 11
429.9829211032347
 21
397.347097094518
 31
-0.0000000000545587
  0
LINE
  5
1068
330
1F
100
AcDbEntity
  8
SANINDUSA
100
AcDbLine
 10
429.9527958759433
 20
397.345097094518
 30
-0.0000000000545587
 11
429.9842958759432
 21
397.345097094518
 31
-0.0000000000545587
  0
ARC
  5
1069
330
1F
100
AcDbEntity
  8
SANINDUSA
100
AcDbCircle
 10
429.9829211032347
 20
397.347597094518
 30
-0.0000000000545587
 40
0.0005000000000001
100
AcDbArc
 50
270.0
 51
336.4218215215485
  0
ARC
  5
106A
330
1F
100
AcDbEntity
  8
SANINDUSA
100
AcDbCircle
 10
429.9842958759432
 20
397.3460970945181
 30
-0.0000000000545587
 40
0.0010000000000001
100
AcDbArc
 50
270.0
 51
0.0
  0
ARC
  5
106B
330
1F
100
AcDbEntity
  8
SANINDUSA
100
AcDbCircle
 10
429.9842958759432
 20
397.346997094518
 30
-0.0000000000545587
 40
0.0009999999999999
100
AcDbArc
 50
0.0
 51
156.4218215215485
  0
LINE
  5
106C
330
1F
100
AcDbEntity
  8
SANINDUSA
100
AcDbLine
 10
429.9852958759432
 20
397.3460970945181
 30
-0.0000000000545587
 11
429.9852958759432
 21
397.346997094518
 31
-0.0000000000545587
  0
LINE
  5
106D
330
1F
100
AcDbEntity
  8
SANINDUSA
100
AcDbLine
 10
429.9304458759432
 20
397.3358705992831
 30
-0.0000000000545587
 11
429.9304458759432
 21
397.359797094518
 31
-0.0000000000545587
  0
LINE
  5
106E
330
1F
100
AcDbEntity
  8
SANINDUSA
100
AcDbLine
 10
429.9304458759432
 20
397.3358705992831
 30
-0.0000000000545587
 11
429.9314447568557
 21
397.3358705992831
 31
-0.0000000000545587
  0
LINE
  5
106F
330
1F
100
AcDbEntity
  8
SANINDUSA
100
AcDbLine
 10
429.9314458759432
 20
397.359797094518
 30
-0.0000000000545587
 11
429.9304458759432
 21
397.359797094518
 31
-0.0000000000545587
  0
ARC
  5
1070
330
1F
100
AcDbEntity
  8
SANINDUSA
100
AcDbCircle
 10
429.9314447568557
 20
397.336870599283
 30
-0.0000000000545587
 40
0.0009999999999999
100
AcDbArc
 50
270.0
 51
359.4659008892979
  0
ARC
  5
1071
330
1F
100
AcDbEntity
  8
SANINDUSA
100
AcDbCircle
 10
429.9314458759432
 20
397.358797094518
 30
-0.0000000000545587
 40
0.0009999999999999
100
AcDbArc
 50
0.0
 51
90.0
  0
LINE
  5
1072
330
1F
100
AcDbEntity
  8
SANINDUSA
100
AcDbLine
 10
429.9324447134082
 20
397.33686127763
 30
-0.0000000000545587
 11
429.9324515030684
 21
397.337589621117
 31
-0.0000000000545587
  0
LINE
  5
1073
330
1F
100
AcDbEntity
  8
SANINDUSA
100
AcDbLine
 10
429.9324458759432
 20
397.3578113080804
 30
-0.0000000000545587
 11
429.9324458759432
 21
397.358797094518
 31
-0.0000000000545587
  0
ARC
  5
1074
330
1F
100
AcDbEntity
  8
SANINDUSA
100
AcDbCircle
 10
429.9338014444142
 20
397.3375770368854
 30
-0.0000000000545587
 40
0.00135
100
AcDbArc
 50
134.9106959496867
 51
179.4659008892979
  0
ARC
  5
1075
330
1F
100
AcDbEntity
  8
SANINDUSA
100
AcDbCircle
 10
429.9337958759432
 20
397.3578113080804
 30
-0.0000000000545587
 40
0.0013499999999998
100
AcDbArc
 50
180.0
 51
225.0
  0
LINE
  5
1076
330
1F
100
AcDbEntity
  8
SANINDUSA
100
AcDbLine
 10
429.9328483392964
 20
397.3385331177577
 30
-0.0000000000545587
 11
429.9337547784073
 21
397.3394367356216
 31
-0.0000000000545587
  0
LINE
  5
1077
330
1F
100
AcDbEntity
  8
SANINDUSA
100
AcDbLine
 10
429.933755495351
 20
397.3559425003634
 30
-0.0000000000545587
 11
429.9328412817886
 21
397.3568567139258
 31
-0.0000000000545587
  0
ARC
  5
1078
330
1F
100
AcDbEntity
  8
SANINDUSA
100
AcDbCircle
 10
429.9332958759432
 20
397.3398970708565
 30
-0.0000000000545587
 40
0.0006500000000003
100
AcDbArc
 50
314.9106959496867
 51
0.0
  0
ARC
  5
1079
330
1F
100
AcDbEntity
  8
SANINDUSA
100
AcDbCircle
 10
429.9332958759432
 20
397.3554828809556
 30
-0.0000000000545587
 40
0.0006500000000003
100
AcDbArc
 50
0.0
 51
45.0
  0
LINE
  5
107A
330
1F
100
AcDbEntity
  8
SANINDUSA
100
AcDbLine
 10
429.9339458759432
 20
397.3398970708565
 30
-0.0000000000545587
 11
429.9339458759432
 21
397.3554828809556
 31
-0.0000000000545587
  0
ENDSEC
  0
SECTION
  2
OBJECTS
  0
DICTIONARY
  5
C
330
0
100
AcDbDictionary
281
     1
  3
ACAD_COLOR
350
11A7
  3
ACAD_GROUP
350
D
  3
ACAD_LAYOUT
350
1A
  3
ACAD_MATERIAL
350
117A
  3
ACAD_MLEADERSTYLE
350
11BC
  3
ACAD_MLINESTYLE
350
17
  3
ACAD_PLOTSETTINGS
350
19
  3
ACAD_PLOTSTYLENAME
350
E
  3
ACAD_SCALELIST
350
11AA
  3
ACAD_TABLESTYLE
350
11A8
  3
ACAD_VISUALSTYLE
350
1193
  3
ACDB_RECOMPOSE_DATA
350
1234
  3
AcDbVariableDictionary
350
3D
  3
ASE_INDEX_DICTIONARY
350
B91
  3
DWGPROPS
350
1235
  0
DICTIONARY
  5
11CD
330
10
100
AcDbDictionary
280
     1
281
     1
  3
ADSK_XREC_LAYER_RECONCILED
360
11CE
  0
DICTIONARY
  5
11CF
330
2F
100
AcDbDictionary
280
     1
281
     1
  3
ADSK_XREC_LAYER_RECONCILED
360
11D0
  0
DICTIONARY
  5
11D1
330
30
100
AcDbDictionary
280
     1
281
     1
  3
ADSK_XREC_LAYER_RECONCILED
360
11D2
  0
DICTIONARY
  5
11D3
330
31
100
AcDbDictionary
280
     1
281
     1
  3
ADSK_XREC_LAYER_RECONCILED
360
11D4
  0
DICTIONARY
  5
11D5
330
32
100
AcDbDictionary
280
     1
281
     1
  3
ADSK_XREC_LAYER_RECONCILED
360
11D6
  0
DICTIONARY
  5
11D7
330
33
100
AcDbDictionary
280
     1
281
     1
  3
ADSK_XREC_LAYER_RECONCILED
360
11D8
  0
DICTIONARY
  5
11D9
330
34
100
AcDbDictionary
280
     1
281
     1
  3
ADSK_XREC_LAYER_RECONCILED
360
11DA
  0
DICTIONARY
  5
11DB
330
35
100
AcDbDictionary
280
     1
281
     1
  3
ADSK_XREC_LAYER_RECONCILED
360
11DC
  0
DICTIONARY
  5
11DD
330
36
100
AcDbDictionary
280
     1
281
     1
  3
ADSK_XREC_LAYER_RECONCILED
360
11DE
  0
DICTIONARY
  5
11DF
330
37
100
AcDbDictionary
280
     1
281
     1
  3
ADSK_XREC_LAYER_RECONCILED
360
11E0
  0
DICTIONARY
  5
11E1
330
5D6
100
AcDbDictionary
280
     1
281
     1
  3
ADSK_XREC_LAYER_RECONCILED
360
11E2
  0
DICTIONARY
  5
11E3
330
8AF
100
AcDbDictionary
280
     1
281
     1
  3
ADSK_XREC_LAYER_RECONCILED
360
11E4
  0
DICTIONARY
  5
11E5
330
8F8
100
AcDbDictionary
280
     1
281
     1
  3
ADSK_XREC_LAYER_RECONCILED
360
11E6
  0
DICTIONARY
  5
11E7
330
91D
100
AcDbDictionary
280
     1
281
     1
  3
ADSK_XREC_LAYER_RECONCILED
360
11E8
  0
DICTIONARY
  5
11E9
330
C79
100
AcDbDictionary
280
     1
281
     1
  3
ADSK_XREC_LAYER_RECONCILED
360
11EA
  0
DICTIONARY
  5
11EB
330
11CC
100
AcDbDictionary
280
     1
281
     1
  3
ADSK_XREC_LAYER_RECONCILED
360
11EC
  0
DICTIONARY
  5
123C
330
110D
100
AcDbDictionary
280
     1
281
     1
  3
ACAD_MTEXT_RT
360
123D
  0
DICTIONARY
  5
11A7
102
{ACAD_REACTORS
330
C
102
}
330
C
100
AcDbDictionary
281
     1
  0
DICTIONARY
  5
D
102
{ACAD_REACTORS
330
C
102
}
330
C
100
AcDbDictionary
281
     1
  0
DICTIONARY
  5
1A
102
{ACAD_REACTORS
330
C
102
}
330
C
100
AcDbDictionary
281
     1
  3
Layout1
350
1E
  3
Layout2
350
26
  3
Model
350
22
  0
DICTIONARY
  5
117A
102
{ACAD_REACTORS
330
C
102
}
330
C
100
AcDbDictionary
281
     1
  3
ByBlock
350
1183
  3
ByLayer
350
117B
  3
Global
350
118B
  0
DICTIONARY
  5
11BC
102
{ACAD_REACTORS
330
C
102
}
330
C
100
AcDbDictionary
281
     1
  3
Standard
350
11BD
  0
DICTIONARY
  5
17
102
{ACAD_REACTORS
330
C
102
}
330
C
100
AcDbDictionary
281
     1
  3
Standard
350
18
  0
DICTIONARY
  5
19
102
{ACAD_REACTORS
330
C
102
}
330
C
100
AcDbDictionary
281
     1
  0
ACDBDICTIONARYWDFLT
  5
E
102
{ACAD_REACTORS
330
C
102
}
330
C
100
AcDbDictionary
281
     1
  3
Normal
350
F
100
AcDbDictionaryWithDefault
340
F
  0
DICTIONARY
  5
11AA
102
{ACAD_REACTORS
330
C
102
}
330
C
100
AcDbDictionary
281
     1
  3
A0
350
11AB
  3
A1
350
11AC
  3
A2
350
11AD
  3
A3
350
11AE
  3
A4
350
11AF
  3
A5
350
11B0
  3
A6
350
11B1
  3
A7
350
11B2
  3
A8
350
11B3
  3
A9
350
11B4
  3
B0
350
11B5
  3
B1
350
11B6
  3
B2
350
11B7
  3
B3
350
11B8
  3
B4
350
11B9
  3
B5
350
11BA
  3
B6
350
11BB
  0
DICTIONARY
  5
11A8
102
{ACAD_REACTORS
330
C
102
}
330
C
100
AcDbDictionary
281
     1
  3
Standard
350
11A9
  0
DICTIONARY
  5
1193
102
{ACAD_REACTORS
330
C
102
}
330
C
100
AcDbDictionary
281
     1
  3
2dWireframe
350
1199
  3
3D Hidden
350
119B
  3
3dWireframe
350
119A
  3
Basic
350
1198
  3
Brighten
350
119F
  3
ColorChange
350
11A3
  3
Conceptual
350
119C
  3
Dim
350
119E
  3
EdgeColorOff
350
11A6
  3
Facepattern
350
11A2
  3
Flat
350
1194
  3
FlatWithEdges
350
1195
  3
Gouraud
350
1196
  3
GouraudWithEdges
350
1197
  3
JitterOff
350
11A4
  3
Linepattern
350
11A1
  3
OverhangOff
350
11A5
  3
Realistic
350
119D
  3
Thicken
350
11A0
  0
XRECORD
  5
1234
102
{ACAD_REACTORS
330
C
102
}
330
C
100
AcDbXrecord
280
     1
 90
        1
330
11A9
  0
DICTIONARY
  5
3D
102
{ACAD_REACTORS
330
C
102
}
330
C
100
AcDbDictionary
281
     1
  3
CANNOSCALE
350
122E
  3
CMLEADERSTYLE
350
122D
  3
CTABLESTYLE
350
122C
  3
DIMASSOC
350
3F
  3
HIDETEXT
350
3E
  3
INDEXCTL
350
1230
  3
SORTENTS
350
122F
  3
XCLIPFRAME
350
1231
  0
DICTIONARY
  5
B91
102
{ACAD_REACTORS
330
C
102
}
330
C
100
AcDbDictionary
281
     1
  3
ASEBlockHierarchyIndexRecord
350
B92
1001
DCO15
1040
1485069952.593
  0
XRECORD
  5
1235
102
{ACAD_REACTORS
330
C
102
}
330
C
100
AcDbXrecord
280
     1
  1
DWGPROPS COOKIE
  2

  3

  4

  6

  7

  8
Julio
  9

300
=
301
=
302
=
303
=
304
=
305
=
306
=
307
=
308
=
309
=
 40
0.01703125
 41
2453259.674318206
 42
2455818.530675637
  1

 90
        0
  0
XRECORD
  5
11CE
102
{ACAD_REACTORS
330
11CD
102
}
330
11CD
100
AcDbXrecord
280
     1
290
     1
  0
XRECORD
  5
11D0
102
{ACAD_REACTORS
330
11CF
102
}
330
11CF
100
AcDbXrecord
280
     1
290
     1
  0
XRECORD
  5
11D2
102
{ACAD_REACTORS
330
11D1
102
}
330
11D1
100
AcDbXrecord
280
     1
290
     1
  0
XRECORD
  5
11D4
102
{ACAD_REACTORS
330
11D3
102
}
330
11D3
100
AcDbXrecord
280
     1
290
     1
  0
XRECORD
  5
11D6
102
{ACAD_REACTORS
330
11D5
102
}
330
11D5
100
AcDbXrecord
280
     1
290
     1
  0
XRECORD
  5
11D8
102
{ACAD_REACTORS
330
11D7
102
}
330
11D7
100
AcDbXrecord
280
     1
290
     1
  0
XRECORD
  5
11DA
102
{ACAD_REACTORS
330
11D9
102
}
330
11D9
100
AcDbXrecord
280
     1
290
     1
  0
XRECORD
  5
11DC
102
{ACAD_REACTORS
330
11DB
102
}
330
11DB
100
AcDbXrecord
280
     1
290
     1
  0
XRECORD
  5
11DE
102
{ACAD_REACTORS
330
11DD
102
}
330
11DD
100
AcDbXrecord
280
     1
290
     1
  0
XRECORD
  5
11E0
102
{ACAD_REACTORS
330
11DF
102
}
330
11DF
100
AcDbXrecord
280
     1
290
     1
  0
XRECORD
  5
11E2
102
{ACAD_REACTORS
330
11E1
102
}
330
11E1
100
AcDbXrecord
280
     1
290
     1
  0
XRECORD
  5
11E4
102
{ACAD_REACTORS
330
11E3
102
}
330
11E3
100
AcDbXrecord
280
     1
290
     1
  0
XRECORD
  5
11E6
102
{ACAD_REACTORS
330
11E5
102
}
330
11E5
100
AcDbXrecord
280
     1
290
     1
  0
XRECORD
  5
11E8
102
{ACAD_REACTORS
330
11E7
102
}
330
11E7
100
AcDbXrecord
280
     1
290
     1
  0
XRECORD
  5
11EA
102
{ACAD_REACTORS
330
11E9
102
}
330
11E9
100
AcDbXrecord
280
     1
290
     1
  0
XRECORD
  5
11EC
102
{ACAD_REACTORS
330
11EB
102
}
330
11EB
100
AcDbXrecord
280
     1
290
     1
  0
XRECORD
  5
123D
102
{ACAD_REACTORS
330
123C
102
}
330
123C
100
AcDbXrecord
280
     1
 40
3752.0
  1
90,0°
  0
LAYOUT
  5
1E
102
{ACAD_XDICTIONARY
360
1236
102
}
102
{ACAD_REACTORS
330
1A
102
}
330
1A
100
AcDbPlotSettings
  1

  2
Ploter HP500
  4

  6

 40
0.0
 41
0.0
 42
0.0
 43
0.0
 44
0.0
 45
0.0
 46
0.0
 47
0.0
 48
0.0
 49
0.0
140
0.0
141
0.0
142
1.0
143
1.0
 70
   688
 72
     0
 73
     0
 74
     5
  7
monochrome.ctb
 75
    16
147
1.0
148
0.0
149
0.0
100
AcDbLayout
  1
Layout1
 70
     1
 71
     1
 10
0.0
 20
0.0
 11
420.0
 21
297.0
 12
0.0
 22
0.0
 32
0.0
 14
1.000000000000000E+20
 24
1.000000000000000E+20
 34
1.000000000000000E+20
 15
-1.000000000000000E+20
 25
-1.000000000000000E+20
 35
-1.000000000000000E+20
146
0.0
 13
0.0
 23
0.0
 33
0.0
 16
1.0
 26
0.0
 36
0.0
 17
0.0
 27
1.0
 37
0.0
 76
     0
330
1B
  0
LAYOUT
  5
26
102
{ACAD_XDICTIONARY
360
123A
102
}
102
{ACAD_REACTORS
330
1A
102
}
330
1A
100
AcDbPlotSettings
  1

  2
Ploter HP500
  4

  6

 40
0.0
 41
0.0
 42
0.0
 43
0.0
 44
0.0
 45
0.0
 46
0.0
 47
0.0
 48
0.0
 49
0.0
140
0.0
141
0.0
142
1.0
143
1.0
 70
   688
 72
     0
 73
     0
 74
     5
  7
monochrome.ctb
 75
    16
147
1.0
148
0.0
149
0.0
100
AcDbLayout
  1
Layout2
 70
     1
 71
     2
 10
0.0
 20
0.0
 11
12.0
 21
9.0
 12
0.0
 22
0.0
 32
0.0
 14
0.0
 24
0.0
 34
0.0
 15
0.0
 25
0.0
 35
0.0
146
0.0
 13
0.0
 23
0.0
 33
0.0
 16
1.0
 26
0.0
 36
0.0
 17
0.0
 27
1.0
 37
0.0
 76
     0
330
23
  0
LAYOUT
  5
22
102
{ACAD_XDICTIONARY
360
1238
102
}
102
{ACAD_REACTORS
330
1A
102
}
330
1A
100
AcDbPlotSettings
  1

  2
Ploter HP500
  4
User268
  6

 40
4.995333194732666
 41
16.97565841674804
 42
4.995330810546875
 43
16.97567749023437
 44
209.9733276367187
 45
296.9259948730469
 46
0.0
 47
0.0
 48
0.0
 49
0.0
140
0.0
141
0.0
142
1.0
143
1.0
 70
 11952
 72
     1
 73
     1
 74
     0
  7

 75
     0
147
1.0
148
-427.5957866592534
149
7.362384574453926
100
AcDbLayout
  1
Model
 70
     1
 71
     0
 10
0.0
 20
0.0
 11
12.0
 21
9.0
 12
0.0
 22
0.0
 32
0.0
 14
0.0
 24
0.0
 34
0.0
 15
0.0
 25
0.0
 35
0.0
146
0.0
 13
0.0
 23
0.0
 33
0.0
 16
1.0
 26
0.0
 36
0.0
 17
0.0
 27
1.0
 37
0.0
 76
     0
330
1F
331
1178
  0
MATERIAL
  5
1183
102
{ACAD_XDICTIONARY
360
1184
102
}
102
{ACAD_REACTORS
330
117A
102
}
330
117A
100
AcDbMaterial
  1
ByBlock
 72
     0
 43
0.0008202099737533
 43
0.0
 43
0.0
 43
0.0
 43
0.0
 43
0.0008202099737533
 43
0.0
 43
0.0
 43
0.0
 43
0.0
 43
1.0
 43
0.0
 43
0.0
 43
0.0
 43
0.0
 43
1.0
 77
     0
 47
0.0008202099737533
 47
0.0
 47
0.0
 47
0.0
 47
0.0
 47
0.0008202099737533
 47
0.0
 47
0.0
 47
0.0
 47
0.0
 47
1.0
 47
0.0
 47
0.0
 47
0.0
 47
0.0
 47
1.0
171
     0
 49
0.0008202099737533
 49
0.0
 49
0.0
 49
0.0
 49
0.0
 49
0.0008202099737533
 49
0.0
 49
0.0
 49
0.0
 49
0.0
 49
1.0
 49
0.0
 49
0.0
 49
0.0
 49
0.0
 49
1.0
175
     0
142
0.0008202099737533
142
0.0
142
0.0
142
0.0
142
0.0
142
0.0008202099737533
142
0.0
142
0.0
142
0.0
142
0.0
142
1.0
142
0.0
142
0.0
142
0.0
142
0.0
142
1.0
179
     0
144
0.0008202099737533
144
0.0
144
0.0
144
0.0
144
0.0
144
0.0008202099737533
144
0.0
144
0.0
144
0.0
144
0.0
144
1.0
144
0.0
144
0.0
144
0.0
144
0.0
144
1.0
147
0.0008202099737533
147
0.0
147
0.0
147
0.0
147
0.0
147
0.0008202099737533
147
0.0
147
0.0
147
0.0
147
0.0
147
1.0
147
0.0
147
0.0
147
0.0
147
0.0
147
1.0
  0
MATERIAL
  5
117B
102
{ACAD_XDICTIONARY
360
117C
102
}
102
{ACAD_REACTORS
330
117A
102
}
330
117A
100
AcDbMaterial
  1
ByLayer
 72
     0
 43
0.0008202099737533
 43
0.0
 43
0.0
 43
0.0
 43
0.0
 43
0.0008202099737533
 43
0.0
 43
0.0
 43
0.0
 43
0.0
 43
1.0
 43
0.0
 43
0.0
 43
0.0
 43
0.0
 43
1.0
 77
     0
 47
0.0008202099737533
 47
0.0
 47
0.0
 47
0.0
 47
0.0
 47
0.0008202099737533
 47
0.0
 47
0.0
 47
0.0
 47
0.0
 47
1.0
 47
0.0
 47
0.0
 47
0.0
 47
0.0
 47
1.0
171
     0
 49
0.0008202099737533
 49
0.0
 49
0.0
 49
0.0
 49
0.0
 49
0.0008202099737533
 49
0.0
 49
0.0
 49
0.0
 49
0.0
 49
1.0
 49
0.0
 49
0.0
 49
0.0
 49
0.0
 49
1.0
175
     0
142
0.0008202099737533
142
0.0
142
0.0
142
0.0
142
0.0
142
0.0008202099737533
142
0.0
142
0.0
142
0.0
142
0.0
142
1.0
142
0.0
142
0.0
142
0.0
142
0.0
142
1.0
179
     0
144
0.0008202099737533
144
0.0
144
0.0
144
0.0
144
0.0
144
0.0008202099737533
144
0.0
144
0.0
144
0.0
144
0.0
144
1.0
144
0.0
144
0.0
144
0.0
144
0.0
144
1.0
147
0.0008202099737533
147
0.0
147
0.0
147
0.0
147
0.0
147
0.0008202099737533
147
0.0
147
0.0
147
0.0
147
0.0
147
1.0
147
0.0
147
0.0
147
0.0
147
0.0
147
1.0
  0
MATERIAL
  5
118B
102
{ACAD_XDICTIONARY
360
118C
102
}
102
{ACAD_REACTORS
330
117A
102
}
330
117A
100
AcDbMaterial
  1
Global
 72
     0
 43
0.0008202099737533
 43
0.0
 43
0.0
 43
0.0
 43
0.0
 43
0.0008202099737533
 43
0.0
 43
0.0
 43
0.0
 43
0.0
 43
1.0
 43
0.0
 43
0.0
 43
0.0
 43
0.0
 43
1.0
 77
     0
 47
0.0008202099737533
 47
0.0
 47
0.0
 47
0.0
 47
0.0
 47
0.0008202099737533
 47
0.0
 47
0.0
 47
0.0
 47
0.0
 47
1.0
 47
0.0
 47
0.0
 47
0.0
 47
0.0
 47
1.0
171
     0
 49
0.0008202099737533
 49
0.0
 49
0.0
 49
0.0
 49
0.0
 49
0.0008202099737533
 49
0.0
 49
0.0
 49
0.0
 49
0.0
 49
1.0
 49
0.0
 49
0.0
 49
0.0
 49
0.0
 49
1.0
175
     0
142
0.0008202099737533
142
0.0
142
0.0
142
0.0
142
0.0
142
0.0008202099737533
142
0.0
142
0.0
142
0.0
142
0.0
142
1.0
142
0.0
142
0.0
142
0.0
142
0.0
142
1.0
179
     0
144
0.0008202099737533
144
0.0
144
0.0
144
0.0
144
0.0
144
0.0008202099737533
144
0.0
144
0.0
144
0.0
144
0.0
144
1.0
144
0.0
144
0.0
144
0.0
144
0.0
144
1.0
147
0.0008202099737533
147
0.0
147
0.0
147
0.0
147
0.0
147
0.0008202099737533
147
0.0
147
0.0
147
0.0
147
0.0
147
1.0
147
0.0
147
0.0
147
0.0
147
0.0
147
1.0
  0
MLEADERSTYLE
  5
11BD
102
{ACAD_REACTORS
330
11BC
102
}
330
11BC
100
AcDbMLeaderStyle
170
     2
171
     1
172
     0
 90
        2
 40
0.0
 41
0.0
173
     1
 91
-1056964608
340
14
 92
       -2
290
     1
 42
2.0
291
     1
 43
0.36
  3
Standard
 44
4.0
300

342
11
174
     1
178
     6
175
     1
176
     0
 93
-1056964608
 45
4.0
292
     0
297
     0
 46
4.0
 94
-1056964608
 47
1.0
 49
1.0
140
1.0
293
     1
141
0.0
294
     1
177
     0
142
1.0
295
     0
296
     0
143
0.125
1001
ACAD_MLEADERVER
1070
     2
  0
MLINESTYLE
  5
18
102
{ACAD_REACTORS
330
17
102
}
330
17
100
AcDbMlineStyle
  2
STANDARD
 70
     0
  3

 62
   256
 51
90.0
 52
90.0
 71
     2
 49
0.5
 62
   256
  6
BYLAYER
 49
-0.5
 62
   256
  6
BYLAYER
  0
ACDBPLACEHOLDER
  5
F
102
{ACAD_REACTORS
330
E
102
}
330
E
  0
SCALE
  5
11AB
102
{ACAD_REACTORS
330
11AA
102
}
330
11AA
100
AcDbScale
 70
     0
300
1:1
140
1.0
141
1.0
290
     1
  0
SCALE
  5
11AC
102
{ACAD_REACTORS
330
11AA
102
}
330
11AA
100
AcDbScale
 70
     0
300
1:2
140
1.0
141
2.0
290
     0
  0
SCALE
  5
11AD
102
{ACAD_REACTORS
330
11AA
102
}
330
11AA
100
AcDbScale
 70
     0
300
1:4
140
1.0
141
4.0
290
     0
  0
SCALE
  5
11AE
102
{ACAD_REACTORS
330
11AA
102
}
330
11AA
100
AcDbScale
 70
     0
300
1:5
140
1.0
141
5.0
290
     0
  0
SCALE
  5
11AF
102
{ACAD_REACTORS
330
11AA
102
}
330
11AA
100
AcDbScale
 70
     0
300
1:8
140
1.0
141
8.0
290
     0
  0
SCALE
  5
11B0
102
{ACAD_REACTORS
330
11AA
102
}
330
11AA
100
AcDbScale
 70
     0
300
1:10
140
1.0
141
10.0
290
     0
  0
SCALE
  5
11B1
102
{ACAD_REACTORS
330
11AA
102
}
330
11AA
100
AcDbScale
 70
     0
300
1:16
140
1.0
141
16.0
290
     0
  0
SCALE
  5
11B2
102
{ACAD_REACTORS
330
11AA
102
}
330
11AA
100
AcDbScale
 70
     0
300
1:20
140
1.0
141
20.0
290
     0
  0
SCALE
  5
11B3
102
{ACAD_REACTORS
330
11AA
102
}
330
11AA
100
AcDbScale
 70
     0
300
1:30
140
1.0
141
30.0
290
     0
  0
SCALE
  5
11B4
102
{ACAD_REACTORS
330
11AA
102
}
330
11AA
100
AcDbScale
 70
     0
300
1:40
140
1.0
141
40.0
290
     0
  0
SCALE
  5
11B5
102
{ACAD_REACTORS
330
11AA
102
}
330
11AA
100
AcDbScale
 70
     0
300
1:50
140
1.0
141
50.0
290
     0
  0
SCALE
  5
11B6
102
{ACAD_REACTORS
330
11AA
102
}
330
11AA
100
AcDbScale
 70
     0
300
1:100
140
1.0
141
100.0
290
     0
  0
SCALE
  5
11B7
102
{ACAD_REACTORS
330
11AA
102
}
330
11AA
100
AcDbScale
 70
     0
300
2:1
140
2.0
141
1.0
290
     0
  0
SCALE
  5
11B8
102
{ACAD_REACTORS
330
11AA
102
}
330
11AA
100
AcDbScale
 70
     0
300
4:1
140
4.0
141
1.0
290
     0
  0
SCALE
  5
11B9
102
{ACAD_REACTORS
330
11AA
102
}
330
11AA
100
AcDbScale
 70
     0
300
8:1
140
8.0
141
1.0
290
     0
  0
SCALE
  5
11BA
102
{ACAD_REACTORS
330
11AA
102
}
330
11AA
100
AcDbScale
 70
     0
300
10:1
140
10.0
141
1.0
290
     0
  0
SCALE
  5
11BB
102
{ACAD_REACTORS
330
11AA
102
}
330
11AA
100
AcDbScale
 70
     0
300
100:1
140
100.0
141
1.0
290
     0
  0
TABLESTYLE
  5
11A9
102
{ACAD_XDICTIONARY
360
1232
102
}
102
{ACAD_REACTORS
330
11A8
102
}
330
11A8
100
AcDbTableStyle
  3
Standard
 70
     0
 71
     0
 40
1.5
 41
1.5
280
     0
281
     0
  7
Standard
140
4.5
170
     2
 62
     0
 63
     7
283
     0
274
    -2
284
     1
 64
     0
275
    -2
285
     1
 65
     0
276
    -2
286
     1
 66
     0
277
    -2
287
     1
 67
     0
278
    -2
288
     1
 68
     0
279
    -2
289
     1
 69
     0
  7
Standard
140
6.0
170
     5
 62
     0
 63
     7
283
     0
274
    -2
284
     1
 64
     0
275
    -2
285
     1
 65
     0
276
    -2
286
     1
 66
     0
277
    -2
287
     1
 67
     0
278
    -2
288
     1
 68
     0
279
    -2
289
     1
 69
     0
  7
Standard
140
4.5
170
     5
 62
     0
 63
     7
283
     0
274
    -2
284
     1
 64
     0
275
    -2
285
     1
 65
     0
276
    -2
286
     1
 66
     0
277
    -2
287
     1
 67
     0
278
    -2
288
     1
 68
     0
279
    -2
289
     1
 69
     0
  0
VISUALSTYLE
  5
1199
102
{ACAD_XDICTIONARY
360
124B
102
}
102
{ACAD_REACTORS
330
1193
102
}
330
1193
100
AcDbVisualStyle
  2
2dWireframe
 70
     4
 71
     0
 72
     2
 73
     0
 90
        0
 40
-0.6
 41
-30.0
 62
     5
 63
     7
 74
     1
 91
        4
 64
     7
 65
   257
 75
     1
175
     1
 42
1.0
 92
        0
 66
   257
 43
1.0
 76
     1
 77
     6
 78
     2
 67
     7
 79
     5
170
     0
171
     0
290
     0
174
     0
 93
        1
 44
0.0
173
     0
291
     0
 45
0.0
1001
ACAD
1000
AcDbSavedByObjectVersion
1070
     0
  0
VISUALSTYLE
  5
119B
102
{ACAD_XDICTIONARY
360
124F
102
}
102
{ACAD_REACTORS
330
1193
102
}
330
1193
100
AcDbVisualStyle
  2
3D Hidden
 70
     6
 71
     1
 72
     2
 73
     2
 90
        0
 40
-0.6
 41
-30.0
 62
     5
 63
     7
 74
     2
 91
        2
 64
     7
 65
   257
 75
     2
175
     1
 42
179.0
 92
        0
 66
   257
 43
1.0
 76
     1
 77
     6
 78
     2
 67
     7
 79
     3
170
     0
171
     0
290
     0
174
     0
 93
        1
 44
0.0
173
     0
291
     0
 45
0.0
1001
ACAD
1000
AcDbSavedByObjectVersion
1070
     0
  0
VISUALSTYLE
  5
119A
102
{ACAD_XDICTIONARY
360
124D
102
}
102
{ACAD_REACTORS
330
1193
102
}
330
1193
100
AcDbVisualStyle
  2
3dWireframe
 70
     5
 71
     0
 72
     2
 73
     0
 90
        0
 40
-0.6
 41
-30.0
 62
     5
 63
     7
 74
     1
 91
        4
 64
     7
 65
   257
 75
     1
175
     1
 42
1.0
 92
        0
 66
   257
 43
1.0
 76
     1
 77
     6
 78
     2
 67
     7
 79
     5
170
     0
171
     0
290
     0
174
     0
 93
        1
 44
0.0
173
     0
291
     0
 45
0.0
1001
ACAD
1000
AcDbSavedByObjectVersion
1070
     0
  0
VISUALSTYLE
  5
1198
102
{ACAD_XDICTIONARY
360
1249
102
}
102
{ACAD_REACTORS
330
1193
102
}
330
1193
100
AcDbVisualStyle
  2
Basic
 70
     7
 71
     1
 72
     0
 73
     1
 90
        0
 40
-0.6
 41
-30.0
 62
     5
 63
     7
 74
     0
 91
        4
 64
     7
 65
   257
 75
     1
175
     1
 42
1.0
 92
        8
 66
     7
 43
1.0
 76
     1
 77
     6
 78
     2
 67
     7
 79
     5
170
     0
171
     0
290
     0
174
     0
 93
        1
 44
0.0
173
     0
291
     1
 45
0.0
1001
ACAD
1000
AcDbSavedByObjectVersion
1070
     0
  0
VISUALSTYLE
  5
119F
102
{ACAD_XDICTIONARY
360
1257
102
}
102
{ACAD_REACTORS
330
1193
102
}
330
1193
100
AcDbVisualStyle
  2
Brighten
 70
    12
 71
     2
 72
     2
 73
     0
 90
        0
 40
-0.6
 41
-30.0
 62
     5
 63
     7
 74
     1
 91
        4
 64
     7
 65
   257
 75
     1
175
     1
 42
1.0
 92
        8
 66
     7
 43
1.0
 76
     1
 77
     6
 78
     2
 67
     7
 79
     5
170
     0
171
     0
290
     0
174
     0
 93
        1
 44
50.0
173
     0
291
     1
 45
0.0
1001
ACAD
1000
AcDbSavedByObjectVersion
1070
     0
  0
VISUALSTYLE
  5
11A3
102
{ACAD_XDICTIONARY
360
125F
102
}
102
{ACAD_REACTORS
330
1193
102
}
330
1193
100
AcDbVisualStyle
  2
ColorChange
 70
    16
 71
     2
 72
     2
 73
     3
 90
        0
 40
-0.6
 41
-30.0
 62
     5
 63
     8
 74
     1
 91
        4
 64
     7
 65
   257
 75
     1
175
     1
 42
1.0
 92
        8
 66
     8
 43
1.0
 76
     1
 77
     6
 78
     2
 67
     7
 79
     5
170
     0
171
     0
290
     0
174
     0
 93
        1
 44
0.0
173
     0
291
     1
 45
0.0
1001
ACAD
1000
AcDbSavedByObjectVersion
1070
     0
  0
VISUALSTYLE
  5
119C
102
{ACAD_XDICTIONARY
360
1251
102
}
102
{ACAD_REACTORS
330
1193
102
}
330
1193
100
AcDbVisualStyle
  2
Conceptual
 70
     9
 71
     3
 72
     2
 73
     0
 90
        0
 40
-0.6
 41
-30.0
 62
     5
 63
     7
 74
     2
 91
        2
 64
     7
 65
   257
 75
     1
175
     1
 42
179.0
 92
        8
 66
     7
 43
1.0
 76
     1
 77
     6
 78
     2
 67
     7
 79
     3
170
     0
171
     0
290
     0
174
     0
 93
        1
 44
0.0
173
     0
291
     0
 45
0.0
1001
ACAD
1000
AcDbSavedByObjectVersion
1070
     0
  0
VISUALSTYLE
  5
119E
102
{ACAD_XDICTIONARY
360
1255
102
}
102
{ACAD_REACTORS
330
1193
102
}
330
1193
100
AcDbVisualStyle
  2
Dim
 70
    11
 71
     2
 72
     2
 73
     0
 90
        0
 40
-0.6
 41
-30.0
 62
     5
 63
     7
 74
     1
 91
        4
 64
     7
 65
   257
 75
     1
175
     1
 42
1.0
 92
        8
 66
     7
 43
1.0
 76
     1
 77
     6
 78
     2
 67
     7
 79
     5
170
     0
171
     0
290
     0
174
     0
 93
        1
 44
-50.0
173
     0
291
     1
 45
0.0
1001
ACAD
1000
AcDbSavedByObjectVersion
1070
     0
  0
VISUALSTYLE
  5
11A6
102
{ACAD_XDICTIONARY
360
1265
102
}
102
{ACAD_REACTORS
330
1193
102
}
330
1193
100
AcDbVisualStyle
  2
EdgeColorOff
 70
    22
 71
     2
 72
     2
 73
     0
 90
        0
 40
-0.6
 41
-30.0
 62
     5
 63
     7
 74
     1
 91
        4
 64
     7
 65
   257
 75
     1
175
     1
 42
1.0
 92
        8
 66
     7
 43
1.0
 76
     1
 77
     6
 78
     2
 67
     7
 79
     5
170
     0
171
     0
290
     0
174
     0
 93
        1
 44
0.0
173
     0
291
     1
 45
0.0
1001
ACAD
1000
AcDbSavedByObjectVersion
1070
     0
  0
VISUALSTYLE
  5
11A2
102
{ACAD_XDICTIONARY
360
125D
102
}
102
{ACAD_REACTORS
330
1193
102
}
330
1193
100
AcDbVisualStyle
  2
Facepattern
 70
    15
 71
     2
 72
     2
 73
     0
 90
        0
 40
-0.6
 41
-30.0
 62
     5
 63
     7
 74
     1
 91
        4
 64
     7
 65
   257
 75
     1
175
     1
 42
1.0
 92
        8
 66
     7
 43
1.0
 76
     1
 77
     6
 78
     2
 67
     7
 79
     5
170
     0
171
     0
290
     0
174
     0
 93
        1
 44
0.0
173
     0
291
     1
 45
0.0
1001
ACAD
1000
AcDbSavedByObjectVersion
1070
     0
  0
VISUALSTYLE
  5
1194
102
{ACAD_XDICTIONARY
360
1241
102
}
102
{ACAD_REACTORS
330
1193
102
}
330
1193
100
AcDbVisualStyle
  2
Flat
 70
     0
 71
     2
 72
     1
 73
     1
 90
        2
 40
-0.6
 41
30.0
 62
     5
 63
     7
 74
     0
 91
        4
 64
     7
 65
   257
 75
     1
175
     1
 42
1.0
 92
        8
 66
     7
 43
1.0
 76
     1
 77
     6
 78
     2
 67
     7
 79
     5
170
     0
171
     0
290
     0
174
     0
 93
       13
 44
0.0
173
     0
291
     1
 45
0.0
1001
ACAD
1000
AcDbSavedByObjectVersion
1070
     0
  0
VISUALSTYLE
  5
1195
102
{ACAD_XDICTIONARY
360
1243
102
}
102
{ACAD_REACTORS
330
1193
102
}
330
1193
100
AcDbVisualStyle
  2
FlatWithEdges
 70
     1
 71
     2
 72
     1
 73
     1
 90
        2
 40
-0.6
 41
30.0
 62
     5
 63
     7
 74
     1
 91
        4
 64
     7
 65
   257
 75
     1
175
     1
 42
1.0
 92
        0
 66
   257
 43
1.0
 76
     1
 77
     6
 78
     2
 67
     7
 79
     5
170
     0
171
     0
290
     0
174
     0
 93
       13
 44
0.0
173
     0
291
     1
 45
0.0
1001
ACAD
1000
AcDbSavedByObjectVersion
1070
     0
  0
VISUALSTYLE
  5
1196
102
{ACAD_XDICTIONARY
360
1245
102
}
102
{ACAD_REACTORS
330
1193
102
}
330
1193
100
AcDbVisualStyle
  2
Gouraud
 70
     2
 71
     2
 72
     2
 73
     1
 90
        2
 40
-0.6
 41
30.0
 62
     5
 63
     7
 74
     0
 91
        4
 64
     7
 65
   257
 75
     1
175
     1
 42
1.0
 92
        0
 66
     7
 43
1.0
 76
     1
 77
     6
 78
     2
 67
     7
 79
     5
170
     0
171
     0
290
     0
174
     0
 93
       13
 44
0.0
173
     0
291
     1
 45
0.0
1001
ACAD
1000
AcDbSavedByObjectVersion
1070
     0
  0
VISUALSTYLE
  5
1197
102
{ACAD_XDICTIONARY
360
1247
102
}
102
{ACAD_REACTORS
330
1193
102
}
330
1193
100
AcDbVisualStyle
  2
GouraudWithEdges
 70
     3
 71
     2
 72
     2
 73
     1
 90
        2
 40
-0.6
 41
30.0
 62
     5
 63
     7
 74
     1
 91
        4
 64
     7
 65
   257
 75
     1
175
     1
 42
1.0
 92
        0
 66
   257
 43
1.0
 76
     1
 77
     6
 78
     2
 67
     7
 79
     5
170
     0
171
     0
290
     0
174
     0
 93
       13
 44
0.0
173
     0
291
     1
 45
0.0
1001
ACAD
1000
AcDbSavedByObjectVersion
1070
     0
  0
VISUALSTYLE
  5
11A4
102
{ACAD_XDICTIONARY
360
1261
102
}
102
{ACAD_REACTORS
330
1193
102
}
330
1193
100
AcDbVisualStyle
  2
JitterOff
 70
    20
 71
     2
 72
     2
 73
     0
 90
        0
 40
-0.6
 41
-30.0
 62
     5
 63
     7
 74
     1
 91
        4
 64
     7
 65
   257
 75
     1
175
     1
 42
1.0
 92
       10
 66
     7
 43
1.0
 76
     1
 77
     6
 78
     2
 67
     7
 79
     5
170
     0
171
     0
290
     0
174
     0
 93
        1
 44
0.0
173
     0
291
     1
 45
0.0
1001
ACAD
1000
AcDbSavedByObjectVersion
1070
     0
  0
VISUALSTYLE
  5
11A1
102
{ACAD_XDICTIONARY
360
125B
102
}
102
{ACAD_REACTORS
330
1193
102
}
330
1193
100
AcDbVisualStyle
  2
Linepattern
 70
    14
 71
     2
 72
     2
 73
     0
 90
        0
 40
-0.6
 41
-30.0
 62
     5
 63
     7
 74
     1
 91
        4
 64
     7
 65
   257
 75
     7
175
     7
 42
1.0
 92
        8
 66
     7
 43
1.0
 76
     1
 77
     6
 78
     2
 67
     7
 79
     5
170
     0
171
     0
290
     0
174
     0
 93
        1
 44
0.0
173
     0
291
     1
 45
0.0
1001
ACAD
1000
AcDbSavedByObjectVersion
1070
     0
  0
VISUALSTYLE
  5
11A5
102
{ACAD_XDICTIONARY
360
1263
102
}
102
{ACAD_REACTORS
330
1193
102
}
330
1193
100
AcDbVisualStyle
  2
OverhangOff
 70
    21
 71
     2
 72
     2
 73
     0
 90
        0
 40
-0.6
 41
-30.0
 62
     5
 63
     7
 74
     1
 91
        4
 64
     7
 65
   257
 75
     1
175
     1
 42
1.0
 92
        9
 66
     7
 43
1.0
 76
     1
 77
     6
 78
     2
 67
     7
 79
     5
170
     0
171
     0
290
     0
174
     0
 93
        1
 44
0.0
173
     0
291
     1
 45
0.0
1001
ACAD
1000
AcDbSavedByObjectVersion
1070
     0
  0
VISUALSTYLE
  5
119D
102
{ACAD_XDICTIONARY
360
1253
102
}
102
{ACAD_REACTORS
330
1193
102
}
330
1193
100
AcDbVisualStyle
  2
Realistic
 70
     8
 71
     2
 72
     2
 73
     0
 90
        0
 40
-0.6
 41
-30.0
 62
     5
 63
     7
 74
     1
 91
        0
 64
     7
 65
   257
 75
     1
175
     1
 42
1.0
 92
        8
 66
     8
 43
1.0
 76
     1
 77
     6
 78
     2
 67
     7
 79
     5
170
     0
171
     0
290
     0
174
     0
 93
       13
 44
0.0
173
     0
291
     0
 45
0.0
1001
ACAD
1000
AcDbSavedByObjectVersion
1070
     0
  0
VISUALSTYLE
  5
11A0
102
{ACAD_XDICTIONARY
360
1259
102
}
102
{ACAD_REACTORS
330
1193
102
}
330
1193
100
AcDbVisualStyle
  2
Thicken
 70
    13
 71
     2
 72
     2
 73
     0
 90
        0
 40
-0.6
 41
-30.0
 62
     5
 63
     7
 74
     1
 91
        4
 64
     7
 65
   257
 75
     1
175
     1
 42
1.0
 92
       12
 66
     7
 43
1.0
 76
     1
 77
     6
 78
     2
 67
     7
 79
     5
170
     0
171
     0
290
     0
174
     0
 93
        1
 44
0.0
173
     0
291
     1
 45
0.0
1001
ACAD
1000
AcDbSavedByObjectVersion
1070
     0
  0
DICTIONARYVAR
  5
122E
102
{ACAD_REACTORS
330
3D
102
}
330
3D
100
DictionaryVariables
280
     0
  1
1:1
  0
DICTIONARYVAR
  5
122D
102
{ACAD_REACTORS
330
3D
102
}
330
3D
100
DictionaryVariables
280
     0
  1
STANDARD
  0
DICTIONARYVAR
  5
122C
102
{ACAD_REACTORS
330
3D
102
}
330
3D
100
DictionaryVariables
280
     0
  1
STANDARD
  0
DICTIONARYVAR
  5
3F
102
{ACAD_REACTORS
330
3D
102
}
330
3D
100
DictionaryVariables
280
     0
  1
2
  0
DICTIONARYVAR
  5
3E
102
{ACAD_REACTORS
330
3D
102
}
330
3D
100
DictionaryVariables
280
     0
  1
1
  0
DICTIONARYVAR
  5
1230
102
{ACAD_REACTORS
330
3D
102
}
330
3D
100
DictionaryVariables
280
     0
  1
0
  0
DICTIONARYVAR
  5
122F
102
{ACAD_REACTORS
330
3D
102
}
330
3D
100
DictionaryVariables
280
     0
  1
127
  0
DICTIONARYVAR
  5
1231
102
{ACAD_REACTORS
330
3D
102
}
330
3D
100
DictionaryVariables
280
     0
  1
2
  0
XRECORD
  5
B92
102
{ACAD_REACTORS
330
B91
102
}
330
B91
100
AcDbXrecord
280
     1
  0
DICTIONARY
  5
1236
330
1E
100
AcDbDictionary
280
     1
281
     1
  3
ACAD_XREC_ROUNDTRIP
360
1237
  0
DICTIONARY
  5
123A
330
26
100
AcDbDictionary
280
     1
281
     1
  3
ACAD_XREC_ROUNDTRIP
360
123B
  0
DICTIONARY
  5
1238
330
22
100
AcDbDictionary
280
     1
281
     1
  3
ACAD_XREC_ROUNDTRIP
360
1239
  0
DICTIONARY
  5
1184
330
1183
100
AcDbDictionary
280
     1
281
     1
  3
ACAD_XREC_ROUNDTRIP
360
123F
  3
BUMPTILE
360
1186
  3
DIFFUSETILE
360
1185
  3
OPACITYTILE
360
1189
  3
REFLECTIONTILE
360
1188
  3
REFRACTIONTILE
360
118A
  3
SPECULARTILE
360
1187
  0
DICTIONARY
  5
117C
330
117B
100
AcDbDictionary
280
     1
281
     1
  3
ACAD_XREC_ROUNDTRIP
360
123E
  3
BUMPTILE
360
117E
  3
DIFFUSETILE
360
117D
  3
OPACITYTILE
360
1181
  3
REFLECTIONTILE
360
1180
  3
REFRACTIONTILE
360
1182
  3
SPECULARTILE
360
117F
  0
DICTIONARY
  5
118C
330
118B
100
AcDbDictionary
280
     1
281
     1
  3
ACAD_XREC_ROUNDTRIP
360
1240
  3
BUMPTILE
360
118E
  3
DIFFUSETILE
360
118D
  3
OPACITYTILE
360
1191
  3
REFLECTIONTILE
360
1190
  3
REFRACTIONTILE
360
1192
  3
SPECULARTILE
360
118F
  0
DICTIONARY
  5
1232
330
11A9
100
AcDbDictionary
280
     1
281
     1
  3
ACAD_ROUNDTRIP_2008_TABLESTYLE_CELLSTYLEMAP
360
1233
  3
ACAD_XREC_ROUNDTRIP
360
1267
  0
DICTIONARY
  5
124B
330
1199
100
AcDbDictionary
280
     1
281
     1
  3
ACAD_XREC_ROUNDTRIP
360
124C
  0
DICTIONARY
  5
124F
330
119B
100
AcDbDictionary
280
     1
281
     1
  3
ACAD_XREC_ROUNDTRIP
360
1250
  0
DICTIONARY
  5
124D
330
119A
100
AcDbDictionary
280
     1
281
     1
  3
ACAD_XREC_ROUNDTRIP
360
124E
  0
DICTIONARY
  5
1249
330
1198
100
AcDbDictionary
280
     1
281
     1
  3
ACAD_XREC_ROUNDTRIP
360
124A
  0
DICTIONARY
  5
1257
330
119F
100
AcDbDictionary
280
     1
281
     1
  3
ACAD_XREC_ROUNDTRIP
360
1258
  0
DICTIONARY
  5
125F
330
11A3
100
AcDbDictionary
280
     1
281
     1
  3
ACAD_XREC_ROUNDTRIP
360
1260
  0
DICTIONARY
  5
1251
330
119C
100
AcDbDictionary
280
     1
281
     1
  3
ACAD_XREC_ROUNDTRIP
360
1252
  0
DICTIONARY
  5
1255
330
119E
100
AcDbDictionary
280
     1
281
     1
  3
ACAD_XREC_ROUNDTRIP
360
1256
  0
DICTIONARY
  5
1265
330
11A6
100
AcDbDictionary
280
     1
281
     1
  3
ACAD_XREC_ROUNDTRIP
360
1266
  0
DICTIONARY
  5
125D
330
11A2
100
AcDbDictionary
280
     1
281
     1
  3
ACAD_XREC_ROUNDTRIP
360
125E
  0
DICTIONARY
  5
1241
330
1194
100
AcDbDictionary
280
     1
281
     1
  3
ACAD_XREC_ROUNDTRIP
360
1242
  0
DICTIONARY
  5
1243
330
1195
100
AcDbDictionary
280
     1
281
     1
  3
ACAD_XREC_ROUNDTRIP
360
1244
  0
DICTIONARY
  5
1245
330
1196
100
AcDbDictionary
280
     1
281
     1
  3
ACAD_XREC_ROUNDTRIP
360
1246
  0
DICTIONARY
  5
1247
330
1197
100
AcDbDictionary
280
     1
281
     1
  3
ACAD_XREC_ROUNDTRIP
360
1248
  0
DICTIONARY
  5
1261
330
11A4
100
AcDbDictionary
280
     1
281
     1
  3
ACAD_XREC_ROUNDTRIP
360
1262
  0
DICTIONARY
  5
125B
330
11A1
100
AcDbDictionary
280
     1
281
     1
  3
ACAD_XREC_ROUNDTRIP
360
125C
  0
DICTIONARY
  5
1263
330
11A5
100
AcDbDictionary
280
     1
281
     1
  3
ACAD_XREC_ROUNDTRIP
360
1264
  0
DICTIONARY
  5
1253
330
119D
100
AcDbDictionary
280
     1
281
     1
  3
ACAD_XREC_ROUNDTRIP
360
1254
  0
DICTIONARY
  5
1259
330
11A0
100
AcDbDictionary
280
     1
281
     1
  3
ACAD_XREC_ROUNDTRIP
360
125A
  0
XRECORD
  5
1237
102
{ACAD_REACTORS
330
1236
102
}
330
1236
100
AcDbXrecord
280
     1
102
SHADEPLOT
 70
     0
102
SHADEPLOTRESLEVEL
 70
     2
102
SHADEPLOTCUSTOMDPI
 70
   300
  0
XRECORD
  5
123B
102
{ACAD_REACTORS
330
123A
102
}
330
123A
100
AcDbXrecord
280
     1
102
SHADEPLOT
 70
     0
102
SHADEPLOTRESLEVEL
 70
     2
102
SHADEPLOTCUSTOMDPI
 70
   300
  0
XRECORD
  5
1239
102
{ACAD_REACTORS
330
1238
102
}
330
1238
100
AcDbXrecord
280
     1
102
SHADEPLOT
 70
     0
102
SHADEPLOTRESLEVEL
 70
     2
102
SHADEPLOTCUSTOMDPI
 70
   300
  0
XRECORD
  5
123F
102
{ACAD_REACTORS
330
1184
102
}
330
1184
100
AcDbXrecord
280
     1
102
MATERIAL
148
0.0
149
0.0
149
0.0
 93
        0
 94
      127
282
     0
 72
     0
 77
     0
171
     0
175
     0
179
     0
273
     0
  0
XRECORD
  5
1186
102
{ACAD_REACTORS
330
1184
102
}
330
1184
100
AcDbXrecord
280
     1
270
     1
271
     1
  0
XRECORD
  5
1185
102
{ACAD_REACTORS
330
1184
102
}
330
1184
100
AcDbXrecord
280
     1
270
     1
271
     1
  0
XRECORD
  5
1189
102
{ACAD_REACTORS
330
1184
102
}
330
1184
100
AcDbXrecord
280
     1
270
     1
271
     1
  0
XRECORD
  5
1188
102
{ACAD_REACTORS
330
1184
102
}
330
1184
100
AcDbXrecord
280
     1
270
     1
271
     1
  0
XRECORD
  5
118A
102
{ACAD_REACTORS
330
1184
102
}
330
1184
100
AcDbXrecord
280
     1
270
     1
271
     1
  0
XRECORD
  5
1187
102
{ACAD_REACTORS
330
1184
102
}
330
1184
100
AcDbXrecord
280
     1
270
     1
271
     1
  0
XRECORD
  5
123E
102
{ACAD_REACTORS
330
117C
102
}
330
117C
100
AcDbXrecord
280
     1
102
MATERIAL
148
0.0
149
0.0
149
0.0
 93
        0
 94
      127
282
     0
 72
     0
 77
     0
171
     0
175
     0
179
     0
273
     0
  0
XRECORD
  5
117E
102
{ACAD_REACTORS
330
117C
102
}
330
117C
100
AcDbXrecord
280
     1
270
     1
271
     1
  0
XRECORD
  5
117D
102
{ACAD_REACTORS
330
117C
102
}
330
117C
100
AcDbXrecord
280
     1
270
     1
271
     1
  0
XRECORD
  5
1181
102
{ACAD_REACTORS
330
117C
102
}
330
117C
100
AcDbXrecord
280
     1
270
     1
271
     1
  0
XRECORD
  5
1180
102
{ACAD_REACTORS
330
117C
102
}
330
117C
100
AcDbXrecord
280
     1
270
     1
271
     1
  0
XRECORD
  5
1182
102
{ACAD_REACTORS
330
117C
102
}
330
117C
100
AcDbXrecord
280
     1
270
     1
271
     1
  0
XRECORD
  5
117F
102
{ACAD_REACTORS
330
117C
102
}
330
117C
100
AcDbXrecord
280
     1
270
     1
271
     1
  0
XRECORD
  5
1240
102
{ACAD_REACTORS
330
118C
102
}
330
118C
100
AcDbXrecord
280
     1
102
MATERIAL
148
0.0
149
0.0
149
0.0
 93
        0
 94
      127
282
     0
 72
     0
 77
     0
171
     0
175
     0
179
     0
273
     0
  0
XRECORD
  5
118E
102
{ACAD_REACTORS
330
118C
102
}
330
118C
100
AcDbXrecord
280
     1
270
     1
271
     1
  0
XRECORD
  5
118D
102
{ACAD_REACTORS
330
118C
102
}
330
118C
100
AcDbXrecord
280
     1
270
     1
271
     1
  0
XRECORD
  5
1191
102
{ACAD_REACTORS
330
118C
102
}
330
118C
100
AcDbXrecord
280
     1
270
     1
271
     1
  0
XRECORD
  5
1190
102
{ACAD_REACTORS
330
118C
102
}
330
118C
100
AcDbXrecord
280
     1
270
     1
271
     1
  0
XRECORD
  5
1192
102
{ACAD_REACTORS
330
118C
102
}
330
118C
100
AcDbXrecord
280
     1
270
     1
271
     1
  0
XRECORD
  5
118F
102
{ACAD_REACTORS
330
118C
102
}
330
118C
100
AcDbXrecord
280
     1
270
     1
271
     1
  0
CELLSTYLEMAP
  5
1233
102
{ACAD_REACTORS
330
1232
102
}
330
1232
100
AcDbCellStyleMap
 90
        3
300
CELLSTYLE
  1
TABLEFORMAT_BEGIN
 90
        5
170
     1
 91
        0
 92
    32768
 62
   257
 93
        1
300
CONTENTFORMAT
  1
CONTENTFORMAT_BEGIN
 90
        0
 91
        0
 92
      512
 93
        0
300

 40
0.0
140
1.0
 94
        5
 62
     0
340
11
144
6.0
309
CONTENTFORMAT_END
171
     1
301
MARGIN
  1
CELLMARGIN_BEGIN
 40
1.5
 40
1.5
 40
1.5
 40
1.5
 40
4.5
 40
4.5
309
CELLMARGIN_END
 94
        6
 95
        1
302
GRIDFORMAT
  1
GRIDFORMAT_BEGIN
 90
        0
 91
        1
 62
     0
 92
       -2
340
0
 93
        0
 40
1.125
309
GRIDFORMAT_END
 95
        2
302
GRIDFORMAT
  1
GRIDFORMAT_BEGIN
 90
        0
 91
        1
 62
     0
 92
       -2
340
0
 93
        0
 40
1.125
309
GRIDFORMAT_END
 95
        4
302
GRIDFORMAT
  1
GRIDFORMAT_BEGIN
 90
        0
 91
        1
 62
     0
 92
       -2
340
0
 93
        0
 40
1.125
309
GRIDFORMAT_END
 95
        8
302
GRIDFORMAT
  1
GRIDFORMAT_BEGIN
 90
        0
 91
        1
 62
     0
 92
       -2
340
0
 93
        0
 40
1.125
309
GRIDFORMAT_END
 95
       16
302
GRIDFORMAT
  1
GRIDFORMAT_BEGIN
 90
        0
 91
        1
 62
     0
 92
       -2
340
0
 93
        0
 40
1.125
309
GRIDFORMAT_END
 95
       32
302
GRIDFORMAT
  1
GRIDFORMAT_BEGIN
 90
        0
 91
        1
 62
     0
 92
       -2
340
0
 93
        0
 40
1.125
309
GRIDFORMAT_END
309
TABLEFORMAT_END
  1
CELLSTYLE_BEGIN
 90
        1
 91
        1
300
_TITLE
309
CELLSTYLE_END
300
CELLSTYLE
  1
TABLEFORMAT_BEGIN
 90
        5
170
     1
 91
        0
 92
        0
 62
   257
 93
        1
300
CONTENTFORMAT
  1
CONTENTFORMAT_BEGIN
 90
        0
 91
        0
 92
      512
 93
        0
300

 40
0.0
140
1.0
 94
        5
 62
     0
340
11
144
4.5
309
CONTENTFORMAT_END
171
     1
301
MARGIN
  1
CELLMARGIN_BEGIN
 40
1.5
 40
1.5
 40
1.5
 40
1.5
 40
4.5
 40
4.5
309
CELLMARGIN_END
 94
        6
 95
        1
302
GRIDFORMAT
  1
GRIDFORMAT_BEGIN
 90
        0
 91
        1
 62
     0
 92
       -2
340
0
 93
        0
 40
1.125
309
GRIDFORMAT_END
 95
        2
302
GRIDFORMAT
  1
GRIDFORMAT_BEGIN
 90
        0
 91
        1
 62
     0
 92
       -2
340
0
 93
        0
 40
1.125
309
GRIDFORMAT_END
 95
        4
302
GRIDFORMAT
  1
GRIDFORMAT_BEGIN
 90
        0
 91
        1
 62
     0
 92
       -2
340
0
 93
        0
 40
1.125
309
GRIDFORMAT_END
 95
        8
302
GRIDFORMAT
  1
GRIDFORMAT_BEGIN
 90
        0
 91
        1
 62
     0
 92
       -2
340
0
 93
        0
 40
1.125
309
GRIDFORMAT_END
 95
       16
302
GRIDFORMAT
  1
GRIDFORMAT_BEGIN
 90
        0
 91
        1
 62
     0
 92
       -2
340
0
 93
        0
 40
1.125
309
GRIDFORMAT_END
 95
       32
302
GRIDFORMAT
  1
GRIDFORMAT_BEGIN
 90
        0
 91
        1
 62
     0
 92
       -2
340
0
 93
        0
 40
1.125
309
GRIDFORMAT_END
309
TABLEFORMAT_END
  1
CELLSTYLE_BEGIN
 90
        2
 91
        1
300
_HEADER
309
CELLSTYLE_END
300
CELLSTYLE
  1
TABLEFORMAT_BEGIN
 90
        5
170
     1
 91
        0
 92
        0
 62
   257
 93
        1
300
CONTENTFORMAT
  1
CONTENTFORMAT_BEGIN
 90
        0
 91
        0
 92
      512
 93
        0
300

 40
0.0
140
1.0
 94
        2
 62
     0
340
11
144
4.5
309
CONTENTFORMAT_END
171
     1
301
MARGIN
  1
CELLMARGIN_BEGIN
 40
1.5
 40
1.5
 40
1.5
 40
1.5
 40
4.5
 40
4.5
309
CELLMARGIN_END
 94
        6
 95
        1
302
GRIDFORMAT
  1
GRIDFORMAT_BEGIN
 90
        0
 91
        1
 62
     0
 92
       -2
340
0
 93
        0
 40
1.125
309
GRIDFORMAT_END
 95
        2
302
GRIDFORMAT
  1
GRIDFORMAT_BEGIN
 90
        0
 91
        1
 62
     0
 92
       -2
340
0
 93
        0
 40
1.125
309
GRIDFORMAT_END
 95
        4
302
GRIDFORMAT
  1
GRIDFORMAT_BEGIN
 90
        0
 91
        1
 62
     0
 92
       -2
340
0
 93
        0
 40
1.125
309
GRIDFORMAT_END
 95
        8
302
GRIDFORMAT
  1
GRIDFORMAT_BEGIN
 90
        0
 91
        1
 62
     0
 92
       -2
340
0
 93
        0
 40
1.125
309
GRIDFORMAT_END
 95
       16
302
GRIDFORMAT
  1
GRIDFORMAT_BEGIN
 90
        0
 91
        1
 62
     0
 92
       -2
340
0
 93
        0
 40
1.125
309
GRIDFORMAT_END
 95
       32
302
GRIDFORMAT
  1
GRIDFORMAT_BEGIN
 90
        0
 91
        1
 62
     0
 92
       -2
340
0
 93
        0
 40
1.125
309
GRIDFORMAT_END
309
TABLEFORMAT_END
  1
CELLSTYLE_BEGIN
 90
        3
 91
        2
300
_DATA
309
CELLSTYLE_END
  0
XRECORD
  5
1267
102
{ACAD_REACTORS
330
1232
102
}
330
1232
100
AcDbXrecord
280
     1
102
ACAD_ROUNDTRIP_PRE2007_TABLESTYLE
 90
      512
 91
        0
  1

 92
      512
 93
        0
  2

 94
      512
 95
        0
  3

  0
XRECORD
  5
124C
102
{ACAD_REACTORS
330
124B
102
}
330
124B
100
AcDbXrecord
280
     1
102
RTVSPropertyOp0
 70
     1
102
RTVSPropertyOp1
 70
     1
102
RTVSPropertyOp2
 70
     1
102
RTVSPropertyOp3
 70
     1
102
RTVSPropertyOp4
 70
     1
102
RTVSPropertyOp5
 70
     1
102
RTVSPropertyOp6
 70
     1
102
RTVSPropertyOp7
 70
     1
102
RTVSPropertyOp8
 70
     1
102
RTVSPropertyOp9
 70
     1
102
RTVSPropertyOp10
 70
     1
102
RTVSPropertyOp11
 70
     1
102
RTVSPropertyOp12
 70
     1
102
RTVSPropertyOp13
 70
     1
102
RTVSPropertyOp14
 70
     1
102
RTVSPropertyOp15
 70
     1
102
RTVSPropertyOp16
 70
     1
102
RTVSPropertyOp17
 70
     1
102
RTVSPropertyOp18
 70
     1
102
RTVSPropertyOp19
 70
     1
102
RTVSPropertyOp20
 70
     1
102
RTVSPropertyOp21
 70
     1
102
RTVSPropertyOp22
 70
     1
102
RTVSPropertyOp23
 70
     1
102
RTVSPropertyOp24
 70
     1
102
RTVSPropertyOp25
 70
     1
102
RTVSPropertyOp26
 70
     1
102
RTVSPropertyOp27
 70
     1
  0
XRECORD
  5
1250
102
{ACAD_REACTORS
330
124F
102
}
330
124F
100
AcDbXrecord
280
     1
102
RTVSPropertyOp0
 70
     1
102
RTVSPropertyOp1
 70
     1
102
RTVSPropertyOp2
 70
     1
102
RTVSPropertyOp3
 70
     1
102
RTVSPropertyOp4
 70
     1
102
RTVSPropertyOp5
 70
     1
102
RTVSPropertyOp6
 70
     1
102
RTVSPropertyOp7
 70
     1
102
RTVSPropertyOp8
 70
     1
102
RTVSPropertyOp9
 70
     1
102
RTVSPropertyOp10
 70
     1
102
RTVSPropertyOp11
 70
     1
102
RTVSPropertyOp12
 70
     1
102
RTVSPropertyOp13
 70
     1
102
RTVSPropertyOp14
 70
     1
102
RTVSPropertyOp15
 70
     1
102
RTVSPropertyOp16
 70
     1
102
RTVSPropertyOp17
 70
     1
102
RTVSPropertyOp18
 70
     1
102
RTVSPropertyOp19
 70
     1
102
RTVSPropertyOp20
 70
     1
102
RTVSPropertyOp21
 70
     1
102
RTVSPropertyOp22
 70
     1
102
RTVSPropertyOp23
 70
     1
102
RTVSPropertyOp24
 70
     1
102
RTVSPropertyOp25
 70
     1
102
RTVSPropertyOp26
 70
     1
102
RTVSPropertyOp27
 70
     1
  0
XRECORD
  5
124E
102
{ACAD_REACTORS
330
124D
102
}
330
124D
100
AcDbXrecord
280
     1
102
RTVSPropertyOp0
 70
     1
102
RTVSPropertyOp1
 70
     1
102
RTVSPropertyOp2
 70
     1
102
RTVSPropertyOp3
 70
     1
102
RTVSPropertyOp4
 70
     1
102
RTVSPropertyOp5
 70
     1
102
RTVSPropertyOp6
 70
     1
102
RTVSPropertyOp7
 70
     1
102
RTVSPropertyOp8
 70
     1
102
RTVSPropertyOp9
 70
     1
102
RTVSPropertyOp10
 70
     1
102
RTVSPropertyOp11
 70
     1
102
RTVSPropertyOp12
 70
     1
102
RTVSPropertyOp13
 70
     1
102
RTVSPropertyOp14
 70
     1
102
RTVSPropertyOp15
 70
     1
102
RTVSPropertyOp16
 70
     1
102
RTVSPropertyOp17
 70
     1
102
RTVSPropertyOp18
 70
     1
102
RTVSPropertyOp19
 70
     1
102
RTVSPropertyOp20
 70
     1
102
RTVSPropertyOp21
 70
     1
102
RTVSPropertyOp22
 70
     1
102
RTVSPropertyOp23
 70
     1
102
RTVSPropertyOp24
 70
     1
102
RTVSPropertyOp25
 70
     1
102
RTVSPropertyOp26
 70
     1
102
RTVSPropertyOp27
 70
     1
  0
XRECORD
  5
124A
102
{ACAD_REACTORS
330
1249
102
}
330
1249
100
AcDbXrecord
280
     1
102
RTVSPropertyOp0
 70
     1
102
RTVSPropertyOp1
 70
     1
102
RTVSPropertyOp2
 70
     1
102
RTVSPropertyOp3
 70
     1
102
RTVSPropertyOp4
 70
     1
102
RTVSPropertyOp5
 70
     1
102
RTVSPropertyOp6
 70
     1
102
RTVSPropertyOp7
 70
     1
102
RTVSPropertyOp8
 70
     1
102
RTVSPropertyOp9
 70
     1
102
RTVSPropertyOp10
 70
     1
102
RTVSPropertyOp11
 70
     1
102
RTVSPropertyOp12
 70
     1
102
RTVSPropertyOp13
 70
     1
102
RTVSPropertyOp14
 70
     1
102
RTVSPropertyOp15
 70
     1
102
RTVSPropertyOp16
 70
     1
102
RTVSPropertyOp17
 70
     1
102
RTVSPropertyOp18
 70
     1
102
RTVSPropertyOp19
 70
     1
102
RTVSPropertyOp20
 70
     1
102
RTVSPropertyOp21
 70
     1
102
RTVSPropertyOp22
 70
     1
102
RTVSPropertyOp23
 70
     1
102
RTVSPropertyOp24
 70
     1
102
RTVSPropertyOp25
 70
     1
102
RTVSPropertyOp26
 70
     1
102
RTVSPropertyOp27
 70
     1
  0
XRECORD
  5
1258
102
{ACAD_REACTORS
330
1257
102
}
330
1257
100
AcDbXrecord
280
     1
102
RTVSPropertyOp0
 70
     1
102
RTVSPropertyOp1
 70
     1
102
RTVSPropertyOp2
 70
     1
102
RTVSPropertyOp3
 70
     1
102
RTVSPropertyOp4
 70
     1
102
RTVSPropertyOp5
 70
     1
102
RTVSPropertyOp6
 70
     1
102
RTVSPropertyOp7
 70
     1
102
RTVSPropertyOp8
 70
     1
102
RTVSPropertyOp9
 70
     1
102
RTVSPropertyOp10
 70
     1
102
RTVSPropertyOp11
 70
     1
102
RTVSPropertyOp12
 70
     1
102
RTVSPropertyOp13
 70
     1
102
RTVSPropertyOp14
 70
     1
102
RTVSPropertyOp15
 70
     1
102
RTVSPropertyOp16
 70
     1
102
RTVSPropertyOp17
 70
     1
102
RTVSPropertyOp18
 70
     1
102
RTVSPropertyOp19
 70
     1
102
RTVSPropertyOp20
 70
     1
102
RTVSPropertyOp21
 70
     1
102
RTVSPropertyOp22
 70
     1
102
RTVSPropertyOp23
 70
     1
102
RTVSPropertyOp24
 70
     1
102
RTVSPropertyOp25
 70
     1
102
RTVSPropertyOp26
 70
     1
102
RTVSPropertyOp27
 70
     1
  0
XRECORD
  5
1260
102
{ACAD_REACTORS
330
125F
102
}
330
125F
100
AcDbXrecord
280
     1
102
RTVSPropertyOp0
 70
     1
102
RTVSPropertyOp1
 70
     1
102
RTVSPropertyOp2
 70
     1
102
RTVSPropertyOp3
 70
     1
102
RTVSPropertyOp4
 70
     1
102
RTVSPropertyOp5
 70
     1
102
RTVSPropertyOp6
 70
     1
102
RTVSPropertyOp7
 70
     1
102
RTVSPropertyOp8
 70
     1
102
RTVSPropertyOp9
 70
     1
102
RTVSPropertyOp10
 70
     1
102
RTVSPropertyOp11
 70
     1
102
RTVSPropertyOp12
 70
     1
102
RTVSPropertyOp13
 70
     1
102
RTVSPropertyOp14
 70
     1
102
RTVSPropertyOp15
 70
     1
102
RTVSPropertyOp16
 70
     1
102
RTVSPropertyOp17
 70
     1
102
RTVSPropertyOp18
 70
     1
102
RTVSPropertyOp19
 70
     1
102
RTVSPropertyOp20
 70
     1
102
RTVSPropertyOp21
 70
     1
102
RTVSPropertyOp22
 70
     1
102
RTVSPropertyOp23
 70
     1
102
RTVSPropertyOp24
 70
     1
102
RTVSPropertyOp25
 70
     1
102
RTVSPropertyOp26
 70
     1
102
RTVSPropertyOp27
 70
     1
  0
XRECORD
  5
1252
102
{ACAD_REACTORS
330
1251
102
}
330
1251
100
AcDbXrecord
280
     1
102
RTVSPropertyOp0
 70
     1
102
RTVSPropertyOp1
 70
     1
102
RTVSPropertyOp2
 70
     1
102
RTVSPropertyOp3
 70
     1
102
RTVSPropertyOp4
 70
     1
102
RTVSPropertyOp5
 70
     1
102
RTVSPropertyOp6
 70
     1
102
RTVSPropertyOp7
 70
     1
102
RTVSPropertyOp8
 70
     1
102
RTVSPropertyOp9
 70
     1
102
RTVSPropertyOp10
 70
     1
102
RTVSPropertyOp11
 70
     1
102
RTVSPropertyOp12
 70
     1
102
RTVSPropertyOp13
 70
     1
102
RTVSPropertyOp14
 70
     1
102
RTVSPropertyOp15
 70
     1
102
RTVSPropertyOp16
 70
     1
102
RTVSPropertyOp17
 70
     1
102
RTVSPropertyOp18
 70
     1
102
RTVSPropertyOp19
 70
     1
102
RTVSPropertyOp20
 70
     1
102
RTVSPropertyOp21
 70
     1
102
RTVSPropertyOp22
 70
     1
102
RTVSPropertyOp23
 70
     1
102
RTVSPropertyOp24
 70
     1
102
RTVSPropertyOp25
 70
     1
102
RTVSPropertyOp26
 70
     1
102
RTVSPropertyOp27
 70
     1
  0
XRECORD
  5
1256
102
{ACAD_REACTORS
330
1255
102
}
330
1255
100
AcDbXrecord
280
     1
102
RTVSPropertyOp0
 70
     1
102
RTVSPropertyOp1
 70
     1
102
RTVSPropertyOp2
 70
     1
102
RTVSPropertyOp3
 70
     1
102
RTVSPropertyOp4
 70
     1
102
RTVSPropertyOp5
 70
     1
102
RTVSPropertyOp6
 70
     1
102
RTVSPropertyOp7
 70
     1
102
RTVSPropertyOp8
 70
     1
102
RTVSPropertyOp9
 70
     1
102
RTVSPropertyOp10
 70
     1
102
RTVSPropertyOp11
 70
     1
102
RTVSPropertyOp12
 70
     1
102
RTVSPropertyOp13
 70
     1
102
RTVSPropertyOp14
 70
     1
102
RTVSPropertyOp15
 70
     1
102
RTVSPropertyOp16
 70
     1
102
RTVSPropertyOp17
 70
     1
102
RTVSPropertyOp18
 70
     1
102
RTVSPropertyOp19
 70
     1
102
RTVSPropertyOp20
 70
     1
102
RTVSPropertyOp21
 70
     1
102
RTVSPropertyOp22
 70
     1
102
RTVSPropertyOp23
 70
     1
102
RTVSPropertyOp24
 70
     1
102
RTVSPropertyOp25
 70
     1
102
RTVSPropertyOp26
 70
     1
102
RTVSPropertyOp27
 70
     1
  0
XRECORD
  5
1266
102
{ACAD_REACTORS
330
1265
102
}
330
1265
100
AcDbXrecord
280
     1
102
RTVSPropertyOp0
 70
     0
102
RTVSPropertyOp1
 70
     0
102
RTVSPropertyOp2
 70
     0
102
RTVSPropertyOp3
 70
     0
102
RTVSPropertyOp4
 70
     0
102
RTVSPropertyOp5
 70
     0
102
RTVSPropertyOp6
 70
     0
102
RTVSPropertyOp7
 70
     0
102
RTVSPropertyOp8
 70
     0
102
RTVSPropertyOp9
 70
     0
102
RTVSPropertyOp10
 70
     0
102
RTVSPropertyOp11
 70
     0
102
RTVSPropertyOp12
 70
     0
102
RTVSPropertyOp13
 70
     0
102
RTVSPropertyOp14
 70
     2
102
RTVSPropertyOp15
 70
     0
102
RTVSPropertyOp16
 70
     0
102
RTVSPropertyOp17
 70
     0
102
RTVSPropertyOp18
 70
     0
102
RTVSPropertyOp19
 70
     0
102
RTVSPropertyOp20
 70
     0
102
RTVSPropertyOp21
 70
     0
102
RTVSPropertyOp22
 70
     0
102
RTVSPropertyOp23
 70
     0
102
RTVSPropertyOp24
 70
     0
102
RTVSPropertyOp25
 70
     0
102
RTVSPropertyOp26
 70
     0
102
RTVSPropertyOp27
 70
     0
  0
XRECORD
  5
125E
102
{ACAD_REACTORS
330
125D
102
}
330
125D
100
AcDbXrecord
280
     1
102
RTVSPropertyOp0
 70
     1
102
RTVSPropertyOp1
 70
     1
102
RTVSPropertyOp2
 70
     1
102
RTVSPropertyOp3
 70
     1
102
RTVSPropertyOp4
 70
     1
102
RTVSPropertyOp5
 70
     1
102
RTVSPropertyOp6
 70
     1
102
RTVSPropertyOp7
 70
     1
102
RTVSPropertyOp8
 70
     1
102
RTVSPropertyOp9
 70
     1
102
RTVSPropertyOp10
 70
     1
102
RTVSPropertyOp11
 70
     1
102
RTVSPropertyOp12
 70
     1
102
RTVSPropertyOp13
 70
     1
102
RTVSPropertyOp14
 70
     1
102
RTVSPropertyOp15
 70
     1
102
RTVSPropertyOp16
 70
     1
102
RTVSPropertyOp17
 70
     1
102
RTVSPropertyOp18
 70
     1
102
RTVSPropertyOp19
 70
     1
102
RTVSPropertyOp20
 70
     1
102
RTVSPropertyOp21
 70
     1
102
RTVSPropertyOp22
 70
     1
102
RTVSPropertyOp23
 70
     1
102
RTVSPropertyOp24
 70
     1
102
RTVSPropertyOp25
 70
     1
102
RTVSPropertyOp26
 70
     1
102
RTVSPropertyOp27
 70
     1
  0
XRECORD
  5
1242
102
{ACAD_REACTORS
330
1241
102
}
330
1241
100
AcDbXrecord
280
     1
102
RTVSPropertyOp0
 70
     1
102
RTVSPropertyOp1
 70
     1
102
RTVSPropertyOp2
 70
     1
102
RTVSPropertyOp3
 70
     1
102
RTVSPropertyOp4
 70
     1
102
RTVSPropertyOp5
 70
     1
102
RTVSPropertyOp6
 70
     1
102
RTVSPropertyOp7
 70
     1
102
RTVSPropertyOp8
 70
     1
102
RTVSPropertyOp9
 70
     1
102
RTVSPropertyOp10
 70
     1
102
RTVSPropertyOp11
 70
     1
102
RTVSPropertyOp12
 70
     1
102
RTVSPropertyOp13
 70
     1
102
RTVSPropertyOp14
 70
     1
102
RTVSPropertyOp15
 70
     1
102
RTVSPropertyOp16
 70
     1
102
RTVSPropertyOp17
 70
     1
102
RTVSPropertyOp18
 70
     1
102
RTVSPropertyOp19
 70
     1
102
RTVSPropertyOp20
 70
     1
102
RTVSPropertyOp21
 70
     1
102
RTVSPropertyOp22
 70
     1
102
RTVSPropertyOp23
 70
     1
102
RTVSPropertyOp24
 70
     1
102
RTVSPropertyOp25
 70
     1
102
RTVSPropertyOp26
 70
     1
102
RTVSPropertyOp27
 70
     1
  0
XRECORD
  5
1244
102
{ACAD_REACTORS
330
1243
102
}
330
1243
100
AcDbXrecord
280
     1
102
RTVSPropertyOp0
 70
     1
102
RTVSPropertyOp1
 70
     1
102
RTVSPropertyOp2
 70
     1
102
RTVSPropertyOp3
 70
     1
102
RTVSPropertyOp4
 70
     1
102
RTVSPropertyOp5
 70
     1
102
RTVSPropertyOp6
 70
     1
102
RTVSPropertyOp7
 70
     1
102
RTVSPropertyOp8
 70
     1
102
RTVSPropertyOp9
 70
     1
102
RTVSPropertyOp10
 70
     1
102
RTVSPropertyOp11
 70
     1
102
RTVSPropertyOp12
 70
     1
102
RTVSPropertyOp13
 70
     1
102
RTVSPropertyOp14
 70
     1
102
RTVSPropertyOp15
 70
     1
102
RTVSPropertyOp16
 70
     1
102
RTVSPropertyOp17
 70
     1
102
RTVSPropertyOp18
 70
     1
102
RTVSPropertyOp19
 70
     1
102
RTVSPropertyOp20
 70
     1
102
RTVSPropertyOp21
 70
     1
102
RTVSPropertyOp22
 70
     1
102
RTVSPropertyOp23
 70
     1
102
RTVSPropertyOp24
 70
     1
102
RTVSPropertyOp25
 70
     1
102
RTVSPropertyOp26
 70
     1
102
RTVSPropertyOp27
 70
     1
  0
XRECORD
  5
1246
102
{ACAD_REACTORS
330
1245
102
}
330
1245
100
AcDbXrecord
280
     1
102
RTVSPropertyOp0
 70
     1
102
RTVSPropertyOp1
 70
     1
102
RTVSPropertyOp2
 70
     1
102
RTVSPropertyOp3
 70
     1
102
RTVSPropertyOp4
 70
     1
102
RTVSPropertyOp5
 70
     1
102
RTVSPropertyOp6
 70
     1
102
RTVSPropertyOp7
 70
     1
102
RTVSPropertyOp8
 70
     1
102
RTVSPropertyOp9
 70
     1
102
RTVSPropertyOp10
 70
     1
102
RTVSPropertyOp11
 70
     1
102
RTVSPropertyOp12
 70
     1
102
RTVSPropertyOp13
 70
     1
102
RTVSPropertyOp14
 70
     1
102
RTVSPropertyOp15
 70
     1
102
RTVSPropertyOp16
 70
     1
102
RTVSPropertyOp17
 70
     1
102
RTVSPropertyOp18
 70
     1
102
RTVSPropertyOp19
 70
     1
102
RTVSPropertyOp20
 70
     1
102
RTVSPropertyOp21
 70
     1
102
RTVSPropertyOp22
 70
     1
102
RTVSPropertyOp23
 70
     1
102
RTVSPropertyOp24
 70
     1
102
RTVSPropertyOp25
 70
     1
102
RTVSPropertyOp26
 70
     1
102
RTVSPropertyOp27
 70
     1
  0
XRECORD
  5
1248
102
{ACAD_REACTORS
330
1247
102
}
330
1247
100
AcDbXrecord
280
     1
102
RTVSPropertyOp0
 70
     1
102
RTVSPropertyOp1
 70
     1
102
RTVSPropertyOp2
 70
     1
102
RTVSPropertyOp3
 70
     1
102
RTVSPropertyOp4
 70
     1
102
RTVSPropertyOp5
 70
     1
102
RTVSPropertyOp6
 70
     1
102
RTVSPropertyOp7
 70
     1
102
RTVSPropertyOp8
 70
     1
102
RTVSPropertyOp9
 70
     1
102
RTVSPropertyOp10
 70
     1
102
RTVSPropertyOp11
 70
     1
102
RTVSPropertyOp12
 70
     1
102
RTVSPropertyOp13
 70
     1
102
RTVSPropertyOp14
 70
     1
102
RTVSPropertyOp15
 70
     1
102
RTVSPropertyOp16
 70
     1
102
RTVSPropertyOp17
 70
     1
102
RTVSPropertyOp18
 70
     1
102
RTVSPropertyOp19
 70
     1
102
RTVSPropertyOp20
 70
     1
102
RTVSPropertyOp21
 70
     1
102
RTVSPropertyOp22
 70
     1
102
RTVSPropertyOp23
 70
     1
102
RTVSPropertyOp24
 70
     1
102
RTVSPropertyOp25
 70
     1
102
RTVSPropertyOp26
 70
     1
102
RTVSPropertyOp27
 70
     1
  0
XRECORD
  5
1262
102
{ACAD_REACTORS
330
1261
102
}
330
1261
100
AcDbXrecord
280
     1
102
RTVSPropertyOp0
 70
     0
102
RTVSPropertyOp1
 70
     0
102
RTVSPropertyOp2
 70
     0
102
RTVSPropertyOp3
 70
     0
102
RTVSPropertyOp4
 70
     0
102
RTVSPropertyOp5
 70
     0
102
RTVSPropertyOp6
 70
     0
102
RTVSPropertyOp7
 70
     0
102
RTVSPropertyOp8
 70
     0
102
RTVSPropertyOp9
 70
     0
102
RTVSPropertyOp10
 70
     0
102
RTVSPropertyOp11
 70
     0
102
RTVSPropertyOp12
 70
     0
102
RTVSPropertyOp13
 70
     0
102
RTVSPropertyOp14
 70
     2
102
RTVSPropertyOp15
 70
     0
102
RTVSPropertyOp16
 70
     0
102
RTVSPropertyOp17
 70
     0
102
RTVSPropertyOp18
 70
     0
102
RTVSPropertyOp19
 70
     0
102
RTVSPropertyOp20
 70
     0
102
RTVSPropertyOp21
 70
     0
102
RTVSPropertyOp22
 70
     0
102
RTVSPropertyOp23
 70
     0
102
RTVSPropertyOp24
 70
     0
102
RTVSPropertyOp25
 70
     0
102
RTVSPropertyOp26
 70
     0
102
RTVSPropertyOp27
 70
     0
  0
XRECORD
  5
125C
102
{ACAD_REACTORS
330
125B
102
}
330
125B
100
AcDbXrecord
280
     1
102
RTVSPropertyOp0
 70
     1
102
RTVSPropertyOp1
 70
     1
102
RTVSPropertyOp2
 70
     1
102
RTVSPropertyOp3
 70
     1
102
RTVSPropertyOp4
 70
     1
102
RTVSPropertyOp5
 70
     1
102
RTVSPropertyOp6
 70
     1
102
RTVSPropertyOp7
 70
     1
102
RTVSPropertyOp8
 70
     1
102
RTVSPropertyOp9
 70
     1
102
RTVSPropertyOp10
 70
     1
102
RTVSPropertyOp11
 70
     1
102
RTVSPropertyOp12
 70
     1
102
RTVSPropertyOp13
 70
     1
102
RTVSPropertyOp14
 70
     1
102
RTVSPropertyOp15
 70
     1
102
RTVSPropertyOp16
 70
     1
102
RTVSPropertyOp17
 70
     1
102
RTVSPropertyOp18
 70
     1
102
RTVSPropertyOp19
 70
     1
102
RTVSPropertyOp20
 70
     1
102
RTVSPropertyOp21
 70
     1
102
RTVSPropertyOp22
 70
     1
102
RTVSPropertyOp23
 70
     1
102
RTVSPropertyOp24
 70
     1
102
RTVSPropertyOp25
 70
     1
102
RTVSPropertyOp26
 70
     1
102
RTVSPropertyOp27
 70
     1
  0
XRECORD
  5
1264
102
{ACAD_REACTORS
330
1263
102
}
330
1263
100
AcDbXrecord
280
     1
102
RTVSPropertyOp0
 70
     0
102
RTVSPropertyOp1
 70
     0
102
RTVSPropertyOp2
 70
     0
102
RTVSPropertyOp3
 70
     0
102
RTVSPropertyOp4
 70
     0
102
RTVSPropertyOp5
 70
     0
102
RTVSPropertyOp6
 70
     0
102
RTVSPropertyOp7
 70
     0
102
RTVSPropertyOp8
 70
     0
102
RTVSPropertyOp9
 70
     0
102
RTVSPropertyOp10
 70
     0
102
RTVSPropertyOp11
 70
     0
102
RTVSPropertyOp12
 70
     0
102
RTVSPropertyOp13
 70
     0
102
RTVSPropertyOp14
 70
     2
102
RTVSPropertyOp15
 70
     0
102
RTVSPropertyOp16
 70
     0
102
RTVSPropertyOp17
 70
     0
102
RTVSPropertyOp18
 70
     0
102
RTVSPropertyOp19
 70
     0
102
RTVSPropertyOp20
 70
     0
102
RTVSPropertyOp21
 70
     0
102
RTVSPropertyOp22
 70
     0
102
RTVSPropertyOp23
 70
     0
102
RTVSPropertyOp24
 70
     0
102
RTVSPropertyOp25
 70
     0
102
RTVSPropertyOp26
 70
     0
102
RTVSPropertyOp27
 70
     0
  0
XRECORD
  5
1254
102
{ACAD_REACTORS
330
1253
102
}
330
1253
100
AcDbXrecord
280
     1
102
RTVSPropertyOp0
 70
     1
102
RTVSPropertyOp1
 70
     1
102
RTVSPropertyOp2
 70
     1
102
RTVSPropertyOp3
 70
     1
102
RTVSPropertyOp4
 70
     1
102
RTVSPropertyOp5
 70
     1
102
RTVSPropertyOp6
 70
     1
102
RTVSPropertyOp7
 70
     1
102
RTVSPropertyOp8
 70
     1
102
RTVSPropertyOp9
 70
     1
102
RTVSPropertyOp10
 70
     1
102
RTVSPropertyOp11
 70
     1
102
RTVSPropertyOp12
 70
     1
102
RTVSPropertyOp13
 70
     1
102
RTVSPropertyOp14
 70
     1
102
RTVSPropertyOp15
 70
     1
102
RTVSPropertyOp16
 70
     1
102
RTVSPropertyOp17
 70
     1
102
RTVSPropertyOp18
 70
     1
102
RTVSPropertyOp19
 70
     1
102
RTVSPropertyOp20
 70
     1
102
RTVSPropertyOp21
 70
     1
102
RTVSPropertyOp22
 70
     1
102
RTVSPropertyOp23
 70
     1
102
RTVSPropertyOp24
 70
     1
102
RTVSPropertyOp25
 70
     1
102
RTVSPropertyOp26
 70
     1
102
RTVSPropertyOp27
 70
     1
  0
XRECORD
  5
125A
102
{ACAD_REACTORS
330
1259
102
}
330
1259
100
AcDbXrecord
280
     1
102
RTVSPropertyOp0
 70
     1
102
RTVSPropertyOp1
 70
     1
102
RTVSPropertyOp2
 70
     1
102
RTVSPropertyOp3
 70
     1
102
RTVSPropertyOp4
 70
     1
102
RTVSPropertyOp5
 70
     1
102
RTVSPropertyOp6
 70
     1
102
RTVSPropertyOp7
 70
     1
102
RTVSPropertyOp8
 70
     1
102
RTVSPropertyOp9
 70
     1
102
RTVSPropertyOp10
 70
     1
102
RTVSPropertyOp11
 70
     1
102
RTVSPropertyOp12
 70
     1
102
RTVSPropertyOp13
 70
     1
102
RTVSPropertyOp14
 70
     1
102
RTVSPropertyOp15
 70
     1
102
RTVSPropertyOp16
 70
     1
102
RTVSPropertyOp17
 70
     1
102
RTVSPropertyOp18
 70
     1
102
RTVSPropertyOp19
 70
     1
102
RTVSPropertyOp20
 70
     1
102
RTVSPropertyOp21
 70
     1
102
RTVSPropertyOp22
 70
     1
102
RTVSPropertyOp23
 70
     1
102
RTVSPropertyOp24
 70
     1
102
RTVSPropertyOp25
 70
     1
102
RTVSPropertyOp26
 70
     1
102
RTVSPropertyOp27
 70
     1
  0
ENDSEC
  0
EOF
