  0
SECTION
  2
HEADER
  9
$ACADVER
  1
AC1015
  9
$ACADMAINTVER
 70
    20
  9
$DWGCODEPAGE
  3
ANSI_1252
  9
$INSBASE
 10
0.0
 20
0.0
 30
0.0
  9
$EXTMIN
 10
3060.369693472024
 20
1177.058231916258
 30
-0.0000000017937957
  9
$EXTMAX
 10
3062.741414322774
 20
1178.908231916258
 30
0.0000000000000005
  9
$LIMMIN
 10
0.0
 20
0.0
  9
$LIMMAX
 10
420.0
 20
297.0
  9
$ORTHOMODE
 70
     0
  9
$REGENMODE
 70
     1
  9
$FILLMODE
 70
     1
  9
$QTEXTMODE
 70
     0
  9
$MIRRTEXT
 70
     1
  9
$LTSCALE
 40
1.0
  9
$ATTMODE
 70
     1
  9
$TEXTSIZE
 40
2.5
  9
$TRACEWID
 40
1.0
  9
$TEXTSTYLE
  7
SANINDUSA
  9
$CLAYER
  8
cotas
  9
$CELTYPE
  6
ByLayer
  9
$CECOLOR
 62
   256
  9
$CELTSCALE
 40
1.0
  9
$DISPSILH
 70
     0
  9
$DIMSCALE
 40
1.0
  9
$DIMASZ
 40
2.0
  9
$DIMEXO
 40
1.0
  9
$DIMDLI
 40
1.0
  9
$DIMRND
 40
0.0
  9
$DIMDLE
 40
0.0
  9
$DIMEXE
 40
1.0
  9
$DIMTP
 40
0.0
  9
$DIMTM
 40
0.0
  9
$DIMTXT
 40
2.0
  9
$DIMCEN
 40
0.0
  9
$DIMTSZ
 40
0.0
  9
$DIMTOL
 70
     0
  9
$DIMLIM
 70
     0
  9
$DIMTIH
 70
     0
  9
$DIMTOH
 70
     0
  9
$DIMSE1
 70
     0
  9
$DIMSE2
 70
     0
  9
$DIMTAD
 70
     1
  9
$DIMZIN
 70
     8
  9
$DIMBLK
  1

  9
$DIMASO
 70
     1
  9
$DIMSHO
 70
     1
  9
$DIMPOST
  1

  9
$DIMAPOST
  1

  9
$DIMALT
 70
     0
  9
$DIMALTD
 70
     3
  9
$DIMALTF
 40
0.03937007874016
  9
$DIMLFAC
 40
1.0
  9
$DIMTOFL
 70
     1
  9
$DIMTVP
 40
0.0
  9
$DIMTIX
 70
     0
  9
$DIMSOXD
 70
     0
  9
$DIMSAH
 70
     0
  9
$DIMBLK1
  1

  9
$DIMBLK2
  1

  9
$DIMSTYLE
  2
SANINDUSA
  9
$DIMCLRD
 70
   256
  9
$DIMCLRE
 70
   256
  9
$DIMCLRT
 70
   256
  9
$DIMTFAC
 40
1.0
  9
$DIMGAP
 40
1.0
  9
$DIMJUST
 70
     0
  9
$DIMSD1
 70
     0
  9
$DIMSD2
 70
     0
  9
$DIMTOLJ
 70
     0
  9
$DIMTZIN
 70
     8
  9
$DIMALTZ
 70
     0
  9
$DIMALTTZ
 70
     0
  9
$DIMUPT
 70
     0
  9
$DIMDEC
 70
     1
  9
$DIMTDEC
 70
     1
  9
$DIMALTU
 70
     2
  9
$DIMALTTD
 70
     3
  9
$DIMTXSTY
  7
SANINDUSA
  9
$DIMAUNIT
 70
     0
  9
$DIMADEC
 70
     1
  9
$DIMALTRND
 40
0.0
  9
$DIMAZIN
 70
     0
  9
$DIMDSEP
 70
    44
  9
$DIMATFIT
 70
     3
  9
$DIMFRAC
 70
     0
  9
$DIMLDRBLK
  1

  9
$DIMLUNIT
 70
     2
  9
$DIMLWD
 70
    -1
  9
$DIMLWE
 70
    -1
  9
$DIMTMOVE
 70
     0
  9
$LUNITS
 70
     2
  9
$LUPREC
 70
     4
  9
$SKETCHINC
 40
1.0
  9
$FILLETRAD
 40
0.0
  9
$AUNITS
 70
     0
  9
$AUPREC
 70
     0
  9
$MENU
  1
.
  9
$ELEVATION
 40
0.0
  9
$PELEVATION
 40
0.0
  9
$THICKNESS
 40
0.0
  9
$LIMCHECK
 70
     0
  9
$CHAMFERA
 40
10.0
  9
$CHAMFERB
 40
10.0
  9
$CHAMFERC
 40
20.0
  9
$CHAMFERD
 40
0.0
  9
$SKPOLY
 70
     0
  9
$TDCREATE
 40
2453259.668776945
  9
$TDUCREATE
 40
2453259.627110278
  9
$TDUPDATE
 40
2455817.518403681
  9
$TDUUPDATE
 40
2455817.476737014
  9
$TDINDWG
 40
0.0191552662
  9
$TDUSRTIMER
 40
0.0191552662
  9
$USRTIMER
 70
     1
  9
$ANGBASE
 50
0.0
  9
$ANGDIR
 70
     0
  9
$PDMODE
 70
     0
  9
$PDSIZE
 40
0.0
  9
$PLINEWID
 40
0.0
  9
$SPLFRAME
 70
     0
  9
$SPLINETYPE
 70
     6
  9
$SPLINESEGS
 70
     8
  9
$HANDSEED
  5
24A7
  9
$SURFTAB1
 70
     6
  9
$SURFTAB2
 70
     6
  9
$SURFTYPE
 70
     6
  9
$SURFU
 70
     6
  9
$SURFV
 70
     6
  9
$UCSBASE
  2

  9
$UCSNAME
  2

  9
$UCSORG
 10
0.0
 20
0.0
 30
0.0
  9
$UCSXDIR
 10
1.0
 20
0.0
 30
0.0
  9
$UCSYDIR
 10
0.0
 20
1.0
 30
0.0
  9
$UCSORTHOREF
  2

  9
$UCSORTHOVIEW
 70
     0
  9
$UCSORGTOP
 10
0.0
 20
0.0
 30
0.0
  9
$UCSORGBOTTOM
 10
0.0
 20
0.0
 30
0.0
  9
$UCSORGLEFT
 10
0.0
 20
0.0
 30
0.0
  9
$UCSORGRIGHT
 10
0.0
 20
0.0
 30
0.0
  9
$UCSORGFRONT
 10
0.0
 20
0.0
 30
0.0
  9
$UCSORGBACK
 10
0.0
 20
0.0
 30
0.0
  9
$PUCSBASE
  2

  9
$PUCSNAME
  2

  9
$PUCSORG
 10
0.0
 20
0.0
 30
0.0
  9
$PUCSXDIR
 10
1.0
 20
0.0
 30
0.0
  9
$PUCSYDIR
 10
0.0
 20
1.0
 30
0.0
  9
$PUCSORTHOREF
  2

  9
$PUCSORTHOVIEW
 70
     0
  9
$PUCSORGTOP
 10
0.0
 20
0.0
 30
0.0
  9
$PUCSORGBOTTOM
 10
0.0
 20
0.0
 30
0.0
  9
$PUCSORGLEFT
 10
0.0
 20
0.0
 30
0.0
  9
$PUCSORGRIGHT
 10
0.0
 20
0.0
 30
0.0
  9
$PUCSORGFRONT
 10
0.0
 20
0.0
 30
0.0
  9
$PUCSORGBACK
 10
0.0
 20
0.0
 30
0.0
  9
$USERI1
 70
     0
  9
$USERI2
 70
     0
  9
$USERI3
 70
     0
  9
$USERI4
 70
     0
  9
$USERI5
 70
     0
  9
$USERR1
 40
0.0
  9
$USERR2
 40
0.0
  9
$USERR3
 40
0.0
  9
$USERR4
 40
0.0
  9
$USERR5
 40
0.0
  9
$WORLDVIEW
 70
     1
  9
$SHADEDGE
 70
     3
  9
$SHADEDIF
 70
    70
  9
$TILEMODE
 70
     1
  9
$MAXACTVP
 70
    64
  9
$PINSBASE
 10
0.0
 20
0.0
 30
0.0
  9
$PLIMCHECK
 70
     0
  9
$PEXTMIN
 10
1.000000000000000E+20
 20
1.000000000000000E+20
 30
1.000000000000000E+20
  9
$PEXTMAX
 10
-1.000000000000000E+20
 20
-1.000000000000000E+20
 30
-1.000000000000000E+20
  9
$PLIMMIN
 10
0.0
 20
0.0
  9
$PLIMMAX
 10
420.0
 20
297.0
  9
$UNITMODE
 70
     0
  9
$VISRETAIN
 70
     1
  9
$PLINEGEN
 70
     0
  9
$PSLTSCALE
 70
     1
  9
$TREEDEPTH
 70
  3020
  9
$CMLSTYLE
  2
Standard
  9
$CMLJUST
 70
     0
  9
$CMLSCALE
 40
20.0
  9
$PROXYGRAPHICS
 70
     1
  9
$MEASUREMENT
 70
     1
  9
$CELWEIGHT
370
    -1
  9
$ENDCAPS
280
     0
  9
$JOINSTYLE
280
     0
  9
$LWDISPLAY
290
     0
  9
$INSUNITS
 70
     4
  9
$HYPERLINKBASE
  1

  9
$STYLESHEET
  1
monochrome.ctb
  9
$XEDIT
290
     1
  9
$CEPSNTYPE
380
     0
  9
$PSTYLEMODE
290
     1
  9
$FINGERPRINTGUID
  2
{B98A73AA-52AA-4C10-B469-C0E7150AC31F}
  9
$VERSIONGUID
  2
{E887B004-632D-41C1-A220-894D3957C225}
  9
$EXTNAMES
290
     1
  9
$PSVPSCALE
 40
0.0
  9
$OLESTARTUP
290
     0
  0
ENDSEC
  0
SECTION
  2
CLASSES
  0
CLASS
  1
ACDBDICTIONARYWDFLT
  2
AcDbDictionaryWithDefault
  3
ObjectDBX Classes
 90
        0
280
     0
281
     0
  0
CLASS
  1
ACDBPLACEHOLDER
  2
AcDbPlaceHolder
  3
ObjectDBX Classes
 90
        0
280
     0
281
     0
  0
CLASS
  1
LAYOUT
  2
AcDbLayout
  3
ObjectDBX Classes
 90
        0
280
     0
281
     0
  0
CLASS
  1
DICTIONARYVAR
  2
AcDbDictionaryVar
  3
ObjectDBX Classes
 90
        0
280
     0
281
     0
  0
CLASS
  1
DIMASSOC
  2
AcDbDimAssoc
  3
"AcDbDimAssoc|Product Desc:     AcDim ARX App For Dimension|Company:          Autodesk, Inc.|WEB Address:      www.autodesk.com"
 90
        0
280
     0
281
     0
  0
CLASS
  1
MATERIAL
  2
AcDbMaterial
  3
ObjectDBX Classes
 90
     1153
280
     0
281
     0
  0
CLASS
  1
VISUALSTYLE
  2
AcDbVisualStyle
  3
ObjectDBX Classes
 90
     4095
280
     0
281
     0
  0
CLASS
  1
TABLESTYLE
  2
AcDbTableStyle
  3
ObjectDBX Classes
 90
     4095
280
     0
281
     0
  0
CLASS
  1
SCALE
  2
AcDbScale
  3
ObjectDBX Classes
 90
     1153
280
     0
281
     0
  0
CLASS
  1
MLEADERSTYLE
  2
AcDbMLeaderStyle
  3
ACDB_MLEADERSTYLE_CLASS
 90
     4095
280
     0
281
     0
  0
CLASS
  1
CELLSTYLEMAP
  2
AcDbCellStyleMap
  3
ObjectDBX Classes
 90
     1152
280
     0
281
     0
  0
ENDSEC
  0
SECTION
  2
TABLES
  0
TABLE
  2
VPORT
  5
8
330
0
100
AcDbSymbolTable
 70
     1
  0
VPORT
  5
238F
330
8
100
AcDbSymbolTableRecord
100
AcDbViewportTableRecord
  2
*Active
 70
     0
 10
0.0
 20
0.0
 11
1.0
 21
1.0
 12
3061.555553897398
 22
1177.983231916258
 13
0.0
 23
0.0
 14
10.0
 24
10.0
 15
10.0
 25
10.0
 16
0.0
 26
0.0
 36
1.0
 17
0.0
 27
0.0
 37
0.0
 40
1.861562499999763
 41
1.645464025026068
 42
50.0
 43
0.0
 44
0.0
 50
0.0
 51
0.0
 71
     0
 72
   100
 73
     1
 74
     2
 75
     0
 76
     0
 77
     0
 78
     0
281
     0
 65
     1
110
0.0
120
0.0
130
0.0
111
1.0
121
0.0
131
0.0
112
0.0
122
1.0
132
0.0
 79
     0
146
0.0
  0
ENDTAB
  0
TABLE
  2
LTYPE
  5
5
330
0
100
AcDbSymbolTable
 70
     5
  0
LTYPE
  5
14
330
5
100
AcDbSymbolTableRecord
100
AcDbLinetypeTableRecord
  2
ByBlock
 70
     0
  3

 72
    65
 73
     0
 40
0.0
  0
LTYPE
  5
15
330
5
100
AcDbSymbolTableRecord
100
AcDbLinetypeTableRecord
  2
ByLayer
 70
     0
  3

 72
    65
 73
     0
 40
0.0
  0
LTYPE
  5
16
330
5
100
AcDbSymbolTableRecord
100
AcDbLinetypeTableRecord
  2
Continuous
 70
     0
  3
Solid line
 72
    65
 73
     0
 40
0.0
  0
LTYPE
  5
2D
330
5
100
AcDbSymbolTableRecord
100
AcDbLinetypeTableRecord
  2
DASHDOT
 70
     0
  3
Dash dot __ . __ . __ . __ . __ . __ . __ . __
 72
    65
 73
     4
 40
25.4
 49
12.7
 74
     0
 49
-6.349999999999999
 74
     0
 49
0.0
 74
     0
 49
-6.349999999999999
 74
     0
  0
LTYPE
  5
2E
330
5
100
AcDbSymbolTableRecord
100
AcDbLinetypeTableRecord
  2
HIDDEN
 70
     0
  3
Hidden __ __ __ __ __ __ __ __ __ __ __ __ __ _
 72
    65
 73
     2
 40
9.524999999999998
 49
6.349999999999999
 74
     0
 49
-3.174999999999999
 74
     0
  0
LTYPE
  5
D1E
330
5
100
AcDbSymbolTableRecord
100
AcDbLinetypeTableRecord
  2
CENTER
 70
     0
  3
____ _ ____ _ ____ _ ____ _ ____ _ ____ _ ____ 
 72
    65
 73
     4
 40
2.0
 49
1.25
 74
     0
 49
-0.25
 74
     0
 49
0.25
 74
     0
 49
-0.25
 74
     0
  0
ENDTAB
  0
TABLE
  2
LAYER
  5
2
330
0
100
AcDbSymbolTable
 70
    17
  0
LAYER
  5
10
102
{ACAD_XDICTIONARY
360
23FB
102
}
330
2
100
AcDbSymbolTableRecord
100
AcDbLayerTableRecord
  2
0
 70
     0
 62
     7
  6
Continuous
370
    -3
390
F
  0
LAYER
  5
2F
102
{ACAD_XDICTIONARY
360
23FD
102
}
330
2
100
AcDbSymbolTableRecord
100
AcDbLayerTableRecord
  2
1
 70
     0
 62
     1
  6
Continuous
370
    -3
390
F
  0
LAYER
  5
30
102
{ACAD_XDICTIONARY
360
23FF
102
}
330
2
100
AcDbSymbolTableRecord
100
AcDbLayerTableRecord
  2
2
 70
     0
 62
     2
  6
Continuous
370
    -3
390
F
  0
LAYER
  5
31
102
{ACAD_XDICTIONARY
360
2401
102
}
330
2
100
AcDbSymbolTableRecord
100
AcDbLayerTableRecord
  2
3
 70
     0
 62
     3
  6
Continuous
370
    -3
390
F
  0
LAYER
  5
32
102
{ACAD_XDICTIONARY
360
2403
102
}
330
2
100
AcDbSymbolTableRecord
100
AcDbLayerTableRecord
  2
4
 70
     0
 62
     4
  6
Continuous
370
    -3
390
F
  0
LAYER
  5
33
102
{ACAD_XDICTIONARY
360
2405
102
}
330
2
100
AcDbSymbolTableRecord
100
AcDbLayerTableRecord
  2
5
 70
     0
 62
     5
  6
Continuous
370
    -3
390
F
  0
LAYER
  5
34
102
{ACAD_XDICTIONARY
360
2407
102
}
330
2
100
AcDbSymbolTableRecord
100
AcDbLayerTableRecord
  2
6
 70
     0
 62
     6
  6
Continuous
370
    -3
390
F
  0
LAYER
  5
35
102
{ACAD_XDICTIONARY
360
2409
102
}
330
2
100
AcDbSymbolTableRecord
100
AcDbLayerTableRecord
  2
7
 70
     0
 62
     7
  6
Continuous
370
    -3
390
F
  0
LAYER
  5
36
102
{ACAD_XDICTIONARY
360
240B
102
}
330
2
100
AcDbSymbolTableRecord
100
AcDbLayerTableRecord
  2
cen
 70
     0
 62
     7
  6
DASHDOT
370
    -3
390
F
  0
LAYER
  5
37
102
{ACAD_XDICTIONARY
360
240D
102
}
330
2
100
AcDbSymbolTableRecord
100
AcDbLayerTableRecord
  2
hid
 70
     0
 62
     7
  6
HIDDEN
370
    -3
390
F
  0
LAYER
  5
5D6
102
{ACAD_XDICTIONARY
360
240F
102
}
330
2
100
AcDbSymbolTableRecord
100
AcDbLayerTableRecord
  2
hatch
 70
     0
 62
     9
  6
Continuous
370
    -3
390
F
  0
LAYER
  5
8AF
102
{ACAD_XDICTIONARY
360
2411
102
}
330
2
100
AcDbSymbolTableRecord
100
AcDbLayerTableRecord
  2
9
 70
     0
 62
     9
  6
Continuous
370
    -3
390
F
  0
LAYER
  5
8F8
102
{ACAD_XDICTIONARY
360
2413
102
}
330
2
100
AcDbSymbolTableRecord
100
AcDbLayerTableRecord
  2
leg fin
 70
     0
 62
     9
  6
Continuous
370
    -3
390
F
  0
LAYER
  5
91D
102
{ACAD_XDICTIONARY
360
2415
102
}
330
2
100
AcDbSymbolTableRecord
100
AcDbLayerTableRecord
  2
cotas
 70
     0
 62
     1
  6
Continuous
370
    -3
390
F
  0
LAYER
  5
92F
330
2
100
AcDbSymbolTableRecord
100
AcDbLayerTableRecord
  2
Defpoints
 70
     0
 62
     7
  6
Continuous
290
     0
370
    -3
390
F
  0
LAYER
  5
D1F
102
{ACAD_XDICTIONARY
360
2417
102
}
330
2
100
AcDbSymbolTableRecord
100
AcDbLayerTableRecord
  2
quote
 70
     0
 62
     7
  6
Continuous
370
    18
390
F
  0
LAYER
  5
23FA
102
{ACAD_XDICTIONARY
360
2419
102
}
330
2
100
AcDbSymbolTableRecord
100
AcDbLayerTableRecord
  2
SANINDUSA
 70
     0
 62
     3
  6
Continuous
370
    -3
390
F
  0
ENDTAB
  0
TABLE
  2
STYLE
  5
3
330
0
100
AcDbSymbolTable
 70
     4
  0
STYLE
  5
11
330
3
100
AcDbSymbolTableRecord
100
AcDbTextStyleTableRecord
  2
Standard
 70
     0
 40
0.0
 41
1.0
 50
0.0
 71
     0
 42
2.5
  3
Avgardn.ttf
  4

1001
ACAD
1000
AvantGarde Bk BT
1071
       34
  0
STYLE
  5
2C
330
3
100
AcDbSymbolTableRecord
100
AcDbTextStyleTableRecord
  2

 70
     1
 40
0.0
 41
1.0
 50
0.0
 71
     0
 42
2.5
  3
ltypeshp.shx
  4

  0
STYLE
  5
91F
330
3
100
AcDbSymbolTableRecord
100
AcDbTextStyleTableRecord
  2
SANINDUSA
 70
     0
 40
0.0
 41
1.0
 50
0.0
 71
     0
 42
2.5
  3
verdana.TTF
  4

1001
ACAD
1000
Verdana
1071
       34
  0
STYLE
  5
D20
330
3
100
AcDbSymbolTableRecord
100
AcDbTextStyleTableRecord
  2
ISOCP
 70
     0
 40
0.0
 41
1.0
 50
0.0
 71
     0
 42
2.5
  3
isocp
  4

  0
ENDTAB
  0
TABLE
  2
VIEW
  5
6
330
0
100
AcDbSymbolTable
 70
     0
  0
ENDTAB
  0
TABLE
  2
UCS
  5
7
330
0
100
AcDbSymbolTable
 70
     0
  0
ENDTAB
  0
TABLE
  2
APPID
  5
9
330
0
100
AcDbSymbolTable
 70
     7
  0
APPID
  5
12
330
9
100
AcDbSymbolTableRecord
100
AcDbRegAppTableRecord
  2
ACAD
 70
     0
  0
APPID
  5
3A
330
9
100
AcDbSymbolTableRecord
100
AcDbRegAppTableRecord
  2
DCO15
 70
     0
  0
APPID
  5
D22
330
9
100
AcDbSymbolTableRecord
100
AcDbRegAppTableRecord
  2
GENIUS_GENDTOL_13
 70
     0
  0
APPID
  5
D23
330
9
100
AcDbSymbolTableRecord
100
AcDbRegAppTableRecord
  2
GENIUS_GENREC_14
 70
     0
  0
APPID
  5
D24
330
9
100
AcDbSymbolTableRecord
100
AcDbRegAppTableRecord
  2
GENIUS_GENODEF_13
 70
     0
  0
APPID
  5
D25
330
9
100
AcDbSymbolTableRecord
100
AcDbRegAppTableRecord
  2
GENIUS_GENOBJ-N-REC_13
 70
     0
  0
APPID
  5
24A6
330
9
100
AcDbSymbolTableRecord
100
AcDbRegAppTableRecord
  2
ACAD_MLEADERVER
 70
     0
  0
ENDTAB
  0
TABLE
  2
DIMSTYLE
  5
A
330
0
100
AcDbSymbolTable
 70
     4
100
AcDbDimStyleTable
 71
     1
340
921
  0
DIMSTYLE
105
45
330
A
100
AcDbSymbolTableRecord
100
AcDbDimStyleTableRecord
  2
STANDARD
 70
     0
289
     0
340
11
  0
DIMSTYLE
105
921
330
A
100
AcDbSymbolTableRecord
100
AcDbDimStyleTableRecord
  2
SANINDUSA
 70
     0
 41
2.0
 42
1.0
 43
1.0
 44
1.0
 73
     0
 74
     0
 77
     1
 78
     8
140
2.0
141
0.0
143
0.03937007874016
147
1.0
171
     3
172
     1
176
   256
177
   256
178
   256
179
     1
271
     1
272
     1
274
     3
278
    44
283
     0
284
     8
340
91F
371
    -1
372
    -1
  0
DIMSTYLE
105
D21
330
A
100
AcDbSymbolTableRecord
100
AcDbDimStyleTableRecord
  2
ISO-35
 70
     0
 41
3.5
 42
0.875
 43
5.25
 44
1.75
 45
0.5
 73
     0
 74
     0
 77
     1
 78
     8
140
3.5
141
3.5
143
0.0394
147
0.875
171
     4
172
     1
271
     1
272
     1
273
     8
274
     4
340
11
  0
ENDTAB
  0
TABLE
  2
BLOCK_RECORD
  5
1
330
0
100
AcDbSymbolTable
 70
    81
  0
BLOCK_RECORD
  5
1F
330
1
100
AcDbSymbolTableRecord
100
AcDbBlockTableRecord
  2
*Model_Space
340
22
  0
BLOCK_RECORD
  5
1B
330
1
100
AcDbSymbolTableRecord
100
AcDbBlockTableRecord
  2
*Paper_Space
340
1E
  0
BLOCK_RECORD
  5
23
330
1
100
AcDbSymbolTableRecord
100
AcDbBlockTableRecord
  2
*Paper_Space0
340
26
  0
BLOCK_RECORD
  5
919
330
1
100
AcDbSymbolTableRecord
100
AcDbBlockTableRecord
  2
_DotSmall
340
0
  0
BLOCK_RECORD
  5
922
330
1
100
AcDbSymbolTableRecord
100
AcDbBlockTableRecord
  2
base para cotas
340
0
310
2800000020000000200000000100080000000000000400000000000000000000000000000000000000000000000080000080000000808000800000008000800080800000C0C0C000C0DCC000F0CAA6000020400000206000002080000020A0000020C0000020E00000400000004020000040400000406000004080000040A0
310
000040C0000040E00000600000006020000060400000606000006080000060A0000060C0000060E00000800000008020000080400000806000008080000080A0000080C0000080E00000A0000000A0200000A0400000A0600000A0800000A0A00000A0C00000A0E00000C0000000C0200000C0400000C0600000C0800000C0
310
A00000C0C00000C0E00000E0000000E0200000E0400000E0600000E0800000E0A00000E0C00000E0E00040000000400020004000400040006000400080004000A0004000C0004000E00040200000402020004020400040206000402080004020A0004020C0004020E000404000004040200040404000404060004040800040
310
40A0004040C0004040E00040600000406020004060400040606000406080004060A0004060C0004060E00040800000408020004080400040806000408080004080A0004080C0004080E00040A0000040A0200040A0400040A0600040A0800040A0A00040A0C00040A0E00040C0000040C0200040C0400040C0600040C08000
310
40C0A00040C0C00040C0E00040E0000040E0200040E0400040E0600040E0800040E0A00040E0C00040E0E00080000000800020008000400080006000800080008000A0008000C0008000E00080200000802020008020400080206000802080008020A0008020C0008020E00080400000804020008040400080406000804080
310
008040A0008040C0008040E00080600000806020008060400080606000806080008060A0008060C0008060E00080800000808020008080400080806000808080008080A0008080C0008080E00080A0000080A0200080A0400080A0600080A0800080A0A00080A0C00080A0E00080C0000080C0200080C0400080C0600080C0
310
800080C0A00080C0C00080C0E00080E0000080E0200080E0400080E0600080E0800080E0A00080E0C00080E0E000C0000000C0002000C0004000C0006000C0008000C000A000C000C000C000E000C0200000C0202000C0204000C0206000C0208000C020A000C020C000C020E000C0400000C0402000C0404000C0406000C0
310
408000C040A000C040C000C040E000C0600000C0602000C0604000C0606000C0608000C060A000C060C000C060E000C0800000C0802000C0804000C0806000C0808000C080A000C080C000C080E000C0A00000C0A02000C0A04000C0A06000C0A08000C0A0A000C0A0C000C0A0E000C0C00000C0C02000C0C04000C0C06000
310
C0C08000C0C0A000F0FBFF00A4A0A000808080000000FF0000FF000000FFFF00FF000000FF00FF00FFFF0000FFFFFF00A4A4A4A4A4A4A4A4A4A4A4A4A4A4A4A4A4A4A4A4A4A4A4A4A4A4A4A4A4A4A4A4A4A4A4A4A4A4A4A4A4A4A4A4A4A4A4A4A4A4A4A4A4A4A4A4A4A4A4A4A4A4A4A4A4A4A4A4A4A4A4A4A4A4A4A4A4A4A4
310
A4A4A4A4A4A4A4A4A4A4A4A4A4A4A4A4A4A4A4A4A4A4A4A4A4A4A4A4A4A4A4A4A4A4A4A4A4A4A4A4A4A4A4A4A4A4A4A4A4A4A4A4A4A4A4A4A4A4A4A4A4A4A4A4A4A4A4A4A4A4A4A4A4A4A4A4A4A4A4A4A4A4A4A4A4A4A4A4A4A4A4A4A4A4A4A4A4A4A4A4A4A4A4A4A4A4A4A4A4A4A4A4A4A4A4A4A4A4A4A4A4A4A4A4A4A4A4
310
A4A4A4A4A4A4A4A4A4A4A4A4A4A4A4A4A4A4A4A4A4A4A4A4A4A4A4A4A4A4A4A4A4A4A4A4A4A4A4A4A4A4A4A4A4A4A4A4A4A4A4A4A4A4A4A4A4A4A4A4A4A4A4A4A4A4A4A4A4A4A4A4A4A4A4A4A4A4A4A4A4A4A4A4A4A4A4A4A4A4A4A4A4A4A4A4A4A4A4A4A4A4A4A4A4A4A4A4A4A4A4A4A4A4A4A4A4A4A4A4A4A4A4A4A4A4A4
310
A4A4A4A4A4A4A4A4A4A4A4A4A4A4A4A4A4A4A4A4A4A4A4A4A4A4A4A4A4A4A4A4A4A4A4A4A4A4A4A4A4A4A4A4A4A4A4A4A4A4A4A4A4A4A4A4A4A4A4A4A4A4A4A4A4A4A4A4A4A4A4A4A4A4A4A4A4A4A4A4A4A4A4A4A4A4A4A4A4A4A4A4A4A4A4A4A4A4A4A4A4A4A4A4A4A4A4A4A4A4A4A4A4A4A4A4F9F9F9F9F9F9F9F9F9F9F9
310
F9F9F9F9F9F9F9F9F9F9F9F9F9F9F9F9F9F9F9A4A4F9F9F9F9F9F9F9F9F9F9F9F9F9F9F9F9F9F9F9F9F9F9F9F9F9F9F9F9F9F9A4A4F9F9F9F9F9F9F9F9F9F9F9F9F9F9F9F9F9F9F9F9F9F9F9F9F9F9F9F9F9F9A4A4F9A4A4A4A4A4A4A4A4A4A4A4A4A4A4A4A4A4A4A4A4A4A4A4A4A4A4A4A4F9A4A4A4A4A4A4A4A4A4A4A4A4
310
A4A4A4A4A4A4A4A4A4A4A4A4A4A4A4A4A4A4A4A4A4A4A4A4A4A4A4A4A4A4A4A4A4A4A4A4A4A4A4A4A4A4A4A4A4A4A4A4A4A4A4A4A4A4A4A4A4A4A4A4A4A4A4A4A4A4A4A4A4A4A4A4A4A4A4A4A4A4A4A4A4A4A4A4A4A4A4A4A4A4A4A4A4A4A4A4A4A4A4A4A4A4A4A4A4A4A4A4A4A4A4A4A4A4A4A4A4A4A4A4A4A4A4A4A4A4A4
310
A4A4A4A4A4A4A4A4A4A4A4A4A4A4A4A4A4A4A4A4A4A4A4A4A4A4A4A4A4A4A4A4A4A4A4A4A4A4A4A4A4A4A4A4A4A4A4A4A4A4A4A4A4A4A4A4A4A4A4A4A4A4A4A4A4A4A4A4A4A4A4A4A4A4A4A4A4A4A4A4A4A4A4A4A4A4A4A4A4A4A4A4A4A4A4A4A4A4A4A4A4A4A4A4A4A4A4A4A4A4A4A4A4A4A4A4A4A4A4A4A4A4A4A4A4A4A4
310
A4A4A4A4A4A4A4A4A4A4A4A4A4A4A4A4A4A4A4A4A4A4A4A4A4A4A4A4A4A4A4A4A4A4A4A4A4A4A4A4A4A4A4A4A4A4A4A4A4A4A4A4A4A4A4A4A4A4A4A4A4A4A4A4A4A4A4A4A4A4A4A4A4A4A4A4A4A4A4A4A4A4A4A4A4A4A4A4A4A4A4A4A4A4A4A4A4A4A4A4A4A4A4A4A4A4A4A4A4A4A4A4A4A4A4A4A4A4A4A4A4A4A4A4A4A4A4
310
A4A4A4A4A4A4A4A4A4A4A4A4A4A4A4A4A4A4A4A4A4A4A4A4A4A4A4A4A4A4A4A4A4A4A4A4A4A4A4A4A4A4A4A4A4A4A4A4A4A4A4A4A4A4A4A4
1001
ACAD
1000
DesignCenter Data
1002
{
1070
     1
1070
     4
1002
}
  0
BLOCK_RECORD
  5
AA8
330
1
100
AcDbSymbolTableRecord
100
AcDbBlockTableRecord
  2
_CLOSED
340
0
  0
BLOCK_RECORD
  5
CA7
330
1
100
AcDbSymbolTableRecord
100
AcDbBlockTableRecord
  2
guarnizione
340
0
102
{BLKREFS
331
213B
102
}
  0
BLOCK_RECORD
  5
2187
330
1
100
AcDbSymbolTableRecord
100
AcDbBlockTableRecord
  2
*D67
340
0
  0
BLOCK_RECORD
  5
2193
330
1
100
AcDbSymbolTableRecord
100
AcDbBlockTableRecord
  2
*D68
340
0
  0
BLOCK_RECORD
  5
219F
330
1
100
AcDbSymbolTableRecord
100
AcDbBlockTableRecord
  2
*D69
340
0
  0
BLOCK_RECORD
  5
21AB
330
1
100
AcDbSymbolTableRecord
100
AcDbBlockTableRecord
  2
*D70
340
0
  0
BLOCK_RECORD
  5
21B7
330
1
100
AcDbSymbolTableRecord
100
AcDbBlockTableRecord
  2
*D71
340
0
  0
BLOCK_RECORD
  5
21C3
330
1
100
AcDbSymbolTableRecord
100
AcDbBlockTableRecord
  2
*D72
340
0
  0
BLOCK_RECORD
  5
21CF
330
1
100
AcDbSymbolTableRecord
100
AcDbBlockTableRecord
  2
*D73
340
0
  0
BLOCK_RECORD
  5
21DB
330
1
100
AcDbSymbolTableRecord
100
AcDbBlockTableRecord
  2
*D74
340
0
  0
BLOCK_RECORD
  5
21E7
330
1
100
AcDbSymbolTableRecord
100
AcDbBlockTableRecord
  2
*D75
340
0
  0
BLOCK_RECORD
  5
21F5
330
1
100
AcDbSymbolTableRecord
100
AcDbBlockTableRecord
  2
*D76
340
0
  0
BLOCK_RECORD
  5
2201
330
1
100
AcDbSymbolTableRecord
100
AcDbBlockTableRecord
  2
*D77
340
0
  0
BLOCK_RECORD
  5
2274
330
1
100
AcDbSymbolTableRecord
100
AcDbBlockTableRecord
  2
*D78
340
0
  0
BLOCK_RECORD
  5
23E3
330
1
100
AcDbSymbolTableRecord
100
AcDbBlockTableRecord
  2
*D80
340
0
  0
ENDTAB
  0
ENDSEC
  0
SECTION
  2
BLOCKS
  0
BLOCK
  5
20
330
1F
100
AcDbEntity
  8
0
100
AcDbBlockBegin
  2
*Model_Space
 70
     0
 10
0.0
 20
0.0
 30
0.0
  3
*Model_Space
  1

  0
ENDBLK
  5
21
330
1F
100
AcDbEntity
  8
0
100
AcDbBlockEnd
  0
BLOCK
  5
1C
330
1B
100
AcDbEntity
 67
     1
  8
0
100
AcDbBlockBegin
  2
*Paper_Space
 70
     0
 10
0.0
 20
0.0
 30
0.0
  3
*Paper_Space
  1

  0
ENDBLK
  5
1D
330
1B
100
AcDbEntity
 67
     1
  8
0
100
AcDbBlockEnd
  0
BLOCK
  5
24
330
23
100
AcDbEntity
 67
     1
  8
0
100
AcDbBlockBegin
  2
*Paper_Space0
 70
     0
 10
0.0
 20
0.0
 30
0.0
  3
*Paper_Space0
  1

  0
ENDBLK
  5
25
330
23
100
AcDbEntity
 67
     1
  8
0
100
AcDbBlockEnd
  0
BLOCK
  5
91B
330
919
100
AcDbEntity
  8
0
100
AcDbBlockBegin
  2
_DotSmall
 70
     0
 10
0.0
 20
0.0
 30
0.0
  3
_DotSmall
  1

  0
LWPOLYLINE
  5
91A
330
919
100
AcDbEntity
  8
0
  6
ByBlock
 62
     0
100
AcDbPolyline
 90
        2
 70
     1
 43
0.5
 10
-0.0625
 20
0.0
 42
1.0
 10
0.0625
 20
0.0
 42
1.0
  0
ENDBLK
  5
91C
330
919
100
AcDbEntity
  8
0
100
AcDbBlockEnd
  0
BLOCK
  5
92A
330
922
100
AcDbEntity
  8
0
100
AcDbBlockBegin
  2
base para cotas
 70
     0
 10
0.0
 20
0.0
 30
0.0
  3
base para cotas
  1

  0
LINE
  5
B36
330
922
100
AcDbEntity
  8
cotas
100
AcDbLine
 10
0.0
 20
-30.0
 30
0.0
 11
327.1260136525398
 21
-30.0
 31
0.0
  0
LINE
  5
B37
330
922
100
AcDbEntity
  8
cotas
100
AcDbLine
 10
0.0
 20
-25.0
 30
0.0
 11
327.1260136525398
 21
-25.0
 31
0.0
  0
LINE
  5
B38
330
922
100
AcDbEntity
  8
cotas
100
AcDbLine
 10
0.0
 20
-20.0
 30
0.0
 11
327.1260136525398
 21
-20.0
 31
0.0
  0
LINE
  5
B39
330
922
100
AcDbEntity
  8
cotas
100
AcDbLine
 10
0.0
 20
-15.0
 30
0.0
 11
327.1260136525398
 21
-15.0
 31
0.0
  0
LINE
  5
B3A
330
922
100
AcDbEntity
  8
cotas
100
AcDbLine
 10
0.0
 20
-10.0
 30
0.0
 11
327.1260136525398
 21
-10.0
 31
0.0
  0
LINE
  5
B3B
330
922
100
AcDbEntity
  8
cotas
100
AcDbLine
 10
0.0
 20
0.0
 30
0.0
 11
0.0
 21
-30.0
 31
0.0
  0
LINE
  5
B3C
330
922
100
AcDbEntity
  8
cotas
100
AcDbLine
 10
327.1260136525398
 20
-30.0
 30
0.0
 11
327.1260136525398
 21
0.0
 31
0.0
  0
ENDBLK
  5
92B
330
922
100
AcDbEntity
  8
0
100
AcDbBlockEnd
  0
BLOCK
  5
AAD
330
AA8
100
AcDbEntity
  8
0
100
AcDbBlockBegin
  2
_CLOSED
 70
     0
 10
0.0
 20
0.0
 30
0.0
  3
_CLOSED
  1

  0
LINE
  5
AA9
330
AA8
100
AcDbEntity
  8
0
100
AcDbLine
 10
-1.0
 20
0.166667
 30
0.0
 11
0.0
 21
0.0
 31
0.0
  0
LINE
  5
AAA
330
AA8
100
AcDbEntity
  8
0
100
AcDbLine
 10
0.0
 20
0.0
 30
0.0
 11
-1.0
 21
-0.166667
 31
0.0
  0
LINE
  5
AAB
330
AA8
100
AcDbEntity
  8
0
100
AcDbLine
 10
-1.0
 20
0.166667
 30
0.0
 11
-1.0
 21
-0.166667
 31
0.0
  0
LINE
  5
AAC
330
AA8
100
AcDbEntity
  8
0
100
AcDbLine
 10
0.0
 20
0.0
 30
0.0
 11
-1.0
 21
0.0
 31
0.0
  0
ENDBLK
  5
AAE
330
AA8
100
AcDbEntity
  8
0
100
AcDbBlockEnd
  0
BLOCK
  5
CF2
330
CA7
100
AcDbEntity
  8
0
100
AcDbBlockBegin
  2
guarnizione
 70
     0
 10
0.0
 20
0.0
 30
0.0
  3
guarnizione
  1

  0
LINE
  5
CA8
330
CA7
100
AcDbEntity
  8
0
100
AcDbLine
 10
12.0
 20
3.179312414488776
 30
0.0
 11
12.0
 21
2.699999999999818
 31
0.0
  0
LINE
  5
CA9
330
CA7
100
AcDbEntity
  8
0
100
AcDbLine
 10
9.5
 20
3.130475008156281
 30
0.0
 11
9.440776269158959
 21
2.734883615801663
 31
0.0
  0
ARC
  5
CAA
330
CA7
100
AcDbEntity
  8
0
100
AcDbCircle
 10
11.19999999999891
 20
3.179312414488776
 30
0.0
 40
0.8
100
AcDbArc
 50
0.0
 51
81.48552156587461
  0
ARC
  5
CAB
330
CA7
100
AcDbEntity
  8
0
100
AcDbCircle
 10
8.753809903480942
 20
1.523241254200002
 30
0.0
 40
0.1999999999999504
100
AcDbArc
 50
171.485521565823
 51
351.485521565823
  0
LINE
  5
CAC
330
CA7
100
AcDbEntity
  8
0
100
AcDbLine
 10
11.65558220186904
 20
-2.403306455734309
 30
0.0
 11
9.440776269158959
 21
-2.734883615802573
 31
0.0
  0
ARC
  5
CAD
330
CA7
100
AcDbEntity
  8
0
100
AcDbCircle
 10
8.753809903480942
 20
-1.523241254200911
 30
0.0
 40
0.1999999999999504
100
AcDbArc
 50
8.514478434176927
 51
188.5144784341769
  0
LINE
  5
CAE
330
CA7
100
AcDbEntity
  8
0
100
AcDbLine
 10
9.5
 20
-3.130475008157191
 30
0.0
 11
9.440776269158959
 21
-2.734883615802573
 31
0.0
  0
ARC
  5
CAF
330
CA7
100
AcDbEntity
  8
0
100
AcDbCircle
 10
11.69999999999891
 20
-2.699999999999818
 30
0.0
 40
0.3
100
AcDbArc
 50
0.0
 51
98.51447843412536
  0
ARC
  5
CB0
330
CA7
100
AcDbEntity
  8
0
100
AcDbCircle
 10
11.69999999999891
 20
2.699999999999818
 30
0.0
 40
0.3
100
AcDbArc
 50
261.4855215658746
 51
0.0
  0
LINE
  5
CB1
330
CA7
100
AcDbEntity
  8
0
100
AcDbLine
 10
11.65558220186904
 20
2.4033064557334
 30
0.0
 11
9.440776269158959
 21
2.734883615801663
 31
0.0
  0
LINE
  5
CB2
330
CA7
100
AcDbEntity
  8
0
100
AcDbLine
 10
8.807715063378054
 20
3.234116537129011
 30
0.0
 11
8.556014207302723
 21
1.552853119620522
 31
0.0
  0
LINE
  5
CB3
330
CA7
100
AcDbEntity
  8
0
100
AcDbLine
 10
9.203306455732672
 20
3.174892806287971
 30
0.0
 11
8.951605599657341
 21
1.493629388779481
 31
0.0
  0
LINE
  5
CB4
330
CA7
100
AcDbEntity
  8
0
100
AcDbLine
 10
6.681411329471302
 20
3.552444090400967
 30
0.0
 11
6.622187598630262
 21
3.15685269804544
 31
0.0
  0
ARC
  5
CB5
330
CA7
100
AcDbEntity
  8
0
100
AcDbCircle
 10
0.2999999999992724
 20
3.800000000000181
 30
0.0
 40
0.3
100
AcDbArc
 50
81.48552156587461
 51
180.0
  0
ARC
  5
CB6
330
CA7
100
AcDbEntity
  8
0
100
AcDbCircle
 10
1.042400829128382
 20
4.699999999999818
 30
0.0
 40
0.8
100
AcDbArc
 50
81.48552156587461
 51
90.0
  0
LINE
  5
CB7
330
CA7
100
AcDbEntity
  8
0
100
AcDbLine
 10
1.5
 20
3.923692082123125
 30
0.0
 11
0.3444177981309622
 21
4.09669354426569
 31
0.0
  0
LINE
  5
CB8
330
CA7
100
AcDbEntity
  8
0
100
AcDbLine
 10
1.5
 20
3.923692082123125
 30
0.0
 11
1.5
 21
3.099999999999454
 31
0.0
  0
LINE
  5
CB9
330
CA7
100
AcDbEntity
  8
0
100
AcDbLine
 10
1.5
 20
3.099999999999454
 30
0.0
 11
2.699999999998908
 21
3.099999999999454
 31
0.0
  0
LINE
  5
CBA
330
CA7
100
AcDbEntity
  8
0
100
AcDbLine
 10
2.699999999998908
 20
3.744040860223321
 30
0.0
 11
2.699999999998908
 21
3.099999999999454
 31
0.0
  0
LINE
  5
CBB
330
CA7
100
AcDbEntity
  8
0
100
AcDbLine
 10
6.622187598630262
 20
3.15685269804544
 30
0.0
 11
2.699999999998908
 21
3.744040860223321
 31
0.0
  0
LINE
  5
CBC
330
CA7
100
AcDbEntity
  8
0
100
AcDbLine
 10
1.5
 20
-3.100000000000363
 30
0.0
 11
2.699999999998908
 21
-3.100000000000363
 31
0.0
  0
LINE
  5
CBD
330
CA7
100
AcDbEntity
  8
0
100
AcDbLine
 10
11.31844746168099
 20
3.970495199198012
 30
0.0
 11
1.160848290810463
 21
5.491182784709053
 31
0.0
  0
LINE
  5
CBE
330
CA7
100
AcDbEntity
  8
0
100
AcDbLine
 10
9.5
 20
3.130475008156281
 30
0.0
 11
6.681411329471302
 21
3.552444090400967
 31
0.0
  0
ARC
  5
CBF
330
CA7
100
AcDbEntity
  8
0
100
AcDbCircle
 10
11.19999999999891
 20
-3.179312414488776
 30
0.0
 40
0.8
100
AcDbArc
 50
278.5144784341254
 51
0.0
  0
LINE
  5
CC0
330
CA7
100
AcDbEntity
  8
0
100
AcDbLine
 10
6.681411329471302
 20
-3.552444090400967
 30
0.0
 11
6.622187598630262
 21
-3.15685269804635
 31
0.0
  0
ARC
  5
CC1
330
CA7
100
AcDbEntity
  8
0
100
AcDbCircle
 10
0.2999999999992724
 20
-3.800000000000181
 30
0.0
 40
0.3
100
AcDbArc
 50
180.0
 51
278.5144784341254
  0
ARC
  5
CC2
330
CA7
100
AcDbEntity
  8
0
100
AcDbCircle
 10
1.042400829128382
 20
-4.699999999999818
 30
0.0
 40
0.8
100
AcDbArc
 50
270.0
 51
278.5144784341254
  0
LINE
  5
CC3
330
CA7
100
AcDbEntity
  8
0
100
AcDbLine
 10
0.3444177981309622
 20
-4.096693544266599
 30
0.0
 11
1.5
 21
-3.923692082124034
 31
0.0
  0
LINE
  5
CC4
330
CA7
100
AcDbEntity
  8
0
100
AcDbLine
 10
6.622187598630262
 20
-3.15685269804635
 30
0.0
 11
2.699999999998908
 21
-3.744040860224231
 31
0.0
  0
LINE
  5
CC5
330
CA7
100
AcDbEntity
  8
0
100
AcDbLine
 10
1.160848290810463
 20
-5.491182784709963
 30
0.0
 11
11.31844746168099
 21
-3.970495199198921
 31
0.0
  0
LINE
  5
CC6
330
CA7
100
AcDbEntity
  8
0
100
AcDbLine
 10
0.0
 20
3.800000000000181
 30
0.0
 11
0.0
 21
-3.800000000000181
 31
0.0
  0
LINE
  5
CC7
330
CA7
100
AcDbEntity
  8
0
100
AcDbLine
 10
12.0
 20
-2.699999999999818
 30
0.0
 11
12.0
 21
-3.179312414488776
 31
0.0
  0
LINE
  5
CC8
330
CA7
100
AcDbEntity
  8
0
100
AcDbLine
 10
2.699999999998908
 20
-3.100000000000363
 30
0.0
 11
2.699999999998908
 21
-3.744040860224231
 31
0.0
  0
LINE
  5
CC9
330
CA7
100
AcDbEntity
  8
0
100
AcDbLine
 10
1.5
 20
-3.100000000000363
 30
0.0
 11
1.5
 21
-3.923692082124034
 31
0.0
  0
LINE
  5
CCA
330
CA7
100
AcDbEntity
  8
0
100
AcDbLine
 10
9.5
 20
-3.130475008157191
 30
0.0
 11
6.681411329471302
 21
-3.552444090400967
 31
0.0
  0
LINE
  5
CCB
330
CA7
100
AcDbEntity
  8
0
100
AcDbLine
 10
9.203306455732672
 20
-3.174892806287971
 30
0.0
 11
8.951605599657341
 21
-1.493629388780391
 31
0.0
  0
LINE
  5
CCC
330
CA7
100
AcDbEntity
  8
0
100
AcDbLine
 10
8.807715063378054
 20
-3.234116537129011
 30
0.0
 11
8.556014207302723
 21
-1.552853119621431
 31
0.0
  0
LINE
  5
CCD
330
CA7
100
AcDbEntity
  8
0
100
AcDbLine
 10
-1.5
 20
5.5
 30
0.0
 11
-3.757359312881817
 21
5.5
 31
0.0
  0
ARC
  5
CCE
330
CA7
100
AcDbEntity
  8
0
100
AcDbCircle
 10
-2.5
 20
3.5
 30
0.0
 40
1.0
100
AcDbArc
 50
0.0
 51
90.0
  0
ARC
  5
CCF
330
CA7
100
AcDbEntity
  8
0
100
AcDbCircle
 10
-3.769781102879278
 20
4.149978862833449
 30
0.0
 40
0.75
100
AcDbArc
 50
47.16775949949599
 51
90.19499109987526
  0
ARC
  5
CD0
330
CA7
100
AcDbEntity
  8
0
100
AcDbCircle
 10
-2.75
 20
5.25
 30
0.0
 40
0.75
100
AcDbArc
 50
227.167759499496
 51
270.0
  0
LINE
  5
CD1
330
CA7
100
AcDbEntity
  8
0
100
AcDbLine
 10
-2.75
 20
4.5
 30
0.0
 11
-2.5
 21
4.5
 31
0.0
  0
LINE
  5
CD2
330
CA7
100
AcDbEntity
  8
0
100
AcDbLine
 10
-7.415254325502246
 20
3.064644661409147
 30
0.0
 11
-6.868629150101696
 21
3.611269837220788
 31
0.0
  0
ARC
  5
CD3
102
{ACAD_REACTORS
330
CED
102
}
330
CA7
100
AcDbEntity
  8
0
100
AcDbCircle
 10
-7.980939750059405
 20
2.569669913566031
 30
0.0
 40
0.2
100
AcDbArc
 50
45.0000001037625
 51
135.0000000719631
  0
ARC
  5
CD4
330
CA7
100
AcDbEntity
  8
0
100
AcDbCircle
 10
-3.757359312881817
 20
0.5
 30
0.0
 40
5.0
100
AcDbArc
 50
90.0
 51
135.0
  0
ARC
  5
CD5
330
CA7
100
AcDbEntity
  8
0
100
AcDbCircle
 10
-3.757359312881817
 20
0.5
 30
0.0
 40
4.4
100
AcDbArc
 50
90.19499109987526
 51
135.0
  0
ARC
  5
CD6
330
CA7
100
AcDbEntity
  8
0
100
AcDbCircle
 10
-6.814213563102384
 20
0.9786796633270569
 30
0.0
 40
0.75
100
AcDbArc
 50
314.9999999676111
 51
45.0
  0
ARC
  5
CD7
102
{ACAD_REACTORS
330
CED
102
}
330
CA7
100
AcDbEntity
  8
0
100
AcDbCircle
 10
-6.814213563102384
 20
0.9786796633270569
 30
0.0
 40
0.5
100
AcDbArc
 50
314.9999999676111
 51
45.0
  0
ARC
  5
CD8
330
CA7
100
AcDbEntity
  8
0
100
AcDbCircle
 10
-7.203122291144609
 20
2.852512627053329
 30
0.0
 40
0.3
100
AcDbArc
 50
135.0
 51
225.0000001112794
  0
LINE
  5
CD9
330
CA7
100
AcDbEntity
  8
0
100
AcDbLine
 10
-8.051650430128574
 20
3.276776694619002
 30
0.0
 11
-6.283883477519339
 21
1.509009749524921
 31
0.0
  0
LINE
  5
CDA
102
{ACAD_REACTORS
330
CED
102
}
330
CA7
100
AcDbEntity
  8
0
100
AcDbLine
 10
-7.839518394079277
 20
2.711091270059114
 30
0.0
 11
-6.460660172508141
 21
1.33223305392039
 31
0.0
  0
ARC
  5
CDB
330
CA7
100
AcDbEntity
  8
0
100
AcDbCircle
 10
-12.57713383280133
 20
-2.521498914058611
 30
0.0
 40
0.3
100
AcDbArc
 50
45.00000003552097
 51
135.0
  0
ARC
  5
CDC
102
{ACAD_REACTORS
330
CED
102
}
330
CA7
100
AcDbEntity
  8
0
100
AcDbCircle
 10
-12.29429112059733
 20
-1.743681468243266
 30
0.0
 40
0.2
100
AcDbArc
 50
135.0000000660675
 51
225.0000002990173
  0
LINE
  5
CDD
330
CA7
100
AcDbEntity
  8
0
100
AcDbLine
 10
-12.9899494936617
 20
-2.510050506339212
 30
0.0
 11
-12.78926586715715
 21
-2.309366879702793
 31
0.0
  0
LINE
  5
CDE
330
CA7
100
AcDbEntity
  8
0
100
AcDbLine
 10
-13.41421356237333
 20
-2.085786437626666
 30
0.0
 11
-7.292893218815152
 21
4.035533905932425
 31
0.0
  0
LINE
  5
CDF
102
{ACAD_REACTORS
330
CED
102
}
330
CA7
100
AcDbEntity
  8
0
100
AcDbLine
 10
-12.43571247699765
 20
-1.602260112168551
 30
0.0
 11
-8.122361106474272
 21
2.711091269625285
 31
0.0
  0
ARC
  5
CE0
330
CA7
100
AcDbEntity
  8
0
100
AcDbCircle
 10
-2.5
 20
-3.5
 30
0.0
 40
1.0
100
AcDbArc
 50
270.0
 51
0.0
  0
ARC
  5
CE1
330
CA7
100
AcDbEntity
  8
0
100
AcDbCircle
 10
-7.519803902720013
 20
-4.150000000000545
 30
0.0
 40
0.75
100
AcDbArc
 50
270.0
 51
312.8334280660476
  0
ARC
  5
CE2
330
CA7
100
AcDbEntity
  8
0
100
AcDbCircle
 10
-6.5
 20
-5.25
 30
0.0
 40
0.75
100
AcDbArc
 50
90.0
 51
132.8334280660476
  0
LINE
  5
CE3
330
CA7
100
AcDbEntity
  8
0
100
AcDbLine
 10
-2.5
 20
-4.5
 30
0.0
 11
-6.5
 21
-4.5
 31
0.0
  0
ARC
  5
CE4
330
CA7
100
AcDbEntity
  8
0
100
AcDbCircle
 10
-10.7033008647486
 20
-2.910407640086305
 30
0.0
 40
0.75
100
AcDbArc
 50
225.0
 51
315.0
  0
ARC
  5
CE5
102
{ACAD_REACTORS
330
CED
102
}
330
CA7
100
AcDbEntity
  8
0
100
AcDbCircle
 10
-10.7033008647486
 20
-2.910407640086305
 30
0.0
 40
0.5
100
AcDbArc
 50
225.0
 51
315.0
  0
LINE
  5
CE6
330
CA7
100
AcDbEntity
  8
0
100
AcDbLine
 10
-1.5
 20
-5.5
 30
0.0
 11
-12.0
 21
-5.5
 31
0.0
  0
LINE
  5
CE7
330
CA7
100
AcDbEntity
  8
0
100
AcDbLine
 10
-7.519803902720013
 20
-4.900000000000545
 30
0.0
 11
-12.0
 21
-4.900000000000545
 31
0.0
  0
ARC
  5
CE8
330
CA7
100
AcDbEntity
  8
0
100
AcDbCircle
 10
-12.0
 20
-3.5
 30
0.0
 40
2.0
100
AcDbArc
 50
135.0
 51
270.0
  0
LINE
  5
CE9
330
CA7
100
AcDbEntity
  8
0
100
AcDbLine
 10
-10.17297077881812
 20
-3.440737725935832
 30
0.0
 11
-6.283883477372
 21
0.4483495772774404
 31
0.0
  0
ARC
  5
CEA
330
CA7
100
AcDbEntity
  8
0
100
AcDbCircle
 10
-12.0
 20
-3.5
 30
0.0
 40
1.399999999999999
100
AcDbArc
 50
135.0
 51
270.0
  0
LINE
  5
CEB
330
CA7
100
AcDbEntity
  8
0
100
AcDbLine
 10
-13.00139790187859
 20
-1.672970777132832
 30
0.0
 11
-11.23363095093009
 21
-3.440737725682993
 31
0.0
  0
LINE
  5
CEC
330
CA7
100
AcDbEntity
  8
0
100
AcDbLine
 10
-1.5
 20
3.5
 30
0.0
 11
-1.5
 21
-3.5
 31
0.0
  0
HATCH
  5
CED
330
CA7
100
AcDbEntity
  8
0
100
AcDbHatch
 10
0.0
 20
0.0
 30
0.0
210
0.0
220
0.0
230
1.0
  2
ANSI31
 70
     0
 71
     1
 91
        1
 92
        7
 72
     1
 73
     1
 93
        8
 10
-6.460660173204814
 20
1.332233054616153
 42
0.0
 10
-7.839518394101105
 20
2.711091270081851
 42
0.414213562178905
 10
-8.122361106481548
 20
2.711091269618009
 42
0.0
 10
-12.43571247701766
 20
-1.602260112190379
 42
0.4142135636146872
 10
-12.43571247604996
 20
-1.885102825264766
 42
0.0
 10
-11.05685425338015
 20
-3.263961032639599
 42
0.4142135608152901
 10
-10.34974747407432
 20
-3.263961030598693
 42
0.0
 10
-6.460660172428106
 20
0.625126272813759
 42
0.4142135628833784
 97
        8
330
CDA
330
CD3
330
CDF
330
CDC
330
CEF
330
CE5
330
CEE
330
CD7
 75
     0
 76
     1
 52
45.0
 41
0.25
 77
     0
 78
     1
 53
90.0
 43
-276.1145346408611
 44
-395.2719013892401
 45
-0.79375
 46
0.0000000000000002
 79
     0
 47
0.0364805528584695
 98
        1
 10
-7.399477738399582
 20
0.8532363732892918
  0
LINE
  5
CEE
102
{ACAD_REACTORS
330
CED
102
}
330
CA7
100
AcDbEntity
  8
0
100
AcDbLine
 10
-10.34974747415435
 20
-3.263961030678729
 30
0.0
 11
-6.46066017270823
 21
0.6251262725336347
 31
0.0
  0
LINE
  5
CEF
102
{ACAD_REACTORS
330
CED
102
}
330
CA7
100
AcDbEntity
  8
0
100
AcDbLine
 10
-12.43571247609543
 20
-1.885102825218382
 30
0.0
 11
-11.05685425534102
 21
-3.263961030678729
 31
0.0
  0
LINE
  5
CF0
330
CA7
100
AcDbEntity
  8
0
100
AcDbLine
 10
-1.5
 20
5.5
 30
0.0
 11
1.042400829128382
 21
5.5
 31
0.0
  0
LINE
  5
CF1
330
CA7
100
AcDbEntity
  8
0
100
AcDbLine
 10
-1.5
 20
-5.5
 30
0.0
 11
1.042400829128382
 21
-5.5
 31
0.0
  0
ENDBLK
  5
CF3
330
CA7
100
AcDbEntity
  8
0
100
AcDbBlockEnd
  0
BLOCK
  5
2191
330
2187
100
AcDbEntity
  8
0
100
AcDbBlockBegin
  2
*D67
 70
     1
 10
0.0
 20
0.0
 30
0.0
  3
*D67
  1

  0
LINE
  5
22C1
330
2187
100
AcDbEntity
  8
quote
100
AcDbLine
 10
3125.10716768842
 20
1428.443254003544
 30
0.0
 11
3130.10716768842
 21
1428.443254003544
 31
0.0
  0
LINE
  5
22C2
330
2187
100
AcDbEntity
  8
quote
100
AcDbLine
 10
3095.517685406534
 20
1398.943254002578
 30
0.0
 11
3130.10716768842
 21
1398.943254002578
 31
0.0
  0
LINE
  5
22C3
330
2187
100
AcDbEntity
  8
quote
100
AcDbLine
 10
3129.10716768842
 20
1426.443254003544
 30
0.0
 11
3129.10716768842
 21
1400.943254002578
 31
0.0
  0
SOLID
  5
22C4
330
2187
100
AcDbEntity
  8
quote
100
AcDbTrace
 10
3128.773834355087
 20
1426.443254003544
 30
0.0
 11
3129.440501021754
 21
1426.443254003544
 31
0.0
 12
3129.10716768842
 22
1428.443254003544
 32
0.0
 13
3129.10716768842
 23
1428.443254003544
 33
0.0
  0
SOLID
  5
22C5
330
2187
100
AcDbEntity
  8
quote
100
AcDbTrace
 10
3128.773834355087
 20
1400.943254002578
 30
0.0
 11
3129.440501021754
 21
1400.943254002578
 31
0.0
 12
3129.10716768842
 22
1398.943254002578
 32
0.0
 13
3129.10716768842
 23
1398.943254002578
 33
0.0
  0
MTEXT
  5
22C6
330
2187
100
AcDbEntity
  8
quote
100
AcDbMText
 10
3127.065529004739
 20
1413.693254003061
 30
0.0
 40
2.0
 41
0.0
 71
     5
 72
     1
  1
295
  7
SANINDUSA
 11
0.0000000000000001
 21
1.0
 31
0.0
 73
     1
 44
1.0
1001
ACAD
1000
MTEXTBEGIN
1070
    73
1070
     1
1070
    44
1040
1.0
1070
    74
1070
     0
1000
MTEXTEND
  0
POINT
  5
22C7
330
2187
100
AcDbEntity
  8
Defpoints
 62
     0
100
AcDbPoint
 10
3124.10716768842
 20
1428.443254003544
 30
0.0000001793827793
  0
POINT
  5
22C8
330
2187
100
AcDbEntity
  8
Defpoints
 62
     0
100
AcDbPoint
 10
3094.517685406534
 20
1398.943254002578
 30
0.0000000000032074
  0
POINT
  5
22C9
330
2187
100
AcDbEntity
  8
Defpoints
 62
     0
100
AcDbPoint
 10
3129.10716768842
 20
1398.943254002578
 30
0.0
  0
ENDBLK
  5
2192
330
2187
100
AcDbEntity
  8
0
100
AcDbBlockEnd
  0
BLOCK
  5
219D
330
2193
100
AcDbEntity
  8
0
100
AcDbBlockBegin
  2
*D68
 70
     1
 10
0.0
 20
0.0
 30
0.0
  3
*D68
  1

  0
LINE
  5
2216
330
2193
100
AcDbEntity
  8
quote
100
AcDbLine
 10
3078.28716768842
 20
1429.443254003544
 30
0.0
 11
3078.28716768842
 21
1434.443254003544
 31
0.0
  0
LINE
  5
2217
330
2193
100
AcDbEntity
  8
quote
100
AcDbLine
 10
3124.10716768842
 20
1429.443254003545
 30
0.0
 11
3124.10716768842
 21
1434.443254003544
 31
0.0
  0
LINE
  5
2218
330
2193
100
AcDbEntity
  8
quote
100
AcDbLine
 10
3080.28716768842
 20
1433.443254003544
 30
0.0
 11
3122.10716768842
 21
1433.443254003544
 31
0.0
  0
SOLID
  5
2219
330
2193
100
AcDbEntity
  8
quote
100
AcDbTrace
 10
3080.28716768842
 20
1433.776587336877
 30
0.0
 11
3080.28716768842
 21
1433.109920670211
 31
0.0
 12
3078.28716768842
 22
1433.443254003544
 32
0.0
 13
3078.28716768842
 23
1433.443254003544
 33
0.0
  0
SOLID
  5
221A
330
2193
100
AcDbEntity
  8
quote
100
AcDbTrace
 10
3122.10716768842
 20
1433.776587336877
 30
0.0
 11
3122.10716768842
 21
1433.109920670211
 31
0.0
 12
3124.10716768842
 22
1433.443254003544
 32
0.0
 13
3124.10716768842
 23
1433.443254003544
 33
0.0
  0
MTEXT
  5
221B
330
2193
100
AcDbEntity
  8
quote
100
AcDbMText
 10
3101.19716768842
 20
1435.714577039139
 30
0.0
 40
2.0
 41
0.0
 71
     5
 72
     1
  1
458,2
  7
SANINDUSA
 73
     1
 44
1.0
1001
ACAD
1000
MTEXTBEGIN
1070
    73
1070
     1
1070
    44
1040
1.0
1070
    74
1070
     0
1000
MTEXTEND
  0
POINT
  5
221C
330
2193
100
AcDbEntity
  8
Defpoints
 62
     0
100
AcDbPoint
 10
3078.28716768842
 20
1428.443254003544
 30
0.0
  0
POINT
  5
221D
330
2193
100
AcDbEntity
  8
Defpoints
 62
     0
100
AcDbPoint
 10
3124.10716768842
 20
1428.443254003545
 30
0.0
  0
POINT
  5
221E
330
2193
100
AcDbEntity
  8
Defpoints
 62
     0
100
AcDbPoint
 10
3124.10716768842
 20
1433.443254003544
 30
0.0
  0
ENDBLK
  5
219E
330
2193
100
AcDbEntity
  8
0
100
AcDbBlockEnd
  0
BLOCK
  5
21A9
330
219F
100
AcDbEntity
  8
0
100
AcDbBlockBegin
  2
*D69
 70
     1
 10
0.0
 20
0.0
 30
0.0
  3
*D69
  1

  0
LINE
  5
221F
330
219F
100
AcDbEntity
  8
quote
100
AcDbLine
 10
3017.98716768842
 20
1429.443254003545
 30
0.0
 11
3017.98716768842
 21
1434.443254003544
 31
0.0
  0
LINE
  5
2220
330
219F
100
AcDbEntity
  8
quote
100
AcDbLine
 10
3077.98716768842
 20
1429.443254003544
 30
0.0
 11
3077.98716768842
 21
1434.443254003544
 31
0.0
  0
LINE
  5
2221
330
219F
100
AcDbEntity
  8
quote
100
AcDbLine
 10
3019.98716768842
 20
1433.443254003544
 30
0.0
 11
3075.98716768842
 21
1433.443254003544
 31
0.0
  0
SOLID
  5
2222
330
219F
100
AcDbEntity
  8
quote
100
AcDbTrace
 10
3019.98716768842
 20
1433.776587336877
 30
0.0
 11
3019.98716768842
 21
1433.109920670211
 31
0.0
 12
3017.98716768842
 22
1433.443254003544
 32
0.0
 13
3017.98716768842
 23
1433.443254003544
 33
0.0
  0
SOLID
  5
2223
330
219F
100
AcDbEntity
  8
quote
100
AcDbTrace
 10
3075.98716768842
 20
1433.776587336877
 30
0.0
 11
3075.98716768842
 21
1433.109920670211
 31
0.0
 12
3077.98716768842
 22
1433.443254003544
 32
0.0
 13
3077.98716768842
 23
1433.443254003544
 33
0.0
  0
MTEXT
  5
2224
330
219F
100
AcDbEntity
  8
quote
100
AcDbMText
 10
3047.98716768842
 20
1435.484221095552
 30
0.0
 40
2.0
 41
0.0
 71
     5
 72
     1
  1
600
  7
SANINDUSA
 73
     1
 44
1.0
1001
ACAD
1000
MTEXTBEGIN
1070
    73
1070
     1
1070
    44
1040
1.0
1070
    74
1070
     0
1000
MTEXTEND
  0
POINT
  5
2225
330
219F
100
AcDbEntity
  8
Defpoints
 62
     0
100
AcDbPoint
 10
3017.98716768842
 20
1428.443254003545
 30
0.0
  0
POINT
  5
2226
330
219F
100
AcDbEntity
  8
Defpoints
 62
     0
100
AcDbPoint
 10
3077.98716768842
 20
1428.443254003544
 30
0.0
  0
POINT
  5
2227
330
219F
100
AcDbEntity
  8
Defpoints
 62
     0
100
AcDbPoint
 10
3077.98716768842
 20
1433.443254003544
 30
0.0
  0
ENDBLK
  5
21AA
330
219F
100
AcDbEntity
  8
0
100
AcDbBlockEnd
  0
BLOCK
  5
21B5
330
21AB
100
AcDbEntity
  8
0
100
AcDbBlockBegin
  2
*D70
 70
     1
 10
0.0
 20
0.0
 30
0.0
  3
*D70
  1

  0
LINE
  5
22AF
330
21AB
100
AcDbEntity
  8
quote
100
AcDbLine
 10
3078.439817802323
 20
1208.248799483226
 30
0.0000000000000025
 11
3078.439817802323
 21
1219.418799483226
 31
0.0000000000000025
  0
LINE
  5
22B0
330
21AB
100
AcDbEntity
  8
quote
100
AcDbLine
 10
3124.256949860443
 20
1209.418799483226
 30
0.0000000000000025
 11
3124.256949860443
 21
1219.418799483226
 31
0.0000000000000025
  0
LINE
  5
22B1
330
21AB
100
AcDbEntity
  8
quote
100
AcDbLine
 10
3080.439817802323
 20
1218.418799483226
 30
0.0000000000000025
 11
3122.256949860443
 21
1218.418799483226
 31
0.0000000000000025
  0
SOLID
  5
22B2
330
21AB
100
AcDbEntity
  8
quote
100
AcDbTrace
 10
3080.439817802323
 20
1218.75213281656
 30
0.0000000000000025
 11
3080.439817802323
 21
1218.085466149893
 31
0.0000000000000025
 12
3078.439817802323
 22
1218.418799483226
 32
0.0000000000000025
 13
3078.439817802323
 23
1218.418799483226
 33
0.0000000000000025
  0
SOLID
  5
22B3
330
21AB
100
AcDbEntity
  8
quote
100
AcDbTrace
 10
3122.256949860443
 20
1218.75213281656
 30
0.0000000000000025
 11
3122.256949860443
 21
1218.085466149893
 31
0.0000000000000025
 12
3124.256949860443
 22
1218.418799483226
 32
0.0000000000000025
 13
3124.256949860443
 23
1218.418799483226
 33
0.0000000000000025
  0
MTEXT
  5
22B4
330
21AB
100
AcDbEntity
  8
quote
100
AcDbMText
 10
3101.348383831383
 20
1220.690122518821
 30
0.0000000000000025
 40
2.0
 41
0.0
 71
     5
 72
     1
  1
458,2
  7
SANINDUSA
 73
     1
 44
1.0
1001
ACAD
1000
MTEXTBEGIN
1070
    73
1070
     1
1070
    44
1040
1.0
1070
    74
1070
     0
1000
MTEXTEND
  0
POINT
  5
22B5
330
21AB
100
AcDbEntity
  8
Defpoints
 62
     0
100
AcDbPoint
 10
3078.439817802323
 20
1207.248799483226
 30
0.0000000000000049
  0
POINT
  5
22B6
330
21AB
100
AcDbEntity
  8
Defpoints
 62
     0
100
AcDbPoint
 10
3124.256949860443
 20
1208.418799483226
 30
0.0000000000000049
  0
POINT
  5
22B7
330
21AB
100
AcDbEntity
  8
Defpoints
 62
     0
100
AcDbPoint
 10
3124.256949860443
 20
1218.418799483226
 30
0.0000000000000025
  0
ENDBLK
  5
21B6
330
21AB
100
AcDbEntity
  8
0
100
AcDbBlockEnd
  0
BLOCK
  5
21C1
330
21B7
100
AcDbEntity
  8
0
100
AcDbBlockBegin
  2
*D71
 70
     1
 10
0.0
 20
0.0
 30
0.0
  3
*D71
  1

  0
LINE
  5
22A6
330
21B7
100
AcDbEntity
  8
quote
100
AcDbLine
 10
3078.439817802323
 20
1208.248799483226
 30
0.0000000000000066
 11
3078.439817802323
 21
1214.418799483226
 31
0.0000000000000066
  0
LINE
  5
22A7
330
21B7
100
AcDbEntity
  8
quote
100
AcDbLine
 10
3119.759747484452
 20
1208.248799483226
 30
0.0000000000000066
 11
3119.759747484452
 21
1214.418799483226
 31
0.0000000000000066
  0
LINE
  5
22A8
330
21B7
100
AcDbEntity
  8
quote
100
AcDbLine
 10
3080.439817802323
 20
1213.418799483227
 30
0.0000000000000066
 11
3117.759747484452
 21
1213.418799483227
 31
0.0000000000000066
  0
SOLID
  5
22A9
330
21B7
100
AcDbEntity
  8
quote
100
AcDbTrace
 10
3080.439817802323
 20
1213.75213281656
 30
0.0000000000000066
 11
3080.439817802323
 21
1213.085466149893
 31
0.0000000000000066
 12
3078.439817802323
 22
1213.418799483227
 32
0.0000000000000066
 13
3078.439817802323
 23
1213.418799483227
 33
0.0000000000000066
  0
SOLID
  5
22AA
330
21B7
100
AcDbEntity
  8
quote
100
AcDbTrace
 10
3117.759747484452
 20
1213.75213281656
 30
0.0000000000000066
 11
3117.759747484452
 21
1213.085466149893
 31
0.0000000000000066
 12
3119.759747484452
 22
1213.418799483227
 32
0.0000000000000066
 13
3119.759747484452
 23
1213.418799483227
 33
0.0000000000000066
  0
MTEXT
  5
22AB
330
21B7
100
AcDbEntity
  8
quote
100
AcDbMText
 10
3099.099782643387
 20
1215.688107743804
 30
0.0000000000000066
 40
2.0
 41
0.0
 71
     5
 72
     1
  1
413,2
  7
SANINDUSA
 73
     1
 44
1.0
1001
ACAD
1000
MTEXTBEGIN
1070
    73
1070
     1
1070
    44
1040
1.0
1070
    74
1070
     0
1000
MTEXTEND
  0
POINT
  5
22AC
330
21B7
100
AcDbEntity
  8
Defpoints
 62
     0
100
AcDbPoint
 10
3078.439817802323
 20
1207.248799483226
 30
0.0000000000000049
  0
POINT
  5
22AD
330
21B7
100
AcDbEntity
  8
Defpoints
 62
     0
100
AcDbPoint
 10
3119.759747484452
 20
1207.248799483226
 30
-0.0000000054558663
  0
POINT
  5
22AE
330
21B7
100
AcDbEntity
  8
Defpoints
 62
     0
100
AcDbPoint
 10
3119.759747484452
 20
1213.418799483227
 30
0.0000000000000066
  0
ENDBLK
  5
21C2
330
21B7
100
AcDbEntity
  8
0
100
AcDbBlockEnd
  0
BLOCK
  5
21CD
330
21C3
100
AcDbEntity
  8
0
100
AcDbBlockBegin
  2
*D72
 70
     1
 10
0.0
 20
0.0
 30
0.0
  3
*D72
  1

  0
LINE
  5
229D
330
21C3
100
AcDbEntity
  8
quote
100
AcDbLine
 10
3078.139817802322
 20
1208.248800150791
 30
0.0000000000000025
 11
3078.139817802322
 21
1214.418799483226
 31
0.0000000000000025
  0
LINE
  5
229E
330
21C3
100
AcDbEntity
  8
quote
100
AcDbLine
 10
3018.139817802322
 20
1208.248800150792
 30
0.0000000000000025
 11
3018.139817802322
 21
1214.418799483226
 31
0.0000000000000025
  0
LINE
  5
229F
330
21C3
100
AcDbEntity
  8
quote
100
AcDbLine
 10
3076.139817802323
 20
1213.418799483227
 30
0.0000000000000025
 11
3020.139817802323
 21
1213.418799483227
 31
0.0000000000000025
  0
SOLID
  5
22A0
330
21C3
100
AcDbEntity
  8
quote
100
AcDbTrace
 10
3076.139817802323
 20
1213.75213281656
 30
0.0000000000000025
 11
3076.139817802323
 21
1213.085466149893
 31
0.0000000000000025
 12
3078.139817802322
 22
1213.418799483227
 32
0.0000000000000025
 13
3078.139817802322
 23
1213.418799483227
 33
0.0000000000000025
  0
SOLID
  5
22A1
330
21C3
100
AcDbEntity
  8
quote
100
AcDbTrace
 10
3020.139817802323
 20
1213.75213281656
 30
0.0000000000000025
 11
3020.139817802323
 21
1213.085466149893
 31
0.0000000000000025
 12
3018.139817802322
 22
1213.418799483227
 32
0.0000000000000025
 13
3018.139817802322
 23
1213.418799483227
 33
0.0000000000000025
  0
MTEXT
  5
22A2
330
21C3
100
AcDbEntity
  8
quote
100
AcDbMText
 10
3048.139817802323
 20
1215.459766575234
 30
0.0000000000000025
 40
2.0
 41
0.0
 71
     5
 72
     1
  1
600
  7
SANINDUSA
 73
     1
 44
1.0
1001
ACAD
1000
MTEXTBEGIN
1070
    73
1070
     1
1070
    44
1040
1.0
1070
    74
1070
     0
1000
MTEXTEND
  0
POINT
  5
22A3
330
21C3
100
AcDbEntity
  8
Defpoints
 62
     0
100
AcDbPoint
 10
3078.139817802322
 20
1207.248800150791
 30
0.0000000000000025
  0
POINT
  5
22A4
330
21C3
100
AcDbEntity
  8
Defpoints
 62
     0
100
AcDbPoint
 10
3018.139817802322
 20
1207.248800150792
 30
0.0000000000000025
  0
POINT
  5
22A5
330
21C3
100
AcDbEntity
  8
Defpoints
 62
     0
100
AcDbPoint
 10
3018.139817802322
 20
1213.418799483227
 30
0.0000000000000025
  0
ENDBLK
  5
21CE
330
21C3
100
AcDbEntity
  8
0
100
AcDbBlockEnd
  0
BLOCK
  5
21D9
330
21CF
100
AcDbEntity
  8
0
100
AcDbBlockBegin
  2
*D73
 70
     1
 10
0.0
 20
0.0
 30
0.0
  3
*D73
  1

  0
LINE
  5
2243
330
21CF
100
AcDbEntity
  8
quote
100
AcDbLine
 10
3014.30716768842
 20
1428.44325400354
 30
0.0
 11
3009.30716768842
 21
1428.44325400354
 31
0.0
  0
LINE
  5
2244
330
21CF
100
AcDbEntity
  8
quote
100
AcDbLine
 10
3013.35018206178
 20
1243.443254003544
 30
0.0
 11
3009.30716768842
 21
1243.443254003544
 31
0.0
  0
LINE
  5
2245
330
21CF
100
AcDbEntity
  8
quote
100
AcDbLine
 10
3010.30716768842
 20
1426.44325400354
 30
0.0
 11
3010.30716768842
 21
1245.443254003544
 31
0.0
  0
SOLID
  5
2246
330
21CF
100
AcDbEntity
  8
quote
100
AcDbTrace
 10
3009.973834355087
 20
1426.44325400354
 30
0.0
 11
3010.640501021754
 21
1426.44325400354
 31
0.0
 12
3010.30716768842
 22
1428.44325400354
 32
0.0
 13
3010.30716768842
 23
1428.44325400354
 33
0.0
  0
SOLID
  5
2247
330
21CF
100
AcDbEntity
  8
quote
100
AcDbTrace
 10
3009.973834355087
 20
1245.443254003544
 30
0.0
 11
3010.640501021754
 21
1245.443254003544
 31
0.0
 12
3010.30716768842
 22
1243.443254003544
 32
0.0
 13
3010.30716768842
 23
1243.443254003544
 33
0.0
  0
MTEXT
  5
2248
330
21CF
100
AcDbEntity
  8
quote
100
AcDbMText
 10
3008.261499454706
 20
1335.943254003543
 30
0.0
 40
2.0
 41
0.0
 71
     5
 72
     1
  1
1850
  7
SANINDUSA
 11
0.0000000000000001
 21
1.0
 31
0.0
 73
     1
 44
1.0
1001
ACAD
1000
MTEXTBEGIN
1070
    73
1070
     1
1070
    44
1040
1.0
1070
    74
1070
     0
1000
MTEXTEND
  0
POINT
  5
2249
330
21CF
100
AcDbEntity
  8
Defpoints
 62
     0
100
AcDbPoint
 10
3015.30716768842
 20
1428.44325400354
 30
0.0
  0
POINT
  5
224A
330
21CF
100
AcDbEntity
  8
Defpoints
 62
     0
100
AcDbPoint
 10
3014.35018206178
 20
1243.443254003544
 30
0.0
  0
POINT
  5
224B
330
21CF
100
AcDbEntity
  8
Defpoints
 62
     0
100
AcDbPoint
 10
3010.30716768842
 20
1243.443254003544
 30
0.0
  0
ENDBLK
  5
21DA
330
21CF
100
AcDbEntity
  8
0
100
AcDbBlockEnd
  0
BLOCK
  5
21E5
330
21DB
100
AcDbEntity
  8
0
100
AcDbBlockBegin
  2
*D74
 70
     1
 10
0.0
 20
0.0
 30
0.0
  3
*D74
  1

  0
LINE
  5
224C
330
21DB
100
AcDbEntity
  8
quote
100
AcDbLine
 10
3036.819283993975
 20
1428.443254003544
 30
0.0
 11
3054.45654218129
 21
1428.443254003544
 31
0.0
  0
LINE
  5
224D
330
21DB
100
AcDbEntity
  8
quote
100
AcDbLine
 10
3036.819283993974
 20
1244.443254003545
 30
0.0
 11
3054.45654218129
 21
1244.443254003545
 31
0.0
  0
LINE
  5
224E
330
21DB
100
AcDbEntity
  8
quote
100
AcDbLine
 10
3053.45654218129
 20
1426.443254003544
 30
0.0
 11
3053.45654218129
 21
1246.443254003544
 31
0.0
  0
SOLID
  5
224F
330
21DB
100
AcDbEntity
  8
quote
100
AcDbTrace
 10
3053.123208847956
 20
1426.443254003544
 30
0.0
 11
3053.789875514623
 21
1426.443254003544
 31
0.0
 12
3053.45654218129
 22
1428.443254003544
 32
0.0
 13
3053.45654218129
 23
1428.443254003544
 33
0.0
  0
SOLID
  5
2250
330
21DB
100
AcDbEntity
  8
quote
100
AcDbTrace
 10
3053.123208847956
 20
1246.443254003544
 30
0.0
 11
3053.789875514623
 21
1246.443254003544
 31
0.0
 12
3053.45654218129
 22
1244.443254003545
 32
0.0
 13
3053.45654218129
 23
1244.443254003545
 33
0.0
  0
MTEXT
  5
2251
330
21DB
100
AcDbEntity
  8
quote
100
AcDbMText
 10
3051.410873947575
 20
1336.443254003545
 30
0.0
 40
2.0
 41
0.0
 71
     5
 72
     1
  1
1840
  7
SANINDUSA
 11
0.0000000000000001
 21
1.0
 31
0.0
 73
     1
 44
1.0
1001
ACAD
1000
MTEXTBEGIN
1070
    73
1070
     1
1070
    44
1040
1.0
1070
    74
1070
     0
1000
MTEXTEND
  0
POINT
  5
2252
330
21DB
100
AcDbEntity
  8
Defpoints
 62
     0
100
AcDbPoint
 10
3035.819283993975
 20
1428.443254003544
 30
0.0
  0
POINT
  5
2253
330
21DB
100
AcDbEntity
  8
Defpoints
 62
     0
100
AcDbPoint
 10
3035.819283993975
 20
1244.443254003545
 30
0.0
  0
POINT
  5
2254
330
21DB
100
AcDbEntity
  8
Defpoints
 62
     0
100
AcDbPoint
 10
3053.45654218129
 20
1244.443254003545
 30
0.0
  0
ENDBLK
  5
21E6
330
21DB
100
AcDbEntity
  8
0
100
AcDbBlockEnd
  0
BLOCK
  5
21F3
330
21E7
100
AcDbEntity
  8
0
100
AcDbBlockBegin
  2
*D75
 70
     1
 10
0.0
 20
0.0
 30
0.0
  3
*D75
  1

  0
LINE
  5
2255
330
21E7
100
AcDbEntity
  8
quote
100
AcDbLine
 10
3049.285095334731
 20
1244.443254003545
 30
0.0
 11
3064.45654218129
 21
1244.443254003545
 31
0.0
  0
LINE
  5
2256
330
21E7
100
AcDbEntity
  8
quote
100
AcDbLine
 10
3046.506260841856
 20
1243.443254003545
 30
0.0
 11
3064.45654218129
 21
1243.443254003545
 31
0.0
  0
LINE
  5
2257
330
21E7
100
AcDbEntity
  8
quote
100
AcDbLine
 10
3063.45654218129
 20
1246.443254003545
 30
0.0
 11
3063.45654218129
 21
1248.443254003545
 31
0.0
  0
LINE
  5
2258
330
21E7
100
AcDbEntity
  8
quote
100
AcDbLine
 10
3063.45654218129
 20
1241.443254003545
 30
0.0
 11
3063.45654218129
 21
1234.500339295687
 31
0.0
  0
LINE
  5
2259
330
21E7
100
AcDbEntity
  8
quote
100
AcDbLine
 10
3063.45654218129
 20
1244.443254003545
 30
0.0
 11
3063.45654218129
 21
1243.443254003545
 31
0.0
  0
SOLID
  5
225A
330
21E7
100
AcDbEntity
  8
quote
100
AcDbTrace
 10
3063.123208847956
 20
1246.443254003545
 30
0.0
 11
3063.789875514623
 21
1246.443254003545
 31
0.0
 12
3063.45654218129
 22
1244.443254003545
 32
0.0
 13
3063.45654218129
 23
1244.443254003545
 33
0.0
  0
SOLID
  5
225B
330
21E7
100
AcDbEntity
  8
quote
100
AcDbTrace
 10
3063.123208847956
 20
1241.443254003545
 30
0.0
 11
3063.789875514623
 21
1241.443254003545
 31
0.0
 12
3063.45654218129
 22
1243.443254003545
 32
0.0
 13
3063.45654218129
 23
1243.443254003545
 33
0.0
  0
MTEXT
  5
225C
330
21E7
100
AcDbEntity
  8
quote
100
AcDbMText
 10
3061.415575089281
 20
1236.971796649616
 30
0.0
 40
2.0
 41
0.0
 71
     5
 72
     1
  1
10
  7
SANINDUSA
 11
0.0000000000000001
 21
1.0
 31
0.0
 73
     1
 44
1.0
1001
ACAD
1000
MTEXTBEGIN
1070
    73
1070
     1
1070
    44
1040
1.0
1070
    74
1070
     0
1000
MTEXTEND
  0
POINT
  5
225D
330
21E7
100
AcDbEntity
  8
Defpoints
 62
     0
100
AcDbPoint
 10
3048.285095334731
 20
1244.443254003545
 30
-0.0000001793795719
  0
POINT
  5
225E
330
21E7
100
AcDbEntity
  8
Defpoints
 62
     0
100
AcDbPoint
 10
3045.506260841856
 20
1243.443254003545
 30
0.0
  0
POINT
  5
225F
330
21E7
100
AcDbEntity
  8
Defpoints
 62
     0
100
AcDbPoint
 10
3063.45654218129
 20
1243.443254003545
 30
0.0
  0
ENDBLK
  5
21F4
330
21E7
100
AcDbEntity
  8
0
100
AcDbBlockEnd
  0
BLOCK
  5
21FF
330
21F5
100
AcDbEntity
  8
0
100
AcDbBlockBegin
  2
*D76
 70
     1
 10
0.0
 20
0.0
 30
0.0
  3
*D76
  1

  0
LINE
  5
2260
330
21F5
100
AcDbEntity
  8
quote
100
AcDbLine
 10
3062.45654218129
 20
1272.943254003545
 30
0.0
 11
3057.45654218129
 21
1272.943254003545
 31
0.0
  0
LINE
  5
2261
330
21F5
100
AcDbEntity
  8
quote
100
AcDbLine
 10
3060.22669210946
 20
1244.443254003545
 30
0.0
 11
3057.45654218129
 21
1244.443254003545
 31
0.0
  0
LINE
  5
2262
330
21F5
100
AcDbEntity
  8
quote
100
AcDbLine
 10
3058.45654218129
 20
1270.943254003544
 30
0.0
 11
3058.45654218129
 21
1246.443254003545
 31
0.0
  0
SOLID
  5
2263
330
21F5
100
AcDbEntity
  8
quote
100
AcDbTrace
 10
3058.123208847956
 20
1270.943254003544
 30
0.0
 11
3058.789875514623
 21
1270.943254003544
 31
0.0
 12
3058.45654218129
 22
1272.943254003545
 32
0.0
 13
3058.45654218129
 23
1272.943254003545
 33
0.0
  0
SOLID
  5
2264
330
21F5
100
AcDbEntity
  8
quote
100
AcDbTrace
 10
3058.123208847956
 20
1246.443254003545
 30
0.0
 11
3058.789875514623
 21
1246.443254003545
 31
0.0
 12
3058.45654218129
 22
1244.443254003545
 32
0.0
 13
3058.45654218129
 23
1244.443254003545
 33
0.0
  0
MTEXT
  5
2265
330
21F5
100
AcDbEntity
  8
quote
100
AcDbMText
 10
3056.410873947575
 20
1258.693254003545
 30
0.0
 40
2.0
 41
0.0
 71
     5
 72
     1
  1
285
  7
SANINDUSA
 11
0.0000000000000001
 21
1.0
 31
0.0
 73
     1
 44
1.0
1001
ACAD
1000
MTEXTBEGIN
1070
    73
1070
     1
1070
    44
1040
1.0
1070
    74
1070
     0
1000
MTEXTEND
  0
POINT
  5
2266
330
21F5
100
AcDbEntity
  8
Defpoints
 62
     0
100
AcDbPoint
 10
3063.45654218129
 20
1272.943254003545
 30
-0.0000001793795719
  0
POINT
  5
2267
330
21F5
100
AcDbEntity
  8
Defpoints
 62
     0
100
AcDbPoint
 10
3061.226692109459
 20
1244.443254003545
 30
-0.0000001793795719
  0
POINT
  5
2268
330
21F5
100
AcDbEntity
  8
Defpoints
 62
     0
100
AcDbPoint
 10
3058.45654218129
 20
1244.443254003545
 30
0.0
  0
ENDBLK
  5
2200
330
21F5
100
AcDbEntity
  8
0
100
AcDbBlockEnd
  0
BLOCK
  5
220B
330
2201
100
AcDbEntity
  8
0
100
AcDbBlockBegin
  2
*D77
 70
     1
 10
0.0
 20
0.0
 30
0.0
  3
*D77
  1

  0
LINE
  5
22B8
330
2201
100
AcDbEntity
  8
quote
100
AcDbLine
 10
3097.90057544218
 20
1272.943254003545
 30
0.0
 11
3130.10716768842
 21
1272.943254003545
 31
0.0
  0
LINE
  5
22B9
330
2201
100
AcDbEntity
  8
quote
100
AcDbLine
 10
3125.10716768842
 20
1243.443254003544
 30
0.0
 11
3130.10716768842
 21
1243.443254003544
 31
0.0
  0
LINE
  5
22BA
330
2201
100
AcDbEntity
  8
quote
100
AcDbLine
 10
3129.10716768842
 20
1270.943254003544
 30
0.0
 11
3129.10716768842
 21
1245.443254003544
 31
0.0
  0
SOLID
  5
22BB
330
2201
100
AcDbEntity
  8
quote
100
AcDbTrace
 10
3128.773834355087
 20
1270.943254003544
 30
0.0
 11
3129.440501021754
 21
1270.943254003544
 31
0.0
 12
3129.10716768842
 22
1272.943254003545
 32
0.0
 13
3129.10716768842
 23
1272.943254003545
 33
0.0
  0
SOLID
  5
22BC
330
2201
100
AcDbEntity
  8
quote
100
AcDbTrace
 10
3128.773834355087
 20
1245.443254003544
 30
0.0
 11
3129.440501021754
 21
1245.443254003544
 31
0.0
 12
3129.10716768842
 22
1243.443254003544
 32
0.0
 13
3129.10716768842
 23
1243.443254003544
 33
0.0
  0
MTEXT
  5
22BD
330
2201
100
AcDbEntity
  8
quote
100
AcDbMText
 10
3127.065529004739
 20
1258.193254003544
 30
0.0
 40
2.0
 41
0.0
 71
     5
 72
     1
  1
295
  7
SANINDUSA
 11
0.0000000000000001
 21
1.0
 31
0.0
 73
     1
 44
1.0
1001
ACAD
1000
MTEXTBEGIN
1070
    73
1070
     1
1070
    44
1040
1.0
1070
    74
1070
     0
1000
MTEXTEND
  0
POINT
  5
22BE
330
2201
100
AcDbEntity
  8
Defpoints
 62
     0
100
AcDbPoint
 10
3096.90057544218
 20
1272.943254003545
 30
-0.0000001793795719
  0
POINT
  5
22BF
330
2201
100
AcDbEntity
  8
Defpoints
 62
     0
100
AcDbPoint
 10
3124.10716768842
 20
1243.443254003544
 30
0.0
  0
POINT
  5
22C0
330
2201
100
AcDbEntity
  8
Defpoints
 62
     0
100
AcDbPoint
 10
3129.10716768842
 20
1243.443254003544
 30
0.0
  0
ENDBLK
  5
220C
330
2201
100
AcDbEntity
  8
0
100
AcDbBlockEnd
  0
BLOCK
  5
227E
330
2274
100
AcDbEntity
  8
0
100
AcDbBlockBegin
  2
*D78
 70
     1
 10
0.0
 20
0.0
 30
0.0
  3
*D78
  1

  0
ARC
  5
2294
330
2274
100
AcDbEntity
  8
7
100
AcDbCircle
 10
3076.549811905398
 20
1207.248800150791
 30
0.0
 40
38.62928920828719
100
AcDbArc
 50
182.966773761506
 51
267.0332262384946
  0
SOLID
  5
2295
330
2274
100
AcDbEntity
  8
7
100
AcDbTrace
 10
3037.639075258643
 20
1205.240841373702
 30
0.0
 11
3038.305518507346
 21
1205.258099435663
 31
0.0
 12
3037.920522697111
 22
1207.248800150791
 32
0.0
 13
3037.920522697111
 23
1207.248800150791
 33
0.0
  0
SOLID
  5
2296
330
2274
100
AcDbEntity
  8
7
100
AcDbTrace
 10
3074.55911119027
 20
1169.004506752739
 30
0.0
 11
3074.54185312831
 21
1168.338063504036
 31
0.0
 12
3076.549811905398
 22
1168.619510942504
 32
0.0
 13
3076.549811905398
 23
1168.619510942504
 33
0.0
  0
MTEXT
  5
2297
102
{ACAD_XDICTIONARY
360
247A
102
}
330
2274
100
AcDbEntity
  8
7
100
AcDbMText
 10
3050.838947926434
 20
1181.537936171826
 30
0.0
 40
2.0
 41
0.0
 71
     5
 72
     1
  1
90,0\U+00B0
  7
SANINDUSA
 11
0.7071067811865501
 21
-0.7071067811865451
 31
0.0
 73
     1
 44
1.0
1001
ACAD
1000
MTEXTBEGIN
1070
    73
1070
     1
1070
    44
1040
1.0
1070
    74
1070
     0
1000
MTEXTEND
  0
POINT
  5
2298
330
2274
100
AcDbEntity
  8
Defpoints
 62
     0
100
AcDbPoint
 10
3043.095866120885
 20
1187.934155546647
 30
0.0
  0
POINT
  5
2299
330
2274
100
AcDbEntity
  8
Defpoints
 62
     0
100
AcDbPoint
 10
3078.139817802322
 20
1207.248800150791
 30
-0.0000000000000068
  0
POINT
  5
229A
330
2274
100
AcDbEntity
  8
Defpoints
 62
     0
100
AcDbPoint
 10
3076.549811905398
 20
1205.958794253868
 30
0.0000000000000025
  0
POINT
  5
229B
330
2274
100
AcDbEntity
  8
Defpoints
 62
     0
100
AcDbPoint
 10
3076.549811905398
 20
1145.958794253867
 30
0.0000000000000025
  0
POINT
  5
229C
330
2274
100
AcDbEntity
  8
Defpoints
 62
     0
100
AcDbPoint
 10
3018.139817802322
 20
1207.248800150791
 30
0.0000000000000484
  0
ENDBLK
  5
227F
330
2274
100
AcDbEntity
  8
0
100
AcDbBlockEnd
  0
BLOCK
  5
23E4
330
23E3
100
AcDbEntity
  8
0
100
AcDbBlockBegin
  2
*D80
 70
     1
 10
0.0
 20
0.0
 30
0.0
  3
*D80
  1

  0
LINE
  5
23F0
330
23E3
100
AcDbEntity
  8
cotas
100
AcDbLine
 10
4289.194362416096
 20
2071.671472983189
 30
0.0
 11
4489.477462028381
 21
2071.671472983189
 31
0.0
  0
LINE
  5
23F1
330
23E3
100
AcDbEntity
  8
cotas
100
AcDbLine
 10
4289.194362416096
 20
221.6714729831819
 30
0.0
 11
4489.47746202838
 21
221.6714729831819
 31
0.0
  0
LINE
  5
23F2
330
23E3
100
AcDbEntity
  8
cotas
100
AcDbLine
 10
4488.477462028381
 20
2069.671472983189
 30
0.0
 11
4488.47746202838
 21
223.6714729831819
 31
0.0
  0
SOLID
  5
23F3
330
23E3
100
AcDbEntity
  8
cotas
100
AcDbTrace
 10
4488.144128695048
 20
2069.671472983189
 30
0.0
 11
4488.810795361714
 21
2069.671472983189
 31
0.0
 12
4488.477462028381
 22
2071.671472983189
 32
0.0
 13
4488.477462028381
 23
2071.671472983189
 33
0.0
  0
SOLID
  5
23F4
330
23E3
100
AcDbEntity
  8
cotas
100
AcDbTrace
 10
4488.144128695047
 20
223.6714729831819
 30
0.0
 11
4488.810795361714
 21
223.6714729831819
 31
0.0
 12
4488.47746202838
 22
221.6714729831819
 32
0.0
 13
4488.47746202838
 23
221.6714729831819
 33
0.0
  0
MTEXT
  5
23F5
330
23E3
100
AcDbEntity
  8
cotas
100
AcDbMText
 10
4486.431793794667
 20
1146.671472983186
 30
0.0
 40
2.0
 41
0.0
 71
     5
 72
     1
  1
1850
  7
SANINDUSA
 11
0.0000000000000001
 21
1.0
 31
0.0
 73
     1
 44
1.0
1001
ACAD
1000
MTEXTBEGIN
1070
    73
1070
     1
1070
    44
1040
1.0
1070
    74
1070
     0
1000
MTEXTEND
  0
POINT
  5
23F6
330
23E3
100
AcDbEntity
  8
Defpoints
 62
     0
100
AcDbPoint
 10
4288.194362416096
 20
2071.671472983189
 30
0.0
  0
POINT
  5
23F7
330
23E3
100
AcDbEntity
  8
Defpoints
 62
     0
100
AcDbPoint
 10
4288.194362416096
 20
221.6714729831819
 30
0.0
  0
POINT
  5
23F8
330
23E3
100
AcDbEntity
  8
Defpoints
 62
     0
100
AcDbPoint
 10
4488.47746202838
 20
221.6714729831819
 30
0.0
  0
ENDBLK
  5
23E5
330
23E3
100
AcDbEntity
  8
0
100
AcDbBlockEnd
  0
ENDSEC
  0
SECTION
  2
ENTITIES
  0
LINE
  5
207B
330
1F
100
AcDbEntity
  8
SANINDUSA
  6
Continuous
100
AcDbLine
 10
3062.686564322774
 20
1177.058231916258
 30
0.0
 11
3062.686564322774
 21
1178.908231916258
 31
0.0
  0
LINE
  5
207C
330
1F
100
AcDbEntity
  8
SANINDUSA
  6
Continuous
100
AcDbLine
 10
3062.741414322774
 20
1177.058231916258
 30
0.0
 11
3062.741414322774
 21
1178.908231916258
 31
0.0
  0
LINE
  5
207D
330
1F
100
AcDbEntity
  8
SANINDUSA
  6
Continuous
100
AcDbLine
 10
3061.680214322774
 20
1177.068231916258
 30
0.0
 11
3061.680214322774
 21
1178.908231916258
 31
0.0
  0
LINE
  5
207E
330
1F
100
AcDbEntity
  8
SANINDUSA
  6
Continuous
100
AcDbLine
 10
3061.671714322774
 20
1177.068231916258
 30
0.0
 11
3061.671714322774
 21
1178.908231916258
 31
0.0
  0
LINE
  5
207F
330
1F
100
AcDbEntity
  8
SANINDUSA
  6
Continuous
100
AcDbLine
 10
3061.665714322774
 20
1177.068231916258
 30
0.0
 11
3061.665714322774
 21
1178.908231916258
 31
0.0
  0
LINE
  5
2080
330
1F
100
AcDbEntity
  8
SANINDUSA
  6
Continuous
100
AcDbLine
 10
3061.653414322773
 20
1177.058231916258
 30
0.0
 11
3061.653414322773
 21
1178.908231916258
 31
0.0
  0
LINE
  5
2081
330
1F
100
AcDbEntity
  8
SANINDUSA
  6
Continuous
100
AcDbLine
 10
3061.677414322774
 20
1177.058231916258
 30
0.0
 11
3061.677414322774
 21
1178.908231916258
 31
0.0
  0
LINE
  5
2082
330
1F
100
AcDbEntity
  8
SANINDUSA
  6
Continuous
100
AcDbLine
 10
3062.280214322774
 20
1177.377231916258
 30
0.0
 11
3062.280214322774
 21
1178.589231916248
 31
0.0
  0
LINE
  5
2083
330
1F
100
AcDbEntity
  8
SANINDUSA
  6
Continuous
100
AcDbLine
 10
3062.283214322774
 20
1177.377231916258
 30
0.0
 11
3062.283214322774
 21
1178.589231916248
 31
0.0
  0
LINE
  5
208C
330
1F
100
AcDbEntity
  8
SANINDUSA
  6
Continuous
100
AcDbLine
 10
3062.741414322774
 20
1177.058231916258
 30
0.0
 11
3061.653414322773
 21
1177.058231916258
 31
0.0
  0
LINE
  5
2094
330
1F
100
AcDbEntity
  8
SANINDUSA
  6
Continuous
100
AcDbLine
 10
3060.983693472025
 20
1178.012483643231
 30
0.0
 11
3060.383693472024
 21
1178.012483643231
 31
0.0
  0
LINE
  5
2095
330
1F
100
AcDbEntity
  8
SANINDUSA
  6
Continuous
100
AcDbLine
 10
3060.983693472024
 20
1178.006483643231
 30
-0.0000000000000001
 11
3060.383693472024
 21
1178.006483643231
 31
0.0000000000000005
  0
LWPOLYLINE
  5
209B
330
1F
100
AcDbEntity
  8
SANINDUSA
100
AcDbPolyline
 90
        2
 70
     0
 43
0.0
 10
3061.053193472024
 20
1178.005183636555
 10
3061.000193472025
 20
1178.005183636555
1001
GENIUS_GENREC_14
1002
{
1000
PYDIR
1011
3060.917193472024
1021
1178.142705088404
1031
0.0
1002
}
1002
{
1000
PXDIR
1011
3060.970193472025
1021
1178.143705088404
1031
0.0
1002
}
1002
{
1000
PORI
1011
3060.917193472024
1021
1178.143705088404
1031
0.0
1002
}
1002
{
1000
PINS
1011
3060.917193472024
1021
1178.143705088404
1031
0.0
1002
}
1002
{
1000
PINS2
1011
3060.970193472025
1021
1178.142705088404
1031
0.0
1002
}
1002
{
1000
C
1070
     1
1002
}
1001
GENIUS_GENODEF_13
1002
{
1000
HIER
1070
     0
1002
}
1002
{
1000
MANEDIT
1070
     0
1002
}
1002
{
1000
NOSEL
1070
     0
1002
}
1002
{
1000
BEHIND
1070
     0
1002
}
1002
{
1000
REACTOR
1002
}
1001
GENIUS_GENOBJ-N-REC_13
1002
{
1000
OWNER
1000
GEN
1002
}
  0
LINE
  5
209C
330
1F
100
AcDbEntity
  8
SANINDUSA
100
AcDbLine
 10
3061.000193472025
 20
1178.005083584261
 30
0.0
 11
3061.053193472025
 21
1178.005083584261
 31
0.0
  0
LWPOLYLINE
  5
209D
330
1F
100
AcDbEntity
  8
SANINDUSA
100
AcDbPolyline
 90
        2
 70
     0
 43
0.0
 10
3061.000193472025
 20
1178.006183636555
 10
3061.053193472024
 20
1178.006183636555
1001
GENIUS_GENREC_14
1002
{
1000
PYDIR
1011
3060.917193472024
1021
1178.142705088404
1031
0.0
1002
}
1002
{
1000
PXDIR
1011
3060.970193472025
1021
1178.143705088404
1031
0.0
1002
}
1002
{
1000
PORI
1011
3060.917193472024
1021
1178.143705088404
1031
0.0
1002
}
1002
{
1000
PINS
1011
3060.917193472024
1021
1178.143705088404
1031
0.0
1002
}
1002
{
1000
PINS2
1011
3060.970193472025
1021
1178.142705088404
1031
0.0
1002
}
1002
{
1000
C
1070
     1
1002
}
1001
GENIUS_GENODEF_13
1002
{
1000
HIER
1070
     0
1002
}
1002
{
1000
MANEDIT
1070
     0
1002
}
1002
{
1000
NOSEL
1070
     0
1002
}
1002
{
1000
BEHIND
1070
     0
1002
}
1002
{
1000
REACTOR
1002
}
1001
GENIUS_GENOBJ-N-REC_13
1002
{
1000
OWNER
1000
GEN
1002
}
  0
LWPOLYLINE
  5
209E
330
1F
100
AcDbEntity
  8
SANINDUSA
100
AcDbPolyline
 90
        4
 70
     1
 43
0.0
 10
3061.053193472024
 20
1178.013683636555
 10
3061.000193472025
 20
1178.013683636555
 10
3061.000193472025
 20
1178.012683636555
 10
3061.053193472024
 20
1178.012683636555
1001
GENIUS_GENREC_14
1002
{
1000
PYDIR
1011
3060.917193472024
1021
1178.142405088404
1031
0.0
1002
}
1002
{
1000
PXDIR
1011
3060.970193472025
1021
1178.143405088404
1031
0.0
1002
}
1002
{
1000
PORI
1011
3060.917193472024
1021
1178.143405088404
1031
0.0
1002
}
1002
{
1000
PINS
1011
3060.917193472024
1021
1178.143405088404
1031
0.0
1002
}
1002
{
1000
PINS2
1011
3060.970193472025
1021
1178.142405088404
1031
0.0
1002
}
1002
{
1000
C
1070
     1
1002
}
1001
GENIUS_GENODEF_13
1002
{
1000
HIER
1070
     0
1002
}
1002
{
1000
MANEDIT
1070
     0
1002
}
1002
{
1000
NOSEL
1070
     0
1002
}
1002
{
1000
BEHIND
1070
     0
1002
}
1002
{
1000
REACTOR
1002
}
1001
GENIUS_GENOBJ-N-REC_13
1002
{
1000
OWNER
1000
GEN
1002
}
  0
LINE
  5
209F
330
1F
100
AcDbEntity
  8
SANINDUSA
100
AcDbLine
 10
3061.000193472025
 20
1178.013883636555
 30
0.0
 11
3061.053193472024
 21
1178.013883636555
 31
0.0
  0
LINE
  5
20A0
330
1F
100
AcDbEntity
  8
SANINDUSA
100
AcDbLine
 10
3061.052193472025
 20
1178.018883636555
 30
0.0
 11
3061.001193472025
 21
1178.018883636555
 31
0.0
  0
LINE
  5
20A1
330
1F
100
AcDbEntity
  8
SANINDUSA
100
AcDbLine
 10
3061.052193472025
 20
1177.995083584261
 30
0.0
 11
3060.993193472024
 21
1177.995083584261
 31
0.0
  0
LINE
  5
20A2
330
1F
100
AcDbEntity
  8
SANINDUSA
  6
Continuous
100
AcDbLine
 10
3061.399892768846
 20
1178.012483636555
 30
-0.0000000000166021
 11
3060.986693472024
 21
1178.012483636555
 31
-0.0000000000020355
  0
LINE
  5
20A3
330
1F
100
AcDbEntity
  8
SANINDUSA
  6
Continuous
100
AcDbLine
 10
3061.399892768846
 20
1178.006483636555
 30
-0.0000000000052603
 11
3060.986693472024
 21
1178.006483636555
 31
-0.0000000000106434
  0
LINE
  5
20A4
330
1F
100
AcDbEntity
  8
SANINDUSA
100
AcDbLine
 10
3061.053193472024
 20
1178.006183636555
 30
0.0
 11
3061.053193472024
 21
1178.005183636555
 31
0.0
1001
GENIUS_GENREC_14
1002
{
1000
PYDIR
1011
3060.917193472024
1021
1178.006183636555
1031
0.0
1002
}
1002
{
1000
PXDIR
1011
3060.970193472025
1021
1178.005183636555
1031
0.0
1002
}
1002
{
1000
PORI
1011
3060.917193472024
1021
1178.005183636555
1031
0.0
1002
}
1002
{
1000
PINS
1011
3060.917193472024
1021
1178.005183636555
1031
0.0
1002
}
1002
{
1000
PINS2
1011
3060.970193472025
1021
1178.006183636555
1031
0.0
1002
}
1002
{
1000
C
1070
     1
1002
}
1001
GENIUS_GENODEF_13
1002
{
1000
HIER
1070
     0
1002
}
1002
{
1000
MANEDIT
1070
     0
1002
}
1002
{
1000
NOSEL
1070
     0
1002
}
1002
{
1000
BEHIND
1070
     0
1002
}
1002
{
1000
REACTOR
1002
}
1001
GENIUS_GENOBJ-N-REC_13
1002
{
1000
OWNER
1000
GEN
1002
}
  0
LINE
  5
20A5
330
1F
100
AcDbEntity
  8
SANINDUSA
100
AcDbLine
 10
3061.053193472024
 20
1178.013883636555
 30
0.0
 11
3061.053193472024
 21
1178.017883636555
 31
0.0
  0
ARC
  5
20A6
330
1F
100
AcDbEntity
  8
SANINDUSA
100
AcDbCircle
 10
3061.052193472025
 20
1178.017883636555
 30
0.0
 40
0.001
100
AcDbArc
 50
0.0
 51
90.0
  0
ARC
  5
20A7
330
1F
100
AcDbEntity
  8
SANINDUSA
100
AcDbCircle
 10
3061.052193472025
 20
1177.996083584261
 30
0.0
 40
0.001
100
AcDbArc
 50
270.0
 51
0.0
  0
LINE
  5
20A8
330
1F
100
AcDbEntity
  8
SANINDUSA
100
AcDbLine
 10
3061.053193472025
 20
1178.005083584261
 30
0.0
 11
3061.053193472024
 21
1177.996083584261
 31
0.0
  0
LINE
  5
20A9
330
1F
100
AcDbEntity
  8
SANINDUSA
100
AcDbLine
 10
3061.399892768846
 20
1178.006483636555
 30
-0.0000000000545587
 11
3061.399892768846
 21
1178.012483636555
 31
-0.0000000000545587
  0
LINE
  5
20AB
330
1F
100
AcDbEntity
  8
SANINDUSA
100
AcDbLine
 10
3060.917193472024
 20
1178.006283636555
 30
0.0
 11
3060.917193472024
 21
1178.005283636555
 31
0.0
1001
GENIUS_GENREC_14
1002
{
1000
PYDIR
1011
3060.917193472024
1021
1178.006283636555
1031
0.0
1002
}
1002
{
1000
PXDIR
1011
3060.970193472025
1021
1178.005283636555
1031
0.0
1002
}
1002
{
1000
PORI
1011
3060.917193472024
1021
1178.005283636555
1031
0.0
1002
}
1002
{
1000
PINS
1011
3060.917193472024
1021
1178.005283636555
1031
0.0
1002
}
1002
{
1000
PINS2
1011
3060.970193472025
1021
1178.006283636555
1031
0.0
1002
}
1002
{
1000
C
1070
     1
1002
}
1001
GENIUS_GENODEF_13
1002
{
1000
HIER
1070
     0
1002
}
1002
{
1000
MANEDIT
1070
     0
1002
}
1002
{
1000
NOSEL
1070
     0
1002
}
1002
{
1000
BEHIND
1070
     0
1002
}
1002
{
1000
REACTOR
1002
}
1001
GENIUS_GENOBJ-N-REC_13
1002
{
1000
OWNER
1000
GEN
1002
}
  0
LINE
  5
20AC
330
1F
100
AcDbEntity
  8
SANINDUSA
100
AcDbLine
 10
3060.917193472024
 20
1178.013883636555
 30
0.0
 11
3060.917193472024
 21
1178.017883636555
 31
0.0
  0
ARC
  5
20AD
330
1F
100
AcDbEntity
  8
SANINDUSA
100
AcDbCircle
 10
3060.918193472025
 20
1178.017883636555
 30
0.0
 40
0.001
100
AcDbArc
 50
90.0
 51
180.0
  0
ARC
  5
20AE
330
1F
100
AcDbEntity
  8
SANINDUSA
100
AcDbCircle
 10
3060.918193472025
 20
1177.996083584261
 30
0.0
 40
0.001
100
AcDbArc
 50
180.0
 51
270.0
  0
LINE
  5
20AF
330
1F
100
AcDbEntity
  8
SANINDUSA
100
AcDbLine
 10
3060.917193472024
 20
1178.005083636555
 30
0.0
 11
3060.917193472024
 21
1177.996083584261
 31
0.0
  0
LINE
  5
20B0
330
1F
100
AcDbEntity
  8
SANINDUSA
100
AcDbLine
 10
3060.970193472025
 20
1178.005283636555
 30
0.0
 11
3060.970193472025
 21
1178.006283636555
 31
0.0
1001
GENIUS_GENREC_14
1002
{
1000
PYDIR
1011
3060.917193472024
1021
1178.006283636555
1031
0.0
1002
}
1002
{
1000
PXDIR
1011
3060.970193472025
1021
1178.005283636555
1031
0.0
1002
}
1002
{
1000
PORI
1011
3060.917193472024
1021
1178.005283636555
1031
0.0
1002
}
1002
{
1000
PINS
1011
3060.917193472024
1021
1178.005283636555
1031
0.0
1002
}
1002
{
1000
PINS2
1011
3060.970193472025
1021
1178.006283636555
1031
0.0
1002
}
1002
{
1000
C
1070
     1
1002
}
1001
GENIUS_GENODEF_13
1002
{
1000
HIER
1070
     0
1002
}
1002
{
1000
MANEDIT
1070
     0
1002
}
1002
{
1000
NOSEL
1070
     0
1002
}
1002
{
1000
BEHIND
1070
     0
1002
}
1002
{
1000
REACTOR
1002
}
1001
GENIUS_GENOBJ-N-REC_13
1002
{
1000
OWNER
1000
GEN
1002
}
  0
LINE
  5
20B1
330
1F
100
AcDbEntity
  8
SANINDUSA
100
AcDbLine
 10
3060.974767600673
 20
1178.00618805292
 30
0.0
 11
3060.976843929028
 21
1178.00647986184
 31
0.0
  0
LINE
  5
20B2
330
1F
100
AcDbEntity
  8
SANINDUSA
100
AcDbLine
 10
3060.977143948417
 20
1178.005797171835
 30
0.0
 11
3060.974767600673
 21
1178.00618805292
 31
0.0
  0
LINE
  5
20B3
330
1F
100
AcDbEntity
  8
SANINDUSA
100
AcDbLine
 10
3060.974767600673
 20
1178.012779233542
 30
0.0
 11
3060.977143948417
 21
1178.013170114626
 31
0.0
  0
LINE
  5
20B4
330
1F
100
AcDbEntity
  8
SANINDUSA
100
AcDbLine
 10
3060.976843929028
 20
1178.012487424621
 30
0.0
 11
3060.974767600673
 21
1178.012779233542
 31
0.0
  0
LINE
  5
20B5
330
1F
100
AcDbEntity
  8
SANINDUSA
100
AcDbLine
 10
3060.974666523043
 20
1178.012439999426
 30
0.0
 11
3060.976795218443
 21
1178.012140830797
 31
0.0
  0
LINE
  5
20B6
330
1F
100
AcDbEntity
  8
SANINDUSA
100
AcDbLine
 10
3060.976795218443
 20
1178.006826455664
 30
0.0
 11
3060.974666523043
 21
1178.006527287036
 31
0.0
  0
LINE
  5
20B7
330
1F
100
AcDbEntity
  8
SANINDUSA
100
AcDbLine
 10
3060.971841332678
 20
1178.011892521928
 30
0.0
 11
3060.97352630391
 21
1178.012169679757
 31
0.0
  0
LINE
  5
20B8
330
1F
100
AcDbEntity
  8
SANINDUSA
100
AcDbLine
 10
3060.971841332678
 20
1178.012599277562
 30
0.0
 11
3060.971841332678
 21
1178.011892521928
 31
0.0
  0
ARC
  5
20B9
330
1F
100
AcDbEntity
  8
SANINDUSA
100
AcDbCircle
 10
3060.972441332678
 20
1178.012599277562
 30
0.0
 40
0.0006
100
AcDbArc
 50
99.34083409435679
 51
180.0
  0
ARC
  5
20BA
330
1F
100
AcDbEntity
  8
SANINDUSA
100
AcDbCircle
 10
3060.974736109594
 20
1178.01293513346
 30
0.0
 40
0.0004999999999883
100
AcDbArc
 50
208.1263739672534
 51
261.9999999889949
  0
ARC
  5
20BB
330
1F
100
AcDbEntity
  8
SANINDUSA
100
AcDbCircle
 10
3060.974441332678
 20
1178.012117503583
 30
0.0
 40
0.0006000000000005
100
AcDbArc
 50
104.1008918120285
 51
147.5305192133523
  0
ARC
  5
20BC
330
1F
100
AcDbEntity
  8
SANINDUSA
100
AcDbCircle
 10
3060.973428919649
 20
1178.012761723932
 30
0.0
 40
0.0006
100
AcDbArc
 50
279.3408340943568
 51
327.5305192133523
  0
ARC
  5
20BD
330
1F
100
AcDbEntity
  8
SANINDUSA
100
AcDbCircle
 10
3060.972441332678
 20
1178.006368008899
 30
0.0
 40
0.0006
100
AcDbArc
 50
180.0
 51
260.6591659056432
  0
ARC
  5
20BE
330
1F
100
AcDbEntity
  8
SANINDUSA
100
AcDbCircle
 10
3060.974441332678
 20
1178.006849782878
 30
0.0
 40
0.0005999999999989
100
AcDbArc
 50
212.4694807866477
 51
255.8991081879715
  0
LINE
  5
20BF
330
1F
100
AcDbEntity
  8
SANINDUSA
100
AcDbLine
 10
3060.97352630391
 20
1178.006797606705
 30
0.0
 11
3060.971841332678
 21
1178.007074764533
 31
0.0
  0
LINE
  5
20C0
330
1F
100
AcDbEntity
  8
SANINDUSA
100
AcDbLine
 10
3060.971841332678
 20
1178.007074764533
 30
0.0
 11
3060.971841332678
 21
1178.006368008899
 31
0.0
  0
ARC
  5
20C1
330
1F
100
AcDbEntity
  8
SANINDUSA
100
AcDbCircle
 10
3060.973428919649
 20
1178.006205562529
 30
0.0
 40
0.0006
100
AcDbArc
 50
32.46948078664768
 51
80.65916590564318
  0
ARC
  5
20C2
330
1F
100
AcDbEntity
  8
SANINDUSA
100
AcDbCircle
 10
3060.974736109594
 20
1178.006032153001
 30
0.0
 40
0.0005
100
AcDbArc
 50
98.00000001100515
 51
151.8736260327466
  0
LINE
  5
20C3
330
1F
100
AcDbEntity
  8
SANINDUSA
100
AcDbLine
 10
3060.980528483802
 20
1178.012814736545
 30
0.0
 11
3060.980561890326
 21
1178.012611642765
 31
0.0
  0
LINE
  5
20C4
330
1F
100
AcDbEntity
  8
SANINDUSA
100
AcDbLine
 10
3060.978091438606
 20
1178.012920590393
 30
0.0
 11
3060.979953960106
 21
1178.01322695314
 31
0.0
  0
ARC
  5
20C5
330
1F
100
AcDbEntity
  8
SANINDUSA
100
AcDbCircle
 10
3060.977994054345
 20
1178.013512634569
 30
0.0
 40
0.0006000000000005
100
AcDbArc
 50
231.1511489864678
 51
279.3408340943568
  0
ARC
  5
20C6
330
1F
100
AcDbEntity
  8
SANINDUSA
100
AcDbCircle
 10
3060.980035113656
 20
1178.012733582994
 30
0.0
 40
0.0005
100
AcDbArc
 50
9.340834109326083
 51
99.34083409435679
  0
ARC
  5
20C7
330
1F
100
AcDbEntity
  8
SANINDUSA
100
AcDbCircle
 10
3060.976819573735
 20
1178.012314127709
 30
0.0
 40
0.000175
100
AcDbArc
 50
261.9999999889949
 51
81.99999998899484
  0
ARC
  5
20C8
330
1F
100
AcDbEntity
  8
SANINDUSA
100
AcDbCircle
 10
3060.977241332679
 20
1178.01257807045
 30
0.0
 40
0.0006
100
AcDbArc
 50
51.15114898646778
 51
99.34083409435679
  0
ARC
  5
20C9
330
1F
100
AcDbEntity
  8
SANINDUSA
100
AcDbCircle
 10
3060.977994054345
 20
1178.005454651892
 30
0.0
 40
0.0006000000000005
100
AcDbArc
 50
80.65916590564318
 51
128.8488510135322
  0
LINE
  5
20CA
330
1F
100
AcDbEntity
  8
SANINDUSA
100
AcDbLine
 10
3060.979970795545
 20
1178.00573756409
 30
0.0
 11
3060.978091438606
 21
1178.006046696068
 31
0.0
  0
LINE
  5
20CB
330
1F
100
AcDbEntity
  8
SANINDUSA
100
AcDbLine
 10
3060.980561890326
 20
1178.006355643697
 30
0.0
 11
3060.980521313551
 21
1178.006108958624
 31
0.0
  0
ARC
  5
20CC
330
1F
100
AcDbEntity
  8
SANINDUSA
100
AcDbCircle
 10
3060.976819573735
 20
1178.006653158752
 30
0.0
 40
0.000175
100
AcDbArc
 50
278.0000000110051
 51
98.00000001100515
  0
ARC
  5
20CD
330
1F
100
AcDbEntity
  8
SANINDUSA
100
AcDbCircle
 10
3060.977241332679
 20
1178.006389216011
 30
0.0
 40
0.0006
100
AcDbArc
 50
260.6591659056432
 51
308.8488510135322
  0
ARC
  5
20CE
330
1F
100
AcDbEntity
  8
SANINDUSA
100
AcDbCircle
 10
3060.980051949096
 20
1178.006230934236
 30
0.0
 40
0.0005
100
AcDbArc
 50
260.6591659056432
 51
0.1365535742230598
  0
LINE
  5
20CF
330
1F
100
AcDbEntity
  8
SANINDUSA
100
AcDbLine
 10
3060.970193472025
 20
1178.013883636555
 30
0.0
 11
3060.970193472025
 21
1178.017883636555
 31
0.0
  0
ARC
  5
20D0
330
1F
100
AcDbEntity
  8
SANINDUSA
100
AcDbCircle
 10
3060.969193472025
 20
1178.017883636555
 30
0.0
 40
0.001
100
AcDbArc
 50
0.0
 51
90.0
  0
LINE
  5
20D1
330
1F
100
AcDbEntity
  8
SANINDUSA
100
AcDbLine
 10
3060.9838482501
 20
1178.00388364323
 30
0.0
 11
3060.984841332678
 21
1178.00388364323
 31
0.0
  0
LINE
  5
20D2
330
1F
100
AcDbEntity
  8
SANINDUSA
100
AcDbLine
 10
3060.9838482501
 20
1178.015083643231
 30
0.0
 11
3060.984841332678
 21
1178.015083643231
 31
0.0
  0
LINE
  5
20D3
330
1F
100
AcDbEntity
  8
SANINDUSA
100
AcDbLine
 10
3060.984841332678
 20
1178.015083643231
 30
0.0
 11
3060.984841332678
 21
1178.00388364323
 31
0.0
  0
LINE
  5
20D4
330
1F
100
AcDbEntity
  8
SANINDUSA
100
AcDbLine
 10
3060.986693472024
 20
1178.012483636555
 30
0.0
 11
3060.986693472024
 21
1178.006483636555
 31
0.0
1001
GENIUS_GENREC_14
1002
{
1000
PYDIR
1011
3060.833693472025
1021
1178.006283636555
1031
0.0
1002
}
1002
{
1000
PXDIR
1011
3060.983693472025
1021
1178.012283636555
1031
0.0
1002
}
1002
{
1000
PORI
1011
3060.833693472025
1021
1178.012283636555
1031
0.0
1002
}
1002
{
1000
PINS
1011
3060.833693472025
1021
1178.012283636555
1031
0.0
1002
}
1002
{
1000
PINS2
1011
3060.983693472025
1021
1178.006483636555
1031
0.0
1002
}
1002
{
1000
C
1070
     1
1002
}
1001
GENIUS_GENODEF_13
1002
{
1000
HIER
1070
     0
1002
}
1002
{
1000
MANEDIT
1070
     0
1002
}
1002
{
1000
NOSEL
1070
     0
1002
}
1002
{
1000
BEHIND
1070
     0
1002
}
1002
{
1000
REACTOR
1002
}
1001
GENIUS_GENOBJ-N-REC_13
1002
{
1000
OWNER
1000
GEN
1002
}
  0
LINE
  5
20D5
330
1F
100
AcDbEntity
  8
SANINDUSA
100
AcDbLine
 10
3061.000193472025
 20
1178.005183636555
 30
0.0
 11
3061.000193472025
 21
1178.006183636555
 31
0.0
1001
GENIUS_GENREC_14
1002
{
1000
PYDIR
1011
3060.917193472024
1021
1178.006183636555
1031
0.0
1002
}
1002
{
1000
PXDIR
1011
3060.970193472025
1021
1178.005183636555
1031
0.0
1002
}
1002
{
1000
PORI
1011
3060.917193472024
1021
1178.005183636555
1031
0.0
1002
}
1002
{
1000
PINS
1011
3060.917193472024
1021
1178.005183636555
1031
0.0
1002
}
1002
{
1000
PINS2
1011
3060.970193472025
1021
1178.006183636555
1031
0.0
1002
}
1002
{
1000
C
1070
     1
1002
}
1001
GENIUS_GENODEF_13
1002
{
1000
HIER
1070
     0
1002
}
1002
{
1000
MANEDIT
1070
     0
1002
}
1002
{
1000
NOSEL
1070
     0
1002
}
1002
{
1000
BEHIND
1070
     0
1002
}
1002
{
1000
REACTOR
1002
}
1001
GENIUS_GENOBJ-N-REC_13
1002
{
1000
OWNER
1000
GEN
1002
}
  0
ARC
  5
20D6
330
1F
100
AcDbEntity
  8
SANINDUSA
100
AcDbCircle
 10
3061.001193472025
 20
1178.017883636555
 30
0.0
 40
0.001
100
AcDbArc
 50
90.0
 51
180.0
  0
LINE
  5
20D7
330
1F
100
AcDbEntity
  8
SANINDUSA
100
AcDbLine
 10
3061.000193472025
 20
1178.013883636555
 30
0.0
 11
3061.000193472025
 21
1178.017883636555
 31
0.0
  0
ARC
  5
20D8
330
1F
100
AcDbEntity
  8
SANINDUSA
100
AcDbCircle
 10
3060.983093472025
 20
1178.00578721278
 30
0.0
 40
0.0006
100
AcDbArc
 50
260.6591659056432
 51
0.0
  0
LINE
  5
20D9
330
1F
100
AcDbEntity
  8
SANINDUSA
100
AcDbLine
 10
3060.982996087763
 20
1178.005195168605
 30
0.0
 11
3060.982413640585
 21
1178.005290974274
 31
0.0
  0
LINE
  5
20DA
330
1F
100
AcDbEntity
  8
SANINDUSA
100
AcDbLine
 10
3060.982413640585
 20
1178.013676312188
 30
0.0
 11
3060.982996087763
 21
1178.013772117856
 31
0.0
  0
ARC
  5
20DB
330
1F
100
AcDbEntity
  8
SANINDUSA
100
AcDbCircle
 10
3060.983093472025
 20
1178.013180073681
 30
0.0
 40
0.0006
100
AcDbArc
 50
0.0
 51
99.34083409435679
  0
LINE
  5
20DC
330
1F
100
AcDbEntity
  8
SANINDUSA
100
AcDbLine
 10
3060.983693472024
 20
1178.013180073681
 30
0.0
 11
3060.983693472024
 21
1178.00578721278
 31
0.0
  0
LINE
  5
20DD
330
1F
100
AcDbEntity
  8
SANINDUSA
100
AcDbLine
 10
3060.983693472025
 20
1178.012483643231
 30
0.0000000000000001
 11
3060.983693472024
 21
1178.006483643231
 31
-0.0000000000000001
  0
LINE
  5
20DE
330
1F
100
AcDbEntity
  8
SANINDUSA
100
AcDbLine
 10
3060.983693472024
 20
1178.012483643231
 30
0.0
 11
3060.983693472024
 21
1178.006483643231
 31
0.0
  0
ARC
  5
20DF
330
1F
100
AcDbEntity
  8
SANINDUSA
100
AcDbCircle
 10
3060.985679024986
 20
1178.009483643231
 30
0.0
 40
0.0056623076923077
100
AcDbArc
 50
261.4923271340214
 51
98.50767286597857
  0
ARC
  5
20E0
330
1F
100
AcDbEntity
  8
SANINDUSA
100
AcDbCircle
 10
3060.985679024986
 20
1178.009483643231
 30
0.0
 40
0.0052623076923077
100
AcDbArc
 50
261.4923271340214
 51
98.50767286597857
  0
ARC
  5
20E1
330
1F
100
AcDbEntity
  8
SANINDUSA
100
AcDbCircle
 10
3060.982494794135
 20
1178.00578434442
 30
0.0
 40
0.0005
100
AcDbArc
 50
170.6591658906739
 51
260.6591659056432
  0
LINE
  5
20E2
330
1F
100
AcDbEntity
  8
SANINDUSA
100
AcDbLine
 10
3060.972343948418
 20
1178.005775964724
 30
0.0
 11
3060.9838482501
 21
1178.00388364323
 31
0.0
  0
ARC
  5
20E3
330
1F
100
AcDbEntity
  8
SANINDUSA
100
AcDbCircle
 10
3060.982494794135
 20
1178.013182942041
 30
0.0
 40
0.0005
100
AcDbArc
 50
99.34083409435679
 51
189.3408341093261
  0
LINE
  5
20E4
330
1F
100
AcDbEntity
  8
SANINDUSA
100
AcDbLine
 10
3060.982042000765
 20
1178.012855103417
 30
0.0
 11
3060.982001423989
 21
1178.01310178849
 31
0.0
  0
LINE
  5
20E5
330
1F
100
AcDbEntity
  8
SANINDUSA
100
AcDbLine
 10
3060.982001423989
 20
1178.005865497971
 30
0.0
 11
3060.982042000765
 21
1178.006112183044
 31
0.0
  0
LINE
  5
20E6
330
1F
100
AcDbEntity
  8
SANINDUSA
100
AcDbLine
 10
3060.9838482501
 20
1178.015083643231
 30
0.0
 11
3060.972343948418
 21
1178.013191321737
 31
0.0
  0
ARC
  5
20E7
330
1F
100
AcDbEntity
  8
SANINDUSA
100
AcDbCircle
 10
3060.981301945545
 20
1178.012733373091
 30
0.0
 40
0.00075
100
AcDbArc
 50
189.3408341093261
 51
9.340834109326083
  0
ARC
  5
20E8
330
1F
100
AcDbEntity
  8
SANINDUSA
100
AcDbCircle
 10
3060.981301945545
 20
1178.00623391337
 30
0.0
 40
0.00075
100
AcDbArc
 50
350.6591658906739
 51
180.136553574223
  0
LINE
  5
20EA
330
1F
100
AcDbEntity
  8
SANINDUSA
100
AcDbLine
 10
3060.976304583136
 20
1177.995083584261
 30
0.0
 11
3060.976304583136
 21
1178.003083636555
 31
0.0
  0
LINE
  5
211F
330
1F
100
AcDbEntity
  8
SANINDUSA
100
AcDbLine
 10
3060.994082360914
 20
1177.995083584261
 30
0.0
 11
3060.994082360914
 21
1178.003083584261
 31
0.0
  0
LINE
  5
2120
330
1F
100
AcDbEntity
  8
SANINDUSA
100
AcDbLine
 10
3061.000193472025
 20
1178.003083584261
 30
0.0
 11
3060.985193426429
 21
1178.003083584261
 31
0.0
  0
LINE
  5
2121
330
1F
100
AcDbEntity
  8
SANINDUSA
100
AcDbLine
 10
3060.970193472025
 20
1178.003083636555
 30
0.0
 11
3060.985193472025
 21
1178.003083584261
 31
0.0
  0
CIRCLE
  5
2123
330
1F
100
AcDbEntity
  8
SANINDUSA
100
AcDbCircle
 10
3060.985193472025
 20
1177.995083584261
 30
0.0
 40
0.008
  0
LINE
  5
2130
330
1F
100
AcDbEntity
  8
SANINDUSA
100
AcDbLine
 10
3060.970193472025
 20
1178.005083636555
 30
0.0
 11
3060.970193472025
 21
1178.003083636555
 31
0.0
  0
LINE
  5
2131
330
1F
100
AcDbEntity
  8
SANINDUSA
100
AcDbLine
 10
3061.000193472025
 20
1178.003083584261
 30
0.0
 11
3061.000193472025
 21
1178.005083584261
 31
0.0
  0
LINE
  5
2132
330
1F
100
AcDbEntity
  8
SANINDUSA
100
AcDbLine
 10
3060.976304583136
 20
1177.995083584261
 30
0.0
 11
3060.918193472025
 21
1177.995083584261
 31
0.0
  0
LWPOLYLINE
  5
2133
330
1F
100
AcDbEntity
  8
SANINDUSA
100
AcDbPolyline
 90
        2
 70
     0
 43
0.0
 10
3060.917193472024
 20
1178.005283636555
 10
3060.970193472025
 20
1178.005283636555
1001
GENIUS_GENREC_14
1002
{
1000
PYDIR
1011
3061.216475729104
1021
1177.843322831325
1031
0.0
1002
}
1002
{
1000
PXDIR
1011
3061.269475729104
1021
1177.844322831325
1031
0.0
1002
}
1002
{
1000
PORI
1011
3061.216475729104
1021
1177.844322831325
1031
0.0
1002
}
1002
{
1000
PINS
1011
3061.216475729104
1021
1177.844322831325
1031
0.0
1002
}
1002
{
1000
PINS2
1011
3061.269475729104
1021
1177.843322831325
1031
0.0
1002
}
1002
{
1000
C
1070
     1
1002
}
1001
GENIUS_GENODEF_13
1002
{
1000
HIER
1070
     0
1002
}
1002
{
1000
MANEDIT
1070
     0
1002
}
1002
{
1000
NOSEL
1070
     0
1002
}
1002
{
1000
BEHIND
1070
     0
1002
}
1002
{
1000
REACTOR
1002
}
1001
GENIUS_GENOBJ-N-REC_13
1002
{
1000
OWNER
1000
GEN
1002
}
  0
LINE
  5
2134
330
1F
100
AcDbEntity
  8
SANINDUSA
100
AcDbLine
 10
3060.917193472024
 20
1178.005083636555
 30
0.0
 11
3060.970193472025
 21
1178.005083636555
 31
0.0
  0
LWPOLYLINE
  5
2135
330
1F
100
AcDbEntity
  8
SANINDUSA
100
AcDbPolyline
 90
        2
 70
     0
 43
0.0
 10
3060.970193472025
 20
1178.006283636555
 10
3060.917193472024
 20
1178.006283636555
1001
GENIUS_GENREC_14
1002
{
1000
PYDIR
1011
3061.216475729104
1021
1177.843322831325
1031
0.0
1002
}
1002
{
1000
PXDIR
1011
3061.269475729104
1021
1177.844322831325
1031
0.0
1002
}
1002
{
1000
PORI
1011
3061.216475729104
1021
1177.844322831325
1031
0.0
1002
}
1002
{
1000
PINS
1011
3061.216475729104
1021
1177.844322831325
1031
0.0
1002
}
1002
{
1000
PINS2
1011
3061.269475729104
1021
1177.843322831325
1031
0.0
1002
}
1002
{
1000
C
1070
     1
1002
}
1001
GENIUS_GENODEF_13
1002
{
1000
HIER
1070
     0
1002
}
1002
{
1000
MANEDIT
1070
     0
1002
}
1002
{
1000
NOSEL
1070
     0
1002
}
1002
{
1000
BEHIND
1070
     0
1002
}
1002
{
1000
REACTOR
1002
}
1001
GENIUS_GENOBJ-N-REC_13
1002
{
1000
OWNER
1000
GEN
1002
}
  0
LWPOLYLINE
  5
2136
330
1F
100
AcDbEntity
  8
SANINDUSA
100
AcDbPolyline
 90
        4
 70
     1
 43
0.0
 10
3060.917193472024
 20
1178.013683636555
 10
3060.970193472025
 20
1178.013683636555
 10
3060.970193472025
 20
1178.012683636555
 10
3060.917193472024
 20
1178.012683636555
1001
GENIUS_GENREC_14
1002
{
1000
PYDIR
1011
3061.216475729104
1021
1177.843122831325
1031
0.0
1002
}
1002
{
1000
PXDIR
1011
3061.269475729104
1021
1177.844122831325
1031
0.0
1002
}
1002
{
1000
PORI
1011
3061.216475729104
1021
1177.844122831325
1031
0.0
1002
}
1002
{
1000
PINS
1011
3061.216475729104
1021
1177.844122831325
1031
0.0
1002
}
1002
{
1000
PINS2
1011
3061.269475729104
1021
1177.843122831325
1031
0.0
1002
}
1002
{
1000
C
1070
     1
1002
}
1001
GENIUS_GENODEF_13
1002
{
1000
HIER
1070
     0
1002
}
1002
{
1000
MANEDIT
1070
     0
1002
}
1002
{
1000
NOSEL
1070
     0
1002
}
1002
{
1000
BEHIND
1070
     0
1002
}
1002
{
1000
REACTOR
1002
}
1001
GENIUS_GENOBJ-N-REC_13
1002
{
1000
OWNER
1000
GEN
1002
}
  0
LINE
  5
2137
330
1F
100
AcDbEntity
  8
SANINDUSA
100
AcDbLine
 10
3060.970193472025
 20
1178.013883636555
 30
0.0
 11
3060.917193472024
 21
1178.013883636555
 31
0.0
  0
LINE
  5
2138
330
1F
100
AcDbEntity
  8
SANINDUSA
100
AcDbLine
 10
3060.918193472025
 20
1178.018883636555
 30
0.0
 11
3060.969193472025
 21
1178.018883636555
 31
0.0
  0
LINE
  5
213A
330
1F
100
AcDbEntity
  8
SANINDUSA
100
AcDbLine
 10
3060.383693472024
 20
1178.012483643231
 30
0.0
 11
3060.383693472024
 21
1178.006483643231
 31
0.0
  0
INSERT
  5
213B
330
1F
100
AcDbEntity
  8
SANINDUSA
100
AcDbBlockReference
  2
guarnizione
 10
3060.383693472024
 20
1178.009483643231
 30
0.0
 41
0.001
 42
0.001
 43
0.001
  0
LINE
  5
213C
330
1F
100
AcDbEntity
  8
SANINDUSA
100
AcDbLine
 10
3062.280214322774
 20
1177.068231916258
 30
0.0
 11
3061.680214322774
 21
1177.068231916258
 31
0.0
  0
LINE
  5
215B
330
1F
100
AcDbEntity
  8
SANINDUSA
  6
Continuous
100
AcDbLine
 10
3062.283214322774
 20
1177.058231916258
 30
0.0
 11
3062.283214322774
 21
1177.329231916258
 31
0.0
  0
LINE
  5
215C
330
1F
100
AcDbEntity
  8
SANINDUSA
  6
Continuous
100
AcDbLine
 10
3062.280214322774
 20
1177.068231916258
 30
0.0
 11
3062.280214322774
 21
1177.329231916258
 31
0.0
  0
LINE
  5
215D
330
1F
100
AcDbEntity
  8
SANINDUSA
100
AcDbLine
 10
3061.671714322774
 20
1177.068231916258
 30
0.0
 11
3061.665714322774
 21
1177.068231916258
 31
0.0
  0
CIRCLE
  5
215F
330
1F
100
AcDbEntity
  8
SANINDUSA
100
AcDbCircle
 10
3061.730214322774
 20
1177.988231148311
 30
0.0
 40
0.004
  0
LINE
  5
2163
330
1F
100
AcDbEntity
  8
SANINDUSA
  6
Continuous
100
AcDbLine
 10
3062.741414322774
 20
1178.908231916258
 30
0.0
 11
3062.283214322774
 21
1178.908231916258
 31
0.0
  0
LINE
  5
2165
330
1F
100
AcDbEntity
  8
SANINDUSA
  6
Continuous
100
AcDbLine
 10
3062.280214322774
 20
1178.908231916258
 30
0.0
 11
3061.680214322774
 21
1178.908231916258
 31
0.0
  0
LINE
  5
2184
330
1F
100
AcDbEntity
  8
SANINDUSA
  6
Continuous
100
AcDbLine
 10
3062.280214322774
 20
1178.637231916248
 30
0.0
 11
3062.280214322774
 21
1178.908231916258
 31
0.0
  0
LINE
  5
2185
330
1F
100
AcDbEntity
  8
SANINDUSA
  6
Continuous
100
AcDbLine
 10
3062.283214322774
 20
1178.637231916248
 30
0.0
 11
3062.283214322774
 21
1178.908231916258
 31
0.0
  0
LINE
  5
2186
330
1F
100
AcDbEntity
  8
SANINDUSA
100
AcDbLine
 10
3061.677414322774
 20
1178.908231916258
 30
0.0
 11
3061.653414322773
 21
1178.908231916258
 31
0.0
  0
ARC
  5
22CA
330
1F
100
AcDbEntity
  8
SANINDUSA
100
AcDbCircle
 10
3061.441514792606
 20
1178.017183636555
 30
-0.0000000000545587
 40
0.0009999999999999
100
AcDbArc
 50
0.0
 51
90.0
  0
LINE
  5
22CB
330
1F
100
AcDbEntity
  8
SANINDUSA
100
AcDbLine
 10
3061.441514792606
 20
1178.018183636555
 30
-0.0000000000545587
 11
3061.406491488474
 21
1178.018183636555
 31
-0.0000000000545587
  0
LINE
  5
22CC
330
1F
100
AcDbEntity
  8
SANINDUSA
100
AcDbLine
 10
3061.442514792606
 20
1178.016197850118
 30
-0.0000000000545587
 11
3061.442514792606
 21
1178.017183636555
 31
-0.0000000000545587
  0
ARC
  5
22CD
330
1F
100
AcDbEntity
  8
SANINDUSA
100
AcDbCircle
 10
3061.406491488474
 20
1178.017183636555
 30
-0.0000000000545587
 40
0.001
100
AcDbArc
 50
90.0
 51
270.0
  0
ARC
  5
22CE
330
1F
100
AcDbEntity
  8
SANINDUSA
100
AcDbCircle
 10
3061.441514792606
 20
1178.016197850118
 30
-0.0000000000545587
 40
0.0010000000000003
100
AcDbArc
 50
315.0
 51
0.0
  0
LINE
  5
22CF
330
1F
100
AcDbEntity
  8
SANINDUSA
100
AcDbLine
 10
3061.406491488474
 20
1178.016183636555
 30
-0.0000000000545587
 11
3061.438014792606
 21
1178.016183636555
 31
-0.0000000000545587
  0
LINE
  5
22D0
330
1F
100
AcDbEntity
  8
SANINDUSA
100
AcDbLine
 10
3061.441307685825
 20
1178.014576529774
 30
-0.0000000000545587
 11
3061.442221899387
 21
1178.015490743336
 31
-0.0000000000545587
  0
ARC
  5
22D1
330
1F
100
AcDbEntity
  8
SANINDUSA
100
AcDbCircle
 10
3061.438014792606
 20
1178.015183636555
 30
-0.0000000000545587
 40
0.001
100
AcDbArc
 50
0.0
 51
90.0
  0
ARC
  5
22D2
330
1F
100
AcDbEntity
  8
SANINDUSA
100
AcDbCircle
 10
3061.442014792606
 20
1178.013869422993
 30
-0.0000000000545587
 40
0.0010000000000003
100
AcDbArc
 50
135.0
 51
180.0
  0
LINE
  5
22D3
330
1F
100
AcDbEntity
  8
SANINDUSA
100
AcDbLine
 10
3061.439014792606
 20
1178.015183636555
 30
-0.0000000000545587
 11
3061.439014792606
 21
1177.997324450278
 31
-0.0000000000545587
  0
LINE
  5
22D4
330
1F
100
AcDbEntity
  8
SANINDUSA
100
AcDbLine
 10
3061.441014792606
 20
1178.010494296727
 30
-0.0000000000545587
 11
3061.441014792606
 21
1178.013869422993
 31
-0.0000000000545587
  0
ARC
  5
22D5
330
1F
100
AcDbEntity
  8
SANINDUSA
100
AcDbCircle
 10
3061.438014792606
 20
1177.997324450278
 30
-0.0000000000545587
 40
0.001
100
AcDbArc
 50
267.8505420588376
 51
0.0
  0
ARC
  5
22D6
330
1F
100
AcDbEntity
  8
SANINDUSA
100
AcDbCircle
 10
3061.440764792605
 20
1178.010494296727
 30
-0.0000000000545587
 40
0.0002500000000003
100
AcDbArc
 50
315.0
 51
0.0
  0
ARC
  5
22D7
330
1F
100
AcDbEntity
  8
SANINDUSA
100
AcDbCircle
 10
3061.441604901044
 20
1178.0929771962
 30
-0.0000000000545587
 40
0.0967200954923435
100
AcDbArc
 50
254.4398303579209
 51
267.8505420588376
  0
LINE
  5
22D8
330
1F
100
AcDbEntity
  8
SANINDUSA
100
AcDbLine
 10
3061.440461239215
 20
1178.009837189946
 30
-0.0000000000545587
 11
3061.440941569301
 21
1178.010317520031
 31
-0.0000000000545587
  0
ARC
  5
22D9
330
1F
100
AcDbEntity
  8
SANINDUSA
100
AcDbCircle
 10
3061.415793841846
 20
1178.000283636555
 30
-0.0000000000545587
 40
0.0005
100
AcDbArc
 50
90.0
 51
254.4398303579209
  0
ARC
  5
22DA
330
1F
100
AcDbEntity
  8
SANINDUSA
100
AcDbCircle
 10
3061.440814792606
 20
1178.009483636555
 30
-0.0000000000545587
 40
0.0005
100
AcDbArc
 50
135.0
 51
225.0
  0
LINE
  5
22DB
330
1F
100
AcDbEntity
  8
SANINDUSA
100
AcDbLine
 10
3061.415793841846
 20
1178.000783636555
 30
-0.0000000000545587
 11
3061.428491488474
 21
1178.000783636555
 31
-0.0000000000545587
  0
LINE
  5
22DC
330
1F
100
AcDbEntity
  8
SANINDUSA
100
AcDbLine
 10
3061.440941569301
 20
1178.008649753078
 30
-0.0000000000545587
 11
3061.440461239215
 21
1178.009130083164
 31
-0.0000000000545587
  0
ARC
  5
22DD
330
1F
100
AcDbEntity
  8
SANINDUSA
100
AcDbCircle
 10
3061.428491488474
 20
1178.001783636555
 30
-0.0000000000545587
 40
0.001
100
AcDbArc
 50
270.0
 51
90.0
  0
ARC
  5
22DE
330
1F
100
AcDbEntity
  8
SANINDUSA
100
AcDbCircle
 10
3061.440764792605
 20
1178.008472976383
 30
-0.0000000000545587
 40
0.00025
100
AcDbArc
 50
0.0
 51
45.0
  0
LINE
  5
22DF
330
1F
100
AcDbEntity
  8
SANINDUSA
100
AcDbLine
 10
3061.428491488474
 20
1178.002783636555
 30
-0.0000000000545587
 11
3061.406491488474
 21
1178.002783636555
 31
-0.0000000000545587
  0
LINE
  5
22E0
330
1F
100
AcDbEntity
  8
SANINDUSA
100
AcDbLine
 10
3061.441014792606
 20
1177.998283612893
 30
-0.0000000000545587
 11
3061.441014792606
 21
1178.008472976383
 31
-0.0000000000545587
  0
ARC
  5
22E1
330
1F
100
AcDbEntity
  8
SANINDUSA
100
AcDbCircle
 10
3061.406491488474
 20
1178.001783636555
 30
-0.0000000000545587
 40
0.001
100
AcDbArc
 50
90.0
 51
248.9411647530097
  0
ARC
  5
22E2
330
1F
100
AcDbEntity
  8
SANINDUSA
100
AcDbCircle
 10
3061.442014792606
 20
1177.998283612893
 30
-0.0000000000545587
 40
0.0010000000000003
100
AcDbArc
 50
180.0
 51
225.0893040434008
  0
ARC
  5
22E3
330
1F
100
AcDbEntity
  8
SANINDUSA
100
AcDbCircle
 10
3061.441604901044
 20
1178.0929771962
 30
-0.0000000000545587
 40
0.0987200954923432
100
AcDbArc
 50
248.9411647530097
 51
269.9477633915498
  0
LINE
  5
22E4
330
1F
100
AcDbEntity
  8
SANINDUSA
100
AcDbLine
 10
3061.442215227926
 20
1177.996671786976
 30
-0.0000000000545587
 11
3061.441308788815
 21
1177.99757540484
 31
-0.0000000000545587
  0
ARC
  5
22E5
330
1F
100
AcDbEntity
  8
SANINDUSA
100
AcDbCircle
 10
3061.441515809587
 20
1177.99525714132
 30
-0.0000000000545587
 40
0.001
100
AcDbArc
 50
269.9477633915498
 51
0.5340991042797022
  0
ARC
  5
22E6
330
1F
100
AcDbEntity
  8
SANINDUSA
100
AcDbCircle
 10
3061.441509224135
 20
1177.995963578922
 30
-0.0000000000545587
 40
0.0010000000000003
100
AcDbArc
 50
0.5340991042797022
 51
45.08930404340082
  0
LINE
  5
22E7
330
1F
100
AcDbEntity
  8
SANINDUSA
100
AcDbLine
 10
3061.44251576614
 20
1177.995266462973
 30
-0.0000000000545587
 11
3061.442509180687
 21
1177.995972900575
 31
-0.0000000000545587
  0
LINE
  5
22E8
330
1F
100
AcDbEntity
  8
SANINDUSA
100
AcDbLine
 10
3061.392389565315
 20
1178.013483636555
 30
-0.0000000000545587
 11
3061.395078178464
 21
1178.013483636555
 31
-0.0000000000545587
  0
ARC
  5
22E9
330
1F
100
AcDbEntity
  8
SANINDUSA
100
AcDbCircle
 10
3061.395078178464
 20
1178.012983636555
 30
-0.0000000000545587
 40
0.0005
100
AcDbArc
 50
19.47122063801706
 51
90.0
  0
ARC
  5
22EA
330
1F
100
AcDbEntity
  8
SANINDUSA
100
AcDbCircle
 10
3061.392389565315
 20
1178.012983636555
 30
-0.0000000000545587
 40
0.0005000000000001
100
AcDbArc
 50
90.0
 51
156.4218215301239
  0
ARC
  5
22EB
330
1F
100
AcDbEntity
  8
SANINDUSA
100
AcDbCircle
 10
3061.396492392027
 20
1178.013483636555
 30
-0.0000000000545587
 40
0.001
100
AcDbArc
 50
199.471220638017
 51
340.5287793619829
  0
ARC
  5
22EC
330
1F
100
AcDbEntity
  8
SANINDUSA
100
AcDbCircle
 10
3061.391014792606
 20
1178.013583636555
 30
-0.0000000000545587
 40
0.0009999999999999
100
AcDbArc
 50
180.0
 51
336.421821530124
  0
ARC
  5
22ED
330
1F
100
AcDbEntity
  8
SANINDUSA
100
AcDbCircle
 10
3061.397906605589
 20
1178.012983636555
 30
-0.0000000000545587
 40
0.0004999999999999
100
AcDbArc
 50
90.0
 51
160.5287793619829
  0
LINE
  5
22EE
330
1F
100
AcDbEntity
  8
SANINDUSA
100
AcDbLine
 10
3061.390014792606
 20
1178.013583636555
 30
-0.0000000000545587
 11
3061.390014792606
 21
1178.014483636555
 31
-0.0000000000545587
  0
LINE
  5
22EF
330
1F
100
AcDbEntity
  8
SANINDUSA
100
AcDbLine
 10
3061.397906605589
 20
1178.013483636555
 30
-0.0000000000545587
 11
3061.399492768846
 21
1178.013483636555
 31
-0.0000000000545587
  0
ARC
  5
22F0
330
1F
100
AcDbEntity
  8
SANINDUSA
100
AcDbCircle
 10
3061.391014792606
 20
1178.014483636555
 30
-0.0000000000545587
 40
0.0009999999999999
100
AcDbArc
 50
90.0
 51
180.0
  0
ARC
  5
22F1
330
1F
100
AcDbEntity
  8
SANINDUSA
100
AcDbCircle
 10
3061.399492768846
 20
1178.012983636555
 30
-0.0000000000545587
 40
0.0005
100
AcDbArc
 50
0.0
 51
90.0
  0
LINE
  5
22F2
330
1F
100
AcDbEntity
  8
SANINDUSA
100
AcDbLine
 10
3061.391014792606
 20
1178.015483636555
 30
-0.0000000000545587
 11
3061.422514792606
 21
1178.015483636555
 31
-0.0000000000545587
  0
LINE
  5
22F3
330
1F
100
AcDbEntity
  8
SANINDUSA
100
AcDbLine
 10
3061.399992768846
 20
1178.012983636555
 30
-0.0000000000545587
 11
3061.399992768846
 21
1178.005983636555
 31
-0.0000000000545587
  0
ARC
  5
22F4
330
1F
100
AcDbEntity
  8
SANINDUSA
100
AcDbCircle
 10
3061.422514792606
 20
1178.014483636555
 30
-0.0000000000545587
 40
0.001
100
AcDbArc
 50
270.0
 51
90.0
  0
ARC
  5
22F5
330
1F
100
AcDbEntity
  8
SANINDUSA
100
AcDbCircle
 10
3061.399492768846
 20
1178.005983636555
 30
-0.0000000000545587
 40
0.0005
100
AcDbArc
 50
270.0
 51
0.0
  0
LINE
  5
22F6
330
1F
100
AcDbEntity
  8
SANINDUSA
100
AcDbLine
 10
3061.422514792606
 20
1178.013483636555
 30
-0.0000000000545587
 11
3061.402492768846
 21
1178.013483636555
 31
-0.0000000000545587
  0
LINE
  5
22F7
330
1F
100
AcDbEntity
  8
SANINDUSA
100
AcDbLine
 10
3061.399492768846
 20
1178.005483636555
 30
-0.0000000000545587
 11
3061.397906605589
 21
1178.005483636555
 31
-0.0000000000545587
  0
ARC
  5
22F8
330
1F
100
AcDbEntity
  8
SANINDUSA
100
AcDbCircle
 10
3061.402492768846
 20
1178.012983636555
 30
-0.0000000000545587
 40
0.0005000000000001
100
AcDbArc
 50
90.0
 51
180.0
  0
ARC
  5
22F9
330
1F
100
AcDbEntity
  8
SANINDUSA
100
AcDbCircle
 10
3061.397906605589
 20
1178.005983636555
 30
-0.0000000000545587
 40
0.0005
100
AcDbArc
 50
199.471220638017
 51
270.0
  0
LINE
  5
22FA
330
1F
100
AcDbEntity
  8
SANINDUSA
100
AcDbLine
 10
3061.401992768846
 20
1178.012983636555
 30
-0.0000000000545587
 11
3061.401992768846
 21
1178.005983636555
 31
-0.0000000000545587
  0
ARC
  5
22FB
330
1F
100
AcDbEntity
  8
SANINDUSA
100
AcDbCircle
 10
3061.396492392027
 20
1178.005483636555
 30
-0.0000000000545587
 40
0.001
100
AcDbArc
 50
19.47122063801706
 51
160.5287793619829
  0
ARC
  5
22FC
330
1F
100
AcDbEntity
  8
SANINDUSA
100
AcDbCircle
 10
3061.402492768846
 20
1178.005983636555
 30
-0.0000000000545587
 40
0.0005000000000001
100
AcDbArc
 50
180.0
 51
270.0
  0
ARC
  5
22FD
330
1F
100
AcDbEntity
  8
SANINDUSA
100
AcDbCircle
 10
3061.395078178464
 20
1178.005983636555
 30
-0.0000000000545587
 40
0.0005
100
AcDbArc
 50
270.0
 51
340.5287793619829
  0
LINE
  5
22FE
330
1F
100
AcDbEntity
  8
SANINDUSA
100
AcDbLine
 10
3061.402492768846
 20
1178.005483636555
 30
-0.0000000000545587
 11
3061.422514792606
 21
1178.005483636555
 31
-0.0000000000545587
  0
LINE
  5
22FF
330
1F
100
AcDbEntity
  8
SANINDUSA
100
AcDbLine
 10
3061.395078178464
 20
1178.005483636555
 30
-0.0000000000545587
 11
3061.392389565315
 21
1178.005483636555
 31
-0.0000000000545587
  0
ARC
  5
2300
330
1F
100
AcDbEntity
  8
SANINDUSA
100
AcDbCircle
 10
3061.422514792606
 20
1178.004483636555
 30
-0.0000000000545587
 40
0.001
100
AcDbArc
 50
270.0
 51
90.0
  0
ARC
  5
2301
330
1F
100
AcDbEntity
  8
SANINDUSA
100
AcDbCircle
 10
3061.392389565315
 20
1178.005983636555
 30
-0.0000000000545587
 40
0.0005000000000001
100
AcDbArc
 50
203.578178469876
 51
270.0
  0
LINE
  5
2302
330
1F
100
AcDbEntity
  8
SANINDUSA
100
AcDbLine
 10
3061.422514792606
 20
1178.003483636555
 30
-0.0000000000545587
 11
3061.391014792606
 21
1178.003483636555
 31
-0.0000000000545587
  0
ARC
  5
2303
330
1F
100
AcDbEntity
  8
SANINDUSA
100
AcDbCircle
 10
3061.391014792606
 20
1178.005383636555
 30
-0.0000000000545587
 40
0.0009999999999999
100
AcDbArc
 50
23.57817846987604
 51
180.0
  0
ARC
  5
2304
330
1F
100
AcDbEntity
  8
SANINDUSA
100
AcDbCircle
 10
3061.391014792606
 20
1178.004483636555
 30
-0.0000000000545587
 40
0.0010000000000001
100
AcDbArc
 50
180.0
 51
270.0
  0
LINE
  5
2305
330
1F
100
AcDbEntity
  8
SANINDUSA
100
AcDbLine
 10
3061.390014792606
 20
1178.004483636555
 30
-0.0000000000545587
 11
3061.390014792606
 21
1178.005383636555
 31
-0.0000000000545587
  0
LINE
  5
2306
330
1F
100
AcDbEntity
  8
SANINDUSA
100
AcDbLine
 10
3061.444864792606
 20
1177.99425714132
 30
-0.0000000000545587
 11
3061.444864792606
 21
1178.018183636555
 31
-0.0000000000545587
  0
LINE
  5
2307
330
1F
100
AcDbEntity
  8
SANINDUSA
100
AcDbLine
 10
3061.443864792606
 20
1178.018183636555
 30
-0.0000000000545587
 11
3061.444864792606
 21
1178.018183636555
 31
-0.0000000000545587
  0
LINE
  5
2308
330
1F
100
AcDbEntity
  8
SANINDUSA
100
AcDbLine
 10
3061.444864792606
 20
1177.99425714132
 30
-0.0000000000545587
 11
3061.443865911693
 21
1177.99425714132
 31
-0.0000000000545587
  0
ARC
  5
2309
330
1F
100
AcDbEntity
  8
SANINDUSA
100
AcDbCircle
 10
3061.443864792606
 20
1178.017183636555
 30
-0.0000000000545587
 40
0.0009999999999999
100
AcDbArc
 50
90.0
 51
180.0
  0
ARC
  5
230A
330
1F
100
AcDbEntity
  8
SANINDUSA
100
AcDbCircle
 10
3061.443865911693
 20
1177.99525714132
 30
-0.0000000000545587
 40
0.0009999999999999
100
AcDbArc
 50
180.5340991042797
 51
270.0
  0
LINE
  5
230B
330
1F
100
AcDbEntity
  8
SANINDUSA
100
AcDbLine
 10
3061.442864792606
 20
1178.016197850118
 30
-0.0000000000545587
 11
3061.442864792606
 21
1178.017183636555
 31
-0.0000000000545587
  0
LINE
  5
230C
330
1F
100
AcDbEntity
  8
SANINDUSA
100
AcDbLine
 10
3061.442865955141
 20
1177.995247819667
 30
-0.0000000000545587
 11
3061.442859165481
 21
1177.995976163154
 31
-0.0000000000545587
  0
ARC
  5
230D
330
1F
100
AcDbEntity
  8
SANINDUSA
100
AcDbCircle
 10
3061.441514792606
 20
1178.016197850118
 30
-0.0000000000545587
 40
0.0013499999999998
100
AcDbArc
 50
315.0
 51
0.0
  0
ARC
  5
230E
330
1F
100
AcDbEntity
  8
SANINDUSA
100
AcDbCircle
 10
3061.441509224135
 20
1177.995963578922
 30
-0.0000000000545587
 40
0.00135
100
AcDbArc
 50
0.5340991042797022
 51
45.08930404340082
  0
LINE
  5
230F
330
1F
100
AcDbEntity
  8
SANINDUSA
100
AcDbLine
 10
3061.441555173198
 20
1178.0143290424
 30
-0.0000000000545587
 11
3061.442469386761
 21
1178.015243255963
 31
-0.0000000000545587
  0
LINE
  5
2310
330
1F
100
AcDbEntity
  8
SANINDUSA
100
AcDbLine
 10
3061.442462329253
 20
1177.996919659795
 30
-0.0000000000545587
 11
3061.441555890141
 21
1177.997823277658
 31
-0.0000000000545587
  0
ARC
  5
2311
330
1F
100
AcDbEntity
  8
SANINDUSA
100
AcDbCircle
 10
3061.442014792606
 20
1178.013869422993
 30
-0.0000000000545587
 40
0.0006500000000003
100
AcDbArc
 50
135.0
 51
180.0
  0
ARC
  5
2312
330
1F
100
AcDbEntity
  8
SANINDUSA
100
AcDbCircle
 10
3061.442014792606
 20
1177.998283612893
 30
-0.0000000000545587
 40
0.0006500000000003
100
AcDbArc
 50
180.0
 51
225.0893040434008
  0
LINE
  5
2313
330
1F
100
AcDbEntity
  8
SANINDUSA
100
AcDbLine
 10
3061.441364792606
 20
1177.998283612893
 30
-0.0000000000545587
 11
3061.441364792606
 21
1178.013869422993
 31
-0.0000000000545587
  0
ARC
  5
2357
330
1F
100
AcDbEntity
  8
SANINDUSA
100
AcDbCircle
 10
3062.348714322773
 20
1177.369731916258
 30
-0.0000000017937957
 40
0.001
100
AcDbArc
 50
0.0
 51
90.0
  0
LINE
  5
2358
330
1F
100
AcDbEntity
  8
SANINDUSA
100
AcDbLine
 10
3062.288714322774
 20
1177.377231916258
 30
-0.0000000017937957
 11
3062.274714322774
 21
1177.377231916258
 31
-0.0000000017937957
  0
LINE
  5
2359
330
1F
100
AcDbEntity
  8
SANINDUSA
100
AcDbLine
 10
3062.289714322773
 20
1177.351231916258
 30
-0.0000000017937957
 11
3062.273714322774
 21
1177.351231916258
 31
-0.0000000017937957
  0
LINE
  5
235A
330
1F
100
AcDbEntity
  8
SANINDUSA
100
AcDbLine
 10
3062.272825433885
 20
1177.355231916258
 30
-0.0000000017937957
 11
3062.289714322773
 21
1177.355231916258
 31
-0.0000000017937957
  0
ARC
  5
235B
330
1F
100
AcDbEntity
  8
SANINDUSA
100
AcDbCircle
 10
3062.288714322774
 20
1177.376231916258
 30
-0.0000000017937957
 40
0.001
100
AcDbArc
 50
0.0
 51
90.0
  0
LINE
  5
235C
330
1F
100
AcDbEntity
  8
SANINDUSA
100
AcDbLine
 10
3062.289714322773
 20
1177.351231916258
 30
-0.0000000017937957
 11
3062.290603211662
 21
1177.351231916258
 31
-0.0000000017937957
  0
LINE
  5
235D
330
1F
100
AcDbEntity
  8
SANINDUSA
100
AcDbLine
 10
3062.289214322774
 20
1177.355231916258
 30
-0.0000000017937957
 11
3062.289214322774
 21
1177.351231916258
 31
-0.0000000017937957
  0
LINE
  5
235E
330
1F
100
AcDbEntity
  8
SANINDUSA
100
AcDbLine
 10
3062.290603211662
 20
1177.351231916258
 30
-0.0000000017937957
 11
3062.290603211662
 21
1177.370731916258
 31
-0.0000000017937957
  0
LINE
  5
235F
330
1F
100
AcDbEntity
  8
SANINDUSA
100
AcDbLine
 10
3062.289714322773
 20
1177.355231916258
 30
-0.0000000017937957
 11
3062.289714322773
 21
1177.376231916258
 31
-0.0000000017937957
  0
LINE
  5
2360
330
1F
100
AcDbEntity
  8
SANINDUSA
100
AcDbLine
 10
3062.290603211662
 20
1177.370731916258
 30
-0.0000000017937957
 11
3062.348714322773
 21
1177.370731916258
 31
-0.0000000017937957
  0
ARC
  5
2361
330
1F
100
AcDbEntity
  8
SANINDUSA
100
AcDbCircle
 10
3062.348714322773
 20
1177.336731916258
 30
-0.0000000017937957
 40
0.001
100
AcDbArc
 50
270.0
 51
0.0
  0
LINE
  5
2362
330
1F
100
AcDbEntity
  8
SANINDUSA
100
AcDbLine
 10
3062.274714322774
 20
1177.329231916258
 30
-0.0000000017937957
 11
3062.288714322773
 21
1177.329231916258
 31
-0.0000000017937957
  0
ARC
  5
2363
330
1F
100
AcDbEntity
  8
SANINDUSA
100
AcDbCircle
 10
3062.288714322773
 20
1177.330231916258
 30
-0.0000000017937957
 40
0.001
100
AcDbArc
 50
270.0
 51
0.0
  0
LINE
  5
2364
330
1F
100
AcDbEntity
  8
SANINDUSA
100
AcDbLine
 10
3062.348714322773
 20
1177.335731916258
 30
-0.0000000017937957
 11
3062.289714322773
 21
1177.335731916258
 31
-0.0000000017937957
  0
LINE
  5
2365
330
1F
100
AcDbEntity
  8
SANINDUSA
100
AcDbLine
 10
3062.289714322773
 20
1177.330231916258
 30
-0.0000000017937957
 11
3062.289714322773
 21
1177.351231916258
 31
-0.0000000017937957
  0
LINE
  5
2366
330
1F
100
AcDbEntity
  8
SANINDUSA
100
AcDbLine
 10
3062.349714322774
 20
1177.369731916258
 30
-0.0000000017937957
 11
3062.349714322774
 21
1177.336731916258
 31
-0.0000000017937957
  0
LINE
  5
2367
330
1F
100
AcDbEntity
  8
SANINDUSA
100
AcDbLine
 10
3062.274214322773
 20
1177.355231916258
 30
-0.0000000017937957
 11
3062.274214322773
 21
1177.351231916258
 31
-0.0000000017937957
  0
LINE
  5
2368
330
1F
100
AcDbEntity
  8
SANINDUSA
100
AcDbLine
 10
3062.273714322774
 20
1177.376231916258
 30
-0.0000000017937957
 11
3062.273714322774
 21
1177.370731916258
 31
-0.0000000017937957
  0
LINE
  5
2369
330
1F
100
AcDbEntity
  8
SANINDUSA
100
AcDbLine
 10
3062.273714322774
 20
1177.370731916258
 30
-0.0000000017937957
 11
3062.273714322774
 21
1177.355231916258
 31
-0.0000000017937957
  0
ARC
  5
236A
330
1F
100
AcDbEntity
  8
SANINDUSA
100
AcDbCircle
 10
3062.274714322774
 20
1177.376231916258
 30
-0.0000000017937957
 40
0.001
100
AcDbArc
 50
90.0
 51
180.0
  0
ARC
  5
236B
330
1F
100
AcDbEntity
  8
SANINDUSA
100
AcDbCircle
 10
3062.214714322774
 20
1177.369731916258
 30
-0.0000000017937957
 40
0.001
100
AcDbArc
 50
90.0
 51
180.0
  0
LINE
  5
236C
330
1F
100
AcDbEntity
  8
SANINDUSA
100
AcDbLine
 10
3062.273714322774
 20
1177.370731916258
 30
-0.0000000017937957
 11
3062.214714322774
 21
1177.370731916258
 31
-0.0000000017937957
  0
ARC
  5
236D
330
1F
100
AcDbEntity
  8
SANINDUSA
100
AcDbCircle
 10
3062.274714322774
 20
1177.330231916258
 30
-0.0000000017937957
 40
0.001
100
AcDbArc
 50
180.0
 51
270.0
  0
ARC
  5
236E
330
1F
100
AcDbEntity
  8
SANINDUSA
100
AcDbCircle
 10
3062.214714322774
 20
1177.336731916258
 30
-0.0000000017937957
 40
0.001
100
AcDbArc
 50
180.0
 51
270.0
  0
LINE
  5
236F
330
1F
100
AcDbEntity
  8
SANINDUSA
100
AcDbLine
 10
3062.214714322774
 20
1177.335731916258
 30
-0.0000000017937957
 11
3062.272825433885
 21
1177.335731916258
 31
-0.0000000017937957
  0
LINE
  5
2370
330
1F
100
AcDbEntity
  8
SANINDUSA
100
AcDbLine
 10
3062.213714322773
 20
1177.369731916258
 30
-0.0000000017937957
 11
3062.213714322773
 21
1177.336731916258
 31
-0.0000000017937957
  0
LINE
  5
2371
330
1F
100
AcDbEntity
  8
SANINDUSA
100
AcDbLine
 10
3062.272825433885
 20
1177.335731916258
 30
-0.0000000017937957
 11
3062.272825433885
 21
1177.355231916258
 31
-0.0000000017937957
  0
LINE
  5
2372
330
1F
100
AcDbEntity
  8
SANINDUSA
100
AcDbLine
 10
3062.273714322774
 20
1177.351231916258
 30
-0.0000000017937957
 11
3062.273714322774
 21
1177.330231916258
 31
-0.0000000017937957
  0
ARC
  5
2373
330
1F
100
AcDbEntity
  8
SANINDUSA
100
AcDbCircle
 10
3062.348714322773
 20
1178.629731916248
 30
-0.0000000017937957
 40
0.001
100
AcDbArc
 50
0.0
 51
90.0
  0
LINE
  5
2374
330
1F
100
AcDbEntity
  8
SANINDUSA
100
AcDbLine
 10
3062.288714322774
 20
1178.637231916248
 30
-0.0000000017937957
 11
3062.274714322774
 21
1178.637231916248
 31
-0.0000000017937957
  0
LINE
  5
2375
330
1F
100
AcDbEntity
  8
SANINDUSA
100
AcDbLine
 10
3062.289714322773
 20
1178.611231916248
 30
-0.0000000017937957
 11
3062.273714322774
 21
1178.611231916248
 31
-0.0000000017937957
  0
LINE
  5
2376
330
1F
100
AcDbEntity
  8
SANINDUSA
100
AcDbLine
 10
3062.272825433885
 20
1178.615231916248
 30
-0.0000000017937957
 11
3062.289714322773
 21
1178.615231916248
 31
-0.0000000017937957
  0
ARC
  5
2377
330
1F
100
AcDbEntity
  8
SANINDUSA
100
AcDbCircle
 10
3062.288714322774
 20
1178.636231916248
 30
-0.0000000017937957
 40
0.001
100
AcDbArc
 50
0.0
 51
90.0
  0
LINE
  5
2378
330
1F
100
AcDbEntity
  8
SANINDUSA
100
AcDbLine
 10
3062.289714322773
 20
1178.611231916248
 30
-0.0000000017937957
 11
3062.290603211662
 21
1178.611231916248
 31
-0.0000000017937957
  0
LINE
  5
2379
330
1F
100
AcDbEntity
  8
SANINDUSA
100
AcDbLine
 10
3062.289214322774
 20
1178.615231916248
 30
-0.0000000017937957
 11
3062.289214322774
 21
1178.611231916248
 31
-0.0000000017937957
  0
LINE
  5
237A
330
1F
100
AcDbEntity
  8
SANINDUSA
100
AcDbLine
 10
3062.290603211662
 20
1178.611231916248
 30
-0.0000000017937957
 11
3062.290603211662
 21
1178.630731916248
 31
-0.0000000017937957
  0
LINE
  5
237B
330
1F
100
AcDbEntity
  8
SANINDUSA
100
AcDbLine
 10
3062.289714322773
 20
1178.615231916248
 30
-0.0000000017937957
 11
3062.289714322773
 21
1178.636231916248
 31
-0.0000000017937957
  0
LINE
  5
237C
330
1F
100
AcDbEntity
  8
SANINDUSA
100
AcDbLine
 10
3062.290603211662
 20
1178.630731916248
 30
-0.0000000017937957
 11
3062.348714322773
 21
1178.630731916248
 31
-0.0000000017937957
  0
ARC
  5
237D
330
1F
100
AcDbEntity
  8
SANINDUSA
100
AcDbCircle
 10
3062.348714322773
 20
1178.596731916248
 30
-0.0000000017937957
 40
0.001
100
AcDbArc
 50
270.0
 51
0.0
  0
LINE
  5
237E
330
1F
100
AcDbEntity
  8
SANINDUSA
100
AcDbLine
 10
3062.274714322774
 20
1178.589231916248
 30
-0.0000000017937957
 11
3062.288714322773
 21
1178.589231916248
 31
-0.0000000017937957
  0
ARC
  5
237F
330
1F
100
AcDbEntity
  8
SANINDUSA
100
AcDbCircle
 10
3062.288714322773
 20
1178.590231916248
 30
-0.0000000017937957
 40
0.001
100
AcDbArc
 50
270.0
 51
0.0
  0
LINE
  5
2380
330
1F
100
AcDbEntity
  8
SANINDUSA
100
AcDbLine
 10
3062.348714322773
 20
1178.595731916248
 30
-0.0000000017937957
 11
3062.289714322773
 21
1178.595731916248
 31
-0.0000000017937957
  0
LINE
  5
2381
330
1F
100
AcDbEntity
  8
SANINDUSA
100
AcDbLine
 10
3062.289714322773
 20
1178.590231916248
 30
-0.0000000017937957
 11
3062.289714322773
 21
1178.611231916248
 31
-0.0000000017937957
  0
LINE
  5
2382
330
1F
100
AcDbEntity
  8
SANINDUSA
100
AcDbLine
 10
3062.349714322774
 20
1178.629731916248
 30
-0.0000000017937957
 11
3062.349714322774
 21
1178.596731916248
 31
-0.0000000017937957
  0
LINE
  5
2383
330
1F
100
AcDbEntity
  8
SANINDUSA
100
AcDbLine
 10
3062.274214322773
 20
1178.615231916248
 30
-0.0000000017937957
 11
3062.274214322773
 21
1178.611231916248
 31
-0.0000000017937957
  0
LINE
  5
2384
330
1F
100
AcDbEntity
  8
SANINDUSA
100
AcDbLine
 10
3062.273714322774
 20
1178.636231916248
 30
-0.0000000017937957
 11
3062.273714322774
 21
1178.630731916248
 31
-0.0000000017937957
  0
LINE
  5
2385
330
1F
100
AcDbEntity
  8
SANINDUSA
100
AcDbLine
 10
3062.273714322774
 20
1178.630731916248
 30
-0.0000000017937957
 11
3062.273714322774
 21
1178.615231916248
 31
-0.0000000017937957
  0
ARC
  5
2386
330
1F
100
AcDbEntity
  8
SANINDUSA
100
AcDbCircle
 10
3062.274714322774
 20
1178.636231916248
 30
-0.0000000017937957
 40
0.001
100
AcDbArc
 50
90.0
 51
180.0
  0
ARC
  5
2387
330
1F
100
AcDbEntity
  8
SANINDUSA
100
AcDbCircle
 10
3062.214714322774
 20
1178.629731916248
 30
-0.0000000017937957
 40
0.001
100
AcDbArc
 50
90.0
 51
180.0
  0
LINE
  5
2388
330
1F
100
AcDbEntity
  8
SANINDUSA
100
AcDbLine
 10
3062.273714322774
 20
1178.630731916248
 30
-0.0000000017937957
 11
3062.214714322774
 21
1178.630731916248
 31
-0.0000000017937957
  0
ARC
  5
2389
330
1F
100
AcDbEntity
  8
SANINDUSA
100
AcDbCircle
 10
3062.274714322774
 20
1178.590231916248
 30
-0.0000000017937957
 40
0.001
100
AcDbArc
 50
180.0
 51
270.0
  0
ARC
  5
238A
330
1F
100
AcDbEntity
  8
SANINDUSA
100
AcDbCircle
 10
3062.214714322774
 20
1178.596731916248
 30
-0.0000000017937957
 40
0.001
100
AcDbArc
 50
180.0
 51
270.0
  0
LINE
  5
238B
330
1F
100
AcDbEntity
  8
SANINDUSA
100
AcDbLine
 10
3062.214714322774
 20
1178.595731916248
 30
-0.0000000017937957
 11
3062.272825433885
 21
1178.595731916248
 31
-0.0000000017937957
  0
LINE
  5
238C
330
1F
100
AcDbEntity
  8
SANINDUSA
100
AcDbLine
 10
3062.213714322773
 20
1178.629731916248
 30
-0.0000000017937957
 11
3062.213714322773
 21
1178.596731916248
 31
-0.0000000017937957
  0
LINE
  5
238D
330
1F
100
AcDbEntity
  8
SANINDUSA
100
AcDbLine
 10
3062.272825433885
 20
1178.595731916248
 30
-0.0000000017937957
 11
3062.272825433885
 21
1178.615231916248
 31
-0.0000000017937957
  0
LINE
  5
238E
330
1F
100
AcDbEntity
  8
SANINDUSA
100
AcDbLine
 10
3062.273714322774
 20
1178.611231916248
 30
-0.0000000017937957
 11
3062.273714322774
 21
1178.590231916248
 31
-0.0000000017937957
  0
ENDSEC
  0
SECTION
  2
OBJECTS
  0
DICTIONARY
  5
C
330
0
100
AcDbDictionary
281
     1
  3
ACAD_COLOR
350
23BE
  3
ACAD_GROUP
350
D
  3
ACAD_LAYOUT
350
1A
  3
ACAD_MATERIAL
350
2391
  3
ACAD_MLEADERSTYLE
350
23D3
  3
ACAD_MLINESTYLE
350
17
  3
ACAD_PLOTSETTINGS
350
19
  3
ACAD_PLOTSTYLENAME
350
E
  3
ACAD_SCALELIST
350
23C1
  3
ACAD_TABLESTYLE
350
23BF
  3
ACAD_VISUALSTYLE
350
23AA
  3
ACDB_RECOMPOSE_DATA
350
246A
  3
AcDbVariableDictionary
350
3D
  3
ASE_INDEX_DICTIONARY
350
B91
  3
DWGPROPS
350
246B
  0
DICTIONARY
  5
23FB
330
10
100
AcDbDictionary
280
     1
281
     1
  3
ADSK_XREC_LAYER_RECONCILED
360
23FC
  0
DICTIONARY
  5
23FD
330
2F
100
AcDbDictionary
280
     1
281
     1
  3
ADSK_XREC_LAYER_RECONCILED
360
23FE
  0
DICTIONARY
  5
23FF
330
30
100
AcDbDictionary
280
     1
281
     1
  3
ADSK_XREC_LAYER_RECONCILED
360
2400
  0
DICTIONARY
  5
2401
330
31
100
AcDbDictionary
280
     1
281
     1
  3
ADSK_XREC_LAYER_RECONCILED
360
2402
  0
DICTIONARY
  5
2403
330
32
100
AcDbDictionary
280
     1
281
     1
  3
ADSK_XREC_LAYER_RECONCILED
360
2404
  0
DICTIONARY
  5
2405
330
33
100
AcDbDictionary
280
     1
281
     1
  3
ADSK_XREC_LAYER_RECONCILED
360
2406
  0
DICTIONARY
  5
2407
330
34
100
AcDbDictionary
280
     1
281
     1
  3
ADSK_XREC_LAYER_RECONCILED
360
2408
  0
DICTIONARY
  5
2409
330
35
100
AcDbDictionary
280
     1
281
     1
  3
ADSK_XREC_LAYER_RECONCILED
360
240A
  0
DICTIONARY
  5
240B
330
36
100
AcDbDictionary
280
     1
281
     1
  3
ADSK_XREC_LAYER_RECONCILED
360
240C
  0
DICTIONARY
  5
240D
330
37
100
AcDbDictionary
280
     1
281
     1
  3
ADSK_XREC_LAYER_RECONCILED
360
240E
  0
DICTIONARY
  5
240F
330
5D6
100
AcDbDictionary
280
     1
281
     1
  3
ADSK_XREC_LAYER_RECONCILED
360
2410
  0
DICTIONARY
  5
2411
330
8AF
100
AcDbDictionary
280
     1
281
     1
  3
ADSK_XREC_LAYER_RECONCILED
360
2412
  0
DICTIONARY
  5
2413
330
8F8
100
AcDbDictionary
280
     1
281
     1
  3
ADSK_XREC_LAYER_RECONCILED
360
2414
  0
DICTIONARY
  5
2415
330
91D
100
AcDbDictionary
280
     1
281
     1
  3
ADSK_XREC_LAYER_RECONCILED
360
2416
  0
DICTIONARY
  5
2417
330
D1F
100
AcDbDictionary
280
     1
281
     1
  3
ADSK_XREC_LAYER_RECONCILED
360
2418
  0
DICTIONARY
  5
2419
330
23FA
100
AcDbDictionary
280
     1
281
     1
  3
ADSK_XREC_LAYER_RECONCILED
360
241A
  0
DICTIONARY
  5
247A
330
2297
100
AcDbDictionary
280
     1
281
     1
  3
ACAD_MTEXT_RT
360
247B
  0
DICTIONARY
  5
23BE
102
{ACAD_REACTORS
330
C
102
}
330
C
100
AcDbDictionary
281
     1
  0
DICTIONARY
  5
D
102
{ACAD_REACTORS
330
C
102
}
330
C
100
AcDbDictionary
281
     1
  0
DICTIONARY
  5
1A
102
{ACAD_REACTORS
330
C
102
}
330
C
100
AcDbDictionary
281
     1
  3
Layout1
350
1E
  3
Layout2
350
26
  3
Model
350
22
  0
DICTIONARY
  5
2391
102
{ACAD_REACTORS
330
C
102
}
330
C
100
AcDbDictionary
281
     1
  3
ByBlock
350
239A
  3
ByLayer
350
2392
  3
Global
350
23A2
  0
DICTIONARY
  5
23D3
102
{ACAD_REACTORS
330
C
102
}
330
C
100
AcDbDictionary
281
     1
  3
Standard
350
23D4
  0
DICTIONARY
  5
17
102
{ACAD_REACTORS
330
C
102
}
330
C
100
AcDbDictionary
281
     1
  3
Standard
350
18
  0
DICTIONARY
  5
19
102
{ACAD_REACTORS
330
C
102
}
330
C
100
AcDbDictionary
281
     1
  0
ACDBDICTIONARYWDFLT
  5
E
102
{ACAD_REACTORS
330
C
102
}
330
C
100
AcDbDictionary
281
     1
  3
Normal
350
F
100
AcDbDictionaryWithDefault
340
F
  0
DICTIONARY
  5
23C1
102
{ACAD_REACTORS
330
C
102
}
330
C
100
AcDbDictionary
281
     1
  3
A0
350
23C2
  3
A1
350
23C3
  3
A2
350
23C4
  3
A3
350
23C5
  3
A4
350
23C6
  3
A5
350
23C7
  3
A6
350
23C8
  3
A7
350
23C9
  3
A8
350
23CA
  3
A9
350
23CB
  3
B0
350
23CC
  3
B1
350
23CD
  3
B2
350
23CE
  3
B3
350
23CF
  3
B4
350
23D0
  3
B5
350
23D1
  3
B6
350
23D2
  0
DICTIONARY
  5
23BF
102
{ACAD_REACTORS
330
C
102
}
330
C
100
AcDbDictionary
281
     1
  3
Standard
350
23C0
  0
DICTIONARY
  5
23AA
102
{ACAD_REACTORS
330
C
102
}
330
C
100
AcDbDictionary
281
     1
  3
2dWireframe
350
23B0
  3
3D Hidden
350
23B2
  3
3dWireframe
350
23B1
  3
Basic
350
23AF
  3
Brighten
350
23B6
  3
ColorChange
350
23BA
  3
Conceptual
350
23B3
  3
Dim
350
23B5
  3
EdgeColorOff
350
23BD
  3
Facepattern
350
23B9
  3
Flat
350
23AB
  3
FlatWithEdges
350
23AC
  3
Gouraud
350
23AD
  3
GouraudWithEdges
350
23AE
  3
JitterOff
350
23BB
  3
Linepattern
350
23B8
  3
OverhangOff
350
23BC
  3
Realistic
350
23B4
  3
Thicken
350
23B7
  0
XRECORD
  5
246A
102
{ACAD_REACTORS
330
C
102
}
330
C
100
AcDbXrecord
280
     1
 90
        1
330
23C0
  0
DICTIONARY
  5
3D
102
{ACAD_REACTORS
330
C
102
}
330
C
100
AcDbDictionary
281
     1
  3
CANNOSCALE
350
2464
  3
CMLEADERSTYLE
350
2463
  3
CTABLESTYLE
350
2462
  3
DIMASSOC
350
3F
  3
HIDETEXT
350
3E
  3
INDEXCTL
350
2466
  3
SORTENTS
350
2465
  3
XCLIPFRAME
350
2467
  0
DICTIONARY
  5
B91
102
{ACAD_REACTORS
330
C
102
}
330
C
100
AcDbDictionary
281
     1
  3
ASEBlockHierarchyIndexRecord
350
B92
1001
DCO15
1040
1485069952.593
  0
XRECORD
  5
246B
102
{ACAD_REACTORS
330
C
102
}
330
C
100
AcDbXrecord
280
     1
  1
DWGPROPS COOKIE
  2

  3

  4

  6

  7

  8
Julio
  9

300
=
301
=
302
=
303
=
304
=
305
=
306
=
307
=
308
=
309
=
 40
0.0191549074074074
 41
2453259.668776945
 42
2455817.518403681
  1

 90
        0
  0
XRECORD
  5
23FC
102
{ACAD_REACTORS
330
23FB
102
}
330
23FB
100
AcDbXrecord
280
     1
290
     1
  0
XRECORD
  5
23FE
102
{ACAD_REACTORS
330
23FD
102
}
330
23FD
100
AcDbXrecord
280
     1
290
     1
  0
XRECORD
  5
2400
102
{ACAD_REACTORS
330
23FF
102
}
330
23FF
100
AcDbXrecord
280
     1
290
     1
  0
XRECORD
  5
2402
102
{ACAD_REACTORS
330
2401
102
}
330
2401
100
AcDbXrecord
280
     1
290
     1
  0
XRECORD
  5
2404
102
{ACAD_REACTORS
330
2403
102
}
330
2403
100
AcDbXrecord
280
     1
290
     1
  0
XRECORD
  5
2406
102
{ACAD_REACTORS
330
2405
102
}
330
2405
100
AcDbXrecord
280
     1
290
     1
  0
XRECORD
  5
2408
102
{ACAD_REACTORS
330
2407
102
}
330
2407
100
AcDbXrecord
280
     1
290
     1
  0
XRECORD
  5
240A
102
{ACAD_REACTORS
330
2409
102
}
330
2409
100
AcDbXrecord
280
     1
290
     1
  0
XRECORD
  5
240C
102
{ACAD_REACTORS
330
240B
102
}
330
240B
100
AcDbXrecord
280
     1
290
     1
  0
XRECORD
  5
240E
102
{ACAD_REACTORS
330
240D
102
}
330
240D
100
AcDbXrecord
280
     1
290
     1
  0
XRECORD
  5
2410
102
{ACAD_REACTORS
330
240F
102
}
330
240F
100
AcDbXrecord
280
     1
290
     1
  0
XRECORD
  5
2412
102
{ACAD_REACTORS
330
2411
102
}
330
2411
100
AcDbXrecord
280
     1
290
     1
  0
XRECORD
  5
2414
102
{ACAD_REACTORS
330
2413
102
}
330
2413
100
AcDbXrecord
280
     1
290
     1
  0
XRECORD
  5
2416
102
{ACAD_REACTORS
330
2415
102
}
330
2415
100
AcDbXrecord
280
     1
290
     1
  0
XRECORD
  5
2418
102
{ACAD_REACTORS
330
2417
102
}
330
2417
100
AcDbXrecord
280
     1
290
     1
  0
XRECORD
  5
241A
102
{ACAD_REACTORS
330
2419
102
}
330
2419
100
AcDbXrecord
280
     1
290
     1
  0
XRECORD
  5
247B
102
{ACAD_REACTORS
330
247A
102
}
330
247A
100
AcDbXrecord
280
     1
 40
3752.0
  1
90,0°
  0
LAYOUT
  5
1E
102
{ACAD_XDICTIONARY
360
246C
102
}
102
{ACAD_REACTORS
330
1A
102
}
330
1A
100
AcDbPlotSettings
  1

  2
Ploter HP500
  4

  6

 40
0.0
 41
0.0
 42
0.0
 43
0.0
 44
0.0
 45
0.0
 46
0.0
 47
0.0
 48
0.0
 49
0.0
140
0.0
141
0.0
142
1.0
143
1.0
 70
   688
 72
     0
 73
     0
 74
     5
  7
monochrome.ctb
 75
    16
147
1.0
148
0.0
149
0.0
100
AcDbLayout
  1
Layout1
 70
     1
 71
     1
 10
0.0
 20
0.0
 11
420.0
 21
297.0
 12
0.0
 22
0.0
 32
0.0
 14
1.000000000000000E+20
 24
1.000000000000000E+20
 34
1.000000000000000E+20
 15
-1.000000000000000E+20
 25
-1.000000000000000E+20
 35
-1.000000000000000E+20
146
0.0
 13
0.0
 23
0.0
 33
0.0
 16
1.0
 26
0.0
 36
0.0
 17
0.0
 27
1.0
 37
0.0
 76
     0
330
1B
  0
LAYOUT
  5
26
102
{ACAD_XDICTIONARY
360
2470
102
}
102
{ACAD_REACTORS
330
1A
102
}
330
1A
100
AcDbPlotSettings
  1

  2
Ploter HP500
  4

  6

 40
0.0
 41
0.0
 42
0.0
 43
0.0
 44
0.0
 45
0.0
 46
0.0
 47
0.0
 48
0.0
 49
0.0
140
0.0
141
0.0
142
1.0
143
1.0
 70
   688
 72
     0
 73
     0
 74
     5
  7
monochrome.ctb
 75
    16
147
1.0
148
0.0
149
0.0
100
AcDbLayout
  1
Layout2
 70
     1
 71
     2
 10
0.0
 20
0.0
 11
12.0
 21
9.0
 12
0.0
 22
0.0
 32
0.0
 14
0.0
 24
0.0
 34
0.0
 15
0.0
 25
0.0
 35
0.0
146
0.0
 13
0.0
 23
0.0
 33
0.0
 16
1.0
 26
0.0
 36
0.0
 17
0.0
 27
1.0
 37
0.0
 76
     0
330
23
  0
LAYOUT
  5
22
102
{ACAD_XDICTIONARY
360
246E
102
}
102
{ACAD_REACTORS
330
1A
102
}
330
1A
100
AcDbPlotSettings
  1

  2
Ploter HP500
  4
User268
  6

 40
4.995333194732666
 41
16.97565841674804
 42
4.995330810546875
 43
16.97567749023437
 44
209.9733276367187
 45
296.9259948730469
 46
0.0
 47
0.0
 48
0.0
 49
0.0
140
0.0
141
0.0
142
1.0
143
1.0
 70
 11952
 72
     1
 73
     1
 74
     0
  7

 75
     0
147
1.0
148
-427.5957866592534
149
7.362384574453926
100
AcDbLayout
  1
Model
 70
     1
 71
     0
 10
0.0
 20
0.0
 11
12.0
 21
9.0
 12
0.0
 22
0.0
 32
0.0
 14
0.0
 24
0.0
 34
0.0
 15
0.0
 25
0.0
 35
0.0
146
0.0
 13
0.0
 23
0.0
 33
0.0
 16
1.0
 26
0.0
 36
0.0
 17
0.0
 27
1.0
 37
0.0
 76
     0
330
1F
331
238F
  0
MATERIAL
  5
239A
102
{ACAD_XDICTIONARY
360
239B
102
}
102
{ACAD_REACTORS
330
2391
102
}
330
2391
100
AcDbMaterial
  1
ByBlock
 72
     0
 43
0.0008202099737533
 43
0.0
 43
0.0
 43
0.0
 43
0.0
 43
0.0008202099737533
 43
0.0
 43
0.0
 43
0.0
 43
0.0
 43
1.0
 43
0.0
 43
0.0
 43
0.0
 43
0.0
 43
1.0
 77
     0
 47
0.0008202099737533
 47
0.0
 47
0.0
 47
0.0
 47
0.0
 47
0.0008202099737533
 47
0.0
 47
0.0
 47
0.0
 47
0.0
 47
1.0
 47
0.0
 47
0.0
 47
0.0
 47
0.0
 47
1.0
171
     0
 49
0.0008202099737533
 49
0.0
 49
0.0
 49
0.0
 49
0.0
 49
0.0008202099737533
 49
0.0
 49
0.0
 49
0.0
 49
0.0
 49
1.0
 49
0.0
 49
0.0
 49
0.0
 49
0.0
 49
1.0
175
     0
142
0.0008202099737533
142
0.0
142
0.0
142
0.0
142
0.0
142
0.0008202099737533
142
0.0
142
0.0
142
0.0
142
0.0
142
1.0
142
0.0
142
0.0
142
0.0
142
0.0
142
1.0
179
     0
144
0.0008202099737533
144
0.0
144
0.0
144
0.0
144
0.0
144
0.0008202099737533
144
0.0
144
0.0
144
0.0
144
0.0
144
1.0
144
0.0
144
0.0
144
0.0
144
0.0
144
1.0
147
0.0008202099737533
147
0.0
147
0.0
147
0.0
147
0.0
147
0.0008202099737533
147
0.0
147
0.0
147
0.0
147
0.0
147
1.0
147
0.0
147
0.0
147
0.0
147
0.0
147
1.0
  0
MATERIAL
  5
2392
102
{ACAD_XDICTIONARY
360
2393
102
}
102
{ACAD_REACTORS
330
2391
102
}
330
2391
100
AcDbMaterial
  1
ByLayer
 72
     0
 43
0.0008202099737533
 43
0.0
 43
0.0
 43
0.0
 43
0.0
 43
0.0008202099737533
 43
0.0
 43
0.0
 43
0.0
 43
0.0
 43
1.0
 43
0.0
 43
0.0
 43
0.0
 43
0.0
 43
1.0
 77
     0
 47
0.0008202099737533
 47
0.0
 47
0.0
 47
0.0
 47
0.0
 47
0.0008202099737533
 47
0.0
 47
0.0
 47
0.0
 47
0.0
 47
1.0
 47
0.0
 47
0.0
 47
0.0
 47
0.0
 47
1.0
171
     0
 49
0.0008202099737533
 49
0.0
 49
0.0
 49
0.0
 49
0.0
 49
0.0008202099737533
 49
0.0
 49
0.0
 49
0.0
 49
0.0
 49
1.0
 49
0.0
 49
0.0
 49
0.0
 49
0.0
 49
1.0
175
     0
142
0.0008202099737533
142
0.0
142
0.0
142
0.0
142
0.0
142
0.0008202099737533
142
0.0
142
0.0
142
0.0
142
0.0
142
1.0
142
0.0
142
0.0
142
0.0
142
0.0
142
1.0
179
     0
144
0.0008202099737533
144
0.0
144
0.0
144
0.0
144
0.0
144
0.0008202099737533
144
0.0
144
0.0
144
0.0
144
0.0
144
1.0
144
0.0
144
0.0
144
0.0
144
0.0
144
1.0
147
0.0008202099737533
147
0.0
147
0.0
147
0.0
147
0.0
147
0.0008202099737533
147
0.0
147
0.0
147
0.0
147
0.0
147
1.0
147
0.0
147
0.0
147
0.0
147
0.0
147
1.0
  0
MATERIAL
  5
23A2
102
{ACAD_XDICTIONARY
360
23A3
102
}
102
{ACAD_REACTORS
330
2391
102
}
330
2391
100
AcDbMaterial
  1
Global
 72
     0
 43
0.0008202099737533
 43
0.0
 43
0.0
 43
0.0
 43
0.0
 43
0.0008202099737533
 43
0.0
 43
0.0
 43
0.0
 43
0.0
 43
1.0
 43
0.0
 43
0.0
 43
0.0
 43
0.0
 43
1.0
 77
     0
 47
0.0008202099737533
 47
0.0
 47
0.0
 47
0.0
 47
0.0
 47
0.0008202099737533
 47
0.0
 47
0.0
 47
0.0
 47
0.0
 47
1.0
 47
0.0
 47
0.0
 47
0.0
 47
0.0
 47
1.0
171
     0
 49
0.0008202099737533
 49
0.0
 49
0.0
 49
0.0
 49
0.0
 49
0.0008202099737533
 49
0.0
 49
0.0
 49
0.0
 49
0.0
 49
1.0
 49
0.0
 49
0.0
 49
0.0
 49
0.0
 49
1.0
175
     0
142
0.0008202099737533
142
0.0
142
0.0
142
0.0
142
0.0
142
0.0008202099737533
142
0.0
142
0.0
142
0.0
142
0.0
142
1.0
142
0.0
142
0.0
142
0.0
142
0.0
142
1.0
179
     0
144
0.0008202099737533
144
0.0
144
0.0
144
0.0
144
0.0
144
0.0008202099737533
144
0.0
144
0.0
144
0.0
144
0.0
144
1.0
144
0.0
144
0.0
144
0.0
144
0.0
144
1.0
147
0.0008202099737533
147
0.0
147
0.0
147
0.0
147
0.0
147
0.0008202099737533
147
0.0
147
0.0
147
0.0
147
0.0
147
1.0
147
0.0
147
0.0
147
0.0
147
0.0
147
1.0
  0
MLEADERSTYLE
  5
23D4
102
{ACAD_REACTORS
330
23D3
102
}
330
23D3
100
AcDbMLeaderStyle
170
     2
171
     1
172
     0
 90
        2
 40
0.0
 41
0.0
173
     1
 91
-1056964608
340
14
 92
       -2
290
     1
 42
2.0
291
     1
 43
0.36
  3
Standard
 44
4.0
300

342
11
174
     1
178
     6
175
     1
176
     0
 93
-1056964608
 45
4.0
292
     0
297
     0
 46
4.0
 94
-1056964608
 47
1.0
 49
1.0
140
1.0
293
     1
141
0.0
294
     1
177
     0
142
1.0
295
     0
296
     0
143
0.125
1001
ACAD_MLEADERVER
1070
     2
  0
MLINESTYLE
  5
18
102
{ACAD_REACTORS
330
17
102
}
330
17
100
AcDbMlineStyle
  2
STANDARD
 70
     0
  3

 62
   256
 51
90.0
 52
90.0
 71
     2
 49
0.5
 62
   256
  6
BYLAYER
 49
-0.5
 62
   256
  6
BYLAYER
  0
ACDBPLACEHOLDER
  5
F
102
{ACAD_REACTORS
330
E
102
}
330
E
  0
SCALE
  5
23C2
102
{ACAD_REACTORS
330
23C1
102
}
330
23C1
100
AcDbScale
 70
     0
300
1:1
140
1.0
141
1.0
290
     1
  0
SCALE
  5
23C3
102
{ACAD_REACTORS
330
23C1
102
}
330
23C1
100
AcDbScale
 70
     0
300
1:2
140
1.0
141
2.0
290
     0
  0
SCALE
  5
23C4
102
{ACAD_REACTORS
330
23C1
102
}
330
23C1
100
AcDbScale
 70
     0
300
1:4
140
1.0
141
4.0
290
     0
  0
SCALE
  5
23C5
102
{ACAD_REACTORS
330
23C1
102
}
330
23C1
100
AcDbScale
 70
     0
300
1:5
140
1.0
141
5.0
290
     0
  0
SCALE
  5
23C6
102
{ACAD_REACTORS
330
23C1
102
}
330
23C1
100
AcDbScale
 70
     0
300
1:8
140
1.0
141
8.0
290
     0
  0
SCALE
  5
23C7
102
{ACAD_REACTORS
330
23C1
102
}
330
23C1
100
AcDbScale
 70
     0
300
1:10
140
1.0
141
10.0
290
     0
  0
SCALE
  5
23C8
102
{ACAD_REACTORS
330
23C1
102
}
330
23C1
100
AcDbScale
 70
     0
300
1:16
140
1.0
141
16.0
290
     0
  0
SCALE
  5
23C9
102
{ACAD_REACTORS
330
23C1
102
}
330
23C1
100
AcDbScale
 70
     0
300
1:20
140
1.0
141
20.0
290
     0
  0
SCALE
  5
23CA
102
{ACAD_REACTORS
330
23C1
102
}
330
23C1
100
AcDbScale
 70
     0
300
1:30
140
1.0
141
30.0
290
     0
  0
SCALE
  5
23CB
102
{ACAD_REACTORS
330
23C1
102
}
330
23C1
100
AcDbScale
 70
     0
300
1:40
140
1.0
141
40.0
290
     0
  0
SCALE
  5
23CC
102
{ACAD_REACTORS
330
23C1
102
}
330
23C1
100
AcDbScale
 70
     0
300
1:50
140
1.0
141
50.0
290
     0
  0
SCALE
  5
23CD
102
{ACAD_REACTORS
330
23C1
102
}
330
23C1
100
AcDbScale
 70
     0
300
1:100
140
1.0
141
100.0
290
     0
  0
SCALE
  5
23CE
102
{ACAD_REACTORS
330
23C1
102
}
330
23C1
100
AcDbScale
 70
     0
300
2:1
140
2.0
141
1.0
290
     0
  0
SCALE
  5
23CF
102
{ACAD_REACTORS
330
23C1
102
}
330
23C1
100
AcDbScale
 70
     0
300
4:1
140
4.0
141
1.0
290
     0
  0
SCALE
  5
23D0
102
{ACAD_REACTORS
330
23C1
102
}
330
23C1
100
AcDbScale
 70
     0
300
8:1
140
8.0
141
1.0
290
     0
  0
SCALE
  5
23D1
102
{ACAD_REACTORS
330
23C1
102
}
330
23C1
100
AcDbScale
 70
     0
300
10:1
140
10.0
141
1.0
290
     0
  0
SCALE
  5
23D2
102
{ACAD_REACTORS
330
23C1
102
}
330
23C1
100
AcDbScale
 70
     0
300
100:1
140
100.0
141
1.0
290
     0
  0
TABLESTYLE
  5
23C0
102
{ACAD_XDICTIONARY
360
2468
102
}
102
{ACAD_REACTORS
330
23BF
102
}
330
23BF
100
AcDbTableStyle
  3
Standard
 70
     0
 71
     0
 40
1.5
 41
1.5
280
     0
281
     0
  7
Standard
140
4.5
170
     2
 62
     0
 63
     7
283
     0
274
    -2
284
     1
 64
     0
275
    -2
285
     1
 65
     0
276
    -2
286
     1
 66
     0
277
    -2
287
     1
 67
     0
278
    -2
288
     1
 68
     0
279
    -2
289
     1
 69
     0
  7
Standard
140
6.0
170
     5
 62
     0
 63
     7
283
     0
274
    -2
284
     1
 64
     0
275
    -2
285
     1
 65
     0
276
    -2
286
     1
 66
     0
277
    -2
287
     1
 67
     0
278
    -2
288
     1
 68
     0
279
    -2
289
     1
 69
     0
  7
Standard
140
4.5
170
     5
 62
     0
 63
     7
283
     0
274
    -2
284
     1
 64
     0
275
    -2
285
     1
 65
     0
276
    -2
286
     1
 66
     0
277
    -2
287
     1
 67
     0
278
    -2
288
     1
 68
     0
279
    -2
289
     1
 69
     0
  0
VISUALSTYLE
  5
23B0
102
{ACAD_XDICTIONARY
360
2489
102
}
102
{ACAD_REACTORS
330
23AA
102
}
330
23AA
100
AcDbVisualStyle
  2
2dWireframe
 70
     4
 71
     0
 72
     2
 73
     0
 90
        0
 40
-0.6
 41
-30.0
 62
     5
 63
     7
 74
     1
 91
        4
 64
     7
 65
   257
 75
     1
175
     1
 42
1.0
 92
        0
 66
   257
 43
1.0
 76
     1
 77
     6
 78
     2
 67
     7
 79
     5
170
     0
171
     0
290
     0
174
     0
 93
        1
 44
0.0
173
     0
291
     0
 45
0.0
1001
ACAD
1000
AcDbSavedByObjectVersion
1070
     0
  0
VISUALSTYLE
  5
23B2
102
{ACAD_XDICTIONARY
360
248D
102
}
102
{ACAD_REACTORS
330
23AA
102
}
330
23AA
100
AcDbVisualStyle
  2
3D Hidden
 70
     6
 71
     1
 72
     2
 73
     2
 90
        0
 40
-0.6
 41
-30.0
 62
     5
 63
     7
 74
     2
 91
        2
 64
     7
 65
   257
 75
     2
175
     1
 42
179.0
 92
        0
 66
   257
 43
1.0
 76
     1
 77
     6
 78
     2
 67
     7
 79
     3
170
     0
171
     0
290
     0
174
     0
 93
        1
 44
0.0
173
     0
291
     0
 45
0.0
1001
ACAD
1000
AcDbSavedByObjectVersion
1070
     0
  0
VISUALSTYLE
  5
23B1
102
{ACAD_XDICTIONARY
360
248B
102
}
102
{ACAD_REACTORS
330
23AA
102
}
330
23AA
100
AcDbVisualStyle
  2
3dWireframe
 70
     5
 71
     0
 72
     2
 73
     0
 90
        0
 40
-0.6
 41
-30.0
 62
     5
 63
     7
 74
     1
 91
        4
 64
     7
 65
   257
 75
     1
175
     1
 42
1.0
 92
        0
 66
   257
 43
1.0
 76
     1
 77
     6
 78
     2
 67
     7
 79
     5
170
     0
171
     0
290
     0
174
     0
 93
        1
 44
0.0
173
     0
291
     0
 45
0.0
1001
ACAD
1000
AcDbSavedByObjectVersion
1070
     0
  0
VISUALSTYLE
  5
23AF
102
{ACAD_XDICTIONARY
360
2487
102
}
102
{ACAD_REACTORS
330
23AA
102
}
330
23AA
100
AcDbVisualStyle
  2
Basic
 70
     7
 71
     1
 72
     0
 73
     1
 90
        0
 40
-0.6
 41
-30.0
 62
     5
 63
     7
 74
     0
 91
        4
 64
     7
 65
   257
 75
     1
175
     1
 42
1.0
 92
        8
 66
     7
 43
1.0
 76
     1
 77
     6
 78
     2
 67
     7
 79
     5
170
     0
171
     0
290
     0
174
     0
 93
        1
 44
0.0
173
     0
291
     1
 45
0.0
1001
ACAD
1000
AcDbSavedByObjectVersion
1070
     0
  0
VISUALSTYLE
  5
23B6
102
{ACAD_XDICTIONARY
360
2495
102
}
102
{ACAD_REACTORS
330
23AA
102
}
330
23AA
100
AcDbVisualStyle
  2
Brighten
 70
    12
 71
     2
 72
     2
 73
     0
 90
        0
 40
-0.6
 41
-30.0
 62
     5
 63
     7
 74
     1
 91
        4
 64
     7
 65
   257
 75
     1
175
     1
 42
1.0
 92
        8
 66
     7
 43
1.0
 76
     1
 77
     6
 78
     2
 67
     7
 79
     5
170
     0
171
     0
290
     0
174
     0
 93
        1
 44
50.0
173
     0
291
     1
 45
0.0
1001
ACAD
1000
AcDbSavedByObjectVersion
1070
     0
  0
VISUALSTYLE
  5
23BA
102
{ACAD_XDICTIONARY
360
249D
102
}
102
{ACAD_REACTORS
330
23AA
102
}
330
23AA
100
AcDbVisualStyle
  2
ColorChange
 70
    16
 71
     2
 72
     2
 73
     3
 90
        0
 40
-0.6
 41
-30.0
 62
     5
 63
     8
 74
     1
 91
        4
 64
     7
 65
   257
 75
     1
175
     1
 42
1.0
 92
        8
 66
     8
 43
1.0
 76
     1
 77
     6
 78
     2
 67
     7
 79
     5
170
     0
171
     0
290
     0
174
     0
 93
        1
 44
0.0
173
     0
291
     1
 45
0.0
1001
ACAD
1000
AcDbSavedByObjectVersion
1070
     0
  0
VISUALSTYLE
  5
23B3
102
{ACAD_XDICTIONARY
360
248F
102
}
102
{ACAD_REACTORS
330
23AA
102
}
330
23AA
100
AcDbVisualStyle
  2
Conceptual
 70
     9
 71
     3
 72
     2
 73
     0
 90
        0
 40
-0.6
 41
-30.0
 62
     5
 63
     7
 74
     2
 91
        2
 64
     7
 65
   257
 75
     1
175
     1
 42
179.0
 92
        8
 66
     7
 43
1.0
 76
     1
 77
     6
 78
     2
 67
     7
 79
     3
170
     0
171
     0
290
     0
174
     0
 93
        1
 44
0.0
173
     0
291
     0
 45
0.0
1001
ACAD
1000
AcDbSavedByObjectVersion
1070
     0
  0
VISUALSTYLE
  5
23B5
102
{ACAD_XDICTIONARY
360
2493
102
}
102
{ACAD_REACTORS
330
23AA
102
}
330
23AA
100
AcDbVisualStyle
  2
Dim
 70
    11
 71
     2
 72
     2
 73
     0
 90
        0
 40
-0.6
 41
-30.0
 62
     5
 63
     7
 74
     1
 91
        4
 64
     7
 65
   257
 75
     1
175
     1
 42
1.0
 92
        8
 66
     7
 43
1.0
 76
     1
 77
     6
 78
     2
 67
     7
 79
     5
170
     0
171
     0
290
     0
174
     0
 93
        1
 44
-50.0
173
     0
291
     1
 45
0.0
1001
ACAD
1000
AcDbSavedByObjectVersion
1070
     0
  0
VISUALSTYLE
  5
23BD
102
{ACAD_XDICTIONARY
360
24A3
102
}
102
{ACAD_REACTORS
330
23AA
102
}
330
23AA
100
AcDbVisualStyle
  2
EdgeColorOff
 70
    22
 71
     2
 72
     2
 73
     0
 90
        0
 40
-0.6
 41
-30.0
 62
     5
 63
     7
 74
     1
 91
        4
 64
     7
 65
   257
 75
     1
175
     1
 42
1.0
 92
        8
 66
     7
 43
1.0
 76
     1
 77
     6
 78
     2
 67
     7
 79
     5
170
     0
171
     0
290
     0
174
     0
 93
        1
 44
0.0
173
     0
291
     1
 45
0.0
1001
ACAD
1000
AcDbSavedByObjectVersion
1070
     0
  0
VISUALSTYLE
  5
23B9
102
{ACAD_XDICTIONARY
360
249B
102
}
102
{ACAD_REACTORS
330
23AA
102
}
330
23AA
100
AcDbVisualStyle
  2
Facepattern
 70
    15
 71
     2
 72
     2
 73
     0
 90
        0
 40
-0.6
 41
-30.0
 62
     5
 63
     7
 74
     1
 91
        4
 64
     7
 65
   257
 75
     1
175
     1
 42
1.0
 92
        8
 66
     7
 43
1.0
 76
     1
 77
     6
 78
     2
 67
     7
 79
     5
170
     0
171
     0
290
     0
174
     0
 93
        1
 44
0.0
173
     0
291
     1
 45
0.0
1001
ACAD
1000
AcDbSavedByObjectVersion
1070
     0
  0
VISUALSTYLE
  5
23AB
102
{ACAD_XDICTIONARY
360
247F
102
}
102
{ACAD_REACTORS
330
23AA
102
}
330
23AA
100
AcDbVisualStyle
  2
Flat
 70
     0
 71
     2
 72
     1
 73
     1
 90
        2
 40
-0.6
 41
30.0
 62
     5
 63
     7
 74
     0
 91
        4
 64
     7
 65
   257
 75
     1
175
     1
 42
1.0
 92
        8
 66
     7
 43
1.0
 76
     1
 77
     6
 78
     2
 67
     7
 79
     5
170
     0
171
     0
290
     0
174
     0
 93
       13
 44
0.0
173
     0
291
     1
 45
0.0
1001
ACAD
1000
AcDbSavedByObjectVersion
1070
     0
  0
VISUALSTYLE
  5
23AC
102
{ACAD_XDICTIONARY
360
2481
102
}
102
{ACAD_REACTORS
330
23AA
102
}
330
23AA
100
AcDbVisualStyle
  2
FlatWithEdges
 70
     1
 71
     2
 72
     1
 73
     1
 90
        2
 40
-0.6
 41
30.0
 62
     5
 63
     7
 74
     1
 91
        4
 64
     7
 65
   257
 75
     1
175
     1
 42
1.0
 92
        0
 66
   257
 43
1.0
 76
     1
 77
     6
 78
     2
 67
     7
 79
     5
170
     0
171
     0
290
     0
174
     0
 93
       13
 44
0.0
173
     0
291
     1
 45
0.0
1001
ACAD
1000
AcDbSavedByObjectVersion
1070
     0
  0
VISUALSTYLE
  5
23AD
102
{ACAD_XDICTIONARY
360
2483
102
}
102
{ACAD_REACTORS
330
23AA
102
}
330
23AA
100
AcDbVisualStyle
  2
Gouraud
 70
     2
 71
     2
 72
     2
 73
     1
 90
        2
 40
-0.6
 41
30.0
 62
     5
 63
     7
 74
     0
 91
        4
 64
     7
 65
   257
 75
     1
175
     1
 42
1.0
 92
        0
 66
     7
 43
1.0
 76
     1
 77
     6
 78
     2
 67
     7
 79
     5
170
     0
171
     0
290
     0
174
     0
 93
       13
 44
0.0
173
     0
291
     1
 45
0.0
1001
ACAD
1000
AcDbSavedByObjectVersion
1070
     0
  0
VISUALSTYLE
  5
23AE
102
{ACAD_XDICTIONARY
360
2485
102
}
102
{ACAD_REACTORS
330
23AA
102
}
330
23AA
100
AcDbVisualStyle
  2
GouraudWithEdges
 70
     3
 71
     2
 72
     2
 73
     1
 90
        2
 40
-0.6
 41
30.0
 62
     5
 63
     7
 74
     1
 91
        4
 64
     7
 65
   257
 75
     1
175
     1
 42
1.0
 92
        0
 66
   257
 43
1.0
 76
     1
 77
     6
 78
     2
 67
     7
 79
     5
170
     0
171
     0
290
     0
174
     0
 93
       13
 44
0.0
173
     0
291
     1
 45
0.0
1001
ACAD
1000
AcDbSavedByObjectVersion
1070
     0
  0
VISUALSTYLE
  5
23BB
102
{ACAD_XDICTIONARY
360
249F
102
}
102
{ACAD_REACTORS
330
23AA
102
}
330
23AA
100
AcDbVisualStyle
  2
JitterOff
 70
    20
 71
     2
 72
     2
 73
     0
 90
        0
 40
-0.6
 41
-30.0
 62
     5
 63
     7
 74
     1
 91
        4
 64
     7
 65
   257
 75
     1
175
     1
 42
1.0
 92
       10
 66
     7
 43
1.0
 76
     1
 77
     6
 78
     2
 67
     7
 79
     5
170
     0
171
     0
290
     0
174
     0
 93
        1
 44
0.0
173
     0
291
     1
 45
0.0
1001
ACAD
1000
AcDbSavedByObjectVersion
1070
     0
  0
VISUALSTYLE
  5
23B8
102
{ACAD_XDICTIONARY
360
2499
102
}
102
{ACAD_REACTORS
330
23AA
102
}
330
23AA
100
AcDbVisualStyle
  2
Linepattern
 70
    14
 71
     2
 72
     2
 73
     0
 90
        0
 40
-0.6
 41
-30.0
 62
     5
 63
     7
 74
     1
 91
        4
 64
     7
 65
   257
 75
     7
175
     7
 42
1.0
 92
        8
 66
     7
 43
1.0
 76
     1
 77
     6
 78
     2
 67
     7
 79
     5
170
     0
171
     0
290
     0
174
     0
 93
        1
 44
0.0
173
     0
291
     1
 45
0.0
1001
ACAD
1000
AcDbSavedByObjectVersion
1070
     0
  0
VISUALSTYLE
  5
23BC
102
{ACAD_XDICTIONARY
360
24A1
102
}
102
{ACAD_REACTORS
330
23AA
102
}
330
23AA
100
AcDbVisualStyle
  2
OverhangOff
 70
    21
 71
     2
 72
     2
 73
     0
 90
        0
 40
-0.6
 41
-30.0
 62
     5
 63
     7
 74
     1
 91
        4
 64
     7
 65
   257
 75
     1
175
     1
 42
1.0
 92
        9
 66
     7
 43
1.0
 76
     1
 77
     6
 78
     2
 67
     7
 79
     5
170
     0
171
     0
290
     0
174
     0
 93
        1
 44
0.0
173
     0
291
     1
 45
0.0
1001
ACAD
1000
AcDbSavedByObjectVersion
1070
     0
  0
VISUALSTYLE
  5
23B4
102
{ACAD_XDICTIONARY
360
2491
102
}
102
{ACAD_REACTORS
330
23AA
102
}
330
23AA
100
AcDbVisualStyle
  2
Realistic
 70
     8
 71
     2
 72
     2
 73
     0
 90
        0
 40
-0.6
 41
-30.0
 62
     5
 63
     7
 74
     1
 91
        0
 64
     7
 65
   257
 75
     1
175
     1
 42
1.0
 92
        8
 66
     8
 43
1.0
 76
     1
 77
     6
 78
     2
 67
     7
 79
     5
170
     0
171
     0
290
     0
174
     0
 93
       13
 44
0.0
173
     0
291
     0
 45
0.0
1001
ACAD
1000
AcDbSavedByObjectVersion
1070
     0
  0
VISUALSTYLE
  5
23B7
102
{ACAD_XDICTIONARY
360
2497
102
}
102
{ACAD_REACTORS
330
23AA
102
}
330
23AA
100
AcDbVisualStyle
  2
Thicken
 70
    13
 71
     2
 72
     2
 73
     0
 90
        0
 40
-0.6
 41
-30.0
 62
     5
 63
     7
 74
     1
 91
        4
 64
     7
 65
   257
 75
     1
175
     1
 42
1.0
 92
       12
 66
     7
 43
1.0
 76
     1
 77
     6
 78
     2
 67
     7
 79
     5
170
     0
171
     0
290
     0
174
     0
 93
        1
 44
0.0
173
     0
291
     1
 45
0.0
1001
ACAD
1000
AcDbSavedByObjectVersion
1070
     0
  0
DICTIONARYVAR
  5
2464
102
{ACAD_REACTORS
330
3D
102
}
330
3D
100
DictionaryVariables
280
     0
  1
1:1
  0
DICTIONARYVAR
  5
2463
102
{ACAD_REACTORS
330
3D
102
}
330
3D
100
DictionaryVariables
280
     0
  1
STANDARD
  0
DICTIONARYVAR
  5
2462
102
{ACAD_REACTORS
330
3D
102
}
330
3D
100
DictionaryVariables
280
     0
  1
STANDARD
  0
DICTIONARYVAR
  5
3F
102
{ACAD_REACTORS
330
3D
102
}
330
3D
100
DictionaryVariables
280
     0
  1
2
  0
DICTIONARYVAR
  5
3E
102
{ACAD_REACTORS
330
3D
102
}
330
3D
100
DictionaryVariables
280
     0
  1
1
  0
DICTIONARYVAR
  5
2466
102
{ACAD_REACTORS
330
3D
102
}
330
3D
100
DictionaryVariables
280
     0
  1
0
  0
DICTIONARYVAR
  5
2465
102
{ACAD_REACTORS
330
3D
102
}
330
3D
100
DictionaryVariables
280
     0
  1
127
  0
DICTIONARYVAR
  5
2467
102
{ACAD_REACTORS
330
3D
102
}
330
3D
100
DictionaryVariables
280
     0
  1
2
  0
XRECORD
  5
B92
102
{ACAD_REACTORS
330
B91
102
}
330
B91
100
AcDbXrecord
280
     1
  0
DICTIONARY
  5
246C
330
1E
100
AcDbDictionary
280
     1
281
     1
  3
ACAD_XREC_ROUNDTRIP
360
246D
  0
DICTIONARY
  5
2470
330
26
100
AcDbDictionary
280
     1
281
     1
  3
ACAD_XREC_ROUNDTRIP
360
2471
  0
DICTIONARY
  5
246E
330
22
100
AcDbDictionary
280
     1
281
     1
  3
ACAD_XREC_ROUNDTRIP
360
246F
  0
DICTIONARY
  5
239B
330
239A
100
AcDbDictionary
280
     1
281
     1
  3
ACAD_XREC_ROUNDTRIP
360
247D
  3
BUMPTILE
360
239D
  3
DIFFUSETILE
360
239C
  3
OPACITYTILE
360
23A0
  3
REFLECTIONTILE
360
239F
  3
REFRACTIONTILE
360
23A1
  3
SPECULARTILE
360
239E
  0
DICTIONARY
  5
2393
330
2392
100
AcDbDictionary
280
     1
281
     1
  3
ACAD_XREC_ROUNDTRIP
360
247C
  3
BUMPTILE
360
2395
  3
DIFFUSETILE
360
2394
  3
OPACITYTILE
360
2398
  3
REFLECTIONTILE
360
2397
  3
REFRACTIONTILE
360
2399
  3
SPECULARTILE
360
2396
  0
DICTIONARY
  5
23A3
330
23A2
100
AcDbDictionary
280
     1
281
     1
  3
ACAD_XREC_ROUNDTRIP
360
247E
  3
BUMPTILE
360
23A5
  3
DIFFUSETILE
360
23A4
  3
OPACITYTILE
360
23A8
  3
REFLECTIONTILE
360
23A7
  3
REFRACTIONTILE
360
23A9
  3
SPECULARTILE
360
23A6
  0
DICTIONARY
  5
2468
330
23C0
100
AcDbDictionary
280
     1
281
     1
  3
ACAD_ROUNDTRIP_2008_TABLESTYLE_CELLSTYLEMAP
360
2469
  3
ACAD_XREC_ROUNDTRIP
360
24A5
  0
DICTIONARY
  5
2489
330
23B0
100
AcDbDictionary
280
     1
281
     1
  3
ACAD_XREC_ROUNDTRIP
360
248A
  0
DICTIONARY
  5
248D
330
23B2
100
AcDbDictionary
280
     1
281
     1
  3
ACAD_XREC_ROUNDTRIP
360
248E
  0
DICTIONARY
  5
248B
330
23B1
100
AcDbDictionary
280
     1
281
     1
  3
ACAD_XREC_ROUNDTRIP
360
248C
  0
DICTIONARY
  5
2487
330
23AF
100
AcDbDictionary
280
     1
281
     1
  3
ACAD_XREC_ROUNDTRIP
360
2488
  0
DICTIONARY
  5
2495
330
23B6
100
AcDbDictionary
280
     1
281
     1
  3
ACAD_XREC_ROUNDTRIP
360
2496
  0
DICTIONARY
  5
249D
330
23BA
100
AcDbDictionary
280
     1
281
     1
  3
ACAD_XREC_ROUNDTRIP
360
249E
  0
DICTIONARY
  5
248F
330
23B3
100
AcDbDictionary
280
     1
281
     1
  3
ACAD_XREC_ROUNDTRIP
360
2490
  0
DICTIONARY
  5
2493
330
23B5
100
AcDbDictionary
280
     1
281
     1
  3
ACAD_XREC_ROUNDTRIP
360
2494
  0
DICTIONARY
  5
24A3
330
23BD
100
AcDbDictionary
280
     1
281
     1
  3
ACAD_XREC_ROUNDTRIP
360
24A4
  0
DICTIONARY
  5
249B
330
23B9
100
AcDbDictionary
280
     1
281
     1
  3
ACAD_XREC_ROUNDTRIP
360
249C
  0
DICTIONARY
  5
247F
330
23AB
100
AcDbDictionary
280
     1
281
     1
  3
ACAD_XREC_ROUNDTRIP
360
2480
  0
DICTIONARY
  5
2481
330
23AC
100
AcDbDictionary
280
     1
281
     1
  3
ACAD_XREC_ROUNDTRIP
360
2482
  0
DICTIONARY
  5
2483
330
23AD
100
AcDbDictionary
280
     1
281
     1
  3
ACAD_XREC_ROUNDTRIP
360
2484
  0
DICTIONARY
  5
2485
330
23AE
100
AcDbDictionary
280
     1
281
     1
  3
ACAD_XREC_ROUNDTRIP
360
2486
  0
DICTIONARY
  5
249F
330
23BB
100
AcDbDictionary
280
     1
281
     1
  3
ACAD_XREC_ROUNDTRIP
360
24A0
  0
DICTIONARY
  5
2499
330
23B8
100
AcDbDictionary
280
     1
281
     1
  3
ACAD_XREC_ROUNDTRIP
360
249A
  0
DICTIONARY
  5
24A1
330
23BC
100
AcDbDictionary
280
     1
281
     1
  3
ACAD_XREC_ROUNDTRIP
360
24A2
  0
DICTIONARY
  5
2491
330
23B4
100
AcDbDictionary
280
     1
281
     1
  3
ACAD_XREC_ROUNDTRIP
360
2492
  0
DICTIONARY
  5
2497
330
23B7
100
AcDbDictionary
280
     1
281
     1
  3
ACAD_XREC_ROUNDTRIP
360
2498
  0
XRECORD
  5
246D
102
{ACAD_REACTORS
330
246C
102
}
330
246C
100
AcDbXrecord
280
     1
102
SHADEPLOT
 70
     0
102
SHADEPLOTRESLEVEL
 70
     2
102
SHADEPLOTCUSTOMDPI
 70
   300
  0
XRECORD
  5
2471
102
{ACAD_REACTORS
330
2470
102
}
330
2470
100
AcDbXrecord
280
     1
102
SHADEPLOT
 70
     0
102
SHADEPLOTRESLEVEL
 70
     2
102
SHADEPLOTCUSTOMDPI
 70
   300
  0
XRECORD
  5
246F
102
{ACAD_REACTORS
330
246E
102
}
330
246E
100
AcDbXrecord
280
     1
102
SHADEPLOT
 70
     0
102
SHADEPLOTRESLEVEL
 70
     2
102
SHADEPLOTCUSTOMDPI
 70
   300
  0
XRECORD
  5
247D
102
{ACAD_REACTORS
330
239B
102
}
330
239B
100
AcDbXrecord
280
     1
102
MATERIAL
148
0.0
149
0.0
149
0.0
 93
        0
 94
      127
282
     0
 72
     0
 77
     0
171
     0
175
     0
179
     0
273
     0
  0
XRECORD
  5
239D
102
{ACAD_REACTORS
330
239B
102
}
330
239B
100
AcDbXrecord
280
     1
270
     1
271
     1
  0
XRECORD
  5
239C
102
{ACAD_REACTORS
330
239B
102
}
330
239B
100
AcDbXrecord
280
     1
270
     1
271
     1
  0
XRECORD
  5
23A0
102
{ACAD_REACTORS
330
239B
102
}
330
239B
100
AcDbXrecord
280
     1
270
     1
271
     1
  0
XRECORD
  5
239F
102
{ACAD_REACTORS
330
239B
102
}
330
239B
100
AcDbXrecord
280
     1
270
     1
271
     1
  0
XRECORD
  5
23A1
102
{ACAD_REACTORS
330
239B
102
}
330
239B
100
AcDbXrecord
280
     1
270
     1
271
     1
  0
XRECORD
  5
239E
102
{ACAD_REACTORS
330
239B
102
}
330
239B
100
AcDbXrecord
280
     1
270
     1
271
     1
  0
XRECORD
  5
247C
102
{ACAD_REACTORS
330
2393
102
}
330
2393
100
AcDbXrecord
280
     1
102
MATERIAL
148
0.0
149
0.0
149
0.0
 93
        0
 94
      127
282
     0
 72
     0
 77
     0
171
     0
175
     0
179
     0
273
     0
  0
XRECORD
  5
2395
102
{ACAD_REACTORS
330
2393
102
}
330
2393
100
AcDbXrecord
280
     1
270
     1
271
     1
  0
XRECORD
  5
2394
102
{ACAD_REACTORS
330
2393
102
}
330
2393
100
AcDbXrecord
280
     1
270
     1
271
     1
  0
XRECORD
  5
2398
102
{ACAD_REACTORS
330
2393
102
}
330
2393
100
AcDbXrecord
280
     1
270
     1
271
     1
  0
XRECORD
  5
2397
102
{ACAD_REACTORS
330
2393
102
}
330
2393
100
AcDbXrecord
280
     1
270
     1
271
     1
  0
XRECORD
  5
2399
102
{ACAD_REACTORS
330
2393
102
}
330
2393
100
AcDbXrecord
280
     1
270
     1
271
     1
  0
XRECORD
  5
2396
102
{ACAD_REACTORS
330
2393
102
}
330
2393
100
AcDbXrecord
280
     1
270
     1
271
     1
  0
XRECORD
  5
247E
102
{ACAD_REACTORS
330
23A3
102
}
330
23A3
100
AcDbXrecord
280
     1
102
MATERIAL
148
0.0
149
0.0
149
0.0
 93
        0
 94
      127
282
     0
 72
     0
 77
     0
171
     0
175
     0
179
     0
273
     0
  0
XRECORD
  5
23A5
102
{ACAD_REACTORS
330
23A3
102
}
330
23A3
100
AcDbXrecord
280
     1
270
     1
271
     1
  0
XRECORD
  5
23A4
102
{ACAD_REACTORS
330
23A3
102
}
330
23A3
100
AcDbXrecord
280
     1
270
     1
271
     1
  0
XRECORD
  5
23A8
102
{ACAD_REACTORS
330
23A3
102
}
330
23A3
100
AcDbXrecord
280
     1
270
     1
271
     1
  0
XRECORD
  5
23A7
102
{ACAD_REACTORS
330
23A3
102
}
330
23A3
100
AcDbXrecord
280
     1
270
     1
271
     1
  0
XRECORD
  5
23A9
102
{ACAD_REACTORS
330
23A3
102
}
330
23A3
100
AcDbXrecord
280
     1
270
     1
271
     1
  0
XRECORD
  5
23A6
102
{ACAD_REACTORS
330
23A3
102
}
330
23A3
100
AcDbXrecord
280
     1
270
     1
271
     1
  0
CELLSTYLEMAP
  5
2469
102
{ACAD_REACTORS
330
2468
102
}
330
2468
100
AcDbCellStyleMap
 90
        3
300
CELLSTYLE
  1
TABLEFORMAT_BEGIN
 90
        5
170
     1
 91
        0
 92
    32768
 62
   257
 93
        1
300
CONTENTFORMAT
  1
CONTENTFORMAT_BEGIN
 90
        0
 91
        0
 92
      512
 93
        0
300

 40
0.0
140
1.0
 94
        5
 62
     0
340
11
144
6.0
309
CONTENTFORMAT_END
171
     1
301
MARGIN
  1
CELLMARGIN_BEGIN
 40
1.5
 40
1.5
 40
1.5
 40
1.5
 40
4.5
 40
4.5
309
CELLMARGIN_END
 94
        6
 95
        1
302
GRIDFORMAT
  1
GRIDFORMAT_BEGIN
 90
        0
 91
        1
 62
     0
 92
       -2
340
0
 93
        0
 40
1.125
309
GRIDFORMAT_END
 95
        2
302
GRIDFORMAT
  1
GRIDFORMAT_BEGIN
 90
        0
 91
        1
 62
     0
 92
       -2
340
0
 93
        0
 40
1.125
309
GRIDFORMAT_END
 95
        4
302
GRIDFORMAT
  1
GRIDFORMAT_BEGIN
 90
        0
 91
        1
 62
     0
 92
       -2
340
0
 93
        0
 40
1.125
309
GRIDFORMAT_END
 95
        8
302
GRIDFORMAT
  1
GRIDFORMAT_BEGIN
 90
        0
 91
        1
 62
     0
 92
       -2
340
0
 93
        0
 40
1.125
309
GRIDFORMAT_END
 95
       16
302
GRIDFORMAT
  1
GRIDFORMAT_BEGIN
 90
        0
 91
        1
 62
     0
 92
       -2
340
0
 93
        0
 40
1.125
309
GRIDFORMAT_END
 95
       32
302
GRIDFORMAT
  1
GRIDFORMAT_BEGIN
 90
        0
 91
        1
 62
     0
 92
       -2
340
0
 93
        0
 40
1.125
309
GRIDFORMAT_END
309
TABLEFORMAT_END
  1
CELLSTYLE_BEGIN
 90
        1
 91
        1
300
_TITLE
309
CELLSTYLE_END
300
CELLSTYLE
  1
TABLEFORMAT_BEGIN
 90
        5
170
     1
 91
        0
 92
        0
 62
   257
 93
        1
300
CONTENTFORMAT
  1
CONTENTFORMAT_BEGIN
 90
        0
 91
        0
 92
      512
 93
        0
300

 40
0.0
140
1.0
 94
        5
 62
     0
340
11
144
4.5
309
CONTENTFORMAT_END
171
     1
301
MARGIN
  1
CELLMARGIN_BEGIN
 40
1.5
 40
1.5
 40
1.5
 40
1.5
 40
4.5
 40
4.5
309
CELLMARGIN_END
 94
        6
 95
        1
302
GRIDFORMAT
  1
GRIDFORMAT_BEGIN
 90
        0
 91
        1
 62
     0
 92
       -2
340
0
 93
        0
 40
1.125
309
GRIDFORMAT_END
 95
        2
302
GRIDFORMAT
  1
GRIDFORMAT_BEGIN
 90
        0
 91
        1
 62
     0
 92
       -2
340
0
 93
        0
 40
1.125
309
GRIDFORMAT_END
 95
        4
302
GRIDFORMAT
  1
GRIDFORMAT_BEGIN
 90
        0
 91
        1
 62
     0
 92
       -2
340
0
 93
        0
 40
1.125
309
GRIDFORMAT_END
 95
        8
302
GRIDFORMAT
  1
GRIDFORMAT_BEGIN
 90
        0
 91
        1
 62
     0
 92
       -2
340
0
 93
        0
 40
1.125
309
GRIDFORMAT_END
 95
       16
302
GRIDFORMAT
  1
GRIDFORMAT_BEGIN
 90
        0
 91
        1
 62
     0
 92
       -2
340
0
 93
        0
 40
1.125
309
GRIDFORMAT_END
 95
       32
302
GRIDFORMAT
  1
GRIDFORMAT_BEGIN
 90
        0
 91
        1
 62
     0
 92
       -2
340
0
 93
        0
 40
1.125
309
GRIDFORMAT_END
309
TABLEFORMAT_END
  1
CELLSTYLE_BEGIN
 90
        2
 91
        1
300
_HEADER
309
CELLSTYLE_END
300
CELLSTYLE
  1
TABLEFORMAT_BEGIN
 90
        5
170
     1
 91
        0
 92
        0
 62
   257
 93
        1
300
CONTENTFORMAT
  1
CONTENTFORMAT_BEGIN
 90
        0
 91
        0
 92
      512
 93
        0
300

 40
0.0
140
1.0
 94
        2
 62
     0
340
11
144
4.5
309
CONTENTFORMAT_END
171
     1
301
MARGIN
  1
CELLMARGIN_BEGIN
 40
1.5
 40
1.5
 40
1.5
 40
1.5
 40
4.5
 40
4.5
309
CELLMARGIN_END
 94
        6
 95
        1
302
GRIDFORMAT
  1
GRIDFORMAT_BEGIN
 90
        0
 91
        1
 62
     0
 92
       -2
340
0
 93
        0
 40
1.125
309
GRIDFORMAT_END
 95
        2
302
GRIDFORMAT
  1
GRIDFORMAT_BEGIN
 90
        0
 91
        1
 62
     0
 92
       -2
340
0
 93
        0
 40
1.125
309
GRIDFORMAT_END
 95
        4
302
GRIDFORMAT
  1
GRIDFORMAT_BEGIN
 90
        0
 91
        1
 62
     0
 92
       -2
340
0
 93
        0
 40
1.125
309
GRIDFORMAT_END
 95
        8
302
GRIDFORMAT
  1
GRIDFORMAT_BEGIN
 90
        0
 91
        1
 62
     0
 92
       -2
340
0
 93
        0
 40
1.125
309
GRIDFORMAT_END
 95
       16
302
GRIDFORMAT
  1
GRIDFORMAT_BEGIN
 90
        0
 91
        1
 62
     0
 92
       -2
340
0
 93
        0
 40
1.125
309
GRIDFORMAT_END
 95
       32
302
GRIDFORMAT
  1
GRIDFORMAT_BEGIN
 90
        0
 91
        1
 62
     0
 92
       -2
340
0
 93
        0
 40
1.125
309
GRIDFORMAT_END
309
TABLEFORMAT_END
  1
CELLSTYLE_BEGIN
 90
        3
 91
        2
300
_DATA
309
CELLSTYLE_END
  0
XRECORD
  5
24A5
102
{ACAD_REACTORS
330
2468
102
}
330
2468
100
AcDbXrecord
280
     1
102
ACAD_ROUNDTRIP_PRE2007_TABLESTYLE
 90
      512
 91
        0
  1

 92
      512
 93
        0
  2

 94
      512
 95
        0
  3

  0
XRECORD
  5
248A
102
{ACAD_REACTORS
330
2489
102
}
330
2489
100
AcDbXrecord
280
     1
102
RTVSPropertyOp0
 70
     1
102
RTVSPropertyOp1
 70
     1
102
RTVSPropertyOp2
 70
     1
102
RTVSPropertyOp3
 70
     1
102
RTVSPropertyOp4
 70
     1
102
RTVSPropertyOp5
 70
     1
102
RTVSPropertyOp6
 70
     1
102
RTVSPropertyOp7
 70
     1
102
RTVSPropertyOp8
 70
     1
102
RTVSPropertyOp9
 70
     1
102
RTVSPropertyOp10
 70
     1
102
RTVSPropertyOp11
 70
     1
102
RTVSPropertyOp12
 70
     1
102
RTVSPropertyOp13
 70
     1
102
RTVSPropertyOp14
 70
     1
102
RTVSPropertyOp15
 70
     1
102
RTVSPropertyOp16
 70
     1
102
RTVSPropertyOp17
 70
     1
102
RTVSPropertyOp18
 70
     1
102
RTVSPropertyOp19
 70
     1
102
RTVSPropertyOp20
 70
     1
102
RTVSPropertyOp21
 70
     1
102
RTVSPropertyOp22
 70
     1
102
RTVSPropertyOp23
 70
     1
102
RTVSPropertyOp24
 70
     1
102
RTVSPropertyOp25
 70
     1
102
RTVSPropertyOp26
 70
     1
102
RTVSPropertyOp27
 70
     1
  0
XRECORD
  5
248E
102
{ACAD_REACTORS
330
248D
102
}
330
248D
100
AcDbXrecord
280
     1
102
RTVSPropertyOp0
 70
     1
102
RTVSPropertyOp1
 70
     1
102
RTVSPropertyOp2
 70
     1
102
RTVSPropertyOp3
 70
     1
102
RTVSPropertyOp4
 70
     1
102
RTVSPropertyOp5
 70
     1
102
RTVSPropertyOp6
 70
     1
102
RTVSPropertyOp7
 70
     1
102
RTVSPropertyOp8
 70
     1
102
RTVSPropertyOp9
 70
     1
102
RTVSPropertyOp10
 70
     1
102
RTVSPropertyOp11
 70
     1
102
RTVSPropertyOp12
 70
     1
102
RTVSPropertyOp13
 70
     1
102
RTVSPropertyOp14
 70
     1
102
RTVSPropertyOp15
 70
     1
102
RTVSPropertyOp16
 70
     1
102
RTVSPropertyOp17
 70
     1
102
RTVSPropertyOp18
 70
     1
102
RTVSPropertyOp19
 70
     1
102
RTVSPropertyOp20
 70
     1
102
RTVSPropertyOp21
 70
     1
102
RTVSPropertyOp22
 70
     1
102
RTVSPropertyOp23
 70
     1
102
RTVSPropertyOp24
 70
     1
102
RTVSPropertyOp25
 70
     1
102
RTVSPropertyOp26
 70
     1
102
RTVSPropertyOp27
 70
     1
  0
XRECORD
  5
248C
102
{ACAD_REACTORS
330
248B
102
}
330
248B
100
AcDbXrecord
280
     1
102
RTVSPropertyOp0
 70
     1
102
RTVSPropertyOp1
 70
     1
102
RTVSPropertyOp2
 70
     1
102
RTVSPropertyOp3
 70
     1
102
RTVSPropertyOp4
 70
     1
102
RTVSPropertyOp5
 70
     1
102
RTVSPropertyOp6
 70
     1
102
RTVSPropertyOp7
 70
     1
102
RTVSPropertyOp8
 70
     1
102
RTVSPropertyOp9
 70
     1
102
RTVSPropertyOp10
 70
     1
102
RTVSPropertyOp11
 70
     1
102
RTVSPropertyOp12
 70
     1
102
RTVSPropertyOp13
 70
     1
102
RTVSPropertyOp14
 70
     1
102
RTVSPropertyOp15
 70
     1
102
RTVSPropertyOp16
 70
     1
102
RTVSPropertyOp17
 70
     1
102
RTVSPropertyOp18
 70
     1
102
RTVSPropertyOp19
 70
     1
102
RTVSPropertyOp20
 70
     1
102
RTVSPropertyOp21
 70
     1
102
RTVSPropertyOp22
 70
     1
102
RTVSPropertyOp23
 70
     1
102
RTVSPropertyOp24
 70
     1
102
RTVSPropertyOp25
 70
     1
102
RTVSPropertyOp26
 70
     1
102
RTVSPropertyOp27
 70
     1
  0
XRECORD
  5
2488
102
{ACAD_REACTORS
330
2487
102
}
330
2487
100
AcDbXrecord
280
     1
102
RTVSPropertyOp0
 70
     1
102
RTVSPropertyOp1
 70
     1
102
RTVSPropertyOp2
 70
     1
102
RTVSPropertyOp3
 70
     1
102
RTVSPropertyOp4
 70
     1
102
RTVSPropertyOp5
 70
     1
102
RTVSPropertyOp6
 70
     1
102
RTVSPropertyOp7
 70
     1
102
RTVSPropertyOp8
 70
     1
102
RTVSPropertyOp9
 70
     1
102
RTVSPropertyOp10
 70
     1
102
RTVSPropertyOp11
 70
     1
102
RTVSPropertyOp12
 70
     1
102
RTVSPropertyOp13
 70
     1
102
RTVSPropertyOp14
 70
     1
102
RTVSPropertyOp15
 70
     1
102
RTVSPropertyOp16
 70
     1
102
RTVSPropertyOp17
 70
     1
102
RTVSPropertyOp18
 70
     1
102
RTVSPropertyOp19
 70
     1
102
RTVSPropertyOp20
 70
     1
102
RTVSPropertyOp21
 70
     1
102
RTVSPropertyOp22
 70
     1
102
RTVSPropertyOp23
 70
     1
102
RTVSPropertyOp24
 70
     1
102
RTVSPropertyOp25
 70
     1
102
RTVSPropertyOp26
 70
     1
102
RTVSPropertyOp27
 70
     1
  0
XRECORD
  5
2496
102
{ACAD_REACTORS
330
2495
102
}
330
2495
100
AcDbXrecord
280
     1
102
RTVSPropertyOp0
 70
     1
102
RTVSPropertyOp1
 70
     1
102
RTVSPropertyOp2
 70
     1
102
RTVSPropertyOp3
 70
     1
102
RTVSPropertyOp4
 70
     1
102
RTVSPropertyOp5
 70
     1
102
RTVSPropertyOp6
 70
     1
102
RTVSPropertyOp7
 70
     1
102
RTVSPropertyOp8
 70
     1
102
RTVSPropertyOp9
 70
     1
102
RTVSPropertyOp10
 70
     1
102
RTVSPropertyOp11
 70
     1
102
RTVSPropertyOp12
 70
     1
102
RTVSPropertyOp13
 70
     1
102
RTVSPropertyOp14
 70
     1
102
RTVSPropertyOp15
 70
     1
102
RTVSPropertyOp16
 70
     1
102
RTVSPropertyOp17
 70
     1
102
RTVSPropertyOp18
 70
     1
102
RTVSPropertyOp19
 70
     1
102
RTVSPropertyOp20
 70
     1
102
RTVSPropertyOp21
 70
     1
102
RTVSPropertyOp22
 70
     1
102
RTVSPropertyOp23
 70
     1
102
RTVSPropertyOp24
 70
     1
102
RTVSPropertyOp25
 70
     1
102
RTVSPropertyOp26
 70
     1
102
RTVSPropertyOp27
 70
     1
  0
XRECORD
  5
249E
102
{ACAD_REACTORS
330
249D
102
}
330
249D
100
AcDbXrecord
280
     1
102
RTVSPropertyOp0
 70
     1
102
RTVSPropertyOp1
 70
     1
102
RTVSPropertyOp2
 70
     1
102
RTVSPropertyOp3
 70
     1
102
RTVSPropertyOp4
 70
     1
102
RTVSPropertyOp5
 70
     1
102
RTVSPropertyOp6
 70
     1
102
RTVSPropertyOp7
 70
     1
102
RTVSPropertyOp8
 70
     1
102
RTVSPropertyOp9
 70
     1
102
RTVSPropertyOp10
 70
     1
102
RTVSPropertyOp11
 70
     1
102
RTVSPropertyOp12
 70
     1
102
RTVSPropertyOp13
 70
     1
102
RTVSPropertyOp14
 70
     1
102
RTVSPropertyOp15
 70
     1
102
RTVSPropertyOp16
 70
     1
102
RTVSPropertyOp17
 70
     1
102
RTVSPropertyOp18
 70
     1
102
RTVSPropertyOp19
 70
     1
102
RTVSPropertyOp20
 70
     1
102
RTVSPropertyOp21
 70
     1
102
RTVSPropertyOp22
 70
     1
102
RTVSPropertyOp23
 70
     1
102
RTVSPropertyOp24
 70
     1
102
RTVSPropertyOp25
 70
     1
102
RTVSPropertyOp26
 70
     1
102
RTVSPropertyOp27
 70
     1
  0
XRECORD
  5
2490
102
{ACAD_REACTORS
330
248F
102
}
330
248F
100
AcDbXrecord
280
     1
102
RTVSPropertyOp0
 70
     1
102
RTVSPropertyOp1
 70
     1
102
RTVSPropertyOp2
 70
     1
102
RTVSPropertyOp3
 70
     1
102
RTVSPropertyOp4
 70
     1
102
RTVSPropertyOp5
 70
     1
102
RTVSPropertyOp6
 70
     1
102
RTVSPropertyOp7
 70
     1
102
RTVSPropertyOp8
 70
     1
102
RTVSPropertyOp9
 70
     1
102
RTVSPropertyOp10
 70
     1
102
RTVSPropertyOp11
 70
     1
102
RTVSPropertyOp12
 70
     1
102
RTVSPropertyOp13
 70
     1
102
RTVSPropertyOp14
 70
     1
102
RTVSPropertyOp15
 70
     1
102
RTVSPropertyOp16
 70
     1
102
RTVSPropertyOp17
 70
     1
102
RTVSPropertyOp18
 70
     1
102
RTVSPropertyOp19
 70
     1
102
RTVSPropertyOp20
 70
     1
102
RTVSPropertyOp21
 70
     1
102
RTVSPropertyOp22
 70
     1
102
RTVSPropertyOp23
 70
     1
102
RTVSPropertyOp24
 70
     1
102
RTVSPropertyOp25
 70
     1
102
RTVSPropertyOp26
 70
     1
102
RTVSPropertyOp27
 70
     1
  0
XRECORD
  5
2494
102
{ACAD_REACTORS
330
2493
102
}
330
2493
100
AcDbXrecord
280
     1
102
RTVSPropertyOp0
 70
     1
102
RTVSPropertyOp1
 70
     1
102
RTVSPropertyOp2
 70
     1
102
RTVSPropertyOp3
 70
     1
102
RTVSPropertyOp4
 70
     1
102
RTVSPropertyOp5
 70
     1
102
RTVSPropertyOp6
 70
     1
102
RTVSPropertyOp7
 70
     1
102
RTVSPropertyOp8
 70
     1
102
RTVSPropertyOp9
 70
     1
102
RTVSPropertyOp10
 70
     1
102
RTVSPropertyOp11
 70
     1
102
RTVSPropertyOp12
 70
     1
102
RTVSPropertyOp13
 70
     1
102
RTVSPropertyOp14
 70
     1
102
RTVSPropertyOp15
 70
     1
102
RTVSPropertyOp16
 70
     1
102
RTVSPropertyOp17
 70
     1
102
RTVSPropertyOp18
 70
     1
102
RTVSPropertyOp19
 70
     1
102
RTVSPropertyOp20
 70
     1
102
RTVSPropertyOp21
 70
     1
102
RTVSPropertyOp22
 70
     1
102
RTVSPropertyOp23
 70
     1
102
RTVSPropertyOp24
 70
     1
102
RTVSPropertyOp25
 70
     1
102
RTVSPropertyOp26
 70
     1
102
RTVSPropertyOp27
 70
     1
  0
XRECORD
  5
24A4
102
{ACAD_REACTORS
330
24A3
102
}
330
24A3
100
AcDbXrecord
280
     1
102
RTVSPropertyOp0
 70
     0
102
RTVSPropertyOp1
 70
     0
102
RTVSPropertyOp2
 70
     0
102
RTVSPropertyOp3
 70
     0
102
RTVSPropertyOp4
 70
     0
102
RTVSPropertyOp5
 70
     0
102
RTVSPropertyOp6
 70
     0
102
RTVSPropertyOp7
 70
     0
102
RTVSPropertyOp8
 70
     0
102
RTVSPropertyOp9
 70
     0
102
RTVSPropertyOp10
 70
     0
102
RTVSPropertyOp11
 70
     0
102
RTVSPropertyOp12
 70
     0
102
RTVSPropertyOp13
 70
     0
102
RTVSPropertyOp14
 70
     2
102
RTVSPropertyOp15
 70
     0
102
RTVSPropertyOp16
 70
     0
102
RTVSPropertyOp17
 70
     0
102
RTVSPropertyOp18
 70
     0
102
RTVSPropertyOp19
 70
     0
102
RTVSPropertyOp20
 70
     0
102
RTVSPropertyOp21
 70
     0
102
RTVSPropertyOp22
 70
     0
102
RTVSPropertyOp23
 70
     0
102
RTVSPropertyOp24
 70
     0
102
RTVSPropertyOp25
 70
     0
102
RTVSPropertyOp26
 70
     0
102
RTVSPropertyOp27
 70
     0
  0
XRECORD
  5
249C
102
{ACAD_REACTORS
330
249B
102
}
330
249B
100
AcDbXrecord
280
     1
102
RTVSPropertyOp0
 70
     1
102
RTVSPropertyOp1
 70
     1
102
RTVSPropertyOp2
 70
     1
102
RTVSPropertyOp3
 70
     1
102
RTVSPropertyOp4
 70
     1
102
RTVSPropertyOp5
 70
     1
102
RTVSPropertyOp6
 70
     1
102
RTVSPropertyOp7
 70
     1
102
RTVSPropertyOp8
 70
     1
102
RTVSPropertyOp9
 70
     1
102
RTVSPropertyOp10
 70
     1
102
RTVSPropertyOp11
 70
     1
102
RTVSPropertyOp12
 70
     1
102
RTVSPropertyOp13
 70
     1
102
RTVSPropertyOp14
 70
     1
102
RTVSPropertyOp15
 70
     1
102
RTVSPropertyOp16
 70
     1
102
RTVSPropertyOp17
 70
     1
102
RTVSPropertyOp18
 70
     1
102
RTVSPropertyOp19
 70
     1
102
RTVSPropertyOp20
 70
     1
102
RTVSPropertyOp21
 70
     1
102
RTVSPropertyOp22
 70
     1
102
RTVSPropertyOp23
 70
     1
102
RTVSPropertyOp24
 70
     1
102
RTVSPropertyOp25
 70
     1
102
RTVSPropertyOp26
 70
     1
102
RTVSPropertyOp27
 70
     1
  0
XRECORD
  5
2480
102
{ACAD_REACTORS
330
247F
102
}
330
247F
100
AcDbXrecord
280
     1
102
RTVSPropertyOp0
 70
     1
102
RTVSPropertyOp1
 70
     1
102
RTVSPropertyOp2
 70
     1
102
RTVSPropertyOp3
 70
     1
102
RTVSPropertyOp4
 70
     1
102
RTVSPropertyOp5
 70
     1
102
RTVSPropertyOp6
 70
     1
102
RTVSPropertyOp7
 70
     1
102
RTVSPropertyOp8
 70
     1
102
RTVSPropertyOp9
 70
     1
102
RTVSPropertyOp10
 70
     1
102
RTVSPropertyOp11
 70
     1
102
RTVSPropertyOp12
 70
     1
102
RTVSPropertyOp13
 70
     1
102
RTVSPropertyOp14
 70
     1
102
RTVSPropertyOp15
 70
     1
102
RTVSPropertyOp16
 70
     1
102
RTVSPropertyOp17
 70
     1
102
RTVSPropertyOp18
 70
     1
102
RTVSPropertyOp19
 70
     1
102
RTVSPropertyOp20
 70
     1
102
RTVSPropertyOp21
 70
     1
102
RTVSPropertyOp22
 70
     1
102
RTVSPropertyOp23
 70
     1
102
RTVSPropertyOp24
 70
     1
102
RTVSPropertyOp25
 70
     1
102
RTVSPropertyOp26
 70
     1
102
RTVSPropertyOp27
 70
     1
  0
XRECORD
  5
2482
102
{ACAD_REACTORS
330
2481
102
}
330
2481
100
AcDbXrecord
280
     1
102
RTVSPropertyOp0
 70
     1
102
RTVSPropertyOp1
 70
     1
102
RTVSPropertyOp2
 70
     1
102
RTVSPropertyOp3
 70
     1
102
RTVSPropertyOp4
 70
     1
102
RTVSPropertyOp5
 70
     1
102
RTVSPropertyOp6
 70
     1
102
RTVSPropertyOp7
 70
     1
102
RTVSPropertyOp8
 70
     1
102
RTVSPropertyOp9
 70
     1
102
RTVSPropertyOp10
 70
     1
102
RTVSPropertyOp11
 70
     1
102
RTVSPropertyOp12
 70
     1
102
RTVSPropertyOp13
 70
     1
102
RTVSPropertyOp14
 70
     1
102
RTVSPropertyOp15
 70
     1
102
RTVSPropertyOp16
 70
     1
102
RTVSPropertyOp17
 70
     1
102
RTVSPropertyOp18
 70
     1
102
RTVSPropertyOp19
 70
     1
102
RTVSPropertyOp20
 70
     1
102
RTVSPropertyOp21
 70
     1
102
RTVSPropertyOp22
 70
     1
102
RTVSPropertyOp23
 70
     1
102
RTVSPropertyOp24
 70
     1
102
RTVSPropertyOp25
 70
     1
102
RTVSPropertyOp26
 70
     1
102
RTVSPropertyOp27
 70
     1
  0
XRECORD
  5
2484
102
{ACAD_REACTORS
330
2483
102
}
330
2483
100
AcDbXrecord
280
     1
102
RTVSPropertyOp0
 70
     1
102
RTVSPropertyOp1
 70
     1
102
RTVSPropertyOp2
 70
     1
102
RTVSPropertyOp3
 70
     1
102
RTVSPropertyOp4
 70
     1
102
RTVSPropertyOp5
 70
     1
102
RTVSPropertyOp6
 70
     1
102
RTVSPropertyOp7
 70
     1
102
RTVSPropertyOp8
 70
     1
102
RTVSPropertyOp9
 70
     1
102
RTVSPropertyOp10
 70
     1
102
RTVSPropertyOp11
 70
     1
102
RTVSPropertyOp12
 70
     1
102
RTVSPropertyOp13
 70
     1
102
RTVSPropertyOp14
 70
     1
102
RTVSPropertyOp15
 70
     1
102
RTVSPropertyOp16
 70
     1
102
RTVSPropertyOp17
 70
     1
102
RTVSPropertyOp18
 70
     1
102
RTVSPropertyOp19
 70
     1
102
RTVSPropertyOp20
 70
     1
102
RTVSPropertyOp21
 70
     1
102
RTVSPropertyOp22
 70
     1
102
RTVSPropertyOp23
 70
     1
102
RTVSPropertyOp24
 70
     1
102
RTVSPropertyOp25
 70
     1
102
RTVSPropertyOp26
 70
     1
102
RTVSPropertyOp27
 70
     1
  0
XRECORD
  5
2486
102
{ACAD_REACTORS
330
2485
102
}
330
2485
100
AcDbXrecord
280
     1
102
RTVSPropertyOp0
 70
     1
102
RTVSPropertyOp1
 70
     1
102
RTVSPropertyOp2
 70
     1
102
RTVSPropertyOp3
 70
     1
102
RTVSPropertyOp4
 70
     1
102
RTVSPropertyOp5
 70
     1
102
RTVSPropertyOp6
 70
     1
102
RTVSPropertyOp7
 70
     1
102
RTVSPropertyOp8
 70
     1
102
RTVSPropertyOp9
 70
     1
102
RTVSPropertyOp10
 70
     1
102
RTVSPropertyOp11
 70
     1
102
RTVSPropertyOp12
 70
     1
102
RTVSPropertyOp13
 70
     1
102
RTVSPropertyOp14
 70
     1
102
RTVSPropertyOp15
 70
     1
102
RTVSPropertyOp16
 70
     1
102
RTVSPropertyOp17
 70
     1
102
RTVSPropertyOp18
 70
     1
102
RTVSPropertyOp19
 70
     1
102
RTVSPropertyOp20
 70
     1
102
RTVSPropertyOp21
 70
     1
102
RTVSPropertyOp22
 70
     1
102
RTVSPropertyOp23
 70
     1
102
RTVSPropertyOp24
 70
     1
102
RTVSPropertyOp25
 70
     1
102
RTVSPropertyOp26
 70
     1
102
RTVSPropertyOp27
 70
     1
  0
XRECORD
  5
24A0
102
{ACAD_REACTORS
330
249F
102
}
330
249F
100
AcDbXrecord
280
     1
102
RTVSPropertyOp0
 70
     0
102
RTVSPropertyOp1
 70
     0
102
RTVSPropertyOp2
 70
     0
102
RTVSPropertyOp3
 70
     0
102
RTVSPropertyOp4
 70
     0
102
RTVSPropertyOp5
 70
     0
102
RTVSPropertyOp6
 70
     0
102
RTVSPropertyOp7
 70
     0
102
RTVSPropertyOp8
 70
     0
102
RTVSPropertyOp9
 70
     0
102
RTVSPropertyOp10
 70
     0
102
RTVSPropertyOp11
 70
     0
102
RTVSPropertyOp12
 70
     0
102
RTVSPropertyOp13
 70
     0
102
RTVSPropertyOp14
 70
     2
102
RTVSPropertyOp15
 70
     0
102
RTVSPropertyOp16
 70
     0
102
RTVSPropertyOp17
 70
     0
102
RTVSPropertyOp18
 70
     0
102
RTVSPropertyOp19
 70
     0
102
RTVSPropertyOp20
 70
     0
102
RTVSPropertyOp21
 70
     0
102
RTVSPropertyOp22
 70
     0
102
RTVSPropertyOp23
 70
     0
102
RTVSPropertyOp24
 70
     0
102
RTVSPropertyOp25
 70
     0
102
RTVSPropertyOp26
 70
     0
102
RTVSPropertyOp27
 70
     0
  0
XRECORD
  5
249A
102
{ACAD_REACTORS
330
2499
102
}
330
2499
100
AcDbXrecord
280
     1
102
RTVSPropertyOp0
 70
     1
102
RTVSPropertyOp1
 70
     1
102
RTVSPropertyOp2
 70
     1
102
RTVSPropertyOp3
 70
     1
102
RTVSPropertyOp4
 70
     1
102
RTVSPropertyOp5
 70
     1
102
RTVSPropertyOp6
 70
     1
102
RTVSPropertyOp7
 70
     1
102
RTVSPropertyOp8
 70
     1
102
RTVSPropertyOp9
 70
     1
102
RTVSPropertyOp10
 70
     1
102
RTVSPropertyOp11
 70
     1
102
RTVSPropertyOp12
 70
     1
102
RTVSPropertyOp13
 70
     1
102
RTVSPropertyOp14
 70
     1
102
RTVSPropertyOp15
 70
     1
102
RTVSPropertyOp16
 70
     1
102
RTVSPropertyOp17
 70
     1
102
RTVSPropertyOp18
 70
     1
102
RTVSPropertyOp19
 70
     1
102
RTVSPropertyOp20
 70
     1
102
RTVSPropertyOp21
 70
     1
102
RTVSPropertyOp22
 70
     1
102
RTVSPropertyOp23
 70
     1
102
RTVSPropertyOp24
 70
     1
102
RTVSPropertyOp25
 70
     1
102
RTVSPropertyOp26
 70
     1
102
RTVSPropertyOp27
 70
     1
  0
XRECORD
  5
24A2
102
{ACAD_REACTORS
330
24A1
102
}
330
24A1
100
AcDbXrecord
280
     1
102
RTVSPropertyOp0
 70
     0
102
RTVSPropertyOp1
 70
     0
102
RTVSPropertyOp2
 70
     0
102
RTVSPropertyOp3
 70
     0
102
RTVSPropertyOp4
 70
     0
102
RTVSPropertyOp5
 70
     0
102
RTVSPropertyOp6
 70
     0
102
RTVSPropertyOp7
 70
     0
102
RTVSPropertyOp8
 70
     0
102
RTVSPropertyOp9
 70
     0
102
RTVSPropertyOp10
 70
     0
102
RTVSPropertyOp11
 70
     0
102
RTVSPropertyOp12
 70
     0
102
RTVSPropertyOp13
 70
     0
102
RTVSPropertyOp14
 70
     2
102
RTVSPropertyOp15
 70
     0
102
RTVSPropertyOp16
 70
     0
102
RTVSPropertyOp17
 70
     0
102
RTVSPropertyOp18
 70
     0
102
RTVSPropertyOp19
 70
     0
102
RTVSPropertyOp20
 70
     0
102
RTVSPropertyOp21
 70
     0
102
RTVSPropertyOp22
 70
     0
102
RTVSPropertyOp23
 70
     0
102
RTVSPropertyOp24
 70
     0
102
RTVSPropertyOp25
 70
     0
102
RTVSPropertyOp26
 70
     0
102
RTVSPropertyOp27
 70
     0
  0
XRECORD
  5
2492
102
{ACAD_REACTORS
330
2491
102
}
330
2491
100
AcDbXrecord
280
     1
102
RTVSPropertyOp0
 70
     1
102
RTVSPropertyOp1
 70
     1
102
RTVSPropertyOp2
 70
     1
102
RTVSPropertyOp3
 70
     1
102
RTVSPropertyOp4
 70
     1
102
RTVSPropertyOp5
 70
     1
102
RTVSPropertyOp6
 70
     1
102
RTVSPropertyOp7
 70
     1
102
RTVSPropertyOp8
 70
     1
102
RTVSPropertyOp9
 70
     1
102
RTVSPropertyOp10
 70
     1
102
RTVSPropertyOp11
 70
     1
102
RTVSPropertyOp12
 70
     1
102
RTVSPropertyOp13
 70
     1
102
RTVSPropertyOp14
 70
     1
102
RTVSPropertyOp15
 70
     1
102
RTVSPropertyOp16
 70
     1
102
RTVSPropertyOp17
 70
     1
102
RTVSPropertyOp18
 70
     1
102
RTVSPropertyOp19
 70
     1
102
RTVSPropertyOp20
 70
     1
102
RTVSPropertyOp21
 70
     1
102
RTVSPropertyOp22
 70
     1
102
RTVSPropertyOp23
 70
     1
102
RTVSPropertyOp24
 70
     1
102
RTVSPropertyOp25
 70
     1
102
RTVSPropertyOp26
 70
     1
102
RTVSPropertyOp27
 70
     1
  0
XRECORD
  5
2498
102
{ACAD_REACTORS
330
2497
102
}
330
2497
100
AcDbXrecord
280
     1
102
RTVSPropertyOp0
 70
     1
102
RTVSPropertyOp1
 70
     1
102
RTVSPropertyOp2
 70
     1
102
RTVSPropertyOp3
 70
     1
102
RTVSPropertyOp4
 70
     1
102
RTVSPropertyOp5
 70
     1
102
RTVSPropertyOp6
 70
     1
102
RTVSPropertyOp7
 70
     1
102
RTVSPropertyOp8
 70
     1
102
RTVSPropertyOp9
 70
     1
102
RTVSPropertyOp10
 70
     1
102
RTVSPropertyOp11
 70
     1
102
RTVSPropertyOp12
 70
     1
102
RTVSPropertyOp13
 70
     1
102
RTVSPropertyOp14
 70
     1
102
RTVSPropertyOp15
 70
     1
102
RTVSPropertyOp16
 70
     1
102
RTVSPropertyOp17
 70
     1
102
RTVSPropertyOp18
 70
     1
102
RTVSPropertyOp19
 70
     1
102
RTVSPropertyOp20
 70
     1
102
RTVSPropertyOp21
 70
     1
102
RTVSPropertyOp22
 70
     1
102
RTVSPropertyOp23
 70
     1
102
RTVSPropertyOp24
 70
     1
102
RTVSPropertyOp25
 70
     1
102
RTVSPropertyOp26
 70
     1
102
RTVSPropertyOp27
 70
     1
  0
ENDSEC
  0
EOF
