  0
SECTION
  2
HEADER
  9
$ACADVER
  1
AC1015
  9
$ACADMAINTVER
 70
    20
  9
$DWGCODEPAGE
  3
ANSI_1252
  9
$INSBASE
 10
0.0
 20
0.0
 30
0.0
  9
$EXTMIN
 10
1655.959009186029
 20
451.7366423767625
 30
-0.0000000017938898
  9
$EXTMAX
 10
1658.616316190436
 20
453.6053814018867
 30
0.0000000002834724
  9
$LIMMIN
 10
0.0
 20
0.0
  9
$LIMMAX
 10
420.0
 20
297.0
  9
$ORTHOMODE
 70
     1
  9
$REGENMODE
 70
     1
  9
$FILLMODE
 70
     1
  9
$QTEXTMODE
 70
     0
  9
$MIRRTEXT
 70
     1
  9
$LTSCALE
 40
0.08
  9
$ATTMODE
 70
     1
  9
$TEXTSIZE
 40
2.5
  9
$TRACEWID
 40
1.0
  9
$TEXTSTYLE
  7
SANINDUSA
  9
$CLAYER
  8
cotas
  9
$CELTYPE
  6
ByLayer
  9
$CECOLOR
 62
   256
  9
$CELTSCALE
 40
1.0
  9
$DISPSILH
 70
     0
  9
$DIMSCALE
 40
1.0
  9
$DIMASZ
 40
2.0
  9
$DIMEXO
 40
1.0
  9
$DIMDLI
 40
1.0
  9
$DIMRND
 40
0.0
  9
$DIMDLE
 40
0.0
  9
$DIMEXE
 40
1.0
  9
$DIMTP
 40
0.0
  9
$DIMTM
 40
0.0
  9
$DIMTXT
 40
2.0
  9
$DIMCEN
 40
0.0
  9
$DIMTSZ
 40
0.0
  9
$DIMTOL
 70
     0
  9
$DIMLIM
 70
     0
  9
$DIMTIH
 70
     0
  9
$DIMTOH
 70
     0
  9
$DIMSE1
 70
     0
  9
$DIMSE2
 70
     0
  9
$DIMTAD
 70
     1
  9
$DIMZIN
 70
     8
  9
$DIMBLK
  1

  9
$DIMASO
 70
     1
  9
$DIMSHO
 70
     1
  9
$DIMPOST
  1

  9
$DIMAPOST
  1

  9
$DIMALT
 70
     0
  9
$DIMALTD
 70
     3
  9
$DIMALTF
 40
0.03937007874016
  9
$DIMLFAC
 40
1.0
  9
$DIMTOFL
 70
     1
  9
$DIMTVP
 40
0.0
  9
$DIMTIX
 70
     0
  9
$DIMSOXD
 70
     0
  9
$DIMSAH
 70
     0
  9
$DIMBLK1
  1

  9
$DIMBLK2
  1

  9
$DIMSTYLE
  2
SANINDUSA
  9
$DIMCLRD
 70
   256
  9
$DIMCLRE
 70
   256
  9
$DIMCLRT
 70
   256
  9
$DIMTFAC
 40
1.0
  9
$DIMGAP
 40
1.0
  9
$DIMJUST
 70
     0
  9
$DIMSD1
 70
     0
  9
$DIMSD2
 70
     0
  9
$DIMTOLJ
 70
     0
  9
$DIMTZIN
 70
     8
  9
$DIMALTZ
 70
     0
  9
$DIMALTTZ
 70
     0
  9
$DIMUPT
 70
     0
  9
$DIMDEC
 70
     1
  9
$DIMTDEC
 70
     1
  9
$DIMALTU
 70
     2
  9
$DIMALTTD
 70
     3
  9
$DIMTXSTY
  7
SANINDUSA
  9
$DIMAUNIT
 70
     0
  9
$DIMADEC
 70
     1
  9
$DIMALTRND
 40
0.0
  9
$DIMAZIN
 70
     0
  9
$DIMDSEP
 70
    44
  9
$DIMATFIT
 70
     3
  9
$DIMFRAC
 70
     0
  9
$DIMLDRBLK
  1

  9
$DIMLUNIT
 70
     2
  9
$DIMLWD
 70
    -1
  9
$DIMLWE
 70
    -1
  9
$DIMTMOVE
 70
     0
  9
$LUNITS
 70
     2
  9
$LUPREC
 70
     4
  9
$SKETCHINC
 40
1.0
  9
$FILLETRAD
 40
0.0
  9
$AUNITS
 70
     0
  9
$AUPREC
 70
     0
  9
$MENU
  1
.
  9
$ELEVATION
 40
0.0
  9
$PELEVATION
 40
0.0
  9
$THICKNESS
 40
0.0
  9
$LIMCHECK
 70
     0
  9
$CHAMFERA
 40
10.0
  9
$CHAMFERB
 40
10.0
  9
$CHAMFERC
 40
20.0
  9
$CHAMFERD
 40
0.0
  9
$SKPOLY
 70
     0
  9
$TDCREATE
 40
2453564.405545961
  9
$TDUCREATE
 40
2453564.363879294
  9
$TDUPDATE
 40
2455817.515404364
  9
$TDUUPDATE
 40
2455817.473737697
  9
$TDINDWG
 40
0.0888217940
  9
$TDUSRTIMER
 40
0.0888217940
  9
$USRTIMER
 70
     1
  9
$ANGBASE
 50
0.0
  9
$ANGDIR
 70
     0
  9
$PDMODE
 70
     0
  9
$PDSIZE
 40
0.0
  9
$PLINEWID
 40
0.0
  9
$SPLFRAME
 70
     0
  9
$SPLINETYPE
 70
     6
  9
$SPLINESEGS
 70
     8
  9
$HANDSEED
  5
4C6E
  9
$SURFTAB1
 70
     6
  9
$SURFTAB2
 70
     6
  9
$SURFTYPE
 70
     6
  9
$SURFU
 70
     6
  9
$SURFV
 70
     6
  9
$UCSBASE
  2

  9
$UCSNAME
  2

  9
$UCSORG
 10
0.0
 20
0.0
 30
0.0
  9
$UCSXDIR
 10
1.0
 20
0.0
 30
0.0
  9
$UCSYDIR
 10
0.0
 20
1.0
 30
0.0
  9
$UCSORTHOREF
  2

  9
$UCSORTHOVIEW
 70
     0
  9
$UCSORGTOP
 10
0.0
 20
0.0
 30
0.0
  9
$UCSORGBOTTOM
 10
0.0
 20
0.0
 30
0.0
  9
$UCSORGLEFT
 10
0.0
 20
0.0
 30
0.0
  9
$UCSORGRIGHT
 10
0.0
 20
0.0
 30
0.0
  9
$UCSORGFRONT
 10
0.0
 20
0.0
 30
0.0
  9
$UCSORGBACK
 10
0.0
 20
0.0
 30
0.0
  9
$PUCSBASE
  2

  9
$PUCSNAME
  2

  9
$PUCSORG
 10
0.0
 20
0.0
 30
0.0
  9
$PUCSXDIR
 10
1.0
 20
0.0
 30
0.0
  9
$PUCSYDIR
 10
0.0
 20
1.0
 30
0.0
  9
$PUCSORTHOREF
  2

  9
$PUCSORTHOVIEW
 70
     0
  9
$PUCSORGTOP
 10
0.0
 20
0.0
 30
0.0
  9
$PUCSORGBOTTOM
 10
0.0
 20
0.0
 30
0.0
  9
$PUCSORGLEFT
 10
0.0
 20
0.0
 30
0.0
  9
$PUCSORGRIGHT
 10
0.0
 20
0.0
 30
0.0
  9
$PUCSORGFRONT
 10
0.0
 20
0.0
 30
0.0
  9
$PUCSORGBACK
 10
0.0
 20
0.0
 30
0.0
  9
$USERI1
 70
     0
  9
$USERI2
 70
     0
  9
$USERI3
 70
     0
  9
$USERI4
 70
     0
  9
$USERI5
 70
     0
  9
$USERR1
 40
0.0
  9
$USERR2
 40
0.0
  9
$USERR3
 40
0.0
  9
$USERR4
 40
0.0
  9
$USERR5
 40
0.0
  9
$WORLDVIEW
 70
     1
  9
$SHADEDGE
 70
     3
  9
$SHADEDIF
 70
    70
  9
$TILEMODE
 70
     1
  9
$MAXACTVP
 70
    64
  9
$PINSBASE
 10
0.0
 20
0.0
 30
0.0
  9
$PLIMCHECK
 70
     0
  9
$PEXTMIN
 10
1.000000000000000E+20
 20
1.000000000000000E+20
 30
1.000000000000000E+20
  9
$PEXTMAX
 10
-1.000000000000000E+20
 20
-1.000000000000000E+20
 30
-1.000000000000000E+20
  9
$PLIMMIN
 10
0.0
 20
0.0
  9
$PLIMMAX
 10
420.0
 20
297.0
  9
$UNITMODE
 70
     0
  9
$VISRETAIN
 70
     1
  9
$PLINEGEN
 70
     0
  9
$PSLTSCALE
 70
     1
  9
$TREEDEPTH
 70
  3020
  9
$CMLSTYLE
  2
Standard
  9
$CMLJUST
 70
     0
  9
$CMLSCALE
 40
20.0
  9
$PROXYGRAPHICS
 70
     1
  9
$MEASUREMENT
 70
     1
  9
$CELWEIGHT
370
    -1
  9
$ENDCAPS
280
     0
  9
$JOINSTYLE
280
     0
  9
$LWDISPLAY
290
     0
  9
$INSUNITS
 70
     4
  9
$HYPERLINKBASE
  1

  9
$STYLESHEET
  1
monochrome.ctb
  9
$XEDIT
290
     1
  9
$CEPSNTYPE
380
     0
  9
$PSTYLEMODE
290
     1
  9
$FINGERPRINTGUID
  2
{E8610B8A-92B4-4398-8245-6233917CED87}
  9
$VERSIONGUID
  2
{93F25CB9-C5C4-45F0-9C7A-829DE136ECCA}
  9
$EXTNAMES
290
     1
  9
$PSVPSCALE
 40
0.0
  9
$OLESTARTUP
290
     0
  0
ENDSEC
  0
SECTION
  2
CLASSES
  0
CLASS
  1
ACDBDICTIONARYWDFLT
  2
AcDbDictionaryWithDefault
  3
ObjectDBX Classes
 90
        0
280
     0
281
     0
  0
CLASS
  1
ACDBPLACEHOLDER
  2
AcDbPlaceHolder
  3
ObjectDBX Classes
 90
        0
280
     0
281
     0
  0
CLASS
  1
LAYOUT
  2
AcDbLayout
  3
ObjectDBX Classes
 90
        0
280
     0
281
     0
  0
CLASS
  1
DICTIONARYVAR
  2
AcDbDictionaryVar
  3
ObjectDBX Classes
 90
        0
280
     0
281
     0
  0
CLASS
  1
DIMASSOC
  2
AcDbDimAssoc
  3
"AcDbDimAssoc|Product Desc:     AcDim ARX App For Dimension|Company:          Autodesk, Inc.|WEB Address:      www.autodesk.com"
 90
        0
280
     0
281
     0
  0
CLASS
  1
TABLESTYLE
  2
AcDbTableStyle
  3
ObjectDBX Classes
 90
     4095
280
     0
281
     0
  0
CLASS
  1
SORTENTSTABLE
  2
AcDbSortentsTable
  3
ObjectDBX Classes
 90
        0
280
     0
281
     0
  0
CLASS
  1
MATERIAL
  2
AcDbMaterial
  3
ObjectDBX Classes
 90
     1153
280
     0
281
     0
  0
CLASS
  1
VISUALSTYLE
  2
AcDbVisualStyle
  3
ObjectDBX Classes
 90
     4095
280
     0
281
     0
  0
CLASS
  1
SCALE
  2
AcDbScale
  3
ObjectDBX Classes
 90
     1153
280
     0
281
     0
  0
CLASS
  1
MLEADERSTYLE
  2
AcDbMLeaderStyle
  3
ACDB_MLEADERSTYLE_CLASS
 90
     4095
280
     0
281
     0
  0
CLASS
  1
CELLSTYLEMAP
  2
AcDbCellStyleMap
  3
ObjectDBX Classes
 90
     1152
280
     0
281
     0
  0
ENDSEC
  0
SECTION
  2
TABLES
  0
TABLE
  2
VPORT
  5
8
330
0
100
AcDbSymbolTable
 70
     1
  0
VPORT
  5
4B80
330
8
100
AcDbSymbolTableRecord
100
AcDbViewportTableRecord
  2
*Active
 70
     0
 10
0.0
 20
0.0
 11
1.0
 21
1.0
 12
1657.287662688232
 22
452.6710118893246
 13
0.0
 23
0.0
 14
10.0
 24
10.0
 15
10.0
 25
10.0
 16
0.0
 26
0.0
 36
1.0
 17
0.0
 27
0.0
 37
0.0
 40
1.880418644031124
 41
1.645464025026068
 42
50.0
 43
0.0
 44
0.0
 50
0.0
 51
0.0
 71
     0
 72
   100
 73
     1
 74
     2
 75
     0
 76
     0
 77
     0
 78
     0
281
     0
 65
     1
110
0.0
120
0.0
130
0.0
111
1.0
121
0.0
131
0.0
112
0.0
122
1.0
132
0.0
 79
     0
146
0.0
  0
ENDTAB
  0
TABLE
  2
LTYPE
  5
5
330
0
100
AcDbSymbolTable
 70
     5
  0
LTYPE
  5
14
330
5
100
AcDbSymbolTableRecord
100
AcDbLinetypeTableRecord
  2
ByBlock
 70
     0
  3

 72
    65
 73
     0
 40
0.0
  0
LTYPE
  5
15
330
5
100
AcDbSymbolTableRecord
100
AcDbLinetypeTableRecord
  2
ByLayer
 70
     0
  3

 72
    65
 73
     0
 40
0.0
  0
LTYPE
  5
16
330
5
100
AcDbSymbolTableRecord
100
AcDbLinetypeTableRecord
  2
Continuous
 70
     0
  3
Solid line
 72
    65
 73
     0
 40
0.0
  0
LTYPE
  5
2D
330
5
100
AcDbSymbolTableRecord
100
AcDbLinetypeTableRecord
  2
DASHDOT
 70
     0
  3
Dash dot __ . __ . __ . __ . __ . __ . __ . __
 72
    65
 73
     4
 40
25.4
 49
12.7
 74
     0
 49
-6.349999999999999
 74
     0
 49
0.0
 74
     0
 49
-6.349999999999999
 74
     0
  0
LTYPE
  5
2E
330
5
100
AcDbSymbolTableRecord
100
AcDbLinetypeTableRecord
  2
HIDDEN
 70
     0
  3
Hidden __ __ __ __ __ __ __ __ __ __ __ __ __ _
 72
    65
 73
     2
 40
9.524999999999998
 49
6.349999999999999
 74
     0
 49
-3.174999999999999
 74
     0
  0
LTYPE
  5
C39
330
5
100
AcDbSymbolTableRecord
100
AcDbLinetypeTableRecord
  2
CENTER
 70
     0
  3
____ _ ____ _ ____ _ ____ _ ____ _ ____ _ ____ 
 72
    65
 73
     4
 40
2.0
 49
1.25
 74
     0
 49
-0.25
 74
     0
 49
0.25
 74
     0
 49
-0.25
 74
     0
  0
ENDTAB
  0
TABLE
  2
LAYER
  5
2
330
0
100
AcDbSymbolTable
 70
    17
  0
LAYER
  5
10
102
{ACAD_XDICTIONARY
360
4BD4
102
}
330
2
100
AcDbSymbolTableRecord
100
AcDbLayerTableRecord
  2
0
 70
     0
 62
     7
  6
Continuous
370
    -3
390
F
  0
LAYER
  5
2F
102
{ACAD_XDICTIONARY
360
4BD6
102
}
330
2
100
AcDbSymbolTableRecord
100
AcDbLayerTableRecord
  2
1
 70
     0
 62
     1
  6
Continuous
370
    -3
390
F
  0
LAYER
  5
30
102
{ACAD_XDICTIONARY
360
4BD8
102
}
330
2
100
AcDbSymbolTableRecord
100
AcDbLayerTableRecord
  2
2
 70
     0
 62
     2
  6
Continuous
370
    -3
390
F
  0
LAYER
  5
31
102
{ACAD_XDICTIONARY
360
4BDA
102
}
330
2
100
AcDbSymbolTableRecord
100
AcDbLayerTableRecord
  2
3
 70
     0
 62
     3
  6
Continuous
370
    -3
390
F
  0
LAYER
  5
32
102
{ACAD_XDICTIONARY
360
4BDC
102
}
330
2
100
AcDbSymbolTableRecord
100
AcDbLayerTableRecord
  2
4
 70
     0
 62
     4
  6
Continuous
370
    -3
390
F
  0
LAYER
  5
33
102
{ACAD_XDICTIONARY
360
4BDE
102
}
330
2
100
AcDbSymbolTableRecord
100
AcDbLayerTableRecord
  2
5
 70
     0
 62
     5
  6
Continuous
370
    -3
390
F
  0
LAYER
  5
34
102
{ACAD_XDICTIONARY
360
4BE0
102
}
330
2
100
AcDbSymbolTableRecord
100
AcDbLayerTableRecord
  2
6
 70
     0
 62
     6
  6
Continuous
370
    -3
390
F
  0
LAYER
  5
35
102
{ACAD_XDICTIONARY
360
4BE2
102
}
330
2
100
AcDbSymbolTableRecord
100
AcDbLayerTableRecord
  2
7
 70
     0
 62
     7
  6
Continuous
370
    -3
390
F
  0
LAYER
  5
36
102
{ACAD_XDICTIONARY
360
4BE4
102
}
330
2
100
AcDbSymbolTableRecord
100
AcDbLayerTableRecord
  2
cen
 70
     0
 62
     7
  6
DASHDOT
370
    -3
390
F
  0
LAYER
  5
37
102
{ACAD_XDICTIONARY
360
4BE6
102
}
330
2
100
AcDbSymbolTableRecord
100
AcDbLayerTableRecord
  2
hid
 70
     0
 62
     7
  6
HIDDEN
370
    -3
390
F
  0
LAYER
  5
5D6
102
{ACAD_XDICTIONARY
360
4BE8
102
}
330
2
100
AcDbSymbolTableRecord
100
AcDbLayerTableRecord
  2
hatch
 70
     0
 62
     9
  6
Continuous
370
    -3
390
F
  0
LAYER
  5
8AF
102
{ACAD_XDICTIONARY
360
4BEA
102
}
330
2
100
AcDbSymbolTableRecord
100
AcDbLayerTableRecord
  2
9
 70
     0
 62
     9
  6
Continuous
370
    -3
390
F
  0
LAYER
  5
8F8
102
{ACAD_XDICTIONARY
360
4BEC
102
}
330
2
100
AcDbSymbolTableRecord
100
AcDbLayerTableRecord
  2
leg fin
 70
     0
 62
     9
  6
Continuous
370
    -3
390
F
  0
LAYER
  5
91D
102
{ACAD_XDICTIONARY
360
4BEE
102
}
330
2
100
AcDbSymbolTableRecord
100
AcDbLayerTableRecord
  2
cotas
 70
     0
 62
     1
  6
Continuous
370
    -3
390
F
  0
LAYER
  5
92F
330
2
100
AcDbSymbolTableRecord
100
AcDbLayerTableRecord
  2
Defpoints
 70
     0
 62
     7
  6
Continuous
290
     0
370
    -3
390
F
  0
LAYER
  5
BA5
102
{ACAD_XDICTIONARY
360
4BF0
102
}
330
2
100
AcDbSymbolTableRecord
100
AcDbLayerTableRecord
  2
SANINDUSA
 70
     0
 62
     3
  6
Continuous
370
    -3
390
F
  0
LAYER
  5
C3A
102
{ACAD_XDICTIONARY
360
4BF2
102
}
330
2
100
AcDbSymbolTableRecord
100
AcDbLayerTableRecord
  2
quote
 70
     0
 62
     7
  6
Continuous
370
    18
390
F
  0
ENDTAB
  0
TABLE
  2
STYLE
  5
3
330
0
100
AcDbSymbolTable
 70
     3
  0
STYLE
  5
11
330
3
100
AcDbSymbolTableRecord
100
AcDbTextStyleTableRecord
  2
Standard
 70
     0
 40
0.0
 41
1.0
 50
0.0
 71
     0
 42
2.5
  3
Avgardn.ttf
  4

1001
ACAD
1000
AvantGarde Bk BT
1071
       34
  0
STYLE
  5
2C
330
3
100
AcDbSymbolTableRecord
100
AcDbTextStyleTableRecord
  2

 70
     1
 40
0.0
 41
1.0
 50
0.0
 71
     0
 42
2.5
  3
ltypeshp.shx
  4

  0
STYLE
  5
91F
330
3
100
AcDbSymbolTableRecord
100
AcDbTextStyleTableRecord
  2
SANINDUSA
 70
     0
 40
0.0
 41
1.0
 50
0.0
 71
     0
 42
2.5
  3
verdana.TTF
  4

1001
ACAD
1000
Verdana
1071
       34
  0
ENDTAB
  0
TABLE
  2
VIEW
  5
6
330
0
100
AcDbSymbolTable
 70
     0
  0
ENDTAB
  0
TABLE
  2
UCS
  5
7
330
0
100
AcDbSymbolTable
 70
     0
  0
ENDTAB
  0
TABLE
  2
APPID
  5
9
330
0
100
AcDbSymbolTable
 70
    15
  0
APPID
  5
12
330
9
100
AcDbSymbolTableRecord
100
AcDbRegAppTableRecord
  2
ACAD
 70
     0
  0
APPID
  5
3A
330
9
100
AcDbSymbolTableRecord
100
AcDbRegAppTableRecord
  2
DCO15
 70
     0
  0
APPID
  5
C3C
330
9
100
AcDbSymbolTableRecord
100
AcDbRegAppTableRecord
  2
GENIUS_GENREC_14
 70
     0
  0
APPID
  5
C3D
330
9
100
AcDbSymbolTableRecord
100
AcDbRegAppTableRecord
  2
GENIUS_GENODEF_13
 70
     0
  0
APPID
  5
C3E
330
9
100
AcDbSymbolTableRecord
100
AcDbRegAppTableRecord
  2
GENIUS_GENOBJ-N-REC_13
 70
     0
  0
APPID
  5
14FB
330
9
100
AcDbSymbolTableRecord
100
AcDbRegAppTableRecord
  2
ACAD_EXEMPT_FROM_CAD_STANDARDS
 70
     0
  0
APPID
  5
1583
330
9
100
AcDbSymbolTableRecord
100
AcDbRegAppTableRecord
  2
ACAD_DSTYLE_DIMTEXT_FILL
 70
     0
  0
APPID
  5
1584
330
9
100
AcDbSymbolTableRecord
100
AcDbRegAppTableRecord
  2
ACAD_DSTYLE_DIMEXT_LENGTH
 70
     0
  0
APPID
  5
1585
330
9
100
AcDbSymbolTableRecord
100
AcDbRegAppTableRecord
  2
ACAD_DSTYLE_DIMEXT_ENABLED
 70
     0
  0
APPID
  5
1586
330
9
100
AcDbSymbolTableRecord
100
AcDbRegAppTableRecord
  2
ACAD_DSTYLE_DIM_LINETYPE
 70
     0
  0
APPID
  5
1587
330
9
100
AcDbSymbolTableRecord
100
AcDbRegAppTableRecord
  2
ACAD_DSTYLE_DIM_EXT1_LINETYPE
 70
     0
  0
APPID
  5
1588
330
9
100
AcDbSymbolTableRecord
100
AcDbRegAppTableRecord
  2
ACAD_DSTYLE_DIM_EXT2_LINETYPE
 70
     0
  0
APPID
  5
1644
330
9
100
AcDbSymbolTableRecord
100
AcDbRegAppTableRecord
  2
ACAD_DSTYLE_DIMJOGGED_JOGANGLE_SYMBOL
 70
     0
  0
APPID
  5
16D8
330
9
100
AcDbSymbolTableRecord
100
AcDbRegAppTableRecord
  2
ACAD_DSTYLE_DIMARC_LENGTH_SYMBOL
 70
     0
  0
APPID
  5
4C6D
330
9
100
AcDbSymbolTableRecord
100
AcDbRegAppTableRecord
  2
ACAD_MLEADERVER
 70
     0
  0
ENDTAB
  0
TABLE
  2
DIMSTYLE
  5
A
330
0
100
AcDbSymbolTable
 70
     4
100
AcDbDimStyleTable
 71
     1
340
921
  0
DIMSTYLE
105
45
330
A
100
AcDbSymbolTableRecord
100
AcDbDimStyleTableRecord
  2
STANDARD
 70
     0
289
     0
340
11
  0
DIMSTYLE
105
921
330
A
100
AcDbSymbolTableRecord
100
AcDbDimStyleTableRecord
  2
SANINDUSA
 70
     0
 41
2.0
 42
1.0
 43
1.0
 44
1.0
 73
     0
 74
     0
 77
     1
 78
     8
140
2.0
141
0.0
143
0.03937007874016
147
1.0
171
     3
172
     1
176
   256
177
   256
178
   256
179
     1
271
     1
272
     1
274
     3
278
    44
283
     0
284
     8
340
91F
371
    -1
372
    -1
1001
ACAD_DSTYLE_DIMJOGGED_JOGANGLE_SYMBOL
1070
   384
1040
1.570796326794896
  0
DIMSTYLE
105
C3B
330
A
100
AcDbSymbolTableRecord
100
AcDbDimStyleTableRecord
  2
ISO-25
 70
     0
 40
5.0
 41
2.5
 42
0.625
 43
3.75
 44
1.25
 73
     0
 74
     0
 77
     1
 78
     8
140
2.5
141
2.5
143
0.03937007874016
147
0.625
171
     3
172
     1
271
     0
272
     0
274
     3
278
    44
283
     0
284
     8
340
11
  0
ENDTAB
  0
TABLE
  2
BLOCK_RECORD
  5
1
330
0
100
AcDbSymbolTable
 70
    16
  0
BLOCK_RECORD
  5
1F
102
{ACAD_XDICTIONARY
360
1A3D
102
}
330
1
100
AcDbSymbolTableRecord
100
AcDbBlockTableRecord
  2
*Model_Space
340
22
  0
BLOCK_RECORD
  5
1B
330
1
100
AcDbSymbolTableRecord
100
AcDbBlockTableRecord
  2
*Paper_Space
340
1E
  0
BLOCK_RECORD
  5
23
330
1
100
AcDbSymbolTableRecord
100
AcDbBlockTableRecord
  2
*Paper_Space0
340
26
  0
BLOCK_RECORD
  5
919
330
1
100
AcDbSymbolTableRecord
100
AcDbBlockTableRecord
  2
_DotSmall
340
0
  0
BLOCK_RECORD
  5
922
330
1
100
AcDbSymbolTableRecord
100
AcDbBlockTableRecord
  2
base para cotas
340
0
310
2800000020000000200000000100080000000000000400000000000000000000000000000000000000000000000080000080000000808000800000008000800080800000C0C0C000C0DCC000F0CAA6000020400000206000002080000020A0000020C0000020E00000400000004020000040400000406000004080000040A0
310
000040C0000040E00000600000006020000060400000606000006080000060A0000060C0000060E00000800000008020000080400000806000008080000080A0000080C0000080E00000A0000000A0200000A0400000A0600000A0800000A0A00000A0C00000A0E00000C0000000C0200000C0400000C0600000C0800000C0
310
A00000C0C00000C0E00000E0000000E0200000E0400000E0600000E0800000E0A00000E0C00000E0E00040000000400020004000400040006000400080004000A0004000C0004000E00040200000402020004020400040206000402080004020A0004020C0004020E000404000004040200040404000404060004040800040
310
40A0004040C0004040E00040600000406020004060400040606000406080004060A0004060C0004060E00040800000408020004080400040806000408080004080A0004080C0004080E00040A0000040A0200040A0400040A0600040A0800040A0A00040A0C00040A0E00040C0000040C0200040C0400040C0600040C08000
310
40C0A00040C0C00040C0E00040E0000040E0200040E0400040E0600040E0800040E0A00040E0C00040E0E00080000000800020008000400080006000800080008000A0008000C0008000E00080200000802020008020400080206000802080008020A0008020C0008020E00080400000804020008040400080406000804080
310
008040A0008040C0008040E00080600000806020008060400080606000806080008060A0008060C0008060E00080800000808020008080400080806000808080008080A0008080C0008080E00080A0000080A0200080A0400080A0600080A0800080A0A00080A0C00080A0E00080C0000080C0200080C0400080C0600080C0
310
800080C0A00080C0C00080C0E00080E0000080E0200080E0400080E0600080E0800080E0A00080E0C00080E0E000C0000000C0002000C0004000C0006000C0008000C000A000C000C000C000E000C0200000C0202000C0204000C0206000C0208000C020A000C020C000C020E000C0400000C0402000C0404000C0406000C0
310
408000C040A000C040C000C040E000C0600000C0602000C0604000C0606000C0608000C060A000C060C000C060E000C0800000C0802000C0804000C0806000C0808000C080A000C080C000C080E000C0A00000C0A02000C0A04000C0A06000C0A08000C0A0A000C0A0C000C0A0E000C0C00000C0C02000C0C04000C0C06000
310
C0C08000C0C0A000F0FBFF00A4A0A000808080000000FF0000FF000000FFFF00FF000000FF00FF00FFFF0000FFFFFF00A4A4A4A4A4A4A4A4A4A4A4A4A4A4A4A4A4A4A4A4A4A4A4A4A4A4A4A4A4A4A4A4A4A4A4A4A4A4A4A4A4A4A4A4A4A4A4A4A4A4A4A4A4A4A4A4A4A4A4A4A4A4A4A4A4A4A4A4A4A4A4A4A4A4A4A4A4A4A4
310
A4A4A4A4A4A4A4A4A4A4A4A4A4A4A4A4A4A4A4A4A4A4A4A4A4A4A4A4A4A4A4A4A4A4A4A4A4A4A4A4A4A4A4A4A4A4A4A4A4A4A4A4A4A4A4A4A4A4A4A4A4A4A4A4A4A4A4A4A4A4A4A4A4A4A4A4A4A4A4A4A4A4A4A4A4A4A4A4A4A4A4A4A4A4A4A4A4A4A4A4A4A4A4A4A4A4A4A4A4A4A4A4A4A4A4A4A4A4A4A4A4A4A4A4A4A4A4
310
A4A4A4A4A4A4A4A4A4A4A4A4A4A4A4A4A4A4A4A4A4A4A4A4A4A4A4A4A4A4A4A4A4A4A4A4A4A4A4A4A4A4A4A4A4A4A4A4A4A4A4A4A4A4A4A4A4A4A4A4A4A4A4A4A4A4A4A4A4A4A4A4A4A4A4A4A4A4A4A4A4A4A4A4A4A4A4A4A4A4A4A4A4A4A4A4A4A4A4A4A4A4A4A4A4A4A4A4A4A4A4A4A4A4A4A4A4A4A4A4A4A4A4A4A4A4A4
310
A4A4A4A4A4A4A4A4A4A4A4A4A4A4A4A4A4A4A4A4A4A4A4A4A4A4A4A4A4A4A4A4A4A4A4A4A4A4A4A4A4A4A4A4A4A4A4A4A4A4A4A4A4A4A4A4A4A4A4A4A4A4A4A4A4A4A4A4A4A4A4A4A4A4A4A4A4A4A4A4A4A4A4A4A4A4A4A4A4A4A4A4A4A4A4A4A4A4A4A4A4A4A4A4A4A4A4A4A4A4A4A4A4A4A4A4F9F9F9F9F9F9F9F9F9F9F9
310
F9F9F9F9F9F9F9F9F9F9F9F9F9F9F9F9F9F9F9A4A4F9F9F9F9F9F9F9F9F9F9F9F9F9F9F9F9F9F9F9F9F9F9F9F9F9F9F9F9F9F9A4A4F9F9F9F9F9F9F9F9F9F9F9F9F9F9F9F9F9F9F9F9F9F9F9F9F9F9F9F9F9F9A4A4F9A4A4A4A4A4A4A4A4A4A4A4A4A4A4A4A4A4A4A4A4A4A4A4A4A4A4A4A4F9A4A4A4A4A4A4A4A4A4A4A4A4
310
A4A4A4A4A4A4A4A4A4A4A4A4A4A4A4A4A4A4A4A4A4A4A4A4A4A4A4A4A4A4A4A4A4A4A4A4A4A4A4A4A4A4A4A4A4A4A4A4A4A4A4A4A4A4A4A4A4A4A4A4A4A4A4A4A4A4A4A4A4A4A4A4A4A4A4A4A4A4A4A4A4A4A4A4A4A4A4A4A4A4A4A4A4A4A4A4A4A4A4A4A4A4A4A4A4A4A4A4A4A4A4A4A4A4A4A4A4A4A4A4A4A4A4A4A4A4A4
310
A4A4A4A4A4A4A4A4A4A4A4A4A4A4A4A4A4A4A4A4A4A4A4A4A4A4A4A4A4A4A4A4A4A4A4A4A4A4A4A4A4A4A4A4A4A4A4A4A4A4A4A4A4A4A4A4A4A4A4A4A4A4A4A4A4A4A4A4A4A4A4A4A4A4A4A4A4A4A4A4A4A4A4A4A4A4A4A4A4A4A4A4A4A4A4A4A4A4A4A4A4A4A4A4A4A4A4A4A4A4A4A4A4A4A4A4A4A4A4A4A4A4A4A4A4A4A4
310
A4A4A4A4A4A4A4A4A4A4A4A4A4A4A4A4A4A4A4A4A4A4A4A4A4A4A4A4A4A4A4A4A4A4A4A4A4A4A4A4A4A4A4A4A4A4A4A4A4A4A4A4A4A4A4A4A4A4A4A4A4A4A4A4A4A4A4A4A4A4A4A4A4A4A4A4A4A4A4A4A4A4A4A4A4A4A4A4A4A4A4A4A4A4A4A4A4A4A4A4A4A4A4A4A4A4A4A4A4A4A4A4A4A4A4A4A4A4A4A4A4A4A4A4A4A4A4
310
A4A4A4A4A4A4A4A4A4A4A4A4A4A4A4A4A4A4A4A4A4A4A4A4A4A4A4A4A4A4A4A4A4A4A4A4A4A4A4A4A4A4A4A4A4A4A4A4A4A4A4A4A4A4A4A4
1001
ACAD
1000
DesignCenter Data
1002
{
1070
     1
1070
     4
1002
}
  0
BLOCK_RECORD
  5
AA8
330
1
100
AcDbSymbolTableRecord
100
AcDbBlockTableRecord
  2
_CLOSED
340
0
  0
BLOCK_RECORD
  5
BB0
330
1
100
AcDbSymbolTableRecord
100
AcDbBlockTableRecord
  2
guarnizione
340
0
  0
BLOCK_RECORD
  5
4A5B
330
1
100
AcDbSymbolTableRecord
100
AcDbBlockTableRecord
  2
*D5
340
0
  0
BLOCK_RECORD
  5
4A67
330
1
100
AcDbSymbolTableRecord
100
AcDbBlockTableRecord
  2
*D6
340
0
  0
BLOCK_RECORD
  5
4A73
330
1
100
AcDbSymbolTableRecord
100
AcDbBlockTableRecord
  2
*D7
340
0
  0
BLOCK_RECORD
  5
4A81
330
1
100
AcDbSymbolTableRecord
100
AcDbBlockTableRecord
  2
*D8
340
0
  0
BLOCK_RECORD
  5
4A8D
330
1
100
AcDbSymbolTableRecord
100
AcDbBlockTableRecord
  2
*D9
340
0
  0
BLOCK_RECORD
  5
4A99
330
1
100
AcDbSymbolTableRecord
100
AcDbBlockTableRecord
  2
*D10
340
0
  0
BLOCK_RECORD
  5
4AA5
330
1
100
AcDbSymbolTableRecord
100
AcDbBlockTableRecord
  2
*D11
340
0
  0
BLOCK_RECORD
  5
4AF2
330
1
100
AcDbSymbolTableRecord
100
AcDbBlockTableRecord
  2
*D12
340
0
  0
BLOCK_RECORD
  5
4AFE
330
1
100
AcDbSymbolTableRecord
100
AcDbBlockTableRecord
  2
*D13
340
0
  0
BLOCK_RECORD
  5
4B0A
330
1
100
AcDbSymbolTableRecord
100
AcDbBlockTableRecord
  2
*D14
340
0
  0
ENDTAB
  0
ENDSEC
  0
SECTION
  2
BLOCKS
  0
BLOCK
  5
20
330
1F
100
AcDbEntity
  8
0
100
AcDbBlockBegin
  2
*Model_Space
 70
     0
 10
0.0
 20
0.0
 30
0.0
  3
*Model_Space
  1

  0
ENDBLK
  5
21
330
1F
100
AcDbEntity
  8
0
100
AcDbBlockEnd
  0
BLOCK
  5
1C
330
1B
100
AcDbEntity
 67
     1
  8
0
100
AcDbBlockBegin
  2
*Paper_Space
 70
     0
 10
0.0
 20
0.0
 30
0.0
  3
*Paper_Space
  1

  0
ENDBLK
  5
1D
330
1B
100
AcDbEntity
 67
     1
  8
0
100
AcDbBlockEnd
  0
BLOCK
  5
24
330
23
100
AcDbEntity
 67
     1
  8
0
100
AcDbBlockBegin
  2
*Paper_Space0
 70
     0
 10
0.0
 20
0.0
 30
0.0
  3
*Paper_Space0
  1

  0
ENDBLK
  5
25
330
23
100
AcDbEntity
 67
     1
  8
0
100
AcDbBlockEnd
  0
BLOCK
  5
91B
330
919
100
AcDbEntity
  8
0
100
AcDbBlockBegin
  2
_DotSmall
 70
     0
 10
0.0
 20
0.0
 30
0.0
  3
_DotSmall
  1

  0
LWPOLYLINE
  5
91A
330
919
100
AcDbEntity
  8
0
  6
ByBlock
 62
     0
100
AcDbPolyline
 90
        2
 70
     1
 43
0.5
 10
-0.0625
 20
0.0
 42
1.0
 10
0.0625
 20
0.0
 42
1.0
  0
ENDBLK
  5
91C
330
919
100
AcDbEntity
  8
0
100
AcDbBlockEnd
  0
BLOCK
  5
92A
330
922
100
AcDbEntity
  8
0
100
AcDbBlockBegin
  2
base para cotas
 70
     0
 10
0.0
 20
0.0
 30
0.0
  3
base para cotas
  1

  0
LINE
  5
B36
330
922
100
AcDbEntity
  8
cotas
100
AcDbLine
 10
0.0
 20
-30.0
 30
0.0
 11
327.1260136525398
 21
-30.0
 31
0.0
  0
LINE
  5
B37
330
922
100
AcDbEntity
  8
cotas
100
AcDbLine
 10
0.0
 20
-25.0
 30
0.0
 11
327.1260136525398
 21
-25.0
 31
0.0
  0
LINE
  5
B38
330
922
100
AcDbEntity
  8
cotas
100
AcDbLine
 10
0.0
 20
-20.0
 30
0.0
 11
327.1260136525398
 21
-20.0
 31
0.0
  0
LINE
  5
B39
330
922
100
AcDbEntity
  8
cotas
100
AcDbLine
 10
0.0
 20
-15.0
 30
0.0
 11
327.1260136525398
 21
-15.0
 31
0.0
  0
LINE
  5
B3A
330
922
100
AcDbEntity
  8
cotas
100
AcDbLine
 10
0.0
 20
-10.0
 30
0.0
 11
327.1260136525398
 21
-10.0
 31
0.0
  0
LINE
  5
B3B
330
922
100
AcDbEntity
  8
cotas
100
AcDbLine
 10
0.0
 20
0.0
 30
0.0
 11
0.0
 21
-30.0
 31
0.0
  0
LINE
  5
B3C
330
922
100
AcDbEntity
  8
cotas
100
AcDbLine
 10
327.1260136525398
 20
-30.0
 30
0.0
 11
327.1260136525398
 21
0.0
 31
0.0
  0
ENDBLK
  5
92B
330
922
100
AcDbEntity
  8
0
100
AcDbBlockEnd
  0
BLOCK
  5
AAD
330
AA8
100
AcDbEntity
  8
0
100
AcDbBlockBegin
  2
_CLOSED
 70
     0
 10
0.0
 20
0.0
 30
0.0
  3
_CLOSED
  1

  0
LINE
  5
AA9
330
AA8
100
AcDbEntity
  8
0
100
AcDbLine
 10
-1.0
 20
0.166667
 30
0.0
 11
0.0
 21
0.0
 31
0.0
  0
LINE
  5
AAA
330
AA8
100
AcDbEntity
  8
0
100
AcDbLine
 10
0.0
 20
0.0
 30
0.0
 11
-1.0
 21
-0.166667
 31
0.0
  0
LINE
  5
AAB
330
AA8
100
AcDbEntity
  8
0
100
AcDbLine
 10
-1.0
 20
0.166667
 30
0.0
 11
-1.0
 21
-0.166667
 31
0.0
  0
LINE
  5
AAC
330
AA8
100
AcDbEntity
  8
0
100
AcDbLine
 10
0.0
 20
0.0
 30
0.0
 11
-1.0
 21
0.0
 31
0.0
  0
ENDBLK
  5
AAE
330
AA8
100
AcDbEntity
  8
0
100
AcDbBlockEnd
  0
BLOCK
  5
BB1
330
BB0
100
AcDbEntity
  8
0
 62
     4
100
AcDbBlockBegin
  2
guarnizione
 70
     0
 10
0.0
 20
0.0
 30
0.0
  3
guarnizione
  1

  0
LINE
  5
BB2
330
BB0
100
AcDbEntity
  8
0
100
AcDbLine
 10
12.0
 20
3.179312414488776
 30
0.0
 11
12.0
 21
2.699999999999818
 31
0.0
  0
LINE
  5
BB3
330
BB0
100
AcDbEntity
  8
0
100
AcDbLine
 10
9.5
 20
3.130475008156281
 30
0.0
 11
9.440776269158959
 21
2.734883615801663
 31
0.0
  0
ARC
  5
BB4
330
BB0
100
AcDbEntity
  8
0
100
AcDbCircle
 10
11.19999999999891
 20
3.179312414488776
 30
0.0
 40
0.8
100
AcDbArc
 50
0.0
 51
81.48552156587461
  0
ARC
  5
BB5
330
BB0
100
AcDbEntity
  8
0
100
AcDbCircle
 10
8.753809903480942
 20
1.523241254200002
 30
0.0
 40
0.1999999999999504
100
AcDbArc
 50
171.485521565823
 51
351.485521565823
  0
LINE
  5
BB6
330
BB0
100
AcDbEntity
  8
0
100
AcDbLine
 10
11.65558220186904
 20
-2.403306455734309
 30
0.0
 11
9.440776269158959
 21
-2.734883615802573
 31
0.0
  0
ARC
  5
BB7
330
BB0
100
AcDbEntity
  8
0
100
AcDbCircle
 10
8.753809903480942
 20
-1.523241254200911
 30
0.0
 40
0.1999999999999504
100
AcDbArc
 50
8.514478434176927
 51
188.5144784341769
  0
LINE
  5
BB8
330
BB0
100
AcDbEntity
  8
0
100
AcDbLine
 10
9.5
 20
-3.130475008157191
 30
0.0
 11
9.440776269158959
 21
-2.734883615802573
 31
0.0
  0
ARC
  5
BB9
330
BB0
100
AcDbEntity
  8
0
100
AcDbCircle
 10
11.69999999999891
 20
-2.699999999999818
 30
0.0
 40
0.3
100
AcDbArc
 50
0.0
 51
98.51447843412536
  0
ARC
  5
BBA
330
BB0
100
AcDbEntity
  8
0
100
AcDbCircle
 10
11.69999999999891
 20
2.699999999999818
 30
0.0
 40
0.3
100
AcDbArc
 50
261.4855215658746
 51
0.0
  0
LINE
  5
BBB
330
BB0
100
AcDbEntity
  8
0
100
AcDbLine
 10
11.65558220186904
 20
2.4033064557334
 30
0.0
 11
9.440776269158959
 21
2.734883615801663
 31
0.0
  0
LINE
  5
BBC
330
BB0
100
AcDbEntity
  8
0
100
AcDbLine
 10
8.807715063378054
 20
3.234116537129011
 30
0.0
 11
8.556014207302723
 21
1.552853119620522
 31
0.0
  0
LINE
  5
BBD
330
BB0
100
AcDbEntity
  8
0
100
AcDbLine
 10
9.203306455732672
 20
3.174892806287971
 30
0.0
 11
8.951605599657341
 21
1.493629388779481
 31
0.0
  0
LINE
  5
BBE
330
BB0
100
AcDbEntity
  8
0
100
AcDbLine
 10
6.681411329471302
 20
3.552444090400967
 30
0.0
 11
6.622187598630262
 21
3.15685269804544
 31
0.0
  0
ARC
  5
BBF
330
BB0
100
AcDbEntity
  8
0
100
AcDbCircle
 10
0.2999999999992724
 20
3.800000000000181
 30
0.0
 40
0.3
100
AcDbArc
 50
81.48552156587461
 51
180.0
  0
ARC
  5
BC0
330
BB0
100
AcDbEntity
  8
0
100
AcDbCircle
 10
1.042400829128382
 20
4.699999999999818
 30
0.0
 40
0.8
100
AcDbArc
 50
81.48552156587461
 51
90.0
  0
LINE
  5
BC1
330
BB0
100
AcDbEntity
  8
0
100
AcDbLine
 10
1.5
 20
3.923692082123125
 30
0.0
 11
0.3444177981309622
 21
4.09669354426569
 31
0.0
  0
LINE
  5
BC2
330
BB0
100
AcDbEntity
  8
0
100
AcDbLine
 10
1.5
 20
3.923692082123125
 30
0.0
 11
1.5
 21
3.099999999999454
 31
0.0
  0
LINE
  5
BC3
330
BB0
100
AcDbEntity
  8
0
100
AcDbLine
 10
1.5
 20
3.099999999999454
 30
0.0
 11
2.699999999998908
 21
3.099999999999454
 31
0.0
  0
LINE
  5
BC4
330
BB0
100
AcDbEntity
  8
0
100
AcDbLine
 10
2.699999999998908
 20
3.744040860223321
 30
0.0
 11
2.699999999998908
 21
3.099999999999454
 31
0.0
  0
LINE
  5
BC5
330
BB0
100
AcDbEntity
  8
0
100
AcDbLine
 10
6.622187598630262
 20
3.15685269804544
 30
0.0
 11
2.699999999998908
 21
3.744040860223321
 31
0.0
  0
LINE
  5
BC6
330
BB0
100
AcDbEntity
  8
0
100
AcDbLine
 10
1.5
 20
-3.100000000000363
 30
0.0
 11
2.699999999998908
 21
-3.100000000000363
 31
0.0
  0
LINE
  5
BC7
330
BB0
100
AcDbEntity
  8
0
100
AcDbLine
 10
11.31844746168099
 20
3.970495199198012
 30
0.0
 11
1.160848290810463
 21
5.491182784709053
 31
0.0
  0
LINE
  5
BC8
330
BB0
100
AcDbEntity
  8
0
100
AcDbLine
 10
9.5
 20
3.130475008156281
 30
0.0
 11
6.681411329471302
 21
3.552444090400967
 31
0.0
  0
ARC
  5
BC9
330
BB0
100
AcDbEntity
  8
0
100
AcDbCircle
 10
11.19999999999891
 20
-3.179312414488776
 30
0.0
 40
0.8
100
AcDbArc
 50
278.5144784341254
 51
0.0
  0
LINE
  5
BCA
330
BB0
100
AcDbEntity
  8
0
100
AcDbLine
 10
6.681411329471302
 20
-3.552444090400967
 30
0.0
 11
6.622187598630262
 21
-3.15685269804635
 31
0.0
  0
ARC
  5
BCB
330
BB0
100
AcDbEntity
  8
0
100
AcDbCircle
 10
0.2999999999992724
 20
-3.800000000000181
 30
0.0
 40
0.3
100
AcDbArc
 50
180.0
 51
278.5144784341254
  0
ARC
  5
BCC
330
BB0
100
AcDbEntity
  8
0
100
AcDbCircle
 10
1.042400829128382
 20
-4.699999999999818
 30
0.0
 40
0.8
100
AcDbArc
 50
270.0
 51
278.5144784341254
  0
LINE
  5
BCD
330
BB0
100
AcDbEntity
  8
0
100
AcDbLine
 10
0.3444177981309622
 20
-4.096693544266599
 30
0.0
 11
1.5
 21
-3.923692082124034
 31
0.0
  0
LINE
  5
BCE
330
BB0
100
AcDbEntity
  8
0
100
AcDbLine
 10
6.622187598630262
 20
-3.15685269804635
 30
0.0
 11
2.699999999998908
 21
-3.744040860224231
 31
0.0
  0
LINE
  5
BCF
330
BB0
100
AcDbEntity
  8
0
100
AcDbLine
 10
1.160848290810463
 20
-5.491182784709963
 30
0.0
 11
11.31844746168099
 21
-3.970495199198921
 31
0.0
  0
LINE
  5
BD0
330
BB0
100
AcDbEntity
  8
0
100
AcDbLine
 10
0.0
 20
3.800000000000181
 30
0.0
 11
0.0
 21
-3.800000000000181
 31
0.0
  0
LINE
  5
BD1
330
BB0
100
AcDbEntity
  8
0
100
AcDbLine
 10
12.0
 20
-2.699999999999818
 30
0.0
 11
12.0
 21
-3.179312414488776
 31
0.0
  0
LINE
  5
BD2
330
BB0
100
AcDbEntity
  8
0
100
AcDbLine
 10
2.699999999998908
 20
-3.100000000000363
 30
0.0
 11
2.699999999998908
 21
-3.744040860224231
 31
0.0
  0
LINE
  5
BD3
330
BB0
100
AcDbEntity
  8
0
100
AcDbLine
 10
1.5
 20
-3.100000000000363
 30
0.0
 11
1.5
 21
-3.923692082124034
 31
0.0
  0
LINE
  5
BD4
330
BB0
100
AcDbEntity
  8
0
100
AcDbLine
 10
9.5
 20
-3.130475008157191
 30
0.0
 11
6.681411329471302
 21
-3.552444090400967
 31
0.0
  0
LINE
  5
BD5
330
BB0
100
AcDbEntity
  8
0
100
AcDbLine
 10
9.203306455732672
 20
-3.174892806287971
 30
0.0
 11
8.951605599657341
 21
-1.493629388780391
 31
0.0
  0
LINE
  5
BD6
330
BB0
100
AcDbEntity
  8
0
100
AcDbLine
 10
8.807715063378054
 20
-3.234116537129011
 30
0.0
 11
8.556014207302723
 21
-1.552853119621431
 31
0.0
  0
LINE
  5
BD7
330
BB0
100
AcDbEntity
  8
0
100
AcDbLine
 10
-1.5
 20
5.5
 30
0.0
 11
-3.757359312881817
 21
5.5
 31
0.0
  0
ARC
  5
BD8
330
BB0
100
AcDbEntity
  8
0
100
AcDbCircle
 10
-2.5
 20
3.5
 30
0.0
 40
1.0
100
AcDbArc
 50
0.0
 51
90.0
  0
ARC
  5
BD9
330
BB0
100
AcDbEntity
  8
0
100
AcDbCircle
 10
-3.769781102879278
 20
4.149978862833449
 30
0.0
 40
0.75
100
AcDbArc
 50
47.16775949949599
 51
90.19499109987526
  0
ARC
  5
BDA
330
BB0
100
AcDbEntity
  8
0
100
AcDbCircle
 10
-2.75
 20
5.25
 30
0.0
 40
0.75
100
AcDbArc
 50
227.167759499496
 51
270.0
  0
LINE
  5
BDB
330
BB0
100
AcDbEntity
  8
0
100
AcDbLine
 10
-2.75
 20
4.5
 30
0.0
 11
-2.5
 21
4.5
 31
0.0
  0
LINE
  5
BDC
330
BB0
100
AcDbEntity
  8
0
100
AcDbLine
 10
-7.415254325502246
 20
3.064644661409147
 30
0.0
 11
-6.868629150101696
 21
3.611269837220788
 31
0.0
  0
ARC
  5
BDD
102
{ACAD_REACTORS
330
BF7
102
}
330
BB0
100
AcDbEntity
  8
0
100
AcDbCircle
 10
-7.980939750059405
 20
2.569669913566031
 30
0.0
 40
0.2
100
AcDbArc
 50
45.0000001037625
 51
135.0000000719631
  0
ARC
  5
BDE
330
BB0
100
AcDbEntity
  8
0
100
AcDbCircle
 10
-3.757359312881817
 20
0.5
 30
0.0
 40
5.0
100
AcDbArc
 50
90.0
 51
135.0
  0
ARC
  5
BDF
330
BB0
100
AcDbEntity
  8
0
100
AcDbCircle
 10
-3.757359312881817
 20
0.5
 30
0.0
 40
4.4
100
AcDbArc
 50
90.19499109987526
 51
135.0
  0
ARC
  5
BE0
330
BB0
100
AcDbEntity
  8
0
100
AcDbCircle
 10
-6.814213563102384
 20
0.9786796633270569
 30
0.0
 40
0.75
100
AcDbArc
 50
314.9999999676111
 51
45.0
  0
ARC
  5
BE1
102
{ACAD_REACTORS
330
BF7
102
}
330
BB0
100
AcDbEntity
  8
0
100
AcDbCircle
 10
-6.814213563102384
 20
0.9786796633270569
 30
0.0
 40
0.5
100
AcDbArc
 50
314.9999999676111
 51
45.0
  0
ARC
  5
BE2
330
BB0
100
AcDbEntity
  8
0
100
AcDbCircle
 10
-7.203122291144609
 20
2.852512627053329
 30
0.0
 40
0.3
100
AcDbArc
 50
135.0
 51
225.0000001112794
  0
LINE
  5
BE3
330
BB0
100
AcDbEntity
  8
0
100
AcDbLine
 10
-8.051650430128574
 20
3.276776694619002
 30
0.0
 11
-6.283883477519339
 21
1.509009749524921
 31
0.0
  0
LINE
  5
BE4
102
{ACAD_REACTORS
330
BF7
102
}
330
BB0
100
AcDbEntity
  8
0
100
AcDbLine
 10
-7.839518394079277
 20
2.711091270059114
 30
0.0
 11
-6.460660172508141
 21
1.33223305392039
 31
0.0
  0
ARC
  5
BE5
330
BB0
100
AcDbEntity
  8
0
100
AcDbCircle
 10
-12.57713383280133
 20
-2.521498914058611
 30
0.0
 40
0.3
100
AcDbArc
 50
45.00000003552097
 51
135.0
  0
ARC
  5
BE6
102
{ACAD_REACTORS
330
BF7
102
}
330
BB0
100
AcDbEntity
  8
0
100
AcDbCircle
 10
-12.29429112059733
 20
-1.743681468243266
 30
0.0
 40
0.2
100
AcDbArc
 50
135.0000000660675
 51
225.0000002990173
  0
LINE
  5
BE7
330
BB0
100
AcDbEntity
  8
0
100
AcDbLine
 10
-12.9899494936617
 20
-2.510050506339212
 30
0.0
 11
-12.78926586715715
 21
-2.309366879702793
 31
0.0
  0
LINE
  5
BE8
330
BB0
100
AcDbEntity
  8
0
100
AcDbLine
 10
-13.41421356237333
 20
-2.085786437626666
 30
0.0
 11
-7.292893218815152
 21
4.035533905932425
 31
0.0
  0
LINE
  5
BE9
102
{ACAD_REACTORS
330
BF7
102
}
330
BB0
100
AcDbEntity
  8
0
100
AcDbLine
 10
-12.43571247699765
 20
-1.602260112168551
 30
0.0
 11
-8.122361106474272
 21
2.711091269625285
 31
0.0
  0
ARC
  5
BEA
330
BB0
100
AcDbEntity
  8
0
100
AcDbCircle
 10
-2.5
 20
-3.5
 30
0.0
 40
1.0
100
AcDbArc
 50
270.0
 51
0.0
  0
ARC
  5
BEB
330
BB0
100
AcDbEntity
  8
0
100
AcDbCircle
 10
-7.519803902720013
 20
-4.150000000000545
 30
0.0
 40
0.75
100
AcDbArc
 50
270.0
 51
312.8334280660476
  0
ARC
  5
BEC
330
BB0
100
AcDbEntity
  8
0
100
AcDbCircle
 10
-6.5
 20
-5.25
 30
0.0
 40
0.75
100
AcDbArc
 50
90.0
 51
132.8334280660476
  0
LINE
  5
BED
330
BB0
100
AcDbEntity
  8
0
100
AcDbLine
 10
-2.5
 20
-4.5
 30
0.0
 11
-6.5
 21
-4.5
 31
0.0
  0
ARC
  5
BEE
330
BB0
100
AcDbEntity
  8
0
100
AcDbCircle
 10
-10.7033008647486
 20
-2.910407640086305
 30
0.0
 40
0.75
100
AcDbArc
 50
225.0
 51
315.0
  0
ARC
  5
BEF
102
{ACAD_REACTORS
330
BF7
102
}
330
BB0
100
AcDbEntity
  8
0
100
AcDbCircle
 10
-10.7033008647486
 20
-2.910407640086305
 30
0.0
 40
0.5
100
AcDbArc
 50
225.0
 51
315.0
  0
LINE
  5
BF0
330
BB0
100
AcDbEntity
  8
0
100
AcDbLine
 10
-1.5
 20
-5.5
 30
0.0
 11
-12.0
 21
-5.5
 31
0.0
  0
LINE
  5
BF1
330
BB0
100
AcDbEntity
  8
0
100
AcDbLine
 10
-7.519803902720013
 20
-4.900000000000545
 30
0.0
 11
-12.0
 21
-4.900000000000545
 31
0.0
  0
ARC
  5
BF2
330
BB0
100
AcDbEntity
  8
0
100
AcDbCircle
 10
-12.0
 20
-3.5
 30
0.0
 40
2.0
100
AcDbArc
 50
135.0
 51
270.0
  0
LINE
  5
BF3
330
BB0
100
AcDbEntity
  8
0
100
AcDbLine
 10
-10.17297077881812
 20
-3.440737725935832
 30
0.0
 11
-6.283883477372
 21
0.4483495772774404
 31
0.0
  0
ARC
  5
BF4
330
BB0
100
AcDbEntity
  8
0
100
AcDbCircle
 10
-12.0
 20
-3.5
 30
0.0
 40
1.399999999999999
100
AcDbArc
 50
135.0
 51
270.0
  0
LINE
  5
BF5
330
BB0
100
AcDbEntity
  8
0
100
AcDbLine
 10
-13.00139790187859
 20
-1.672970777132832
 30
0.0
 11
-11.23363095093009
 21
-3.440737725682993
 31
0.0
  0
LINE
  5
BF6
330
BB0
100
AcDbEntity
  8
0
100
AcDbLine
 10
-1.5
 20
3.5
 30
0.0
 11
-1.5
 21
-3.5
 31
0.0
  0
HATCH
  5
BF7
330
BB0
100
AcDbEntity
  8
0
100
AcDbHatch
 10
0.0
 20
0.0
 30
0.0
210
0.0
220
0.0
230
1.0
  2
ANSI31
 70
     0
 71
     1
 91
        1
 92
        7
 72
     1
 73
     1
 93
        8
 10
-6.460660173204814
 20
1.332233054616153
 42
0.0
 10
-7.839518394101105
 20
2.711091270081851
 42
0.414213562178905
 10
-8.122361106481548
 20
2.711091269618009
 42
0.0
 10
-12.43571247701766
 20
-1.602260112190379
 42
0.4142135636146872
 10
-12.43571247604996
 20
-1.885102825264766
 42
0.0
 10
-11.05685425338015
 20
-3.263961032639599
 42
0.4142135608152901
 10
-10.34974747407432
 20
-3.263961030598693
 42
0.0
 10
-6.460660172428106
 20
0.625126272813759
 42
0.4142135628833784
 97
        8
330
BE4
330
BDD
330
BE9
330
BE6
330
BF9
330
BEF
330
BF8
330
BE1
 75
     0
 76
     1
 52
45.0
 41
0.25
 77
     0
 78
     1
 53
90.0
 43
-276.1145346408611
 44
-395.2719013892401
 45
-0.79375
 46
0.0000000000000002
 79
     0
 47
0.0364805528584695
 98
        1
 10
-7.399477738399582
 20
0.8532363732892918
  0
LINE
  5
BF8
102
{ACAD_REACTORS
330
BF7
102
}
330
BB0
100
AcDbEntity
  8
0
100
AcDbLine
 10
-10.34974747415435
 20
-3.263961030678729
 30
0.0
 11
-6.46066017270823
 21
0.6251262725336347
 31
0.0
  0
LINE
  5
BF9
102
{ACAD_REACTORS
330
BF7
102
}
330
BB0
100
AcDbEntity
  8
0
100
AcDbLine
 10
-12.43571247609543
 20
-1.885102825218382
 30
0.0
 11
-11.05685425534102
 21
-3.263961030678729
 31
0.0
  0
LINE
  5
BFA
330
BB0
100
AcDbEntity
  8
0
100
AcDbLine
 10
-1.5
 20
5.5
 30
0.0
 11
1.042400829128382
 21
5.5
 31
0.0
  0
LINE
  5
BFB
330
BB0
100
AcDbEntity
  8
0
100
AcDbLine
 10
-1.5
 20
-5.5
 30
0.0
 11
1.042400829128382
 21
-5.5
 31
0.0
  0
ENDBLK
  5
BFC
330
BB0
100
AcDbEntity
  8
0
 62
     4
100
AcDbBlockEnd
  0
BLOCK
  5
4A65
330
4A5B
100
AcDbEntity
  8
0
100
AcDbBlockBegin
  2
*D5
 70
     1
 10
0.0
 20
0.0
 30
0.0
  3
*D5
  1

  0
LINE
  5
4AB1
330
4A5B
100
AcDbEntity
  8
7
100
AcDbLine
 10
1769.936213153592
 20
656.9868119491488
 30
0.0
 11
1764.936213153592
 21
656.9868119491488
 31
0.0
  0
LINE
  5
4AB2
330
4A5B
100
AcDbEntity
  8
7
100
AcDbLine
 10
1789.405367108852
 20
627.4868119481816
 30
0.0
 11
1764.936213153592
 21
627.4868119481816
 31
0.0
  0
LINE
  5
4AB3
330
4A5B
100
AcDbEntity
  8
7
100
AcDbLine
 10
1765.936213153592
 20
654.9868119491487
 30
0.0
 11
1765.936213153592
 21
629.4868119481816
 31
0.0
  0
SOLID
  5
4AB4
330
4A5B
100
AcDbEntity
  8
7
100
AcDbTrace
 10
1765.602879820258
 20
654.9868119491487
 30
0.0
 11
1766.269546486925
 21
654.9868119491487
 31
0.0
 12
1765.936213153592
 22
656.9868119491488
 32
0.0
 13
1765.936213153592
 23
656.9868119491488
 33
0.0
  0
SOLID
  5
4AB5
330
4A5B
100
AcDbEntity
  8
7
100
AcDbTrace
 10
1765.602879820258
 20
629.4868119481816
 30
0.0
 11
1766.269546486925
 21
629.4868119481816
 31
0.0
 12
1765.936213153592
 22
627.4868119481816
 32
0.0
 13
1765.936213153592
 23
627.4868119481816
 33
0.0
  0
MTEXT
  5
4AB6
330
4A5B
100
AcDbEntity
  8
7
100
AcDbMText
 10
1763.894574469911
 20
642.2368119486653
 30
0.0
 40
2.0
 41
0.0
 71
     5
 72
     1
  1
295
  7
SANINDUSA
 11
0.0000000000000001
 21
1.0
 31
0.0
 73
     1
 44
1.0
1001
ACAD
1000
MTEXTBEGIN
1070
    73
1070
     1
1070
    44
1040
1.0
1070
    74
1070
     0
1000
MTEXTEND
  0
POINT
  5
4AB7
330
4A5B
100
AcDbEntity
  8
Defpoints
 62
     0
100
AcDbPoint
 10
1770.936213153592
 20
656.9868119491488
 30
0.0000001793827793
  0
POINT
  5
4AB8
330
4A5B
100
AcDbEntity
  8
Defpoints
 62
     0
100
AcDbPoint
 10
1790.405367108851
 20
627.4868119481816
 30
0.0000000000032074
  0
POINT
  5
4AB9
330
4A5B
100
AcDbEntity
  8
Defpoints
 62
     0
100
AcDbPoint
 10
1765.936213153592
 20
627.4868119481816
 30
0.0
  0
ENDBLK
  5
4A66
330
4A5B
100
AcDbEntity
  8
0
100
AcDbBlockEnd
  0
BLOCK
  5
4A71
330
4A67
100
AcDbEntity
  8
0
100
AcDbBlockBegin
  2
*D6
 70
     1
 10
0.0
 20
0.0
 30
0.0
  3
*D6
  1

  0
LINE
  5
4ABA
330
4A67
100
AcDbEntity
  8
7
100
AcDbLine
 10
1822.466510334096
 20
501.4868119491485
 30
0.0
 11
1827.466510334096
 21
501.4868119491485
 31
0.0
  0
LINE
  5
4ABB
330
4A67
100
AcDbEntity
  8
7
100
AcDbLine
 10
1829.778361917473
 20
472.9868119491485
 30
0.0
 11
1825.466510334096
 21
472.9868119491485
 31
0.0
  0
LINE
  5
4ABC
330
4A67
100
AcDbEntity
  8
7
100
AcDbLine
 10
1826.466510334096
 20
499.4868119491485
 30
0.0
 11
1826.466510334096
 21
474.9868119491485
 31
0.0
  0
SOLID
  5
4ABD
330
4A67
100
AcDbEntity
  8
7
100
AcDbTrace
 10
1826.133177000763
 20
499.4868119491485
 30
0.0
 11
1826.799843667429
 21
499.4868119491485
 31
0.0
 12
1826.466510334096
 22
501.4868119491485
 32
0.0
 13
1826.466510334096
 23
501.4868119491485
 33
0.0
  0
SOLID
  5
4ABE
330
4A67
100
AcDbEntity
  8
7
100
AcDbTrace
 10
1826.133177000763
 20
474.9868119491485
 30
0.0
 11
1826.799843667429
 21
474.9868119491485
 31
0.0
 12
1826.466510334096
 22
472.9868119491485
 32
0.0
 13
1826.466510334096
 23
472.9868119491485
 33
0.0
  0
MTEXT
  5
4ABF
330
4A67
100
AcDbEntity
  8
7
100
AcDbMText
 10
1824.420842100382
 20
487.2368119491488
 30
0.0
 40
2.0
 41
0.0
 71
     5
 72
     1
  1
285
  7
SANINDUSA
 11
0.0000000000000001
 21
1.0
 31
0.0
 73
     1
 44
1.0
1001
ACAD
1000
MTEXTBEGIN
1070
    73
1070
     1
1070
    44
1040
1.0
1070
    74
1070
     0
1000
MTEXTEND
  0
POINT
  5
4AC0
330
4A67
100
AcDbEntity
  8
Defpoints
 62
     0
100
AcDbPoint
 10
1821.466510334096
 20
501.4868119491485
 30
-0.0000001793795719
  0
POINT
  5
4AC1
330
4A67
100
AcDbEntity
  8
Defpoints
 62
     0
100
AcDbPoint
 10
1830.778361917473
 20
472.9868119491485
 30
-0.0000001793795719
  0
POINT
  5
4AC2
330
4A67
100
AcDbEntity
  8
Defpoints
 62
     0
100
AcDbPoint
 10
1826.466510334096
 20
472.9868119491485
 30
0.0
  0
ENDBLK
  5
4A72
330
4A67
100
AcDbEntity
  8
0
100
AcDbBlockEnd
  0
BLOCK
  5
4A7F
330
4A73
100
AcDbEntity
  8
0
100
AcDbBlockBegin
  2
*D7
 70
     1
 10
0.0
 20
0.0
 30
0.0
  3
*D7
  1

  0
LINE
  5
4AC3
330
4A73
100
AcDbEntity
  8
7
100
AcDbLine
 10
1842.719958692202
 20
472.9868119491485
 30
0.0
 11
1830.466510334096
 21
472.9868119491485
 31
0.0
  0
LINE
  5
4AC4
330
4A73
100
AcDbEntity
  8
7
100
AcDbLine
 10
1845.498793185077
 20
471.9868119491485
 30
0.0
 11
1830.466510334096
 21
471.9868119491485
 31
0.0
  0
LINE
  5
4AC5
330
4A73
100
AcDbEntity
  8
7
100
AcDbLine
 10
1831.466510334096
 20
474.9868119491485
 30
0.0
 11
1831.466510334096
 21
476.9868119491485
 31
0.0
  0
LINE
  5
4AC6
330
4A73
100
AcDbEntity
  8
7
100
AcDbLine
 10
1831.466510334096
 20
469.9868119491485
 30
0.0
 11
1831.466510334096
 21
463.043897241291
 31
0.0
  0
LINE
  5
4AC7
330
4A73
100
AcDbEntity
  8
7
100
AcDbLine
 10
1831.466510334096
 20
472.9868119491485
 30
0.0
 11
1831.466510334096
 21
471.9868119491485
 31
0.0
  0
SOLID
  5
4AC8
330
4A73
100
AcDbEntity
  8
7
100
AcDbTrace
 10
1831.133177000763
 20
474.9868119491485
 30
0.0
 11
1831.799843667429
 21
474.9868119491485
 31
0.0
 12
1831.466510334096
 22
472.9868119491485
 32
0.0
 13
1831.466510334096
 23
472.9868119491485
 33
0.0
  0
SOLID
  5
4AC9
330
4A73
100
AcDbEntity
  8
7
100
AcDbTrace
 10
1831.133177000763
 20
469.9868119491485
 30
0.0
 11
1831.799843667429
 21
469.9868119491485
 31
0.0
 12
1831.466510334096
 22
471.9868119491485
 32
0.0
 13
1831.466510334096
 23
471.9868119491485
 33
0.0
  0
MTEXT
  5
4ACA
330
4A73
100
AcDbEntity
  8
7
100
AcDbMText
 10
1829.425543242088
 20
465.51535459522
 30
0.0
 40
2.0
 41
0.0
 71
     5
 72
     1
  1
10
  7
SANINDUSA
 11
0.0000000000000001
 21
1.0
 31
0.0
 73
     1
 44
1.0
1001
ACAD
1000
MTEXTBEGIN
1070
    73
1070
     1
1070
    44
1040
1.0
1070
    74
1070
     0
1000
MTEXTEND
  0
POINT
  5
4ACB
330
4A73
100
AcDbEntity
  8
Defpoints
 62
     0
100
AcDbPoint
 10
1843.719958692202
 20
472.9868119491485
 30
-0.0000001793795719
  0
POINT
  5
4ACC
330
4A73
100
AcDbEntity
  8
Defpoints
 62
     0
100
AcDbPoint
 10
1846.498793185077
 20
471.9868119491485
 30
0.0
  0
POINT
  5
4ACD
330
4A73
100
AcDbEntity
  8
Defpoints
 62
     0
100
AcDbPoint
 10
1831.466510334096
 20
471.9868119491485
 30
0.0
  0
ENDBLK
  5
4A80
330
4A73
100
AcDbEntity
  8
0
100
AcDbBlockEnd
  0
BLOCK
  5
4A8B
330
4A81
100
AcDbEntity
  8
0
100
AcDbBlockBegin
  2
*D8
 70
     1
 10
0.0
 20
0.0
 30
0.0
  3
*D8
  1

  0
LINE
  5
4ACE
330
4A81
100
AcDbEntity
  8
7
100
AcDbLine
 10
1787.022477073206
 20
501.4868119491482
 30
0.0
 11
1764.936213153592
 21
501.4868119491482
 31
0.0
  0
LINE
  5
4ACF
330
4A81
100
AcDbEntity
  8
7
100
AcDbLine
 10
1769.936213153592
 20
471.9868119491486
 30
0.0
 11
1764.936213153592
 21
471.9868119491486
 31
0.0
  0
LINE
  5
4AD0
330
4A81
100
AcDbEntity
  8
7
100
AcDbLine
 10
1765.936213153592
 20
499.4868119491481
 30
0.0
 11
1765.936213153592
 21
473.9868119491487
 31
0.0
  0
SOLID
  5
4AD1
330
4A81
100
AcDbEntity
  8
7
100
AcDbTrace
 10
1765.602879820258
 20
499.4868119491481
 30
0.0
 11
1766.269546486925
 21
499.4868119491481
 31
0.0
 12
1765.936213153592
 22
501.4868119491482
 32
0.0
 13
1765.936213153592
 23
501.4868119491482
 33
0.0
  0
SOLID
  5
4AD2
330
4A81
100
AcDbEntity
  8
7
100
AcDbTrace
 10
1765.602879820258
 20
473.9868119491487
 30
0.0
 11
1766.269546486925
 21
473.9868119491487
 31
0.0
 12
1765.936213153592
 22
471.9868119491486
 32
0.0
 13
1765.936213153592
 23
471.9868119491486
 33
0.0
  0
MTEXT
  5
4AD3
330
4A81
100
AcDbEntity
  8
7
100
AcDbMText
 10
1763.894574469911
 20
486.7368119491487
 30
0.0
 40
2.0
 41
0.0
 71
     5
 72
     1
  1
295
  7
SANINDUSA
 11
0.0000000000000001
 21
1.0
 31
0.0
 73
     1
 44
1.0
1001
ACAD
1000
MTEXTBEGIN
1070
    73
1070
     1
1070
    44
1040
1.0
1070
    74
1070
     0
1000
MTEXTEND
  0
POINT
  5
4AD4
330
4A81
100
AcDbEntity
  8
Defpoints
 62
     0
100
AcDbPoint
 10
1788.022477073206
 20
501.4868119491482
 30
-0.0000001793795719
  0
POINT
  5
4AD5
330
4A81
100
AcDbEntity
  8
Defpoints
 62
     0
100
AcDbPoint
 10
1770.936213153592
 20
471.9868119491486
 30
0.0
  0
POINT
  5
4AD6
330
4A81
100
AcDbEntity
  8
Defpoints
 62
     0
100
AcDbPoint
 10
1765.936213153592
 20
471.9868119491486
 30
0.0
  0
ENDBLK
  5
4A8C
330
4A81
100
AcDbEntity
  8
0
100
AcDbBlockEnd
  0
BLOCK
  5
4A97
330
4A8D
100
AcDbEntity
  8
0
100
AcDbBlockBegin
  2
*D9
 70
     1
 10
0.0
 20
0.0
 30
0.0
  3
*D9
  1

  0
LINE
  5
4AD7
330
4A8D
100
AcDbEntity
  8
7
100
AcDbLine
 10
1869.655134711866
 20
656.9868119491485
 30
0.0
 11
1877.138935470637
 21
656.9868119491485
 31
0.0
  0
LINE
  5
4AD8
330
4A8D
100
AcDbEntity
  8
7
100
AcDbLine
 10
1871.663205150081
 20
471.9868119491409
 30
0.0
 11
1877.138935470637
 21
471.9868119491409
 31
0.0
  0
LINE
  5
4AD9
330
4A8D
100
AcDbEntity
  8
7
100
AcDbLine
 10
1876.138935470637
 20
654.9868119491485
 30
0.0
 11
1876.138935470637
 21
473.9868119491409
 31
0.0
  0
SOLID
  5
4ADA
330
4A8D
100
AcDbEntity
  8
7
100
AcDbTrace
 10
1875.805602137304
 20
654.9868119491485
 30
0.0
 11
1876.47226880397
 21
654.9868119491485
 31
0.0
 12
1876.138935470637
 22
656.9868119491485
 32
0.0
 13
1876.138935470637
 23
656.9868119491485
 33
0.0
  0
SOLID
  5
4ADB
330
4A8D
100
AcDbEntity
  8
7
100
AcDbTrace
 10
1875.805602137304
 20
473.9868119491409
 30
0.0
 11
1876.47226880397
 21
473.9868119491409
 31
0.0
 12
1876.138935470637
 22
471.9868119491409
 32
0.0
 13
1876.138935470637
 23
471.9868119491409
 33
0.0
  0
MTEXT
  5
4ADC
330
4A8D
100
AcDbEntity
  8
7
100
AcDbMText
 10
1874.093267236923
 20
564.486811949145
 30
0.0
 40
2.0
 41
0.0
 71
     5
 72
     1
  1
1850
  7
SANINDUSA
 11
0.0000000000000001
 21
1.0
 31
0.0
 73
     1
 44
1.0
1001
ACAD
1000
MTEXTBEGIN
1070
    73
1070
     1
1070
    44
1040
1.0
1070
    74
1070
     0
1000
MTEXTEND
  0
POINT
  5
4ADD
330
4A8D
100
AcDbEntity
  8
Defpoints
 62
     0
100
AcDbPoint
 10
1868.655134711866
 20
656.9868119491485
 30
0.0000000155554831
  0
POINT
  5
4ADE
330
4A8D
100
AcDbEntity
  8
Defpoints
 62
     0
100
AcDbPoint
 10
1870.663205150082
 20
471.9868119491409
 30
0.0
  0
POINT
  5
4ADF
330
4A8D
100
AcDbEntity
  8
Defpoints
 62
     0
100
AcDbPoint
 10
1876.138935470637
 20
471.9868119491409
 30
0.0
  0
ENDBLK
  5
4A98
330
4A8D
100
AcDbEntity
  8
0
100
AcDbBlockEnd
  0
BLOCK
  5
4AA3
330
4A99
100
AcDbEntity
  8
0
100
AcDbBlockBegin
  2
*D10
 70
     1
 10
0.0
 20
0.0
 30
0.0
  3
*D10
  1

  0
LINE
  5
4B43
330
4A99
100
AcDbEntity
  8
7
100
AcDbLine
 10
1719.761658212461
 20
624.1645610243025
 30
0.0
 11
1729.381428135072
 21
624.1645610243025
 31
0.0
  0
LINE
  5
4B44
330
4A99
100
AcDbEntity
  8
7
100
AcDbLine
 10
1718.071118991601
 20
556.0418741990209
 30
0.0
 11
1729.381428135072
 21
556.0418741990209
 31
0.0
  0
LINE
  5
4B45
330
4A99
100
AcDbEntity
  8
7
100
AcDbLine
 10
1728.381428135072
 20
622.1645610243025
 30
0.0
 11
1728.381428135072
 21
558.0418741990208
 31
0.0
  0
SOLID
  5
4B46
330
4A99
100
AcDbEntity
  8
7
100
AcDbTrace
 10
1728.048094801739
 20
622.1645610243025
 30
0.0
 11
1728.714761468405
 21
622.1645610243025
 31
0.0
 12
1728.381428135072
 22
624.1645610243025
 32
0.0
 13
1728.381428135072
 23
624.1645610243025
 33
0.0
  0
SOLID
  5
4B47
330
4A99
100
AcDbEntity
  8
7
100
AcDbTrace
 10
1728.048094801739
 20
558.0418741990208
 30
0.0
 11
1728.714761468405
 21
558.0418741990208
 31
0.0
 12
1728.381428135072
 22
556.0418741990209
 32
0.0
 13
1728.381428135072
 23
556.0418741990209
 33
0.0
  0
MTEXT
  5
4B48
330
4A99
100
AcDbEntity
  8
7
100
AcDbMText
 10
1726.132267624662
 20
590.1032176116619
 30
0.0
 40
2.0
 41
0.0
 71
     5
 72
     1
  1
MAX. 681 mm / MIN. 666 mm
  7
SANINDUSA
 11
0.0000000000000001
 21
1.0
 31
0.0
 73
     1
 44
1.0
1001
ACAD
1000
MTEXTBEGIN
1070
    73
1070
     1
1070
    44
1040
1.0
1070
    74
1070
     0
1000
MTEXTEND
  0
POINT
  5
4B49
330
4A99
100
AcDbEntity
  8
Defpoints
 62
     0
100
AcDbPoint
 10
1718.761658212461
 20
624.1645610243025
 30
0.0
  0
POINT
  5
4B4A
330
4A99
100
AcDbEntity
  8
Defpoints
 62
     0
100
AcDbPoint
 10
1717.071118991601
 20
556.0418741990209
 30
0.0000000155554831
  0
POINT
  5
4B4B
330
4A99
100
AcDbEntity
  8
Defpoints
 62
     0
100
AcDbPoint
 10
1728.381428135072
 20
556.0418741990209
 30
0.0
  0
ENDBLK
  5
4AA4
330
4A99
100
AcDbEntity
  8
0
100
AcDbBlockEnd
  0
BLOCK
  5
4AAF
330
4AA5
100
AcDbEntity
  8
0
100
AcDbBlockBegin
  2
*D11
 70
     1
 10
0.0
 20
0.0
 30
0.0
  3
*D11
  1

  0
LINE
  5
4B4C
330
4AA5
100
AcDbEntity
  8
7
100
AcDbLine
 10
1716.974134143503
 20
554.9448893509223
 30
0.0
 11
1716.974134143503
 21
544.3353303225535
 31
0.0
  0
LINE
  5
4B4D
330
4AA5
100
AcDbEntity
  8
7
100
AcDbLine
 10
1619.552197433332
 20
553.955100245163
 30
0.0
 11
1619.552197433332
 21
544.3353303225535
 31
0.0
  0
LINE
  5
4B4E
330
4AA5
100
AcDbEntity
  8
7
100
AcDbLine
 10
1714.974134143503
 20
545.3353303225535
 30
0.0
 11
1621.552197433332
 21
545.3353303225535
 31
0.0
  0
SOLID
  5
4B4F
330
4AA5
100
AcDbEntity
  8
7
100
AcDbTrace
 10
1714.974134143503
 20
545.6686636558869
 30
0.0
 11
1714.974134143503
 21
545.0019969892202
 31
0.0
 12
1716.974134143503
 22
545.3353303225535
 32
0.0
 13
1716.974134143503
 23
545.3353303225535
 33
0.0
  0
SOLID
  5
4B50
330
4AA5
100
AcDbEntity
  8
7
100
AcDbTrace
 10
1621.552197433332
 20
545.6686636558869
 30
0.0
 11
1621.552197433332
 21
545.0019969892202
 31
0.0
 12
1619.552197433332
 22
545.3353303225535
 32
0.0
 13
1619.552197433332
 23
545.3353303225535
 33
0.0
  0
MTEXT
  5
4B51
330
4AA5
100
AcDbEntity
  8
7
100
AcDbMText
 10
1683.682032070574
 20
547.5844908329632
 30
0.0
 40
2.0
 41
0.0
 71
     5
 72
     1
  1
MAX. 975 mm / MIN. 960 mm
  7
SANINDUSA
 73
     1
 44
1.0
1001
ACAD
1000
MTEXTBEGIN
1070
    73
1070
     1
1070
    44
1040
1.0
1070
    74
1070
     0
1000
MTEXTEND
  0
POINT
  5
4B52
330
4AA5
100
AcDbEntity
  8
Defpoints
 62
     0
100
AcDbPoint
 10
1716.974134143503
 20
555.9448893509223
 30
0.0000000155554831
  0
POINT
  5
4B53
330
4AA5
100
AcDbEntity
  8
Defpoints
 62
     0
100
AcDbPoint
 10
1619.552197433332
 20
554.9551002451631
 30
0.0
  0
POINT
  5
4B54
330
4AA5
100
AcDbEntity
  8
Defpoints
 62
     0
100
AcDbPoint
 10
1619.552197433332
 20
545.3353303225535
 30
0.0
  0
ENDBLK
  5
4AB0
330
4AA5
100
AcDbEntity
  8
0
100
AcDbBlockEnd
  0
BLOCK
  5
4AFC
330
4AF2
100
AcDbEntity
  8
0
100
AcDbBlockBegin
  2
*D12
 70
     1
 10
0.0
 20
0.0
 30
0.0
  3
*D12
  1

  0
LINE
  5
4B55
330
4AF2
100
AcDbEntity
  8
7
100
AcDbLine
 10
1715.574134143503
 20
554.9948893509225
 30
0.0
 11
1715.574134143503
 21
548.540484894289
 31
0.0
  0
LINE
  5
4B56
330
4AF2
100
AcDbEntity
  8
7
100
AcDbLine
 10
1655.551869106701
 20
554.9948893509224
 30
0.0
 11
1655.551869106701
 21
548.540484894289
 31
0.0
  0
LINE
  5
4B57
330
4AF2
100
AcDbEntity
  8
7
100
AcDbLine
 10
1713.574134143503
 20
549.5404848942889
 30
0.0
 11
1657.551869106701
 21
549.5404848942889
 31
0.0
  0
SOLID
  5
4B58
330
4AF2
100
AcDbEntity
  8
7
100
AcDbTrace
 10
1713.574134143503
 20
549.8738182276223
 30
0.0
 11
1713.574134143503
 21
549.2071515609556
 31
0.0
 12
1715.574134143503
 22
549.5404848942889
 32
0.0
 13
1715.574134143503
 23
549.5404848942889
 33
0.0
  0
SOLID
  5
4B59
330
4AF2
100
AcDbEntity
  8
7
100
AcDbTrace
 10
1657.551869106701
 20
549.8738182276223
 30
0.0
 11
1657.551869106701
 21
549.2071515609556
 31
0.0
 12
1655.551869106701
 22
549.5404848942889
 32
0.0
 13
1655.551869106701
 23
549.5404848942889
 33
0.0
  0
MTEXT
  5
4B5A
330
4AF2
100
AcDbEntity
  8
7
100
AcDbMText
 10
1685.563001625102
 20
551.581451986297
 30
0.0
 40
2.0
 41
0.0
 71
     5
 72
     1
  1
600
  7
SANINDUSA
 73
     1
 44
1.0
1001
ACAD
1000
MTEXTBEGIN
1070
    73
1070
     1
1070
    44
1040
1.0
1070
    74
1070
     0
1000
MTEXTEND
  0
POINT
  5
4B5B
330
4AF2
100
AcDbEntity
  8
Defpoints
 62
     0
100
AcDbPoint
 10
1715.574134143503
 20
555.9948893509226
 30
0.0000000155554831
  0
POINT
  5
4B5C
330
4AF2
100
AcDbEntity
  8
Defpoints
 62
     0
100
AcDbPoint
 10
1655.551869106701
 20
555.9948893509224
 30
0.0000000155554831
  0
POINT
  5
4B5D
330
4AF2
100
AcDbEntity
  8
Defpoints
 62
     0
100
AcDbPoint
 10
1655.551869106701
 20
549.5404848942889
 30
0.0
  0
ENDBLK
  5
4AFD
330
4AF2
100
AcDbEntity
  8
0
100
AcDbBlockEnd
  0
BLOCK
  5
4B08
330
4AFE
100
AcDbEntity
  8
0
100
AcDbBlockBegin
  2
*D13
 70
     1
 10
0.0
 20
0.0
 30
0.0
  3
*D13
  1

  0
LINE
  5
4B5E
330
4AFE
100
AcDbEntity
  8
7
100
AcDbLine
 10
1655.251869106701
 20
554.9948889699631
 30
0.0
 11
1655.251869106701
 21
548.540484894289
 31
0.0
  0
LINE
  5
4B5F
330
4AFE
100
AcDbEntity
  8
7
100
AcDbLine
 10
1623.989399809318
 20
554.994888969963
 30
0.0
 11
1623.989399809318
 21
548.540484894289
 31
0.0
  0
LINE
  5
4B60
330
4AFE
100
AcDbEntity
  8
7
100
AcDbLine
 10
1653.251869106701
 20
549.5404848942889
 30
0.0
 11
1625.989399809318
 21
549.5404848942889
 31
0.0
  0
SOLID
  5
4B61
330
4AFE
100
AcDbEntity
  8
7
100
AcDbTrace
 10
1653.251869106701
 20
549.8738182276223
 30
0.0
 11
1653.251869106701
 21
549.2071515609556
 31
0.0
 12
1655.251869106701
 22
549.5404848942889
 32
0.0
 13
1655.251869106701
 23
549.5404848942889
 33
0.0
  0
SOLID
  5
4B62
330
4AFE
100
AcDbEntity
  8
7
100
AcDbTrace
 10
1625.989399809318
 20
549.8738182276223
 30
0.0
 11
1625.989399809318
 21
549.2071515609556
 31
0.0
 12
1623.989399809318
 22
549.5404848942889
 32
0.0
 13
1623.989399809318
 23
549.5404848942889
 33
0.0
  0
MTEXT
  5
4B63
330
4AFE
100
AcDbEntity
  8
7
100
AcDbMText
 10
1639.620634458009
 20
551.5821235779692
 30
0.0
 40
2.0
 41
0.0
 71
     5
 72
     1
  1
313
  7
SANINDUSA
 73
     1
 44
1.0
1001
ACAD
1000
MTEXTBEGIN
1070
    73
1070
     1
1070
    44
1040
1.0
1070
    74
1070
     0
1000
MTEXTEND
  0
POINT
  5
4B64
330
4AFE
100
AcDbEntity
  8
Defpoints
 62
     0
100
AcDbPoint
 10
1655.251869106701
 20
555.9948889699632
 30
0.0000000155554969
  0
POINT
  5
4B65
330
4AFE
100
AcDbEntity
  8
Defpoints
 62
     0
100
AcDbPoint
 10
1623.989399809318
 20
555.994888969963
 30
0.0000000147685134
  0
POINT
  5
4B66
330
4AFE
100
AcDbEntity
  8
Defpoints
 62
     0
100
AcDbPoint
 10
1623.989399809318
 20
549.5404848942889
 30
0.0
  0
ENDBLK
  5
4B09
330
4AFE
100
AcDbEntity
  8
0
100
AcDbBlockEnd
  0
BLOCK
  5
4B14
330
4B0A
100
AcDbEntity
  8
0
100
AcDbBlockBegin
  2
*D14
 70
     1
 10
0.0
 20
0.0
 30
0.0
  3
*D14
  1

  0
LINE
  5
4B67
330
4B0A
100
AcDbEntity
  8
7
100
AcDbLine
 10
1718.021118991601
 20
619.7273586483117
 30
0.0
 11
1725.176273563337
 21
619.7273586483117
 31
0.0
  0
LINE
  5
4B68
330
4B0A
100
AcDbEntity
  8
7
100
AcDbLine
 10
1718.021118991601
 20
557.4418741990208
 30
0.0
 11
1725.176273563337
 21
557.4418741990208
 31
0.0
  0
LINE
  5
4B69
330
4B0A
100
AcDbEntity
  8
7
100
AcDbLine
 10
1724.176273563337
 20
617.7273586483116
 30
0.0
 11
1724.176273563337
 21
559.4418741990208
 31
0.0
  0
SOLID
  5
4B6A
330
4B0A
100
AcDbEntity
  8
7
100
AcDbTrace
 10
1723.842940230004
 20
617.7273586483116
 30
0.0
 11
1724.50960689667
 21
617.7273586483116
 31
0.0
 12
1724.176273563337
 22
619.7273586483117
 32
0.0
 13
1724.176273563337
 23
619.7273586483117
 33
0.0
  0
SOLID
  5
4B6B
330
4B0A
100
AcDbEntity
  8
7
100
AcDbTrace
 10
1723.842940230004
 20
559.4418741990208
 30
0.0
 11
1724.50960689667
 21
559.4418741990208
 31
0.0
 12
1724.176273563337
 22
557.4418741990208
 32
0.0
 13
1724.176273563337
 23
557.4418741990208
 33
0.0
  0
MTEXT
  5
4B6C
330
4B0A
100
AcDbEntity
  8
7
100
AcDbMText
 10
1722.134634879656
 20
588.5846164236665
 30
0.0
 40
2.0
 41
0.0
 71
     5
 72
     1
  1
623
  7
SANINDUSA
 11
0.0000000000000001
 21
1.0
 31
0.0
 73
     1
 44
1.0
1001
ACAD
1000
MTEXTBEGIN
1070
    73
1070
     1
1070
    44
1040
1.0
1070
    74
1070
     0
1000
MTEXTEND
  0
POINT
  5
4B6D
330
4B0A
100
AcDbEntity
  8
Defpoints
 62
     0
100
AcDbPoint
 10
1717.021118991601
 20
619.7273586483117
 30
0.0000000155554831
  0
POINT
  5
4B6E
330
4B0A
100
AcDbEntity
  8
Defpoints
 62
     0
100
AcDbPoint
 10
1717.021118991601
 20
557.4418741990208
 30
0.0000000155554831
  0
POINT
  5
4B6F
330
4B0A
100
AcDbEntity
  8
Defpoints
 62
     0
100
AcDbPoint
 10
1724.176273563337
 20
557.4418741990208
 30
0.0
  0
ENDBLK
  5
4B15
330
4B0A
100
AcDbEntity
  8
0
100
AcDbBlockEnd
  0
ENDSEC
  0
SECTION
  2
ENTITIES
  0
LINE
  5
39AA
330
1F
100
AcDbEntity
  8
SANINDUSA
100
AcDbLine
 10
1656.228859719229
 20
452.5956186007859
 30
0.0000000001020975
 11
1656.228859719229
 21
452.577618600786
 31
0.0000000001020975
  0
LINE
  5
39AB
330
1F
100
AcDbEntity
  8
SANINDUSA
100
AcDbLine
 10
1656.273859719229
 20
452.5956186007859
 30
0.0000000001020975
 11
1656.273859719229
 21
452.577618600786
 31
0.0000000001020975
  0
LINE
  5
39AD
330
1F
100
AcDbEntity
  8
SANINDUSA
100
AcDbLine
 10
1656.074667547711
 20
452.569392105551
 30
0.0
 11
1656.074667547711
 21
452.5933186007859
 31
0.0
  0
LINE
  5
39AE
330
1F
100
AcDbEntity
  8
SANINDUSA
100
AcDbLine
 10
1656.075667547711
 20
452.5933186007859
 30
0.0
 11
1656.074667547711
 21
452.5933186007859
 31
0.0
  0
LINE
  5
39AF
330
1F
100
AcDbEntity
  8
SANINDUSA
100
AcDbLine
 10
1656.074667547711
 20
452.569392105551
 30
0.0
 11
1656.075666428623
 21
452.569392105551
 31
0.0
  0
ARC
  5
39B0
330
1F
100
AcDbEntity
  8
SANINDUSA
100
AcDbCircle
 10
1656.075667547711
 20
452.592318600786
 30
0.0
 40
0.0009999999999999
100
AcDbArc
 50
0.0
 51
90.0
  0
ARC
  5
39B1
330
1F
100
AcDbEntity
  8
SANINDUSA
100
AcDbCircle
 10
1656.075666428623
 20
452.570392105551
 30
0.0
 40
0.0009999999999999
100
AcDbArc
 50
270.0
 51
359.4659008893282
  0
LINE
  5
39B2
330
1F
100
AcDbEntity
  8
SANINDUSA
100
AcDbLine
 10
1656.076667547711
 20
452.5913328143484
 30
0.0
 11
1656.076667547711
 21
452.592318600786
 31
0.0
  0
LINE
  5
39B3
330
1F
100
AcDbEntity
  8
SANINDUSA
100
AcDbLine
 10
1656.076666385176
 20
452.570382783898
 30
0.0
 11
1656.076673174836
 21
452.5711111273849
 31
0.0
  0
ARC
  5
39B4
330
1F
100
AcDbEntity
  8
SANINDUSA
100
AcDbCircle
 10
1656.078017547711
 20
452.5913328143484
 30
0.0
 40
0.0013499999999998
100
AcDbArc
 50
180.0
 51
225.0
  0
ARC
  5
39B5
330
1F
100
AcDbEntity
  8
SANINDUSA
100
AcDbCircle
 10
1656.078023116182
 20
452.5710985431534
 30
0.0
 40
0.00135
100
AcDbArc
 50
134.9106959542998
 51
179.4659008893282
  0
LINE
  5
39B6
330
1F
100
AcDbEntity
  8
SANINDUSA
100
AcDbLine
 10
1656.077977167119
 20
452.5894640066314
 30
0.0
 11
1656.077062953557
 21
452.5903782201937
 31
0.0
  0
LINE
  5
39B7
330
1F
100
AcDbEntity
  8
SANINDUSA
100
AcDbLine
 10
1656.077070011064
 20
452.5720546240258
 30
0.0
 11
1656.077976450175
 21
452.5729582418896
 31
0.0
  0
ARC
  5
39B8
330
1F
100
AcDbEntity
  8
SANINDUSA
100
AcDbCircle
 10
1656.077517547711
 20
452.5890043872236
 30
0.0
 40
0.0006500000000003
100
AcDbArc
 50
0.0
 51
45.0
  0
ARC
  5
39B9
330
1F
100
AcDbEntity
  8
SANINDUSA
100
AcDbCircle
 10
1656.077517547711
 20
452.5734185771244
 30
0.0
 40
0.0006500000000003
100
AcDbArc
 50
314.9106959542998
 51
0.0
  0
LINE
  5
39BA
330
1F
100
AcDbEntity
  8
SANINDUSA
100
AcDbLine
 10
1656.078167547711
 20
452.5734185771244
 30
0.0
 11
1656.078167547711
 21
452.5890043872236
 31
0.0
  0
LINE
  5
39BB
330
1F
100
AcDbEntity
  8
SANINDUSA
100
AcDbLine
 10
1656.126642775003
 20
452.5886186007859
 30
0.0
 11
1656.123954161852
 21
452.5886186007859
 31
0.0
  0
ARC
  5
39BC
330
1F
100
AcDbEntity
  8
SANINDUSA
100
AcDbCircle
 10
1656.123954161852
 20
452.5881186007859
 30
0.0
 40
0.0005
100
AcDbArc
 50
90.0
 51
160.5287793650535
  0
ARC
  5
39BD
330
1F
100
AcDbEntity
  8
SANINDUSA
100
AcDbCircle
 10
1656.126642775003
 20
452.5881186007859
 30
0.0
 40
0.0005000000000001
100
AcDbArc
 50
23.57817848105703
 51
90.0
  0
ARC
  5
39BE
330
1F
100
AcDbEntity
  8
SANINDUSA
100
AcDbCircle
 10
1656.12253994829
 20
452.5886186007859
 30
0.0
 40
0.001
100
AcDbArc
 50
199.4712206349464
 51
340.5287793650535
  0
ARC
  5
39BF
330
1F
100
AcDbEntity
  8
SANINDUSA
100
AcDbCircle
 10
1656.128017547711
 20
452.588718600786
 30
0.0
 40
0.0009999999999999
100
AcDbArc
 50
203.578178481057
 51
0.0
  0
ARC
  5
39C0
330
1F
100
AcDbEntity
  8
SANINDUSA
100
AcDbCircle
 10
1656.121125734728
 20
452.5881186007859
 30
0.0
 40
0.0004999999999999
100
AcDbArc
 50
19.47122063494644
 51
90.0
  0
LINE
  5
39C1
330
1F
100
AcDbEntity
  8
SANINDUSA
100
AcDbLine
 10
1656.129017547711
 20
452.588718600786
 30
0.0
 11
1656.129017547711
 21
452.589618600786
 31
0.0
  0
LINE
  5
39C2
330
1F
100
AcDbEntity
  8
SANINDUSA
100
AcDbLine
 10
1656.121125734728
 20
452.5886186007859
 30
0.0
 11
1656.119539571471
 21
452.5886186007859
 31
0.0
  0
ARC
  5
39C3
330
1F
100
AcDbEntity
  8
SANINDUSA
100
AcDbCircle
 10
1656.128017547711
 20
452.589618600786
 30
0.0
 40
0.0009999999999999
100
AcDbArc
 50
0.0
 51
90.0
  0
ARC
  5
39C4
330
1F
100
AcDbEntity
  8
SANINDUSA
100
AcDbCircle
 10
1656.119539571471
 20
452.5881186007859
 30
0.0
 40
0.0005
100
AcDbArc
 50
90.0
 51
180.0
  0
LINE
  5
39C5
330
1F
100
AcDbEntity
  8
SANINDUSA
100
AcDbLine
 10
1656.128017547711
 20
452.5906186007859
 30
0.0
 11
1656.096517547711
 21
452.5906186007859
 31
0.0
  0
LINE
  5
39C6
330
1F
100
AcDbEntity
  8
SANINDUSA
100
AcDbLine
 10
1656.119039571471
 20
452.5881186007859
 30
0.0
 11
1656.119039571471
 21
452.5811186007859
 31
0.0
  0
ARC
  5
39C7
330
1F
100
AcDbEntity
  8
SANINDUSA
100
AcDbCircle
 10
1656.096517547711
 20
452.589618600786
 30
0.0
 40
0.001
100
AcDbArc
 50
90.0
 51
270.0
  0
ARC
  5
39C8
330
1F
100
AcDbEntity
  8
SANINDUSA
100
AcDbCircle
 10
1656.119539571471
 20
452.5811186007859
 30
0.0
 40
0.0005
100
AcDbArc
 50
180.0
 51
270.0
  0
LINE
  5
39C9
330
1F
100
AcDbEntity
  8
SANINDUSA
100
AcDbLine
 10
1656.096517547711
 20
452.5886186007859
 30
0.0
 11
1656.116539571471
 21
452.5886186007859
 31
0.0
  0
LINE
  5
39CA
330
1F
100
AcDbEntity
  8
SANINDUSA
100
AcDbLine
 10
1656.448164264445
 20
452.581418600786
 30
0.0000000001555548
 11
1656.501164264445
 21
452.581418600786
 31
0.0000000001555548
1001
GENIUS_GENREC_14
1002
{
1000
PYDIR
1011
1656.201882007366
1021
452.6747909105936
1031
0.000000000155555
1002
}
1002
{
1000
PXDIR
1011
1656.148882007366
1021
452.6737909105936
1031
0.000000000155555
1002
}
1002
{
1000
PORI
1011
1656.201882007366
1021
452.6737909105936
1031
0.000000000155555
1002
}
1002
{
1000
PINS
1011
1656.201882007366
1021
452.6737909105936
1031
0.000000000155555
1002
}
1002
{
1000
PINS2
1011
1656.148882007366
1021
452.6747909105936
1031
0.000000000155555
1002
}
1002
{
1000
C
1070
     1
1002
}
1001
GENIUS_GENODEF_13
1002
{
1000
HIER
1070
     0
1002
}
1002
{
1000
MANEDIT
1070
     0
1002
}
1002
{
1000
NOSEL
1070
     0
1002
}
1002
{
1000
BEHIND
1070
     0
1002
}
1002
{
1000
REACTOR
1002
}
1001
GENIUS_GENOBJ-N-REC_13
1002
{
1000
OWNER
1000
GEN
1002
}
  0
LINE
  5
39CB
330
1F
100
AcDbEntity
  8
SANINDUSA
100
AcDbLine
 10
1656.119539571471
 20
452.5806186007859
 30
0.0
 11
1656.121125734728
 21
452.5806186007859
 31
0.0
  0
ARC
  5
39CC
330
1F
100
AcDbEntity
  8
SANINDUSA
100
AcDbCircle
 10
1656.116539571471
 20
452.5881186007859
 30
0.0
 40
0.0005000000000001
100
AcDbArc
 50
0.0
 51
90.0
  0
ARC
  5
39CD
330
1F
100
AcDbEntity
  8
SANINDUSA
100
AcDbCircle
 10
1656.121125734728
 20
452.5811186007859
 30
0.0
 40
0.0005
100
AcDbArc
 50
270.0
 51
340.5287793650535
  0
LINE
  5
39CE
330
1F
100
AcDbEntity
  8
SANINDUSA
100
AcDbLine
 10
1656.117039571471
 20
452.5881186007859
 30
0.0
 11
1656.117039571471
 21
452.5811186007859
 31
0.0
  0
ARC
  5
39CF
330
1F
100
AcDbEntity
  8
SANINDUSA
100
AcDbCircle
 10
1656.12253994829
 20
452.5806186007859
 30
0.0
 40
0.001
100
AcDbArc
 50
19.47122063494644
 51
160.5287793650535
  0
ARC
  5
39D0
330
1F
100
AcDbEntity
  8
SANINDUSA
100
AcDbCircle
 10
1656.116539571471
 20
452.5811186007859
 30
0.0
 40
0.0005000000000001
100
AcDbArc
 50
270.0
 51
0.0
  0
ARC
  5
39D1
330
1F
100
AcDbEntity
  8
SANINDUSA
100
AcDbCircle
 10
1656.123954161852
 20
452.5811186007859
 30
0.0
 40
0.0005
100
AcDbArc
 50
199.4712206349464
 51
270.0
  0
LINE
  5
39D2
330
1F
100
AcDbEntity
  8
SANINDUSA
100
AcDbLine
 10
1656.116539571471
 20
452.5806186007859
 30
0.0
 11
1656.096517547711
 21
452.5806186007859
 31
0.0
  0
LINE
  5
39D3
330
1F
100
AcDbEntity
  8
SANINDUSA
100
AcDbLine
 10
1656.123954161852
 20
452.5806186007859
 30
0.0
 11
1656.126642775003
 21
452.5806186007859
 31
0.0
  0
ARC
  5
39D4
330
1F
100
AcDbEntity
  8
SANINDUSA
100
AcDbCircle
 10
1656.096517547711
 20
452.579618600786
 30
0.0
 40
0.001
100
AcDbArc
 50
90.0
 51
270.0
  0
ARC
  5
39D5
330
1F
100
AcDbEntity
  8
SANINDUSA
100
AcDbCircle
 10
1656.126642775003
 20
452.5811186007859
 30
0.0
 40
0.0005000000000001
100
AcDbArc
 50
270.0
 51
336.421821518943
  0
LINE
  5
39D6
330
1F
100
AcDbEntity
  8
SANINDUSA
100
AcDbLine
 10
1656.096517547711
 20
452.5786186007859
 30
0.0
 11
1656.128017547711
 21
452.5786186007859
 31
0.0
  0
ARC
  5
39D7
330
1F
100
AcDbEntity
  8
SANINDUSA
100
AcDbCircle
 10
1656.128017547711
 20
452.580518600786
 30
0.0
 40
0.0009999999999999
100
AcDbArc
 50
0.0
 51
156.4218215189429
  0
ARC
  5
39D8
330
1F
100
AcDbEntity
  8
SANINDUSA
100
AcDbCircle
 10
1656.128017547711
 20
452.579618600786
 30
0.0
 40
0.0010000000000001
100
AcDbArc
 50
270.0
 51
0.0
  0
LINE
  5
39D9
330
1F
100
AcDbEntity
  8
SANINDUSA
100
AcDbLine
 10
1656.129017547711
 20
452.579618600786
 30
0.0
 11
1656.129017547711
 21
452.580518600786
 31
0.0
  0
ARC
  5
39DA
330
1F
100
AcDbEntity
  8
SANINDUSA
100
AcDbCircle
 10
1656.078017547711
 20
452.592318600786
 30
0.0
 40
0.0009999999999999
100
AcDbArc
 50
90.0
 51
180.0
  0
LINE
  5
39DB
330
1F
100
AcDbEntity
  8
SANINDUSA
100
AcDbLine
 10
1656.078017547711
 20
452.5933186007859
 30
0.0
 11
1656.113040851843
 21
452.5933186007859
 31
0.0
  0
LINE
  5
39DC
330
1F
100
AcDbEntity
  8
SANINDUSA
100
AcDbLine
 10
1656.077017547711
 20
452.5913328143484
 30
0.0
 11
1656.077017547711
 21
452.592318600786
 31
0.0
  0
ARC
  5
39DD
330
1F
100
AcDbEntity
  8
SANINDUSA
100
AcDbCircle
 10
1656.113040851843
 20
452.592318600786
 30
0.0
 40
0.001
100
AcDbArc
 50
270.0
 51
90.0
  0
ARC
  5
39DE
330
1F
100
AcDbEntity
  8
SANINDUSA
100
AcDbCircle
 10
1656.078017547711
 20
452.5913328143484
 30
0.0
 40
0.0010000000000003
100
AcDbArc
 50
180.0
 51
225.0
  0
LINE
  5
39DF
330
1F
100
AcDbEntity
  8
SANINDUSA
100
AcDbLine
 10
1656.113040851843
 20
452.5913186007859
 30
0.0
 11
1656.081517547711
 21
452.5913186007859
 31
0.0
  0
LINE
  5
39E0
330
1F
100
AcDbEntity
  8
SANINDUSA
100
AcDbLine
 10
1656.078224654492
 20
452.5897114940049
 30
0.0
 11
1656.07731044093
 21
452.5906257075671
 31
0.0
  0
ARC
  5
39E1
330
1F
100
AcDbEntity
  8
SANINDUSA
100
AcDbCircle
 10
1656.081517547711
 20
452.590318600786
 30
0.0
 40
0.001
100
AcDbArc
 50
90.0
 51
180.0
  0
ARC
  5
39E2
330
1F
100
AcDbEntity
  8
SANINDUSA
100
AcDbCircle
 10
1656.077517547711
 20
452.5890043872236
 30
0.0
 40
0.0010000000000003
100
AcDbArc
 50
0.0
 51
45.0
  0
LINE
  5
39E3
330
1F
100
AcDbEntity
  8
SANINDUSA
100
AcDbLine
 10
1656.080517547711
 20
452.590318600786
 30
0.0
 11
1656.080517547711
 21
452.5724594145088
 31
0.0
  0
LINE
  5
39E4
330
1F
100
AcDbEntity
  8
SANINDUSA
100
AcDbLine
 10
1656.078517547711
 20
452.5856292609577
 30
0.0
 11
1656.078517547711
 21
452.5890043872236
 31
0.0
  0
ARC
  5
39E5
330
1F
100
AcDbEntity
  8
SANINDUSA
100
AcDbCircle
 10
1656.081517547711
 20
452.5724594145088
 30
0.0
 40
0.001
100
AcDbArc
 50
180.0
 51
272.1494579282662
  0
ARC
  5
39E6
330
1F
100
AcDbEntity
  8
SANINDUSA
100
AcDbCircle
 10
1656.078767547711
 20
452.5856292609577
 30
0.0
 40
0.0002500000000003
100
AcDbArc
 50
180.0
 51
225.0
  0
ARC
  5
39E7
330
1F
100
AcDbEntity
  8
SANINDUSA
100
AcDbCircle
 10
1656.077927439273
 20
452.668112160431
 30
0.0
 40
0.0967200954923435
100
AcDbArc
 50
272.1494579282662
 51
285.5601696429527
  0
LINE
  5
39E8
330
1F
100
AcDbEntity
  8
SANINDUSA
100
AcDbLine
 10
1656.079071101102
 20
452.5849721541766
 30
0.0
 11
1656.078590771016
 21
452.5854524842625
 31
0.0
  0
ARC
  5
39E9
330
1F
100
AcDbEntity
  8
SANINDUSA
100
AcDbCircle
 10
1656.103738498471
 20
452.5754186007859
 30
0.0
 40
0.0005
100
AcDbArc
 50
285.5601696429527
 51
90.0
  0
ARC
  5
39EA
330
1F
100
AcDbEntity
  8
SANINDUSA
100
AcDbCircle
 10
1656.078717547711
 20
452.584618600786
 30
0.0
 40
0.0005
100
AcDbArc
 50
315.0
 51
45.0
  0
LINE
  5
39EB
330
1F
100
AcDbEntity
  8
SANINDUSA
100
AcDbLine
 10
1656.418164264445
 20
452.581318600786
 30
0.0000000001555548
 11
1656.365164264445
 21
452.581318600786
 31
0.0000000001555548
1001
GENIUS_GENREC_14
1002
{
1000
PYDIR
1011
1656.501164264445
1021
452.3754086535145
1031
0.000000000155555
1002
}
1002
{
1000
PXDIR
1011
1656.448164264445
1021
452.3744086535145
1031
0.000000000155555
1002
}
1002
{
1000
PORI
1011
1656.501164264445
1021
452.3744086535145
1031
0.000000000155555
1002
}
1002
{
1000
PINS
1011
1656.501164264445
1021
452.3744086535145
1031
0.000000000155555
1002
}
1002
{
1000
PINS2
1011
1656.448164264445
1021
452.3754086535145
1031
0.000000000155555
1002
}
1002
{
1000
C
1070
     1
1002
}
1001
GENIUS_GENODEF_13
1002
{
1000
HIER
1070
     0
1002
}
1002
{
1000
MANEDIT
1070
     0
1002
}
1002
{
1000
NOSEL
1070
     0
1002
}
1002
{
1000
BEHIND
1070
     0
1002
}
1002
{
1000
REACTOR
1002
}
1001
GENIUS_GENOBJ-N-REC_13
1002
{
1000
OWNER
1000
GEN
1002
}
  0
LINE
  5
39EC
330
1F
100
AcDbEntity
  8
SANINDUSA
100
AcDbLine
 10
1656.103738498471
 20
452.5759186007859
 30
0.0
 11
1656.091040851843
 21
452.5759186007859
 31
0.0
  0
LINE
  5
39ED
330
1F
100
AcDbEntity
  8
SANINDUSA
100
AcDbLine
 10
1656.078590771016
 20
452.5837847173095
 30
0.0
 11
1656.079071101102
 21
452.5842650473954
 31
0.0
  0
LINE
  5
39EE
330
1F
100
AcDbEntity
  8
SANINDUSA
100
AcDbLine
 10
1656.365164264445
 20
452.580318600786
 30
0.0000000001555548
 11
1656.418164264445
 21
452.580318600786
 31
0.0000000001555548
1001
GENIUS_GENREC_14
1002
{
1000
PYDIR
1011
1656.501164264445
1021
452.3754086535145
1031
0.000000000155555
1002
}
1002
{
1000
PXDIR
1011
1656.448164264445
1021
452.3744086535145
1031
0.000000000155555
1002
}
1002
{
1000
PORI
1011
1656.501164264445
1021
452.3744086535145
1031
0.000000000155555
1002
}
1002
{
1000
PINS
1011
1656.501164264445
1021
452.3744086535145
1031
0.000000000155555
1002
}
1002
{
1000
PINS2
1011
1656.448164264445
1021
452.3754086535145
1031
0.000000000155555
1002
}
1002
{
1000
C
1070
     1
1002
}
1001
GENIUS_GENODEF_13
1002
{
1000
HIER
1070
     0
1002
}
1002
{
1000
MANEDIT
1070
     0
1002
}
1002
{
1000
NOSEL
1070
     0
1002
}
1002
{
1000
BEHIND
1070
     0
1002
}
1002
{
1000
REACTOR
1002
}
1001
GENIUS_GENOBJ-N-REC_13
1002
{
1000
OWNER
1000
GEN
1002
}
  0
ARC
  5
39EF
330
1F
100
AcDbEntity
  8
SANINDUSA
100
AcDbCircle
 10
1656.091040851843
 20
452.576918600786
 30
0.0
 40
0.001
100
AcDbArc
 50
90.0
 51
270.0
  0
ARC
  5
39F0
330
1F
100
AcDbEntity
  8
SANINDUSA
100
AcDbCircle
 10
1656.078767547711
 20
452.5836079406142
 30
0.0
 40
0.00025
100
AcDbArc
 50
135.0
 51
180.0
  0
LINE
  5
39F1
330
1F
100
AcDbEntity
  8
SANINDUSA
100
AcDbLine
 10
1656.091040851843
 20
452.5779186007859
 30
0.0
 11
1656.113040851843
 21
452.5779186007859
 31
0.0
  0
LINE
  5
39F2
330
1F
100
AcDbEntity
  8
SANINDUSA
100
AcDbLine
 10
1656.078517547711
 20
452.5734185771244
 30
0.0
 11
1656.078517547711
 21
452.5836079406142
 31
0.0
  0
ARC
  5
39F3
330
1F
100
AcDbEntity
  8
SANINDUSA
100
AcDbCircle
 10
1656.113040851843
 20
452.576918600786
 30
0.0
 40
0.001
100
AcDbArc
 50
291.0588352481606
 51
90.0
  0
ARC
  5
39F4
330
1F
100
AcDbEntity
  8
SANINDUSA
100
AcDbCircle
 10
1656.077517547711
 20
452.5734185771244
 30
0.0
 40
0.0010000000000003
100
AcDbArc
 50
314.9106959542998
 51
0.0
  0
ARC
  5
39F5
330
1F
100
AcDbEntity
  8
SANINDUSA
100
AcDbCircle
 10
1656.077927439273
 20
452.668112160431
 30
0.0
 40
0.0987200954923432
100
AcDbArc
 50
270.0522365954197
 51
291.0588352481606
  0
LINE
  5
39F6
330
1F
100
AcDbEntity
  8
SANINDUSA
100
AcDbLine
 10
1656.077317112391
 20
452.571806751207
 30
0.0
 11
1656.078223551502
 21
452.5727103690709
 31
0.0
  0
ARC
  5
39F7
330
1F
100
AcDbEntity
  8
SANINDUSA
100
AcDbCircle
 10
1656.07801653073
 20
452.570392105551
 30
0.0
 40
0.001
100
AcDbArc
 50
179.4659008893282
 51
270.0522365954197
  0
ARC
  5
39F8
330
1F
100
AcDbEntity
  8
SANINDUSA
100
AcDbCircle
 10
1656.078023116182
 20
452.5710985431534
 30
0.0
 40
0.0010000000000003
100
AcDbArc
 50
134.9106959542998
 51
179.4659008893282
  0
LINE
  5
39F9
330
1F
100
AcDbEntity
  8
SANINDUSA
100
AcDbLine
 10
1656.434664264445
 20
452.5809221741455
 30
0.0000000001555548
 11
1656.434664264445
 21
452.5883150350456
 31
0.0000000001555548
  0
LINE
  5
39FA
330
1F
100
AcDbEntity
  8
SANINDUSA
100
AcDbLine
 10
1656.077016574177
 20
452.570401427204
 30
0.0
 11
1656.07702315963
 21
452.5711078648064
 31
0.0
  0
LINE
  5
39FB
330
1F
100
AcDbEntity
  8
SANINDUSA
100
AcDbLine
 10
1656.431664264445
 20
452.587618600786
 30
0.000000000155555
 11
1656.431664264445
 21
452.581618600786
 31
0.000000000155555
1001
GENIUS_GENREC_14
1002
{
1000
PYDIR
1011
1656.584664264445
1021
452.581418600786
1031
0.000000000155555
1002
}
1002
{
1000
PXDIR
1011
1656.434664264445
1021
452.587418600786
1031
0.000000000155555
1002
}
1002
{
1000
PORI
1011
1656.584664264445
1021
452.587418600786
1031
0.000000000155555
1002
}
1002
{
1000
PINS
1011
1656.584664264445
1021
452.587418600786
1031
0.000000000155555
1002
}
1002
{
1000
PINS2
1011
1656.434664264445
1021
452.581618600786
1031
0.000000000155555
1002
}
1002
{
1000
C
1070
     1
1002
}
1001
GENIUS_GENODEF_13
1002
{
1000
HIER
1070
     0
1002
}
1002
{
1000
MANEDIT
1070
     0
1002
}
1002
{
1000
NOSEL
1070
     0
1002
}
1002
{
1000
BEHIND
1070
     0
1002
}
1002
{
1000
REACTOR
1002
}
1001
GENIUS_GENOBJ-N-REC_13
1002
{
1000
OWNER
1000
GEN
1002
}
  0
LINE
  5
39FC
330
1F
100
AcDbEntity
  8
SANINDUSA
100
AcDbLine
 10
1656.433516403791
 20
452.5790186045956
 30
0.0000000001555548
 11
1656.433516403791
 21
452.5902186045956
 31
0.0000000001555548
  0
LINE
  5
3A37
330
1F
100
AcDbEntity
  8
SANINDUSA
  6
Continuous
100
AcDbLine
 10
1656.434664264445
 20
452.5876186045955
 30
0.0000000001555548
 11
1656.434664264445
 21
452.5816186045956
 31
0.0000000001555548
  0
ARC
  5
3A38
330
1F
100
AcDbEntity
  8
SANINDUSA
100
AcDbCircle
 10
1656.432678711484
 20
452.5846186045956
 30
0.0000000001555548
 40
0.0052623076923077
100
AcDbArc
 50
81.49232713305776
 51
278.5076728669423
  0
ARC
  5
3A7A
330
1F
100
AcDbEntity
  8
SANINDUSA
100
AcDbCircle
 10
1656.432678711484
 20
452.5846186045956
 30
0.0000000001555548
 40
0.0056623076923077
100
AcDbArc
 50
81.49232713305776
 51
278.5076728669423
  0
LINE
  5
3A7B
330
1F
100
AcDbEntity
  8
SANINDUSA
100
AcDbLine
 10
1657.034886914813
 20
452.5876186045955
 30
0.0000000001555548
 11
1657.034886914813
 21
452.5816186045956
 31
0.0000000001555548
  0
LINE
  5
3A7C
330
1F
100
AcDbEntity
  8
SANINDUSA
100
AcDbLine
 10
1657.022886914813
 20
452.58779791701
 30
0.0000000001555548
 11
1657.022886914813
 21
452.5873186045956
 31
0.0000000001555548
  0
LINE
  5
3A7D
330
1F
100
AcDbEntity
  8
SANINDUSA
100
AcDbLine
 10
1657.025386914813
 20
452.5877490796037
 30
0.0000000001555548
 11
1657.025446138544
 21
452.5873534882114
 31
0.0000000001555548
  0
ARC
  5
3A7E
330
1F
100
AcDbEntity
  8
SANINDUSA
100
AcDbCircle
 10
1657.023686914813
 20
452.58779791701
 30
0.0000000001555548
 40
0.0008
100
AcDbArc
 50
98.51447843397879
 51
180.0
  0
ARC
  5
3A7F
330
1F
100
AcDbEntity
  8
SANINDUSA
100
AcDbCircle
 10
1657.026133104909
 20
452.5861418458497
 30
0.0000000001555548
 40
0.0002
100
AcDbArc
 50
188.5144784349432
 51
8.514478434943223
  0
LINE
  5
3A80
330
1F
100
AcDbEntity
  8
SANINDUSA
100
AcDbLine
 10
1657.023231332611
 20
452.5822152981398
 30
0.0000000001555548
 11
1657.025446138544
 21
452.5818837209798
 31
0.0000000001555548
  0
ARC
  5
3A81
330
1F
100
AcDbEntity
  8
SANINDUSA
100
AcDbCircle
 10
1657.026133104909
 20
452.5830953633414
 30
0.0000000001555548
 40
0.0002
100
AcDbArc
 50
351.4855215650568
 51
171.4855215650568
  0
ARC
  5
3A82
330
1F
100
AcDbEntity
  8
SANINDUSA
100
AcDbCircle
 10
1657.023186914813
 20
452.5873186045956
 30
0.0000000001555548
 40
0.0003
100
AcDbArc
 50
180.0
 51
278.5144784339788
  0
LINE
  5
3A83
330
1F
100
AcDbEntity
  8
SANINDUSA
100
AcDbLine
 10
1657.025386914813
 20
452.5814881295874
 30
0.0000000001555548
 11
1657.025446138544
 21
452.5818837209798
 31
0.0000000001555548
  0
ARC
  5
3A84
330
1F
100
AcDbEntity
  8
SANINDUSA
100
AcDbCircle
 10
1657.023186914813
 20
452.5819186045956
 30
0.0000000001555548
 40
0.0003
100
AcDbArc
 50
81.4855215660212
 51
180.0
  0
LINE
  5
3A85
330
1F
100
AcDbEntity
  8
SANINDUSA
100
AcDbLine
 10
1657.023231332611
 20
452.5870219110514
 30
0.0000000001555548
 11
1657.025446138544
 21
452.5873534882114
 31
0.0000000001555548
  0
LINE
  5
3A86
330
1F
100
AcDbEntity
  8
SANINDUSA
100
AcDbLine
 10
1657.025683608357
 20
452.5877934974018
 30
0.0000000001555548
 11
1657.025935309214
 21
452.5861122339843
 31
0.0000000001555548
  0
LINE
  5
3A87
330
1F
100
AcDbEntity
  8
SANINDUSA
100
AcDbLine
 10
1657.028205503484
 20
452.588171048686
 30
0.0000000001555548
 11
1657.028264727214
 21
452.5877754572936
 31
0.0000000001555548
  0
LINE
  5
3A88
330
1F
100
AcDbEntity
  8
SANINDUSA
100
AcDbLine
 10
1657.02607919975
 20
452.5878527211327
 30
0.0000000001555548
 11
1657.026330900606
 21
452.5861714577152
 31
0.0000000001555548
  0
ARC
  5
3A89
330
1F
100
AcDbEntity
  8
SANINDUSA
100
AcDbCircle
 10
1657.034586914813
 20
452.5884186045955
 30
0.0000000001555548
 40
0.0003
100
AcDbArc
 50
0.0
 51
98.51447843397879
  0
ARC
  5
3A8A
330
1F
100
AcDbEntity
  8
SANINDUSA
100
AcDbCircle
 10
1657.033844513984
 20
452.5893186045956
 30
0.0000000001555548
 40
0.0008
100
AcDbArc
 50
90.0
 51
98.51447843397879
  0
LINE
  5
3A8B
330
1F
100
AcDbEntity
  8
SANINDUSA
100
AcDbLine
 10
1657.033386914813
 20
452.5885422966777
 30
0.0000000001555548
 11
1657.034542497015
 21
452.5887152981399
 31
0.0000000001555548
  0
LINE
  5
3A8C
330
1F
100
AcDbEntity
  8
SANINDUSA
100
AcDbLine
 10
1657.033386914813
 20
452.5885422966777
 30
0.0000000001555548
 11
1657.033386914813
 21
452.5877186045956
 31
0.0000000001555548
  0
LINE
  5
3A8D
330
1F
100
AcDbEntity
  8
SANINDUSA
100
AcDbLine
 10
1657.033386914813
 20
452.5877186045956
 30
0.0000000001555548
 11
1657.032186914813
 21
452.5877186045956
 31
0.0000000001555548
  0
LINE
  5
3A8E
330
1F
100
AcDbEntity
  8
SANINDUSA
100
AcDbLine
 10
1657.032186914813
 20
452.5883626454558
 30
0.0000000001555548
 11
1657.032186914813
 21
452.5877186045956
 31
0.0000000001555548
  0
LINE
  5
3A8F
330
1F
100
AcDbEntity
  8
SANINDUSA
100
AcDbLine
 10
1657.028264727214
 20
452.5877754572936
 30
0.0000000001555548
 11
1657.032186914813
 21
452.5883626454558
 31
0.0000000001555548
  0
LINE
  5
3A90
330
1F
100
AcDbEntity
  8
SANINDUSA
100
AcDbLine
 10
1657.023568467351
 20
452.5885890997948
 30
0.0000000001555548
 11
1657.033726066522
 21
452.5901097873803
 31
0.0000000001555548
  0
LINE
  5
3A91
330
1F
100
AcDbEntity
  8
SANINDUSA
100
AcDbLine
 10
1657.033386914813
 20
452.5815186045956
 30
0.0000000001555548
 11
1657.032186914813
 21
452.5815186045956
 31
0.0000000001555548
  0
LINE
  5
3A92
330
1F
100
AcDbEntity
  8
SANINDUSA
100
AcDbLine
 10
1657.025386914813
 20
452.5877490796037
 30
0.0000000001555548
 11
1657.028205503484
 21
452.588171048686
 31
0.0000000001555548
  0
LINE
  5
3A93
330
1F
100
AcDbEntity
  8
SANINDUSA
100
AcDbLine
 10
1657.028205503484
 20
452.5810661605052
 30
0.0000000001555548
 11
1657.028264727214
 21
452.5814617518975
 31
0.0000000001555548
  0
ARC
  5
3A94
330
1F
100
AcDbEntity
  8
SANINDUSA
100
AcDbCircle
 10
1657.023686914813
 20
452.5814392921811
 30
0.0000000001555548
 40
0.0008
100
AcDbArc
 50
180.0
 51
261.4855215660213
  0
ARC
  5
3A95
330
1F
100
AcDbEntity
  8
SANINDUSA
100
AcDbCircle
 10
1657.034586914813
 20
452.5808186045956
 30
0.0000000001555548
 40
0.0003
100
AcDbArc
 50
261.4855215660213
 51
0.0
  0
ARC
  5
3A96
330
1F
100
AcDbEntity
  8
SANINDUSA
100
AcDbCircle
 10
1657.033844513984
 20
452.5799186045956
 30
0.0000000001555548
 40
0.0008
100
AcDbArc
 50
261.4855215660213
 51
270.0
  0
LINE
  5
3A97
330
1F
100
AcDbEntity
  8
SANINDUSA
100
AcDbLine
 10
1657.034542497015
 20
452.5805219110513
 30
0.0000000001555548
 11
1657.033386914813
 21
452.5806949125135
 31
0.0000000001555548
  0
LINE
  5
3A98
330
1F
100
AcDbEntity
  8
SANINDUSA
100
AcDbLine
 10
1657.028264727214
 20
452.5814617518975
 30
0.0000000001555548
 11
1657.032186914813
 21
452.5808745637354
 31
0.0000000001555548
  0
LINE
  5
3A99
330
1F
100
AcDbEntity
  8
SANINDUSA
100
AcDbLine
 10
1657.022886914813
 20
452.5819186045956
 30
0.0000000001555548
 11
1657.022886914813
 21
452.5814392921811
 31
0.0000000001555548
  0
LINE
  5
3A9A
330
1F
100
AcDbEntity
  8
SANINDUSA
100
AcDbLine
 10
1657.033726066522
 20
452.5791274218108
 30
0.0000000001555548
 11
1657.023568467351
 21
452.5806481093963
 31
0.0000000001555548
  0
LINE
  5
3A9B
330
1F
100
AcDbEntity
  8
SANINDUSA
100
AcDbLine
 10
1657.034886914813
 20
452.5884186045955
 30
0.0000000001555548
 11
1657.034886914813
 21
452.5808186045956
 31
0.0000000001555548
  0
LINE
  5
3A9C
330
1F
100
AcDbEntity
  8
SANINDUSA
100
AcDbLine
 10
1657.032186914813
 20
452.5815186045956
 30
0.0000000001555548
 11
1657.032186914813
 21
452.5808745637354
 31
0.0000000001555548
  0
LINE
  5
3A9D
330
1F
100
AcDbEntity
  8
SANINDUSA
100
AcDbLine
 10
1657.033386914813
 20
452.5815186045956
 30
0.0000000001555548
 11
1657.033386914813
 21
452.5806949125135
 31
0.0000000001555548
  0
LINE
  5
3A9E
330
1F
100
AcDbEntity
  8
SANINDUSA
100
AcDbLine
 10
1657.025386914813
 20
452.5814881295874
 30
0.0000000001555548
 11
1657.028205503484
 21
452.5810661605052
 31
0.0000000001555548
  0
LINE
  5
3A9F
330
1F
100
AcDbEntity
  8
SANINDUSA
100
AcDbLine
 10
1657.025683608357
 20
452.5814437117893
 30
0.0000000001555548
 11
1657.025935309214
 21
452.5831249752068
 31
0.0000000001555548
  0
LINE
  5
3AA0
330
1F
100
AcDbEntity
  8
SANINDUSA
100
AcDbLine
 10
1657.02607919975
 20
452.5813844880584
 30
0.0000000001555548
 11
1657.026330900606
 21
452.5830657514759
 31
0.0000000001555548
  0
LINE
  5
3AA1
330
1F
100
AcDbEntity
  8
SANINDUSA
100
AcDbLine
 10
1657.036386914813
 20
452.5901186045955
 30
0.0000000001555548
 11
1657.038644274126
 21
452.5901186045955
 31
0.0000000001555548
  0
ARC
  5
3AA2
330
1F
100
AcDbEntity
  8
SANINDUSA
100
AcDbCircle
 10
1657.038656695916
 20
452.5887685834584
 30
0.0000000001555548
 40
0.00075
100
AcDbArc
 50
89.8050089056486
 51
132.8322404964345
  0
ARC
  5
3AA3
330
1F
100
AcDbEntity
  8
SANINDUSA
100
AcDbCircle
 10
1657.037386914813
 20
452.5881186045956
 30
0.0000000001555548
 40
0.001
100
AcDbArc
 50
90.0
 51
180.0
  0
ARC
  5
3AA4
330
1F
100
AcDbEntity
  8
SANINDUSA
100
AcDbCircle
 10
1657.037636914813
 20
452.5898686045955
 30
0.0000000001555548
 40
0.00075
100
AcDbArc
 50
270.0
 51
312.8322404964346
  0
LINE
  5
3AA5
330
1F
100
AcDbEntity
  8
SANINDUSA
100
AcDbLine
 10
1657.037636914813
 20
452.5891186045956
 30
0.0000000001555548
 11
1657.037386914813
 21
452.5891186045956
 31
0.0000000001555548
  0
ARC
  5
3AA6
330
1F
100
AcDbEntity
  8
SANINDUSA
100
AcDbCircle
 10
1657.038644274126
 20
452.5851186045955
 30
0.0000000001555548
 40
0.005
100
AcDbArc
 50
45.0
 51
90.0
  0
LINE
  5
3AA7
330
1F
100
AcDbEntity
  8
SANINDUSA
100
AcDbLine
 10
1657.042302169138
 20
452.587683249257
 30
0.0000000001555548
 11
1657.041755543963
 21
452.5882298744328
 31
0.0000000001555548
  0
ARC
  5
3AA8
330
1F
100
AcDbEntity
  8
SANINDUSA
100
AcDbCircle
 10
1657.042867854563
 20
452.5871882745091
 30
0.0000000001555548
 40
0.0002
100
AcDbArc
 50
44.99999992630503
 51
134.9999998940635
  0
ARC
  5
3AA9
330
1F
100
AcDbEntity
  8
SANINDUSA
100
AcDbCircle
 10
1657.038644274126
 20
452.5851186045955
 30
0.0000000001555548
 40
0.0044
100
AcDbArc
 50
45.0
 51
89.8050089056486
  0
ARC
  5
3AAA
330
1F
100
AcDbEntity
  8
SANINDUSA
100
AcDbCircle
 10
1657.041701128376
 20
452.5855972842589
 30
0.0000000001555548
 40
0.00075
100
AcDbArc
 50
135.0
 51
225.0000000345445
  0
ARC
  5
3AAB
330
1F
100
AcDbEntity
  8
SANINDUSA
100
AcDbCircle
 10
1657.041701128376
 20
452.5855972842589
 30
0.0000000001555548
 40
0.0005
100
AcDbArc
 50
135.0
 51
225.0000000345445
  0
ARC
  5
3AAC
330
1F
100
AcDbEntity
  8
SANINDUSA
100
AcDbCircle
 10
1657.042090037104
 20
452.5874711172226
 30
0.0000000001555548
 40
0.0003
100
AcDbArc
 50
314.9999998894576
 51
45.0
  0
LINE
  5
3AAD
330
1F
100
AcDbEntity
  8
SANINDUSA
100
AcDbLine
 10
1657.042726433207
 20
452.5873296958656
 30
0.0000000001555548
 11
1657.041347574985
 21
452.5859508376495
 31
0.0000000001555548
  0
LINE
  5
3AAE
330
1F
100
AcDbEntity
  8
SANINDUSA
100
AcDbLine
 10
1657.042938565243
 20
452.5878953812902
 30
0.0000000001555548
 11
1657.04117079829
 21
452.5861276143451
 31
0.0000000001555548
  0
ARC
  5
3AAF
330
1F
100
AcDbEntity
  8
SANINDUSA
100
AcDbCircle
 10
1657.047464048646
 20
452.5820971056815
 30
0.0000000001555548
 40
0.0003
100
AcDbArc
 50
45.0
 51
134.9999999631525
  0
LINE
  5
3AB0
330
1F
100
AcDbEntity
  8
SANINDUSA
100
AcDbLine
 10
1657.047876864307
 20
452.5821085540892
 30
0.0000000001555548
 11
1657.04767618068
 21
452.5823092377159
 31
0.0000000001555548
  0
ARC
  5
3AB1
330
1F
100
AcDbEntity
  8
SANINDUSA
100
AcDbCircle
 10
1657.047181205934
 20
452.5828749231273
 30
0.0000000001555548
 40
0.0002
100
AcDbArc
 50
314.9999997029171
 51
44.99999993091097
  0
LINE
  5
3AB2
330
1F
100
AcDbEntity
  8
SANINDUSA
100
AcDbLine
 10
1657.048301128375
 20
452.5825328181579
 30
0.0000000001555548
 11
1657.042179808032
 21
452.5886541385015
 31
0.0000000001555548
  0
ARC
  5
3AB3
330
1F
100
AcDbEntity
  8
SANINDUSA
100
AcDbCircle
 10
1657.037386914813
 20
452.5811186045955
 30
0.0000000001555548
 40
0.001
100
AcDbArc
 50
180.0
 51
270.0
  0
LINE
  5
3AB4
330
1F
100
AcDbEntity
  8
SANINDUSA
100
AcDbLine
 10
1657.04732262729
 20
452.5830163444834
 30
0.0000000001555548
 11
1657.043009275919
 21
452.5873296958653
 31
0.0000000001555548
  0
ARC
  5
3AB5
330
1F
100
AcDbEntity
  8
SANINDUSA
100
AcDbCircle
 10
1657.042406718716
 20
452.5804686045956
 30
0.0000000001555548
 40
0.00075
100
AcDbArc
 50
227.166571937184
 51
270.0
  0
ARC
  5
3AB6
330
1F
100
AcDbEntity
  8
SANINDUSA
100
AcDbCircle
 10
1657.041386914813
 20
452.5793686045956
 30
0.0000000001555548
 40
0.00075
100
AcDbArc
 50
47.16657193718403
 51
90.0
  0
LINE
  5
3AB7
330
1F
100
AcDbEntity
  8
SANINDUSA
100
AcDbLine
 10
1657.037386914813
 20
452.5801186045955
 30
0.0000000001555548
 11
1657.041386914813
 21
452.5801186045955
 31
0.0000000001555548
  0
ARC
  5
3AB8
330
1F
100
AcDbEntity
  8
SANINDUSA
100
AcDbCircle
 10
1657.045590215678
 20
452.5817081969555
 30
0.0000000001555548
 40
0.00075
100
AcDbArc
 50
225.0
 51
315.0
  0
ARC
  5
3AB9
330
1F
100
AcDbEntity
  8
SANINDUSA
100
AcDbCircle
 10
1657.045590215678
 20
452.5817081969555
 30
0.0000000001555548
 40
0.0005
100
AcDbArc
 50
225.0
 51
315.0
  0
LINE
  5
3ABA
330
1F
100
AcDbEntity
  8
SANINDUSA
100
AcDbLine
 10
1657.036386914813
 20
452.5791186045956
 30
0.0000000001555548
 11
1657.046886914813
 21
452.5791186045956
 31
0.0000000001555548
  0
LINE
  5
3ABB
330
1F
100
AcDbEntity
  8
SANINDUSA
100
AcDbLine
 10
1657.042406718716
 20
452.5797186045956
 30
0.0000000001555548
 11
1657.046886914813
 21
452.5797186045956
 31
0.0000000001555548
  0
ARC
  5
3ABC
330
1F
100
AcDbEntity
  8
SANINDUSA
100
AcDbCircle
 10
1657.046886914813
 20
452.5811186045955
 30
0.0000000001555548
 40
0.002
100
AcDbArc
 50
270.0
 51
45.0
  0
LINE
  5
3ABD
330
1F
100
AcDbEntity
  8
SANINDUSA
100
AcDbLine
 10
1657.036386914813
 20
452.5881186045956
 30
0.0000000001555548
 11
1657.036386914813
 21
452.5811186045955
 31
0.0000000001555548
  0
LINE
  5
3ABE
330
1F
100
AcDbEntity
  8
SANINDUSA
100
AcDbLine
 10
1657.045059885592
 20
452.5811778668696
 30
0.0000000001555548
 11
1657.04117079829
 21
452.5850669541728
 31
0.0000000001555548
  0
LINE
  5
3ABF
330
1F
100
AcDbEntity
  8
SANINDUSA
100
AcDbLine
 10
1657.046682699454
 20
452.5820935739422
 30
0.0000000001555548
 11
1657.046682699454
 21
452.5836562723212
 31
0.0000000001555548
  0
ARC
  5
3AC0
330
1F
100
AcDbEntity
  8
SANINDUSA
100
AcDbCircle
 10
1657.046886914813
 20
452.5811186045955
 30
0.0000000001555548
 40
0.0014
100
AcDbArc
 50
270.0
 51
45.0
  0
LINE
  5
3AC1
330
1F
100
AcDbEntity
  8
SANINDUSA
100
AcDbLine
 10
1657.047888312715
 20
452.5829456338184
 30
0.0000000001555548
 11
1657.046120545764
 21
452.5811778668699
 31
0.0000000001555548
  0
LINE
  5
3AC2
330
1F
100
AcDbEntity
  8
SANINDUSA
100
AcDbLine
 10
1657.045095199454
 20
452.5814961063982
 30
0.0000000001555548
 11
1657.045095199454
 21
452.5852437723253
 31
0.0000000001555548
  0
LINE
  5
3AC3
330
1F
100
AcDbEntity
  8
SANINDUSA
100
AcDbLine
 10
1657.045888949454
 20
452.5813072504116
 30
0.0000000001555548
 11
1657.045888949454
 21
452.5844500223233
 31
0.0000000001555548
  0
LINE
  5
3AC4
330
1F
100
AcDbEntity
  8
SANINDUSA
100
AcDbLine
 10
1657.043507699454
 20
452.5830836063989
 30
0.0000000001555548
 11
1657.043507699454
 21
452.5868312723296
 31
0.0000000001555548
  0
LINE
  5
3AC5
330
1F
100
AcDbEntity
  8
SANINDUSA
100
AcDbLine
 10
1657.044301449454
 20
452.5822898563986
 30
0.0000000001555548
 11
1657.044301449454
 21
452.5860375223274
 31
0.0000000001555548
  0
LINE
  5
3AC6
330
1F
100
AcDbEntity
  8
SANINDUSA
100
AcDbLine
 10
1657.041920199454
 20
452.5846711063997
 30
0.0000000001555548
 11
1657.041920199454
 21
452.5865234621156
 31
0.0000000001555548
  0
LINE
  5
3AC7
330
1F
100
AcDbEntity
  8
SANINDUSA
100
AcDbLine
 10
1657.042713949454
 20
452.5838773563994
 30
0.0000000001555548
 11
1657.042713949454
 21
452.5873172121125
 31
0.0000000001555548
  0
LINE
  5
3AC8
330
1F
100
AcDbEntity
  8
SANINDUSA
100
AcDbLine
 10
1657.045236662287
 20
452.5813546435649
 30
0.0000000001555548
 11
1657.041347574986
 21
452.5852437308682
 31
0.0000000001555548
  0
LINE
  5
3AC9
330
1F
100
AcDbEntity
  8
SANINDUSA
100
AcDbLine
 10
1657.047322627289
 20
452.5827335017703
 30
0.0000000001555548
 11
1657.045943769069
 21
452.5813546435649
 31
0.0000000001555548
  0
LINE
  5
3ACA
330
1F
100
AcDbEntity
  8
SANINDUSA
100
AcDbLine
 10
1657.036386914813
 20
452.5901186045955
 30
0.0000000001555548
 11
1657.033844513984
 21
452.5901186045955
 31
0.0000000001555548
  0
LINE
  5
3ACB
330
1F
100
AcDbEntity
  8
SANINDUSA
100
AcDbLine
 10
1657.036386914813
 20
452.5791186045956
 30
0.0000000001555548
 11
1657.033844513984
 21
452.5791186045956
 31
0.0000000001555548
  0
ARC
  5
3ACC
330
1F
100
AcDbEntity
  8
SANINDUSA
100
AcDbCircle
 10
1657.044833522039
 20
452.60484226298
 30
0.0000000001555548
 40
0.0002
100
AcDbArc
 50
261.4855215660213
 51
81.4855215660212
  0
LINE
  5
3ACD
330
1F
100
AcDbEntity
  8
SANINDUSA
100
AcDbLine
 10
1657.04317745088
 20
452.6080884530766
 30
0.0000000001555548
 11
1657.043656763294
 21
452.6080884530766
 31
0.0000000001555548
  0
ARC
  5
3ACE
330
1F
100
AcDbEntity
  8
SANINDUSA
100
AcDbCircle
 10
1657.04317745088
 20
452.6072884530766
 30
0.0000000001555548
 40
0.0008
100
AcDbArc
 50
90.0
 51
171.4855215650568
  0
LINE
  5
3ACF
330
1F
100
AcDbEntity
  8
SANINDUSA
100
AcDbLine
 10
1657.043226288286
 20
452.6055884530766
 30
0.0000000001555548
 11
1657.043621879678
 21
452.6055292293457
 31
0.0000000001555548
  0
LINE
  5
3AD0
330
1F
100
AcDbEntity
  8
SANINDUSA
100
AcDbLine
 10
1657.04876006975
 20
452.6077440352785
 30
0.0000000001555548
 11
1657.04909164691
 21
452.6055292293457
 31
0.0000000001555548
  0
ARC
  5
3AD1
330
1F
100
AcDbEntity
  8
SANINDUSA
100
AcDbCircle
 10
1657.047880004548
 20
452.60484226298
 30
0.0000000001555548
 40
0.0002
100
AcDbArc
 50
98.51447843397879
 51
278.5144784339788
  0
ARC
  5
3AD2
330
1F
100
AcDbEntity
  8
SANINDUSA
100
AcDbCircle
 10
1657.049056763294
 20
452.6077884530765
 30
0.0000000001555548
 40
0.0003
100
AcDbArc
 50
90.0
 51
188.5144784349432
  0
LINE
  5
3AD3
330
1F
100
AcDbEntity
  8
SANINDUSA
100
AcDbLine
 10
1657.043181870488
 20
452.6052917595323
 30
0.0000000001555548
 11
1657.044863133905
 21
452.6050400586762
 31
0.0000000001555548
  0
LINE
  5
3AD4
330
1F
100
AcDbEntity
  8
SANINDUSA
100
AcDbLine
 10
1657.049487238302
 20
452.6055884530766
 30
0.0000000001555548
 11
1657.04909164691
 21
452.6055292293457
 31
0.0000000001555548
  0
ARC
  5
3AD5
330
1F
100
AcDbEntity
  8
SANINDUSA
100
AcDbCircle
 10
1657.043656763294
 20
452.6077884530765
 30
0.0000000001555548
 40
0.0003
100
AcDbArc
 50
351.4855215650568
 51
90.0
  0
LINE
  5
3AD6
330
1F
100
AcDbEntity
  8
SANINDUSA
100
AcDbLine
 10
1657.043122646757
 20
452.6048961681399
 30
0.0000000001555548
 11
1657.044803910174
 21
452.6046444672839
 31
0.0000000001555548
  0
LINE
  5
3AD7
330
1F
100
AcDbEntity
  8
SANINDUSA
100
AcDbLine
 10
1657.043953456838
 20
452.6077440352785
 30
0.0000000001555548
 11
1657.043621879678
 21
452.6055292293457
 31
0.0000000001555548
  0
ARC
  5
3AD8
330
1F
100
AcDbEntity
  8
SANINDUSA
100
AcDbCircle
 10
1657.042556763294
 20
452.5963884530765
 30
0.0000000001555548
 40
0.0003
100
AcDbArc
 50
171.4855215650568
 51
270.0
  0
LINE
  5
3AD9
330
1F
100
AcDbEntity
  8
SANINDUSA
100
AcDbLine
 10
1657.042433071212
 20
452.5975884530765
 30
0.0000000001555548
 11
1657.04226006975
 21
452.5964328708747
 31
0.0000000001555548
  0
LINE
  5
3ADA
330
1F
100
AcDbEntity
  8
SANINDUSA
100
AcDbLine
 10
1657.042804319203
 20
452.602769864406
 30
0.0000000001555548
 11
1657.043199910596
 21
452.6027106406752
 31
0.0000000001555548
  0
ARC
  5
3ADB
330
1F
100
AcDbEntity
  8
SANINDUSA
100
AcDbCircle
 10
1657.041656763294
 20
452.5971308539056
 30
0.0000000001555548
 40
0.0008
100
AcDbArc
 50
171.4855215650568
 51
180.0
  0
LINE
  5
3ADC
330
1F
100
AcDbEntity
  8
SANINDUSA
100
AcDbLine
 10
1657.042433071212
 20
452.5975884530765
 30
0.0000000001555548
 11
1657.043256763294
 21
452.5975884530765
 31
0.0000000001555548
  0
LINE
  5
3ADD
330
1F
100
AcDbEntity
  8
SANINDUSA
100
AcDbLine
 10
1657.043256763294
 20
452.5975884530765
 30
0.0000000001555548
 11
1657.043256763294
 21
452.5987884530766
 31
0.0000000001555548
  0
LINE
  5
3ADE
330
1F
100
AcDbEntity
  8
SANINDUSA
100
AcDbLine
 10
1657.042612722434
 20
452.5987884530766
 30
0.0000000001555548
 11
1657.043256763294
 21
452.5987884530766
 31
0.0000000001555548
  0
LINE
  5
3ADF
330
1F
100
AcDbEntity
  8
SANINDUSA
100
AcDbLine
 10
1657.043199910596
 20
452.6027106406752
 30
0.0000000001555548
 11
1657.042612722434
 21
452.5987884530766
 31
0.0000000001555548
  0
LINE
  5
3AE0
330
1F
100
AcDbEntity
  8
SANINDUSA
100
AcDbLine
 10
1657.049456763294
 20
452.5975884530765
 30
0.0000000001555548
 11
1657.049456763294
 21
452.5987884530766
 31
0.0000000001555548
  0
LINE
  5
3AE1
330
1F
100
AcDbEntity
  8
SANINDUSA
100
AcDbLine
 10
1657.042386268095
 20
452.6074069005382
 30
0.0000000001555548
 11
1657.040865580509
 21
452.5972493013674
 31
0.0000000001555548
  0
ARC
  5
3AE2
330
1F
100
AcDbEntity
  8
SANINDUSA
100
AcDbCircle
 10
1657.049536075708
 20
452.6072884530766
 30
0.0000000001555548
 40
0.0008
100
AcDbArc
 50
8.514478434943223
 51
90.0
  0
LINE
  5
3AE3
330
1F
100
AcDbEntity
  8
SANINDUSA
100
AcDbLine
 10
1657.043226288286
 20
452.6055884530766
 30
0.0000000001555548
 11
1657.042804319203
 21
452.602769864406
 31
0.0000000001555548
  0
LINE
  5
3AE4
330
1F
100
AcDbEntity
  8
SANINDUSA
100
AcDbLine
 10
1657.049909207384
 20
452.602769864406
 30
0.0000000001555548
 11
1657.049513615992
 21
452.6027106406752
 31
0.0000000001555548
  0
ARC
  5
3AE5
330
1F
100
AcDbEntity
  8
SANINDUSA
100
AcDbCircle
 10
1657.050156763294
 20
452.5963884530765
 30
0.0000000001555548
 40
0.0003
100
AcDbArc
 50
270.0
 51
8.514478434943223
  0
ARC
  5
3AE6
330
1F
100
AcDbEntity
  8
SANINDUSA
100
AcDbCircle
 10
1657.051056763294
 20
452.5971308539056
 30
0.0000000001555548
 40
0.0008
100
AcDbArc
 50
0.0
 51
8.514478434943223
  0
LINE
  5
3AE7
330
1F
100
AcDbEntity
  8
SANINDUSA
100
AcDbLine
 10
1657.050453456838
 20
452.5964328708747
 30
0.0000000001555548
 11
1657.050280455376
 21
452.5975884530765
 31
0.0000000001555548
  0
LINE
  5
3AE8
330
1F
100
AcDbEntity
  8
SANINDUSA
100
AcDbLine
 10
1657.049513615992
 20
452.6027106406752
 30
0.0000000001555548
 11
1657.050100804154
 21
452.5987884530766
 31
0.0000000001555548
  0
LINE
  5
3AE9
330
1F
100
AcDbEntity
  8
SANINDUSA
100
AcDbLine
 10
1657.042556763294
 20
452.5960884530766
 30
0.0000000001555548
 11
1657.050156763294
 21
452.5960884530766
 31
0.0000000001555548
  0
LINE
  5
3AEA
330
1F
100
AcDbEntity
  8
SANINDUSA
100
AcDbLine
 10
1657.051847946078
 20
452.5972493013674
 30
0.0000000001555548
 11
1657.050327258493
 21
452.6074069005382
 31
0.0000000001555548
  0
LINE
  5
3AEB
330
1F
100
AcDbEntity
  8
SANINDUSA
100
AcDbLine
 10
1657.049056763294
 20
452.6080884530766
 30
0.0000000001555548
 11
1657.049536075708
 21
452.6080884530766
 31
0.0000000001555548
  0
LINE
  5
3AEC
330
1F
100
AcDbEntity
  8
SANINDUSA
100
AcDbLine
 10
1657.049456763294
 20
452.5975884530765
 30
0.0000000001555548
 11
1657.050280455376
 21
452.5975884530765
 31
0.0000000001555548
  0
LINE
  5
3AED
330
1F
100
AcDbEntity
  8
SANINDUSA
100
AcDbLine
 10
1657.049456763294
 20
452.5987884530766
 30
0.0000000001555548
 11
1657.050100804154
 21
452.5987884530766
 31
0.0000000001555548
  0
LINE
  5
3AEE
330
1F
100
AcDbEntity
  8
SANINDUSA
100
AcDbLine
 10
1657.049487238302
 20
452.6055884530766
 30
0.0000000001555548
 11
1657.049909207384
 21
452.602769864406
 31
0.0000000001555548
  0
LINE
  5
3AEF
330
1F
100
AcDbEntity
  8
SANINDUSA
100
AcDbLine
 10
1657.049590879831
 20
452.6048961681399
 30
0.0000000001555548
 11
1657.047909616414
 21
452.6046444672839
 31
0.0000000001555548
  0
LINE
  5
3AF0
330
1F
100
AcDbEntity
  8
SANINDUSA
100
AcDbLine
 10
1657.0495316561
 20
452.6052917595323
 30
0.0000000001555548
 11
1657.047850392683
 21
452.6050400586762
 31
0.0000000001555548
  0
ARC
  5
3AF1
330
1F
100
AcDbEntity
  8
SANINDUSA
100
AcDbCircle
 10
1657.041106763294
 20
452.5933384530765
 30
0.0000000001555548
 40
0.00075
100
AcDbArc
 50
317.1677594987886
 51
0.0
  0
LINE
  5
3AF2
330
1F
100
AcDbEntity
  8
SANINDUSA
100
AcDbLine
 10
1657.040856763294
 20
452.5945884530766
 30
0.0000000001555548
 11
1657.040856763294
 21
452.5923310937637
 31
0.0000000001555548
  0
ARC
  5
3AF3
330
1F
100
AcDbEntity
  8
SANINDUSA
100
AcDbCircle
 10
1657.042856763294
 20
452.5935884530766
 30
0.0000000001555548
 40
0.001
100
AcDbArc
 50
90.0
 51
180.0
  0
ARC
  5
3AF4
330
1F
100
AcDbEntity
  8
SANINDUSA
100
AcDbCircle
 10
1657.042206784431
 20
452.5923186719737
 30
0.0000000001555548
 40
0.00075
100
AcDbArc
 50
137.1677594987886
 51
180.1949911008651
  0
LINE
  5
3AF5
330
1F
100
AcDbEntity
  8
SANINDUSA
100
AcDbLine
 10
1657.041856763294
 20
452.5933384530765
 30
0.0000000001555548
 11
1657.041856763294
 21
452.5935884530766
 31
0.0000000001555548
  0
LINE
  5
3AF6
330
1F
100
AcDbEntity
  8
SANINDUSA
100
AcDbLine
 10
1657.043292118633
 20
452.5886731987511
 30
0.0000000001555548
 11
1657.042745493457
 21
452.5892198239264
 31
0.0000000001555548
  0
ARC
  5
3AF7
330
1F
100
AcDbEntity
  8
SANINDUSA
100
AcDbCircle
 10
1657.045856763294
 20
452.5923310937637
 30
0.0000000001555548
 40
0.005
100
AcDbArc
 50
180.0
 51
225.0
  0
ARC
  5
3AF8
330
1F
100
AcDbEntity
  8
SANINDUSA
100
AcDbCircle
 10
1657.04378709338
 20
452.5881075133264
 30
0.0000000001555548
 40
0.0002
100
AcDbArc
 50
135.0000001082394
 51
225.000000073695
  0
ARC
  5
3AF9
330
1F
100
AcDbEntity
  8
SANINDUSA
100
AcDbCircle
 10
1657.045378083631
 20
452.5892742395135
 30
0.0000000001555548
 40
0.00075
100
AcDbArc
 50
44.99999996545549
 51
135.0
  0
ARC
  5
3AFA
330
1F
100
AcDbEntity
  8
SANINDUSA
100
AcDbCircle
 10
1657.045856763294
 20
452.5923310937637
 30
0.0000000001555548
 40
0.0044
100
AcDbArc
 50
180.1949911008651
 51
225.0
  0
ARC
  5
3AFB
330
1F
100
AcDbEntity
  8
SANINDUSA
100
AcDbCircle
 10
1657.045378083631
 20
452.5892742395135
 30
0.0000000001555548
 40
0.0005
100
AcDbArc
 50
44.99999996545549
 51
135.0
  0
ARC
  5
3AFC
330
1F
100
AcDbEntity
  8
SANINDUSA
100
AcDbCircle
 10
1657.043504250667
 20
452.5888853307854
 30
0.0000000001555548
 40
0.0003
100
AcDbArc
 50
225.0
 51
315.0000001105424
  0
LINE
  5
3AFD
330
1F
100
AcDbEntity
  8
SANINDUSA
100
AcDbLine
 10
1657.043079986599
 20
452.5880368026464
 30
0.0000000001555548
 11
1657.044847753544
 21
452.589804569599
 31
0.0000000001555548
  0
ARC
  5
3AFE
330
1F
100
AcDbEntity
  8
SANINDUSA
100
AcDbCircle
 10
1657.048878262208
 20
452.5835113192437
 30
0.0000000001555548
 40
0.0003
100
AcDbArc
 50
135.0000000368474
 51
225.0
  0
ARC
  5
3AFF
330
1F
100
AcDbEntity
  8
SANINDUSA
100
AcDbCircle
 10
1657.048100444762
 20
452.583794161956
 30
0.0000000001555548
 40
0.0002
100
AcDbArc
 50
225.000000069089
 51
315.0000002970828
  0
LINE
  5
3B00
330
1F
100
AcDbEntity
  8
SANINDUSA
100
AcDbLine
 10
1657.043645672024
 20
452.5882489346825
 30
0.0000000001555548
 11
1657.04502453024
 21
452.5896277929041
 31
0.0000000001555548
  0
LINE
  5
3B01
330
1F
100
AcDbEntity
  8
SANINDUSA
100
AcDbLine
 10
1657.048442549732
 20
452.5826742395142
 30
0.0000000001555548
 11
1657.042321229388
 21
452.5887955598578
 31
0.0000000001555548
  0
LINE
  5
3B02
330
1F
100
AcDbEntity
  8
SANINDUSA
100
AcDbLine
 10
1657.0488668138
 20
452.5830985035829
 30
0.0000000001555548
 11
1657.048666130174
 21
452.5832991872094
 31
0.0000000001555548
  0
ARC
  5
3B03
330
1F
100
AcDbEntity
  8
SANINDUSA
100
AcDbCircle
 10
1657.049856763294
 20
452.5935884530766
 30
0.0000000001555548
 40
0.001
100
AcDbArc
 50
0.0
 51
90.0
  0
LINE
  5
3B04
330
1F
100
AcDbEntity
  8
SANINDUSA
100
AcDbLine
 10
1657.050856763294
 20
452.5935884530766
 30
0.0000000001555548
 11
1657.050856763294
 21
452.5895884530766
 31
0.0000000001555548
  0
LINE
  5
3B05
330
1F
100
AcDbEntity
  8
SANINDUSA
100
AcDbLine
 10
1657.047959023406
 20
452.5836527405996
 30
0.0000000001555548
 11
1657.043645672024
 21
452.5879660919701
 31
0.0000000001555548
  0
ARC
  5
3B07
330
1F
100
AcDbEntity
  8
SANINDUSA
100
AcDbCircle
 10
1657.050506763294
 20
452.5885686491738
 30
0.0000000001555548
 40
0.00075
100
AcDbArc
 50
0.0
 51
42.83342806741861
  0
ARC
  5
3B08
330
1F
100
AcDbEntity
  8
SANINDUSA
100
AcDbCircle
 10
1657.051606763294
 20
452.5895884530766
 30
0.0000000001555548
 40
0.00075
100
AcDbArc
 50
180.0
 51
222.8334280674186
  0
ARC
  5
3B18
330
1F
100
AcDbEntity
  8
SANINDUSA
100
AcDbCircle
 10
1657.049267170934
 20
452.5853851522119
 30
0.0000000001555548
 40
0.00075
100
AcDbArc
 50
315.0
 51
45.0
  0
ARC
  5
3B1A
330
1F
100
AcDbEntity
  8
SANINDUSA
100
AcDbCircle
 10
1657.049267170934
 20
452.5853851522119
 30
0.0000000001555548
 40
0.0005
100
AcDbArc
 50
315.0
 51
45.0
  0
LINE
  5
3B22
330
1F
100
AcDbEntity
  8
SANINDUSA
100
AcDbLine
 10
1657.051856763294
 20
452.5945884530766
 30
0.0000000001555548
 11
1657.051856763294
 21
452.5840884530766
 31
0.0000000001555548
  0
LINE
  5
3B36
330
1F
100
AcDbEntity
  8
SANINDUSA
100
AcDbLine
 10
1657.051256763294
 20
452.5885686491738
 30
0.0000000001555548
 11
1657.051256763294
 21
452.5840884530766
 31
0.0000000001555548
  0
ARC
  5
3B39
330
1F
100
AcDbEntity
  8
SANINDUSA
100
AcDbCircle
 10
1657.049856763294
 20
452.5840884530766
 30
0.0000000001555548
 40
0.002
100
AcDbArc
 50
225.0
 51
0.0
  0
LINE
  5
3B4C
330
1F
100
AcDbEntity
  8
SANINDUSA
100
AcDbLine
 10
1657.04979750102
 20
452.5859154822978
 30
0.0000000001555548
 11
1657.045908413717
 21
452.5898045695992
 31
0.0000000001555548
  0
ARC
  5
3B51
330
1F
100
AcDbEntity
  8
SANINDUSA
100
AcDbCircle
 10
1657.049856763294
 20
452.5840884530766
 30
0.0000000001555548
 40
0.0014
100
AcDbArc
 50
225.0
 51
0.0
  0
LINE
  5
3B5F
330
1F
100
AcDbEntity
  8
SANINDUSA
100
AcDbLine
 10
1657.048029734071
 20
452.5830870551747
 30
0.0000000001555548
 11
1657.04979750102
 21
452.5848548221256
 31
0.0000000001555548
  0
LINE
  5
3B67
330
1F
100
AcDbEntity
  8
SANINDUSA
100
AcDbLine
 10
1657.042856763294
 20
452.5945884530766
 30
0.0000000001555548
 11
1657.049856763294
 21
452.5945884530766
 31
0.0000000001555548
  0
LINE
  5
3B71
330
1F
100
AcDbEntity
  8
SANINDUSA
100
AcDbLine
 10
1657.04630426149
 20
452.5890551684357
 30
0.0000000001555548
 11
1657.044451905774
 21
452.5890551684357
 31
0.0000000001555548
  0
LINE
  5
3B72
330
1F
100
AcDbEntity
  8
SANINDUSA
100
AcDbLine
 10
1657.04709801149
 20
452.5882614184356
 30
0.0000000001555548
 11
1657.043658155777
 21
452.5882614184356
 31
0.0000000001555548
  0
LINE
  5
3B73
330
1F
100
AcDbEntity
  8
SANINDUSA
100
AcDbLine
 10
1657.048685511491
 20
452.5866739184357
 30
0.0000000001555548
 11
1657.044937845562
 21
452.5866739184357
 31
0.0000000001555548
  0
LINE
  5
3B74
330
1F
100
AcDbEntity
  8
SANINDUSA
100
AcDbLine
 10
1657.04789176149
 20
452.5874676684357
 30
0.0000000001555548
 11
1657.04414409556
 21
452.5874676684357
 31
0.0000000001555548
  0
LINE
  5
3B75
330
1F
100
AcDbEntity
  8
SANINDUSA
100
AcDbLine
 10
1657.049479261491
 20
452.5858801684357
 30
0.0000000001555548
 11
1657.045731595564
 21
452.5858801684357
 31
0.0000000001555548
  0
LINE
  5
3B76
330
1F
100
AcDbEntity
  8
SANINDUSA
100
AcDbLine
 10
1657.048881793947
 20
452.5842926684357
 30
0.0000000001555548
 11
1657.047319095568
 21
452.5842926684357
 31
0.0000000001555548
  0
LINE
  5
3B7A
330
1F
100
AcDbEntity
  8
SANINDUSA
100
AcDbLine
 10
1657.049668117478
 20
452.5850864184357
 30
0.0000000001555548
 11
1657.046525345566
 21
452.5850864184357
 31
0.0000000001555548
  0
LINE
  5
3B80
330
1F
100
AcDbEntity
  8
SANINDUSA
100
AcDbLine
 10
1657.049620724325
 20
452.5857387056024
 30
0.0000000001555548
 11
1657.045731637022
 21
452.5896277929039
 31
0.0000000001555548
  0
LINE
  5
3B85
330
1F
100
AcDbEntity
  8
SANINDUSA
100
AcDbLine
 10
1657.048241866119
 20
452.5836527406005
 30
0.0000000001555548
 11
1657.049620724325
 21
452.5850315988212
 31
0.0000000001555548
  0
LINE
  5
3B8E
330
1F
100
AcDbEntity
  8
SANINDUSA
100
AcDbLine
 10
1657.040856763294
 20
452.5945884530766
 30
0.0000000001555548
 11
1657.040856763294
 21
452.5971308539056
 31
0.0000000001555548
  0
LINE
  5
3B9A
330
1F
100
AcDbEntity
  8
SANINDUSA
100
AcDbLine
 10
1657.051856763294
 20
452.5945884530766
 30
0.0000000001555548
 11
1657.051856763294
 21
452.5971308539056
 31
0.0000000001555548
  0
LINE
  5
3BD8
330
1F
100
AcDbEntity
  8
SANINDUSA
100
AcDbLine
 10
1656.434664264445
 20
452.5816186045956
 30
0.0000000001555548
 11
1657.034886914813
 21
452.5816186045956
 31
0.0000000001555548
  0
LINE
  5
3C22
330
1F
100
AcDbEntity
  8
SANINDUSA
100
AcDbLine
 10
1656.228859719229
 20
452.577618600786
 30
0.0000000001020975
 11
1656.273859719229
 21
452.577618600786
 31
0.0000000001020975
  0
LINE
  5
3C41
330
1F
100
AcDbEntity
  8
SANINDUSA
  6
Continuous
100
AcDbLine
 10
1656.119039571471
 20
452.581618600786
 30
0.0000000001476851
 11
1656.431664264445
 21
452.581618600786
 31
0.0000000001621895
  0
LINE
  5
3C50
330
1F
100
AcDbEntity
  8
SANINDUSA
100
AcDbLine
 10
1656.418164264445
 20
452.5782185484922
 30
0.000000000155555
 11
1656.433164310041
 21
452.5782185484922
 31
0.000000000155555
  0
LINE
  5
3C59
330
1F
100
AcDbEntity
  8
SANINDUSA
100
AcDbLine
 10
1656.366164264445
 20
452.5702185484918
 30
0.000000000155555
 11
1656.425164264445
 21
452.5702185484918
 31
0.000000000155555
  0
LINE
  5
3C5A
330
1F
100
AcDbEntity
  8
SANINDUSA
100
AcDbLine
 10
1656.442053153334
 20
452.5702185484924
 30
0.000000000155555
 11
1656.500164264445
 21
452.5702185484924
 31
0.000000000155555
  0
LINE
  5
3C64
330
1F
100
AcDbEntity
  8
SANINDUSA
100
AcDbLine
 10
1656.501164264445
 20
452.5804186007859
 30
0.0000000001555548
 11
1656.448164264445
 21
452.5804186007859
 31
0.0000000001555548
1001
GENIUS_GENREC_14
1002
{
1000
PYDIR
1011
1656.201882007366
1021
452.6747909105936
1031
0.000000000155555
1002
}
1002
{
1000
PXDIR
1011
1656.148882007366
1021
452.6737909105936
1031
0.000000000155555
1002
}
1002
{
1000
PORI
1011
1656.201882007366
1021
452.6737909105936
1031
0.000000000155555
1002
}
1002
{
1000
PINS
1011
1656.201882007366
1021
452.6737909105936
1031
0.000000000155555
1002
}
1002
{
1000
PINS2
1011
1656.148882007366
1021
452.6747909105936
1031
0.000000000155555
1002
}
1002
{
1000
C
1070
     1
1002
}
1001
GENIUS_GENODEF_13
1002
{
1000
HIER
1070
     0
1002
}
1002
{
1000
MANEDIT
1070
     0
1002
}
1002
{
1000
NOSEL
1070
     0
1002
}
1002
{
1000
BEHIND
1070
     0
1002
}
1002
{
1000
REACTOR
1002
}
1001
GENIUS_GENOBJ-N-REC_13
1002
{
1000
OWNER
1000
GEN
1002
}
  0
LINE
  5
3C7D
330
1F
100
AcDbEntity
  8
SANINDUSA
100
AcDbLine
 10
1656.501164264445
 20
452.580218600786
 30
0.000000000155555
 11
1656.448164264445
 21
452.580218600786
 31
0.000000000155555
  0
LINE
  5
3C90
330
1F
100
AcDbEntity
  8
SANINDUSA
100
AcDbLine
 10
1656.501164264445
 20
452.581418600786
 30
0.000000000155555
 11
1656.501164264445
 21
452.5804186007859
 31
0.000000000155555
1001
GENIUS_GENREC_14
1002
{
1000
PYDIR
1011
1656.501164264445
1021
452.581418600786
1031
0.000000000155555
1002
}
1002
{
1000
PXDIR
1011
1656.448164264445
1021
452.5804186007859
1031
0.000000000155555
1002
}
1002
{
1000
PORI
1011
1656.501164264445
1021
452.5804186007859
1031
0.000000000155555
1002
}
1002
{
1000
PINS
1011
1656.501164264445
1021
452.5804186007859
1031
0.000000000155555
1002
}
1002
{
1000
PINS2
1011
1656.448164264445
1021
452.581418600786
1031
0.000000000155555
1002
}
1002
{
1000
C
1070
     1
1002
}
1001
GENIUS_GENODEF_13
1002
{
1000
HIER
1070
     0
1002
}
1002
{
1000
MANEDIT
1070
     0
1002
}
1002
{
1000
NOSEL
1070
     0
1002
}
1002
{
1000
BEHIND
1070
     0
1002
}
1002
{
1000
REACTOR
1002
}
1001
GENIUS_GENOBJ-N-REC_13
1002
{
1000
OWNER
1000
GEN
1002
}
  0
LINE
  5
3C94
330
1F
100
AcDbEntity
  8
SANINDUSA
100
AcDbLine
 10
1656.501164264445
 20
452.580218600786
 30
0.000000000155555
 11
1656.501164264445
 21
452.5712185484924
 31
0.000000000155555
  0
ARC
  5
3CA6
330
1F
100
AcDbEntity
  8
SANINDUSA
100
AcDbCircle
 10
1656.500164264445
 20
452.5712185484924
 30
0.000000000155555
 40
0.001
100
AcDbArc
 50
270.0
 51
0.0
  0
LINE
  5
3CA8
330
1F
100
AcDbEntity
  8
SANINDUSA
100
AcDbLine
 10
1656.43450948637
 20
452.5790186045956
 30
0.0000000001555548
 11
1656.433516403791
 21
452.5790186045956
 31
0.0000000001555548
  0
ARC
  5
3CB9
330
1F
100
AcDbEntity
  8
SANINDUSA
100
AcDbCircle
 10
1656.438322622813
 20
452.5813686648318
 30
0.0000000001555548
 40
0.0005
100
AcDbArc
 50
189.3408341007842
 51
279.3408341082688
  0
LINE
  5
3CC1
330
1F
100
AcDbEntity
  8
SANINDUSA
100
AcDbLine
 10
1656.437829252667
 20
452.5812875112809
 30
0.0000000001555548
 11
1656.437795846144
 21
452.5814906050615
 31
0.0000000001555548
  0
ARC
  5
3CC8
330
1F
100
AcDbEntity
  8
SANINDUSA
100
AcDbCircle
 10
1656.437055790924
 20
452.5813688747352
 30
0.0000000001555548
 40
0.00075
100
AcDbArc
 50
9.340834100784213
 51
189.3408341007842
  0
LINE
  5
3CCD
330
1F
100
AcDbEntity
  8
SANINDUSA
100
AcDbLine
 10
1656.436315735705
 20
452.5812471444089
 30
0.0000000001555548
 11
1656.43635631248
 21
452.5810004593358
 31
0.0000000001555548
  0
LINE
  5
3CDB
330
1F
100
AcDbEntity
  8
SANINDUSA
100
AcDbLine
 10
1656.435944095885
 20
452.5804259356387
 30
0.0000000001555548
 11
1656.435361648706
 21
452.58033012997
 31
0.0000000001555548
  0
ARC
  5
3CDD
330
1F
100
AcDbEntity
  8
SANINDUSA
100
AcDbCircle
 10
1656.435862942334
 20
452.5809193057849
 30
0.0000000001555548
 40
0.0005
100
AcDbArc
 50
279.3408341082688
 51
9.340834100784213
  0
ARC
  5
3CE6
330
1F
100
AcDbEntity
  8
SANINDUSA
100
AcDbCircle
 10
1656.441116403791
 20
452.581524177376
 30
0.0000000001555548
 40
0.0006
100
AcDbArc
 50
231.1511489986566
 51
279.3408341082688
  0
ARC
  5
3CF1
330
1F
100
AcDbEntity
  8
SANINDUSA
100
AcDbCircle
 10
1656.441538162734
 20
452.5817881201168
 30
0.0000000001555548
 40
0.000175
100
AcDbArc
 50
82.00000000144234
 51
262.0000000014424
  0
ARC
  5
3CF8
330
1F
100
AcDbEntity
  8
SANINDUSA
100
AcDbCircle
 10
1656.440363682125
 20
452.580589613257
 30
0.0000000001555548
 40
0.0006000000000005
100
AcDbArc
 50
51.15114899865663
 51
99.34083410826886
  0
LINE
  5
3D0E
330
1F
100
AcDbEntity
  8
SANINDUSA
100
AcDbLine
 10
1656.440266297863
 20
452.5811816574324
 30
0.0000000001555548
 11
1656.438403776364
 21
452.5808752946856
 31
0.0000000001555548
  0
ARC
  5
3D1B
330
1F
100
AcDbEntity
  8
SANINDUSA
100
AcDbCircle
 10
1656.444928816821
 20
452.581340523894
 30
0.0000000001555548
 40
0.0006
100
AcDbArc
 50
99.34083410826886
 51
147.5305192063585
  0
ARC
  5
3D24
330
1F
100
AcDbEntity
  8
SANINDUSA
100
AcDbCircle
 10
1656.443916403791
 20
452.5819847442429
 30
0.0000000001555548
 40
0.0006000000000005
100
AcDbArc
 50
284.100891812822
 51
327.5305192063584
  0
ARC
  5
3D2E
330
1F
100
AcDbEntity
  8
SANINDUSA
100
AcDbCircle
 10
1656.443621626876
 20
452.5811671143662
 30
0.0000000001555548
 40
0.0004999999999883
100
AcDbArc
 50
28.12637396725337
 51
82.00000000144234
  0
LINE
  5
3D2F
330
1F
100
AcDbEntity
  8
SANINDUSA
100
AcDbLine
 10
1656.446516403791
 20
452.5815029702642
 30
0.0000000001555548
 11
1656.446516403791
 21
452.5822097258983
 31
0.0000000001555548
  0
LINE
  5
3D3C
330
1F
100
AcDbEntity
  8
SANINDUSA
100
AcDbLine
 10
1656.446516403791
 20
452.5822097258983
 30
0.0000000001555548
 11
1656.44483143256
 21
452.5819325680695
 31
0.0000000001555548
  0
ARC
  5
3D48
330
1F
100
AcDbEntity
  8
SANINDUSA
100
AcDbCircle
 10
1656.445916403791
 20
452.5815029702642
 30
0.0000000001555548
 40
0.0006
100
AcDbArc
 50
279.3408341082688
 51
0.0
  0
LINE
  5
3D49
330
1F
100
AcDbEntity
  8
SANINDUSA
100
AcDbLine
 10
1656.448164264445
 20
452.5804186007859
 30
0.000000000155555
 11
1656.448164264445
 21
452.581418600786
 31
0.000000000155555
1001
GENIUS_GENREC_14
1002
{
1000
PYDIR
1011
1656.501164264445
1021
452.581418600786
1031
0.000000000155555
1002
}
1002
{
1000
PXDIR
1011
1656.448164264445
1021
452.5804186007859
1031
0.000000000155555
1002
}
1002
{
1000
PORI
1011
1656.501164264445
1021
452.5804186007859
1031
0.000000000155555
1002
}
1002
{
1000
PINS
1011
1656.501164264445
1021
452.5804186007859
1031
0.000000000155555
1002
}
1002
{
1000
PINS2
1011
1656.448164264445
1021
452.581418600786
1031
0.000000000155555
1002
}
1002
{
1000
C
1070
     1
1002
}
1001
GENIUS_GENODEF_13
1002
{
1000
HIER
1070
     0
1002
}
1002
{
1000
MANEDIT
1070
     0
1002
}
1002
{
1000
NOSEL
1070
     0
1002
}
1002
{
1000
BEHIND
1070
     0
1002
}
1002
{
1000
REACTOR
1002
}
1001
GENIUS_GENOBJ-N-REC_13
1002
{
1000
OWNER
1000
GEN
1002
}
  0
LINE
  5
3D51
330
1F
100
AcDbEntity
  8
SANINDUSA
100
AcDbLine
 10
1656.443691213426
 20
452.5816622484006
 30
0.0000000001555548
 11
1656.441562518027
 21
452.5819614170289
 31
0.0000000001555548
  0
LINE
  5
3D55
330
1F
100
AcDbEntity
  8
SANINDUSA
100
AcDbLine
 10
1656.441513807441
 20
452.5816148232048
 30
0.0000000001555548
 11
1656.443590135797
 21
452.5813230142846
 31
0.0000000001555548
  0
LINE
  5
3D65
330
1F
100
AcDbEntity
  8
SANINDUSA
100
AcDbLine
 10
1656.448164264445
 20
452.580218600786
 30
0.000000000155555
 11
1656.448164264445
 21
452.578218600786
 31
0.000000000155555
  0
LINE
  5
3D66
330
1F
100
AcDbEntity
  8
SANINDUSA
100
AcDbLine
 10
1656.443590135797
 20
452.5813230142846
 30
0.0000000001555548
 11
1656.441213788052
 21
452.5809321332006
 31
0.0000000001555548
  0
LINE
  5
3D76
330
1F
100
AcDbEntity
  8
SANINDUSA
100
AcDbLine
 10
1656.43450948637
 20
452.5790186045956
 30
0.0000000001555548
 11
1656.446013788052
 21
452.5809109260888
 31
0.0000000001555548
  0
LINE
  5
3D7E
330
1F
100
AcDbEntity
  8
SANINDUSA
100
AcDbLine
 10
1656.448164264445
 20
452.578218600786
 30
0.000000000155555
 11
1656.433164264445
 21
452.5782185484924
 31
0.000000000155555
  0
ARC
  5
3D80
330
1F
100
AcDbEntity
  8
SANINDUSA
100
AcDbCircle
 10
1656.435264264445
 20
452.5809221741455
 30
0.0000000001555548
 40
0.0006
100
AcDbArc
 50
180.0
 51
279.3408341082688
  0
LINE
  5
3D90
330
1F
100
AcDbEntity
  8
SANINDUSA
100
AcDbLine
 10
1656.424275375556
 20
452.5702185484918
 30
0.000000000155555
 11
1656.424275375556
 21
452.5782185484922
 31
0.000000000155555
  0
LINE
  5
3D91
330
1F
100
AcDbEntity
  8
SANINDUSA
100
AcDbLine
 10
1656.442053153334
 20
452.5702185484924
 30
0.000000000155555
 11
1656.442053153334
 21
452.578218600786
 31
0.000000000155555
  0
CIRCLE
  5
3D9A
330
1F
100
AcDbEntity
  8
SANINDUSA
100
AcDbCircle
 10
1656.433164264445
 20
452.5702185484924
 30
0.000000000155555
 40
0.008
  0
LINE
  5
3DBD
330
1F
100
AcDbEntity
  8
SANINDUSA
100
AcDbLine
 10
1656.418164264445
 20
452.5802185484923
 30
0.000000000155555
 11
1656.365164264445
 21
452.5802185484923
 31
0.000000000155555
  0
LINE
  5
3DC7
330
1F
100
AcDbEntity
  8
SANINDUSA
100
AcDbLine
 10
1656.418164264445
 20
452.580318600786
 30
0.000000000155555
 11
1656.418164264445
 21
452.581318600786
 31
0.000000000155555
1001
GENIUS_GENREC_14
1002
{
1000
PYDIR
1011
1656.501164264445
1021
452.581318600786
1031
0.000000000155555
1002
}
1002
{
1000
PXDIR
1011
1656.448164264445
1021
452.580318600786
1031
0.000000000155555
1002
}
1002
{
1000
PORI
1011
1656.501164264445
1021
452.580318600786
1031
0.000000000155555
1002
}
1002
{
1000
PINS
1011
1656.501164264445
1021
452.580318600786
1031
0.000000000155555
1002
}
1002
{
1000
PINS2
1011
1656.448164264445
1021
452.581318600786
1031
0.000000000155555
1002
}
1002
{
1000
C
1070
     1
1002
}
1001
GENIUS_GENODEF_13
1002
{
1000
HIER
1070
     0
1002
}
1002
{
1000
MANEDIT
1070
     0
1002
}
1002
{
1000
NOSEL
1070
     0
1002
}
1002
{
1000
BEHIND
1070
     0
1002
}
1002
{
1000
REACTOR
1002
}
1001
GENIUS_GENOBJ-N-REC_13
1002
{
1000
OWNER
1000
GEN
1002
}
  0
LINE
  5
3DD9
330
1F
100
AcDbEntity
  8
SANINDUSA
100
AcDbLine
 10
1656.418164264445
 20
452.5782185484922
 30
0.000000000155555
 11
1656.418164264445
 21
452.5802185484923
 31
0.000000000155555
  0
LINE
  5
3DDD
330
1F
100
AcDbEntity
  8
SANINDUSA
100
AcDbLine
 10
1656.365164264445
 20
452.581318600786
 30
0.000000000155555
 11
1656.365164264445
 21
452.580318600786
 31
0.000000000155555
1001
GENIUS_GENREC_14
1002
{
1000
PYDIR
1011
1656.501164264445
1021
452.581318600786
1031
0.000000000155555
1002
}
1002
{
1000
PXDIR
1011
1656.448164264445
1021
452.580318600786
1031
0.000000000155555
1002
}
1002
{
1000
PORI
1011
1656.501164264445
1021
452.580318600786
1031
0.000000000155555
1002
}
1002
{
1000
PINS
1011
1656.501164264445
1021
452.580318600786
1031
0.000000000155555
1002
}
1002
{
1000
PINS2
1011
1656.448164264445
1021
452.581318600786
1031
0.000000000155555
1002
}
1002
{
1000
C
1070
     1
1002
}
1001
GENIUS_GENODEF_13
1002
{
1000
HIER
1070
     0
1002
}
1002
{
1000
MANEDIT
1070
     0
1002
}
1002
{
1000
NOSEL
1070
     0
1002
}
1002
{
1000
BEHIND
1070
     0
1002
}
1002
{
1000
REACTOR
1002
}
1001
GENIUS_GENOBJ-N-REC_13
1002
{
1000
OWNER
1000
GEN
1002
}
  0
LINE
  5
3DE4
330
1F
100
AcDbEntity
  8
SANINDUSA
100
AcDbLine
 10
1656.365164264445
 20
452.5802185484923
 30
0.000000000155555
 11
1656.365164264445
 21
452.5712185484918
 31
0.000000000155555
  0
ARC
  5
3DEF
330
1F
100
AcDbEntity
  8
SANINDUSA
100
AcDbCircle
 10
1656.366164264445
 20
452.5712185484918
 30
0.000000000155555
 40
0.001
100
AcDbArc
 50
180.0
 51
270.0
  0
LINE
  5
3E0B
330
1F
100
AcDbEntity
  8
SANINDUSA
100
AcDbLine
 10
1656.434664264445
 20
452.5876186045955
 30
0.0000000001555548
 11
1657.034886914813
 21
452.5876186045955
 31
0.0000000001555548
  0
LINE
  5
3E8B
330
1F
100
AcDbEntity
  8
SANINDUSA
100
AcDbLine
 10
1656.999014884012
 20
453.0271655200204
 30
0.0
 11
1656.792893257296
 21
453.2332871467363
 31
0.0
  0
LINE
  5
3E9B
330
1F
100
AcDbEntity
  8
SANINDUSA
100
AcDbLine
 10
1656.989822495856
 20
453.017973131865
 30
0.0
 11
1656.78370086914
 21
453.2240947585809
 31
0.0
  0
LINE
  5
3ECE
330
1F
100
AcDbEntity
  8
SANINDUSA
100
AcDbLine
 10
1657.018106767103
 20
452.989881248773
 30
0.0
 11
1657.035356767104
 21
452.989881248773
 31
0.0
  0
LINE
  5
3ED9
330
1F
100
AcDbEntity
  8
SANINDUSA
100
AcDbLine
 10
1657.018106767103
 20
453.007881248773
 30
0.0
 11
1657.035356767104
 21
453.007881248773
 31
0.0
  0
LINE
  5
3F0B
330
1F
100
AcDbEntity
  8
SANINDUSA
100
AcDbLine
 10
1657.035356767104
 20
453.021381248773
 30
0.0
 11
1657.035356767104
 21
452.976381248773
 31
0.0
  0
LINE
  5
3F13
330
1F
100
AcDbEntity
  8
SANINDUSA
100
AcDbLine
 10
1657.053356767104
 20
453.021381248773
 30
0.0
 11
1657.053356767104
 21
452.976381248773
 31
0.0
  0
LINE
  5
3F1B
330
1F
100
AcDbEntity
  8
SANINDUSA
100
AcDbLine
 10
1657.035356767104
 20
452.976381248773
 30
0.0
 11
1657.053356767104
 21
452.976381248773
 31
0.0
  0
LINE
  5
3F2D
330
1F
100
AcDbEntity
  8
SANINDUSA
100
AcDbLine
 10
1657.035356767104
 20
453.021381248773
 30
0.0
 11
1657.053356767104
 21
453.021381248773
 31
0.0
  0
LINE
  5
4121
330
1F
100
AcDbEntity
  8
SANINDUSA
100
AcDbLine
 10
1656.988761835684
 20
453.0169124716932
 30
0.0
 11
1656.998661330621
 21
453.0070129767566
 31
0.0
  0
LINE
  5
4132
330
1F
100
AcDbEntity
  8
SANINDUSA
100
AcDbLine
 10
1657.000075544183
 20
453.0282261801922
 30
0.0
 11
1656.988761835684
 21
453.0169124716932
 31
0.0
  0
LINE
  5
413A
330
1F
100
AcDbEntity
  8
SANINDUSA
100
AcDbLine
 10
1657.000075544183
 20
453.0055987631942
 30
0.0
 11
1657.009534436907
 21
452.9961398704709
 31
0.0
  0
LINE
  5
4144
330
1F
100
AcDbEntity
  8
SANINDUSA
100
AcDbLine
 10
1657.011389252682
 20
453.0169124716932
 30
0.0
 11
1657.000075544183
 21
453.0055987631942
 31
0.0
  0
LINE
  5
4145
330
1F
100
AcDbEntity
  8
SANINDUSA
100
AcDbLine
 10
1657.011389252682
 20
453.0169124716932
 30
0.0
 11
1657.020420475603
 21
453.007881248773
 31
0.0
  0
LINE
  5
414E
330
1F
100
AcDbEntity
  8
SANINDUSA
100
AcDbLine
 10
1657.00997503912
 20
453.0183266852557
 30
0.0
 11
1656.998661330621
 21
453.0070129767566
 31
0.0
  0
LINE
  5
414F
330
1F
100
AcDbEntity
  8
SANINDUSA
100
AcDbLine
 10
1657.001843311136
 20
453.0073665301472
 30
0.0
 11
1657.000429097574
 21
453.0087807437096
 31
0.0
  0
LINE
  5
4150
330
1F
100
AcDbEntity
  8
SANINDUSA
100
AcDbLine
 10
1657.009621485729
 20
453.0151447047402
 30
0.0
 11
1657.008207272167
 21
453.0165589183027
 31
0.0
  0
LINE
  5
4151
330
1F
100
AcDbEntity
  8
SANINDUSA
100
AcDbLine
 10
1657.021076767104
 20
452.9988812487729
 30
0.0
 11
1657.019349823219
 21
452.9992206224219
 31
0.0
  0
LINE
  5
4152
330
1F
100
AcDbEntity
  8
SANINDUSA
100
AcDbLine
 10
1657.019349823219
 20
452.9992206224219
 30
0.0
 11
1657.01901044957
 21
452.9988812487729
 31
0.0
  0
LINE
  5
4153
330
1F
100
AcDbEntity
  8
SANINDUSA
100
AcDbLine
 10
1657.000075544183
 20
453.0282261801922
 30
0.0
 11
1657.00997503912
 21
453.0183266852557
 31
0.0
  0
LINE
  5
4154
330
1F
100
AcDbEntity
  8
SANINDUSA
100
AcDbLine
 10
1657.019349823219
 20
452.998541875124
 30
0.0
 11
1657.021076767104
 21
452.9988812487729
 31
0.0
  0
LINE
  5
4155
330
1F
100
AcDbEntity
  8
SANINDUSA
100
AcDbLine
 10
1657.021076767104
 20
452.9988812487729
 30
0.0
 11
1657.01901044957
 21
452.9988812487729
 31
0.0
  0
LINE
  5
4156
330
1F
100
AcDbEntity
  8
SANINDUSA
100
AcDbLine
 10
1657.01901044957
 20
452.9988812487729
 30
0.0
 11
1657.019349823219
 21
452.998541875124
 31
0.0
  0
LINE
  5
4157
330
1F
100
AcDbEntity
  8
SANINDUSA
100
AcDbLine
 10
1657.015136767103
 20
452.9988812487729
 30
0.0
 11
1657.016863710988
 21
452.998541875124
 31
0.0
  0
LINE
  5
4158
330
1F
100
AcDbEntity
  8
SANINDUSA
100
AcDbLine
 10
1657.015136767103
 20
452.9988812487729
 30
0.0
 11
1657.017203084637
 21
452.9988812487729
 31
0.0
  0
LINE
  5
4159
330
1F
100
AcDbEntity
  8
SANINDUSA
100
AcDbLine
 10
1657.016863710988
 20
452.998541875124
 30
0.0
 11
1657.017203084637
 21
452.9988812487729
 31
0.0
  0
LINE
  5
415A
330
1F
100
AcDbEntity
  8
SANINDUSA
100
AcDbLine
 10
1657.016863710988
 20
452.9992206224219
 30
0.0
 11
1657.015136767103
 21
452.9988812487729
 31
0.0
  0
LINE
  5
415B
330
1F
100
AcDbEntity
  8
SANINDUSA
100
AcDbLine
 10
1657.017203084637
 20
452.9988812487729
 30
0.0
 11
1657.016863710988
 21
452.9992206224219
 31
0.0
  0
LINE
  5
415C
330
1F
100
AcDbEntity
  8
SANINDUSA
100
AcDbLine
 10
1657.018106767103
 20
452.995911248773
 30
0.0
 11
1657.018446140753
 21
452.9976381926577
 31
0.0
  0
LINE
  5
415D
330
1F
100
AcDbEntity
  8
SANINDUSA
100
AcDbLine
 10
1657.018106767103
 20
452.995911248773
 30
0.0
 11
1657.018106767103
 21
452.9979775663066
 31
0.0
  0
LINE
  5
415E
330
1F
100
AcDbEntity
  8
SANINDUSA
100
AcDbLine
 10
1657.018446140753
 20
452.9976381926577
 30
0.0
 11
1657.018106767103
 21
452.9979775663066
 31
0.0
  0
LINE
  5
415F
330
1F
100
AcDbEntity
  8
SANINDUSA
100
AcDbLine
 10
1657.018106767103
 20
452.9979775663066
 30
0.0
 11
1657.017767393455
 21
452.9976381926577
 31
0.0
  0
LINE
  5
4160
330
1F
100
AcDbEntity
  8
SANINDUSA
100
AcDbLine
 10
1657.017767393455
 20
452.9976381926577
 30
0.0
 11
1657.018106767103
 21
452.995911248773
 31
0.0
  0
LINE
  5
4161
330
1F
100
AcDbEntity
  8
SANINDUSA
100
AcDbLine
 10
1657.018106767103
 20
453.0018512487729
 30
0.0
 11
1657.018106767103
 21
452.9997849312393
 31
0.0
  0
LINE
  5
4162
330
1F
100
AcDbEntity
  8
SANINDUSA
100
AcDbLine
 10
1657.018106767103
 20
453.0018512487729
 30
0.0
 11
1657.017767393455
 21
453.0001243048883
 31
0.0
  0
LINE
  5
4163
330
1F
100
AcDbEntity
  8
SANINDUSA
100
AcDbLine
 10
1657.018446140753
 20
453.0001243048883
 30
0.0
 11
1657.018106767103
 21
453.0018512487729
 31
0.0
  0
LINE
  5
4164
330
1F
100
AcDbEntity
  8
SANINDUSA
100
AcDbLine
 10
1657.017767393455
 20
453.0001243048883
 30
0.0
 11
1657.018106767103
 21
452.9997849312393
 31
0.0
  0
LINE
  5
4165
330
1F
100
AcDbEntity
  8
SANINDUSA
100
AcDbLine
 10
1657.018106767103
 20
452.9997849312393
 30
0.0
 11
1657.018446140753
 21
453.0001243048883
 31
0.0
  0
LINE
  5
4166
330
1F
100
AcDbEntity
  8
SANINDUSA
100
AcDbLine
 10
1657.019349823219
 20
452.9992206224219
 30
0.0
 11
1657.020658715477
 21
453.0005295146799
 31
0.0
  0
LINE
  5
4167
330
1F
100
AcDbEntity
  8
SANINDUSA
100
AcDbLine
 10
1657.016863710988
 20
452.998541875124
 30
0.0
 11
1657.01555481873
 21
452.9972329828661
 31
0.0
  0
LINE
  5
4168
330
1F
100
AcDbEntity
  8
SANINDUSA
100
AcDbLine
 10
1657.018446140753
 20
452.9976381926577
 30
0.0
 11
1657.019755033011
 21
452.9963293003997
 31
0.0
  0
LINE
  5
4169
330
1F
100
AcDbEntity
  8
SANINDUSA
100
AcDbLine
 10
1657.018106767103
 20
452.9979775663066
 30
0.0
 11
1657.01901044957
 21
452.9988812487729
 31
0.0
  0
LINE
  5
416A
330
1F
100
AcDbEntity
  8
SANINDUSA
100
AcDbLine
 10
1657.017767393455
 20
453.0001243048883
 30
0.0
 11
1657.016458501196
 21
453.0014331971463
 31
0.0
  0
LINE
  5
416B
330
1F
100
AcDbEntity
  8
SANINDUSA
100
AcDbLine
 10
1657.016458501196
 20
452.9963293003997
 30
0.0
 11
1657.017767393455
 21
452.9976381926577
 31
0.0
  0
LINE
  5
416C
330
1F
100
AcDbEntity
  8
SANINDUSA
100
AcDbLine
 10
1657.018106767103
 20
452.9988812487729
 30
0.0
 11
1657.018106767103
 21
452.9979775663066
 31
0.0
  0
LINE
  5
416D
330
1F
100
AcDbEntity
  8
SANINDUSA
100
AcDbLine
 10
1657.018106767103
 20
452.9997849312393
 30
0.0
 11
1657.017203084637
 21
452.9988812487729
 31
0.0
  0
LINE
  5
416E
330
1F
100
AcDbEntity
  8
SANINDUSA
100
AcDbLine
 10
1657.019755033011
 20
453.0014331971463
 30
0.0
 11
1657.018446140753
 21
453.0001243048883
 31
0.0
  0
LINE
  5
416F
330
1F
100
AcDbEntity
  8
SANINDUSA
100
AcDbLine
 10
1657.018558608337
 20
452.9984294075398
 30
0.0
 11
1657.018106767103
 21
452.9988812487729
 31
0.0
  0
LINE
  5
4170
330
1F
100
AcDbEntity
  8
SANINDUSA
100
AcDbLine
 10
1657.01555481873
 20
452.9972329828661
 30
0.0
 11
1657.016458501196
 21
452.9963293003997
 31
0.0
  0
LINE
  5
4171
330
1F
100
AcDbEntity
  8
SANINDUSA
100
AcDbLine
 10
1657.018106767103
 20
452.9979775663066
 30
0.0
 11
1657.017203084637
 21
452.9988812487729
 31
0.0
  0
LINE
  5
4172
330
1F
100
AcDbEntity
  8
SANINDUSA
100
AcDbLine
 10
1657.017203084637
 20
452.9988812487729
 30
0.0
 11
1657.018106767103
 21
452.9988812487729
 31
0.0
  0
LINE
  5
4173
330
1F
100
AcDbEntity
  8
SANINDUSA
100
AcDbLine
 10
1657.01901044957
 20
452.9988812487729
 30
0.0
 11
1657.018106767103
 21
452.9988812487729
 31
0.0
  0
LINE
  5
4174
330
1F
100
AcDbEntity
  8
SANINDUSA
100
AcDbLine
 10
1657.018106767103
 20
452.9988812487729
 30
0.0
 11
1657.017654925871
 21
452.9993330900062
 31
0.0
  0
LINE
  5
4175
330
1F
100
AcDbEntity
  8
SANINDUSA
100
AcDbLine
 10
1657.018106767103
 20
452.9988812487729
 30
0.0
 11
1657.018106767103
 21
452.9997849312393
 31
0.0
  0
LINE
  5
4176
330
1F
100
AcDbEntity
  8
SANINDUSA
100
AcDbLine
 10
1657.020658715477
 20
453.0005295146799
 30
0.0
 11
1657.019755033011
 21
453.0014331971463
 31
0.0
  0
LINE
  5
4177
330
1F
100
AcDbEntity
  8
SANINDUSA
100
AcDbLine
 10
1657.018106767103
 20
452.9997849312393
 30
0.0
 11
1657.01901044957
 21
452.9988812487729
 31
0.0
  0
LINE
  5
4178
330
1F
100
AcDbEntity
  8
SANINDUSA
100
AcDbLine
 10
1657.01555481873
 20
453.0005295146799
 30
0.0
 11
1657.016863710988
 21
452.9992206224219
 31
0.0
  0
LINE
  5
4179
330
1F
100
AcDbEntity
  8
SANINDUSA
100
AcDbLine
 10
1657.018106767103
 20
452.9988812487729
 30
0.0
 11
1657.018558608337
 21
452.9993330900062
 31
0.0
  0
LINE
  5
417A
330
1F
100
AcDbEntity
  8
SANINDUSA
100
AcDbLine
 10
1657.016458501196
 20
453.0014331971463
 30
0.0
 11
1657.01555481873
 21
453.0005295146799
 31
0.0
  0
LINE
  5
417B
330
1F
100
AcDbEntity
  8
SANINDUSA
100
AcDbLine
 10
1657.020658715477
 20
452.9972329828661
 30
0.0
 11
1657.019349823219
 21
452.998541875124
 31
0.0
  0
LINE
  5
417C
330
1F
100
AcDbEntity
  8
SANINDUSA
100
AcDbLine
 10
1657.019755033011
 20
452.9963293003997
 30
0.0
 11
1657.020658715477
 21
452.9972329828661
 31
0.0
  0
LINE
  5
417D
330
1F
100
AcDbEntity
  8
SANINDUSA
100
AcDbLine
 10
1657.017654925871
 20
452.9984294075398
 30
0.0
 11
1657.018106767103
 21
452.9988812487729
 31
0.0
  0
CIRCLE
  5
417E
330
1F
100
AcDbEntity
  8
SANINDUSA
100
AcDbCircle
 10
1657.018106767103
 20
452.9988812487729
 30
0.0
 40
0.005085
  0
ARC
  5
417F
330
1F
100
AcDbEntity
  8
SANINDUSA
100
AcDbCircle
 10
1657.018106767103
 20
452.9988812487729
 30
0.0
 40
0.009
100
AcDbArc
 50
90.0
 51
270.0
  0
LINE
  5
4180
330
1F
100
AcDbEntity
  8
SANINDUSA
100
AcDbLine
 10
1657.016339000151
 20
453.011962724225
 30
0.0
 11
1657.005025291651
 21
453.0006490157259
 31
0.0
  0
LINE
  5
4182
330
1F
100
AcDbEntity
  8
SANINDUSA
100
AcDbLine
 10
1657.042356767103
 20
453.2113400940379
 30
0.0
 11
1657.042356767103
 21
453.214028707188
 31
0.0
  0
ARC
  5
4183
330
1F
100
AcDbEntity
  8
SANINDUSA
100
AcDbCircle
 10
1657.042856767104
 20
453.2113400940379
 30
0.0
 40
0.0005000000000001
100
AcDbArc
 50
180.0
 51
246.4218215275185
  0
ARC
  5
4184
330
1F
100
AcDbEntity
  8
SANINDUSA
100
AcDbCircle
 10
1657.042856767104
 20
453.214028707188
 30
0.0
 40
0.0005
100
AcDbArc
 50
109.471220638017
 51
180.0
  0
ARC
  5
4185
330
1F
100
AcDbEntity
  8
SANINDUSA
100
AcDbCircle
 10
1657.042256767104
 20
453.2099653213294
 30
0.0
 40
0.0009999999999999
100
AcDbArc
 50
270.0
 51
66.42182152751846
  0
ARC
  5
4186
330
1F
100
AcDbEntity
  8
SANINDUSA
100
AcDbCircle
 10
1657.042356767103
 20
453.2154429207505
 30
0.0
 40
0.001
100
AcDbArc
 50
289.471220638017
 51
70.52877936198294
  0
ARC
  5
4187
330
1F
100
AcDbEntity
  8
SANINDUSA
100
AcDbCircle
 10
1657.042856767104
 20
453.2168571343128
 30
0.0
 40
0.0004999999999999
100
AcDbArc
 50
180.0
 51
250.528779361983
  0
ARC
  5
4188
330
1F
100
AcDbEntity
  8
SANINDUSA
100
AcDbCircle
 10
1657.041356767103
 20
453.2099653213294
 30
0.0
 40
0.0009999999999999
100
AcDbArc
 50
180.0
 51
270.0
  0
LINE
  5
4189
330
1F
100
AcDbEntity
  8
SANINDUSA
100
AcDbLine
 10
1657.042256767104
 20
453.2089653213294
 30
0.0
 11
1657.041356767103
 21
453.2089653213294
 31
0.0
  0
LINE
  5
418A
330
1F
100
AcDbEntity
  8
SANINDUSA
100
AcDbLine
 10
1657.042356767103
 20
453.2168571343128
 30
0.0
 11
1657.042356767103
 21
453.2184432975695
 31
0.0
  0
ARC
  5
418B
330
1F
100
AcDbEntity
  8
SANINDUSA
100
AcDbCircle
 10
1657.042856767104
 20
453.2184432975695
 30
0.0
 40
0.0005
100
AcDbArc
 50
90.0
 51
180.0
  0
LINE
  5
418C
330
1F
100
AcDbEntity
  8
SANINDUSA
100
AcDbLine
 10
1657.040356767103
 20
453.2099653213294
 30
0.0
 11
1657.040356767103
 21
453.2414653213294
 31
0.0
  0
LINE
  5
418D
330
1F
100
AcDbEntity
  8
SANINDUSA
100
AcDbLine
 10
1657.042856767104
 20
453.2189432975695
 30
0.0
 11
1657.049856767104
 21
453.2189432975695
 31
0.0
  0
LINE
  5
418E
330
1F
100
AcDbEntity
  8
SANINDUSA
100
AcDbLine
 10
1657.042356767103
 20
453.2414653213294
 30
0.0
 11
1657.042356767103
 21
453.2214432975695
 31
0.0
  0
ARC
  5
418F
330
1F
100
AcDbEntity
  8
SANINDUSA
100
AcDbCircle
 10
1657.041356767103
 20
453.2414653213294
 30
0.0
 40
0.001
100
AcDbArc
 50
0.0
 51
180.0
  0
ARC
  5
4190
330
1F
100
AcDbEntity
  8
SANINDUSA
100
AcDbCircle
 10
1657.042856767104
 20
453.2214432975695
 30
0.0
 40
0.0005000000000001
100
AcDbArc
 50
180.0
 51
270.0
  0
ARC
  5
4191
330
1F
100
AcDbEntity
  8
SANINDUSA
100
AcDbCircle
 10
1657.049856767104
 20
453.2184432975695
 30
0.0
 40
0.0005
100
AcDbArc
 50
0.0
 51
90.0
  0
LINE
  5
4192
330
1F
100
AcDbEntity
  8
SANINDUSA
100
AcDbLine
 10
1657.050356767103
 20
453.2184432975695
 30
0.0
 11
1657.050356767103
 21
453.2168571343128
 31
0.0
  0
LINE
  5
4193
330
1F
100
AcDbEntity
  8
SANINDUSA
100
AcDbLine
 10
1657.042856767104
 20
453.2209432975695
 30
0.0
 11
1657.049856767104
 21
453.2209432975695
 31
0.0
  0
ARC
  5
4194
330
1F
100
AcDbEntity
  8
SANINDUSA
100
AcDbCircle
 10
1657.049856767104
 20
453.2168571343128
 30
0.0
 40
0.0005
100
AcDbArc
 50
289.471220638017
 51
0.0
  0
ARC
  5
4195
330
1F
100
AcDbEntity
  8
SANINDUSA
100
AcDbCircle
 10
1657.049856767104
 20
453.2214432975695
 30
0.0
 40
0.0005000000000001
100
AcDbArc
 50
270.0
 51
0.0
  0
LINE
  5
4196
330
1F
100
AcDbEntity
  8
SANINDUSA
100
AcDbLine
 10
1657.050356767103
 20
453.2214432975695
 30
0.0
 11
1657.050356767103
 21
453.2414653213294
 31
0.0
  0
ARC
  5
4197
330
1F
100
AcDbEntity
  8
SANINDUSA
100
AcDbCircle
 10
1657.050356767103
 20
453.2154429207505
 30
0.0
 40
0.001
100
AcDbArc
 50
109.471220638017
 51
250.528779361983
  0
ARC
  5
4198
330
1F
100
AcDbEntity
  8
SANINDUSA
100
AcDbCircle
 10
1657.049856767104
 20
453.214028707188
 30
0.0
 40
0.0005
100
AcDbArc
 50
0.0
 51
70.52877936198294
  0
ARC
  5
4199
330
1F
100
AcDbEntity
  8
SANINDUSA
100
AcDbCircle
 10
1657.051356767103
 20
453.2414653213294
 30
0.0
 40
0.001
100
AcDbArc
 50
0.0
 51
180.0
  0
LINE
  5
419A
330
1F
100
AcDbEntity
  8
SANINDUSA
100
AcDbLine
 10
1657.050356767103
 20
453.214028707188
 30
0.0
 11
1657.050356767103
 21
453.2113400940379
 31
0.0
  0
ARC
  5
419B
330
1F
100
AcDbEntity
  8
SANINDUSA
100
AcDbCircle
 10
1657.049856767104
 20
453.2113400940379
 30
0.0
 40
0.0005000000000001
100
AcDbArc
 50
293.5781784724816
 51
0.0
  0
LINE
  5
419C
330
1F
100
AcDbEntity
  8
SANINDUSA
100
AcDbLine
 10
1657.052356767104
 20
453.2414653213294
 30
0.0
 11
1657.052356767104
 21
453.2099653213294
 31
0.0
  0
ARC
  5
419D
330
1F
100
AcDbEntity
  8
SANINDUSA
100
AcDbCircle
 10
1657.051356767103
 20
453.2099653213294
 30
0.0
 40
0.0010000000000001
100
AcDbArc
 50
270.0
 51
0.0
  0
LINE
  5
419E
330
1F
100
AcDbEntity
  8
SANINDUSA
100
AcDbLine
 10
1657.051356767103
 20
453.2089653213294
 30
0.0
 11
1657.050456767104
 21
453.2089653213294
 31
0.0
  0
ARC
  5
419F
330
1F
100
AcDbEntity
  8
SANINDUSA
100
AcDbCircle
 10
1657.050456767104
 20
453.2099653213294
 30
0.0
 40
0.0009999999999999
100
AcDbArc
 50
113.5781784724815
 51
270.0
  0
LINE
  5
41A0
330
1F
100
AcDbEntity
  8
SANINDUSA
100
AcDbLine
 10
1657.061583262338
 20
453.2633153213294
 30
0.0
 11
1657.037656767103
 21
453.2633153213294
 31
0.0
  0
LINE
  5
41A1
330
1F
100
AcDbEntity
  8
SANINDUSA
100
AcDbLine
 10
1657.037656767103
 20
453.2623153213294
 30
0.0
 11
1657.037656767103
 21
453.2633153213294
 31
0.0
  0
LINE
  5
41A2
330
1F
100
AcDbEntity
  8
SANINDUSA
100
AcDbLine
 10
1657.061583262338
 20
453.2633153213294
 30
0.0
 11
1657.061583262338
 21
453.2623164404169
 31
0.0
  0
ARC
  5
41A3
330
1F
100
AcDbEntity
  8
SANINDUSA
100
AcDbCircle
 10
1657.060583262338
 20
453.2623164404169
 30
0.0
 40
0.0009999999999999
100
AcDbArc
 50
270.5340991041886
 51
0.0
  0
ARC
  5
41A4
330
1F
100
AcDbEntity
  8
SANINDUSA
100
AcDbCircle
 10
1657.038656767104
 20
453.2623153213294
 30
0.0
 40
0.0009999999999999
100
AcDbArc
 50
180.0
 51
270.0
  0
LINE
  5
41A5
330
1F
100
AcDbEntity
  8
SANINDUSA
100
AcDbLine
 10
1657.039642553541
 20
453.2613153213294
 30
0.0
 11
1657.038656767104
 21
453.2613153213294
 31
0.0
  0
LINE
  5
41A6
330
1F
100
AcDbEntity
  8
SANINDUSA
100
AcDbLine
 10
1657.060592583992
 20
453.2613164838645
 30
0.0
 11
1657.059864240505
 21
453.2613096942042
 31
0.0
  0
ARC
  5
41A7
330
1F
100
AcDbEntity
  8
SANINDUSA
100
AcDbCircle
 10
1657.039642553541
 20
453.2599653213294
 30
0.0
 40
0.0013499999999998
100
AcDbArc
 50
45.0
 51
90.0
  0
ARC
  5
41A8
330
1F
100
AcDbEntity
  8
SANINDUSA
100
AcDbCircle
 10
1657.059876824736
 20
453.2599597528584
 30
0.0
 40
0.00135
100
AcDbArc
 50
90.53409910418862
 51
135.0893040480139
  0
LINE
  5
41A9
330
1F
100
AcDbEntity
  8
SANINDUSA
100
AcDbLine
 10
1657.058920743864
 20
453.2609128579762
 30
0.0
 11
1657.058017126
 21
453.2600064188653
 31
0.0
  0
LINE
  5
41AA
330
1F
100
AcDbEntity
  8
SANINDUSA
100
AcDbLine
 10
1657.041511361258
 20
453.2600057019216
 30
0.0
 11
1657.040597147696
 21
453.260919915484
 31
0.0
  0
ARC
  5
41AB
330
1F
100
AcDbEntity
  8
SANINDUSA
100
AcDbCircle
 10
1657.041970980666
 20
453.2604653213294
 30
0.0
 40
0.0006500000000003
100
AcDbArc
 50
225.0
 51
270.0
  0
ARC
  5
41AC
330
1F
100
AcDbEntity
  8
SANINDUSA
100
AcDbCircle
 10
1657.057556790765
 20
453.2604653213294
 30
0.0
 40
0.0006500000000003
100
AcDbArc
 50
270.0
 51
315.089304048014
  0
LINE
  5
41AD
330
1F
100
AcDbEntity
  8
SANINDUSA
100
AcDbLine
 10
1657.057556790765
 20
453.2598153213294
 30
0.0
 11
1657.041970980666
 21
453.2598153213294
 31
0.0
  0
ARC
  5
41AE
330
1F
100
AcDbEntity
  8
SANINDUSA
100
AcDbCircle
 10
1657.038656767104
 20
453.2599653213294
 30
0.0
 40
0.0009999999999999
100
AcDbArc
 50
90.0
 51
180.0
  0
LINE
  5
41AF
330
1F
100
AcDbEntity
  8
SANINDUSA
100
AcDbLine
 10
1657.037656767103
 20
453.2599653213294
 30
0.0
 11
1657.037656767103
 21
453.2249420171973
 31
0.0
  0
ARC
  5
41B0
330
1F
100
AcDbEntity
  8
SANINDUSA
100
AcDbCircle
 10
1657.039642553541
 20
453.2599653213294
 30
0.0
 40
0.0010000000000003
100
AcDbArc
 50
45.0
 51
90.0
  0
LINE
  5
41B1
330
1F
100
AcDbEntity
  8
SANINDUSA
100
AcDbLine
 10
1657.039642553541
 20
453.2609653213294
 30
0.0
 11
1657.038656767104
 21
453.2609653213294
 31
0.0
  0
ARC
  5
41B2
330
1F
100
AcDbEntity
  8
SANINDUSA
100
AcDbCircle
 10
1657.038656767104
 20
453.2249420171973
 30
0.0
 40
0.001
100
AcDbArc
 50
180.0
 51
0.0
  0
LINE
  5
41B3
330
1F
100
AcDbEntity
  8
SANINDUSA
100
AcDbLine
 10
1657.041263873885
 20
453.2597582145482
 30
0.0
 11
1657.040349660323
 21
453.2606724281105
 31
0.0
  0
LINE
  5
41B4
330
1F
100
AcDbEntity
  8
SANINDUSA
100
AcDbLine
 10
1657.039656767103
 20
453.2249420171973
 30
0.0
 11
1657.039656767103
 21
453.2564653213293
 31
0.0
  0
ARC
  5
41B5
330
1F
100
AcDbEntity
  8
SANINDUSA
100
AcDbCircle
 10
1657.040656767103
 20
453.2564653213293
 30
0.0
 40
0.001
100
AcDbArc
 50
90.0
 51
180.0
  0
ARC
  5
41B6
330
1F
100
AcDbEntity
  8
SANINDUSA
100
AcDbCircle
 10
1657.041970980666
 20
453.2604653213294
 30
0.0
 40
0.0010000000000003
100
AcDbArc
 50
225.0
 51
270.0
  0
LINE
  5
41B7
330
1F
100
AcDbEntity
  8
SANINDUSA
100
AcDbLine
 10
1657.040656767103
 20
453.2574653213294
 30
0.0
 11
1657.058515953381
 21
453.2574653213294
 31
0.0
  0
LINE
  5
41B8
330
1F
100
AcDbEntity
  8
SANINDUSA
100
AcDbLine
 10
1657.045346106932
 20
453.2594653213293
 30
0.0
 11
1657.041970980666
 21
453.2594653213293
 31
0.0
  0
ARC
  5
41B9
330
1F
100
AcDbEntity
  8
SANINDUSA
100
AcDbCircle
 10
1657.045346106932
 20
453.2592153213293
 30
0.0
 40
0.0002500000000003
100
AcDbArc
 50
45.0
 51
90.0
  0
ARC
  5
41BA
330
1F
100
AcDbEntity
  8
SANINDUSA
100
AcDbCircle
 10
1657.058515953381
 20
453.2564653213293
 30
0.0
 40
0.001
100
AcDbArc
 50
357.8505420653467
 51
90.0
  0
LINE
  5
41BB
330
1F
100
AcDbEntity
  8
SANINDUSA
100
AcDbLine
 10
1657.046003213713
 20
453.2589117679387
 30
0.0
 11
1657.045522883627
 21
453.2593920980247
 31
0.0
  0
ARC
  5
41BC
330
1F
100
AcDbEntity
  8
SANINDUSA
100
AcDbCircle
 10
1656.962863207458
 20
453.2600554297673
 30
0.0
 40
0.0967200954923435
100
AcDbArc
 50
344.4398303579209
 51
357.8505420653467
  0
ARC
  5
41BD
330
1F
100
AcDbEntity
  8
SANINDUSA
100
AcDbCircle
 10
1657.046356767104
 20
453.2592653213294
 30
0.0
 40
0.0005
100
AcDbArc
 50
225.0
 51
315.0
  0
ARC
  5
41BE
330
1F
100
AcDbEntity
  8
SANINDUSA
100
AcDbCircle
 10
1657.055556767104
 20
453.2342443705699
 30
0.0
 40
0.0005
100
AcDbArc
 50
180.0
 51
344.4398303579209
  0
LINE
  5
41BF
330
1F
100
AcDbEntity
  8
SANINDUSA
100
AcDbLine
 10
1657.04719065058
 20
453.2593920980247
 30
0.0
 11
1657.046710320494
 21
453.2589117679387
 31
0.0
  0
LINE
  5
41C0
330
1F
100
AcDbEntity
  8
SANINDUSA
100
AcDbLine
 10
1657.055056767104
 20
453.2342443705699
 30
0.0
 11
1657.055056767104
 21
453.2469420171974
 31
0.0
  0
ARC
  5
41C1
330
1F
100
AcDbEntity
  8
SANINDUSA
100
AcDbCircle
 10
1657.047367427275
 20
453.2592153213293
 30
0.0
 40
0.00025
100
AcDbArc
 50
90.0
 51
135.0
  0
ARC
  5
41C2
330
1F
100
AcDbEntity
  8
SANINDUSA
100
AcDbCircle
 10
1657.054056767104
 20
453.2469420171974
 30
0.0
 40
0.001
100
AcDbArc
 50
0.0
 51
180.0
  0
LINE
  5
41C3
330
1F
100
AcDbEntity
  8
SANINDUSA
100
AcDbLine
 10
1657.053056767104
 20
453.2469420171974
 30
0.0
 11
1657.053056767104
 21
453.2249420171973
 31
0.0
  0
LINE
  5
41C4
330
1F
100
AcDbEntity
  8
SANINDUSA
100
AcDbLine
 10
1657.057556790765
 20
453.2594653213293
 30
0.0
 11
1657.047367427275
 21
453.2594653213293
 31
0.0
  0
ARC
  5
41C5
330
1F
100
AcDbEntity
  8
SANINDUSA
100
AcDbCircle
 10
1657.057556790765
 20
453.2604653213294
 30
0.0
 40
0.0010000000000003
100
AcDbArc
 50
270.0
 51
315.089304048014
  0
ARC
  5
41C6
330
1F
100
AcDbEntity
  8
SANINDUSA
100
AcDbCircle
 10
1657.054056767104
 20
453.2249420171973
 30
0.0
 40
0.001
100
AcDbArc
 50
180.0
 51
338.9411647530097
  0
ARC
  5
41C7
330
1F
100
AcDbEntity
  8
SANINDUSA
100
AcDbCircle
 10
1656.962863207458
 20
453.2600554297673
 30
0.0
 40
0.0987200954923432
100
AcDbArc
 50
338.9411647530097
 51
359.9477634045773
  0
LINE
  5
41C8
330
1F
100
AcDbEntity
  8
SANINDUSA
100
AcDbLine
 10
1657.059168616683
 20
453.2606657566494
 30
0.0
 11
1657.058264998819
 21
453.2597593175384
 31
0.0
  0
ARC
  5
41C9
330
1F
100
AcDbEntity
  8
SANINDUSA
100
AcDbCircle
 10
1657.059876824736
 20
453.2599597528584
 30
0.0
 40
0.0010000000000003
100
AcDbArc
 50
90.53409910418862
 51
135.0893040480139
  0
ARC
  5
41CA
330
1F
100
AcDbEntity
  8
SANINDUSA
100
AcDbCircle
 10
1657.060583262338
 20
453.2599663383107
 30
0.0
 40
0.001
100
AcDbArc
 50
359.9477634045773
 51
90.53409910418862
  0
LINE
  5
41CC
330
1F
100
AcDbEntity
  8
SANINDUSA
100
AcDbLine
 10
1657.060573940685
 20
453.2609662948631
 30
0.0
 11
1657.059867503083
 21
453.2609597094109
 31
0.0
  0
ARC
  5
474B
330
1F
100
AcDbEntity
  8
SANINDUSA
100
AcDbCircle
 10
1656.775922694547
 20
453.2410653213294
 30
0.0
 40
0.009
100
AcDbArc
 50
180.0
 51
0.0
  0
CIRCLE
  5
4757
330
1F
100
AcDbEntity
  8
SANINDUSA
100
AcDbCircle
 10
1656.775922694547
 20
453.2410653213294
 30
0.0
 40
0.005085
  0
LINE
  5
4767
330
1F
100
AcDbEntity
  8
SANINDUSA
100
AcDbLine
 10
1656.762922694547
 20
453.2583153213294
 30
0.0
 11
1656.788922694547
 21
453.2583153213294
 31
0.0
  0
LINE
  5
4772
330
1F
100
AcDbEntity
  8
SANINDUSA
100
AcDbLine
 10
1656.790922694547
 20
453.2633153213294
 30
0.0
 11
1656.760922694547
 21
453.2633153213294
 31
0.0
  0
LINE
  5
4787
330
1F
100
AcDbEntity
  8
SANINDUSA
100
AcDbLine
 10
1656.789004169999
 20
453.2392975543764
 30
0.0
 11
1656.7776904615
 21
453.2279838458775
 31
0.0
  0
LINE
  5
4789
330
1F
100
AcDbEntity
  8
SANINDUSA
100
AcDbLine
 10
1656.782640208968
 20
453.2230340984091
 30
0.0
 11
1656.7776904615
 21
453.2279838458775
 31
0.0
  0
LINE
  5
4792
330
1F
100
AcDbEntity
  8
SANINDUSA
100
AcDbLine
 10
1656.793953917468
 20
453.2343478069081
 30
0.0
 11
1656.789004169999
 21
453.2392975543764
 31
0.0
  0
LINE
  5
47A3
330
1F
100
AcDbEntity
  8
SANINDUSA
100
AcDbLine
 10
1656.793953917468
 20
453.2343478069081
 30
0.0
 11
1656.782640208968
 21
453.2230340984091
 31
0.0
  0
LINE
  5
47AC
330
1F
100
AcDbEntity
  8
SANINDUSA
100
AcDbLine
 10
1656.784922694547
 20
453.2410653213294
 30
0.0
 11
1656.784922694547
 21
453.2583153213294
 31
0.0
  0
LINE
  5
47AD
330
1F
100
AcDbEntity
  8
SANINDUSA
100
AcDbLine
 10
1656.789004169999
 20
453.2392975543764
 30
0.0
 11
1656.784922694547
 21
453.2433790298283
 31
0.0
  0
ARC
  5
47B5
330
1F
100
AcDbEntity
  8
SANINDUSA
100
AcDbCircle
 10
1656.788922694547
 20
453.2603153213294
 30
0.0
 40
0.002
100
AcDbArc
 50
270.0
 51
0.0
  0
LINE
  5
47C3
330
1F
100
AcDbEntity
  8
SANINDUSA
100
AcDbLine
 10
1656.790922694547
 20
453.2603153213294
 30
0.0
 11
1656.790922694547
 21
453.2633153213294
 31
0.0
  0
LINE
  5
47D1
330
1F
100
AcDbEntity
  8
SANINDUSA
100
AcDbLine
 10
1656.7776904615
 20
453.2279838458775
 30
0.0
 11
1656.773181316245
 21
453.2324929911324
 31
0.0
  0
LINE
  5
47E1
330
1F
100
AcDbEntity
  8
SANINDUSA
100
AcDbLine
 10
1656.772952694547
 20
453.2404263213293
 30
0.0
 11
1656.772952694547
 21
453.2417043213293
 31
0.0
  0
LINE
  5
47E4
330
1F
100
AcDbEntity
  8
SANINDUSA
100
AcDbLine
 10
1656.775283694547
 20
453.2440353213294
 30
0.0
 11
1656.776561694547
 21
453.2440353213294
 31
0.0
  0
LINE
  5
47F3
330
1F
100
AcDbEntity
  8
SANINDUSA
100
AcDbLine
 10
1656.776561694547
 20
453.2440353213294
 30
0.0
 11
1656.776561694547
 21
453.2421842681465
 31
0.0
  0
LINE
  5
47FB
330
1F
100
AcDbEntity
  8
SANINDUSA
100
AcDbLine
 10
1656.775283694547
 20
453.2410653213294
 30
0.0
 11
1656.775922694547
 21
453.2410653213294
 31
0.0
  0
LINE
  5
4807
330
1F
100
AcDbEntity
  8
SANINDUSA
100
AcDbLine
 10
1656.776561694547
 20
453.2380953213293
 30
0.0
 11
1656.775283694547
 21
453.2380953213293
 31
0.0
  0
LINE
  5
480E
330
1F
100
AcDbEntity
  8
SANINDUSA
100
AcDbLine
 10
1656.775283694547
 20
453.2380953213293
 30
0.0
 11
1656.775283694547
 21
453.2399463745123
 31
0.0
  0
LINE
  5
480F
330
1F
100
AcDbEntity
  8
SANINDUSA
100
AcDbLine
 10
1656.775922694547
 20
453.2410653213294
 30
0.0
 11
1656.776561694547
 21
453.2410653213294
 31
0.0
  0
LINE
  5
4824
330
1F
100
AcDbEntity
  8
SANINDUSA
100
AcDbLine
 10
1656.776561694547
 20
453.2404263213293
 30
0.0
 11
1656.776561694547
 21
453.2417043213293
 31
0.0
  0
LINE
  5
482C
330
1F
100
AcDbEntity
  8
SANINDUSA
100
AcDbLine
 10
1656.778892694547
 20
453.2417043213293
 30
0.0
 11
1656.778892694547
 21
453.2404263213293
 31
0.0
  0
LINE
  5
482F
330
1F
100
AcDbEntity
  8
SANINDUSA
100
AcDbLine
 10
1656.775922694547
 20
453.2410653213294
 30
0.0
 11
1656.776561694547
 21
453.2404263213293
 31
0.0
  0
LINE
  5
4838
330
1F
100
AcDbEntity
  8
SANINDUSA
100
AcDbLine
 10
1656.776561694547
 20
453.2417043213293
 30
0.0
 11
1656.775922694547
 21
453.2410653213294
 31
0.0
  0
LINE
  5
4841
330
1F
100
AcDbEntity
  8
SANINDUSA
100
AcDbLine
 10
1656.775922694547
 20
453.2410653213294
 30
0.0
 11
1656.775922694547
 21
453.2404263213293
 31
0.0
  0
LINE
  5
4849
330
1F
100
AcDbEntity
  8
SANINDUSA
100
AcDbLine
 10
1656.775283694547
 20
453.2404263213293
 30
0.0
 11
1656.775922694547
 21
453.2410653213294
 31
0.0
  0
LINE
  5
485D
330
1F
100
AcDbEntity
  8
SANINDUSA
100
AcDbLine
 10
1656.775283694547
 20
453.2417043213293
 30
0.0
 11
1656.775283694547
 21
453.2404263213293
 31
0.0
  0
LINE
  5
4867
330
1F
100
AcDbEntity
  8
SANINDUSA
100
AcDbLine
 10
1656.775922694547
 20
453.2417043213293
 30
0.0
 11
1656.775922694547
 21
453.2410653213294
 31
0.0
  0
LINE
  5
4869
330
1F
100
AcDbEntity
  8
SANINDUSA
100
AcDbLine
 10
1656.775922694547
 20
453.2410653213294
 30
0.0
 11
1656.775283694547
 21
453.2417043213293
 31
0.0
  0
LINE
  5
4879
330
1F
100
AcDbEntity
  8
SANINDUSA
100
AcDbLine
 10
1656.778892694547
 20
453.2404263213293
 30
0.0
 11
1656.777041641364
 21
453.2404263213293
 31
0.0
  0
LINE
  5
487B
330
1F
100
AcDbEntity
  8
SANINDUSA
100
AcDbLine
 10
1656.776561694547
 20
453.2404263213293
 30
0.0
 11
1656.775283694547
 21
453.2404263213293
 31
0.0
  0
LINE
  5
4884
330
1F
100
AcDbEntity
  8
SANINDUSA
100
AcDbLine
 10
1656.775283694547
 20
453.2417043213293
 30
0.0
 11
1656.776561694547
 21
453.2417043213293
 31
0.0
  0
LINE
  5
4898
330
1F
100
AcDbEntity
  8
SANINDUSA
100
AcDbLine
 10
1656.776561694547
 20
453.2399463745123
 30
0.0
 11
1656.776561694547
 21
453.2380953213293
 31
0.0
  0
LINE
  5
48A5
330
1F
100
AcDbEntity
  8
SANINDUSA
100
AcDbLine
 10
1656.775283694547
 20
453.2421842681465
 30
0.0
 11
1656.775283694547
 21
453.2440353213294
 31
0.0
  0
LINE
  5
48A7
330
1F
100
AcDbEntity
  8
SANINDUSA
100
AcDbLine
 10
1656.777041641364
 20
453.2417043213293
 30
0.0
 11
1656.778892694547
 21
453.2417043213293
 31
0.0
  0
LINE
  5
48AF
330
1F
100
AcDbEntity
  8
SANINDUSA
100
AcDbLine
 10
1656.776561694547
 20
453.2404263213293
 30
0.0
 11
1656.777041641364
 21
453.2404263213293
 31
0.0
  0
LINE
  5
48B8
330
1F
100
AcDbEntity
  8
SANINDUSA
100
AcDbLine
 10
1656.777041641364
 20
453.2404263213293
 30
0.0
 11
1656.778022801687
 21
453.2389652141893
 31
0.0
  0
LINE
  5
48B9
330
1F
100
AcDbEntity
  8
SANINDUSA
100
AcDbLine
 10
1656.776561694547
 20
453.2399463745123
 30
0.0
 11
1656.776561694547
 21
453.2404263213293
 31
0.0
  0
LINE
  5
48BA
330
1F
100
AcDbEntity
  8
SANINDUSA
100
AcDbLine
 10
1656.778022801687
 20
453.2389652141893
 30
0.0
 11
1656.776561694547
 21
453.2404263213293
 31
0.0
  0
LINE
  5
48BB
330
1F
100
AcDbEntity
  8
SANINDUSA
100
AcDbLine
 10
1656.778022801687
 20
453.2389652141893
 30
0.0
 11
1656.776561694547
 21
453.2399463745123
 31
0.0
  0
LINE
  5
48BC
330
1F
100
AcDbEntity
  8
SANINDUSA
100
AcDbLine
 10
1656.775283694547
 20
453.2417043213293
 30
0.0
 11
1656.77480374773
 21
453.2417043213293
 31
0.0
  0
LINE
  5
48BD
330
1F
100
AcDbEntity
  8
SANINDUSA
100
AcDbLine
 10
1656.775283694547
 20
453.2421842681465
 30
0.0
 11
1656.775283694547
 21
453.2417043213293
 31
0.0
  0
LINE
  5
48BE
330
1F
100
AcDbEntity
  8
SANINDUSA
100
AcDbLine
 10
1656.775283694547
 20
453.2404263213293
 30
0.0
 11
1656.775283694547
 21
453.2399463745123
 31
0.0
  0
LINE
  5
48BF
330
1F
100
AcDbEntity
  8
SANINDUSA
100
AcDbLine
 10
1656.77480374773
 20
453.2404263213293
 30
0.0
 11
1656.775283694547
 21
453.2404263213293
 31
0.0
  0
LINE
  5
48C0
330
1F
100
AcDbEntity
  8
SANINDUSA
100
AcDbLine
 10
1656.776561694547
 20
453.2417043213293
 30
0.0
 11
1656.776561694547
 21
453.2421842681465
 31
0.0
  0
LINE
  5
48C1
330
1F
100
AcDbEntity
  8
SANINDUSA
100
AcDbLine
 10
1656.776561694547
 20
453.2421842681465
 30
0.0
 11
1656.778022801687
 21
453.2431654284695
 31
0.0
  0
LINE
  5
48C2
330
1F
100
AcDbEntity
  8
SANINDUSA
100
AcDbLine
 10
1656.777041641364
 20
453.2417043213293
 30
0.0
 11
1656.776561694547
 21
453.2417043213293
 31
0.0
  0
LINE
  5
48C3
330
1F
100
AcDbEntity
  8
SANINDUSA
100
AcDbLine
 10
1656.778022801687
 20
453.2431654284695
 30
0.0
 11
1656.776561694547
 21
453.2417043213293
 31
0.0
  0
LINE
  5
48C4
330
1F
100
AcDbEntity
  8
SANINDUSA
100
AcDbLine
 10
1656.778022801687
 20
453.2431654284695
 30
0.0
 11
1656.777041641364
 21
453.2417043213293
 31
0.0
  0
LINE
  5
48C5
330
1F
100
AcDbEntity
  8
SANINDUSA
100
AcDbLine
 10
1656.772952694547
 20
453.2417043213293
 30
0.0
 11
1656.77480374773
 21
453.2417043213293
 31
0.0
  0
LINE
  5
48C6
330
1F
100
AcDbEntity
  8
SANINDUSA
100
AcDbLine
 10
1656.77480374773
 20
453.2404263213293
 30
0.0
 11
1656.772952694547
 21
453.2404263213293
 31
0.0
  0
LINE
  5
48C7
330
1F
100
AcDbEntity
  8
SANINDUSA
100
AcDbLine
 10
1656.77480374773
 20
453.2417043213293
 30
0.0
 11
1656.773822587407
 21
453.2431654284695
 31
0.0
  0
LINE
  5
48C8
330
1F
100
AcDbEntity
  8
SANINDUSA
100
AcDbLine
 10
1656.773822587407
 20
453.2431654284695
 30
0.0
 11
1656.775283694547
 21
453.2417043213293
 31
0.0
  0
LINE
  5
48C9
330
1F
100
AcDbEntity
  8
SANINDUSA
100
AcDbLine
 10
1656.773822587407
 20
453.2431654284695
 30
0.0
 11
1656.775283694547
 21
453.2421842681465
 31
0.0
  0
LINE
  5
48CA
330
1F
100
AcDbEntity
  8
SANINDUSA
100
AcDbLine
 10
1656.775283694547
 20
453.2399463745123
 30
0.0
 11
1656.773822587407
 21
453.2389652141893
 31
0.0
  0
LINE
  5
48CB
330
1F
100
AcDbEntity
  8
SANINDUSA
100
AcDbLine
 10
1656.773822587407
 20
453.2389652141893
 30
0.0
 11
1656.775283694547
 21
453.2404263213293
 31
0.0
  0
LINE
  5
48CC
330
1F
100
AcDbEntity
  8
SANINDUSA
100
AcDbLine
 10
1656.773822587407
 20
453.2389652141893
 30
0.0
 11
1656.77480374773
 21
453.2404263213293
 31
0.0
  0
LINE
  5
48CD
330
1F
100
AcDbEntity
  8
SANINDUSA
100
AcDbLine
 10
1656.766922694547
 20
453.2410653213294
 30
0.0
 11
1656.766922694547
 21
453.2583153213294
 31
0.0
  0
LINE
  5
48CE
330
1F
100
AcDbEntity
  8
SANINDUSA
100
AcDbLine
 10
1656.760922694547
 20
453.2633153213294
 30
0.0
 11
1656.760922694547
 21
453.2603153213294
 31
0.0
  0
ARC
  5
48CF
330
1F
100
AcDbEntity
  8
SANINDUSA
100
AcDbCircle
 10
1656.762922694547
 20
453.2603153213294
 30
0.0
 40
0.002
100
AcDbArc
 50
180.0
 51
270.0
  0
LINE
  5
490B
330
1F
100
AcDbEntity
  8
SANINDUSA
100
AcDbLine
 10
1657.043356763294
 20
453.2189432975695
 30
0.0000000001555548
 11
1657.043356763294
 21
452.5960884530766
 31
0.0000000001555548
  0
LINE
  5
490C
330
1F
100
AcDbEntity
  8
SANINDUSA
100
AcDbLine
 10
1657.049356763294
 20
453.2189432975695
 30
0.0000000001555548
 11
1657.049356763294
 21
452.5960884530766
 31
0.0000000001555548
  0
LINE
  5
490E
330
1F
100
AcDbEntity
  8
SANINDUSA
100
AcDbLine
 10
1657.056356763294
 20
453.2189432975695
 30
0.0000000001555548
 11
1657.050356763294
 21
453.2189432975695
 31
0.0000000001555548
  0
LINE
  5
490F
330
1F
100
AcDbEntity
  8
SANINDUSA
  6
Continuous
100
AcDbLine
 10
1656.119039571471
 20
452.587618600786
 30
0.0000000000039326
 11
1656.431664264445
 21
452.587618600786
 31
0.0000000002833784
  0
LINE
  5
4910
330
1F
100
AcDbEntity
  8
SANINDUSA
100
AcDbLine
 10
1656.255955913306
 20
452.6205861152073
 30
0.0000000001020975
 11
1656.104667547711
 21
452.7718744808025
 31
0.0000000001020975
  0
LINE
  5
4911
330
1F
100
AcDbEntity
  8
SANINDUSA
100
AcDbLine
 10
1656.228859719229
 20
452.5956186007859
 30
0.0000000001020975
 11
1656.273859719229
 21
452.5956186007859
 31
0.0000000001020975
  0
LINE
  5
4912
330
1F
100
AcDbEntity
  8
SANINDUSA
100
AcDbLine
 10
1656.245359719228
 20
452.620618600786
 30
0.0000000001020975
 11
1656.257359719228
 21
452.620618600786
 31
0.0000000001020975
  0
CIRCLE
  5
4913
330
1F
100
AcDbEntity
  8
SANINDUSA
100
AcDbCircle
 10
1656.251359719229
 20
452.613868600786
 30
0.0000000001020975
 40
0.0050849999999992
  0
LINE
  5
4914
330
1F
100
AcDbEntity
  8
SANINDUSA
100
AcDbLine
 10
1656.242359719229
 20
452.605618600786
 30
0.0000000001020975
 11
1656.260359719229
 21
452.605618600786
 31
0.0000000001020975
  0
LINE
  5
4915
330
1F
100
AcDbEntity
  8
SANINDUSA
100
AcDbLine
 10
1656.238985350558
 20
452.6149292609578
 30
0.0000000001020975
 11
1656.250299059057
 21
452.6262429694567
 31
0.0000000001020975
  0
LINE
  5
4916
330
1F
100
AcDbEntity
  8
SANINDUSA
100
AcDbLine
 10
1656.249591952276
 20
452.6255358626755
 30
0.0000000001020975
 11
1656.254509214165
 21
452.620618600786
 31
0.0000000001020975
  0
LINE
  5
4917
330
1F
100
AcDbEntity
  8
SANINDUSA
100
AcDbLine
 10
1656.250720719229
 20
452.6127496539689
 30
0.0000000001020975
 11
1656.249259612089
 21
452.6117684936458
 31
0.0000000001020975
  0
LINE
  5
4918
330
1F
100
AcDbEntity
  8
SANINDUSA
100
AcDbLine
 10
1656.249259612089
 20
452.6117684936458
 30
0.0000000001020975
 11
1656.250720719229
 21
452.6132296007859
 31
0.0000000001020975
  0
LINE
  5
4919
330
1F
100
AcDbEntity
  8
SANINDUSA
100
AcDbLine
 10
1656.249259612089
 20
452.6117684936458
 30
0.0000000001020975
 11
1656.250240772411
 21
452.6132296007859
 31
0.0000000001020975
  0
LINE
  5
491A
330
1F
100
AcDbEntity
  8
SANINDUSA
100
AcDbLine
 10
1656.248389719229
 20
452.614507600786
 30
0.0000000001020975
 11
1656.250240772411
 21
452.614507600786
 31
0.0000000001020975
  0
LINE
  5
491B
330
1F
100
AcDbEntity
  8
SANINDUSA
100
AcDbLine
 10
1656.250240772411
 20
452.6132296007859
 30
0.0000000001020975
 11
1656.248389719229
 21
452.6132296007859
 31
0.0000000001020975
  0
LINE
  5
491C
330
1F
100
AcDbEntity
  8
SANINDUSA
100
AcDbLine
 10
1656.250240772411
 20
452.614507600786
 30
0.0000000001020975
 11
1656.249259612089
 21
452.6159687079261
 31
0.0000000001020975
  0
LINE
  5
491D
330
1F
100
AcDbEntity
  8
SANINDUSA
100
AcDbLine
 10
1656.249259612089
 20
452.6159687079261
 30
0.0000000001020975
 11
1656.250720719229
 21
452.614507600786
 31
0.0000000001020975
  0
LINE
  5
491E
330
1F
100
AcDbEntity
  8
SANINDUSA
100
AcDbLine
 10
1656.249259612089
 20
452.6159687079261
 30
0.0000000001020975
 11
1656.250720719229
 21
452.6149875476031
 31
0.0000000001020975
  0
LINE
  5
491F
330
1F
100
AcDbEntity
  8
SANINDUSA
100
AcDbLine
 10
1656.501164264445
 20
452.5888186007859
 30
0.0000000001555548
 11
1656.448164264445
 21
452.5888186007859
 31
0.0000000001555548
1001
GENIUS_GENREC_14
1002
{
1000
PYDIR
1011
1656.201882007366
1021
452.6749909105936
1031
0.000000000155555
1002
}
1002
{
1000
PXDIR
1011
1656.148882007366
1021
452.6739909105936
1031
0.000000000155555
1002
}
1002
{
1000
PORI
1011
1656.201882007366
1021
452.6739909105936
1031
0.000000000155555
1002
}
1002
{
1000
PINS
1011
1656.201882007366
1021
452.6739909105936
1031
0.000000000155555
1002
}
1002
{
1000
PINS2
1011
1656.148882007366
1021
452.6749909105936
1031
0.000000000155555
1002
}
1002
{
1000
C
1070
     1
1002
}
1001
GENIUS_GENODEF_13
1002
{
1000
HIER
1070
     0
1002
}
1002
{
1000
MANEDIT
1070
     0
1002
}
1002
{
1000
NOSEL
1070
     0
1002
}
1002
{
1000
BEHIND
1070
     0
1002
}
1002
{
1000
REACTOR
1002
}
1001
GENIUS_GENOBJ-N-REC_13
1002
{
1000
OWNER
1000
GEN
1002
}
  0
LINE
  5
4920
330
1F
100
AcDbEntity
  8
SANINDUSA
100
AcDbLine
 10
1656.448164264445
 20
452.5888186007859
 30
0.0000000001555548
 11
1656.448164264445
 21
452.587818600786
 31
0.0000000001555548
1001
GENIUS_GENREC_14
1002
{
1000
PYDIR
1011
1656.201882007366
1021
452.6749909105936
1031
0.000000000155555
1002
}
1002
{
1000
PXDIR
1011
1656.148882007366
1021
452.6739909105936
1031
0.000000000155555
1002
}
1002
{
1000
PORI
1011
1656.201882007366
1021
452.6739909105936
1031
0.000000000155555
1002
}
1002
{
1000
PINS
1011
1656.201882007366
1021
452.6739909105936
1031
0.000000000155555
1002
}
1002
{
1000
PINS2
1011
1656.148882007366
1021
452.6749909105936
1031
0.000000000155555
1002
}
1002
{
1000
C
1070
     1
1002
}
1001
GENIUS_GENODEF_13
1002
{
1000
HIER
1070
     0
1002
}
1002
{
1000
MANEDIT
1070
     0
1002
}
1002
{
1000
NOSEL
1070
     0
1002
}
1002
{
1000
BEHIND
1070
     0
1002
}
1002
{
1000
REACTOR
1002
}
1001
GENIUS_GENOBJ-N-REC_13
1002
{
1000
OWNER
1000
GEN
1002
}
  0
LINE
  5
4921
330
1F
100
AcDbEntity
  8
SANINDUSA
100
AcDbLine
 10
1656.448164264445
 20
452.587818600786
 30
0.0000000001555548
 11
1656.501164264445
 21
452.587818600786
 31
0.0000000001555548
1001
GENIUS_GENREC_14
1002
{
1000
PYDIR
1011
1656.201882007366
1021
452.6749909105936
1031
0.000000000155555
1002
}
1002
{
1000
PXDIR
1011
1656.148882007366
1021
452.6739909105936
1031
0.000000000155555
1002
}
1002
{
1000
PORI
1011
1656.201882007366
1021
452.6739909105936
1031
0.000000000155555
1002
}
1002
{
1000
PINS
1011
1656.201882007366
1021
452.6739909105936
1031
0.000000000155555
1002
}
1002
{
1000
PINS2
1011
1656.148882007366
1021
452.6749909105936
1031
0.000000000155555
1002
}
1002
{
1000
C
1070
     1
1002
}
1001
GENIUS_GENODEF_13
1002
{
1000
HIER
1070
     0
1002
}
1002
{
1000
MANEDIT
1070
     0
1002
}
1002
{
1000
NOSEL
1070
     0
1002
}
1002
{
1000
BEHIND
1070
     0
1002
}
1002
{
1000
REACTOR
1002
}
1001
GENIUS_GENOBJ-N-REC_13
1002
{
1000
OWNER
1000
GEN
1002
}
  0
LINE
  5
4922
330
1F
100
AcDbEntity
  8
SANINDUSA
100
AcDbLine
 10
1656.501164264445
 20
452.587818600786
 30
0.0000000001555548
 11
1656.501164264445
 21
452.5888186007859
 31
0.0000000001555548
1001
GENIUS_GENREC_14
1002
{
1000
PYDIR
1011
1656.201882007366
1021
452.6749909105936
1031
0.000000000155555
1002
}
1002
{
1000
PXDIR
1011
1656.148882007366
1021
452.6739909105936
1031
0.000000000155555
1002
}
1002
{
1000
PORI
1011
1656.201882007366
1021
452.6739909105936
1031
0.000000000155555
1002
}
1002
{
1000
PINS
1011
1656.201882007366
1021
452.6739909105936
1031
0.000000000155555
1002
}
1002
{
1000
PINS2
1011
1656.148882007366
1021
452.6749909105936
1031
0.000000000155555
1002
}
1002
{
1000
C
1070
     1
1002
}
1001
GENIUS_GENODEF_13
1002
{
1000
HIER
1070
     0
1002
}
1002
{
1000
MANEDIT
1070
     0
1002
}
1002
{
1000
NOSEL
1070
     0
1002
}
1002
{
1000
BEHIND
1070
     0
1002
}
1002
{
1000
REACTOR
1002
}
1001
GENIUS_GENOBJ-N-REC_13
1002
{
1000
OWNER
1000
GEN
1002
}
  0
LINE
  5
4923
330
1F
100
AcDbEntity
  8
SANINDUSA
100
AcDbLine
 10
1656.365164264445
 20
452.5888186007859
 30
0.0000000001555548
 11
1656.418164264445
 21
452.5888186007859
 31
0.0000000001555548
1001
GENIUS_GENREC_14
1002
{
1000
PYDIR
1011
1656.501164264445
1021
452.3757086535145
1031
0.000000000155555
1002
}
1002
{
1000
PXDIR
1011
1656.448164264445
1021
452.3747086535145
1031
0.000000000155555
1002
}
1002
{
1000
PORI
1011
1656.501164264445
1021
452.3747086535145
1031
0.000000000155555
1002
}
1002
{
1000
PINS
1011
1656.501164264445
1021
452.3747086535145
1031
0.000000000155555
1002
}
1002
{
1000
PINS2
1011
1656.448164264445
1021
452.3757086535145
1031
0.000000000155555
1002
}
1002
{
1000
C
1070
     1
1002
}
1001
GENIUS_GENODEF_13
1002
{
1000
HIER
1070
     0
1002
}
1002
{
1000
MANEDIT
1070
     0
1002
}
1002
{
1000
NOSEL
1070
     0
1002
}
1002
{
1000
BEHIND
1070
     0
1002
}
1002
{
1000
REACTOR
1002
}
1001
GENIUS_GENOBJ-N-REC_13
1002
{
1000
OWNER
1000
GEN
1002
}
  0
LINE
  5
4924
330
1F
100
AcDbEntity
  8
SANINDUSA
100
AcDbLine
 10
1656.418164264445
 20
452.5888186007859
 30
0.0000000001555548
 11
1656.418164264445
 21
452.587818600786
 31
0.0000000001555548
1001
GENIUS_GENREC_14
1002
{
1000
PYDIR
1011
1656.501164264445
1021
452.3757086535145
1031
0.000000000155555
1002
}
1002
{
1000
PXDIR
1011
1656.448164264445
1021
452.3747086535145
1031
0.000000000155555
1002
}
1002
{
1000
PORI
1011
1656.501164264445
1021
452.3747086535145
1031
0.000000000155555
1002
}
1002
{
1000
PINS
1011
1656.501164264445
1021
452.3747086535145
1031
0.000000000155555
1002
}
1002
{
1000
PINS2
1011
1656.448164264445
1021
452.3757086535145
1031
0.000000000155555
1002
}
1002
{
1000
C
1070
     1
1002
}
1001
GENIUS_GENODEF_13
1002
{
1000
HIER
1070
     0
1002
}
1002
{
1000
MANEDIT
1070
     0
1002
}
1002
{
1000
NOSEL
1070
     0
1002
}
1002
{
1000
BEHIND
1070
     0
1002
}
1002
{
1000
REACTOR
1002
}
1001
GENIUS_GENOBJ-N-REC_13
1002
{
1000
OWNER
1000
GEN
1002
}
  0
LINE
  5
4925
330
1F
100
AcDbEntity
  8
SANINDUSA
100
AcDbLine
 10
1656.418164264445
 20
452.587818600786
 30
0.0000000001555548
 11
1656.365164264445
 21
452.587818600786
 31
0.0000000001555548
1001
GENIUS_GENREC_14
1002
{
1000
PYDIR
1011
1656.501164264445
1021
452.3757086535145
1031
0.000000000155555
1002
}
1002
{
1000
PXDIR
1011
1656.448164264445
1021
452.3747086535145
1031
0.000000000155555
1002
}
1002
{
1000
PORI
1011
1656.501164264445
1021
452.3747086535145
1031
0.000000000155555
1002
}
1002
{
1000
PINS
1011
1656.501164264445
1021
452.3747086535145
1031
0.000000000155555
1002
}
1002
{
1000
PINS2
1011
1656.448164264445
1021
452.3757086535145
1031
0.000000000155555
1002
}
1002
{
1000
C
1070
     1
1002
}
1001
GENIUS_GENODEF_13
1002
{
1000
HIER
1070
     0
1002
}
1002
{
1000
MANEDIT
1070
     0
1002
}
1002
{
1000
NOSEL
1070
     0
1002
}
1002
{
1000
BEHIND
1070
     0
1002
}
1002
{
1000
REACTOR
1002
}
1001
GENIUS_GENOBJ-N-REC_13
1002
{
1000
OWNER
1000
GEN
1002
}
  0
LINE
  5
4926
330
1F
100
AcDbEntity
  8
SANINDUSA
100
AcDbLine
 10
1656.365164264445
 20
452.587818600786
 30
0.0000000001555548
 11
1656.365164264445
 21
452.5888186007859
 31
0.0000000001555548
1001
GENIUS_GENREC_14
1002
{
1000
PYDIR
1011
1656.501164264445
1021
452.3757086535145
1031
0.000000000155555
1002
}
1002
{
1000
PXDIR
1011
1656.448164264445
1021
452.3747086535145
1031
0.000000000155555
1002
}
1002
{
1000
PORI
1011
1656.501164264445
1021
452.3747086535145
1031
0.000000000155555
1002
}
1002
{
1000
PINS
1011
1656.501164264445
1021
452.3747086535145
1031
0.000000000155555
1002
}
1002
{
1000
PINS2
1011
1656.448164264445
1021
452.3757086535145
1031
0.000000000155555
1002
}
1002
{
1000
C
1070
     1
1002
}
1001
GENIUS_GENODEF_13
1002
{
1000
HIER
1070
     0
1002
}
1002
{
1000
MANEDIT
1070
     0
1002
}
1002
{
1000
NOSEL
1070
     0
1002
}
1002
{
1000
BEHIND
1070
     0
1002
}
1002
{
1000
REACTOR
1002
}
1001
GENIUS_GENOBJ-N-REC_13
1002
{
1000
OWNER
1000
GEN
1002
}
  0
LINE
  5
492D
330
1F
100
AcDbEntity
  8
SANINDUSA
100
AcDbLine
 10
1656.259359719229
 20
452.605618600786
 30
0.0000000001020975
 11
1656.259359719229
 21
452.618618600786
 31
0.0000000001020975
  0
LINE
  5
492E
330
1F
100
AcDbEntity
  8
SANINDUSA
100
AcDbLine
 10
1656.250720719229
 20
452.610898600786
 30
0.0000000001020975
 11
1656.250720719229
 21
452.6127496539689
 31
0.0000000001020975
  0
LINE
  5
492F
330
1F
100
AcDbEntity
  8
SANINDUSA
100
AcDbLine
 10
1656.251998719229
 20
452.6127496539689
 30
0.0000000001020975
 11
1656.251998719229
 21
452.610898600786
 31
0.0000000001020975
  0
LINE
  5
4930
330
1F
100
AcDbEntity
  8
SANINDUSA
100
AcDbLine
 10
1656.252478666046
 20
452.6132296007859
 30
0.0000000001020975
 11
1656.253459826369
 21
452.6117684936458
 31
0.0000000001020975
  0
LINE
  5
4931
330
1F
100
AcDbEntity
  8
SANINDUSA
100
AcDbLine
 10
1656.253459826369
 20
452.6117684936458
 30
0.0000000001020975
 11
1656.251998719229
 21
452.6132296007859
 31
0.0000000001020975
  0
LINE
  5
4932
330
1F
100
AcDbEntity
  8
SANINDUSA
100
AcDbLine
 10
1656.253459826369
 20
452.6117684936458
 30
0.0000000001020975
 11
1656.251998719229
 21
452.6127496539689
 31
0.0000000001020975
  0
LINE
  5
4933
330
1F
100
AcDbEntity
  8
SANINDUSA
100
AcDbLine
 10
1656.260359719229
 20
452.5956186007859
 30
0.0000000001020975
 11
1656.260359719229
 21
452.605618600786
 31
0.0000000001020975
  0
LINE
  5
4934
330
1F
100
AcDbEntity
  8
SANINDUSA
100
AcDbLine
 10
1656.251998719229
 20
452.610898600786
 30
0.0000000001020975
 11
1656.250720719229
 21
452.610898600786
 31
0.0000000001020975
  0
LINE
  5
4935
330
1F
100
AcDbEntity
  8
SANINDUSA
100
AcDbLine
 10
1656.251998719229
 20
452.616838600786
 30
0.0000000001020975
 11
1656.251998719229
 21
452.6149875476031
 31
0.0000000001020975
  0
LINE
  5
4936
330
1F
100
AcDbEntity
  8
SANINDUSA
100
AcDbLine
 10
1656.250720719229
 20
452.6149875476031
 30
0.0000000001020975
 11
1656.250720719229
 21
452.616838600786
 31
0.0000000001020975
  0
LINE
  5
4937
330
1F
100
AcDbEntity
  8
SANINDUSA
100
AcDbLine
 10
1656.251998719229
 20
452.613868600786
 30
0.0000000001020975
 11
1656.251359719229
 21
452.613868600786
 31
0.0000000001020975
  0
LINE
  5
4938
330
1F
100
AcDbEntity
  8
SANINDUSA
100
AcDbLine
 10
1656.251359719229
 20
452.613868600786
 30
0.0000000001020975
 11
1656.250720719229
 21
452.613868600786
 31
0.0000000001020975
  0
LINE
  5
4939
330
1F
100
AcDbEntity
  8
SANINDUSA
100
AcDbLine
 10
1656.250720719229
 20
452.614507600786
 30
0.0000000001020975
 11
1656.250720719229
 21
452.6132296007859
 31
0.0000000001020975
  0
LINE
  5
493A
330
1F
100
AcDbEntity
  8
SANINDUSA
100
AcDbLine
 10
1656.251359719229
 20
452.613868600786
 30
0.0000000001020975
 11
1656.250720719229
 21
452.614507600786
 31
0.0000000001020975
  0
LINE
  5
493B
330
1F
100
AcDbEntity
  8
SANINDUSA
100
AcDbLine
 10
1656.250720719229
 20
452.6132296007859
 30
0.0000000001020975
 11
1656.251359719229
 21
452.613868600786
 31
0.0000000001020975
  0
LINE
  5
493C
330
1F
100
AcDbEntity
  8
SANINDUSA
100
AcDbLine
 10
1656.251359719229
 20
452.613868600786
 30
0.0000000001020975
 11
1656.251359719229
 21
452.614507600786
 31
0.0000000001020975
  0
LINE
  5
493D
330
1F
100
AcDbEntity
  8
SANINDUSA
100
AcDbLine
 10
1656.251998719229
 20
452.614507600786
 30
0.0000000001020975
 11
1656.251359719229
 21
452.613868600786
 31
0.0000000001020975
  0
LINE
  5
493E
330
1F
100
AcDbEntity
  8
SANINDUSA
100
AcDbLine
 10
1656.251998719229
 20
452.6132296007859
 30
0.0000000001020975
 11
1656.251998719229
 21
452.614507600786
 31
0.0000000001020975
  0
LINE
  5
493F
330
1F
100
AcDbEntity
  8
SANINDUSA
100
AcDbLine
 10
1656.254329719229
 20
452.614507600786
 30
0.0000000001020975
 11
1656.254329719229
 21
452.6132296007859
 31
0.0000000001020975
  0
LINE
  5
4940
330
1F
100
AcDbEntity
  8
SANINDUSA
100
AcDbLine
 10
1656.251359719229
 20
452.6132296007859
 30
0.0000000001020975
 11
1656.251359719229
 21
452.613868600786
 31
0.0000000001020975
  0
LINE
  5
4941
330
1F
100
AcDbEntity
  8
SANINDUSA
100
AcDbLine
 10
1656.251359719229
 20
452.613868600786
 30
0.0000000001020975
 11
1656.251998719229
 21
452.6132296007859
 31
0.0000000001020975
  0
LINE
  5
4942
330
1F
100
AcDbEntity
  8
SANINDUSA
100
AcDbLine
 10
1656.250720719229
 20
452.614507600786
 30
0.0000000001020975
 11
1656.251998719229
 21
452.614507600786
 31
0.0000000001020975
  0
LINE
  5
4943
330
1F
100
AcDbEntity
  8
SANINDUSA
100
AcDbLine
 10
1656.254329719229
 20
452.6132296007859
 30
0.0000000001020975
 11
1656.252478666046
 21
452.6132296007859
 31
0.0000000001020975
  0
LINE
  5
4944
330
1F
100
AcDbEntity
  8
SANINDUSA
100
AcDbLine
 10
1656.251998719229
 20
452.6132296007859
 30
0.0000000001020975
 11
1656.250720719229
 21
452.6132296007859
 31
0.0000000001020975
  0
LINE
  5
4945
330
1F
100
AcDbEntity
  8
SANINDUSA
100
AcDbLine
 10
1656.252478666046
 20
452.614507600786
 30
0.0000000001020975
 11
1656.254329719229
 21
452.614507600786
 31
0.0000000001020975
  0
LINE
  5
4946
330
1F
100
AcDbEntity
  8
SANINDUSA
100
AcDbLine
 10
1656.250720719229
 20
452.614507600786
 30
0.0000000001020975
 11
1656.250240772411
 21
452.614507600786
 31
0.0000000001020975
  0
LINE
  5
4947
330
1F
100
AcDbEntity
  8
SANINDUSA
100
AcDbLine
 10
1656.250720719229
 20
452.6149875476031
 30
0.0000000001020975
 11
1656.250720719229
 21
452.614507600786
 31
0.0000000001020975
  0
LINE
  5
4948
330
1F
100
AcDbEntity
  8
SANINDUSA
100
AcDbLine
 10
1656.251998719229
 20
452.6132296007859
 30
0.0000000001020975
 11
1656.252478666046
 21
452.6132296007859
 31
0.0000000001020975
  0
LINE
  5
4949
330
1F
100
AcDbEntity
  8
SANINDUSA
100
AcDbLine
 10
1656.251998719229
 20
452.6127496539689
 30
0.0000000001020975
 11
1656.251998719229
 21
452.6132296007859
 31
0.0000000001020975
  0
LINE
  5
494A
330
1F
100
AcDbEntity
  8
SANINDUSA
100
AcDbLine
 10
1656.251998719229
 20
452.614507600786
 30
0.0000000001020975
 11
1656.251998719229
 21
452.6149875476031
 31
0.0000000001020975
  0
LINE
  5
494B
330
1F
100
AcDbEntity
  8
SANINDUSA
100
AcDbLine
 10
1656.251998719229
 20
452.6149875476031
 30
0.0000000001020975
 11
1656.253459826369
 21
452.6159687079261
 31
0.0000000001020975
  0
LINE
  5
494C
330
1F
100
AcDbEntity
  8
SANINDUSA
100
AcDbLine
 10
1656.252478666046
 20
452.614507600786
 30
0.0000000001020975
 11
1656.251998719229
 21
452.614507600786
 31
0.0000000001020975
  0
LINE
  5
494D
330
1F
100
AcDbEntity
  8
SANINDUSA
100
AcDbLine
 10
1656.253459826369
 20
452.6159687079261
 30
0.0000000001020975
 11
1656.251998719229
 21
452.614507600786
 31
0.0000000001020975
  0
LINE
  5
494E
330
1F
100
AcDbEntity
  8
SANINDUSA
100
AcDbLine
 10
1656.253459826369
 20
452.6159687079261
 30
0.0000000001020975
 11
1656.252478666046
 21
452.614507600786
 31
0.0000000001020975
  0
LINE
  5
494F
330
1F
100
AcDbEntity
  8
SANINDUSA
100
AcDbLine
 10
1656.250720719229
 20
452.6132296007859
 30
0.0000000001020975
 11
1656.250720719229
 21
452.6127496539689
 31
0.0000000001020975
  0
LINE
  5
4950
330
1F
100
AcDbEntity
  8
SANINDUSA
100
AcDbLine
 10
1656.250240772411
 20
452.6132296007859
 30
0.0000000001020975
 11
1656.250720719229
 21
452.6132296007859
 31
0.0000000001020975
  0
LINE
  5
4951
330
1F
100
AcDbEntity
  8
SANINDUSA
100
AcDbLine
 10
1656.250720719229
 20
452.616838600786
 30
0.0000000001020975
 11
1656.251998719229
 21
452.616838600786
 31
0.0000000001020975
  0
ARC
  5
4952
330
1F
100
AcDbEntity
  8
SANINDUSA
100
AcDbCircle
 10
1656.257359719228
 20
452.618618600786
 30
0.0000000001020975
 40
0.002
100
AcDbArc
 50
0.0
 51
90.0
  0
LINE
  5
4955
330
1F
100
AcDbEntity
  8
SANINDUSA
100
AcDbLine
 10
1656.077667547711
 20
452.7523107723034
 30
0.0000000001020975
 11
1656.074667547711
 21
452.7523107723034
 31
0.0000000001020975
  0
LINE
  5
4957
330
1F
100
AcDbEntity
  8
SANINDUSA
100
AcDbLine
 10
1656.074667547711
 20
452.7823107723035
 30
0.0000000001020975
 11
1656.077667547711
 21
452.7823107723035
 31
0.0000000001020975
  0
LINE
  5
4958
330
1F
100
AcDbEntity
  8
SANINDUSA
100
AcDbLine
 10
1656.094603839212
 20
452.7593107723034
 30
0.0000000001020975
 11
1656.243359719229
 21
452.610554892287
 31
0.0000000001020975
  0
LINE
  5
4959
330
1F
100
AcDbEntity
  8
SANINDUSA
100
AcDbLine
 10
1656.248389719229
 20
452.6132296007859
 30
0.0000000001020975
 11
1656.248389719229
 21
452.614507600786
 31
0.0000000001020975
  0
LINE
  5
495A
330
1F
100
AcDbEntity
  8
SANINDUSA
100
AcDbLine
 10
1656.243359719229
 20
452.605618600786
 30
0.0000000001020975
 11
1656.243359719229
 21
452.618618600786
 31
0.0000000001020975
  0
LINE
  5
495B
330
1F
100
AcDbEntity
  8
SANINDUSA
100
AcDbLine
 10
1656.243359719229
 20
452.6119691058494
 30
0.0000000001020975
 11
1656.239692457339
 21
452.6156363677389
 31
0.0000000001020975
  0
LINE
  5
495C
330
1F
100
AcDbEntity
  8
SANINDUSA
100
AcDbLine
 10
1656.242359719229
 20
452.5956186007859
 30
0.0000000001020975
 11
1656.242359719229
 21
452.605618600786
 31
0.0000000001020975
  0
ARC
  5
495D
330
1F
100
AcDbEntity
  8
SANINDUSA
100
AcDbCircle
 10
1656.245359719228
 20
452.618618600786
 30
0.0000000001020975
 40
0.002
100
AcDbArc
 50
90.0
 51
180.0
  0
LINE
  5
495E
330
1F
100
AcDbEntity
  8
SANINDUSA
100
AcDbLine
 10
1656.089667547711
 20
452.7763107723035
 30
0.0000000001020975
 11
1656.089667547711
 21
452.7583107723034
 31
0.0000000001020975
  0
LINE
  5
495F
330
1F
100
AcDbEntity
  8
SANINDUSA
100
AcDbLine
 10
1656.079667547711
 20
452.7803107723035
 30
0.0000000001020975
 11
1656.079667547711
 21
452.7543107723034
 31
0.0000000001020975
  0
CIRCLE
  5
4960
330
1F
100
AcDbEntity
  8
SANINDUSA
100
AcDbCircle
 10
1656.097917547711
 20
452.7673107723034
 30
0.0000000001020975
 40
0.0050849999999992
  0
LINE
  5
4961
330
1F
100
AcDbEntity
  8
SANINDUSA
100
AcDbLine
 10
1656.104667547711
 20
452.7733107723035
 30
0.0000000001020975
 11
1656.104667547711
 21
452.7613107723034
 31
0.0000000001020975
  0
LINE
  5
4962
330
1F
100
AcDbEntity
  8
SANINDUSA
100
AcDbLine
 10
1656.109584809601
 20
452.7655430053505
 30
0.0000000001020975
 11
1656.104667547711
 21
452.7704602672401
 31
0.0000000001020975
  0
LINE
  5
4963
330
1F
100
AcDbEntity
  8
SANINDUSA
100
AcDbLine
 10
1656.097278547711
 20
452.7679497723035
 30
0.0000000001020975
 11
1656.097278547711
 21
452.7666717723034
 31
0.0000000001020975
  0
LINE
  5
4964
330
1F
100
AcDbEntity
  8
SANINDUSA
100
AcDbLine
 10
1656.094947547711
 20
452.7666717723034
 30
0.0000000001020975
 11
1656.094947547711
 21
452.7679497723035
 31
0.0000000001020975
  0
LINE
  5
4965
330
1F
100
AcDbEntity
  8
SANINDUSA
100
AcDbLine
 10
1656.097278547711
 20
452.7666717723034
 30
0.0000000001020975
 11
1656.097917547711
 21
452.7673107723034
 31
0.0000000001020975
  0
LINE
  5
4966
330
1F
100
AcDbEntity
  8
SANINDUSA
100
AcDbLine
 10
1656.098556547711
 20
452.7666717723034
 30
0.0000000001020975
 11
1656.098556547711
 21
452.7679497723035
 31
0.0000000001020975
  0
LINE
  5
4967
330
1F
100
AcDbEntity
  8
SANINDUSA
100
AcDbLine
 10
1656.100887547711
 20
452.7679497723035
 30
0.0000000001020975
 11
1656.100887547711
 21
452.7666717723034
 31
0.0000000001020975
  0
LINE
  5
4968
330
1F
100
AcDbEntity
  8
SANINDUSA
100
AcDbLine
 10
1656.097917547711
 20
452.7666717723034
 30
0.0000000001020975
 11
1656.097917547711
 21
452.7673107723034
 31
0.0000000001020975
  0
LINE
  5
4969
330
1F
100
AcDbEntity
  8
SANINDUSA
100
AcDbLine
 10
1656.097917547711
 20
452.7673107723034
 30
0.0000000001020975
 11
1656.098556547711
 21
452.7666717723034
 31
0.0000000001020975
  0
LINE
  5
496A
330
1F
100
AcDbEntity
  8
SANINDUSA
100
AcDbLine
 10
1656.079667547711
 20
452.7583107723034
 30
0.0000000001020975
 11
1656.089667547711
 21
452.7583107723034
 31
0.0000000001020975
  0
ARC
  5
496B
330
1F
100
AcDbEntity
  8
SANINDUSA
100
AcDbCircle
 10
1656.077667547711
 20
452.7543107723034
 30
0.0000000001020975
 40
0.002
100
AcDbArc
 50
270.0
 51
0.0
  0
LINE
  5
496C
330
1F
100
AcDbEntity
  8
SANINDUSA
100
AcDbLine
 10
1656.098978207883
 20
452.7549364036326
 30
0.0000000001020975
 11
1656.110291916382
 21
452.7662501121317
 31
0.0000000001020975
  0
LINE
  5
496D
330
1F
100
AcDbEntity
  8
SANINDUSA
100
AcDbLine
 10
1656.096018052775
 20
452.7593107723034
 30
0.0000000001020975
 11
1656.099685314664
 21
452.7556435104139
 31
0.0000000001020975
  0
ARC
  5
496E
330
1F
100
AcDbEntity
  8
SANINDUSA
100
AcDbCircle
 10
1656.102667547711
 20
452.7613107723034
 30
0.0000000001020975
 40
0.002
100
AcDbArc
 50
270.0
 51
0.0
  0
LINE
  5
496F
330
1F
100
AcDbEntity
  8
SANINDUSA
100
AcDbLine
 10
1656.098556547711
 20
452.7643407723035
 30
0.0000000001020975
 11
1656.097278547711
 21
452.7643407723035
 31
0.0000000001020975
  0
LINE
  5
4970
330
1F
100
AcDbEntity
  8
SANINDUSA
100
AcDbLine
 10
1656.097278547711
 20
452.7643407723035
 30
0.0000000001020975
 11
1656.097278547711
 21
452.7661918254863
 31
0.0000000001020975
  0
LINE
  5
4971
330
1F
100
AcDbEntity
  8
SANINDUSA
100
AcDbLine
 10
1656.100887547711
 20
452.7666717723034
 30
0.0000000001020975
 11
1656.099036494528
 21
452.7666717723034
 31
0.0000000001020975
  0
LINE
  5
4972
330
1F
100
AcDbEntity
  8
SANINDUSA
100
AcDbLine
 10
1656.098556547711
 20
452.7666717723034
 30
0.0000000001020975
 11
1656.097278547711
 21
452.7666717723034
 31
0.0000000001020975
  0
LINE
  5
4973
330
1F
100
AcDbEntity
  8
SANINDUSA
100
AcDbLine
 10
1656.098556547711
 20
452.7661918254863
 30
0.0000000001020975
 11
1656.098556547711
 21
452.7643407723035
 31
0.0000000001020975
  0
LINE
  5
4974
330
1F
100
AcDbEntity
  8
SANINDUSA
100
AcDbLine
 10
1656.096798600894
 20
452.7666717723034
 30
0.0000000001020975
 11
1656.094947547711
 21
452.7666717723034
 31
0.0000000001020975
  0
LINE
  5
4975
330
1F
100
AcDbEntity
  8
SANINDUSA
100
AcDbLine
 10
1656.098556547711
 20
452.7666717723034
 30
0.0000000001020975
 11
1656.099036494528
 21
452.7666717723034
 31
0.0000000001020975
  0
LINE
  5
4976
330
1F
100
AcDbEntity
  8
SANINDUSA
100
AcDbLine
 10
1656.099036494528
 20
452.7666717723034
 30
0.0000000001020975
 11
1656.100017654852
 21
452.7652106651633
 31
0.0000000001020975
  0
LINE
  5
4977
330
1F
100
AcDbEntity
  8
SANINDUSA
100
AcDbLine
 10
1656.098556547711
 20
452.7661918254863
 30
0.0000000001020975
 11
1656.098556547711
 21
452.7666717723034
 31
0.0000000001020975
  0
LINE
  5
4978
330
1F
100
AcDbEntity
  8
SANINDUSA
100
AcDbLine
 10
1656.100017654852
 20
452.7652106651633
 30
0.0000000001020975
 11
1656.098556547711
 21
452.7666717723034
 31
0.0000000001020975
  0
LINE
  5
4979
330
1F
100
AcDbEntity
  8
SANINDUSA
100
AcDbLine
 10
1656.100017654852
 20
452.7652106651633
 30
0.0000000001020975
 11
1656.098556547711
 21
452.7661918254863
 31
0.0000000001020975
  0
LINE
  5
497A
330
1F
100
AcDbEntity
  8
SANINDUSA
100
AcDbLine
 10
1656.097278547711
 20
452.7666717723034
 30
0.0000000001020975
 11
1656.097278547711
 21
452.7661918254863
 31
0.0000000001020975
  0
LINE
  5
497B
330
1F
100
AcDbEntity
  8
SANINDUSA
100
AcDbLine
 10
1656.097278547711
 20
452.7661918254863
 30
0.0000000001020975
 11
1656.095817440571
 21
452.7652106651633
 31
0.0000000001020975
  0
LINE
  5
497C
330
1F
100
AcDbEntity
  8
SANINDUSA
100
AcDbLine
 10
1656.096798600894
 20
452.7666717723034
 30
0.0000000001020975
 11
1656.097278547711
 21
452.7666717723034
 31
0.0000000001020975
  0
LINE
  5
497D
330
1F
100
AcDbEntity
  8
SANINDUSA
100
AcDbLine
 10
1656.095817440571
 20
452.7652106651633
 30
0.0000000001020975
 11
1656.097278547711
 21
452.7666717723034
 31
0.0000000001020975
  0
LINE
  5
497E
330
1F
100
AcDbEntity
  8
SANINDUSA
100
AcDbLine
 10
1656.095817440571
 20
452.7652106651633
 30
0.0000000001020975
 11
1656.096798600894
 21
452.7666717723034
 31
0.0000000001020975
  0
LINE
  5
497F
330
1F
100
AcDbEntity
  8
SANINDUSA
100
AcDbLine
 10
1656.089667547711
 20
452.7593107723034
 30
0.0000000001020975
 11
1656.102667547711
 21
452.7593107723034
 31
0.0000000001020975
  0
LINE
  5
4980
330
1F
100
AcDbEntity
  8
SANINDUSA
100
AcDbLine
 10
1656.079667547711
 20
452.7763107723035
 30
0.0000000001020975
 11
1656.089667547711
 21
452.7763107723035
 31
0.0000000001020975
  0
ARC
  5
4981
330
1F
100
AcDbEntity
  8
SANINDUSA
100
AcDbCircle
 10
1656.077667547711
 20
452.7803107723035
 30
0.0000000001020975
 40
0.002
100
AcDbArc
 50
0.0
 51
90.0
  0
LINE
  5
4982
330
1F
100
AcDbEntity
  8
SANINDUSA
100
AcDbLine
 10
1656.098556547711
 20
452.7673107723034
 30
0.0000000001020975
 11
1656.097917547711
 21
452.7673107723034
 31
0.0000000001020975
  0
LINE
  5
4983
330
1F
100
AcDbEntity
  8
SANINDUSA
100
AcDbLine
 10
1656.097278547711
 20
452.7702807723034
 30
0.0000000001020975
 11
1656.098556547711
 21
452.7702807723034
 31
0.0000000001020975
  0
LINE
  5
4984
330
1F
100
AcDbEntity
  8
SANINDUSA
100
AcDbLine
 10
1656.097917547711
 20
452.7673107723034
 30
0.0000000001020975
 11
1656.097278547711
 21
452.7673107723034
 31
0.0000000001020975
  0
LINE
  5
4985
330
1F
100
AcDbEntity
  8
SANINDUSA
100
AcDbLine
 10
1656.098556547711
 20
452.7702807723034
 30
0.0000000001020975
 11
1656.098556547711
 21
452.7684297191206
 31
0.0000000001020975
  0
LINE
  5
4986
330
1F
100
AcDbEntity
  8
SANINDUSA
100
AcDbLine
 10
1656.097917547711
 20
452.7673107723034
 30
0.0000000001020975
 11
1656.097278547711
 21
452.7679497723035
 31
0.0000000001020975
  0
LINE
  5
4987
330
1F
100
AcDbEntity
  8
SANINDUSA
100
AcDbLine
 10
1656.097917547711
 20
452.7673107723034
 30
0.0000000001020975
 11
1656.097917547711
 21
452.7679497723035
 31
0.0000000001020975
  0
LINE
  5
4988
330
1F
100
AcDbEntity
  8
SANINDUSA
100
AcDbLine
 10
1656.098556547711
 20
452.7679497723035
 30
0.0000000001020975
 11
1656.097917547711
 21
452.7673107723034
 31
0.0000000001020975
  0
LINE
  5
4989
330
1F
100
AcDbEntity
  8
SANINDUSA
100
AcDbLine
 10
1656.094947547711
 20
452.7679497723035
 30
0.0000000001020975
 11
1656.096798600894
 21
452.7679497723035
 31
0.0000000001020975
  0
LINE
  5
498A
330
1F
100
AcDbEntity
  8
SANINDUSA
100
AcDbLine
 10
1656.097278547711
 20
452.7679497723035
 30
0.0000000001020975
 11
1656.098556547711
 21
452.7679497723035
 31
0.0000000001020975
  0
LINE
  5
498B
330
1F
100
AcDbEntity
  8
SANINDUSA
100
AcDbLine
 10
1656.097278547711
 20
452.7684297191206
 30
0.0000000001020975
 11
1656.097278547711
 21
452.7702807723034
 31
0.0000000001020975
  0
LINE
  5
498C
330
1F
100
AcDbEntity
  8
SANINDUSA
100
AcDbLine
 10
1656.099036494528
 20
452.7679497723035
 30
0.0000000001020975
 11
1656.100887547711
 21
452.7679497723035
 31
0.0000000001020975
  0
LINE
  5
498D
330
1F
100
AcDbEntity
  8
SANINDUSA
100
AcDbLine
 10
1656.097278547711
 20
452.7679497723035
 30
0.0000000001020975
 11
1656.096798600894
 21
452.7679497723035
 31
0.0000000001020975
  0
LINE
  5
498E
330
1F
100
AcDbEntity
  8
SANINDUSA
100
AcDbLine
 10
1656.096798600894
 20
452.7679497723035
 30
0.0000000001020975
 11
1656.095817440571
 21
452.7694108794436
 31
0.0000000001020975
  0
LINE
  5
498F
330
1F
100
AcDbEntity
  8
SANINDUSA
100
AcDbLine
 10
1656.097278547711
 20
452.7684297191206
 30
0.0000000001020975
 11
1656.097278547711
 21
452.7679497723035
 31
0.0000000001020975
  0
LINE
  5
4990
330
1F
100
AcDbEntity
  8
SANINDUSA
100
AcDbLine
 10
1656.095817440571
 20
452.7694108794436
 30
0.0000000001020975
 11
1656.097278547711
 21
452.7679497723035
 31
0.0000000001020975
  0
LINE
  5
4991
330
1F
100
AcDbEntity
  8
SANINDUSA
100
AcDbLine
 10
1656.095817440571
 20
452.7694108794436
 30
0.0000000001020975
 11
1656.097278547711
 21
452.7684297191206
 31
0.0000000001020975
  0
LINE
  5
4992
330
1F
100
AcDbEntity
  8
SANINDUSA
100
AcDbLine
 10
1656.098556547711
 20
452.7679497723035
 30
0.0000000001020975
 11
1656.098556547711
 21
452.7684297191206
 31
0.0000000001020975
  0
LINE
  5
4993
330
1F
100
AcDbEntity
  8
SANINDUSA
100
AcDbLine
 10
1656.098556547711
 20
452.7684297191206
 30
0.0000000001020975
 11
1656.100017654852
 21
452.7694108794436
 31
0.0000000001020975
  0
LINE
  5
4994
330
1F
100
AcDbEntity
  8
SANINDUSA
100
AcDbLine
 10
1656.099036494528
 20
452.7679497723035
 30
0.0000000001020975
 11
1656.098556547711
 21
452.7679497723035
 31
0.0000000001020975
  0
LINE
  5
4995
330
1F
100
AcDbEntity
  8
SANINDUSA
100
AcDbLine
 10
1656.100017654852
 20
452.7694108794436
 30
0.0000000001020975
 11
1656.098556547711
 21
452.7679497723035
 31
0.0000000001020975
  0
LINE
  5
4996
330
1F
100
AcDbEntity
  8
SANINDUSA
100
AcDbLine
 10
1656.100017654852
 20
452.7694108794436
 30
0.0000000001020975
 11
1656.099036494528
 21
452.7679497723035
 31
0.0000000001020975
  0
ARC
  5
4997
330
1F
100
AcDbEntity
  8
SANINDUSA
100
AcDbCircle
 10
1656.102667547711
 20
452.7733107723035
 30
0.0000000001020975
 40
0.002
100
AcDbArc
 50
0.0
 51
90.0
  0
LINE
  5
4998
330
1F
100
AcDbEntity
  8
SANINDUSA
100
AcDbLine
 10
1656.089667547711
 20
452.7753107723035
 30
0.0000000001020975
 11
1656.102667547711
 21
452.7753107723035
 31
0.0000000001020975
  0
LINE
  5
4999
330
1F
100
AcDbEntity
  8
SANINDUSA
100
AcDbLine
 10
1656.074667547711
 20
452.7523107723034
 30
0.0000000001020975
 11
1656.074667547711
 21
452.7823107723035
 31
0.0000000001020975
  0
LINE
  5
499C
330
1F
100
AcDbEntity
  8
SANINDUSA
100
AcDbLine
 10
1656.500164264445
 20
452.594018600786
 30
0.000000000155555
 11
1656.449164264445
 21
452.594018600786
 31
0.000000000155555
  0
LINE
  5
499D
330
1F
100
AcDbEntity
  8
SANINDUSA
100
AcDbLine
 10
1656.448164264445
 20
452.589018600786
 30
0.000000000155555
 11
1656.501164264445
 21
452.589018600786
 31
0.000000000155555
  0
LINE
  5
499E
330
1F
100
AcDbEntity
  8
SANINDUSA
100
AcDbLine
 10
1656.501164264445
 20
452.589018600786
 30
0.000000000155555
 11
1656.501164264445
 21
452.593018600786
 31
0.000000000155555
  0
ARC
  5
499F
330
1F
100
AcDbEntity
  8
SANINDUSA
100
AcDbCircle
 10
1656.500164264445
 20
452.593018600786
 30
0.000000000155555
 40
0.001
100
AcDbArc
 50
0.0
 51
90.0
  0
LINE
  5
49A0
330
1F
100
AcDbEntity
  8
SANINDUSA
100
AcDbLine
 10
1656.448164264445
 20
452.589018600786
 30
0.000000000155555
 11
1656.448164264445
 21
452.593018600786
 31
0.000000000155555
  0
LINE
  5
49A1
330
1F
100
AcDbEntity
  8
SANINDUSA
100
AcDbLine
 10
1656.43450948637
 20
452.5902186045956
 30
0.0000000001555548
 11
1656.433516403791
 21
452.5902186045956
 31
0.0000000001555548
  0
ARC
  5
49A2
330
1F
100
AcDbEntity
  8
SANINDUSA
100
AcDbCircle
 10
1656.437055790924
 20
452.587868334456
 30
0.0000000001555548
 40
0.00075
100
AcDbArc
 50
170.6591658992158
 51
0.136553570966181
  0
LINE
  5
49A3
330
1F
100
AcDbEntity
  8
SANINDUSA
100
AcDbLine
 10
1656.435361648706
 20
452.5889070792211
 30
0.0000000001555548
 11
1656.435944095885
 21
452.5888112735525
 31
0.0000000001555548
  0
ARC
  5
49A4
330
1F
100
AcDbEntity
  8
SANINDUSA
100
AcDbCircle
 10
1656.438305787374
 20
452.58787131359
 30
0.0000000001555548
 40
0.0005
100
AcDbArc
 50
80.65916589173115
 51
180.1365535709662
  0
LINE
  5
49A5
330
1F
100
AcDbEntity
  8
SANINDUSA
100
AcDbLine
 10
1656.43635631248
 20
452.5882367498554
 30
0.0000000001555548
 11
1656.436315735705
 21
452.5879900647822
 31
0.0000000001555548
  0
LINE
  5
49A6
330
1F
100
AcDbEntity
  8
SANINDUSA
100
AcDbLine
 10
1656.437795846144
 20
452.5877466041296
 30
0.0000000001555548
 11
1656.437836422919
 21
452.5879932892028
 31
0.0000000001555548
  0
ARC
  5
49A7
330
1F
100
AcDbEntity
  8
SANINDUSA
100
AcDbCircle
 10
1656.435862942334
 20
452.5883179034062
 30
0.0000000001555548
 40
0.0005
100
AcDbArc
 50
350.6591658992158
 51
80.65916589173115
  0
ARC
  5
49A8
330
1F
100
AcDbEntity
  8
SANINDUSA
100
AcDbCircle
 10
1656.441538162734
 20
452.5874490890744
 30
0.0000000001555548
 40
0.000175
100
AcDbArc
 50
97.99999999855764
 51
277.9999999985577
  0
ARC
  5
49A9
330
1F
100
AcDbEntity
  8
SANINDUSA
100
AcDbCircle
 10
1656.441116403791
 20
452.5877130318151
 30
0.0000000001555548
 40
0.0006
100
AcDbArc
 50
80.65916589173115
 51
128.8488510013434
  0
ARC
  5
49AA
330
1F
100
AcDbEntity
  8
SANINDUSA
100
AcDbCircle
 10
1656.440363682125
 20
452.5886475959342
 30
0.0000000001555548
 40
0.0006000000000005
100
AcDbArc
 50
260.6591658917312
 51
308.8488510013434
  0
LINE
  5
49AB
330
1F
100
AcDbEntity
  8
SANINDUSA
100
AcDbLine
 10
1656.438386940925
 20
452.5883646837361
 30
0.0000000001555548
 11
1656.440266297863
 21
452.5880555517587
 31
0.0000000001555548
  0
ARC
  5
49AC
330
1F
100
AcDbEntity
  8
SANINDUSA
100
AcDbCircle
 10
1656.444928816821
 20
452.5878966852972
 30
0.0000000001555548
 40
0.0006
100
AcDbArc
 50
212.4694807936415
 51
260.6591658917312
  0
LINE
  5
49AD
330
1F
100
AcDbEntity
  8
SANINDUSA
100
AcDbLine
 10
1656.446516403791
 20
452.5870274832928
 30
0.0000000001555548
 11
1656.446516403791
 21
452.5877342389269
 31
0.0000000001555548
  0
LINE
  5
49AE
330
1F
100
AcDbEntity
  8
SANINDUSA
100
AcDbLine
 10
1656.44483143256
 20
452.5873046411216
 30
0.0000000001555548
 11
1656.446516403791
 21
452.5870274832928
 31
0.0000000001555548
  0
ARC
  5
49AF
330
1F
100
AcDbEntity
  8
SANINDUSA
100
AcDbCircle
 10
1656.443621626876
 20
452.588070094825
 30
0.0000000001555548
 40
0.0005
100
AcDbArc
 50
277.9999999985577
 51
331.8736260327467
  0
ARC
  5
49B0
330
1F
100
AcDbEntity
  8
SANINDUSA
100
AcDbCircle
 10
1656.443916403791
 20
452.5872524649483
 30
0.0000000001555548
 40
0.0005999999999989
100
AcDbArc
 50
32.46948079364152
 51
75.89910818717803
  0
ARC
  5
49B1
330
1F
100
AcDbEntity
  8
SANINDUSA
100
AcDbCircle
 10
1656.445916403791
 20
452.5877342389269
 30
0.0000000001555548
 40
0.0006
100
AcDbArc
 50
0.0
 51
80.65916589173115
  0
LINE
  5
49B2
330
1F
100
AcDbEntity
  8
SANINDUSA
100
AcDbLine
 10
1656.441562518027
 20
452.5872757921623
 30
0.0000000001555548
 11
1656.443691213426
 21
452.5875749607906
 31
0.0000000001555548
  0
LINE
  5
49B3
330
1F
100
AcDbEntity
  8
SANINDUSA
100
AcDbLine
 10
1656.441213788052
 20
452.5883050759905
 30
0.0000000001555548
 11
1656.443590135797
 21
452.5879141949066
 31
0.0000000001555548
  0
LINE
  5
49B4
330
1F
100
AcDbEntity
  8
SANINDUSA
100
AcDbLine
 10
1656.443590135797
 20
452.5879141949066
 30
0.0000000001555548
 11
1656.441513807441
 21
452.5876223859864
 31
0.0000000001555548
  0
LINE
  5
49B5
330
1F
100
AcDbEntity
  8
SANINDUSA
100
AcDbLine
 10
1656.446013788052
 20
452.5883262831023
 30
0.0000000001555548
 11
1656.43450948637
 21
452.5902186045956
 31
0.0000000001555548
  0
ARC
  5
49B6
330
1F
100
AcDbEntity
  8
SANINDUSA
100
AcDbCircle
 10
1656.435264264445
 20
452.5883150350456
 30
0.0000000001555548
 40
0.0006
100
AcDbArc
 50
80.65916589173115
 51
180.0
  0
ARC
  5
49B7
330
1F
100
AcDbEntity
  8
SANINDUSA
100
AcDbCircle
 10
1656.449164264445
 20
452.593018600786
 30
0.000000000155555
 40
0.001
100
AcDbArc
 50
90.0
 51
180.0
  0
LINE
  5
49B8
330
1F
100
AcDbEntity
  8
SANINDUSA
100
AcDbLine
 10
1656.418164264445
 20
452.589018600786
 30
0.000000000155555
 11
1656.365164264445
 21
452.589018600786
 31
0.000000000155555
  0
LINE
  5
49B9
330
1F
100
AcDbEntity
  8
SANINDUSA
100
AcDbLine
 10
1656.366164264445
 20
452.594018600786
 30
0.000000000155555
 11
1656.417164264445
 21
452.594018600786
 31
0.000000000155555
  0
LINE
  5
49BA
330
1F
100
AcDbEntity
  8
SANINDUSA
100
AcDbLine
 10
1656.418164264445
 20
452.589018600786
 30
0.000000000155555
 11
1656.418164264445
 21
452.593018600786
 31
0.000000000155555
  0
ARC
  5
49BB
330
1F
100
AcDbEntity
  8
SANINDUSA
100
AcDbCircle
 10
1656.417164264445
 20
452.593018600786
 30
0.000000000155555
 40
0.001
100
AcDbArc
 50
0.0
 51
90.0
  0
LINE
  5
49BC
330
1F
100
AcDbEntity
  8
SANINDUSA
100
AcDbLine
 10
1656.365164264445
 20
452.589018600786
 30
0.000000000155555
 11
1656.365164264445
 21
452.593018600786
 31
0.000000000155555
  0
ARC
  5
49BD
330
1F
100
AcDbEntity
  8
SANINDUSA
100
AcDbCircle
 10
1656.366164264445
 20
452.593018600786
 30
0.000000000155555
 40
0.001
100
AcDbArc
 50
90.0
 51
180.0
  0
LINE
  5
49C2
330
1F
100
AcDbEntity
  8
SANINDUSA
100
AcDbLine
 10
1657.880004421648
 20
452.0190378305779
 30
-0.0000000017937957
 11
1657.939004421648
 21
452.0190378305779
 31
-0.0000000017937957
  0
LINE
  5
49C3
330
1F
100
AcDbEntity
  8
SANINDUSA
100
AcDbLine
 10
1657.938115532759
 20
452.0540378305779
 30
-0.0000000017937957
 11
1657.880004421648
 21
452.0540378305779
 31
-0.0000000017937957
  0
LINE
  5
49C5
330
1F
100
AcDbEntity
  8
SANINDUSA
100
AcDbLine
 10
1657.955004421648
 20
452.0345378305778
 30
-0.0000000017937957
 11
1657.955004421648
 21
452.0135378305779
 31
-0.0000000017937957
  0
LINE
  5
49C6
330
1F
100
AcDbEntity
  8
SANINDUSA
100
AcDbLine
 10
1657.955893310537
 20
452.0190378305779
 30
-0.0000000017937957
 11
1657.955893310537
 21
452.0385378305778
 31
-0.0000000017937957
  0
LINE
  5
49C7
330
1F
100
AcDbEntity
  8
SANINDUSA
100
AcDbLine
 10
1658.015004421647
 20
452.0530378305778
 30
-0.0000000017937957
 11
1658.015004421647
 21
452.0200378305778
 31
-0.0000000017937957
  0
LINE
  5
49C8
330
1F
100
AcDbEntity
  8
SANINDUSA
100
AcDbLine
 10
1658.014004421648
 20
452.0190378305779
 30
-0.0000000017937957
 11
1657.955893310537
 21
452.0190378305779
 31
-0.0000000017937957
  0
ARC
  5
49C9
330
1F
100
AcDbEntity
  8
SANINDUSA
100
AcDbCircle
 10
1658.014004421648
 20
452.0200378305778
 30
-0.0000000017937957
 40
0.001
100
AcDbArc
 50
270.0
 51
0.0
  0
ARC
  5
49CA
330
1F
100
AcDbEntity
  8
SANINDUSA
100
AcDbCircle
 10
1657.954004421648
 20
452.0135378305779
 30
-0.0000000017937957
 40
0.001
100
AcDbArc
 50
270.0
 51
0.0
  0
LINE
  5
49CB
330
1F
100
AcDbEntity
  8
SANINDUSA
100
AcDbLine
 10
1657.955004421648
 20
452.0540378305779
 30
-0.0000000017937957
 11
1658.014004421648
 21
452.0540378305779
 31
-0.0000000017937957
  0
ARC
  5
49CC
330
1F
100
AcDbEntity
  8
SANINDUSA
100
AcDbCircle
 10
1658.014004421648
 20
452.0530378305778
 30
-0.0000000017937957
 40
0.001
100
AcDbArc
 50
0.0
 51
90.0
  0
ARC
  5
49CD
330
1F
100
AcDbEntity
  8
SANINDUSA
100
AcDbCircle
 10
1657.954004421648
 20
452.0595378305778
 30
-0.0000000017937957
 40
0.001
100
AcDbArc
 50
0.0
 51
90.0
  0
LINE
  5
49CE
330
1F
100
AcDbEntity
  8
SANINDUSA
100
AcDbLine
 10
1657.955004421648
 20
452.0540378305779
 30
-0.0000000017937957
 11
1657.955004421648
 21
452.0385378305778
 31
-0.0000000017937957
  0
LINE
  5
49CF
330
1F
100
AcDbEntity
  8
SANINDUSA
100
AcDbLine
 10
1657.955004421648
 20
452.0595378305778
 30
-0.0000000017937957
 11
1657.955004421648
 21
452.0540378305779
 31
-0.0000000017937957
  0
LINE
  5
49D0
330
1F
100
AcDbEntity
  8
SANINDUSA
100
AcDbLine
 10
1657.954504421648
 20
452.0385378305778
 30
-0.0000000017937957
 11
1657.954504421648
 21
452.0345378305778
 31
-0.0000000017937957
  0
LINE
  5
49D1
330
1F
100
AcDbEntity
  8
SANINDUSA
100
AcDbLine
 10
1657.939004421648
 20
452.0135378305779
 30
-0.0000000017937957
 11
1657.939004421648
 21
452.0345378305778
 31
-0.0000000017937957
  0
ARC
  5
49D2
330
1F
100
AcDbEntity
  8
SANINDUSA
100
AcDbCircle
 10
1657.940004421648
 20
452.0135378305779
 30
-0.0000000017937957
 40
0.001
100
AcDbArc
 50
180.0
 51
270.0
  0
LINE
  5
49D3
330
1F
100
AcDbEntity
  8
SANINDUSA
100
AcDbLine
 10
1657.954004421648
 20
452.0125378305778
 30
-0.0000000017937957
 11
1657.940004421648
 21
452.0125378305778
 31
-0.0000000017937957
  0
LINE
  5
49D4
330
1F
100
AcDbEntity
  8
SANINDUSA
100
AcDbLine
 10
1657.939004421647
 20
452.0385378305778
 30
-0.0000000017937957
 11
1657.939004421647
 21
452.0595378305778
 31
-0.0000000017937957
  0
LINE
  5
49D5
330
1F
100
AcDbEntity
  8
SANINDUSA
100
AcDbLine
 10
1657.938115532759
 20
452.0345378305778
 30
-0.0000000017937957
 11
1657.938115532759
 21
452.0540378305779
 31
-0.0000000017937957
  0
LINE
  5
49D6
330
1F
100
AcDbEntity
  8
SANINDUSA
100
AcDbLine
 10
1657.939504421648
 20
452.0385378305778
 30
-0.0000000017937957
 11
1657.939504421648
 21
452.0345378305778
 31
-0.0000000017937957
  0
LINE
  5
49D7
330
1F
100
AcDbEntity
  8
SANINDUSA
100
AcDbLine
 10
1657.939004421648
 20
452.0345378305778
 30
-0.0000000017937957
 11
1657.938115532759
 21
452.0345378305778
 31
-0.0000000017937957
  0
ARC
  5
49D8
330
1F
100
AcDbEntity
  8
SANINDUSA
100
AcDbCircle
 10
1657.940004421648
 20
452.0595378305778
 30
-0.0000000017937957
 40
0.001
100
AcDbArc
 50
90.0
 51
180.0
  0
LINE
  5
49D9
330
1F
100
AcDbEntity
  8
SANINDUSA
100
AcDbLine
 10
1657.955893310537
 20
452.0385378305778
 30
-0.0000000017937957
 11
1657.939004421647
 21
452.0385378305778
 31
-0.0000000017937957
  0
LINE
  5
49DA
330
1F
100
AcDbEntity
  8
SANINDUSA
100
AcDbLine
 10
1657.939004421648
 20
452.0345378305778
 30
-0.0000000017937957
 11
1657.955004421648
 21
452.0345378305778
 31
-0.0000000017937957
  0
LINE
  5
49DB
330
1F
100
AcDbEntity
  8
SANINDUSA
100
AcDbLine
 10
1657.940004421648
 20
452.0605378305778
 30
-0.0000000017937957
 11
1657.954004421648
 21
452.0605378305778
 31
-0.0000000017937957
  0
LINE
  5
49DC
330
1F
100
AcDbEntity
  8
SANINDUSA
100
AcDbLine
 10
1657.879004421648
 20
452.0530378305778
 30
-0.0000000017937957
 11
1657.879004421648
 21
452.0200378305778
 31
-0.0000000017937957
  0
ARC
  5
49DD
330
1F
100
AcDbEntity
  8
SANINDUSA
100
AcDbCircle
 10
1657.880004421648
 20
452.0200378305778
 30
-0.0000000017937957
 40
0.001
100
AcDbArc
 50
180.0
 51
270.0
  0
ARC
  5
49DE
330
1F
100
AcDbEntity
  8
SANINDUSA
100
AcDbCircle
 10
1657.880004421648
 20
452.0530378305778
 30
-0.0000000017937957
 40
0.001
100
AcDbArc
 50
90.0
 51
180.0
  0
LINE
  5
49DF
330
1F
100
AcDbEntity
  8
SANINDUSA
100
AcDbLine
 10
1657.880004421648
 20
453.2790378305682
 30
-0.0000000017937957
 11
1657.939004421648
 21
453.2790378305682
 31
-0.0000000017937957
  0
LINE
  5
49E0
330
1F
100
AcDbEntity
  8
SANINDUSA
100
AcDbLine
 10
1657.938115532759
 20
453.3140378305682
 30
-0.0000000017937957
 11
1657.880004421648
 21
453.3140378305682
 31
-0.0000000017937957
  0
LINE
  5
49E2
330
1F
100
AcDbEntity
  8
SANINDUSA
100
AcDbLine
 10
1657.955004421648
 20
453.2945378305682
 30
-0.0000000017937957
 11
1657.955004421648
 21
453.2735378305682
 31
-0.0000000017937957
  0
LINE
  5
49E3
330
1F
100
AcDbEntity
  8
SANINDUSA
100
AcDbLine
 10
1657.955893310537
 20
453.2790378305682
 30
-0.0000000017937957
 11
1657.955893310537
 21
453.2985378305681
 31
-0.0000000017937957
  0
LINE
  5
49E4
330
1F
100
AcDbEntity
  8
SANINDUSA
100
AcDbLine
 10
1658.015004421647
 20
453.3130378305681
 30
-0.0000000017937957
 11
1658.015004421647
 21
453.2800378305682
 31
-0.0000000017937957
  0
LINE
  5
49E5
330
1F
100
AcDbEntity
  8
SANINDUSA
100
AcDbLine
 10
1658.014004421648
 20
453.2790378305682
 30
-0.0000000017937957
 11
1657.955893310537
 21
453.2790378305682
 31
-0.0000000017937957
  0
ARC
  5
49E6
330
1F
100
AcDbEntity
  8
SANINDUSA
100
AcDbCircle
 10
1658.014004421648
 20
453.2800378305682
 30
-0.0000000017937957
 40
0.001
100
AcDbArc
 50
270.0
 51
0.0
  0
ARC
  5
49E7
330
1F
100
AcDbEntity
  8
SANINDUSA
100
AcDbCircle
 10
1657.954004421648
 20
453.2735378305682
 30
-0.0000000017937957
 40
0.001
100
AcDbArc
 50
270.0
 51
0.0
  0
LINE
  5
49E8
330
1F
100
AcDbEntity
  8
SANINDUSA
100
AcDbLine
 10
1657.955004421648
 20
453.3140378305682
 30
-0.0000000017937957
 11
1658.014004421648
 21
453.3140378305682
 31
-0.0000000017937957
  0
ARC
  5
49E9
330
1F
100
AcDbEntity
  8
SANINDUSA
100
AcDbCircle
 10
1658.014004421648
 20
453.3130378305681
 30
-0.0000000017937957
 40
0.001
100
AcDbArc
 50
0.0
 51
90.0
  0
ARC
  5
49EA
330
1F
100
AcDbEntity
  8
SANINDUSA
100
AcDbCircle
 10
1657.954004421648
 20
453.3195378305681
 30
-0.0000000017937957
 40
0.001
100
AcDbArc
 50
0.0
 51
90.0
  0
LINE
  5
49EB
330
1F
100
AcDbEntity
  8
SANINDUSA
100
AcDbLine
 10
1657.955004421648
 20
453.3140378305682
 30
-0.0000000017937957
 11
1657.955004421648
 21
453.2985378305681
 31
-0.0000000017937957
  0
LINE
  5
49EC
330
1F
100
AcDbEntity
  8
SANINDUSA
100
AcDbLine
 10
1657.955004421648
 20
453.3195378305681
 30
-0.0000000017937957
 11
1657.955004421648
 21
453.3140378305682
 31
-0.0000000017937957
  0
LINE
  5
49ED
330
1F
100
AcDbEntity
  8
SANINDUSA
100
AcDbLine
 10
1657.954504421648
 20
453.2985378305681
 30
-0.0000000017937957
 11
1657.954504421648
 21
453.2945378305682
 31
-0.0000000017937957
  0
LINE
  5
49EE
330
1F
100
AcDbEntity
  8
SANINDUSA
100
AcDbLine
 10
1657.939004421648
 20
453.2735378305682
 30
-0.0000000017937957
 11
1657.939004421648
 21
453.2945378305682
 31
-0.0000000017937957
  0
ARC
  5
49EF
330
1F
100
AcDbEntity
  8
SANINDUSA
100
AcDbCircle
 10
1657.940004421648
 20
453.2735378305682
 30
-0.0000000017937957
 40
0.001
100
AcDbArc
 50
180.0
 51
270.0
  0
LINE
  5
49F0
330
1F
100
AcDbEntity
  8
SANINDUSA
100
AcDbLine
 10
1657.954004421648
 20
453.2725378305682
 30
-0.0000000017937957
 11
1657.940004421648
 21
453.2725378305682
 31
-0.0000000017937957
  0
LINE
  5
49F1
330
1F
100
AcDbEntity
  8
SANINDUSA
100
AcDbLine
 10
1657.939004421647
 20
453.2985378305681
 30
-0.0000000017937957
 11
1657.939004421647
 21
453.3195378305681
 31
-0.0000000017937957
  0
LINE
  5
49F2
330
1F
100
AcDbEntity
  8
SANINDUSA
100
AcDbLine
 10
1657.938115532759
 20
453.2945378305682
 30
-0.0000000017937957
 11
1657.938115532759
 21
453.3140378305682
 31
-0.0000000017937957
  0
LINE
  5
49F3
330
1F
100
AcDbEntity
  8
SANINDUSA
100
AcDbLine
 10
1657.939504421648
 20
453.2985378305681
 30
-0.0000000017937957
 11
1657.939504421648
 21
453.2945378305682
 31
-0.0000000017937957
  0
LINE
  5
49F4
330
1F
100
AcDbEntity
  8
SANINDUSA
100
AcDbLine
 10
1657.939004421648
 20
453.2945378305682
 30
-0.0000000017937957
 11
1657.938115532759
 21
453.2945378305682
 31
-0.0000000017937957
  0
ARC
  5
49F5
330
1F
100
AcDbEntity
  8
SANINDUSA
100
AcDbCircle
 10
1657.940004421648
 20
453.3195378305681
 30
-0.0000000017937957
 40
0.001
100
AcDbArc
 50
90.0
 51
180.0
  0
LINE
  5
49F6
330
1F
100
AcDbEntity
  8
SANINDUSA
100
AcDbLine
 10
1657.955893310537
 20
453.2985378305681
 30
-0.0000000017937957
 11
1657.939004421647
 21
453.2985378305681
 31
-0.0000000017937957
  0
LINE
  5
49F7
330
1F
100
AcDbEntity
  8
SANINDUSA
100
AcDbLine
 10
1657.939004421648
 20
453.2945378305682
 30
-0.0000000017937957
 11
1657.955004421648
 21
453.2945378305682
 31
-0.0000000017937957
  0
LINE
  5
49F8
330
1F
100
AcDbEntity
  8
SANINDUSA
100
AcDbLine
 10
1657.940004421648
 20
453.3205378305681
 30
-0.0000000017937957
 11
1657.954004421648
 21
453.3205378305681
 31
-0.0000000017937957
  0
LINE
  5
49F9
330
1F
100
AcDbEntity
  8
SANINDUSA
100
AcDbLine
 10
1657.879004421648
 20
453.3130378305681
 30
-0.0000000017937957
 11
1657.879004421648
 21
453.2800378305682
 31
-0.0000000017937957
  0
ARC
  5
49FA
330
1F
100
AcDbEntity
  8
SANINDUSA
100
AcDbCircle
 10
1657.880004421648
 20
453.2800378305682
 30
-0.0000000017937957
 40
0.001
100
AcDbArc
 50
180.0
 51
270.0
  0
ARC
  5
49FB
330
1F
100
AcDbEntity
  8
SANINDUSA
100
AcDbCircle
 10
1657.880004421648
 20
453.3130378305681
 30
-0.0000000017937957
 40
0.001
100
AcDbArc
 50
90.0
 51
180.0
  0
LINE
  5
49FC
330
1F
100
AcDbEntity
  8
SANINDUSA
100
AcDbLine
 10
1657.945504421648
 20
453.3205378305681
 30
0.0
 11
1657.945504421648
 21
453.5915378305778
 31
0.0
  0
LINE
  5
49FD
330
1F
100
AcDbEntity
  8
SANINDUSA
100
AcDbLine
 10
1657.948504421648
 20
453.3205378305681
 30
0.0
 11
1657.948504421648
 21
453.5915378305778
 31
0.0
  0
LINE
  5
49FE
330
1F
100
AcDbEntity
  8
SANINDUSA
100
AcDbLine
 10
1657.588507704914
 20
451.7415378305779
 30
0.0
 11
1657.588507704914
 21
453.5915378305778
 31
0.0
  0
LINE
  5
49FF
330
1F
100
AcDbEntity
  8
SANINDUSA
100
AcDbLine
 10
1657.642857704914
 20
451.7415378305779
 30
0.0
 11
1657.642857704914
 21
453.5915378305778
 31
0.0
  0
LINE
  5
4A01
330
1F
100
AcDbEntity
  8
SANINDUSA
100
AcDbLine
 10
1657.945504421648
 20
452.0605378305778
 30
0.0
 11
1657.945504421648
 21
453.2725378305682
 31
0.0
  0
LINE
  5
4A02
330
1F
100
AcDbEntity
  8
SANINDUSA
100
AcDbLine
 10
1657.948504421648
 20
452.0605378305778
 30
0.0
 11
1657.948504421648
 21
453.2725378305682
 31
0.0
  0
LINE
  5
4A03
330
1F
100
AcDbEntity
  8
SANINDUSA
100
AcDbLine
 10
1657.948504421648
 20
451.7515378305779
 30
0.0
 11
1658.565696920497
 21
451.7515378305779
 31
0.0
  0
LINE
  5
4A08
330
1F
100
AcDbEntity
  8
SANINDUSA
100
AcDbLine
 10
1657.948504421648
 20
451.7515378305779
 30
0.0
 11
1657.948504421648
 21
452.0125378305778
 31
0.0
  0
LINE
  5
4A09
330
1F
100
AcDbEntity
  8
SANINDUSA
100
AcDbLine
 10
1657.945504421648
 20
451.7415378305779
 30
0.0
 11
1657.945504421648
 21
452.0125378305778
 31
0.0
  0
LINE
  5
4A0E
330
1F
100
AcDbEntity
  8
SANINDUSA
100
AcDbLine
 10
1657.948504421648
 20
453.5915378305778
 30
0.0
 11
1658.565696920497
 21
453.5915378305778
 31
0.0000000001555548
  0
LINE
  5
4A0F
330
1F
100
AcDbEntity
  8
SANINDUSA
100
AcDbLine
 10
1657.588507704914
 20
453.5915378305778
 30
0.0
 11
1658.016324436763
 21
453.5915378305778
 31
0.0
  0
LINE
  5
4A10
330
1F
100
AcDbEntity
  8
SANINDUSA
100
AcDbLine
 10
1658.565696920497
 20
451.7415378305777
 30
0.0000000001555548
 11
1657.588507704914
 21
451.7415378305779
 31
0.0
  0
LINE
  5
4A11
330
1F
100
AcDbEntity
  8
SANINDUSA
100
AcDbLine
 10
1657.627864170258
 20
451.7415378305779
 30
0.0
 11
1657.627864170258
 21
453.5915378305778
 31
0.0
  0
LINE
  5
4A12
330
1F
100
AcDbEntity
  8
SANINDUSA
100
AcDbLine
 10
1658.536727072016
 20
453.5915378305778
 30
0.0000000001555548
 11
1658.536727072016
 21
451.7515378305779
 31
0.0000000001555548
  0
LINE
  5
4A13
330
1F
100
AcDbEntity
  8
SANINDUSA
100
AcDbLine
 10
1658.562727072016
 20
453.5915378305778
 30
0.0000000001555548
 11
1658.562727072016
 21
451.7515378305779
 31
0.0000000001555548
  0
LINE
  5
4A14
330
1F
100
AcDbEntity
  8
SANINDUSA
100
AcDbLine
 10
1658.565696920497
 20
453.5915378305778
 30
0.0000000001555548
 11
1658.565696920497
 21
451.7415378305777
 31
0.0000000001555548
  0
ENDSEC
  0
SECTION
  2
OBJECTS
  0
DICTIONARY
  5
C
330
0
100
AcDbDictionary
281
     1
  3
ACAD_2007HEADERVARS_RT
350
4C3B
  3
ACAD_COLOR
350
BA9
  3
ACAD_GROUP
350
D
  3
ACAD_LAYOUT
350
1A
  3
ACAD_MATERIAL
350
BA8
  3
ACAD_MLEADERSTYLE
350
4BC7
  3
ACAD_MLINESTYLE
350
17
  3
ACAD_PLOTSETTINGS
350
19
  3
ACAD_PLOTSTYLENAME
350
E
  3
ACAD_SCALELIST
350
4BB5
  3
ACAD_TABLESTYLE
350
BAA
  3
ACAD_VISUALSTYLE
350
4BA1
  3
ACDB_RECOMPOSE_DATA
350
4C39
  3
AcDbVariableDictionary
350
3D
  3
ASE_INDEX_DICTIONARY
350
B91
  3
DWGPROPS
350
4C3A
  0
DICTIONARY
  5
4BD4
330
10
100
AcDbDictionary
280
     1
281
     1
  3
ADSK_XREC_LAYER_RECONCILED
360
4BD5
  0
DICTIONARY
  5
4BD6
330
2F
100
AcDbDictionary
280
     1
281
     1
  3
ADSK_XREC_LAYER_RECONCILED
360
4BD7
  0
DICTIONARY
  5
4BD8
330
30
100
AcDbDictionary
280
     1
281
     1
  3
ADSK_XREC_LAYER_RECONCILED
360
4BD9
  0
DICTIONARY
  5
4BDA
330
31
100
AcDbDictionary
280
     1
281
     1
  3
ADSK_XREC_LAYER_RECONCILED
360
4BDB
  0
DICTIONARY
  5
4BDC
330
32
100
AcDbDictionary
280
     1
281
     1
  3
ADSK_XREC_LAYER_RECONCILED
360
4BDD
  0
DICTIONARY
  5
4BDE
330
33
100
AcDbDictionary
280
     1
281
     1
  3
ADSK_XREC_LAYER_RECONCILED
360
4BDF
  0
DICTIONARY
  5
4BE0
330
34
100
AcDbDictionary
280
     1
281
     1
  3
ADSK_XREC_LAYER_RECONCILED
360
4BE1
  0
DICTIONARY
  5
4BE2
330
35
100
AcDbDictionary
280
     1
281
     1
  3
ADSK_XREC_LAYER_RECONCILED
360
4BE3
  0
DICTIONARY
  5
4BE4
330
36
100
AcDbDictionary
280
     1
281
     1
  3
ADSK_XREC_LAYER_RECONCILED
360
4BE5
  0
DICTIONARY
  5
4BE6
330
37
100
AcDbDictionary
280
     1
281
     1
  3
ADSK_XREC_LAYER_RECONCILED
360
4BE7
  0
DICTIONARY
  5
4BE8
330
5D6
100
AcDbDictionary
280
     1
281
     1
  3
ADSK_XREC_LAYER_RECONCILED
360
4BE9
  0
DICTIONARY
  5
4BEA
330
8AF
100
AcDbDictionary
280
     1
281
     1
  3
ADSK_XREC_LAYER_RECONCILED
360
4BEB
  0
DICTIONARY
  5
4BEC
330
8F8
100
AcDbDictionary
280
     1
281
     1
  3
ADSK_XREC_LAYER_RECONCILED
360
4BED
  0
DICTIONARY
  5
4BEE
330
91D
100
AcDbDictionary
280
     1
281
     1
  3
ADSK_XREC_LAYER_RECONCILED
360
4BEF
  0
DICTIONARY
  5
4BF0
330
BA5
100
AcDbDictionary
280
     1
281
     1
  3
ADSK_XREC_LAYER_RECONCILED
360
4BF1
  0
DICTIONARY
  5
4BF2
330
C3A
100
AcDbDictionary
280
     1
281
     1
  3
ADSK_XREC_LAYER_RECONCILED
360
4BF3
  0
DICTIONARY
  5
1A3D
330
1F
100
AcDbDictionary
280
     1
281
     1
  3
ACAD_SORTENTS
360
1A3E
  0
DICTIONARY
  5
4C3B
102
{ACAD_REACTORS
330
C
102
}
330
C
100
AcDbDictionary
281
     1
  3
DIMJOGANG
350
4C3C
  0
DICTIONARY
  5
BA9
102
{ACAD_REACTORS
330
C
102
}
330
C
100
AcDbDictionary
281
     1
  0
DICTIONARY
  5
D
102
{ACAD_REACTORS
330
C
102
}
330
C
100
AcDbDictionary
281
     1
  0
DICTIONARY
  5
1A
102
{ACAD_REACTORS
330
C
102
}
330
C
100
AcDbDictionary
281
     1
  3
Layout1
350
1E
  3
Layout2
350
26
  3
Model
350
22
  0
DICTIONARY
  5
BA8
102
{ACAD_REACTORS
330
C
102
}
330
C
100
AcDbDictionary
281
     1
  3
ByBlock
350
4B91
  3
ByLayer
350
4B89
  3
Global
350
4B99
  0
DICTIONARY
  5
4BC7
102
{ACAD_REACTORS
330
C
102
}
330
C
100
AcDbDictionary
281
     1
  3
Standard
350
4BC8
  0
DICTIONARY
  5
17
102
{ACAD_REACTORS
330
C
102
}
330
C
100
AcDbDictionary
281
     1
  3
Standard
350
18
  0
DICTIONARY
  5
19
102
{ACAD_REACTORS
330
C
102
}
330
C
100
AcDbDictionary
281
     1
  0
ACDBDICTIONARYWDFLT
  5
E
102
{ACAD_REACTORS
330
C
102
}
330
C
100
AcDbDictionary
281
     1
  3
Normal
350
F
100
AcDbDictionaryWithDefault
340
F
  0
DICTIONARY
  5
4BB5
102
{ACAD_REACTORS
330
C
102
}
330
C
100
AcDbDictionary
281
     1
  3
A0
350
4BB6
  3
A1
350
4BB7
  3
A2
350
4BB8
  3
A3
350
4BB9
  3
A4
350
4BBA
  3
A5
350
4BBB
  3
A6
350
4BBC
  3
A7
350
4BBD
  3
A8
350
4BBE
  3
A9
350
4BBF
  3
B0
350
4BC0
  3
B1
350
4BC1
  3
B2
350
4BC2
  3
B3
350
4BC3
  3
B4
350
4BC4
  3
B5
350
4BC5
  3
B6
350
4BC6
  0
DICTIONARY
  5
BAA
102
{ACAD_REACTORS
330
C
102
}
330
C
100
AcDbDictionary
281
     1
  3
Standard
350
BAB
  0
DICTIONARY
  5
4BA1
102
{ACAD_REACTORS
330
C
102
}
330
C
100
AcDbDictionary
281
     1
  3
2dWireframe
350
4BA7
  3
3D Hidden
350
4BA9
  3
3dWireframe
350
4BA8
  3
Basic
350
4BA6
  3
Brighten
350
4BAD
  3
ColorChange
350
4BB1
  3
Conceptual
350
4BAA
  3
Dim
350
4BAC
  3
EdgeColorOff
350
4BB4
  3
Facepattern
350
4BB0
  3
Flat
350
4BA2
  3
FlatWithEdges
350
4BA3
  3
Gouraud
350
4BA4
  3
GouraudWithEdges
350
4BA5
  3
JitterOff
350
4BB2
  3
Linepattern
350
4BAF
  3
OverhangOff
350
4BB3
  3
Realistic
350
4BAB
  3
Thicken
350
4BAE
  0
XRECORD
  5
4C39
102
{ACAD_REACTORS
330
C
102
}
330
C
100
AcDbXrecord
280
     1
 90
        1
330
BAB
  0
DICTIONARY
  5
3D
102
{ACAD_REACTORS
330
C
102
}
330
C
100
AcDbDictionary
281
     1
  3
CANNOSCALE
350
4C33
  3
CMLEADERSTYLE
350
4C32
  3
CTABLESTYLE
350
1504
  3
DIMASSOC
350
3F
  3
HIDETEXT
350
3E
  3
INDEXCTL
350
4C35
  3
PROJECTNAME
350
4B79
  3
SORTENTS
350
4C34
  3
XCLIPFRAME
350
4C36
  0
DICTIONARY
  5
B91
102
{ACAD_REACTORS
330
C
102
}
330
C
100
AcDbDictionary
281
     1
  3
ASEBlockHierarchyIndexRecord
350
B92
1001
DCO15
1040
1485069952.593
  0
XRECORD
  5
4C3A
102
{ACAD_REACTORS
330
C
102
}
330
C
100
AcDbXrecord
280
     1
  1
DWGPROPS COOKIE
  2

  3

  4

  6

  7

  8
Julio
  9

300
=
301
=
302
=
303
=
304
=
305
=
306
=
307
=
308
=
309
=
 40
0.0888214351851852
 41
2453564.405545961
 42
2455817.515404364
  1

 90
        0
  0
XRECORD
  5
4BD5
102
{ACAD_REACTORS
330
4BD4
102
}
330
4BD4
100
AcDbXrecord
280
     1
290
     1
  0
XRECORD
  5
4BD7
102
{ACAD_REACTORS
330
4BD6
102
}
330
4BD6
100
AcDbXrecord
280
     1
290
     1
  0
XRECORD
  5
4BD9
102
{ACAD_REACTORS
330
4BD8
102
}
330
4BD8
100
AcDbXrecord
280
     1
290
     1
  0
XRECORD
  5
4BDB
102
{ACAD_REACTORS
330
4BDA
102
}
330
4BDA
100
AcDbXrecord
280
     1
290
     1
  0
XRECORD
  5
4BDD
102
{ACAD_REACTORS
330
4BDC
102
}
330
4BDC
100
AcDbXrecord
280
     1
290
     1
  0
XRECORD
  5
4BDF
102
{ACAD_REACTORS
330
4BDE
102
}
330
4BDE
100
AcDbXrecord
280
     1
290
     1
  0
XRECORD
  5
4BE1
102
{ACAD_REACTORS
330
4BE0
102
}
330
4BE0
100
AcDbXrecord
280
     1
290
     1
  0
XRECORD
  5
4BE3
102
{ACAD_REACTORS
330
4BE2
102
}
330
4BE2
100
AcDbXrecord
280
     1
290
     1
  0
XRECORD
  5
4BE5
102
{ACAD_REACTORS
330
4BE4
102
}
330
4BE4
100
AcDbXrecord
280
     1
290
     1
  0
XRECORD
  5
4BE7
102
{ACAD_REACTORS
330
4BE6
102
}
330
4BE6
100
AcDbXrecord
280
     1
290
     1
  0
XRECORD
  5
4BE9
102
{ACAD_REACTORS
330
4BE8
102
}
330
4BE8
100
AcDbXrecord
280
     1
290
     1
  0
XRECORD
  5
4BEB
102
{ACAD_REACTORS
330
4BEA
102
}
330
4BEA
100
AcDbXrecord
280
     1
290
     1
  0
XRECORD
  5
4BED
102
{ACAD_REACTORS
330
4BEC
102
}
330
4BEC
100
AcDbXrecord
280
     1
290
     1
  0
XRECORD
  5
4BEF
102
{ACAD_REACTORS
330
4BEE
102
}
330
4BEE
100
AcDbXrecord
280
     1
290
     1
  0
XRECORD
  5
4BF1
102
{ACAD_REACTORS
330
4BF0
102
}
330
4BF0
100
AcDbXrecord
280
     1
290
     1
  0
XRECORD
  5
4BF3
102
{ACAD_REACTORS
330
4BF2
102
}
330
4BF2
100
AcDbXrecord
280
     1
290
     1
  0
SORTENTSTABLE
  5
1A3E
102
{ACAD_REACTORS
330
1A3D
102
}
330
1A3D
100
AcDbSortentsTable
330
1F
  0
XRECORD
  5
4C3C
102
{ACAD_REACTORS
330
4C3B
102
}
330
4C3B
100
AcDbXrecord
280
     1
 40
1.570796326794896
  0
LAYOUT
  5
1E
102
{ACAD_XDICTIONARY
360
4C3D
102
}
102
{ACAD_REACTORS
330
1A
102
}
330
1A
100
AcDbPlotSettings
  1

  2
Ploter HP500
  4

  6

 40
0.0
 41
0.0
 42
0.0
 43
0.0
 44
0.0
 45
0.0
 46
0.0
 47
0.0
 48
0.0
 49
0.0
140
0.0
141
0.0
142
1.0
143
1.0
 70
   688
 72
     0
 73
     0
 74
     5
  7
monochrome.ctb
 75
    16
147
1.0
148
0.0
149
0.0
100
AcDbLayout
  1
Layout1
 70
     1
 71
     1
 10
0.0
 20
0.0
 11
420.0
 21
297.0
 12
0.0
 22
0.0
 32
0.0
 14
1.000000000000000E+20
 24
1.000000000000000E+20
 34
1.000000000000000E+20
 15
-1.000000000000000E+20
 25
-1.000000000000000E+20
 35
-1.000000000000000E+20
146
0.0
 13
0.0
 23
0.0
 33
0.0
 16
1.0
 26
0.0
 36
0.0
 17
0.0
 27
1.0
 37
0.0
 76
     0
330
1B
  0
LAYOUT
  5
26
102
{ACAD_XDICTIONARY
360
4C41
102
}
102
{ACAD_REACTORS
330
1A
102
}
330
1A
100
AcDbPlotSettings
  1

  2
Ploter HP500
  4

  6

 40
0.0
 41
0.0
 42
0.0
 43
0.0
 44
0.0
 45
0.0
 46
0.0
 47
0.0
 48
0.0
 49
0.0
140
0.0
141
0.0
142
1.0
143
1.0
 70
   688
 72
     0
 73
     0
 74
     5
  7
monochrome.ctb
 75
    16
147
1.0
148
0.0
149
0.0
100
AcDbLayout
  1
Layout2
 70
     1
 71
     2
 10
0.0
 20
0.0
 11
12.0
 21
9.0
 12
0.0
 22
0.0
 32
0.0
 14
0.0
 24
0.0
 34
0.0
 15
0.0
 25
0.0
 35
0.0
146
0.0
 13
0.0
 23
0.0
 33
0.0
 16
1.0
 26
0.0
 36
0.0
 17
0.0
 27
1.0
 37
0.0
 76
     0
330
23
  0
LAYOUT
  5
22
102
{ACAD_XDICTIONARY
360
4C3F
102
}
102
{ACAD_REACTORS
330
1A
102
}
330
1A
100
AcDbPlotSettings
  1

  2
Ploter HP500
  4
User268
  6

 40
4.995333194732666
 41
16.97565841674804
 42
4.995330810546875
 43
16.97567749023437
 44
209.9733276367187
 45
296.9259948730469
 46
0.0
 47
0.0
 48
0.0
 49
0.0
140
0.0
141
0.0
142
1.0
143
1.0
 70
 11952
 72
     1
 73
     1
 74
     0
  7

 75
     0
147
1.0
148
-427.5957866592534
149
7.362384574453926
100
AcDbLayout
  1
Model
 70
     1
 71
     0
 10
0.0
 20
0.0
 11
12.0
 21
9.0
 12
0.0
 22
0.0
 32
0.0
 14
0.0
 24
0.0
 34
0.0
 15
0.0
 25
0.0
 35
0.0
146
0.0
 13
0.0
 23
0.0
 33
0.0
 16
1.0
 26
0.0
 36
0.0
 17
0.0
 27
1.0
 37
0.0
 76
     0
330
1F
331
4B80
  0
MATERIAL
  5
4B91
102
{ACAD_XDICTIONARY
360
4B92
102
}
102
{ACAD_REACTORS
330
BA8
102
}
330
BA8
100
AcDbMaterial
  1
ByBlock
 72
     0
 43
0.0008202099737533
 43
0.0
 43
0.0
 43
0.0
 43
0.0
 43
0.0008202099737533
 43
0.0
 43
0.0
 43
0.0
 43
0.0
 43
1.0
 43
0.0
 43
0.0
 43
0.0
 43
0.0
 43
1.0
 77
     0
 47
0.0008202099737533
 47
0.0
 47
0.0
 47
0.0
 47
0.0
 47
0.0008202099737533
 47
0.0
 47
0.0
 47
0.0
 47
0.0
 47
1.0
 47
0.0
 47
0.0
 47
0.0
 47
0.0
 47
1.0
171
     0
 49
0.0008202099737533
 49
0.0
 49
0.0
 49
0.0
 49
0.0
 49
0.0008202099737533
 49
0.0
 49
0.0
 49
0.0
 49
0.0
 49
1.0
 49
0.0
 49
0.0
 49
0.0
 49
0.0
 49
1.0
175
     0
142
0.0008202099737533
142
0.0
142
0.0
142
0.0
142
0.0
142
0.0008202099737533
142
0.0
142
0.0
142
0.0
142
0.0
142
1.0
142
0.0
142
0.0
142
0.0
142
0.0
142
1.0
179
     0
144
0.0008202099737533
144
0.0
144
0.0
144
0.0
144
0.0
144
0.0008202099737533
144
0.0
144
0.0
144
0.0
144
0.0
144
1.0
144
0.0
144
0.0
144
0.0
144
0.0
144
1.0
147
0.0008202099737533
147
0.0
147
0.0
147
0.0
147
0.0
147
0.0008202099737533
147
0.0
147
0.0
147
0.0
147
0.0
147
1.0
147
0.0
147
0.0
147
0.0
147
0.0
147
1.0
  0
MATERIAL
  5
4B89
102
{ACAD_XDICTIONARY
360
4B8A
102
}
102
{ACAD_REACTORS
330
BA8
102
}
330
BA8
100
AcDbMaterial
  1
ByLayer
 72
     0
 43
0.0008202099737533
 43
0.0
 43
0.0
 43
0.0
 43
0.0
 43
0.0008202099737533
 43
0.0
 43
0.0
 43
0.0
 43
0.0
 43
1.0
 43
0.0
 43
0.0
 43
0.0
 43
0.0
 43
1.0
 77
     0
 47
0.0008202099737533
 47
0.0
 47
0.0
 47
0.0
 47
0.0
 47
0.0008202099737533
 47
0.0
 47
0.0
 47
0.0
 47
0.0
 47
1.0
 47
0.0
 47
0.0
 47
0.0
 47
0.0
 47
1.0
171
     0
 49
0.0008202099737533
 49
0.0
 49
0.0
 49
0.0
 49
0.0
 49
0.0008202099737533
 49
0.0
 49
0.0
 49
0.0
 49
0.0
 49
1.0
 49
0.0
 49
0.0
 49
0.0
 49
0.0
 49
1.0
175
     0
142
0.0008202099737533
142
0.0
142
0.0
142
0.0
142
0.0
142
0.0008202099737533
142
0.0
142
0.0
142
0.0
142
0.0
142
1.0
142
0.0
142
0.0
142
0.0
142
0.0
142
1.0
179
     0
144
0.0008202099737533
144
0.0
144
0.0
144
0.0
144
0.0
144
0.0008202099737533
144
0.0
144
0.0
144
0.0
144
0.0
144
1.0
144
0.0
144
0.0
144
0.0
144
0.0
144
1.0
147
0.0008202099737533
147
0.0
147
0.0
147
0.0
147
0.0
147
0.0008202099737533
147
0.0
147
0.0
147
0.0
147
0.0
147
1.0
147
0.0
147
0.0
147
0.0
147
0.0
147
1.0
  0
MATERIAL
  5
4B99
102
{ACAD_XDICTIONARY
360
4B9A
102
}
102
{ACAD_REACTORS
330
BA8
102
}
330
BA8
100
AcDbMaterial
  1
Global
 72
     0
 43
0.0008202099737533
 43
0.0
 43
0.0
 43
0.0
 43
0.0
 43
0.0008202099737533
 43
0.0
 43
0.0
 43
0.0
 43
0.0
 43
1.0
 43
0.0
 43
0.0
 43
0.0
 43
0.0
 43
1.0
 77
     0
 47
0.0008202099737533
 47
0.0
 47
0.0
 47
0.0
 47
0.0
 47
0.0008202099737533
 47
0.0
 47
0.0
 47
0.0
 47
0.0
 47
1.0
 47
0.0
 47
0.0
 47
0.0
 47
0.0
 47
1.0
171
     0
 49
0.0008202099737533
 49
0.0
 49
0.0
 49
0.0
 49
0.0
 49
0.0008202099737533
 49
0.0
 49
0.0
 49
0.0
 49
0.0
 49
1.0
 49
0.0
 49
0.0
 49
0.0
 49
0.0
 49
1.0
175
     0
142
0.0008202099737533
142
0.0
142
0.0
142
0.0
142
0.0
142
0.0008202099737533
142
0.0
142
0.0
142
0.0
142
0.0
142
1.0
142
0.0
142
0.0
142
0.0
142
0.0
142
1.0
179
     0
144
0.0008202099737533
144
0.0
144
0.0
144
0.0
144
0.0
144
0.0008202099737533
144
0.0
144
0.0
144
0.0
144
0.0
144
1.0
144
0.0
144
0.0
144
0.0
144
0.0
144
1.0
147
0.0008202099737533
147
0.0
147
0.0
147
0.0
147
0.0
147
0.0008202099737533
147
0.0
147
0.0
147
0.0
147
0.0
147
1.0
147
0.0
147
0.0
147
0.0
147
0.0
147
1.0
  0
MLEADERSTYLE
  5
4BC8
102
{ACAD_REACTORS
330
4BC7
102
}
330
4BC7
100
AcDbMLeaderStyle
170
     2
171
     1
172
     0
 90
        2
 40
0.0
 41
0.0
173
     1
 91
-1056964608
340
14
 92
       -2
290
     1
 42
2.0
291
     1
 43
0.36
  3
Standard
 44
4.0
300

342
11
174
     1
178
     6
175
     1
176
     0
 93
-1056964608
 45
4.0
292
     0
297
     0
 46
4.0
 94
-1056964608
 47
1.0
 49
1.0
140
1.0
293
     1
141
0.0
294
     1
177
     0
142
1.0
295
     0
296
     0
143
0.125
1001
ACAD_MLEADERVER
1070
     2
  0
MLINESTYLE
  5
18
102
{ACAD_REACTORS
330
17
102
}
330
17
100
AcDbMlineStyle
  2
STANDARD
 70
     0
  3

 62
   256
 51
90.0
 52
90.0
 71
     2
 49
0.5
 62
   256
  6
BYLAYER
 49
-0.5
 62
   256
  6
BYLAYER
  0
ACDBPLACEHOLDER
  5
F
102
{ACAD_REACTORS
330
E
102
}
330
E
  0
SCALE
  5
4BB6
102
{ACAD_REACTORS
330
4BB5
102
}
330
4BB5
100
AcDbScale
 70
     0
300
1:1
140
1.0
141
1.0
290
     1
  0
SCALE
  5
4BB7
102
{ACAD_REACTORS
330
4BB5
102
}
330
4BB5
100
AcDbScale
 70
     0
300
1:2
140
1.0
141
2.0
290
     0
  0
SCALE
  5
4BB8
102
{ACAD_REACTORS
330
4BB5
102
}
330
4BB5
100
AcDbScale
 70
     0
300
1:4
140
1.0
141
4.0
290
     0
  0
SCALE
  5
4BB9
102
{ACAD_REACTORS
330
4BB5
102
}
330
4BB5
100
AcDbScale
 70
     0
300
1:5
140
1.0
141
5.0
290
     0
  0
SCALE
  5
4BBA
102
{ACAD_REACTORS
330
4BB5
102
}
330
4BB5
100
AcDbScale
 70
     0
300
1:8
140
1.0
141
8.0
290
     0
  0
SCALE
  5
4BBB
102
{ACAD_REACTORS
330
4BB5
102
}
330
4BB5
100
AcDbScale
 70
     0
300
1:10
140
1.0
141
10.0
290
     0
  0
SCALE
  5
4BBC
102
{ACAD_REACTORS
330
4BB5
102
}
330
4BB5
100
AcDbScale
 70
     0
300
1:16
140
1.0
141
16.0
290
     0
  0
SCALE
  5
4BBD
102
{ACAD_REACTORS
330
4BB5
102
}
330
4BB5
100
AcDbScale
 70
     0
300
1:20
140
1.0
141
20.0
290
     0
  0
SCALE
  5
4BBE
102
{ACAD_REACTORS
330
4BB5
102
}
330
4BB5
100
AcDbScale
 70
     0
300
1:30
140
1.0
141
30.0
290
     0
  0
SCALE
  5
4BBF
102
{ACAD_REACTORS
330
4BB5
102
}
330
4BB5
100
AcDbScale
 70
     0
300
1:40
140
1.0
141
40.0
290
     0
  0
SCALE
  5
4BC0
102
{ACAD_REACTORS
330
4BB5
102
}
330
4BB5
100
AcDbScale
 70
     0
300
1:50
140
1.0
141
50.0
290
     0
  0
SCALE
  5
4BC1
102
{ACAD_REACTORS
330
4BB5
102
}
330
4BB5
100
AcDbScale
 70
     0
300
1:100
140
1.0
141
100.0
290
     0
  0
SCALE
  5
4BC2
102
{ACAD_REACTORS
330
4BB5
102
}
330
4BB5
100
AcDbScale
 70
     0
300
2:1
140
2.0
141
1.0
290
     0
  0
SCALE
  5
4BC3
102
{ACAD_REACTORS
330
4BB5
102
}
330
4BB5
100
AcDbScale
 70
     0
300
4:1
140
4.0
141
1.0
290
     0
  0
SCALE
  5
4BC4
102
{ACAD_REACTORS
330
4BB5
102
}
330
4BB5
100
AcDbScale
 70
     0
300
8:1
140
8.0
141
1.0
290
     0
  0
SCALE
  5
4BC5
102
{ACAD_REACTORS
330
4BB5
102
}
330
4BB5
100
AcDbScale
 70
     0
300
10:1
140
10.0
141
1.0
290
     0
  0
SCALE
  5
4BC6
102
{ACAD_REACTORS
330
4BB5
102
}
330
4BB5
100
AcDbScale
 70
     0
300
100:1
140
100.0
141
1.0
290
     0
  0
TABLESTYLE
  5
BAB
102
{ACAD_XDICTIONARY
360
4C37
102
}
102
{ACAD_REACTORS
330
BAA
102
}
330
BAA
100
AcDbTableStyle
  3
Standard
 70
     0
 71
     0
 40
1.5
 41
1.5
280
     0
281
     0
  7
Standard
140
4.5
170
     2
 62
     0
 63
     7
283
     0
274
    -2
284
     1
 64
     0
275
    -2
285
     1
 65
     0
276
    -2
286
     1
 66
     0
277
    -2
287
     1
 67
     0
278
    -2
288
     1
 68
     0
279
    -2
289
     1
 69
     0
  7
Standard
140
6.0
170
     5
 62
     0
 63
     7
283
     0
274
    -2
284
     1
 64
     0
275
    -2
285
     1
 65
     0
276
    -2
286
     1
 66
     0
277
    -2
287
     1
 67
     0
278
    -2
288
     1
 68
     0
279
    -2
289
     1
 69
     0
  7
Standard
140
4.5
170
     5
 62
     0
 63
     7
283
     0
274
    -2
284
     1
 64
     0
275
    -2
285
     1
 65
     0
276
    -2
286
     1
 66
     0
277
    -2
287
     1
 67
     0
278
    -2
288
     1
 68
     0
279
    -2
289
     1
 69
     0
  0
VISUALSTYLE
  5
4BA7
102
{ACAD_XDICTIONARY
360
4C51
102
}
102
{ACAD_REACTORS
330
4BA1
102
}
330
4BA1
100
AcDbVisualStyle
  2
2dWireframe
 70
     4
 71
     0
 72
     2
 73
     0
 90
        0
 40
-0.6
 41
-30.0
 62
     5
 63
     7
 74
     1
 91
        4
 64
     7
 65
   257
 75
     1
175
     1
 42
1.0
 92
        0
 66
   257
 43
1.0
 76
     1
 77
     6
 78
     2
 67
     7
 79
     5
170
     0
171
     0
290
     0
174
     0
 93
        1
 44
0.0
173
     0
291
     0
 45
0.0
1001
ACAD
1000
AcDbSavedByObjectVersion
1070
     0
  0
VISUALSTYLE
  5
4BA9
102
{ACAD_XDICTIONARY
360
4C55
102
}
102
{ACAD_REACTORS
330
4BA1
102
}
330
4BA1
100
AcDbVisualStyle
  2
3D Hidden
 70
     6
 71
     1
 72
     2
 73
     2
 90
        0
 40
-0.6
 41
-30.0
 62
     5
 63
     7
 74
     2
 91
        2
 64
     7
 65
   257
 75
     2
175
     1
 42
179.0
 92
        0
 66
   257
 43
1.0
 76
     1
 77
     6
 78
     2
 67
     7
 79
     3
170
     0
171
     0
290
     0
174
     0
 93
        1
 44
0.0
173
     0
291
     0
 45
0.0
1001
ACAD
1000
AcDbSavedByObjectVersion
1070
     0
  0
VISUALSTYLE
  5
4BA8
102
{ACAD_XDICTIONARY
360
4C53
102
}
102
{ACAD_REACTORS
330
4BA1
102
}
330
4BA1
100
AcDbVisualStyle
  2
3dWireframe
 70
     5
 71
     0
 72
     2
 73
     0
 90
        0
 40
-0.6
 41
-30.0
 62
     5
 63
     7
 74
     1
 91
        4
 64
     7
 65
   257
 75
     1
175
     1
 42
1.0
 92
        0
 66
   257
 43
1.0
 76
     1
 77
     6
 78
     2
 67
     7
 79
     5
170
     0
171
     0
290
     0
174
     0
 93
        1
 44
0.0
173
     0
291
     0
 45
0.0
1001
ACAD
1000
AcDbSavedByObjectVersion
1070
     0
  0
VISUALSTYLE
  5
4BA6
102
{ACAD_XDICTIONARY
360
4C4F
102
}
102
{ACAD_REACTORS
330
4BA1
102
}
330
4BA1
100
AcDbVisualStyle
  2
Basic
 70
     7
 71
     1
 72
     0
 73
     1
 90
        0
 40
-0.6
 41
-30.0
 62
     5
 63
     7
 74
     0
 91
        4
 64
     7
 65
   257
 75
     1
175
     1
 42
1.0
 92
        8
 66
     7
 43
1.0
 76
     1
 77
     6
 78
     2
 67
     7
 79
     5
170
     0
171
     0
290
     0
174
     0
 93
        1
 44
0.0
173
     0
291
     1
 45
0.0
1001
ACAD
1000
AcDbSavedByObjectVersion
1070
     0
  0
VISUALSTYLE
  5
4BAD
102
{ACAD_XDICTIONARY
360
4C5D
102
}
102
{ACAD_REACTORS
330
4BA1
102
}
330
4BA1
100
AcDbVisualStyle
  2
Brighten
 70
    12
 71
     2
 72
     2
 73
     0
 90
        0
 40
-0.6
 41
-30.0
 62
     5
 63
     7
 74
     1
 91
        4
 64
     7
 65
   257
 75
     1
175
     1
 42
1.0
 92
        8
 66
     7
 43
1.0
 76
     1
 77
     6
 78
     2
 67
     7
 79
     5
170
     0
171
     0
290
     0
174
     0
 93
        1
 44
50.0
173
     0
291
     1
 45
0.0
1001
ACAD
1000
AcDbSavedByObjectVersion
1070
     0
  0
VISUALSTYLE
  5
4BB1
102
{ACAD_XDICTIONARY
360
4C65
102
}
102
{ACAD_REACTORS
330
4BA1
102
}
330
4BA1
100
AcDbVisualStyle
  2
ColorChange
 70
    16
 71
     2
 72
     2
 73
     3
 90
        0
 40
-0.6
 41
-30.0
 62
     5
 63
     8
 74
     1
 91
        4
 64
     7
 65
   257
 75
     1
175
     1
 42
1.0
 92
        8
 66
     8
 43
1.0
 76
     1
 77
     6
 78
     2
 67
     7
 79
     5
170
     0
171
     0
290
     0
174
     0
 93
        1
 44
0.0
173
     0
291
     1
 45
0.0
1001
ACAD
1000
AcDbSavedByObjectVersion
1070
     0
  0
VISUALSTYLE
  5
4BAA
102
{ACAD_XDICTIONARY
360
4C57
102
}
102
{ACAD_REACTORS
330
4BA1
102
}
330
4BA1
100
AcDbVisualStyle
  2
Conceptual
 70
     9
 71
     3
 72
     2
 73
     0
 90
        0
 40
-0.6
 41
-30.0
 62
     5
 63
     7
 74
     2
 91
        2
 64
     7
 65
   257
 75
     1
175
     1
 42
179.0
 92
        8
 66
     7
 43
1.0
 76
     1
 77
     6
 78
     2
 67
     7
 79
     3
170
     0
171
     0
290
     0
174
     0
 93
        1
 44
0.0
173
     0
291
     0
 45
0.0
1001
ACAD
1000
AcDbSavedByObjectVersion
1070
     0
  0
VISUALSTYLE
  5
4BAC
102
{ACAD_XDICTIONARY
360
4C5B
102
}
102
{ACAD_REACTORS
330
4BA1
102
}
330
4BA1
100
AcDbVisualStyle
  2
Dim
 70
    11
 71
     2
 72
     2
 73
     0
 90
        0
 40
-0.6
 41
-30.0
 62
     5
 63
     7
 74
     1
 91
        4
 64
     7
 65
   257
 75
     1
175
     1
 42
1.0
 92
        8
 66
     7
 43
1.0
 76
     1
 77
     6
 78
     2
 67
     7
 79
     5
170
     0
171
     0
290
     0
174
     0
 93
        1
 44
-50.0
173
     0
291
     1
 45
0.0
1001
ACAD
1000
AcDbSavedByObjectVersion
1070
     0
  0
VISUALSTYLE
  5
4BB4
102
{ACAD_XDICTIONARY
360
4C6B
102
}
102
{ACAD_REACTORS
330
4BA1
102
}
330
4BA1
100
AcDbVisualStyle
  2
EdgeColorOff
 70
    22
 71
     2
 72
     2
 73
     0
 90
        0
 40
-0.6
 41
-30.0
 62
     5
 63
     7
 74
     1
 91
        4
 64
     7
 65
   257
 75
     1
175
     1
 42
1.0
 92
        8
 66
     7
 43
1.0
 76
     1
 77
     6
 78
     2
 67
     7
 79
     5
170
     0
171
     0
290
     0
174
     0
 93
        1
 44
0.0
173
     0
291
     1
 45
0.0
1001
ACAD
1000
AcDbSavedByObjectVersion
1070
     0
  0
VISUALSTYLE
  5
4BB0
102
{ACAD_XDICTIONARY
360
4C63
102
}
102
{ACAD_REACTORS
330
4BA1
102
}
330
4BA1
100
AcDbVisualStyle
  2
Facepattern
 70
    15
 71
     2
 72
     2
 73
     0
 90
        0
 40
-0.6
 41
-30.0
 62
     5
 63
     7
 74
     1
 91
        4
 64
     7
 65
   257
 75
     1
175
     1
 42
1.0
 92
        8
 66
     7
 43
1.0
 76
     1
 77
     6
 78
     2
 67
     7
 79
     5
170
     0
171
     0
290
     0
174
     0
 93
        1
 44
0.0
173
     0
291
     1
 45
0.0
1001
ACAD
1000
AcDbSavedByObjectVersion
1070
     0
  0
VISUALSTYLE
  5
4BA2
102
{ACAD_XDICTIONARY
360
4C47
102
}
102
{ACAD_REACTORS
330
4BA1
102
}
330
4BA1
100
AcDbVisualStyle
  2
Flat
 70
     0
 71
     2
 72
     1
 73
     1
 90
        2
 40
-0.6
 41
30.0
 62
     5
 63
     7
 74
     0
 91
        4
 64
     7
 65
   257
 75
     1
175
     1
 42
1.0
 92
        8
 66
     7
 43
1.0
 76
     1
 77
     6
 78
     2
 67
     7
 79
     5
170
     0
171
     0
290
     0
174
     0
 93
       13
 44
0.0
173
     0
291
     1
 45
0.0
1001
ACAD
1000
AcDbSavedByObjectVersion
1070
     0
  0
VISUALSTYLE
  5
4BA3
102
{ACAD_XDICTIONARY
360
4C49
102
}
102
{ACAD_REACTORS
330
4BA1
102
}
330
4BA1
100
AcDbVisualStyle
  2
FlatWithEdges
 70
     1
 71
     2
 72
     1
 73
     1
 90
        2
 40
-0.6
 41
30.0
 62
     5
 63
     7
 74
     1
 91
        4
 64
     7
 65
   257
 75
     1
175
     1
 42
1.0
 92
        0
 66
   257
 43
1.0
 76
     1
 77
     6
 78
     2
 67
     7
 79
     5
170
     0
171
     0
290
     0
174
     0
 93
       13
 44
0.0
173
     0
291
     1
 45
0.0
1001
ACAD
1000
AcDbSavedByObjectVersion
1070
     0
  0
VISUALSTYLE
  5
4BA4
102
{ACAD_XDICTIONARY
360
4C4B
102
}
102
{ACAD_REACTORS
330
4BA1
102
}
330
4BA1
100
AcDbVisualStyle
  2
Gouraud
 70
     2
 71
     2
 72
     2
 73
     1
 90
        2
 40
-0.6
 41
30.0
 62
     5
 63
     7
 74
     0
 91
        4
 64
     7
 65
   257
 75
     1
175
     1
 42
1.0
 92
        0
 66
     7
 43
1.0
 76
     1
 77
     6
 78
     2
 67
     7
 79
     5
170
     0
171
     0
290
     0
174
     0
 93
       13
 44
0.0
173
     0
291
     1
 45
0.0
1001
ACAD
1000
AcDbSavedByObjectVersion
1070
     0
  0
VISUALSTYLE
  5
4BA5
102
{ACAD_XDICTIONARY
360
4C4D
102
}
102
{ACAD_REACTORS
330
4BA1
102
}
330
4BA1
100
AcDbVisualStyle
  2
GouraudWithEdges
 70
     3
 71
     2
 72
     2
 73
     1
 90
        2
 40
-0.6
 41
30.0
 62
     5
 63
     7
 74
     1
 91
        4
 64
     7
 65
   257
 75
     1
175
     1
 42
1.0
 92
        0
 66
   257
 43
1.0
 76
     1
 77
     6
 78
     2
 67
     7
 79
     5
170
     0
171
     0
290
     0
174
     0
 93
       13
 44
0.0
173
     0
291
     1
 45
0.0
1001
ACAD
1000
AcDbSavedByObjectVersion
1070
     0
  0
VISUALSTYLE
  5
4BB2
102
{ACAD_XDICTIONARY
360
4C67
102
}
102
{ACAD_REACTORS
330
4BA1
102
}
330
4BA1
100
AcDbVisualStyle
  2
JitterOff
 70
    20
 71
     2
 72
     2
 73
     0
 90
        0
 40
-0.6
 41
-30.0
 62
     5
 63
     7
 74
     1
 91
        4
 64
     7
 65
   257
 75
     1
175
     1
 42
1.0
 92
       10
 66
     7
 43
1.0
 76
     1
 77
     6
 78
     2
 67
     7
 79
     5
170
     0
171
     0
290
     0
174
     0
 93
        1
 44
0.0
173
     0
291
     1
 45
0.0
1001
ACAD
1000
AcDbSavedByObjectVersion
1070
     0
  0
VISUALSTYLE
  5
4BAF
102
{ACAD_XDICTIONARY
360
4C61
102
}
102
{ACAD_REACTORS
330
4BA1
102
}
330
4BA1
100
AcDbVisualStyle
  2
Linepattern
 70
    14
 71
     2
 72
     2
 73
     0
 90
        0
 40
-0.6
 41
-30.0
 62
     5
 63
     7
 74
     1
 91
        4
 64
     7
 65
   257
 75
     7
175
     7
 42
1.0
 92
        8
 66
     7
 43
1.0
 76
     1
 77
     6
 78
     2
 67
     7
 79
     5
170
     0
171
     0
290
     0
174
     0
 93
        1
 44
0.0
173
     0
291
     1
 45
0.0
1001
ACAD
1000
AcDbSavedByObjectVersion
1070
     0
  0
VISUALSTYLE
  5
4BB3
102
{ACAD_XDICTIONARY
360
4C69
102
}
102
{ACAD_REACTORS
330
4BA1
102
}
330
4BA1
100
AcDbVisualStyle
  2
OverhangOff
 70
    21
 71
     2
 72
     2
 73
     0
 90
        0
 40
-0.6
 41
-30.0
 62
     5
 63
     7
 74
     1
 91
        4
 64
     7
 65
   257
 75
     1
175
     1
 42
1.0
 92
        9
 66
     7
 43
1.0
 76
     1
 77
     6
 78
     2
 67
     7
 79
     5
170
     0
171
     0
290
     0
174
     0
 93
        1
 44
0.0
173
     0
291
     1
 45
0.0
1001
ACAD
1000
AcDbSavedByObjectVersion
1070
     0
  0
VISUALSTYLE
  5
4BAB
102
{ACAD_XDICTIONARY
360
4C59
102
}
102
{ACAD_REACTORS
330
4BA1
102
}
330
4BA1
100
AcDbVisualStyle
  2
Realistic
 70
     8
 71
     2
 72
     2
 73
     0
 90
        0
 40
-0.6
 41
-30.0
 62
     5
 63
     7
 74
     1
 91
        0
 64
     7
 65
   257
 75
     1
175
     1
 42
1.0
 92
        8
 66
     8
 43
1.0
 76
     1
 77
     6
 78
     2
 67
     7
 79
     5
170
     0
171
     0
290
     0
174
     0
 93
       13
 44
0.0
173
     0
291
     0
 45
0.0
1001
ACAD
1000
AcDbSavedByObjectVersion
1070
     0
  0
VISUALSTYLE
  5
4BAE
102
{ACAD_XDICTIONARY
360
4C5F
102
}
102
{ACAD_REACTORS
330
4BA1
102
}
330
4BA1
100
AcDbVisualStyle
  2
Thicken
 70
    13
 71
     2
 72
     2
 73
     0
 90
        0
 40
-0.6
 41
-30.0
 62
     5
 63
     7
 74
     1
 91
        4
 64
     7
 65
   257
 75
     1
175
     1
 42
1.0
 92
       12
 66
     7
 43
1.0
 76
     1
 77
     6
 78
     2
 67
     7
 79
     5
170
     0
171
     0
290
     0
174
     0
 93
        1
 44
0.0
173
     0
291
     1
 45
0.0
1001
ACAD
1000
AcDbSavedByObjectVersion
1070
     0
  0
DICTIONARYVAR
  5
4C33
102
{ACAD_REACTORS
330
3D
102
}
330
3D
100
DictionaryVariables
280
     0
  1
1:1
  0
DICTIONARYVAR
  5
4C32
102
{ACAD_REACTORS
330
3D
102
}
330
3D
100
DictionaryVariables
280
     0
  1
STANDARD
  0
DICTIONARYVAR
  5
1504
102
{ACAD_REACTORS
330
3D
102
}
330
3D
100
DictionaryVariables
280
     0
  1
STANDARD
  0
DICTIONARYVAR
  5
3F
102
{ACAD_REACTORS
330
3D
102
}
330
3D
100
DictionaryVariables
280
     0
  1
2
  0
DICTIONARYVAR
  5
3E
102
{ACAD_REACTORS
330
3D
102
}
330
3D
100
DictionaryVariables
280
     0
  1
1
  0
DICTIONARYVAR
  5
4C35
102
{ACAD_REACTORS
330
3D
102
}
330
3D
100
DictionaryVariables
280
     0
  1
0
  0
DICTIONARYVAR
  5
4B79
102
{ACAD_REACTORS
330
3D
102
}
330
3D
100
DictionaryVariables
280
     0
  1

  0
DICTIONARYVAR
  5
4C34
102
{ACAD_REACTORS
330
3D
102
}
330
3D
100
DictionaryVariables
280
     0
  1
127
  0
DICTIONARYVAR
  5
4C36
102
{ACAD_REACTORS
330
3D
102
}
330
3D
100
DictionaryVariables
280
     0
  1
2
  0
XRECORD
  5
B92
102
{ACAD_REACTORS
330
B91
102
}
330
B91
100
AcDbXrecord
280
     1
  0
DICTIONARY
  5
4C3D
330
1E
100
AcDbDictionary
280
     1
281
     1
  3
ACAD_XREC_ROUNDTRIP
360
4C3E
  0
DICTIONARY
  5
4C41
330
26
100
AcDbDictionary
280
     1
281
     1
  3
ACAD_XREC_ROUNDTRIP
360
4C42
  0
DICTIONARY
  5
4C3F
330
22
100
AcDbDictionary
280
     1
281
     1
  3
ACAD_XREC_ROUNDTRIP
360
4C40
  0
DICTIONARY
  5
4B92
330
4B91
100
AcDbDictionary
280
     1
281
     1
  3
ACAD_XREC_ROUNDTRIP
360
4C45
  3
BUMPTILE
360
4B94
  3
DIFFUSETILE
360
4B93
  3
OPACITYTILE
360
4B97
  3
REFLECTIONTILE
360
4B96
  3
REFRACTIONTILE
360
4B98
  3
SPECULARTILE
360
4B95
  0
DICTIONARY
  5
4B8A
330
4B89
100
AcDbDictionary
280
     1
281
     1
  3
ACAD_XREC_ROUNDTRIP
360
4C44
  3
BUMPTILE
360
4B8C
  3
DIFFUSETILE
360
4B8B
  3
OPACITYTILE
360
4B8F
  3
REFLECTIONTILE
360
4B8E
  3
REFRACTIONTILE
360
4B90
  3
SPECULARTILE
360
4B8D
  0
DICTIONARY
  5
4B9A
330
4B99
100
AcDbDictionary
280
     1
281
     1
  3
ACAD_XREC_ROUNDTRIP
360
4C46
  3
BUMPTILE
360
4B9C
  3
DIFFUSETILE
360
4B9B
  3
OPACITYTILE
360
4B9F
  3
REFLECTIONTILE
360
4B9E
  3
REFRACTIONTILE
360
4BA0
  3
SPECULARTILE
360
4B9D
  0
DICTIONARY
  5
4C37
330
BAB
100
AcDbDictionary
280
     1
281
     1
  3
ACAD_ROUNDTRIP_2008_TABLESTYLE_CELLSTYLEMAP
360
4C38
  3
ACAD_XREC_ROUNDTRIP
360
4C43
  0
DICTIONARY
  5
4C51
330
4BA7
100
AcDbDictionary
280
     1
281
     1
  3
ACAD_XREC_ROUNDTRIP
360
4C52
  0
DICTIONARY
  5
4C55
330
4BA9
100
AcDbDictionary
280
     1
281
     1
  3
ACAD_XREC_ROUNDTRIP
360
4C56
  0
DICTIONARY
  5
4C53
330
4BA8
100
AcDbDictionary
280
     1
281
     1
  3
ACAD_XREC_ROUNDTRIP
360
4C54
  0
DICTIONARY
  5
4C4F
330
4BA6
100
AcDbDictionary
280
     1
281
     1
  3
ACAD_XREC_ROUNDTRIP
360
4C50
  0
DICTIONARY
  5
4C5D
330
4BAD
100
AcDbDictionary
280
     1
281
     1
  3
ACAD_XREC_ROUNDTRIP
360
4C5E
  0
DICTIONARY
  5
4C65
330
4BB1
100
AcDbDictionary
280
     1
281
     1
  3
ACAD_XREC_ROUNDTRIP
360
4C66
  0
DICTIONARY
  5
4C57
330
4BAA
100
AcDbDictionary
280
     1
281
     1
  3
ACAD_XREC_ROUNDTRIP
360
4C58
  0
DICTIONARY
  5
4C5B
330
4BAC
100
AcDbDictionary
280
     1
281
     1
  3
ACAD_XREC_ROUNDTRIP
360
4C5C
  0
DICTIONARY
  5
4C6B
330
4BB4
100
AcDbDictionary
280
     1
281
     1
  3
ACAD_XREC_ROUNDTRIP
360
4C6C
  0
DICTIONARY
  5
4C63
330
4BB0
100
AcDbDictionary
280
     1
281
     1
  3
ACAD_XREC_ROUNDTRIP
360
4C64
  0
DICTIONARY
  5
4C47
330
4BA2
100
AcDbDictionary
280
     1
281
     1
  3
ACAD_XREC_ROUNDTRIP
360
4C48
  0
DICTIONARY
  5
4C49
330
4BA3
100
AcDbDictionary
280
     1
281
     1
  3
ACAD_XREC_ROUNDTRIP
360
4C4A
  0
DICTIONARY
  5
4C4B
330
4BA4
100
AcDbDictionary
280
     1
281
     1
  3
ACAD_XREC_ROUNDTRIP
360
4C4C
  0
DICTIONARY
  5
4C4D
330
4BA5
100
AcDbDictionary
280
     1
281
     1
  3
ACAD_XREC_ROUNDTRIP
360
4C4E
  0
DICTIONARY
  5
4C67
330
4BB2
100
AcDbDictionary
280
     1
281
     1
  3
ACAD_XREC_ROUNDTRIP
360
4C68
  0
DICTIONARY
  5
4C61
330
4BAF
100
AcDbDictionary
280
     1
281
     1
  3
ACAD_XREC_ROUNDTRIP
360
4C62
  0
DICTIONARY
  5
4C69
330
4BB3
100
AcDbDictionary
280
     1
281
     1
  3
ACAD_XREC_ROUNDTRIP
360
4C6A
  0
DICTIONARY
  5
4C59
330
4BAB
100
AcDbDictionary
280
     1
281
     1
  3
ACAD_XREC_ROUNDTRIP
360
4C5A
  0
DICTIONARY
  5
4C5F
330
4BAE
100
AcDbDictionary
280
     1
281
     1
  3
ACAD_XREC_ROUNDTRIP
360
4C60
  0
XRECORD
  5
4C3E
102
{ACAD_REACTORS
330
4C3D
102
}
330
4C3D
100
AcDbXrecord
280
     1
102
SHADEPLOT
 70
     0
102
SHADEPLOTRESLEVEL
 70
     2
102
SHADEPLOTCUSTOMDPI
 70
   300
  0
XRECORD
  5
4C42
102
{ACAD_REACTORS
330
4C41
102
}
330
4C41
100
AcDbXrecord
280
     1
102
SHADEPLOT
 70
     0
102
SHADEPLOTRESLEVEL
 70
     2
102
SHADEPLOTCUSTOMDPI
 70
   300
  0
XRECORD
  5
4C40
102
{ACAD_REACTORS
330
4C3F
102
}
330
4C3F
100
AcDbXrecord
280
     1
102
SHADEPLOT
 70
     0
102
SHADEPLOTRESLEVEL
 70
     2
102
SHADEPLOTCUSTOMDPI
 70
   300
  0
XRECORD
  5
4C45
102
{ACAD_REACTORS
330
4B92
102
}
330
4B92
100
AcDbXrecord
280
     1
102
MATERIAL
148
0.0
149
0.0
149
0.0
 93
        0
 94
      127
282
     0
 72
     0
 77
     0
171
     0
175
     0
179
     0
273
     0
  0
XRECORD
  5
4B94
102
{ACAD_REACTORS
330
4B92
102
}
330
4B92
100
AcDbXrecord
280
     1
270
     1
271
     1
  0
XRECORD
  5
4B93
102
{ACAD_REACTORS
330
4B92
102
}
330
4B92
100
AcDbXrecord
280
     1
270
     1
271
     1
  0
XRECORD
  5
4B97
102
{ACAD_REACTORS
330
4B92
102
}
330
4B92
100
AcDbXrecord
280
     1
270
     1
271
     1
  0
XRECORD
  5
4B96
102
{ACAD_REACTORS
330
4B92
102
}
330
4B92
100
AcDbXrecord
280
     1
270
     1
271
     1
  0
XRECORD
  5
4B98
102
{ACAD_REACTORS
330
4B92
102
}
330
4B92
100
AcDbXrecord
280
     1
270
     1
271
     1
  0
XRECORD
  5
4B95
102
{ACAD_REACTORS
330
4B92
102
}
330
4B92
100
AcDbXrecord
280
     1
270
     1
271
     1
  0
XRECORD
  5
4C44
102
{ACAD_REACTORS
330
4B8A
102
}
330
4B8A
100
AcDbXrecord
280
     1
102
MATERIAL
148
0.0
149
0.0
149
0.0
 93
        0
 94
      127
282
     0
 72
     0
 77
     0
171
     0
175
     0
179
     0
273
     0
  0
XRECORD
  5
4B8C
102
{ACAD_REACTORS
330
4B8A
102
}
330
4B8A
100
AcDbXrecord
280
     1
270
     1
271
     1
  0
XRECORD
  5
4B8B
102
{ACAD_REACTORS
330
4B8A
102
}
330
4B8A
100
AcDbXrecord
280
     1
270
     1
271
     1
  0
XRECORD
  5
4B8F
102
{ACAD_REACTORS
330
4B8A
102
}
330
4B8A
100
AcDbXrecord
280
     1
270
     1
271
     1
  0
XRECORD
  5
4B8E
102
{ACAD_REACTORS
330
4B8A
102
}
330
4B8A
100
AcDbXrecord
280
     1
270
     1
271
     1
  0
XRECORD
  5
4B90
102
{ACAD_REACTORS
330
4B8A
102
}
330
4B8A
100
AcDbXrecord
280
     1
270
     1
271
     1
  0
XRECORD
  5
4B8D
102
{ACAD_REACTORS
330
4B8A
102
}
330
4B8A
100
AcDbXrecord
280
     1
270
     1
271
     1
  0
XRECORD
  5
4C46
102
{ACAD_REACTORS
330
4B9A
102
}
330
4B9A
100
AcDbXrecord
280
     1
102
MATERIAL
148
0.0
149
0.0
149
0.0
 93
        0
 94
      127
282
     0
 72
     0
 77
     0
171
     0
175
     0
179
     0
273
     0
  0
XRECORD
  5
4B9C
102
{ACAD_REACTORS
330
4B9A
102
}
330
4B9A
100
AcDbXrecord
280
     1
270
     1
271
     1
  0
XRECORD
  5
4B9B
102
{ACAD_REACTORS
330
4B9A
102
}
330
4B9A
100
AcDbXrecord
280
     1
270
     1
271
     1
  0
XRECORD
  5
4B9F
102
{ACAD_REACTORS
330
4B9A
102
}
330
4B9A
100
AcDbXrecord
280
     1
270
     1
271
     1
  0
XRECORD
  5
4B9E
102
{ACAD_REACTORS
330
4B9A
102
}
330
4B9A
100
AcDbXrecord
280
     1
270
     1
271
     1
  0
XRECORD
  5
4BA0
102
{ACAD_REACTORS
330
4B9A
102
}
330
4B9A
100
AcDbXrecord
280
     1
270
     1
271
     1
  0
XRECORD
  5
4B9D
102
{ACAD_REACTORS
330
4B9A
102
}
330
4B9A
100
AcDbXrecord
280
     1
270
     1
271
     1
  0
CELLSTYLEMAP
  5
4C38
102
{ACAD_REACTORS
330
4C37
102
}
330
4C37
100
AcDbCellStyleMap
 90
        3
300
CELLSTYLE
  1
TABLEFORMAT_BEGIN
 90
        5
170
     1
 91
        0
 92
    32768
 62
   257
 93
        1
300
CONTENTFORMAT
  1
CONTENTFORMAT_BEGIN
 90
        0
 91
        0
 92
        4
 93
        0
300

 40
0.0
140
1.0
 94
        5
 62
     0
340
11
144
6.0
309
CONTENTFORMAT_END
171
     1
301
MARGIN
  1
CELLMARGIN_BEGIN
 40
1.5
 40
1.5
 40
1.5
 40
1.5
 40
0.18
 40
0.18
309
CELLMARGIN_END
 94
        6
 95
        1
302
GRIDFORMAT
  1
GRIDFORMAT_BEGIN
 90
        0
 91
        1
 62
     0
 92
       -2
340
0
 93
        0
 40
0.045
309
GRIDFORMAT_END
 95
        2
302
GRIDFORMAT
  1
GRIDFORMAT_BEGIN
 90
        0
 91
        1
 62
     0
 92
       -2
340
0
 93
        0
 40
0.045
309
GRIDFORMAT_END
 95
        4
302
GRIDFORMAT
  1
GRIDFORMAT_BEGIN
 90
        0
 91
        1
 62
     0
 92
       -2
340
0
 93
        0
 40
0.045
309
GRIDFORMAT_END
 95
        8
302
GRIDFORMAT
  1
GRIDFORMAT_BEGIN
 90
        0
 91
        1
 62
     0
 92
       -2
340
0
 93
        0
 40
0.045
309
GRIDFORMAT_END
 95
       16
302
GRIDFORMAT
  1
GRIDFORMAT_BEGIN
 90
        0
 91
        1
 62
     0
 92
       -2
340
0
 93
        0
 40
0.045
309
GRIDFORMAT_END
 95
       32
302
GRIDFORMAT
  1
GRIDFORMAT_BEGIN
 90
        0
 91
        1
 62
     0
 92
       -2
340
0
 93
        0
 40
0.045
309
GRIDFORMAT_END
309
TABLEFORMAT_END
  1
CELLSTYLE_BEGIN
 90
        1
 91
        1
300
_TITLE
309
CELLSTYLE_END
300
CELLSTYLE
  1
TABLEFORMAT_BEGIN
 90
        5
170
     1
 91
        0
 92
        0
 62
   257
 93
        1
300
CONTENTFORMAT
  1
CONTENTFORMAT_BEGIN
 90
        0
 91
        0
 92
        4
 93
        0
300

 40
0.0
140
1.0
 94
        5
 62
     0
340
11
144
4.5
309
CONTENTFORMAT_END
171
     1
301
MARGIN
  1
CELLMARGIN_BEGIN
 40
1.5
 40
1.5
 40
1.5
 40
1.5
 40
0.18
 40
0.18
309
CELLMARGIN_END
 94
        6
 95
        1
302
GRIDFORMAT
  1
GRIDFORMAT_BEGIN
 90
        0
 91
        1
 62
     0
 92
       -2
340
0
 93
        0
 40
0.045
309
GRIDFORMAT_END
 95
        2
302
GRIDFORMAT
  1
GRIDFORMAT_BEGIN
 90
        0
 91
        1
 62
     0
 92
       -2
340
0
 93
        0
 40
0.045
309
GRIDFORMAT_END
 95
        4
302
GRIDFORMAT
  1
GRIDFORMAT_BEGIN
 90
        0
 91
        1
 62
     0
 92
       -2
340
0
 93
        0
 40
0.045
309
GRIDFORMAT_END
 95
        8
302
GRIDFORMAT
  1
GRIDFORMAT_BEGIN
 90
        0
 91
        1
 62
     0
 92
       -2
340
0
 93
        0
 40
0.045
309
GRIDFORMAT_END
 95
       16
302
GRIDFORMAT
  1
GRIDFORMAT_BEGIN
 90
        0
 91
        1
 62
     0
 92
       -2
340
0
 93
        0
 40
0.045
309
GRIDFORMAT_END
 95
       32
302
GRIDFORMAT
  1
GRIDFORMAT_BEGIN
 90
        0
 91
        1
 62
     0
 92
       -2
340
0
 93
        0
 40
0.045
309
GRIDFORMAT_END
309
TABLEFORMAT_END
  1
CELLSTYLE_BEGIN
 90
        2
 91
        1
300
_HEADER
309
CELLSTYLE_END
300
CELLSTYLE
  1
TABLEFORMAT_BEGIN
 90
        5
170
     1
 91
        0
 92
        0
 62
   257
 93
        1
300
CONTENTFORMAT
  1
CONTENTFORMAT_BEGIN
 90
        0
 91
        0
 92
        4
 93
        0
300

 40
0.0
140
1.0
 94
        2
 62
     0
340
11
144
4.5
309
CONTENTFORMAT_END
171
     1
301
MARGIN
  1
CELLMARGIN_BEGIN
 40
1.5
 40
1.5
 40
1.5
 40
1.5
 40
0.18
 40
0.18
309
CELLMARGIN_END
 94
        6
 95
        1
302
GRIDFORMAT
  1
GRIDFORMAT_BEGIN
 90
        0
 91
        1
 62
     0
 92
       -2
340
0
 93
        0
 40
0.045
309
GRIDFORMAT_END
 95
        2
302
GRIDFORMAT
  1
GRIDFORMAT_BEGIN
 90
        0
 91
        1
 62
     0
 92
       -2
340
0
 93
        0
 40
0.045
309
GRIDFORMAT_END
 95
        4
302
GRIDFORMAT
  1
GRIDFORMAT_BEGIN
 90
        0
 91
        1
 62
     0
 92
       -2
340
0
 93
        0
 40
0.045
309
GRIDFORMAT_END
 95
        8
302
GRIDFORMAT
  1
GRIDFORMAT_BEGIN
 90
        0
 91
        1
 62
     0
 92
       -2
340
0
 93
        0
 40
0.045
309
GRIDFORMAT_END
 95
       16
302
GRIDFORMAT
  1
GRIDFORMAT_BEGIN
 90
        0
 91
        1
 62
     0
 92
       -2
340
0
 93
        0
 40
0.045
309
GRIDFORMAT_END
 95
       32
302
GRIDFORMAT
  1
GRIDFORMAT_BEGIN
 90
        0
 91
        1
 62
     0
 92
       -2
340
0
 93
        0
 40
0.045
309
GRIDFORMAT_END
309
TABLEFORMAT_END
  1
CELLSTYLE_BEGIN
 90
        3
 91
        2
300
_DATA
309
CELLSTYLE_END
  0
XRECORD
  5
4C43
102
{ACAD_REACTORS
330
4C37
102
}
330
4C37
100
AcDbXrecord
280
     1
102
ACAD_ROUNDTRIP_PRE2007_TABLESTYLE
 90
        4
 91
        0
  1

 92
        4
 93
        0
  2

 94
        4
 95
        0
  3

  0
XRECORD
  5
4C52
102
{ACAD_REACTORS
330
4C51
102
}
330
4C51
100
AcDbXrecord
280
     1
102
RTVSPropertyOp0
 70
     1
102
RTVSPropertyOp1
 70
     1
102
RTVSPropertyOp2
 70
     1
102
RTVSPropertyOp3
 70
     1
102
RTVSPropertyOp4
 70
     1
102
RTVSPropertyOp5
 70
     1
102
RTVSPropertyOp6
 70
     1
102
RTVSPropertyOp7
 70
     1
102
RTVSPropertyOp8
 70
     1
102
RTVSPropertyOp9
 70
     1
102
RTVSPropertyOp10
 70
     1
102
RTVSPropertyOp11
 70
     1
102
RTVSPropertyOp12
 70
     1
102
RTVSPropertyOp13
 70
     1
102
RTVSPropertyOp14
 70
     1
102
RTVSPropertyOp15
 70
     1
102
RTVSPropertyOp16
 70
     1
102
RTVSPropertyOp17
 70
     1
102
RTVSPropertyOp18
 70
     1
102
RTVSPropertyOp19
 70
     1
102
RTVSPropertyOp20
 70
     1
102
RTVSPropertyOp21
 70
     1
102
RTVSPropertyOp22
 70
     1
102
RTVSPropertyOp23
 70
     1
102
RTVSPropertyOp24
 70
     1
102
RTVSPropertyOp25
 70
     1
102
RTVSPropertyOp26
 70
     1
102
RTVSPropertyOp27
 70
     1
  0
XRECORD
  5
4C56
102
{ACAD_REACTORS
330
4C55
102
}
330
4C55
100
AcDbXrecord
280
     1
102
RTVSPropertyOp0
 70
     1
102
RTVSPropertyOp1
 70
     1
102
RTVSPropertyOp2
 70
     1
102
RTVSPropertyOp3
 70
     1
102
RTVSPropertyOp4
 70
     1
102
RTVSPropertyOp5
 70
     1
102
RTVSPropertyOp6
 70
     1
102
RTVSPropertyOp7
 70
     1
102
RTVSPropertyOp8
 70
     1
102
RTVSPropertyOp9
 70
     1
102
RTVSPropertyOp10
 70
     1
102
RTVSPropertyOp11
 70
     1
102
RTVSPropertyOp12
 70
     1
102
RTVSPropertyOp13
 70
     1
102
RTVSPropertyOp14
 70
     1
102
RTVSPropertyOp15
 70
     1
102
RTVSPropertyOp16
 70
     1
102
RTVSPropertyOp17
 70
     1
102
RTVSPropertyOp18
 70
     1
102
RTVSPropertyOp19
 70
     1
102
RTVSPropertyOp20
 70
     1
102
RTVSPropertyOp21
 70
     1
102
RTVSPropertyOp22
 70
     1
102
RTVSPropertyOp23
 70
     1
102
RTVSPropertyOp24
 70
     1
102
RTVSPropertyOp25
 70
     1
102
RTVSPropertyOp26
 70
     1
102
RTVSPropertyOp27
 70
     1
  0
XRECORD
  5
4C54
102
{ACAD_REACTORS
330
4C53
102
}
330
4C53
100
AcDbXrecord
280
     1
102
RTVSPropertyOp0
 70
     1
102
RTVSPropertyOp1
 70
     1
102
RTVSPropertyOp2
 70
     1
102
RTVSPropertyOp3
 70
     1
102
RTVSPropertyOp4
 70
     1
102
RTVSPropertyOp5
 70
     1
102
RTVSPropertyOp6
 70
     1
102
RTVSPropertyOp7
 70
     1
102
RTVSPropertyOp8
 70
     1
102
RTVSPropertyOp9
 70
     1
102
RTVSPropertyOp10
 70
     1
102
RTVSPropertyOp11
 70
     1
102
RTVSPropertyOp12
 70
     1
102
RTVSPropertyOp13
 70
     1
102
RTVSPropertyOp14
 70
     1
102
RTVSPropertyOp15
 70
     1
102
RTVSPropertyOp16
 70
     1
102
RTVSPropertyOp17
 70
     1
102
RTVSPropertyOp18
 70
     1
102
RTVSPropertyOp19
 70
     1
102
RTVSPropertyOp20
 70
     1
102
RTVSPropertyOp21
 70
     1
102
RTVSPropertyOp22
 70
     1
102
RTVSPropertyOp23
 70
     1
102
RTVSPropertyOp24
 70
     1
102
RTVSPropertyOp25
 70
     1
102
RTVSPropertyOp26
 70
     1
102
RTVSPropertyOp27
 70
     1
  0
XRECORD
  5
4C50
102
{ACAD_REACTORS
330
4C4F
102
}
330
4C4F
100
AcDbXrecord
280
     1
102
RTVSPropertyOp0
 70
     1
102
RTVSPropertyOp1
 70
     1
102
RTVSPropertyOp2
 70
     1
102
RTVSPropertyOp3
 70
     1
102
RTVSPropertyOp4
 70
     1
102
RTVSPropertyOp5
 70
     1
102
RTVSPropertyOp6
 70
     1
102
RTVSPropertyOp7
 70
     1
102
RTVSPropertyOp8
 70
     1
102
RTVSPropertyOp9
 70
     1
102
RTVSPropertyOp10
 70
     1
102
RTVSPropertyOp11
 70
     1
102
RTVSPropertyOp12
 70
     1
102
RTVSPropertyOp13
 70
     1
102
RTVSPropertyOp14
 70
     1
102
RTVSPropertyOp15
 70
     1
102
RTVSPropertyOp16
 70
     1
102
RTVSPropertyOp17
 70
     1
102
RTVSPropertyOp18
 70
     1
102
RTVSPropertyOp19
 70
     1
102
RTVSPropertyOp20
 70
     1
102
RTVSPropertyOp21
 70
     1
102
RTVSPropertyOp22
 70
     1
102
RTVSPropertyOp23
 70
     1
102
RTVSPropertyOp24
 70
     1
102
RTVSPropertyOp25
 70
     1
102
RTVSPropertyOp26
 70
     1
102
RTVSPropertyOp27
 70
     1
  0
XRECORD
  5
4C5E
102
{ACAD_REACTORS
330
4C5D
102
}
330
4C5D
100
AcDbXrecord
280
     1
102
RTVSPropertyOp0
 70
     1
102
RTVSPropertyOp1
 70
     1
102
RTVSPropertyOp2
 70
     1
102
RTVSPropertyOp3
 70
     1
102
RTVSPropertyOp4
 70
     1
102
RTVSPropertyOp5
 70
     1
102
RTVSPropertyOp6
 70
     1
102
RTVSPropertyOp7
 70
     1
102
RTVSPropertyOp8
 70
     1
102
RTVSPropertyOp9
 70
     1
102
RTVSPropertyOp10
 70
     1
102
RTVSPropertyOp11
 70
     1
102
RTVSPropertyOp12
 70
     1
102
RTVSPropertyOp13
 70
     1
102
RTVSPropertyOp14
 70
     1
102
RTVSPropertyOp15
 70
     1
102
RTVSPropertyOp16
 70
     1
102
RTVSPropertyOp17
 70
     1
102
RTVSPropertyOp18
 70
     1
102
RTVSPropertyOp19
 70
     1
102
RTVSPropertyOp20
 70
     1
102
RTVSPropertyOp21
 70
     1
102
RTVSPropertyOp22
 70
     1
102
RTVSPropertyOp23
 70
     1
102
RTVSPropertyOp24
 70
     1
102
RTVSPropertyOp25
 70
     1
102
RTVSPropertyOp26
 70
     1
102
RTVSPropertyOp27
 70
     1
  0
XRECORD
  5
4C66
102
{ACAD_REACTORS
330
4C65
102
}
330
4C65
100
AcDbXrecord
280
     1
102
RTVSPropertyOp0
 70
     1
102
RTVSPropertyOp1
 70
     1
102
RTVSPropertyOp2
 70
     1
102
RTVSPropertyOp3
 70
     1
102
RTVSPropertyOp4
 70
     1
102
RTVSPropertyOp5
 70
     1
102
RTVSPropertyOp6
 70
     1
102
RTVSPropertyOp7
 70
     1
102
RTVSPropertyOp8
 70
     1
102
RTVSPropertyOp9
 70
     1
102
RTVSPropertyOp10
 70
     1
102
RTVSPropertyOp11
 70
     1
102
RTVSPropertyOp12
 70
     1
102
RTVSPropertyOp13
 70
     1
102
RTVSPropertyOp14
 70
     1
102
RTVSPropertyOp15
 70
     1
102
RTVSPropertyOp16
 70
     1
102
RTVSPropertyOp17
 70
     1
102
RTVSPropertyOp18
 70
     1
102
RTVSPropertyOp19
 70
     1
102
RTVSPropertyOp20
 70
     1
102
RTVSPropertyOp21
 70
     1
102
RTVSPropertyOp22
 70
     1
102
RTVSPropertyOp23
 70
     1
102
RTVSPropertyOp24
 70
     1
102
RTVSPropertyOp25
 70
     1
102
RTVSPropertyOp26
 70
     1
102
RTVSPropertyOp27
 70
     1
  0
XRECORD
  5
4C58
102
{ACAD_REACTORS
330
4C57
102
}
330
4C57
100
AcDbXrecord
280
     1
102
RTVSPropertyOp0
 70
     1
102
RTVSPropertyOp1
 70
     1
102
RTVSPropertyOp2
 70
     1
102
RTVSPropertyOp3
 70
     1
102
RTVSPropertyOp4
 70
     1
102
RTVSPropertyOp5
 70
     1
102
RTVSPropertyOp6
 70
     1
102
RTVSPropertyOp7
 70
     1
102
RTVSPropertyOp8
 70
     1
102
RTVSPropertyOp9
 70
     1
102
RTVSPropertyOp10
 70
     1
102
RTVSPropertyOp11
 70
     1
102
RTVSPropertyOp12
 70
     1
102
RTVSPropertyOp13
 70
     1
102
RTVSPropertyOp14
 70
     1
102
RTVSPropertyOp15
 70
     1
102
RTVSPropertyOp16
 70
     1
102
RTVSPropertyOp17
 70
     1
102
RTVSPropertyOp18
 70
     1
102
RTVSPropertyOp19
 70
     1
102
RTVSPropertyOp20
 70
     1
102
RTVSPropertyOp21
 70
     1
102
RTVSPropertyOp22
 70
     1
102
RTVSPropertyOp23
 70
     1
102
RTVSPropertyOp24
 70
     1
102
RTVSPropertyOp25
 70
     1
102
RTVSPropertyOp26
 70
     1
102
RTVSPropertyOp27
 70
     1
  0
XRECORD
  5
4C5C
102
{ACAD_REACTORS
330
4C5B
102
}
330
4C5B
100
AcDbXrecord
280
     1
102
RTVSPropertyOp0
 70
     1
102
RTVSPropertyOp1
 70
     1
102
RTVSPropertyOp2
 70
     1
102
RTVSPropertyOp3
 70
     1
102
RTVSPropertyOp4
 70
     1
102
RTVSPropertyOp5
 70
     1
102
RTVSPropertyOp6
 70
     1
102
RTVSPropertyOp7
 70
     1
102
RTVSPropertyOp8
 70
     1
102
RTVSPropertyOp9
 70
     1
102
RTVSPropertyOp10
 70
     1
102
RTVSPropertyOp11
 70
     1
102
RTVSPropertyOp12
 70
     1
102
RTVSPropertyOp13
 70
     1
102
RTVSPropertyOp14
 70
     1
102
RTVSPropertyOp15
 70
     1
102
RTVSPropertyOp16
 70
     1
102
RTVSPropertyOp17
 70
     1
102
RTVSPropertyOp18
 70
     1
102
RTVSPropertyOp19
 70
     1
102
RTVSPropertyOp20
 70
     1
102
RTVSPropertyOp21
 70
     1
102
RTVSPropertyOp22
 70
     1
102
RTVSPropertyOp23
 70
     1
102
RTVSPropertyOp24
 70
     1
102
RTVSPropertyOp25
 70
     1
102
RTVSPropertyOp26
 70
     1
102
RTVSPropertyOp27
 70
     1
  0
XRECORD
  5
4C6C
102
{ACAD_REACTORS
330
4C6B
102
}
330
4C6B
100
AcDbXrecord
280
     1
102
RTVSPropertyOp0
 70
     0
102
RTVSPropertyOp1
 70
     0
102
RTVSPropertyOp2
 70
     0
102
RTVSPropertyOp3
 70
     0
102
RTVSPropertyOp4
 70
     0
102
RTVSPropertyOp5
 70
     0
102
RTVSPropertyOp6
 70
     0
102
RTVSPropertyOp7
 70
     0
102
RTVSPropertyOp8
 70
     0
102
RTVSPropertyOp9
 70
     0
102
RTVSPropertyOp10
 70
     0
102
RTVSPropertyOp11
 70
     0
102
RTVSPropertyOp12
 70
     0
102
RTVSPropertyOp13
 70
     0
102
RTVSPropertyOp14
 70
     2
102
RTVSPropertyOp15
 70
     0
102
RTVSPropertyOp16
 70
     0
102
RTVSPropertyOp17
 70
     0
102
RTVSPropertyOp18
 70
     0
102
RTVSPropertyOp19
 70
     0
102
RTVSPropertyOp20
 70
     0
102
RTVSPropertyOp21
 70
     0
102
RTVSPropertyOp22
 70
     0
102
RTVSPropertyOp23
 70
     0
102
RTVSPropertyOp24
 70
     0
102
RTVSPropertyOp25
 70
     0
102
RTVSPropertyOp26
 70
     0
102
RTVSPropertyOp27
 70
     0
  0
XRECORD
  5
4C64
102
{ACAD_REACTORS
330
4C63
102
}
330
4C63
100
AcDbXrecord
280
     1
102
RTVSPropertyOp0
 70
     1
102
RTVSPropertyOp1
 70
     1
102
RTVSPropertyOp2
 70
     1
102
RTVSPropertyOp3
 70
     1
102
RTVSPropertyOp4
 70
     1
102
RTVSPropertyOp5
 70
     1
102
RTVSPropertyOp6
 70
     1
102
RTVSPropertyOp7
 70
     1
102
RTVSPropertyOp8
 70
     1
102
RTVSPropertyOp9
 70
     1
102
RTVSPropertyOp10
 70
     1
102
RTVSPropertyOp11
 70
     1
102
RTVSPropertyOp12
 70
     1
102
RTVSPropertyOp13
 70
     1
102
RTVSPropertyOp14
 70
     1
102
RTVSPropertyOp15
 70
     1
102
RTVSPropertyOp16
 70
     1
102
RTVSPropertyOp17
 70
     1
102
RTVSPropertyOp18
 70
     1
102
RTVSPropertyOp19
 70
     1
102
RTVSPropertyOp20
 70
     1
102
RTVSPropertyOp21
 70
     1
102
RTVSPropertyOp22
 70
     1
102
RTVSPropertyOp23
 70
     1
102
RTVSPropertyOp24
 70
     1
102
RTVSPropertyOp25
 70
     1
102
RTVSPropertyOp26
 70
     1
102
RTVSPropertyOp27
 70
     1
  0
XRECORD
  5
4C48
102
{ACAD_REACTORS
330
4C47
102
}
330
4C47
100
AcDbXrecord
280
     1
102
RTVSPropertyOp0
 70
     1
102
RTVSPropertyOp1
 70
     1
102
RTVSPropertyOp2
 70
     1
102
RTVSPropertyOp3
 70
     1
102
RTVSPropertyOp4
 70
     1
102
RTVSPropertyOp5
 70
     1
102
RTVSPropertyOp6
 70
     1
102
RTVSPropertyOp7
 70
     1
102
RTVSPropertyOp8
 70
     1
102
RTVSPropertyOp9
 70
     1
102
RTVSPropertyOp10
 70
     1
102
RTVSPropertyOp11
 70
     1
102
RTVSPropertyOp12
 70
     1
102
RTVSPropertyOp13
 70
     1
102
RTVSPropertyOp14
 70
     1
102
RTVSPropertyOp15
 70
     1
102
RTVSPropertyOp16
 70
     1
102
RTVSPropertyOp17
 70
     1
102
RTVSPropertyOp18
 70
     1
102
RTVSPropertyOp19
 70
     1
102
RTVSPropertyOp20
 70
     1
102
RTVSPropertyOp21
 70
     1
102
RTVSPropertyOp22
 70
     1
102
RTVSPropertyOp23
 70
     1
102
RTVSPropertyOp24
 70
     1
102
RTVSPropertyOp25
 70
     1
102
RTVSPropertyOp26
 70
     1
102
RTVSPropertyOp27
 70
     1
  0
XRECORD
  5
4C4A
102
{ACAD_REACTORS
330
4C49
102
}
330
4C49
100
AcDbXrecord
280
     1
102
RTVSPropertyOp0
 70
     1
102
RTVSPropertyOp1
 70
     1
102
RTVSPropertyOp2
 70
     1
102
RTVSPropertyOp3
 70
     1
102
RTVSPropertyOp4
 70
     1
102
RTVSPropertyOp5
 70
     1
102
RTVSPropertyOp6
 70
     1
102
RTVSPropertyOp7
 70
     1
102
RTVSPropertyOp8
 70
     1
102
RTVSPropertyOp9
 70
     1
102
RTVSPropertyOp10
 70
     1
102
RTVSPropertyOp11
 70
     1
102
RTVSPropertyOp12
 70
     1
102
RTVSPropertyOp13
 70
     1
102
RTVSPropertyOp14
 70
     1
102
RTVSPropertyOp15
 70
     1
102
RTVSPropertyOp16
 70
     1
102
RTVSPropertyOp17
 70
     1
102
RTVSPropertyOp18
 70
     1
102
RTVSPropertyOp19
 70
     1
102
RTVSPropertyOp20
 70
     1
102
RTVSPropertyOp21
 70
     1
102
RTVSPropertyOp22
 70
     1
102
RTVSPropertyOp23
 70
     1
102
RTVSPropertyOp24
 70
     1
102
RTVSPropertyOp25
 70
     1
102
RTVSPropertyOp26
 70
     1
102
RTVSPropertyOp27
 70
     1
  0
XRECORD
  5
4C4C
102
{ACAD_REACTORS
330
4C4B
102
}
330
4C4B
100
AcDbXrecord
280
     1
102
RTVSPropertyOp0
 70
     1
102
RTVSPropertyOp1
 70
     1
102
RTVSPropertyOp2
 70
     1
102
RTVSPropertyOp3
 70
     1
102
RTVSPropertyOp4
 70
     1
102
RTVSPropertyOp5
 70
     1
102
RTVSPropertyOp6
 70
     1
102
RTVSPropertyOp7
 70
     1
102
RTVSPropertyOp8
 70
     1
102
RTVSPropertyOp9
 70
     1
102
RTVSPropertyOp10
 70
     1
102
RTVSPropertyOp11
 70
     1
102
RTVSPropertyOp12
 70
     1
102
RTVSPropertyOp13
 70
     1
102
RTVSPropertyOp14
 70
     1
102
RTVSPropertyOp15
 70
     1
102
RTVSPropertyOp16
 70
     1
102
RTVSPropertyOp17
 70
     1
102
RTVSPropertyOp18
 70
     1
102
RTVSPropertyOp19
 70
     1
102
RTVSPropertyOp20
 70
     1
102
RTVSPropertyOp21
 70
     1
102
RTVSPropertyOp22
 70
     1
102
RTVSPropertyOp23
 70
     1
102
RTVSPropertyOp24
 70
     1
102
RTVSPropertyOp25
 70
     1
102
RTVSPropertyOp26
 70
     1
102
RTVSPropertyOp27
 70
     1
  0
XRECORD
  5
4C4E
102
{ACAD_REACTORS
330
4C4D
102
}
330
4C4D
100
AcDbXrecord
280
     1
102
RTVSPropertyOp0
 70
     1
102
RTVSPropertyOp1
 70
     1
102
RTVSPropertyOp2
 70
     1
102
RTVSPropertyOp3
 70
     1
102
RTVSPropertyOp4
 70
     1
102
RTVSPropertyOp5
 70
     1
102
RTVSPropertyOp6
 70
     1
102
RTVSPropertyOp7
 70
     1
102
RTVSPropertyOp8
 70
     1
102
RTVSPropertyOp9
 70
     1
102
RTVSPropertyOp10
 70
     1
102
RTVSPropertyOp11
 70
     1
102
RTVSPropertyOp12
 70
     1
102
RTVSPropertyOp13
 70
     1
102
RTVSPropertyOp14
 70
     1
102
RTVSPropertyOp15
 70
     1
102
RTVSPropertyOp16
 70
     1
102
RTVSPropertyOp17
 70
     1
102
RTVSPropertyOp18
 70
     1
102
RTVSPropertyOp19
 70
     1
102
RTVSPropertyOp20
 70
     1
102
RTVSPropertyOp21
 70
     1
102
RTVSPropertyOp22
 70
     1
102
RTVSPropertyOp23
 70
     1
102
RTVSPropertyOp24
 70
     1
102
RTVSPropertyOp25
 70
     1
102
RTVSPropertyOp26
 70
     1
102
RTVSPropertyOp27
 70
     1
  0
XRECORD
  5
4C68
102
{ACAD_REACTORS
330
4C67
102
}
330
4C67
100
AcDbXrecord
280
     1
102
RTVSPropertyOp0
 70
     0
102
RTVSPropertyOp1
 70
     0
102
RTVSPropertyOp2
 70
     0
102
RTVSPropertyOp3
 70
     0
102
RTVSPropertyOp4
 70
     0
102
RTVSPropertyOp5
 70
     0
102
RTVSPropertyOp6
 70
     0
102
RTVSPropertyOp7
 70
     0
102
RTVSPropertyOp8
 70
     0
102
RTVSPropertyOp9
 70
     0
102
RTVSPropertyOp10
 70
     0
102
RTVSPropertyOp11
 70
     0
102
RTVSPropertyOp12
 70
     0
102
RTVSPropertyOp13
 70
     0
102
RTVSPropertyOp14
 70
     2
102
RTVSPropertyOp15
 70
     0
102
RTVSPropertyOp16
 70
     0
102
RTVSPropertyOp17
 70
     0
102
RTVSPropertyOp18
 70
     0
102
RTVSPropertyOp19
 70
     0
102
RTVSPropertyOp20
 70
     0
102
RTVSPropertyOp21
 70
     0
102
RTVSPropertyOp22
 70
     0
102
RTVSPropertyOp23
 70
     0
102
RTVSPropertyOp24
 70
     0
102
RTVSPropertyOp25
 70
     0
102
RTVSPropertyOp26
 70
     0
102
RTVSPropertyOp27
 70
     0
  0
XRECORD
  5
4C62
102
{ACAD_REACTORS
330
4C61
102
}
330
4C61
100
AcDbXrecord
280
     1
102
RTVSPropertyOp0
 70
     1
102
RTVSPropertyOp1
 70
     1
102
RTVSPropertyOp2
 70
     1
102
RTVSPropertyOp3
 70
     1
102
RTVSPropertyOp4
 70
     1
102
RTVSPropertyOp5
 70
     1
102
RTVSPropertyOp6
 70
     1
102
RTVSPropertyOp7
 70
     1
102
RTVSPropertyOp8
 70
     1
102
RTVSPropertyOp9
 70
     1
102
RTVSPropertyOp10
 70
     1
102
RTVSPropertyOp11
 70
     1
102
RTVSPropertyOp12
 70
     1
102
RTVSPropertyOp13
 70
     1
102
RTVSPropertyOp14
 70
     1
102
RTVSPropertyOp15
 70
     1
102
RTVSPropertyOp16
 70
     1
102
RTVSPropertyOp17
 70
     1
102
RTVSPropertyOp18
 70
     1
102
RTVSPropertyOp19
 70
     1
102
RTVSPropertyOp20
 70
     1
102
RTVSPropertyOp21
 70
     1
102
RTVSPropertyOp22
 70
     1
102
RTVSPropertyOp23
 70
     1
102
RTVSPropertyOp24
 70
     1
102
RTVSPropertyOp25
 70
     1
102
RTVSPropertyOp26
 70
     1
102
RTVSPropertyOp27
 70
     1
  0
XRECORD
  5
4C6A
102
{ACAD_REACTORS
330
4C69
102
}
330
4C69
100
AcDbXrecord
280
     1
102
RTVSPropertyOp0
 70
     0
102
RTVSPropertyOp1
 70
     0
102
RTVSPropertyOp2
 70
     0
102
RTVSPropertyOp3
 70
     0
102
RTVSPropertyOp4
 70
     0
102
RTVSPropertyOp5
 70
     0
102
RTVSPropertyOp6
 70
     0
102
RTVSPropertyOp7
 70
     0
102
RTVSPropertyOp8
 70
     0
102
RTVSPropertyOp9
 70
     0
102
RTVSPropertyOp10
 70
     0
102
RTVSPropertyOp11
 70
     0
102
RTVSPropertyOp12
 70
     0
102
RTVSPropertyOp13
 70
     0
102
RTVSPropertyOp14
 70
     2
102
RTVSPropertyOp15
 70
     0
102
RTVSPropertyOp16
 70
     0
102
RTVSPropertyOp17
 70
     0
102
RTVSPropertyOp18
 70
     0
102
RTVSPropertyOp19
 70
     0
102
RTVSPropertyOp20
 70
     0
102
RTVSPropertyOp21
 70
     0
102
RTVSPropertyOp22
 70
     0
102
RTVSPropertyOp23
 70
     0
102
RTVSPropertyOp24
 70
     0
102
RTVSPropertyOp25
 70
     0
102
RTVSPropertyOp26
 70
     0
102
RTVSPropertyOp27
 70
     0
  0
XRECORD
  5
4C5A
102
{ACAD_REACTORS
330
4C59
102
}
330
4C59
100
AcDbXrecord
280
     1
102
RTVSPropertyOp0
 70
     1
102
RTVSPropertyOp1
 70
     1
102
RTVSPropertyOp2
 70
     1
102
RTVSPropertyOp3
 70
     1
102
RTVSPropertyOp4
 70
     1
102
RTVSPropertyOp5
 70
     1
102
RTVSPropertyOp6
 70
     1
102
RTVSPropertyOp7
 70
     1
102
RTVSPropertyOp8
 70
     1
102
RTVSPropertyOp9
 70
     1
102
RTVSPropertyOp10
 70
     1
102
RTVSPropertyOp11
 70
     1
102
RTVSPropertyOp12
 70
     1
102
RTVSPropertyOp13
 70
     1
102
RTVSPropertyOp14
 70
     1
102
RTVSPropertyOp15
 70
     1
102
RTVSPropertyOp16
 70
     1
102
RTVSPropertyOp17
 70
     1
102
RTVSPropertyOp18
 70
     1
102
RTVSPropertyOp19
 70
     1
102
RTVSPropertyOp20
 70
     1
102
RTVSPropertyOp21
 70
     1
102
RTVSPropertyOp22
 70
     1
102
RTVSPropertyOp23
 70
     1
102
RTVSPropertyOp24
 70
     1
102
RTVSPropertyOp25
 70
     1
102
RTVSPropertyOp26
 70
     1
102
RTVSPropertyOp27
 70
     1
  0
XRECORD
  5
4C60
102
{ACAD_REACTORS
330
4C5F
102
}
330
4C5F
100
AcDbXrecord
280
     1
102
RTVSPropertyOp0
 70
     1
102
RTVSPropertyOp1
 70
     1
102
RTVSPropertyOp2
 70
     1
102
RTVSPropertyOp3
 70
     1
102
RTVSPropertyOp4
 70
     1
102
RTVSPropertyOp5
 70
     1
102
RTVSPropertyOp6
 70
     1
102
RTVSPropertyOp7
 70
     1
102
RTVSPropertyOp8
 70
     1
102
RTVSPropertyOp9
 70
     1
102
RTVSPropertyOp10
 70
     1
102
RTVSPropertyOp11
 70
     1
102
RTVSPropertyOp12
 70
     1
102
RTVSPropertyOp13
 70
     1
102
RTVSPropertyOp14
 70
     1
102
RTVSPropertyOp15
 70
     1
102
RTVSPropertyOp16
 70
     1
102
RTVSPropertyOp17
 70
     1
102
RTVSPropertyOp18
 70
     1
102
RTVSPropertyOp19
 70
     1
102
RTVSPropertyOp20
 70
     1
102
RTVSPropertyOp21
 70
     1
102
RTVSPropertyOp22
 70
     1
102
RTVSPropertyOp23
 70
     1
102
RTVSPropertyOp24
 70
     1
102
RTVSPropertyOp25
 70
     1
102
RTVSPropertyOp26
 70
     1
102
RTVSPropertyOp27
 70
     1
  0
ENDSEC
  0
EOF
