  0
SECTION
  2
HEADER
  9
$ACADVER
  1
AC1015
  9
$ACADMAINTVER
 70
    20
  9
$DWGCODEPAGE
  3
ANSI_1252
  9
$INSBASE
 10
0.0
 20
0.0
 30
0.0
  9
$EXTMIN
 10
347.7201622145579
 20
248.2614219967959
 30
-0.0000000017937957
  9
$EXTMAX
 10
349.5747465187074
 20
250.1114219967959
 30
0.0000000000545592
  9
$LIMMIN
 10
0.0
 20
0.0
  9
$LIMMAX
 10
420.0
 20
297.0
  9
$ORTHOMODE
 70
     0
  9
$REGENMODE
 70
     1
  9
$FILLMODE
 70
     1
  9
$QTEXTMODE
 70
     0
  9
$MIRRTEXT
 70
     1
  9
$LTSCALE
 40
0.2
  9
$ATTMODE
 70
     1
  9
$TEXTSIZE
 40
2.5
  9
$TRACEWID
 40
1.0
  9
$TEXTSTYLE
  7
SANINDUSA
  9
$CLAYER
  8
cotas
  9
$CELTYPE
  6
ByLayer
  9
$CECOLOR
 62
   256
  9
$CELTSCALE
 40
1.0
  9
$DISPSILH
 70
     0
  9
$DIMSCALE
 40
1.0
  9
$DIMASZ
 40
2.0
  9
$DIMEXO
 40
1.0
  9
$DIMDLI
 40
1.0
  9
$DIMRND
 40
0.0
  9
$DIMDLE
 40
0.0
  9
$DIMEXE
 40
1.0
  9
$DIMTP
 40
0.0
  9
$DIMTM
 40
0.0
  9
$DIMTXT
 40
2.0
  9
$DIMCEN
 40
0.0
  9
$DIMTSZ
 40
0.0
  9
$DIMTOL
 70
     0
  9
$DIMLIM
 70
     0
  9
$DIMTIH
 70
     0
  9
$DIMTOH
 70
     0
  9
$DIMSE1
 70
     0
  9
$DIMSE2
 70
     0
  9
$DIMTAD
 70
     1
  9
$DIMZIN
 70
     8
  9
$DIMBLK
  1

  9
$DIMASO
 70
     1
  9
$DIMSHO
 70
     1
  9
$DIMPOST
  1

  9
$DIMAPOST
  1

  9
$DIMALT
 70
     0
  9
$DIMALTD
 70
     3
  9
$DIMALTF
 40
0.03937007874016
  9
$DIMLFAC
 40
1.0
  9
$DIMTOFL
 70
     1
  9
$DIMTVP
 40
0.0
  9
$DIMTIX
 70
     0
  9
$DIMSOXD
 70
     0
  9
$DIMSAH
 70
     0
  9
$DIMBLK1
  1

  9
$DIMBLK2
  1

  9
$DIMSTYLE
  2
SANINDUSA
  9
$DIMCLRD
 70
   256
  9
$DIMCLRE
 70
   256
  9
$DIMCLRT
 70
   256
  9
$DIMTFAC
 40
1.0
  9
$DIMGAP
 40
1.0
  9
$DIMJUST
 70
     0
  9
$DIMSD1
 70
     0
  9
$DIMSD2
 70
     0
  9
$DIMTOLJ
 70
     0
  9
$DIMTZIN
 70
     8
  9
$DIMALTZ
 70
     0
  9
$DIMALTTZ
 70
     0
  9
$DIMUPT
 70
     0
  9
$DIMDEC
 70
     1
  9
$DIMTDEC
 70
     1
  9
$DIMALTU
 70
     2
  9
$DIMALTTD
 70
     3
  9
$DIMTXSTY
  7
SANINDUSA
  9
$DIMAUNIT
 70
     0
  9
$DIMADEC
 70
     1
  9
$DIMALTRND
 40
0.0
  9
$DIMAZIN
 70
     0
  9
$DIMDSEP
 70
    44
  9
$DIMATFIT
 70
     3
  9
$DIMFRAC
 70
     0
  9
$DIMLDRBLK
  1

  9
$DIMLUNIT
 70
     2
  9
$DIMLWD
 70
    -1
  9
$DIMLWE
 70
    -1
  9
$DIMTMOVE
 70
     0
  9
$LUNITS
 70
     2
  9
$LUPREC
 70
     4
  9
$SKETCHINC
 40
1.0
  9
$FILLETRAD
 40
0.0
  9
$AUNITS
 70
     0
  9
$AUPREC
 70
     0
  9
$MENU
  1
.
  9
$ELEVATION
 40
0.0
  9
$PELEVATION
 40
0.0
  9
$THICKNESS
 40
0.0
  9
$LIMCHECK
 70
     0
  9
$CHAMFERA
 40
10.0
  9
$CHAMFERB
 40
10.0
  9
$CHAMFERC
 40
20.0
  9
$CHAMFERD
 40
0.0
  9
$SKPOLY
 70
     0
  9
$TDCREATE
 40
2453259.462439595
  9
$TDUCREATE
 40
2453259.420772929
  9
$TDUPDATE
 40
2455817.504245150
  9
$TDUUPDATE
 40
2455817.462578484
  9
$TDINDWG
 40
0.0074819097
  9
$TDUSRTIMER
 40
0.0074819097
  9
$USRTIMER
 70
     1
  9
$ANGBASE
 50
0.0
  9
$ANGDIR
 70
     0
  9
$PDMODE
 70
     0
  9
$PDSIZE
 40
0.0
  9
$PLINEWID
 40
0.0
  9
$SPLFRAME
 70
     0
  9
$SPLINETYPE
 70
     6
  9
$SPLINESEGS
 70
     8
  9
$HANDSEED
  5
1454
  9
$SURFTAB1
 70
     6
  9
$SURFTAB2
 70
     6
  9
$SURFTYPE
 70
     6
  9
$SURFU
 70
     6
  9
$SURFV
 70
     6
  9
$UCSBASE
  2

  9
$UCSNAME
  2

  9
$UCSORG
 10
0.0
 20
0.0
 30
0.0
  9
$UCSXDIR
 10
1.0
 20
0.0
 30
0.0
  9
$UCSYDIR
 10
0.0
 20
1.0
 30
0.0
  9
$UCSORTHOREF
  2

  9
$UCSORTHOVIEW
 70
     0
  9
$UCSORGTOP
 10
0.0
 20
0.0
 30
0.0
  9
$UCSORGBOTTOM
 10
0.0
 20
0.0
 30
0.0
  9
$UCSORGLEFT
 10
0.0
 20
0.0
 30
0.0
  9
$UCSORGRIGHT
 10
0.0
 20
0.0
 30
0.0
  9
$UCSORGFRONT
 10
0.0
 20
0.0
 30
0.0
  9
$UCSORGBACK
 10
0.0
 20
0.0
 30
0.0
  9
$PUCSBASE
  2

  9
$PUCSNAME
  2

  9
$PUCSORG
 10
0.0
 20
0.0
 30
0.0
  9
$PUCSXDIR
 10
1.0
 20
0.0
 30
0.0
  9
$PUCSYDIR
 10
0.0
 20
1.0
 30
0.0
  9
$PUCSORTHOREF
  2

  9
$PUCSORTHOVIEW
 70
     0
  9
$PUCSORGTOP
 10
0.0
 20
0.0
 30
0.0
  9
$PUCSORGBOTTOM
 10
0.0
 20
0.0
 30
0.0
  9
$PUCSORGLEFT
 10
0.0
 20
0.0
 30
0.0
  9
$PUCSORGRIGHT
 10
0.0
 20
0.0
 30
0.0
  9
$PUCSORGFRONT
 10
0.0
 20
0.0
 30
0.0
  9
$PUCSORGBACK
 10
0.0
 20
0.0
 30
0.0
  9
$USERI1
 70
     0
  9
$USERI2
 70
     0
  9
$USERI3
 70
     0
  9
$USERI4
 70
     0
  9
$USERI5
 70
     0
  9
$USERR1
 40
0.0
  9
$USERR2
 40
0.0
  9
$USERR3
 40
0.0
  9
$USERR4
 40
0.0
  9
$USERR5
 40
0.0
  9
$WORLDVIEW
 70
     1
  9
$SHADEDGE
 70
     3
  9
$SHADEDIF
 70
    70
  9
$TILEMODE
 70
     1
  9
$MAXACTVP
 70
    64
  9
$PINSBASE
 10
0.0
 20
0.0
 30
0.0
  9
$PLIMCHECK
 70
     0
  9
$PEXTMIN
 10
1.000000000000000E+20
 20
1.000000000000000E+20
 30
1.000000000000000E+20
  9
$PEXTMAX
 10
-1.000000000000000E+20
 20
-1.000000000000000E+20
 30
-1.000000000000000E+20
  9
$PLIMMIN
 10
0.0
 20
0.0
  9
$PLIMMAX
 10
420.0
 20
297.0
  9
$UNITMODE
 70
     0
  9
$VISRETAIN
 70
     1
  9
$PLINEGEN
 70
     0
  9
$PSLTSCALE
 70
     1
  9
$TREEDEPTH
 70
  3020
  9
$CMLSTYLE
  2
Standard
  9
$CMLJUST
 70
     0
  9
$CMLSCALE
 40
20.0
  9
$PROXYGRAPHICS
 70
     1
  9
$MEASUREMENT
 70
     1
  9
$CELWEIGHT
370
    -1
  9
$ENDCAPS
280
     0
  9
$JOINSTYLE
280
     0
  9
$LWDISPLAY
290
     0
  9
$INSUNITS
 70
     4
  9
$HYPERLINKBASE
  1

  9
$STYLESHEET
  1
monochrome.ctb
  9
$XEDIT
290
     1
  9
$CEPSNTYPE
380
     0
  9
$PSTYLEMODE
290
     1
  9
$FINGERPRINTGUID
  2
{B98A73AA-52AA-4C10-B469-C0E7150AC31F}
  9
$VERSIONGUID
  2
{35F73848-F338-4F38-933D-3DF0FC1CB852}
  9
$EXTNAMES
290
     1
  9
$PSVPSCALE
 40
0.0
  9
$OLESTARTUP
290
     0
  0
ENDSEC
  0
SECTION
  2
CLASSES
  0
CLASS
  1
ACDBDICTIONARYWDFLT
  2
AcDbDictionaryWithDefault
  3
ObjectDBX Classes
 90
        0
280
     0
281
     0
  0
CLASS
  1
ACDBPLACEHOLDER
  2
AcDbPlaceHolder
  3
ObjectDBX Classes
 90
        0
280
     0
281
     0
  0
CLASS
  1
LAYOUT
  2
AcDbLayout
  3
ObjectDBX Classes
 90
        0
280
     0
281
     0
  0
CLASS
  1
DICTIONARYVAR
  2
AcDbDictionaryVar
  3
ObjectDBX Classes
 90
        0
280
     0
281
     0
  0
CLASS
  1
DIMASSOC
  2
AcDbDimAssoc
  3
"AcDbDimAssoc|Product Desc:     AcDim ARX App For Dimension|Company:          Autodesk, Inc.|WEB Address:      www.autodesk.com"
 90
    32768
280
     0
281
     0
  0
CLASS
  1
MATERIAL
  2
AcDbMaterial
  3
ObjectDBX Classes
 90
     1153
280
     0
281
     0
  0
CLASS
  1
VISUALSTYLE
  2
AcDbVisualStyle
  3
ObjectDBX Classes
 90
     4095
280
     0
281
     0
  0
CLASS
  1
TABLESTYLE
  2
AcDbTableStyle
  3
ObjectDBX Classes
 90
     4095
280
     0
281
     0
  0
CLASS
  1
SCALE
  2
AcDbScale
  3
ObjectDBX Classes
 90
     1153
280
     0
281
     0
  0
CLASS
  1
MLEADERSTYLE
  2
AcDbMLeaderStyle
  3
ACDB_MLEADERSTYLE_CLASS
 90
     4095
280
     0
281
     0
  0
CLASS
  1
CELLSTYLEMAP
  2
AcDbCellStyleMap
  3
ObjectDBX Classes
 90
     1152
280
     0
281
     0
  0
ENDSEC
  0
SECTION
  2
TABLES
  0
TABLE
  2
VPORT
  5
8
102
{ACAD_XDICTIONARY
360
13A2
102
}
330
0
100
AcDbSymbolTable
 70
     1
  0
VPORT
  5
1316
330
8
100
AcDbSymbolTableRecord
100
AcDbViewportTableRecord
  2
*Active
 70
     0
 10
0.0
 20
0.0
 11
1.0
 21
1.0
 12
348.6474543666326
 22
249.1864219967959
 13
0.0
 23
0.0
 14
10.0
 24
10.0
 15
10.0
 25
10.0
 16
0.0
 26
0.0
 36
1.0
 17
0.0
 27
0.0
 37
0.0
 40
1.861562500000019
 41
1.645464025026068
 42
50.0
 43
0.0
 44
0.0
 50
0.0
 51
0.0
 71
     0
 72
   100
 73
     1
 74
     2
 75
     0
 76
     0
 77
     0
 78
     0
281
     0
 65
     1
110
0.0
120
0.0
130
0.0
111
1.0
121
0.0
131
0.0
112
0.0
122
1.0
132
0.0
 79
     0
146
0.0
  0
ENDTAB
  0
TABLE
  2
LTYPE
  5
5
330
0
100
AcDbSymbolTable
 70
     3
  0
LTYPE
  5
14
330
5
100
AcDbSymbolTableRecord
100
AcDbLinetypeTableRecord
  2
ByBlock
 70
     0
  3

 72
    65
 73
     0
 40
0.0
  0
LTYPE
  5
15
330
5
100
AcDbSymbolTableRecord
100
AcDbLinetypeTableRecord
  2
ByLayer
 70
     0
  3

 72
    65
 73
     0
 40
0.0
  0
LTYPE
  5
16
330
5
100
AcDbSymbolTableRecord
100
AcDbLinetypeTableRecord
  2
Continuous
 70
     0
  3
Solid line
 72
    65
 73
     0
 40
0.0
  0
LTYPE
  5
2D
330
5
100
AcDbSymbolTableRecord
100
AcDbLinetypeTableRecord
  2
DASHDOT
 70
     0
  3
Dash dot __ . __ . __ . __ . __ . __ . __ . __
 72
    65
 73
     4
 40
25.4
 49
12.7
 74
     0
 49
-6.349999999999999
 74
     0
 49
0.0
 74
     0
 49
-6.349999999999999
 74
     0
  0
LTYPE
  5
2E
330
5
100
AcDbSymbolTableRecord
100
AcDbLinetypeTableRecord
  2
HIDDEN
 70
     0
  3
Hidden __ __ __ __ __ __ __ __ __ __ __ __ __ _
 72
    65
 73
     2
 40
9.524999999999998
 49
6.349999999999999
 74
     0
 49
-3.174999999999999
 74
     0
  0
ENDTAB
  0
TABLE
  2
LAYER
  5
2
330
0
100
AcDbSymbolTable
 70
    16
  0
LAYER
  5
10
102
{ACAD_XDICTIONARY
360
1380
102
}
330
2
100
AcDbSymbolTableRecord
100
AcDbLayerTableRecord
  2
0
 70
     0
 62
     7
  6
Continuous
370
    -3
390
F
  0
LAYER
  5
2F
102
{ACAD_XDICTIONARY
360
1382
102
}
330
2
100
AcDbSymbolTableRecord
100
AcDbLayerTableRecord
  2
1
 70
     0
 62
     1
  6
Continuous
370
    -3
390
F
  0
LAYER
  5
30
102
{ACAD_XDICTIONARY
360
1384
102
}
330
2
100
AcDbSymbolTableRecord
100
AcDbLayerTableRecord
  2
2
 70
     0
 62
     2
  6
Continuous
370
    -3
390
F
  0
LAYER
  5
31
102
{ACAD_XDICTIONARY
360
1386
102
}
330
2
100
AcDbSymbolTableRecord
100
AcDbLayerTableRecord
  2
3
 70
     0
 62
     3
  6
Continuous
370
    -3
390
F
  0
LAYER
  5
32
102
{ACAD_XDICTIONARY
360
1388
102
}
330
2
100
AcDbSymbolTableRecord
100
AcDbLayerTableRecord
  2
4
 70
     0
 62
     4
  6
Continuous
370
    -3
390
F
  0
LAYER
  5
33
102
{ACAD_XDICTIONARY
360
138A
102
}
330
2
100
AcDbSymbolTableRecord
100
AcDbLayerTableRecord
  2
5
 70
     0
 62
     5
  6
Continuous
370
    -3
390
F
  0
LAYER
  5
34
102
{ACAD_XDICTIONARY
360
138C
102
}
330
2
100
AcDbSymbolTableRecord
100
AcDbLayerTableRecord
  2
6
 70
     0
 62
     6
  6
Continuous
370
    -3
390
F
  0
LAYER
  5
35
102
{ACAD_XDICTIONARY
360
138E
102
}
330
2
100
AcDbSymbolTableRecord
100
AcDbLayerTableRecord
  2
7
 70
     0
 62
     7
  6
Continuous
370
    -3
390
F
  0
LAYER
  5
36
102
{ACAD_XDICTIONARY
360
1390
102
}
330
2
100
AcDbSymbolTableRecord
100
AcDbLayerTableRecord
  2
cen
 70
     0
 62
     7
  6
DASHDOT
370
    -3
390
F
  0
LAYER
  5
37
102
{ACAD_XDICTIONARY
360
1392
102
}
330
2
100
AcDbSymbolTableRecord
100
AcDbLayerTableRecord
  2
hid
 70
     0
 62
     7
  6
HIDDEN
370
    -3
390
F
  0
LAYER
  5
5D6
102
{ACAD_XDICTIONARY
360
1394
102
}
330
2
100
AcDbSymbolTableRecord
100
AcDbLayerTableRecord
  2
hatch
 70
     0
 62
     9
  6
Continuous
370
    -3
390
F
  0
LAYER
  5
8AF
102
{ACAD_XDICTIONARY
360
1396
102
}
330
2
100
AcDbSymbolTableRecord
100
AcDbLayerTableRecord
  2
9
 70
     0
 62
     9
  6
Continuous
370
    -3
390
F
  0
LAYER
  5
8F8
102
{ACAD_XDICTIONARY
360
1398
102
}
330
2
100
AcDbSymbolTableRecord
100
AcDbLayerTableRecord
  2
leg fin
 70
     0
 62
     9
  6
Continuous
370
    -3
390
F
  0
LAYER
  5
91D
102
{ACAD_XDICTIONARY
360
139A
102
}
330
2
100
AcDbSymbolTableRecord
100
AcDbLayerTableRecord
  2
cotas
 70
     0
 62
     1
  6
Continuous
370
    -3
390
F
  0
LAYER
  5
92F
330
2
100
AcDbSymbolTableRecord
100
AcDbLayerTableRecord
  2
Defpoints
 70
     0
 62
     7
  6
Continuous
290
     0
370
    -3
390
F
  0
LAYER
  5
137F
102
{ACAD_XDICTIONARY
360
139C
102
}
330
2
100
AcDbSymbolTableRecord
100
AcDbLayerTableRecord
  2
SANINDUSA
 70
     0
 62
     3
  6
Continuous
370
    -3
390
F
  0
ENDTAB
  0
TABLE
  2
STYLE
  5
3
330
0
100
AcDbSymbolTable
 70
     3
  0
STYLE
  5
11
330
3
100
AcDbSymbolTableRecord
100
AcDbTextStyleTableRecord
  2
Standard
 70
     0
 40
0.0
 41
1.0
 50
0.0
 71
     0
 42
2.5
  3
Avgardn.ttf
  4

1001
ACAD
1000
AvantGarde Bk BT
1071
       34
  0
STYLE
  5
2C
330
3
100
AcDbSymbolTableRecord
100
AcDbTextStyleTableRecord
  2

 70
     1
 40
0.0
 41
1.0
 50
0.0
 71
     0
 42
2.5
  3
ltypeshp.shx
  4

  0
STYLE
  5
91F
330
3
100
AcDbSymbolTableRecord
100
AcDbTextStyleTableRecord
  2
SANINDUSA
 70
     0
 40
0.0
 41
1.0
 50
0.0
 71
     0
 42
2.5
  3
verdana.TTF
  4

1001
ACAD
1000
Verdana
1071
       34
  0
ENDTAB
  0
TABLE
  2
VIEW
  5
6
330
0
100
AcDbSymbolTable
 70
     0
  0
ENDTAB
  0
TABLE
  2
UCS
  5
7
330
0
100
AcDbSymbolTable
 70
     0
  0
ENDTAB
  0
TABLE
  2
APPID
  5
9
330
0
100
AcDbSymbolTable
 70
     6
  0
APPID
  5
12
330
9
100
AcDbSymbolTableRecord
100
AcDbRegAppTableRecord
  2
ACAD
 70
     0
  0
APPID
  5
3A
330
9
100
AcDbSymbolTableRecord
100
AcDbRegAppTableRecord
  2
DCO15
 70
     0
  0
APPID
  5
C85
330
9
100
AcDbSymbolTableRecord
100
AcDbRegAppTableRecord
  2
GENIUS_GENREC_14
 70
     0
  0
APPID
  5
C86
330
9
100
AcDbSymbolTableRecord
100
AcDbRegAppTableRecord
  2
GENIUS_GENODEF_13
 70
     0
  0
APPID
  5
C87
330
9
100
AcDbSymbolTableRecord
100
AcDbRegAppTableRecord
  2
GENIUS_GENOBJ-N-REC_13
 70
     0
  0
APPID
  5
13DA
330
9
100
AcDbSymbolTableRecord
100
AcDbRegAppTableRecord
  2
ACAD_MLEADERVER
 70
     0
  0
ENDTAB
  0
TABLE
  2
DIMSTYLE
  5
A
330
0
100
AcDbSymbolTable
 70
     2
100
AcDbDimStyleTable
 71
     1
340
921
  0
DIMSTYLE
105
45
330
A
100
AcDbSymbolTableRecord
100
AcDbDimStyleTableRecord
  2
STANDARD
 70
     0
289
     0
340
11
  0
DIMSTYLE
105
921
330
A
100
AcDbSymbolTableRecord
100
AcDbDimStyleTableRecord
  2
SANINDUSA
 70
     0
 41
2.0
 42
1.0
 43
1.0
 44
1.0
 73
     0
 74
     0
 77
     1
 78
     8
140
2.0
141
0.0
143
0.03937007874016
147
1.0
171
     3
172
     1
176
   256
177
   256
178
   256
179
     1
271
     1
272
     1
274
     3
278
    44
283
     0
284
     8
340
91F
371
    -1
372
    -1
  0
ENDTAB
  0
TABLE
  2
BLOCK_RECORD
  5
1
330
0
100
AcDbSymbolTable
 70
    18
  0
BLOCK_RECORD
  5
1F
330
1
100
AcDbSymbolTableRecord
100
AcDbBlockTableRecord
  2
*Model_Space
340
22
  0
BLOCK_RECORD
  5
1B
330
1
100
AcDbSymbolTableRecord
100
AcDbBlockTableRecord
  2
*Paper_Space
340
1E
  0
BLOCK_RECORD
  5
23
330
1
100
AcDbSymbolTableRecord
100
AcDbBlockTableRecord
  2
*Paper_Space0
340
26
  0
BLOCK_RECORD
  5
919
330
1
100
AcDbSymbolTableRecord
100
AcDbBlockTableRecord
  2
_DotSmall
340
0
  0
BLOCK_RECORD
  5
922
330
1
100
AcDbSymbolTableRecord
100
AcDbBlockTableRecord
  2
base para cotas
340
0
310
2800000020000000200000000100080000000000000400000000000000000000000000000000000000000000000080000080000000808000800000008000800080800000C0C0C000C0DCC000F0CAA6000020400000206000002080000020A0000020C0000020E00000400000004020000040400000406000004080000040A0
310
000040C0000040E00000600000006020000060400000606000006080000060A0000060C0000060E00000800000008020000080400000806000008080000080A0000080C0000080E00000A0000000A0200000A0400000A0600000A0800000A0A00000A0C00000A0E00000C0000000C0200000C0400000C0600000C0800000C0
310
A00000C0C00000C0E00000E0000000E0200000E0400000E0600000E0800000E0A00000E0C00000E0E00040000000400020004000400040006000400080004000A0004000C0004000E00040200000402020004020400040206000402080004020A0004020C0004020E000404000004040200040404000404060004040800040
310
40A0004040C0004040E00040600000406020004060400040606000406080004060A0004060C0004060E00040800000408020004080400040806000408080004080A0004080C0004080E00040A0000040A0200040A0400040A0600040A0800040A0A00040A0C00040A0E00040C0000040C0200040C0400040C0600040C08000
310
40C0A00040C0C00040C0E00040E0000040E0200040E0400040E0600040E0800040E0A00040E0C00040E0E00080000000800020008000400080006000800080008000A0008000C0008000E00080200000802020008020400080206000802080008020A0008020C0008020E00080400000804020008040400080406000804080
310
008040A0008040C0008040E00080600000806020008060400080606000806080008060A0008060C0008060E00080800000808020008080400080806000808080008080A0008080C0008080E00080A0000080A0200080A0400080A0600080A0800080A0A00080A0C00080A0E00080C0000080C0200080C0400080C0600080C0
310
800080C0A00080C0C00080C0E00080E0000080E0200080E0400080E0600080E0800080E0A00080E0C00080E0E000C0000000C0002000C0004000C0006000C0008000C000A000C000C000C000E000C0200000C0202000C0204000C0206000C0208000C020A000C020C000C020E000C0400000C0402000C0404000C0406000C0
310
408000C040A000C040C000C040E000C0600000C0602000C0604000C0606000C0608000C060A000C060C000C060E000C0800000C0802000C0804000C0806000C0808000C080A000C080C000C080E000C0A00000C0A02000C0A04000C0A06000C0A08000C0A0A000C0A0C000C0A0E000C0C00000C0C02000C0C04000C0C06000
310
C0C08000C0C0A000F0FBFF00A4A0A000808080000000FF0000FF000000FFFF00FF000000FF00FF00FFFF0000FFFFFF00A4A4A4A4A4A4A4A4A4A4A4A4A4A4A4A4A4A4A4A4A4A4A4A4A4A4A4A4A4A4A4A4A4A4A4A4A4A4A4A4A4A4A4A4A4A4A4A4A4A4A4A4A4A4A4A4A4A4A4A4A4A4A4A4A4A4A4A4A4A4A4A4A4A4A4A4A4A4A4
310
A4A4A4A4A4A4A4A4A4A4A4A4A4A4A4A4A4A4A4A4A4A4A4A4A4A4A4A4A4A4A4A4A4A4A4A4A4A4A4A4A4A4A4A4A4A4A4A4A4A4A4A4A4A4A4A4A4A4A4A4A4A4A4A4A4A4A4A4A4A4A4A4A4A4A4A4A4A4A4A4A4A4A4A4A4A4A4A4A4A4A4A4A4A4A4A4A4A4A4A4A4A4A4A4A4A4A4A4A4A4A4A4A4A4A4A4A4A4A4A4A4A4A4A4A4A4A4
310
A4A4A4A4A4A4A4A4A4A4A4A4A4A4A4A4A4A4A4A4A4A4A4A4A4A4A4A4A4A4A4A4A4A4A4A4A4A4A4A4A4A4A4A4A4A4A4A4A4A4A4A4A4A4A4A4A4A4A4A4A4A4A4A4A4A4A4A4A4A4A4A4A4A4A4A4A4A4A4A4A4A4A4A4A4A4A4A4A4A4A4A4A4A4A4A4A4A4A4A4A4A4A4A4A4A4A4A4A4A4A4A4A4A4A4A4A4A4A4A4A4A4A4A4A4A4A4
310
A4A4A4A4A4A4A4A4A4A4A4A4A4A4A4A4A4A4A4A4A4A4A4A4A4A4A4A4A4A4A4A4A4A4A4A4A4A4A4A4A4A4A4A4A4A4A4A4A4A4A4A4A4A4A4A4A4A4A4A4A4A4A4A4A4A4A4A4A4A4A4A4A4A4A4A4A4A4A4A4A4A4A4A4A4A4A4A4A4A4A4A4A4A4A4A4A4A4A4A4A4A4A4A4A4A4A4A4A4A4A4A4A4A4A4A4F9F9F9F9F9F9F9F9F9F9F9
310
F9F9F9F9F9F9F9F9F9F9F9F9F9F9F9F9F9F9F9A4A4F9F9F9F9F9F9F9F9F9F9F9F9F9F9F9F9F9F9F9F9F9F9F9F9F9F9F9F9F9F9A4A4F9F9F9F9F9F9F9F9F9F9F9F9F9F9F9F9F9F9F9F9F9F9F9F9F9F9F9F9F9F9A4A4F9A4A4A4A4A4A4A4A4A4A4A4A4A4A4A4A4A4A4A4A4A4A4A4A4A4A4A4A4F9A4A4A4A4A4A4A4A4A4A4A4A4
310
A4A4A4A4A4A4A4A4A4A4A4A4A4A4A4A4A4A4A4A4A4A4A4A4A4A4A4A4A4A4A4A4A4A4A4A4A4A4A4A4A4A4A4A4A4A4A4A4A4A4A4A4A4A4A4A4A4A4A4A4A4A4A4A4A4A4A4A4A4A4A4A4A4A4A4A4A4A4A4A4A4A4A4A4A4A4A4A4A4A4A4A4A4A4A4A4A4A4A4A4A4A4A4A4A4A4A4A4A4A4A4A4A4A4A4A4A4A4A4A4A4A4A4A4A4A4A4
310
A4A4A4A4A4A4A4A4A4A4A4A4A4A4A4A4A4A4A4A4A4A4A4A4A4A4A4A4A4A4A4A4A4A4A4A4A4A4A4A4A4A4A4A4A4A4A4A4A4A4A4A4A4A4A4A4A4A4A4A4A4A4A4A4A4A4A4A4A4A4A4A4A4A4A4A4A4A4A4A4A4A4A4A4A4A4A4A4A4A4A4A4A4A4A4A4A4A4A4A4A4A4A4A4A4A4A4A4A4A4A4A4A4A4A4A4A4A4A4A4A4A4A4A4A4A4A4
310
A4A4A4A4A4A4A4A4A4A4A4A4A4A4A4A4A4A4A4A4A4A4A4A4A4A4A4A4A4A4A4A4A4A4A4A4A4A4A4A4A4A4A4A4A4A4A4A4A4A4A4A4A4A4A4A4A4A4A4A4A4A4A4A4A4A4A4A4A4A4A4A4A4A4A4A4A4A4A4A4A4A4A4A4A4A4A4A4A4A4A4A4A4A4A4A4A4A4A4A4A4A4A4A4A4A4A4A4A4A4A4A4A4A4A4A4A4A4A4A4A4A4A4A4A4A4A4
310
A4A4A4A4A4A4A4A4A4A4A4A4A4A4A4A4A4A4A4A4A4A4A4A4A4A4A4A4A4A4A4A4A4A4A4A4A4A4A4A4A4A4A4A4A4A4A4A4A4A4A4A4A4A4A4A4
1001
ACAD
1000
DesignCenter Data
1002
{
1070
     1
1070
     4
1002
}
  0
BLOCK_RECORD
  5
AA8
330
1
100
AcDbSymbolTableRecord
100
AcDbBlockTableRecord
  2
_CLOSED
340
0
  0
BLOCK_RECORD
  5
BA5
330
1
100
AcDbSymbolTableRecord
100
AcDbBlockTableRecord
  2
guarnizione
340
0
102
{BLKREFS
331
F55
102
}
  0
ENDTAB
  0
ENDSEC
  0
SECTION
  2
BLOCKS
  0
BLOCK
  5
20
330
1F
100
AcDbEntity
  8
0
100
AcDbBlockBegin
  2
*Model_Space
 70
     0
 10
0.0
 20
0.0
 30
0.0
  3
*Model_Space
  1

  0
ENDBLK
  5
21
330
1F
100
AcDbEntity
  8
0
100
AcDbBlockEnd
  0
BLOCK
  5
1C
330
1B
100
AcDbEntity
 67
     1
  8
0
100
AcDbBlockBegin
  2
*Paper_Space
 70
     0
 10
0.0
 20
0.0
 30
0.0
  3
*Paper_Space
  1

  0
ENDBLK
  5
1D
330
1B
100
AcDbEntity
 67
     1
  8
0
100
AcDbBlockEnd
  0
BLOCK
  5
24
330
23
100
AcDbEntity
 67
     1
  8
0
100
AcDbBlockBegin
  2
*Paper_Space0
 70
     0
 10
0.0
 20
0.0
 30
0.0
  3
*Paper_Space0
  1

  0
ENDBLK
  5
25
330
23
100
AcDbEntity
 67
     1
  8
0
100
AcDbBlockEnd
  0
BLOCK
  5
91B
330
919
100
AcDbEntity
  8
0
100
AcDbBlockBegin
  2
_DotSmall
 70
     0
 10
0.0
 20
0.0
 30
0.0
  3
_DotSmall
  1

  0
LWPOLYLINE
  5
91A
330
919
100
AcDbEntity
  8
0
  6
ByBlock
 62
     0
100
AcDbPolyline
 90
        2
 70
     1
 43
0.5
 10
-0.0625
 20
0.0
 42
1.0
 10
0.0625
 20
0.0
 42
1.0
  0
ENDBLK
  5
91C
330
919
100
AcDbEntity
  8
0
100
AcDbBlockEnd
  0
BLOCK
  5
92A
330
922
100
AcDbEntity
  8
0
100
AcDbBlockBegin
  2
base para cotas
 70
     0
 10
0.0
 20
0.0
 30
0.0
  3
base para cotas
  1

  0
LINE
  5
B36
330
922
100
AcDbEntity
  8
cotas
100
AcDbLine
 10
0.0
 20
-30.0
 30
0.0
 11
327.1260136525398
 21
-30.0
 31
0.0
  0
LINE
  5
B37
330
922
100
AcDbEntity
  8
cotas
100
AcDbLine
 10
0.0
 20
-25.0
 30
0.0
 11
327.1260136525398
 21
-25.0
 31
0.0
  0
LINE
  5
B38
330
922
100
AcDbEntity
  8
cotas
100
AcDbLine
 10
0.0
 20
-20.0
 30
0.0
 11
327.1260136525398
 21
-20.0
 31
0.0
  0
LINE
  5
B39
330
922
100
AcDbEntity
  8
cotas
100
AcDbLine
 10
0.0
 20
-15.0
 30
0.0
 11
327.1260136525398
 21
-15.0
 31
0.0
  0
LINE
  5
B3A
330
922
100
AcDbEntity
  8
cotas
100
AcDbLine
 10
0.0
 20
-10.0
 30
0.0
 11
327.1260136525398
 21
-10.0
 31
0.0
  0
LINE
  5
B3B
330
922
100
AcDbEntity
  8
cotas
100
AcDbLine
 10
0.0
 20
0.0
 30
0.0
 11
0.0
 21
-30.0
 31
0.0
  0
LINE
  5
B3C
330
922
100
AcDbEntity
  8
cotas
100
AcDbLine
 10
327.1260136525398
 20
-30.0
 30
0.0
 11
327.1260136525398
 21
0.0
 31
0.0
  0
ENDBLK
  5
92B
330
922
100
AcDbEntity
  8
0
100
AcDbBlockEnd
  0
BLOCK
  5
AAD
330
AA8
100
AcDbEntity
  8
0
100
AcDbBlockBegin
  2
_CLOSED
 70
     0
 10
0.0
 20
0.0
 30
0.0
  3
_CLOSED
  1

  0
LINE
  5
AA9
330
AA8
100
AcDbEntity
  8
0
100
AcDbLine
 10
-1.0
 20
0.166667
 30
0.0
 11
0.0
 21
0.0
 31
0.0
  0
LINE
  5
AAA
330
AA8
100
AcDbEntity
  8
0
100
AcDbLine
 10
0.0
 20
0.0
 30
0.0
 11
-1.0
 21
-0.166667
 31
0.0
  0
LINE
  5
AAB
330
AA8
100
AcDbEntity
  8
0
100
AcDbLine
 10
-1.0
 20
0.166667
 30
0.0
 11
-1.0
 21
-0.166667
 31
0.0
  0
LINE
  5
AAC
330
AA8
100
AcDbEntity
  8
0
100
AcDbLine
 10
0.0
 20
0.0
 30
0.0
 11
-1.0
 21
0.0
 31
0.0
  0
ENDBLK
  5
AAE
330
AA8
100
AcDbEntity
  8
0
100
AcDbBlockEnd
  0
BLOCK
  5
BF0
330
BA5
100
AcDbEntity
  8
0
 62
     4
100
AcDbBlockBegin
  2
guarnizione
 70
     0
 10
0.0
 20
0.0
 30
0.0
  3
guarnizione
  1

  0
LINE
  5
BA6
330
BA5
100
AcDbEntity
  8
0
100
AcDbLine
 10
12.0
 20
3.179312414488776
 30
0.0
 11
12.0
 21
2.699999999999818
 31
0.0
  0
LINE
  5
BA7
330
BA5
100
AcDbEntity
  8
0
100
AcDbLine
 10
9.5
 20
3.130475008156281
 30
0.0
 11
9.440776269158959
 21
2.734883615801663
 31
0.0
  0
ARC
  5
BA8
330
BA5
100
AcDbEntity
  8
0
100
AcDbCircle
 10
11.19999999999891
 20
3.179312414488776
 30
0.0
 40
0.8
100
AcDbArc
 50
0.0
 51
81.48552156587461
  0
ARC
  5
BA9
330
BA5
100
AcDbEntity
  8
0
100
AcDbCircle
 10
8.753809903480942
 20
1.523241254200002
 30
0.0
 40
0.1999999999999504
100
AcDbArc
 50
171.485521565823
 51
351.485521565823
  0
LINE
  5
BAA
330
BA5
100
AcDbEntity
  8
0
100
AcDbLine
 10
11.65558220186904
 20
-2.403306455734309
 30
0.0
 11
9.440776269158959
 21
-2.734883615802573
 31
0.0
  0
ARC
  5
BAB
330
BA5
100
AcDbEntity
  8
0
100
AcDbCircle
 10
8.753809903480942
 20
-1.523241254200911
 30
0.0
 40
0.1999999999999504
100
AcDbArc
 50
8.514478434176927
 51
188.5144784341769
  0
LINE
  5
BAC
330
BA5
100
AcDbEntity
  8
0
100
AcDbLine
 10
9.5
 20
-3.130475008157191
 30
0.0
 11
9.440776269158959
 21
-2.734883615802573
 31
0.0
  0
ARC
  5
BAD
330
BA5
100
AcDbEntity
  8
0
100
AcDbCircle
 10
11.69999999999891
 20
-2.699999999999818
 30
0.0
 40
0.3
100
AcDbArc
 50
0.0
 51
98.51447843412536
  0
ARC
  5
BAE
330
BA5
100
AcDbEntity
  8
0
100
AcDbCircle
 10
11.69999999999891
 20
2.699999999999818
 30
0.0
 40
0.3
100
AcDbArc
 50
261.4855215658746
 51
0.0
  0
LINE
  5
BAF
330
BA5
100
AcDbEntity
  8
0
100
AcDbLine
 10
11.65558220186904
 20
2.4033064557334
 30
0.0
 11
9.440776269158959
 21
2.734883615801663
 31
0.0
  0
LINE
  5
BB0
330
BA5
100
AcDbEntity
  8
0
100
AcDbLine
 10
8.807715063378054
 20
3.234116537129011
 30
0.0
 11
8.556014207302723
 21
1.552853119620522
 31
0.0
  0
LINE
  5
BB1
330
BA5
100
AcDbEntity
  8
0
100
AcDbLine
 10
9.203306455732672
 20
3.174892806287971
 30
0.0
 11
8.951605599657341
 21
1.493629388779481
 31
0.0
  0
LINE
  5
BB2
330
BA5
100
AcDbEntity
  8
0
100
AcDbLine
 10
6.681411329471302
 20
3.552444090400967
 30
0.0
 11
6.622187598630262
 21
3.15685269804544
 31
0.0
  0
ARC
  5
BB3
330
BA5
100
AcDbEntity
  8
0
100
AcDbCircle
 10
0.2999999999992724
 20
3.800000000000181
 30
0.0
 40
0.3
100
AcDbArc
 50
81.48552156587461
 51
180.0
  0
ARC
  5
BB4
330
BA5
100
AcDbEntity
  8
0
100
AcDbCircle
 10
1.042400829128382
 20
4.699999999999818
 30
0.0
 40
0.8
100
AcDbArc
 50
81.48552156587461
 51
90.0
  0
LINE
  5
BB5
330
BA5
100
AcDbEntity
  8
0
100
AcDbLine
 10
1.5
 20
3.923692082123125
 30
0.0
 11
0.3444177981309622
 21
4.09669354426569
 31
0.0
  0
LINE
  5
BB6
330
BA5
100
AcDbEntity
  8
0
100
AcDbLine
 10
1.5
 20
3.923692082123125
 30
0.0
 11
1.5
 21
3.099999999999454
 31
0.0
  0
LINE
  5
BB7
330
BA5
100
AcDbEntity
  8
0
100
AcDbLine
 10
1.5
 20
3.099999999999454
 30
0.0
 11
2.699999999998908
 21
3.099999999999454
 31
0.0
  0
LINE
  5
BB8
330
BA5
100
AcDbEntity
  8
0
100
AcDbLine
 10
2.699999999998908
 20
3.744040860223321
 30
0.0
 11
2.699999999998908
 21
3.099999999999454
 31
0.0
  0
LINE
  5
BB9
330
BA5
100
AcDbEntity
  8
0
100
AcDbLine
 10
6.622187598630262
 20
3.15685269804544
 30
0.0
 11
2.699999999998908
 21
3.744040860223321
 31
0.0
  0
LINE
  5
BBA
330
BA5
100
AcDbEntity
  8
0
100
AcDbLine
 10
1.5
 20
-3.100000000000363
 30
0.0
 11
2.699999999998908
 21
-3.100000000000363
 31
0.0
  0
LINE
  5
BBB
330
BA5
100
AcDbEntity
  8
0
100
AcDbLine
 10
11.31844746168099
 20
3.970495199198012
 30
0.0
 11
1.160848290810463
 21
5.491182784709053
 31
0.0
  0
LINE
  5
BBC
330
BA5
100
AcDbEntity
  8
0
100
AcDbLine
 10
9.5
 20
3.130475008156281
 30
0.0
 11
6.681411329471302
 21
3.552444090400967
 31
0.0
  0
ARC
  5
BBD
330
BA5
100
AcDbEntity
  8
0
100
AcDbCircle
 10
11.19999999999891
 20
-3.179312414488776
 30
0.0
 40
0.8
100
AcDbArc
 50
278.5144784341254
 51
0.0
  0
LINE
  5
BBE
330
BA5
100
AcDbEntity
  8
0
100
AcDbLine
 10
6.681411329471302
 20
-3.552444090400967
 30
0.0
 11
6.622187598630262
 21
-3.15685269804635
 31
0.0
  0
ARC
  5
BBF
330
BA5
100
AcDbEntity
  8
0
100
AcDbCircle
 10
0.2999999999992724
 20
-3.800000000000181
 30
0.0
 40
0.3
100
AcDbArc
 50
180.0
 51
278.5144784341254
  0
ARC
  5
BC0
330
BA5
100
AcDbEntity
  8
0
100
AcDbCircle
 10
1.042400829128382
 20
-4.699999999999818
 30
0.0
 40
0.8
100
AcDbArc
 50
270.0
 51
278.5144784341254
  0
LINE
  5
BC1
330
BA5
100
AcDbEntity
  8
0
100
AcDbLine
 10
0.3444177981309622
 20
-4.096693544266599
 30
0.0
 11
1.5
 21
-3.923692082124034
 31
0.0
  0
LINE
  5
BC2
330
BA5
100
AcDbEntity
  8
0
100
AcDbLine
 10
6.622187598630262
 20
-3.15685269804635
 30
0.0
 11
2.699999999998908
 21
-3.744040860224231
 31
0.0
  0
LINE
  5
BC3
330
BA5
100
AcDbEntity
  8
0
100
AcDbLine
 10
1.160848290810463
 20
-5.491182784709963
 30
0.0
 11
11.31844746168099
 21
-3.970495199198921
 31
0.0
  0
LINE
  5
BC4
330
BA5
100
AcDbEntity
  8
0
100
AcDbLine
 10
0.0
 20
3.800000000000181
 30
0.0
 11
0.0
 21
-3.800000000000181
 31
0.0
  0
LINE
  5
BC5
330
BA5
100
AcDbEntity
  8
0
100
AcDbLine
 10
12.0
 20
-2.699999999999818
 30
0.0
 11
12.0
 21
-3.179312414488776
 31
0.0
  0
LINE
  5
BC6
330
BA5
100
AcDbEntity
  8
0
100
AcDbLine
 10
2.699999999998908
 20
-3.100000000000363
 30
0.0
 11
2.699999999998908
 21
-3.744040860224231
 31
0.0
  0
LINE
  5
BC7
330
BA5
100
AcDbEntity
  8
0
100
AcDbLine
 10
1.5
 20
-3.100000000000363
 30
0.0
 11
1.5
 21
-3.923692082124034
 31
0.0
  0
LINE
  5
BC8
330
BA5
100
AcDbEntity
  8
0
100
AcDbLine
 10
9.5
 20
-3.130475008157191
 30
0.0
 11
6.681411329471302
 21
-3.552444090400967
 31
0.0
  0
LINE
  5
BC9
330
BA5
100
AcDbEntity
  8
0
100
AcDbLine
 10
9.203306455732672
 20
-3.174892806287971
 30
0.0
 11
8.951605599657341
 21
-1.493629388780391
 31
0.0
  0
LINE
  5
BCA
330
BA5
100
AcDbEntity
  8
0
100
AcDbLine
 10
8.807715063378054
 20
-3.234116537129011
 30
0.0
 11
8.556014207302723
 21
-1.552853119621431
 31
0.0
  0
LINE
  5
BCB
330
BA5
100
AcDbEntity
  8
0
100
AcDbLine
 10
-1.5
 20
5.5
 30
0.0
 11
-3.757359312881817
 21
5.5
 31
0.0
  0
ARC
  5
BCC
330
BA5
100
AcDbEntity
  8
0
100
AcDbCircle
 10
-2.5
 20
3.5
 30
0.0
 40
1.0
100
AcDbArc
 50
0.0
 51
90.0
  0
ARC
  5
BCD
330
BA5
100
AcDbEntity
  8
0
100
AcDbCircle
 10
-3.769781102879278
 20
4.149978862833449
 30
0.0
 40
0.75
100
AcDbArc
 50
47.16775949949599
 51
90.19499109987526
  0
ARC
  5
BCE
330
BA5
100
AcDbEntity
  8
0
100
AcDbCircle
 10
-2.75
 20
5.25
 30
0.0
 40
0.75
100
AcDbArc
 50
227.167759499496
 51
270.0
  0
LINE
  5
BCF
330
BA5
100
AcDbEntity
  8
0
100
AcDbLine
 10
-2.75
 20
4.5
 30
0.0
 11
-2.5
 21
4.5
 31
0.0
  0
LINE
  5
BD0
330
BA5
100
AcDbEntity
  8
0
100
AcDbLine
 10
-7.415254325502246
 20
3.064644661409147
 30
0.0
 11
-6.868629150101696
 21
3.611269837220788
 31
0.0
  0
ARC
  5
BD1
102
{ACAD_REACTORS
330
BEB
102
}
330
BA5
100
AcDbEntity
  8
0
100
AcDbCircle
 10
-7.980939750059405
 20
2.569669913566031
 30
0.0
 40
0.2
100
AcDbArc
 50
45.0000001037625
 51
135.0000000719631
  0
ARC
  5
BD2
330
BA5
100
AcDbEntity
  8
0
100
AcDbCircle
 10
-3.757359312881817
 20
0.5
 30
0.0
 40
5.0
100
AcDbArc
 50
90.0
 51
135.0
  0
ARC
  5
BD3
330
BA5
100
AcDbEntity
  8
0
100
AcDbCircle
 10
-3.757359312881817
 20
0.5
 30
0.0
 40
4.4
100
AcDbArc
 50
90.19499109987526
 51
135.0
  0
ARC
  5
BD4
330
BA5
100
AcDbEntity
  8
0
100
AcDbCircle
 10
-6.814213563102384
 20
0.9786796633270569
 30
0.0
 40
0.75
100
AcDbArc
 50
314.9999999676111
 51
45.0
  0
ARC
  5
BD5
102
{ACAD_REACTORS
330
BEB
102
}
330
BA5
100
AcDbEntity
  8
0
100
AcDbCircle
 10
-6.814213563102384
 20
0.9786796633270569
 30
0.0
 40
0.5
100
AcDbArc
 50
314.9999999676111
 51
45.0
  0
ARC
  5
BD6
330
BA5
100
AcDbEntity
  8
0
100
AcDbCircle
 10
-7.203122291144609
 20
2.852512627053329
 30
0.0
 40
0.3
100
AcDbArc
 50
135.0
 51
225.0000001112794
  0
LINE
  5
BD7
330
BA5
100
AcDbEntity
  8
0
100
AcDbLine
 10
-8.051650430128574
 20
3.276776694619002
 30
0.0
 11
-6.283883477519339
 21
1.509009749524921
 31
0.0
  0
LINE
  5
BD8
102
{ACAD_REACTORS
330
BEB
102
}
330
BA5
100
AcDbEntity
  8
0
100
AcDbLine
 10
-7.839518394079277
 20
2.711091270059114
 30
0.0
 11
-6.460660172508141
 21
1.33223305392039
 31
0.0
  0
ARC
  5
BD9
330
BA5
100
AcDbEntity
  8
0
100
AcDbCircle
 10
-12.57713383280133
 20
-2.521498914058611
 30
0.0
 40
0.3
100
AcDbArc
 50
45.00000003552097
 51
135.0
  0
ARC
  5
BDA
102
{ACAD_REACTORS
330
BEB
102
}
330
BA5
100
AcDbEntity
  8
0
100
AcDbCircle
 10
-12.29429112059733
 20
-1.743681468243266
 30
0.0
 40
0.2
100
AcDbArc
 50
135.0000000660675
 51
225.0000002990173
  0
LINE
  5
BDB
330
BA5
100
AcDbEntity
  8
0
100
AcDbLine
 10
-12.9899494936617
 20
-2.510050506339212
 30
0.0
 11
-12.78926586715715
 21
-2.309366879702793
 31
0.0
  0
LINE
  5
BDC
330
BA5
100
AcDbEntity
  8
0
100
AcDbLine
 10
-13.41421356237333
 20
-2.085786437626666
 30
0.0
 11
-7.292893218815152
 21
4.035533905932425
 31
0.0
  0
LINE
  5
BDD
102
{ACAD_REACTORS
330
BEB
102
}
330
BA5
100
AcDbEntity
  8
0
100
AcDbLine
 10
-12.43571247699765
 20
-1.602260112168551
 30
0.0
 11
-8.122361106474272
 21
2.711091269625285
 31
0.0
  0
ARC
  5
BDE
330
BA5
100
AcDbEntity
  8
0
100
AcDbCircle
 10
-2.5
 20
-3.5
 30
0.0
 40
1.0
100
AcDbArc
 50
270.0
 51
0.0
  0
ARC
  5
BDF
330
BA5
100
AcDbEntity
  8
0
100
AcDbCircle
 10
-7.519803902720013
 20
-4.150000000000545
 30
0.0
 40
0.75
100
AcDbArc
 50
270.0
 51
312.8334280660476
  0
ARC
  5
BE0
330
BA5
100
AcDbEntity
  8
0
100
AcDbCircle
 10
-6.5
 20
-5.25
 30
0.0
 40
0.75
100
AcDbArc
 50
90.0
 51
132.8334280660476
  0
LINE
  5
BE1
330
BA5
100
AcDbEntity
  8
0
100
AcDbLine
 10
-2.5
 20
-4.5
 30
0.0
 11
-6.5
 21
-4.5
 31
0.0
  0
ARC
  5
BE2
330
BA5
100
AcDbEntity
  8
0
100
AcDbCircle
 10
-10.7033008647486
 20
-2.910407640086305
 30
0.0
 40
0.75
100
AcDbArc
 50
225.0
 51
315.0
  0
ARC
  5
BE3
102
{ACAD_REACTORS
330
BEB
102
}
330
BA5
100
AcDbEntity
  8
0
100
AcDbCircle
 10
-10.7033008647486
 20
-2.910407640086305
 30
0.0
 40
0.5
100
AcDbArc
 50
225.0
 51
315.0
  0
LINE
  5
BE4
330
BA5
100
AcDbEntity
  8
0
100
AcDbLine
 10
-1.5
 20
-5.5
 30
0.0
 11
-12.0
 21
-5.5
 31
0.0
  0
LINE
  5
BE5
330
BA5
100
AcDbEntity
  8
0
100
AcDbLine
 10
-7.519803902720013
 20
-4.900000000000545
 30
0.0
 11
-12.0
 21
-4.900000000000545
 31
0.0
  0
ARC
  5
BE6
330
BA5
100
AcDbEntity
  8
0
100
AcDbCircle
 10
-12.0
 20
-3.5
 30
0.0
 40
2.0
100
AcDbArc
 50
135.0
 51
270.0
  0
LINE
  5
BE7
330
BA5
100
AcDbEntity
  8
0
100
AcDbLine
 10
-10.17297077881812
 20
-3.440737725935832
 30
0.0
 11
-6.283883477372
 21
0.4483495772774404
 31
0.0
  0
ARC
  5
BE8
330
BA5
100
AcDbEntity
  8
0
100
AcDbCircle
 10
-12.0
 20
-3.5
 30
0.0
 40
1.399999999999999
100
AcDbArc
 50
135.0
 51
270.0
  0
LINE
  5
BE9
330
BA5
100
AcDbEntity
  8
0
100
AcDbLine
 10
-13.00139790187859
 20
-1.672970777132832
 30
0.0
 11
-11.23363095093009
 21
-3.440737725682993
 31
0.0
  0
LINE
  5
BEA
330
BA5
100
AcDbEntity
  8
0
100
AcDbLine
 10
-1.5
 20
3.5
 30
0.0
 11
-1.5
 21
-3.5
 31
0.0
  0
HATCH
  5
BEB
330
BA5
100
AcDbEntity
  8
0
100
AcDbHatch
 10
0.0
 20
0.0
 30
0.0
210
0.0
220
0.0
230
1.0
  2
ANSI31
 70
     0
 71
     1
 91
        1
 92
        7
 72
     1
 73
     1
 93
        8
 10
-6.460660173204814
 20
1.332233054616153
 42
0.0
 10
-7.839518394101105
 20
2.711091270081851
 42
0.414213562178905
 10
-8.122361106481548
 20
2.711091269618009
 42
0.0
 10
-12.43571247701766
 20
-1.602260112190379
 42
0.4142135636146872
 10
-12.43571247604996
 20
-1.885102825264766
 42
0.0
 10
-11.05685425338015
 20
-3.263961032639599
 42
0.4142135608152901
 10
-10.34974747407432
 20
-3.263961030598693
 42
0.0
 10
-6.460660172428106
 20
0.625126272813759
 42
0.4142135628833784
 97
        8
330
BD8
330
BD1
330
BDD
330
BDA
330
BED
330
BE3
330
BEC
330
BD5
 75
     0
 76
     1
 52
45.0
 41
0.25
 77
     0
 78
     1
 53
90.0
 43
-276.1145346408611
 44
-395.2719013892401
 45
-0.79375
 46
0.0000000000000002
 79
     0
 47
0.0364805528584695
 98
        1
 10
-7.399477738399582
 20
0.8532363732892918
  0
LINE
  5
BEC
102
{ACAD_REACTORS
330
BEB
102
}
330
BA5
100
AcDbEntity
  8
0
100
AcDbLine
 10
-10.34974747415435
 20
-3.263961030678729
 30
0.0
 11
-6.46066017270823
 21
0.6251262725336347
 31
0.0
  0
LINE
  5
BED
102
{ACAD_REACTORS
330
BEB
102
}
330
BA5
100
AcDbEntity
  8
0
100
AcDbLine
 10
-12.43571247609543
 20
-1.885102825218382
 30
0.0
 11
-11.05685425534102
 21
-3.263961030678729
 31
0.0
  0
LINE
  5
BEE
330
BA5
100
AcDbEntity
  8
0
100
AcDbLine
 10
-1.5
 20
5.5
 30
0.0
 11
1.042400829128382
 21
5.5
 31
0.0
  0
LINE
  5
BEF
330
BA5
100
AcDbEntity
  8
0
100
AcDbLine
 10
-1.5
 20
-5.5
 30
0.0
 11
1.042400829128382
 21
-5.5
 31
0.0
  0
ENDBLK
  5
BF1
330
BA5
100
AcDbEntity
  8
0
 62
     4
100
AcDbBlockEnd
  0
ENDSEC
  0
SECTION
  2
ENTITIES
  0
LINE
  5
E52
330
1F
100
AcDbEntity
  8
SANINDUSA
100
AcDbLine
 10
347.9871622145578
 20
250.1114219967959
 30
0.0
 11
348.6079622145578
 21
250.1114219967959
 31
0.0
  0
LINE
  5
E54
330
1F
100
AcDbEntity
  8
SANINDUSA
100
AcDbLine
 10
347.9871622145578
 20
248.2714219967959
 30
0.0
 11
348.5871622145578
 21
248.2714219967959
 31
0.0
  0
LINE
  5
E55
330
1F
100
AcDbEntity
  8
SANINDUSA
100
AcDbLine
 10
347.7270815101757
 20
248.2614219967959
 30
0.0
 11
348.6079622145578
 21
248.2614219967959
 31
0.0
  0
LINE
  5
E57
330
1F
100
AcDbEntity
  8
SANINDUSA
100
AcDbLine
 10
347.7610622145578
 20
248.2614219967959
 30
0.0
 11
347.7610622145578
 21
250.1114219967959
 31
0.0
  0
LINE
  5
E58
330
1F
100
AcDbEntity
  8
SANINDUSA
100
AcDbLine
 10
347.7201622145579
 20
248.2614219967959
 30
0.0
 11
347.7201622145579
 21
250.1114219967959
 31
0.0
  0
LINE
  5
E59
330
1F
100
AcDbEntity
  8
SANINDUSA
100
AcDbLine
 10
347.9841622145578
 20
248.5804219967959
 30
0.0
 11
347.9841622145578
 21
249.7924219967862
 31
0.0
  0
LINE
  5
E5A
330
1F
100
AcDbEntity
  8
SANINDUSA
100
AcDbLine
 10
347.9871622145578
 20
248.5804219967959
 30
0.0
 11
347.9871622145578
 21
249.7924219967862
 31
0.0
  0
LINE
  5
E5F
330
1F
100
AcDbEntity
  8
SANINDUSA
100
AcDbLine
 10
347.7201622145579
 20
248.2614219967959
 30
0.0
 11
347.7201622145579
 21
248.552611063378
 31
0.0
  0
LINE
  5
E60
330
1F
100
AcDbEntity
  8
SANINDUSA
100
AcDbLine
 10
347.7601622145578
 20
248.2614219967959
 30
0.0
 11
347.7201622145579
 21
248.2614219967959
 31
0.0
  0
LINE
  5
E65
330
1F
100
AcDbEntity
  8
SANINDUSA
100
AcDbLine
 10
347.9871622145578
 20
248.2714219967959
 30
0.0
 11
347.9871622145578
 21
248.5324219967959
 31
0.0
  0
LINE
  5
E66
330
1F
100
AcDbEntity
  8
SANINDUSA
100
AcDbLine
 10
347.9841622145578
 20
248.2614219967959
 30
0.0
 11
347.9841622145578
 21
248.5324219967959
 31
0.0
  0
LINE
  5
E7E
330
1F
100
AcDbEntity
  8
SANINDUSA
100
AcDbLine
 10
347.7201622145579
 20
250.1114219967959
 30
0.0
 11
347.9841622145578
 21
250.1114219967959
 31
0.0
  0
LINE
  5
E87
330
1F
100
AcDbEntity
  8
SANINDUSA
100
AcDbLine
 10
347.9871622145578
 20
249.8404219967862
 30
0.0
 11
347.9871622145578
 21
250.1114219967959
 31
0.0
  0
LINE
  5
E88
330
1F
100
AcDbEntity
  8
SANINDUSA
100
AcDbLine
 10
347.9841622145578
 20
249.8404219967862
 30
0.0
 11
347.9841622145578
 21
250.1114219967959
 31
0.0
  0
LINE
  5
EA0
330
1F
100
AcDbEntity
  8
SANINDUSA
100
AcDbLine
 10
348.5871622145578
 20
248.2714219967959
 30
0.0
 11
348.5871622145578
 21
250.1114219967959
 31
0.0
  0
LINE
  5
EA1
330
1F
100
AcDbEntity
  8
SANINDUSA
100
AcDbLine
 10
348.5896622145578
 20
248.2714219967959
 30
0.0
 11
348.5896622145578
 21
250.1114219967959
 31
0.0
  0
LINE
  5
EA2
330
1F
100
AcDbEntity
  8
SANINDUSA
100
AcDbLine
 10
348.5956622145578
 20
248.2714219967959
 30
0.0
 11
348.5956622145578
 21
250.1114219967959
 31
0.0
  0
LINE
  5
EA3
330
1F
100
AcDbEntity
  8
SANINDUSA
100
AcDbLine
 10
348.6079622145578
 20
248.2614219967959
 30
0.0
 11
348.6079622145578
 21
250.1114219967959
 31
0.0
  0
LINE
  5
EA6
330
1F
100
AcDbEntity
  8
SANINDUSA
100
AcDbLine
 10
348.9607819720538
 20
249.2128051194089
 30
0.0000000000545588
 11
349.5607465187074
 21
249.2128051327602
 31
0.0000000000545587
  0
LINE
  5
EA7
330
1F
100
AcDbEntity
  8
SANINDUSA
100
AcDbLine
 10
348.9607819720538
 20
249.2068051327602
 30
0.0000000000545586
 11
349.5607465187074
 21
249.2068051327602
 31
0.0000000000545592
  0
LINE
  5
EAC
330
1F
100
AcDbEntity
  8
SANINDUSA
100
AcDbLine
 10
348.5896622145578
 20
248.2714219967959
 30
0.0
 11
348.5956622145578
 21
248.2714219967959
 31
0.0
  0
CIRCLE
  5
EAF
330
1F
100
AcDbEntity
  8
SANINDUSA
100
AcDbCircle
 10
348.5371622145578
 20
249.1914212288488
 30
0.0
 40
0.004
  0
INSERT
  5
F55
330
1F
100
AcDbEntity
  8
SANINDUSA
100
AcDbBlockReference
  2
guarnizione
 10
349.5607465187074
 20
249.2098051327602
 30
0.0000000000545587
 41
-0.001
 42
0.001
 43
0.001
  0
LINE
  5
F56
330
1F
100
AcDbEntity
  8
SANINDUSA
100
AcDbLine
 10
349.5607465187074
 20
249.2128051327602
 30
0.0000000000545587
 11
349.5607465187074
 21
249.2068051327602
 31
0.0000000000545587
  0
LINE
  5
F58
330
1F
100
AcDbEntity
  8
SANINDUSA
100
AcDbLine
 10
348.7032852553201
 20
249.198605102423
 30
0.0
 11
348.7032852553201
 21
249.2141909125222
 31
0.0
  0
ARC
  5
F59
330
1F
100
AcDbEntity
  8
SANINDUSA
100
AcDbCircle
 10
348.7026352553201
 20
249.2141909125222
 30
0.0
 40
0.0006500000000003
100
AcDbArc
 50
0.0
 51
45.0
  0
ARC
  5
F5A
330
1F
100
AcDbEntity
  8
SANINDUSA
100
AcDbCircle
 10
348.7026352553201
 20
249.198605102423
 30
0.0
 40
0.0006500000000003
100
AcDbArc
 50
314.9106959496867
 51
0.0
  0
LINE
  5
F5B
330
1F
100
AcDbEntity
  8
SANINDUSA
100
AcDbLine
 10
348.7030948747279
 20
249.21465053193
 30
0.0
 11
348.7021806611655
 21
249.2155647454923
 31
0.0
  0
LINE
  5
F5C
330
1F
100
AcDbEntity
  8
SANINDUSA
100
AcDbLine
 10
348.7021877186732
 20
249.1972411493243
 30
0.0
 11
348.7030941577842
 21
249.1981447671882
 31
0.0
  0
ARC
  5
F5D
330
1F
100
AcDbEntity
  8
SANINDUSA
100
AcDbCircle
 10
348.7031352553201
 20
249.2165193396469
 30
0.0
 40
0.0013499999999998
100
AcDbArc
 50
180.0
 51
225.0
  0
ARC
  5
F5E
330
1F
100
AcDbEntity
  8
SANINDUSA
100
AcDbCircle
 10
348.7031408237911
 20
249.196285068452
 30
0.0
 40
0.00135
100
AcDbArc
 50
134.9106959496867
 51
179.4659008892979
  0
LINE
  5
F5F
330
1F
100
AcDbEntity
  8
SANINDUSA
100
AcDbLine
 10
348.7017852553201
 20
249.2165193396469
 30
0.0
 11
348.7017852553201
 21
249.2175051260846
 31
0.0
  0
LINE
  5
F60
330
1F
100
AcDbEntity
  8
SANINDUSA
100
AcDbLine
 10
348.701784092785
 20
249.1955693091966
 30
0.0
 11
348.7017908824452
 21
249.1962976526835
 31
0.0
  0
ARC
  5
F61
330
1F
100
AcDbEntity
  8
SANINDUSA
100
AcDbCircle
 10
348.7007852553201
 20
249.2175051260846
 30
0.0
 40
0.0009999999999999
100
AcDbArc
 50
0.0
 51
90.0
  0
ARC
  5
F62
330
1F
100
AcDbEntity
  8
SANINDUSA
100
AcDbCircle
 10
348.7007841362325
 20
249.1955786308496
 30
0.0
 40
0.0009999999999999
100
AcDbArc
 50
270.0
 51
359.4659008892979
  0
LINE
  5
F63
330
1F
100
AcDbEntity
  8
SANINDUSA
100
AcDbLine
 10
348.7007852553201
 20
249.2185051260846
 30
0.0
 11
348.6997852553201
 21
249.2185051260846
 31
0.0
  0
LINE
  5
F64
330
1F
100
AcDbEntity
  8
SANINDUSA
100
AcDbLine
 10
348.6997852553201
 20
249.1945786308496
 30
0.0
 11
348.7007841362325
 21
249.1945786308496
 31
0.0
  0
LINE
  5
F65
330
1F
100
AcDbEntity
  8
SANINDUSA
100
AcDbLine
 10
348.6997852553201
 20
249.1945786308496
 30
0.0
 11
348.6997852553201
 21
249.2185051260846
 31
0.0
  0
LINE
  5
F66
330
1F
100
AcDbEntity
  8
SANINDUSA
100
AcDbLine
 10
348.7021342817862
 20
249.1955879525026
 30
0.0
 11
348.7021408672386
 21
249.196294390105
 31
0.0
  0
ARC
  5
F67
330
1F
100
AcDbEntity
  8
SANINDUSA
100
AcDbCircle
 10
348.7031342383387
 20
249.1955786308496
 30
0.0
 40
0.001
100
AcDbArc
 50
179.4659008892979
 51
270.0522365954197
  0
ARC
  5
F68
330
1F
100
AcDbEntity
  8
SANINDUSA
100
AcDbCircle
 10
348.7031408237911
 20
249.196285068452
 30
0.0
 40
0.0010000000000003
100
AcDbArc
 50
134.9106959496867
 51
179.4659008892979
  0
ARC
  5
F69
330
1F
100
AcDbEntity
  8
SANINDUSA
100
AcDbCircle
 10
348.7030451468822
 20
249.2932986857296
 30
0.0
 40
0.0987200954923432
100
AcDbArc
 50
270.0522365954197
 51
291.0588352481606
  0
LINE
  5
F6A
330
1F
100
AcDbEntity
  8
SANINDUSA
100
AcDbLine
 10
348.7024348200001
 20
249.1969932765055
 30
0.0
 11
348.703341259111
 21
249.1978968943694
 31
0.0
  0
ARC
  5
F6B
330
1F
100
AcDbEntity
  8
SANINDUSA
100
AcDbCircle
 10
348.7381585594521
 20
249.2021051260846
 30
0.0
 40
0.001
100
AcDbArc
 50
291.0588352481606
 51
90.0
  0
ARC
  5
F6C
330
1F
100
AcDbEntity
  8
SANINDUSA
100
AcDbCircle
 10
348.7026352553201
 20
249.198605102423
 30
0.0
 40
0.0010000000000003
100
AcDbArc
 50
314.9106959496867
 51
0.0
  0
LINE
  5
F6D
330
1F
100
AcDbEntity
  8
SANINDUSA
100
AcDbLine
 10
348.7161585594521
 20
249.2031051260846
 30
0.0
 11
348.7381585594521
 21
249.2031051260846
 31
0.0
  0
LINE
  5
F6E
330
1F
100
AcDbEntity
  8
SANINDUSA
100
AcDbLine
 10
348.7036352553201
 20
249.198605102423
 30
0.0
 11
348.7036352553201
 21
249.2087944659128
 31
0.0
  0
ARC
  5
F6F
330
1F
100
AcDbEntity
  8
SANINDUSA
100
AcDbCircle
 10
348.7161585594521
 20
249.2021051260846
 30
0.0
 40
0.001
100
AcDbArc
 50
90.0
 51
270.0
  0
ARC
  5
F70
330
1F
100
AcDbEntity
  8
SANINDUSA
100
AcDbCircle
 10
348.7038852553201
 20
249.2087944659128
 30
0.0
 40
0.00025
100
AcDbArc
 50
135.0
 51
180.0
  0
LINE
  5
F71
330
1F
100
AcDbEntity
  8
SANINDUSA
100
AcDbLine
 10
348.7288562060796
 20
249.2011051260845
 30
0.0
 11
348.7161585594521
 21
249.2011051260845
 31
0.0
  0
LINE
  5
F72
330
1F
100
AcDbEntity
  8
SANINDUSA
100
AcDbLine
 10
348.7037084786248
 20
249.2089712426081
 30
0.0
 11
348.7041888087107
 21
249.209451572694
 31
0.0
  0
ARC
  5
F73
330
1F
100
AcDbEntity
  8
SANINDUSA
100
AcDbCircle
 10
348.7288562060796
 20
249.2006051260846
 30
0.0
 40
0.0005
100
AcDbArc
 50
285.5601696429527
 51
90.0
  0
ARC
  5
F74
330
1F
100
AcDbEntity
  8
SANINDUSA
100
AcDbCircle
 10
348.7038352553201
 20
249.2098051260846
 30
0.0
 40
0.0005
100
AcDbArc
 50
315.0
 51
45.0
  0
ARC
  5
F75
330
1F
100
AcDbEntity
  8
SANINDUSA
100
AcDbCircle
 10
348.7030451468822
 20
249.2932986857296
 30
0.0
 40
0.0967200954923435
100
AcDbArc
 50
272.1494579347754
 51
285.5601696429527
  0
LINE
  5
F76
330
1F
100
AcDbEntity
  8
SANINDUSA
100
AcDbLine
 10
348.7041888087107
 20
249.2101586794752
 30
0.0
 11
348.7037084786248
 21
249.2106390095611
 31
0.0
  0
ARC
  5
F77
330
1F
100
AcDbEntity
  8
SANINDUSA
100
AcDbCircle
 10
348.7066352553201
 20
249.1976459398073
 30
0.0
 40
0.001
100
AcDbArc
 50
180.0
 51
272.1494579347754
  0
ARC
  5
F78
330
1F
100
AcDbEntity
  8
SANINDUSA
100
AcDbCircle
 10
348.7038852553201
 20
249.2108157862563
 30
0.0
 40
0.0002500000000003
100
AcDbArc
 50
180.0
 51
225.0
  0
LINE
  5
F79
330
1F
100
AcDbEntity
  8
SANINDUSA
100
AcDbLine
 10
348.7056352553201
 20
249.2155051260846
 30
0.0
 11
348.7056352553201
 21
249.1976459398073
 31
0.0
  0
LINE
  5
F7A
330
1F
100
AcDbEntity
  8
SANINDUSA
100
AcDbLine
 10
348.7036352553201
 20
249.2108157862563
 30
0.0
 11
348.7036352553201
 21
249.2141909125222
 31
0.0
  0
ARC
  5
F7B
330
1F
100
AcDbEntity
  8
SANINDUSA
100
AcDbCircle
 10
348.7066352553201
 20
249.2155051260846
 30
0.0
 40
0.001
100
AcDbArc
 50
90.0
 51
180.0
  0
ARC
  5
F7C
330
1F
100
AcDbEntity
  8
SANINDUSA
100
AcDbCircle
 10
348.7026352553201
 20
249.2141909125222
 30
0.0
 40
0.0010000000000003
100
AcDbArc
 50
0.0
 51
45.0
  0
LINE
  5
F7D
330
1F
100
AcDbEntity
  8
SANINDUSA
100
AcDbLine
 10
348.7381585594521
 20
249.2165051260846
 30
0.0
 11
348.7066352553201
 21
249.2165051260846
 31
0.0
  0
LINE
  5
F7E
330
1F
100
AcDbEntity
  8
SANINDUSA
100
AcDbLine
 10
348.7033423621012
 20
249.2148980193034
 30
0.0
 11
348.7024281485389
 21
249.2158122328658
 31
0.0
  0
ARC
  5
F7F
330
1F
100
AcDbEntity
  8
SANINDUSA
100
AcDbCircle
 10
348.7381585594521
 20
249.2175051260846
 30
0.0
 40
0.001
100
AcDbArc
 50
270.0
 51
90.0
  0
ARC
  5
F80
330
1F
100
AcDbEntity
  8
SANINDUSA
100
AcDbCircle
 10
348.7031352553201
 20
249.2165193396469
 30
0.0
 40
0.0010000000000003
100
AcDbArc
 50
180.0
 51
225.0
  0
LINE
  5
F81
330
1F
100
AcDbEntity
  8
SANINDUSA
100
AcDbLine
 10
348.7031352553201
 20
249.2185051260846
 30
0.0
 11
348.7381585594521
 21
249.2185051260846
 31
0.0
  0
LINE
  5
F82
330
1F
100
AcDbEntity
  8
SANINDUSA
100
AcDbLine
 10
348.7021352553201
 20
249.2165193396469
 30
0.0
 11
348.7021352553201
 21
249.2175051260846
 31
0.0
  0
ARC
  5
F83
330
1F
100
AcDbEntity
  8
SANINDUSA
100
AcDbCircle
 10
348.7031352553201
 20
249.2175051260846
 30
0.0
 40
0.0009999999999999
100
AcDbArc
 50
90.0
 51
180.0
  0
LINE
  5
F84
330
1F
100
AcDbEntity
  8
SANINDUSA
100
AcDbLine
 10
348.7546352553201
 20
249.2048051260846
 30
0.0
 11
348.7546352553201
 21
249.2057051260846
 31
0.0
  0
ARC
  5
F85
330
1F
100
AcDbEntity
  8
SANINDUSA
100
AcDbCircle
 10
348.7536352553201
 20
249.2057051260846
 30
0.0
 40
0.0009999999999999
100
AcDbArc
 50
0.0
 51
156.4218215215485
  0
ARC
  5
F86
330
1F
100
AcDbEntity
  8
SANINDUSA
100
AcDbCircle
 10
348.7536352553201
 20
249.2048051260846
 30
0.0
 40
0.0010000000000001
100
AcDbArc
 50
270.0
 51
0.0
  0
ARC
  5
F87
330
1F
100
AcDbEntity
  8
SANINDUSA
100
AcDbCircle
 10
348.7522604826116
 20
249.2063051260846
 30
0.0
 40
0.0005000000000001
100
AcDbArc
 50
270.0
 51
336.421821523041
  0
LINE
  5
F88
330
1F
100
AcDbEntity
  8
SANINDUSA
100
AcDbLine
 10
348.7221352553201
 20
249.2038051260846
 30
0.0
 11
348.7536352553201
 21
249.2038051260846
 31
0.0
  0
LINE
  5
F89
330
1F
100
AcDbEntity
  8
SANINDUSA
100
AcDbLine
 10
348.7495718694614
 20
249.2058051260846
 30
0.0
 11
348.7522604826116
 21
249.2058051260846
 31
0.0
  0
ARC
  5
F8A
330
1F
100
AcDbEntity
  8
SANINDUSA
100
AcDbCircle
 10
348.7221352553201
 20
249.2048051260846
 30
0.0
 40
0.001
100
AcDbArc
 50
90.0
 51
270.0
  0
ARC
  5
F8B
330
1F
100
AcDbEntity
  8
SANINDUSA
100
AcDbCircle
 10
348.7495718694614
 20
249.2063051260846
 30
0.0
 40
0.0005
100
AcDbArc
 50
199.4712206349464
 51
270.0
  0
LINE
  5
F8C
330
1F
100
AcDbEntity
  8
SANINDUSA
100
AcDbLine
 10
348.74215727908
 20
249.2058051260846
 30
0.0
 11
348.7221352553201
 21
249.2058051260846
 31
0.0
  0
ARC
  5
F8D
330
1F
100
AcDbEntity
  8
SANINDUSA
100
AcDbCircle
 10
348.748157655899
 20
249.2058051260846
 30
0.0
 40
0.001
100
AcDbArc
 50
19.47122063494644
 51
160.5287793650535
  0
ARC
  5
F8E
330
1F
100
AcDbEntity
  8
SANINDUSA
100
AcDbCircle
 10
348.74215727908
 20
249.2063051260846
 30
0.0
 40
0.0005000000000001
100
AcDbArc
 50
270.0
 51
0.0
  0
ARC
  5
F8F
330
1F
100
AcDbEntity
  8
SANINDUSA
100
AcDbCircle
 10
348.7467434423366
 20
249.2063051260846
 30
0.0
 40
0.0005
100
AcDbArc
 50
270.0
 51
340.5287793650535
  0
LINE
  5
F90
330
1F
100
AcDbEntity
  8
SANINDUSA
100
AcDbLine
 10
348.74265727908
 20
249.2133051260846
 30
0.0
 11
348.74265727908
 21
249.2063051260846
 31
0.0
  0
LINE
  5
F91
330
1F
100
AcDbEntity
  8
SANINDUSA
100
AcDbLine
 10
348.74515727908
 20
249.2058051260846
 30
0.0
 11
348.7467434423366
 21
249.2058051260846
 31
0.0
  0
ARC
  5
F92
330
1F
100
AcDbEntity
  8
SANINDUSA
100
AcDbCircle
 10
348.74215727908
 20
249.2133051260846
 30
0.0
 40
0.0005000000000001
100
AcDbArc
 50
0.0
 51
90.0
  0
ARC
  5
F93
330
1F
100
AcDbEntity
  8
SANINDUSA
100
AcDbCircle
 10
348.74515727908
 20
249.2063051260846
 30
0.0
 40
0.0005
100
AcDbArc
 50
180.0
 51
270.0
  0
LINE
  5
F94
330
1F
100
AcDbEntity
  8
SANINDUSA
100
AcDbLine
 10
348.7221352553201
 20
249.2138051260845
 30
0.0
 11
348.74215727908
 21
249.2138051260845
 31
0.0
  0
LINE
  5
F95
330
1F
100
AcDbEntity
  8
SANINDUSA
100
AcDbLine
 10
348.74465727908
 20
249.2133051260846
 30
0.0
 11
348.74465727908
 21
249.2063051260846
 31
0.0
  0
ARC
  5
F96
330
1F
100
AcDbEntity
  8
SANINDUSA
100
AcDbCircle
 10
348.7221352553201
 20
249.2148051260846
 30
0.0
 40
0.001
100
AcDbArc
 50
90.0
 51
270.0
  0
ARC
  5
F97
330
1F
100
AcDbEntity
  8
SANINDUSA
100
AcDbCircle
 10
348.74515727908
 20
249.2133051260846
 30
0.0
 40
0.0005
100
AcDbArc
 50
90.0
 51
180.0
  0
LINE
  5
F98
330
1F
100
AcDbEntity
  8
SANINDUSA
100
AcDbLine
 10
348.7536352553201
 20
249.2158051260846
 30
0.0
 11
348.7221352553201
 21
249.2158051260846
 31
0.0
  0
LINE
  5
F99
330
1F
100
AcDbEntity
  8
SANINDUSA
100
AcDbLine
 10
348.7467434423366
 20
249.2138051260845
 30
0.0
 11
348.74515727908
 21
249.2138051260845
 31
0.0
  0
ARC
  5
F9A
330
1F
100
AcDbEntity
  8
SANINDUSA
100
AcDbCircle
 10
348.7536352553201
 20
249.2148051260846
 30
0.0
 40
0.0009999999999999
100
AcDbArc
 50
0.0
 51
90.0
  0
ARC
  5
F9B
330
1F
100
AcDbEntity
  8
SANINDUSA
100
AcDbCircle
 10
348.7467434423366
 20
249.2133051260846
 30
0.0
 40
0.0004999999999999
100
AcDbArc
 50
19.47122063494644
 51
90.0
  0
LINE
  5
F9C
330
1F
100
AcDbEntity
  8
SANINDUSA
100
AcDbLine
 10
348.7546352553201
 20
249.2139051260846
 30
0.0
 11
348.7546352553201
 21
249.2148051260846
 31
0.0
  0
ARC
  5
F9D
330
1F
100
AcDbEntity
  8
SANINDUSA
100
AcDbCircle
 10
348.748157655899
 20
249.2138051260845
 30
0.0
 40
0.001
100
AcDbArc
 50
199.4712206349464
 51
340.5287793650535
  0
ARC
  5
F9E
330
1F
100
AcDbEntity
  8
SANINDUSA
100
AcDbCircle
 10
348.7536352553201
 20
249.2139051260846
 30
0.0
 40
0.0009999999999999
100
AcDbArc
 50
203.5781784784515
 51
0.0
  0
ARC
  5
F9F
330
1F
100
AcDbEntity
  8
SANINDUSA
100
AcDbCircle
 10
348.7495718694614
 20
249.2133051260846
 30
0.0
 40
0.0005
100
AcDbArc
 50
90.0
 51
160.5287793650535
  0
ARC
  5
FA0
330
1F
100
AcDbEntity
  8
SANINDUSA
100
AcDbCircle
 10
348.7522604826116
 20
249.2133051260846
 30
0.0
 40
0.0005000000000001
100
AcDbArc
 50
23.57817847695903
 51
90.0
  0
LINE
  5
FA1
330
1F
100
AcDbEntity
  8
SANINDUSA
100
AcDbLine
 10
348.7522604826116
 20
249.2138051260845
 30
0.0
 11
348.7495718694614
 21
249.2138051260845
 31
0.0
  0
LINE
  5
FA2
330
1F
100
AcDbEntity
  8
SANINDUSA
100
AcDbLine
 10
348.74475727908
 20
249.2068051260845
 30
0.0
 11
348.74475727908
 21
249.2128051260846
 31
0.0
  0
LINE
  5
FA3
330
1F
100
AcDbEntity
  8
SANINDUSA
100
AcDbLine
 10
348.8922819720538
 20
249.2192051260846
 30
0.0000000000545588
 11
348.9432819720538
 21
249.2192051260846
 31
0.0000000000545588
  0
LWPOLYLINE
  5
FA4
330
1F
100
AcDbEntity
  8
SANINDUSA
100
AcDbPolyline
 90
        2
 70
     0
 43
0.0
 10
348.9442819720538
 20
249.2065051260846
 10
348.8912819720539
 20
249.2065051260846
1001
GENIUS_GENREC_14
1002
{
1000
PYDIR
1011
349.0272819720538
1021
249.3430265779335
1031
0.0000000000545588
1002
}
1002
{
1000
PXDIR
1011
348.9742819720538
1021
249.3440265779335
1031
0.0000000000545588
1002
}
1002
{
1000
PORI
1011
349.0272819720538
1021
249.3440265779335
1031
0.0000000000545588
1002
}
1002
{
1000
PINS
1011
349.0272819720538
1021
249.3440265779335
1031
0.0000000000545588
1002
}
1002
{
1000
PINS2
1011
348.9742819720538
1021
249.3430265779335
1031
0.0000000000545588
1002
}
1002
{
1000
C
1070
     1
1002
}
1001
GENIUS_GENODEF_13
1002
{
1000
HIER
1070
     0
1002
}
1002
{
1000
MANEDIT
1070
     0
1002
}
1002
{
1000
NOSEL
1070
     0
1002
}
1002
{
1000
BEHIND
1070
     0
1002
}
1002
{
1000
REACTOR
1002
}
1001
GENIUS_GENOBJ-N-REC_13
1002
{
1000
OWNER
1000
GEN
1002
}
  0
LWPOLYLINE
  5
FA5
330
1F
100
AcDbEntity
  8
SANINDUSA
100
AcDbPolyline
 90
        2
 70
     0
 43
0.0
 10
348.8912819720539
 20
249.2055051260846
 10
348.9442819720538
 20
249.2055051260846
1001
GENIUS_GENREC_14
1002
{
1000
PYDIR
1011
349.0272819720538
1021
249.3430265779335
1031
0.0000000000545588
1002
}
1002
{
1000
PXDIR
1011
348.9742819720538
1021
249.3440265779335
1031
0.0000000000545588
1002
}
1002
{
1000
PORI
1011
349.0272819720538
1021
249.3440265779335
1031
0.0000000000545588
1002
}
1002
{
1000
PINS
1011
349.0272819720538
1021
249.3440265779335
1031
0.0000000000545588
1002
}
1002
{
1000
PINS2
1011
348.9742819720538
1021
249.3430265779335
1031
0.0000000000545588
1002
}
1002
{
1000
C
1070
     1
1002
}
1001
GENIUS_GENODEF_13
1002
{
1000
HIER
1070
     0
1002
}
1002
{
1000
MANEDIT
1070
     0
1002
}
1002
{
1000
NOSEL
1070
     0
1002
}
1002
{
1000
BEHIND
1070
     0
1002
}
1002
{
1000
REACTOR
1002
}
1001
GENIUS_GENOBJ-N-REC_13
1002
{
1000
OWNER
1000
GEN
1002
}
  0
LWPOLYLINE
  5
FA6
330
1F
100
AcDbEntity
  8
SANINDUSA
100
AcDbPolyline
 90
        4
 70
     1
 43
0.0
 10
348.8912819720539
 20
249.2140051260846
 10
348.9442819720538
 20
249.2140051260846
 10
348.9442819720538
 20
249.2130051260846
 10
348.8912819720539
 20
249.2130051260846
1001
GENIUS_GENREC_14
1002
{
1000
PYDIR
1011
349.0272819720538
1021
249.3427265779335
1031
0.0000000000545588
1002
}
1002
{
1000
PXDIR
1011
348.9742819720538
1021
249.3437265779335
1031
0.0000000000545588
1002
}
1002
{
1000
PORI
1011
349.0272819720538
1021
249.3437265779335
1031
0.0000000000545588
1002
}
1002
{
1000
PINS
1011
349.0272819720538
1021
249.3437265779335
1031
0.0000000000545588
1002
}
1002
{
1000
PINS2
1011
348.9742819720538
1021
249.3427265779335
1031
0.0000000000545588
1002
}
1002
{
1000
C
1070
     1
1002
}
1001
GENIUS_GENODEF_13
1002
{
1000
HIER
1070
     0
1002
}
1002
{
1000
MANEDIT
1070
     0
1002
}
1002
{
1000
NOSEL
1070
     0
1002
}
1002
{
1000
BEHIND
1070
     0
1002
}
1002
{
1000
REACTOR
1002
}
1001
GENIUS_GENOBJ-N-REC_13
1002
{
1000
OWNER
1000
GEN
1002
}
  0
LINE
  5
FA7
330
1F
100
AcDbEntity
  8
SANINDUSA
100
AcDbLine
 10
348.9442819720537
 20
249.2054050737908
 30
0.0000000000545588
 11
348.8912819720537
 21
249.2054050737908
 31
0.0000000000545588
  0
LINE
  5
FA8
330
1F
100
AcDbEntity
  8
SANINDUSA
100
AcDbLine
 10
348.9442819720538
 20
249.2142051260846
 30
0.0000000000545588
 11
348.8912819720539
 21
249.2142051260846
 31
0.0000000000545588
  0
LINE
  5
FA9
330
1F
100
AcDbEntity
  8
SANINDUSA
100
AcDbLine
 10
348.8922819720538
 20
249.1954050737904
 30
0.0000000000545588
 11
348.9512819720538
 21
249.1954050737904
 31
0.0000000000545588
  0
LINE
  5
FAB
330
1F
100
AcDbEntity
  8
SANINDUSA
100
AcDbLine
 10
348.74475727908
 20
249.2128051260846
 30
0.0000000000449077
 11
348.9577819720538
 21
249.2128051260845
 31
0.0000000000545588
  0
LINE
  5
FAC
330
1F
100
AcDbEntity
  8
SANINDUSA
100
AcDbLine
 10
348.74475727908
 20
249.2068051260845
 30
0.0000000000467297
 11
348.9577819720538
 21
249.2068051260845
 31
0.0000000000545588
  0
LINE
  5
FAD
330
1F
100
AcDbEntity
  8
SANINDUSA
100
AcDbLine
 10
348.9607819720538
 20
249.2135015632103
 30
0.0000000000545587
 11
348.9607819720538
 21
249.2061087023101
 31
0.0000000000545587
  0
LINE
  5
FAE
330
1F
100
AcDbEntity
  8
SANINDUSA
100
AcDbLine
 10
348.9596341114001
 20
249.2154051327602
 30
0.0000000000545587
 11
348.9596341114001
 21
249.2042051327602
 31
0.0000000000545587
  0
LINE
  5
FAF
330
1F
100
AcDbEntity
  8
SANINDUSA
100
AcDbLine
 10
348.9606271939786
 20
249.2154051327602
 30
0.0000000000545587
 11
348.9721314956611
 21
249.213512811267
 31
0.0000000000545587
  0
ARC
  5
FB0
330
1F
100
AcDbEntity
  8
SANINDUSA
100
AcDbCircle
 10
348.9587964190924
 20
249.2098051327602
 30
0.0000000000545587
 40
0.0052623076923077
100
AcDbArc
 50
81.49232712685657
 51
278.5076728731434
  0
ARC
  5
FB1
330
1F
100
AcDbEntity
  8
SANINDUSA
100
AcDbCircle
 10
348.9587964190924
 20
249.2098051327602
 30
0.0000000000545587
 40
0.0056623076923077
100
AcDbArc
 50
81.49232712685657
 51
278.5076728731434
  0
ARC
  5
FB2
330
1F
100
AcDbEntity
  8
SANINDUSA
100
AcDbCircle
 10
348.9613819720538
 20
249.2061087023101
 30
0.0000000000545587
 40
0.0006
100
AcDbArc
 50
180.0
 51
279.3408341018414
  0
LINE
  5
FB3
330
1F
100
AcDbEntity
  8
SANINDUSA
100
AcDbLine
 10
348.9614793563148
 20
249.2055166581347
 30
0.0000000000545587
 11
348.9620618034938
 21
249.2056124638033
 31
0.0000000000545587
  0
LINE
  5
FB4
330
1F
100
AcDbEntity
  8
SANINDUSA
100
AcDbLine
 10
348.9606271939786
 20
249.2042051327602
 30
0.0000000000545587
 11
348.9596341114001
 21
249.2042051327602
 31
0.0000000000545587
  0
ARC
  5
FB5
330
1F
100
AcDbEntity
  8
SANINDUSA
100
AcDbCircle
 10
348.9672341114001
 20
249.2067107055407
 30
0.0000000000545587
 40
0.0006
100
AcDbArc
 50
231.1511489986566
 51
279.3408341018414
  0
ARC
  5
FB6
330
1F
100
AcDbEntity
  8
SANINDUSA
100
AcDbCircle
 10
348.967655870343
 20
249.2069746482814
 30
0.0000000000545587
 40
0.000175
100
AcDbArc
 50
82.00000000144234
 51
262.0000000014424
  0
ARC
  5
FB7
330
1F
100
AcDbEntity
  8
SANINDUSA
100
AcDbCircle
 10
348.9631734985331
 20
249.2065554028998
 30
0.0000000000545587
 40
0.00075
100
AcDbArc
 50
359.8634464274132
 51
189.3408341018414
  0
ARC
  5
FB8
330
1F
100
AcDbEntity
  8
SANINDUSA
100
AcDbCircle
 10
348.964423494983
 20
249.2065524237659
 30
0.0000000000545587
 40
0.0005
100
AcDbArc
 50
179.8634464274131
 51
279.3408341018414
  0
LINE
  5
FB9
330
1F
100
AcDbEntity
  8
SANINDUSA
100
AcDbLine
 10
348.9624740200892
 20
249.2061869875004
 30
0.0000000000545587
 11
348.9624334433137
 21
249.2064336725735
 31
0.0000000000545587
  0
LINE
  5
FBA
330
1F
100
AcDbEntity
  8
SANINDUSA
100
AcDbLine
 10
348.9639135537524
 20
249.2066771332261
 30
0.0000000000545587
 11
348.9639541305278
 21
249.206430448153
 31
0.0000000000545587
  0
LINE
  5
FBB
330
1F
100
AcDbEntity
  8
SANINDUSA
100
AcDbLine
 10
348.9645046485338
 20
249.2060590536196
 30
0.0000000000545587
 11
348.9663840054725
 21
249.2063681855971
 31
0.0000000000545587
  0
ARC
  5
FBC
330
1F
100
AcDbEntity
  8
SANINDUSA
100
AcDbCircle
 10
348.9664813897335
 20
249.2057761414216
 30
0.0000000000545587
 40
0.0006000000000005
100
AcDbArc
 50
51.15114899865663
 51
99.34083410184145
  0
ARC
  5
FBD
330
1F
100
AcDbEntity
  8
SANINDUSA
100
AcDbCircle
 10
348.961980649943
 20
249.2061058339495
 30
0.0000000000545587
 40
0.0005
100
AcDbArc
 50
279.3408341018414
 51
9.340834101841444
  0
ARC
  5
FBE
330
1F
100
AcDbEntity
  8
SANINDUSA
100
AcDbCircle
 10
348.9672341114001
 20
249.2128995599798
 30
0.0000000000545587
 40
0.0006
100
AcDbArc
 50
80.65916589815856
 51
128.8488510013434
  0
ARC
  5
FBF
330
1F
100
AcDbEntity
  8
SANINDUSA
100
AcDbCircle
 10
348.967655870343
 20
249.212635617239
 30
0.0000000000545587
 40
0.000175
100
AcDbArc
 50
97.99999999855764
 51
277.9999999985577
  0
ARC
  5
FC0
330
1F
100
AcDbEntity
  8
SANINDUSA
100
AcDbCircle
 10
348.9644403304222
 20
249.213055072524
 30
0.0000000000545587
 40
0.0005
100
AcDbArc
 50
80.65916589815856
 51
170.6591658981585
  0
ARC
  5
FC1
330
1F
100
AcDbEntity
  8
SANINDUSA
100
AcDbCircle
 10
348.9664813897335
 20
249.2138341240988
 30
0.0000000000545587
 40
0.0006000000000005
100
AcDbArc
 50
260.6591658981585
 51
308.8488510013434
  0
LINE
  5
FC2
330
1F
100
AcDbEntity
  8
SANINDUSA
100
AcDbLine
 10
348.9663840054725
 20
249.2132420799233
 30
0.0000000000545587
 11
348.9645214839732
 21
249.2135484426702
 31
0.0000000000545587
  0
LINE
  5
FC3
330
1F
100
AcDbEntity
  8
SANINDUSA
100
AcDbLine
 10
348.963946960276
 20
249.2131362260749
 30
0.0000000000545587
 11
348.9639135537524
 21
249.2129331322943
 31
0.0000000000545587
  0
ARC
  5
FC4
330
1F
100
AcDbEntity
  8
SANINDUSA
100
AcDbCircle
 10
348.9631734985331
 20
249.2130548626206
 30
0.0000000000545587
 40
0.00075
100
AcDbArc
 50
170.6591658981585
 51
350.6591658981585
  0
LINE
  5
FC5
330
1F
100
AcDbEntity
  8
SANINDUSA
100
AcDbLine
 10
348.9624334433137
 20
249.2131765929469
 30
0.0000000000545587
 11
348.9624740200892
 21
249.21342327802
 31
0.0000000000545587
  0
ARC
  5
FC6
330
1F
100
AcDbEntity
  8
SANINDUSA
100
AcDbCircle
 10
348.9697393344848
 20
249.2063536425308
 30
0.0000000000545587
 40
0.0005
100
AcDbArc
 50
28.12637396571802
 51
82.00000000144234
  0
ARC
  5
FC7
330
1F
100
AcDbEntity
  8
SANINDUSA
100
AcDbCircle
 10
348.9710465244295
 20
249.2065270520587
 30
0.0000000000545587
 40
0.0006
100
AcDbArc
 50
99.34083410184145
 51
147.530519206733
  0
LINE
  5
FC8
330
1F
100
AcDbEntity
  8
SANINDUSA
100
AcDbLine
 10
348.9726341114001
 20
249.207396254063
 30
0.0000000000545587
 11
348.9726341114001
 21
249.2066894984289
 31
0.0000000000545587
  0
LINE
  5
FC9
330
1F
100
AcDbEntity
  8
SANINDUSA
100
AcDbLine
 10
348.9709491401685
 20
249.2071190962341
 30
0.0000000000545587
 11
348.9726341114001
 21
249.207396254063
 31
0.0000000000545587
  0
ARC
  5
FCA
330
1F
100
AcDbEntity
  8
SANINDUSA
100
AcDbCircle
 10
348.9700341114001
 20
249.2071712724075
 30
0.0000000000545587
 40
0.0005999999999989
100
AcDbArc
 50
284.1008918065045
 51
327.5305192067331
  0
ARC
  5
FCB
330
1F
100
AcDbEntity
  8
SANINDUSA
100
AcDbCircle
 10
348.9720341114001
 20
249.2066894984289
 30
0.0000000000545587
 40
0.0006
100
AcDbArc
 50
279.3408341018414
 51
0.0
  0
ARC
  5
FCC
330
1F
100
AcDbEntity
  8
SANINDUSA
100
AcDbCircle
 10
348.9710465244295
 20
249.2130832134618
 30
0.0000000000545587
 40
0.0006
100
AcDbArc
 50
212.4694807932669
 51
260.6591658981585
  0
ARC
  5
FCD
330
1F
100
AcDbEntity
  8
SANINDUSA
100
AcDbCircle
 10
348.9700341114001
 20
249.2124389931129
 30
0.0000000000545587
 40
0.0006000000000005
100
AcDbArc
 50
32.46948079326694
 51
75.89910819349554
  0
ARC
  5
FCE
330
1F
100
AcDbEntity
  8
SANINDUSA
100
AcDbCircle
 10
348.9697393344848
 20
249.2132566229896
 30
0.0000000000545587
 40
0.0004999999999883
100
AcDbArc
 50
278.0000000017828
 51
331.8736260357181
  0
ARC
  5
FCF
330
1F
100
AcDbEntity
  8
SANINDUSA
100
AcDbCircle
 10
348.9720341114001
 20
249.2129207670915
 30
0.0000000000545587
 40
0.0006
100
AcDbArc
 50
0.0
 51
80.65916589815856
  0
LINE
  5
FD0
330
1F
100
AcDbEntity
  8
SANINDUSA
100
AcDbLine
 10
348.9726341114001
 20
249.2129207670915
 30
0.0000000000545587
 11
348.9726341114001
 21
249.2122140114575
 31
0.0000000000545587
  0
LINE
  5
FD1
330
1F
100
AcDbEntity
  8
SANINDUSA
100
AcDbLine
 10
348.9726341114001
 20
249.2122140114575
 30
0.0000000000545587
 11
348.9709491401685
 21
249.2124911692863
 31
0.0000000000545587
  0
LINE
  5
FD2
330
1F
100
AcDbEntity
  8
SANINDUSA
100
AcDbLine
 10
348.9676802256357
 20
249.2071479451935
 30
0.0000000000545587
 11
348.9698089210353
 21
249.2068487765652
 31
0.0000000000545587
  0
LINE
  5
FD3
330
1F
100
AcDbEntity
  8
SANINDUSA
100
AcDbLine
 10
348.9698089210353
 20
249.2127614889553
 30
0.0000000000545587
 11
348.9676802256357
 21
249.2124623203269
 31
0.0000000000545587
  0
LINE
  5
FD4
330
1F
100
AcDbEntity
  8
SANINDUSA
100
AcDbLine
 10
348.9676315150504
 20
249.212808914151
 30
0.0000000000545587
 11
348.9697078434058
 21
249.2131007230712
 31
0.0000000000545587
  0
LINE
  5
FD5
330
1F
100
AcDbEntity
  8
SANINDUSA
100
AcDbLine
 10
348.9697078434058
 20
249.2131007230712
 30
0.0000000000545587
 11
348.9673314956612
 21
249.2134916041552
 31
0.0000000000545587
  0
LINE
  5
FD6
330
1F
100
AcDbEntity
  8
SANINDUSA
100
AcDbLine
 10
348.9673314956612
 20
249.2061186613652
 30
0.0000000000545587
 11
348.9697078434058
 21
249.2065095424492
 31
0.0000000000545587
  0
LINE
  5
FD7
330
1F
100
AcDbEntity
  8
SANINDUSA
100
AcDbLine
 10
348.9697078434058
 20
249.2065095424492
 30
0.0000000000545587
 11
348.9676315150504
 21
249.2068013513694
 31
0.0000000000545587
  0
LINE
  5
FD8
330
1F
100
AcDbEntity
  8
SANINDUSA
100
AcDbLine
 10
348.9721314956611
 20
249.2060974542535
 30
0.0000000000545587
 11
348.9606271939786
 21
249.2042051327602
 31
0.0000000000545587
  0
ARC
  5
FD9
330
1F
100
AcDbEntity
  8
SANINDUSA
100
AcDbCircle
 10
348.9613819720538
 20
249.2135015632103
 30
0.0000000000545587
 40
0.0006
100
AcDbArc
 50
80.65916589815856
 51
180.0
  0
LINE
  5
FDA
330
1F
100
AcDbEntity
  8
SANINDUSA
100
AcDbLine
 10
348.9620618034938
 20
249.2139978017171
 30
0.0000000000545587
 11
348.9614793563148
 21
249.2140936073858
 31
0.0000000000545587
  0
LINE
  5
FDB
330
1F
100
AcDbEntity
  8
SANINDUSA
100
AcDbLine
 10
348.9606271939786
 20
249.2154051327602
 30
0.0000000000545587
 11
348.9596341114001
 21
249.2154051327602
 31
0.0000000000545587
  0
ARC
  5
FDC
330
1F
100
AcDbEntity
  8
SANINDUSA
100
AcDbCircle
 10
348.961980649943
 20
249.2135044315709
 30
0.0000000000545587
 40
0.0005
100
AcDbArc
 50
350.6591658981585
 51
80.65916589815856
  0
LINE
  5
FDD
330
1F
100
AcDbEntity
  8
SANINDUSA
100
AcDbLine
 10
348.9442819720538
 20
249.2142051260846
 30
0.0000000000545588
 11
348.9442819720538
 21
249.2182051260846
 31
0.0000000000545588
  0
LINE
  5
FDE
330
1F
100
AcDbEntity
  8
SANINDUSA
100
AcDbLine
 10
348.9442819720538
 20
249.2055051260846
 30
0.0000000000545588
 11
348.9442819720538
 21
249.2065051260845
 31
0.0000000000545588
1001
GENIUS_GENREC_14
1002
{
1000
PYDIR
1011
349.0272819720538
1021
249.2065051260845
1031
0.0000000000545588
1002
}
1002
{
1000
PXDIR
1011
348.9742819720538
1021
249.2055051260846
1031
0.0000000000545588
1002
}
1002
{
1000
PORI
1011
349.0272819720538
1021
249.2055051260846
1031
0.0000000000545588
1002
}
1002
{
1000
PINS
1011
349.0272819720538
1021
249.2055051260846
1031
0.0000000000545588
1002
}
1002
{
1000
PINS2
1011
348.9742819720538
1021
249.2065051260845
1031
0.0000000000545588
1002
}
1002
{
1000
C
1070
     1
1002
}
1001
GENIUS_GENODEF_13
1002
{
1000
HIER
1070
     0
1002
}
1002
{
1000
MANEDIT
1070
     0
1002
}
1002
{
1000
NOSEL
1070
     0
1002
}
1002
{
1000
BEHIND
1070
     0
1002
}
1002
{
1000
REACTOR
1002
}
1001
GENIUS_GENOBJ-N-REC_13
1002
{
1000
OWNER
1000
GEN
1002
}
  0
LINE
  5
FDF
330
1F
100
AcDbEntity
  8
SANINDUSA
100
AcDbLine
 10
348.9503930831648
 20
249.1954050737904
 30
0.0000000000545588
 11
348.9503930831648
 21
249.2034050737909
 31
0.0000000000545588
  0
LINE
  5
FE0
330
1F
100
AcDbEntity
  8
SANINDUSA
100
AcDbLine
 10
348.9442819720538
 20
249.2034050737909
 30
0.0000000000545588
 11
348.9442819720537
 21
249.2054050737908
 31
0.0000000000545588
  0
LINE
  5
FE1
330
1F
100
AcDbEntity
  8
SANINDUSA
100
AcDbLine
 10
348.9577819720538
 20
249.2128051260845
 30
0.0000000000545588
 11
348.9577819720538
 21
249.2068051260845
 31
0.0000000000545588
1001
GENIUS_GENREC_14
1002
{
1000
PYDIR
1011
349.1107819720538
1021
249.2066051260846
1031
0.0000000000545588
1002
}
1002
{
1000
PXDIR
1011
348.9607819720538
1021
249.2126051260846
1031
0.0000000000545588
1002
}
1002
{
1000
PORI
1011
349.1107819720538
1021
249.2126051260846
1031
0.0000000000545588
1002
}
1002
{
1000
PINS
1011
349.1107819720538
1021
249.2126051260846
1031
0.0000000000545588
1002
}
1002
{
1000
PINS2
1011
348.9607819720538
1021
249.2068051260845
1031
0.0000000000545588
1002
}
1002
{
1000
C
1070
     1
1002
}
1001
GENIUS_GENODEF_13
1002
{
1000
HIER
1070
     0
1002
}
1002
{
1000
MANEDIT
1070
     0
1002
}
1002
{
1000
NOSEL
1070
     0
1002
}
1002
{
1000
BEHIND
1070
     0
1002
}
1002
{
1000
REACTOR
1002
}
1001
GENIUS_GENOBJ-N-REC_13
1002
{
1000
OWNER
1000
GEN
1002
}
  0
LINE
  5
FE2
330
1F
100
AcDbEntity
  8
SANINDUSA
100
AcDbLine
 10
348.9742819720538
 20
249.2142051260846
 30
0.0000000000545588
 11
348.9742819720538
 21
249.2182051260846
 31
0.0000000000545588
  0
LINE
  5
FE3
330
1F
100
AcDbEntity
  8
SANINDUSA
100
AcDbLine
 10
348.9742819720538
 20
249.2056051260846
 30
0.0000000000545588
 11
348.9742819720538
 21
249.2066051260846
 31
0.0000000000545588
1001
GENIUS_GENREC_14
1002
{
1000
PYDIR
1011
349.0272819720538
1021
249.2066051260846
1031
0.0000000000545588
1002
}
1002
{
1000
PXDIR
1011
348.9742819720538
1021
249.2056051260846
1031
0.0000000000545588
1002
}
1002
{
1000
PORI
1011
349.0272819720538
1021
249.2056051260846
1031
0.0000000000545588
1002
}
1002
{
1000
PINS
1011
349.0272819720538
1021
249.2056051260846
1031
0.0000000000545588
1002
}
1002
{
1000
PINS2
1011
348.9742819720538
1021
249.2066051260846
1031
0.0000000000545588
1002
}
1002
{
1000
C
1070
     1
1002
}
1001
GENIUS_GENODEF_13
1002
{
1000
HIER
1070
     0
1002
}
1002
{
1000
MANEDIT
1070
     0
1002
}
1002
{
1000
NOSEL
1070
     0
1002
}
1002
{
1000
BEHIND
1070
     0
1002
}
1002
{
1000
REACTOR
1002
}
1001
GENIUS_GENOBJ-N-REC_13
1002
{
1000
OWNER
1000
GEN
1002
}
  0
ARC
  5
FE4
330
1F
100
AcDbEntity
  8
SANINDUSA
100
AcDbCircle
 10
348.9752819720538
 20
249.2182051260846
 30
0.0000000000545588
 40
0.001
100
AcDbArc
 50
90.0
 51
180.0
  0
LINE
  5
FE5
330
1F
100
AcDbEntity
  8
SANINDUSA
100
AcDbLine
 10
348.9607819720538
 20
249.2128051327602
 30
0.0000000000545588
 11
348.9607819720538
 21
249.2068051327602
 31
0.0000000000545586
  0
LINE
  5
FE6
330
1F
100
AcDbEntity
  8
SANINDUSA
100
AcDbLine
 10
348.9607819720538
 20
249.2128051327602
 30
0.0000000000545587
 11
348.9607819720538
 21
249.2068051327602
 31
0.0000000000545587
  0
LINE
  5
FE7
330
1F
100
AcDbEntity
  8
SANINDUSA
100
AcDbLine
 10
348.9681708609428
 20
249.195405073791
 30
0.0000000000545588
 11
348.9681708609428
 21
249.2034051260846
 31
0.0000000000545588
  0
LINE
  5
FE8
330
1F
100
AcDbEntity
  8
SANINDUSA
100
AcDbLine
 10
348.9742819720538
 20
249.2034051260846
 30
0.0000000000545588
 11
348.9592819720538
 21
249.203405073791
 31
0.0000000000545588
  0
LINE
  5
FE9
330
1F
100
AcDbEntity
  8
SANINDUSA
100
AcDbLine
 10
348.9742819720538
 20
249.2054051260846
 30
0.0000000000545588
 11
348.9742819720538
 21
249.2034051260846
 31
0.0000000000545588
  0
CIRCLE
  5
FEA
330
1F
100
AcDbEntity
  8
SANINDUSA
100
AcDbCircle
 10
348.9592819720538
 20
249.195405073791
 30
0.0000000000545588
 40
0.008
  0
LINE
  5
FEB
330
1F
100
AcDbEntity
  8
SANINDUSA
100
AcDbLine
 10
348.9442819720538
 20
249.2034050737909
 30
0.0000000000545588
 11
348.9592820176501
 21
249.2034050737909
 31
0.0000000000545588
  0
LINE
  5
FEC
330
1F
100
AcDbEntity
  8
SANINDUSA
100
AcDbLine
 10
349.0272819720538
 20
249.2142051260846
 30
0.0000000000545588
 11
349.0272819720538
 21
249.2182051260846
 31
0.0000000000545588
  0
LINE
  5
FED
330
1F
100
AcDbEntity
  8
SANINDUSA
100
AcDbLine
 10
349.0272819720538
 20
249.2066051260846
 30
0.0000000000545588
 11
349.0272819720538
 21
249.2056051260846
 31
0.0000000000545588
1001
GENIUS_GENREC_14
1002
{
1000
PYDIR
1011
349.0272819720538
1021
249.2066051260846
1031
0.0000000000545588
1002
}
1002
{
1000
PXDIR
1011
348.9742819720538
1021
249.2056051260846
1031
0.0000000000545588
1002
}
1002
{
1000
PORI
1011
349.0272819720538
1021
249.2056051260846
1031
0.0000000000545588
1002
}
1002
{
1000
PINS
1011
349.0272819720538
1021
249.2056051260846
1031
0.0000000000545588
1002
}
1002
{
1000
PINS2
1011
348.9742819720538
1021
249.2066051260846
1031
0.0000000000545588
1002
}
1002
{
1000
C
1070
     1
1002
}
1001
GENIUS_GENODEF_13
1002
{
1000
HIER
1070
     0
1002
}
1002
{
1000
MANEDIT
1070
     0
1002
}
1002
{
1000
NOSEL
1070
     0
1002
}
1002
{
1000
BEHIND
1070
     0
1002
}
1002
{
1000
REACTOR
1002
}
1001
GENIUS_GENOBJ-N-REC_13
1002
{
1000
OWNER
1000
GEN
1002
}
  0
ARC
  5
FEE
330
1F
100
AcDbEntity
  8
SANINDUSA
100
AcDbCircle
 10
349.0262819720538
 20
249.2182051260846
 30
0.0000000000545588
 40
0.001
100
AcDbArc
 50
0.0
 51
90.0
  0
ARC
  5
FEF
330
1F
100
AcDbEntity
  8
SANINDUSA
100
AcDbCircle
 10
349.0262819720538
 20
249.196405073791
 30
0.0000000000545588
 40
0.001
100
AcDbArc
 50
270.0
 51
0.0
  0
LINE
  5
FF0
330
1F
100
AcDbEntity
  8
SANINDUSA
100
AcDbLine
 10
349.0272819720538
 20
249.2054051260846
 30
0.0000000000545588
 11
349.0272819720538
 21
249.196405073791
 31
0.0000000000545588
  0
LINE
  5
FF1
330
1F
100
AcDbEntity
  8
SANINDUSA
100
AcDbLine
 10
348.9681708609428
 20
249.195405073791
 30
0.0000000000545588
 11
349.0262819720538
 21
249.195405073791
 31
0.0000000000545588
  0
LWPOLYLINE
  5
FF2
330
1F
100
AcDbEntity
  8
SANINDUSA
100
AcDbPolyline
 90
        2
 70
     0
 43
0.0
 10
349.0272819720538
 20
249.2056051260846
 10
348.9742819720538
 20
249.2056051260846
1001
GENIUS_GENREC_14
1002
{
1000
PYDIR
1011
348.7279997149747
1021
249.0436443208544
1031
0.0000000000545588
1002
}
1002
{
1000
PXDIR
1011
348.6749997149747
1021
249.0446443208544
1031
0.0000000000545588
1002
}
1002
{
1000
PORI
1011
348.7279997149747
1021
249.0446443208544
1031
0.0000000000545588
1002
}
1002
{
1000
PINS
1011
348.7279997149747
1021
249.0446443208544
1031
0.0000000000545588
1002
}
1002
{
1000
PINS2
1011
348.6749997149747
1021
249.0436443208544
1031
0.0000000000545588
1002
}
1002
{
1000
C
1070
     1
1002
}
1001
GENIUS_GENODEF_13
1002
{
1000
HIER
1070
     0
1002
}
1002
{
1000
MANEDIT
1070
     0
1002
}
1002
{
1000
NOSEL
1070
     0
1002
}
1002
{
1000
BEHIND
1070
     0
1002
}
1002
{
1000
REACTOR
1002
}
1001
GENIUS_GENOBJ-N-REC_13
1002
{
1000
OWNER
1000
GEN
1002
}
  0
LWPOLYLINE
  5
FF3
330
1F
100
AcDbEntity
  8
SANINDUSA
100
AcDbPolyline
 90
        2
 70
     0
 43
0.0
 10
348.9742819720538
 20
249.2066051260846
 10
349.0272819720538
 20
249.2066051260846
1001
GENIUS_GENREC_14
1002
{
1000
PYDIR
1011
348.7279997149747
1021
249.0436443208544
1031
0.0000000000545588
1002
}
1002
{
1000
PXDIR
1011
348.6749997149747
1021
249.0446443208544
1031
0.0000000000545588
1002
}
1002
{
1000
PORI
1011
348.7279997149747
1021
249.0446443208544
1031
0.0000000000545588
1002
}
1002
{
1000
PINS
1011
348.7279997149747
1021
249.0446443208544
1031
0.0000000000545588
1002
}
1002
{
1000
PINS2
1011
348.6749997149747
1021
249.0436443208544
1031
0.0000000000545588
1002
}
1002
{
1000
C
1070
     1
1002
}
1001
GENIUS_GENODEF_13
1002
{
1000
HIER
1070
     0
1002
}
1002
{
1000
MANEDIT
1070
     0
1002
}
1002
{
1000
NOSEL
1070
     0
1002
}
1002
{
1000
BEHIND
1070
     0
1002
}
1002
{
1000
REACTOR
1002
}
1001
GENIUS_GENOBJ-N-REC_13
1002
{
1000
OWNER
1000
GEN
1002
}
  0
LWPOLYLINE
  5
FF4
330
1F
100
AcDbEntity
  8
SANINDUSA
100
AcDbPolyline
 90
        4
 70
     1
 43
0.0
 10
349.0272819720538
 20
249.2140051260846
 10
348.9742819720538
 20
249.2140051260846
 10
348.9742819720538
 20
249.2130051260846
 10
349.0272819720538
 20
249.2130051260846
1001
GENIUS_GENREC_14
1002
{
1000
PYDIR
1011
348.7279997149747
1021
249.0434443208544
1031
0.0000000000545588
1002
}
1002
{
1000
PXDIR
1011
348.6749997149747
1021
249.0444443208544
1031
0.0000000000545588
1002
}
1002
{
1000
PORI
1011
348.7279997149747
1021
249.0444443208544
1031
0.0000000000545588
1002
}
1002
{
1000
PINS
1011
348.7279997149747
1021
249.0444443208544
1031
0.0000000000545588
1002
}
1002
{
1000
PINS2
1011
348.6749997149747
1021
249.0434443208544
1031
0.0000000000545588
1002
}
1002
{
1000
C
1070
     1
1002
}
1001
GENIUS_GENODEF_13
1002
{
1000
HIER
1070
     0
1002
}
1002
{
1000
MANEDIT
1070
     0
1002
}
1002
{
1000
NOSEL
1070
     0
1002
}
1002
{
1000
BEHIND
1070
     0
1002
}
1002
{
1000
REACTOR
1002
}
1001
GENIUS_GENOBJ-N-REC_13
1002
{
1000
OWNER
1000
GEN
1002
}
  0
LINE
  5
FF5
330
1F
100
AcDbEntity
  8
SANINDUSA
100
AcDbLine
 10
349.0272819720538
 20
249.2054051260846
 30
0.0000000000545588
 11
348.9742819720538
 21
249.2054051260846
 31
0.0000000000545588
  0
LINE
  5
FF6
330
1F
100
AcDbEntity
  8
SANINDUSA
100
AcDbLine
 10
348.9742819720538
 20
249.2142051260846
 30
0.0000000000545588
 11
349.0272819720538
 21
249.2142051260846
 31
0.0000000000545588
  0
LINE
  5
FF7
330
1F
100
AcDbEntity
  8
SANINDUSA
100
AcDbLine
 10
349.0262819720538
 20
249.2192051260846
 30
0.0000000000545588
 11
348.9752819720538
 21
249.2192051260846
 31
0.0000000000545588
  0
ARC
  5
FF8
330
1F
100
AcDbEntity
  8
SANINDUSA
100
AcDbCircle
 10
348.9432819720538
 20
249.2182051260846
 30
0.0000000000545588
 40
0.001
100
AcDbArc
 50
0.0
 51
90.0
  0
LINE
  5
FF9
330
1F
100
AcDbEntity
  8
SANINDUSA
100
AcDbLine
 10
348.8912819720539
 20
249.2142051260846
 30
0.0000000000545588
 11
348.8912819720539
 21
249.2182051260846
 31
0.0000000000545588
  0
LINE
  5
FFA
330
1F
100
AcDbEntity
  8
SANINDUSA
100
AcDbLine
 10
348.8912819720539
 20
249.2065051260845
 30
0.0000000000545588
 11
348.8912819720539
 21
249.2055051260846
 31
0.0000000000545588
1001
GENIUS_GENREC_14
1002
{
1000
PYDIR
1011
349.0272819720538
1021
249.2065051260845
1031
0.0000000000545588
1002
}
1002
{
1000
PXDIR
1011
348.9742819720538
1021
249.2055051260846
1031
0.0000000000545588
1002
}
1002
{
1000
PORI
1011
349.0272819720538
1021
249.2055051260846
1031
0.0000000000545588
1002
}
1002
{
1000
PINS
1011
349.0272819720538
1021
249.2055051260846
1031
0.0000000000545588
1002
}
1002
{
1000
PINS2
1011
348.9742819720538
1021
249.2065051260845
1031
0.0000000000545588
1002
}
1002
{
1000
C
1070
     1
1002
}
1001
GENIUS_GENODEF_13
1002
{
1000
HIER
1070
     0
1002
}
1002
{
1000
MANEDIT
1070
     0
1002
}
1002
{
1000
NOSEL
1070
     0
1002
}
1002
{
1000
BEHIND
1070
     0
1002
}
1002
{
1000
REACTOR
1002
}
1001
GENIUS_GENOBJ-N-REC_13
1002
{
1000
OWNER
1000
GEN
1002
}
  0
ARC
  5
FFB
330
1F
100
AcDbEntity
  8
SANINDUSA
100
AcDbCircle
 10
348.8922819720538
 20
249.2182051260846
 30
0.0000000000545588
 40
0.001
100
AcDbArc
 50
90.0
 51
180.0
  0
ARC
  5
FFC
330
1F
100
AcDbEntity
  8
SANINDUSA
100
AcDbCircle
 10
348.8922819720538
 20
249.1964050737904
 30
0.0000000000545588
 40
0.001
100
AcDbArc
 50
180.0
 51
270.0
  0
LINE
  5
FFD
330
1F
100
AcDbEntity
  8
SANINDUSA
100
AcDbLine
 10
348.8912819720537
 20
249.2054050737908
 30
0.0000000000545588
 11
348.8912819720539
 21
249.1964050737904
 31
0.0000000000545588
  0
LINE
  5
12DE
330
1F
100
AcDbEntity
  8
SANINDUSA
100
AcDbLine
 10
347.9945511034467
 20
248.5739219967959
 30
-0.0000000017937957
 11
348.0526622145577
 21
248.5739219967959
 31
-0.0000000017937957
  0
LINE
  5
12DF
330
1F
100
AcDbEntity
  8
SANINDUSA
100
AcDbLine
 10
348.0526622145577
 20
248.5389219967959
 30
-0.0000000017937957
 11
347.9936622145577
 21
248.5389219967959
 31
-0.0000000017937957
  0
LINE
  5
12E0
330
1F
100
AcDbEntity
  8
SANINDUSA
100
AcDbLine
 10
347.9945511034467
 20
248.5544219967959
 30
-0.0000000017937957
 11
347.9945511034467
 21
248.5739219967959
 31
-0.0000000017937957
  0
LINE
  5
12E1
330
1F
100
AcDbEntity
  8
SANINDUSA
100
AcDbLine
 10
347.9936622145578
 20
248.5584219967959
 30
-0.0000000017937957
 11
347.9936622145578
 21
248.5794219967959
 31
-0.0000000017937957
  0
LINE
  5
12E2
330
1F
100
AcDbEntity
  8
SANINDUSA
100
AcDbLine
 10
347.9936622145577
 20
248.5544219967959
 30
-0.0000000017937957
 11
347.9776622145577
 21
248.5544219967959
 31
-0.0000000017937957
  0
LINE
  5
12E3
330
1F
100
AcDbEntity
  8
SANINDUSA
100
AcDbLine
 10
347.9767733256688
 20
248.5584219967959
 30
-0.0000000017937957
 11
347.9936622145578
 21
248.5584219967959
 31
-0.0000000017937957
  0
LINE
  5
12E4
330
1F
100
AcDbEntity
  8
SANINDUSA
100
AcDbLine
 10
347.9936622145577
 20
248.5544219967959
 30
-0.0000000017937957
 11
347.9945511034467
 21
248.5544219967959
 31
-0.0000000017937957
  0
LINE
  5
12E5
330
1F
100
AcDbEntity
  8
SANINDUSA
100
AcDbLine
 10
347.9931622145577
 20
248.5584219967959
 30
-0.0000000017937957
 11
347.9931622145577
 21
248.5544219967959
 31
-0.0000000017937957
  0
LINE
  5
12E6
330
1F
100
AcDbEntity
  8
SANINDUSA
100
AcDbLine
 10
347.9786622145577
 20
248.5324219967959
 30
-0.0000000017937957
 11
347.9926622145577
 21
248.5324219967959
 31
-0.0000000017937957
  0
ARC
  5
12E7
330
1F
100
AcDbEntity
  8
SANINDUSA
100
AcDbCircle
 10
347.9926622145577
 20
248.5334219967959
 30
-0.0000000017937957
 40
0.001
100
AcDbArc
 50
270.0
 51
0.0
  0
LINE
  5
12E8
330
1F
100
AcDbEntity
  8
SANINDUSA
100
AcDbLine
 10
347.9936622145577
 20
248.5334219967959
 30
-0.0000000017937957
 11
347.9936622145577
 21
248.5544219967959
 31
-0.0000000017937957
  0
LINE
  5
12E9
330
1F
100
AcDbEntity
  8
SANINDUSA
100
AcDbLine
 10
347.9926622145578
 20
248.5804219967959
 30
-0.0000000017937957
 11
347.9786622145578
 21
248.5804219967959
 31
-0.0000000017937957
  0
ARC
  5
12EA
330
1F
100
AcDbEntity
  8
SANINDUSA
100
AcDbCircle
 10
347.9926622145578
 20
248.5794219967959
 30
-0.0000000017937957
 40
0.001
100
AcDbArc
 50
0.0
 51
90.0
  0
LINE
  5
12EB
330
1F
100
AcDbEntity
  8
SANINDUSA
100
AcDbLine
 10
348.0536622145577
 20
248.5729219967959
 30
-0.0000000017937957
 11
348.0536622145577
 21
248.5399219967959
 31
-0.0000000017937957
  0
ARC
  5
12EC
330
1F
100
AcDbEntity
  8
SANINDUSA
100
AcDbCircle
 10
348.0526622145577
 20
248.5399219967959
 30
-0.0000000017937957
 40
0.001
100
AcDbArc
 50
270.0
 51
0.0
  0
ARC
  5
12ED
330
1F
100
AcDbEntity
  8
SANINDUSA
100
AcDbCircle
 10
348.0526622145577
 20
248.5729219967959
 30
-0.0000000017937957
 40
0.001
100
AcDbArc
 50
0.0
 51
90.0
  0
LINE
  5
12EE
330
1F
100
AcDbEntity
  8
SANINDUSA
100
AcDbLine
 10
347.9776622145578
 20
248.5739219967959
 30
-0.0000000017937957
 11
347.9186622145578
 21
248.5739219967959
 31
-0.0000000017937957
  0
LINE
  5
12EF
330
1F
100
AcDbEntity
  8
SANINDUSA
100
AcDbLine
 10
347.9186622145578
 20
248.5389219967959
 30
-0.0000000017937957
 11
347.9767733256688
 21
248.5389219967959
 31
-0.0000000017937957
  0
LINE
  5
12F0
330
1F
100
AcDbEntity
  8
SANINDUSA
100
AcDbLine
 10
347.9176622145578
 20
248.5729219967959
 30
-0.0000000017937957
 11
347.9176622145578
 21
248.5399219967959
 31
-0.0000000017937957
  0
ARC
  5
12F1
330
1F
100
AcDbEntity
  8
SANINDUSA
100
AcDbCircle
 10
347.9186622145578
 20
248.5399219967959
 30
-0.0000000017937957
 40
0.001
100
AcDbArc
 50
180.0
 51
270.0
  0
ARC
  5
12F2
330
1F
100
AcDbEntity
  8
SANINDUSA
100
AcDbCircle
 10
347.9186622145578
 20
248.5729219967959
 30
-0.0000000017937957
 40
0.001
100
AcDbArc
 50
90.0
 51
180.0
  0
LINE
  5
12F3
330
1F
100
AcDbEntity
  8
SANINDUSA
100
AcDbLine
 10
347.9776622145578
 20
248.5739219967959
 30
-0.0000000017937957
 11
347.9776622145578
 21
248.5584219967959
 31
-0.0000000017937957
  0
ARC
  5
12F4
330
1F
100
AcDbEntity
  8
SANINDUSA
100
AcDbCircle
 10
347.9786622145577
 20
248.5334219967959
 30
-0.0000000017937957
 40
0.001
100
AcDbArc
 50
180.0
 51
270.0
  0
LINE
  5
12F5
330
1F
100
AcDbEntity
  8
SANINDUSA
100
AcDbLine
 10
347.9767733256688
 20
248.5389219967959
 30
-0.0000000017937957
 11
347.9767733256688
 21
248.5584219967959
 31
-0.0000000017937957
  0
LINE
  5
12F6
330
1F
100
AcDbEntity
  8
SANINDUSA
100
AcDbLine
 10
347.9776622145577
 20
248.5544219967959
 30
-0.0000000017937957
 11
347.9776622145577
 21
248.5334219967959
 31
-0.0000000017937957
  0
LINE
  5
12F7
330
1F
100
AcDbEntity
  8
SANINDUSA
100
AcDbLine
 10
347.9781622145577
 20
248.5584219967959
 30
-0.0000000017937957
 11
347.9781622145577
 21
248.5544219967959
 31
-0.0000000017937957
  0
ARC
  5
12F8
330
1F
100
AcDbEntity
  8
SANINDUSA
100
AcDbCircle
 10
347.9786622145578
 20
248.5794219967959
 30
-0.0000000017937957
 40
0.001
100
AcDbArc
 50
90.0
 51
180.0
  0
LINE
  5
12F9
330
1F
100
AcDbEntity
  8
SANINDUSA
100
AcDbLine
 10
347.9776622145578
 20
248.5794219967959
 30
-0.0000000017937957
 11
347.9776622145578
 21
248.5739219967959
 31
-0.0000000017937957
  0
LINE
  5
12FA
330
1F
100
AcDbEntity
  8
SANINDUSA
100
AcDbLine
 10
347.9945511034467
 20
249.8339219967863
 30
-0.0000000017937957
 11
348.0526622145577
 21
249.8339219967863
 31
-0.0000000017937957
  0
LINE
  5
12FB
330
1F
100
AcDbEntity
  8
SANINDUSA
100
AcDbLine
 10
348.0526622145577
 20
249.7989219967863
 30
-0.0000000017937957
 11
347.9936622145577
 21
249.7989219967863
 31
-0.0000000017937957
  0
LINE
  5
12FC
330
1F
100
AcDbEntity
  8
SANINDUSA
100
AcDbLine
 10
347.9945511034467
 20
249.8144219967862
 30
-0.0000000017937957
 11
347.9945511034467
 21
249.8339219967863
 31
-0.0000000017937957
  0
LINE
  5
12FD
330
1F
100
AcDbEntity
  8
SANINDUSA
100
AcDbLine
 10
347.9936622145578
 20
249.8184219967862
 30
-0.0000000017937957
 11
347.9936622145578
 21
249.8394219967862
 31
-0.0000000017937957
  0
LINE
  5
12FE
330
1F
100
AcDbEntity
  8
SANINDUSA
100
AcDbLine
 10
347.9936622145577
 20
249.8144219967862
 30
-0.0000000017937957
 11
347.9776622145577
 21
249.8144219967862
 31
-0.0000000017937957
  0
LINE
  5
12FF
330
1F
100
AcDbEntity
  8
SANINDUSA
100
AcDbLine
 10
347.9767733256688
 20
249.8184219967862
 30
-0.0000000017937957
 11
347.9936622145578
 21
249.8184219967862
 31
-0.0000000017937957
  0
LINE
  5
1300
330
1F
100
AcDbEntity
  8
SANINDUSA
100
AcDbLine
 10
347.9936622145577
 20
249.8144219967862
 30
-0.0000000017937957
 11
347.9945511034467
 21
249.8144219967862
 31
-0.0000000017937957
  0
LINE
  5
1301
330
1F
100
AcDbEntity
  8
SANINDUSA
100
AcDbLine
 10
347.9931622145577
 20
249.8184219967862
 30
-0.0000000017937957
 11
347.9931622145577
 21
249.8144219967862
 31
-0.0000000017937957
  0
LINE
  5
1302
330
1F
100
AcDbEntity
  8
SANINDUSA
100
AcDbLine
 10
347.9786622145577
 20
249.7924219967863
 30
-0.0000000017937957
 11
347.9926622145577
 21
249.7924219967863
 31
-0.0000000017937957
  0
ARC
  5
1303
330
1F
100
AcDbEntity
  8
SANINDUSA
100
AcDbCircle
 10
347.9926622145577
 20
249.7934219967862
 30
-0.0000000017937957
 40
0.001
100
AcDbArc
 50
270.0
 51
0.0
  0
LINE
  5
1304
330
1F
100
AcDbEntity
  8
SANINDUSA
100
AcDbLine
 10
347.9936622145577
 20
249.7934219967862
 30
-0.0000000017937957
 11
347.9936622145577
 21
249.8144219967862
 31
-0.0000000017937957
  0
LINE
  5
1305
330
1F
100
AcDbEntity
  8
SANINDUSA
100
AcDbLine
 10
347.9926622145578
 20
249.8404219967862
 30
-0.0000000017937957
 11
347.9786622145578
 21
249.8404219967862
 31
-0.0000000017937957
  0
ARC
  5
1306
330
1F
100
AcDbEntity
  8
SANINDUSA
100
AcDbCircle
 10
347.9926622145578
 20
249.8394219967862
 30
-0.0000000017937957
 40
0.001
100
AcDbArc
 50
0.0
 51
90.0
  0
LINE
  5
1307
330
1F
100
AcDbEntity
  8
SANINDUSA
100
AcDbLine
 10
348.0536622145577
 20
249.8329219967863
 30
-0.0000000017937957
 11
348.0536622145577
 21
249.7999219967863
 31
-0.0000000017937957
  0
ARC
  5
1308
330
1F
100
AcDbEntity
  8
SANINDUSA
100
AcDbCircle
 10
348.0526622145577
 20
249.7999219967863
 30
-0.0000000017937957
 40
0.001
100
AcDbArc
 50
270.0
 51
0.0
  0
ARC
  5
1309
330
1F
100
AcDbEntity
  8
SANINDUSA
100
AcDbCircle
 10
348.0526622145577
 20
249.8329219967863
 30
-0.0000000017937957
 40
0.001
100
AcDbArc
 50
0.0
 51
90.0
  0
LINE
  5
130A
330
1F
100
AcDbEntity
  8
SANINDUSA
100
AcDbLine
 10
347.9776622145578
 20
249.8339219967863
 30
-0.0000000017937957
 11
347.9186622145578
 21
249.8339219967863
 31
-0.0000000017937957
  0
LINE
  5
130B
330
1F
100
AcDbEntity
  8
SANINDUSA
100
AcDbLine
 10
347.9186622145578
 20
249.7989219967863
 30
-0.0000000017937957
 11
347.9767733256688
 21
249.7989219967863
 31
-0.0000000017937957
  0
LINE
  5
130C
330
1F
100
AcDbEntity
  8
SANINDUSA
100
AcDbLine
 10
347.9176622145578
 20
249.8329219967863
 30
-0.0000000017937957
 11
347.9176622145578
 21
249.7999219967863
 31
-0.0000000017937957
  0
ARC
  5
130D
330
1F
100
AcDbEntity
  8
SANINDUSA
100
AcDbCircle
 10
347.9186622145578
 20
249.7999219967863
 30
-0.0000000017937957
 40
0.001
100
AcDbArc
 50
180.0
 51
270.0
  0
ARC
  5
130E
330
1F
100
AcDbEntity
  8
SANINDUSA
100
AcDbCircle
 10
347.9186622145578
 20
249.8329219967863
 30
-0.0000000017937957
 40
0.001
100
AcDbArc
 50
90.0
 51
180.0
  0
LINE
  5
130F
330
1F
100
AcDbEntity
  8
SANINDUSA
100
AcDbLine
 10
347.9776622145578
 20
249.8339219967863
 30
-0.0000000017937957
 11
347.9776622145578
 21
249.8184219967862
 31
-0.0000000017937957
  0
ARC
  5
1310
330
1F
100
AcDbEntity
  8
SANINDUSA
100
AcDbCircle
 10
347.9786622145577
 20
249.7934219967862
 30
-0.0000000017937957
 40
0.001
100
AcDbArc
 50
180.0
 51
270.0
  0
LINE
  5
1311
330
1F
100
AcDbEntity
  8
SANINDUSA
100
AcDbLine
 10
347.9767733256688
 20
249.7989219967863
 30
-0.0000000017937957
 11
347.9767733256688
 21
249.8184219967862
 31
-0.0000000017937957
  0
LINE
  5
1312
330
1F
100
AcDbEntity
  8
SANINDUSA
100
AcDbLine
 10
347.9776622145577
 20
249.8144219967862
 30
-0.0000000017937957
 11
347.9776622145577
 21
249.7934219967862
 31
-0.0000000017937957
  0
LINE
  5
1313
330
1F
100
AcDbEntity
  8
SANINDUSA
100
AcDbLine
 10
347.9781622145577
 20
249.8184219967862
 30
-0.0000000017937957
 11
347.9781622145577
 21
249.8144219967862
 31
-0.0000000017937957
  0
ARC
  5
1314
330
1F
100
AcDbEntity
  8
SANINDUSA
100
AcDbCircle
 10
347.9786622145578
 20
249.8394219967863
 30
-0.0000000017937957
 40
0.001
100
AcDbArc
 50
90.0
 51
180.0
  0
LINE
  5
1315
330
1F
100
AcDbEntity
  8
SANINDUSA
100
AcDbLine
 10
347.9776622145578
 20
249.8394219967863
 30
-0.0000000017937957
 11
347.9776622145578
 21
249.8339219967863
 31
-0.0000000017937957
  0
ENDSEC
  0
SECTION
  2
OBJECTS
  0
DICTIONARY
  5
C
330
0
100
AcDbDictionary
281
     1
  3
ACAD_COLOR
350
1345
  3
ACAD_GROUP
350
D
  3
ACAD_LAYOUT
350
1A
  3
ACAD_MATERIAL
350
1318
  3
ACAD_MLEADERSTYLE
350
135A
  3
ACAD_MLINESTYLE
350
17
  3
ACAD_PLOTSETTINGS
350
19
  3
ACAD_PLOTSTYLENAME
350
E
  3
ACAD_SCALELIST
350
1348
  3
ACAD_TABLESTYLE
350
1346
  3
ACAD_VISUALSTYLE
350
1331
  3
ACDB_RECOMPOSE_DATA
350
1420
  3
AcDbVariableDictionary
350
3D
  3
ASE_INDEX_DICTIONARY
350
1299
  3
DWGPROPS
350
1421
  0
DICTIONARY
  5
13A2
330
8
100
AcDbDictionary
280
     1
281
     1
  0
DICTIONARY
  5
1380
330
10
100
AcDbDictionary
280
     1
281
     1
  3
ADSK_XREC_LAYER_RECONCILED
360
1381
  0
DICTIONARY
  5
1382
330
2F
100
AcDbDictionary
280
     1
281
     1
  3
ADSK_XREC_LAYER_RECONCILED
360
1383
  0
DICTIONARY
  5
1384
330
30
100
AcDbDictionary
280
     1
281
     1
  3
ADSK_XREC_LAYER_RECONCILED
360
1385
  0
DICTIONARY
  5
1386
330
31
100
AcDbDictionary
280
     1
281
     1
  3
ADSK_XREC_LAYER_RECONCILED
360
1387
  0
DICTIONARY
  5
1388
330
32
100
AcDbDictionary
280
     1
281
     1
  3
ADSK_XREC_LAYER_RECONCILED
360
1389
  0
DICTIONARY
  5
138A
330
33
100
AcDbDictionary
280
     1
281
     1
  3
ADSK_XREC_LAYER_RECONCILED
360
138B
  0
DICTIONARY
  5
138C
330
34
100
AcDbDictionary
280
     1
281
     1
  3
ADSK_XREC_LAYER_RECONCILED
360
138D
  0
DICTIONARY
  5
138E
330
35
100
AcDbDictionary
280
     1
281
     1
  3
ADSK_XREC_LAYER_RECONCILED
360
138F
  0
DICTIONARY
  5
1390
330
36
100
AcDbDictionary
280
     1
281
     1
  3
ADSK_XREC_LAYER_RECONCILED
360
1391
  0
DICTIONARY
  5
1392
330
37
100
AcDbDictionary
280
     1
281
     1
  3
ADSK_XREC_LAYER_RECONCILED
360
1393
  0
DICTIONARY
  5
1394
330
5D6
100
AcDbDictionary
280
     1
281
     1
  3
ADSK_XREC_LAYER_RECONCILED
360
1395
  0
DICTIONARY
  5
1396
330
8AF
100
AcDbDictionary
280
     1
281
     1
  3
ADSK_XREC_LAYER_RECONCILED
360
1397
  0
DICTIONARY
  5
1398
330
8F8
100
AcDbDictionary
280
     1
281
     1
  3
ADSK_XREC_LAYER_RECONCILED
360
1399
  0
DICTIONARY
  5
139A
330
91D
100
AcDbDictionary
280
     1
281
     1
  3
ADSK_XREC_LAYER_RECONCILED
360
139B
  0
DICTIONARY
  5
139C
330
137F
100
AcDbDictionary
280
     1
281
     1
  3
ADSK_XREC_LAYER_RECONCILED
360
139D
  0
DICTIONARY
  5
1345
102
{ACAD_REACTORS
330
C
102
}
330
C
100
AcDbDictionary
281
     1
  0
DICTIONARY
  5
D
102
{ACAD_REACTORS
330
C
102
}
330
C
100
AcDbDictionary
281
     1
  0
DICTIONARY
  5
1A
102
{ACAD_REACTORS
330
C
102
}
330
C
100
AcDbDictionary
281
     1
  3
Layout1
350
1E
  3
Layout2
350
26
  3
Model
350
22
  0
DICTIONARY
  5
1318
102
{ACAD_REACTORS
330
C
102
}
330
C
100
AcDbDictionary
281
     1
  3
ByBlock
350
1321
  3
ByLayer
350
1319
  3
Global
350
1329
  0
DICTIONARY
  5
135A
102
{ACAD_REACTORS
330
C
102
}
330
C
100
AcDbDictionary
281
     1
  3
Standard
350
135B
  0
DICTIONARY
  5
17
102
{ACAD_REACTORS
330
C
102
}
330
C
100
AcDbDictionary
281
     1
  3
Standard
350
18
  0
DICTIONARY
  5
19
102
{ACAD_REACTORS
330
C
102
}
330
C
100
AcDbDictionary
281
     1
  0
ACDBDICTIONARYWDFLT
  5
E
102
{ACAD_REACTORS
330
C
102
}
330
C
100
AcDbDictionary
281
     1
  3
Normal
350
F
100
AcDbDictionaryWithDefault
340
F
  0
DICTIONARY
  5
1348
102
{ACAD_REACTORS
330
C
102
}
330
C
100
AcDbDictionary
281
     1
  3
A0
350
1349
  3
A1
350
134A
  3
A2
350
134B
  3
A3
350
134C
  3
A4
350
134D
  3
A5
350
134E
  3
A6
350
134F
  3
A7
350
1350
  3
A8
350
1351
  3
A9
350
1352
  3
B0
350
1353
  3
B1
350
1354
  3
B2
350
1355
  3
B3
350
1356
  3
B4
350
1357
  3
B5
350
1358
  3
B6
350
1359
  0
DICTIONARY
  5
1346
102
{ACAD_REACTORS
330
C
102
}
330
C
100
AcDbDictionary
281
     1
  3
Standard
350
1347
  0
DICTIONARY
  5
1331
102
{ACAD_REACTORS
330
C
102
}
330
C
100
AcDbDictionary
281
     1
  3
2dWireframe
350
1337
  3
3D Hidden
350
1339
  3
3dWireframe
350
1338
  3
Basic
350
1336
  3
Brighten
350
133D
  3
ColorChange
350
1341
  3
Conceptual
350
133A
  3
Dim
350
133C
  3
EdgeColorOff
350
1344
  3
Facepattern
350
1340
  3
Flat
350
1332
  3
FlatWithEdges
350
1333
  3
Gouraud
350
1334
  3
GouraudWithEdges
350
1335
  3
JitterOff
350
1342
  3
Linepattern
350
133F
  3
OverhangOff
350
1343
  3
Realistic
350
133B
  3
Thicken
350
133E
  0
XRECORD
  5
1420
102
{ACAD_REACTORS
330
C
102
}
330
C
100
AcDbXrecord
280
     1
 90
        1
330
1347
  0
DICTIONARY
  5
3D
102
{ACAD_REACTORS
330
C
102
}
330
C
100
AcDbDictionary
281
     1
  3
CANNOSCALE
350
13DD
  3
CMLEADERSTYLE
350
13DC
  3
CTABLESTYLE
350
13DB
  3
DIMASSOC
350
3F
  3
HIDETEXT
350
3E
  3
INDEXCTL
350
13DF
  3
SORTENTS
350
13DE
  3
XCLIPFRAME
350
141E
  0
DICTIONARY
  5
1299
102
{ACAD_REACTORS
330
C
102
}
330
C
100
AcDbDictionary
281
     1
  3
ASEBlockHierarchyIndexRecord
350
129A
1001
DCO15
1040
1508220405.984
  0
XRECORD
  5
1421
102
{ACAD_REACTORS
330
C
102
}
330
C
100
AcDbXrecord
280
     1
  1
DWGPROPS COOKIE
  2

  3

  4

  6

  7

  8
Julio
  9

300
=
301
=
302
=
303
=
304
=
305
=
306
=
307
=
308
=
309
=
 40
0.007481724537037
 41
2453259.462439595
 42
2455817.50424515
  1

 90
        0
  0
XRECORD
  5
1381
102
{ACAD_REACTORS
330
1380
102
}
330
1380
100
AcDbXrecord
280
     1
290
     1
  0
XRECORD
  5
1383
102
{ACAD_REACTORS
330
1382
102
}
330
1382
100
AcDbXrecord
280
     1
290
     1
  0
XRECORD
  5
1385
102
{ACAD_REACTORS
330
1384
102
}
330
1384
100
AcDbXrecord
280
     1
290
     1
  0
XRECORD
  5
1387
102
{ACAD_REACTORS
330
1386
102
}
330
1386
100
AcDbXrecord
280
     1
290
     1
  0
XRECORD
  5
1389
102
{ACAD_REACTORS
330
1388
102
}
330
1388
100
AcDbXrecord
280
     1
290
     1
  0
XRECORD
  5
138B
102
{ACAD_REACTORS
330
138A
102
}
330
138A
100
AcDbXrecord
280
     1
290
     1
  0
XRECORD
  5
138D
102
{ACAD_REACTORS
330
138C
102
}
330
138C
100
AcDbXrecord
280
     1
290
     1
  0
XRECORD
  5
138F
102
{ACAD_REACTORS
330
138E
102
}
330
138E
100
AcDbXrecord
280
     1
290
     1
  0
XRECORD
  5
1391
102
{ACAD_REACTORS
330
1390
102
}
330
1390
100
AcDbXrecord
280
     1
290
     1
  0
XRECORD
  5
1393
102
{ACAD_REACTORS
330
1392
102
}
330
1392
100
AcDbXrecord
280
     1
290
     1
  0
XRECORD
  5
1395
102
{ACAD_REACTORS
330
1394
102
}
330
1394
100
AcDbXrecord
280
     1
290
     1
  0
XRECORD
  5
1397
102
{ACAD_REACTORS
330
1396
102
}
330
1396
100
AcDbXrecord
280
     1
290
     1
  0
XRECORD
  5
1399
102
{ACAD_REACTORS
330
1398
102
}
330
1398
100
AcDbXrecord
280
     1
290
     1
  0
XRECORD
  5
139B
102
{ACAD_REACTORS
330
139A
102
}
330
139A
100
AcDbXrecord
280
     1
290
     1
  0
XRECORD
  5
139D
102
{ACAD_REACTORS
330
139C
102
}
330
139C
100
AcDbXrecord
280
     1
290
     1
  0
LAYOUT
  5
1E
102
{ACAD_XDICTIONARY
360
1422
102
}
102
{ACAD_REACTORS
330
1A
102
}
330
1A
100
AcDbPlotSettings
  1

  2
Ploter HP500
  4

  6

 40
0.0
 41
0.0
 42
0.0
 43
0.0
 44
0.0
 45
0.0
 46
0.0
 47
0.0
 48
0.0
 49
0.0
140
0.0
141
0.0
142
1.0
143
1.0
 70
   688
 72
     0
 73
     0
 74
     5
  7
monochrome.ctb
 75
    16
147
1.0
148
0.0
149
0.0
100
AcDbLayout
  1
Layout1
 70
     1
 71
     1
 10
0.0
 20
0.0
 11
420.0
 21
297.0
 12
0.0
 22
0.0
 32
0.0
 14
1.000000000000000E+20
 24
1.000000000000000E+20
 34
1.000000000000000E+20
 15
-1.000000000000000E+20
 25
-1.000000000000000E+20
 35
-1.000000000000000E+20
146
0.0
 13
0.0
 23
0.0
 33
0.0
 16
1.0
 26
0.0
 36
0.0
 17
0.0
 27
1.0
 37
0.0
 76
     0
330
1B
  0
LAYOUT
  5
26
102
{ACAD_XDICTIONARY
360
1426
102
}
102
{ACAD_REACTORS
330
1A
102
}
330
1A
100
AcDbPlotSettings
  1

  2
Ploter HP500
  4

  6

 40
0.0
 41
0.0
 42
0.0
 43
0.0
 44
0.0
 45
0.0
 46
0.0
 47
0.0
 48
0.0
 49
0.0
140
0.0
141
0.0
142
1.0
143
1.0
 70
   688
 72
     0
 73
     0
 74
     5
  7
monochrome.ctb
 75
    16
147
1.0
148
0.0
149
0.0
100
AcDbLayout
  1
Layout2
 70
     1
 71
     2
 10
0.0
 20
0.0
 11
12.0
 21
9.0
 12
0.0
 22
0.0
 32
0.0
 14
0.0
 24
0.0
 34
0.0
 15
0.0
 25
0.0
 35
0.0
146
0.0
 13
0.0
 23
0.0
 33
0.0
 16
1.0
 26
0.0
 36
0.0
 17
0.0
 27
1.0
 37
0.0
 76
     0
330
23
  0
LAYOUT
  5
22
102
{ACAD_XDICTIONARY
360
1424
102
}
102
{ACAD_REACTORS
330
1A
102
}
330
1A
100
AcDbPlotSettings
  1

  2
Ploter HP500
  4
User268
  6

 40
4.995333194732666
 41
16.97565841674804
 42
4.995330810546875
 43
16.97567749023437
 44
209.9733276367187
 45
296.9259948730469
 46
0.0
 47
0.0
 48
0.0
 49
0.0
140
0.0
141
0.0
142
1.0
143
1.0
 70
 11952
 72
     1
 73
     1
 74
     0
  7

 75
     0
147
1.0
148
-427.5957866592534
149
7.362384574453926
100
AcDbLayout
  1
Model
 70
     1
 71
     0
 10
0.0
 20
0.0
 11
12.0
 21
9.0
 12
0.0
 22
0.0
 32
0.0
 14
0.0
 24
0.0
 34
0.0
 15
0.0
 25
0.0
 35
0.0
146
0.0
 13
0.0
 23
0.0
 33
0.0
 16
1.0
 26
0.0
 36
0.0
 17
0.0
 27
1.0
 37
0.0
 76
     0
330
1F
331
1316
  0
MATERIAL
  5
1321
102
{ACAD_XDICTIONARY
360
1322
102
}
102
{ACAD_REACTORS
330
1318
102
}
330
1318
100
AcDbMaterial
  1
ByBlock
 72
     0
 43
0.0008202099737533
 43
0.0
 43
0.0
 43
0.0
 43
0.0
 43
0.0008202099737533
 43
0.0
 43
0.0
 43
0.0
 43
0.0
 43
1.0
 43
0.0
 43
0.0
 43
0.0
 43
0.0
 43
1.0
 77
     0
 47
0.0008202099737533
 47
0.0
 47
0.0
 47
0.0
 47
0.0
 47
0.0008202099737533
 47
0.0
 47
0.0
 47
0.0
 47
0.0
 47
1.0
 47
0.0
 47
0.0
 47
0.0
 47
0.0
 47
1.0
171
     0
 49
0.0008202099737533
 49
0.0
 49
0.0
 49
0.0
 49
0.0
 49
0.0008202099737533
 49
0.0
 49
0.0
 49
0.0
 49
0.0
 49
1.0
 49
0.0
 49
0.0
 49
0.0
 49
0.0
 49
1.0
175
     0
142
0.0008202099737533
142
0.0
142
0.0
142
0.0
142
0.0
142
0.0008202099737533
142
0.0
142
0.0
142
0.0
142
0.0
142
1.0
142
0.0
142
0.0
142
0.0
142
0.0
142
1.0
179
     0
144
0.0008202099737533
144
0.0
144
0.0
144
0.0
144
0.0
144
0.0008202099737533
144
0.0
144
0.0
144
0.0
144
0.0
144
1.0
144
0.0
144
0.0
144
0.0
144
0.0
144
1.0
147
0.0008202099737533
147
0.0
147
0.0
147
0.0
147
0.0
147
0.0008202099737533
147
0.0
147
0.0
147
0.0
147
0.0
147
1.0
147
0.0
147
0.0
147
0.0
147
0.0
147
1.0
  0
MATERIAL
  5
1319
102
{ACAD_XDICTIONARY
360
131A
102
}
102
{ACAD_REACTORS
330
1318
102
}
330
1318
100
AcDbMaterial
  1
ByLayer
 72
     0
 43
0.0008202099737533
 43
0.0
 43
0.0
 43
0.0
 43
0.0
 43
0.0008202099737533
 43
0.0
 43
0.0
 43
0.0
 43
0.0
 43
1.0
 43
0.0
 43
0.0
 43
0.0
 43
0.0
 43
1.0
 77
     0
 47
0.0008202099737533
 47
0.0
 47
0.0
 47
0.0
 47
0.0
 47
0.0008202099737533
 47
0.0
 47
0.0
 47
0.0
 47
0.0
 47
1.0
 47
0.0
 47
0.0
 47
0.0
 47
0.0
 47
1.0
171
     0
 49
0.0008202099737533
 49
0.0
 49
0.0
 49
0.0
 49
0.0
 49
0.0008202099737533
 49
0.0
 49
0.0
 49
0.0
 49
0.0
 49
1.0
 49
0.0
 49
0.0
 49
0.0
 49
0.0
 49
1.0
175
     0
142
0.0008202099737533
142
0.0
142
0.0
142
0.0
142
0.0
142
0.0008202099737533
142
0.0
142
0.0
142
0.0
142
0.0
142
1.0
142
0.0
142
0.0
142
0.0
142
0.0
142
1.0
179
     0
144
0.0008202099737533
144
0.0
144
0.0
144
0.0
144
0.0
144
0.0008202099737533
144
0.0
144
0.0
144
0.0
144
0.0
144
1.0
144
0.0
144
0.0
144
0.0
144
0.0
144
1.0
147
0.0008202099737533
147
0.0
147
0.0
147
0.0
147
0.0
147
0.0008202099737533
147
0.0
147
0.0
147
0.0
147
0.0
147
1.0
147
0.0
147
0.0
147
0.0
147
0.0
147
1.0
  0
MATERIAL
  5
1329
102
{ACAD_XDICTIONARY
360
132A
102
}
102
{ACAD_REACTORS
330
1318
102
}
330
1318
100
AcDbMaterial
  1
Global
 72
     0
 43
0.0008202099737533
 43
0.0
 43
0.0
 43
0.0
 43
0.0
 43
0.0008202099737533
 43
0.0
 43
0.0
 43
0.0
 43
0.0
 43
1.0
 43
0.0
 43
0.0
 43
0.0
 43
0.0
 43
1.0
 77
     0
 47
0.0008202099737533
 47
0.0
 47
0.0
 47
0.0
 47
0.0
 47
0.0008202099737533
 47
0.0
 47
0.0
 47
0.0
 47
0.0
 47
1.0
 47
0.0
 47
0.0
 47
0.0
 47
0.0
 47
1.0
171
     0
 49
0.0008202099737533
 49
0.0
 49
0.0
 49
0.0
 49
0.0
 49
0.0008202099737533
 49
0.0
 49
0.0
 49
0.0
 49
0.0
 49
1.0
 49
0.0
 49
0.0
 49
0.0
 49
0.0
 49
1.0
175
     0
142
0.0008202099737533
142
0.0
142
0.0
142
0.0
142
0.0
142
0.0008202099737533
142
0.0
142
0.0
142
0.0
142
0.0
142
1.0
142
0.0
142
0.0
142
0.0
142
0.0
142
1.0
179
     0
144
0.0008202099737533
144
0.0
144
0.0
144
0.0
144
0.0
144
0.0008202099737533
144
0.0
144
0.0
144
0.0
144
0.0
144
1.0
144
0.0
144
0.0
144
0.0
144
0.0
144
1.0
147
0.0008202099737533
147
0.0
147
0.0
147
0.0
147
0.0
147
0.0008202099737533
147
0.0
147
0.0
147
0.0
147
0.0
147
1.0
147
0.0
147
0.0
147
0.0
147
0.0
147
1.0
  0
MLEADERSTYLE
  5
135B
102
{ACAD_REACTORS
330
135A
102
}
330
135A
100
AcDbMLeaderStyle
170
     2
171
     1
172
     0
 90
        2
 40
0.0
 41
0.0
173
     1
 91
-1056964608
340
14
 92
       -2
290
     1
 42
2.0
291
     1
 43
0.36
  3
Standard
 44
4.0
300

342
11
174
     1
178
     6
175
     1
176
     0
 93
-1056964608
 45
4.0
292
     0
297
     0
 46
4.0
 94
-1056964608
 47
1.0
 49
1.0
140
1.0
293
     1
141
0.0
294
     1
177
     0
142
1.0
295
     0
296
     0
143
0.125
1001
ACAD_MLEADERVER
1070
     2
  0
MLINESTYLE
  5
18
102
{ACAD_REACTORS
330
17
102
}
330
17
100
AcDbMlineStyle
  2
STANDARD
 70
     0
  3

 62
   256
 51
90.0
 52
90.0
 71
     2
 49
0.5
 62
   256
  6
BYLAYER
 49
-0.5
 62
   256
  6
BYLAYER
  0
ACDBPLACEHOLDER
  5
F
102
{ACAD_REACTORS
330
E
102
}
330
E
  0
SCALE
  5
1349
102
{ACAD_REACTORS
330
1348
102
}
330
1348
100
AcDbScale
 70
     0
300
1:1
140
1.0
141
1.0
290
     1
  0
SCALE
  5
134A
102
{ACAD_REACTORS
330
1348
102
}
330
1348
100
AcDbScale
 70
     0
300
1:2
140
1.0
141
2.0
290
     0
  0
SCALE
  5
134B
102
{ACAD_REACTORS
330
1348
102
}
330
1348
100
AcDbScale
 70
     0
300
1:4
140
1.0
141
4.0
290
     0
  0
SCALE
  5
134C
102
{ACAD_REACTORS
330
1348
102
}
330
1348
100
AcDbScale
 70
     0
300
1:5
140
1.0
141
5.0
290
     0
  0
SCALE
  5
134D
102
{ACAD_REACTORS
330
1348
102
}
330
1348
100
AcDbScale
 70
     0
300
1:8
140
1.0
141
8.0
290
     0
  0
SCALE
  5
134E
102
{ACAD_REACTORS
330
1348
102
}
330
1348
100
AcDbScale
 70
     0
300
1:10
140
1.0
141
10.0
290
     0
  0
SCALE
  5
134F
102
{ACAD_REACTORS
330
1348
102
}
330
1348
100
AcDbScale
 70
     0
300
1:16
140
1.0
141
16.0
290
     0
  0
SCALE
  5
1350
102
{ACAD_REACTORS
330
1348
102
}
330
1348
100
AcDbScale
 70
     0
300
1:20
140
1.0
141
20.0
290
     0
  0
SCALE
  5
1351
102
{ACAD_REACTORS
330
1348
102
}
330
1348
100
AcDbScale
 70
     0
300
1:30
140
1.0
141
30.0
290
     0
  0
SCALE
  5
1352
102
{ACAD_REACTORS
330
1348
102
}
330
1348
100
AcDbScale
 70
     0
300
1:40
140
1.0
141
40.0
290
     0
  0
SCALE
  5
1353
102
{ACAD_REACTORS
330
1348
102
}
330
1348
100
AcDbScale
 70
     0
300
1:50
140
1.0
141
50.0
290
     0
  0
SCALE
  5
1354
102
{ACAD_REACTORS
330
1348
102
}
330
1348
100
AcDbScale
 70
     0
300
1:100
140
1.0
141
100.0
290
     0
  0
SCALE
  5
1355
102
{ACAD_REACTORS
330
1348
102
}
330
1348
100
AcDbScale
 70
     0
300
2:1
140
2.0
141
1.0
290
     0
  0
SCALE
  5
1356
102
{ACAD_REACTORS
330
1348
102
}
330
1348
100
AcDbScale
 70
     0
300
4:1
140
4.0
141
1.0
290
     0
  0
SCALE
  5
1357
102
{ACAD_REACTORS
330
1348
102
}
330
1348
100
AcDbScale
 70
     0
300
8:1
140
8.0
141
1.0
290
     0
  0
SCALE
  5
1358
102
{ACAD_REACTORS
330
1348
102
}
330
1348
100
AcDbScale
 70
     0
300
10:1
140
10.0
141
1.0
290
     0
  0
SCALE
  5
1359
102
{ACAD_REACTORS
330
1348
102
}
330
1348
100
AcDbScale
 70
     0
300
100:1
140
100.0
141
1.0
290
     0
  0
TABLESTYLE
  5
1347
102
{ACAD_XDICTIONARY
360
139E
102
}
102
{ACAD_REACTORS
330
1346
102
}
330
1346
100
AcDbTableStyle
  3
Standard
 70
     0
 71
     0
 40
1.5
 41
1.5
280
     0
281
     0
  7
Standard
140
4.5
170
     2
 62
     0
 63
     7
283
     0
274
    -2
284
     1
 64
     0
275
    -2
285
     1
 65
     0
276
    -2
286
     1
 66
     0
277
    -2
287
     1
 67
     0
278
    -2
288
     1
 68
     0
279
    -2
289
     1
 69
     0
  7
Standard
140
6.0
170
     5
 62
     0
 63
     7
283
     0
274
    -2
284
     1
 64
     0
275
    -2
285
     1
 65
     0
276
    -2
286
     1
 66
     0
277
    -2
287
     1
 67
     0
278
    -2
288
     1
 68
     0
279
    -2
289
     1
 69
     0
  7
Standard
140
4.5
170
     5
 62
     0
 63
     7
283
     0
274
    -2
284
     1
 64
     0
275
    -2
285
     1
 65
     0
276
    -2
286
     1
 66
     0
277
    -2
287
     1
 67
     0
278
    -2
288
     1
 68
     0
279
    -2
289
     1
 69
     0
  0
VISUALSTYLE
  5
1337
102
{ACAD_XDICTIONARY
360
1437
102
}
102
{ACAD_REACTORS
330
1331
102
}
330
1331
100
AcDbVisualStyle
  2
2dWireframe
 70
     4
 71
     0
 72
     2
 73
     0
 90
        0
 40
-0.6
 41
-30.0
 62
     5
 63
     7
 74
     1
 91
        4
 64
     7
 65
   257
 75
     1
175
     1
 42
1.0
 92
        0
 66
   257
 43
1.0
 76
     1
 77
     6
 78
     2
 67
     7
 79
     5
170
     0
171
     0
290
     0
174
     0
 93
        1
 44
0.0
173
     0
291
     0
 45
0.0
1001
ACAD
1000
AcDbSavedByObjectVersion
1070
     0
  0
VISUALSTYLE
  5
1339
102
{ACAD_XDICTIONARY
360
143B
102
}
102
{ACAD_REACTORS
330
1331
102
}
330
1331
100
AcDbVisualStyle
  2
3D Hidden
 70
     6
 71
     1
 72
     2
 73
     2
 90
        0
 40
-0.6
 41
-30.0
 62
     5
 63
     7
 74
     2
 91
        2
 64
     7
 65
   257
 75
     2
175
     1
 42
179.0
 92
        0
 66
   257
 43
1.0
 76
     1
 77
     6
 78
     2
 67
     7
 79
     3
170
     0
171
     0
290
     0
174
     0
 93
        1
 44
0.0
173
     0
291
     0
 45
0.0
1001
ACAD
1000
AcDbSavedByObjectVersion
1070
     0
  0
VISUALSTYLE
  5
1338
102
{ACAD_XDICTIONARY
360
1439
102
}
102
{ACAD_REACTORS
330
1331
102
}
330
1331
100
AcDbVisualStyle
  2
3dWireframe
 70
     5
 71
     0
 72
     2
 73
     0
 90
        0
 40
-0.6
 41
-30.0
 62
     5
 63
     7
 74
     1
 91
        4
 64
     7
 65
   257
 75
     1
175
     1
 42
1.0
 92
        0
 66
   257
 43
1.0
 76
     1
 77
     6
 78
     2
 67
     7
 79
     5
170
     0
171
     0
290
     0
174
     0
 93
        1
 44
0.0
173
     0
291
     0
 45
0.0
1001
ACAD
1000
AcDbSavedByObjectVersion
1070
     0
  0
VISUALSTYLE
  5
1336
102
{ACAD_XDICTIONARY
360
1435
102
}
102
{ACAD_REACTORS
330
1331
102
}
330
1331
100
AcDbVisualStyle
  2
Basic
 70
     7
 71
     1
 72
     0
 73
     1
 90
        0
 40
-0.6
 41
-30.0
 62
     5
 63
     7
 74
     0
 91
        4
 64
     7
 65
   257
 75
     1
175
     1
 42
1.0
 92
        8
 66
     7
 43
1.0
 76
     1
 77
     6
 78
     2
 67
     7
 79
     5
170
     0
171
     0
290
     0
174
     0
 93
        1
 44
0.0
173
     0
291
     1
 45
0.0
1001
ACAD
1000
AcDbSavedByObjectVersion
1070
     0
  0
VISUALSTYLE
  5
133D
102
{ACAD_XDICTIONARY
360
1443
102
}
102
{ACAD_REACTORS
330
1331
102
}
330
1331
100
AcDbVisualStyle
  2
Brighten
 70
    12
 71
     2
 72
     2
 73
     0
 90
        0
 40
-0.6
 41
-30.0
 62
     5
 63
     7
 74
     1
 91
        4
 64
     7
 65
   257
 75
     1
175
     1
 42
1.0
 92
        8
 66
     7
 43
1.0
 76
     1
 77
     6
 78
     2
 67
     7
 79
     5
170
     0
171
     0
290
     0
174
     0
 93
        1
 44
50.0
173
     0
291
     1
 45
0.0
1001
ACAD
1000
AcDbSavedByObjectVersion
1070
     0
  0
VISUALSTYLE
  5
1341
102
{ACAD_XDICTIONARY
360
144B
102
}
102
{ACAD_REACTORS
330
1331
102
}
330
1331
100
AcDbVisualStyle
  2
ColorChange
 70
    16
 71
     2
 72
     2
 73
     3
 90
        0
 40
-0.6
 41
-30.0
 62
     5
 63
     8
 74
     1
 91
        4
 64
     7
 65
   257
 75
     1
175
     1
 42
1.0
 92
        8
 66
     8
 43
1.0
 76
     1
 77
     6
 78
     2
 67
     7
 79
     5
170
     0
171
     0
290
     0
174
     0
 93
        1
 44
0.0
173
     0
291
     1
 45
0.0
1001
ACAD
1000
AcDbSavedByObjectVersion
1070
     0
  0
VISUALSTYLE
  5
133A
102
{ACAD_XDICTIONARY
360
143D
102
}
102
{ACAD_REACTORS
330
1331
102
}
330
1331
100
AcDbVisualStyle
  2
Conceptual
 70
     9
 71
     3
 72
     2
 73
     0
 90
        0
 40
-0.6
 41
-30.0
 62
     5
 63
     7
 74
     2
 91
        2
 64
     7
 65
   257
 75
     1
175
     1
 42
179.0
 92
        8
 66
     7
 43
1.0
 76
     1
 77
     6
 78
     2
 67
     7
 79
     3
170
     0
171
     0
290
     0
174
     0
 93
        1
 44
0.0
173
     0
291
     0
 45
0.0
1001
ACAD
1000
AcDbSavedByObjectVersion
1070
     0
  0
VISUALSTYLE
  5
133C
102
{ACAD_XDICTIONARY
360
1441
102
}
102
{ACAD_REACTORS
330
1331
102
}
330
1331
100
AcDbVisualStyle
  2
Dim
 70
    11
 71
     2
 72
     2
 73
     0
 90
        0
 40
-0.6
 41
-30.0
 62
     5
 63
     7
 74
     1
 91
        4
 64
     7
 65
   257
 75
     1
175
     1
 42
1.0
 92
        8
 66
     7
 43
1.0
 76
     1
 77
     6
 78
     2
 67
     7
 79
     5
170
     0
171
     0
290
     0
174
     0
 93
        1
 44
-50.0
173
     0
291
     1
 45
0.0
1001
ACAD
1000
AcDbSavedByObjectVersion
1070
     0
  0
VISUALSTYLE
  5
1344
102
{ACAD_XDICTIONARY
360
1451
102
}
102
{ACAD_REACTORS
330
1331
102
}
330
1331
100
AcDbVisualStyle
  2
EdgeColorOff
 70
    22
 71
     2
 72
     2
 73
     0
 90
        0
 40
-0.6
 41
-30.0
 62
     5
 63
     7
 74
     1
 91
        4
 64
     7
 65
   257
 75
     1
175
     1
 42
1.0
 92
        8
 66
     7
 43
1.0
 76
     1
 77
     6
 78
     2
 67
     7
 79
     5
170
     0
171
     0
290
     0
174
     0
 93
        1
 44
0.0
173
     0
291
     1
 45
0.0
1001
ACAD
1000
AcDbSavedByObjectVersion
1070
     0
  0
VISUALSTYLE
  5
1340
102
{ACAD_XDICTIONARY
360
1449
102
}
102
{ACAD_REACTORS
330
1331
102
}
330
1331
100
AcDbVisualStyle
  2
Facepattern
 70
    15
 71
     2
 72
     2
 73
     0
 90
        0
 40
-0.6
 41
-30.0
 62
     5
 63
     7
 74
     1
 91
        4
 64
     7
 65
   257
 75
     1
175
     1
 42
1.0
 92
        8
 66
     7
 43
1.0
 76
     1
 77
     6
 78
     2
 67
     7
 79
     5
170
     0
171
     0
290
     0
174
     0
 93
        1
 44
0.0
173
     0
291
     1
 45
0.0
1001
ACAD
1000
AcDbSavedByObjectVersion
1070
     0
  0
VISUALSTYLE
  5
1332
102
{ACAD_XDICTIONARY
360
142D
102
}
102
{ACAD_REACTORS
330
1331
102
}
330
1331
100
AcDbVisualStyle
  2
Flat
 70
     0
 71
     2
 72
     1
 73
     1
 90
        2
 40
-0.6
 41
30.0
 62
     5
 63
     7
 74
     0
 91
        4
 64
     7
 65
   257
 75
     1
175
     1
 42
1.0
 92
        8
 66
     7
 43
1.0
 76
     1
 77
     6
 78
     2
 67
     7
 79
     5
170
     0
171
     0
290
     0
174
     0
 93
       13
 44
0.0
173
     0
291
     1
 45
0.0
1001
ACAD
1000
AcDbSavedByObjectVersion
1070
     0
  0
VISUALSTYLE
  5
1333
102
{ACAD_XDICTIONARY
360
142F
102
}
102
{ACAD_REACTORS
330
1331
102
}
330
1331
100
AcDbVisualStyle
  2
FlatWithEdges
 70
     1
 71
     2
 72
     1
 73
     1
 90
        2
 40
-0.6
 41
30.0
 62
     5
 63
     7
 74
     1
 91
        4
 64
     7
 65
   257
 75
     1
175
     1
 42
1.0
 92
        0
 66
   257
 43
1.0
 76
     1
 77
     6
 78
     2
 67
     7
 79
     5
170
     0
171
     0
290
     0
174
     0
 93
       13
 44
0.0
173
     0
291
     1
 45
0.0
1001
ACAD
1000
AcDbSavedByObjectVersion
1070
     0
  0
VISUALSTYLE
  5
1334
102
{ACAD_XDICTIONARY
360
1431
102
}
102
{ACAD_REACTORS
330
1331
102
}
330
1331
100
AcDbVisualStyle
  2
Gouraud
 70
     2
 71
     2
 72
     2
 73
     1
 90
        2
 40
-0.6
 41
30.0
 62
     5
 63
     7
 74
     0
 91
        4
 64
     7
 65
   257
 75
     1
175
     1
 42
1.0
 92
        0
 66
     7
 43
1.0
 76
     1
 77
     6
 78
     2
 67
     7
 79
     5
170
     0
171
     0
290
     0
174
     0
 93
       13
 44
0.0
173
     0
291
     1
 45
0.0
1001
ACAD
1000
AcDbSavedByObjectVersion
1070
     0
  0
VISUALSTYLE
  5
1335
102
{ACAD_XDICTIONARY
360
1433
102
}
102
{ACAD_REACTORS
330
1331
102
}
330
1331
100
AcDbVisualStyle
  2
GouraudWithEdges
 70
     3
 71
     2
 72
     2
 73
     1
 90
        2
 40
-0.6
 41
30.0
 62
     5
 63
     7
 74
     1
 91
        4
 64
     7
 65
   257
 75
     1
175
     1
 42
1.0
 92
        0
 66
   257
 43
1.0
 76
     1
 77
     6
 78
     2
 67
     7
 79
     5
170
     0
171
     0
290
     0
174
     0
 93
       13
 44
0.0
173
     0
291
     1
 45
0.0
1001
ACAD
1000
AcDbSavedByObjectVersion
1070
     0
  0
VISUALSTYLE
  5
1342
102
{ACAD_XDICTIONARY
360
144D
102
}
102
{ACAD_REACTORS
330
1331
102
}
330
1331
100
AcDbVisualStyle
  2
JitterOff
 70
    20
 71
     2
 72
     2
 73
     0
 90
        0
 40
-0.6
 41
-30.0
 62
     5
 63
     7
 74
     1
 91
        4
 64
     7
 65
   257
 75
     1
175
     1
 42
1.0
 92
       10
 66
     7
 43
1.0
 76
     1
 77
     6
 78
     2
 67
     7
 79
     5
170
     0
171
     0
290
     0
174
     0
 93
        1
 44
0.0
173
     0
291
     1
 45
0.0
1001
ACAD
1000
AcDbSavedByObjectVersion
1070
     0
  0
VISUALSTYLE
  5
133F
102
{ACAD_XDICTIONARY
360
1447
102
}
102
{ACAD_REACTORS
330
1331
102
}
330
1331
100
AcDbVisualStyle
  2
Linepattern
 70
    14
 71
     2
 72
     2
 73
     0
 90
        0
 40
-0.6
 41
-30.0
 62
     5
 63
     7
 74
     1
 91
        4
 64
     7
 65
   257
 75
     7
175
     7
 42
1.0
 92
        8
 66
     7
 43
1.0
 76
     1
 77
     6
 78
     2
 67
     7
 79
     5
170
     0
171
     0
290
     0
174
     0
 93
        1
 44
0.0
173
     0
291
     1
 45
0.0
1001
ACAD
1000
AcDbSavedByObjectVersion
1070
     0
  0
VISUALSTYLE
  5
1343
102
{ACAD_XDICTIONARY
360
144F
102
}
102
{ACAD_REACTORS
330
1331
102
}
330
1331
100
AcDbVisualStyle
  2
OverhangOff
 70
    21
 71
     2
 72
     2
 73
     0
 90
        0
 40
-0.6
 41
-30.0
 62
     5
 63
     7
 74
     1
 91
        4
 64
     7
 65
   257
 75
     1
175
     1
 42
1.0
 92
        9
 66
     7
 43
1.0
 76
     1
 77
     6
 78
     2
 67
     7
 79
     5
170
     0
171
     0
290
     0
174
     0
 93
        1
 44
0.0
173
     0
291
     1
 45
0.0
1001
ACAD
1000
AcDbSavedByObjectVersion
1070
     0
  0
VISUALSTYLE
  5
133B
102
{ACAD_XDICTIONARY
360
143F
102
}
102
{ACAD_REACTORS
330
1331
102
}
330
1331
100
AcDbVisualStyle
  2
Realistic
 70
     8
 71
     2
 72
     2
 73
     0
 90
        0
 40
-0.6
 41
-30.0
 62
     5
 63
     7
 74
     1
 91
        0
 64
     7
 65
   257
 75
     1
175
     1
 42
1.0
 92
        8
 66
     8
 43
1.0
 76
     1
 77
     6
 78
     2
 67
     7
 79
     5
170
     0
171
     0
290
     0
174
     0
 93
       13
 44
0.0
173
     0
291
     0
 45
0.0
1001
ACAD
1000
AcDbSavedByObjectVersion
1070
     0
  0
VISUALSTYLE
  5
133E
102
{ACAD_XDICTIONARY
360
1445
102
}
102
{ACAD_REACTORS
330
1331
102
}
330
1331
100
AcDbVisualStyle
  2
Thicken
 70
    13
 71
     2
 72
     2
 73
     0
 90
        0
 40
-0.6
 41
-30.0
 62
     5
 63
     7
 74
     1
 91
        4
 64
     7
 65
   257
 75
     1
175
     1
 42
1.0
 92
       12
 66
     7
 43
1.0
 76
     1
 77
     6
 78
     2
 67
     7
 79
     5
170
     0
171
     0
290
     0
174
     0
 93
        1
 44
0.0
173
     0
291
     1
 45
0.0
1001
ACAD
1000
AcDbSavedByObjectVersion
1070
     0
  0
DICTIONARYVAR
  5
13DD
102
{ACAD_REACTORS
330
3D
102
}
330
3D
100
DictionaryVariables
280
     0
  1
1:1
  0
DICTIONARYVAR
  5
13DC
102
{ACAD_REACTORS
330
3D
102
}
330
3D
100
DictionaryVariables
280
     0
  1
STANDARD
  0
DICTIONARYVAR
  5
13DB
102
{ACAD_REACTORS
330
3D
102
}
330
3D
100
DictionaryVariables
280
     0
  1
STANDARD
  0
DICTIONARYVAR
  5
3F
102
{ACAD_REACTORS
330
3D
102
}
330
3D
100
DictionaryVariables
280
     0
  1
2
  0
DICTIONARYVAR
  5
3E
102
{ACAD_REACTORS
330
3D
102
}
330
3D
100
DictionaryVariables
280
     0
  1
1
  0
DICTIONARYVAR
  5
13DF
102
{ACAD_REACTORS
330
3D
102
}
330
3D
100
DictionaryVariables
280
     0
  1
0
  0
DICTIONARYVAR
  5
13DE
102
{ACAD_REACTORS
330
3D
102
}
330
3D
100
DictionaryVariables
280
     0
  1
127
  0
DICTIONARYVAR
  5
141E
102
{ACAD_REACTORS
330
3D
102
}
330
3D
100
DictionaryVariables
280
     0
  1
2
  0
XRECORD
  5
129A
102
{ACAD_REACTORS
330
1299
102
}
330
1299
100
AcDbXrecord
280
     1
330
F55
330
0
  0
DICTIONARY
  5
1422
330
1E
100
AcDbDictionary
280
     1
281
     1
  3
ACAD_XREC_ROUNDTRIP
360
1423
  0
DICTIONARY
  5
1426
330
26
100
AcDbDictionary
280
     1
281
     1
  3
ACAD_XREC_ROUNDTRIP
360
1427
  0
DICTIONARY
  5
1424
330
22
100
AcDbDictionary
280
     1
281
     1
  3
ACAD_XREC_ROUNDTRIP
360
1425
  0
DICTIONARY
  5
1322
330
1321
100
AcDbDictionary
280
     1
281
     1
  3
ACAD_XREC_ROUNDTRIP
360
142B
  3
BUMPTILE
360
1324
  3
DIFFUSETILE
360
1323
  3
OPACITYTILE
360
1327
  3
REFLECTIONTILE
360
1326
  3
REFRACTIONTILE
360
1328
  3
SPECULARTILE
360
1325
  0
DICTIONARY
  5
131A
330
1319
100
AcDbDictionary
280
     1
281
     1
  3
ACAD_XREC_ROUNDTRIP
360
142A
  3
BUMPTILE
360
131C
  3
DIFFUSETILE
360
131B
  3
OPACITYTILE
360
131F
  3
REFLECTIONTILE
360
131E
  3
REFRACTIONTILE
360
1320
  3
SPECULARTILE
360
131D
  0
DICTIONARY
  5
132A
330
1329
100
AcDbDictionary
280
     1
281
     1
  3
ACAD_XREC_ROUNDTRIP
360
142C
  3
BUMPTILE
360
132C
  3
DIFFUSETILE
360
132B
  3
OPACITYTILE
360
132F
  3
REFLECTIONTILE
360
132E
  3
REFRACTIONTILE
360
1330
  3
SPECULARTILE
360
132D
  0
DICTIONARY
  5
139E
330
1347
100
AcDbDictionary
280
     1
281
     1
  3
ACAD_ROUNDTRIP_2008_TABLESTYLE_CELLSTYLEMAP
360
141F
  3
ACAD_XREC_ROUNDTRIP
360
1453
  0
DICTIONARY
  5
1437
330
1337
100
AcDbDictionary
280
     1
281
     1
  3
ACAD_XREC_ROUNDTRIP
360
1438
  0
DICTIONARY
  5
143B
330
1339
100
AcDbDictionary
280
     1
281
     1
  3
ACAD_XREC_ROUNDTRIP
360
143C
  0
DICTIONARY
  5
1439
330
1338
100
AcDbDictionary
280
     1
281
     1
  3
ACAD_XREC_ROUNDTRIP
360
143A
  0
DICTIONARY
  5
1435
330
1336
100
AcDbDictionary
280
     1
281
     1
  3
ACAD_XREC_ROUNDTRIP
360
1436
  0
DICTIONARY
  5
1443
330
133D
100
AcDbDictionary
280
     1
281
     1
  3
ACAD_XREC_ROUNDTRIP
360
1444
  0
DICTIONARY
  5
144B
330
1341
100
AcDbDictionary
280
     1
281
     1
  3
ACAD_XREC_ROUNDTRIP
360
144C
  0
DICTIONARY
  5
143D
330
133A
100
AcDbDictionary
280
     1
281
     1
  3
ACAD_XREC_ROUNDTRIP
360
143E
  0
DICTIONARY
  5
1441
330
133C
100
AcDbDictionary
280
     1
281
     1
  3
ACAD_XREC_ROUNDTRIP
360
1442
  0
DICTIONARY
  5
1451
330
1344
100
AcDbDictionary
280
     1
281
     1
  3
ACAD_XREC_ROUNDTRIP
360
1452
  0
DICTIONARY
  5
1449
330
1340
100
AcDbDictionary
280
     1
281
     1
  3
ACAD_XREC_ROUNDTRIP
360
144A
  0
DICTIONARY
  5
142D
330
1332
100
AcDbDictionary
280
     1
281
     1
  3
ACAD_XREC_ROUNDTRIP
360
142E
  0
DICTIONARY
  5
142F
330
1333
100
AcDbDictionary
280
     1
281
     1
  3
ACAD_XREC_ROUNDTRIP
360
1430
  0
DICTIONARY
  5
1431
330
1334
100
AcDbDictionary
280
     1
281
     1
  3
ACAD_XREC_ROUNDTRIP
360
1432
  0
DICTIONARY
  5
1433
330
1335
100
AcDbDictionary
280
     1
281
     1
  3
ACAD_XREC_ROUNDTRIP
360
1434
  0
DICTIONARY
  5
144D
330
1342
100
AcDbDictionary
280
     1
281
     1
  3
ACAD_XREC_ROUNDTRIP
360
144E
  0
DICTIONARY
  5
1447
330
133F
100
AcDbDictionary
280
     1
281
     1
  3
ACAD_XREC_ROUNDTRIP
360
1448
  0
DICTIONARY
  5
144F
330
1343
100
AcDbDictionary
280
     1
281
     1
  3
ACAD_XREC_ROUNDTRIP
360
1450
  0
DICTIONARY
  5
143F
330
133B
100
AcDbDictionary
280
     1
281
     1
  3
ACAD_XREC_ROUNDTRIP
360
1440
  0
DICTIONARY
  5
1445
330
133E
100
AcDbDictionary
280
     1
281
     1
  3
ACAD_XREC_ROUNDTRIP
360
1446
  0
XRECORD
  5
1423
102
{ACAD_REACTORS
330
1422
102
}
330
1422
100
AcDbXrecord
280
     1
102
SHADEPLOT
 70
     0
102
SHADEPLOTRESLEVEL
 70
     2
102
SHADEPLOTCUSTOMDPI
 70
   300
  0
XRECORD
  5
1427
102
{ACAD_REACTORS
330
1426
102
}
330
1426
100
AcDbXrecord
280
     1
102
SHADEPLOT
 70
     0
102
SHADEPLOTRESLEVEL
 70
     2
102
SHADEPLOTCUSTOMDPI
 70
   300
  0
XRECORD
  5
1425
102
{ACAD_REACTORS
330
1424
102
}
330
1424
100
AcDbXrecord
280
     1
102
SHADEPLOT
 70
     0
102
SHADEPLOTRESLEVEL
 70
     2
102
SHADEPLOTCUSTOMDPI
 70
   300
  0
XRECORD
  5
142B
102
{ACAD_REACTORS
330
1322
102
}
330
1322
100
AcDbXrecord
280
     1
102
MATERIAL
148
0.0
149
0.0
149
0.0
 93
        0
 94
      127
282
     0
 72
     0
 77
     0
171
     0
175
     0
179
     0
273
     0
  0
XRECORD
  5
1324
102
{ACAD_REACTORS
330
1322
102
}
330
1322
100
AcDbXrecord
280
     1
270
     1
271
     1
  0
XRECORD
  5
1323
102
{ACAD_REACTORS
330
1322
102
}
330
1322
100
AcDbXrecord
280
     1
270
     1
271
     1
  0
XRECORD
  5
1327
102
{ACAD_REACTORS
330
1322
102
}
330
1322
100
AcDbXrecord
280
     1
270
     1
271
     1
  0
XRECORD
  5
1326
102
{ACAD_REACTORS
330
1322
102
}
330
1322
100
AcDbXrecord
280
     1
270
     1
271
     1
  0
XRECORD
  5
1328
102
{ACAD_REACTORS
330
1322
102
}
330
1322
100
AcDbXrecord
280
     1
270
     1
271
     1
  0
XRECORD
  5
1325
102
{ACAD_REACTORS
330
1322
102
}
330
1322
100
AcDbXrecord
280
     1
270
     1
271
     1
  0
XRECORD
  5
142A
102
{ACAD_REACTORS
330
131A
102
}
330
131A
100
AcDbXrecord
280
     1
102
MATERIAL
148
0.0
149
0.0
149
0.0
 93
        0
 94
      127
282
     0
 72
     0
 77
     0
171
     0
175
     0
179
     0
273
     0
  0
XRECORD
  5
131C
102
{ACAD_REACTORS
330
131A
102
}
330
131A
100
AcDbXrecord
280
     1
270
     1
271
     1
  0
XRECORD
  5
131B
102
{ACAD_REACTORS
330
131A
102
}
330
131A
100
AcDbXrecord
280
     1
270
     1
271
     1
  0
XRECORD
  5
131F
102
{ACAD_REACTORS
330
131A
102
}
330
131A
100
AcDbXrecord
280
     1
270
     1
271
     1
  0
XRECORD
  5
131E
102
{ACAD_REACTORS
330
131A
102
}
330
131A
100
AcDbXrecord
280
     1
270
     1
271
     1
  0
XRECORD
  5
1320
102
{ACAD_REACTORS
330
131A
102
}
330
131A
100
AcDbXrecord
280
     1
270
     1
271
     1
  0
XRECORD
  5
131D
102
{ACAD_REACTORS
330
131A
102
}
330
131A
100
AcDbXrecord
280
     1
270
     1
271
     1
  0
XRECORD
  5
142C
102
{ACAD_REACTORS
330
132A
102
}
330
132A
100
AcDbXrecord
280
     1
102
MATERIAL
148
0.0
149
0.0
149
0.0
 93
        0
 94
      127
282
     0
 72
     0
 77
     0
171
     0
175
     0
179
     0
273
     0
  0
XRECORD
  5
132C
102
{ACAD_REACTORS
330
132A
102
}
330
132A
100
AcDbXrecord
280
     1
270
     1
271
     1
  0
XRECORD
  5
132B
102
{ACAD_REACTORS
330
132A
102
}
330
132A
100
AcDbXrecord
280
     1
270
     1
271
     1
  0
XRECORD
  5
132F
102
{ACAD_REACTORS
330
132A
102
}
330
132A
100
AcDbXrecord
280
     1
270
     1
271
     1
  0
XRECORD
  5
132E
102
{ACAD_REACTORS
330
132A
102
}
330
132A
100
AcDbXrecord
280
     1
270
     1
271
     1
  0
XRECORD
  5
1330
102
{ACAD_REACTORS
330
132A
102
}
330
132A
100
AcDbXrecord
280
     1
270
     1
271
     1
  0
XRECORD
  5
132D
102
{ACAD_REACTORS
330
132A
102
}
330
132A
100
AcDbXrecord
280
     1
270
     1
271
     1
  0
CELLSTYLEMAP
  5
141F
102
{ACAD_REACTORS
330
139E
102
}
330
139E
100
AcDbCellStyleMap
 90
        3
300
CELLSTYLE
  1
TABLEFORMAT_BEGIN
 90
        5
170
     1
 91
        0
 92
    32768
 62
   257
 93
        1
300
CONTENTFORMAT
  1
CONTENTFORMAT_BEGIN
 90
        0
 91
        0
 92
      512
 93
        0
300

 40
0.0
140
1.0
 94
        5
 62
     0
340
11
144
6.0
309
CONTENTFORMAT_END
171
     1
301
MARGIN
  1
CELLMARGIN_BEGIN
 40
1.5
 40
1.5
 40
1.5
 40
1.5
 40
4.5
 40
4.5
309
CELLMARGIN_END
 94
        6
 95
        1
302
GRIDFORMAT
  1
GRIDFORMAT_BEGIN
 90
        0
 91
        1
 62
     0
 92
       -2
340
0
 93
        0
 40
1.125
309
GRIDFORMAT_END
 95
        2
302
GRIDFORMAT
  1
GRIDFORMAT_BEGIN
 90
        0
 91
        1
 62
     0
 92
       -2
340
0
 93
        0
 40
1.125
309
GRIDFORMAT_END
 95
        4
302
GRIDFORMAT
  1
GRIDFORMAT_BEGIN
 90
        0
 91
        1
 62
     0
 92
       -2
340
0
 93
        0
 40
1.125
309
GRIDFORMAT_END
 95
        8
302
GRIDFORMAT
  1
GRIDFORMAT_BEGIN
 90
        0
 91
        1
 62
     0
 92
       -2
340
0
 93
        0
 40
1.125
309
GRIDFORMAT_END
 95
       16
302
GRIDFORMAT
  1
GRIDFORMAT_BEGIN
 90
        0
 91
        1
 62
     0
 92
       -2
340
0
 93
        0
 40
1.125
309
GRIDFORMAT_END
 95
       32
302
GRIDFORMAT
  1
GRIDFORMAT_BEGIN
 90
        0
 91
        1
 62
     0
 92
       -2
340
0
 93
        0
 40
1.125
309
GRIDFORMAT_END
309
TABLEFORMAT_END
  1
CELLSTYLE_BEGIN
 90
        1
 91
        1
300
_TITLE
309
CELLSTYLE_END
300
CELLSTYLE
  1
TABLEFORMAT_BEGIN
 90
        5
170
     1
 91
        0
 92
        0
 62
   257
 93
        1
300
CONTENTFORMAT
  1
CONTENTFORMAT_BEGIN
 90
        0
 91
        0
 92
      512
 93
        0
300

 40
0.0
140
1.0
 94
        5
 62
     0
340
11
144
4.5
309
CONTENTFORMAT_END
171
     1
301
MARGIN
  1
CELLMARGIN_BEGIN
 40
1.5
 40
1.5
 40
1.5
 40
1.5
 40
4.5
 40
4.5
309
CELLMARGIN_END
 94
        6
 95
        1
302
GRIDFORMAT
  1
GRIDFORMAT_BEGIN
 90
        0
 91
        1
 62
     0
 92
       -2
340
0
 93
        0
 40
1.125
309
GRIDFORMAT_END
 95
        2
302
GRIDFORMAT
  1
GRIDFORMAT_BEGIN
 90
        0
 91
        1
 62
     0
 92
       -2
340
0
 93
        0
 40
1.125
309
GRIDFORMAT_END
 95
        4
302
GRIDFORMAT
  1
GRIDFORMAT_BEGIN
 90
        0
 91
        1
 62
     0
 92
       -2
340
0
 93
        0
 40
1.125
309
GRIDFORMAT_END
 95
        8
302
GRIDFORMAT
  1
GRIDFORMAT_BEGIN
 90
        0
 91
        1
 62
     0
 92
       -2
340
0
 93
        0
 40
1.125
309
GRIDFORMAT_END
 95
       16
302
GRIDFORMAT
  1
GRIDFORMAT_BEGIN
 90
        0
 91
        1
 62
     0
 92
       -2
340
0
 93
        0
 40
1.125
309
GRIDFORMAT_END
 95
       32
302
GRIDFORMAT
  1
GRIDFORMAT_BEGIN
 90
        0
 91
        1
 62
     0
 92
       -2
340
0
 93
        0
 40
1.125
309
GRIDFORMAT_END
309
TABLEFORMAT_END
  1
CELLSTYLE_BEGIN
 90
        2
 91
        1
300
_HEADER
309
CELLSTYLE_END
300
CELLSTYLE
  1
TABLEFORMAT_BEGIN
 90
        5
170
     1
 91
        0
 92
        0
 62
   257
 93
        1
300
CONTENTFORMAT
  1
CONTENTFORMAT_BEGIN
 90
        0
 91
        0
 92
      512
 93
        0
300

 40
0.0
140
1.0
 94
        2
 62
     0
340
11
144
4.5
309
CONTENTFORMAT_END
171
     1
301
MARGIN
  1
CELLMARGIN_BEGIN
 40
1.5
 40
1.5
 40
1.5
 40
1.5
 40
4.5
 40
4.5
309
CELLMARGIN_END
 94
        6
 95
        1
302
GRIDFORMAT
  1
GRIDFORMAT_BEGIN
 90
        0
 91
        1
 62
     0
 92
       -2
340
0
 93
        0
 40
1.125
309
GRIDFORMAT_END
 95
        2
302
GRIDFORMAT
  1
GRIDFORMAT_BEGIN
 90
        0
 91
        1
 62
     0
 92
       -2
340
0
 93
        0
 40
1.125
309
GRIDFORMAT_END
 95
        4
302
GRIDFORMAT
  1
GRIDFORMAT_BEGIN
 90
        0
 91
        1
 62
     0
 92
       -2
340
0
 93
        0
 40
1.125
309
GRIDFORMAT_END
 95
        8
302
GRIDFORMAT
  1
GRIDFORMAT_BEGIN
 90
        0
 91
        1
 62
     0
 92
       -2
340
0
 93
        0
 40
1.125
309
GRIDFORMAT_END
 95
       16
302
GRIDFORMAT
  1
GRIDFORMAT_BEGIN
 90
        0
 91
        1
 62
     0
 92
       -2
340
0
 93
        0
 40
1.125
309
GRIDFORMAT_END
 95
       32
302
GRIDFORMAT
  1
GRIDFORMAT_BEGIN
 90
        0
 91
        1
 62
     0
 92
       -2
340
0
 93
        0
 40
1.125
309
GRIDFORMAT_END
309
TABLEFORMAT_END
  1
CELLSTYLE_BEGIN
 90
        3
 91
        2
300
_DATA
309
CELLSTYLE_END
  0
XRECORD
  5
1453
102
{ACAD_REACTORS
330
139E
102
}
330
139E
100
AcDbXrecord
280
     1
102
ACAD_ROUNDTRIP_PRE2007_TABLESTYLE
 90
      512
 91
        0
  1

 92
      512
 93
        0
  2

 94
      512
 95
        0
  3

  0
XRECORD
  5
1438
102
{ACAD_REACTORS
330
1437
102
}
330
1437
100
AcDbXrecord
280
     1
102
RTVSPropertyOp0
 70
     1
102
RTVSPropertyOp1
 70
     1
102
RTVSPropertyOp2
 70
     1
102
RTVSPropertyOp3
 70
     1
102
RTVSPropertyOp4
 70
     1
102
RTVSPropertyOp5
 70
     1
102
RTVSPropertyOp6
 70
     1
102
RTVSPropertyOp7
 70
     1
102
RTVSPropertyOp8
 70
     1
102
RTVSPropertyOp9
 70
     1
102
RTVSPropertyOp10
 70
     1
102
RTVSPropertyOp11
 70
     1
102
RTVSPropertyOp12
 70
     1
102
RTVSPropertyOp13
 70
     1
102
RTVSPropertyOp14
 70
     1
102
RTVSPropertyOp15
 70
     1
102
RTVSPropertyOp16
 70
     1
102
RTVSPropertyOp17
 70
     1
102
RTVSPropertyOp18
 70
     1
102
RTVSPropertyOp19
 70
     1
102
RTVSPropertyOp20
 70
     1
102
RTVSPropertyOp21
 70
     1
102
RTVSPropertyOp22
 70
     1
102
RTVSPropertyOp23
 70
     1
102
RTVSPropertyOp24
 70
     1
102
RTVSPropertyOp25
 70
     1
102
RTVSPropertyOp26
 70
     1
102
RTVSPropertyOp27
 70
     1
  0
XRECORD
  5
143C
102
{ACAD_REACTORS
330
143B
102
}
330
143B
100
AcDbXrecord
280
     1
102
RTVSPropertyOp0
 70
     1
102
RTVSPropertyOp1
 70
     1
102
RTVSPropertyOp2
 70
     1
102
RTVSPropertyOp3
 70
     1
102
RTVSPropertyOp4
 70
     1
102
RTVSPropertyOp5
 70
     1
102
RTVSPropertyOp6
 70
     1
102
RTVSPropertyOp7
 70
     1
102
RTVSPropertyOp8
 70
     1
102
RTVSPropertyOp9
 70
     1
102
RTVSPropertyOp10
 70
     1
102
RTVSPropertyOp11
 70
     1
102
RTVSPropertyOp12
 70
     1
102
RTVSPropertyOp13
 70
     1
102
RTVSPropertyOp14
 70
     1
102
RTVSPropertyOp15
 70
     1
102
RTVSPropertyOp16
 70
     1
102
RTVSPropertyOp17
 70
     1
102
RTVSPropertyOp18
 70
     1
102
RTVSPropertyOp19
 70
     1
102
RTVSPropertyOp20
 70
     1
102
RTVSPropertyOp21
 70
     1
102
RTVSPropertyOp22
 70
     1
102
RTVSPropertyOp23
 70
     1
102
RTVSPropertyOp24
 70
     1
102
RTVSPropertyOp25
 70
     1
102
RTVSPropertyOp26
 70
     1
102
RTVSPropertyOp27
 70
     1
  0
XRECORD
  5
143A
102
{ACAD_REACTORS
330
1439
102
}
330
1439
100
AcDbXrecord
280
     1
102
RTVSPropertyOp0
 70
     1
102
RTVSPropertyOp1
 70
     1
102
RTVSPropertyOp2
 70
     1
102
RTVSPropertyOp3
 70
     1
102
RTVSPropertyOp4
 70
     1
102
RTVSPropertyOp5
 70
     1
102
RTVSPropertyOp6
 70
     1
102
RTVSPropertyOp7
 70
     1
102
RTVSPropertyOp8
 70
     1
102
RTVSPropertyOp9
 70
     1
102
RTVSPropertyOp10
 70
     1
102
RTVSPropertyOp11
 70
     1
102
RTVSPropertyOp12
 70
     1
102
RTVSPropertyOp13
 70
     1
102
RTVSPropertyOp14
 70
     1
102
RTVSPropertyOp15
 70
     1
102
RTVSPropertyOp16
 70
     1
102
RTVSPropertyOp17
 70
     1
102
RTVSPropertyOp18
 70
     1
102
RTVSPropertyOp19
 70
     1
102
RTVSPropertyOp20
 70
     1
102
RTVSPropertyOp21
 70
     1
102
RTVSPropertyOp22
 70
     1
102
RTVSPropertyOp23
 70
     1
102
RTVSPropertyOp24
 70
     1
102
RTVSPropertyOp25
 70
     1
102
RTVSPropertyOp26
 70
     1
102
RTVSPropertyOp27
 70
     1
  0
XRECORD
  5
1436
102
{ACAD_REACTORS
330
1435
102
}
330
1435
100
AcDbXrecord
280
     1
102
RTVSPropertyOp0
 70
     1
102
RTVSPropertyOp1
 70
     1
102
RTVSPropertyOp2
 70
     1
102
RTVSPropertyOp3
 70
     1
102
RTVSPropertyOp4
 70
     1
102
RTVSPropertyOp5
 70
     1
102
RTVSPropertyOp6
 70
     1
102
RTVSPropertyOp7
 70
     1
102
RTVSPropertyOp8
 70
     1
102
RTVSPropertyOp9
 70
     1
102
RTVSPropertyOp10
 70
     1
102
RTVSPropertyOp11
 70
     1
102
RTVSPropertyOp12
 70
     1
102
RTVSPropertyOp13
 70
     1
102
RTVSPropertyOp14
 70
     1
102
RTVSPropertyOp15
 70
     1
102
RTVSPropertyOp16
 70
     1
102
RTVSPropertyOp17
 70
     1
102
RTVSPropertyOp18
 70
     1
102
RTVSPropertyOp19
 70
     1
102
RTVSPropertyOp20
 70
     1
102
RTVSPropertyOp21
 70
     1
102
RTVSPropertyOp22
 70
     1
102
RTVSPropertyOp23
 70
     1
102
RTVSPropertyOp24
 70
     1
102
RTVSPropertyOp25
 70
     1
102
RTVSPropertyOp26
 70
     1
102
RTVSPropertyOp27
 70
     1
  0
XRECORD
  5
1444
102
{ACAD_REACTORS
330
1443
102
}
330
1443
100
AcDbXrecord
280
     1
102
RTVSPropertyOp0
 70
     1
102
RTVSPropertyOp1
 70
     1
102
RTVSPropertyOp2
 70
     1
102
RTVSPropertyOp3
 70
     1
102
RTVSPropertyOp4
 70
     1
102
RTVSPropertyOp5
 70
     1
102
RTVSPropertyOp6
 70
     1
102
RTVSPropertyOp7
 70
     1
102
RTVSPropertyOp8
 70
     1
102
RTVSPropertyOp9
 70
     1
102
RTVSPropertyOp10
 70
     1
102
RTVSPropertyOp11
 70
     1
102
RTVSPropertyOp12
 70
     1
102
RTVSPropertyOp13
 70
     1
102
RTVSPropertyOp14
 70
     1
102
RTVSPropertyOp15
 70
     1
102
RTVSPropertyOp16
 70
     1
102
RTVSPropertyOp17
 70
     1
102
RTVSPropertyOp18
 70
     1
102
RTVSPropertyOp19
 70
     1
102
RTVSPropertyOp20
 70
     1
102
RTVSPropertyOp21
 70
     1
102
RTVSPropertyOp22
 70
     1
102
RTVSPropertyOp23
 70
     1
102
RTVSPropertyOp24
 70
     1
102
RTVSPropertyOp25
 70
     1
102
RTVSPropertyOp26
 70
     1
102
RTVSPropertyOp27
 70
     1
  0
XRECORD
  5
144C
102
{ACAD_REACTORS
330
144B
102
}
330
144B
100
AcDbXrecord
280
     1
102
RTVSPropertyOp0
 70
     1
102
RTVSPropertyOp1
 70
     1
102
RTVSPropertyOp2
 70
     1
102
RTVSPropertyOp3
 70
     1
102
RTVSPropertyOp4
 70
     1
102
RTVSPropertyOp5
 70
     1
102
RTVSPropertyOp6
 70
     1
102
RTVSPropertyOp7
 70
     1
102
RTVSPropertyOp8
 70
     1
102
RTVSPropertyOp9
 70
     1
102
RTVSPropertyOp10
 70
     1
102
RTVSPropertyOp11
 70
     1
102
RTVSPropertyOp12
 70
     1
102
RTVSPropertyOp13
 70
     1
102
RTVSPropertyOp14
 70
     1
102
RTVSPropertyOp15
 70
     1
102
RTVSPropertyOp16
 70
     1
102
RTVSPropertyOp17
 70
     1
102
RTVSPropertyOp18
 70
     1
102
RTVSPropertyOp19
 70
     1
102
RTVSPropertyOp20
 70
     1
102
RTVSPropertyOp21
 70
     1
102
RTVSPropertyOp22
 70
     1
102
RTVSPropertyOp23
 70
     1
102
RTVSPropertyOp24
 70
     1
102
RTVSPropertyOp25
 70
     1
102
RTVSPropertyOp26
 70
     1
102
RTVSPropertyOp27
 70
     1
  0
XRECORD
  5
143E
102
{ACAD_REACTORS
330
143D
102
}
330
143D
100
AcDbXrecord
280
     1
102
RTVSPropertyOp0
 70
     1
102
RTVSPropertyOp1
 70
     1
102
RTVSPropertyOp2
 70
     1
102
RTVSPropertyOp3
 70
     1
102
RTVSPropertyOp4
 70
     1
102
RTVSPropertyOp5
 70
     1
102
RTVSPropertyOp6
 70
     1
102
RTVSPropertyOp7
 70
     1
102
RTVSPropertyOp8
 70
     1
102
RTVSPropertyOp9
 70
     1
102
RTVSPropertyOp10
 70
     1
102
RTVSPropertyOp11
 70
     1
102
RTVSPropertyOp12
 70
     1
102
RTVSPropertyOp13
 70
     1
102
RTVSPropertyOp14
 70
     1
102
RTVSPropertyOp15
 70
     1
102
RTVSPropertyOp16
 70
     1
102
RTVSPropertyOp17
 70
     1
102
RTVSPropertyOp18
 70
     1
102
RTVSPropertyOp19
 70
     1
102
RTVSPropertyOp20
 70
     1
102
RTVSPropertyOp21
 70
     1
102
RTVSPropertyOp22
 70
     1
102
RTVSPropertyOp23
 70
     1
102
RTVSPropertyOp24
 70
     1
102
RTVSPropertyOp25
 70
     1
102
RTVSPropertyOp26
 70
     1
102
RTVSPropertyOp27
 70
     1
  0
XRECORD
  5
1442
102
{ACAD_REACTORS
330
1441
102
}
330
1441
100
AcDbXrecord
280
     1
102
RTVSPropertyOp0
 70
     1
102
RTVSPropertyOp1
 70
     1
102
RTVSPropertyOp2
 70
     1
102
RTVSPropertyOp3
 70
     1
102
RTVSPropertyOp4
 70
     1
102
RTVSPropertyOp5
 70
     1
102
RTVSPropertyOp6
 70
     1
102
RTVSPropertyOp7
 70
     1
102
RTVSPropertyOp8
 70
     1
102
RTVSPropertyOp9
 70
     1
102
RTVSPropertyOp10
 70
     1
102
RTVSPropertyOp11
 70
     1
102
RTVSPropertyOp12
 70
     1
102
RTVSPropertyOp13
 70
     1
102
RTVSPropertyOp14
 70
     1
102
RTVSPropertyOp15
 70
     1
102
RTVSPropertyOp16
 70
     1
102
RTVSPropertyOp17
 70
     1
102
RTVSPropertyOp18
 70
     1
102
RTVSPropertyOp19
 70
     1
102
RTVSPropertyOp20
 70
     1
102
RTVSPropertyOp21
 70
     1
102
RTVSPropertyOp22
 70
     1
102
RTVSPropertyOp23
 70
     1
102
RTVSPropertyOp24
 70
     1
102
RTVSPropertyOp25
 70
     1
102
RTVSPropertyOp26
 70
     1
102
RTVSPropertyOp27
 70
     1
  0
XRECORD
  5
1452
102
{ACAD_REACTORS
330
1451
102
}
330
1451
100
AcDbXrecord
280
     1
102
RTVSPropertyOp0
 70
     0
102
RTVSPropertyOp1
 70
     0
102
RTVSPropertyOp2
 70
     0
102
RTVSPropertyOp3
 70
     0
102
RTVSPropertyOp4
 70
     0
102
RTVSPropertyOp5
 70
     0
102
RTVSPropertyOp6
 70
     0
102
RTVSPropertyOp7
 70
     0
102
RTVSPropertyOp8
 70
     0
102
RTVSPropertyOp9
 70
     0
102
RTVSPropertyOp10
 70
     0
102
RTVSPropertyOp11
 70
     0
102
RTVSPropertyOp12
 70
     0
102
RTVSPropertyOp13
 70
     0
102
RTVSPropertyOp14
 70
     2
102
RTVSPropertyOp15
 70
     0
102
RTVSPropertyOp16
 70
     0
102
RTVSPropertyOp17
 70
     0
102
RTVSPropertyOp18
 70
     0
102
RTVSPropertyOp19
 70
     0
102
RTVSPropertyOp20
 70
     0
102
RTVSPropertyOp21
 70
     0
102
RTVSPropertyOp22
 70
     0
102
RTVSPropertyOp23
 70
     0
102
RTVSPropertyOp24
 70
     0
102
RTVSPropertyOp25
 70
     0
102
RTVSPropertyOp26
 70
     0
102
RTVSPropertyOp27
 70
     0
  0
XRECORD
  5
144A
102
{ACAD_REACTORS
330
1449
102
}
330
1449
100
AcDbXrecord
280
     1
102
RTVSPropertyOp0
 70
     1
102
RTVSPropertyOp1
 70
     1
102
RTVSPropertyOp2
 70
     1
102
RTVSPropertyOp3
 70
     1
102
RTVSPropertyOp4
 70
     1
102
RTVSPropertyOp5
 70
     1
102
RTVSPropertyOp6
 70
     1
102
RTVSPropertyOp7
 70
     1
102
RTVSPropertyOp8
 70
     1
102
RTVSPropertyOp9
 70
     1
102
RTVSPropertyOp10
 70
     1
102
RTVSPropertyOp11
 70
     1
102
RTVSPropertyOp12
 70
     1
102
RTVSPropertyOp13
 70
     1
102
RTVSPropertyOp14
 70
     1
102
RTVSPropertyOp15
 70
     1
102
RTVSPropertyOp16
 70
     1
102
RTVSPropertyOp17
 70
     1
102
RTVSPropertyOp18
 70
     1
102
RTVSPropertyOp19
 70
     1
102
RTVSPropertyOp20
 70
     1
102
RTVSPropertyOp21
 70
     1
102
RTVSPropertyOp22
 70
     1
102
RTVSPropertyOp23
 70
     1
102
RTVSPropertyOp24
 70
     1
102
RTVSPropertyOp25
 70
     1
102
RTVSPropertyOp26
 70
     1
102
RTVSPropertyOp27
 70
     1
  0
XRECORD
  5
142E
102
{ACAD_REACTORS
330
142D
102
}
330
142D
100
AcDbXrecord
280
     1
102
RTVSPropertyOp0
 70
     1
102
RTVSPropertyOp1
 70
     1
102
RTVSPropertyOp2
 70
     1
102
RTVSPropertyOp3
 70
     1
102
RTVSPropertyOp4
 70
     1
102
RTVSPropertyOp5
 70
     1
102
RTVSPropertyOp6
 70
     1
102
RTVSPropertyOp7
 70
     1
102
RTVSPropertyOp8
 70
     1
102
RTVSPropertyOp9
 70
     1
102
RTVSPropertyOp10
 70
     1
102
RTVSPropertyOp11
 70
     1
102
RTVSPropertyOp12
 70
     1
102
RTVSPropertyOp13
 70
     1
102
RTVSPropertyOp14
 70
     1
102
RTVSPropertyOp15
 70
     1
102
RTVSPropertyOp16
 70
     1
102
RTVSPropertyOp17
 70
     1
102
RTVSPropertyOp18
 70
     1
102
RTVSPropertyOp19
 70
     1
102
RTVSPropertyOp20
 70
     1
102
RTVSPropertyOp21
 70
     1
102
RTVSPropertyOp22
 70
     1
102
RTVSPropertyOp23
 70
     1
102
RTVSPropertyOp24
 70
     1
102
RTVSPropertyOp25
 70
     1
102
RTVSPropertyOp26
 70
     1
102
RTVSPropertyOp27
 70
     1
  0
XRECORD
  5
1430
102
{ACAD_REACTORS
330
142F
102
}
330
142F
100
AcDbXrecord
280
     1
102
RTVSPropertyOp0
 70
     1
102
RTVSPropertyOp1
 70
     1
102
RTVSPropertyOp2
 70
     1
102
RTVSPropertyOp3
 70
     1
102
RTVSPropertyOp4
 70
     1
102
RTVSPropertyOp5
 70
     1
102
RTVSPropertyOp6
 70
     1
102
RTVSPropertyOp7
 70
     1
102
RTVSPropertyOp8
 70
     1
102
RTVSPropertyOp9
 70
     1
102
RTVSPropertyOp10
 70
     1
102
RTVSPropertyOp11
 70
     1
102
RTVSPropertyOp12
 70
     1
102
RTVSPropertyOp13
 70
     1
102
RTVSPropertyOp14
 70
     1
102
RTVSPropertyOp15
 70
     1
102
RTVSPropertyOp16
 70
     1
102
RTVSPropertyOp17
 70
     1
102
RTVSPropertyOp18
 70
     1
102
RTVSPropertyOp19
 70
     1
102
RTVSPropertyOp20
 70
     1
102
RTVSPropertyOp21
 70
     1
102
RTVSPropertyOp22
 70
     1
102
RTVSPropertyOp23
 70
     1
102
RTVSPropertyOp24
 70
     1
102
RTVSPropertyOp25
 70
     1
102
RTVSPropertyOp26
 70
     1
102
RTVSPropertyOp27
 70
     1
  0
XRECORD
  5
1432
102
{ACAD_REACTORS
330
1431
102
}
330
1431
100
AcDbXrecord
280
     1
102
RTVSPropertyOp0
 70
     1
102
RTVSPropertyOp1
 70
     1
102
RTVSPropertyOp2
 70
     1
102
RTVSPropertyOp3
 70
     1
102
RTVSPropertyOp4
 70
     1
102
RTVSPropertyOp5
 70
     1
102
RTVSPropertyOp6
 70
     1
102
RTVSPropertyOp7
 70
     1
102
RTVSPropertyOp8
 70
     1
102
RTVSPropertyOp9
 70
     1
102
RTVSPropertyOp10
 70
     1
102
RTVSPropertyOp11
 70
     1
102
RTVSPropertyOp12
 70
     1
102
RTVSPropertyOp13
 70
     1
102
RTVSPropertyOp14
 70
     1
102
RTVSPropertyOp15
 70
     1
102
RTVSPropertyOp16
 70
     1
102
RTVSPropertyOp17
 70
     1
102
RTVSPropertyOp18
 70
     1
102
RTVSPropertyOp19
 70
     1
102
RTVSPropertyOp20
 70
     1
102
RTVSPropertyOp21
 70
     1
102
RTVSPropertyOp22
 70
     1
102
RTVSPropertyOp23
 70
     1
102
RTVSPropertyOp24
 70
     1
102
RTVSPropertyOp25
 70
     1
102
RTVSPropertyOp26
 70
     1
102
RTVSPropertyOp27
 70
     1
  0
XRECORD
  5
1434
102
{ACAD_REACTORS
330
1433
102
}
330
1433
100
AcDbXrecord
280
     1
102
RTVSPropertyOp0
 70
     1
102
RTVSPropertyOp1
 70
     1
102
RTVSPropertyOp2
 70
     1
102
RTVSPropertyOp3
 70
     1
102
RTVSPropertyOp4
 70
     1
102
RTVSPropertyOp5
 70
     1
102
RTVSPropertyOp6
 70
     1
102
RTVSPropertyOp7
 70
     1
102
RTVSPropertyOp8
 70
     1
102
RTVSPropertyOp9
 70
     1
102
RTVSPropertyOp10
 70
     1
102
RTVSPropertyOp11
 70
     1
102
RTVSPropertyOp12
 70
     1
102
RTVSPropertyOp13
 70
     1
102
RTVSPropertyOp14
 70
     1
102
RTVSPropertyOp15
 70
     1
102
RTVSPropertyOp16
 70
     1
102
RTVSPropertyOp17
 70
     1
102
RTVSPropertyOp18
 70
     1
102
RTVSPropertyOp19
 70
     1
102
RTVSPropertyOp20
 70
     1
102
RTVSPropertyOp21
 70
     1
102
RTVSPropertyOp22
 70
     1
102
RTVSPropertyOp23
 70
     1
102
RTVSPropertyOp24
 70
     1
102
RTVSPropertyOp25
 70
     1
102
RTVSPropertyOp26
 70
     1
102
RTVSPropertyOp27
 70
     1
  0
XRECORD
  5
144E
102
{ACAD_REACTORS
330
144D
102
}
330
144D
100
AcDbXrecord
280
     1
102
RTVSPropertyOp0
 70
     0
102
RTVSPropertyOp1
 70
     0
102
RTVSPropertyOp2
 70
     0
102
RTVSPropertyOp3
 70
     0
102
RTVSPropertyOp4
 70
     0
102
RTVSPropertyOp5
 70
     0
102
RTVSPropertyOp6
 70
     0
102
RTVSPropertyOp7
 70
     0
102
RTVSPropertyOp8
 70
     0
102
RTVSPropertyOp9
 70
     0
102
RTVSPropertyOp10
 70
     0
102
RTVSPropertyOp11
 70
     0
102
RTVSPropertyOp12
 70
     0
102
RTVSPropertyOp13
 70
     0
102
RTVSPropertyOp14
 70
     2
102
RTVSPropertyOp15
 70
     0
102
RTVSPropertyOp16
 70
     0
102
RTVSPropertyOp17
 70
     0
102
RTVSPropertyOp18
 70
     0
102
RTVSPropertyOp19
 70
     0
102
RTVSPropertyOp20
 70
     0
102
RTVSPropertyOp21
 70
     0
102
RTVSPropertyOp22
 70
     0
102
RTVSPropertyOp23
 70
     0
102
RTVSPropertyOp24
 70
     0
102
RTVSPropertyOp25
 70
     0
102
RTVSPropertyOp26
 70
     0
102
RTVSPropertyOp27
 70
     0
  0
XRECORD
  5
1448
102
{ACAD_REACTORS
330
1447
102
}
330
1447
100
AcDbXrecord
280
     1
102
RTVSPropertyOp0
 70
     1
102
RTVSPropertyOp1
 70
     1
102
RTVSPropertyOp2
 70
     1
102
RTVSPropertyOp3
 70
     1
102
RTVSPropertyOp4
 70
     1
102
RTVSPropertyOp5
 70
     1
102
RTVSPropertyOp6
 70
     1
102
RTVSPropertyOp7
 70
     1
102
RTVSPropertyOp8
 70
     1
102
RTVSPropertyOp9
 70
     1
102
RTVSPropertyOp10
 70
     1
102
RTVSPropertyOp11
 70
     1
102
RTVSPropertyOp12
 70
     1
102
RTVSPropertyOp13
 70
     1
102
RTVSPropertyOp14
 70
     1
102
RTVSPropertyOp15
 70
     1
102
RTVSPropertyOp16
 70
     1
102
RTVSPropertyOp17
 70
     1
102
RTVSPropertyOp18
 70
     1
102
RTVSPropertyOp19
 70
     1
102
RTVSPropertyOp20
 70
     1
102
RTVSPropertyOp21
 70
     1
102
RTVSPropertyOp22
 70
     1
102
RTVSPropertyOp23
 70
     1
102
RTVSPropertyOp24
 70
     1
102
RTVSPropertyOp25
 70
     1
102
RTVSPropertyOp26
 70
     1
102
RTVSPropertyOp27
 70
     1
  0
XRECORD
  5
1450
102
{ACAD_REACTORS
330
144F
102
}
330
144F
100
AcDbXrecord
280
     1
102
RTVSPropertyOp0
 70
     0
102
RTVSPropertyOp1
 70
     0
102
RTVSPropertyOp2
 70
     0
102
RTVSPropertyOp3
 70
     0
102
RTVSPropertyOp4
 70
     0
102
RTVSPropertyOp5
 70
     0
102
RTVSPropertyOp6
 70
     0
102
RTVSPropertyOp7
 70
     0
102
RTVSPropertyOp8
 70
     0
102
RTVSPropertyOp9
 70
     0
102
RTVSPropertyOp10
 70
     0
102
RTVSPropertyOp11
 70
     0
102
RTVSPropertyOp12
 70
     0
102
RTVSPropertyOp13
 70
     0
102
RTVSPropertyOp14
 70
     2
102
RTVSPropertyOp15
 70
     0
102
RTVSPropertyOp16
 70
     0
102
RTVSPropertyOp17
 70
     0
102
RTVSPropertyOp18
 70
     0
102
RTVSPropertyOp19
 70
     0
102
RTVSPropertyOp20
 70
     0
102
RTVSPropertyOp21
 70
     0
102
RTVSPropertyOp22
 70
     0
102
RTVSPropertyOp23
 70
     0
102
RTVSPropertyOp24
 70
     0
102
RTVSPropertyOp25
 70
     0
102
RTVSPropertyOp26
 70
     0
102
RTVSPropertyOp27
 70
     0
  0
XRECORD
  5
1440
102
{ACAD_REACTORS
330
143F
102
}
330
143F
100
AcDbXrecord
280
     1
102
RTVSPropertyOp0
 70
     1
102
RTVSPropertyOp1
 70
     1
102
RTVSPropertyOp2
 70
     1
102
RTVSPropertyOp3
 70
     1
102
RTVSPropertyOp4
 70
     1
102
RTVSPropertyOp5
 70
     1
102
RTVSPropertyOp6
 70
     1
102
RTVSPropertyOp7
 70
     1
102
RTVSPropertyOp8
 70
     1
102
RTVSPropertyOp9
 70
     1
102
RTVSPropertyOp10
 70
     1
102
RTVSPropertyOp11
 70
     1
102
RTVSPropertyOp12
 70
     1
102
RTVSPropertyOp13
 70
     1
102
RTVSPropertyOp14
 70
     1
102
RTVSPropertyOp15
 70
     1
102
RTVSPropertyOp16
 70
     1
102
RTVSPropertyOp17
 70
     1
102
RTVSPropertyOp18
 70
     1
102
RTVSPropertyOp19
 70
     1
102
RTVSPropertyOp20
 70
     1
102
RTVSPropertyOp21
 70
     1
102
RTVSPropertyOp22
 70
     1
102
RTVSPropertyOp23
 70
     1
102
RTVSPropertyOp24
 70
     1
102
RTVSPropertyOp25
 70
     1
102
RTVSPropertyOp26
 70
     1
102
RTVSPropertyOp27
 70
     1
  0
XRECORD
  5
1446
102
{ACAD_REACTORS
330
1445
102
}
330
1445
100
AcDbXrecord
280
     1
102
RTVSPropertyOp0
 70
     1
102
RTVSPropertyOp1
 70
     1
102
RTVSPropertyOp2
 70
     1
102
RTVSPropertyOp3
 70
     1
102
RTVSPropertyOp4
 70
     1
102
RTVSPropertyOp5
 70
     1
102
RTVSPropertyOp6
 70
     1
102
RTVSPropertyOp7
 70
     1
102
RTVSPropertyOp8
 70
     1
102
RTVSPropertyOp9
 70
     1
102
RTVSPropertyOp10
 70
     1
102
RTVSPropertyOp11
 70
     1
102
RTVSPropertyOp12
 70
     1
102
RTVSPropertyOp13
 70
     1
102
RTVSPropertyOp14
 70
     1
102
RTVSPropertyOp15
 70
     1
102
RTVSPropertyOp16
 70
     1
102
RTVSPropertyOp17
 70
     1
102
RTVSPropertyOp18
 70
     1
102
RTVSPropertyOp19
 70
     1
102
RTVSPropertyOp20
 70
     1
102
RTVSPropertyOp21
 70
     1
102
RTVSPropertyOp22
 70
     1
102
RTVSPropertyOp23
 70
     1
102
RTVSPropertyOp24
 70
     1
102
RTVSPropertyOp25
 70
     1
102
RTVSPropertyOp26
 70
     1
102
RTVSPropertyOp27
 70
     1
  0
ENDSEC
  0
EOF
