  0
SECTION
  2
HEADER
  9
$ACADVER
  1
AC1015
  9
$ACADMAINTVER
 70
    20
  9
$DWGCODEPAGE
  3
ANSI_1252
  9
$INSBASE
 10
0.0
 20
0.0
 30
0.0
  9
$EXTMIN
 10
3101.278629585399
 20
1619.114912368679
 30
-0.0000000017937957
  9
$EXTMAX
 10
3102.974262701626
 20
1620.96491236868
 30
0.0
  9
$LIMMIN
 10
0.0
 20
0.0
  9
$LIMMAX
 10
420.0
 20
297.0
  9
$ORTHOMODE
 70
     0
  9
$REGENMODE
 70
     1
  9
$FILLMODE
 70
     1
  9
$QTEXTMODE
 70
     0
  9
$MIRRTEXT
 70
     1
  9
$LTSCALE
 40
0.2
  9
$ATTMODE
 70
     1
  9
$TEXTSIZE
 40
2.5
  9
$TRACEWID
 40
1.0
  9
$TEXTSTYLE
  7
SANINDUSA
  9
$CLAYER
  8
cotas
  9
$CELTYPE
  6
ByLayer
  9
$CECOLOR
 62
   256
  9
$CELTSCALE
 40
1.0
  9
$DISPSILH
 70
     0
  9
$DIMSCALE
 40
1.0
  9
$DIMASZ
 40
2.0
  9
$DIMEXO
 40
1.0
  9
$DIMDLI
 40
1.0
  9
$DIMRND
 40
0.0
  9
$DIMDLE
 40
0.0
  9
$DIMEXE
 40
1.0
  9
$DIMTP
 40
0.0
  9
$DIMTM
 40
0.0
  9
$DIMTXT
 40
2.0
  9
$DIMCEN
 40
0.0
  9
$DIMTSZ
 40
0.0
  9
$DIMTOL
 70
     0
  9
$DIMLIM
 70
     0
  9
$DIMTIH
 70
     0
  9
$DIMTOH
 70
     0
  9
$DIMSE1
 70
     0
  9
$DIMSE2
 70
     0
  9
$DIMTAD
 70
     1
  9
$DIMZIN
 70
     8
  9
$DIMBLK
  1

  9
$DIMASO
 70
     1
  9
$DIMSHO
 70
     1
  9
$DIMPOST
  1

  9
$DIMAPOST
  1

  9
$DIMALT
 70
     0
  9
$DIMALTD
 70
     3
  9
$DIMALTF
 40
0.03937007874016
  9
$DIMLFAC
 40
1.0
  9
$DIMTOFL
 70
     1
  9
$DIMTVP
 40
0.0
  9
$DIMTIX
 70
     0
  9
$DIMSOXD
 70
     0
  9
$DIMSAH
 70
     0
  9
$DIMBLK1
  1

  9
$DIMBLK2
  1

  9
$DIMSTYLE
  2
SANINDUSA
  9
$DIMCLRD
 70
   256
  9
$DIMCLRE
 70
   256
  9
$DIMCLRT
 70
   256
  9
$DIMTFAC
 40
1.0
  9
$DIMGAP
 40
1.0
  9
$DIMJUST
 70
     0
  9
$DIMSD1
 70
     0
  9
$DIMSD2
 70
     0
  9
$DIMTOLJ
 70
     0
  9
$DIMTZIN
 70
     8
  9
$DIMALTZ
 70
     0
  9
$DIMALTTZ
 70
     0
  9
$DIMUPT
 70
     0
  9
$DIMDEC
 70
     1
  9
$DIMTDEC
 70
     1
  9
$DIMALTU
 70
     2
  9
$DIMALTTD
 70
     3
  9
$DIMTXSTY
  7
SANINDUSA
  9
$DIMAUNIT
 70
     0
  9
$DIMADEC
 70
     1
  9
$DIMALTRND
 40
0.0
  9
$DIMAZIN
 70
     0
  9
$DIMDSEP
 70
    44
  9
$DIMATFIT
 70
     3
  9
$DIMFRAC
 70
     0
  9
$DIMLDRBLK
  1

  9
$DIMLUNIT
 70
     2
  9
$DIMLWD
 70
    -1
  9
$DIMLWE
 70
    -1
  9
$DIMTMOVE
 70
     0
  9
$LUNITS
 70
     2
  9
$LUPREC
 70
     4
  9
$SKETCHINC
 40
1.0
  9
$FILLETRAD
 40
0.0
  9
$AUNITS
 70
     0
  9
$AUPREC
 70
     0
  9
$MENU
  1
.
  9
$ELEVATION
 40
0.0
  9
$PELEVATION
 40
0.0
  9
$THICKNESS
 40
0.0
  9
$LIMCHECK
 70
     0
  9
$CHAMFERA
 40
10.0
  9
$CHAMFERB
 40
10.0
  9
$CHAMFERC
 40
20.0
  9
$CHAMFERD
 40
0.0
  9
$SKPOLY
 70
     0
  9
$TDCREATE
 40
2453258.736076563
  9
$TDUCREATE
 40
2453258.694409896
  9
$TDUPDATE
 40
2455817.493305475
  9
$TDUUPDATE
 40
2455817.451638808
  9
$TDINDWG
 40
0.0350710880
  9
$TDUSRTIMER
 40
0.0350710880
  9
$USRTIMER
 70
     1
  9
$ANGBASE
 50
0.0
  9
$ANGDIR
 70
     0
  9
$PDMODE
 70
     0
  9
$PDSIZE
 40
0.0
  9
$PLINEWID
 40
0.0
  9
$SPLFRAME
 70
     0
  9
$SPLINETYPE
 70
     6
  9
$SPLINESEGS
 70
     8
  9
$HANDSEED
  5
2B57
  9
$SURFTAB1
 70
     6
  9
$SURFTAB2
 70
     6
  9
$SURFTYPE
 70
     6
  9
$SURFU
 70
     6
  9
$SURFV
 70
     6
  9
$UCSBASE
  2

  9
$UCSNAME
  2

  9
$UCSORG
 10
0.0
 20
0.0
 30
0.0
  9
$UCSXDIR
 10
1.0
 20
0.0
 30
0.0
  9
$UCSYDIR
 10
0.0
 20
1.0
 30
0.0
  9
$UCSORTHOREF
  2

  9
$UCSORTHOVIEW
 70
     0
  9
$UCSORGTOP
 10
0.0
 20
0.0
 30
0.0
  9
$UCSORGBOTTOM
 10
0.0
 20
0.0
 30
0.0
  9
$UCSORGLEFT
 10
0.0
 20
0.0
 30
0.0
  9
$UCSORGRIGHT
 10
0.0
 20
0.0
 30
0.0
  9
$UCSORGFRONT
 10
0.0
 20
0.0
 30
0.0
  9
$UCSORGBACK
 10
0.0
 20
0.0
 30
0.0
  9
$PUCSBASE
  2

  9
$PUCSNAME
  2

  9
$PUCSORG
 10
0.0
 20
0.0
 30
0.0
  9
$PUCSXDIR
 10
1.0
 20
0.0
 30
0.0
  9
$PUCSYDIR
 10
0.0
 20
1.0
 30
0.0
  9
$PUCSORTHOREF
  2

  9
$PUCSORTHOVIEW
 70
     0
  9
$PUCSORGTOP
 10
0.0
 20
0.0
 30
0.0
  9
$PUCSORGBOTTOM
 10
0.0
 20
0.0
 30
0.0
  9
$PUCSORGLEFT
 10
0.0
 20
0.0
 30
0.0
  9
$PUCSORGRIGHT
 10
0.0
 20
0.0
 30
0.0
  9
$PUCSORGFRONT
 10
0.0
 20
0.0
 30
0.0
  9
$PUCSORGBACK
 10
0.0
 20
0.0
 30
0.0
  9
$USERI1
 70
     0
  9
$USERI2
 70
     0
  9
$USERI3
 70
     0
  9
$USERI4
 70
     0
  9
$USERI5
 70
     0
  9
$USERR1
 40
0.0
  9
$USERR2
 40
0.0
  9
$USERR3
 40
0.0
  9
$USERR4
 40
0.0
  9
$USERR5
 40
0.0
  9
$WORLDVIEW
 70
     1
  9
$SHADEDGE
 70
     3
  9
$SHADEDIF
 70
    70
  9
$TILEMODE
 70
     1
  9
$MAXACTVP
 70
    64
  9
$PINSBASE
 10
0.0
 20
0.0
 30
0.0
  9
$PLIMCHECK
 70
     0
  9
$PEXTMIN
 10
1.000000000000000E+20
 20
1.000000000000000E+20
 30
1.000000000000000E+20
  9
$PEXTMAX
 10
-1.000000000000000E+20
 20
-1.000000000000000E+20
 30
-1.000000000000000E+20
  9
$PLIMMIN
 10
0.0
 20
0.0
  9
$PLIMMAX
 10
420.0
 20
297.0
  9
$UNITMODE
 70
     0
  9
$VISRETAIN
 70
     1
  9
$PLINEGEN
 70
     0
  9
$PSLTSCALE
 70
     1
  9
$TREEDEPTH
 70
  3020
  9
$CMLSTYLE
  2
Standard
  9
$CMLJUST
 70
     0
  9
$CMLSCALE
 40
20.0
  9
$PROXYGRAPHICS
 70
     1
  9
$MEASUREMENT
 70
     1
  9
$CELWEIGHT
370
    -1
  9
$ENDCAPS
280
     0
  9
$JOINSTYLE
280
     0
  9
$LWDISPLAY
290
     0
  9
$INSUNITS
 70
     4
  9
$HYPERLINKBASE
  1

  9
$STYLESHEET
  1
monochrome.ctb
  9
$XEDIT
290
     1
  9
$CEPSNTYPE
380
     0
  9
$PSTYLEMODE
290
     1
  9
$FINGERPRINTGUID
  2
{B98A73AA-52AA-4C10-B469-C0E7150AC31F}
  9
$VERSIONGUID
  2
{A5CA66FE-EF9A-40C7-AC13-484EB34AC1BE}
  9
$EXTNAMES
290
     1
  9
$PSVPSCALE
 40
0.0
  9
$OLESTARTUP
290
     0
  0
ENDSEC
  0
SECTION
  2
CLASSES
  0
CLASS
  1
ACDBDICTIONARYWDFLT
  2
AcDbDictionaryWithDefault
  3
ObjectDBX Classes
 90
        0
280
     0
281
     0
  0
CLASS
  1
ACDBPLACEHOLDER
  2
AcDbPlaceHolder
  3
ObjectDBX Classes
 90
        0
280
     0
281
     0
  0
CLASS
  1
LAYOUT
  2
AcDbLayout
  3
ObjectDBX Classes
 90
        0
280
     0
281
     0
  0
CLASS
  1
DICTIONARYVAR
  2
AcDbDictionaryVar
  3
ObjectDBX Classes
 90
        0
280
     0
281
     0
  0
CLASS
  1
DIMASSOC
  2
AcDbDimAssoc
  3
"AcDbDimAssoc|Product Desc:     AcDim ARX App For Dimension|Company:          Autodesk, Inc.|WEB Address:      www.autodesk.com"
 90
        0
280
     0
281
     0
  0
CLASS
  1
MATERIAL
  2
AcDbMaterial
  3
ObjectDBX Classes
 90
     1153
280
     0
281
     0
  0
CLASS
  1
VISUALSTYLE
  2
AcDbVisualStyle
  3
ObjectDBX Classes
 90
     4095
280
     0
281
     0
  0
CLASS
  1
TABLESTYLE
  2
AcDbTableStyle
  3
ObjectDBX Classes
 90
     4095
280
     0
281
     0
  0
CLASS
  1
SCALE
  2
AcDbScale
  3
ObjectDBX Classes
 90
     1153
280
     0
281
     0
  0
CLASS
  1
MLEADERSTYLE
  2
AcDbMLeaderStyle
  3
ACDB_MLEADERSTYLE_CLASS
 90
     4095
280
     0
281
     0
  0
CLASS
  1
AEC_REFEDIT_STATUS_TRACKER
  2
AecDbRefEditStatusTracker
  3
AecArchBase60|Product Desc: Autodesk Architectural Desktop 2007 |Company: Autodesk,Inc. |WEB Address: www.autodesk.com
 90
    32897
280
     0
281
     0
  0
CLASS
  1
NPOCOLLECTION
  2
AcDbImpNonPersistentObjectsCollection
  3
ObjectDBX Classes
 90
    33921
280
     0
281
     0
  0
CLASS
  1
CELLSTYLEMAP
  2
AcDbCellStyleMap
  3
ObjectDBX Classes
 90
     1152
280
     0
281
     0
  0
ENDSEC
  0
SECTION
  2
TABLES
  0
TABLE
  2
VPORT
  5
8
102
{ACAD_XDICTIONARY
360
2A8A
102
}
330
0
100
AcDbSymbolTable
 70
     1
  0
VPORT
  5
29F7
330
8
100
AcDbSymbolTableRecord
100
AcDbViewportTableRecord
  2
*Active
 70
     0
 10
0.0
 20
0.0
 11
1.0
 21
1.0
 12
3102.126446143512
 22
1620.039912368679
 13
0.0
 23
0.0
 14
10.0
 24
10.0
 15
10.0
 25
10.0
 16
0.0
 26
0.0
 36
1.0
 17
0.0
 27
0.0
 37
0.0
 40
1.86156249999999
 41
1.645464025026068
 42
50.0
 43
0.0
 44
0.0
 50
0.0
 51
0.0
 71
     0
 72
   100
 73
     1
 74
     2
 75
     0
 76
     0
 77
     0
 78
     2
281
     0
 65
     1
110
0.0
120
0.0
130
0.0
111
1.0
121
0.0
131
0.0
112
0.0
122
1.0
132
0.0
 79
     0
146
0.0
  0
ENDTAB
  0
TABLE
  2
LTYPE
  5
5
330
0
100
AcDbSymbolTable
 70
     4
  0
LTYPE
  5
14
330
5
100
AcDbSymbolTableRecord
100
AcDbLinetypeTableRecord
  2
ByBlock
 70
     0
  3

 72
    65
 73
     0
 40
0.0
  0
LTYPE
  5
15
330
5
100
AcDbSymbolTableRecord
100
AcDbLinetypeTableRecord
  2
ByLayer
 70
     0
  3

 72
    65
 73
     0
 40
0.0
  0
LTYPE
  5
16
330
5
100
AcDbSymbolTableRecord
100
AcDbLinetypeTableRecord
  2
Continuous
 70
     0
  3
Solid line
 72
    65
 73
     0
 40
0.0
  0
LTYPE
  5
2D
330
5
100
AcDbSymbolTableRecord
100
AcDbLinetypeTableRecord
  2
DASHDOT
 70
     0
  3
Dash dot __ . __ . __ . __ . __ . __ . __ . __
 72
    65
 73
     4
 40
25.4
 49
12.7
 74
     0
 49
-6.349999999999999
 74
     0
 49
0.0
 74
     0
 49
-6.349999999999999
 74
     0
  0
LTYPE
  5
2E
330
5
100
AcDbSymbolTableRecord
100
AcDbLinetypeTableRecord
  2
HIDDEN
 70
     0
  3
Hidden __ __ __ __ __ __ __ __ __ __ __ __ __ _
 72
    65
 73
     2
 40
9.524999999999998
 49
6.349999999999999
 74
     0
 49
-3.174999999999999
 74
     0
  0
LTYPE
  5
D02
330
5
100
AcDbSymbolTableRecord
100
AcDbLinetypeTableRecord
  2
CENTER
 70
     0
  3
____ _ ____ _ ____ _ ____ _ ____ _ ____ _ ____ 
 72
    65
 73
     4
 40
2.0
 49
1.25
 74
     0
 49
-0.25
 74
     0
 49
0.25
 74
     0
 49
-0.25
 74
     0
  0
ENDTAB
  0
TABLE
  2
LAYER
  5
2
330
0
100
AcDbSymbolTable
 70
    17
  0
LAYER
  5
10
102
{ACAD_XDICTIONARY
360
2A66
102
}
330
2
100
AcDbSymbolTableRecord
100
AcDbLayerTableRecord
  2
0
 70
     0
 62
     7
  6
Continuous
370
    -3
390
F
  0
LAYER
  5
2F
102
{ACAD_XDICTIONARY
360
2A68
102
}
330
2
100
AcDbSymbolTableRecord
100
AcDbLayerTableRecord
  2
1
 70
     0
 62
     1
  6
Continuous
370
    -3
390
F
  0
LAYER
  5
30
102
{ACAD_XDICTIONARY
360
2A6A
102
}
330
2
100
AcDbSymbolTableRecord
100
AcDbLayerTableRecord
  2
2
 70
     0
 62
     2
  6
Continuous
370
    -3
390
F
  0
LAYER
  5
31
102
{ACAD_XDICTIONARY
360
2A6C
102
}
330
2
100
AcDbSymbolTableRecord
100
AcDbLayerTableRecord
  2
3
 70
     0
 62
     3
  6
Continuous
370
    -3
390
F
  0
LAYER
  5
32
102
{ACAD_XDICTIONARY
360
2A6E
102
}
330
2
100
AcDbSymbolTableRecord
100
AcDbLayerTableRecord
  2
4
 70
     0
 62
     4
  6
Continuous
370
    -3
390
F
  0
LAYER
  5
33
102
{ACAD_XDICTIONARY
360
2A70
102
}
330
2
100
AcDbSymbolTableRecord
100
AcDbLayerTableRecord
  2
5
 70
     0
 62
     5
  6
Continuous
370
    -3
390
F
  0
LAYER
  5
34
102
{ACAD_XDICTIONARY
360
2A72
102
}
330
2
100
AcDbSymbolTableRecord
100
AcDbLayerTableRecord
  2
6
 70
     0
 62
     6
  6
Continuous
370
    -3
390
F
  0
LAYER
  5
35
102
{ACAD_XDICTIONARY
360
2A74
102
}
330
2
100
AcDbSymbolTableRecord
100
AcDbLayerTableRecord
  2
7
 70
     0
 62
     7
  6
Continuous
370
    -3
390
F
  0
LAYER
  5
36
102
{ACAD_XDICTIONARY
360
2A76
102
}
330
2
100
AcDbSymbolTableRecord
100
AcDbLayerTableRecord
  2
cen
 70
     0
 62
     7
  6
DASHDOT
370
    -3
390
F
  0
LAYER
  5
37
102
{ACAD_XDICTIONARY
360
2A78
102
}
330
2
100
AcDbSymbolTableRecord
100
AcDbLayerTableRecord
  2
hid
 70
     0
 62
     7
  6
HIDDEN
370
    -3
390
F
  0
LAYER
  5
5D6
102
{ACAD_XDICTIONARY
360
2A7A
102
}
330
2
100
AcDbSymbolTableRecord
100
AcDbLayerTableRecord
  2
hatch
 70
     0
 62
     9
  6
Continuous
370
    -3
390
F
  0
LAYER
  5
8AF
102
{ACAD_XDICTIONARY
360
2A7C
102
}
330
2
100
AcDbSymbolTableRecord
100
AcDbLayerTableRecord
  2
9
 70
     0
 62
     9
  6
Continuous
370
    -3
390
F
  0
LAYER
  5
8F8
102
{ACAD_XDICTIONARY
360
2A7E
102
}
330
2
100
AcDbSymbolTableRecord
100
AcDbLayerTableRecord
  2
leg fin
 70
     0
 62
     9
  6
Continuous
370
    -3
390
F
  0
LAYER
  5
91D
102
{ACAD_XDICTIONARY
360
2A80
102
}
330
2
100
AcDbSymbolTableRecord
100
AcDbLayerTableRecord
  2
cotas
 70
     0
 62
     1
  6
Continuous
370
    -3
390
F
  0
LAYER
  5
92F
330
2
100
AcDbSymbolTableRecord
100
AcDbLayerTableRecord
  2
Defpoints
 70
     0
 62
     7
  6
Continuous
290
     0
370
    -3
390
F
  0
LAYER
  5
D03
102
{ACAD_XDICTIONARY
360
2A82
102
}
330
2
100
AcDbSymbolTableRecord
100
AcDbLayerTableRecord
  2
quote
 70
     0
 62
     7
  6
Continuous
370
    18
390
F
  0
LAYER
  5
2A65
102
{ACAD_XDICTIONARY
360
2A84
102
}
330
2
100
AcDbSymbolTableRecord
100
AcDbLayerTableRecord
  2
SANINDUSA
 70
     0
 62
     3
  6
Continuous
370
    -3
390
F
  0
ENDTAB
  0
TABLE
  2
STYLE
  5
3
330
0
100
AcDbSymbolTable
 70
     4
  0
STYLE
  5
11
330
3
100
AcDbSymbolTableRecord
100
AcDbTextStyleTableRecord
  2
Standard
 70
     0
 40
0.0
 41
1.0
 50
0.0
 71
     0
 42
2.5
  3
Avgardn.ttf
  4

1001
ACAD
1000
AvantGarde Bk BT
1071
       34
  0
STYLE
  5
2C
330
3
100
AcDbSymbolTableRecord
100
AcDbTextStyleTableRecord
  2

 70
     1
 40
0.0
 41
1.0
 50
0.0
 71
     0
 42
2.5
  3
ltypeshp.shx
  4

  0
STYLE
  5
91F
330
3
100
AcDbSymbolTableRecord
100
AcDbTextStyleTableRecord
  2
SANINDUSA
 70
     0
 40
0.0
 41
1.0
 50
0.0
 71
     0
 42
2.5
  3
verdana.TTF
  4

1001
ACAD
1000
Verdana
1071
       34
  0
STYLE
  5
D04
330
3
100
AcDbSymbolTableRecord
100
AcDbTextStyleTableRecord
  2
ISOCP
 70
     0
 40
0.0
 41
1.0
 50
0.0
 71
     0
 42
2.5
  3
isocp
  4

  0
ENDTAB
  0
TABLE
  2
VIEW
  5
6
330
0
100
AcDbSymbolTable
 70
     0
  0
ENDTAB
  0
TABLE
  2
UCS
  5
7
330
0
100
AcDbSymbolTable
 70
     0
  0
ENDTAB
  0
TABLE
  2
APPID
  5
9
330
0
100
AcDbSymbolTable
 70
     8
  0
APPID
  5
12
330
9
100
AcDbSymbolTableRecord
100
AcDbRegAppTableRecord
  2
ACAD
 70
     0
  0
APPID
  5
3A
330
9
100
AcDbSymbolTableRecord
100
AcDbRegAppTableRecord
  2
DCO15
 70
     0
  0
APPID
  5
D06
330
9
100
AcDbSymbolTableRecord
100
AcDbRegAppTableRecord
  2
GENIUS_GENDTOL_13
 70
     0
  0
APPID
  5
D07
330
9
100
AcDbSymbolTableRecord
100
AcDbRegAppTableRecord
  2
GENIUS_GENREC_14
 70
     0
  0
APPID
  5
D08
330
9
100
AcDbSymbolTableRecord
100
AcDbRegAppTableRecord
  2
GENIUS_GENODEF_13
 70
     0
  0
APPID
  5
D09
330
9
100
AcDbSymbolTableRecord
100
AcDbRegAppTableRecord
  2
GENIUS_GENOBJ-N-REC_13
 70
     0
  0
APPID
  5
2A43
330
9
100
AcDbSymbolTableRecord
100
AcDbRegAppTableRecord
  2
ACAD_EXEMPT_FROM_CAD_STANDARDS
 70
     0
  0
APPID
  5
2AC4
330
9
100
AcDbSymbolTableRecord
100
AcDbRegAppTableRecord
  2
ACAD_MLEADERVER
 70
     0
  0
ENDTAB
  0
TABLE
  2
DIMSTYLE
  5
A
330
0
100
AcDbSymbolTable
 70
     3
100
AcDbDimStyleTable
 71
     1
340
921
  0
DIMSTYLE
105
45
330
A
100
AcDbSymbolTableRecord
100
AcDbDimStyleTableRecord
  2
STANDARD
 70
     0
289
     0
340
11
  0
DIMSTYLE
105
921
330
A
100
AcDbSymbolTableRecord
100
AcDbDimStyleTableRecord
  2
SANINDUSA
 70
     0
 41
2.0
 42
1.0
 43
1.0
 44
1.0
 73
     0
 74
     0
 77
     1
 78
     8
140
2.0
141
0.0
143
0.03937007874016
147
1.0
171
     3
172
     1
176
   256
177
   256
178
   256
179
     1
271
     1
272
     1
274
     3
278
    44
283
     0
284
     8
340
91F
371
    -1
372
    -1
  0
DIMSTYLE
105
D05
330
A
100
AcDbSymbolTableRecord
100
AcDbDimStyleTableRecord
  2
ISO-35
 70
     0
 41
3.5
 42
0.875
 43
5.25
 44
1.75
 45
0.5
 73
     0
 74
     0
 77
     1
 78
     8
140
3.5
141
3.5
143
0.0394
147
0.875
171
     4
172
     1
176
   256
177
   256
178
   256
271
     1
272
     1
273
     8
274
     4
340
11
371
    -1
372
    -1
  0
ENDTAB
  0
TABLE
  2
BLOCK_RECORD
  5
1
330
0
100
AcDbSymbolTable
 70
    20
  0
BLOCK_RECORD
  5
1F
330
1
100
AcDbSymbolTableRecord
100
AcDbBlockTableRecord
  2
*Model_Space
340
22
  0
BLOCK_RECORD
  5
1B
330
1
100
AcDbSymbolTableRecord
100
AcDbBlockTableRecord
  2
*Paper_Space
340
1E
  0
BLOCK_RECORD
  5
23
330
1
100
AcDbSymbolTableRecord
100
AcDbBlockTableRecord
  2
*Paper_Space0
340
26
  0
BLOCK_RECORD
  5
919
330
1
100
AcDbSymbolTableRecord
100
AcDbBlockTableRecord
  2
_DotSmall
340
0
  0
BLOCK_RECORD
  5
922
330
1
100
AcDbSymbolTableRecord
100
AcDbBlockTableRecord
  2
base para cotas
340
0
310
2800000020000000200000000100080000000000000400000000000000000000000000000000000000000000000080000080000000808000800000008000800080800000C0C0C000C0DCC000F0CAA6000020400000206000002080000020A0000020C0000020E00000400000004020000040400000406000004080000040A0
310
000040C0000040E00000600000006020000060400000606000006080000060A0000060C0000060E00000800000008020000080400000806000008080000080A0000080C0000080E00000A0000000A0200000A0400000A0600000A0800000A0A00000A0C00000A0E00000C0000000C0200000C0400000C0600000C0800000C0
310
A00000C0C00000C0E00000E0000000E0200000E0400000E0600000E0800000E0A00000E0C00000E0E00040000000400020004000400040006000400080004000A0004000C0004000E00040200000402020004020400040206000402080004020A0004020C0004020E000404000004040200040404000404060004040800040
310
40A0004040C0004040E00040600000406020004060400040606000406080004060A0004060C0004060E00040800000408020004080400040806000408080004080A0004080C0004080E00040A0000040A0200040A0400040A0600040A0800040A0A00040A0C00040A0E00040C0000040C0200040C0400040C0600040C08000
310
40C0A00040C0C00040C0E00040E0000040E0200040E0400040E0600040E0800040E0A00040E0C00040E0E00080000000800020008000400080006000800080008000A0008000C0008000E00080200000802020008020400080206000802080008020A0008020C0008020E00080400000804020008040400080406000804080
310
008040A0008040C0008040E00080600000806020008060400080606000806080008060A0008060C0008060E00080800000808020008080400080806000808080008080A0008080C0008080E00080A0000080A0200080A0400080A0600080A0800080A0A00080A0C00080A0E00080C0000080C0200080C0400080C0600080C0
310
800080C0A00080C0C00080C0E00080E0000080E0200080E0400080E0600080E0800080E0A00080E0C00080E0E000C0000000C0002000C0004000C0006000C0008000C000A000C000C000C000E000C0200000C0202000C0204000C0206000C0208000C020A000C020C000C020E000C0400000C0402000C0404000C0406000C0
310
408000C040A000C040C000C040E000C0600000C0602000C0604000C0606000C0608000C060A000C060C000C060E000C0800000C0802000C0804000C0806000C0808000C080A000C080C000C080E000C0A00000C0A02000C0A04000C0A06000C0A08000C0A0A000C0A0C000C0A0E000C0C00000C0C02000C0C04000C0C06000
310
C0C08000C0C0A000F0FBFF00A4A0A000808080000000FF0000FF000000FFFF00FF000000FF00FF00FFFF0000FFFFFF00A4A4A4A4A4A4A4A4A4A4A4A4A4A4A4A4A4A4A4A4A4A4A4A4A4A4A4A4A4A4A4A4A4A4A4A4A4A4A4A4A4A4A4A4A4A4A4A4A4A4A4A4A4A4A4A4A4A4A4A4A4A4A4A4A4A4A4A4A4A4A4A4A4A4A4A4A4A4A4
310
A4A4A4A4A4A4A4A4A4A4A4A4A4A4A4A4A4A4A4A4A4A4A4A4A4A4A4A4A4A4A4A4A4A4A4A4A4A4A4A4A4A4A4A4A4A4A4A4A4A4A4A4A4A4A4A4A4A4A4A4A4A4A4A4A4A4A4A4A4A4A4A4A4A4A4A4A4A4A4A4A4A4A4A4A4A4A4A4A4A4A4A4A4A4A4A4A4A4A4A4A4A4A4A4A4A4A4A4A4A4A4A4A4A4A4A4A4A4A4A4A4A4A4A4A4A4A4
310
A4A4A4A4A4A4A4A4A4A4A4A4A4A4A4A4A4A4A4A4A4A4A4A4A4A4A4A4A4A4A4A4A4A4A4A4A4A4A4A4A4A4A4A4A4A4A4A4A4A4A4A4A4A4A4A4A4A4A4A4A4A4A4A4A4A4A4A4A4A4A4A4A4A4A4A4A4A4A4A4A4A4A4A4A4A4A4A4A4A4A4A4A4A4A4A4A4A4A4A4A4A4A4A4A4A4A4A4A4A4A4A4A4A4A4A4A4A4A4A4A4A4A4A4A4A4A4
310
A4A4A4A4A4A4A4A4A4A4A4A4A4A4A4A4A4A4A4A4A4A4A4A4A4A4A4A4A4A4A4A4A4A4A4A4A4A4A4A4A4A4A4A4A4A4A4A4A4A4A4A4A4A4A4A4A4A4A4A4A4A4A4A4A4A4A4A4A4A4A4A4A4A4A4A4A4A4A4A4A4A4A4A4A4A4A4A4A4A4A4A4A4A4A4A4A4A4A4A4A4A4A4A4A4A4A4A4A4A4A4A4A4A4A4A4F9F9F9F9F9F9F9F9F9F9F9
310
F9F9F9F9F9F9F9F9F9F9F9F9F9F9F9F9F9F9F9A4A4F9F9F9F9F9F9F9F9F9F9F9F9F9F9F9F9F9F9F9F9F9F9F9F9F9F9F9F9F9F9A4A4F9F9F9F9F9F9F9F9F9F9F9F9F9F9F9F9F9F9F9F9F9F9F9F9F9F9F9F9F9F9A4A4F9A4A4A4A4A4A4A4A4A4A4A4A4A4A4A4A4A4A4A4A4A4A4A4A4A4A4A4A4F9A4A4A4A4A4A4A4A4A4A4A4A4
310
A4A4A4A4A4A4A4A4A4A4A4A4A4A4A4A4A4A4A4A4A4A4A4A4A4A4A4A4A4A4A4A4A4A4A4A4A4A4A4A4A4A4A4A4A4A4A4A4A4A4A4A4A4A4A4A4A4A4A4A4A4A4A4A4A4A4A4A4A4A4A4A4A4A4A4A4A4A4A4A4A4A4A4A4A4A4A4A4A4A4A4A4A4A4A4A4A4A4A4A4A4A4A4A4A4A4A4A4A4A4A4A4A4A4A4A4A4A4A4A4A4A4A4A4A4A4A4
310
A4A4A4A4A4A4A4A4A4A4A4A4A4A4A4A4A4A4A4A4A4A4A4A4A4A4A4A4A4A4A4A4A4A4A4A4A4A4A4A4A4A4A4A4A4A4A4A4A4A4A4A4A4A4A4A4A4A4A4A4A4A4A4A4A4A4A4A4A4A4A4A4A4A4A4A4A4A4A4A4A4A4A4A4A4A4A4A4A4A4A4A4A4A4A4A4A4A4A4A4A4A4A4A4A4A4A4A4A4A4A4A4A4A4A4A4A4A4A4A4A4A4A4A4A4A4A4
310
A4A4A4A4A4A4A4A4A4A4A4A4A4A4A4A4A4A4A4A4A4A4A4A4A4A4A4A4A4A4A4A4A4A4A4A4A4A4A4A4A4A4A4A4A4A4A4A4A4A4A4A4A4A4A4A4A4A4A4A4A4A4A4A4A4A4A4A4A4A4A4A4A4A4A4A4A4A4A4A4A4A4A4A4A4A4A4A4A4A4A4A4A4A4A4A4A4A4A4A4A4A4A4A4A4A4A4A4A4A4A4A4A4A4A4A4A4A4A4A4A4A4A4A4A4A4A4
310
A4A4A4A4A4A4A4A4A4A4A4A4A4A4A4A4A4A4A4A4A4A4A4A4A4A4A4A4A4A4A4A4A4A4A4A4A4A4A4A4A4A4A4A4A4A4A4A4A4A4A4A4A4A4A4A4
1001
ACAD
1000
DesignCenter Data
1002
{
1070
     1
1070
     4
1002
}
  0
BLOCK_RECORD
  5
AA8
330
1
100
AcDbSymbolTableRecord
100
AcDbBlockTableRecord
  2
_CLOSED
340
0
  0
BLOCK_RECORD
  5
C8D
330
1
100
AcDbSymbolTableRecord
100
AcDbBlockTableRecord
  2
guarnizione
340
0
102
{BLKREFS
331
17CC
102
}
  0
BLOCK_RECORD
  5
1FE2
330
1
100
AcDbSymbolTableRecord
100
AcDbBlockTableRecord
  2
A$C582A2F79
340
0
  0
BLOCK_RECORD
  5
2AD3
330
1
100
AcDbSymbolTableRecord
100
AcDbBlockTableRecord
  2
*D19
340
0
  0
ENDTAB
  0
ENDSEC
  0
SECTION
  2
BLOCKS
  0
BLOCK
  5
20
330
1F
100
AcDbEntity
  8
0
100
AcDbBlockBegin
  2
*Model_Space
 70
     0
 10
0.0
 20
0.0
 30
0.0
  3
*Model_Space
  1

  0
ENDBLK
  5
21
330
1F
100
AcDbEntity
  8
0
100
AcDbBlockEnd
  0
BLOCK
  5
1C
330
1B
100
AcDbEntity
 67
     1
  8
0
100
AcDbBlockBegin
  2
*Paper_Space
 70
     0
 10
0.0
 20
0.0
 30
0.0
  3
*Paper_Space
  1

  0
ENDBLK
  5
1D
330
1B
100
AcDbEntity
 67
     1
  8
0
100
AcDbBlockEnd
  0
BLOCK
  5
24
330
23
100
AcDbEntity
 67
     1
  8
0
100
AcDbBlockBegin
  2
*Paper_Space0
 70
     0
 10
0.0
 20
0.0
 30
0.0
  3
*Paper_Space0
  1

  0
ENDBLK
  5
25
330
23
100
AcDbEntity
 67
     1
  8
0
100
AcDbBlockEnd
  0
BLOCK
  5
91B
330
919
100
AcDbEntity
  8
0
100
AcDbBlockBegin
  2
_DotSmall
 70
     0
 10
0.0
 20
0.0
 30
0.0
  3
_DotSmall
  1

  0
LWPOLYLINE
  5
91A
330
919
100
AcDbEntity
  8
0
  6
ByBlock
 62
     0
100
AcDbPolyline
 90
        2
 70
     1
 43
0.5
 10
-0.0625
 20
0.0
 42
1.0
 10
0.0625
 20
0.0
 42
1.0
  0
ENDBLK
  5
91C
330
919
100
AcDbEntity
  8
0
100
AcDbBlockEnd
  0
BLOCK
  5
92A
330
922
100
AcDbEntity
  8
0
100
AcDbBlockBegin
  2
base para cotas
 70
     0
 10
0.0
 20
0.0
 30
0.0
  3
base para cotas
  1

  0
LINE
  5
B36
330
922
100
AcDbEntity
  8
cotas
100
AcDbLine
 10
0.0
 20
-30.0
 30
0.0
 11
327.1260136525398
 21
-30.0
 31
0.0
  0
LINE
  5
B37
330
922
100
AcDbEntity
  8
cotas
100
AcDbLine
 10
0.0
 20
-25.0
 30
0.0
 11
327.1260136525398
 21
-25.0
 31
0.0
  0
LINE
  5
B38
330
922
100
AcDbEntity
  8
cotas
100
AcDbLine
 10
0.0
 20
-20.0
 30
0.0
 11
327.1260136525398
 21
-20.0
 31
0.0
  0
LINE
  5
B39
330
922
100
AcDbEntity
  8
cotas
100
AcDbLine
 10
0.0
 20
-15.0
 30
0.0
 11
327.1260136525398
 21
-15.0
 31
0.0
  0
LINE
  5
B3A
330
922
100
AcDbEntity
  8
cotas
100
AcDbLine
 10
0.0
 20
-10.0
 30
0.0
 11
327.1260136525398
 21
-10.0
 31
0.0
  0
LINE
  5
B3B
330
922
100
AcDbEntity
  8
cotas
100
AcDbLine
 10
0.0
 20
0.0
 30
0.0
 11
0.0
 21
-30.0
 31
0.0
  0
LINE
  5
B3C
330
922
100
AcDbEntity
  8
cotas
100
AcDbLine
 10
327.1260136525398
 20
-30.0
 30
0.0
 11
327.1260136525398
 21
0.0
 31
0.0
  0
ENDBLK
  5
92B
330
922
100
AcDbEntity
  8
0
100
AcDbBlockEnd
  0
BLOCK
  5
AAD
330
AA8
100
AcDbEntity
  8
0
100
AcDbBlockBegin
  2
_CLOSED
 70
     0
 10
0.0
 20
0.0
 30
0.0
  3
_CLOSED
  1

  0
LINE
  5
AA9
330
AA8
100
AcDbEntity
  8
0
100
AcDbLine
 10
-1.0
 20
0.166667
 30
0.0
 11
0.0
 21
0.0
 31
0.0
  0
LINE
  5
AAA
330
AA8
100
AcDbEntity
  8
0
100
AcDbLine
 10
0.0
 20
0.0
 30
0.0
 11
-1.0
 21
-0.166667
 31
0.0
  0
LINE
  5
AAB
330
AA8
100
AcDbEntity
  8
0
100
AcDbLine
 10
-1.0
 20
0.166667
 30
0.0
 11
-1.0
 21
-0.166667
 31
0.0
  0
LINE
  5
AAC
330
AA8
100
AcDbEntity
  8
0
100
AcDbLine
 10
0.0
 20
0.0
 30
0.0
 11
-1.0
 21
0.0
 31
0.0
  0
ENDBLK
  5
AAE
330
AA8
100
AcDbEntity
  8
0
100
AcDbBlockEnd
  0
BLOCK
  5
CD8
330
C8D
100
AcDbEntity
  8
0
 62
     4
100
AcDbBlockBegin
  2
guarnizione
 70
     0
 10
0.0
 20
0.0
 30
0.0
  3
guarnizione
  1

  0
LINE
  5
C8E
330
C8D
100
AcDbEntity
  8
0
100
AcDbLine
 10
12.0
 20
3.179312414488776
 30
0.0
 11
12.0
 21
2.699999999999818
 31
0.0
  0
LINE
  5
C8F
330
C8D
100
AcDbEntity
  8
0
100
AcDbLine
 10
9.5
 20
3.130475008156281
 30
0.0
 11
9.440776269158959
 21
2.734883615801663
 31
0.0
  0
ARC
  5
C90
330
C8D
100
AcDbEntity
  8
0
100
AcDbCircle
 10
11.19999999999891
 20
3.179312414488776
 30
0.0
 40
0.8
100
AcDbArc
 50
0.0
 51
81.48552156587461
  0
ARC
  5
C91
330
C8D
100
AcDbEntity
  8
0
100
AcDbCircle
 10
8.753809903480942
 20
1.523241254200002
 30
0.0
 40
0.1999999999999504
100
AcDbArc
 50
171.485521565823
 51
351.485521565823
  0
LINE
  5
C92
330
C8D
100
AcDbEntity
  8
0
100
AcDbLine
 10
11.65558220186904
 20
-2.403306455734309
 30
0.0
 11
9.440776269158959
 21
-2.734883615802573
 31
0.0
  0
ARC
  5
C93
330
C8D
100
AcDbEntity
  8
0
100
AcDbCircle
 10
8.753809903480942
 20
-1.523241254200911
 30
0.0
 40
0.1999999999999504
100
AcDbArc
 50
8.514478434176927
 51
188.5144784341769
  0
LINE
  5
C94
330
C8D
100
AcDbEntity
  8
0
100
AcDbLine
 10
9.5
 20
-3.130475008157191
 30
0.0
 11
9.440776269158959
 21
-2.734883615802573
 31
0.0
  0
ARC
  5
C95
330
C8D
100
AcDbEntity
  8
0
100
AcDbCircle
 10
11.69999999999891
 20
-2.699999999999818
 30
0.0
 40
0.3
100
AcDbArc
 50
0.0
 51
98.51447843412536
  0
ARC
  5
C96
330
C8D
100
AcDbEntity
  8
0
100
AcDbCircle
 10
11.69999999999891
 20
2.699999999999818
 30
0.0
 40
0.3
100
AcDbArc
 50
261.4855215658746
 51
0.0
  0
LINE
  5
C97
330
C8D
100
AcDbEntity
  8
0
100
AcDbLine
 10
11.65558220186904
 20
2.4033064557334
 30
0.0
 11
9.440776269158959
 21
2.734883615801663
 31
0.0
  0
LINE
  5
C98
330
C8D
100
AcDbEntity
  8
0
100
AcDbLine
 10
8.807715063378054
 20
3.234116537129011
 30
0.0
 11
8.556014207302723
 21
1.552853119620522
 31
0.0
  0
LINE
  5
C99
330
C8D
100
AcDbEntity
  8
0
100
AcDbLine
 10
9.203306455732672
 20
3.174892806287971
 30
0.0
 11
8.951605599657341
 21
1.493629388779481
 31
0.0
  0
LINE
  5
C9A
330
C8D
100
AcDbEntity
  8
0
100
AcDbLine
 10
6.681411329471302
 20
3.552444090400967
 30
0.0
 11
6.622187598630262
 21
3.15685269804544
 31
0.0
  0
ARC
  5
C9B
330
C8D
100
AcDbEntity
  8
0
100
AcDbCircle
 10
0.2999999999992724
 20
3.800000000000181
 30
0.0
 40
0.3
100
AcDbArc
 50
81.48552156587461
 51
180.0
  0
ARC
  5
C9C
330
C8D
100
AcDbEntity
  8
0
100
AcDbCircle
 10
1.042400829128382
 20
4.699999999999818
 30
0.0
 40
0.8
100
AcDbArc
 50
81.48552156587461
 51
90.0
  0
LINE
  5
C9D
330
C8D
100
AcDbEntity
  8
0
100
AcDbLine
 10
1.5
 20
3.923692082123125
 30
0.0
 11
0.3444177981309622
 21
4.09669354426569
 31
0.0
  0
LINE
  5
C9E
330
C8D
100
AcDbEntity
  8
0
100
AcDbLine
 10
1.5
 20
3.923692082123125
 30
0.0
 11
1.5
 21
3.099999999999454
 31
0.0
  0
LINE
  5
C9F
330
C8D
100
AcDbEntity
  8
0
100
AcDbLine
 10
1.5
 20
3.099999999999454
 30
0.0
 11
2.699999999998908
 21
3.099999999999454
 31
0.0
  0
LINE
  5
CA0
330
C8D
100
AcDbEntity
  8
0
100
AcDbLine
 10
2.699999999998908
 20
3.744040860223321
 30
0.0
 11
2.699999999998908
 21
3.099999999999454
 31
0.0
  0
LINE
  5
CA1
330
C8D
100
AcDbEntity
  8
0
100
AcDbLine
 10
6.622187598630262
 20
3.15685269804544
 30
0.0
 11
2.699999999998908
 21
3.744040860223321
 31
0.0
  0
LINE
  5
CA2
330
C8D
100
AcDbEntity
  8
0
100
AcDbLine
 10
1.5
 20
-3.100000000000363
 30
0.0
 11
2.699999999998908
 21
-3.100000000000363
 31
0.0
  0
LINE
  5
CA3
330
C8D
100
AcDbEntity
  8
0
100
AcDbLine
 10
11.31844746168099
 20
3.970495199198012
 30
0.0
 11
1.160848290810463
 21
5.491182784709053
 31
0.0
  0
LINE
  5
CA4
330
C8D
100
AcDbEntity
  8
0
100
AcDbLine
 10
9.5
 20
3.130475008156281
 30
0.0
 11
6.681411329471302
 21
3.552444090400967
 31
0.0
  0
ARC
  5
CA5
330
C8D
100
AcDbEntity
  8
0
100
AcDbCircle
 10
11.19999999999891
 20
-3.179312414488776
 30
0.0
 40
0.8
100
AcDbArc
 50
278.5144784341254
 51
0.0
  0
LINE
  5
CA6
330
C8D
100
AcDbEntity
  8
0
100
AcDbLine
 10
6.681411329471302
 20
-3.552444090400967
 30
0.0
 11
6.622187598630262
 21
-3.15685269804635
 31
0.0
  0
ARC
  5
CA7
330
C8D
100
AcDbEntity
  8
0
100
AcDbCircle
 10
0.2999999999992724
 20
-3.800000000000181
 30
0.0
 40
0.3
100
AcDbArc
 50
180.0
 51
278.5144784341254
  0
ARC
  5
CA8
330
C8D
100
AcDbEntity
  8
0
100
AcDbCircle
 10
1.042400829128382
 20
-4.699999999999818
 30
0.0
 40
0.8
100
AcDbArc
 50
270.0
 51
278.5144784341254
  0
LINE
  5
CA9
330
C8D
100
AcDbEntity
  8
0
100
AcDbLine
 10
0.3444177981309622
 20
-4.096693544266599
 30
0.0
 11
1.5
 21
-3.923692082124034
 31
0.0
  0
LINE
  5
CAA
330
C8D
100
AcDbEntity
  8
0
100
AcDbLine
 10
6.622187598630262
 20
-3.15685269804635
 30
0.0
 11
2.699999999998908
 21
-3.744040860224231
 31
0.0
  0
LINE
  5
CAB
330
C8D
100
AcDbEntity
  8
0
100
AcDbLine
 10
1.160848290810463
 20
-5.491182784709963
 30
0.0
 11
11.31844746168099
 21
-3.970495199198921
 31
0.0
  0
LINE
  5
CAC
330
C8D
100
AcDbEntity
  8
0
100
AcDbLine
 10
0.0
 20
3.800000000000181
 30
0.0
 11
0.0
 21
-3.800000000000181
 31
0.0
  0
LINE
  5
CAD
330
C8D
100
AcDbEntity
  8
0
100
AcDbLine
 10
12.0
 20
-2.699999999999818
 30
0.0
 11
12.0
 21
-3.179312414488776
 31
0.0
  0
LINE
  5
CAE
330
C8D
100
AcDbEntity
  8
0
100
AcDbLine
 10
2.699999999998908
 20
-3.100000000000363
 30
0.0
 11
2.699999999998908
 21
-3.744040860224231
 31
0.0
  0
LINE
  5
CAF
330
C8D
100
AcDbEntity
  8
0
100
AcDbLine
 10
1.5
 20
-3.100000000000363
 30
0.0
 11
1.5
 21
-3.923692082124034
 31
0.0
  0
LINE
  5
CB0
330
C8D
100
AcDbEntity
  8
0
100
AcDbLine
 10
9.5
 20
-3.130475008157191
 30
0.0
 11
6.681411329471302
 21
-3.552444090400967
 31
0.0
  0
LINE
  5
CB1
330
C8D
100
AcDbEntity
  8
0
100
AcDbLine
 10
9.203306455732672
 20
-3.174892806287971
 30
0.0
 11
8.951605599657341
 21
-1.493629388780391
 31
0.0
  0
LINE
  5
CB2
330
C8D
100
AcDbEntity
  8
0
100
AcDbLine
 10
8.807715063378054
 20
-3.234116537129011
 30
0.0
 11
8.556014207302723
 21
-1.552853119621431
 31
0.0
  0
LINE
  5
CB3
330
C8D
100
AcDbEntity
  8
0
100
AcDbLine
 10
-1.5
 20
5.5
 30
0.0
 11
-3.757359312881817
 21
5.5
 31
0.0
  0
ARC
  5
CB4
330
C8D
100
AcDbEntity
  8
0
100
AcDbCircle
 10
-2.5
 20
3.5
 30
0.0
 40
1.0
100
AcDbArc
 50
0.0
 51
90.0
  0
ARC
  5
CB5
330
C8D
100
AcDbEntity
  8
0
100
AcDbCircle
 10
-3.769781102879278
 20
4.149978862833449
 30
0.0
 40
0.75
100
AcDbArc
 50
47.16775949949599
 51
90.19499109987526
  0
ARC
  5
CB6
330
C8D
100
AcDbEntity
  8
0
100
AcDbCircle
 10
-2.75
 20
5.25
 30
0.0
 40
0.75
100
AcDbArc
 50
227.167759499496
 51
270.0
  0
LINE
  5
CB7
330
C8D
100
AcDbEntity
  8
0
100
AcDbLine
 10
-2.75
 20
4.5
 30
0.0
 11
-2.5
 21
4.5
 31
0.0
  0
LINE
  5
CB8
330
C8D
100
AcDbEntity
  8
0
100
AcDbLine
 10
-7.415254325502246
 20
3.064644661409147
 30
0.0
 11
-6.868629150101696
 21
3.611269837220788
 31
0.0
  0
ARC
  5
CB9
102
{ACAD_REACTORS
330
CD3
102
}
330
C8D
100
AcDbEntity
  8
0
100
AcDbCircle
 10
-7.980939750059405
 20
2.569669913566031
 30
0.0
 40
0.2
100
AcDbArc
 50
45.0000001037625
 51
135.0000000719631
  0
ARC
  5
CBA
330
C8D
100
AcDbEntity
  8
0
100
AcDbCircle
 10
-3.757359312881817
 20
0.5
 30
0.0
 40
5.0
100
AcDbArc
 50
90.0
 51
135.0
  0
ARC
  5
CBB
330
C8D
100
AcDbEntity
  8
0
100
AcDbCircle
 10
-3.757359312881817
 20
0.5
 30
0.0
 40
4.4
100
AcDbArc
 50
90.19499109987526
 51
135.0
  0
ARC
  5
CBC
330
C8D
100
AcDbEntity
  8
0
100
AcDbCircle
 10
-6.814213563102384
 20
0.9786796633270569
 30
0.0
 40
0.75
100
AcDbArc
 50
314.9999999676111
 51
45.0
  0
ARC
  5
CBD
102
{ACAD_REACTORS
330
CD3
102
}
330
C8D
100
AcDbEntity
  8
0
100
AcDbCircle
 10
-6.814213563102384
 20
0.9786796633270569
 30
0.0
 40
0.5
100
AcDbArc
 50
314.9999999676111
 51
45.0
  0
ARC
  5
CBE
330
C8D
100
AcDbEntity
  8
0
100
AcDbCircle
 10
-7.203122291144609
 20
2.852512627053329
 30
0.0
 40
0.3
100
AcDbArc
 50
135.0
 51
225.0000001112794
  0
LINE
  5
CBF
330
C8D
100
AcDbEntity
  8
0
100
AcDbLine
 10
-8.051650430128574
 20
3.276776694619002
 30
0.0
 11
-6.283883477519339
 21
1.509009749524921
 31
0.0
  0
LINE
  5
CC0
102
{ACAD_REACTORS
330
CD3
102
}
330
C8D
100
AcDbEntity
  8
0
100
AcDbLine
 10
-7.839518394079277
 20
2.711091270059114
 30
0.0
 11
-6.460660172508141
 21
1.33223305392039
 31
0.0
  0
ARC
  5
CC1
330
C8D
100
AcDbEntity
  8
0
100
AcDbCircle
 10
-12.57713383280133
 20
-2.521498914058611
 30
0.0
 40
0.3
100
AcDbArc
 50
45.00000003552097
 51
135.0
  0
ARC
  5
CC2
102
{ACAD_REACTORS
330
CD3
102
}
330
C8D
100
AcDbEntity
  8
0
100
AcDbCircle
 10
-12.29429112059733
 20
-1.743681468243266
 30
0.0
 40
0.2
100
AcDbArc
 50
135.0000000660675
 51
225.0000002990173
  0
LINE
  5
CC3
330
C8D
100
AcDbEntity
  8
0
100
AcDbLine
 10
-12.9899494936617
 20
-2.510050506339212
 30
0.0
 11
-12.78926586715715
 21
-2.309366879702793
 31
0.0
  0
LINE
  5
CC4
330
C8D
100
AcDbEntity
  8
0
100
AcDbLine
 10
-13.41421356237333
 20
-2.085786437626666
 30
0.0
 11
-7.292893218815152
 21
4.035533905932425
 31
0.0
  0
LINE
  5
CC5
102
{ACAD_REACTORS
330
CD3
102
}
330
C8D
100
AcDbEntity
  8
0
100
AcDbLine
 10
-12.43571247699765
 20
-1.602260112168551
 30
0.0
 11
-8.122361106474272
 21
2.711091269625285
 31
0.0
  0
ARC
  5
CC6
330
C8D
100
AcDbEntity
  8
0
100
AcDbCircle
 10
-2.5
 20
-3.5
 30
0.0
 40
1.0
100
AcDbArc
 50
270.0
 51
0.0
  0
ARC
  5
CC7
330
C8D
100
AcDbEntity
  8
0
100
AcDbCircle
 10
-7.519803902720013
 20
-4.150000000000545
 30
0.0
 40
0.75
100
AcDbArc
 50
270.0
 51
312.8334280660476
  0
ARC
  5
CC8
330
C8D
100
AcDbEntity
  8
0
100
AcDbCircle
 10
-6.5
 20
-5.25
 30
0.0
 40
0.75
100
AcDbArc
 50
90.0
 51
132.8334280660476
  0
LINE
  5
CC9
330
C8D
100
AcDbEntity
  8
0
100
AcDbLine
 10
-2.5
 20
-4.5
 30
0.0
 11
-6.5
 21
-4.5
 31
0.0
  0
ARC
  5
CCA
330
C8D
100
AcDbEntity
  8
0
100
AcDbCircle
 10
-10.7033008647486
 20
-2.910407640086305
 30
0.0
 40
0.75
100
AcDbArc
 50
225.0
 51
315.0
  0
ARC
  5
CCB
102
{ACAD_REACTORS
330
CD3
102
}
330
C8D
100
AcDbEntity
  8
0
100
AcDbCircle
 10
-10.7033008647486
 20
-2.910407640086305
 30
0.0
 40
0.5
100
AcDbArc
 50
225.0
 51
315.0
  0
LINE
  5
CCC
330
C8D
100
AcDbEntity
  8
0
100
AcDbLine
 10
-1.5
 20
-5.5
 30
0.0
 11
-12.0
 21
-5.5
 31
0.0
  0
LINE
  5
CCD
330
C8D
100
AcDbEntity
  8
0
100
AcDbLine
 10
-7.519803902720013
 20
-4.900000000000545
 30
0.0
 11
-12.0
 21
-4.900000000000545
 31
0.0
  0
ARC
  5
CCE
330
C8D
100
AcDbEntity
  8
0
100
AcDbCircle
 10
-12.0
 20
-3.5
 30
0.0
 40
2.0
100
AcDbArc
 50
135.0
 51
270.0
  0
LINE
  5
CCF
330
C8D
100
AcDbEntity
  8
0
100
AcDbLine
 10
-10.17297077881812
 20
-3.440737725935832
 30
0.0
 11
-6.283883477372
 21
0.4483495772774404
 31
0.0
  0
ARC
  5
CD0
330
C8D
100
AcDbEntity
  8
0
100
AcDbCircle
 10
-12.0
 20
-3.5
 30
0.0
 40
1.399999999999999
100
AcDbArc
 50
135.0
 51
270.0
  0
LINE
  5
CD1
330
C8D
100
AcDbEntity
  8
0
100
AcDbLine
 10
-13.00139790187859
 20
-1.672970777132832
 30
0.0
 11
-11.23363095093009
 21
-3.440737725682993
 31
0.0
  0
LINE
  5
CD2
330
C8D
100
AcDbEntity
  8
0
100
AcDbLine
 10
-1.5
 20
3.5
 30
0.0
 11
-1.5
 21
-3.5
 31
0.0
  0
HATCH
  5
CD3
330
C8D
100
AcDbEntity
  8
0
100
AcDbHatch
 10
0.0
 20
0.0
 30
0.0
210
0.0
220
0.0
230
1.0
  2
ANSI31
 70
     0
 71
     1
 91
        1
 92
        7
 72
     1
 73
     1
 93
        8
 10
-6.460660173204814
 20
1.332233054616153
 42
0.0
 10
-7.839518394101105
 20
2.711091270081851
 42
0.414213562178905
 10
-8.122361106481548
 20
2.711091269618009
 42
0.0
 10
-12.43571247701766
 20
-1.602260112190379
 42
0.4142135636146872
 10
-12.43571247604996
 20
-1.885102825264766
 42
0.0
 10
-11.05685425338015
 20
-3.263961032639599
 42
0.4142135608152901
 10
-10.34974747407432
 20
-3.263961030598693
 42
0.0
 10
-6.460660172428106
 20
0.625126272813759
 42
0.4142135628833784
 97
        8
330
CC0
330
CB9
330
CC5
330
CC2
330
CD5
330
CCB
330
CD4
330
CBD
 75
     0
 76
     1
 52
45.0
 41
0.25
 77
     0
 78
     1
 53
90.0
 43
-276.1145346408611
 44
-395.2719013892401
 45
-0.79375
 46
0.0000000000000002
 79
     0
 47
0.0364805528584695
 98
        1
 10
-7.399477738399582
 20
0.8532363732892918
  0
LINE
  5
CD4
102
{ACAD_REACTORS
330
CD3
102
}
330
C8D
100
AcDbEntity
  8
0
100
AcDbLine
 10
-10.34974747415435
 20
-3.263961030678729
 30
0.0
 11
-6.46066017270823
 21
0.6251262725336347
 31
0.0
  0
LINE
  5
CD5
102
{ACAD_REACTORS
330
CD3
102
}
330
C8D
100
AcDbEntity
  8
0
100
AcDbLine
 10
-12.43571247609543
 20
-1.885102825218382
 30
0.0
 11
-11.05685425534102
 21
-3.263961030678729
 31
0.0
  0
LINE
  5
CD6
330
C8D
100
AcDbEntity
  8
0
100
AcDbLine
 10
-1.5
 20
5.5
 30
0.0
 11
1.042400829128382
 21
5.5
 31
0.0
  0
LINE
  5
CD7
330
C8D
100
AcDbEntity
  8
0
100
AcDbLine
 10
-1.5
 20
-5.5
 30
0.0
 11
1.042400829128382
 21
-5.5
 31
0.0
  0
ENDBLK
  5
CD9
330
C8D
100
AcDbEntity
  8
0
 62
     4
100
AcDbBlockEnd
  0
BLOCK
  5
2002
330
1FE2
100
AcDbEntity
  8
0
100
AcDbBlockBegin
  2
A$C582A2F79
 70
     0
 10
0.0
 20
0.0
 30
0.0
  3
A$C582A2F79
  1

  0
LINE
  5
1FE3
330
1FE2
100
AcDbEntity
  8
7
100
AcDbLine
 10
13.60000027864851
 20
31.14999997703683
 30
-0.0000001793795719
 11
13.60000027864851
 21
27.84999997703665
 31
-0.0000001793795719
  0
LINE
  5
1FE4
330
1FE2
100
AcDbEntity
  8
7
100
AcDbLine
 10
6.000000278647689
 20
29.29999997703669
 30
-0.0000001793795719
 11
6.000000278647689
 21
27.19999997703678
 31
-0.0000001793795719
  0
LINE
  5
1FE5
330
1FE2
100
AcDbEntity
  8
7
100
AcDbLine
 10
7.600000278647598
 20
27.19999997703701
 30
-0.0000001793795719
 11
7.600000278647598
 21
29.29999997703669
 31
-0.0000001793795719
  0
LINE
  5
1FE6
330
1FE2
100
AcDbEntity
  8
7
100
AcDbLine
 10
5.911111389760549
 20
27.74999997703674
 30
-0.0000001793795719
 11
5.911111389760549
 21
29.69999997703678
 31
-0.0000001793795719
  0
LINE
  5
1FE7
330
1FE2
100
AcDbEntity
  8
7
100
AcDbLine
 10
0.0000002786608775
 20
31.14999997703683
 30
-0.0000001793795719
 11
0.000000278659968
 21
27.84999997703642
 31
-0.0000001793795719
  0
LINE
  5
1FE8
330
1FE2
100
AcDbEntity
  8
7
100
AcDbLine
 10
0.100000278659877
 20
27.74999997703651
 30
-0.0000001793795719
 11
5.911111389760549
 21
27.74999997703674
 31
-0.0000001793795719
  0
ARC
  5
1FE9
330
1FE2
100
AcDbEntity
  8
7
100
AcDbCircle
 10
0.100000278659877
 20
27.84999997703642
 30
-0.0000001793795719
 40
0.1
100
AcDbArc
 50
180.0
 51
270.0
  0
LINE
  5
1FEA
330
1FE2
100
AcDbEntity
  8
7
100
AcDbLine
 10
13.5000002786486
 20
27.74999997703674
 30
-0.0000001793795719
 11
7.600000278647598
 21
27.74999997703674
 31
-0.0000001793795719
  0
ARC
  5
1FEB
330
1FE2
100
AcDbEntity
  8
7
100
AcDbCircle
 10
7.500000278647689
 20
27.19999997703701
 30
-0.0000001793795719
 40
0.1
100
AcDbArc
 50
270.0
 51
0.0
  0
ARC
  5
1FEC
330
1FE2
100
AcDbEntity
  8
7
100
AcDbCircle
 10
6.100000278647598
 20
27.19999997703678
 30
-0.0000001793795719
 40
0.1
100
AcDbArc
 50
180.0
 51
270.000000000026
  0
LINE
  5
1FED
330
1FE2
100
AcDbEntity
  8
7
100
AcDbLine
 10
6.100000278647598
 20
27.09999997703687
 30
-0.0000001793795719
 11
7.500000278647689
 21
27.0999999770371
 31
-0.0000001793795719
  0
ARC
  5
1FEE
330
1FE2
100
AcDbEntity
  8
7
100
AcDbCircle
 10
13.5000002786486
 20
27.84999997703665
 30
-0.0000001793795719
 40
0.1
100
AcDbArc
 50
270.0
 51
0.0
  0
LINE
  5
1FEF
330
1FE2
100
AcDbEntity
  8
7
100
AcDbLine
 10
6.650000278660058
 20
0.9999999770362819
 30
0.0
 11
6.650000278660513
 21
27.09999997703665
 31
0.0
  0
LINE
  5
1FF0
330
1FE2
100
AcDbEntity
  8
7
100
AcDbLine
 10
6.950000278660695
 20
-0.0000000229634907
 30
0.0
 11
6.950000278660695
 21
27.09999997703665
 31
0.0
  0
LINE
  5
1FF1
330
1FE2
100
AcDbEntity
  8
cotas
100
AcDbLine
 10
6.650000278660513
 20
27.09999997703665
 30
0.0
 11
6.950000278660695
 21
27.09999997703665
 31
0.0
  0
LINE
  5
1FF2
330
1FE2
100
AcDbEntity
  8
7
100
AcDbLine
 10
6.000000278660422
 20
31.24999997703674
 30
-0.0000001793795719
 11
0.1000002786607865
 21
31.24999997703674
 31
-0.0000001793795719
  0
ARC
  5
1FF3
330
1FE2
100
AcDbEntity
  8
7
100
AcDbCircle
 10
0.1000002786607865
 20
31.14999997703683
 30
-0.0000001793795719
 40
0.1
100
AcDbArc
 50
90.0
 51
179.999999999987
  0
LINE
  5
1FF4
330
1FE2
100
AcDbEntity
  8
7
100
AcDbLine
 10
7.688889167548381
 20
31.24999997703674
 30
-0.0000001793795719
 11
13.5000002786486
 21
31.24999997703674
 31
-0.0000001793795719
  0
LINE
  5
1FF5
330
1FE2
100
AcDbEntity
  8
7
100
AcDbLine
 10
7.600000278660331
 20
29.69999997703678
 30
-0.0000001793795719
 11
7.600000278660331
 21
31.79999997703624
 31
-0.0000001793795719
  0
LINE
  5
1FF6
330
1FE2
100
AcDbEntity
  8
7
100
AcDbLine
 10
7.688889167547472
 20
29.29999997703669
 30
-0.0000001793795719
 11
7.688889167548381
 21
31.24999997703674
 31
-0.0000001793795719
  0
LINE
  5
1FF7
330
1FE2
100
AcDbEntity
  8
7
100
AcDbLine
 10
7.550000278647416
 20
29.69999997703678
 30
-0.0000001793795719
 11
7.550000278647416
 21
29.29999997703669
 31
-0.0000001793795719
  0
LINE
  5
1FF8
330
1FE2
100
AcDbEntity
  8
7
100
AcDbLine
 10
7.600000278647598
 20
29.29999997703669
 30
-0.0000001793795719
 11
7.688889167547472
 21
29.29999997703669
 31
-0.0000001793795719
  0
ARC
  5
1FF9
330
1FE2
100
AcDbEntity
  8
7
100
AcDbCircle
 10
7.500000278660422
 20
31.79999997703624
 30
-0.0000001793795719
 40
0.1
100
AcDbArc
 50
0.0
 51
90.0
  0
ARC
  5
1FFA
330
1FE2
100
AcDbEntity
  8
7
100
AcDbCircle
 10
6.100000278660786
 20
31.79999997703692
 30
-0.0000001793795719
 40
0.1
100
AcDbArc
 50
90.0
 51
180.0
  0
LINE
  5
1FFB
330
1FE2
100
AcDbEntity
  8
7
100
AcDbLine
 10
6.000000278660422
 20
31.24999997703674
 30
-0.0000001793795719
 11
6.000000278660422
 21
29.69999997703678
 31
-0.0000001793795719
  0
LINE
  5
1FFC
330
1FE2
100
AcDbEntity
  8
7
100
AcDbLine
 10
6.000000278660877
 20
31.79999997703692
 30
-0.0000001793795719
 11
6.000000278660422
 21
31.24999997703674
 31
-0.0000001793795719
  0
LINE
  5
1FFD
330
1FE2
100
AcDbEntity
  8
7
100
AcDbLine
 10
6.050000278647416
 20
29.69999997703678
 30
-0.0000001793795719
 11
6.050000278647416
 21
29.29999997703669
 31
-0.0000001793795719
  0
LINE
  5
1FFE
330
1FE2
100
AcDbEntity
  8
7
100
AcDbLine
 10
5.911111389760549
 20
29.69999997703678
 30
-0.0000001793795719
 11
7.600000278660331
 21
29.69999997703678
 31
-0.0000001793795719
  0
LINE
  5
1FFF
330
1FE2
100
AcDbEntity
  8
7
100
AcDbLine
 10
7.600000278647598
 20
29.29999997703669
 30
-0.0000001793795719
 11
6.000000278647689
 21
29.29999997703669
 31
-0.0000001793795719
  0
LINE
  5
2000
330
1FE2
100
AcDbEntity
  8
7
100
AcDbLine
 10
7.500000278660422
 20
31.89999997703615
 30
-0.0000001793795719
 11
6.100000278660786
 21
31.89999997703683
 31
-0.0000001793795719
  0
ARC
  5
2001
330
1FE2
100
AcDbEntity
  8
7
100
AcDbCircle
 10
13.5000002786486
 20
31.14999997703683
 30
-0.0000001793795719
 40
0.1
100
AcDbArc
 50
0.0
 51
90.0
  0
ENDBLK
  5
2003
330
1FE2
100
AcDbEntity
  8
0
100
AcDbBlockEnd
  0
BLOCK
  5
2AD4
330
2AD3
100
AcDbEntity
  8
0
100
AcDbBlockBegin
  2
*D19
 70
     1
 10
0.0
 20
0.0
 30
0.0
  3
*D19
  1

  0
LINE
  5
2AE0
330
2AD3
100
AcDbEntity
  8
cotas
100
AcDbLine
 10
3011.425261461933
 20
1528.337585407531
 30
0.0
 11
3011.425261461933
 21
1710.356719518941
 31
0.0
  0
LINE
  5
2AE1
330
2AD3
100
AcDbEntity
  8
cotas
100
AcDbLine
 10
2236.20926332596
 20
1528.337585407531
 30
0.0
 11
2236.20926332596
 21
1710.356719518941
 31
0.0
  0
LINE
  5
2AE2
330
2AD3
100
AcDbEntity
  8
cotas
100
AcDbLine
 10
3009.425261461933
 20
1709.356719518941
 30
0.0
 11
2238.20926332596
 21
1709.356719518941
 31
0.0
  0
SOLID
  5
2AE3
330
2AD3
100
AcDbEntity
  8
cotas
100
AcDbTrace
 10
3009.425261461933
 20
1709.690052852274
 30
0.0
 11
3009.425261461933
 21
1709.023386185607
 31
0.0
 12
3011.425261461933
 22
1709.356719518941
 32
0.0
 13
3011.425261461933
 23
1709.356719518941
 33
0.0
  0
SOLID
  5
2AE4
330
2AD3
100
AcDbEntity
  8
cotas
100
AcDbTrace
 10
2238.20926332596
 20
1709.690052852274
 30
0.0
 11
2238.20926332596
 21
1709.023386185607
 31
0.0
 12
2236.20926332596
 22
1709.356719518941
 32
0.0
 13
2236.20926332596
 23
1709.356719518941
 33
0.0
  0
MTEXT
  5
2AE5
330
2AD3
100
AcDbEntity
  8
cotas
100
AcDbMText
 10
2623.817262393946
 20
1711.626027779518
 30
0.0
 40
2.0
 41
0.0
 71
     5
 72
     1
  1
775,2
  7
SANINDUSA
 73
     1
 44
1.0
1001
ACAD
1000
MTEXTBEGIN
1070
    73
1070
     1
1070
    44
1040
1.0
1070
    74
1070
     0
1000
MTEXTEND
  0
POINT
  5
2AE6
330
2AD3
100
AcDbEntity
  8
Defpoints
 62
     0
100
AcDbPoint
 10
3011.425261461933
 20
1527.337585407531
 30
-0.0000001555549692
  0
POINT
  5
2AE7
330
2AD3
100
AcDbEntity
  8
Defpoints
 62
     0
100
AcDbPoint
 10
2236.20926332596
 20
1527.337585407531
 30
-0.0000001555549692
  0
POINT
  5
2AE8
330
2AD3
100
AcDbEntity
  8
Defpoints
 62
     0
100
AcDbPoint
 10
2236.20926332596
 20
1709.356719518941
 30
0.0
  0
ENDBLK
  5
2AD5
330
2AD3
100
AcDbEntity
  8
0
100
AcDbBlockEnd
  0
ENDSEC
  0
SECTION
  2
ENTITIES
  0
LINE
  5
1566
330
1F
100
AcDbEntity
  8
SANINDUSA
100
AcDbLine
 10
3102.919412701626
 20
1619.114912368679
 30
0.0
 11
3102.919412701626
 21
1620.96491236868
 31
0.0
  0
LINE
  5
1567
330
1F
100
AcDbEntity
  8
SANINDUSA
100
AcDbLine
 10
3102.974262701626
 20
1619.114912368679
 30
0.0
 11
3102.974262701626
 21
1620.96491236868
 31
0.0
  0
LINE
  5
1569
330
1F
100
AcDbEntity
  8
SANINDUSA
100
AcDbLine
 10
3102.202262701626
 20
1619.124912368679
 30
0.0
 11
3102.202262701626
 21
1620.96491236868
 31
0.0
  0
LINE
  5
156A
330
1F
100
AcDbEntity
  8
SANINDUSA
100
AcDbLine
 10
3102.201762701626
 20
1619.124912368679
 30
0.0
 11
3102.201762701626
 21
1620.96491236868
 31
0.0
  0
LINE
  5
156B
330
1F
100
AcDbEntity
  8
SANINDUSA
100
AcDbLine
 10
3102.195762701626
 20
1619.124912368679
 30
0.0
 11
3102.195762701626
 21
1620.96491236868
 31
0.0
  0
LINE
  5
156C
330
1F
100
AcDbEntity
  8
SANINDUSA
100
AcDbLine
 10
3102.183462701626
 20
1619.114912368679
 30
0.0
 11
3102.183462701626
 21
1620.96491236868
 31
0.0
  0
LINE
  5
156D
330
1F
100
AcDbEntity
  8
SANINDUSA
100
AcDbLine
 10
3102.702262701626
 20
1619.43391236868
 30
0.0
 11
3102.702262701626
 21
1620.64591236867
 31
0.0
  0
LINE
  5
156E
330
1F
100
AcDbEntity
  8
SANINDUSA
100
AcDbLine
 10
3102.705262701626
 20
1619.43391236868
 30
0.0
 11
3102.705262701626
 21
1620.64591236867
 31
0.0
  0
LINE
  5
1573
330
1F
100
AcDbEntity
  8
SANINDUSA
100
AcDbLine
 10
3102.702262701626
 20
1619.124912368679
 30
0.0
 11
3102.202262701626
 21
1619.124912368679
 31
0.0
  0
LINE
  5
1579
330
1F
100
AcDbEntity
  8
SANINDUSA
100
AcDbLine
 10
3102.201762701626
 20
1619.124912368679
 30
0.0
 11
3102.195762701626
 21
1619.124912368679
 31
0.0
  0
LINE
  5
157A
330
1F
100
AcDbEntity
  8
SANINDUSA
100
AcDbLine
 10
3102.705262701626
 20
1619.114912368679
 30
0.0
 11
3102.705262701626
 21
1619.38591236868
 31
0.0
  0
LINE
  5
157B
330
1F
100
AcDbEntity
  8
SANINDUSA
100
AcDbLine
 10
3102.702262701626
 20
1619.124912368679
 30
0.0
 11
3102.702262701626
 21
1619.38591236868
 31
0.0
  0
LINE
  5
159A
330
1F
100
AcDbEntity
  8
SANINDUSA
100
AcDbLine
 10
3102.974262701626
 20
1619.126912368679
 30
0.0
 11
3102.974262701626
 21
1619.406101435261
 31
0.0
  0
LINE
  5
15A3
330
1F
100
AcDbEntity
  8
SANINDUSA
100
AcDbLine
 10
3102.702262701626
 20
1620.96491236868
 30
0.0
 11
3102.183462701626
 21
1620.96491236868
 31
0.0
  0
LINE
  5
15A7
330
1F
100
AcDbEntity
  8
SANINDUSA
100
AcDbLine
 10
3102.705262701626
 20
1620.69391236867
 30
0.0
 11
3102.705262701626
 21
1620.96491236868
 31
0.0
  0
LINE
  5
15A8
330
1F
100
AcDbEntity
  8
SANINDUSA
100
AcDbLine
 10
3102.702262701626
 20
1620.69391236867
 30
0.0
 11
3102.702262701626
 21
1620.96491236868
 31
0.0
  0
CIRCLE
  5
15AA
330
1F
100
AcDbEntity
  8
SANINDUSA
100
AcDbCircle
 10
3102.252262701626
 20
1620.044911600732
 30
0.0
 40
0.004
  0
LINE
  5
15C9
330
1F
100
AcDbEntity
  8
SANINDUSA
100
AcDbLine
 10
3102.974262701626
 20
1620.96491236868
 30
0.0
 11
3102.705262701626
 21
1620.96491236868
 31
0.0
  0
LINE
  5
17AC
330
1F
100
AcDbEntity
  8
SANINDUSA
100
AcDbLine
 10
3102.008887621681
 20
1620.023932902315
 30
-0.0000000000076775
 11
3101.795862928707
 21
1620.023932902315
 31
0.0
  0
LINE
  5
17AE
330
1F
100
AcDbEntity
  8
SANINDUSA
100
AcDbLine
 10
3102.008887621681
 20
1620.029932902315
 30
-0.0000000001919563
 11
3101.795862928707
 21
1620.029932902315
 31
0.0
  0
LINE
  5
17C4
330
1F
100
AcDbEntity
  8
SANINDUSA
100
AcDbLine
 10
3101.792862928707
 20
1620.023932906125
 30
-0.0000000000000001
 11
3101.292629585399
 21
1620.023932906125
 31
-0.0000000000000001
  0
LINE
  5
17C5
330
1F
100
AcDbEntity
  8
SANINDUSA
100
AcDbLine
 10
3101.792862928707
 20
1620.029932906125
 30
-0.0000000000000001
 11
3101.292629585399
 21
1620.029932906125
 31
-0.0000000000000001
  0
INSERT
  5
17CC
330
1F
100
AcDbEntity
  8
SANINDUSA
100
AcDbBlockReference
  2
guarnizione
 10
3101.292629585399
 20
1620.026932906124
 30
-0.0000000000000001
 41
0.001
 42
0.001
 43
0.001
  0
LINE
  5
17CE
330
1F
100
AcDbEntity
  8
SANINDUSA
100
AcDbLine
 10
3101.292629585399
 20
1620.029932906125
 30
-0.0000000000000001
 11
3101.292629585399
 21
1620.023932906125
 31
-0.0000000000000001
  0
LINE
  5
17CF
330
1F
100
AcDbEntity
  8
SANINDUSA
100
AcDbLine
 10
3101.861362928707
 20
1620.036332902315
 30
0.0
 11
3101.810362928707
 21
1620.036332902315
 31
0.0
  0
LWPOLYLINE
  5
17D0
330
1F
100
AcDbEntity
  8
SANINDUSA
100
AcDbPolyline
 90
        2
 70
     0
 43
0.0
 10
3101.809362928707
 20
1620.023632902315
 10
3101.862362928707
 20
1620.023632902315
1001
GENIUS_GENREC_14
1002
{
1000
PYDIR
1011
3101.726362928707
1021
1619.817722955043
1031
0.0
1002
}
1002
{
1000
PXDIR
1011
3101.779362928707
1021
1619.816722955043
1031
0.0
1002
}
1002
{
1000
PORI
1011
3101.726362928707
1021
1619.816722955043
1031
0.0
1002
}
1002
{
1000
PINS
1011
3101.726362928707
1021
1619.816722955043
1031
0.0
1002
}
1002
{
1000
PINS2
1011
3101.779362928707
1021
1619.817722955043
1031
0.0
1002
}
1002
{
1000
C
1070
     1
1002
}
1001
GENIUS_GENODEF_13
1002
{
1000
HIER
1070
     0
1002
}
1002
{
1000
MANEDIT
1070
     0
1002
}
1002
{
1000
NOSEL
1070
     0
1002
}
1002
{
1000
BEHIND
1070
     0
1002
}
1002
{
1000
REACTOR
1002
}
1001
GENIUS_GENOBJ-N-REC_13
1002
{
1000
OWNER
1000
GEN
1002
}
  0
LWPOLYLINE
  5
17D1
330
1F
100
AcDbEntity
  8
SANINDUSA
100
AcDbPolyline
 90
        2
 70
     0
 43
0.0
 10
3101.862362928707
 20
1620.022632902315
 10
3101.809362928707
 20
1620.022632902315
1001
GENIUS_GENREC_14
1002
{
1000
PYDIR
1011
3101.726362928707
1021
1619.817722955043
1031
0.0
1002
}
1002
{
1000
PXDIR
1011
3101.779362928707
1021
1619.816722955043
1031
0.0
1002
}
1002
{
1000
PORI
1011
3101.726362928707
1021
1619.816722955043
1031
0.0
1002
}
1002
{
1000
PINS
1011
3101.726362928707
1021
1619.816722955043
1031
0.0
1002
}
1002
{
1000
PINS2
1011
3101.779362928707
1021
1619.817722955043
1031
0.0
1002
}
1002
{
1000
C
1070
     1
1002
}
1001
GENIUS_GENODEF_13
1002
{
1000
HIER
1070
     0
1002
}
1002
{
1000
MANEDIT
1070
     0
1002
}
1002
{
1000
NOSEL
1070
     0
1002
}
1002
{
1000
BEHIND
1070
     0
1002
}
1002
{
1000
REACTOR
1002
}
1001
GENIUS_GENOBJ-N-REC_13
1002
{
1000
OWNER
1000
GEN
1002
}
  0
LWPOLYLINE
  5
17D2
330
1F
100
AcDbEntity
  8
SANINDUSA
100
AcDbPolyline
 90
        4
 70
     1
 43
0.0
 10
3101.862362928707
 20
1620.031132902315
 10
3101.809362928707
 20
1620.031132902315
 10
3101.809362928707
 20
1620.030132902315
 10
3101.862362928707
 20
1620.030132902315
1001
GENIUS_GENREC_14
1002
{
1000
PYDIR
1011
3101.726362928707
1021
1619.818022955043
1031
0.0
1002
}
1002
{
1000
PXDIR
1011
3101.779362928707
1021
1619.817022955043
1031
0.0
1002
}
1002
{
1000
PORI
1011
3101.726362928707
1021
1619.817022955043
1031
0.0
1002
}
1002
{
1000
PINS
1011
3101.726362928707
1021
1619.817022955043
1031
0.0
1002
}
1002
{
1000
PINS2
1011
3101.779362928707
1021
1619.818022955043
1031
0.0
1002
}
1002
{
1000
C
1070
     1
1002
}
1001
GENIUS_GENODEF_13
1002
{
1000
HIER
1070
     0
1002
}
1002
{
1000
MANEDIT
1070
     0
1002
}
1002
{
1000
NOSEL
1070
     0
1002
}
1002
{
1000
BEHIND
1070
     0
1002
}
1002
{
1000
REACTOR
1002
}
1001
GENIUS_GENOBJ-N-REC_13
1002
{
1000
OWNER
1000
GEN
1002
}
  0
LINE
  5
17D3
330
1F
100
AcDbEntity
  8
SANINDUSA
100
AcDbLine
 10
3101.809362928707
 20
1620.022532850021
 30
0.0
 11
3101.862362928707
 21
1620.022532850021
 31
0.0
  0
LINE
  5
17D4
330
1F
100
AcDbEntity
  8
SANINDUSA
100
AcDbLine
 10
3101.809362928707
 20
1620.031332902315
 30
0.0
 11
3101.862362928707
 21
1620.031332902315
 31
0.0
  0
LINE
  5
17D5
330
1F
100
AcDbEntity
  8
SANINDUSA
100
AcDbLine
 10
3101.861362928707
 20
1620.012532850021
 30
0.0
 11
3101.802362928707
 21
1620.012532850021
 31
0.0
  0
ARC
  5
17D6
330
1F
100
AcDbEntity
  8
SANINDUSA
100
AcDbCircle
 10
3101.787163511028
 20
1620.030961897463
 30
-0.0000000000000001
 40
0.0006000000000005
100
AcDbArc
 50
231.1511489864678
 51
279.3408340943568
  0
LINE
  5
17D7
330
1F
100
AcDbEntity
  8
SANINDUSA
100
AcDbLine
 10
3101.7815134051
 20
1620.030640584631
 30
-0.0000000000000001
 11
3101.793017706782
 21
1620.032532906124
 31
-0.0000000000000001
  0
LINE
  5
17D8
330
1F
100
AcDbEntity
  8
SANINDUSA
100
AcDbLine
 10
3101.793017706782
 20
1620.021332906124
 30
-0.0000000000000001
 11
3101.7815134051
 21
1620.023225227617
 31
-0.0000000000000001
  0
ARC
  5
17D9
330
1F
100
AcDbEntity
  8
SANINDUSA
100
AcDbCircle
 10
3101.787163511028
 20
1620.022903914786
 30
-0.0000000000000001
 40
0.0006000000000005
100
AcDbArc
 50
80.65916590564318
 51
128.8488510135322
  0
CIRCLE
  5
17DA
330
1F
100
AcDbEntity
  8
SANINDUSA
100
AcDbCircle
 10
3101.794362928707
 20
1620.012532850021
 30
0.0
 40
0.008
  0
LINE
  5
17DB
330
1F
100
AcDbEntity
  8
SANINDUSA
100
AcDbLine
 10
3101.779362928707
 20
1620.020532902315
 30
0.0
 11
3101.794362928707
 21
1620.020532850021
 31
0.0
  0
LINE
  5
17DC
330
1F
100
AcDbEntity
  8
SANINDUSA
100
AcDbLine
 10
3101.785474039818
 20
1620.012532850021
 30
0.0
 11
3101.785474039818
 21
1620.020532902315
 31
0.0
  0
LINE
  5
17DD
330
1F
100
AcDbEntity
  8
SANINDUSA
100
AcDbLine
 10
3101.726362928707
 20
1620.022532902315
 30
0.0
 11
3101.726362928707
 21
1620.013532850021
 31
0.0
  0
LINE
  5
17DE
330
1F
100
AcDbEntity
  8
SANINDUSA
100
AcDbLine
 10
3101.785474039818
 20
1620.012532850021
 30
0.0
 11
3101.727362928707
 21
1620.012532850021
 31
0.0
  0
ARC
  5
17DF
330
1F
100
AcDbEntity
  8
SANINDUSA
100
AcDbCircle
 10
3101.727362928707
 20
1620.013532850021
 30
0.0
 40
0.001
100
AcDbArc
 50
180.0
 51
270.0
  0
LWPOLYLINE
  5
17E0
330
1F
100
AcDbEntity
  8
SANINDUSA
100
AcDbPolyline
 90
        4
 70
     1
 43
0.0
 10
3101.726362928707
 20
1620.031132902315
 10
3101.779362928707
 20
1620.031132902315
 10
3101.779362928707
 20
1620.030132902315
 10
3101.726362928707
 20
1620.030132902315
1001
GENIUS_GENREC_14
1002
{
1000
PYDIR
1011
3102.025645185786
1021
1620.117305212122
1031
0.0
1002
}
1002
{
1000
PXDIR
1011
3102.078645185786
1021
1620.116305212123
1031
0.0
1002
}
1002
{
1000
PORI
1011
3102.025645185786
1021
1620.116305212123
1031
0.0
1002
}
1002
{
1000
PINS
1011
3102.025645185786
1021
1620.116305212123
1031
0.0
1002
}
1002
{
1000
PINS2
1011
3102.078645185786
1021
1620.117305212122
1031
0.0
1002
}
1002
{
1000
C
1070
     1
1002
}
1001
GENIUS_GENODEF_13
1002
{
1000
HIER
1070
     0
1002
}
1002
{
1000
MANEDIT
1070
     0
1002
}
1002
{
1000
NOSEL
1070
     0
1002
}
1002
{
1000
BEHIND
1070
     0
1002
}
1002
{
1000
REACTOR
1002
}
1001
GENIUS_GENOBJ-N-REC_13
1002
{
1000
OWNER
1000
GEN
1002
}
  0
LINE
  5
17E1
330
1F
100
AcDbEntity
  8
SANINDUSA
100
AcDbLine
 10
3101.779362928707
 20
1620.031332902315
 30
0.0
 11
3101.726362928707
 21
1620.031332902315
 31
0.0
  0
LWPOLYLINE
  5
17E2
330
1F
100
AcDbEntity
  8
SANINDUSA
100
AcDbPolyline
 90
        2
 70
     0
 43
0.0
 10
3101.726362928707
 20
1620.022732902315
 10
3101.779362928707
 20
1620.022732902315
1001
GENIUS_GENREC_14
1002
{
1000
PYDIR
1011
3102.025645185786
1021
1620.117105212122
1031
0.0
1002
}
1002
{
1000
PXDIR
1011
3102.078645185786
1021
1620.116105212122
1031
0.0
1002
}
1002
{
1000
PORI
1011
3102.025645185786
1021
1620.116105212122
1031
0.0
1002
}
1002
{
1000
PINS
1011
3102.025645185786
1021
1620.116105212122
1031
0.0
1002
}
1002
{
1000
PINS2
1011
3102.078645185786
1021
1620.117105212122
1031
0.0
1002
}
1002
{
1000
C
1070
     1
1002
}
1001
GENIUS_GENODEF_13
1002
{
1000
HIER
1070
     0
1002
}
1002
{
1000
MANEDIT
1070
     0
1002
}
1002
{
1000
NOSEL
1070
     0
1002
}
1002
{
1000
BEHIND
1070
     0
1002
}
1002
{
1000
REACTOR
1002
}
1001
GENIUS_GENOBJ-N-REC_13
1002
{
1000
OWNER
1000
GEN
1002
}
  0
LWPOLYLINE
  5
17E3
330
1F
100
AcDbEntity
  8
SANINDUSA
100
AcDbPolyline
 90
        2
 70
     0
 43
0.0
 10
3101.779362928707
 20
1620.023732902315
 10
3101.726362928707
 20
1620.023732902315
1001
GENIUS_GENREC_14
1002
{
1000
PYDIR
1011
3102.025645185786
1021
1620.117105212122
1031
0.0
1002
}
1002
{
1000
PXDIR
1011
3102.078645185786
1021
1620.116105212122
1031
0.0
1002
}
1002
{
1000
PORI
1011
3102.025645185786
1021
1620.116105212122
1031
0.0
1002
}
1002
{
1000
PINS
1011
3102.025645185786
1021
1620.116105212122
1031
0.0
1002
}
1002
{
1000
PINS2
1011
3102.078645185786
1021
1620.117105212122
1031
0.0
1002
}
1002
{
1000
C
1070
     1
1002
}
1001
GENIUS_GENODEF_13
1002
{
1000
HIER
1070
     0
1002
}
1002
{
1000
MANEDIT
1070
     0
1002
}
1002
{
1000
NOSEL
1070
     0
1002
}
1002
{
1000
BEHIND
1070
     0
1002
}
1002
{
1000
REACTOR
1002
}
1001
GENIUS_GENOBJ-N-REC_13
1002
{
1000
OWNER
1000
GEN
1002
}
  0
LINE
  5
17E4
330
1F
100
AcDbEntity
  8
SANINDUSA
100
AcDbLine
 10
3101.726362928707
 20
1620.022532902315
 30
0.0
 11
3101.779362928707
 21
1620.022532902315
 31
0.0
  0
LINE
  5
17E5
330
1F
100
AcDbEntity
  8
SANINDUSA
100
AcDbLine
 10
3101.727362928707
 20
1620.036332902315
 30
0.0
 11
3101.778362928707
 21
1620.036332902315
 31
0.0
  0
ARC
  5
17E6
330
1F
100
AcDbEntity
  8
SANINDUSA
100
AcDbCircle
 10
3101.727362928707
 20
1620.035332902315
 30
0.0
 40
0.001
100
AcDbArc
 50
90.0
 51
180.0
  0
LINE
  5
17E7
330
1F
100
AcDbEntity
  8
SANINDUSA
100
AcDbLine
 10
3101.726362928707
 20
1620.031332902315
 30
0.0
 11
3101.726362928707
 21
1620.035332902315
 31
0.0
  0
LINE
  5
17E8
330
1F
100
AcDbEntity
  8
SANINDUSA
100
AcDbLine
 10
3101.726362928707
 20
1620.023732902315
 30
0.0
 11
3101.726362928707
 21
1620.022732902315
 31
0.0
1001
GENIUS_GENREC_14
1002
{
1000
PYDIR
1011
3101.726362928707
1021
1620.023732902315
1031
0.0
1002
}
1002
{
1000
PXDIR
1011
3101.779362928707
1021
1620.022732902315
1031
0.0
1002
}
1002
{
1000
PORI
1011
3101.726362928707
1021
1620.022732902315
1031
0.0
1002
}
1002
{
1000
PINS
1011
3101.726362928707
1021
1620.022732902315
1031
0.0
1002
}
1002
{
1000
PINS2
1011
3101.779362928707
1021
1620.023732902315
1031
0.0
1002
}
1002
{
1000
C
1070
     1
1002
}
1001
GENIUS_GENODEF_13
1002
{
1000
HIER
1070
     0
1002
}
1002
{
1000
MANEDIT
1070
     0
1002
}
1002
{
1000
NOSEL
1070
     0
1002
}
1002
{
1000
BEHIND
1070
     0
1002
}
1002
{
1000
REACTOR
1002
}
1001
GENIUS_GENOBJ-N-REC_13
1002
{
1000
OWNER
1000
GEN
1002
}
  0
ARC
  5
17E9
330
1F
100
AcDbEntity
  8
SANINDUSA
100
AcDbCircle
 10
3101.778362928707
 20
1620.035332902315
 30
0.0
 40
0.001
100
AcDbArc
 50
0.0
 51
90.0
  0
ARC
  5
17EA
330
1F
100
AcDbEntity
  8
SANINDUSA
100
AcDbCircle
 10
3101.786410789361
 20
1620.030027333344
 30
-0.0000000000000001
 40
0.0006
100
AcDbArc
 50
51.15114898646778
 51
99.34083409435679
  0
ARC
  5
17EB
330
1F
100
AcDbEntity
  8
SANINDUSA
100
AcDbCircle
 10
3101.785989030418
 20
1620.029763390603
 30
-0.0000000000000001
 40
0.000175
100
AcDbArc
 50
261.9999999889949
 51
81.99999998899484
  0
ARC
  5
17EC
330
1F
100
AcDbEntity
  8
SANINDUSA
100
AcDbCircle
 10
3101.783905566276
 20
1620.030384396354
 30
-0.0000000000000001
 40
0.0005
100
AcDbArc
 50
208.1263739672534
 51
261.9999999889949
  0
ARC
  5
17ED
330
1F
100
AcDbEntity
  8
SANINDUSA
100
AcDbCircle
 10
3101.782598376331
 20
1620.030210986826
 30
-0.0000000000000001
 40
0.0006
100
AcDbArc
 50
279.3408340943568
 51
327.5305192133523
  0
LINE
  5
17EE
330
1F
100
AcDbEntity
  8
SANINDUSA
100
AcDbLine
 10
3101.781010789361
 20
1620.029341784822
 30
-0.0000000000000001
 11
3101.781010789361
 21
1620.030048540456
 31
-0.0000000000000001
  0
LINE
  5
17EF
330
1F
100
AcDbEntity
  8
SANINDUSA
100
AcDbLine
 10
3101.782695760592
 20
1620.029618942651
 30
-0.0000000000000001
 11
3101.781010789361
 21
1620.029341784822
 31
-0.0000000000000001
  0
ARC
  5
17F0
330
1F
100
AcDbEntity
  8
SANINDUSA
100
AcDbCircle
 10
3101.783610789361
 20
1620.029566766477
 30
-0.0000000000000001
 40
0.0005999999999989
100
AcDbArc
 50
104.1008918120285
 51
147.5305192133523
  0
LINE
  5
17F1
330
1F
100
AcDbEntity
  8
SANINDUSA
100
AcDbLine
 10
3101.785964675125
 20
1620.029590093691
 30
-0.0000000000000001
 11
3101.783835979726
 21
1620.029889262319
 31
-0.0000000000000001
  0
LINE
  5
17F2
330
1F
100
AcDbEntity
  8
SANINDUSA
100
AcDbLine
 10
3101.7863134051
 20
1620.030619377519
 30
-0.0000000000000001
 11
3101.783937057355
 21
1620.030228496436
 31
-0.0000000000000001
  0
LINE
  5
17F3
330
1F
100
AcDbEntity
  8
SANINDUSA
100
AcDbLine
 10
3101.783937057355
 20
1620.030228496436
 30
-0.0000000000000001
 11
3101.78601338571
 21
1620.029936687515
 31
-0.0000000000000001
  0
ARC
  5
17F4
330
1F
100
AcDbEntity
  8
SANINDUSA
100
AcDbCircle
 10
3101.781610789361
 20
1620.030048540456
 30
-0.0000000000000001
 40
0.0006
100
AcDbArc
 50
99.34083409435679
 51
180.0
  0
ARC
  5
17F5
330
1F
100
AcDbEntity
  8
SANINDUSA
100
AcDbCircle
 10
3101.786410789361
 20
1620.023838478905
 30
-0.0000000000000001
 40
0.0006
100
AcDbArc
 50
260.6591659056432
 51
308.8488510135322
  0
ARC
  5
17F6
330
1F
100
AcDbEntity
  8
SANINDUSA
100
AcDbCircle
 10
3101.785989030418
 20
1620.024102421646
 30
-0.0000000000000001
 40
0.000175
100
AcDbArc
 50
278.0000000110051
 51
98.00000001100515
  0
ARC
  5
17F7
330
1F
100
AcDbEntity
  8
SANINDUSA
100
AcDbCircle
 10
3101.782598376331
 20
1620.023654825423
 30
-0.0000000000000001
 40
0.0006
100
AcDbArc
 50
32.46948078664768
 51
80.65916590564318
  0
ARC
  5
17F8
330
1F
100
AcDbEntity
  8
SANINDUSA
100
AcDbCircle
 10
3101.783610789361
 20
1620.024299045772
 30
-0.0000000000000001
 40
0.0006000000000005
100
AcDbArc
 50
212.4694807866477
 51
255.8991081879715
  0
ARC
  5
17F9
330
1F
100
AcDbEntity
  8
SANINDUSA
100
AcDbCircle
 10
3101.783905566276
 20
1620.023481415895
 30
-0.0000000000000001
 40
0.0004999999999883
100
AcDbArc
 50
98.00000001100515
 51
151.8736260327466
  0
LINE
  5
17FA
330
1F
100
AcDbEntity
  8
SANINDUSA
100
AcDbLine
 10
3101.781010789361
 20
1620.023817271793
 30
-0.0000000000000001
 11
3101.781010789361
 21
1620.024524027427
 31
-0.0000000000000001
  0
LINE
  5
17FB
330
1F
100
AcDbEntity
  8
SANINDUSA
100
AcDbLine
 10
3101.781010789361
 20
1620.024524027427
 30
-0.0000000000000001
 11
3101.782695760592
 21
1620.024246869598
 31
-0.0000000000000001
  0
LINE
  5
17FC
330
1F
100
AcDbEntity
  8
SANINDUSA
100
AcDbLine
 10
3101.783835979726
 20
1620.02397654993
 30
-0.0000000000000001
 11
3101.785964675125
 21
1620.024275718558
 31
-0.0000000000000001
  0
LINE
  5
17FD
330
1F
100
AcDbEntity
  8
SANINDUSA
100
AcDbLine
 10
3101.78601338571
 20
1620.023929124734
 30
-0.0000000000000001
 11
3101.783937057355
 21
1620.023637315814
 31
-0.0000000000000001
  0
LINE
  5
17FE
330
1F
100
AcDbEntity
  8
SANINDUSA
100
AcDbLine
 10
3101.783937057355
 20
1620.023637315814
 30
-0.0000000000000001
 11
3101.7863134051
 21
1620.023246434729
 31
-0.0000000000000001
  0
ARC
  5
17FF
330
1F
100
AcDbEntity
  8
SANINDUSA
100
AcDbCircle
 10
3101.781610789361
 20
1620.023817271793
 30
-0.0000000000000001
 40
0.0006
100
AcDbArc
 50
180.0
 51
260.6591659056432
  0
LINE
  5
1800
330
1F
100
AcDbEntity
  8
SANINDUSA
100
AcDbLine
 10
3101.779362928707
 20
1620.031332902315
 30
0.0
 11
3101.779362928707
 21
1620.035332902315
 31
0.0
  0
LINE
  5
1801
330
1F
100
AcDbEntity
  8
SANINDUSA
100
AcDbLine
 10
3101.779362928707
 20
1620.022532902315
 30
0.0
 11
3101.779362928707
 21
1620.020532902315
 31
0.0
  0
LINE
  5
1802
330
1F
100
AcDbEntity
  8
SANINDUSA
100
AcDbLine
 10
3101.779362928707
 20
1620.022732902315
 30
0.0
 11
3101.779362928707
 21
1620.023732902315
 31
0.0
1001
GENIUS_GENREC_14
1002
{
1000
PYDIR
1011
3101.726362928707
1021
1620.023732902315
1031
0.0
1002
}
1002
{
1000
PXDIR
1011
3101.779362928707
1021
1620.022732902315
1031
0.0
1002
}
1002
{
1000
PORI
1011
3101.726362928707
1021
1620.022732902315
1031
0.0
1002
}
1002
{
1000
PINS
1011
3101.726362928707
1021
1620.022732902315
1031
0.0
1002
}
1002
{
1000
PINS2
1011
3101.779362928707
1021
1620.023732902315
1031
0.0
1002
}
1002
{
1000
C
1070
     1
1002
}
1001
GENIUS_GENODEF_13
1002
{
1000
HIER
1070
     0
1002
}
1002
{
1000
MANEDIT
1070
     0
1002
}
1002
{
1000
NOSEL
1070
     0
1002
}
1002
{
1000
BEHIND
1070
     0
1002
}
1002
{
1000
REACTOR
1002
}
1001
GENIUS_GENOBJ-N-REC_13
1002
{
1000
OWNER
1000
GEN
1002
}
  0
LINE
  5
1803
330
1F
100
AcDbEntity
  8
SANINDUSA
100
AcDbLine
 10
3101.803251817596
 20
1620.012532850021
 30
0.0
 11
3101.803251817596
 21
1620.020532850021
 31
0.0
  0
ARC
  5
1804
330
1F
100
AcDbEntity
  8
SANINDUSA
100
AcDbCircle
 10
3101.810362928707
 20
1620.035332902315
 30
0.0
 40
0.001
100
AcDbArc
 50
90.0
 51
180.0
  0
LINE
  5
1805
330
1F
100
AcDbEntity
  8
SANINDUSA
100
AcDbLine
 10
3101.809362928707
 20
1620.031332902315
 30
0.0
 11
3101.809362928707
 21
1620.035332902315
 31
0.0
  0
LINE
  5
1806
330
1F
100
AcDbEntity
  8
SANINDUSA
100
AcDbLine
 10
3101.809362928707
 20
1620.020532850021
 30
0.0
 11
3101.809362928707
 21
1620.022532850021
 31
0.0
  0
LINE
  5
1807
330
1F
100
AcDbEntity
  8
SANINDUSA
100
AcDbLine
 10
3101.809362928707
 20
1620.022632902315
 30
0.0
 11
3101.809362928707
 21
1620.023632902315
 31
0.0
1001
GENIUS_GENREC_14
1002
{
1000
PYDIR
1011
3101.726362928707
1021
1620.023632902315
1031
0.0
1002
}
1002
{
1000
PXDIR
1011
3101.779362928707
1021
1620.022632902315
1031
0.0
1002
}
1002
{
1000
PORI
1011
3101.726362928707
1021
1620.022632902315
1031
0.0
1002
}
1002
{
1000
PINS
1011
3101.726362928707
1021
1620.022632902315
1031
0.0
1002
}
1002
{
1000
PINS2
1011
3101.779362928707
1021
1620.023632902315
1031
0.0
1002
}
1002
{
1000
C
1070
     1
1002
}
1001
GENIUS_GENODEF_13
1002
{
1000
HIER
1070
     0
1002
}
1002
{
1000
MANEDIT
1070
     0
1002
}
1002
{
1000
NOSEL
1070
     0
1002
}
1002
{
1000
BEHIND
1070
     0
1002
}
1002
{
1000
REACTOR
1002
}
1001
GENIUS_GENOBJ-N-REC_13
1002
{
1000
OWNER
1000
GEN
1002
}
  0
ARC
  5
1808
330
1F
100
AcDbEntity
  8
SANINDUSA
100
AcDbCircle
 10
3101.792262928707
 20
1620.030629336575
 30
-0.0000000000000001
 40
0.0006
100
AcDbArc
 50
0.0
 51
99.34083409435679
  0
LINE
  5
1809
330
1F
100
AcDbEntity
  8
SANINDUSA
100
AcDbLine
 10
3101.792165544446
 20
1620.03122138075
 30
-0.0000000000000001
 11
3101.791583097267
 21
1620.031125575081
 31
-0.0000000000000001
  0
LINE
  5
180A
330
1F
100
AcDbEntity
  8
SANINDUSA
100
AcDbLine
 10
3101.793017706782
 20
1620.032532906124
 30
-0.0000000000000001
 11
3101.79401078936
 21
1620.032532906124
 31
-0.0000000000000001
  0
ARC
  5
180B
330
1F
100
AcDbEntity
  8
SANINDUSA
100
AcDbCircle
 10
3101.790471402228
 20
1620.030182635985
 30
-0.0000000000000001
 40
0.00075
100
AcDbArc
 50
179.8634464257769
 51
9.340834109326083
  0
ARC
  5
180C
330
1F
100
AcDbEntity
  8
SANINDUSA
100
AcDbCircle
 10
3101.789221405777
 20
1620.030185615119
 30
-0.0000000000000001
 40
0.0005
100
AcDbArc
 50
359.863446425777
 51
99.34083409435679
  0
LINE
  5
180D
330
1F
100
AcDbEntity
  8
SANINDUSA
100
AcDbLine
 10
3101.791170880672
 20
1620.030551051385
 30
-0.0000000000000001
 11
3101.791211457447
 21
1620.030304366311
 31
-0.0000000000000001
  0
LINE
  5
180E
330
1F
100
AcDbEntity
  8
SANINDUSA
100
AcDbLine
 10
3101.789731347008
 20
1620.030060905659
 30
-0.0000000000000001
 11
3101.789690770233
 21
1620.030307590732
 31
-0.0000000000000001
  0
LINE
  5
180F
330
1F
100
AcDbEntity
  8
SANINDUSA
100
AcDbLine
 10
3101.789140252227
 20
1620.030678985265
 30
-0.0000000000000001
 11
3101.787260895288
 21
1620.030369853288
 31
-0.0000000000000001
  0
ARC
  5
1810
330
1F
100
AcDbEntity
  8
SANINDUSA
100
AcDbCircle
 10
3101.791664250818
 20
1620.030632204935
 30
-0.0000000000000001
 40
0.0005
100
AcDbArc
 50
99.34083409435679
 51
189.3408341093261
  0
LINE
  5
1811
330
1F
100
AcDbEntity
  8
SANINDUSA
100
AcDbLine
 10
3101.793017706782
 20
1620.021332906124
 30
-0.0000000000000001
 11
3101.79401078936
 21
1620.021332906124
 31
-0.0000000000000001
  0
ARC
  5
1812
330
1F
100
AcDbEntity
  8
SANINDUSA
100
AcDbCircle
 10
3101.789204570339
 20
1620.023682966361
 30
-0.0000000000000001
 40
0.0005
100
AcDbArc
 50
260.6591659056432
 51
350.6591658906739
  0
LINE
  5
1813
330
1F
100
AcDbEntity
  8
SANINDUSA
100
AcDbLine
 10
3101.787260895288
 20
1620.023495958961
 30
-0.0000000000000001
 11
3101.789123416788
 21
1620.023189596214
 31
-0.0000000000000001
  0
LINE
  5
1814
330
1F
100
AcDbEntity
  8
SANINDUSA
100
AcDbLine
 10
3101.789697940485
 20
1620.02360181281
 30
-0.0000000000000001
 11
3101.789731347008
 21
1620.02380490659
 31
-0.0000000000000001
  0
ARC
  5
1815
330
1F
100
AcDbEntity
  8
SANINDUSA
100
AcDbCircle
 10
3101.790471402228
 20
1620.023683176264
 30
-0.0000000000000001
 40
0.00075
100
AcDbArc
 50
350.6591658906739
 51
170.6591658906739
  0
LINE
  5
1816
330
1F
100
AcDbEntity
  8
SANINDUSA
100
AcDbLine
 10
3101.791211457447
 20
1620.023561445938
 30
-0.0000000000000001
 11
3101.791170880672
 21
1620.023314760865
 31
-0.0000000000000001
  0
ARC
  5
1817
330
1F
100
AcDbEntity
  8
SANINDUSA
100
AcDbCircle
 10
3101.792262928707
 20
1620.023236475675
 30
-0.0000000000000001
 40
0.0006
100
AcDbArc
 50
260.6591659056432
 51
0.0
  0
LINE
  5
1818
330
1F
100
AcDbEntity
  8
SANINDUSA
100
AcDbLine
 10
3101.791583097267
 20
1620.022740237168
 30
-0.0000000000000001
 11
3101.792165544446
 21
1620.022644431499
 31
-0.0000000000000001
  0
ARC
  5
1819
330
1F
100
AcDbEntity
  8
SANINDUSA
100
AcDbCircle
 10
3101.791664250818
 20
1620.023233607314
 30
-0.0000000000000001
 40
0.0005
100
AcDbArc
 50
170.6591658906739
 51
260.6591659056432
  0
LINE
  5
181A
330
1F
100
AcDbEntity
  8
SANINDUSA
100
AcDbLine
 10
3101.792862928707
 20
1620.023236475675
 30
-0.0000000000000001
 11
3101.792862928707
 21
1620.030629336575
 31
-0.0000000000000001
  0
LINE
  5
181B
330
1F
100
AcDbEntity
  8
SANINDUSA
100
AcDbLine
 10
3101.79401078936
 20
1620.021332906124
 30
-0.0000000000000001
 11
3101.79401078936
 21
1620.032532906124
 31
-0.0000000000000001
  0
ARC
  5
181C
330
1F
100
AcDbEntity
  8
SANINDUSA
100
AcDbCircle
 10
3101.794848481669
 20
1620.026932906124
 30
-0.0000000000000001
 40
0.0052623076923077
100
AcDbArc
 50
261.4923271340214
 51
98.50767286597857
  0
ARC
  5
181D
330
1F
100
AcDbEntity
  8
SANINDUSA
100
AcDbCircle
 10
3101.794848481669
 20
1620.026932906124
 30
-0.0000000000000001
 40
0.0056623076923077
100
AcDbArc
 50
261.4923271340214
 51
98.50767286597857
  0
LINE
  5
181E
330
1F
100
AcDbEntity
  8
SANINDUSA
100
AcDbLine
 10
3101.795862928707
 20
1620.029932902315
 30
0.0
 11
3101.795862928707
 21
1620.023932902315
 31
0.0
1001
GENIUS_GENREC_14
1002
{
1000
PYDIR
1011
3101.642862928707
1021
1620.023732902315
1031
0.0
1002
}
1002
{
1000
PXDIR
1011
3101.792862928707
1021
1620.029732902315
1031
0.0
1002
}
1002
{
1000
PORI
1011
3101.642862928707
1021
1620.029732902315
1031
0.0
1002
}
1002
{
1000
PINS
1011
3101.642862928707
1021
1620.029732902315
1031
0.0
1002
}
1002
{
1000
PINS2
1011
3101.792862928707
1021
1620.023932902315
1031
0.0
1002
}
1002
{
1000
C
1070
     1
1002
}
1001
GENIUS_GENODEF_13
1002
{
1000
HIER
1070
     0
1002
}
1002
{
1000
MANEDIT
1070
     0
1002
}
1002
{
1000
NOSEL
1070
     0
1002
}
1002
{
1000
BEHIND
1070
     0
1002
}
1002
{
1000
REACTOR
1002
}
1001
GENIUS_GENOBJ-N-REC_13
1002
{
1000
OWNER
1000
GEN
1002
}
  0
LINE
  5
181F
330
1F
100
AcDbEntity
  8
SANINDUSA
100
AcDbLine
 10
3101.792862928707
 20
1620.029932906125
 30
-0.0000000000000001
 11
3101.792862928707
 21
1620.023932906125
 31
-0.0000000000000001
  0
LINE
  5
1820
330
1F
100
AcDbEntity
  8
SANINDUSA
100
AcDbLine
 10
3101.809362928707
 20
1620.020532850021
 30
0.0
 11
3101.794362883111
 21
1620.020532850021
 31
0.0
  0
LINE
  5
1821
330
1F
100
AcDbEntity
  8
SANINDUSA
100
AcDbLine
 10
3101.862362928707
 20
1620.022532850021
 30
0.0
 11
3101.862362928707
 21
1620.013532850021
 31
0.0
  0
ARC
  5
1822
330
1F
100
AcDbEntity
  8
SANINDUSA
100
AcDbCircle
 10
3101.861362928707
 20
1620.013532850021
 30
0.0
 40
0.001
100
AcDbArc
 50
270.0
 51
0.0
  0
LINE
  5
1823
330
1F
100
AcDbEntity
  8
SANINDUSA
100
AcDbLine
 10
3101.862362928707
 20
1620.031332902315
 30
0.0
 11
3101.862362928707
 21
1620.035332902315
 31
0.0
  0
LINE
  5
1824
330
1F
100
AcDbEntity
  8
SANINDUSA
100
AcDbLine
 10
3101.862362928707
 20
1620.023632902315
 30
0.0
 11
3101.862362928707
 21
1620.022632902315
 31
0.0
1001
GENIUS_GENREC_14
1002
{
1000
PYDIR
1011
3101.726362928707
1021
1620.023632902315
1031
0.0
1002
}
1002
{
1000
PXDIR
1011
3101.779362928707
1021
1620.022632902315
1031
0.0
1002
}
1002
{
1000
PORI
1011
3101.726362928707
1021
1620.022632902315
1031
0.0
1002
}
1002
{
1000
PINS
1011
3101.726362928707
1021
1620.022632902315
1031
0.0
1002
}
1002
{
1000
PINS2
1011
3101.779362928707
1021
1620.023632902315
1031
0.0
1002
}
1002
{
1000
C
1070
     1
1002
}
1001
GENIUS_GENODEF_13
1002
{
1000
HIER
1070
     0
1002
}
1002
{
1000
MANEDIT
1070
     0
1002
}
1002
{
1000
NOSEL
1070
     0
1002
}
1002
{
1000
BEHIND
1070
     0
1002
}
1002
{
1000
REACTOR
1002
}
1001
GENIUS_GENOBJ-N-REC_13
1002
{
1000
OWNER
1000
GEN
1002
}
  0
ARC
  5
1825
330
1F
100
AcDbEntity
  8
SANINDUSA
100
AcDbCircle
 10
3101.861362928707
 20
1620.035332902315
 30
0.0
 40
0.001
100
AcDbArc
 50
0.0
 51
90.0
  0
LINE
  5
19A5
330
1F
100
AcDbEntity
  8
SANINDUSA
100
AcDbLine
 10
3102.008887621681
 20
1620.023932902315
 30
-0.0000000002018684
 11
3102.008887621681
 21
1620.029932902315
 31
-0.0000000002018684
  0
LINE
  5
275F
330
1F
100
AcDbEntity
  8
SANINDUSA
100
AcDbLine
 10
3102.053859645441
 20
1620.01170640708
 30
-0.000000000155555
 11
3102.053859645441
 21
1620.035632902315
 31
-0.000000000155555
  0
LINE
  5
2760
330
1F
100
AcDbEntity
  8
SANINDUSA
100
AcDbLine
 10
3102.052859645441
 20
1620.035632902315
 30
-0.000000000155555
 11
3102.053859645441
 21
1620.035632902315
 31
-0.000000000155555
  0
LINE
  5
2761
330
1F
100
AcDbEntity
  8
SANINDUSA
100
AcDbLine
 10
3102.053859645441
 20
1620.01170640708
 30
-0.000000000155555
 11
3102.052860764528
 21
1620.01170640708
 31
-0.000000000155555
  0
ARC
  5
2762
330
1F
100
AcDbEntity
  8
SANINDUSA
100
AcDbCircle
 10
3102.052859645441
 20
1620.034632902315
 30
-0.000000000155555
 40
0.0009999999999999
100
AcDbArc
 50
90.0
 51
180.0
  0
ARC
  5
2763
330
1F
100
AcDbEntity
  8
SANINDUSA
100
AcDbCircle
 10
3102.052860764529
 20
1620.01270640708
 30
-0.000000000155555
 40
0.0009999999999999
100
AcDbArc
 50
180.5340991042797
 51
270.0
  0
LINE
  5
2764
330
1F
100
AcDbEntity
  8
SANINDUSA
100
AcDbLine
 10
3102.05185964544
 20
1620.033647115877
 30
-0.000000000155555
 11
3102.05185964544
 21
1620.034632902315
 31
-0.000000000155555
  0
LINE
  5
2765
330
1F
100
AcDbEntity
  8
SANINDUSA
100
AcDbLine
 10
3102.051860807976
 20
1620.012697085427
 30
-0.000000000155555
 11
3102.051854018315
 21
1620.013425428914
 31
-0.000000000155555
  0
ARC
  5
2766
330
1F
100
AcDbEntity
  8
SANINDUSA
100
AcDbCircle
 10
3102.050509645441
 20
1620.033647115877
 30
-0.000000000155555
 40
0.0013499999999998
100
AcDbArc
 50
315.0
 51
0.0
  0
ARC
  5
2767
330
1F
100
AcDbEntity
  8
SANINDUSA
100
AcDbCircle
 10
3102.05050407697
 20
1620.013412844682
 30
-0.000000000155555
 40
0.00135
100
AcDbArc
 50
0.5340991042797022
 51
45.08930404340082
  0
LINE
  5
2768
330
1F
100
AcDbEntity
  8
SANINDUSA
100
AcDbLine
 10
3102.050550026033
 20
1620.03177830816
 30
-0.000000000155555
 11
3102.051464239595
 21
1620.032692521723
 31
-0.000000000155555
  0
LINE
  5
2769
330
1F
100
AcDbEntity
  8
SANINDUSA
100
AcDbLine
 10
3102.051457182087
 20
1620.014368925555
 30
-0.000000000155555
 11
3102.050550742977
 21
1620.015272543418
 31
-0.000000000155555
  0
ARC
  5
276A
330
1F
100
AcDbEntity
  8
SANINDUSA
100
AcDbCircle
 10
3102.051009645441
 20
1620.031318688752
 30
-0.000000000155555
 40
0.0006500000000003
100
AcDbArc
 50
135.0
 51
180.0
  0
ARC
  5
276B
330
1F
100
AcDbEntity
  8
SANINDUSA
100
AcDbCircle
 10
3102.051009645441
 20
1620.015732878653
 30
-0.000000000155555
 40
0.0006500000000003
100
AcDbArc
 50
180.0
 51
225.0893040434008
  0
LINE
  5
276C
330
1F
100
AcDbEntity
  8
SANINDUSA
100
AcDbLine
 10
3102.050359645441
 20
1620.015732878653
 30
-0.000000000155555
 11
3102.050359645441
 21
1620.031318688752
 31
-0.000000000155555
  0
ARC
  5
276D
330
1F
100
AcDbEntity
  8
SANINDUSA
100
AcDbCircle
 10
3102.050509645441
 20
1620.034632902315
 30
-0.000000000155555
 40
0.0009999999999999
100
AcDbArc
 50
0.0
 51
90.0
  0
LINE
  5
276E
330
1F
100
AcDbEntity
  8
SANINDUSA
100
AcDbLine
 10
3102.050509645441
 20
1620.035632902315
 30
-0.000000000155555
 11
3102.015486341309
 21
1620.035632902315
 31
-0.000000000155555
  0
LINE
  5
276F
330
1F
100
AcDbEntity
  8
SANINDUSA
100
AcDbLine
 10
3102.051509645441
 20
1620.033647115877
 30
-0.000000000155555
 11
3102.051509645441
 21
1620.034632902315
 31
-0.000000000155555
  0
ARC
  5
2770
330
1F
100
AcDbEntity
  8
SANINDUSA
100
AcDbCircle
 10
3102.015486341309
 20
1620.034632902315
 30
-0.000000000155555
 40
0.001
100
AcDbArc
 50
90.0
 51
270.0
  0
ARC
  5
2771
330
1F
100
AcDbEntity
  8
SANINDUSA
100
AcDbCircle
 10
3102.050509645441
 20
1620.033647115877
 30
-0.000000000155555
 40
0.0010000000000003
100
AcDbArc
 50
315.0
 51
0.0
  0
LINE
  5
2772
330
1F
100
AcDbEntity
  8
SANINDUSA
100
AcDbLine
 10
3102.015486341309
 20
1620.033632902315
 30
-0.000000000155555
 11
3102.047009645441
 21
1620.033632902315
 31
-0.000000000155555
  0
LINE
  5
2773
330
1F
100
AcDbEntity
  8
SANINDUSA
100
AcDbLine
 10
3102.050302538659
 20
1620.032025795534
 30
-0.000000000155555
 11
3102.051216752222
 21
1620.032940009096
 31
-0.000000000155555
  0
ARC
  5
2774
330
1F
100
AcDbEntity
  8
SANINDUSA
100
AcDbCircle
 10
3102.047009645441
 20
1620.032632902315
 30
-0.000000000155555
 40
0.001
100
AcDbArc
 50
0.0
 51
90.0
  0
ARC
  5
2775
330
1F
100
AcDbEntity
  8
SANINDUSA
100
AcDbCircle
 10
3102.051009645441
 20
1620.031318688752
 30
-0.000000000155555
 40
0.0010000000000003
100
AcDbArc
 50
135.0
 51
180.0
  0
LINE
  5
2776
330
1F
100
AcDbEntity
  8
SANINDUSA
100
AcDbLine
 10
3102.048009645441
 20
1620.032632902315
 30
-0.000000000155555
 11
3102.048009645441
 21
1620.014773716038
 31
-0.000000000155555
  0
LINE
  5
2777
330
1F
100
AcDbEntity
  8
SANINDUSA
100
AcDbLine
 10
3102.050009645441
 20
1620.027943562487
 30
-0.000000000155555
 11
3102.050009645441
 21
1620.031318688752
 31
-0.000000000155555
  0
ARC
  5
2778
330
1F
100
AcDbEntity
  8
SANINDUSA
100
AcDbCircle
 10
3102.047009645441
 20
1620.014773716038
 30
-0.000000000155555
 40
0.001
100
AcDbArc
 50
267.8505420588376
 51
0.0
  0
ARC
  5
2779
330
1F
100
AcDbEntity
  8
SANINDUSA
100
AcDbCircle
 10
3102.049759645441
 20
1620.027943562487
 30
-0.000000000155555
 40
0.0002500000000003
100
AcDbArc
 50
315.0
 51
0.0
  0
ARC
  5
277A
330
1F
100
AcDbEntity
  8
SANINDUSA
100
AcDbCircle
 10
3102.050599753879
 20
1620.11042646196
 30
-0.000000000155555
 40
0.0967200954923435
100
AcDbArc
 50
254.4398303579209
 51
267.8505420588376
  0
LINE
  5
277B
330
1F
100
AcDbEntity
  8
SANINDUSA
100
AcDbLine
 10
3102.04945609205
 20
1620.027286455705
 30
-0.000000000155555
 11
3102.049936422136
 21
1620.027766785791
 31
-0.000000000155555
  0
ARC
  5
277C
330
1F
100
AcDbEntity
  8
SANINDUSA
100
AcDbCircle
 10
3102.024788694681
 20
1620.017732902315
 30
-0.000000000155555
 40
0.0005
100
AcDbArc
 50
90.0
 51
254.4398303579209
  0
ARC
  5
277D
330
1F
100
AcDbEntity
  8
SANINDUSA
100
AcDbCircle
 10
3102.049809645441
 20
1620.026932902315
 30
-0.000000000155555
 40
0.0005
100
AcDbArc
 50
135.0
 51
225.0
  0
LINE
  5
277E
330
1F
100
AcDbEntity
  8
SANINDUSA
100
AcDbLine
 10
3102.024788694681
 20
1620.018232902315
 30
-0.000000000155555
 11
3102.037486341309
 21
1620.018232902315
 31
-0.000000000155555
  0
LINE
  5
277F
330
1F
100
AcDbEntity
  8
SANINDUSA
100
AcDbLine
 10
3102.049936422136
 20
1620.026099018838
 30
-0.000000000155555
 11
3102.04945609205
 21
1620.026579348924
 31
-0.000000000155555
  0
ARC
  5
2780
330
1F
100
AcDbEntity
  8
SANINDUSA
100
AcDbCircle
 10
3102.037486341309
 20
1620.019232902315
 30
-0.000000000155555
 40
0.001
100
AcDbArc
 50
270.0
 51
90.0
  0
ARC
  5
2781
330
1F
100
AcDbEntity
  8
SANINDUSA
100
AcDbCircle
 10
3102.049759645441
 20
1620.025922242143
 30
-0.000000000155555
 40
0.00025
100
AcDbArc
 50
0.0
 51
45.0
  0
LINE
  5
2782
330
1F
100
AcDbEntity
  8
SANINDUSA
100
AcDbLine
 10
3102.037486341309
 20
1620.020232902315
 30
-0.000000000155555
 11
3102.015486341309
 21
1620.020232902315
 31
-0.000000000155555
  0
LINE
  5
2783
330
1F
100
AcDbEntity
  8
SANINDUSA
100
AcDbLine
 10
3102.050009645441
 20
1620.015732878653
 30
-0.000000000155555
 11
3102.050009645441
 21
1620.025922242143
 31
-0.000000000155555
  0
ARC
  5
2784
330
1F
100
AcDbEntity
  8
SANINDUSA
100
AcDbCircle
 10
3102.015486341309
 20
1620.019232902315
 30
-0.000000000155555
 40
0.001
100
AcDbArc
 50
90.0
 51
248.9411647530097
  0
ARC
  5
2785
330
1F
100
AcDbEntity
  8
SANINDUSA
100
AcDbCircle
 10
3102.051009645441
 20
1620.015732878653
 30
-0.000000000155555
 40
0.0010000000000003
100
AcDbArc
 50
180.0
 51
225.0893040434008
  0
ARC
  5
2786
330
1F
100
AcDbEntity
  8
SANINDUSA
100
AcDbCircle
 10
3102.050599753879
 20
1620.11042646196
 30
-0.000000000155555
 40
0.0987200954923432
100
AcDbArc
 50
248.9411647530097
 51
269.9477633915498
  0
LINE
  5
2787
330
1F
100
AcDbEntity
  8
SANINDUSA
100
AcDbLine
 10
3102.051210080761
 20
1620.014121052736
 30
-0.000000000155555
 11
3102.05030364165
 21
1620.0150246706
 31
-0.000000000155555
  0
ARC
  5
2788
330
1F
100
AcDbEntity
  8
SANINDUSA
100
AcDbCircle
 10
3102.050510662422
 20
1620.01270640708
 30
-0.000000000155555
 40
0.001
100
AcDbArc
 50
269.9477633915498
 51
0.5340991042797022
  0
ARC
  5
2789
330
1F
100
AcDbEntity
  8
SANINDUSA
100
AcDbCircle
 10
3102.05050407697
 20
1620.013412844682
 30
-0.000000000155555
 40
0.0010000000000003
100
AcDbArc
 50
0.5340991042797022
 51
45.08930404340082
  0
LINE
  5
278A
330
1F
100
AcDbEntity
  8
SANINDUSA
100
AcDbLine
 10
3102.051510618974
 20
1620.012715728733
 30
-0.000000000155555
 11
3102.051504033522
 21
1620.013422166335
 31
-0.000000000155555
  0
LINE
  5
278B
330
1F
100
AcDbEntity
  8
SANINDUSA
100
AcDbLine
 10
3102.001384418149
 20
1620.030932902315
 30
-0.000000000155555
 11
3102.0040730313
 21
1620.030932902315
 31
-0.000000000155555
  0
ARC
  5
278C
330
1F
100
AcDbEntity
  8
SANINDUSA
100
AcDbCircle
 10
3102.0040730313
 20
1620.030432902315
 30
-0.000000000155555
 40
0.0005
100
AcDbArc
 50
19.47122063801706
 51
90.0
  0
ARC
  5
278D
330
1F
100
AcDbEntity
  8
SANINDUSA
100
AcDbCircle
 10
3102.001384418149
 20
1620.030432902315
 30
-0.000000000155555
 40
0.0005000000000001
100
AcDbArc
 50
90.0
 51
156.4218215301239
  0
ARC
  5
278E
330
1F
100
AcDbEntity
  8
SANINDUSA
100
AcDbCircle
 10
3102.005487244862
 20
1620.030932902315
 30
-0.000000000155555
 40
0.001
100
AcDbArc
 50
199.471220638017
 51
340.5287793619829
  0
ARC
  5
278F
330
1F
100
AcDbEntity
  8
SANINDUSA
100
AcDbCircle
 10
3102.000009645441
 20
1620.031032902315
 30
-0.000000000155555
 40
0.0009999999999999
100
AcDbArc
 50
180.0
 51
336.421821530124
  0
ARC
  5
2790
330
1F
100
AcDbEntity
  8
SANINDUSA
100
AcDbCircle
 10
3102.006901458424
 20
1620.030432902315
 30
-0.000000000155555
 40
0.0004999999999999
100
AcDbArc
 50
90.0
 51
160.5287793619829
  0
LINE
  5
2791
330
1F
100
AcDbEntity
  8
SANINDUSA
100
AcDbLine
 10
3101.999009645441
 20
1620.031032902315
 30
-0.000000000155555
 11
3101.999009645441
 21
1620.031932902315
 31
-0.000000000155555
  0
LINE
  5
2792
330
1F
100
AcDbEntity
  8
SANINDUSA
100
AcDbLine
 10
3102.006901458424
 20
1620.030932902315
 30
-0.000000000155555
 11
3102.008487621681
 21
1620.030932902315
 31
-0.000000000155555
  0
ARC
  5
2793
330
1F
100
AcDbEntity
  8
SANINDUSA
100
AcDbCircle
 10
3102.000009645441
 20
1620.031932902315
 30
-0.000000000155555
 40
0.0009999999999999
100
AcDbArc
 50
90.0
 51
180.0
  0
ARC
  5
2794
330
1F
100
AcDbEntity
  8
SANINDUSA
100
AcDbCircle
 10
3102.008487621681
 20
1620.030432902315
 30
-0.000000000155555
 40
0.0005
100
AcDbArc
 50
0.0
 51
90.0
  0
LINE
  5
2795
330
1F
100
AcDbEntity
  8
SANINDUSA
100
AcDbLine
 10
3102.000009645441
 20
1620.032932902315
 30
-0.000000000155555
 11
3102.031509645441
 21
1620.032932902315
 31
-0.000000000155555
  0
LINE
  5
2796
330
1F
100
AcDbEntity
  8
SANINDUSA
100
AcDbLine
 10
3102.008987621681
 20
1620.030432902315
 30
-0.000000000155555
 11
3102.008987621681
 21
1620.023432902315
 31
-0.000000000155555
  0
ARC
  5
2797
330
1F
100
AcDbEntity
  8
SANINDUSA
100
AcDbCircle
 10
3102.031509645441
 20
1620.031932902315
 30
-0.000000000155555
 40
0.001
100
AcDbArc
 50
270.0
 51
90.0
  0
ARC
  5
2798
330
1F
100
AcDbEntity
  8
SANINDUSA
100
AcDbCircle
 10
3102.008487621681
 20
1620.023432902315
 30
-0.000000000155555
 40
0.0005
100
AcDbArc
 50
270.0
 51
0.0
  0
LINE
  5
2799
330
1F
100
AcDbEntity
  8
SANINDUSA
100
AcDbLine
 10
3102.031509645441
 20
1620.030932902315
 30
-0.000000000155555
 11
3102.011487621681
 21
1620.030932902315
 31
-0.000000000155555
  0
LINE
  5
279A
330
1F
100
AcDbEntity
  8
SANINDUSA
100
AcDbLine
 10
3102.008487621681
 20
1620.022932902315
 30
-0.000000000155555
 11
3102.006901458424
 21
1620.022932902315
 31
-0.000000000155555
  0
ARC
  5
279B
330
1F
100
AcDbEntity
  8
SANINDUSA
100
AcDbCircle
 10
3102.011487621681
 20
1620.030432902315
 30
-0.000000000155555
 40
0.0005000000000001
100
AcDbArc
 50
90.0
 51
180.0
  0
ARC
  5
279C
330
1F
100
AcDbEntity
  8
SANINDUSA
100
AcDbCircle
 10
3102.006901458424
 20
1620.023432902315
 30
-0.000000000155555
 40
0.0005
100
AcDbArc
 50
199.471220638017
 51
270.0
  0
LINE
  5
279D
330
1F
100
AcDbEntity
  8
SANINDUSA
100
AcDbLine
 10
3102.010987621681
 20
1620.030432902315
 30
-0.000000000155555
 11
3102.010987621681
 21
1620.023432902315
 31
-0.000000000155555
  0
ARC
  5
279E
330
1F
100
AcDbEntity
  8
SANINDUSA
100
AcDbCircle
 10
3102.005487244862
 20
1620.022932902315
 30
-0.000000000155555
 40
0.001
100
AcDbArc
 50
19.47122063801706
 51
160.5287793619829
  0
ARC
  5
279F
330
1F
100
AcDbEntity
  8
SANINDUSA
100
AcDbCircle
 10
3102.011487621681
 20
1620.023432902315
 30
-0.000000000155555
 40
0.0005000000000001
100
AcDbArc
 50
180.0
 51
270.0
  0
ARC
  5
27A0
330
1F
100
AcDbEntity
  8
SANINDUSA
100
AcDbCircle
 10
3102.0040730313
 20
1620.023432902315
 30
-0.000000000155555
 40
0.0005
100
AcDbArc
 50
270.0
 51
340.5287793619829
  0
LINE
  5
27A1
330
1F
100
AcDbEntity
  8
SANINDUSA
100
AcDbLine
 10
3102.011487621681
 20
1620.022932902315
 30
-0.000000000155555
 11
3102.031509645441
 21
1620.022932902315
 31
-0.000000000155555
  0
LINE
  5
27A2
330
1F
100
AcDbEntity
  8
SANINDUSA
100
AcDbLine
 10
3102.0040730313
 20
1620.022932902315
 30
-0.000000000155555
 11
3102.001384418149
 21
1620.022932902315
 31
-0.000000000155555
  0
ARC
  5
27A3
330
1F
100
AcDbEntity
  8
SANINDUSA
100
AcDbCircle
 10
3102.031509645441
 20
1620.021932902315
 30
-0.000000000155555
 40
0.001
100
AcDbArc
 50
270.0
 51
90.0
  0
ARC
  5
27A4
330
1F
100
AcDbEntity
  8
SANINDUSA
100
AcDbCircle
 10
3102.001384418149
 20
1620.023432902315
 30
-0.000000000155555
 40
0.0005000000000001
100
AcDbArc
 50
203.578178469876
 51
270.0
  0
LINE
  5
27A5
330
1F
100
AcDbEntity
  8
SANINDUSA
100
AcDbLine
 10
3102.031509645441
 20
1620.020932902315
 30
-0.000000000155555
 11
3102.000009645441
 21
1620.020932902315
 31
-0.000000000155555
  0
ARC
  5
27A6
330
1F
100
AcDbEntity
  8
SANINDUSA
100
AcDbCircle
 10
3102.000009645441
 20
1620.022832902315
 30
-0.000000000155555
 40
0.0009999999999999
100
AcDbArc
 50
23.57817846987604
 51
180.0
  0
ARC
  5
27A7
330
1F
100
AcDbEntity
  8
SANINDUSA
100
AcDbCircle
 10
3102.000009645441
 20
1620.021932902315
 30
-0.000000000155555
 40
0.0010000000000001
100
AcDbArc
 50
180.0
 51
270.0
  0
LINE
  5
27A8
330
1F
100
AcDbEntity
  8
SANINDUSA
100
AcDbLine
 10
3101.999009645441
 20
1620.021932902315
 30
-0.000000000155555
 11
3101.999009645441
 21
1620.022832902315
 31
-0.000000000155555
  0
LINE
  5
299C
330
1F
100
AcDbEntity
  8
SANINDUSA
100
AcDbLine
 10
3102.712651590515
 20
1619.427412368679
 30
-0.0000000017937957
 11
3102.770762701626
 21
1619.427412368679
 31
-0.0000000017937957
  0
LINE
  5
299D
330
1F
100
AcDbEntity
  8
SANINDUSA
100
AcDbLine
 10
3102.770762701626
 20
1619.39241236868
 30
-0.0000000017937957
 11
3102.711762701626
 21
1619.39241236868
 31
-0.0000000017937957
  0
LINE
  5
299E
330
1F
100
AcDbEntity
  8
SANINDUSA
100
AcDbLine
 10
3102.710762701626
 20
1619.43391236868
 30
-0.0000000017937957
 11
3102.696762701626
 21
1619.43391236868
 31
-0.0000000017937957
  0
LINE
  5
299F
330
1F
100
AcDbEntity
  8
SANINDUSA
100
AcDbLine
 10
3102.711762701626
 20
1619.40791236868
 30
-0.0000000017937957
 11
3102.695762701626
 21
1619.40791236868
 31
-0.0000000017937957
  0
LINE
  5
29A0
330
1F
100
AcDbEntity
  8
SANINDUSA
100
AcDbLine
 10
3102.694873812737
 20
1619.411912368679
 30
-0.0000000017937957
 11
3102.711762701626
 21
1619.411912368679
 31
-0.0000000017937957
  0
ARC
  5
29A1
330
1F
100
AcDbEntity
  8
SANINDUSA
100
AcDbCircle
 10
3102.710762701626
 20
1619.432912368679
 30
-0.0000000017937957
 40
0.001
100
AcDbArc
 50
0.0
 51
90.0
  0
LINE
  5
29A2
330
1F
100
AcDbEntity
  8
SANINDUSA
100
AcDbLine
 10
3102.711762701626
 20
1619.40791236868
 30
-0.0000000017937957
 11
3102.712651590515
 21
1619.40791236868
 31
-0.0000000017937957
  0
LINE
  5
29A3
330
1F
100
AcDbEntity
  8
SANINDUSA
100
AcDbLine
 10
3102.711262701626
 20
1619.411912368679
 30
-0.0000000017937957
 11
3102.711262701626
 21
1619.40791236868
 31
-0.0000000017937957
  0
LINE
  5
29A4
330
1F
100
AcDbEntity
  8
SANINDUSA
100
AcDbLine
 10
3102.712651590515
 20
1619.40791236868
 30
-0.0000000017937957
 11
3102.712651590515
 21
1619.427412368679
 31
-0.0000000017937957
  0
LINE
  5
29A5
330
1F
100
AcDbEntity
  8
SANINDUSA
100
AcDbLine
 10
3102.711762701626
 20
1619.411912368679
 30
-0.0000000017937957
 11
3102.711762701626
 21
1619.432912368679
 31
-0.0000000017937957
  0
LINE
  5
29A6
330
1F
100
AcDbEntity
  8
SANINDUSA
100
AcDbLine
 10
3102.696762701626
 20
1619.38591236868
 30
-0.0000000017937957
 11
3102.710762701626
 21
1619.38591236868
 31
-0.0000000017937957
  0
ARC
  5
29A7
330
1F
100
AcDbEntity
  8
SANINDUSA
100
AcDbCircle
 10
3102.710762701626
 20
1619.38691236868
 30
-0.0000000017937957
 40
0.001
100
AcDbArc
 50
270.0
 51
0.0
  0
LINE
  5
29A8
330
1F
100
AcDbEntity
  8
SANINDUSA
100
AcDbLine
 10
3102.711762701626
 20
1619.38691236868
 30
-0.0000000017937957
 11
3102.711762701626
 21
1619.40791236868
 31
-0.0000000017937957
  0
ARC
  5
29A9
330
1F
100
AcDbEntity
  8
SANINDUSA
100
AcDbCircle
 10
3102.770762701626
 20
1619.426412368679
 30
-0.0000000017937957
 40
0.001
100
AcDbArc
 50
0.0
 51
90.0
  0
ARC
  5
29AA
330
1F
100
AcDbEntity
  8
SANINDUSA
100
AcDbCircle
 10
3102.770762701626
 20
1619.39341236868
 30
-0.0000000017937957
 40
0.001
100
AcDbArc
 50
270.0
 51
0.0
  0
LINE
  5
29AB
330
1F
100
AcDbEntity
  8
SANINDUSA
100
AcDbLine
 10
3102.771762701626
 20
1619.426412368679
 30
-0.0000000017937957
 11
3102.771762701626
 21
1619.39341236868
 31
-0.0000000017937957
  0
LINE
  5
29AC
330
1F
100
AcDbEntity
  8
SANINDUSA
100
AcDbLine
 10
3102.696262701626
 20
1619.411912368679
 30
-0.0000000017937957
 11
3102.696262701626
 21
1619.40791236868
 31
-0.0000000017937957
  0
LINE
  5
29AD
330
1F
100
AcDbEntity
  8
SANINDUSA
100
AcDbLine
 10
3102.695762701626
 20
1619.432912368679
 30
-0.0000000017937957
 11
3102.695762701626
 21
1619.427412368679
 31
-0.0000000017937957
  0
LINE
  5
29AE
330
1F
100
AcDbEntity
  8
SANINDUSA
100
AcDbLine
 10
3102.695762701626
 20
1619.427412368679
 30
-0.0000000017937957
 11
3102.695762701626
 21
1619.411912368679
 31
-0.0000000017937957
  0
ARC
  5
29AF
330
1F
100
AcDbEntity
  8
SANINDUSA
100
AcDbCircle
 10
3102.696762701626
 20
1619.432912368679
 30
-0.0000000017937957
 40
0.001
100
AcDbArc
 50
90.0
 51
180.0
  0
ARC
  5
29B0
330
1F
100
AcDbEntity
  8
SANINDUSA
100
AcDbCircle
 10
3102.636762701627
 20
1619.426412368679
 30
-0.0000000017937957
 40
0.001
100
AcDbArc
 50
90.0
 51
180.0
  0
LINE
  5
29B1
330
1F
100
AcDbEntity
  8
SANINDUSA
100
AcDbLine
 10
3102.695762701626
 20
1619.427412368679
 30
-0.0000000017937957
 11
3102.636762701627
 21
1619.427412368679
 31
-0.0000000017937957
  0
ARC
  5
29B2
330
1F
100
AcDbEntity
  8
SANINDUSA
100
AcDbCircle
 10
3102.696762701626
 20
1619.38691236868
 30
-0.0000000017937957
 40
0.001
100
AcDbArc
 50
180.0
 51
270.0
  0
ARC
  5
29B3
330
1F
100
AcDbEntity
  8
SANINDUSA
100
AcDbCircle
 10
3102.636762701627
 20
1619.39341236868
 30
-0.0000000017937957
 40
0.001
100
AcDbArc
 50
180.0
 51
270.0
  0
LINE
  5
29B4
330
1F
100
AcDbEntity
  8
SANINDUSA
100
AcDbLine
 10
3102.636762701627
 20
1619.39241236868
 30
-0.0000000017937957
 11
3102.694873812737
 21
1619.39241236868
 31
-0.0000000017937957
  0
LINE
  5
29B5
330
1F
100
AcDbEntity
  8
SANINDUSA
100
AcDbLine
 10
3102.635762701626
 20
1619.426412368679
 30
-0.0000000017937957
 11
3102.635762701626
 21
1619.39341236868
 31
-0.0000000017937957
  0
LINE
  5
29B6
330
1F
100
AcDbEntity
  8
SANINDUSA
100
AcDbLine
 10
3102.694873812737
 20
1619.39241236868
 30
-0.0000000017937957
 11
3102.694873812737
 21
1619.411912368679
 31
-0.0000000017937957
  0
LINE
  5
29B7
330
1F
100
AcDbEntity
  8
SANINDUSA
100
AcDbLine
 10
3102.695762701626
 20
1619.40791236868
 30
-0.0000000017937957
 11
3102.695762701626
 21
1619.38691236868
 31
-0.0000000017937957
  0
LINE
  5
29B8
330
1F
100
AcDbEntity
  8
SANINDUSA
100
AcDbLine
 10
3102.712651590515
 20
1620.68741236867
 30
-0.0000000017937957
 11
3102.770762701626
 21
1620.68741236867
 31
-0.0000000017937957
  0
LINE
  5
29B9
330
1F
100
AcDbEntity
  8
SANINDUSA
100
AcDbLine
 10
3102.770762701626
 20
1620.65241236867
 30
-0.0000000017937957
 11
3102.711762701626
 21
1620.65241236867
 31
-0.0000000017937957
  0
LINE
  5
29BA
330
1F
100
AcDbEntity
  8
SANINDUSA
100
AcDbLine
 10
3102.710762701626
 20
1620.69391236867
 30
-0.0000000017937957
 11
3102.696762701626
 21
1620.69391236867
 31
-0.0000000017937957
  0
LINE
  5
29BB
330
1F
100
AcDbEntity
  8
SANINDUSA
100
AcDbLine
 10
3102.711762701626
 20
1620.66791236867
 30
-0.0000000017937957
 11
3102.695762701626
 21
1620.66791236867
 31
-0.0000000017937957
  0
LINE
  5
29BC
330
1F
100
AcDbEntity
  8
SANINDUSA
100
AcDbLine
 10
3102.694873812737
 20
1620.67191236867
 30
-0.0000000017937957
 11
3102.711762701626
 21
1620.67191236867
 31
-0.0000000017937957
  0
ARC
  5
29BD
330
1F
100
AcDbEntity
  8
SANINDUSA
100
AcDbCircle
 10
3102.710762701626
 20
1620.69291236867
 30
-0.0000000017937957
 40
0.001
100
AcDbArc
 50
0.0
 51
90.0
  0
LINE
  5
29BE
330
1F
100
AcDbEntity
  8
SANINDUSA
100
AcDbLine
 10
3102.711762701626
 20
1620.66791236867
 30
-0.0000000017937957
 11
3102.712651590515
 21
1620.66791236867
 31
-0.0000000017937957
  0
LINE
  5
29BF
330
1F
100
AcDbEntity
  8
SANINDUSA
100
AcDbLine
 10
3102.711262701626
 20
1620.67191236867
 30
-0.0000000017937957
 11
3102.711262701626
 21
1620.66791236867
 31
-0.0000000017937957
  0
LINE
  5
29C0
330
1F
100
AcDbEntity
  8
SANINDUSA
100
AcDbLine
 10
3102.712651590515
 20
1620.66791236867
 30
-0.0000000017937957
 11
3102.712651590515
 21
1620.68741236867
 31
-0.0000000017937957
  0
LINE
  5
29C1
330
1F
100
AcDbEntity
  8
SANINDUSA
100
AcDbLine
 10
3102.711762701626
 20
1620.67191236867
 30
-0.0000000017937957
 11
3102.711762701626
 21
1620.69291236867
 31
-0.0000000017937957
  0
LINE
  5
29C2
330
1F
100
AcDbEntity
  8
SANINDUSA
100
AcDbLine
 10
3102.696762701626
 20
1620.64591236867
 30
-0.0000000017937957
 11
3102.710762701626
 21
1620.64591236867
 31
-0.0000000017937957
  0
ARC
  5
29C3
330
1F
100
AcDbEntity
  8
SANINDUSA
100
AcDbCircle
 10
3102.710762701626
 20
1620.64691236867
 30
-0.0000000017937957
 40
0.001
100
AcDbArc
 50
270.0
 51
0.0
  0
LINE
  5
29C4
330
1F
100
AcDbEntity
  8
SANINDUSA
100
AcDbLine
 10
3102.711762701626
 20
1620.64691236867
 30
-0.0000000017937957
 11
3102.711762701626
 21
1620.66791236867
 31
-0.0000000017937957
  0
ARC
  5
29C5
330
1F
100
AcDbEntity
  8
SANINDUSA
100
AcDbCircle
 10
3102.770762701626
 20
1620.68641236867
 30
-0.0000000017937957
 40
0.001
100
AcDbArc
 50
0.0
 51
90.0
  0
ARC
  5
29C6
330
1F
100
AcDbEntity
  8
SANINDUSA
100
AcDbCircle
 10
3102.770762701626
 20
1620.65341236867
 30
-0.0000000017937957
 40
0.001
100
AcDbArc
 50
270.0
 51
0.0
  0
LINE
  5
29C7
330
1F
100
AcDbEntity
  8
SANINDUSA
100
AcDbLine
 10
3102.771762701626
 20
1620.68641236867
 30
-0.0000000017937957
 11
3102.771762701626
 21
1620.65341236867
 31
-0.0000000017937957
  0
LINE
  5
29C8
330
1F
100
AcDbEntity
  8
SANINDUSA
100
AcDbLine
 10
3102.696262701626
 20
1620.67191236867
 30
-0.0000000017937957
 11
3102.696262701626
 21
1620.66791236867
 31
-0.0000000017937957
  0
LINE
  5
29C9
330
1F
100
AcDbEntity
  8
SANINDUSA
100
AcDbLine
 10
3102.695762701626
 20
1620.69291236867
 30
-0.0000000017937957
 11
3102.695762701626
 21
1620.68741236867
 31
-0.0000000017937957
  0
LINE
  5
29CA
330
1F
100
AcDbEntity
  8
SANINDUSA
100
AcDbLine
 10
3102.695762701626
 20
1620.68741236867
 30
-0.0000000017937957
 11
3102.695762701626
 21
1620.67191236867
 31
-0.0000000017937957
  0
ARC
  5
29CB
330
1F
100
AcDbEntity
  8
SANINDUSA
100
AcDbCircle
 10
3102.696762701626
 20
1620.69291236867
 30
-0.0000000017937957
 40
0.001
100
AcDbArc
 50
90.0
 51
180.0
  0
ARC
  5
29CC
330
1F
100
AcDbEntity
  8
SANINDUSA
100
AcDbCircle
 10
3102.636762701627
 20
1620.68641236867
 30
-0.0000000017937957
 40
0.001
100
AcDbArc
 50
90.0
 51
180.0
  0
LINE
  5
29CD
330
1F
100
AcDbEntity
  8
SANINDUSA
100
AcDbLine
 10
3102.695762701626
 20
1620.68741236867
 30
-0.0000000017937957
 11
3102.636762701627
 21
1620.68741236867
 31
-0.0000000017937957
  0
ARC
  5
29CE
330
1F
100
AcDbEntity
  8
SANINDUSA
100
AcDbCircle
 10
3102.696762701626
 20
1620.64691236867
 30
-0.0000000017937957
 40
0.001
100
AcDbArc
 50
180.0
 51
270.0
  0
ARC
  5
29CF
330
1F
100
AcDbEntity
  8
SANINDUSA
100
AcDbCircle
 10
3102.636762701627
 20
1620.65341236867
 30
-0.0000000017937957
 40
0.001
100
AcDbArc
 50
180.0
 51
270.0
  0
LINE
  5
29D0
330
1F
100
AcDbEntity
  8
SANINDUSA
100
AcDbLine
 10
3102.636762701627
 20
1620.65241236867
 30
-0.0000000017937957
 11
3102.694873812737
 21
1620.65241236867
 31
-0.0000000017937957
  0
LINE
  5
29D1
330
1F
100
AcDbEntity
  8
SANINDUSA
100
AcDbLine
 10
3102.635762701626
 20
1620.68641236867
 30
-0.0000000017937957
 11
3102.635762701626
 21
1620.65341236867
 31
-0.0000000017937957
  0
LINE
  5
29D2
330
1F
100
AcDbEntity
  8
SANINDUSA
100
AcDbLine
 10
3102.694873812737
 20
1620.65241236867
 30
-0.0000000017937957
 11
3102.694873812737
 21
1620.67191236867
 31
-0.0000000017937957
  0
LINE
  5
29D3
330
1F
100
AcDbEntity
  8
SANINDUSA
100
AcDbLine
 10
3102.695762701626
 20
1620.66791236867
 30
-0.0000000017937957
 11
3102.695762701626
 21
1620.64691236867
 31
-0.0000000017937957
  0
LINE
  5
2A4A
330
1F
100
AcDbEntity
  8
SANINDUSA
100
AcDbLine
 10
3102.974262701626
 20
1619.114912368679
 30
0.0
 11
3102.183462701626
 21
1619.114912368679
 31
0.0
  0
ENDSEC
  0
SECTION
  2
OBJECTS
  0
DICTIONARY
  5
C
330
0
100
AcDbDictionary
281
     1
  3
ACAD_COLOR
350
2A26
  3
ACAD_GROUP
350
D
  3
ACAD_LAYOUT
350
1A
  3
ACAD_MATERIAL
350
29F9
  3
ACAD_MLEADERSTYLE
350
2A3B
  3
ACAD_MLINESTYLE
350
17
  3
ACAD_PLOTSETTINGS
350
19
  3
ACAD_PLOTSTYLENAME
350
E
  3
ACAD_SCALELIST
350
2A29
  3
ACAD_TABLESTYLE
350
2A27
  3
ACAD_VISUALSTYLE
350
2A12
  3
ACDB_RECOMPOSE_DATA
350
2B23
  3
AcDbVariableDictionary
350
3D
  3
ASE_INDEX_DICTIONARY
350
2956
  3
DWGPROPS
350
2B24
  0
DICTIONARY
  5
2A8A
330
8
100
AcDbDictionary
280
     1
281
     1
  0
DICTIONARY
  5
2A66
330
10
100
AcDbDictionary
280
     1
281
     1
  3
ADSK_XREC_LAYER_RECONCILED
360
2A67
  0
DICTIONARY
  5
2A68
330
2F
100
AcDbDictionary
280
     1
281
     1
  3
ADSK_XREC_LAYER_RECONCILED
360
2A69
  0
DICTIONARY
  5
2A6A
330
30
100
AcDbDictionary
280
     1
281
     1
  3
ADSK_XREC_LAYER_RECONCILED
360
2A6B
  0
DICTIONARY
  5
2A6C
330
31
100
AcDbDictionary
280
     1
281
     1
  3
ADSK_XREC_LAYER_RECONCILED
360
2A6D
  0
DICTIONARY
  5
2A6E
330
32
100
AcDbDictionary
280
     1
281
     1
  3
ADSK_XREC_LAYER_RECONCILED
360
2A6F
  0
DICTIONARY
  5
2A70
330
33
100
AcDbDictionary
280
     1
281
     1
  3
ADSK_XREC_LAYER_RECONCILED
360
2A71
  0
DICTIONARY
  5
2A72
330
34
100
AcDbDictionary
280
     1
281
     1
  3
ADSK_XREC_LAYER_RECONCILED
360
2A73
  0
DICTIONARY
  5
2A74
330
35
100
AcDbDictionary
280
     1
281
     1
  3
ADSK_XREC_LAYER_RECONCILED
360
2A75
  0
DICTIONARY
  5
2A76
330
36
100
AcDbDictionary
280
     1
281
     1
  3
ADSK_XREC_LAYER_RECONCILED
360
2A77
  0
DICTIONARY
  5
2A78
330
37
100
AcDbDictionary
280
     1
281
     1
  3
ADSK_XREC_LAYER_RECONCILED
360
2A79
  0
DICTIONARY
  5
2A7A
330
5D6
100
AcDbDictionary
280
     1
281
     1
  3
ADSK_XREC_LAYER_RECONCILED
360
2A7B
  0
DICTIONARY
  5
2A7C
330
8AF
100
AcDbDictionary
280
     1
281
     1
  3
ADSK_XREC_LAYER_RECONCILED
360
2A7D
  0
DICTIONARY
  5
2A7E
330
8F8
100
AcDbDictionary
280
     1
281
     1
  3
ADSK_XREC_LAYER_RECONCILED
360
2A7F
  0
DICTIONARY
  5
2A80
330
91D
100
AcDbDictionary
280
     1
281
     1
  3
ADSK_XREC_LAYER_RECONCILED
360
2A81
  0
DICTIONARY
  5
2A82
330
D03
100
AcDbDictionary
280
     1
281
     1
  3
ADSK_XREC_LAYER_RECONCILED
360
2A83
  0
DICTIONARY
  5
2A84
330
2A65
100
AcDbDictionary
280
     1
281
     1
  3
ADSK_XREC_LAYER_RECONCILED
360
2A85
  0
DICTIONARY
  5
2A26
102
{ACAD_REACTORS
330
C
102
}
330
C
100
AcDbDictionary
281
     1
  0
DICTIONARY
  5
D
102
{ACAD_REACTORS
330
C
102
}
330
C
100
AcDbDictionary
281
     1
  0
DICTIONARY
  5
1A
102
{ACAD_REACTORS
330
C
102
}
330
C
100
AcDbDictionary
281
     1
  3
Layout1
350
1E
  3
Layout2
350
26
  3
Model
350
22
  0
DICTIONARY
  5
29F9
102
{ACAD_REACTORS
330
C
102
}
330
C
100
AcDbDictionary
281
     1
  3
ByBlock
350
2A02
  3
ByLayer
350
29FA
  3
Global
350
2A0A
  0
DICTIONARY
  5
2A3B
102
{ACAD_REACTORS
330
C
102
}
330
C
100
AcDbDictionary
281
     1
  3
Standard
350
2A3C
  0
DICTIONARY
  5
17
102
{ACAD_REACTORS
330
C
102
}
330
C
100
AcDbDictionary
281
     1
  3
Standard
350
18
  0
DICTIONARY
  5
19
102
{ACAD_REACTORS
330
C
102
}
330
C
100
AcDbDictionary
281
     1
  0
ACDBDICTIONARYWDFLT
  5
E
102
{ACAD_REACTORS
330
C
102
}
330
C
100
AcDbDictionary
281
     1
  3
Normal
350
F
100
AcDbDictionaryWithDefault
340
F
  0
DICTIONARY
  5
2A29
102
{ACAD_REACTORS
330
C
102
}
330
C
100
AcDbDictionary
281
     1
  3
A0
350
2A2A
  3
A1
350
2A2B
  3
A2
350
2A2C
  3
A3
350
2A2D
  3
A4
350
2A2E
  3
A5
350
2A2F
  3
A6
350
2A30
  3
A7
350
2A31
  3
A8
350
2A32
  3
A9
350
2A33
  3
B0
350
2A34
  3
B1
350
2A35
  3
B2
350
2A36
  3
B3
350
2A37
  3
B4
350
2A38
  3
B5
350
2A39
  3
B6
350
2A3A
  0
DICTIONARY
  5
2A27
102
{ACAD_REACTORS
330
C
102
}
330
C
100
AcDbDictionary
281
     1
  3
Standard
350
2A28
  0
DICTIONARY
  5
2A12
102
{ACAD_REACTORS
330
C
102
}
330
C
100
AcDbDictionary
281
     1
  3
2dWireframe
350
2A18
  3
3D Hidden
350
2A1A
  3
3dWireframe
350
2A19
  3
Basic
350
2A17
  3
Brighten
350
2A1E
  3
ColorChange
350
2A22
  3
Conceptual
350
2A1B
  3
Dim
350
2A1D
  3
EdgeColorOff
350
2A25
  3
Facepattern
350
2A21
  3
Flat
350
2A13
  3
FlatWithEdges
350
2A14
  3
Gouraud
350
2A15
  3
GouraudWithEdges
350
2A16
  3
JitterOff
350
2A23
  3
Linepattern
350
2A20
  3
OverhangOff
350
2A24
  3
Realistic
350
2A1C
  3
Thicken
350
2A1F
  0
XRECORD
  5
2B23
102
{ACAD_REACTORS
330
C
102
}
330
C
100
AcDbXrecord
280
     1
 90
        1
330
2A28
  0
DICTIONARY
  5
3D
102
{ACAD_REACTORS
330
C
102
}
330
C
100
AcDbDictionary
281
     1
  3
CANNOSCALE
350
2AC7
  3
CMLEADERSTYLE
350
2AC6
  3
CTABLESTYLE
350
2AC5
  3
DIMASSOC
350
3F
  3
HIDETEXT
350
3E
  3
INDEXCTL
350
2AC9
  3
SORTENTS
350
2AC8
  3
XCLIPFRAME
350
2B21
  0
DICTIONARY
  5
2956
102
{ACAD_REACTORS
330
C
102
}
330
C
100
AcDbDictionary
281
     1
  3
ASEBlockHierarchyIndexRecord
350
2957
1001
DCO15
1040
1508219606.906
  0
XRECORD
  5
2B24
102
{ACAD_REACTORS
330
C
102
}
330
C
100
AcDbXrecord
280
     1
  1
DWGPROPS COOKIE
  2

  3

  4

  6

  7

  8
Julio
  9

300
=
301
=
302
=
303
=
304
=
305
=
306
=
307
=
308
=
309
=
 40
0.0350709027777778
 41
2453258.736076563
 42
2455817.493305475
  1

 90
        0
  0
XRECORD
  5
2A67
102
{ACAD_REACTORS
330
2A66
102
}
330
2A66
100
AcDbXrecord
280
     1
290
     1
  0
XRECORD
  5
2A69
102
{ACAD_REACTORS
330
2A68
102
}
330
2A68
100
AcDbXrecord
280
     1
290
     1
  0
XRECORD
  5
2A6B
102
{ACAD_REACTORS
330
2A6A
102
}
330
2A6A
100
AcDbXrecord
280
     1
290
     1
  0
XRECORD
  5
2A6D
102
{ACAD_REACTORS
330
2A6C
102
}
330
2A6C
100
AcDbXrecord
280
     1
290
     1
  0
XRECORD
  5
2A6F
102
{ACAD_REACTORS
330
2A6E
102
}
330
2A6E
100
AcDbXrecord
280
     1
290
     1
  0
XRECORD
  5
2A71
102
{ACAD_REACTORS
330
2A70
102
}
330
2A70
100
AcDbXrecord
280
     1
290
     1
  0
XRECORD
  5
2A73
102
{ACAD_REACTORS
330
2A72
102
}
330
2A72
100
AcDbXrecord
280
     1
290
     1
  0
XRECORD
  5
2A75
102
{ACAD_REACTORS
330
2A74
102
}
330
2A74
100
AcDbXrecord
280
     1
290
     1
  0
XRECORD
  5
2A77
102
{ACAD_REACTORS
330
2A76
102
}
330
2A76
100
AcDbXrecord
280
     1
290
     1
  0
XRECORD
  5
2A79
102
{ACAD_REACTORS
330
2A78
102
}
330
2A78
100
AcDbXrecord
280
     1
290
     1
  0
XRECORD
  5
2A7B
102
{ACAD_REACTORS
330
2A7A
102
}
330
2A7A
100
AcDbXrecord
280
     1
290
     1
  0
XRECORD
  5
2A7D
102
{ACAD_REACTORS
330
2A7C
102
}
330
2A7C
100
AcDbXrecord
280
     1
290
     1
  0
XRECORD
  5
2A7F
102
{ACAD_REACTORS
330
2A7E
102
}
330
2A7E
100
AcDbXrecord
280
     1
290
     1
  0
XRECORD
  5
2A81
102
{ACAD_REACTORS
330
2A80
102
}
330
2A80
100
AcDbXrecord
280
     1
290
     1
  0
XRECORD
  5
2A83
102
{ACAD_REACTORS
330
2A82
102
}
330
2A82
100
AcDbXrecord
280
     1
290
     1
  0
XRECORD
  5
2A85
102
{ACAD_REACTORS
330
2A84
102
}
330
2A84
100
AcDbXrecord
280
     1
290
     1
  0
LAYOUT
  5
1E
102
{ACAD_XDICTIONARY
360
2B25
102
}
102
{ACAD_REACTORS
330
1A
102
}
330
1A
100
AcDbPlotSettings
  1

  2
Ploter HP500
  4

  6

 40
0.0
 41
0.0
 42
0.0
 43
0.0
 44
0.0
 45
0.0
 46
0.0
 47
0.0
 48
0.0
 49
0.0
140
0.0
141
0.0
142
1.0
143
1.0
 70
   688
 72
     0
 73
     0
 74
     5
  7
monochrome.ctb
 75
    16
147
1.0
148
0.0
149
0.0
100
AcDbLayout
  1
Layout1
 70
     1
 71
     1
 10
0.0
 20
0.0
 11
420.0
 21
297.0
 12
0.0
 22
0.0
 32
0.0
 14
1.000000000000000E+20
 24
1.000000000000000E+20
 34
1.000000000000000E+20
 15
-1.000000000000000E+20
 25
-1.000000000000000E+20
 35
-1.000000000000000E+20
146
0.0
 13
0.0
 23
0.0
 33
0.0
 16
1.0
 26
0.0
 36
0.0
 17
0.0
 27
1.0
 37
0.0
 76
     0
330
1B
  0
LAYOUT
  5
26
102
{ACAD_XDICTIONARY
360
2B29
102
}
102
{ACAD_REACTORS
330
1A
102
}
330
1A
100
AcDbPlotSettings
  1

  2
Ploter HP500
  4

  6

 40
0.0
 41
0.0
 42
0.0
 43
0.0
 44
0.0
 45
0.0
 46
0.0
 47
0.0
 48
0.0
 49
0.0
140
0.0
141
0.0
142
1.0
143
1.0
 70
   688
 72
     0
 73
     0
 74
     5
  7
monochrome.ctb
 75
    16
147
1.0
148
0.0
149
0.0
100
AcDbLayout
  1
Layout2
 70
     1
 71
     2
 10
0.0
 20
0.0
 11
12.0
 21
9.0
 12
0.0
 22
0.0
 32
0.0
 14
0.0
 24
0.0
 34
0.0
 15
0.0
 25
0.0
 35
0.0
146
0.0
 13
0.0
 23
0.0
 33
0.0
 16
1.0
 26
0.0
 36
0.0
 17
0.0
 27
1.0
 37
0.0
 76
     0
330
23
  0
LAYOUT
  5
22
102
{ACAD_XDICTIONARY
360
2B27
102
}
102
{ACAD_REACTORS
330
1A
102
}
330
1A
100
AcDbPlotSettings
  1

  2
Ploter HP500
  4
User268
  6

 40
4.995333194732666
 41
16.97565841674804
 42
4.995330810546875
 43
16.97567749023437
 44
209.9733276367187
 45
296.9259948730469
 46
0.0
 47
0.0
 48
0.0
 49
0.0
140
0.0
141
0.0
142
1.0
143
1.0
 70
 11952
 72
     1
 73
     1
 74
     0
  7

 75
     0
147
1.0
148
-427.5957866592534
149
7.362384574453926
100
AcDbLayout
  1
Model
 70
     1
 71
     0
 10
0.0
 20
0.0
 11
12.0
 21
9.0
 12
0.0
 22
0.0
 32
0.0
 14
0.0
 24
0.0
 34
0.0
 15
0.0
 25
0.0
 35
0.0
146
0.0
 13
0.0
 23
0.0
 33
0.0
 16
1.0
 26
0.0
 36
0.0
 17
0.0
 27
1.0
 37
0.0
 76
     0
330
1F
331
29F7
  0
MATERIAL
  5
2A02
102
{ACAD_XDICTIONARY
360
2A03
102
}
102
{ACAD_REACTORS
330
29F9
102
}
330
29F9
100
AcDbMaterial
  1
ByBlock
 72
     0
 43
0.0008202099737533
 43
0.0
 43
0.0
 43
0.0
 43
0.0
 43
0.0008202099737533
 43
0.0
 43
0.0
 43
0.0
 43
0.0
 43
1.0
 43
0.0
 43
0.0
 43
0.0
 43
0.0
 43
1.0
 77
     0
 47
0.0008202099737533
 47
0.0
 47
0.0
 47
0.0
 47
0.0
 47
0.0008202099737533
 47
0.0
 47
0.0
 47
0.0
 47
0.0
 47
1.0
 47
0.0
 47
0.0
 47
0.0
 47
0.0
 47
1.0
171
     0
 49
0.0008202099737533
 49
0.0
 49
0.0
 49
0.0
 49
0.0
 49
0.0008202099737533
 49
0.0
 49
0.0
 49
0.0
 49
0.0
 49
1.0
 49
0.0
 49
0.0
 49
0.0
 49
0.0
 49
1.0
175
     0
142
0.0008202099737533
142
0.0
142
0.0
142
0.0
142
0.0
142
0.0008202099737533
142
0.0
142
0.0
142
0.0
142
0.0
142
1.0
142
0.0
142
0.0
142
0.0
142
0.0
142
1.0
179
     0
144
0.0008202099737533
144
0.0
144
0.0
144
0.0
144
0.0
144
0.0008202099737533
144
0.0
144
0.0
144
0.0
144
0.0
144
1.0
144
0.0
144
0.0
144
0.0
144
0.0
144
1.0
147
0.0008202099737533
147
0.0
147
0.0
147
0.0
147
0.0
147
0.0008202099737533
147
0.0
147
0.0
147
0.0
147
0.0
147
1.0
147
0.0
147
0.0
147
0.0
147
0.0
147
1.0
  0
MATERIAL
  5
29FA
102
{ACAD_XDICTIONARY
360
29FB
102
}
102
{ACAD_REACTORS
330
29F9
102
}
330
29F9
100
AcDbMaterial
  1
ByLayer
 72
     0
 43
0.0008202099737533
 43
0.0
 43
0.0
 43
0.0
 43
0.0
 43
0.0008202099737533
 43
0.0
 43
0.0
 43
0.0
 43
0.0
 43
1.0
 43
0.0
 43
0.0
 43
0.0
 43
0.0
 43
1.0
 77
     0
 47
0.0008202099737533
 47
0.0
 47
0.0
 47
0.0
 47
0.0
 47
0.0008202099737533
 47
0.0
 47
0.0
 47
0.0
 47
0.0
 47
1.0
 47
0.0
 47
0.0
 47
0.0
 47
0.0
 47
1.0
171
     0
 49
0.0008202099737533
 49
0.0
 49
0.0
 49
0.0
 49
0.0
 49
0.0008202099737533
 49
0.0
 49
0.0
 49
0.0
 49
0.0
 49
1.0
 49
0.0
 49
0.0
 49
0.0
 49
0.0
 49
1.0
175
     0
142
0.0008202099737533
142
0.0
142
0.0
142
0.0
142
0.0
142
0.0008202099737533
142
0.0
142
0.0
142
0.0
142
0.0
142
1.0
142
0.0
142
0.0
142
0.0
142
0.0
142
1.0
179
     0
144
0.0008202099737533
144
0.0
144
0.0
144
0.0
144
0.0
144
0.0008202099737533
144
0.0
144
0.0
144
0.0
144
0.0
144
1.0
144
0.0
144
0.0
144
0.0
144
0.0
144
1.0
147
0.0008202099737533
147
0.0
147
0.0
147
0.0
147
0.0
147
0.0008202099737533
147
0.0
147
0.0
147
0.0
147
0.0
147
1.0
147
0.0
147
0.0
147
0.0
147
0.0
147
1.0
  0
MATERIAL
  5
2A0A
102
{ACAD_XDICTIONARY
360
2A0B
102
}
102
{ACAD_REACTORS
330
29F9
102
}
330
29F9
100
AcDbMaterial
  1
Global
 72
     0
 43
0.0008202099737533
 43
0.0
 43
0.0
 43
0.0
 43
0.0
 43
0.0008202099737533
 43
0.0
 43
0.0
 43
0.0
 43
0.0
 43
1.0
 43
0.0
 43
0.0
 43
0.0
 43
0.0
 43
1.0
 77
     0
 47
0.0008202099737533
 47
0.0
 47
0.0
 47
0.0
 47
0.0
 47
0.0008202099737533
 47
0.0
 47
0.0
 47
0.0
 47
0.0
 47
1.0
 47
0.0
 47
0.0
 47
0.0
 47
0.0
 47
1.0
171
     0
 49
0.0008202099737533
 49
0.0
 49
0.0
 49
0.0
 49
0.0
 49
0.0008202099737533
 49
0.0
 49
0.0
 49
0.0
 49
0.0
 49
1.0
 49
0.0
 49
0.0
 49
0.0
 49
0.0
 49
1.0
175
     0
142
0.0008202099737533
142
0.0
142
0.0
142
0.0
142
0.0
142
0.0008202099737533
142
0.0
142
0.0
142
0.0
142
0.0
142
1.0
142
0.0
142
0.0
142
0.0
142
0.0
142
1.0
179
     0
144
0.0008202099737533
144
0.0
144
0.0
144
0.0
144
0.0
144
0.0008202099737533
144
0.0
144
0.0
144
0.0
144
0.0
144
1.0
144
0.0
144
0.0
144
0.0
144
0.0
144
1.0
147
0.0008202099737533
147
0.0
147
0.0
147
0.0
147
0.0
147
0.0008202099737533
147
0.0
147
0.0
147
0.0
147
0.0
147
1.0
147
0.0
147
0.0
147
0.0
147
0.0
147
1.0
  0
MLEADERSTYLE
  5
2A3C
102
{ACAD_REACTORS
330
2A3B
102
}
330
2A3B
100
AcDbMLeaderStyle
170
     2
171
     1
172
     0
 90
        2
 40
0.0
 41
0.0
173
     1
 91
-1056964608
340
14
 92
       -2
290
     1
 42
2.0
291
     1
 43
0.36
  3
Standard
 44
4.0
300

342
11
174
     1
178
     6
175
     1
176
     0
 93
-1056964608
 45
4.0
292
     0
297
     0
 46
4.0
 94
-1056964608
 47
1.0
 49
1.0
140
1.0
293
     1
141
0.0
294
     1
177
     0
142
1.0
295
     0
296
     0
143
0.125
1001
ACAD_MLEADERVER
1070
     2
  0
MLINESTYLE
  5
18
102
{ACAD_REACTORS
330
17
102
}
330
17
100
AcDbMlineStyle
  2
STANDARD
 70
     0
  3

 62
   256
 51
90.0
 52
90.0
 71
     2
 49
0.5
 62
   256
  6
BYLAYER
 49
-0.5
 62
   256
  6
BYLAYER
  0
ACDBPLACEHOLDER
  5
F
102
{ACAD_REACTORS
330
E
102
}
330
E
  0
SCALE
  5
2A2A
102
{ACAD_REACTORS
330
2A29
102
}
330
2A29
100
AcDbScale
 70
     0
300
1:1
140
1.0
141
1.0
290
     1
  0
SCALE
  5
2A2B
102
{ACAD_REACTORS
330
2A29
102
}
330
2A29
100
AcDbScale
 70
     0
300
1:2
140
1.0
141
2.0
290
     0
  0
SCALE
  5
2A2C
102
{ACAD_REACTORS
330
2A29
102
}
330
2A29
100
AcDbScale
 70
     0
300
1:4
140
1.0
141
4.0
290
     0
  0
SCALE
  5
2A2D
102
{ACAD_REACTORS
330
2A29
102
}
330
2A29
100
AcDbScale
 70
     0
300
1:5
140
1.0
141
5.0
290
     0
  0
SCALE
  5
2A2E
102
{ACAD_REACTORS
330
2A29
102
}
330
2A29
100
AcDbScale
 70
     0
300
1:8
140
1.0
141
8.0
290
     0
  0
SCALE
  5
2A2F
102
{ACAD_REACTORS
330
2A29
102
}
330
2A29
100
AcDbScale
 70
     0
300
1:10
140
1.0
141
10.0
290
     0
  0
SCALE
  5
2A30
102
{ACAD_REACTORS
330
2A29
102
}
330
2A29
100
AcDbScale
 70
     0
300
1:16
140
1.0
141
16.0
290
     0
  0
SCALE
  5
2A31
102
{ACAD_REACTORS
330
2A29
102
}
330
2A29
100
AcDbScale
 70
     0
300
1:20
140
1.0
141
20.0
290
     0
  0
SCALE
  5
2A32
102
{ACAD_REACTORS
330
2A29
102
}
330
2A29
100
AcDbScale
 70
     0
300
1:30
140
1.0
141
30.0
290
     0
  0
SCALE
  5
2A33
102
{ACAD_REACTORS
330
2A29
102
}
330
2A29
100
AcDbScale
 70
     0
300
1:40
140
1.0
141
40.0
290
     0
  0
SCALE
  5
2A34
102
{ACAD_REACTORS
330
2A29
102
}
330
2A29
100
AcDbScale
 70
     0
300
1:50
140
1.0
141
50.0
290
     0
  0
SCALE
  5
2A35
102
{ACAD_REACTORS
330
2A29
102
}
330
2A29
100
AcDbScale
 70
     0
300
1:100
140
1.0
141
100.0
290
     0
  0
SCALE
  5
2A36
102
{ACAD_REACTORS
330
2A29
102
}
330
2A29
100
AcDbScale
 70
     0
300
2:1
140
2.0
141
1.0
290
     0
  0
SCALE
  5
2A37
102
{ACAD_REACTORS
330
2A29
102
}
330
2A29
100
AcDbScale
 70
     0
300
4:1
140
4.0
141
1.0
290
     0
  0
SCALE
  5
2A38
102
{ACAD_REACTORS
330
2A29
102
}
330
2A29
100
AcDbScale
 70
     0
300
8:1
140
8.0
141
1.0
290
     0
  0
SCALE
  5
2A39
102
{ACAD_REACTORS
330
2A29
102
}
330
2A29
100
AcDbScale
 70
     0
300
10:1
140
10.0
141
1.0
290
     0
  0
SCALE
  5
2A3A
102
{ACAD_REACTORS
330
2A29
102
}
330
2A29
100
AcDbScale
 70
     0
300
100:1
140
100.0
141
1.0
290
     0
  0
TABLESTYLE
  5
2A28
102
{ACAD_XDICTIONARY
360
2A86
102
}
102
{ACAD_REACTORS
330
2A27
102
}
330
2A27
100
AcDbTableStyle
  3
Standard
 70
     0
 71
     0
 40
1.5
 41
1.5
280
     0
281
     0
  7
Standard
140
4.5
170
     2
 62
     0
 63
     7
283
     0
274
    -2
284
     1
 64
     0
275
    -2
285
     1
 65
     0
276
    -2
286
     1
 66
     0
277
    -2
287
     1
 67
     0
278
    -2
288
     1
 68
     0
279
    -2
289
     1
 69
     0
  7
Standard
140
6.0
170
     5
 62
     0
 63
     7
283
     0
274
    -2
284
     1
 64
     0
275
    -2
285
     1
 65
     0
276
    -2
286
     1
 66
     0
277
    -2
287
     1
 67
     0
278
    -2
288
     1
 68
     0
279
    -2
289
     1
 69
     0
  7
Standard
140
4.5
170
     5
 62
     0
 63
     7
283
     0
274
    -2
284
     1
 64
     0
275
    -2
285
     1
 65
     0
276
    -2
286
     1
 66
     0
277
    -2
287
     1
 67
     0
278
    -2
288
     1
 68
     0
279
    -2
289
     1
 69
     0
  0
VISUALSTYLE
  5
2A18
102
{ACAD_XDICTIONARY
360
2B3A
102
}
102
{ACAD_REACTORS
330
2A12
102
}
330
2A12
100
AcDbVisualStyle
  2
2dWireframe
 70
     4
 71
     0
 72
     2
 73
     0
 90
        0
 40
-0.6
 41
-30.0
 62
     5
 63
     7
 74
     1
 91
        4
 64
     7
 65
   257
 75
     1
175
     1
 42
1.0
 92
        0
 66
   257
 43
1.0
 76
     1
 77
     6
 78
     2
 67
     7
 79
     5
170
     0
171
     0
290
     0
174
     0
 93
        1
 44
0.0
173
     0
291
     0
 45
0.0
1001
ACAD
1000
AcDbSavedByObjectVersion
1070
     0
  0
VISUALSTYLE
  5
2A1A
102
{ACAD_XDICTIONARY
360
2B3E
102
}
102
{ACAD_REACTORS
330
2A12
102
}
330
2A12
100
AcDbVisualStyle
  2
3D Hidden
 70
     6
 71
     1
 72
     2
 73
     2
 90
        0
 40
-0.6
 41
-30.0
 62
     5
 63
     7
 74
     2
 91
        2
 64
     7
 65
   257
 75
     2
175
     1
 42
179.0
 92
        0
 66
   257
 43
1.0
 76
     1
 77
     6
 78
     2
 67
     7
 79
     3
170
     0
171
     0
290
     0
174
     0
 93
        1
 44
0.0
173
     0
291
     0
 45
0.0
1001
ACAD
1000
AcDbSavedByObjectVersion
1070
     0
  0
VISUALSTYLE
  5
2A19
102
{ACAD_XDICTIONARY
360
2B3C
102
}
102
{ACAD_REACTORS
330
2A12
102
}
330
2A12
100
AcDbVisualStyle
  2
3dWireframe
 70
     5
 71
     0
 72
     2
 73
     0
 90
        0
 40
-0.6
 41
-30.0
 62
     5
 63
     7
 74
     1
 91
        4
 64
     7
 65
   257
 75
     1
175
     1
 42
1.0
 92
        0
 66
   257
 43
1.0
 76
     1
 77
     6
 78
     2
 67
     7
 79
     5
170
     0
171
     0
290
     0
174
     0
 93
        1
 44
0.0
173
     0
291
     0
 45
0.0
1001
ACAD
1000
AcDbSavedByObjectVersion
1070
     0
  0
VISUALSTYLE
  5
2A17
102
{ACAD_XDICTIONARY
360
2B38
102
}
102
{ACAD_REACTORS
330
2A12
102
}
330
2A12
100
AcDbVisualStyle
  2
Basic
 70
     7
 71
     1
 72
     0
 73
     1
 90
        0
 40
-0.6
 41
-30.0
 62
     5
 63
     7
 74
     0
 91
        4
 64
     7
 65
   257
 75
     1
175
     1
 42
1.0
 92
        8
 66
     7
 43
1.0
 76
     1
 77
     6
 78
     2
 67
     7
 79
     5
170
     0
171
     0
290
     0
174
     0
 93
        1
 44
0.0
173
     0
291
     1
 45
0.0
1001
ACAD
1000
AcDbSavedByObjectVersion
1070
     0
  0
VISUALSTYLE
  5
2A1E
102
{ACAD_XDICTIONARY
360
2B46
102
}
102
{ACAD_REACTORS
330
2A12
102
}
330
2A12
100
AcDbVisualStyle
  2
Brighten
 70
    12
 71
     2
 72
     2
 73
     0
 90
        0
 40
-0.6
 41
-30.0
 62
     5
 63
     7
 74
     1
 91
        4
 64
     7
 65
   257
 75
     1
175
     1
 42
1.0
 92
        8
 66
     7
 43
1.0
 76
     1
 77
     6
 78
     2
 67
     7
 79
     5
170
     0
171
     0
290
     0
174
     0
 93
        1
 44
50.0
173
     0
291
     1
 45
0.0
1001
ACAD
1000
AcDbSavedByObjectVersion
1070
     0
  0
VISUALSTYLE
  5
2A22
102
{ACAD_XDICTIONARY
360
2B4E
102
}
102
{ACAD_REACTORS
330
2A12
102
}
330
2A12
100
AcDbVisualStyle
  2
ColorChange
 70
    16
 71
     2
 72
     2
 73
     3
 90
        0
 40
-0.6
 41
-30.0
 62
     5
 63
     8
 74
     1
 91
        4
 64
     7
 65
   257
 75
     1
175
     1
 42
1.0
 92
        8
 66
     8
 43
1.0
 76
     1
 77
     6
 78
     2
 67
     7
 79
     5
170
     0
171
     0
290
     0
174
     0
 93
        1
 44
0.0
173
     0
291
     1
 45
0.0
1001
ACAD
1000
AcDbSavedByObjectVersion
1070
     0
  0
VISUALSTYLE
  5
2A1B
102
{ACAD_XDICTIONARY
360
2B40
102
}
102
{ACAD_REACTORS
330
2A12
102
}
330
2A12
100
AcDbVisualStyle
  2
Conceptual
 70
     9
 71
     3
 72
     2
 73
     0
 90
        0
 40
-0.6
 41
-30.0
 62
     5
 63
     7
 74
     2
 91
        2
 64
     7
 65
   257
 75
     1
175
     1
 42
179.0
 92
        8
 66
     7
 43
1.0
 76
     1
 77
     6
 78
     2
 67
     7
 79
     3
170
     0
171
     0
290
     0
174
     0
 93
        1
 44
0.0
173
     0
291
     0
 45
0.0
1001
ACAD
1000
AcDbSavedByObjectVersion
1070
     0
  0
VISUALSTYLE
  5
2A1D
102
{ACAD_XDICTIONARY
360
2B44
102
}
102
{ACAD_REACTORS
330
2A12
102
}
330
2A12
100
AcDbVisualStyle
  2
Dim
 70
    11
 71
     2
 72
     2
 73
     0
 90
        0
 40
-0.6
 41
-30.0
 62
     5
 63
     7
 74
     1
 91
        4
 64
     7
 65
   257
 75
     1
175
     1
 42
1.0
 92
        8
 66
     7
 43
1.0
 76
     1
 77
     6
 78
     2
 67
     7
 79
     5
170
     0
171
     0
290
     0
174
     0
 93
        1
 44
-50.0
173
     0
291
     1
 45
0.0
1001
ACAD
1000
AcDbSavedByObjectVersion
1070
     0
  0
VISUALSTYLE
  5
2A25
102
{ACAD_XDICTIONARY
360
2B54
102
}
102
{ACAD_REACTORS
330
2A12
102
}
330
2A12
100
AcDbVisualStyle
  2
EdgeColorOff
 70
    22
 71
     2
 72
     2
 73
     0
 90
        0
 40
-0.6
 41
-30.0
 62
     5
 63
     7
 74
     1
 91
        4
 64
     7
 65
   257
 75
     1
175
     1
 42
1.0
 92
        8
 66
     7
 43
1.0
 76
     1
 77
     6
 78
     2
 67
     7
 79
     5
170
     0
171
     0
290
     0
174
     0
 93
        1
 44
0.0
173
     0
291
     1
 45
0.0
1001
ACAD
1000
AcDbSavedByObjectVersion
1070
     0
  0
VISUALSTYLE
  5
2A21
102
{ACAD_XDICTIONARY
360
2B4C
102
}
102
{ACAD_REACTORS
330
2A12
102
}
330
2A12
100
AcDbVisualStyle
  2
Facepattern
 70
    15
 71
     2
 72
     2
 73
     0
 90
        0
 40
-0.6
 41
-30.0
 62
     5
 63
     7
 74
     1
 91
        4
 64
     7
 65
   257
 75
     1
175
     1
 42
1.0
 92
        8
 66
     7
 43
1.0
 76
     1
 77
     6
 78
     2
 67
     7
 79
     5
170
     0
171
     0
290
     0
174
     0
 93
        1
 44
0.0
173
     0
291
     1
 45
0.0
1001
ACAD
1000
AcDbSavedByObjectVersion
1070
     0
  0
VISUALSTYLE
  5
2A13
102
{ACAD_XDICTIONARY
360
2B30
102
}
102
{ACAD_REACTORS
330
2A12
102
}
330
2A12
100
AcDbVisualStyle
  2
Flat
 70
     0
 71
     2
 72
     1
 73
     1
 90
        2
 40
-0.6
 41
30.0
 62
     5
 63
     7
 74
     0
 91
        4
 64
     7
 65
   257
 75
     1
175
     1
 42
1.0
 92
        8
 66
     7
 43
1.0
 76
     1
 77
     6
 78
     2
 67
     7
 79
     5
170
     0
171
     0
290
     0
174
     0
 93
       13
 44
0.0
173
     0
291
     1
 45
0.0
1001
ACAD
1000
AcDbSavedByObjectVersion
1070
     0
  0
VISUALSTYLE
  5
2A14
102
{ACAD_XDICTIONARY
360
2B32
102
}
102
{ACAD_REACTORS
330
2A12
102
}
330
2A12
100
AcDbVisualStyle
  2
FlatWithEdges
 70
     1
 71
     2
 72
     1
 73
     1
 90
        2
 40
-0.6
 41
30.0
 62
     5
 63
     7
 74
     1
 91
        4
 64
     7
 65
   257
 75
     1
175
     1
 42
1.0
 92
        0
 66
   257
 43
1.0
 76
     1
 77
     6
 78
     2
 67
     7
 79
     5
170
     0
171
     0
290
     0
174
     0
 93
       13
 44
0.0
173
     0
291
     1
 45
0.0
1001
ACAD
1000
AcDbSavedByObjectVersion
1070
     0
  0
VISUALSTYLE
  5
2A15
102
{ACAD_XDICTIONARY
360
2B34
102
}
102
{ACAD_REACTORS
330
2A12
102
}
330
2A12
100
AcDbVisualStyle
  2
Gouraud
 70
     2
 71
     2
 72
     2
 73
     1
 90
        2
 40
-0.6
 41
30.0
 62
     5
 63
     7
 74
     0
 91
        4
 64
     7
 65
   257
 75
     1
175
     1
 42
1.0
 92
        0
 66
     7
 43
1.0
 76
     1
 77
     6
 78
     2
 67
     7
 79
     5
170
     0
171
     0
290
     0
174
     0
 93
       13
 44
0.0
173
     0
291
     1
 45
0.0
1001
ACAD
1000
AcDbSavedByObjectVersion
1070
     0
  0
VISUALSTYLE
  5
2A16
102
{ACAD_XDICTIONARY
360
2B36
102
}
102
{ACAD_REACTORS
330
2A12
102
}
330
2A12
100
AcDbVisualStyle
  2
GouraudWithEdges
 70
     3
 71
     2
 72
     2
 73
     1
 90
        2
 40
-0.6
 41
30.0
 62
     5
 63
     7
 74
     1
 91
        4
 64
     7
 65
   257
 75
     1
175
     1
 42
1.0
 92
        0
 66
   257
 43
1.0
 76
     1
 77
     6
 78
     2
 67
     7
 79
     5
170
     0
171
     0
290
     0
174
     0
 93
       13
 44
0.0
173
     0
291
     1
 45
0.0
1001
ACAD
1000
AcDbSavedByObjectVersion
1070
     0
  0
VISUALSTYLE
  5
2A23
102
{ACAD_XDICTIONARY
360
2B50
102
}
102
{ACAD_REACTORS
330
2A12
102
}
330
2A12
100
AcDbVisualStyle
  2
JitterOff
 70
    20
 71
     2
 72
     2
 73
     0
 90
        0
 40
-0.6
 41
-30.0
 62
     5
 63
     7
 74
     1
 91
        4
 64
     7
 65
   257
 75
     1
175
     1
 42
1.0
 92
       10
 66
     7
 43
1.0
 76
     1
 77
     6
 78
     2
 67
     7
 79
     5
170
     0
171
     0
290
     0
174
     0
 93
        1
 44
0.0
173
     0
291
     1
 45
0.0
1001
ACAD
1000
AcDbSavedByObjectVersion
1070
     0
  0
VISUALSTYLE
  5
2A20
102
{ACAD_XDICTIONARY
360
2B4A
102
}
102
{ACAD_REACTORS
330
2A12
102
}
330
2A12
100
AcDbVisualStyle
  2
Linepattern
 70
    14
 71
     2
 72
     2
 73
     0
 90
        0
 40
-0.6
 41
-30.0
 62
     5
 63
     7
 74
     1
 91
        4
 64
     7
 65
   257
 75
     7
175
     7
 42
1.0
 92
        8
 66
     7
 43
1.0
 76
     1
 77
     6
 78
     2
 67
     7
 79
     5
170
     0
171
     0
290
     0
174
     0
 93
        1
 44
0.0
173
     0
291
     1
 45
0.0
1001
ACAD
1000
AcDbSavedByObjectVersion
1070
     0
  0
VISUALSTYLE
  5
2A24
102
{ACAD_XDICTIONARY
360
2B52
102
}
102
{ACAD_REACTORS
330
2A12
102
}
330
2A12
100
AcDbVisualStyle
  2
OverhangOff
 70
    21
 71
     2
 72
     2
 73
     0
 90
        0
 40
-0.6
 41
-30.0
 62
     5
 63
     7
 74
     1
 91
        4
 64
     7
 65
   257
 75
     1
175
     1
 42
1.0
 92
        9
 66
     7
 43
1.0
 76
     1
 77
     6
 78
     2
 67
     7
 79
     5
170
     0
171
     0
290
     0
174
     0
 93
        1
 44
0.0
173
     0
291
     1
 45
0.0
1001
ACAD
1000
AcDbSavedByObjectVersion
1070
     0
  0
VISUALSTYLE
  5
2A1C
102
{ACAD_XDICTIONARY
360
2B42
102
}
102
{ACAD_REACTORS
330
2A12
102
}
330
2A12
100
AcDbVisualStyle
  2
Realistic
 70
     8
 71
     2
 72
     2
 73
     0
 90
        0
 40
-0.6
 41
-30.0
 62
     5
 63
     7
 74
     1
 91
        0
 64
     7
 65
   257
 75
     1
175
     1
 42
1.0
 92
        8
 66
     8
 43
1.0
 76
     1
 77
     6
 78
     2
 67
     7
 79
     5
170
     0
171
     0
290
     0
174
     0
 93
       13
 44
0.0
173
     0
291
     0
 45
0.0
1001
ACAD
1000
AcDbSavedByObjectVersion
1070
     0
  0
VISUALSTYLE
  5
2A1F
102
{ACAD_XDICTIONARY
360
2B48
102
}
102
{ACAD_REACTORS
330
2A12
102
}
330
2A12
100
AcDbVisualStyle
  2
Thicken
 70
    13
 71
     2
 72
     2
 73
     0
 90
        0
 40
-0.6
 41
-30.0
 62
     5
 63
     7
 74
     1
 91
        4
 64
     7
 65
   257
 75
     1
175
     1
 42
1.0
 92
       12
 66
     7
 43
1.0
 76
     1
 77
     6
 78
     2
 67
     7
 79
     5
170
     0
171
     0
290
     0
174
     0
 93
        1
 44
0.0
173
     0
291
     1
 45
0.0
1001
ACAD
1000
AcDbSavedByObjectVersion
1070
     0
  0
DICTIONARYVAR
  5
2AC7
102
{ACAD_REACTORS
330
3D
102
}
330
3D
100
DictionaryVariables
280
     0
  1
1:1
  0
DICTIONARYVAR
  5
2AC6
102
{ACAD_REACTORS
330
3D
102
}
330
3D
100
DictionaryVariables
280
     0
  1
STANDARD
  0
DICTIONARYVAR
  5
2AC5
102
{ACAD_REACTORS
330
3D
102
}
330
3D
100
DictionaryVariables
280
     0
  1
STANDARD
  0
DICTIONARYVAR
  5
3F
102
{ACAD_REACTORS
330
3D
102
}
330
3D
100
DictionaryVariables
280
     0
  1
2
  0
DICTIONARYVAR
  5
3E
102
{ACAD_REACTORS
330
3D
102
}
330
3D
100
DictionaryVariables
280
     0
  1
1
  0
DICTIONARYVAR
  5
2AC9
102
{ACAD_REACTORS
330
3D
102
}
330
3D
100
DictionaryVariables
280
     0
  1
0
  0
DICTIONARYVAR
  5
2AC8
102
{ACAD_REACTORS
330
3D
102
}
330
3D
100
DictionaryVariables
280
     0
  1
127
  0
DICTIONARYVAR
  5
2B21
102
{ACAD_REACTORS
330
3D
102
}
330
3D
100
DictionaryVariables
280
     0
  1
2
  0
XRECORD
  5
2957
102
{ACAD_REACTORS
330
2956
102
}
330
2956
100
AcDbXrecord
280
     1
330
0
330
17CC
  0
DICTIONARY
  5
2B25
330
1E
100
AcDbDictionary
280
     1
281
     1
  3
ACAD_XREC_ROUNDTRIP
360
2B26
  0
DICTIONARY
  5
2B29
330
26
100
AcDbDictionary
280
     1
281
     1
  3
ACAD_XREC_ROUNDTRIP
360
2B2A
  0
DICTIONARY
  5
2B27
330
22
100
AcDbDictionary
280
     1
281
     1
  3
ACAD_XREC_ROUNDTRIP
360
2B28
  0
DICTIONARY
  5
2A03
330
2A02
100
AcDbDictionary
280
     1
281
     1
  3
ACAD_XREC_ROUNDTRIP
360
2B2E
  3
BUMPTILE
360
2A05
  3
DIFFUSETILE
360
2A04
  3
OPACITYTILE
360
2A08
  3
REFLECTIONTILE
360
2A07
  3
REFRACTIONTILE
360
2A09
  3
SPECULARTILE
360
2A06
  0
DICTIONARY
  5
29FB
330
29FA
100
AcDbDictionary
280
     1
281
     1
  3
ACAD_XREC_ROUNDTRIP
360
2B2D
  3
BUMPTILE
360
29FD
  3
DIFFUSETILE
360
29FC
  3
OPACITYTILE
360
2A00
  3
REFLECTIONTILE
360
29FF
  3
REFRACTIONTILE
360
2A01
  3
SPECULARTILE
360
29FE
  0
DICTIONARY
  5
2A0B
330
2A0A
100
AcDbDictionary
280
     1
281
     1
  3
ACAD_XREC_ROUNDTRIP
360
2B2F
  3
BUMPTILE
360
2A0D
  3
DIFFUSETILE
360
2A0C
  3
OPACITYTILE
360
2A10
  3
REFLECTIONTILE
360
2A0F
  3
REFRACTIONTILE
360
2A11
  3
SPECULARTILE
360
2A0E
  0
DICTIONARY
  5
2A86
330
2A28
100
AcDbDictionary
280
     1
281
     1
  3
ACAD_ROUNDTRIP_2008_TABLESTYLE_CELLSTYLEMAP
360
2B22
  3
ACAD_XREC_ROUNDTRIP
360
2B56
  0
DICTIONARY
  5
2B3A
330
2A18
100
AcDbDictionary
280
     1
281
     1
  3
ACAD_XREC_ROUNDTRIP
360
2B3B
  0
DICTIONARY
  5
2B3E
330
2A1A
100
AcDbDictionary
280
     1
281
     1
  3
ACAD_XREC_ROUNDTRIP
360
2B3F
  0
DICTIONARY
  5
2B3C
330
2A19
100
AcDbDictionary
280
     1
281
     1
  3
ACAD_XREC_ROUNDTRIP
360
2B3D
  0
DICTIONARY
  5
2B38
330
2A17
100
AcDbDictionary
280
     1
281
     1
  3
ACAD_XREC_ROUNDTRIP
360
2B39
  0
DICTIONARY
  5
2B46
330
2A1E
100
AcDbDictionary
280
     1
281
     1
  3
ACAD_XREC_ROUNDTRIP
360
2B47
  0
DICTIONARY
  5
2B4E
330
2A22
100
AcDbDictionary
280
     1
281
     1
  3
ACAD_XREC_ROUNDTRIP
360
2B4F
  0
DICTIONARY
  5
2B40
330
2A1B
100
AcDbDictionary
280
     1
281
     1
  3
ACAD_XREC_ROUNDTRIP
360
2B41
  0
DICTIONARY
  5
2B44
330
2A1D
100
AcDbDictionary
280
     1
281
     1
  3
ACAD_XREC_ROUNDTRIP
360
2B45
  0
DICTIONARY
  5
2B54
330
2A25
100
AcDbDictionary
280
     1
281
     1
  3
ACAD_XREC_ROUNDTRIP
360
2B55
  0
DICTIONARY
  5
2B4C
330
2A21
100
AcDbDictionary
280
     1
281
     1
  3
ACAD_XREC_ROUNDTRIP
360
2B4D
  0
DICTIONARY
  5
2B30
330
2A13
100
AcDbDictionary
280
     1
281
     1
  3
ACAD_XREC_ROUNDTRIP
360
2B31
  0
DICTIONARY
  5
2B32
330
2A14
100
AcDbDictionary
280
     1
281
     1
  3
ACAD_XREC_ROUNDTRIP
360
2B33
  0
DICTIONARY
  5
2B34
330
2A15
100
AcDbDictionary
280
     1
281
     1
  3
ACAD_XREC_ROUNDTRIP
360
2B35
  0
DICTIONARY
  5
2B36
330
2A16
100
AcDbDictionary
280
     1
281
     1
  3
ACAD_XREC_ROUNDTRIP
360
2B37
  0
DICTIONARY
  5
2B50
330
2A23
100
AcDbDictionary
280
     1
281
     1
  3
ACAD_XREC_ROUNDTRIP
360
2B51
  0
DICTIONARY
  5
2B4A
330
2A20
100
AcDbDictionary
280
     1
281
     1
  3
ACAD_XREC_ROUNDTRIP
360
2B4B
  0
DICTIONARY
  5
2B52
330
2A24
100
AcDbDictionary
280
     1
281
     1
  3
ACAD_XREC_ROUNDTRIP
360
2B53
  0
DICTIONARY
  5
2B42
330
2A1C
100
AcDbDictionary
280
     1
281
     1
  3
ACAD_XREC_ROUNDTRIP
360
2B43
  0
DICTIONARY
  5
2B48
330
2A1F
100
AcDbDictionary
280
     1
281
     1
  3
ACAD_XREC_ROUNDTRIP
360
2B49
  0
XRECORD
  5
2B26
102
{ACAD_REACTORS
330
2B25
102
}
330
2B25
100
AcDbXrecord
280
     1
102
SHADEPLOT
 70
     0
102
SHADEPLOTRESLEVEL
 70
     2
102
SHADEPLOTCUSTOMDPI
 70
   300
  0
XRECORD
  5
2B2A
102
{ACAD_REACTORS
330
2B29
102
}
330
2B29
100
AcDbXrecord
280
     1
102
SHADEPLOT
 70
     0
102
SHADEPLOTRESLEVEL
 70
     2
102
SHADEPLOTCUSTOMDPI
 70
   300
  0
XRECORD
  5
2B28
102
{ACAD_REACTORS
330
2B27
102
}
330
2B27
100
AcDbXrecord
280
     1
102
SHADEPLOT
 70
     0
102
SHADEPLOTRESLEVEL
 70
     2
102
SHADEPLOTCUSTOMDPI
 70
   300
  0
XRECORD
  5
2B2E
102
{ACAD_REACTORS
330
2A03
102
}
330
2A03
100
AcDbXrecord
280
     1
102
MATERIAL
148
0.0
149
0.0
149
0.0
 93
        0
 94
      127
282
     0
 72
     0
 77
     0
171
     0
175
     0
179
     0
273
     0
  0
XRECORD
  5
2A05
102
{ACAD_REACTORS
330
2A03
102
}
330
2A03
100
AcDbXrecord
280
     1
270
     1
271
     1
  0
XRECORD
  5
2A04
102
{ACAD_REACTORS
330
2A03
102
}
330
2A03
100
AcDbXrecord
280
     1
270
     1
271
     1
  0
XRECORD
  5
2A08
102
{ACAD_REACTORS
330
2A03
102
}
330
2A03
100
AcDbXrecord
280
     1
270
     1
271
     1
  0
XRECORD
  5
2A07
102
{ACAD_REACTORS
330
2A03
102
}
330
2A03
100
AcDbXrecord
280
     1
270
     1
271
     1
  0
XRECORD
  5
2A09
102
{ACAD_REACTORS
330
2A03
102
}
330
2A03
100
AcDbXrecord
280
     1
270
     1
271
     1
  0
XRECORD
  5
2A06
102
{ACAD_REACTORS
330
2A03
102
}
330
2A03
100
AcDbXrecord
280
     1
270
     1
271
     1
  0
XRECORD
  5
2B2D
102
{ACAD_REACTORS
330
29FB
102
}
330
29FB
100
AcDbXrecord
280
     1
102
MATERIAL
148
0.0
149
0.0
149
0.0
 93
        0
 94
      127
282
     0
 72
     0
 77
     0
171
     0
175
     0
179
     0
273
     0
  0
XRECORD
  5
29FD
102
{ACAD_REACTORS
330
29FB
102
}
330
29FB
100
AcDbXrecord
280
     1
270
     1
271
     1
  0
XRECORD
  5
29FC
102
{ACAD_REACTORS
330
29FB
102
}
330
29FB
100
AcDbXrecord
280
     1
270
     1
271
     1
  0
XRECORD
  5
2A00
102
{ACAD_REACTORS
330
29FB
102
}
330
29FB
100
AcDbXrecord
280
     1
270
     1
271
     1
  0
XRECORD
  5
29FF
102
{ACAD_REACTORS
330
29FB
102
}
330
29FB
100
AcDbXrecord
280
     1
270
     1
271
     1
  0
XRECORD
  5
2A01
102
{ACAD_REACTORS
330
29FB
102
}
330
29FB
100
AcDbXrecord
280
     1
270
     1
271
     1
  0
XRECORD
  5
29FE
102
{ACAD_REACTORS
330
29FB
102
}
330
29FB
100
AcDbXrecord
280
     1
270
     1
271
     1
  0
XRECORD
  5
2B2F
102
{ACAD_REACTORS
330
2A0B
102
}
330
2A0B
100
AcDbXrecord
280
     1
102
MATERIAL
148
0.0
149
0.0
149
0.0
 93
        0
 94
      127
282
     0
 72
     0
 77
     0
171
     0
175
     0
179
     0
273
     0
  0
XRECORD
  5
2A0D
102
{ACAD_REACTORS
330
2A0B
102
}
330
2A0B
100
AcDbXrecord
280
     1
270
     1
271
     1
  0
XRECORD
  5
2A0C
102
{ACAD_REACTORS
330
2A0B
102
}
330
2A0B
100
AcDbXrecord
280
     1
270
     1
271
     1
  0
XRECORD
  5
2A10
102
{ACAD_REACTORS
330
2A0B
102
}
330
2A0B
100
AcDbXrecord
280
     1
270
     1
271
     1
  0
XRECORD
  5
2A0F
102
{ACAD_REACTORS
330
2A0B
102
}
330
2A0B
100
AcDbXrecord
280
     1
270
     1
271
     1
  0
XRECORD
  5
2A11
102
{ACAD_REACTORS
330
2A0B
102
}
330
2A0B
100
AcDbXrecord
280
     1
270
     1
271
     1
  0
XRECORD
  5
2A0E
102
{ACAD_REACTORS
330
2A0B
102
}
330
2A0B
100
AcDbXrecord
280
     1
270
     1
271
     1
  0
CELLSTYLEMAP
  5
2B22
102
{ACAD_REACTORS
330
2A86
102
}
330
2A86
100
AcDbCellStyleMap
 90
        3
300
CELLSTYLE
  1
TABLEFORMAT_BEGIN
 90
        5
170
     1
 91
        0
 92
    32768
 62
   257
 93
        1
300
CONTENTFORMAT
  1
CONTENTFORMAT_BEGIN
 90
        0
 91
        0
 92
      512
 93
        0
300

 40
0.0
140
1.0
 94
        5
 62
     0
340
11
144
6.0
309
CONTENTFORMAT_END
171
     1
301
MARGIN
  1
CELLMARGIN_BEGIN
 40
1.5
 40
1.5
 40
1.5
 40
1.5
 40
4.5
 40
4.5
309
CELLMARGIN_END
 94
        6
 95
        1
302
GRIDFORMAT
  1
GRIDFORMAT_BEGIN
 90
        0
 91
        1
 62
     0
 92
       -2
340
0
 93
        0
 40
1.125
309
GRIDFORMAT_END
 95
        2
302
GRIDFORMAT
  1
GRIDFORMAT_BEGIN
 90
        0
 91
        1
 62
     0
 92
       -2
340
0
 93
        0
 40
1.125
309
GRIDFORMAT_END
 95
        4
302
GRIDFORMAT
  1
GRIDFORMAT_BEGIN
 90
        0
 91
        1
 62
     0
 92
       -2
340
0
 93
        0
 40
1.125
309
GRIDFORMAT_END
 95
        8
302
GRIDFORMAT
  1
GRIDFORMAT_BEGIN
 90
        0
 91
        1
 62
     0
 92
       -2
340
0
 93
        0
 40
1.125
309
GRIDFORMAT_END
 95
       16
302
GRIDFORMAT
  1
GRIDFORMAT_BEGIN
 90
        0
 91
        1
 62
     0
 92
       -2
340
0
 93
        0
 40
1.125
309
GRIDFORMAT_END
 95
       32
302
GRIDFORMAT
  1
GRIDFORMAT_BEGIN
 90
        0
 91
        1
 62
     0
 92
       -2
340
0
 93
        0
 40
1.125
309
GRIDFORMAT_END
309
TABLEFORMAT_END
  1
CELLSTYLE_BEGIN
 90
        1
 91
        1
300
_TITLE
309
CELLSTYLE_END
300
CELLSTYLE
  1
TABLEFORMAT_BEGIN
 90
        5
170
     1
 91
        0
 92
        0
 62
   257
 93
        1
300
CONTENTFORMAT
  1
CONTENTFORMAT_BEGIN
 90
        0
 91
        0
 92
      512
 93
        0
300

 40
0.0
140
1.0
 94
        5
 62
     0
340
11
144
4.5
309
CONTENTFORMAT_END
171
     1
301
MARGIN
  1
CELLMARGIN_BEGIN
 40
1.5
 40
1.5
 40
1.5
 40
1.5
 40
4.5
 40
4.5
309
CELLMARGIN_END
 94
        6
 95
        1
302
GRIDFORMAT
  1
GRIDFORMAT_BEGIN
 90
        0
 91
        1
 62
     0
 92
       -2
340
0
 93
        0
 40
1.125
309
GRIDFORMAT_END
 95
        2
302
GRIDFORMAT
  1
GRIDFORMAT_BEGIN
 90
        0
 91
        1
 62
     0
 92
       -2
340
0
 93
        0
 40
1.125
309
GRIDFORMAT_END
 95
        4
302
GRIDFORMAT
  1
GRIDFORMAT_BEGIN
 90
        0
 91
        1
 62
     0
 92
       -2
340
0
 93
        0
 40
1.125
309
GRIDFORMAT_END
 95
        8
302
GRIDFORMAT
  1
GRIDFORMAT_BEGIN
 90
        0
 91
        1
 62
     0
 92
       -2
340
0
 93
        0
 40
1.125
309
GRIDFORMAT_END
 95
       16
302
GRIDFORMAT
  1
GRIDFORMAT_BEGIN
 90
        0
 91
        1
 62
     0
 92
       -2
340
0
 93
        0
 40
1.125
309
GRIDFORMAT_END
 95
       32
302
GRIDFORMAT
  1
GRIDFORMAT_BEGIN
 90
        0
 91
        1
 62
     0
 92
       -2
340
0
 93
        0
 40
1.125
309
GRIDFORMAT_END
309
TABLEFORMAT_END
  1
CELLSTYLE_BEGIN
 90
        2
 91
        1
300
_HEADER
309
CELLSTYLE_END
300
CELLSTYLE
  1
TABLEFORMAT_BEGIN
 90
        5
170
     1
 91
        0
 92
        0
 62
   257
 93
        1
300
CONTENTFORMAT
  1
CONTENTFORMAT_BEGIN
 90
        0
 91
        0
 92
      512
 93
        0
300

 40
0.0
140
1.0
 94
        2
 62
     0
340
11
144
4.5
309
CONTENTFORMAT_END
171
     1
301
MARGIN
  1
CELLMARGIN_BEGIN
 40
1.5
 40
1.5
 40
1.5
 40
1.5
 40
4.5
 40
4.5
309
CELLMARGIN_END
 94
        6
 95
        1
302
GRIDFORMAT
  1
GRIDFORMAT_BEGIN
 90
        0
 91
        1
 62
     0
 92
       -2
340
0
 93
        0
 40
1.125
309
GRIDFORMAT_END
 95
        2
302
GRIDFORMAT
  1
GRIDFORMAT_BEGIN
 90
        0
 91
        1
 62
     0
 92
       -2
340
0
 93
        0
 40
1.125
309
GRIDFORMAT_END
 95
        4
302
GRIDFORMAT
  1
GRIDFORMAT_BEGIN
 90
        0
 91
        1
 62
     0
 92
       -2
340
0
 93
        0
 40
1.125
309
GRIDFORMAT_END
 95
        8
302
GRIDFORMAT
  1
GRIDFORMAT_BEGIN
 90
        0
 91
        1
 62
     0
 92
       -2
340
0
 93
        0
 40
1.125
309
GRIDFORMAT_END
 95
       16
302
GRIDFORMAT
  1
GRIDFORMAT_BEGIN
 90
        0
 91
        1
 62
     0
 92
       -2
340
0
 93
        0
 40
1.125
309
GRIDFORMAT_END
 95
       32
302
GRIDFORMAT
  1
GRIDFORMAT_BEGIN
 90
        0
 91
        1
 62
     0
 92
       -2
340
0
 93
        0
 40
1.125
309
GRIDFORMAT_END
309
TABLEFORMAT_END
  1
CELLSTYLE_BEGIN
 90
        3
 91
        2
300
_DATA
309
CELLSTYLE_END
  0
XRECORD
  5
2B56
102
{ACAD_REACTORS
330
2A86
102
}
330
2A86
100
AcDbXrecord
280
     1
102
ACAD_ROUNDTRIP_PRE2007_TABLESTYLE
 90
      512
 91
        0
  1

 92
      512
 93
        0
  2

 94
      512
 95
        0
  3

  0
XRECORD
  5
2B3B
102
{ACAD_REACTORS
330
2B3A
102
}
330
2B3A
100
AcDbXrecord
280
     1
102
RTVSPropertyOp0
 70
     1
102
RTVSPropertyOp1
 70
     1
102
RTVSPropertyOp2
 70
     1
102
RTVSPropertyOp3
 70
     1
102
RTVSPropertyOp4
 70
     1
102
RTVSPropertyOp5
 70
     1
102
RTVSPropertyOp6
 70
     1
102
RTVSPropertyOp7
 70
     1
102
RTVSPropertyOp8
 70
     1
102
RTVSPropertyOp9
 70
     1
102
RTVSPropertyOp10
 70
     1
102
RTVSPropertyOp11
 70
     1
102
RTVSPropertyOp12
 70
     1
102
RTVSPropertyOp13
 70
     1
102
RTVSPropertyOp14
 70
     1
102
RTVSPropertyOp15
 70
     1
102
RTVSPropertyOp16
 70
     1
102
RTVSPropertyOp17
 70
     1
102
RTVSPropertyOp18
 70
     1
102
RTVSPropertyOp19
 70
     1
102
RTVSPropertyOp20
 70
     1
102
RTVSPropertyOp21
 70
     1
102
RTVSPropertyOp22
 70
     1
102
RTVSPropertyOp23
 70
     1
102
RTVSPropertyOp24
 70
     1
102
RTVSPropertyOp25
 70
     1
102
RTVSPropertyOp26
 70
     1
102
RTVSPropertyOp27
 70
     1
  0
XRECORD
  5
2B3F
102
{ACAD_REACTORS
330
2B3E
102
}
330
2B3E
100
AcDbXrecord
280
     1
102
RTVSPropertyOp0
 70
     1
102
RTVSPropertyOp1
 70
     1
102
RTVSPropertyOp2
 70
     1
102
RTVSPropertyOp3
 70
     1
102
RTVSPropertyOp4
 70
     1
102
RTVSPropertyOp5
 70
     1
102
RTVSPropertyOp6
 70
     1
102
RTVSPropertyOp7
 70
     1
102
RTVSPropertyOp8
 70
     1
102
RTVSPropertyOp9
 70
     1
102
RTVSPropertyOp10
 70
     1
102
RTVSPropertyOp11
 70
     1
102
RTVSPropertyOp12
 70
     1
102
RTVSPropertyOp13
 70
     1
102
RTVSPropertyOp14
 70
     1
102
RTVSPropertyOp15
 70
     1
102
RTVSPropertyOp16
 70
     1
102
RTVSPropertyOp17
 70
     1
102
RTVSPropertyOp18
 70
     1
102
RTVSPropertyOp19
 70
     1
102
RTVSPropertyOp20
 70
     1
102
RTVSPropertyOp21
 70
     1
102
RTVSPropertyOp22
 70
     1
102
RTVSPropertyOp23
 70
     1
102
RTVSPropertyOp24
 70
     1
102
RTVSPropertyOp25
 70
     1
102
RTVSPropertyOp26
 70
     1
102
RTVSPropertyOp27
 70
     1
  0
XRECORD
  5
2B3D
102
{ACAD_REACTORS
330
2B3C
102
}
330
2B3C
100
AcDbXrecord
280
     1
102
RTVSPropertyOp0
 70
     1
102
RTVSPropertyOp1
 70
     1
102
RTVSPropertyOp2
 70
     1
102
RTVSPropertyOp3
 70
     1
102
RTVSPropertyOp4
 70
     1
102
RTVSPropertyOp5
 70
     1
102
RTVSPropertyOp6
 70
     1
102
RTVSPropertyOp7
 70
     1
102
RTVSPropertyOp8
 70
     1
102
RTVSPropertyOp9
 70
     1
102
RTVSPropertyOp10
 70
     1
102
RTVSPropertyOp11
 70
     1
102
RTVSPropertyOp12
 70
     1
102
RTVSPropertyOp13
 70
     1
102
RTVSPropertyOp14
 70
     1
102
RTVSPropertyOp15
 70
     1
102
RTVSPropertyOp16
 70
     1
102
RTVSPropertyOp17
 70
     1
102
RTVSPropertyOp18
 70
     1
102
RTVSPropertyOp19
 70
     1
102
RTVSPropertyOp20
 70
     1
102
RTVSPropertyOp21
 70
     1
102
RTVSPropertyOp22
 70
     1
102
RTVSPropertyOp23
 70
     1
102
RTVSPropertyOp24
 70
     1
102
RTVSPropertyOp25
 70
     1
102
RTVSPropertyOp26
 70
     1
102
RTVSPropertyOp27
 70
     1
  0
XRECORD
  5
2B39
102
{ACAD_REACTORS
330
2B38
102
}
330
2B38
100
AcDbXrecord
280
     1
102
RTVSPropertyOp0
 70
     1
102
RTVSPropertyOp1
 70
     1
102
RTVSPropertyOp2
 70
     1
102
RTVSPropertyOp3
 70
     1
102
RTVSPropertyOp4
 70
     1
102
RTVSPropertyOp5
 70
     1
102
RTVSPropertyOp6
 70
     1
102
RTVSPropertyOp7
 70
     1
102
RTVSPropertyOp8
 70
     1
102
RTVSPropertyOp9
 70
     1
102
RTVSPropertyOp10
 70
     1
102
RTVSPropertyOp11
 70
     1
102
RTVSPropertyOp12
 70
     1
102
RTVSPropertyOp13
 70
     1
102
RTVSPropertyOp14
 70
     1
102
RTVSPropertyOp15
 70
     1
102
RTVSPropertyOp16
 70
     1
102
RTVSPropertyOp17
 70
     1
102
RTVSPropertyOp18
 70
     1
102
RTVSPropertyOp19
 70
     1
102
RTVSPropertyOp20
 70
     1
102
RTVSPropertyOp21
 70
     1
102
RTVSPropertyOp22
 70
     1
102
RTVSPropertyOp23
 70
     1
102
RTVSPropertyOp24
 70
     1
102
RTVSPropertyOp25
 70
     1
102
RTVSPropertyOp26
 70
     1
102
RTVSPropertyOp27
 70
     1
  0
XRECORD
  5
2B47
102
{ACAD_REACTORS
330
2B46
102
}
330
2B46
100
AcDbXrecord
280
     1
102
RTVSPropertyOp0
 70
     1
102
RTVSPropertyOp1
 70
     1
102
RTVSPropertyOp2
 70
     1
102
RTVSPropertyOp3
 70
     1
102
RTVSPropertyOp4
 70
     1
102
RTVSPropertyOp5
 70
     1
102
RTVSPropertyOp6
 70
     1
102
RTVSPropertyOp7
 70
     1
102
RTVSPropertyOp8
 70
     1
102
RTVSPropertyOp9
 70
     1
102
RTVSPropertyOp10
 70
     1
102
RTVSPropertyOp11
 70
     1
102
RTVSPropertyOp12
 70
     1
102
RTVSPropertyOp13
 70
     1
102
RTVSPropertyOp14
 70
     1
102
RTVSPropertyOp15
 70
     1
102
RTVSPropertyOp16
 70
     1
102
RTVSPropertyOp17
 70
     1
102
RTVSPropertyOp18
 70
     1
102
RTVSPropertyOp19
 70
     1
102
RTVSPropertyOp20
 70
     1
102
RTVSPropertyOp21
 70
     1
102
RTVSPropertyOp22
 70
     1
102
RTVSPropertyOp23
 70
     1
102
RTVSPropertyOp24
 70
     1
102
RTVSPropertyOp25
 70
     1
102
RTVSPropertyOp26
 70
     1
102
RTVSPropertyOp27
 70
     1
  0
XRECORD
  5
2B4F
102
{ACAD_REACTORS
330
2B4E
102
}
330
2B4E
100
AcDbXrecord
280
     1
102
RTVSPropertyOp0
 70
     1
102
RTVSPropertyOp1
 70
     1
102
RTVSPropertyOp2
 70
     1
102
RTVSPropertyOp3
 70
     1
102
RTVSPropertyOp4
 70
     1
102
RTVSPropertyOp5
 70
     1
102
RTVSPropertyOp6
 70
     1
102
RTVSPropertyOp7
 70
     1
102
RTVSPropertyOp8
 70
     1
102
RTVSPropertyOp9
 70
     1
102
RTVSPropertyOp10
 70
     1
102
RTVSPropertyOp11
 70
     1
102
RTVSPropertyOp12
 70
     1
102
RTVSPropertyOp13
 70
     1
102
RTVSPropertyOp14
 70
     1
102
RTVSPropertyOp15
 70
     1
102
RTVSPropertyOp16
 70
     1
102
RTVSPropertyOp17
 70
     1
102
RTVSPropertyOp18
 70
     1
102
RTVSPropertyOp19
 70
     1
102
RTVSPropertyOp20
 70
     1
102
RTVSPropertyOp21
 70
     1
102
RTVSPropertyOp22
 70
     1
102
RTVSPropertyOp23
 70
     1
102
RTVSPropertyOp24
 70
     1
102
RTVSPropertyOp25
 70
     1
102
RTVSPropertyOp26
 70
     1
102
RTVSPropertyOp27
 70
     1
  0
XRECORD
  5
2B41
102
{ACAD_REACTORS
330
2B40
102
}
330
2B40
100
AcDbXrecord
280
     1
102
RTVSPropertyOp0
 70
     1
102
RTVSPropertyOp1
 70
     1
102
RTVSPropertyOp2
 70
     1
102
RTVSPropertyOp3
 70
     1
102
RTVSPropertyOp4
 70
     1
102
RTVSPropertyOp5
 70
     1
102
RTVSPropertyOp6
 70
     1
102
RTVSPropertyOp7
 70
     1
102
RTVSPropertyOp8
 70
     1
102
RTVSPropertyOp9
 70
     1
102
RTVSPropertyOp10
 70
     1
102
RTVSPropertyOp11
 70
     1
102
RTVSPropertyOp12
 70
     1
102
RTVSPropertyOp13
 70
     1
102
RTVSPropertyOp14
 70
     1
102
RTVSPropertyOp15
 70
     1
102
RTVSPropertyOp16
 70
     1
102
RTVSPropertyOp17
 70
     1
102
RTVSPropertyOp18
 70
     1
102
RTVSPropertyOp19
 70
     1
102
RTVSPropertyOp20
 70
     1
102
RTVSPropertyOp21
 70
     1
102
RTVSPropertyOp22
 70
     1
102
RTVSPropertyOp23
 70
     1
102
RTVSPropertyOp24
 70
     1
102
RTVSPropertyOp25
 70
     1
102
RTVSPropertyOp26
 70
     1
102
RTVSPropertyOp27
 70
     1
  0
XRECORD
  5
2B45
102
{ACAD_REACTORS
330
2B44
102
}
330
2B44
100
AcDbXrecord
280
     1
102
RTVSPropertyOp0
 70
     1
102
RTVSPropertyOp1
 70
     1
102
RTVSPropertyOp2
 70
     1
102
RTVSPropertyOp3
 70
     1
102
RTVSPropertyOp4
 70
     1
102
RTVSPropertyOp5
 70
     1
102
RTVSPropertyOp6
 70
     1
102
RTVSPropertyOp7
 70
     1
102
RTVSPropertyOp8
 70
     1
102
RTVSPropertyOp9
 70
     1
102
RTVSPropertyOp10
 70
     1
102
RTVSPropertyOp11
 70
     1
102
RTVSPropertyOp12
 70
     1
102
RTVSPropertyOp13
 70
     1
102
RTVSPropertyOp14
 70
     1
102
RTVSPropertyOp15
 70
     1
102
RTVSPropertyOp16
 70
     1
102
RTVSPropertyOp17
 70
     1
102
RTVSPropertyOp18
 70
     1
102
RTVSPropertyOp19
 70
     1
102
RTVSPropertyOp20
 70
     1
102
RTVSPropertyOp21
 70
     1
102
RTVSPropertyOp22
 70
     1
102
RTVSPropertyOp23
 70
     1
102
RTVSPropertyOp24
 70
     1
102
RTVSPropertyOp25
 70
     1
102
RTVSPropertyOp26
 70
     1
102
RTVSPropertyOp27
 70
     1
  0
XRECORD
  5
2B55
102
{ACAD_REACTORS
330
2B54
102
}
330
2B54
100
AcDbXrecord
280
     1
102
RTVSPropertyOp0
 70
     0
102
RTVSPropertyOp1
 70
     0
102
RTVSPropertyOp2
 70
     0
102
RTVSPropertyOp3
 70
     0
102
RTVSPropertyOp4
 70
     0
102
RTVSPropertyOp5
 70
     0
102
RTVSPropertyOp6
 70
     0
102
RTVSPropertyOp7
 70
     0
102
RTVSPropertyOp8
 70
     0
102
RTVSPropertyOp9
 70
     0
102
RTVSPropertyOp10
 70
     0
102
RTVSPropertyOp11
 70
     0
102
RTVSPropertyOp12
 70
     0
102
RTVSPropertyOp13
 70
     0
102
RTVSPropertyOp14
 70
     2
102
RTVSPropertyOp15
 70
     0
102
RTVSPropertyOp16
 70
     0
102
RTVSPropertyOp17
 70
     0
102
RTVSPropertyOp18
 70
     0
102
RTVSPropertyOp19
 70
     0
102
RTVSPropertyOp20
 70
     0
102
RTVSPropertyOp21
 70
     0
102
RTVSPropertyOp22
 70
     0
102
RTVSPropertyOp23
 70
     0
102
RTVSPropertyOp24
 70
     0
102
RTVSPropertyOp25
 70
     0
102
RTVSPropertyOp26
 70
     0
102
RTVSPropertyOp27
 70
     0
  0
XRECORD
  5
2B4D
102
{ACAD_REACTORS
330
2B4C
102
}
330
2B4C
100
AcDbXrecord
280
     1
102
RTVSPropertyOp0
 70
     1
102
RTVSPropertyOp1
 70
     1
102
RTVSPropertyOp2
 70
     1
102
RTVSPropertyOp3
 70
     1
102
RTVSPropertyOp4
 70
     1
102
RTVSPropertyOp5
 70
     1
102
RTVSPropertyOp6
 70
     1
102
RTVSPropertyOp7
 70
     1
102
RTVSPropertyOp8
 70
     1
102
RTVSPropertyOp9
 70
     1
102
RTVSPropertyOp10
 70
     1
102
RTVSPropertyOp11
 70
     1
102
RTVSPropertyOp12
 70
     1
102
RTVSPropertyOp13
 70
     1
102
RTVSPropertyOp14
 70
     1
102
RTVSPropertyOp15
 70
     1
102
RTVSPropertyOp16
 70
     1
102
RTVSPropertyOp17
 70
     1
102
RTVSPropertyOp18
 70
     1
102
RTVSPropertyOp19
 70
     1
102
RTVSPropertyOp20
 70
     1
102
RTVSPropertyOp21
 70
     1
102
RTVSPropertyOp22
 70
     1
102
RTVSPropertyOp23
 70
     1
102
RTVSPropertyOp24
 70
     1
102
RTVSPropertyOp25
 70
     1
102
RTVSPropertyOp26
 70
     1
102
RTVSPropertyOp27
 70
     1
  0
XRECORD
  5
2B31
102
{ACAD_REACTORS
330
2B30
102
}
330
2B30
100
AcDbXrecord
280
     1
102
RTVSPropertyOp0
 70
     1
102
RTVSPropertyOp1
 70
     1
102
RTVSPropertyOp2
 70
     1
102
RTVSPropertyOp3
 70
     1
102
RTVSPropertyOp4
 70
     1
102
RTVSPropertyOp5
 70
     1
102
RTVSPropertyOp6
 70
     1
102
RTVSPropertyOp7
 70
     1
102
RTVSPropertyOp8
 70
     1
102
RTVSPropertyOp9
 70
     1
102
RTVSPropertyOp10
 70
     1
102
RTVSPropertyOp11
 70
     1
102
RTVSPropertyOp12
 70
     1
102
RTVSPropertyOp13
 70
     1
102
RTVSPropertyOp14
 70
     1
102
RTVSPropertyOp15
 70
     1
102
RTVSPropertyOp16
 70
     1
102
RTVSPropertyOp17
 70
     1
102
RTVSPropertyOp18
 70
     1
102
RTVSPropertyOp19
 70
     1
102
RTVSPropertyOp20
 70
     1
102
RTVSPropertyOp21
 70
     1
102
RTVSPropertyOp22
 70
     1
102
RTVSPropertyOp23
 70
     1
102
RTVSPropertyOp24
 70
     1
102
RTVSPropertyOp25
 70
     1
102
RTVSPropertyOp26
 70
     1
102
RTVSPropertyOp27
 70
     1
  0
XRECORD
  5
2B33
102
{ACAD_REACTORS
330
2B32
102
}
330
2B32
100
AcDbXrecord
280
     1
102
RTVSPropertyOp0
 70
     1
102
RTVSPropertyOp1
 70
     1
102
RTVSPropertyOp2
 70
     1
102
RTVSPropertyOp3
 70
     1
102
RTVSPropertyOp4
 70
     1
102
RTVSPropertyOp5
 70
     1
102
RTVSPropertyOp6
 70
     1
102
RTVSPropertyOp7
 70
     1
102
RTVSPropertyOp8
 70
     1
102
RTVSPropertyOp9
 70
     1
102
RTVSPropertyOp10
 70
     1
102
RTVSPropertyOp11
 70
     1
102
RTVSPropertyOp12
 70
     1
102
RTVSPropertyOp13
 70
     1
102
RTVSPropertyOp14
 70
     1
102
RTVSPropertyOp15
 70
     1
102
RTVSPropertyOp16
 70
     1
102
RTVSPropertyOp17
 70
     1
102
RTVSPropertyOp18
 70
     1
102
RTVSPropertyOp19
 70
     1
102
RTVSPropertyOp20
 70
     1
102
RTVSPropertyOp21
 70
     1
102
RTVSPropertyOp22
 70
     1
102
RTVSPropertyOp23
 70
     1
102
RTVSPropertyOp24
 70
     1
102
RTVSPropertyOp25
 70
     1
102
RTVSPropertyOp26
 70
     1
102
RTVSPropertyOp27
 70
     1
  0
XRECORD
  5
2B35
102
{ACAD_REACTORS
330
2B34
102
}
330
2B34
100
AcDbXrecord
280
     1
102
RTVSPropertyOp0
 70
     1
102
RTVSPropertyOp1
 70
     1
102
RTVSPropertyOp2
 70
     1
102
RTVSPropertyOp3
 70
     1
102
RTVSPropertyOp4
 70
     1
102
RTVSPropertyOp5
 70
     1
102
RTVSPropertyOp6
 70
     1
102
RTVSPropertyOp7
 70
     1
102
RTVSPropertyOp8
 70
     1
102
RTVSPropertyOp9
 70
     1
102
RTVSPropertyOp10
 70
     1
102
RTVSPropertyOp11
 70
     1
102
RTVSPropertyOp12
 70
     1
102
RTVSPropertyOp13
 70
     1
102
RTVSPropertyOp14
 70
     1
102
RTVSPropertyOp15
 70
     1
102
RTVSPropertyOp16
 70
     1
102
RTVSPropertyOp17
 70
     1
102
RTVSPropertyOp18
 70
     1
102
RTVSPropertyOp19
 70
     1
102
RTVSPropertyOp20
 70
     1
102
RTVSPropertyOp21
 70
     1
102
RTVSPropertyOp22
 70
     1
102
RTVSPropertyOp23
 70
     1
102
RTVSPropertyOp24
 70
     1
102
RTVSPropertyOp25
 70
     1
102
RTVSPropertyOp26
 70
     1
102
RTVSPropertyOp27
 70
     1
  0
XRECORD
  5
2B37
102
{ACAD_REACTORS
330
2B36
102
}
330
2B36
100
AcDbXrecord
280
     1
102
RTVSPropertyOp0
 70
     1
102
RTVSPropertyOp1
 70
     1
102
RTVSPropertyOp2
 70
     1
102
RTVSPropertyOp3
 70
     1
102
RTVSPropertyOp4
 70
     1
102
RTVSPropertyOp5
 70
     1
102
RTVSPropertyOp6
 70
     1
102
RTVSPropertyOp7
 70
     1
102
RTVSPropertyOp8
 70
     1
102
RTVSPropertyOp9
 70
     1
102
RTVSPropertyOp10
 70
     1
102
RTVSPropertyOp11
 70
     1
102
RTVSPropertyOp12
 70
     1
102
RTVSPropertyOp13
 70
     1
102
RTVSPropertyOp14
 70
     1
102
RTVSPropertyOp15
 70
     1
102
RTVSPropertyOp16
 70
     1
102
RTVSPropertyOp17
 70
     1
102
RTVSPropertyOp18
 70
     1
102
RTVSPropertyOp19
 70
     1
102
RTVSPropertyOp20
 70
     1
102
RTVSPropertyOp21
 70
     1
102
RTVSPropertyOp22
 70
     1
102
RTVSPropertyOp23
 70
     1
102
RTVSPropertyOp24
 70
     1
102
RTVSPropertyOp25
 70
     1
102
RTVSPropertyOp26
 70
     1
102
RTVSPropertyOp27
 70
     1
  0
XRECORD
  5
2B51
102
{ACAD_REACTORS
330
2B50
102
}
330
2B50
100
AcDbXrecord
280
     1
102
RTVSPropertyOp0
 70
     0
102
RTVSPropertyOp1
 70
     0
102
RTVSPropertyOp2
 70
     0
102
RTVSPropertyOp3
 70
     0
102
RTVSPropertyOp4
 70
     0
102
RTVSPropertyOp5
 70
     0
102
RTVSPropertyOp6
 70
     0
102
RTVSPropertyOp7
 70
     0
102
RTVSPropertyOp8
 70
     0
102
RTVSPropertyOp9
 70
     0
102
RTVSPropertyOp10
 70
     0
102
RTVSPropertyOp11
 70
     0
102
RTVSPropertyOp12
 70
     0
102
RTVSPropertyOp13
 70
     0
102
RTVSPropertyOp14
 70
     2
102
RTVSPropertyOp15
 70
     0
102
RTVSPropertyOp16
 70
     0
102
RTVSPropertyOp17
 70
     0
102
RTVSPropertyOp18
 70
     0
102
RTVSPropertyOp19
 70
     0
102
RTVSPropertyOp20
 70
     0
102
RTVSPropertyOp21
 70
     0
102
RTVSPropertyOp22
 70
     0
102
RTVSPropertyOp23
 70
     0
102
RTVSPropertyOp24
 70
     0
102
RTVSPropertyOp25
 70
     0
102
RTVSPropertyOp26
 70
     0
102
RTVSPropertyOp27
 70
     0
  0
XRECORD
  5
2B4B
102
{ACAD_REACTORS
330
2B4A
102
}
330
2B4A
100
AcDbXrecord
280
     1
102
RTVSPropertyOp0
 70
     1
102
RTVSPropertyOp1
 70
     1
102
RTVSPropertyOp2
 70
     1
102
RTVSPropertyOp3
 70
     1
102
RTVSPropertyOp4
 70
     1
102
RTVSPropertyOp5
 70
     1
102
RTVSPropertyOp6
 70
     1
102
RTVSPropertyOp7
 70
     1
102
RTVSPropertyOp8
 70
     1
102
RTVSPropertyOp9
 70
     1
102
RTVSPropertyOp10
 70
     1
102
RTVSPropertyOp11
 70
     1
102
RTVSPropertyOp12
 70
     1
102
RTVSPropertyOp13
 70
     1
102
RTVSPropertyOp14
 70
     1
102
RTVSPropertyOp15
 70
     1
102
RTVSPropertyOp16
 70
     1
102
RTVSPropertyOp17
 70
     1
102
RTVSPropertyOp18
 70
     1
102
RTVSPropertyOp19
 70
     1
102
RTVSPropertyOp20
 70
     1
102
RTVSPropertyOp21
 70
     1
102
RTVSPropertyOp22
 70
     1
102
RTVSPropertyOp23
 70
     1
102
RTVSPropertyOp24
 70
     1
102
RTVSPropertyOp25
 70
     1
102
RTVSPropertyOp26
 70
     1
102
RTVSPropertyOp27
 70
     1
  0
XRECORD
  5
2B53
102
{ACAD_REACTORS
330
2B52
102
}
330
2B52
100
AcDbXrecord
280
     1
102
RTVSPropertyOp0
 70
     0
102
RTVSPropertyOp1
 70
     0
102
RTVSPropertyOp2
 70
     0
102
RTVSPropertyOp3
 70
     0
102
RTVSPropertyOp4
 70
     0
102
RTVSPropertyOp5
 70
     0
102
RTVSPropertyOp6
 70
     0
102
RTVSPropertyOp7
 70
     0
102
RTVSPropertyOp8
 70
     0
102
RTVSPropertyOp9
 70
     0
102
RTVSPropertyOp10
 70
     0
102
RTVSPropertyOp11
 70
     0
102
RTVSPropertyOp12
 70
     0
102
RTVSPropertyOp13
 70
     0
102
RTVSPropertyOp14
 70
     2
102
RTVSPropertyOp15
 70
     0
102
RTVSPropertyOp16
 70
     0
102
RTVSPropertyOp17
 70
     0
102
RTVSPropertyOp18
 70
     0
102
RTVSPropertyOp19
 70
     0
102
RTVSPropertyOp20
 70
     0
102
RTVSPropertyOp21
 70
     0
102
RTVSPropertyOp22
 70
     0
102
RTVSPropertyOp23
 70
     0
102
RTVSPropertyOp24
 70
     0
102
RTVSPropertyOp25
 70
     0
102
RTVSPropertyOp26
 70
     0
102
RTVSPropertyOp27
 70
     0
  0
XRECORD
  5
2B43
102
{ACAD_REACTORS
330
2B42
102
}
330
2B42
100
AcDbXrecord
280
     1
102
RTVSPropertyOp0
 70
     1
102
RTVSPropertyOp1
 70
     1
102
RTVSPropertyOp2
 70
     1
102
RTVSPropertyOp3
 70
     1
102
RTVSPropertyOp4
 70
     1
102
RTVSPropertyOp5
 70
     1
102
RTVSPropertyOp6
 70
     1
102
RTVSPropertyOp7
 70
     1
102
RTVSPropertyOp8
 70
     1
102
RTVSPropertyOp9
 70
     1
102
RTVSPropertyOp10
 70
     1
102
RTVSPropertyOp11
 70
     1
102
RTVSPropertyOp12
 70
     1
102
RTVSPropertyOp13
 70
     1
102
RTVSPropertyOp14
 70
     1
102
RTVSPropertyOp15
 70
     1
102
RTVSPropertyOp16
 70
     1
102
RTVSPropertyOp17
 70
     1
102
RTVSPropertyOp18
 70
     1
102
RTVSPropertyOp19
 70
     1
102
RTVSPropertyOp20
 70
     1
102
RTVSPropertyOp21
 70
     1
102
RTVSPropertyOp22
 70
     1
102
RTVSPropertyOp23
 70
     1
102
RTVSPropertyOp24
 70
     1
102
RTVSPropertyOp25
 70
     1
102
RTVSPropertyOp26
 70
     1
102
RTVSPropertyOp27
 70
     1
  0
XRECORD
  5
2B49
102
{ACAD_REACTORS
330
2B48
102
}
330
2B48
100
AcDbXrecord
280
     1
102
RTVSPropertyOp0
 70
     1
102
RTVSPropertyOp1
 70
     1
102
RTVSPropertyOp2
 70
     1
102
RTVSPropertyOp3
 70
     1
102
RTVSPropertyOp4
 70
     1
102
RTVSPropertyOp5
 70
     1
102
RTVSPropertyOp6
 70
     1
102
RTVSPropertyOp7
 70
     1
102
RTVSPropertyOp8
 70
     1
102
RTVSPropertyOp9
 70
     1
102
RTVSPropertyOp10
 70
     1
102
RTVSPropertyOp11
 70
     1
102
RTVSPropertyOp12
 70
     1
102
RTVSPropertyOp13
 70
     1
102
RTVSPropertyOp14
 70
     1
102
RTVSPropertyOp15
 70
     1
102
RTVSPropertyOp16
 70
     1
102
RTVSPropertyOp17
 70
     1
102
RTVSPropertyOp18
 70
     1
102
RTVSPropertyOp19
 70
     1
102
RTVSPropertyOp20
 70
     1
102
RTVSPropertyOp21
 70
     1
102
RTVSPropertyOp22
 70
     1
102
RTVSPropertyOp23
 70
     1
102
RTVSPropertyOp24
 70
     1
102
RTVSPropertyOp25
 70
     1
102
RTVSPropertyOp26
 70
     1
102
RTVSPropertyOp27
 70
     1
  0
ENDSEC
  0
EOF
