  0
SECTION
  2
HEADER
  9
$ACADVER
  1
AC1015
  9
$ACADMAINTVER
 70
    20
  9
$DWGCODEPAGE
  3
ANSI_1252
  9
$INSBASE
 10
0.0
 20
0.0
 30
0.0
  9
$EXTMIN
 10
627.311054459437
 20
1624.430483296885
 30
-0.0000000017937957
  9
$EXTMAX
 10
628.9732177292594
 20
1626.280483296886
 30
0.0000000000000001
  9
$LIMMIN
 10
0.0
 20
0.0
  9
$LIMMAX
 10
420.0
 20
297.0
  9
$ORTHOMODE
 70
     0
  9
$REGENMODE
 70
     1
  9
$FILLMODE
 70
     1
  9
$QTEXTMODE
 70
     0
  9
$MIRRTEXT
 70
     1
  9
$LTSCALE
 40
0.2
  9
$ATTMODE
 70
     1
  9
$TEXTSIZE
 40
2.5
  9
$TRACEWID
 40
1.0
  9
$TEXTSTYLE
  7
SANINDUSA
  9
$CLAYER
  8
cotas
  9
$CELTYPE
  6
ByLayer
  9
$CECOLOR
 62
   256
  9
$CELTSCALE
 40
1.0
  9
$DISPSILH
 70
     0
  9
$DIMSCALE
 40
1.0
  9
$DIMASZ
 40
2.0
  9
$DIMEXO
 40
1.0
  9
$DIMDLI
 40
1.0
  9
$DIMRND
 40
0.0
  9
$DIMDLE
 40
0.0
  9
$DIMEXE
 40
1.0
  9
$DIMTP
 40
0.0
  9
$DIMTM
 40
0.0
  9
$DIMTXT
 40
2.0
  9
$DIMCEN
 40
0.0
  9
$DIMTSZ
 40
0.0
  9
$DIMTOL
 70
     0
  9
$DIMLIM
 70
     0
  9
$DIMTIH
 70
     0
  9
$DIMTOH
 70
     0
  9
$DIMSE1
 70
     0
  9
$DIMSE2
 70
     0
  9
$DIMTAD
 70
     1
  9
$DIMZIN
 70
     8
  9
$DIMBLK
  1

  9
$DIMASO
 70
     1
  9
$DIMSHO
 70
     1
  9
$DIMPOST
  1

  9
$DIMAPOST
  1

  9
$DIMALT
 70
     0
  9
$DIMALTD
 70
     3
  9
$DIMALTF
 40
0.03937007874016
  9
$DIMLFAC
 40
1.0
  9
$DIMTOFL
 70
     1
  9
$DIMTVP
 40
0.0
  9
$DIMTIX
 70
     0
  9
$DIMSOXD
 70
     0
  9
$DIMSAH
 70
     0
  9
$DIMBLK1
  1

  9
$DIMBLK2
  1

  9
$DIMSTYLE
  2
SANINDUSA
  9
$DIMCLRD
 70
   256
  9
$DIMCLRE
 70
   256
  9
$DIMCLRT
 70
   256
  9
$DIMTFAC
 40
1.0
  9
$DIMGAP
 40
1.0
  9
$DIMJUST
 70
     0
  9
$DIMSD1
 70
     0
  9
$DIMSD2
 70
     0
  9
$DIMTOLJ
 70
     0
  9
$DIMTZIN
 70
     8
  9
$DIMALTZ
 70
     0
  9
$DIMALTTZ
 70
     0
  9
$DIMUPT
 70
     0
  9
$DIMDEC
 70
     1
  9
$DIMTDEC
 70
     1
  9
$DIMALTU
 70
     2
  9
$DIMALTTD
 70
     3
  9
$DIMTXSTY
  7
SANINDUSA
  9
$DIMAUNIT
 70
     0
  9
$DIMADEC
 70
     1
  9
$DIMALTRND
 40
0.0
  9
$DIMAZIN
 70
     0
  9
$DIMDSEP
 70
    44
  9
$DIMATFIT
 70
     3
  9
$DIMFRAC
 70
     0
  9
$DIMLDRBLK
  1

  9
$DIMLUNIT
 70
     2
  9
$DIMLWD
 70
    -1
  9
$DIMLWE
 70
    -1
  9
$DIMTMOVE
 70
     0
  9
$LUNITS
 70
     2
  9
$LUPREC
 70
     4
  9
$SKETCHINC
 40
1.0
  9
$FILLETRAD
 40
3.0
  9
$AUNITS
 70
     0
  9
$AUPREC
 70
     0
  9
$MENU
  1
.
  9
$ELEVATION
 40
0.0
  9
$PELEVATION
 40
0.0
  9
$THICKNESS
 40
0.0
  9
$LIMCHECK
 70
     0
  9
$CHAMFERA
 40
10.0
  9
$CHAMFERB
 40
10.0
  9
$CHAMFERC
 40
20.0
  9
$CHAMFERD
 40
0.0
  9
$SKPOLY
 70
     0
  9
$TDCREATE
 40
2453258.658794664
  9
$TDUCREATE
 40
2453258.617127998
  9
$TDUPDATE
 40
2455817.476755278
  9
$TDUUPDATE
 40
2455817.435088611
  9
$TDINDWG
 40
0.0514492940
  9
$TDUSRTIMER
 40
0.0514492940
  9
$USRTIMER
 70
     1
  9
$ANGBASE
 50
0.0
  9
$ANGDIR
 70
     0
  9
$PDMODE
 70
     0
  9
$PDSIZE
 40
0.0
  9
$PLINEWID
 40
0.0
  9
$SPLFRAME
 70
     0
  9
$SPLINETYPE
 70
     6
  9
$SPLINESEGS
 70
     8
  9
$HANDSEED
  5
2A09
  9
$SURFTAB1
 70
     6
  9
$SURFTAB2
 70
     6
  9
$SURFTYPE
 70
     6
  9
$SURFU
 70
     6
  9
$SURFV
 70
     6
  9
$UCSBASE
  2

  9
$UCSNAME
  2

  9
$UCSORG
 10
0.0
 20
0.0
 30
0.0
  9
$UCSXDIR
 10
1.0
 20
0.0
 30
0.0
  9
$UCSYDIR
 10
0.0
 20
1.0
 30
0.0
  9
$UCSORTHOREF
  2

  9
$UCSORTHOVIEW
 70
     0
  9
$UCSORGTOP
 10
0.0
 20
0.0
 30
0.0
  9
$UCSORGBOTTOM
 10
0.0
 20
0.0
 30
0.0
  9
$UCSORGLEFT
 10
0.0
 20
0.0
 30
0.0
  9
$UCSORGRIGHT
 10
0.0
 20
0.0
 30
0.0
  9
$UCSORGFRONT
 10
0.0
 20
0.0
 30
0.0
  9
$UCSORGBACK
 10
0.0
 20
0.0
 30
0.0
  9
$PUCSBASE
  2

  9
$PUCSNAME
  2

  9
$PUCSORG
 10
0.0
 20
0.0
 30
0.0
  9
$PUCSXDIR
 10
1.0
 20
0.0
 30
0.0
  9
$PUCSYDIR
 10
0.0
 20
1.0
 30
0.0
  9
$PUCSORTHOREF
  2

  9
$PUCSORTHOVIEW
 70
     0
  9
$PUCSORGTOP
 10
0.0
 20
0.0
 30
0.0
  9
$PUCSORGBOTTOM
 10
0.0
 20
0.0
 30
0.0
  9
$PUCSORGLEFT
 10
0.0
 20
0.0
 30
0.0
  9
$PUCSORGRIGHT
 10
0.0
 20
0.0
 30
0.0
  9
$PUCSORGFRONT
 10
0.0
 20
0.0
 30
0.0
  9
$PUCSORGBACK
 10
0.0
 20
0.0
 30
0.0
  9
$USERI1
 70
     0
  9
$USERI2
 70
     0
  9
$USERI3
 70
     0
  9
$USERI4
 70
     0
  9
$USERI5
 70
     0
  9
$USERR1
 40
0.0
  9
$USERR2
 40
0.0
  9
$USERR3
 40
0.0
  9
$USERR4
 40
0.0
  9
$USERR5
 40
0.0
  9
$WORLDVIEW
 70
     1
  9
$SHADEDGE
 70
     3
  9
$SHADEDIF
 70
    70
  9
$TILEMODE
 70
     1
  9
$MAXACTVP
 70
    64
  9
$PINSBASE
 10
0.0
 20
0.0
 30
0.0
  9
$PLIMCHECK
 70
     0
  9
$PEXTMIN
 10
1.000000000000000E+20
 20
1.000000000000000E+20
 30
1.000000000000000E+20
  9
$PEXTMAX
 10
-1.000000000000000E+20
 20
-1.000000000000000E+20
 30
-1.000000000000000E+20
  9
$PLIMMIN
 10
0.0
 20
0.0
  9
$PLIMMAX
 10
420.0
 20
297.0
  9
$UNITMODE
 70
     0
  9
$VISRETAIN
 70
     1
  9
$PLINEGEN
 70
     0
  9
$PSLTSCALE
 70
     1
  9
$TREEDEPTH
 70
  3020
  9
$CMLSTYLE
  2
Standard
  9
$CMLJUST
 70
     0
  9
$CMLSCALE
 40
20.0
  9
$PROXYGRAPHICS
 70
     1
  9
$MEASUREMENT
 70
     1
  9
$CELWEIGHT
370
    -1
  9
$ENDCAPS
280
     0
  9
$JOINSTYLE
280
     0
  9
$LWDISPLAY
290
     0
  9
$INSUNITS
 70
     4
  9
$HYPERLINKBASE
  1

  9
$STYLESHEET
  1
monochrome.ctb
  9
$XEDIT
290
     1
  9
$CEPSNTYPE
380
     0
  9
$PSTYLEMODE
290
     1
  9
$FINGERPRINTGUID
  2
{B98A73AA-52AA-4C10-B469-C0E7150AC31F}
  9
$VERSIONGUID
  2
{E8A0255F-84AF-442D-B9C7-B45738CD445E}
  9
$EXTNAMES
290
     1
  9
$PSVPSCALE
 40
0.0
  9
$OLESTARTUP
290
     0
  0
ENDSEC
  0
SECTION
  2
CLASSES
  0
CLASS
  1
ACDBDICTIONARYWDFLT
  2
AcDbDictionaryWithDefault
  3
ObjectDBX Classes
 90
        0
280
     0
281
     0
  0
CLASS
  1
ACDBPLACEHOLDER
  2
AcDbPlaceHolder
  3
ObjectDBX Classes
 90
        0
280
     0
281
     0
  0
CLASS
  1
LAYOUT
  2
AcDbLayout
  3
ObjectDBX Classes
 90
        0
280
     0
281
     0
  0
CLASS
  1
DICTIONARYVAR
  2
AcDbDictionaryVar
  3
ObjectDBX Classes
 90
        0
280
     0
281
     0
  0
CLASS
  1
DIMASSOC
  2
AcDbDimAssoc
  3
"AcDbDimAssoc|Product Desc:     AcDim ARX App For Dimension|Company:          Autodesk, Inc.|WEB Address:      www.autodesk.com"
 90
        0
280
     0
281
     0
  0
CLASS
  1
MATERIAL
  2
AcDbMaterial
  3
ObjectDBX Classes
 90
     1153
280
     0
281
     0
  0
CLASS
  1
VISUALSTYLE
  2
AcDbVisualStyle
  3
ObjectDBX Classes
 90
     4095
280
     0
281
     0
  0
CLASS
  1
TABLESTYLE
  2
AcDbTableStyle
  3
ObjectDBX Classes
 90
     4095
280
     0
281
     0
  0
CLASS
  1
SCALE
  2
AcDbScale
  3
ObjectDBX Classes
 90
     1153
280
     0
281
     0
  0
CLASS
  1
MLEADERSTYLE
  2
AcDbMLeaderStyle
  3
ACDB_MLEADERSTYLE_CLASS
 90
     4095
280
     0
281
     0
  0
CLASS
  1
CELLSTYLEMAP
  2
AcDbCellStyleMap
  3
ObjectDBX Classes
 90
     1152
280
     0
281
     0
  0
ENDSEC
  0
SECTION
  2
TABLES
  0
TABLE
  2
VPORT
  5
8
330
0
100
AcDbSymbolTable
 70
     1
  0
VPORT
  5
28C2
330
8
100
AcDbSymbolTableRecord
100
AcDbViewportTableRecord
  2
*Active
 70
     0
 10
0.0
 20
0.0
 11
1.0
 21
1.0
 12
628.1421360943481
 22
1625.355483296885
 13
0.0
 23
0.0
 14
10.0
 24
10.0
 15
10.0
 25
10.0
 16
0.0
 26
0.0
 36
1.0
 17
0.0
 27
0.0
 37
0.0
 40
1.86156249999999
 41
1.328467153284671
 42
50.0
 43
0.0
 44
0.0
 50
0.0
 51
0.0
 71
     0
 72
   100
 73
     1
 74
     2
 75
     0
 76
     0
 77
     0
 78
     0
281
     0
 65
     1
110
0.0
120
0.0
130
0.0
111
1.0
121
0.0
131
0.0
112
0.0
122
1.0
132
0.0
 79
     0
146
0.0
  0
ENDTAB
  0
TABLE
  2
LTYPE
  5
5
330
0
100
AcDbSymbolTable
 70
     5
  0
LTYPE
  5
14
330
5
100
AcDbSymbolTableRecord
100
AcDbLinetypeTableRecord
  2
ByBlock
 70
     0
  3

 72
    65
 73
     0
 40
0.0
  0
LTYPE
  5
15
330
5
100
AcDbSymbolTableRecord
100
AcDbLinetypeTableRecord
  2
ByLayer
 70
     0
  3

 72
    65
 73
     0
 40
0.0
  0
LTYPE
  5
16
330
5
100
AcDbSymbolTableRecord
100
AcDbLinetypeTableRecord
  2
Continuous
 70
     0
  3
Solid line
 72
    65
 73
     0
 40
0.0
  0
LTYPE
  5
2D
330
5
100
AcDbSymbolTableRecord
100
AcDbLinetypeTableRecord
  2
DASHDOT
 70
     0
  3
Dash dot __ . __ . __ . __ . __ . __ . __ . __
 72
    65
 73
     4
 40
25.4
 49
12.7
 74
     0
 49
-6.349999999999999
 74
     0
 49
0.0
 74
     0
 49
-6.349999999999999
 74
     0
  0
LTYPE
  5
2E
330
5
100
AcDbSymbolTableRecord
100
AcDbLinetypeTableRecord
  2
HIDDEN
 70
     0
  3
Hidden __ __ __ __ __ __ __ __ __ __ __ __ __ _
 72
    65
 73
     2
 40
9.524999999999998
 49
6.349999999999999
 74
     0
 49
-3.174999999999999
 74
     0
  0
LTYPE
  5
C2E
330
5
100
AcDbSymbolTableRecord
100
AcDbLinetypeTableRecord
  2
CENTER
 70
     0
  3
____ _ ____ _ ____ _ ____ _ ____ _ ____ _ ____ 
 72
    65
 73
     4
 40
2.0
 49
1.25
 74
     0
 49
-0.25
 74
     0
 49
0.25
 74
     0
 49
-0.25
 74
     0
  0
ENDTAB
  0
TABLE
  2
LAYER
  5
2
330
0
100
AcDbSymbolTable
 70
    17
  0
LAYER
  5
10
102
{ACAD_XDICTIONARY
360
292E
102
}
330
2
100
AcDbSymbolTableRecord
100
AcDbLayerTableRecord
  2
0
 70
     0
 62
     7
  6
Continuous
370
    -3
390
F
  0
LAYER
  5
2F
102
{ACAD_XDICTIONARY
360
2930
102
}
330
2
100
AcDbSymbolTableRecord
100
AcDbLayerTableRecord
  2
1
 70
     0
 62
     1
  6
Continuous
370
    -3
390
F
  0
LAYER
  5
30
102
{ACAD_XDICTIONARY
360
2932
102
}
330
2
100
AcDbSymbolTableRecord
100
AcDbLayerTableRecord
  2
2
 70
     0
 62
     2
  6
Continuous
370
    -3
390
F
  0
LAYER
  5
31
102
{ACAD_XDICTIONARY
360
2934
102
}
330
2
100
AcDbSymbolTableRecord
100
AcDbLayerTableRecord
  2
3
 70
     0
 62
     3
  6
Continuous
370
    -3
390
F
  0
LAYER
  5
32
102
{ACAD_XDICTIONARY
360
2936
102
}
330
2
100
AcDbSymbolTableRecord
100
AcDbLayerTableRecord
  2
4
 70
     0
 62
     4
  6
Continuous
370
    -3
390
F
  0
LAYER
  5
33
102
{ACAD_XDICTIONARY
360
2938
102
}
330
2
100
AcDbSymbolTableRecord
100
AcDbLayerTableRecord
  2
5
 70
     0
 62
     5
  6
Continuous
370
    -3
390
F
  0
LAYER
  5
34
102
{ACAD_XDICTIONARY
360
293A
102
}
330
2
100
AcDbSymbolTableRecord
100
AcDbLayerTableRecord
  2
6
 70
     0
 62
     6
  6
Continuous
370
    -3
390
F
  0
LAYER
  5
35
102
{ACAD_XDICTIONARY
360
293C
102
}
330
2
100
AcDbSymbolTableRecord
100
AcDbLayerTableRecord
  2
7
 70
     0
 62
     7
  6
Continuous
370
    -3
390
F
  0
LAYER
  5
36
102
{ACAD_XDICTIONARY
360
293E
102
}
330
2
100
AcDbSymbolTableRecord
100
AcDbLayerTableRecord
  2
cen
 70
     0
 62
     7
  6
DASHDOT
370
    -3
390
F
  0
LAYER
  5
37
102
{ACAD_XDICTIONARY
360
2940
102
}
330
2
100
AcDbSymbolTableRecord
100
AcDbLayerTableRecord
  2
hid
 70
     0
 62
     7
  6
HIDDEN
370
    -3
390
F
  0
LAYER
  5
5D6
102
{ACAD_XDICTIONARY
360
2942
102
}
330
2
100
AcDbSymbolTableRecord
100
AcDbLayerTableRecord
  2
hatch
 70
     0
 62
     9
  6
Continuous
370
    -3
390
F
  0
LAYER
  5
8AF
102
{ACAD_XDICTIONARY
360
2944
102
}
330
2
100
AcDbSymbolTableRecord
100
AcDbLayerTableRecord
  2
9
 70
     0
 62
     9
  6
Continuous
370
    -3
390
F
  0
LAYER
  5
8F8
102
{ACAD_XDICTIONARY
360
2946
102
}
330
2
100
AcDbSymbolTableRecord
100
AcDbLayerTableRecord
  2
leg fin
 70
     0
 62
     9
  6
Continuous
370
    -3
390
F
  0
LAYER
  5
91D
102
{ACAD_XDICTIONARY
360
2948
102
}
330
2
100
AcDbSymbolTableRecord
100
AcDbLayerTableRecord
  2
cotas
 70
     0
 62
     1
  6
Continuous
370
    -3
390
F
  0
LAYER
  5
92F
330
2
100
AcDbSymbolTableRecord
100
AcDbLayerTableRecord
  2
Defpoints
 70
     0
 62
     7
  6
Continuous
290
     0
370
    -3
390
F
  0
LAYER
  5
C2F
102
{ACAD_XDICTIONARY
360
294A
102
}
330
2
100
AcDbSymbolTableRecord
100
AcDbLayerTableRecord
  2
quote
 70
     0
 62
     7
  6
Continuous
370
    18
390
F
  0
LAYER
  5
2915
102
{ACAD_XDICTIONARY
360
294C
102
}
330
2
100
AcDbSymbolTableRecord
100
AcDbLayerTableRecord
  2
SANINDUSA
 70
     0
 62
     3
  6
Continuous
370
    -3
390
F
  0
ENDTAB
  0
TABLE
  2
STYLE
  5
3
330
0
100
AcDbSymbolTable
 70
     4
  0
STYLE
  5
11
330
3
100
AcDbSymbolTableRecord
100
AcDbTextStyleTableRecord
  2
Standard
 70
     0
 40
0.0
 41
1.0
 50
0.0
 71
     0
 42
2.5
  3
Avgardn.ttf
  4

1001
ACAD
1000
AvantGarde Bk BT
1071
       34
  0
STYLE
  5
2C
330
3
100
AcDbSymbolTableRecord
100
AcDbTextStyleTableRecord
  2

 70
     1
 40
0.0
 41
1.0
 50
0.0
 71
     0
 42
2.5
  3
ltypeshp.shx
  4

  0
STYLE
  5
91F
330
3
100
AcDbSymbolTableRecord
100
AcDbTextStyleTableRecord
  2
SANINDUSA
 70
     0
 40
0.0
 41
1.0
 50
0.0
 71
     0
 42
2.5
  3
verdana.TTF
  4

1001
ACAD
1000
Verdana
1071
       34
  0
STYLE
  5
1484
330
3
100
AcDbSymbolTableRecord
100
AcDbTextStyleTableRecord
  2
ISOCP
 70
     0
 40
0.0
 41
1.0
 50
0.0
 71
     0
 42
2.5
  3
isocp
  4

  0
ENDTAB
  0
TABLE
  2
VIEW
  5
6
330
0
100
AcDbSymbolTable
 70
     0
  0
ENDTAB
  0
TABLE
  2
UCS
  5
7
330
0
100
AcDbSymbolTable
 70
     0
  0
ENDTAB
  0
TABLE
  2
APPID
  5
9
330
0
100
AcDbSymbolTable
 70
     8
  0
APPID
  5
12
330
9
100
AcDbSymbolTableRecord
100
AcDbRegAppTableRecord
  2
ACAD
 70
     0
  0
APPID
  5
3A
330
9
100
AcDbSymbolTableRecord
100
AcDbRegAppTableRecord
  2
DCO15
 70
     0
  0
APPID
  5
C31
330
9
100
AcDbSymbolTableRecord
100
AcDbRegAppTableRecord
  2
GENIUS_GENREC_14
 70
     0
  0
APPID
  5
C32
330
9
100
AcDbSymbolTableRecord
100
AcDbRegAppTableRecord
  2
GENIUS_GENODEF_13
 70
     0
  0
APPID
  5
C33
330
9
100
AcDbSymbolTableRecord
100
AcDbRegAppTableRecord
  2
GENIUS_GENOBJ-N-REC_13
 70
     0
  0
APPID
  5
1486
330
9
100
AcDbSymbolTableRecord
100
AcDbRegAppTableRecord
  2
GENIUS_GENDTOL_13
 70
     0
  0
APPID
  5
290E
330
9
100
AcDbSymbolTableRecord
100
AcDbRegAppTableRecord
  2
ACAD_EXEMPT_FROM_CAD_STANDARDS
 70
     0
  0
APPID
  5
2A08
330
9
100
AcDbSymbolTableRecord
100
AcDbRegAppTableRecord
  2
ACAD_MLEADERVER
 70
     0
  0
ENDTAB
  0
TABLE
  2
DIMSTYLE
  5
A
330
0
100
AcDbSymbolTable
 70
     5
100
AcDbDimStyleTable
 71
     1
340
921
  0
DIMSTYLE
105
45
330
A
100
AcDbSymbolTableRecord
100
AcDbDimStyleTableRecord
  2
STANDARD
 70
     0
289
     0
340
11
  0
DIMSTYLE
105
921
330
A
100
AcDbSymbolTableRecord
100
AcDbDimStyleTableRecord
  2
SANINDUSA
 70
     0
 41
2.0
 42
1.0
 43
1.0
 44
1.0
 73
     0
 74
     0
 77
     1
 78
     8
140
2.0
141
0.0
143
0.03937007874016
147
1.0
171
     3
172
     1
176
   256
177
   256
178
   256
179
     1
271
     1
272
     1
274
     3
278
    44
283
     0
284
     8
340
91F
371
    -1
372
    -1
  0
DIMSTYLE
105
C30
330
A
100
AcDbSymbolTableRecord
100
AcDbDimStyleTableRecord
  2
ISO-25
 70
     0
 40
5.0
 41
2.5
 42
0.625
 43
3.75
 44
1.25
 73
     0
 74
     0
 77
     1
 78
     8
140
2.5
141
2.5
143
0.03937007874016
147
0.625
171
     3
172
     1
271
     0
272
     0
274
     3
278
    44
283
     0
284
     8
340
11
  0
DIMSTYLE
105
1485
330
A
100
AcDbSymbolTableRecord
100
AcDbDimStyleTableRecord
  2
ISO-35
 70
     0
 41
3.5
 42
0.875
 43
5.25
 44
1.75
 45
0.5
 73
     0
 74
     0
 77
     1
 78
     8
140
3.5
141
3.5
143
0.0394
147
0.875
171
     4
172
     1
176
   256
177
   256
178
   256
271
     1
272
     1
273
     8
274
     4
340
11
371
    -1
372
    -1
  0
ENDTAB
  0
TABLE
  2
BLOCK_RECORD
  5
1
330
0
100
AcDbSymbolTable
 70
    22
  0
BLOCK_RECORD
  5
1F
330
1
100
AcDbSymbolTableRecord
100
AcDbBlockTableRecord
  2
*Model_Space
340
22
  0
BLOCK_RECORD
  5
1B
330
1
100
AcDbSymbolTableRecord
100
AcDbBlockTableRecord
  2
*Paper_Space
340
1E
  0
BLOCK_RECORD
  5
23
330
1
100
AcDbSymbolTableRecord
100
AcDbBlockTableRecord
  2
*Paper_Space0
340
26
  0
BLOCK_RECORD
  5
919
330
1
100
AcDbSymbolTableRecord
100
AcDbBlockTableRecord
  2
_DotSmall
340
0
  0
BLOCK_RECORD
  5
922
330
1
100
AcDbSymbolTableRecord
100
AcDbBlockTableRecord
  2
base para cotas
340
0
310
2800000020000000200000000100080000000000000400000000000000000000000000000000000000000000000080000080000000808000800000008000800080800000C0C0C000C0DCC000F0CAA6000020400000206000002080000020A0000020C0000020E00000400000004020000040400000406000004080000040A0
310
000040C0000040E00000600000006020000060400000606000006080000060A0000060C0000060E00000800000008020000080400000806000008080000080A0000080C0000080E00000A0000000A0200000A0400000A0600000A0800000A0A00000A0C00000A0E00000C0000000C0200000C0400000C0600000C0800000C0
310
A00000C0C00000C0E00000E0000000E0200000E0400000E0600000E0800000E0A00000E0C00000E0E00040000000400020004000400040006000400080004000A0004000C0004000E00040200000402020004020400040206000402080004020A0004020C0004020E000404000004040200040404000404060004040800040
310
40A0004040C0004040E00040600000406020004060400040606000406080004060A0004060C0004060E00040800000408020004080400040806000408080004080A0004080C0004080E00040A0000040A0200040A0400040A0600040A0800040A0A00040A0C00040A0E00040C0000040C0200040C0400040C0600040C08000
310
40C0A00040C0C00040C0E00040E0000040E0200040E0400040E0600040E0800040E0A00040E0C00040E0E00080000000800020008000400080006000800080008000A0008000C0008000E00080200000802020008020400080206000802080008020A0008020C0008020E00080400000804020008040400080406000804080
310
008040A0008040C0008040E00080600000806020008060400080606000806080008060A0008060C0008060E00080800000808020008080400080806000808080008080A0008080C0008080E00080A0000080A0200080A0400080A0600080A0800080A0A00080A0C00080A0E00080C0000080C0200080C0400080C0600080C0
310
800080C0A00080C0C00080C0E00080E0000080E0200080E0400080E0600080E0800080E0A00080E0C00080E0E000C0000000C0002000C0004000C0006000C0008000C000A000C000C000C000E000C0200000C0202000C0204000C0206000C0208000C020A000C020C000C020E000C0400000C0402000C0404000C0406000C0
310
408000C040A000C040C000C040E000C0600000C0602000C0604000C0606000C0608000C060A000C060C000C060E000C0800000C0802000C0804000C0806000C0808000C080A000C080C000C080E000C0A00000C0A02000C0A04000C0A06000C0A08000C0A0A000C0A0C000C0A0E000C0C00000C0C02000C0C04000C0C06000
310
C0C08000C0C0A000F0FBFF00A4A0A000808080000000FF0000FF000000FFFF00FF000000FF00FF00FFFF0000FFFFFF00A4A4A4A4A4A4A4A4A4A4A4A4A4A4A4A4A4A4A4A4A4A4A4A4A4A4A4A4A4A4A4A4A4A4A4A4A4A4A4A4A4A4A4A4A4A4A4A4A4A4A4A4A4A4A4A4A4A4A4A4A4A4A4A4A4A4A4A4A4A4A4A4A4A4A4A4A4A4A4
310
A4A4A4A4A4A4A4A4A4A4A4A4A4A4A4A4A4A4A4A4A4A4A4A4A4A4A4A4A4A4A4A4A4A4A4A4A4A4A4A4A4A4A4A4A4A4A4A4A4A4A4A4A4A4A4A4A4A4A4A4A4A4A4A4A4A4A4A4A4A4A4A4A4A4A4A4A4A4A4A4A4A4A4A4A4A4A4A4A4A4A4A4A4A4A4A4A4A4A4A4A4A4A4A4A4A4A4A4A4A4A4A4A4A4A4A4A4A4A4A4A4A4A4A4A4A4A4
310
A4A4A4A4A4A4A4A4A4A4A4A4A4A4A4A4A4A4A4A4A4A4A4A4A4A4A4A4A4A4A4A4A4A4A4A4A4A4A4A4A4A4A4A4A4A4A4A4A4A4A4A4A4A4A4A4A4A4A4A4A4A4A4A4A4A4A4A4A4A4A4A4A4A4A4A4A4A4A4A4A4A4A4A4A4A4A4A4A4A4A4A4A4A4A4A4A4A4A4A4A4A4A4A4A4A4A4A4A4A4A4A4A4A4A4A4A4A4A4A4A4A4A4A4A4A4A4
310
A4A4A4A4A4A4A4A4A4A4A4A4A4A4A4A4A4A4A4A4A4A4A4A4A4A4A4A4A4A4A4A4A4A4A4A4A4A4A4A4A4A4A4A4A4A4A4A4A4A4A4A4A4A4A4A4A4A4A4A4A4A4A4A4A4A4A4A4A4A4A4A4A4A4A4A4A4A4A4A4A4A4A4A4A4A4A4A4A4A4A4A4A4A4A4A4A4A4A4A4A4A4A4A4A4A4A4A4A4A4A4A4A4A4A4A4F9F9F9F9F9F9F9F9F9F9F9
310
F9F9F9F9F9F9F9F9F9F9F9F9F9F9F9F9F9F9F9A4A4F9F9F9F9F9F9F9F9F9F9F9F9F9F9F9F9F9F9F9F9F9F9F9F9F9F9F9F9F9F9A4A4F9F9F9F9F9F9F9F9F9F9F9F9F9F9F9F9F9F9F9F9F9F9F9F9F9F9F9F9F9F9A4A4F9A4A4A4A4A4A4A4A4A4A4A4A4A4A4A4A4A4A4A4A4A4A4A4A4A4A4A4A4F9A4A4A4A4A4A4A4A4A4A4A4A4
310
A4A4A4A4A4A4A4A4A4A4A4A4A4A4A4A4A4A4A4A4A4A4A4A4A4A4A4A4A4A4A4A4A4A4A4A4A4A4A4A4A4A4A4A4A4A4A4A4A4A4A4A4A4A4A4A4A4A4A4A4A4A4A4A4A4A4A4A4A4A4A4A4A4A4A4A4A4A4A4A4A4A4A4A4A4A4A4A4A4A4A4A4A4A4A4A4A4A4A4A4A4A4A4A4A4A4A4A4A4A4A4A4A4A4A4A4A4A4A4A4A4A4A4A4A4A4A4
310
A4A4A4A4A4A4A4A4A4A4A4A4A4A4A4A4A4A4A4A4A4A4A4A4A4A4A4A4A4A4A4A4A4A4A4A4A4A4A4A4A4A4A4A4A4A4A4A4A4A4A4A4A4A4A4A4A4A4A4A4A4A4A4A4A4A4A4A4A4A4A4A4A4A4A4A4A4A4A4A4A4A4A4A4A4A4A4A4A4A4A4A4A4A4A4A4A4A4A4A4A4A4A4A4A4A4A4A4A4A4A4A4A4A4A4A4A4A4A4A4A4A4A4A4A4A4A4
310
A4A4A4A4A4A4A4A4A4A4A4A4A4A4A4A4A4A4A4A4A4A4A4A4A4A4A4A4A4A4A4A4A4A4A4A4A4A4A4A4A4A4A4A4A4A4A4A4A4A4A4A4A4A4A4A4A4A4A4A4A4A4A4A4A4A4A4A4A4A4A4A4A4A4A4A4A4A4A4A4A4A4A4A4A4A4A4A4A4A4A4A4A4A4A4A4A4A4A4A4A4A4A4A4A4A4A4A4A4A4A4A4A4A4A4A4A4A4A4A4A4A4A4A4A4A4A4
310
A4A4A4A4A4A4A4A4A4A4A4A4A4A4A4A4A4A4A4A4A4A4A4A4A4A4A4A4A4A4A4A4A4A4A4A4A4A4A4A4A4A4A4A4A4A4A4A4A4A4A4A4A4A4A4A4
1001
ACAD
1000
DesignCenter Data
1002
{
1070
     1
1070
     4
1002
}
  0
BLOCK_RECORD
  5
AA8
330
1
100
AcDbSymbolTableRecord
100
AcDbBlockTableRecord
  2
_CLOSED
340
0
  0
BLOCK_RECORD
  5
BA5
330
1
100
AcDbSymbolTableRecord
100
AcDbBlockTableRecord
  2
guarnizione
340
0
102
{BLKREFS
331
266A
102
}
  0
BLOCK_RECORD
  5
21C7
330
1
100
AcDbSymbolTableRecord
100
AcDbBlockTableRecord
  2
*D8
340
0
  0
BLOCK_RECORD
  5
21D3
330
1
100
AcDbSymbolTableRecord
100
AcDbBlockTableRecord
  2
*D9
340
0
  0
BLOCK_RECORD
  5
21DF
330
1
100
AcDbSymbolTableRecord
100
AcDbBlockTableRecord
  2
*D10
340
0
  0
BLOCK_RECORD
  5
21ED
330
1
100
AcDbSymbolTableRecord
100
AcDbBlockTableRecord
  2
*D11
340
0
  0
BLOCK_RECORD
  5
21F9
330
1
100
AcDbSymbolTableRecord
100
AcDbBlockTableRecord
  2
*D12
340
0
  0
BLOCK_RECORD
  5
2205
330
1
100
AcDbSymbolTableRecord
100
AcDbBlockTableRecord
  2
*D13
340
0
  0
BLOCK_RECORD
  5
2211
330
1
100
AcDbSymbolTableRecord
100
AcDbBlockTableRecord
  2
*D14
340
0
  0
BLOCK_RECORD
  5
222B
330
1
100
AcDbSymbolTableRecord
100
AcDbBlockTableRecord
  2
*D15
340
0
  0
BLOCK_RECORD
  5
2798
330
1
100
AcDbSymbolTableRecord
100
AcDbBlockTableRecord
  2
*D16
340
0
  0
BLOCK_RECORD
  5
27B2
330
1
100
AcDbSymbolTableRecord
100
AcDbBlockTableRecord
  2
*D17
340
0
  0
BLOCK_RECORD
  5
27BE
330
1
100
AcDbSymbolTableRecord
100
AcDbBlockTableRecord
  2
*D18
340
0
  0
BLOCK_RECORD
  5
27CA
330
1
100
AcDbSymbolTableRecord
100
AcDbBlockTableRecord
  2
*D19
340
0
  0
BLOCK_RECORD
  5
2917
330
1
100
AcDbSymbolTableRecord
100
AcDbBlockTableRecord
  2
*D21
340
0
  0
ENDTAB
  0
ENDSEC
  0
SECTION
  2
BLOCKS
  0
BLOCK
  5
20
330
1F
100
AcDbEntity
  8
0
100
AcDbBlockBegin
  2
*Model_Space
 70
     0
 10
0.0
 20
0.0
 30
0.0
  3
*Model_Space
  1

  0
ENDBLK
  5
21
330
1F
100
AcDbEntity
  8
0
100
AcDbBlockEnd
  0
BLOCK
  5
1C
330
1B
100
AcDbEntity
 67
     1
  8
0
100
AcDbBlockBegin
  2
*Paper_Space
 70
     0
 10
0.0
 20
0.0
 30
0.0
  3
*Paper_Space
  1

  0
ENDBLK
  5
1D
330
1B
100
AcDbEntity
 67
     1
  8
0
100
AcDbBlockEnd
  0
BLOCK
  5
24
330
23
100
AcDbEntity
 67
     1
  8
0
100
AcDbBlockBegin
  2
*Paper_Space0
 70
     0
 10
0.0
 20
0.0
 30
0.0
  3
*Paper_Space0
  1

  0
ENDBLK
  5
25
330
23
100
AcDbEntity
 67
     1
  8
0
100
AcDbBlockEnd
  0
BLOCK
  5
91B
330
919
100
AcDbEntity
  8
0
100
AcDbBlockBegin
  2
_DotSmall
 70
     0
 10
0.0
 20
0.0
 30
0.0
  3
_DotSmall
  1

  0
LWPOLYLINE
  5
91A
330
919
100
AcDbEntity
  8
0
  6
ByBlock
 62
     0
100
AcDbPolyline
 90
        2
 70
     1
 43
0.5
 10
-0.0625
 20
0.0
 42
1.0
 10
0.0625
 20
0.0
 42
1.0
  0
ENDBLK
  5
91C
330
919
100
AcDbEntity
  8
0
100
AcDbBlockEnd
  0
BLOCK
  5
92A
330
922
100
AcDbEntity
  8
0
100
AcDbBlockBegin
  2
base para cotas
 70
     0
 10
0.0
 20
0.0
 30
0.0
  3
base para cotas
  1

  0
LINE
  5
B36
330
922
100
AcDbEntity
  8
cotas
100
AcDbLine
 10
0.0
 20
-30.0
 30
0.0
 11
327.1260136525398
 21
-30.0
 31
0.0
  0
LINE
  5
B37
330
922
100
AcDbEntity
  8
cotas
100
AcDbLine
 10
0.0
 20
-25.0
 30
0.0
 11
327.1260136525398
 21
-25.0
 31
0.0
  0
LINE
  5
B38
330
922
100
AcDbEntity
  8
cotas
100
AcDbLine
 10
0.0
 20
-20.0
 30
0.0
 11
327.1260136525398
 21
-20.0
 31
0.0
  0
LINE
  5
B39
330
922
100
AcDbEntity
  8
cotas
100
AcDbLine
 10
0.0
 20
-15.0
 30
0.0
 11
327.1260136525398
 21
-15.0
 31
0.0
  0
LINE
  5
B3A
330
922
100
AcDbEntity
  8
cotas
100
AcDbLine
 10
0.0
 20
-10.0
 30
0.0
 11
327.1260136525398
 21
-10.0
 31
0.0
  0
LINE
  5
B3B
330
922
100
AcDbEntity
  8
cotas
100
AcDbLine
 10
0.0
 20
0.0
 30
0.0
 11
0.0
 21
-30.0
 31
0.0
  0
LINE
  5
B3C
330
922
100
AcDbEntity
  8
cotas
100
AcDbLine
 10
327.1260136525398
 20
-30.0
 30
0.0
 11
327.1260136525398
 21
0.0
 31
0.0
  0
ENDBLK
  5
92B
330
922
100
AcDbEntity
  8
0
100
AcDbBlockEnd
  0
BLOCK
  5
AAD
330
AA8
100
AcDbEntity
  8
0
100
AcDbBlockBegin
  2
_CLOSED
 70
     0
 10
0.0
 20
0.0
 30
0.0
  3
_CLOSED
  1

  0
LINE
  5
AA9
330
AA8
100
AcDbEntity
  8
0
100
AcDbLine
 10
-1.0
 20
0.166667
 30
0.0
 11
0.0
 21
0.0
 31
0.0
  0
LINE
  5
AAA
330
AA8
100
AcDbEntity
  8
0
100
AcDbLine
 10
0.0
 20
0.0
 30
0.0
 11
-1.0
 21
-0.166667
 31
0.0
  0
LINE
  5
AAB
330
AA8
100
AcDbEntity
  8
0
100
AcDbLine
 10
-1.0
 20
0.166667
 30
0.0
 11
-1.0
 21
-0.166667
 31
0.0
  0
LINE
  5
AAC
330
AA8
100
AcDbEntity
  8
0
100
AcDbLine
 10
0.0
 20
0.0
 30
0.0
 11
-1.0
 21
0.0
 31
0.0
  0
ENDBLK
  5
AAE
330
AA8
100
AcDbEntity
  8
0
100
AcDbBlockEnd
  0
BLOCK
  5
BF0
330
BA5
100
AcDbEntity
  8
0
 62
     4
100
AcDbBlockBegin
  2
guarnizione
 70
     0
 10
0.0
 20
0.0
 30
0.0
  3
guarnizione
  1

  0
LINE
  5
BA6
330
BA5
100
AcDbEntity
  8
0
100
AcDbLine
 10
12.0
 20
3.179312414488776
 30
0.0
 11
12.0
 21
2.699999999999818
 31
0.0
  0
LINE
  5
BA7
330
BA5
100
AcDbEntity
  8
0
100
AcDbLine
 10
9.5
 20
3.130475008156281
 30
0.0
 11
9.440776269158959
 21
2.734883615801663
 31
0.0
  0
ARC
  5
BA8
330
BA5
100
AcDbEntity
  8
0
100
AcDbCircle
 10
11.19999999999891
 20
3.179312414488776
 30
0.0
 40
0.8
100
AcDbArc
 50
0.0
 51
81.48552156587461
  0
ARC
  5
BA9
330
BA5
100
AcDbEntity
  8
0
100
AcDbCircle
 10
8.753809903480942
 20
1.523241254200002
 30
0.0
 40
0.1999999999999504
100
AcDbArc
 50
171.485521565823
 51
351.485521565823
  0
LINE
  5
BAA
330
BA5
100
AcDbEntity
  8
0
100
AcDbLine
 10
11.65558220186904
 20
-2.403306455734309
 30
0.0
 11
9.440776269158959
 21
-2.734883615802573
 31
0.0
  0
ARC
  5
BAB
330
BA5
100
AcDbEntity
  8
0
100
AcDbCircle
 10
8.753809903480942
 20
-1.523241254200911
 30
0.0
 40
0.1999999999999504
100
AcDbArc
 50
8.514478434176927
 51
188.5144784341769
  0
LINE
  5
BAC
330
BA5
100
AcDbEntity
  8
0
100
AcDbLine
 10
9.5
 20
-3.130475008157191
 30
0.0
 11
9.440776269158959
 21
-2.734883615802573
 31
0.0
  0
ARC
  5
BAD
330
BA5
100
AcDbEntity
  8
0
100
AcDbCircle
 10
11.69999999999891
 20
-2.699999999999818
 30
0.0
 40
0.3
100
AcDbArc
 50
0.0
 51
98.51447843412536
  0
ARC
  5
BAE
330
BA5
100
AcDbEntity
  8
0
100
AcDbCircle
 10
11.69999999999891
 20
2.699999999999818
 30
0.0
 40
0.3
100
AcDbArc
 50
261.4855215658746
 51
0.0
  0
LINE
  5
BAF
330
BA5
100
AcDbEntity
  8
0
100
AcDbLine
 10
11.65558220186904
 20
2.4033064557334
 30
0.0
 11
9.440776269158959
 21
2.734883615801663
 31
0.0
  0
LINE
  5
BB0
330
BA5
100
AcDbEntity
  8
0
100
AcDbLine
 10
8.807715063378054
 20
3.234116537129011
 30
0.0
 11
8.556014207302723
 21
1.552853119620522
 31
0.0
  0
LINE
  5
BB1
330
BA5
100
AcDbEntity
  8
0
100
AcDbLine
 10
9.203306455732672
 20
3.174892806287971
 30
0.0
 11
8.951605599657341
 21
1.493629388779481
 31
0.0
  0
LINE
  5
BB2
330
BA5
100
AcDbEntity
  8
0
100
AcDbLine
 10
6.681411329471302
 20
3.552444090400967
 30
0.0
 11
6.622187598630262
 21
3.15685269804544
 31
0.0
  0
ARC
  5
BB3
330
BA5
100
AcDbEntity
  8
0
100
AcDbCircle
 10
0.2999999999992724
 20
3.800000000000181
 30
0.0
 40
0.3
100
AcDbArc
 50
81.48552156587461
 51
180.0
  0
ARC
  5
BB4
330
BA5
100
AcDbEntity
  8
0
100
AcDbCircle
 10
1.042400829128382
 20
4.699999999999818
 30
0.0
 40
0.8
100
AcDbArc
 50
81.48552156587461
 51
90.0
  0
LINE
  5
BB5
330
BA5
100
AcDbEntity
  8
0
100
AcDbLine
 10
1.5
 20
3.923692082123125
 30
0.0
 11
0.3444177981309622
 21
4.09669354426569
 31
0.0
  0
LINE
  5
BB6
330
BA5
100
AcDbEntity
  8
0
100
AcDbLine
 10
1.5
 20
3.923692082123125
 30
0.0
 11
1.5
 21
3.099999999999454
 31
0.0
  0
LINE
  5
BB7
330
BA5
100
AcDbEntity
  8
0
100
AcDbLine
 10
1.5
 20
3.099999999999454
 30
0.0
 11
2.699999999998908
 21
3.099999999999454
 31
0.0
  0
LINE
  5
BB8
330
BA5
100
AcDbEntity
  8
0
100
AcDbLine
 10
2.699999999998908
 20
3.744040860223321
 30
0.0
 11
2.699999999998908
 21
3.099999999999454
 31
0.0
  0
LINE
  5
BB9
330
BA5
100
AcDbEntity
  8
0
100
AcDbLine
 10
6.622187598630262
 20
3.15685269804544
 30
0.0
 11
2.699999999998908
 21
3.744040860223321
 31
0.0
  0
LINE
  5
BBA
330
BA5
100
AcDbEntity
  8
0
100
AcDbLine
 10
1.5
 20
-3.100000000000363
 30
0.0
 11
2.699999999998908
 21
-3.100000000000363
 31
0.0
  0
LINE
  5
BBB
330
BA5
100
AcDbEntity
  8
0
100
AcDbLine
 10
11.31844746168099
 20
3.970495199198012
 30
0.0
 11
1.160848290810463
 21
5.491182784709053
 31
0.0
  0
LINE
  5
BBC
330
BA5
100
AcDbEntity
  8
0
100
AcDbLine
 10
9.5
 20
3.130475008156281
 30
0.0
 11
6.681411329471302
 21
3.552444090400967
 31
0.0
  0
ARC
  5
BBD
330
BA5
100
AcDbEntity
  8
0
100
AcDbCircle
 10
11.19999999999891
 20
-3.179312414488776
 30
0.0
 40
0.8
100
AcDbArc
 50
278.5144784341254
 51
0.0
  0
LINE
  5
BBE
330
BA5
100
AcDbEntity
  8
0
100
AcDbLine
 10
6.681411329471302
 20
-3.552444090400967
 30
0.0
 11
6.622187598630262
 21
-3.15685269804635
 31
0.0
  0
ARC
  5
BBF
330
BA5
100
AcDbEntity
  8
0
100
AcDbCircle
 10
0.2999999999992724
 20
-3.800000000000181
 30
0.0
 40
0.3
100
AcDbArc
 50
180.0
 51
278.5144784341254
  0
ARC
  5
BC0
330
BA5
100
AcDbEntity
  8
0
100
AcDbCircle
 10
1.042400829128382
 20
-4.699999999999818
 30
0.0
 40
0.8
100
AcDbArc
 50
270.0
 51
278.5144784341254
  0
LINE
  5
BC1
330
BA5
100
AcDbEntity
  8
0
100
AcDbLine
 10
0.3444177981309622
 20
-4.096693544266599
 30
0.0
 11
1.5
 21
-3.923692082124034
 31
0.0
  0
LINE
  5
BC2
330
BA5
100
AcDbEntity
  8
0
100
AcDbLine
 10
6.622187598630262
 20
-3.15685269804635
 30
0.0
 11
2.699999999998908
 21
-3.744040860224231
 31
0.0
  0
LINE
  5
BC3
330
BA5
100
AcDbEntity
  8
0
100
AcDbLine
 10
1.160848290810463
 20
-5.491182784709963
 30
0.0
 11
11.31844746168099
 21
-3.970495199198921
 31
0.0
  0
LINE
  5
BC4
330
BA5
100
AcDbEntity
  8
0
100
AcDbLine
 10
0.0
 20
3.800000000000181
 30
0.0
 11
0.0
 21
-3.800000000000181
 31
0.0
  0
LINE
  5
BC5
330
BA5
100
AcDbEntity
  8
0
100
AcDbLine
 10
12.0
 20
-2.699999999999818
 30
0.0
 11
12.0
 21
-3.179312414488776
 31
0.0
  0
LINE
  5
BC6
330
BA5
100
AcDbEntity
  8
0
100
AcDbLine
 10
2.699999999998908
 20
-3.100000000000363
 30
0.0
 11
2.699999999998908
 21
-3.744040860224231
 31
0.0
  0
LINE
  5
BC7
330
BA5
100
AcDbEntity
  8
0
100
AcDbLine
 10
1.5
 20
-3.100000000000363
 30
0.0
 11
1.5
 21
-3.923692082124034
 31
0.0
  0
LINE
  5
BC8
330
BA5
100
AcDbEntity
  8
0
100
AcDbLine
 10
9.5
 20
-3.130475008157191
 30
0.0
 11
6.681411329471302
 21
-3.552444090400967
 31
0.0
  0
LINE
  5
BC9
330
BA5
100
AcDbEntity
  8
0
100
AcDbLine
 10
9.203306455732672
 20
-3.174892806287971
 30
0.0
 11
8.951605599657341
 21
-1.493629388780391
 31
0.0
  0
LINE
  5
BCA
330
BA5
100
AcDbEntity
  8
0
100
AcDbLine
 10
8.807715063378054
 20
-3.234116537129011
 30
0.0
 11
8.556014207302723
 21
-1.552853119621431
 31
0.0
  0
LINE
  5
BCB
330
BA5
100
AcDbEntity
  8
0
100
AcDbLine
 10
-1.5
 20
5.5
 30
0.0
 11
-3.757359312881817
 21
5.5
 31
0.0
  0
ARC
  5
BCC
330
BA5
100
AcDbEntity
  8
0
100
AcDbCircle
 10
-2.5
 20
3.5
 30
0.0
 40
1.0
100
AcDbArc
 50
0.0
 51
90.0
  0
ARC
  5
BCD
330
BA5
100
AcDbEntity
  8
0
100
AcDbCircle
 10
-3.769781102879278
 20
4.149978862833449
 30
0.0
 40
0.75
100
AcDbArc
 50
47.16775949949599
 51
90.19499109987526
  0
ARC
  5
BCE
330
BA5
100
AcDbEntity
  8
0
100
AcDbCircle
 10
-2.75
 20
5.25
 30
0.0
 40
0.75
100
AcDbArc
 50
227.167759499496
 51
270.0
  0
LINE
  5
BCF
330
BA5
100
AcDbEntity
  8
0
100
AcDbLine
 10
-2.75
 20
4.5
 30
0.0
 11
-2.5
 21
4.5
 31
0.0
  0
LINE
  5
BD0
330
BA5
100
AcDbEntity
  8
0
100
AcDbLine
 10
-7.415254325502246
 20
3.064644661409147
 30
0.0
 11
-6.868629150101696
 21
3.611269837220788
 31
0.0
  0
ARC
  5
BD1
102
{ACAD_REACTORS
330
BEB
102
}
330
BA5
100
AcDbEntity
  8
0
100
AcDbCircle
 10
-7.980939750059405
 20
2.569669913566031
 30
0.0
 40
0.2
100
AcDbArc
 50
45.0000001037625
 51
135.0000000719631
  0
ARC
  5
BD2
330
BA5
100
AcDbEntity
  8
0
100
AcDbCircle
 10
-3.757359312881817
 20
0.5
 30
0.0
 40
5.0
100
AcDbArc
 50
90.0
 51
135.0
  0
ARC
  5
BD3
330
BA5
100
AcDbEntity
  8
0
100
AcDbCircle
 10
-3.757359312881817
 20
0.5
 30
0.0
 40
4.4
100
AcDbArc
 50
90.19499109987526
 51
135.0
  0
ARC
  5
BD4
330
BA5
100
AcDbEntity
  8
0
100
AcDbCircle
 10
-6.814213563102384
 20
0.9786796633270569
 30
0.0
 40
0.75
100
AcDbArc
 50
314.9999999676111
 51
45.0
  0
ARC
  5
BD5
102
{ACAD_REACTORS
330
BEB
102
}
330
BA5
100
AcDbEntity
  8
0
100
AcDbCircle
 10
-6.814213563102384
 20
0.9786796633270569
 30
0.0
 40
0.5
100
AcDbArc
 50
314.9999999676111
 51
45.0
  0
ARC
  5
BD6
330
BA5
100
AcDbEntity
  8
0
100
AcDbCircle
 10
-7.203122291144609
 20
2.852512627053329
 30
0.0
 40
0.3
100
AcDbArc
 50
135.0
 51
225.0000001112794
  0
LINE
  5
BD7
330
BA5
100
AcDbEntity
  8
0
100
AcDbLine
 10
-8.051650430128574
 20
3.276776694619002
 30
0.0
 11
-6.283883477519339
 21
1.509009749524921
 31
0.0
  0
LINE
  5
BD8
102
{ACAD_REACTORS
330
BEB
102
}
330
BA5
100
AcDbEntity
  8
0
100
AcDbLine
 10
-7.839518394079277
 20
2.711091270059114
 30
0.0
 11
-6.460660172508141
 21
1.33223305392039
 31
0.0
  0
ARC
  5
BD9
330
BA5
100
AcDbEntity
  8
0
100
AcDbCircle
 10
-12.57713383280133
 20
-2.521498914058611
 30
0.0
 40
0.3
100
AcDbArc
 50
45.00000003552097
 51
135.0
  0
ARC
  5
BDA
102
{ACAD_REACTORS
330
BEB
102
}
330
BA5
100
AcDbEntity
  8
0
100
AcDbCircle
 10
-12.29429112059733
 20
-1.743681468243266
 30
0.0
 40
0.2
100
AcDbArc
 50
135.0000000660675
 51
225.0000002990173
  0
LINE
  5
BDB
330
BA5
100
AcDbEntity
  8
0
100
AcDbLine
 10
-12.9899494936617
 20
-2.510050506339212
 30
0.0
 11
-12.78926586715715
 21
-2.309366879702793
 31
0.0
  0
LINE
  5
BDC
330
BA5
100
AcDbEntity
  8
0
100
AcDbLine
 10
-13.41421356237333
 20
-2.085786437626666
 30
0.0
 11
-7.292893218815152
 21
4.035533905932425
 31
0.0
  0
LINE
  5
BDD
102
{ACAD_REACTORS
330
BEB
102
}
330
BA5
100
AcDbEntity
  8
0
100
AcDbLine
 10
-12.43571247699765
 20
-1.602260112168551
 30
0.0
 11
-8.122361106474272
 21
2.711091269625285
 31
0.0
  0
ARC
  5
BDE
330
BA5
100
AcDbEntity
  8
0
100
AcDbCircle
 10
-2.5
 20
-3.5
 30
0.0
 40
1.0
100
AcDbArc
 50
270.0
 51
0.0
  0
ARC
  5
BDF
330
BA5
100
AcDbEntity
  8
0
100
AcDbCircle
 10
-7.519803902720013
 20
-4.150000000000545
 30
0.0
 40
0.75
100
AcDbArc
 50
270.0
 51
312.8334280660476
  0
ARC
  5
BE0
330
BA5
100
AcDbEntity
  8
0
100
AcDbCircle
 10
-6.5
 20
-5.25
 30
0.0
 40
0.75
100
AcDbArc
 50
90.0
 51
132.8334280660476
  0
LINE
  5
BE1
330
BA5
100
AcDbEntity
  8
0
100
AcDbLine
 10
-2.5
 20
-4.5
 30
0.0
 11
-6.5
 21
-4.5
 31
0.0
  0
ARC
  5
BE2
330
BA5
100
AcDbEntity
  8
0
100
AcDbCircle
 10
-10.7033008647486
 20
-2.910407640086305
 30
0.0
 40
0.75
100
AcDbArc
 50
225.0
 51
315.0
  0
ARC
  5
BE3
102
{ACAD_REACTORS
330
BEB
102
}
330
BA5
100
AcDbEntity
  8
0
100
AcDbCircle
 10
-10.7033008647486
 20
-2.910407640086305
 30
0.0
 40
0.5
100
AcDbArc
 50
225.0
 51
315.0
  0
LINE
  5
BE4
330
BA5
100
AcDbEntity
  8
0
100
AcDbLine
 10
-1.5
 20
-5.5
 30
0.0
 11
-12.0
 21
-5.5
 31
0.0
  0
LINE
  5
BE5
330
BA5
100
AcDbEntity
  8
0
100
AcDbLine
 10
-7.519803902720013
 20
-4.900000000000545
 30
0.0
 11
-12.0
 21
-4.900000000000545
 31
0.0
  0
ARC
  5
BE6
330
BA5
100
AcDbEntity
  8
0
100
AcDbCircle
 10
-12.0
 20
-3.5
 30
0.0
 40
2.0
100
AcDbArc
 50
135.0
 51
270.0
  0
LINE
  5
BE7
330
BA5
100
AcDbEntity
  8
0
100
AcDbLine
 10
-10.17297077881812
 20
-3.440737725935832
 30
0.0
 11
-6.283883477372
 21
0.4483495772774404
 31
0.0
  0
ARC
  5
BE8
330
BA5
100
AcDbEntity
  8
0
100
AcDbCircle
 10
-12.0
 20
-3.5
 30
0.0
 40
1.399999999999999
100
AcDbArc
 50
135.0
 51
270.0
  0
LINE
  5
BE9
330
BA5
100
AcDbEntity
  8
0
100
AcDbLine
 10
-13.00139790187859
 20
-1.672970777132832
 30
0.0
 11
-11.23363095093009
 21
-3.440737725682993
 31
0.0
  0
LINE
  5
BEA
330
BA5
100
AcDbEntity
  8
0
100
AcDbLine
 10
-1.5
 20
3.5
 30
0.0
 11
-1.5
 21
-3.5
 31
0.0
  0
HATCH
  5
BEB
330
BA5
100
AcDbEntity
  8
0
100
AcDbHatch
 10
0.0
 20
0.0
 30
0.0
210
0.0
220
0.0
230
1.0
  2
ANSI31
 70
     0
 71
     1
 91
        1
 92
        7
 72
     1
 73
     1
 93
        8
 10
-6.460660173204814
 20
1.332233054616153
 42
0.0
 10
-7.839518394101105
 20
2.711091270081851
 42
0.414213562178905
 10
-8.122361106481548
 20
2.711091269618009
 42
0.0
 10
-12.43571247701766
 20
-1.602260112190379
 42
0.4142135636146872
 10
-12.43571247604996
 20
-1.885102825264766
 42
0.0
 10
-11.05685425338015
 20
-3.263961032639599
 42
0.4142135608152901
 10
-10.34974747407432
 20
-3.263961030598693
 42
0.0
 10
-6.460660172428106
 20
0.625126272813759
 42
0.4142135628833784
 97
        8
330
BD8
330
BD1
330
BDD
330
BDA
330
BED
330
BE3
330
BEC
330
BD5
 75
     0
 76
     1
 52
45.0
 41
0.25
 77
     0
 78
     1
 53
90.0
 43
-276.1145346408611
 44
-395.2719013892401
 45
-0.79375
 46
0.0000000000000002
 79
     0
 47
0.0364805528584695
 98
        1
 10
-7.399477738399582
 20
0.8532363732892918
  0
LINE
  5
BEC
102
{ACAD_REACTORS
330
BEB
102
}
330
BA5
100
AcDbEntity
  8
0
100
AcDbLine
 10
-10.34974747415435
 20
-3.263961030678729
 30
0.0
 11
-6.46066017270823
 21
0.6251262725336347
 31
0.0
  0
LINE
  5
BED
102
{ACAD_REACTORS
330
BEB
102
}
330
BA5
100
AcDbEntity
  8
0
100
AcDbLine
 10
-12.43571247609543
 20
-1.885102825218382
 30
0.0
 11
-11.05685425534102
 21
-3.263961030678729
 31
0.0
  0
LINE
  5
BEE
330
BA5
100
AcDbEntity
  8
0
100
AcDbLine
 10
-1.5
 20
5.5
 30
0.0
 11
1.042400829128382
 21
5.5
 31
0.0
  0
LINE
  5
BEF
330
BA5
100
AcDbEntity
  8
0
100
AcDbLine
 10
-1.5
 20
-5.5
 30
0.0
 11
1.042400829128382
 21
-5.5
 31
0.0
  0
ENDBLK
  5
BF1
330
BA5
100
AcDbEntity
  8
0
 62
     4
100
AcDbBlockEnd
  0
BLOCK
  5
21D1
330
21C7
100
AcDbEntity
  8
0
100
AcDbBlockBegin
  2
*D8
 70
     1
 10
0.0
 20
0.0
 30
0.0
  3
*D8
  1

  0
LINE
  5
256E
330
21C7
100
AcDbEntity
  8
quote
100
AcDbLine
 10
614.2289381538823
 20
1717.360559323643
 30
0.0
 11
608.5916799665674
 21
1717.360559323643
 31
0.0
  0
LINE
  5
256F
330
21C7
100
AcDbEntity
  8
quote
100
AcDbLine
 10
614.2289381538826
 20
1533.360559323643
 30
0.0
 11
608.5916799665674
 21
1533.360559323643
 31
0.0
  0
LINE
  5
2570
330
21C7
100
AcDbEntity
  8
quote
100
AcDbLine
 10
609.5916799665674
 20
1715.360559323643
 30
0.0
 11
609.5916799665674
 21
1535.360559323643
 31
0.0
  0
SOLID
  5
2571
330
21C7
100
AcDbEntity
  8
quote
100
AcDbTrace
 10
609.2583466332341
 20
1715.360559323643
 30
0.0
 11
609.9250132999007
 21
1715.360559323643
 31
0.0
 12
609.5916799665674
 22
1717.360559323643
 32
0.0
 13
609.5916799665674
 23
1717.360559323643
 33
0.0
  0
SOLID
  5
2572
330
21C7
100
AcDbEntity
  8
quote
100
AcDbTrace
 10
609.2583466332341
 20
1535.360559323643
 30
0.0
 11
609.9250132999007
 21
1535.360559323643
 31
0.0
 12
609.5916799665674
 22
1533.360559323643
 32
0.0
 13
609.5916799665674
 23
1533.360559323643
 33
0.0
  0
MTEXT
  5
2573
330
21C7
100
AcDbEntity
  8
quote
100
AcDbMText
 10
607.5460117328533
 20
1625.360559323643
 30
0.0
 40
2.0
 41
0.0
 71
     5
 72
     1
  1
1840
  7
SANINDUSA
 11
0.0000000000000001
 21
1.0
 31
0.0
 73
     1
 44
1.0
1001
ACAD
1000
MTEXTBEGIN
1070
    73
1070
     1
1070
    44
1040
1.0
1070
    74
1070
     0
1000
MTEXTEND
  0
POINT
  5
2574
330
21C7
100
AcDbEntity
  8
Defpoints
 62
     0
100
AcDbPoint
 10
615.2289381538824
 20
1717.360559323643
 30
0.0
  0
POINT
  5
2575
330
21C7
100
AcDbEntity
  8
Defpoints
 62
     0
100
AcDbPoint
 10
615.2289381538825
 20
1533.360559323643
 30
0.0
  0
POINT
  5
2576
330
21C7
100
AcDbEntity
  8
Defpoints
 62
     0
100
AcDbPoint
 10
609.5916799665674
 20
1533.360559323643
 30
0.0
  0
ENDBLK
  5
21D2
330
21C7
100
AcDbEntity
  8
0
100
AcDbBlockEnd
  0
BLOCK
  5
21DD
330
21D3
100
AcDbEntity
  8
0
100
AcDbBlockBegin
  2
*D9
 70
     1
 10
0.0
 20
0.0
 30
0.0
  3
*D9
  1

  0
LINE
  5
2580
330
21D3
100
AcDbEntity
  8
quote
100
AcDbLine
 10
637.051054459437
 20
1717.360559323639
 30
0.0
 11
643.051054459437
 21
1717.360559323639
 31
0.0
  0
LINE
  5
2581
330
21D3
100
AcDbEntity
  8
quote
100
AcDbLine
 10
637.6980400860771
 20
1532.360559323643
 30
0.0
 11
643.051054459437
 21
1532.360559323643
 31
0.0
  0
LINE
  5
2582
330
21D3
100
AcDbEntity
  8
quote
100
AcDbLine
 10
642.051054459437
 20
1715.360559323639
 30
0.0
 11
642.051054459437
 21
1534.360559323643
 31
0.0
  0
SOLID
  5
2583
330
21D3
100
AcDbEntity
  8
quote
100
AcDbTrace
 10
641.7177211261036
 20
1715.360559323639
 30
0.0
 11
642.3843877927704
 21
1715.360559323639
 31
0.0
 12
642.051054459437
 22
1717.360559323639
 32
0.0
 13
642.051054459437
 23
1717.360559323639
 33
0.0
  0
SOLID
  5
2584
330
21D3
100
AcDbEntity
  8
quote
100
AcDbTrace
 10
641.7177211261036
 20
1534.360559323643
 30
0.0
 11
642.3843877927704
 21
1534.360559323643
 31
0.0
 12
642.051054459437
 22
1532.360559323643
 32
0.0
 13
642.051054459437
 23
1532.360559323643
 33
0.0
  0
MTEXT
  5
2585
330
21D3
100
AcDbEntity
  8
quote
100
AcDbMText
 10
640.0053862257229
 20
1624.860559323641
 30
0.0
 40
2.0
 41
0.0
 71
     5
 72
     1
  1
1850
  7
SANINDUSA
 11
0.0000000000000001
 21
1.0
 31
0.0
 73
     1
 44
1.0
1001
ACAD
1000
MTEXTBEGIN
1070
    73
1070
     1
1070
    44
1040
1.0
1070
    74
1070
     0
1000
MTEXTEND
  0
POINT
  5
2586
330
21D3
100
AcDbEntity
  8
Defpoints
 62
     0
100
AcDbPoint
 10
636.0510544594371
 20
1717.360559323639
 30
0.0
  0
POINT
  5
2587
330
21D3
100
AcDbEntity
  8
Defpoints
 62
     0
100
AcDbPoint
 10
636.6980400860771
 20
1532.360559323643
 30
0.0
  0
POINT
  5
2588
330
21D3
100
AcDbEntity
  8
Defpoints
 62
     0
100
AcDbPoint
 10
642.051054459437
 20
1532.360559323643
 30
0.0
  0
ENDBLK
  5
21DE
330
21D3
100
AcDbEntity
  8
0
100
AcDbBlockEnd
  0
BLOCK
  5
21EB
330
21DF
100
AcDbEntity
  8
0
100
AcDbBlockBegin
  2
*D10
 70
     1
 10
0.0
 20
0.0
 30
0.0
  3
*D10
  1

  0
LINE
  5
2563
330
21DF
100
AcDbEntity
  8
quote
100
AcDbLine
 10
601.7631268131264
 20
1533.360559323643
 30
0.0
 11
596.5916799665674
 21
1533.360559323643
 31
0.0
  0
LINE
  5
2564
330
21DF
100
AcDbEntity
  8
quote
100
AcDbLine
 10
604.5419613060009
 20
1532.360559323643
 30
0.0
 11
596.5916799665674
 21
1532.360559323643
 31
0.0
  0
LINE
  5
2565
330
21DF
100
AcDbEntity
  8
quote
100
AcDbLine
 10
597.5916799665674
 20
1535.360559323643
 30
0.0
 11
597.5916799665674
 21
1537.360559323643
 31
0.0
  0
LINE
  5
2566
330
21DF
100
AcDbEntity
  8
quote
100
AcDbLine
 10
597.5916799665674
 20
1530.360559323643
 30
0.0
 11
597.5916799665674
 21
1523.417644615785
 31
0.0
  0
LINE
  5
2567
330
21DF
100
AcDbEntity
  8
quote
100
AcDbLine
 10
597.5916799665674
 20
1533.360559323643
 30
0.0
 11
597.5916799665674
 21
1532.360559323643
 31
0.0
  0
SOLID
  5
2568
330
21DF
100
AcDbEntity
  8
quote
100
AcDbTrace
 10
597.258346633234
 20
1535.360559323643
 30
0.0
 11
597.9250132999007
 21
1535.360559323643
 31
0.0
 12
597.5916799665674
 22
1533.360559323643
 32
0.0
 13
597.5916799665674
 23
1533.360559323643
 33
0.0
  0
SOLID
  5
2569
330
21DF
100
AcDbEntity
  8
quote
100
AcDbTrace
 10
597.258346633234
 20
1530.360559323643
 30
0.0
 11
597.9250132999007
 21
1530.360559323643
 31
0.0
 12
597.5916799665674
 22
1532.360559323643
 32
0.0
 13
597.5916799665674
 23
1532.360559323643
 33
0.0
  0
MTEXT
  5
256A
330
21DF
100
AcDbEntity
  8
quote
100
AcDbMText
 10
595.5507128745591
 20
1525.889101969714
 30
0.0
 40
2.0
 41
0.0
 71
     5
 72
     1
  1
10
  7
SANINDUSA
 11
0.0000000000000001
 21
1.0
 31
0.0
 73
     1
 44
1.0
1001
ACAD
1000
MTEXTBEGIN
1070
    73
1070
     1
1070
    44
1040
1.0
1070
    74
1070
     0
1000
MTEXTEND
  0
POINT
  5
256B
330
21DF
100
AcDbEntity
  8
Defpoints
 62
     0
100
AcDbPoint
 10
602.7631268131264
 20
1533.360559323643
 30
-0.0000001793795719
  0
POINT
  5
256C
330
21DF
100
AcDbEntity
  8
Defpoints
 62
     0
100
AcDbPoint
 10
605.541961306001
 20
1532.360559323643
 30
0.0
  0
POINT
  5
256D
330
21DF
100
AcDbEntity
  8
Defpoints
 62
     0
100
AcDbPoint
 10
597.5916799665674
 20
1532.360559323643
 30
0.0
  0
ENDBLK
  5
21EC
330
21DF
100
AcDbEntity
  8
0
100
AcDbBlockEnd
  0
BLOCK
  5
21F7
330
21ED
100
AcDbEntity
  8
0
100
AcDbBlockBegin
  2
*D11
 70
     1
 10
0.0
 20
0.0
 30
0.0
  3
*D11
  1

  0
LINE
  5
255A
330
21ED
100
AcDbEntity
  8
quote
100
AcDbLine
 10
598.5916799665674
 20
1561.860559323643
 30
0.0
 11
604.5916799665674
 21
1561.860559323643
 31
0.0
  0
LINE
  5
255B
330
21ED
100
AcDbEntity
  8
quote
100
AcDbLine
 10
600.8215300383977
 20
1533.360559323643
 30
0.0
 11
604.5916799665674
 21
1533.360559323643
 31
0.0
  0
LINE
  5
255C
330
21ED
100
AcDbEntity
  8
quote
100
AcDbLine
 10
603.5916799665674
 20
1559.860559323643
 30
0.0
 11
603.5916799665674
 21
1535.360559323643
 31
0.0
  0
SOLID
  5
255D
330
21ED
100
AcDbEntity
  8
quote
100
AcDbTrace
 10
603.258346633234
 20
1559.860559323643
 30
0.0
 11
603.9250132999008
 21
1559.860559323643
 31
0.0
 12
603.5916799665674
 22
1561.860559323643
 32
0.0
 13
603.5916799665674
 23
1561.860559323643
 33
0.0
  0
SOLID
  5
255E
330
21ED
100
AcDbEntity
  8
quote
100
AcDbTrace
 10
603.258346633234
 20
1535.360559323643
 30
0.0
 11
603.9250132999008
 21
1535.360559323643
 31
0.0
 12
603.5916799665674
 22
1533.360559323643
 32
0.0
 13
603.5916799665674
 23
1533.360559323643
 33
0.0
  0
MTEXT
  5
255F
330
21ED
100
AcDbEntity
  8
quote
100
AcDbMText
 10
601.5460117328533
 20
1547.610559323643
 30
0.0
 40
2.0
 41
0.0
 71
     5
 72
     1
  1
285
  7
SANINDUSA
 11
0.0000000000000001
 21
1.0
 31
0.0
 73
     1
 44
1.0
1001
ACAD
1000
MTEXTBEGIN
1070
    73
1070
     1
1070
    44
1040
1.0
1070
    74
1070
     0
1000
MTEXTEND
  0
POINT
  5
2560
330
21ED
100
AcDbEntity
  8
Defpoints
 62
     0
100
AcDbPoint
 10
597.5916799665674
 20
1561.860559323643
 30
-0.0000001793795719
  0
POINT
  5
2561
330
21ED
100
AcDbEntity
  8
Defpoints
 62
     0
100
AcDbPoint
 10
599.8215300383978
 20
1533.360559323643
 30
-0.0000001793795719
  0
POINT
  5
2562
330
21ED
100
AcDbEntity
  8
Defpoints
 62
     0
100
AcDbPoint
 10
603.5916799665674
 20
1533.360559323643
 30
0.0
  0
ENDBLK
  5
21F8
330
21ED
100
AcDbEntity
  8
0
100
AcDbBlockEnd
  0
BLOCK
  5
2203
330
21F9
100
AcDbEntity
  8
0
100
AcDbBlockBegin
  2
*D12
 70
     1
 10
0.0
 20
0.0
 30
0.0
  3
*D12
  1

  0
LINE
  5
2577
330
21F9
100
AcDbEntity
  8
quote
100
AcDbLine
 10
567.8810196628062
 20
1561.860559323643
 30
0.0
 11
554.9710544594371
 21
1561.860559323643
 31
0.0
  0
LINE
  5
2578
330
21F9
100
AcDbEntity
  8
quote
100
AcDbLine
 10
560.9710544594372
 20
1532.360559323643
 30
0.0
 11
554.9710544594371
 21
1532.360559323643
 31
0.0
  0
LINE
  5
2579
330
21F9
100
AcDbEntity
  8
quote
100
AcDbLine
 10
555.9710544594371
 20
1559.860559323643
 30
0.0
 11
555.9710544594371
 21
1534.360559323643
 31
0.0
  0
SOLID
  5
257A
330
21F9
100
AcDbEntity
  8
quote
100
AcDbTrace
 10
555.6377211261037
 20
1559.860559323643
 30
0.0
 11
556.3043877927705
 21
1559.860559323643
 31
0.0
 12
555.9710544594371
 22
1561.860559323643
 32
0.0
 13
555.9710544594371
 23
1561.860559323643
 33
0.0
  0
SOLID
  5
257B
330
21F9
100
AcDbEntity
  8
quote
100
AcDbTrace
 10
555.6377211261037
 20
1534.360559323643
 30
0.0
 11
556.3043877927705
 21
1534.360559323643
 31
0.0
 12
555.9710544594371
 22
1532.360559323643
 32
0.0
 13
555.9710544594371
 23
1532.360559323643
 33
0.0
  0
MTEXT
  5
257C
330
21F9
100
AcDbEntity
  8
quote
100
AcDbMText
 10
553.9294157757566
 20
1547.110559323643
 30
0.0
 40
2.0
 41
0.0
 71
     5
 72
     1
  1
295
  7
SANINDUSA
 11
0.0000000000000001
 21
1.0
 31
0.0
 73
     1
 44
1.0
1001
ACAD
1000
MTEXTBEGIN
1070
    73
1070
     1
1070
    44
1040
1.0
1070
    74
1070
     0
1000
MTEXTEND
  0
POINT
  5
257D
330
21F9
100
AcDbEntity
  8
Defpoints
 62
     0
100
AcDbPoint
 10
568.8810196628062
 20
1561.860559323643
 30
-0.0000001793795719
  0
POINT
  5
257E
330
21F9
100
AcDbEntity
  8
Defpoints
 62
     0
100
AcDbPoint
 10
561.9710544594372
 20
1532.360559323643
 30
0.0
  0
POINT
  5
257F
330
21F9
100
AcDbEntity
  8
Defpoints
 62
     0
100
AcDbPoint
 10
555.9710544594371
 20
1532.360559323643
 30
0.0
  0
ENDBLK
  5
2204
330
21F9
100
AcDbEntity
  8
0
100
AcDbBlockEnd
  0
BLOCK
  5
220F
330
2205
100
AcDbEntity
  8
0
100
AcDbBlockBegin
  2
*D13
 70
     1
 10
0.0
 20
0.0
 30
0.0
  3
*D13
  1

  0
LINE
  5
259B
330
2205
100
AcDbEntity
  8
quote
100
AcDbLine
 10
560.9710544594371
 20
1717.360559323643
 30
0.0
 11
554.971054459437
 21
1717.360559323643
 31
0.0
  0
LINE
  5
259C
330
2205
100
AcDbEntity
  8
quote
100
AcDbLine
 10
567.6648293271536
 20
1687.860559322676
 30
0.0
 11
554.971054459437
 21
1687.860559322676
 31
0.0
  0
LINE
  5
259D
330
2205
100
AcDbEntity
  8
quote
100
AcDbLine
 10
555.971054459437
 20
1715.360559323643
 30
0.0
 11
555.971054459437
 21
1689.860559322676
 31
0.0
  0
SOLID
  5
259E
330
2205
100
AcDbEntity
  8
quote
100
AcDbTrace
 10
555.6377211261036
 20
1715.360559323643
 30
0.0
 11
556.3043877927704
 21
1715.360559323643
 31
0.0
 12
555.971054459437
 22
1717.360559323643
 32
0.0
 13
555.971054459437
 23
1717.360559323643
 33
0.0
  0
SOLID
  5
259F
330
2205
100
AcDbEntity
  8
quote
100
AcDbTrace
 10
555.6377211261036
 20
1689.860559322676
 30
0.0
 11
556.3043877927704
 21
1689.860559322676
 31
0.0
 12
555.971054459437
 22
1687.860559322676
 32
0.0
 13
555.971054459437
 23
1687.860559322676
 33
0.0
  0
MTEXT
  5
25A0
330
2205
100
AcDbEntity
  8
quote
100
AcDbMText
 10
553.9294157757565
 20
1702.61055932316
 30
0.0
 40
2.0
 41
0.0
 71
     5
 72
     1
  1
295
  7
SANINDUSA
 11
0.0000000000000001
 21
1.0
 31
0.0
 73
     1
 44
1.0
1001
ACAD
1000
MTEXTBEGIN
1070
    73
1070
     1
1070
    44
1040
1.0
1070
    74
1070
     0
1000
MTEXTEND
  0
POINT
  5
25A1
330
2205
100
AcDbEntity
  8
Defpoints
 62
     0
100
AcDbPoint
 10
561.9710544594371
 20
1717.360559323643
 30
0.0000001793827793
  0
POINT
  5
25A2
330
2205
100
AcDbEntity
  8
Defpoints
 62
     0
100
AcDbPoint
 10
568.6648293271537
 20
1687.860559322676
 30
0.0000000000032074
  0
POINT
  5
25A3
330
2205
100
AcDbEntity
  8
Defpoints
 62
     0
100
AcDbPoint
 10
555.971054459437
 20
1687.860559322676
 30
0.0
  0
ENDBLK
  5
2210
330
2205
100
AcDbEntity
  8
0
100
AcDbBlockEnd
  0
BLOCK
  5
221B
330
2211
100
AcDbEntity
  8
0
100
AcDbBlockBegin
  2
*D14
 70
     1
 10
0.0
 20
0.0
 30
0.0
  3
*D14
  1

  0
LINE
  5
2589
330
2211
100
AcDbEntity
  8
quote
100
AcDbLine
 10
633.3710544594371
 20
1718.360559323643
 30
0.0
 11
633.3710544594371
 21
1724.360559323639
 31
0.0
  0
LINE
  5
258A
330
2211
100
AcDbEntity
  8
quote
100
AcDbLine
 10
583.3710544594372
 20
1718.360559323643
 30
0.0
 11
583.3710544594372
 21
1724.360559323639
 31
0.0
  0
LINE
  5
258B
330
2211
100
AcDbEntity
  8
quote
100
AcDbLine
 10
631.3710544594371
 20
1723.360559323639
 30
0.0
 11
585.3710544594372
 21
1723.360559323639
 31
0.0
  0
SOLID
  5
258C
330
2211
100
AcDbEntity
  8
quote
100
AcDbTrace
 10
631.3710544594371
 20
1723.693892656972
 30
0.0
 11
631.3710544594371
 21
1723.027225990305
 31
0.0
 12
633.3710544594371
 22
1723.360559323639
 32
0.0
 13
633.3710544594371
 23
1723.360559323639
 33
0.0
  0
SOLID
  5
258D
330
2211
100
AcDbEntity
  8
quote
100
AcDbTrace
 10
585.3710544594372
 20
1723.693892656972
 30
0.0
 11
585.3710544594372
 21
1723.027225990305
 31
0.0
 12
583.3710544594372
 22
1723.360559323639
 32
0.0
 13
583.3710544594372
 23
1723.360559323639
 33
0.0
  0
MTEXT
  5
258E
330
2211
100
AcDbEntity
  8
quote
100
AcDbMText
 10
608.3710544594371
 20
1725.401526415646
 30
0.0
 40
2.0
 41
0.0
 71
     5
 72
     1
  1
500
  7
SANINDUSA
 73
     1
 44
1.0
1001
ACAD
1000
MTEXTBEGIN
1070
    73
1070
     1
1070
    44
1040
1.0
1070
    74
1070
     0
1000
MTEXTEND
  0
POINT
  5
258F
330
2211
100
AcDbEntity
  8
Defpoints
 62
     0
100
AcDbPoint
 10
633.3710544594371
 20
1717.360559323643
 30
0.0
  0
POINT
  5
2590
330
2211
100
AcDbEntity
  8
Defpoints
 62
     0
100
AcDbPoint
 10
583.3710544594372
 20
1717.360559323643
 30
0.0
  0
POINT
  5
2591
330
2211
100
AcDbEntity
  8
Defpoints
 62
     0
100
AcDbPoint
 10
583.3710544594372
 20
1723.360559323639
 30
0.0
  0
ENDBLK
  5
221C
330
2211
100
AcDbEntity
  8
0
100
AcDbBlockEnd
  0
BLOCK
  5
2235
330
222B
100
AcDbEntity
  8
0
100
AcDbBlockBegin
  2
*D15
 70
     1
 10
0.0
 20
0.0
 30
0.0
  3
*D15
  1

  0
LINE
  5
2592
330
222B
100
AcDbEntity
  8
quote
100
AcDbLine
 10
583.0710544594372
 20
1718.360559323643
 30
0.0
 11
583.0710544594372
 21
1724.360559323639
 31
0.0
  0
LINE
  5
2593
330
222B
100
AcDbEntity
  8
quote
100
AcDbLine
 10
561.9710544594371
 20
1718.360559323643
 30
0.0
 11
561.9710544594371
 21
1724.360559323639
 31
0.0
  0
LINE
  5
2594
330
222B
100
AcDbEntity
  8
quote
100
AcDbLine
 10
581.0710544594371
 20
1723.360559323639
 30
0.0
 11
563.9710544594371
 21
1723.360559323639
 31
0.0
  0
SOLID
  5
2595
330
222B
100
AcDbEntity
  8
quote
100
AcDbTrace
 10
581.0710544594371
 20
1723.693892656972
 30
0.0
 11
581.0710544594371
 21
1723.027225990305
 31
0.0
 12
583.0710544594372
 22
1723.360559323639
 32
0.0
 13
583.0710544594372
 23
1723.360559323639
 33
0.0
  0
SOLID
  5
2596
330
222B
100
AcDbEntity
  8
quote
100
AcDbTrace
 10
563.9710544594371
 20
1723.693892656972
 30
0.0
 11
563.9710544594371
 21
1723.027225990305
 31
0.0
 12
561.9710544594371
 22
1723.360559323639
 32
0.0
 13
561.9710544594371
 23
1723.360559323639
 33
0.0
  0
MTEXT
  5
2597
330
222B
100
AcDbEntity
  8
quote
100
AcDbMText
 10
572.5210544594371
 20
1725.381378665479
 30
0.0
 40
2.0
 41
0.0
 71
     5
 72
     1
  1
211
  7
SANINDUSA
 73
     1
 44
1.0
1001
ACAD
1000
MTEXTBEGIN
1070
    73
1070
     1
1070
    44
1040
1.0
1070
    74
1070
     0
1000
MTEXTEND
  0
POINT
  5
2598
330
222B
100
AcDbEntity
  8
Defpoints
 62
     0
100
AcDbPoint
 10
583.0710544594372
 20
1717.360559323642
 30
0.0
  0
POINT
  5
2599
330
222B
100
AcDbEntity
  8
Defpoints
 62
     0
100
AcDbPoint
 10
561.9710544594371
 20
1717.360559323643
 30
0.0
  0
POINT
  5
259A
330
222B
100
AcDbEntity
  8
Defpoints
 62
     0
100
AcDbPoint
 10
561.9710544594371
 20
1723.360559323639
 30
0.0
  0
ENDBLK
  5
2236
330
222B
100
AcDbEntity
  8
0
100
AcDbBlockEnd
  0
BLOCK
  5
27A2
330
2798
100
AcDbEntity
  8
0
100
AcDbBlockBegin
  2
*D16
 70
     1
 10
0.0
 20
0.0
 30
0.0
  3
*D16
  1

  0
ARC
  5
289B
330
2798
100
AcDbEntity
  8
hid
100
AcDbCircle
 10
585.2607317431341
 20
1501.433782175026
 30
0.0
 40
35.21398163085639
100
AcDbArc
 50
273.2545869878173
 51
356.7454130121825
  0
SOLID
  5
289C
330
2798
100
AcDbEntity
  8
hid
100
AcDbTrace
 10
587.2693910818542
 20
1465.943397266181
 30
0.0
 11
587.2504592077578
 21
1466.609795066738
 31
0.0
 12
585.2607317431339
 22
1466.21980054417
 32
0.0
 13
585.2607317431339
 23
1466.21980054417
 33
0.0
  0
SOLID
  5
289D
330
2798
100
AcDbEntity
  8
hid
100
AcDbTrace
 10
620.0847188514227
 20
1499.444054710403
 30
0.0
 11
620.75111665198
 21
1499.425122836306
 31
0.0
 12
620.4747133739904
 22
1501.433782175026
 32
0.0
 13
620.4747133739904
 23
1501.433782175026
 33
0.0
  0
MTEXT
  5
289E
102
{ACAD_XDICTIONARY
360
29DC
102
}
330
2798
100
AcDbEntity
  8
hid
100
AcDbMText
 10
608.55660857426
 20
1478.137905343901
 30
0.0
 40
2.0
 41
0.0
 71
     5
 72
     1
  1
90,0\U+00B0
  7
SANINDUSA
 11
0.7071067811865476
 21
0.7071067811865475
 31
0.0
 73
     1
 44
1.0
1001
ACAD
1000
MTEXTBEGIN
1070
    73
1070
     1
1070
    44
1040
1.0
1070
    74
1070
     0
1000
MTEXTEND
  0
POINT
  5
289F
330
2798
100
AcDbEntity
  8
Defpoints
 62
     0
100
AcDbPoint
 10
602.8677225585623
 20
1470.937579514306
 30
0.0
  0
POINT
  5
28A0
330
2798
100
AcDbEntity
  8
Defpoints
 62
     0
100
AcDbPoint
 10
585.2607317431339
 20
1500.143776564709
 30
0.0
  0
POINT
  5
28A1
330
2798
100
AcDbEntity
  8
Defpoints
 62
     0
100
AcDbPoint
 10
583.6707261328168
 20
1501.433782175026
 30
0.0
  0
POINT
  5
28A2
330
2798
100
AcDbEntity
  8
Defpoints
 62
     0
100
AcDbPoint
 10
633.6937412847182
 20
1501.433782175026
 30
0.0
  0
POINT
  5
28A3
330
2798
100
AcDbEntity
  8
Defpoints
 62
     0
100
AcDbPoint
 10
585.2607317431339
 20
1450.120761412807
 30
0.0
  0
ENDBLK
  5
27A3
330
2798
100
AcDbEntity
  8
0
100
AcDbBlockEnd
  0
BLOCK
  5
27BC
330
27B2
100
AcDbEntity
  8
0
100
AcDbBlockBegin
  2
*D17
 70
     1
 10
0.0
 20
0.0
 30
0.0
  3
*D17
  1

  0
LINE
  5
28B6
330
27B2
100
AcDbEntity
  8
quote
100
AcDbLine
 10
583.4207261328169
 20
1502.433781794067
 30
0.0
 11
583.4207261328169
 21
1513.880738448463
 31
0.0
  0
LINE
  5
28B7
330
27B2
100
AcDbEntity
  8
quote
100
AcDbLine
 10
562.021054459437
 20
1501.211132270572
 30
0.0
 11
562.021054459437
 21
1513.880738448463
 31
0.0
  0
LINE
  5
28B8
330
27B2
100
AcDbEntity
  8
quote
100
AcDbLine
 10
581.4207261328168
 20
1512.880738448463
 30
0.0
 11
564.0210544594371
 21
1512.880738448463
 31
0.0
  0
SOLID
  5
28B9
330
27B2
100
AcDbEntity
  8
quote
100
AcDbTrace
 10
581.4207261328168
 20
1513.214071781796
 30
0.0
 11
581.4207261328168
 21
1512.54740511513
 31
0.0
 12
583.4207261328169
 22
1512.880738448463
 32
0.0
 13
583.4207261328169
 23
1512.880738448463
 33
0.0
  0
SOLID
  5
28BA
330
27B2
100
AcDbEntity
  8
quote
100
AcDbTrace
 10
564.0210544594371
 20
1513.214071781796
 30
0.0
 11
564.0210544594371
 21
1512.54740511513
 31
0.0
 12
562.021054459437
 22
1512.880738448463
 32
0.0
 13
562.021054459437
 23
1512.880738448463
 33
0.0
  0
MTEXT
  5
28BB
330
27B2
100
AcDbEntity
  8
quote
100
AcDbMText
 10
572.720890296127
 20
1514.901557790303
 30
0.0
 40
2.0
 41
0.0
 71
     5
 72
     1
  1
214
  7
SANINDUSA
 73
     1
 44
1.0
1001
ACAD
1000
MTEXTBEGIN
1070
    73
1070
     1
1070
    44
1040
1.0
1070
    74
1070
     0
1000
MTEXTEND
  0
POINT
  5
28BC
330
27B2
100
AcDbEntity
  8
Defpoints
 62
     0
100
AcDbPoint
 10
583.4207261328169
 20
1501.433781794067
 30
0.0000000100996354
  0
POINT
  5
28BD
330
27B2
100
AcDbEntity
  8
Defpoints
 62
     0
100
AcDbPoint
 10
562.021054459437
 20
1500.211132270571
 30
-0.0000000054558615
  0
POINT
  5
28BE
330
27B2
100
AcDbEntity
  8
Defpoints
 62
     0
100
AcDbPoint
 10
562.021054459437
 20
1512.880738448463
 30
0.0
  0
ENDBLK
  5
27BD
330
27B2
100
AcDbEntity
  8
0
100
AcDbBlockEnd
  0
BLOCK
  5
27C8
330
27BE
100
AcDbEntity
  8
0
100
AcDbBlockBegin
  2
*D18
 70
     1
 10
0.0
 20
0.0
 30
0.0
  3
*D18
  1

  0
LINE
  5
28AD
330
27BE
100
AcDbEntity
  8
quote
100
AcDbLine
 10
566.5182568354277
 20
1502.433781794067
 30
0.0
 11
566.5182568354277
 21
1508.444688376526
 31
0.0
  0
LINE
  5
28AE
330
27BE
100
AcDbEntity
  8
quote
100
AcDbLine
 10
583.4207261328169
 20
1502.433781794067
 30
0.0
 11
583.4207261328169
 21
1508.444688376526
 31
0.0
  0
LINE
  5
28AF
330
27BE
100
AcDbEntity
  8
quote
100
AcDbLine
 10
568.5182568354276
 20
1507.444688376526
 30
0.0
 11
581.4207261328168
 21
1507.444688376526
 31
0.0
  0
SOLID
  5
28B0
330
27BE
100
AcDbEntity
  8
quote
100
AcDbTrace
 10
568.5182568354276
 20
1507.778021709859
 30
0.0
 11
568.5182568354276
 21
1507.111355043193
 31
0.0
 12
566.5182568354277
 22
1507.444688376526
 32
0.0
 13
566.5182568354277
 23
1507.444688376526
 33
0.0
  0
SOLID
  5
28B1
330
27BE
100
AcDbEntity
  8
quote
100
AcDbTrace
 10
581.4207261328168
 20
1507.778021709859
 30
0.0
 11
581.4207261328168
 21
1507.111355043193
 31
0.0
 12
583.4207261328169
 22
1507.444688376526
 32
0.0
 13
583.4207261328169
 23
1507.444688376526
 33
0.0
  0
MTEXT
  5
28B2
330
27BE
100
AcDbEntity
  8
quote
100
AcDbMText
 10
574.9694914841223
 20
1509.485655468534
 30
0.0
 40
2.0
 41
0.0
 71
     5
 72
     1
  1
169
  7
SANINDUSA
 73
     1
 44
1.0
1001
ACAD
1000
MTEXTBEGIN
1070
    73
1070
     1
1070
    44
1040
1.0
1070
    74
1070
     0
1000
MTEXTEND
  0
POINT
  5
28B3
330
27BE
100
AcDbEntity
  8
Defpoints
 62
     0
100
AcDbPoint
 10
566.5182568354277
 20
1501.433781794067
 30
0.0000000092922838
  0
POINT
  5
28B4
330
27BE
100
AcDbEntity
  8
Defpoints
 62
     0
100
AcDbPoint
 10
583.4207261328169
 20
1501.433781794067
 30
0.0000000100996814
  0
POINT
  5
28B5
330
27BE
100
AcDbEntity
  8
Defpoints
 62
     0
100
AcDbPoint
 10
583.4207261328169
 20
1507.444688376526
 30
0.0
  0
ENDBLK
  5
27C9
330
27BE
100
AcDbEntity
  8
0
100
AcDbBlockEnd
  0
BLOCK
  5
27D4
330
27CA
100
AcDbEntity
  8
0
100
AcDbBlockBegin
  2
*D19
 70
     1
 10
0.0
 20
0.0
 30
0.0
  3
*D19
  1

  0
LINE
  5
28A4
330
27CA
100
AcDbEntity
  8
quote
100
AcDbLine
 10
583.7207261328168
 20
1502.433781794067
 30
0.0
 11
583.7207261328168
 21
1508.637160184925
 31
0.0
  0
LINE
  5
28A5
330
27CA
100
AcDbEntity
  8
quote
100
AcDbLine
 10
633.7437412847183
 20
1502.433782175027
 30
0.0
 11
633.7437412847183
 21
1508.637160184925
 31
0.0
  0
LINE
  5
28A6
330
27CA
100
AcDbEntity
  8
quote
100
AcDbLine
 10
585.7207261328168
 20
1507.637160184924
 30
0.0
 11
631.7437412847183
 21
1507.637160184924
 31
0.0
  0
SOLID
  5
28A7
330
27CA
100
AcDbEntity
  8
quote
100
AcDbTrace
 10
585.7207261328168
 20
1507.970493518258
 30
0.0
 11
585.7207261328168
 21
1507.303826851591
 31
0.0
 12
583.7207261328168
 22
1507.637160184924
 32
0.0
 13
583.7207261328168
 23
1507.637160184924
 33
0.0
  0
SOLID
  5
28A8
330
27CA
100
AcDbEntity
  8
quote
100
AcDbTrace
 10
631.7437412847183
 20
1507.970493518258
 30
0.0
 11
631.7437412847183
 21
1507.303826851591
 31
0.0
 12
633.7437412847183
 22
1507.637160184924
 32
0.0
 13
633.7437412847183
 23
1507.637160184924
 33
0.0
  0
MTEXT
  5
28A9
330
27CA
100
AcDbEntity
  8
quote
100
AcDbMText
 10
608.7322337087676
 20
1509.906468445502
 30
0.0
 40
2.0
 41
0.0
 71
     5
 72
     1
  1
500,2
  7
SANINDUSA
 73
     1
 44
1.0
1001
ACAD
1000
MTEXTBEGIN
1070
    73
1070
     1
1070
    44
1040
1.0
1070
    74
1070
     0
1000
MTEXTEND
  0
POINT
  5
28AA
330
27CA
100
AcDbEntity
  8
Defpoints
 62
     0
100
AcDbPoint
 10
583.7207261328168
 20
1501.433781794067
 30
-0.0000000000092652
  0
POINT
  5
28AB
330
27CA
100
AcDbEntity
  8
Defpoints
 62
     0
100
AcDbPoint
 10
633.7437412847183
 20
1501.433782175027
 30
0.0
  0
POINT
  5
28AC
330
27CA
100
AcDbEntity
  8
Defpoints
 62
     0
100
AcDbPoint
 10
633.7437412847183
 20
1507.637160184924
 30
0.0
  0
ENDBLK
  5
27D5
330
27CA
100
AcDbEntity
  8
0
100
AcDbBlockEnd
  0
BLOCK
  5
2918
330
2917
100
AcDbEntity
  8
0
100
AcDbBlockBegin
  2
*D21
 70
     1
 10
0.0
 20
0.0
 30
0.0
  3
*D21
  1

  0
LINE
  5
2924
330
2917
100
AcDbEntity
  8
cotas
100
AcDbLine
 10
637.051054459437
 20
1717.360559323643
 30
0.0
 11
646.2228677009525
 21
1717.360559323643
 31
0.0
  0
LINE
  5
2925
330
2917
100
AcDbEntity
  8
cotas
100
AcDbLine
 10
637.0510544594373
 20
1532.360559323643
 30
0.0
 11
646.2228677009525
 21
1532.360559323643
 31
0.0
  0
LINE
  5
2926
330
2917
100
AcDbEntity
  8
cotas
100
AcDbLine
 10
645.2228677009525
 20
1715.360559323643
 30
0.0
 11
645.2228677009525
 21
1534.360559323643
 31
0.0
  0
SOLID
  5
2927
330
2917
100
AcDbEntity
  8
cotas
100
AcDbTrace
 10
644.8895343676191
 20
1715.360559323643
 30
0.0
 11
645.5562010342859
 21
1715.360559323643
 31
0.0
 12
645.2228677009525
 22
1717.360559323643
 32
0.0
 13
645.2228677009525
 23
1717.360559323643
 33
0.0
  0
SOLID
  5
2928
330
2917
100
AcDbEntity
  8
cotas
100
AcDbTrace
 10
644.8895343676191
 20
1534.360559323643
 30
0.0
 11
645.5562010342859
 21
1534.360559323643
 31
0.0
 12
645.2228677009525
 22
1532.360559323643
 32
0.0
 13
645.2228677009525
 23
1532.360559323643
 33
0.0
  0
MTEXT
  5
2929
330
2917
100
AcDbEntity
  8
cotas
100
AcDbMText
 10
643.1771994672384
 20
1624.860559323643
 30
0.0
 40
2.0
 41
0.0
 71
     5
 72
     1
  1
1850
  7
SANINDUSA
 11
0.0000000000000001
 21
1.0
 31
0.0
 73
     1
 44
1.0
1001
ACAD
1000
MTEXTBEGIN
1070
    73
1070
     1
1070
    44
1040
1.0
1070
    74
1070
     0
1000
MTEXTEND
  0
POINT
  5
292A
330
2917
100
AcDbEntity
  8
Defpoints
 62
     0
100
AcDbPoint
 10
636.0510544594371
 20
1717.360559323643
 30
0.0
  0
POINT
  5
292B
330
2917
100
AcDbEntity
  8
Defpoints
 62
     0
100
AcDbPoint
 10
636.0510544594372
 20
1532.360559323643
 30
0.0
  0
POINT
  5
292C
330
2917
100
AcDbEntity
  8
Defpoints
 62
     0
100
AcDbPoint
 10
645.2228677009525
 20
1532.360559323643
 30
0.0
  0
ENDBLK
  5
2919
330
2917
100
AcDbEntity
  8
0
100
AcDbBlockEnd
  0
ENDSEC
  0
SECTION
  2
ENTITIES
  0
LINE
  5
215F
330
1F
100
AcDbEntity
  8
SANINDUSA
  6
Continuous
100
AcDbLine
 10
627.522054459437
 20
1624.749483296885
 30
0.0
 11
627.522054459437
 21
1625.961483296876
 31
0.0
  0
LINE
  5
2160
330
1F
100
AcDbEntity
  8
SANINDUSA
  6
Continuous
100
AcDbLine
 10
627.5250544594371
 20
1624.749483296885
 30
0.0
 11
627.5250544594371
 21
1625.961483296876
 31
0.0
  0
LINE
  5
2161
330
1F
100
AcDbEntity
  8
SANINDUSA
  6
Continuous
100
AcDbLine
 10
628.0518544594371
 20
1624.430483296885
 30
0.0
 11
628.0518544594371
 21
1626.280483296886
 31
0.0
  0
LINE
  5
2162
330
1F
100
AcDbEntity
  8
SANINDUSA
  6
Continuous
100
AcDbLine
 10
628.0278544594371
 20
1624.430483296885
 30
0.0
 11
628.0278544594371
 21
1626.280483296886
 31
0.0
  0
LINE
  5
2163
330
1F
100
AcDbEntity
  8
SANINDUSA
  6
Continuous
100
AcDbLine
 10
628.039554459437
 20
1624.440483296885
 30
0.0
 11
628.039554459437
 21
1626.280483296886
 31
0.0
  0
LINE
  5
2164
330
1F
100
AcDbEntity
  8
SANINDUSA
  6
Continuous
100
AcDbLine
 10
628.0335544594371
 20
1624.440483296885
 30
0.0
 11
628.0335544594371
 21
1626.280483296886
 31
0.0
  0
LINE
  5
2165
330
1F
100
AcDbEntity
  8
SANINDUSA
  6
Continuous
100
AcDbLine
 10
628.0250544594371
 20
1624.440483296885
 30
0.0
 11
628.0250544594371
 21
1626.280483296886
 31
0.0
  0
LINE
  5
2167
330
1F
100
AcDbEntity
  8
SANINDUSA
  6
Continuous
100
AcDbLine
 10
627.311054459437
 20
1624.430483296885
 30
0.0
 11
627.311054459437
 21
1626.280483296886
 31
0.0
  0
LINE
  5
2168
330
1F
100
AcDbEntity
  8
SANINDUSA
  6
Continuous
100
AcDbLine
 10
627.365904459437
 20
1624.430483296885
 30
0.0
 11
627.365904459437
 21
1626.280483296886
 31
0.0
  0
LINE
  5
2172
330
1F
100
AcDbEntity
  8
SANINDUSA
100
AcDbLine
 10
627.5250544594371
 20
1624.440483296885
 30
0.0
 11
628.0250544594371
 21
1624.440483296885
 31
0.0
  0
LINE
  5
2175
330
1F
100
AcDbEntity
  8
SANINDUSA
100
AcDbLine
 10
628.0335544594371
 20
1624.440483296885
 30
0.0
 11
628.039554459437
 21
1624.440483296885
 31
0.0
  0
LINE
  5
217A
330
1F
100
AcDbEntity
  8
SANINDUSA
  6
Continuous
100
AcDbLine
 10
627.311054459437
 20
1624.442483296885
 30
0.0
 11
627.311054459437
 21
1624.721672363467
 31
0.0
  0
LINE
  5
217B
330
1F
100
AcDbEntity
  8
SANINDUSA
  6
Continuous
100
AcDbLine
 10
627.5250544594371
 20
1624.440483296885
 30
0.0
 11
627.5250544594371
 21
1624.701483296885
 31
0.0
  0
LINE
  5
217C
330
1F
100
AcDbEntity
  8
SANINDUSA
  6
Continuous
100
AcDbLine
 10
627.522054459437
 20
1624.430483296885
 30
0.0
 11
627.522054459437
 21
1624.701483296885
 31
0.0
  0
LINE
  5
2181
330
1F
100
AcDbEntity
  8
SANINDUSA
  6
Continuous
100
AcDbLine
 10
628.0518544594371
 20
1624.430483296885
 30
0.0
 11
627.311054459437
 21
1624.430483296885
 31
0.0
  0
LINE
  5
21A0
330
1F
100
AcDbEntity
  8
SANINDUSA
  6
Continuous
100
AcDbLine
 10
627.5250544594371
 20
1626.280483296886
 30
0.0
 11
628.0250544594371
 21
1626.280483296886
 31
0.0
  0
CIRCLE
  5
21A5
330
1F
100
AcDbEntity
  8
SANINDUSA
100
AcDbCircle
 10
627.975054459437
 20
1625.360482528938
 30
0.0
 40
0.004
  0
LINE
  5
21A9
330
1F
100
AcDbEntity
  8
SANINDUSA
100
AcDbLine
 10
628.0278544594371
 20
1626.280483296886
 30
0.0
 11
628.0518544594371
 21
1626.280483296886
 31
0.0
  0
LINE
  5
21C1
330
1F
100
AcDbEntity
  8
SANINDUSA
  6
Continuous
100
AcDbLine
 10
627.5250544594371
 20
1626.009483296876
 30
0.0
 11
627.5250544594371
 21
1626.280483296886
 31
0.0
  0
LINE
  5
21C2
330
1F
100
AcDbEntity
  8
SANINDUSA
  6
Continuous
100
AcDbLine
 10
627.522054459437
 20
1626.009483296876
 30
0.0
 11
627.522054459437
 21
1626.280483296886
 31
0.0
  0
LINE
  5
21C6
330
1F
100
AcDbEntity
  8
SANINDUSA
  6
Continuous
100
AcDbLine
 10
627.311054459437
 20
1626.280483296886
 30
0.0
 11
627.522054459437
 21
1626.280483296886
 31
0.0
  0
ARC
  5
2495
330
1F
100
AcDbEntity
  8
SANINDUSA
100
AcDbCircle
 10
627.5905544594369
 20
1626.001983296876
 30
-0.0000000017937957
 40
0.001
100
AcDbArc
 50
0.0
 51
90.0
  0
LINE
  5
2496
330
1F
100
AcDbEntity
  8
SANINDUSA
100
AcDbLine
 10
627.530554459437
 20
1626.009483296876
 30
-0.0000000017937957
 11
627.516554459437
 21
1626.009483296876
 31
-0.0000000017937957
  0
LINE
  5
2497
330
1F
100
AcDbEntity
  8
SANINDUSA
100
AcDbLine
 10
627.5315544594369
 20
1625.983483296876
 30
-0.0000000017937957
 11
627.515554459437
 21
1625.983483296876
 31
-0.0000000017937957
  0
LINE
  5
2498
330
1F
100
AcDbEntity
  8
SANINDUSA
100
AcDbLine
 10
627.5146655705481
 20
1625.987483296876
 30
-0.0000000017937957
 11
627.531554459437
 21
1625.987483296876
 31
-0.0000000017937957
  0
ARC
  5
2499
330
1F
100
AcDbEntity
  8
SANINDUSA
100
AcDbCircle
 10
627.530554459437
 20
1626.008483296876
 30
-0.0000000017937957
 40
0.001
100
AcDbArc
 50
0.0
 51
90.0
  0
LINE
  5
249A
330
1F
100
AcDbEntity
  8
SANINDUSA
100
AcDbLine
 10
627.5315544594369
 20
1625.983483296876
 30
-0.0000000017937957
 11
627.5324433483259
 21
1625.983483296876
 31
-0.0000000017937957
  0
LINE
  5
249B
330
1F
100
AcDbEntity
  8
SANINDUSA
100
AcDbLine
 10
627.5310544594369
 20
1625.987483296876
 30
-0.0000000017937957
 11
627.5310544594369
 21
1625.983483296876
 31
-0.0000000017937957
  0
LINE
  5
249C
330
1F
100
AcDbEntity
  8
SANINDUSA
100
AcDbLine
 10
627.5324433483259
 20
1625.983483296876
 30
-0.0000000017937957
 11
627.5324433483259
 21
1626.002983296876
 31
-0.0000000017937957
  0
LINE
  5
249D
330
1F
100
AcDbEntity
  8
SANINDUSA
100
AcDbLine
 10
627.531554459437
 20
1625.987483296876
 30
-0.0000000017937957
 11
627.531554459437
 21
1626.008483296876
 31
-0.0000000017937957
  0
LINE
  5
249E
330
1F
100
AcDbEntity
  8
SANINDUSA
100
AcDbLine
 10
627.5324433483259
 20
1626.002983296876
 30
-0.0000000017937957
 11
627.5905544594369
 21
1626.002983296876
 31
-0.0000000017937957
  0
ARC
  5
249F
330
1F
100
AcDbEntity
  8
SANINDUSA
100
AcDbCircle
 10
627.5905544594369
 20
1625.968983296876
 30
-0.0000000017937957
 40
0.001
100
AcDbArc
 50
270.0
 51
0.0
  0
LINE
  5
24A0
330
1F
100
AcDbEntity
  8
SANINDUSA
100
AcDbLine
 10
627.5165544594369
 20
1625.961483296876
 30
-0.0000000017937957
 11
627.5305544594369
 21
1625.961483296876
 31
-0.0000000017937957
  0
ARC
  5
24A1
330
1F
100
AcDbEntity
  8
SANINDUSA
100
AcDbCircle
 10
627.5305544594369
 20
1625.962483296876
 30
-0.0000000017937957
 40
0.001
100
AcDbArc
 50
270.0
 51
0.0
  0
LINE
  5
24A2
330
1F
100
AcDbEntity
  8
SANINDUSA
100
AcDbLine
 10
627.5905544594369
 20
1625.967983296876
 30
-0.0000000017937957
 11
627.5315544594369
 21
1625.967983296876
 31
-0.0000000017937957
  0
LINE
  5
24A3
330
1F
100
AcDbEntity
  8
SANINDUSA
100
AcDbLine
 10
627.5315544594369
 20
1625.962483296876
 30
-0.0000000017937957
 11
627.5315544594369
 21
1625.983483296876
 31
-0.0000000017937957
  0
LINE
  5
24A4
330
1F
100
AcDbEntity
  8
SANINDUSA
100
AcDbLine
 10
627.5915544594369
 20
1626.001983296876
 30
-0.0000000017937957
 11
627.5915544594369
 21
1625.968983296876
 31
-0.0000000017937957
  0
LINE
  5
24A5
330
1F
100
AcDbEntity
  8
SANINDUSA
100
AcDbLine
 10
627.5155544594371
 20
1626.002983296876
 30
-0.0000000017937957
 11
627.4565544594371
 21
1626.002983296876
 31
-0.0000000017937957
  0
LINE
  5
24A6
330
1F
100
AcDbEntity
  8
SANINDUSA
100
AcDbLine
 10
627.456554459437
 20
1625.967983296876
 30
-0.0000000017937957
 11
627.5146655705481
 21
1625.967983296876
 31
-0.0000000017937957
  0
ARC
  5
24A7
330
1F
100
AcDbEntity
  8
SANINDUSA
100
AcDbCircle
 10
627.4565544594371
 20
1626.001983296876
 30
-0.0000000017937957
 40
0.001
100
AcDbArc
 50
90.0
 51
180.0
  0
ARC
  5
24A8
330
1F
100
AcDbEntity
  8
SANINDUSA
100
AcDbCircle
 10
627.456554459437
 20
1625.968983296876
 30
-0.0000000017937957
 40
0.001
100
AcDbArc
 50
180.0
 51
270.0
  0
LINE
  5
24A9
330
1F
100
AcDbEntity
  8
SANINDUSA
100
AcDbLine
 10
627.455554459437
 20
1626.001983296876
 30
-0.0000000017937957
 11
627.455554459437
 21
1625.968983296876
 31
-0.0000000017937957
  0
LINE
  5
24AA
330
1F
100
AcDbEntity
  8
SANINDUSA
100
AcDbLine
 10
627.516054459437
 20
1625.987483296876
 30
-0.0000000017937957
 11
627.516054459437
 21
1625.983483296876
 31
-0.0000000017937957
  0
LINE
  5
24AB
330
1F
100
AcDbEntity
  8
SANINDUSA
100
AcDbLine
 10
627.5155544594371
 20
1626.008483296876
 30
-0.0000000017937957
 11
627.5155544594371
 21
1626.002983296876
 31
-0.0000000017937957
  0
LINE
  5
24AC
330
1F
100
AcDbEntity
  8
SANINDUSA
100
AcDbLine
 10
627.5155544594371
 20
1626.002983296876
 30
-0.0000000017937957
 11
627.5155544594371
 21
1625.987483296876
 31
-0.0000000017937957
  0
ARC
  5
24AD
330
1F
100
AcDbEntity
  8
SANINDUSA
100
AcDbCircle
 10
627.516554459437
 20
1626.008483296876
 30
-0.0000000017937957
 40
0.001
100
AcDbArc
 50
90.0
 51
180.0
  0
ARC
  5
24AE
330
1F
100
AcDbEntity
  8
SANINDUSA
100
AcDbCircle
 10
627.5165544594369
 20
1625.962483296876
 30
-0.0000000017937957
 40
0.001
100
AcDbArc
 50
180.0
 51
270.0
  0
LINE
  5
24AF
330
1F
100
AcDbEntity
  8
SANINDUSA
100
AcDbLine
 10
627.5146655705481
 20
1625.967983296876
 30
-0.0000000017937957
 11
627.5146655705481
 21
1625.987483296876
 31
-0.0000000017937957
  0
LINE
  5
24B0
330
1F
100
AcDbEntity
  8
SANINDUSA
100
AcDbLine
 10
627.515554459437
 20
1625.983483296876
 30
-0.0000000017937957
 11
627.515554459437
 21
1625.962483296876
 31
-0.0000000017937957
  0
ARC
  5
24B1
330
1F
100
AcDbEntity
  8
SANINDUSA
100
AcDbCircle
 10
627.5905544594369
 20
1624.741983296885
 30
-0.0000000017937957
 40
0.001
100
AcDbArc
 50
0.0
 51
90.0
  0
LINE
  5
24B2
330
1F
100
AcDbEntity
  8
SANINDUSA
100
AcDbLine
 10
627.530554459437
 20
1624.749483296885
 30
-0.0000000017937957
 11
627.516554459437
 21
1624.749483296885
 31
-0.0000000017937957
  0
LINE
  5
24B3
330
1F
100
AcDbEntity
  8
SANINDUSA
100
AcDbLine
 10
627.5315544594369
 20
1624.723483296885
 30
-0.0000000017937957
 11
627.515554459437
 21
1624.723483296885
 31
-0.0000000017937957
  0
LINE
  5
24B4
330
1F
100
AcDbEntity
  8
SANINDUSA
100
AcDbLine
 10
627.5146655705481
 20
1624.727483296885
 30
-0.0000000017937957
 11
627.531554459437
 21
1624.727483296885
 31
-0.0000000017937957
  0
ARC
  5
24B5
330
1F
100
AcDbEntity
  8
SANINDUSA
100
AcDbCircle
 10
627.530554459437
 20
1624.748483296885
 30
-0.0000000017937957
 40
0.001
100
AcDbArc
 50
0.0
 51
90.0
  0
LINE
  5
24B6
330
1F
100
AcDbEntity
  8
SANINDUSA
100
AcDbLine
 10
627.5315544594369
 20
1624.723483296885
 30
-0.0000000017937957
 11
627.5324433483259
 21
1624.723483296885
 31
-0.0000000017937957
  0
LINE
  5
24B7
330
1F
100
AcDbEntity
  8
SANINDUSA
100
AcDbLine
 10
627.5310544594369
 20
1624.727483296885
 30
-0.0000000017937957
 11
627.5310544594369
 21
1624.723483296885
 31
-0.0000000017937957
  0
LINE
  5
24B8
330
1F
100
AcDbEntity
  8
SANINDUSA
100
AcDbLine
 10
627.5324433483259
 20
1624.723483296885
 30
-0.0000000017937957
 11
627.5324433483259
 21
1624.742983296885
 31
-0.0000000017937957
  0
LINE
  5
24B9
330
1F
100
AcDbEntity
  8
SANINDUSA
100
AcDbLine
 10
627.531554459437
 20
1624.727483296885
 30
-0.0000000017937957
 11
627.531554459437
 21
1624.748483296885
 31
-0.0000000017937957
  0
LINE
  5
24BA
330
1F
100
AcDbEntity
  8
SANINDUSA
100
AcDbLine
 10
627.5324433483259
 20
1624.742983296885
 30
-0.0000000017937957
 11
627.5905544594369
 21
1624.742983296885
 31
-0.0000000017937957
  0
ARC
  5
24BB
330
1F
100
AcDbEntity
  8
SANINDUSA
100
AcDbCircle
 10
627.5905544594369
 20
1624.708983296885
 30
-0.0000000017937957
 40
0.001
100
AcDbArc
 50
270.0
 51
0.0
  0
LINE
  5
24BC
330
1F
100
AcDbEntity
  8
SANINDUSA
100
AcDbLine
 10
627.5165544594369
 20
1624.701483296885
 30
-0.0000000017937957
 11
627.5305544594369
 21
1624.701483296885
 31
-0.0000000017937957
  0
ARC
  5
24BD
330
1F
100
AcDbEntity
  8
SANINDUSA
100
AcDbCircle
 10
627.5305544594369
 20
1624.702483296886
 30
-0.0000000017937957
 40
0.001
100
AcDbArc
 50
270.0
 51
0.0
  0
LINE
  5
24BE
330
1F
100
AcDbEntity
  8
SANINDUSA
100
AcDbLine
 10
627.5905544594369
 20
1624.707983296886
 30
-0.0000000017937957
 11
627.5315544594369
 21
1624.707983296886
 31
-0.0000000017937957
  0
LINE
  5
24BF
330
1F
100
AcDbEntity
  8
SANINDUSA
100
AcDbLine
 10
627.5315544594369
 20
1624.702483296886
 30
-0.0000000017937957
 11
627.5315544594369
 21
1624.723483296885
 31
-0.0000000017937957
  0
LINE
  5
24C0
330
1F
100
AcDbEntity
  8
SANINDUSA
100
AcDbLine
 10
627.5915544594369
 20
1624.741983296885
 30
-0.0000000017937957
 11
627.5915544594369
 21
1624.708983296885
 31
-0.0000000017937957
  0
LINE
  5
24C1
330
1F
100
AcDbEntity
  8
SANINDUSA
100
AcDbLine
 10
627.5155544594371
 20
1624.742983296885
 30
-0.0000000017937957
 11
627.4565544594371
 21
1624.742983296885
 31
-0.0000000017937957
  0
LINE
  5
24C2
330
1F
100
AcDbEntity
  8
SANINDUSA
100
AcDbLine
 10
627.456554459437
 20
1624.707983296886
 30
-0.0000000017937957
 11
627.5146655705481
 21
1624.707983296886
 31
-0.0000000017937957
  0
ARC
  5
24C3
330
1F
100
AcDbEntity
  8
SANINDUSA
100
AcDbCircle
 10
627.4565544594371
 20
1624.741983296885
 30
-0.0000000017937957
 40
0.001
100
AcDbArc
 50
90.0
 51
180.0
  0
ARC
  5
24C4
330
1F
100
AcDbEntity
  8
SANINDUSA
100
AcDbCircle
 10
627.456554459437
 20
1624.708983296885
 30
-0.0000000017937957
 40
0.001
100
AcDbArc
 50
180.0
 51
270.0
  0
LINE
  5
24C5
330
1F
100
AcDbEntity
  8
SANINDUSA
100
AcDbLine
 10
627.455554459437
 20
1624.741983296885
 30
-0.0000000017937957
 11
627.455554459437
 21
1624.708983296885
 31
-0.0000000017937957
  0
LINE
  5
24C6
330
1F
100
AcDbEntity
  8
SANINDUSA
100
AcDbLine
 10
627.516054459437
 20
1624.727483296885
 30
-0.0000000017937957
 11
627.516054459437
 21
1624.723483296885
 31
-0.0000000017937957
  0
LINE
  5
24C7
330
1F
100
AcDbEntity
  8
SANINDUSA
100
AcDbLine
 10
627.5155544594371
 20
1624.748483296885
 30
-0.0000000017937957
 11
627.5155544594371
 21
1624.742983296885
 31
-0.0000000017937957
  0
LINE
  5
24C8
330
1F
100
AcDbEntity
  8
SANINDUSA
100
AcDbLine
 10
627.5155544594371
 20
1624.742983296885
 30
-0.0000000017937957
 11
627.5155544594371
 21
1624.727483296885
 31
-0.0000000017937957
  0
ARC
  5
24C9
330
1F
100
AcDbEntity
  8
SANINDUSA
100
AcDbCircle
 10
627.516554459437
 20
1624.748483296885
 30
-0.0000000017937957
 40
0.001
100
AcDbArc
 50
90.0
 51
180.0
  0
ARC
  5
24CA
330
1F
100
AcDbEntity
  8
SANINDUSA
100
AcDbCircle
 10
627.5165544594369
 20
1624.702483296886
 30
-0.0000000017937957
 40
0.001
100
AcDbArc
 50
180.0
 51
270.0
  0
LINE
  5
24CB
330
1F
100
AcDbEntity
  8
SANINDUSA
100
AcDbLine
 10
627.5146655705481
 20
1624.707983296886
 30
-0.0000000017937957
 11
627.5146655705481
 21
1624.727483296885
 31
-0.0000000017937957
  0
LINE
  5
24CC
330
1F
100
AcDbEntity
  8
SANINDUSA
100
AcDbLine
 10
627.515554459437
 20
1624.723483296885
 30
-0.0000000017937957
 11
627.515554459437
 21
1624.702483296886
 31
-0.0000000017937957
  0
LINE
  5
2668
330
1F
100
AcDbEntity
  8
SANINDUSA
  6
Continuous
100
AcDbLine
 10
628.4589875777404
 20
1625.384475661919
 30
0.0
 11
628.9592177292595
 21
1625.384475661919
 31
0.0
  0
LINE
  5
2669
330
1F
100
AcDbEntity
  8
SANINDUSA
  6
Continuous
100
AcDbLine
 10
628.4589875777404
 20
1625.37847566192
 30
0.0
 11
628.9592177292595
 21
1625.37847566192
 31
0.0
  0
INSERT
  5
266A
330
1F
100
AcDbEntity
  8
SANINDUSA
100
AcDbBlockReference
  2
guarnizione
 10
628.9592177292595
 20
1625.381475661919
 30
0.0
 41
-0.001
 42
0.001
 43
0.001
  0
LINE
  5
266B
330
1F
100
AcDbEntity
  8
SANINDUSA
  6
Continuous
100
AcDbLine
 10
628.9592177292595
 20
1625.384475661919
 30
0.0
 11
628.9592177292595
 21
1625.37847566192
 31
0.0
  0
LINE
  5
266D
330
1F
100
AcDbEntity
  8
SANINDUSA
100
AcDbLine
 10
628.2643408610066
 20
1625.37547565811
 30
-0.0000000001555548
 11
628.2958408610067
 21
1625.37547565811
 31
-0.0000000001555548
  0
LINE
  5
266E
330
1F
100
AcDbEntity
  8
SANINDUSA
100
AcDbLine
 10
628.2958408610067
 20
1625.38747565811
 30
-0.0000000001555548
 11
628.2643408610066
 21
1625.38747565811
 31
-0.0000000001555548
  0
LINE
  5
266F
330
1F
100
AcDbEntity
  8
SANINDUSA
100
AcDbLine
 10
628.2968408610067
 20
1625.37647565811
 30
-0.0000000001555548
 11
628.2968408610067
 21
1625.37737565811
 31
-0.0000000001555548
  0
ARC
  5
2670
330
1F
100
AcDbEntity
  8
SANINDUSA
100
AcDbCircle
 10
628.2958408610067
 20
1625.37737565811
 30
-0.0000000001555548
 40
0.0009999999999999
100
AcDbArc
 50
0.0
 51
156.4218215222213
  0
ARC
  5
2671
330
1F
100
AcDbEntity
  8
SANINDUSA
100
AcDbCircle
 10
628.2958408610067
 20
1625.37647565811
 30
-0.0000000001555548
 40
0.0010000000000001
100
AcDbArc
 50
270.0
 51
0.0
  0
ARC
  5
2672
330
1F
100
AcDbEntity
  8
SANINDUSA
100
AcDbCircle
 10
628.2944660882982
 20
1625.37797565811
 30
-0.0000000001555548
 40
0.0005000000000001
100
AcDbArc
 50
270.0
 51
336.4218215222213
  0
LINE
  5
2673
330
1F
100
AcDbEntity
  8
SANINDUSA
100
AcDbLine
 10
628.2917774751479
 20
1625.37747565811
 30
-0.0000000001555548
 11
628.2944660882982
 21
1625.37747565811
 31
-0.0000000001555548
  0
ARC
  5
2674
330
1F
100
AcDbEntity
  8
SANINDUSA
100
AcDbCircle
 10
628.2917774751479
 20
1625.37797565811
 30
-0.0000000001555548
 40
0.0005
100
AcDbArc
 50
199.4712206345494
 51
270.0
  0
ARC
  5
2675
330
1F
100
AcDbEntity
  8
SANINDUSA
100
AcDbCircle
 10
628.2903632615856
 20
1625.37747565811
 30
-0.0000000001555548
 40
0.001
100
AcDbArc
 50
19.47122063454944
 51
160.5287793654505
  0
ARC
  5
2676
330
1F
100
AcDbEntity
  8
SANINDUSA
100
AcDbCircle
 10
628.2889490480232
 20
1625.37797565811
 30
-0.0000000001555548
 40
0.0005
100
AcDbArc
 50
270.0
 51
340.5287793654505
  0
LINE
  5
2677
330
1F
100
AcDbEntity
  8
SANINDUSA
100
AcDbLine
 10
628.2873628847665
 20
1625.37747565811
 30
-0.0000000001555548
 11
628.2889490480232
 21
1625.37747565811
 31
-0.0000000001555548
  0
ARC
  5
2678
330
1F
100
AcDbEntity
  8
SANINDUSA
100
AcDbCircle
 10
628.2873628847665
 20
1625.37797565811
 30
-0.0000000001555548
 40
0.0005
100
AcDbArc
 50
180.0
 51
270.0
  0
LINE
  5
2679
330
1F
100
AcDbEntity
  8
SANINDUSA
100
AcDbLine
 10
628.2868628847666
 20
1625.38497565811
 30
-0.0000000001555548
 11
628.2868628847666
 21
1625.37797565811
 31
-0.0000000001555548
  0
ARC
  5
267A
330
1F
100
AcDbEntity
  8
SANINDUSA
100
AcDbCircle
 10
628.2873628847665
 20
1625.38497565811
 30
-0.0000000001555548
 40
0.0005
100
AcDbArc
 50
90.0
 51
180.0
  0
LINE
  5
267B
330
1F
100
AcDbEntity
  8
SANINDUSA
100
AcDbLine
 10
628.2889490480232
 20
1625.38547565811
 30
-0.0000000001555548
 11
628.2873628847665
 21
1625.38547565811
 31
-0.0000000001555548
  0
ARC
  5
267C
330
1F
100
AcDbEntity
  8
SANINDUSA
100
AcDbCircle
 10
628.2958408610067
 20
1625.38647565811
 30
-0.0000000001555548
 40
0.0009999999999999
100
AcDbArc
 50
0.0
 51
90.0
  0
ARC
  5
267D
330
1F
100
AcDbEntity
  8
SANINDUSA
100
AcDbCircle
 10
628.2889490480232
 20
1625.38497565811
 30
-0.0000000001555548
 40
0.0004999999999999
100
AcDbArc
 50
19.47122063454944
 51
90.0
  0
LINE
  5
267E
330
1F
100
AcDbEntity
  8
SANINDUSA
100
AcDbLine
 10
628.2968408610067
 20
1625.38557565811
 30
-0.0000000001555548
 11
628.2968408610067
 21
1625.38647565811
 31
-0.0000000001555548
  0
ARC
  5
267F
330
1F
100
AcDbEntity
  8
SANINDUSA
100
AcDbCircle
 10
628.2903632615856
 20
1625.38547565811
 30
-0.0000000001555548
 40
0.001
100
AcDbArc
 50
199.4712206345494
 51
340.5287793654505
  0
ARC
  5
2680
330
1F
100
AcDbEntity
  8
SANINDUSA
100
AcDbCircle
 10
628.2958408610067
 20
1625.38557565811
 30
-0.0000000001555548
 40
0.0009999999999999
100
AcDbArc
 50
203.5781784777786
 51
0.0
  0
ARC
  5
2681
330
1F
100
AcDbEntity
  8
SANINDUSA
100
AcDbCircle
 10
628.2917774751479
 20
1625.38497565811
 30
-0.0000000001555548
 40
0.0005
100
AcDbArc
 50
90.0
 51
160.5287793654505
  0
ARC
  5
2682
330
1F
100
AcDbEntity
  8
SANINDUSA
100
AcDbCircle
 10
628.2944660882982
 20
1625.38497565811
 30
-0.0000000001555548
 40
0.0005000000000001
100
AcDbArc
 50
23.57817847777863
 51
90.0
  0
LINE
  5
2683
330
1F
100
AcDbEntity
  8
SANINDUSA
100
AcDbLine
 10
628.2944660882982
 20
1625.38547565811
 30
-0.0000000001555548
 11
628.2917774751479
 21
1625.38547565811
 31
-0.0000000001555548
  0
LINE
  5
2684
330
1F
100
AcDbEntity
  8
SANINDUSA
100
AcDbLine
 10
628.2454908610067
 20
1625.370275634448
 30
-0.0000000001555548
 11
628.2454908610067
 21
1625.385861444548
 31
-0.0000000001555548
  0
ARC
  5
2685
330
1F
100
AcDbEntity
  8
SANINDUSA
100
AcDbCircle
 10
628.2448408610066
 20
1625.385861444548
 30
-0.0000000001555548
 40
0.0006500000000003
100
AcDbArc
 50
0.0
 51
45.0
  0
ARC
  5
2686
330
1F
100
AcDbEntity
  8
SANINDUSA
100
AcDbCircle
 10
628.2448408610066
 20
1625.370275634448
 30
-0.0000000001555548
 40
0.0006500000000003
100
AcDbArc
 50
314.9106959510691
 51
0.0
  0
LINE
  5
2687
330
1F
100
AcDbEntity
  8
SANINDUSA
100
AcDbLine
 10
628.2453004804144
 20
1625.386321063955
 30
-0.0000000001555548
 11
628.2443862668521
 21
1625.387235277517
 31
-0.0000000001555548
  0
LINE
  5
2688
330
1F
100
AcDbEntity
  8
SANINDUSA
100
AcDbLine
 10
628.2443933243598
 20
1625.36891168135
 30
-0.0000000001555548
 11
628.2452997634708
 21
1625.369815299213
 31
-0.0000000001555548
  0
ARC
  5
2689
330
1F
100
AcDbEntity
  8
SANINDUSA
100
AcDbCircle
 10
628.2453408610066
 20
1625.388189871672
 30
-0.0000000001555548
 40
0.0013499999999998
100
AcDbArc
 50
180.0
 51
225.0
  0
ARC
  5
268A
330
1F
100
AcDbEntity
  8
SANINDUSA
100
AcDbCircle
 10
628.2453464294776
 20
1625.367955600477
 30
-0.0000000001555548
 40
0.00135
100
AcDbArc
 50
134.9106959510692
 51
179.4659008892979
  0
LINE
  5
268B
330
1F
100
AcDbEntity
  8
SANINDUSA
100
AcDbLine
 10
628.2439908610066
 20
1625.388189871672
 30
-0.0000000001555548
 11
628.2439908610066
 21
1625.38917565811
 31
-0.0000000001555548
  0
LINE
  5
268C
330
1F
100
AcDbEntity
  8
SANINDUSA
100
AcDbLine
 10
628.2439896984716
 20
1625.367239841222
 30
-0.0000000001555548
 11
628.2439964881318
 21
1625.367968184709
 31
-0.0000000001555548
  0
ARC
  5
268D
330
1F
100
AcDbEntity
  8
SANINDUSA
100
AcDbCircle
 10
628.2429908610066
 20
1625.38917565811
 30
-0.0000000001555548
 40
0.0009999999999999
100
AcDbArc
 50
0.0
 51
90.0
  0
ARC
  5
268E
330
1F
100
AcDbEntity
  8
SANINDUSA
100
AcDbCircle
 10
628.2429897419191
 20
1625.367249162875
 30
-0.0000000001555548
 40
0.0009999999999999
100
AcDbArc
 50
270.0
 51
359.4659008892979
  0
LINE
  5
268F
330
1F
100
AcDbEntity
  8
SANINDUSA
100
AcDbLine
 10
628.2429908610066
 20
1625.39017565811
 30
-0.0000000001555548
 11
628.2419908610067
 21
1625.39017565811
 31
-0.0000000001555548
  0
LINE
  5
2690
330
1F
100
AcDbEntity
  8
SANINDUSA
100
AcDbLine
 10
628.2419908610067
 20
1625.366249162875
 30
-0.0000000001555548
 11
628.2429897419191
 21
1625.366249162875
 31
-0.0000000001555548
  0
LINE
  5
2691
330
1F
100
AcDbEntity
  8
SANINDUSA
100
AcDbLine
 10
628.2419908610067
 20
1625.366249162875
 30
-0.0000000001555548
 11
628.2419908610067
 21
1625.39017565811
 31
-0.0000000001555548
  0
ARC
  5
2692
330
1F
100
AcDbEntity
  8
SANINDUSA
100
AcDbCircle
 10
628.2643408610066
 20
1625.37647565811
 30
-0.0000000001555548
 40
0.001
100
AcDbArc
 50
90.0
 51
270.0
  0
LINE
  5
2693
330
1F
100
AcDbEntity
  8
SANINDUSA
100
AcDbLine
 10
628.2843628847665
 20
1625.37747565811
 30
-0.0000000001555548
 11
628.2643408610066
 21
1625.37747565811
 31
-0.0000000001555548
  0
ARC
  5
2694
330
1F
100
AcDbEntity
  8
SANINDUSA
100
AcDbCircle
 10
628.2843628847665
 20
1625.37797565811
 30
-0.0000000001555548
 40
0.0005000000000001
100
AcDbArc
 50
270.0
 51
0.0
  0
LINE
  5
2695
330
1F
100
AcDbEntity
  8
SANINDUSA
100
AcDbLine
 10
628.2848628847665
 20
1625.38497565811
 30
-0.0000000001555548
 11
628.2848628847665
 21
1625.37797565811
 31
-0.0000000001555548
  0
ARC
  5
2696
330
1F
100
AcDbEntity
  8
SANINDUSA
100
AcDbCircle
 10
628.2843628847665
 20
1625.38497565811
 30
-0.0000000001555548
 40
0.0005000000000001
100
AcDbArc
 50
0.0
 51
90.0
  0
LINE
  5
2697
330
1F
100
AcDbEntity
  8
SANINDUSA
100
AcDbLine
 10
628.2643408610066
 20
1625.38547565811
 30
-0.0000000001555548
 11
628.2843628847665
 21
1625.38547565811
 31
-0.0000000001555548
  0
ARC
  5
2698
330
1F
100
AcDbEntity
  8
SANINDUSA
100
AcDbCircle
 10
628.2643408610066
 20
1625.38647565811
 30
-0.0000000001555548
 40
0.001
100
AcDbArc
 50
90.0
 51
270.0
  0
LINE
  5
2699
330
1F
100
AcDbEntity
  8
SANINDUSA
100
AcDbLine
 10
628.2443398874728
 20
1625.367258484528
 30
-0.0000000001555548
 11
628.2443464729251
 21
1625.36796492213
 31
-0.0000000001555548
  0
ARC
  5
269A
330
1F
100
AcDbEntity
  8
SANINDUSA
100
AcDbCircle
 10
628.2453398440253
 20
1625.367249162875
 30
-0.0000000001555548
 40
0.001
100
AcDbArc
 50
179.4659008892979
 51
270.0522365960704
  0
ARC
  5
269B
330
1F
100
AcDbEntity
  8
SANINDUSA
100
AcDbCircle
 10
628.2453464294776
 20
1625.367955600477
 30
-0.0000000001555548
 40
0.0010000000000003
100
AcDbArc
 50
134.9106959510692
 51
179.4659008892979
  0
ARC
  5
269C
330
1F
100
AcDbEntity
  8
SANINDUSA
100
AcDbCircle
 10
628.2452507525688
 20
1625.464969217755
 30
-0.0000000001555548
 40
0.0987200954923432
100
AcDbArc
 50
270.0522365960704
 51
291.0588352496104
  0
LINE
  5
269D
330
1F
100
AcDbEntity
  8
SANINDUSA
100
AcDbLine
 10
628.2446404256867
 20
1625.368663808531
 30
-0.0000000001555548
 11
628.2455468647976
 21
1625.369567426395
 31
-0.0000000001555548
  0
ARC
  5
269E
330
1F
100
AcDbEntity
  8
SANINDUSA
100
AcDbCircle
 10
628.2803641651387
 20
1625.37377565811
 30
-0.0000000001555548
 40
0.001
100
AcDbArc
 50
291.0588352496104
 51
90.0
  0
ARC
  5
269F
330
1F
100
AcDbEntity
  8
SANINDUSA
100
AcDbCircle
 10
628.2448408610066
 20
1625.370275634448
 30
-0.0000000001555548
 40
0.0010000000000003
100
AcDbArc
 50
314.9106959510691
 51
0.0
  0
LINE
  5
26A0
330
1F
100
AcDbEntity
  8
SANINDUSA
100
AcDbLine
 10
628.2583641651386
 20
1625.37477565811
 30
-0.0000000001555548
 11
628.2803641651386
 21
1625.37477565811
 31
-0.0000000001555548
  0
LINE
  5
26A1
330
1F
100
AcDbEntity
  8
SANINDUSA
100
AcDbLine
 10
628.2458408610066
 20
1625.370275634448
 30
-0.0000000001555548
 11
628.2458408610066
 21
1625.380464997938
 31
-0.0000000001555548
  0
ARC
  5
26A2
330
1F
100
AcDbEntity
  8
SANINDUSA
100
AcDbCircle
 10
628.2583641651386
 20
1625.37377565811
 30
-0.0000000001555548
 40
0.001
100
AcDbArc
 50
90.0
 51
270.0
  0
ARC
  5
26A3
330
1F
100
AcDbEntity
  8
SANINDUSA
100
AcDbCircle
 10
628.2460908610066
 20
1625.380464997938
 30
-0.0000000001555548
 40
0.00025
100
AcDbArc
 50
134.9999999995394
 51
180.0
  0
LINE
  5
26A4
330
1F
100
AcDbEntity
  8
SANINDUSA
100
AcDbLine
 10
628.2710618117662
 20
1625.37277565811
 30
-0.0000000001555548
 11
628.2583641651386
 21
1625.37277565811
 31
-0.0000000001555548
  0
LINE
  5
26A5
330
1F
100
AcDbEntity
  8
SANINDUSA
100
AcDbLine
 10
628.2459140843114
 20
1625.380641774633
 30
-0.0000000001555548
 11
628.2463944143972
 21
1625.381122104719
 31
-0.0000000001555548
  0
ARC
  5
26A6
330
1F
100
AcDbEntity
  8
SANINDUSA
100
AcDbCircle
 10
628.2710618117662
 20
1625.37227565811
 30
-0.0000000001555548
 40
0.0005
100
AcDbArc
 50
285.5601696418725
 51
90.0
  0
ARC
  5
26A7
330
1F
100
AcDbEntity
  8
SANINDUSA
100
AcDbCircle
 10
628.2460408610067
 20
1625.38147565811
 30
-0.0000000001555548
 40
0.0005
100
AcDbArc
 50
314.9999999995394
 51
45.00000000046059
  0
ARC
  5
26A8
330
1F
100
AcDbEntity
  8
SANINDUSA
100
AcDbCircle
 10
628.2452507525688
 20
1625.464969217755
 30
-0.0000000001555548
 40
0.0967200954923435
100
AcDbArc
 50
272.1494579347998
 51
285.5601696425
  0
LINE
  5
26A9
330
1F
100
AcDbEntity
  8
SANINDUSA
100
AcDbLine
 10
628.2463944143972
 20
1625.381829211501
 30
-0.0000000001555548
 11
628.2459140843114
 21
1625.382309541586
 31
-0.0000000001555548
  0
ARC
  5
26AA
330
1F
100
AcDbEntity
  8
SANINDUSA
100
AcDbCircle
 10
628.2488408610066
 20
1625.369316471832
 30
-0.0000000001555548
 40
0.001
100
AcDbArc
 50
180.0
 51
272.1494579347998
  0
ARC
  5
26AB
330
1F
100
AcDbEntity
  8
SANINDUSA
100
AcDbCircle
 10
628.2460908610066
 20
1625.382486318281
 30
-0.0000000001555548
 40
0.0002500000000003
100
AcDbArc
 50
180.0
 51
225.0
  0
LINE
  5
26AC
330
1F
100
AcDbEntity
  8
SANINDUSA
100
AcDbLine
 10
628.2478408610066
 20
1625.38717565811
 30
-0.0000000001555548
 11
628.2478408610066
 21
1625.369316471832
 31
-0.0000000001555548
  0
LINE
  5
26AD
330
1F
100
AcDbEntity
  8
SANINDUSA
100
AcDbLine
 10
628.2458408610066
 20
1625.382486318281
 30
-0.0000000001555548
 11
628.2458408610066
 21
1625.385861444548
 31
-0.0000000001555548
  0
ARC
  5
26AE
330
1F
100
AcDbEntity
  8
SANINDUSA
100
AcDbCircle
 10
628.2488408610066
 20
1625.38717565811
 30
-0.0000000001555548
 40
0.001
100
AcDbArc
 50
90.0
 51
180.0
  0
ARC
  5
26AF
330
1F
100
AcDbEntity
  8
SANINDUSA
100
AcDbCircle
 10
628.2448408610066
 20
1625.385861444548
 30
-0.0000000001555548
 40
0.0010000000000003
100
AcDbArc
 50
0.0
 51
45.0
  0
LINE
  5
26B0
330
1F
100
AcDbEntity
  8
SANINDUSA
100
AcDbLine
 10
628.2803641651386
 20
1625.38817565811
 30
-0.0000000001555548
 11
628.2488408610066
 21
1625.38817565811
 31
-0.0000000001555548
  0
LINE
  5
26B1
330
1F
100
AcDbEntity
  8
SANINDUSA
100
AcDbLine
 10
628.2455479677878
 20
1625.386568551328
 30
-0.0000000001555548
 11
628.2446337542254
 21
1625.387482764891
 31
-0.0000000001555548
  0
ARC
  5
26B2
330
1F
100
AcDbEntity
  8
SANINDUSA
100
AcDbCircle
 10
628.2803641651387
 20
1625.38917565811
 30
-0.0000000001555548
 40
0.001
100
AcDbArc
 50
270.0
 51
90.0
  0
ARC
  5
26B3
330
1F
100
AcDbEntity
  8
SANINDUSA
100
AcDbCircle
 10
628.2453408610066
 20
1625.388189871672
 30
-0.0000000001555548
 40
0.0010000000000003
100
AcDbArc
 50
180.0
 51
225.0000000004606
  0
LINE
  5
26B4
330
1F
100
AcDbEntity
  8
SANINDUSA
100
AcDbLine
 10
628.2453408610066
 20
1625.39017565811
 30
-0.0000000001555548
 11
628.2803641651386
 21
1625.39017565811
 31
-0.0000000001555548
  0
LINE
  5
26B5
330
1F
100
AcDbEntity
  8
SANINDUSA
100
AcDbLine
 10
628.2443408610066
 20
1625.388189871672
 30
-0.0000000001555548
 11
628.2443408610066
 21
1625.38917565811
 31
-0.0000000001555548
  0
ARC
  5
26B6
330
1F
100
AcDbEntity
  8
SANINDUSA
100
AcDbCircle
 10
628.2453408610066
 20
1625.38917565811
 30
-0.0000000001555548
 40
0.0009999999999999
100
AcDbArc
 50
90.0
 51
180.0
  0
ARC
  5
26B8
330
1F
100
AcDbEntity
  8
SANINDUSA
100
AcDbCircle
 10
628.3904875777404
 20
1625.38987565811
 30
0.0000000000000001
 40
0.001
100
AcDbArc
 50
90.0
 51
180.0
  0
ARC
  5
26B9
330
1F
100
AcDbEntity
  8
SANINDUSA
100
AcDbCircle
 10
628.4734875777404
 20
1625.38987565811
 30
0.0000000000000001
 40
0.001
100
AcDbArc
 50
90.0
 51
180.0
  0
ARC
  5
26BA
330
1F
100
AcDbEntity
  8
SANINDUSA
100
AcDbCircle
 10
628.4414875777404
 20
1625.38987565811
 30
0.0000000000000001
 40
0.001
100
AcDbArc
 50
0.0
 51
90.0
  0
LINE
  5
26BB
330
1F
100
AcDbEntity
  8
SANINDUSA
100
AcDbLine
 10
628.3904875777404
 20
1625.39087565811
 30
0.0000000000000001
 11
628.4414875777404
 21
1625.39087565811
 31
0.0000000000000001
  0
ARC
  5
26BC
330
1F
100
AcDbEntity
  8
SANINDUSA
100
AcDbCircle
 10
628.3904875777404
 20
1625.368075605816
 30
0.0000000000000001
 40
0.001
100
AcDbArc
 50
180.0
 51
270.0
  0
LINE
  5
26BD
330
1F
100
AcDbEntity
  8
SANINDUSA
100
AcDbLine
 10
628.3894875777405
 20
1625.37817565811
 30
0.0000000000000001
 11
628.3894875777405
 21
1625.37717565811
 31
0.0000000000000001
1001
GENIUS_GENREC_14
1002
{
1000
PYDIR
1011
628.5254875777404
1021
1625.37817565811
1031
0.0000000000000001
1002
}
1002
{
1000
PXDIR
1011
628.4724875777405
1021
1625.37717565811
1031
0.0000000000000001
1002
}
1002
{
1000
PORI
1011
628.5254875777404
1021
1625.37717565811
1031
0.0000000000000001
1002
}
1002
{
1000
PINS
1011
628.5254875777404
1021
1625.37717565811
1031
0.0000000000000001
1002
}
1002
{
1000
PINS2
1011
628.4724875777405
1021
1625.37817565811
1031
0.0000000000000001
1002
}
1002
{
1000
C
1070
     1
1002
}
1001
GENIUS_GENODEF_13
1002
{
1000
HIER
1070
     0
1002
}
1002
{
1000
MANEDIT
1070
     0
1002
}
1002
{
1000
NOSEL
1070
     0
1002
}
1002
{
1000
BEHIND
1070
     0
1002
}
1002
{
1000
REACTOR
1002
}
1001
GENIUS_GENOBJ-N-REC_13
1002
{
1000
OWNER
1000
GEN
1002
}
  0
LINE
  5
26BE
330
1F
100
AcDbEntity
  8
SANINDUSA
100
AcDbLine
 10
628.3894875777404
 20
1625.377075605816
 30
0.0000000000000001
 11
628.3894875777405
 21
1625.368075605816
 31
0.0000000000000001
  0
LINE
  5
26BF
330
1F
100
AcDbEntity
  8
SANINDUSA
100
AcDbLine
 10
628.4724875777405
 20
1625.37507565811
 30
0.0000000000000001
 11
628.4574875777405
 21
1625.375075605816
 31
0.0000000000000001
  0
LINE
  5
26C0
330
1F
100
AcDbEntity
  8
SANINDUSA
100
AcDbLine
 10
628.4724875777405
 20
1625.37727565811
 30
0.0000000000000001
 11
628.4724875777405
 21
1625.37827565811
 31
0.0000000000000001
1001
GENIUS_GENREC_14
1002
{
1000
PYDIR
1011
628.5254875777404
1021
1625.37827565811
1031
0.0000000000000001
1002
}
1002
{
1000
PXDIR
1011
628.4724875777405
1021
1625.37727565811
1031
0.0000000000000001
1002
}
1002
{
1000
PORI
1011
628.5254875777404
1021
1625.37727565811
1031
0.0000000000000001
1002
}
1002
{
1000
PINS
1011
628.5254875777404
1021
1625.37727565811
1031
0.0000000000000001
1002
}
1002
{
1000
PINS2
1011
628.4724875777405
1021
1625.37827565811
1031
0.0000000000000001
1002
}
1002
{
1000
C
1070
     1
1002
}
1001
GENIUS_GENODEF_13
1002
{
1000
HIER
1070
     0
1002
}
1002
{
1000
MANEDIT
1070
     0
1002
}
1002
{
1000
NOSEL
1070
     0
1002
}
1002
{
1000
BEHIND
1070
     0
1002
}
1002
{
1000
REACTOR
1002
}
1001
GENIUS_GENOBJ-N-REC_13
1002
{
1000
OWNER
1000
GEN
1002
}
  0
LINE
  5
26C1
330
1F
100
AcDbEntity
  8
SANINDUSA
100
AcDbLine
 10
628.4724875777405
 20
1625.37707565811
 30
0.0000000000000001
 11
628.4724875777405
 21
1625.37507565811
 31
0.0000000000000001
  0
LINE
  5
26C2
330
1F
100
AcDbEntity
  8
SANINDUSA
  6
Continuous
100
AcDbLine
 10
628.4589875777404
 20
1625.384475661919
 30
0.0
 11
628.4589875777404
 21
1625.37847566192
 31
0.0
  0
LINE
  5
26C3
330
1F
100
AcDbEntity
  8
SANINDUSA
100
AcDbLine
 10
628.4559875777405
 20
1625.38447565811
 30
0.0000000000000001
 11
628.4559875777405
 21
1625.378475658109
 31
0.0000000000000001
1001
GENIUS_GENREC_14
1002
{
1000
PYDIR
1011
628.6089875777404
1021
1625.37827565811
1031
0.0000000000000001
1002
}
1002
{
1000
PXDIR
1011
628.4589875777404
1021
1625.38427565811
1031
0.0000000000000001
1002
}
1002
{
1000
PORI
1011
628.6089875777404
1021
1625.38427565811
1031
0.0000000000000001
1002
}
1002
{
1000
PINS
1011
628.6089875777404
1021
1625.38427565811
1031
0.0000000000000001
1002
}
1002
{
1000
PINS2
1011
628.4589875777404
1021
1625.378475658109
1031
0.0000000000000001
1002
}
1002
{
1000
C
1070
     1
1002
}
1001
GENIUS_GENODEF_13
1002
{
1000
HIER
1070
     0
1002
}
1002
{
1000
MANEDIT
1070
     0
1002
}
1002
{
1000
NOSEL
1070
     0
1002
}
1002
{
1000
BEHIND
1070
     0
1002
}
1002
{
1000
REACTOR
1002
}
1001
GENIUS_GENOBJ-N-REC_13
1002
{
1000
OWNER
1000
GEN
1002
}
  0
LINE
  5
26C4
330
1F
100
AcDbEntity
  8
SANINDUSA
100
AcDbLine
 10
628.4663764666295
 20
1625.367075605816
 30
0.0000000000000001
 11
628.4663764666295
 21
1625.37507565811
 31
0.0000000000000001
  0
CIRCLE
  5
26C5
330
1F
100
AcDbEntity
  8
SANINDUSA
100
AcDbCircle
 10
628.4574875777405
 20
1625.367075605816
 30
0.0000000000000001
 40
0.008
  0
LINE
  5
26C6
330
1F
100
AcDbEntity
  8
SANINDUSA
100
AcDbLine
 10
628.4424875777403
 20
1625.375075605816
 30
0.0000000000000001
 11
628.4574876233367
 21
1625.375075605816
 31
0.0000000000000001
  0
LINE
  5
26C7
330
1F
100
AcDbEntity
  8
SANINDUSA
100
AcDbLine
 10
628.4424875777404
 20
1625.37717565811
 30
0.0000000000000001
 11
628.4424875777404
 21
1625.37817565811
 31
0.0000000000000001
1001
GENIUS_GENREC_14
1002
{
1000
PYDIR
1011
628.5254875777404
1021
1625.37817565811
1031
0.0000000000000001
1002
}
1002
{
1000
PXDIR
1011
628.4724875777405
1021
1625.37717565811
1031
0.0000000000000001
1002
}
1002
{
1000
PORI
1011
628.5254875777404
1021
1625.37717565811
1031
0.0000000000000001
1002
}
1002
{
1000
PINS
1011
628.5254875777404
1021
1625.37717565811
1031
0.0000000000000001
1002
}
1002
{
1000
PINS2
1011
628.4724875777405
1021
1625.37817565811
1031
0.0000000000000001
1002
}
1002
{
1000
C
1070
     1
1002
}
1001
GENIUS_GENODEF_13
1002
{
1000
HIER
1070
     0
1002
}
1002
{
1000
MANEDIT
1070
     0
1002
}
1002
{
1000
NOSEL
1070
     0
1002
}
1002
{
1000
BEHIND
1070
     0
1002
}
1002
{
1000
REACTOR
1002
}
1001
GENIUS_GENOBJ-N-REC_13
1002
{
1000
OWNER
1000
GEN
1002
}
  0
LINE
  5
26C8
330
1F
100
AcDbEntity
  8
SANINDUSA
100
AcDbLine
 10
628.4424875777403
 20
1625.375075605816
 30
0.0000000000000001
 11
628.4424875777403
 21
1625.377075605816
 31
0.0000000000000001
  0
LINE
  5
26C9
330
1F
100
AcDbEntity
  8
SANINDUSA
100
AcDbLine
 10
628.4485986888515
 20
1625.367075605816
 30
0.0000000000000001
 11
628.4485986888515
 21
1625.375075605816
 31
0.0000000000000001
  0
ARC
  5
26CA
330
1F
100
AcDbEntity
  8
SANINDUSA
100
AcDbCircle
 10
628.4601862556296
 20
1625.38517496073
 30
0.0
 40
0.0005
100
AcDbArc
 50
350.6591658982643
 51
80.65916589751582
  0
LINE
  5
26CB
330
1F
100
AcDbEntity
  8
SANINDUSA
100
AcDbLine
 10
628.4588327996653
 20
1625.38707566192
 30
0.0
 11
628.4578397170867
 21
1625.38707566192
 31
0.0
  0
LINE
  5
26CC
330
1F
100
AcDbEntity
  8
SANINDUSA
100
AcDbLine
 10
628.4602674091805
 20
1625.385668330876
 30
0.0
 11
628.4596849620015
 21
1625.385764136545
 31
0.0
  0
ARC
  5
26CD
330
1F
100
AcDbEntity
  8
SANINDUSA
100
AcDbCircle
 10
628.4595875777404
 20
1625.38517209237
 30
0.0
 40
0.0006
100
AcDbArc
 50
80.65916589751582
 51
180.0
  0
LINE
  5
26CE
330
1F
100
AcDbEntity
  8
SANINDUSA
100
AcDbLine
 10
628.4703371013478
 20
1625.377767983413
 30
0.0
 11
628.4588327996653
 21
1625.375875661919
 31
0.0
  0
LINE
  5
26CF
330
1F
100
AcDbEntity
  8
SANINDUSA
100
AcDbLine
 10
628.4679134490925
 20
1625.378180071608
 30
0.0
 11
628.465837120737
 21
1625.378471880529
 31
0.0
  0
LINE
  5
26D0
330
1F
100
AcDbEntity
  8
SANINDUSA
100
AcDbLine
 10
628.4655371013477
 20
1625.377789190524
 30
0.0
 11
628.4679134490925
 21
1625.378180071608
 31
0.0
  0
LINE
  5
26D1
330
1F
100
AcDbEntity
  8
SANINDUSA
100
AcDbLine
 10
628.4679134490925
 20
1625.384771252231
 30
0.0
 11
628.4655371013477
 21
1625.385162133315
 31
0.0
  0
LINE
  5
26D2
330
1F
100
AcDbEntity
  8
SANINDUSA
100
AcDbLine
 10
628.465837120737
 20
1625.38447944331
 30
0.0
 11
628.4679134490925
 21
1625.384771252231
 31
0.0
  0
LINE
  5
26D3
330
1F
100
AcDbEntity
  8
SANINDUSA
100
AcDbLine
 10
628.4680145267219
 20
1625.384432018115
 30
0.0
 11
628.4658858313223
 21
1625.384132849486
 31
0.0
  0
LINE
  5
26D4
330
1F
100
AcDbEntity
  8
SANINDUSA
100
AcDbLine
 10
628.4658858313223
 20
1625.378818474352
 30
0.0
 11
628.4680145267219
 21
1625.378519305724
 31
0.0
  0
LINE
  5
26D5
330
1F
100
AcDbEntity
  8
SANINDUSA
100
AcDbLine
 10
628.4708397170867
 20
1625.383884540617
 30
0.0
 11
628.469154745855
 21
1625.384161698445
 31
0.0
  0
LINE
  5
26D6
330
1F
100
AcDbEntity
  8
SANINDUSA
100
AcDbLine
 10
628.4708397170867
 20
1625.384591296251
 30
0.0
 11
628.4708397170867
 21
1625.383884540617
 31
0.0
  0
ARC
  5
26D7
330
1F
100
AcDbEntity
  8
SANINDUSA
100
AcDbCircle
 10
628.4702397170867
 20
1625.384591296251
 30
0.0
 40
0.0006
100
AcDbArc
 50
0.0
 51
80.65916589751582
  0
ARC
  5
26D8
330
1F
100
AcDbEntity
  8
SANINDUSA
100
AcDbCircle
 10
628.4679449401714
 20
1625.384927152149
 30
0.0
 40
0.0004999999999883
100
AcDbArc
 50
278.0000000004021
 51
331.8736260354309
  0
ARC
  5
26D9
330
1F
100
AcDbEntity
  8
SANINDUSA
100
AcDbCircle
 10
628.4682397170866
 20
1625.384109522272
 30
0.0
 40
0.0006000000000005
100
AcDbArc
 50
32.46948079369155
 51
75.89910819365424
  0
ARC
  5
26DA
330
1F
100
AcDbEntity
  8
SANINDUSA
100
AcDbCircle
 10
628.4692521301161
 20
1625.384753742621
 30
0.0
 40
0.0006
100
AcDbArc
 50
212.4694807936915
 51
260.6591658975158
  0
ARC
  5
26DB
330
1F
100
AcDbEntity
  8
SANINDUSA
100
AcDbCircle
 10
628.4702397170867
 20
1625.378360027588
 30
0.0
 40
0.0006
100
AcDbArc
 50
279.3408341024842
 51
0.0
  0
ARC
  5
26DC
330
1F
100
AcDbEntity
  8
SANINDUSA
100
AcDbCircle
 10
628.4682397170866
 20
1625.378841801567
 30
0.0
 40
0.0005999999999989
100
AcDbArc
 50
284.1008918072949
 51
327.5305192063084
  0
LINE
  5
26DD
330
1F
100
AcDbEntity
  8
SANINDUSA
100
AcDbLine
 10
628.469154745855
 20
1625.378789625393
 30
0.0
 11
628.4708397170867
 21
1625.379066783222
 31
0.0
  0
LINE
  5
26DE
330
1F
100
AcDbEntity
  8
SANINDUSA
100
AcDbLine
 10
628.4708397170867
 20
1625.379066783222
 30
0.0
 11
628.4708397170867
 21
1625.378360027588
 31
0.0
  0
ARC
  5
26DF
330
1F
100
AcDbEntity
  8
SANINDUSA
100
AcDbCircle
 10
628.4692521301161
 20
1625.378197581218
 30
0.0
 40
0.0006
100
AcDbArc
 50
99.34083410248419
 51
147.5305192063084
  0
ARC
  5
26E0
330
1F
100
AcDbEntity
  8
SANINDUSA
100
AcDbCircle
 10
628.4679449401714
 20
1625.37802417169
 30
0.0
 40
0.0005
100
AcDbArc
 50
28.12637396571802
 51
82.00000000024292
  0
LINE
  5
26E1
330
1F
100
AcDbEntity
  8
SANINDUSA
100
AcDbLine
 10
628.4606390490004
 20
1625.384847122106
 30
0.0
 11
628.4606796257758
 21
1625.385093807179
 31
0.0
  0
ARC
  5
26E2
330
1F
100
AcDbEntity
  8
SANINDUSA
100
AcDbCircle
 10
628.4613791042197
 20
1625.38472539178
 30
0.0
 40
0.00075
100
AcDbArc
 50
170.6591658982643
 51
350.6591658982643
  0
LINE
  5
26E3
330
1F
100
AcDbEntity
  8
SANINDUSA
100
AcDbLine
 10
628.4621525659627
 20
1625.384806755234
 30
0.0
 11
628.4621191594389
 21
1625.384603661453
 31
0.0
  0
LINE
  5
26E4
330
1F
100
AcDbEntity
  8
SANINDUSA
100
AcDbLine
 10
628.4645896111591
 20
1625.384912609083
 30
0.0
 11
628.4627270896598
 21
1625.385218971829
 31
0.0
  0
ARC
  5
26E5
330
1F
100
AcDbEntity
  8
SANINDUSA
100
AcDbCircle
 10
628.4646869954201
 20
1625.385504653258
 30
0.0
 40
0.0006000000000005
100
AcDbArc
 50
260.6591658975158
 51
308.8488510019494
  0
ARC
  5
26E6
330
1F
100
AcDbEntity
  8
SANINDUSA
100
AcDbCircle
 10
628.4626459361089
 20
1625.384725601683
 30
0.0
 40
0.0005
100
AcDbArc
 50
80.65916589751582
 51
170.6591658982643
  0
ARC
  5
26E7
330
1F
100
AcDbEntity
  8
SANINDUSA
100
AcDbCircle
 10
628.4658614760296
 20
1625.384306146398
 30
0.0
 40
0.000175
100
AcDbArc
 50
97.99999999975709
 51
277.9999999997571
  0
ARC
  5
26E8
330
1F
100
AcDbEntity
  8
SANINDUSA
100
AcDbCircle
 10
628.4654397170867
 20
1625.384570089139
 30
0.0
 40
0.0006
100
AcDbArc
 50
80.65916589751582
 51
128.8488510019494
  0
ARC
  5
26E9
330
1F
100
AcDbEntity
  8
SANINDUSA
100
AcDbCircle
 10
628.4601862556296
 20
1625.377776363109
 30
0.0
 40
0.0005
100
AcDbArc
 50
279.3408341024842
 51
9.340834101735721
  0
ARC
  5
26EA
330
1F
100
AcDbEntity
  8
SANINDUSA
100
AcDbCircle
 10
628.4646869954201
 20
1625.377446670581
 30
0.0
 40
0.0006000000000005
100
AcDbArc
 50
51.15114899805062
 51
99.34083410248419
  0
LINE
  5
26EB
330
1F
100
AcDbEntity
  8
SANINDUSA
100
AcDbLine
 10
628.4627102542205
 20
1625.377729582779
 30
0.0
 11
628.4645896111591
 21
1625.378038714756
 31
0.0
  0
LINE
  5
26EC
330
1F
100
AcDbEntity
  8
SANINDUSA
100
AcDbLine
 10
628.4621191594389
 20
1625.378347662385
 30
0.0
 11
628.4621597362145
 21
1625.378100977312
 31
0.0
  0
LINE
  5
26ED
330
1F
100
AcDbEntity
  8
SANINDUSA
100
AcDbLine
 10
628.4606796257758
 20
1625.37785751666
 30
0.0
 11
628.4606390490004
 21
1625.378104201733
 31
0.0
  0
ARC
  5
26EE
330
1F
100
AcDbEntity
  8
SANINDUSA
100
AcDbCircle
 10
628.4626291006695
 20
1625.378222952925
 30
0.0
 40
0.0005
100
AcDbArc
 50
179.863446427089
 51
279.3408341024842
  0
ARC
  5
26EF
330
1F
100
AcDbEntity
  8
SANINDUSA
100
AcDbCircle
 10
628.4613791042197
 20
1625.378225932059
 30
0.0
 40
0.00075
100
AcDbArc
 50
359.863446427089
 51
189.3408341017357
  0
ARC
  5
26F0
330
1F
100
AcDbEntity
  8
SANINDUSA
100
AcDbCircle
 10
628.4658614760296
 20
1625.378645177441
 30
0.0
 40
0.000175
100
AcDbArc
 50
82.00000000024292
 51
262.000000000243
  0
ARC
  5
26F1
330
1F
100
AcDbEntity
  8
SANINDUSA
100
AcDbCircle
 10
628.4654397170867
 20
1625.3783812347
 30
0.0
 40
0.0006
100
AcDbArc
 50
231.1511489980506
 51
279.3408341024842
  0
LINE
  5
26F2
330
1F
100
AcDbEntity
  8
SANINDUSA
100
AcDbLine
 10
628.4588327996653
 20
1625.375875661919
 30
0.0
 11
628.4578397170867
 21
1625.375875661919
 31
0.0
  0
LINE
  5
26F3
330
1F
100
AcDbEntity
  8
SANINDUSA
100
AcDbLine
 10
628.4596849620015
 20
1625.377187187294
 30
0.0
 11
628.4602674091805
 21
1625.377282992962
 31
0.0
  0
ARC
  5
26F4
330
1F
100
AcDbEntity
  8
SANINDUSA
100
AcDbCircle
 10
628.4595875777404
 20
1625.37777923147
 30
0.0
 40
0.0006
100
AcDbArc
 50
180.0
 51
279.3408341024842
  0
LINE
  5
26F5
330
1F
100
AcDbEntity
  8
SANINDUSA
100
AcDbLine
 10
628.4588327996653
 20
1625.38707566192
 30
0.0
 11
628.4703371013478
 21
1625.385183340426
 31
0.0
  0
LINE
  5
26F6
330
1F
100
AcDbEntity
  8
SANINDUSA
100
AcDbLine
 10
628.4578397170867
 20
1625.38707566192
 30
0.0
 11
628.4578397170867
 21
1625.375875661919
 31
0.0
  0
LINE
  5
26F7
330
1F
100
AcDbEntity
  8
SANINDUSA
100
AcDbLine
 10
628.4589875777404
 20
1625.38517209237
 30
0.0
 11
628.4589875777404
 21
1625.37777923147
 31
0.0
  0
ARC
  5
26F8
330
1F
100
AcDbEntity
  8
SANINDUSA
100
AcDbCircle
 10
628.457002024779
 20
1625.381475661919
 30
0.0
 40
0.0056623076923077
100
AcDbArc
 50
81.49232712809682
 51
278.5076728719032
  0
ARC
  5
26F9
330
1F
100
AcDbEntity
  8
SANINDUSA
100
AcDbCircle
 10
628.457002024779
 20
1625.381475661919
 30
0.0
 40
0.0052623076923077
100
AcDbArc
 50
81.49232712809682
 51
278.5076728719032
  0
LINE
  5
26FA
330
1F
100
AcDbEntity
  8
SANINDUSA
100
AcDbLine
 10
628.4424875777404
 20
1625.38587565811
 30
0.0000000000000001
 11
628.3894875777405
 21
1625.38587565811
 31
0.0000000000000001
  0
LINE
  5
26FB
330
1F
100
AcDbEntity
  8
SANINDUSA
100
AcDbLine
 10
628.4424875777403
 20
1625.377075605816
 30
0.0000000000000001
 11
628.3894875777404
 21
1625.377075605816
 31
0.0000000000000001
  0
LWPOLYLINE
  5
26FC
330
1F
100
AcDbEntity
  8
SANINDUSA
100
AcDbPolyline
 90
        4
 70
     1
 43
0.0
 10
628.3894875777405
 20
1625.38567565811
 10
628.4424875777404
 20
1625.38567565811
 10
628.4424875777404
 20
1625.38467565811
 10
628.3894875777405
 20
1625.38467565811
1001
GENIUS_GENREC_14
1002
{
1000
PYDIR
1011
628.5254875777404
1021
1624.643128059177
1031
0.0000000000000001
1002
}
1002
{
1000
PXDIR
1011
628.4724875777405
1021
1624.644128059177
1031
0.0000000000000001
1002
}
1002
{
1000
PORI
1011
628.5254875777404
1021
1624.644128059177
1031
0.0000000000000001
1002
}
1002
{
1000
PINS
1011
628.5254875777404
1021
1624.644128059177
1031
0.0000000000000001
1002
}
1002
{
1000
PINS2
1011
628.4724875777405
1021
1624.643128059177
1031
0.0000000000000001
1002
}
1002
{
1000
C
1070
     1
1002
}
1001
GENIUS_GENODEF_13
1002
{
1000
HIER
1070
     0
1002
}
1002
{
1000
MANEDIT
1070
     0
1002
}
1002
{
1000
NOSEL
1070
     0
1002
}
1002
{
1000
BEHIND
1070
     0
1002
}
1002
{
1000
REACTOR
1002
}
1001
GENIUS_GENOBJ-N-REC_13
1002
{
1000
OWNER
1000
GEN
1002
}
  0
LWPOLYLINE
  5
26FD
330
1F
100
AcDbEntity
  8
SANINDUSA
100
AcDbPolyline
 90
        2
 70
     0
 43
0.0
 10
628.3894875777405
 20
1625.37717565811
 10
628.4424875777404
 20
1625.37717565811
1001
GENIUS_GENREC_14
1002
{
1000
PYDIR
1011
628.5254875777404
1021
1624.643428059177
1031
0.0000000000000001
1002
}
1002
{
1000
PXDIR
1011
628.4724875777405
1021
1624.644428059176
1031
0.0000000000000001
1002
}
1002
{
1000
PORI
1011
628.5254875777404
1021
1624.644428059176
1031
0.0000000000000001
1002
}
1002
{
1000
PINS
1011
628.5254875777404
1021
1624.644428059176
1031
0.0000000000000001
1002
}
1002
{
1000
PINS2
1011
628.4724875777405
1021
1624.643428059177
1031
0.0000000000000001
1002
}
1002
{
1000
C
1070
     1
1002
}
1001
GENIUS_GENODEF_13
1002
{
1000
HIER
1070
     0
1002
}
1002
{
1000
MANEDIT
1070
     0
1002
}
1002
{
1000
NOSEL
1070
     0
1002
}
1002
{
1000
BEHIND
1070
     0
1002
}
1002
{
1000
REACTOR
1002
}
1001
GENIUS_GENOBJ-N-REC_13
1002
{
1000
OWNER
1000
GEN
1002
}
  0
LWPOLYLINE
  5
26FE
330
1F
100
AcDbEntity
  8
SANINDUSA
100
AcDbPolyline
 90
        2
 70
     0
 43
0.0
 10
628.4424875777404
 20
1625.37817565811
 10
628.3894875777405
 20
1625.37817565811
1001
GENIUS_GENREC_14
1002
{
1000
PYDIR
1011
628.5254875777404
1021
1624.643428059177
1031
0.0000000000000001
1002
}
1002
{
1000
PXDIR
1011
628.4724875777405
1021
1624.644428059176
1031
0.0000000000000001
1002
}
1002
{
1000
PORI
1011
628.5254875777404
1021
1624.644428059176
1031
0.0000000000000001
1002
}
1002
{
1000
PINS
1011
628.5254875777404
1021
1624.644428059176
1031
0.0000000000000001
1002
}
1002
{
1000
PINS2
1011
628.4724875777405
1021
1624.643428059177
1031
0.0000000000000001
1002
}
1002
{
1000
C
1070
     1
1002
}
1001
GENIUS_GENODEF_13
1002
{
1000
HIER
1070
     0
1002
}
1002
{
1000
MANEDIT
1070
     0
1002
}
1002
{
1000
NOSEL
1070
     0
1002
}
1002
{
1000
BEHIND
1070
     0
1002
}
1002
{
1000
REACTOR
1002
}
1001
GENIUS_GENOBJ-N-REC_13
1002
{
1000
OWNER
1000
GEN
1002
}
  0
LINE
  5
26FF
330
1F
100
AcDbEntity
  8
SANINDUSA
100
AcDbLine
 10
628.3904875777404
 20
1625.367075605816
 30
0.0000000000000001
 11
628.4494875777404
 21
1625.367075605816
 31
0.0000000000000001
  0
LINE
  5
2700
330
1F
100
AcDbEntity
  8
SANINDUSA
100
AcDbLine
 10
628.4724875777405
 20
1625.38587565811
 30
0.0000000000000001
 11
628.4724875777405
 21
1625.38987565811
 31
0.0000000000000001
  0
LINE
  5
2701
330
1F
100
AcDbEntity
  8
SANINDUSA
100
AcDbLine
 10
628.4424875777404
 20
1625.38587565811
 30
0.0000000000000001
 11
628.4424875777404
 21
1625.38987565811
 31
0.0000000000000001
  0
LINE
  5
2702
330
1F
100
AcDbEntity
  8
SANINDUSA
100
AcDbLine
 10
628.3894875777405
 20
1625.38587565811
 30
0.0000000000000001
 11
628.3894875777405
 21
1625.38987565811
 31
0.0000000000000001
  0
LINE
  5
2703
330
1F
100
AcDbEntity
  8
SANINDUSA
  6
Continuous
100
AcDbLine
 10
628.2869628847666
 20
1625.378475658109
 30
-0.0000000000080738
 11
628.4559875777405
 21
1625.378475658109
 31
0.0000000000000001
  0
LINE
  5
2704
330
1F
100
AcDbEntity
  8
SANINDUSA
  6
Continuous
100
AcDbLine
 10
628.2869628847666
 20
1625.38447565811
 30
-0.0000000000076262
 11
628.4559875777405
 21
1625.38447565811
 31
0.0000000000000001
  0
ARC
  5
2705
330
1F
100
AcDbEntity
  8
SANINDUSA
100
AcDbCircle
 10
628.5244875777404
 20
1625.38987565811
 30
0.0000000000000001
 40
0.001
100
AcDbArc
 50
0.0
 51
90.0
  0
LINE
  5
2706
330
1F
100
AcDbEntity
  8
SANINDUSA
100
AcDbLine
 10
628.5254875777404
 20
1625.37707565811
 30
0.0000000000000001
 11
628.5254875777404
 21
1625.368075605816
 31
0.0000000000000001
  0
ARC
  5
2707
330
1F
100
AcDbEntity
  8
SANINDUSA
100
AcDbCircle
 10
628.5244875777404
 20
1625.368075605816
 30
0.0000000000000001
 40
0.001
100
AcDbArc
 50
270.0
 51
0.0
  0
LINE
  5
2708
330
1F
100
AcDbEntity
  8
SANINDUSA
100
AcDbLine
 10
628.5254875777404
 20
1625.37827565811
 30
0.0000000000000001
 11
628.5254875777404
 21
1625.37727565811
 31
0.0000000000000001
1001
GENIUS_GENREC_14
1002
{
1000
PYDIR
1011
628.5254875777404
1021
1625.37827565811
1031
0.0000000000000001
1002
}
1002
{
1000
PXDIR
1011
628.4724875777405
1021
1625.37727565811
1031
0.0000000000000001
1002
}
1002
{
1000
PORI
1011
628.5254875777404
1021
1625.37727565811
1031
0.0000000000000001
1002
}
1002
{
1000
PINS
1011
628.5254875777404
1021
1625.37727565811
1031
0.0000000000000001
1002
}
1002
{
1000
PINS2
1011
628.4724875777405
1021
1625.37827565811
1031
0.0000000000000001
1002
}
1002
{
1000
C
1070
     1
1002
}
1001
GENIUS_GENODEF_13
1002
{
1000
HIER
1070
     0
1002
}
1002
{
1000
MANEDIT
1070
     0
1002
}
1002
{
1000
NOSEL
1070
     0
1002
}
1002
{
1000
BEHIND
1070
     0
1002
}
1002
{
1000
REACTOR
1002
}
1001
GENIUS_GENOBJ-N-REC_13
1002
{
1000
OWNER
1000
GEN
1002
}
  0
LINE
  5
2709
330
1F
100
AcDbEntity
  8
SANINDUSA
100
AcDbLine
 10
628.5254875777404
 20
1625.38587565811
 30
0.0000000000000001
 11
628.5254875777404
 21
1625.38987565811
 31
0.0000000000000001
  0
LINE
  5
270A
330
1F
100
AcDbEntity
  8
SANINDUSA
100
AcDbLine
 10
628.4663764666295
 20
1625.367075605816
 30
0.0000000000000001
 11
628.5244875777404
 21
1625.367075605816
 31
0.0000000000000001
  0
LINE
  5
270B
330
1F
100
AcDbEntity
  8
SANINDUSA
100
AcDbLine
 10
628.5254875777404
 20
1625.37707565811
 30
0.0000000000000001
 11
628.4724875777405
 21
1625.37707565811
 31
0.0000000000000001
  0
LWPOLYLINE
  5
270C
330
1F
100
AcDbEntity
  8
SANINDUSA
100
AcDbPolyline
 90
        2
 70
     0
 43
0.0
 10
628.4724875777405
 20
1625.37827565811
 10
628.5254875777404
 20
1625.37827565811
1001
GENIUS_GENREC_14
1002
{
1000
PYDIR
1011
628.2262053206612
1021
1624.344045802098
1031
0.0000000000000001
1002
}
1002
{
1000
PXDIR
1011
628.1732053206613
1021
1624.345045802098
1031
0.0000000000000001
1002
}
1002
{
1000
PORI
1011
628.2262053206612
1021
1624.345045802098
1031
0.0000000000000001
1002
}
1002
{
1000
PINS
1011
628.2262053206612
1021
1624.345045802098
1031
0.0000000000000001
1002
}
1002
{
1000
PINS2
1011
628.1732053206613
1021
1624.344045802098
1031
0.0000000000000001
1002
}
1002
{
1000
C
1070
     1
1002
}
1001
GENIUS_GENODEF_13
1002
{
1000
HIER
1070
     0
1002
}
1002
{
1000
MANEDIT
1070
     0
1002
}
1002
{
1000
NOSEL
1070
     0
1002
}
1002
{
1000
BEHIND
1070
     0
1002
}
1002
{
1000
REACTOR
1002
}
1001
GENIUS_GENOBJ-N-REC_13
1002
{
1000
OWNER
1000
GEN
1002
}
  0
LWPOLYLINE
  5
270D
330
1F
100
AcDbEntity
  8
SANINDUSA
100
AcDbPolyline
 90
        2
 70
     0
 43
0.0
 10
628.5254875777404
 20
1625.37727565811
 10
628.4724875777405
 20
1625.37727565811
1001
GENIUS_GENREC_14
1002
{
1000
PYDIR
1011
628.2262053206612
1021
1624.344045802098
1031
0.0000000000000001
1002
}
1002
{
1000
PXDIR
1011
628.1732053206613
1021
1624.345045802098
1031
0.0000000000000001
1002
}
1002
{
1000
PORI
1011
628.2262053206612
1021
1624.345045802098
1031
0.0000000000000001
1002
}
1002
{
1000
PINS
1011
628.2262053206612
1021
1624.345045802098
1031
0.0000000000000001
1002
}
1002
{
1000
PINS2
1011
628.1732053206613
1021
1624.344045802098
1031
0.0000000000000001
1002
}
1002
{
1000
C
1070
     1
1002
}
1001
GENIUS_GENODEF_13
1002
{
1000
HIER
1070
     0
1002
}
1002
{
1000
MANEDIT
1070
     0
1002
}
1002
{
1000
NOSEL
1070
     0
1002
}
1002
{
1000
BEHIND
1070
     0
1002
}
1002
{
1000
REACTOR
1002
}
1001
GENIUS_GENOBJ-N-REC_13
1002
{
1000
OWNER
1000
GEN
1002
}
  0
LINE
  5
270E
330
1F
100
AcDbEntity
  8
SANINDUSA
100
AcDbLine
 10
628.5244875777404
 20
1625.39087565811
 30
0.0000000000000001
 11
628.4734875777404
 21
1625.39087565811
 31
0.0000000000000001
  0
LINE
  5
270F
330
1F
100
AcDbEntity
  8
SANINDUSA
100
AcDbLine
 10
628.4724875777405
 20
1625.38587565811
 30
0.0000000000000001
 11
628.5254875777404
 21
1625.38587565811
 31
0.0000000000000001
  0
LWPOLYLINE
  5
2710
330
1F
100
AcDbEntity
  8
SANINDUSA
100
AcDbPolyline
 90
        4
 70
     1
 43
0.0
 10
628.5254875777404
 20
1625.38567565811
 10
628.4724875777405
 20
1625.38567565811
 10
628.4724875777405
 20
1625.38467565811
 10
628.5254875777404
 20
1625.38467565811
1001
GENIUS_GENREC_14
1002
{
1000
PYDIR
1011
628.2262053206612
1021
1624.343845802098
1031
0.0000000000000001
1002
}
1002
{
1000
PXDIR
1011
628.1732053206613
1021
1624.344845802098
1031
0.0000000000000001
1002
}
1002
{
1000
PORI
1011
628.2262053206612
1021
1624.344845802098
1031
0.0000000000000001
1002
}
1002
{
1000
PINS
1011
628.2262053206612
1021
1624.344845802098
1031
0.0000000000000001
1002
}
1002
{
1000
PINS2
1011
628.1732053206613
1021
1624.343845802098
1031
0.0000000000000001
1002
}
1002
{
1000
C
1070
     1
1002
}
1001
GENIUS_GENODEF_13
1002
{
1000
HIER
1070
     0
1002
}
1002
{
1000
MANEDIT
1070
     0
1002
}
1002
{
1000
NOSEL
1070
     0
1002
}
1002
{
1000
BEHIND
1070
     0
1002
}
1002
{
1000
REACTOR
1002
}
1001
GENIUS_GENOBJ-N-REC_13
1002
{
1000
OWNER
1000
GEN
1002
}
  0
ENDSEC
  0
SECTION
  2
OBJECTS
  0
DICTIONARY
  5
C
330
0
100
AcDbDictionary
281
     1
  3
ACAD_COLOR
350
28F1
  3
ACAD_GROUP
350
D
  3
ACAD_LAYOUT
350
1A
  3
ACAD_MATERIAL
350
28C4
  3
ACAD_MLEADERSTYLE
350
2906
  3
ACAD_MLINESTYLE
350
17
  3
ACAD_PLOTSETTINGS
350
19
  3
ACAD_PLOTSTYLENAME
350
E
  3
ACAD_SCALELIST
350
28F4
  3
ACAD_TABLESTYLE
350
28F2
  3
ACAD_VISUALSTYLE
350
28DD
  3
ACDB_RECOMPOSE_DATA
350
29D4
  3
AcDbVariableDictionary
350
3D
  3
ASE_INDEX_DICTIONARY
350
28BF
  3
DWGPROPS
350
29D5
  0
DICTIONARY
  5
292E
330
10
100
AcDbDictionary
280
     1
281
     1
  3
ADSK_XREC_LAYER_RECONCILED
360
292F
  0
DICTIONARY
  5
2930
330
2F
100
AcDbDictionary
280
     1
281
     1
  3
ADSK_XREC_LAYER_RECONCILED
360
2931
  0
DICTIONARY
  5
2932
330
30
100
AcDbDictionary
280
     1
281
     1
  3
ADSK_XREC_LAYER_RECONCILED
360
2933
  0
DICTIONARY
  5
2934
330
31
100
AcDbDictionary
280
     1
281
     1
  3
ADSK_XREC_LAYER_RECONCILED
360
2935
  0
DICTIONARY
  5
2936
330
32
100
AcDbDictionary
280
     1
281
     1
  3
ADSK_XREC_LAYER_RECONCILED
360
2937
  0
DICTIONARY
  5
2938
330
33
100
AcDbDictionary
280
     1
281
     1
  3
ADSK_XREC_LAYER_RECONCILED
360
2939
  0
DICTIONARY
  5
293A
330
34
100
AcDbDictionary
280
     1
281
     1
  3
ADSK_XREC_LAYER_RECONCILED
360
293B
  0
DICTIONARY
  5
293C
330
35
100
AcDbDictionary
280
     1
281
     1
  3
ADSK_XREC_LAYER_RECONCILED
360
293D
  0
DICTIONARY
  5
293E
330
36
100
AcDbDictionary
280
     1
281
     1
  3
ADSK_XREC_LAYER_RECONCILED
360
293F
  0
DICTIONARY
  5
2940
330
37
100
AcDbDictionary
280
     1
281
     1
  3
ADSK_XREC_LAYER_RECONCILED
360
2941
  0
DICTIONARY
  5
2942
330
5D6
100
AcDbDictionary
280
     1
281
     1
  3
ADSK_XREC_LAYER_RECONCILED
360
2943
  0
DICTIONARY
  5
2944
330
8AF
100
AcDbDictionary
280
     1
281
     1
  3
ADSK_XREC_LAYER_RECONCILED
360
2945
  0
DICTIONARY
  5
2946
330
8F8
100
AcDbDictionary
280
     1
281
     1
  3
ADSK_XREC_LAYER_RECONCILED
360
2947
  0
DICTIONARY
  5
2948
330
91D
100
AcDbDictionary
280
     1
281
     1
  3
ADSK_XREC_LAYER_RECONCILED
360
2949
  0
DICTIONARY
  5
294A
330
C2F
100
AcDbDictionary
280
     1
281
     1
  3
ADSK_XREC_LAYER_RECONCILED
360
294B
  0
DICTIONARY
  5
294C
330
2915
100
AcDbDictionary
280
     1
281
     1
  3
ADSK_XREC_LAYER_RECONCILED
360
294D
  0
DICTIONARY
  5
29DC
330
289E
100
AcDbDictionary
280
     1
281
     1
  3
ACAD_MTEXT_RT
360
29DD
  0
DICTIONARY
  5
28F1
102
{ACAD_REACTORS
330
C
102
}
330
C
100
AcDbDictionary
281
     1
  0
DICTIONARY
  5
D
102
{ACAD_REACTORS
330
C
102
}
330
C
100
AcDbDictionary
281
     1
  0
DICTIONARY
  5
1A
102
{ACAD_REACTORS
330
C
102
}
330
C
100
AcDbDictionary
281
     1
  3
Layout1
350
1E
  3
Layout2
350
26
  3
Model
350
22
  0
DICTIONARY
  5
28C4
102
{ACAD_REACTORS
330
C
102
}
330
C
100
AcDbDictionary
281
     1
  3
ByBlock
350
28CD
  3
ByLayer
350
28C5
  3
Global
350
28D5
  0
DICTIONARY
  5
2906
102
{ACAD_REACTORS
330
C
102
}
330
C
100
AcDbDictionary
281
     1
  3
Standard
350
2907
  0
DICTIONARY
  5
17
102
{ACAD_REACTORS
330
C
102
}
330
C
100
AcDbDictionary
281
     1
  3
Standard
350
18
  0
DICTIONARY
  5
19
102
{ACAD_REACTORS
330
C
102
}
330
C
100
AcDbDictionary
281
     1
  0
ACDBDICTIONARYWDFLT
  5
E
102
{ACAD_REACTORS
330
C
102
}
330
C
100
AcDbDictionary
281
     1
  3
Normal
350
F
100
AcDbDictionaryWithDefault
340
F
  0
DICTIONARY
  5
28F4
102
{ACAD_REACTORS
330
C
102
}
330
C
100
AcDbDictionary
281
     1
  3
A0
350
28F5
  3
A1
350
28F6
  3
A2
350
28F7
  3
A3
350
28F8
  3
A4
350
28F9
  3
A5
350
28FA
  3
A6
350
28FB
  3
A7
350
28FC
  3
A8
350
28FD
  3
A9
350
28FE
  3
B0
350
28FF
  3
B1
350
2900
  3
B2
350
2901
  3
B3
350
2902
  3
B4
350
2903
  3
B5
350
2904
  3
B6
350
2905
  0
DICTIONARY
  5
28F2
102
{ACAD_REACTORS
330
C
102
}
330
C
100
AcDbDictionary
281
     1
  3
Standard
350
28F3
  0
DICTIONARY
  5
28DD
102
{ACAD_REACTORS
330
C
102
}
330
C
100
AcDbDictionary
281
     1
  3
2dWireframe
350
28E3
  3
3D Hidden
350
28E5
  3
3dWireframe
350
28E4
  3
Basic
350
28E2
  3
Brighten
350
28E9
  3
ColorChange
350
28ED
  3
Conceptual
350
28E6
  3
Dim
350
28E8
  3
EdgeColorOff
350
28F0
  3
Facepattern
350
28EC
  3
Flat
350
28DE
  3
FlatWithEdges
350
28DF
  3
Gouraud
350
28E0
  3
GouraudWithEdges
350
28E1
  3
JitterOff
350
28EE
  3
Linepattern
350
28EB
  3
OverhangOff
350
28EF
  3
Realistic
350
28E7
  3
Thicken
350
28EA
  0
XRECORD
  5
29D4
102
{ACAD_REACTORS
330
C
102
}
330
C
100
AcDbXrecord
280
     1
 90
        1
330
28F3
  0
DICTIONARY
  5
3D
102
{ACAD_REACTORS
330
C
102
}
330
C
100
AcDbDictionary
281
     1
  3
CANNOSCALE
350
29CE
  3
CMLEADERSTYLE
350
29CD
  3
CTABLESTYLE
350
29CC
  3
DIMASSOC
350
3F
  3
HIDETEXT
350
3E
  3
INDEXCTL
350
29D0
  3
SORTENTS
350
29CF
  3
XCLIPFRAME
350
29D1
  0
DICTIONARY
  5
28BF
102
{ACAD_REACTORS
330
C
102
}
330
C
100
AcDbDictionary
281
     1
  3
ASEBlockHierarchyIndexRecord
350
28C0
1001
DCO15
1040
1508217114.25
  0
XRECORD
  5
29D5
102
{ACAD_REACTORS
330
C
102
}
330
C
100
AcDbXrecord
280
     1
  1
DWGPROPS COOKIE
  2

  3

  4

  6

  7

  8
Julio
  9

300
=
301
=
302
=
303
=
304
=
305
=
306
=
307
=
308
=
309
=
 40
0.0514491087962963
 41
2453258.658794664
 42
2455817.476755278
  1

 90
        0
  0
XRECORD
  5
292F
102
{ACAD_REACTORS
330
292E
102
}
330
292E
100
AcDbXrecord
280
     1
290
     1
  0
XRECORD
  5
2931
102
{ACAD_REACTORS
330
2930
102
}
330
2930
100
AcDbXrecord
280
     1
290
     1
  0
XRECORD
  5
2933
102
{ACAD_REACTORS
330
2932
102
}
330
2932
100
AcDbXrecord
280
     1
290
     1
  0
XRECORD
  5
2935
102
{ACAD_REACTORS
330
2934
102
}
330
2934
100
AcDbXrecord
280
     1
290
     1
  0
XRECORD
  5
2937
102
{ACAD_REACTORS
330
2936
102
}
330
2936
100
AcDbXrecord
280
     1
290
     1
  0
XRECORD
  5
2939
102
{ACAD_REACTORS
330
2938
102
}
330
2938
100
AcDbXrecord
280
     1
290
     1
  0
XRECORD
  5
293B
102
{ACAD_REACTORS
330
293A
102
}
330
293A
100
AcDbXrecord
280
     1
290
     1
  0
XRECORD
  5
293D
102
{ACAD_REACTORS
330
293C
102
}
330
293C
100
AcDbXrecord
280
     1
290
     1
  0
XRECORD
  5
293F
102
{ACAD_REACTORS
330
293E
102
}
330
293E
100
AcDbXrecord
280
     1
290
     1
  0
XRECORD
  5
2941
102
{ACAD_REACTORS
330
2940
102
}
330
2940
100
AcDbXrecord
280
     1
290
     1
  0
XRECORD
  5
2943
102
{ACAD_REACTORS
330
2942
102
}
330
2942
100
AcDbXrecord
280
     1
290
     1
  0
XRECORD
  5
2945
102
{ACAD_REACTORS
330
2944
102
}
330
2944
100
AcDbXrecord
280
     1
290
     1
  0
XRECORD
  5
2947
102
{ACAD_REACTORS
330
2946
102
}
330
2946
100
AcDbXrecord
280
     1
290
     1
  0
XRECORD
  5
2949
102
{ACAD_REACTORS
330
2948
102
}
330
2948
100
AcDbXrecord
280
     1
290
     1
  0
XRECORD
  5
294B
102
{ACAD_REACTORS
330
294A
102
}
330
294A
100
AcDbXrecord
280
     1
290
     1
  0
XRECORD
  5
294D
102
{ACAD_REACTORS
330
294C
102
}
330
294C
100
AcDbXrecord
280
     1
290
     1
  0
XRECORD
  5
29DD
102
{ACAD_REACTORS
330
29DC
102
}
330
29DC
100
AcDbXrecord
280
     1
 40
3752.0
  1
90,0°
  0
LAYOUT
  5
1E
102
{ACAD_XDICTIONARY
360
29D6
102
}
102
{ACAD_REACTORS
330
1A
102
}
330
1A
100
AcDbPlotSettings
  1

  2
Ploter HP500
  4

  6

 40
0.0
 41
0.0
 42
0.0
 43
0.0
 44
0.0
 45
0.0
 46
0.0
 47
0.0
 48
0.0
 49
0.0
140
0.0
141
0.0
142
1.0
143
1.0
 70
   688
 72
     0
 73
     0
 74
     5
  7
monochrome.ctb
 75
    16
147
1.0
148
0.0
149
0.0
100
AcDbLayout
  1
Layout1
 70
     1
 71
     1
 10
0.0
 20
0.0
 11
420.0
 21
297.0
 12
0.0
 22
0.0
 32
0.0
 14
1.000000000000000E+20
 24
1.000000000000000E+20
 34
1.000000000000000E+20
 15
-1.000000000000000E+20
 25
-1.000000000000000E+20
 35
-1.000000000000000E+20
146
0.0
 13
0.0
 23
0.0
 33
0.0
 16
1.0
 26
0.0
 36
0.0
 17
0.0
 27
1.0
 37
0.0
 76
     0
330
1B
  0
LAYOUT
  5
26
102
{ACAD_XDICTIONARY
360
29DA
102
}
102
{ACAD_REACTORS
330
1A
102
}
330
1A
100
AcDbPlotSettings
  1

  2
Ploter HP500
  4

  6

 40
0.0
 41
0.0
 42
0.0
 43
0.0
 44
0.0
 45
0.0
 46
0.0
 47
0.0
 48
0.0
 49
0.0
140
0.0
141
0.0
142
1.0
143
1.0
 70
   688
 72
     0
 73
     0
 74
     5
  7
monochrome.ctb
 75
    16
147
1.0
148
0.0
149
0.0
100
AcDbLayout
  1
Layout2
 70
     1
 71
     2
 10
0.0
 20
0.0
 11
12.0
 21
9.0
 12
0.0
 22
0.0
 32
0.0
 14
0.0
 24
0.0
 34
0.0
 15
0.0
 25
0.0
 35
0.0
146
0.0
 13
0.0
 23
0.0
 33
0.0
 16
1.0
 26
0.0
 36
0.0
 17
0.0
 27
1.0
 37
0.0
 76
     0
330
23
  0
LAYOUT
  5
22
102
{ACAD_XDICTIONARY
360
29D8
102
}
102
{ACAD_REACTORS
330
1A
102
}
330
1A
100
AcDbPlotSettings
  1

  2
Ploter HP500
  4
User268
  6

 40
4.995333194732666
 41
16.97565841674804
 42
4.995330810546875
 43
16.97567749023437
 44
209.9733276367187
 45
296.9259948730469
 46
0.0
 47
0.0
 48
0.0
 49
0.0
140
0.0
141
0.0
142
1.0
143
1.0
 70
 11952
 72
     1
 73
     1
 74
     0
  7

 75
     0
147
1.0
148
-427.5957866592534
149
7.362384574453926
100
AcDbLayout
  1
Model
 70
     1
 71
     0
 10
0.0
 20
0.0
 11
12.0
 21
9.0
 12
0.0
 22
0.0
 32
0.0
 14
0.0
 24
0.0
 34
0.0
 15
0.0
 25
0.0
 35
0.0
146
0.0
 13
0.0
 23
0.0
 33
0.0
 16
1.0
 26
0.0
 36
0.0
 17
0.0
 27
1.0
 37
0.0
 76
     0
330
1F
331
28C2
  0
MATERIAL
  5
28CD
102
{ACAD_XDICTIONARY
360
28CE
102
}
102
{ACAD_REACTORS
330
28C4
102
}
330
28C4
100
AcDbMaterial
  1
ByBlock
 72
     0
 43
0.0008202099737533
 43
0.0
 43
0.0
 43
0.0
 43
0.0
 43
0.0008202099737533
 43
0.0
 43
0.0
 43
0.0
 43
0.0
 43
1.0
 43
0.0
 43
0.0
 43
0.0
 43
0.0
 43
1.0
 77
     0
 47
0.0008202099737533
 47
0.0
 47
0.0
 47
0.0
 47
0.0
 47
0.0008202099737533
 47
0.0
 47
0.0
 47
0.0
 47
0.0
 47
1.0
 47
0.0
 47
0.0
 47
0.0
 47
0.0
 47
1.0
171
     0
 49
0.0008202099737533
 49
0.0
 49
0.0
 49
0.0
 49
0.0
 49
0.0008202099737533
 49
0.0
 49
0.0
 49
0.0
 49
0.0
 49
1.0
 49
0.0
 49
0.0
 49
0.0
 49
0.0
 49
1.0
175
     0
142
0.0008202099737533
142
0.0
142
0.0
142
0.0
142
0.0
142
0.0008202099737533
142
0.0
142
0.0
142
0.0
142
0.0
142
1.0
142
0.0
142
0.0
142
0.0
142
0.0
142
1.0
179
     0
144
0.0008202099737533
144
0.0
144
0.0
144
0.0
144
0.0
144
0.0008202099737533
144
0.0
144
0.0
144
0.0
144
0.0
144
1.0
144
0.0
144
0.0
144
0.0
144
0.0
144
1.0
147
0.0008202099737533
147
0.0
147
0.0
147
0.0
147
0.0
147
0.0008202099737533
147
0.0
147
0.0
147
0.0
147
0.0
147
1.0
147
0.0
147
0.0
147
0.0
147
0.0
147
1.0
  0
MATERIAL
  5
28C5
102
{ACAD_XDICTIONARY
360
28C6
102
}
102
{ACAD_REACTORS
330
28C4
102
}
330
28C4
100
AcDbMaterial
  1
ByLayer
 72
     0
 43
0.0008202099737533
 43
0.0
 43
0.0
 43
0.0
 43
0.0
 43
0.0008202099737533
 43
0.0
 43
0.0
 43
0.0
 43
0.0
 43
1.0
 43
0.0
 43
0.0
 43
0.0
 43
0.0
 43
1.0
 77
     0
 47
0.0008202099737533
 47
0.0
 47
0.0
 47
0.0
 47
0.0
 47
0.0008202099737533
 47
0.0
 47
0.0
 47
0.0
 47
0.0
 47
1.0
 47
0.0
 47
0.0
 47
0.0
 47
0.0
 47
1.0
171
     0
 49
0.0008202099737533
 49
0.0
 49
0.0
 49
0.0
 49
0.0
 49
0.0008202099737533
 49
0.0
 49
0.0
 49
0.0
 49
0.0
 49
1.0
 49
0.0
 49
0.0
 49
0.0
 49
0.0
 49
1.0
175
     0
142
0.0008202099737533
142
0.0
142
0.0
142
0.0
142
0.0
142
0.0008202099737533
142
0.0
142
0.0
142
0.0
142
0.0
142
1.0
142
0.0
142
0.0
142
0.0
142
0.0
142
1.0
179
     0
144
0.0008202099737533
144
0.0
144
0.0
144
0.0
144
0.0
144
0.0008202099737533
144
0.0
144
0.0
144
0.0
144
0.0
144
1.0
144
0.0
144
0.0
144
0.0
144
0.0
144
1.0
147
0.0008202099737533
147
0.0
147
0.0
147
0.0
147
0.0
147
0.0008202099737533
147
0.0
147
0.0
147
0.0
147
0.0
147
1.0
147
0.0
147
0.0
147
0.0
147
0.0
147
1.0
  0
MATERIAL
  5
28D5
102
{ACAD_XDICTIONARY
360
28D6
102
}
102
{ACAD_REACTORS
330
28C4
102
}
330
28C4
100
AcDbMaterial
  1
Global
 72
     0
 43
0.0008202099737533
 43
0.0
 43
0.0
 43
0.0
 43
0.0
 43
0.0008202099737533
 43
0.0
 43
0.0
 43
0.0
 43
0.0
 43
1.0
 43
0.0
 43
0.0
 43
0.0
 43
0.0
 43
1.0
 77
     0
 47
0.0008202099737533
 47
0.0
 47
0.0
 47
0.0
 47
0.0
 47
0.0008202099737533
 47
0.0
 47
0.0
 47
0.0
 47
0.0
 47
1.0
 47
0.0
 47
0.0
 47
0.0
 47
0.0
 47
1.0
171
     0
 49
0.0008202099737533
 49
0.0
 49
0.0
 49
0.0
 49
0.0
 49
0.0008202099737533
 49
0.0
 49
0.0
 49
0.0
 49
0.0
 49
1.0
 49
0.0
 49
0.0
 49
0.0
 49
0.0
 49
1.0
175
     0
142
0.0008202099737533
142
0.0
142
0.0
142
0.0
142
0.0
142
0.0008202099737533
142
0.0
142
0.0
142
0.0
142
0.0
142
1.0
142
0.0
142
0.0
142
0.0
142
0.0
142
1.0
179
     0
144
0.0008202099737533
144
0.0
144
0.0
144
0.0
144
0.0
144
0.0008202099737533
144
0.0
144
0.0
144
0.0
144
0.0
144
1.0
144
0.0
144
0.0
144
0.0
144
0.0
144
1.0
147
0.0008202099737533
147
0.0
147
0.0
147
0.0
147
0.0
147
0.0008202099737533
147
0.0
147
0.0
147
0.0
147
0.0
147
1.0
147
0.0
147
0.0
147
0.0
147
0.0
147
1.0
  0
MLEADERSTYLE
  5
2907
102
{ACAD_REACTORS
330
2906
102
}
330
2906
100
AcDbMLeaderStyle
170
     2
171
     1
172
     0
 90
        2
 40
0.0
 41
0.0
173
     1
 91
-1056964608
340
14
 92
       -2
290
     1
 42
2.0
291
     1
 43
0.36
  3
Standard
 44
4.0
300

342
11
174
     1
178
     6
175
     1
176
     0
 93
-1056964608
 45
4.0
292
     0
297
     0
 46
4.0
 94
-1056964608
 47
1.0
 49
1.0
140
1.0
293
     1
141
0.0
294
     1
177
     0
142
1.0
295
     0
296
     0
143
0.125
1001
ACAD_MLEADERVER
1070
     2
  0
MLINESTYLE
  5
18
102
{ACAD_REACTORS
330
17
102
}
330
17
100
AcDbMlineStyle
  2
STANDARD
 70
     0
  3

 62
   256
 51
90.0
 52
90.0
 71
     2
 49
0.5
 62
   256
  6
BYLAYER
 49
-0.5
 62
   256
  6
BYLAYER
  0
ACDBPLACEHOLDER
  5
F
102
{ACAD_REACTORS
330
E
102
}
330
E
  0
SCALE
  5
28F5
102
{ACAD_REACTORS
330
28F4
102
}
330
28F4
100
AcDbScale
 70
     0
300
1:1
140
1.0
141
1.0
290
     1
  0
SCALE
  5
28F6
102
{ACAD_REACTORS
330
28F4
102
}
330
28F4
100
AcDbScale
 70
     0
300
1:2
140
1.0
141
2.0
290
     0
  0
SCALE
  5
28F7
102
{ACAD_REACTORS
330
28F4
102
}
330
28F4
100
AcDbScale
 70
     0
300
1:4
140
1.0
141
4.0
290
     0
  0
SCALE
  5
28F8
102
{ACAD_REACTORS
330
28F4
102
}
330
28F4
100
AcDbScale
 70
     0
300
1:5
140
1.0
141
5.0
290
     0
  0
SCALE
  5
28F9
102
{ACAD_REACTORS
330
28F4
102
}
330
28F4
100
AcDbScale
 70
     0
300
1:8
140
1.0
141
8.0
290
     0
  0
SCALE
  5
28FA
102
{ACAD_REACTORS
330
28F4
102
}
330
28F4
100
AcDbScale
 70
     0
300
1:10
140
1.0
141
10.0
290
     0
  0
SCALE
  5
28FB
102
{ACAD_REACTORS
330
28F4
102
}
330
28F4
100
AcDbScale
 70
     0
300
1:16
140
1.0
141
16.0
290
     0
  0
SCALE
  5
28FC
102
{ACAD_REACTORS
330
28F4
102
}
330
28F4
100
AcDbScale
 70
     0
300
1:20
140
1.0
141
20.0
290
     0
  0
SCALE
  5
28FD
102
{ACAD_REACTORS
330
28F4
102
}
330
28F4
100
AcDbScale
 70
     0
300
1:30
140
1.0
141
30.0
290
     0
  0
SCALE
  5
28FE
102
{ACAD_REACTORS
330
28F4
102
}
330
28F4
100
AcDbScale
 70
     0
300
1:40
140
1.0
141
40.0
290
     0
  0
SCALE
  5
28FF
102
{ACAD_REACTORS
330
28F4
102
}
330
28F4
100
AcDbScale
 70
     0
300
1:50
140
1.0
141
50.0
290
     0
  0
SCALE
  5
2900
102
{ACAD_REACTORS
330
28F4
102
}
330
28F4
100
AcDbScale
 70
     0
300
1:100
140
1.0
141
100.0
290
     0
  0
SCALE
  5
2901
102
{ACAD_REACTORS
330
28F4
102
}
330
28F4
100
AcDbScale
 70
     0
300
2:1
140
2.0
141
1.0
290
     0
  0
SCALE
  5
2902
102
{ACAD_REACTORS
330
28F4
102
}
330
28F4
100
AcDbScale
 70
     0
300
4:1
140
4.0
141
1.0
290
     0
  0
SCALE
  5
2903
102
{ACAD_REACTORS
330
28F4
102
}
330
28F4
100
AcDbScale
 70
     0
300
8:1
140
8.0
141
1.0
290
     0
  0
SCALE
  5
2904
102
{ACAD_REACTORS
330
28F4
102
}
330
28F4
100
AcDbScale
 70
     0
300
10:1
140
10.0
141
1.0
290
     0
  0
SCALE
  5
2905
102
{ACAD_REACTORS
330
28F4
102
}
330
28F4
100
AcDbScale
 70
     0
300
100:1
140
100.0
141
1.0
290
     0
  0
TABLESTYLE
  5
28F3
102
{ACAD_XDICTIONARY
360
29D2
102
}
102
{ACAD_REACTORS
330
28F2
102
}
330
28F2
100
AcDbTableStyle
  3
Standard
 70
     0
 71
     0
 40
1.5
 41
1.5
280
     0
281
     0
  7
Standard
140
4.5
170
     2
 62
     0
 63
     7
283
     0
274
    -2
284
     1
 64
     0
275
    -2
285
     1
 65
     0
276
    -2
286
     1
 66
     0
277
    -2
287
     1
 67
     0
278
    -2
288
     1
 68
     0
279
    -2
289
     1
 69
     0
  7
Standard
140
6.0
170
     5
 62
     0
 63
     7
283
     0
274
    -2
284
     1
 64
     0
275
    -2
285
     1
 65
     0
276
    -2
286
     1
 66
     0
277
    -2
287
     1
 67
     0
278
    -2
288
     1
 68
     0
279
    -2
289
     1
 69
     0
  7
Standard
140
4.5
170
     5
 62
     0
 63
     7
283
     0
274
    -2
284
     1
 64
     0
275
    -2
285
     1
 65
     0
276
    -2
286
     1
 66
     0
277
    -2
287
     1
 67
     0
278
    -2
288
     1
 68
     0
279
    -2
289
     1
 69
     0
  0
VISUALSTYLE
  5
28E3
102
{ACAD_XDICTIONARY
360
29EB
102
}
102
{ACAD_REACTORS
330
28DD
102
}
330
28DD
100
AcDbVisualStyle
  2
2dWireframe
 70
     4
 71
     0
 72
     2
 73
     0
 90
        0
 40
-0.6
 41
-30.0
 62
     5
 63
     7
 74
     1
 91
        4
 64
     7
 65
   257
 75
     1
175
     1
 42
1.0
 92
        0
 66
   257
 43
1.0
 76
     1
 77
     6
 78
     2
 67
     7
 79
     5
170
     0
171
     0
290
     0
174
     0
 93
        1
 44
0.0
173
     0
291
     0
 45
0.0
1001
ACAD
1000
AcDbSavedByObjectVersion
1070
     0
  0
VISUALSTYLE
  5
28E5
102
{ACAD_XDICTIONARY
360
29EF
102
}
102
{ACAD_REACTORS
330
28DD
102
}
330
28DD
100
AcDbVisualStyle
  2
3D Hidden
 70
     6
 71
     1
 72
     2
 73
     2
 90
        0
 40
-0.6
 41
-30.0
 62
     5
 63
     7
 74
     2
 91
        2
 64
     7
 65
   257
 75
     2
175
     1
 42
179.0
 92
        0
 66
   257
 43
1.0
 76
     1
 77
     6
 78
     2
 67
     7
 79
     3
170
     0
171
     0
290
     0
174
     0
 93
        1
 44
0.0
173
     0
291
     0
 45
0.0
1001
ACAD
1000
AcDbSavedByObjectVersion
1070
     0
  0
VISUALSTYLE
  5
28E4
102
{ACAD_XDICTIONARY
360
29ED
102
}
102
{ACAD_REACTORS
330
28DD
102
}
330
28DD
100
AcDbVisualStyle
  2
3dWireframe
 70
     5
 71
     0
 72
     2
 73
     0
 90
        0
 40
-0.6
 41
-30.0
 62
     5
 63
     7
 74
     1
 91
        4
 64
     7
 65
   257
 75
     1
175
     1
 42
1.0
 92
        0
 66
   257
 43
1.0
 76
     1
 77
     6
 78
     2
 67
     7
 79
     5
170
     0
171
     0
290
     0
174
     0
 93
        1
 44
0.0
173
     0
291
     0
 45
0.0
1001
ACAD
1000
AcDbSavedByObjectVersion
1070
     0
  0
VISUALSTYLE
  5
28E2
102
{ACAD_XDICTIONARY
360
29E9
102
}
102
{ACAD_REACTORS
330
28DD
102
}
330
28DD
100
AcDbVisualStyle
  2
Basic
 70
     7
 71
     1
 72
     0
 73
     1
 90
        0
 40
-0.6
 41
-30.0
 62
     5
 63
     7
 74
     0
 91
        4
 64
     7
 65
   257
 75
     1
175
     1
 42
1.0
 92
        8
 66
     7
 43
1.0
 76
     1
 77
     6
 78
     2
 67
     7
 79
     5
170
     0
171
     0
290
     0
174
     0
 93
        1
 44
0.0
173
     0
291
     1
 45
0.0
1001
ACAD
1000
AcDbSavedByObjectVersion
1070
     0
  0
VISUALSTYLE
  5
28E9
102
{ACAD_XDICTIONARY
360
29F7
102
}
102
{ACAD_REACTORS
330
28DD
102
}
330
28DD
100
AcDbVisualStyle
  2
Brighten
 70
    12
 71
     2
 72
     2
 73
     0
 90
        0
 40
-0.6
 41
-30.0
 62
     5
 63
     7
 74
     1
 91
        4
 64
     7
 65
   257
 75
     1
175
     1
 42
1.0
 92
        8
 66
     7
 43
1.0
 76
     1
 77
     6
 78
     2
 67
     7
 79
     5
170
     0
171
     0
290
     0
174
     0
 93
        1
 44
50.0
173
     0
291
     1
 45
0.0
1001
ACAD
1000
AcDbSavedByObjectVersion
1070
     0
  0
VISUALSTYLE
  5
28ED
102
{ACAD_XDICTIONARY
360
29FF
102
}
102
{ACAD_REACTORS
330
28DD
102
}
330
28DD
100
AcDbVisualStyle
  2
ColorChange
 70
    16
 71
     2
 72
     2
 73
     3
 90
        0
 40
-0.6
 41
-30.0
 62
     5
 63
     8
 74
     1
 91
        4
 64
     7
 65
   257
 75
     1
175
     1
 42
1.0
 92
        8
 66
     8
 43
1.0
 76
     1
 77
     6
 78
     2
 67
     7
 79
     5
170
     0
171
     0
290
     0
174
     0
 93
        1
 44
0.0
173
     0
291
     1
 45
0.0
1001
ACAD
1000
AcDbSavedByObjectVersion
1070
     0
  0
VISUALSTYLE
  5
28E6
102
{ACAD_XDICTIONARY
360
29F1
102
}
102
{ACAD_REACTORS
330
28DD
102
}
330
28DD
100
AcDbVisualStyle
  2
Conceptual
 70
     9
 71
     3
 72
     2
 73
     0
 90
        0
 40
-0.6
 41
-30.0
 62
     5
 63
     7
 74
     2
 91
        2
 64
     7
 65
   257
 75
     1
175
     1
 42
179.0
 92
        8
 66
     7
 43
1.0
 76
     1
 77
     6
 78
     2
 67
     7
 79
     3
170
     0
171
     0
290
     0
174
     0
 93
        1
 44
0.0
173
     0
291
     0
 45
0.0
1001
ACAD
1000
AcDbSavedByObjectVersion
1070
     0
  0
VISUALSTYLE
  5
28E8
102
{ACAD_XDICTIONARY
360
29F5
102
}
102
{ACAD_REACTORS
330
28DD
102
}
330
28DD
100
AcDbVisualStyle
  2
Dim
 70
    11
 71
     2
 72
     2
 73
     0
 90
        0
 40
-0.6
 41
-30.0
 62
     5
 63
     7
 74
     1
 91
        4
 64
     7
 65
   257
 75
     1
175
     1
 42
1.0
 92
        8
 66
     7
 43
1.0
 76
     1
 77
     6
 78
     2
 67
     7
 79
     5
170
     0
171
     0
290
     0
174
     0
 93
        1
 44
-50.0
173
     0
291
     1
 45
0.0
1001
ACAD
1000
AcDbSavedByObjectVersion
1070
     0
  0
VISUALSTYLE
  5
28F0
102
{ACAD_XDICTIONARY
360
2A05
102
}
102
{ACAD_REACTORS
330
28DD
102
}
330
28DD
100
AcDbVisualStyle
  2
EdgeColorOff
 70
    22
 71
     2
 72
     2
 73
     0
 90
        0
 40
-0.6
 41
-30.0
 62
     5
 63
     7
 74
     1
 91
        4
 64
     7
 65
   257
 75
     1
175
     1
 42
1.0
 92
        8
 66
     7
 43
1.0
 76
     1
 77
     6
 78
     2
 67
     7
 79
     5
170
     0
171
     0
290
     0
174
     0
 93
        1
 44
0.0
173
     0
291
     1
 45
0.0
1001
ACAD
1000
AcDbSavedByObjectVersion
1070
     0
  0
VISUALSTYLE
  5
28EC
102
{ACAD_XDICTIONARY
360
29FD
102
}
102
{ACAD_REACTORS
330
28DD
102
}
330
28DD
100
AcDbVisualStyle
  2
Facepattern
 70
    15
 71
     2
 72
     2
 73
     0
 90
        0
 40
-0.6
 41
-30.0
 62
     5
 63
     7
 74
     1
 91
        4
 64
     7
 65
   257
 75
     1
175
     1
 42
1.0
 92
        8
 66
     7
 43
1.0
 76
     1
 77
     6
 78
     2
 67
     7
 79
     5
170
     0
171
     0
290
     0
174
     0
 93
        1
 44
0.0
173
     0
291
     1
 45
0.0
1001
ACAD
1000
AcDbSavedByObjectVersion
1070
     0
  0
VISUALSTYLE
  5
28DE
102
{ACAD_XDICTIONARY
360
29E1
102
}
102
{ACAD_REACTORS
330
28DD
102
}
330
28DD
100
AcDbVisualStyle
  2
Flat
 70
     0
 71
     2
 72
     1
 73
     1
 90
        2
 40
-0.6
 41
30.0
 62
     5
 63
     7
 74
     0
 91
        4
 64
     7
 65
   257
 75
     1
175
     1
 42
1.0
 92
        8
 66
     7
 43
1.0
 76
     1
 77
     6
 78
     2
 67
     7
 79
     5
170
     0
171
     0
290
     0
174
     0
 93
       13
 44
0.0
173
     0
291
     1
 45
0.0
1001
ACAD
1000
AcDbSavedByObjectVersion
1070
     0
  0
VISUALSTYLE
  5
28DF
102
{ACAD_XDICTIONARY
360
29E3
102
}
102
{ACAD_REACTORS
330
28DD
102
}
330
28DD
100
AcDbVisualStyle
  2
FlatWithEdges
 70
     1
 71
     2
 72
     1
 73
     1
 90
        2
 40
-0.6
 41
30.0
 62
     5
 63
     7
 74
     1
 91
        4
 64
     7
 65
   257
 75
     1
175
     1
 42
1.0
 92
        0
 66
   257
 43
1.0
 76
     1
 77
     6
 78
     2
 67
     7
 79
     5
170
     0
171
     0
290
     0
174
     0
 93
       13
 44
0.0
173
     0
291
     1
 45
0.0
1001
ACAD
1000
AcDbSavedByObjectVersion
1070
     0
  0
VISUALSTYLE
  5
28E0
102
{ACAD_XDICTIONARY
360
29E5
102
}
102
{ACAD_REACTORS
330
28DD
102
}
330
28DD
100
AcDbVisualStyle
  2
Gouraud
 70
     2
 71
     2
 72
     2
 73
     1
 90
        2
 40
-0.6
 41
30.0
 62
     5
 63
     7
 74
     0
 91
        4
 64
     7
 65
   257
 75
     1
175
     1
 42
1.0
 92
        0
 66
     7
 43
1.0
 76
     1
 77
     6
 78
     2
 67
     7
 79
     5
170
     0
171
     0
290
     0
174
     0
 93
       13
 44
0.0
173
     0
291
     1
 45
0.0
1001
ACAD
1000
AcDbSavedByObjectVersion
1070
     0
  0
VISUALSTYLE
  5
28E1
102
{ACAD_XDICTIONARY
360
29E7
102
}
102
{ACAD_REACTORS
330
28DD
102
}
330
28DD
100
AcDbVisualStyle
  2
GouraudWithEdges
 70
     3
 71
     2
 72
     2
 73
     1
 90
        2
 40
-0.6
 41
30.0
 62
     5
 63
     7
 74
     1
 91
        4
 64
     7
 65
   257
 75
     1
175
     1
 42
1.0
 92
        0
 66
   257
 43
1.0
 76
     1
 77
     6
 78
     2
 67
     7
 79
     5
170
     0
171
     0
290
     0
174
     0
 93
       13
 44
0.0
173
     0
291
     1
 45
0.0
1001
ACAD
1000
AcDbSavedByObjectVersion
1070
     0
  0
VISUALSTYLE
  5
28EE
102
{ACAD_XDICTIONARY
360
2A01
102
}
102
{ACAD_REACTORS
330
28DD
102
}
330
28DD
100
AcDbVisualStyle
  2
JitterOff
 70
    20
 71
     2
 72
     2
 73
     0
 90
        0
 40
-0.6
 41
-30.0
 62
     5
 63
     7
 74
     1
 91
        4
 64
     7
 65
   257
 75
     1
175
     1
 42
1.0
 92
       10
 66
     7
 43
1.0
 76
     1
 77
     6
 78
     2
 67
     7
 79
     5
170
     0
171
     0
290
     0
174
     0
 93
        1
 44
0.0
173
     0
291
     1
 45
0.0
1001
ACAD
1000
AcDbSavedByObjectVersion
1070
     0
  0
VISUALSTYLE
  5
28EB
102
{ACAD_XDICTIONARY
360
29FB
102
}
102
{ACAD_REACTORS
330
28DD
102
}
330
28DD
100
AcDbVisualStyle
  2
Linepattern
 70
    14
 71
     2
 72
     2
 73
     0
 90
        0
 40
-0.6
 41
-30.0
 62
     5
 63
     7
 74
     1
 91
        4
 64
     7
 65
   257
 75
     7
175
     7
 42
1.0
 92
        8
 66
     7
 43
1.0
 76
     1
 77
     6
 78
     2
 67
     7
 79
     5
170
     0
171
     0
290
     0
174
     0
 93
        1
 44
0.0
173
     0
291
     1
 45
0.0
1001
ACAD
1000
AcDbSavedByObjectVersion
1070
     0
  0
VISUALSTYLE
  5
28EF
102
{ACAD_XDICTIONARY
360
2A03
102
}
102
{ACAD_REACTORS
330
28DD
102
}
330
28DD
100
AcDbVisualStyle
  2
OverhangOff
 70
    21
 71
     2
 72
     2
 73
     0
 90
        0
 40
-0.6
 41
-30.0
 62
     5
 63
     7
 74
     1
 91
        4
 64
     7
 65
   257
 75
     1
175
     1
 42
1.0
 92
        9
 66
     7
 43
1.0
 76
     1
 77
     6
 78
     2
 67
     7
 79
     5
170
     0
171
     0
290
     0
174
     0
 93
        1
 44
0.0
173
     0
291
     1
 45
0.0
1001
ACAD
1000
AcDbSavedByObjectVersion
1070
     0
  0
VISUALSTYLE
  5
28E7
102
{ACAD_XDICTIONARY
360
29F3
102
}
102
{ACAD_REACTORS
330
28DD
102
}
330
28DD
100
AcDbVisualStyle
  2
Realistic
 70
     8
 71
     2
 72
     2
 73
     0
 90
        0
 40
-0.6
 41
-30.0
 62
     5
 63
     7
 74
     1
 91
        0
 64
     7
 65
   257
 75
     1
175
     1
 42
1.0
 92
        8
 66
     8
 43
1.0
 76
     1
 77
     6
 78
     2
 67
     7
 79
     5
170
     0
171
     0
290
     0
174
     0
 93
       13
 44
0.0
173
     0
291
     0
 45
0.0
1001
ACAD
1000
AcDbSavedByObjectVersion
1070
     0
  0
VISUALSTYLE
  5
28EA
102
{ACAD_XDICTIONARY
360
29F9
102
}
102
{ACAD_REACTORS
330
28DD
102
}
330
28DD
100
AcDbVisualStyle
  2
Thicken
 70
    13
 71
     2
 72
     2
 73
     0
 90
        0
 40
-0.6
 41
-30.0
 62
     5
 63
     7
 74
     1
 91
        4
 64
     7
 65
   257
 75
     1
175
     1
 42
1.0
 92
       12
 66
     7
 43
1.0
 76
     1
 77
     6
 78
     2
 67
     7
 79
     5
170
     0
171
     0
290
     0
174
     0
 93
        1
 44
0.0
173
     0
291
     1
 45
0.0
1001
ACAD
1000
AcDbSavedByObjectVersion
1070
     0
  0
DICTIONARYVAR
  5
29CE
102
{ACAD_REACTORS
330
3D
102
}
330
3D
100
DictionaryVariables
280
     0
  1
1:1
  0
DICTIONARYVAR
  5
29CD
102
{ACAD_REACTORS
330
3D
102
}
330
3D
100
DictionaryVariables
280
     0
  1
STANDARD
  0
DICTIONARYVAR
  5
29CC
102
{ACAD_REACTORS
330
3D
102
}
330
3D
100
DictionaryVariables
280
     0
  1
STANDARD
  0
DICTIONARYVAR
  5
3F
102
{ACAD_REACTORS
330
3D
102
}
330
3D
100
DictionaryVariables
280
     0
  1
2
  0
DICTIONARYVAR
  5
3E
102
{ACAD_REACTORS
330
3D
102
}
330
3D
100
DictionaryVariables
280
     0
  1
1
  0
DICTIONARYVAR
  5
29D0
102
{ACAD_REACTORS
330
3D
102
}
330
3D
100
DictionaryVariables
280
     0
  1
0
  0
DICTIONARYVAR
  5
29CF
102
{ACAD_REACTORS
330
3D
102
}
330
3D
100
DictionaryVariables
280
     0
  1
127
  0
DICTIONARYVAR
  5
29D1
102
{ACAD_REACTORS
330
3D
102
}
330
3D
100
DictionaryVariables
280
     0
  1
2
  0
XRECORD
  5
28C0
102
{ACAD_REACTORS
330
28BF
102
}
330
28BF
100
AcDbXrecord
280
     1
330
266A
330
2753
  0
DICTIONARY
  5
29D6
330
1E
100
AcDbDictionary
280
     1
281
     1
  3
ACAD_XREC_ROUNDTRIP
360
29D7
  0
DICTIONARY
  5
29DA
330
26
100
AcDbDictionary
280
     1
281
     1
  3
ACAD_XREC_ROUNDTRIP
360
29DB
  0
DICTIONARY
  5
29D8
330
22
100
AcDbDictionary
280
     1
281
     1
  3
ACAD_XREC_ROUNDTRIP
360
29D9
  0
DICTIONARY
  5
28CE
330
28CD
100
AcDbDictionary
280
     1
281
     1
  3
ACAD_XREC_ROUNDTRIP
360
29DF
  3
BUMPTILE
360
28D0
  3
DIFFUSETILE
360
28CF
  3
OPACITYTILE
360
28D3
  3
REFLECTIONTILE
360
28D2
  3
REFRACTIONTILE
360
28D4
  3
SPECULARTILE
360
28D1
  0
DICTIONARY
  5
28C6
330
28C5
100
AcDbDictionary
280
     1
281
     1
  3
ACAD_XREC_ROUNDTRIP
360
29DE
  3
BUMPTILE
360
28C8
  3
DIFFUSETILE
360
28C7
  3
OPACITYTILE
360
28CB
  3
REFLECTIONTILE
360
28CA
  3
REFRACTIONTILE
360
28CC
  3
SPECULARTILE
360
28C9
  0
DICTIONARY
  5
28D6
330
28D5
100
AcDbDictionary
280
     1
281
     1
  3
ACAD_XREC_ROUNDTRIP
360
29E0
  3
BUMPTILE
360
28D8
  3
DIFFUSETILE
360
28D7
  3
OPACITYTILE
360
28DB
  3
REFLECTIONTILE
360
28DA
  3
REFRACTIONTILE
360
28DC
  3
SPECULARTILE
360
28D9
  0
DICTIONARY
  5
29D2
330
28F3
100
AcDbDictionary
280
     1
281
     1
  3
ACAD_ROUNDTRIP_2008_TABLESTYLE_CELLSTYLEMAP
360
29D3
  3
ACAD_XREC_ROUNDTRIP
360
2A07
  0
DICTIONARY
  5
29EB
330
28E3
100
AcDbDictionary
280
     1
281
     1
  3
ACAD_XREC_ROUNDTRIP
360
29EC
  0
DICTIONARY
  5
29EF
330
28E5
100
AcDbDictionary
280
     1
281
     1
  3
ACAD_XREC_ROUNDTRIP
360
29F0
  0
DICTIONARY
  5
29ED
330
28E4
100
AcDbDictionary
280
     1
281
     1
  3
ACAD_XREC_ROUNDTRIP
360
29EE
  0
DICTIONARY
  5
29E9
330
28E2
100
AcDbDictionary
280
     1
281
     1
  3
ACAD_XREC_ROUNDTRIP
360
29EA
  0
DICTIONARY
  5
29F7
330
28E9
100
AcDbDictionary
280
     1
281
     1
  3
ACAD_XREC_ROUNDTRIP
360
29F8
  0
DICTIONARY
  5
29FF
330
28ED
100
AcDbDictionary
280
     1
281
     1
  3
ACAD_XREC_ROUNDTRIP
360
2A00
  0
DICTIONARY
  5
29F1
330
28E6
100
AcDbDictionary
280
     1
281
     1
  3
ACAD_XREC_ROUNDTRIP
360
29F2
  0
DICTIONARY
  5
29F5
330
28E8
100
AcDbDictionary
280
     1
281
     1
  3
ACAD_XREC_ROUNDTRIP
360
29F6
  0
DICTIONARY
  5
2A05
330
28F0
100
AcDbDictionary
280
     1
281
     1
  3
ACAD_XREC_ROUNDTRIP
360
2A06
  0
DICTIONARY
  5
29FD
330
28EC
100
AcDbDictionary
280
     1
281
     1
  3
ACAD_XREC_ROUNDTRIP
360
29FE
  0
DICTIONARY
  5
29E1
330
28DE
100
AcDbDictionary
280
     1
281
     1
  3
ACAD_XREC_ROUNDTRIP
360
29E2
  0
DICTIONARY
  5
29E3
330
28DF
100
AcDbDictionary
280
     1
281
     1
  3
ACAD_XREC_ROUNDTRIP
360
29E4
  0
DICTIONARY
  5
29E5
330
28E0
100
AcDbDictionary
280
     1
281
     1
  3
ACAD_XREC_ROUNDTRIP
360
29E6
  0
DICTIONARY
  5
29E7
330
28E1
100
AcDbDictionary
280
     1
281
     1
  3
ACAD_XREC_ROUNDTRIP
360
29E8
  0
DICTIONARY
  5
2A01
330
28EE
100
AcDbDictionary
280
     1
281
     1
  3
ACAD_XREC_ROUNDTRIP
360
2A02
  0
DICTIONARY
  5
29FB
330
28EB
100
AcDbDictionary
280
     1
281
     1
  3
ACAD_XREC_ROUNDTRIP
360
29FC
  0
DICTIONARY
  5
2A03
330
28EF
100
AcDbDictionary
280
     1
281
     1
  3
ACAD_XREC_ROUNDTRIP
360
2A04
  0
DICTIONARY
  5
29F3
330
28E7
100
AcDbDictionary
280
     1
281
     1
  3
ACAD_XREC_ROUNDTRIP
360
29F4
  0
DICTIONARY
  5
29F9
330
28EA
100
AcDbDictionary
280
     1
281
     1
  3
ACAD_XREC_ROUNDTRIP
360
29FA
  0
XRECORD
  5
29D7
102
{ACAD_REACTORS
330
29D6
102
}
330
29D6
100
AcDbXrecord
280
     1
102
SHADEPLOT
 70
     0
102
SHADEPLOTRESLEVEL
 70
     2
102
SHADEPLOTCUSTOMDPI
 70
   300
  0
XRECORD
  5
29DB
102
{ACAD_REACTORS
330
29DA
102
}
330
29DA
100
AcDbXrecord
280
     1
102
SHADEPLOT
 70
     0
102
SHADEPLOTRESLEVEL
 70
     2
102
SHADEPLOTCUSTOMDPI
 70
   300
  0
XRECORD
  5
29D9
102
{ACAD_REACTORS
330
29D8
102
}
330
29D8
100
AcDbXrecord
280
     1
102
SHADEPLOT
 70
     0
102
SHADEPLOTRESLEVEL
 70
     2
102
SHADEPLOTCUSTOMDPI
 70
   300
  0
XRECORD
  5
29DF
102
{ACAD_REACTORS
330
28CE
102
}
330
28CE
100
AcDbXrecord
280
     1
102
MATERIAL
148
0.0
149
0.0
149
0.0
 93
        0
 94
      127
282
     0
 72
     0
 77
     0
171
     0
175
     0
179
     0
273
     0
  0
XRECORD
  5
28D0
102
{ACAD_REACTORS
330
28CE
102
}
330
28CE
100
AcDbXrecord
280
     1
270
     1
271
     1
  0
XRECORD
  5
28CF
102
{ACAD_REACTORS
330
28CE
102
}
330
28CE
100
AcDbXrecord
280
     1
270
     1
271
     1
  0
XRECORD
  5
28D3
102
{ACAD_REACTORS
330
28CE
102
}
330
28CE
100
AcDbXrecord
280
     1
270
     1
271
     1
  0
XRECORD
  5
28D2
102
{ACAD_REACTORS
330
28CE
102
}
330
28CE
100
AcDbXrecord
280
     1
270
     1
271
     1
  0
XRECORD
  5
28D4
102
{ACAD_REACTORS
330
28CE
102
}
330
28CE
100
AcDbXrecord
280
     1
270
     1
271
     1
  0
XRECORD
  5
28D1
102
{ACAD_REACTORS
330
28CE
102
}
330
28CE
100
AcDbXrecord
280
     1
270
     1
271
     1
  0
XRECORD
  5
29DE
102
{ACAD_REACTORS
330
28C6
102
}
330
28C6
100
AcDbXrecord
280
     1
102
MATERIAL
148
0.0
149
0.0
149
0.0
 93
        0
 94
      127
282
     0
 72
     0
 77
     0
171
     0
175
     0
179
     0
273
     0
  0
XRECORD
  5
28C8
102
{ACAD_REACTORS
330
28C6
102
}
330
28C6
100
AcDbXrecord
280
     1
270
     1
271
     1
  0
XRECORD
  5
28C7
102
{ACAD_REACTORS
330
28C6
102
}
330
28C6
100
AcDbXrecord
280
     1
270
     1
271
     1
  0
XRECORD
  5
28CB
102
{ACAD_REACTORS
330
28C6
102
}
330
28C6
100
AcDbXrecord
280
     1
270
     1
271
     1
  0
XRECORD
  5
28CA
102
{ACAD_REACTORS
330
28C6
102
}
330
28C6
100
AcDbXrecord
280
     1
270
     1
271
     1
  0
XRECORD
  5
28CC
102
{ACAD_REACTORS
330
28C6
102
}
330
28C6
100
AcDbXrecord
280
     1
270
     1
271
     1
  0
XRECORD
  5
28C9
102
{ACAD_REACTORS
330
28C6
102
}
330
28C6
100
AcDbXrecord
280
     1
270
     1
271
     1
  0
XRECORD
  5
29E0
102
{ACAD_REACTORS
330
28D6
102
}
330
28D6
100
AcDbXrecord
280
     1
102
MATERIAL
148
0.0
149
0.0
149
0.0
 93
        0
 94
      127
282
     0
 72
     0
 77
     0
171
     0
175
     0
179
     0
273
     0
  0
XRECORD
  5
28D8
102
{ACAD_REACTORS
330
28D6
102
}
330
28D6
100
AcDbXrecord
280
     1
270
     1
271
     1
  0
XRECORD
  5
28D7
102
{ACAD_REACTORS
330
28D6
102
}
330
28D6
100
AcDbXrecord
280
     1
270
     1
271
     1
  0
XRECORD
  5
28DB
102
{ACAD_REACTORS
330
28D6
102
}
330
28D6
100
AcDbXrecord
280
     1
270
     1
271
     1
  0
XRECORD
  5
28DA
102
{ACAD_REACTORS
330
28D6
102
}
330
28D6
100
AcDbXrecord
280
     1
270
     1
271
     1
  0
XRECORD
  5
28DC
102
{ACAD_REACTORS
330
28D6
102
}
330
28D6
100
AcDbXrecord
280
     1
270
     1
271
     1
  0
XRECORD
  5
28D9
102
{ACAD_REACTORS
330
28D6
102
}
330
28D6
100
AcDbXrecord
280
     1
270
     1
271
     1
  0
CELLSTYLEMAP
  5
29D3
102
{ACAD_REACTORS
330
29D2
102
}
330
29D2
100
AcDbCellStyleMap
 90
        3
300
CELLSTYLE
  1
TABLEFORMAT_BEGIN
 90
        5
170
     1
 91
        0
 92
    32768
 62
   257
 93
        1
300
CONTENTFORMAT
  1
CONTENTFORMAT_BEGIN
 90
        0
 91
        0
 92
      512
 93
        0
300

 40
0.0
140
1.0
 94
        5
 62
     0
340
11
144
6.0
309
CONTENTFORMAT_END
171
     1
301
MARGIN
  1
CELLMARGIN_BEGIN
 40
1.5
 40
1.5
 40
1.5
 40
1.5
 40
4.5
 40
4.5
309
CELLMARGIN_END
 94
        6
 95
        1
302
GRIDFORMAT
  1
GRIDFORMAT_BEGIN
 90
        0
 91
        1
 62
     0
 92
       -2
340
0
 93
        0
 40
1.125
309
GRIDFORMAT_END
 95
        2
302
GRIDFORMAT
  1
GRIDFORMAT_BEGIN
 90
        0
 91
        1
 62
     0
 92
       -2
340
0
 93
        0
 40
1.125
309
GRIDFORMAT_END
 95
        4
302
GRIDFORMAT
  1
GRIDFORMAT_BEGIN
 90
        0
 91
        1
 62
     0
 92
       -2
340
0
 93
        0
 40
1.125
309
GRIDFORMAT_END
 95
        8
302
GRIDFORMAT
  1
GRIDFORMAT_BEGIN
 90
        0
 91
        1
 62
     0
 92
       -2
340
0
 93
        0
 40
1.125
309
GRIDFORMAT_END
 95
       16
302
GRIDFORMAT
  1
GRIDFORMAT_BEGIN
 90
        0
 91
        1
 62
     0
 92
       -2
340
0
 93
        0
 40
1.125
309
GRIDFORMAT_END
 95
       32
302
GRIDFORMAT
  1
GRIDFORMAT_BEGIN
 90
        0
 91
        1
 62
     0
 92
       -2
340
0
 93
        0
 40
1.125
309
GRIDFORMAT_END
309
TABLEFORMAT_END
  1
CELLSTYLE_BEGIN
 90
        1
 91
        1
300
_TITLE
309
CELLSTYLE_END
300
CELLSTYLE
  1
TABLEFORMAT_BEGIN
 90
        5
170
     1
 91
        0
 92
        0
 62
   257
 93
        1
300
CONTENTFORMAT
  1
CONTENTFORMAT_BEGIN
 90
        0
 91
        0
 92
      512
 93
        0
300

 40
0.0
140
1.0
 94
        5
 62
     0
340
11
144
4.5
309
CONTENTFORMAT_END
171
     1
301
MARGIN
  1
CELLMARGIN_BEGIN
 40
1.5
 40
1.5
 40
1.5
 40
1.5
 40
4.5
 40
4.5
309
CELLMARGIN_END
 94
        6
 95
        1
302
GRIDFORMAT
  1
GRIDFORMAT_BEGIN
 90
        0
 91
        1
 62
     0
 92
       -2
340
0
 93
        0
 40
1.125
309
GRIDFORMAT_END
 95
        2
302
GRIDFORMAT
  1
GRIDFORMAT_BEGIN
 90
        0
 91
        1
 62
     0
 92
       -2
340
0
 93
        0
 40
1.125
309
GRIDFORMAT_END
 95
        4
302
GRIDFORMAT
  1
GRIDFORMAT_BEGIN
 90
        0
 91
        1
 62
     0
 92
       -2
340
0
 93
        0
 40
1.125
309
GRIDFORMAT_END
 95
        8
302
GRIDFORMAT
  1
GRIDFORMAT_BEGIN
 90
        0
 91
        1
 62
     0
 92
       -2
340
0
 93
        0
 40
1.125
309
GRIDFORMAT_END
 95
       16
302
GRIDFORMAT
  1
GRIDFORMAT_BEGIN
 90
        0
 91
        1
 62
     0
 92
       -2
340
0
 93
        0
 40
1.125
309
GRIDFORMAT_END
 95
       32
302
GRIDFORMAT
  1
GRIDFORMAT_BEGIN
 90
        0
 91
        1
 62
     0
 92
       -2
340
0
 93
        0
 40
1.125
309
GRIDFORMAT_END
309
TABLEFORMAT_END
  1
CELLSTYLE_BEGIN
 90
        2
 91
        1
300
_HEADER
309
CELLSTYLE_END
300
CELLSTYLE
  1
TABLEFORMAT_BEGIN
 90
        5
170
     1
 91
        0
 92
        0
 62
   257
 93
        1
300
CONTENTFORMAT
  1
CONTENTFORMAT_BEGIN
 90
        0
 91
        0
 92
      512
 93
        0
300

 40
0.0
140
1.0
 94
        2
 62
     0
340
11
144
4.5
309
CONTENTFORMAT_END
171
     1
301
MARGIN
  1
CELLMARGIN_BEGIN
 40
1.5
 40
1.5
 40
1.5
 40
1.5
 40
4.5
 40
4.5
309
CELLMARGIN_END
 94
        6
 95
        1
302
GRIDFORMAT
  1
GRIDFORMAT_BEGIN
 90
        0
 91
        1
 62
     0
 92
       -2
340
0
 93
        0
 40
1.125
309
GRIDFORMAT_END
 95
        2
302
GRIDFORMAT
  1
GRIDFORMAT_BEGIN
 90
        0
 91
        1
 62
     0
 92
       -2
340
0
 93
        0
 40
1.125
309
GRIDFORMAT_END
 95
        4
302
GRIDFORMAT
  1
GRIDFORMAT_BEGIN
 90
        0
 91
        1
 62
     0
 92
       -2
340
0
 93
        0
 40
1.125
309
GRIDFORMAT_END
 95
        8
302
GRIDFORMAT
  1
GRIDFORMAT_BEGIN
 90
        0
 91
        1
 62
     0
 92
       -2
340
0
 93
        0
 40
1.125
309
GRIDFORMAT_END
 95
       16
302
GRIDFORMAT
  1
GRIDFORMAT_BEGIN
 90
        0
 91
        1
 62
     0
 92
       -2
340
0
 93
        0
 40
1.125
309
GRIDFORMAT_END
 95
       32
302
GRIDFORMAT
  1
GRIDFORMAT_BEGIN
 90
        0
 91
        1
 62
     0
 92
       -2
340
0
 93
        0
 40
1.125
309
GRIDFORMAT_END
309
TABLEFORMAT_END
  1
CELLSTYLE_BEGIN
 90
        3
 91
        2
300
_DATA
309
CELLSTYLE_END
  0
XRECORD
  5
2A07
102
{ACAD_REACTORS
330
29D2
102
}
330
29D2
100
AcDbXrecord
280
     1
102
ACAD_ROUNDTRIP_PRE2007_TABLESTYLE
 90
      512
 91
        0
  1

 92
      512
 93
        0
  2

 94
      512
 95
        0
  3

  0
XRECORD
  5
29EC
102
{ACAD_REACTORS
330
29EB
102
}
330
29EB
100
AcDbXrecord
280
     1
102
RTVSPropertyOp0
 70
     1
102
RTVSPropertyOp1
 70
     1
102
RTVSPropertyOp2
 70
     1
102
RTVSPropertyOp3
 70
     1
102
RTVSPropertyOp4
 70
     1
102
RTVSPropertyOp5
 70
     1
102
RTVSPropertyOp6
 70
     1
102
RTVSPropertyOp7
 70
     1
102
RTVSPropertyOp8
 70
     1
102
RTVSPropertyOp9
 70
     1
102
RTVSPropertyOp10
 70
     1
102
RTVSPropertyOp11
 70
     1
102
RTVSPropertyOp12
 70
     1
102
RTVSPropertyOp13
 70
     1
102
RTVSPropertyOp14
 70
     1
102
RTVSPropertyOp15
 70
     1
102
RTVSPropertyOp16
 70
     1
102
RTVSPropertyOp17
 70
     1
102
RTVSPropertyOp18
 70
     1
102
RTVSPropertyOp19
 70
     1
102
RTVSPropertyOp20
 70
     1
102
RTVSPropertyOp21
 70
     1
102
RTVSPropertyOp22
 70
     1
102
RTVSPropertyOp23
 70
     1
102
RTVSPropertyOp24
 70
     1
102
RTVSPropertyOp25
 70
     1
102
RTVSPropertyOp26
 70
     1
102
RTVSPropertyOp27
 70
     1
  0
XRECORD
  5
29F0
102
{ACAD_REACTORS
330
29EF
102
}
330
29EF
100
AcDbXrecord
280
     1
102
RTVSPropertyOp0
 70
     1
102
RTVSPropertyOp1
 70
     1
102
RTVSPropertyOp2
 70
     1
102
RTVSPropertyOp3
 70
     1
102
RTVSPropertyOp4
 70
     1
102
RTVSPropertyOp5
 70
     1
102
RTVSPropertyOp6
 70
     1
102
RTVSPropertyOp7
 70
     1
102
RTVSPropertyOp8
 70
     1
102
RTVSPropertyOp9
 70
     1
102
RTVSPropertyOp10
 70
     1
102
RTVSPropertyOp11
 70
     1
102
RTVSPropertyOp12
 70
     1
102
RTVSPropertyOp13
 70
     1
102
RTVSPropertyOp14
 70
     1
102
RTVSPropertyOp15
 70
     1
102
RTVSPropertyOp16
 70
     1
102
RTVSPropertyOp17
 70
     1
102
RTVSPropertyOp18
 70
     1
102
RTVSPropertyOp19
 70
     1
102
RTVSPropertyOp20
 70
     1
102
RTVSPropertyOp21
 70
     1
102
RTVSPropertyOp22
 70
     1
102
RTVSPropertyOp23
 70
     1
102
RTVSPropertyOp24
 70
     1
102
RTVSPropertyOp25
 70
     1
102
RTVSPropertyOp26
 70
     1
102
RTVSPropertyOp27
 70
     1
  0
XRECORD
  5
29EE
102
{ACAD_REACTORS
330
29ED
102
}
330
29ED
100
AcDbXrecord
280
     1
102
RTVSPropertyOp0
 70
     1
102
RTVSPropertyOp1
 70
     1
102
RTVSPropertyOp2
 70
     1
102
RTVSPropertyOp3
 70
     1
102
RTVSPropertyOp4
 70
     1
102
RTVSPropertyOp5
 70
     1
102
RTVSPropertyOp6
 70
     1
102
RTVSPropertyOp7
 70
     1
102
RTVSPropertyOp8
 70
     1
102
RTVSPropertyOp9
 70
     1
102
RTVSPropertyOp10
 70
     1
102
RTVSPropertyOp11
 70
     1
102
RTVSPropertyOp12
 70
     1
102
RTVSPropertyOp13
 70
     1
102
RTVSPropertyOp14
 70
     1
102
RTVSPropertyOp15
 70
     1
102
RTVSPropertyOp16
 70
     1
102
RTVSPropertyOp17
 70
     1
102
RTVSPropertyOp18
 70
     1
102
RTVSPropertyOp19
 70
     1
102
RTVSPropertyOp20
 70
     1
102
RTVSPropertyOp21
 70
     1
102
RTVSPropertyOp22
 70
     1
102
RTVSPropertyOp23
 70
     1
102
RTVSPropertyOp24
 70
     1
102
RTVSPropertyOp25
 70
     1
102
RTVSPropertyOp26
 70
     1
102
RTVSPropertyOp27
 70
     1
  0
XRECORD
  5
29EA
102
{ACAD_REACTORS
330
29E9
102
}
330
29E9
100
AcDbXrecord
280
     1
102
RTVSPropertyOp0
 70
     1
102
RTVSPropertyOp1
 70
     1
102
RTVSPropertyOp2
 70
     1
102
RTVSPropertyOp3
 70
     1
102
RTVSPropertyOp4
 70
     1
102
RTVSPropertyOp5
 70
     1
102
RTVSPropertyOp6
 70
     1
102
RTVSPropertyOp7
 70
     1
102
RTVSPropertyOp8
 70
     1
102
RTVSPropertyOp9
 70
     1
102
RTVSPropertyOp10
 70
     1
102
RTVSPropertyOp11
 70
     1
102
RTVSPropertyOp12
 70
     1
102
RTVSPropertyOp13
 70
     1
102
RTVSPropertyOp14
 70
     1
102
RTVSPropertyOp15
 70
     1
102
RTVSPropertyOp16
 70
     1
102
RTVSPropertyOp17
 70
     1
102
RTVSPropertyOp18
 70
     1
102
RTVSPropertyOp19
 70
     1
102
RTVSPropertyOp20
 70
     1
102
RTVSPropertyOp21
 70
     1
102
RTVSPropertyOp22
 70
     1
102
RTVSPropertyOp23
 70
     1
102
RTVSPropertyOp24
 70
     1
102
RTVSPropertyOp25
 70
     1
102
RTVSPropertyOp26
 70
     1
102
RTVSPropertyOp27
 70
     1
  0
XRECORD
  5
29F8
102
{ACAD_REACTORS
330
29F7
102
}
330
29F7
100
AcDbXrecord
280
     1
102
RTVSPropertyOp0
 70
     1
102
RTVSPropertyOp1
 70
     1
102
RTVSPropertyOp2
 70
     1
102
RTVSPropertyOp3
 70
     1
102
RTVSPropertyOp4
 70
     1
102
RTVSPropertyOp5
 70
     1
102
RTVSPropertyOp6
 70
     1
102
RTVSPropertyOp7
 70
     1
102
RTVSPropertyOp8
 70
     1
102
RTVSPropertyOp9
 70
     1
102
RTVSPropertyOp10
 70
     1
102
RTVSPropertyOp11
 70
     1
102
RTVSPropertyOp12
 70
     1
102
RTVSPropertyOp13
 70
     1
102
RTVSPropertyOp14
 70
     1
102
RTVSPropertyOp15
 70
     1
102
RTVSPropertyOp16
 70
     1
102
RTVSPropertyOp17
 70
     1
102
RTVSPropertyOp18
 70
     1
102
RTVSPropertyOp19
 70
     1
102
RTVSPropertyOp20
 70
     1
102
RTVSPropertyOp21
 70
     1
102
RTVSPropertyOp22
 70
     1
102
RTVSPropertyOp23
 70
     1
102
RTVSPropertyOp24
 70
     1
102
RTVSPropertyOp25
 70
     1
102
RTVSPropertyOp26
 70
     1
102
RTVSPropertyOp27
 70
     1
  0
XRECORD
  5
2A00
102
{ACAD_REACTORS
330
29FF
102
}
330
29FF
100
AcDbXrecord
280
     1
102
RTVSPropertyOp0
 70
     1
102
RTVSPropertyOp1
 70
     1
102
RTVSPropertyOp2
 70
     1
102
RTVSPropertyOp3
 70
     1
102
RTVSPropertyOp4
 70
     1
102
RTVSPropertyOp5
 70
     1
102
RTVSPropertyOp6
 70
     1
102
RTVSPropertyOp7
 70
     1
102
RTVSPropertyOp8
 70
     1
102
RTVSPropertyOp9
 70
     1
102
RTVSPropertyOp10
 70
     1
102
RTVSPropertyOp11
 70
     1
102
RTVSPropertyOp12
 70
     1
102
RTVSPropertyOp13
 70
     1
102
RTVSPropertyOp14
 70
     1
102
RTVSPropertyOp15
 70
     1
102
RTVSPropertyOp16
 70
     1
102
RTVSPropertyOp17
 70
     1
102
RTVSPropertyOp18
 70
     1
102
RTVSPropertyOp19
 70
     1
102
RTVSPropertyOp20
 70
     1
102
RTVSPropertyOp21
 70
     1
102
RTVSPropertyOp22
 70
     1
102
RTVSPropertyOp23
 70
     1
102
RTVSPropertyOp24
 70
     1
102
RTVSPropertyOp25
 70
     1
102
RTVSPropertyOp26
 70
     1
102
RTVSPropertyOp27
 70
     1
  0
XRECORD
  5
29F2
102
{ACAD_REACTORS
330
29F1
102
}
330
29F1
100
AcDbXrecord
280
     1
102
RTVSPropertyOp0
 70
     1
102
RTVSPropertyOp1
 70
     1
102
RTVSPropertyOp2
 70
     1
102
RTVSPropertyOp3
 70
     1
102
RTVSPropertyOp4
 70
     1
102
RTVSPropertyOp5
 70
     1
102
RTVSPropertyOp6
 70
     1
102
RTVSPropertyOp7
 70
     1
102
RTVSPropertyOp8
 70
     1
102
RTVSPropertyOp9
 70
     1
102
RTVSPropertyOp10
 70
     1
102
RTVSPropertyOp11
 70
     1
102
RTVSPropertyOp12
 70
     1
102
RTVSPropertyOp13
 70
     1
102
RTVSPropertyOp14
 70
     1
102
RTVSPropertyOp15
 70
     1
102
RTVSPropertyOp16
 70
     1
102
RTVSPropertyOp17
 70
     1
102
RTVSPropertyOp18
 70
     1
102
RTVSPropertyOp19
 70
     1
102
RTVSPropertyOp20
 70
     1
102
RTVSPropertyOp21
 70
     1
102
RTVSPropertyOp22
 70
     1
102
RTVSPropertyOp23
 70
     1
102
RTVSPropertyOp24
 70
     1
102
RTVSPropertyOp25
 70
     1
102
RTVSPropertyOp26
 70
     1
102
RTVSPropertyOp27
 70
     1
  0
XRECORD
  5
29F6
102
{ACAD_REACTORS
330
29F5
102
}
330
29F5
100
AcDbXrecord
280
     1
102
RTVSPropertyOp0
 70
     1
102
RTVSPropertyOp1
 70
     1
102
RTVSPropertyOp2
 70
     1
102
RTVSPropertyOp3
 70
     1
102
RTVSPropertyOp4
 70
     1
102
RTVSPropertyOp5
 70
     1
102
RTVSPropertyOp6
 70
     1
102
RTVSPropertyOp7
 70
     1
102
RTVSPropertyOp8
 70
     1
102
RTVSPropertyOp9
 70
     1
102
RTVSPropertyOp10
 70
     1
102
RTVSPropertyOp11
 70
     1
102
RTVSPropertyOp12
 70
     1
102
RTVSPropertyOp13
 70
     1
102
RTVSPropertyOp14
 70
     1
102
RTVSPropertyOp15
 70
     1
102
RTVSPropertyOp16
 70
     1
102
RTVSPropertyOp17
 70
     1
102
RTVSPropertyOp18
 70
     1
102
RTVSPropertyOp19
 70
     1
102
RTVSPropertyOp20
 70
     1
102
RTVSPropertyOp21
 70
     1
102
RTVSPropertyOp22
 70
     1
102
RTVSPropertyOp23
 70
     1
102
RTVSPropertyOp24
 70
     1
102
RTVSPropertyOp25
 70
     1
102
RTVSPropertyOp26
 70
     1
102
RTVSPropertyOp27
 70
     1
  0
XRECORD
  5
2A06
102
{ACAD_REACTORS
330
2A05
102
}
330
2A05
100
AcDbXrecord
280
     1
102
RTVSPropertyOp0
 70
     0
102
RTVSPropertyOp1
 70
     0
102
RTVSPropertyOp2
 70
     0
102
RTVSPropertyOp3
 70
     0
102
RTVSPropertyOp4
 70
     0
102
RTVSPropertyOp5
 70
     0
102
RTVSPropertyOp6
 70
     0
102
RTVSPropertyOp7
 70
     0
102
RTVSPropertyOp8
 70
     0
102
RTVSPropertyOp9
 70
     0
102
RTVSPropertyOp10
 70
     0
102
RTVSPropertyOp11
 70
     0
102
RTVSPropertyOp12
 70
     0
102
RTVSPropertyOp13
 70
     0
102
RTVSPropertyOp14
 70
     2
102
RTVSPropertyOp15
 70
     0
102
RTVSPropertyOp16
 70
     0
102
RTVSPropertyOp17
 70
     0
102
RTVSPropertyOp18
 70
     0
102
RTVSPropertyOp19
 70
     0
102
RTVSPropertyOp20
 70
     0
102
RTVSPropertyOp21
 70
     0
102
RTVSPropertyOp22
 70
     0
102
RTVSPropertyOp23
 70
     0
102
RTVSPropertyOp24
 70
     0
102
RTVSPropertyOp25
 70
     0
102
RTVSPropertyOp26
 70
     0
102
RTVSPropertyOp27
 70
     0
  0
XRECORD
  5
29FE
102
{ACAD_REACTORS
330
29FD
102
}
330
29FD
100
AcDbXrecord
280
     1
102
RTVSPropertyOp0
 70
     1
102
RTVSPropertyOp1
 70
     1
102
RTVSPropertyOp2
 70
     1
102
RTVSPropertyOp3
 70
     1
102
RTVSPropertyOp4
 70
     1
102
RTVSPropertyOp5
 70
     1
102
RTVSPropertyOp6
 70
     1
102
RTVSPropertyOp7
 70
     1
102
RTVSPropertyOp8
 70
     1
102
RTVSPropertyOp9
 70
     1
102
RTVSPropertyOp10
 70
     1
102
RTVSPropertyOp11
 70
     1
102
RTVSPropertyOp12
 70
     1
102
RTVSPropertyOp13
 70
     1
102
RTVSPropertyOp14
 70
     1
102
RTVSPropertyOp15
 70
     1
102
RTVSPropertyOp16
 70
     1
102
RTVSPropertyOp17
 70
     1
102
RTVSPropertyOp18
 70
     1
102
RTVSPropertyOp19
 70
     1
102
RTVSPropertyOp20
 70
     1
102
RTVSPropertyOp21
 70
     1
102
RTVSPropertyOp22
 70
     1
102
RTVSPropertyOp23
 70
     1
102
RTVSPropertyOp24
 70
     1
102
RTVSPropertyOp25
 70
     1
102
RTVSPropertyOp26
 70
     1
102
RTVSPropertyOp27
 70
     1
  0
XRECORD
  5
29E2
102
{ACAD_REACTORS
330
29E1
102
}
330
29E1
100
AcDbXrecord
280
     1
102
RTVSPropertyOp0
 70
     1
102
RTVSPropertyOp1
 70
     1
102
RTVSPropertyOp2
 70
     1
102
RTVSPropertyOp3
 70
     1
102
RTVSPropertyOp4
 70
     1
102
RTVSPropertyOp5
 70
     1
102
RTVSPropertyOp6
 70
     1
102
RTVSPropertyOp7
 70
     1
102
RTVSPropertyOp8
 70
     1
102
RTVSPropertyOp9
 70
     1
102
RTVSPropertyOp10
 70
     1
102
RTVSPropertyOp11
 70
     1
102
RTVSPropertyOp12
 70
     1
102
RTVSPropertyOp13
 70
     1
102
RTVSPropertyOp14
 70
     1
102
RTVSPropertyOp15
 70
     1
102
RTVSPropertyOp16
 70
     1
102
RTVSPropertyOp17
 70
     1
102
RTVSPropertyOp18
 70
     1
102
RTVSPropertyOp19
 70
     1
102
RTVSPropertyOp20
 70
     1
102
RTVSPropertyOp21
 70
     1
102
RTVSPropertyOp22
 70
     1
102
RTVSPropertyOp23
 70
     1
102
RTVSPropertyOp24
 70
     1
102
RTVSPropertyOp25
 70
     1
102
RTVSPropertyOp26
 70
     1
102
RTVSPropertyOp27
 70
     1
  0
XRECORD
  5
29E4
102
{ACAD_REACTORS
330
29E3
102
}
330
29E3
100
AcDbXrecord
280
     1
102
RTVSPropertyOp0
 70
     1
102
RTVSPropertyOp1
 70
     1
102
RTVSPropertyOp2
 70
     1
102
RTVSPropertyOp3
 70
     1
102
RTVSPropertyOp4
 70
     1
102
RTVSPropertyOp5
 70
     1
102
RTVSPropertyOp6
 70
     1
102
RTVSPropertyOp7
 70
     1
102
RTVSPropertyOp8
 70
     1
102
RTVSPropertyOp9
 70
     1
102
RTVSPropertyOp10
 70
     1
102
RTVSPropertyOp11
 70
     1
102
RTVSPropertyOp12
 70
     1
102
RTVSPropertyOp13
 70
     1
102
RTVSPropertyOp14
 70
     1
102
RTVSPropertyOp15
 70
     1
102
RTVSPropertyOp16
 70
     1
102
RTVSPropertyOp17
 70
     1
102
RTVSPropertyOp18
 70
     1
102
RTVSPropertyOp19
 70
     1
102
RTVSPropertyOp20
 70
     1
102
RTVSPropertyOp21
 70
     1
102
RTVSPropertyOp22
 70
     1
102
RTVSPropertyOp23
 70
     1
102
RTVSPropertyOp24
 70
     1
102
RTVSPropertyOp25
 70
     1
102
RTVSPropertyOp26
 70
     1
102
RTVSPropertyOp27
 70
     1
  0
XRECORD
  5
29E6
102
{ACAD_REACTORS
330
29E5
102
}
330
29E5
100
AcDbXrecord
280
     1
102
RTVSPropertyOp0
 70
     1
102
RTVSPropertyOp1
 70
     1
102
RTVSPropertyOp2
 70
     1
102
RTVSPropertyOp3
 70
     1
102
RTVSPropertyOp4
 70
     1
102
RTVSPropertyOp5
 70
     1
102
RTVSPropertyOp6
 70
     1
102
RTVSPropertyOp7
 70
     1
102
RTVSPropertyOp8
 70
     1
102
RTVSPropertyOp9
 70
     1
102
RTVSPropertyOp10
 70
     1
102
RTVSPropertyOp11
 70
     1
102
RTVSPropertyOp12
 70
     1
102
RTVSPropertyOp13
 70
     1
102
RTVSPropertyOp14
 70
     1
102
RTVSPropertyOp15
 70
     1
102
RTVSPropertyOp16
 70
     1
102
RTVSPropertyOp17
 70
     1
102
RTVSPropertyOp18
 70
     1
102
RTVSPropertyOp19
 70
     1
102
RTVSPropertyOp20
 70
     1
102
RTVSPropertyOp21
 70
     1
102
RTVSPropertyOp22
 70
     1
102
RTVSPropertyOp23
 70
     1
102
RTVSPropertyOp24
 70
     1
102
RTVSPropertyOp25
 70
     1
102
RTVSPropertyOp26
 70
     1
102
RTVSPropertyOp27
 70
     1
  0
XRECORD
  5
29E8
102
{ACAD_REACTORS
330
29E7
102
}
330
29E7
100
AcDbXrecord
280
     1
102
RTVSPropertyOp0
 70
     1
102
RTVSPropertyOp1
 70
     1
102
RTVSPropertyOp2
 70
     1
102
RTVSPropertyOp3
 70
     1
102
RTVSPropertyOp4
 70
     1
102
RTVSPropertyOp5
 70
     1
102
RTVSPropertyOp6
 70
     1
102
RTVSPropertyOp7
 70
     1
102
RTVSPropertyOp8
 70
     1
102
RTVSPropertyOp9
 70
     1
102
RTVSPropertyOp10
 70
     1
102
RTVSPropertyOp11
 70
     1
102
RTVSPropertyOp12
 70
     1
102
RTVSPropertyOp13
 70
     1
102
RTVSPropertyOp14
 70
     1
102
RTVSPropertyOp15
 70
     1
102
RTVSPropertyOp16
 70
     1
102
RTVSPropertyOp17
 70
     1
102
RTVSPropertyOp18
 70
     1
102
RTVSPropertyOp19
 70
     1
102
RTVSPropertyOp20
 70
     1
102
RTVSPropertyOp21
 70
     1
102
RTVSPropertyOp22
 70
     1
102
RTVSPropertyOp23
 70
     1
102
RTVSPropertyOp24
 70
     1
102
RTVSPropertyOp25
 70
     1
102
RTVSPropertyOp26
 70
     1
102
RTVSPropertyOp27
 70
     1
  0
XRECORD
  5
2A02
102
{ACAD_REACTORS
330
2A01
102
}
330
2A01
100
AcDbXrecord
280
     1
102
RTVSPropertyOp0
 70
     0
102
RTVSPropertyOp1
 70
     0
102
RTVSPropertyOp2
 70
     0
102
RTVSPropertyOp3
 70
     0
102
RTVSPropertyOp4
 70
     0
102
RTVSPropertyOp5
 70
     0
102
RTVSPropertyOp6
 70
     0
102
RTVSPropertyOp7
 70
     0
102
RTVSPropertyOp8
 70
     0
102
RTVSPropertyOp9
 70
     0
102
RTVSPropertyOp10
 70
     0
102
RTVSPropertyOp11
 70
     0
102
RTVSPropertyOp12
 70
     0
102
RTVSPropertyOp13
 70
     0
102
RTVSPropertyOp14
 70
     2
102
RTVSPropertyOp15
 70
     0
102
RTVSPropertyOp16
 70
     0
102
RTVSPropertyOp17
 70
     0
102
RTVSPropertyOp18
 70
     0
102
RTVSPropertyOp19
 70
     0
102
RTVSPropertyOp20
 70
     0
102
RTVSPropertyOp21
 70
     0
102
RTVSPropertyOp22
 70
     0
102
RTVSPropertyOp23
 70
     0
102
RTVSPropertyOp24
 70
     0
102
RTVSPropertyOp25
 70
     0
102
RTVSPropertyOp26
 70
     0
102
RTVSPropertyOp27
 70
     0
  0
XRECORD
  5
29FC
102
{ACAD_REACTORS
330
29FB
102
}
330
29FB
100
AcDbXrecord
280
     1
102
RTVSPropertyOp0
 70
     1
102
RTVSPropertyOp1
 70
     1
102
RTVSPropertyOp2
 70
     1
102
RTVSPropertyOp3
 70
     1
102
RTVSPropertyOp4
 70
     1
102
RTVSPropertyOp5
 70
     1
102
RTVSPropertyOp6
 70
     1
102
RTVSPropertyOp7
 70
     1
102
RTVSPropertyOp8
 70
     1
102
RTVSPropertyOp9
 70
     1
102
RTVSPropertyOp10
 70
     1
102
RTVSPropertyOp11
 70
     1
102
RTVSPropertyOp12
 70
     1
102
RTVSPropertyOp13
 70
     1
102
RTVSPropertyOp14
 70
     1
102
RTVSPropertyOp15
 70
     1
102
RTVSPropertyOp16
 70
     1
102
RTVSPropertyOp17
 70
     1
102
RTVSPropertyOp18
 70
     1
102
RTVSPropertyOp19
 70
     1
102
RTVSPropertyOp20
 70
     1
102
RTVSPropertyOp21
 70
     1
102
RTVSPropertyOp22
 70
     1
102
RTVSPropertyOp23
 70
     1
102
RTVSPropertyOp24
 70
     1
102
RTVSPropertyOp25
 70
     1
102
RTVSPropertyOp26
 70
     1
102
RTVSPropertyOp27
 70
     1
  0
XRECORD
  5
2A04
102
{ACAD_REACTORS
330
2A03
102
}
330
2A03
100
AcDbXrecord
280
     1
102
RTVSPropertyOp0
 70
     0
102
RTVSPropertyOp1
 70
     0
102
RTVSPropertyOp2
 70
     0
102
RTVSPropertyOp3
 70
     0
102
RTVSPropertyOp4
 70
     0
102
RTVSPropertyOp5
 70
     0
102
RTVSPropertyOp6
 70
     0
102
RTVSPropertyOp7
 70
     0
102
RTVSPropertyOp8
 70
     0
102
RTVSPropertyOp9
 70
     0
102
RTVSPropertyOp10
 70
     0
102
RTVSPropertyOp11
 70
     0
102
RTVSPropertyOp12
 70
     0
102
RTVSPropertyOp13
 70
     0
102
RTVSPropertyOp14
 70
     2
102
RTVSPropertyOp15
 70
     0
102
RTVSPropertyOp16
 70
     0
102
RTVSPropertyOp17
 70
     0
102
RTVSPropertyOp18
 70
     0
102
RTVSPropertyOp19
 70
     0
102
RTVSPropertyOp20
 70
     0
102
RTVSPropertyOp21
 70
     0
102
RTVSPropertyOp22
 70
     0
102
RTVSPropertyOp23
 70
     0
102
RTVSPropertyOp24
 70
     0
102
RTVSPropertyOp25
 70
     0
102
RTVSPropertyOp26
 70
     0
102
RTVSPropertyOp27
 70
     0
  0
XRECORD
  5
29F4
102
{ACAD_REACTORS
330
29F3
102
}
330
29F3
100
AcDbXrecord
280
     1
102
RTVSPropertyOp0
 70
     1
102
RTVSPropertyOp1
 70
     1
102
RTVSPropertyOp2
 70
     1
102
RTVSPropertyOp3
 70
     1
102
RTVSPropertyOp4
 70
     1
102
RTVSPropertyOp5
 70
     1
102
RTVSPropertyOp6
 70
     1
102
RTVSPropertyOp7
 70
     1
102
RTVSPropertyOp8
 70
     1
102
RTVSPropertyOp9
 70
     1
102
RTVSPropertyOp10
 70
     1
102
RTVSPropertyOp11
 70
     1
102
RTVSPropertyOp12
 70
     1
102
RTVSPropertyOp13
 70
     1
102
RTVSPropertyOp14
 70
     1
102
RTVSPropertyOp15
 70
     1
102
RTVSPropertyOp16
 70
     1
102
RTVSPropertyOp17
 70
     1
102
RTVSPropertyOp18
 70
     1
102
RTVSPropertyOp19
 70
     1
102
RTVSPropertyOp20
 70
     1
102
RTVSPropertyOp21
 70
     1
102
RTVSPropertyOp22
 70
     1
102
RTVSPropertyOp23
 70
     1
102
RTVSPropertyOp24
 70
     1
102
RTVSPropertyOp25
 70
     1
102
RTVSPropertyOp26
 70
     1
102
RTVSPropertyOp27
 70
     1
  0
XRECORD
  5
29FA
102
{ACAD_REACTORS
330
29F9
102
}
330
29F9
100
AcDbXrecord
280
     1
102
RTVSPropertyOp0
 70
     1
102
RTVSPropertyOp1
 70
     1
102
RTVSPropertyOp2
 70
     1
102
RTVSPropertyOp3
 70
     1
102
RTVSPropertyOp4
 70
     1
102
RTVSPropertyOp5
 70
     1
102
RTVSPropertyOp6
 70
     1
102
RTVSPropertyOp7
 70
     1
102
RTVSPropertyOp8
 70
     1
102
RTVSPropertyOp9
 70
     1
102
RTVSPropertyOp10
 70
     1
102
RTVSPropertyOp11
 70
     1
102
RTVSPropertyOp12
 70
     1
102
RTVSPropertyOp13
 70
     1
102
RTVSPropertyOp14
 70
     1
102
RTVSPropertyOp15
 70
     1
102
RTVSPropertyOp16
 70
     1
102
RTVSPropertyOp17
 70
     1
102
RTVSPropertyOp18
 70
     1
102
RTVSPropertyOp19
 70
     1
102
RTVSPropertyOp20
 70
     1
102
RTVSPropertyOp21
 70
     1
102
RTVSPropertyOp22
 70
     1
102
RTVSPropertyOp23
 70
     1
102
RTVSPropertyOp24
 70
     1
102
RTVSPropertyOp25
 70
     1
102
RTVSPropertyOp26
 70
     1
102
RTVSPropertyOp27
 70
     1
  0
ENDSEC
  0
EOF
