  0
SECTION
  2
HEADER
  9
$ACADVER
  1
AC1015
  9
$ACADMAINTVER
 70
    20
  9
$DWGCODEPAGE
  3
ANSI_1252
  9
$INSBASE
 10
0.0
 20
0.0
 30
0.0
  9
$EXTMIN
 10
-48.58514006662965
 20
669.7296817881563
 30
-0.0000001632354104
  9
$EXTMAX
 10
-46.95395144006244
 20
671.5796817881562
 30
-0.0000001598271986
  9
$LIMMIN
 10
0.0
 20
0.0
  9
$LIMMAX
 10
420.0
 20
297.0
  9
$ORTHOMODE
 70
     0
  9
$REGENMODE
 70
     1
  9
$FILLMODE
 70
     1
  9
$QTEXTMODE
 70
     0
  9
$MIRRTEXT
 70
     1
  9
$LTSCALE
 40
0.2
  9
$ATTMODE
 70
     1
  9
$TEXTSIZE
 40
2.5
  9
$TRACEWID
 40
1.0
  9
$TEXTSTYLE
  7
SANINDUSA
  9
$CLAYER
  8
cotas
  9
$CELTYPE
  6
ByLayer
  9
$CECOLOR
 62
   256
  9
$CELTSCALE
 40
1.0
  9
$DISPSILH
 70
     0
  9
$DIMSCALE
 40
1.0
  9
$DIMASZ
 40
2.0
  9
$DIMEXO
 40
1.0
  9
$DIMDLI
 40
1.0
  9
$DIMRND
 40
0.0
  9
$DIMDLE
 40
0.0
  9
$DIMEXE
 40
1.0
  9
$DIMTP
 40
0.0
  9
$DIMTM
 40
0.0
  9
$DIMTXT
 40
2.0
  9
$DIMCEN
 40
0.0
  9
$DIMTSZ
 40
0.0
  9
$DIMTOL
 70
     0
  9
$DIMLIM
 70
     0
  9
$DIMTIH
 70
     0
  9
$DIMTOH
 70
     0
  9
$DIMSE1
 70
     0
  9
$DIMSE2
 70
     0
  9
$DIMTAD
 70
     1
  9
$DIMZIN
 70
     8
  9
$DIMBLK
  1

  9
$DIMASO
 70
     1
  9
$DIMSHO
 70
     1
  9
$DIMPOST
  1

  9
$DIMAPOST
  1

  9
$DIMALT
 70
     0
  9
$DIMALTD
 70
     3
  9
$DIMALTF
 40
0.03937007874016
  9
$DIMLFAC
 40
1.0
  9
$DIMTOFL
 70
     1
  9
$DIMTVP
 40
0.0
  9
$DIMTIX
 70
     0
  9
$DIMSOXD
 70
     0
  9
$DIMSAH
 70
     0
  9
$DIMBLK1
  1

  9
$DIMBLK2
  1

  9
$DIMSTYLE
  2
SANINDUSA
  9
$DIMCLRD
 70
   256
  9
$DIMCLRE
 70
   256
  9
$DIMCLRT
 70
   256
  9
$DIMTFAC
 40
1.0
  9
$DIMGAP
 40
1.0
  9
$DIMJUST
 70
     0
  9
$DIMSD1
 70
     0
  9
$DIMSD2
 70
     0
  9
$DIMTOLJ
 70
     0
  9
$DIMTZIN
 70
     8
  9
$DIMALTZ
 70
     0
  9
$DIMALTTZ
 70
     0
  9
$DIMUPT
 70
     0
  9
$DIMDEC
 70
     1
  9
$DIMTDEC
 70
     1
  9
$DIMALTU
 70
     2
  9
$DIMALTTD
 70
     3
  9
$DIMTXSTY
  7
SANINDUSA
  9
$DIMAUNIT
 70
     0
  9
$DIMADEC
 70
     1
  9
$DIMALTRND
 40
0.0
  9
$DIMAZIN
 70
     0
  9
$DIMDSEP
 70
    44
  9
$DIMATFIT
 70
     3
  9
$DIMFRAC
 70
     0
  9
$DIMLDRBLK
  1

  9
$DIMLUNIT
 70
     2
  9
$DIMLWD
 70
    -1
  9
$DIMLWE
 70
    -1
  9
$DIMTMOVE
 70
     0
  9
$LUNITS
 70
     2
  9
$LUPREC
 70
     4
  9
$SKETCHINC
 40
1.0
  9
$FILLETRAD
 40
0.0
  9
$AUNITS
 70
     0
  9
$AUPREC
 70
     0
  9
$MENU
  1
.
  9
$ELEVATION
 40
0.0
  9
$PELEVATION
 40
0.0
  9
$THICKNESS
 40
0.0
  9
$LIMCHECK
 70
     0
  9
$CHAMFERA
 40
10.0
  9
$CHAMFERB
 40
10.0
  9
$CHAMFERC
 40
20.0
  9
$CHAMFERD
 40
0.0
  9
$SKPOLY
 70
     0
  9
$TDCREATE
 40
2453258.720112477
  9
$TDUCREATE
 40
2453258.678445810
  9
$TDUPDATE
 40
2455817.483921435
  9
$TDUUPDATE
 40
2455817.442254769
  9
$TDINDWG
 40
0.1251441435
  9
$TDUSRTIMER
 40
0.1251441435
  9
$USRTIMER
 70
     1
  9
$ANGBASE
 50
0.0
  9
$ANGDIR
 70
     0
  9
$PDMODE
 70
     0
  9
$PDSIZE
 40
0.0
  9
$PLINEWID
 40
0.0
  9
$SPLFRAME
 70
     0
  9
$SPLINETYPE
 70
     6
  9
$SPLINESEGS
 70
     8
  9
$HANDSEED
  5
207E
  9
$SURFTAB1
 70
     6
  9
$SURFTAB2
 70
     6
  9
$SURFTYPE
 70
     6
  9
$SURFU
 70
     6
  9
$SURFV
 70
     6
  9
$UCSBASE
  2

  9
$UCSNAME
  2

  9
$UCSORG
 10
0.0
 20
0.0
 30
0.0
  9
$UCSXDIR
 10
1.0
 20
0.0
 30
0.0
  9
$UCSYDIR
 10
0.0
 20
1.0
 30
0.0
  9
$UCSORTHOREF
  2

  9
$UCSORTHOVIEW
 70
     0
  9
$UCSORGTOP
 10
0.0
 20
0.0
 30
0.0
  9
$UCSORGBOTTOM
 10
0.0
 20
0.0
 30
0.0
  9
$UCSORGLEFT
 10
0.0
 20
0.0
 30
0.0
  9
$UCSORGRIGHT
 10
0.0
 20
0.0
 30
0.0
  9
$UCSORGFRONT
 10
0.0
 20
0.0
 30
0.0
  9
$UCSORGBACK
 10
0.0
 20
0.0
 30
0.0
  9
$PUCSBASE
  2

  9
$PUCSNAME
  2

  9
$PUCSORG
 10
0.0
 20
0.0
 30
0.0
  9
$PUCSXDIR
 10
1.0
 20
0.0
 30
0.0
  9
$PUCSYDIR
 10
0.0
 20
1.0
 30
0.0
  9
$PUCSORTHOREF
  2

  9
$PUCSORTHOVIEW
 70
     0
  9
$PUCSORGTOP
 10
0.0
 20
0.0
 30
0.0
  9
$PUCSORGBOTTOM
 10
0.0
 20
0.0
 30
0.0
  9
$PUCSORGLEFT
 10
0.0
 20
0.0
 30
0.0
  9
$PUCSORGRIGHT
 10
0.0
 20
0.0
 30
0.0
  9
$PUCSORGFRONT
 10
0.0
 20
0.0
 30
0.0
  9
$PUCSORGBACK
 10
0.0
 20
0.0
 30
0.0
  9
$USERI1
 70
     0
  9
$USERI2
 70
     0
  9
$USERI3
 70
     0
  9
$USERI4
 70
     0
  9
$USERI5
 70
     0
  9
$USERR1
 40
0.0
  9
$USERR2
 40
0.0
  9
$USERR3
 40
0.0
  9
$USERR4
 40
0.0
  9
$USERR5
 40
0.0
  9
$WORLDVIEW
 70
     1
  9
$SHADEDGE
 70
     3
  9
$SHADEDIF
 70
    70
  9
$TILEMODE
 70
     1
  9
$MAXACTVP
 70
    64
  9
$PINSBASE
 10
0.0
 20
0.0
 30
0.0
  9
$PLIMCHECK
 70
     0
  9
$PEXTMIN
 10
1.000000000000000E+20
 20
1.000000000000000E+20
 30
1.000000000000000E+20
  9
$PEXTMAX
 10
-1.000000000000000E+20
 20
-1.000000000000000E+20
 30
-1.000000000000000E+20
  9
$PLIMMIN
 10
0.0
 20
0.0
  9
$PLIMMAX
 10
420.0
 20
297.0
  9
$UNITMODE
 70
     0
  9
$VISRETAIN
 70
     1
  9
$PLINEGEN
 70
     0
  9
$PSLTSCALE
 70
     1
  9
$TREEDEPTH
 70
  3020
  9
$CMLSTYLE
  2
Standard
  9
$CMLJUST
 70
     0
  9
$CMLSCALE
 40
20.0
  9
$PROXYGRAPHICS
 70
     1
  9
$MEASUREMENT
 70
     1
  9
$CELWEIGHT
370
    -1
  9
$ENDCAPS
280
     0
  9
$JOINSTYLE
280
     0
  9
$LWDISPLAY
290
     0
  9
$INSUNITS
 70
     4
  9
$HYPERLINKBASE
  1

  9
$STYLESHEET
  1
sanindusa.ctb
  9
$XEDIT
290
     1
  9
$CEPSNTYPE
380
     0
  9
$PSTYLEMODE
290
     1
  9
$FINGERPRINTGUID
  2
{B98A73AA-52AA-4C10-B469-C0E7150AC31F}
  9
$VERSIONGUID
  2
{7DBD2C8C-FE40-4FDA-9528-43353A7506FE}
  9
$EXTNAMES
290
     1
  9
$PSVPSCALE
 40
0.0
  9
$OLESTARTUP
290
     0
  0
ENDSEC
  0
SECTION
  2
CLASSES
  0
CLASS
  1
ACDBDICTIONARYWDFLT
  2
AcDbDictionaryWithDefault
  3
ObjectDBX Classes
 90
        0
280
     0
281
     0
  0
CLASS
  1
ACDBPLACEHOLDER
  2
AcDbPlaceHolder
  3
ObjectDBX Classes
 90
        0
280
     0
281
     0
  0
CLASS
  1
LAYOUT
  2
AcDbLayout
  3
ObjectDBX Classes
 90
        0
280
     0
281
     0
  0
CLASS
  1
DICTIONARYVAR
  2
AcDbDictionaryVar
  3
ObjectDBX Classes
 90
        0
280
     0
281
     0
  0
CLASS
  1
DIMASSOC
  2
AcDbDimAssoc
  3
"AcDbDimAssoc|Product Desc:     AcDim ARX App For Dimension|Company:          Autodesk, Inc.|WEB Address:      www.autodesk.com"
 90
    32768
280
     0
281
     0
  0
CLASS
  1
MATERIAL
  2
AcDbMaterial
  3
ObjectDBX Classes
 90
     1153
280
     0
281
     0
  0
CLASS
  1
VISUALSTYLE
  2
AcDbVisualStyle
  3
ObjectDBX Classes
 90
     4095
280
     0
281
     0
  0
CLASS
  1
TABLESTYLE
  2
AcDbTableStyle
  3
ObjectDBX Classes
 90
     4095
280
     0
281
     0
  0
CLASS
  1
SCALE
  2
AcDbScale
  3
ObjectDBX Classes
 90
     1153
280
     0
281
     0
  0
CLASS
  1
MLEADERSTYLE
  2
AcDbMLeaderStyle
  3
ACDB_MLEADERSTYLE_CLASS
 90
     4095
280
     0
281
     0
  0
CLASS
  1
AEC_REFEDIT_STATUS_TRACKER
  2
AecDbRefEditStatusTracker
  3
AecArchBase60|Product Desc: Autodesk Architectural Desktop 2007 |Company: Autodesk,Inc. |WEB Address: www.autodesk.com
 90
    32897
280
     0
281
     0
  0
CLASS
  1
NPOCOLLECTION
  2
AcDbImpNonPersistentObjectsCollection
  3
ObjectDBX Classes
 90
    33921
280
     0
281
     0
  0
CLASS
  1
CELLSTYLEMAP
  2
AcDbCellStyleMap
  3
ObjectDBX Classes
 90
     1152
280
     0
281
     0
  0
ENDSEC
  0
SECTION
  2
TABLES
  0
TABLE
  2
VPORT
  5
8
102
{ACAD_XDICTIONARY
360
2004
102
}
330
0
100
AcDbSymbolTable
 70
     1
  0
VPORT
  5
1F6B
330
8
100
AcDbSymbolTableRecord
100
AcDbViewportTableRecord
  2
*Active
 70
     0
 10
0.0
 20
0.0
 11
1.0
 21
1.0
 12
-47.76954575334605
 22
670.6546817881562
 13
0.0
 23
0.0
 14
10.0
 24
10.0
 15
10.0
 25
10.0
 16
0.0
 26
0.0
 36
1.0
 17
0.0
 27
0.0
 37
0.0
 40
1.86156249999999
 41
1.645464025026068
 42
50.0
 43
0.0
 44
0.0
 50
0.0
 51
0.0
 71
     0
 72
   100
 73
     1
 74
     2
 75
     0
 76
     0
 77
     0
 78
     0
281
     0
 65
     1
110
0.0
120
0.0
130
0.0
111
1.0
121
0.0
131
0.0
112
0.0
122
1.0
132
0.0
 79
     0
146
0.0
  0
ENDTAB
  0
TABLE
  2
LTYPE
  5
5
330
0
100
AcDbSymbolTable
 70
     4
  0
LTYPE
  5
14
330
5
100
AcDbSymbolTableRecord
100
AcDbLinetypeTableRecord
  2
ByBlock
 70
     0
  3

 72
    65
 73
     0
 40
0.0
  0
LTYPE
  5
15
330
5
100
AcDbSymbolTableRecord
100
AcDbLinetypeTableRecord
  2
ByLayer
 70
     0
  3

 72
    65
 73
     0
 40
0.0
  0
LTYPE
  5
16
330
5
100
AcDbSymbolTableRecord
100
AcDbLinetypeTableRecord
  2
Continuous
 70
     0
  3
Solid line
 72
    65
 73
     0
 40
0.0
  0
LTYPE
  5
2D
330
5
100
AcDbSymbolTableRecord
100
AcDbLinetypeTableRecord
  2
DASHDOT
 70
     0
  3
Dash dot __ . __ . __ . __ . __ . __ . __ . __
 72
    65
 73
     4
 40
25.4
 49
12.7
 74
     0
 49
-6.349999999999999
 74
     0
 49
0.0
 74
     0
 49
-6.349999999999999
 74
     0
  0
LTYPE
  5
2E
330
5
100
AcDbSymbolTableRecord
100
AcDbLinetypeTableRecord
  2
HIDDEN
 70
     0
  3
Hidden __ __ __ __ __ __ __ __ __ __ __ __ __ _
 72
    65
 73
     2
 40
9.524999999999998
 49
6.349999999999999
 74
     0
 49
-3.174999999999999
 74
     0
  0
LTYPE
  5
D1E
330
5
100
AcDbSymbolTableRecord
100
AcDbLinetypeTableRecord
  2
CENTER
 70
     0
  3
____ _ ____ _ ____ _ ____ _ ____ _ ____ _ ____ 
 72
    65
 73
     4
 40
2.0
 49
1.25
 74
     0
 49
-0.25
 74
     0
 49
0.25
 74
     0
 49
-0.25
 74
     0
  0
ENDTAB
  0
TABLE
  2
LAYER
  5
2
330
0
100
AcDbSymbolTable
 70
    17
  0
LAYER
  5
10
102
{ACAD_XDICTIONARY
360
1FE0
102
}
330
2
100
AcDbSymbolTableRecord
100
AcDbLayerTableRecord
  2
0
 70
     0
 62
     7
  6
Continuous
370
    -3
390
F
  0
LAYER
  5
2F
102
{ACAD_XDICTIONARY
360
1FE2
102
}
330
2
100
AcDbSymbolTableRecord
100
AcDbLayerTableRecord
  2
1
 70
     0
 62
     1
  6
Continuous
370
    -3
390
F
  0
LAYER
  5
30
102
{ACAD_XDICTIONARY
360
1FE4
102
}
330
2
100
AcDbSymbolTableRecord
100
AcDbLayerTableRecord
  2
2
 70
     0
 62
     2
  6
Continuous
370
    -3
390
F
  0
LAYER
  5
31
102
{ACAD_XDICTIONARY
360
1FE6
102
}
330
2
100
AcDbSymbolTableRecord
100
AcDbLayerTableRecord
  2
3
 70
     0
 62
     3
  6
Continuous
370
    -3
390
F
  0
LAYER
  5
32
102
{ACAD_XDICTIONARY
360
1FE8
102
}
330
2
100
AcDbSymbolTableRecord
100
AcDbLayerTableRecord
  2
4
 70
     0
 62
     4
  6
Continuous
370
    -3
390
F
  0
LAYER
  5
33
102
{ACAD_XDICTIONARY
360
1FEA
102
}
330
2
100
AcDbSymbolTableRecord
100
AcDbLayerTableRecord
  2
5
 70
     0
 62
     5
  6
Continuous
370
    -3
390
F
  0
LAYER
  5
34
102
{ACAD_XDICTIONARY
360
1FEC
102
}
330
2
100
AcDbSymbolTableRecord
100
AcDbLayerTableRecord
  2
6
 70
     0
 62
     6
  6
Continuous
370
    -3
390
F
  0
LAYER
  5
35
102
{ACAD_XDICTIONARY
360
1FEE
102
}
330
2
100
AcDbSymbolTableRecord
100
AcDbLayerTableRecord
  2
7
 70
     0
 62
     7
  6
Continuous
370
    -3
390
F
  0
LAYER
  5
36
102
{ACAD_XDICTIONARY
360
1FF0
102
}
330
2
100
AcDbSymbolTableRecord
100
AcDbLayerTableRecord
  2
cen
 70
     0
 62
     7
  6
DASHDOT
370
    -3
390
F
  0
LAYER
  5
37
102
{ACAD_XDICTIONARY
360
1FF2
102
}
330
2
100
AcDbSymbolTableRecord
100
AcDbLayerTableRecord
  2
hid
 70
     0
 62
     7
  6
HIDDEN
370
    -3
390
F
  0
LAYER
  5
5D6
102
{ACAD_XDICTIONARY
360
1FF4
102
}
330
2
100
AcDbSymbolTableRecord
100
AcDbLayerTableRecord
  2
hatch
 70
     0
 62
     9
  6
Continuous
370
    -3
390
F
  0
LAYER
  5
8AF
102
{ACAD_XDICTIONARY
360
1FF6
102
}
330
2
100
AcDbSymbolTableRecord
100
AcDbLayerTableRecord
  2
9
 70
     0
 62
     9
  6
Continuous
370
    -3
390
F
  0
LAYER
  5
8F8
102
{ACAD_XDICTIONARY
360
1FF8
102
}
330
2
100
AcDbSymbolTableRecord
100
AcDbLayerTableRecord
  2
leg fin
 70
     0
 62
     9
  6
Continuous
370
    -3
390
F
  0
LAYER
  5
91D
102
{ACAD_XDICTIONARY
360
1FFA
102
}
330
2
100
AcDbSymbolTableRecord
100
AcDbLayerTableRecord
  2
cotas
 70
     0
 62
     1
  6
Continuous
370
    -3
390
F
  0
LAYER
  5
92F
330
2
100
AcDbSymbolTableRecord
100
AcDbLayerTableRecord
  2
Defpoints
 70
     0
 62
     7
  6
Continuous
290
     0
370
    -3
390
F
  0
LAYER
  5
D1F
102
{ACAD_XDICTIONARY
360
1FFC
102
}
330
2
100
AcDbSymbolTableRecord
100
AcDbLayerTableRecord
  2
quote
 70
     0
 62
     7
  6
Continuous
370
    18
390
F
  0
LAYER
  5
1FC0
102
{ACAD_XDICTIONARY
360
1FFE
102
}
330
2
100
AcDbSymbolTableRecord
100
AcDbLayerTableRecord
  2
SANINDUSA
 70
     0
 62
     3
  6
Continuous
370
    -3
390
F
  0
ENDTAB
  0
TABLE
  2
STYLE
  5
3
330
0
100
AcDbSymbolTable
 70
     4
  0
STYLE
  5
11
330
3
100
AcDbSymbolTableRecord
100
AcDbTextStyleTableRecord
  2
Standard
 70
     0
 40
0.0
 41
1.0
 50
0.0
 71
     0
 42
2.5
  3
Avgardn.ttf
  4

1001
ACAD
1000
AvantGarde Bk BT
1071
       34
  0
STYLE
  5
2C
330
3
100
AcDbSymbolTableRecord
100
AcDbTextStyleTableRecord
  2

 70
     1
 40
0.0
 41
1.0
 50
0.0
 71
     0
 42
2.5
  3
ltypeshp.shx
  4

  0
STYLE
  5
91F
330
3
100
AcDbSymbolTableRecord
100
AcDbTextStyleTableRecord
  2
SANINDUSA
 70
     0
 40
0.0
 41
1.0
 50
0.0
 71
     0
 42
2.5
  3
verdana.TTF
  4

1001
ACAD
1000
Verdana
1071
       34
  0
STYLE
  5
D20
330
3
100
AcDbSymbolTableRecord
100
AcDbTextStyleTableRecord
  2
ISOCP
 70
     0
 40
0.0
 41
1.0
 50
0.0
 71
     0
 42
2.5
  3
isocp
  4

  0
ENDTAB
  0
TABLE
  2
VIEW
  5
6
330
0
100
AcDbSymbolTable
 70
     0
  0
ENDTAB
  0
TABLE
  2
UCS
  5
7
330
0
100
AcDbSymbolTable
 70
     0
  0
ENDTAB
  0
TABLE
  2
APPID
  5
9
330
0
100
AcDbSymbolTable
 70
     7
  0
APPID
  5
12
330
9
100
AcDbSymbolTableRecord
100
AcDbRegAppTableRecord
  2
ACAD
 70
     0
  0
APPID
  5
3A
330
9
100
AcDbSymbolTableRecord
100
AcDbRegAppTableRecord
  2
DCO15
 70
     0
  0
APPID
  5
D22
330
9
100
AcDbSymbolTableRecord
100
AcDbRegAppTableRecord
  2
GENIUS_GENDTOL_13
 70
     0
  0
APPID
  5
D23
330
9
100
AcDbSymbolTableRecord
100
AcDbRegAppTableRecord
  2
GENIUS_GENREC_14
 70
     0
  0
APPID
  5
D24
330
9
100
AcDbSymbolTableRecord
100
AcDbRegAppTableRecord
  2
GENIUS_GENODEF_13
 70
     0
  0
APPID
  5
D25
330
9
100
AcDbSymbolTableRecord
100
AcDbRegAppTableRecord
  2
GENIUS_GENOBJ-N-REC_13
 70
     0
  0
APPID
  5
203A
330
9
100
AcDbSymbolTableRecord
100
AcDbRegAppTableRecord
  2
ACAD_MLEADERVER
 70
     0
  0
ENDTAB
  0
TABLE
  2
DIMSTYLE
  5
A
330
0
100
AcDbSymbolTable
 70
     3
100
AcDbDimStyleTable
 71
     1
340
921
  0
DIMSTYLE
105
45
330
A
100
AcDbSymbolTableRecord
100
AcDbDimStyleTableRecord
  2
STANDARD
 70
     0
289
     0
340
11
  0
DIMSTYLE
105
921
330
A
100
AcDbSymbolTableRecord
100
AcDbDimStyleTableRecord
  2
SANINDUSA
 70
     0
 41
2.0
 42
1.0
 43
1.0
 44
1.0
 73
     0
 74
     0
 77
     1
 78
     8
140
2.0
141
0.0
143
0.03937007874016
147
1.0
171
     3
172
     1
176
   256
177
   256
178
   256
179
     1
271
     1
272
     1
274
     3
278
    44
283
     0
284
     8
340
91F
371
    -1
372
    -1
  0
DIMSTYLE
105
D21
330
A
100
AcDbSymbolTableRecord
100
AcDbDimStyleTableRecord
  2
ISO-35
 70
     0
 41
3.5
 42
0.875
 43
5.25
 44
1.75
 45
0.5
 73
     0
 74
     0
 77
     1
 78
     8
140
3.5
141
3.5
143
0.0394
147
0.875
171
     4
172
     1
176
   256
177
   256
178
   256
271
     1
272
     1
273
     8
274
     4
340
11
371
    -1
372
    -1
  0
ENDTAB
  0
TABLE
  2
BLOCK_RECORD
  5
1
330
0
100
AcDbSymbolTable
 70
    18
  0
BLOCK_RECORD
  5
1F
330
1
100
AcDbSymbolTableRecord
100
AcDbBlockTableRecord
  2
*Model_Space
340
22
  0
BLOCK_RECORD
  5
1B
330
1
100
AcDbSymbolTableRecord
100
AcDbBlockTableRecord
  2
*Paper_Space
340
1E
  0
BLOCK_RECORD
  5
23
330
1
100
AcDbSymbolTableRecord
100
AcDbBlockTableRecord
  2
*Paper_Space0
340
26
  0
BLOCK_RECORD
  5
919
330
1
100
AcDbSymbolTableRecord
100
AcDbBlockTableRecord
  2
_DotSmall
340
0
  0
BLOCK_RECORD
  5
922
330
1
100
AcDbSymbolTableRecord
100
AcDbBlockTableRecord
  2
base para cotas
340
0
310
2800000020000000200000000100080000000000000400000000000000000000000000000000000000000000000080000080000000808000800000008000800080800000C0C0C000C0DCC000F0CAA6000020400000206000002080000020A0000020C0000020E00000400000004020000040400000406000004080000040A0
310
000040C0000040E00000600000006020000060400000606000006080000060A0000060C0000060E00000800000008020000080400000806000008080000080A0000080C0000080E00000A0000000A0200000A0400000A0600000A0800000A0A00000A0C00000A0E00000C0000000C0200000C0400000C0600000C0800000C0
310
A00000C0C00000C0E00000E0000000E0200000E0400000E0600000E0800000E0A00000E0C00000E0E00040000000400020004000400040006000400080004000A0004000C0004000E00040200000402020004020400040206000402080004020A0004020C0004020E000404000004040200040404000404060004040800040
310
40A0004040C0004040E00040600000406020004060400040606000406080004060A0004060C0004060E00040800000408020004080400040806000408080004080A0004080C0004080E00040A0000040A0200040A0400040A0600040A0800040A0A00040A0C00040A0E00040C0000040C0200040C0400040C0600040C08000
310
40C0A00040C0C00040C0E00040E0000040E0200040E0400040E0600040E0800040E0A00040E0C00040E0E00080000000800020008000400080006000800080008000A0008000C0008000E00080200000802020008020400080206000802080008020A0008020C0008020E00080400000804020008040400080406000804080
310
008040A0008040C0008040E00080600000806020008060400080606000806080008060A0008060C0008060E00080800000808020008080400080806000808080008080A0008080C0008080E00080A0000080A0200080A0400080A0600080A0800080A0A00080A0C00080A0E00080C0000080C0200080C0400080C0600080C0
310
800080C0A00080C0C00080C0E00080E0000080E0200080E0400080E0600080E0800080E0A00080E0C00080E0E000C0000000C0002000C0004000C0006000C0008000C000A000C000C000C000E000C0200000C0202000C0204000C0206000C0208000C020A000C020C000C020E000C0400000C0402000C0404000C0406000C0
310
408000C040A000C040C000C040E000C0600000C0602000C0604000C0606000C0608000C060A000C060C000C060E000C0800000C0802000C0804000C0806000C0808000C080A000C080C000C080E000C0A00000C0A02000C0A04000C0A06000C0A08000C0A0A000C0A0C000C0A0E000C0C00000C0C02000C0C04000C0C06000
310
C0C08000C0C0A000F0FBFF00A4A0A000808080000000FF0000FF000000FFFF00FF000000FF00FF00FFFF0000FFFFFF00A4A4A4A4A4A4A4A4A4A4A4A4A4A4A4A4A4A4A4A4A4A4A4A4A4A4A4A4A4A4A4A4A4A4A4A4A4A4A4A4A4A4A4A4A4A4A4A4A4A4A4A4A4A4A4A4A4A4A4A4A4A4A4A4A4A4A4A4A4A4A4A4A4A4A4A4A4A4A4
310
A4A4A4A4A4A4A4A4A4A4A4A4A4A4A4A4A4A4A4A4A4A4A4A4A4A4A4A4A4A4A4A4A4A4A4A4A4A4A4A4A4A4A4A4A4A4A4A4A4A4A4A4A4A4A4A4A4A4A4A4A4A4A4A4A4A4A4A4A4A4A4A4A4A4A4A4A4A4A4A4A4A4A4A4A4A4A4A4A4A4A4A4A4A4A4A4A4A4A4A4A4A4A4A4A4A4A4A4A4A4A4A4A4A4A4A4A4A4A4A4A4A4A4A4A4A4A4
310
A4A4A4A4A4A4A4A4A4A4A4A4A4A4A4A4A4A4A4A4A4A4A4A4A4A4A4A4A4A4A4A4A4A4A4A4A4A4A4A4A4A4A4A4A4A4A4A4A4A4A4A4A4A4A4A4A4A4A4A4A4A4A4A4A4A4A4A4A4A4A4A4A4A4A4A4A4A4A4A4A4A4A4A4A4A4A4A4A4A4A4A4A4A4A4A4A4A4A4A4A4A4A4A4A4A4A4A4A4A4A4A4A4A4A4A4A4A4A4A4A4A4A4A4A4A4A4
310
A4A4A4A4A4A4A4A4A4A4A4A4A4A4A4A4A4A4A4A4A4A4A4A4A4A4A4A4A4A4A4A4A4A4A4A4A4A4A4A4A4A4A4A4A4A4A4A4A4A4A4A4A4A4A4A4A4A4A4A4A4A4A4A4A4A4A4A4A4A4A4A4A4A4A4A4A4A4A4A4A4A4A4A4A4A4A4A4A4A4A4A4A4A4A4A4A4A4A4A4A4A4A4A4A4A4A4A4A4A4A4A4A4A4A4A4F9F9F9F9F9F9F9F9F9F9F9
310
F9F9F9F9F9F9F9F9F9F9F9F9F9F9F9F9F9F9F9A4A4F9F9F9F9F9F9F9F9F9F9F9F9F9F9F9F9F9F9F9F9F9F9F9F9F9F9F9F9F9F9A4A4F9F9F9F9F9F9F9F9F9F9F9F9F9F9F9F9F9F9F9F9F9F9F9F9F9F9F9F9F9F9A4A4F9A4A4A4A4A4A4A4A4A4A4A4A4A4A4A4A4A4A4A4A4A4A4A4A4A4A4A4A4F9A4A4A4A4A4A4A4A4A4A4A4A4
310
A4A4A4A4A4A4A4A4A4A4A4A4A4A4A4A4A4A4A4A4A4A4A4A4A4A4A4A4A4A4A4A4A4A4A4A4A4A4A4A4A4A4A4A4A4A4A4A4A4A4A4A4A4A4A4A4A4A4A4A4A4A4A4A4A4A4A4A4A4A4A4A4A4A4A4A4A4A4A4A4A4A4A4A4A4A4A4A4A4A4A4A4A4A4A4A4A4A4A4A4A4A4A4A4A4A4A4A4A4A4A4A4A4A4A4A4A4A4A4A4A4A4A4A4A4A4A4
310
A4A4A4A4A4A4A4A4A4A4A4A4A4A4A4A4A4A4A4A4A4A4A4A4A4A4A4A4A4A4A4A4A4A4A4A4A4A4A4A4A4A4A4A4A4A4A4A4A4A4A4A4A4A4A4A4A4A4A4A4A4A4A4A4A4A4A4A4A4A4A4A4A4A4A4A4A4A4A4A4A4A4A4A4A4A4A4A4A4A4A4A4A4A4A4A4A4A4A4A4A4A4A4A4A4A4A4A4A4A4A4A4A4A4A4A4A4A4A4A4A4A4A4A4A4A4A4
310
A4A4A4A4A4A4A4A4A4A4A4A4A4A4A4A4A4A4A4A4A4A4A4A4A4A4A4A4A4A4A4A4A4A4A4A4A4A4A4A4A4A4A4A4A4A4A4A4A4A4A4A4A4A4A4A4A4A4A4A4A4A4A4A4A4A4A4A4A4A4A4A4A4A4A4A4A4A4A4A4A4A4A4A4A4A4A4A4A4A4A4A4A4A4A4A4A4A4A4A4A4A4A4A4A4A4A4A4A4A4A4A4A4A4A4A4A4A4A4A4A4A4A4A4A4A4A4
310
A4A4A4A4A4A4A4A4A4A4A4A4A4A4A4A4A4A4A4A4A4A4A4A4A4A4A4A4A4A4A4A4A4A4A4A4A4A4A4A4A4A4A4A4A4A4A4A4A4A4A4A4A4A4A4A4
1001
ACAD
1000
DesignCenter Data
1002
{
1070
     1
1070
     4
1002
}
  0
BLOCK_RECORD
  5
AA8
330
1
100
AcDbSymbolTableRecord
100
AcDbBlockTableRecord
  2
_CLOSED
340
0
  0
BLOCK_RECORD
  5
C8D
330
1
100
AcDbSymbolTableRecord
100
AcDbBlockTableRecord
  2
guarnizione
340
0
102
{BLKREFS
331
1AFB
102
}
  0
ENDTAB
  0
ENDSEC
  0
SECTION
  2
BLOCKS
  0
BLOCK
  5
20
330
1F
100
AcDbEntity
  8
0
100
AcDbBlockBegin
  2
*Model_Space
 70
     0
 10
0.0
 20
0.0
 30
0.0
  3
*Model_Space
  1

  0
ENDBLK
  5
21
330
1F
100
AcDbEntity
  8
0
100
AcDbBlockEnd
  0
BLOCK
  5
1C
330
1B
100
AcDbEntity
 67
     1
  8
0
100
AcDbBlockBegin
  2
*Paper_Space
 70
     0
 10
0.0
 20
0.0
 30
0.0
  3
*Paper_Space
  1

  0
ENDBLK
  5
1D
330
1B
100
AcDbEntity
 67
     1
  8
0
100
AcDbBlockEnd
  0
BLOCK
  5
24
330
23
100
AcDbEntity
 67
     1
  8
0
100
AcDbBlockBegin
  2
*Paper_Space0
 70
     0
 10
0.0
 20
0.0
 30
0.0
  3
*Paper_Space0
  1

  0
ENDBLK
  5
25
330
23
100
AcDbEntity
 67
     1
  8
0
100
AcDbBlockEnd
  0
BLOCK
  5
91B
330
919
100
AcDbEntity
  8
0
100
AcDbBlockBegin
  2
_DotSmall
 70
     0
 10
0.0
 20
0.0
 30
0.0
  3
_DotSmall
  1

  0
LWPOLYLINE
  5
91A
330
919
100
AcDbEntity
  8
0
  6
ByBlock
 62
     0
100
AcDbPolyline
 90
        2
 70
     1
 43
0.5
 10
-0.0625
 20
0.0
 42
1.0
 10
0.0625
 20
0.0
 42
1.0
  0
ENDBLK
  5
91C
330
919
100
AcDbEntity
  8
0
100
AcDbBlockEnd
  0
BLOCK
  5
92A
330
922
100
AcDbEntity
  8
0
100
AcDbBlockBegin
  2
base para cotas
 70
     0
 10
0.0
 20
0.0
 30
0.0
  3
base para cotas
  1

  0
LINE
  5
B36
330
922
100
AcDbEntity
  8
cotas
100
AcDbLine
 10
0.0
 20
-30.0
 30
0.0
 11
327.1260136525398
 21
-30.0
 31
0.0
  0
LINE
  5
B37
330
922
100
AcDbEntity
  8
cotas
100
AcDbLine
 10
0.0
 20
-25.0
 30
0.0
 11
327.1260136525398
 21
-25.0
 31
0.0
  0
LINE
  5
B38
330
922
100
AcDbEntity
  8
cotas
100
AcDbLine
 10
0.0
 20
-20.0
 30
0.0
 11
327.1260136525398
 21
-20.0
 31
0.0
  0
LINE
  5
B39
330
922
100
AcDbEntity
  8
cotas
100
AcDbLine
 10
0.0
 20
-15.0
 30
0.0
 11
327.1260136525398
 21
-15.0
 31
0.0
  0
LINE
  5
B3A
330
922
100
AcDbEntity
  8
cotas
100
AcDbLine
 10
0.0
 20
-10.0
 30
0.0
 11
327.1260136525398
 21
-10.0
 31
0.0
  0
LINE
  5
B3B
330
922
100
AcDbEntity
  8
cotas
100
AcDbLine
 10
0.0
 20
0.0
 30
0.0
 11
0.0
 21
-30.0
 31
0.0
  0
LINE
  5
B3C
330
922
100
AcDbEntity
  8
cotas
100
AcDbLine
 10
327.1260136525398
 20
-30.0
 30
0.0
 11
327.1260136525398
 21
0.0
 31
0.0
  0
ENDBLK
  5
92B
330
922
100
AcDbEntity
  8
0
100
AcDbBlockEnd
  0
BLOCK
  5
AAD
330
AA8
100
AcDbEntity
  8
0
100
AcDbBlockBegin
  2
_CLOSED
 70
     0
 10
0.0
 20
0.0
 30
0.0
  3
_CLOSED
  1

  0
LINE
  5
AA9
330
AA8
100
AcDbEntity
  8
0
100
AcDbLine
 10
-1.0
 20
0.166667
 30
0.0
 11
0.0
 21
0.0
 31
0.0
  0
LINE
  5
AAA
330
AA8
100
AcDbEntity
  8
0
100
AcDbLine
 10
0.0
 20
0.0
 30
0.0
 11
-1.0
 21
-0.166667
 31
0.0
  0
LINE
  5
AAB
330
AA8
100
AcDbEntity
  8
0
100
AcDbLine
 10
-1.0
 20
0.166667
 30
0.0
 11
-1.0
 21
-0.166667
 31
0.0
  0
LINE
  5
AAC
330
AA8
100
AcDbEntity
  8
0
100
AcDbLine
 10
0.0
 20
0.0
 30
0.0
 11
-1.0
 21
0.0
 31
0.0
  0
ENDBLK
  5
AAE
330
AA8
100
AcDbEntity
  8
0
100
AcDbBlockEnd
  0
BLOCK
  5
CD8
330
C8D
100
AcDbEntity
  8
0
 62
     4
100
AcDbBlockBegin
  2
guarnizione
 70
     0
 10
0.0
 20
0.0
 30
0.0
  3
guarnizione
  1

  0
LINE
  5
C8E
330
C8D
100
AcDbEntity
  8
0
100
AcDbLine
 10
12.0
 20
3.179312414488776
 30
0.0
 11
12.0
 21
2.699999999999818
 31
0.0
  0
LINE
  5
C8F
330
C8D
100
AcDbEntity
  8
0
100
AcDbLine
 10
9.5
 20
3.130475008156281
 30
0.0
 11
9.440776269158959
 21
2.734883615801663
 31
0.0
  0
ARC
  5
C90
330
C8D
100
AcDbEntity
  8
0
100
AcDbCircle
 10
11.19999999999891
 20
3.179312414488776
 30
0.0
 40
0.8
100
AcDbArc
 50
0.0
 51
81.48552156587461
  0
ARC
  5
C91
330
C8D
100
AcDbEntity
  8
0
100
AcDbCircle
 10
8.753809903480942
 20
1.523241254200002
 30
0.0
 40
0.1999999999999504
100
AcDbArc
 50
171.485521565823
 51
351.485521565823
  0
LINE
  5
C92
330
C8D
100
AcDbEntity
  8
0
100
AcDbLine
 10
11.65558220186904
 20
-2.403306455734309
 30
0.0
 11
9.440776269158959
 21
-2.734883615802573
 31
0.0
  0
ARC
  5
C93
330
C8D
100
AcDbEntity
  8
0
100
AcDbCircle
 10
8.753809903480942
 20
-1.523241254200911
 30
0.0
 40
0.1999999999999504
100
AcDbArc
 50
8.514478434176927
 51
188.5144784341769
  0
LINE
  5
C94
330
C8D
100
AcDbEntity
  8
0
100
AcDbLine
 10
9.5
 20
-3.130475008157191
 30
0.0
 11
9.440776269158959
 21
-2.734883615802573
 31
0.0
  0
ARC
  5
C95
330
C8D
100
AcDbEntity
  8
0
100
AcDbCircle
 10
11.69999999999891
 20
-2.699999999999818
 30
0.0
 40
0.3
100
AcDbArc
 50
0.0
 51
98.51447843412536
  0
ARC
  5
C96
330
C8D
100
AcDbEntity
  8
0
100
AcDbCircle
 10
11.69999999999891
 20
2.699999999999818
 30
0.0
 40
0.3
100
AcDbArc
 50
261.4855215658746
 51
0.0
  0
LINE
  5
C97
330
C8D
100
AcDbEntity
  8
0
100
AcDbLine
 10
11.65558220186904
 20
2.4033064557334
 30
0.0
 11
9.440776269158959
 21
2.734883615801663
 31
0.0
  0
LINE
  5
C98
330
C8D
100
AcDbEntity
  8
0
100
AcDbLine
 10
8.807715063378054
 20
3.234116537129011
 30
0.0
 11
8.556014207302723
 21
1.552853119620522
 31
0.0
  0
LINE
  5
C99
330
C8D
100
AcDbEntity
  8
0
100
AcDbLine
 10
9.203306455732672
 20
3.174892806287971
 30
0.0
 11
8.951605599657341
 21
1.493629388779481
 31
0.0
  0
LINE
  5
C9A
330
C8D
100
AcDbEntity
  8
0
100
AcDbLine
 10
6.681411329471302
 20
3.552444090400967
 30
0.0
 11
6.622187598630262
 21
3.15685269804544
 31
0.0
  0
ARC
  5
C9B
330
C8D
100
AcDbEntity
  8
0
100
AcDbCircle
 10
0.2999999999992724
 20
3.800000000000181
 30
0.0
 40
0.3
100
AcDbArc
 50
81.48552156587461
 51
180.0
  0
ARC
  5
C9C
330
C8D
100
AcDbEntity
  8
0
100
AcDbCircle
 10
1.042400829128382
 20
4.699999999999818
 30
0.0
 40
0.8
100
AcDbArc
 50
81.48552156587461
 51
90.0
  0
LINE
  5
C9D
330
C8D
100
AcDbEntity
  8
0
100
AcDbLine
 10
1.5
 20
3.923692082123125
 30
0.0
 11
0.3444177981309622
 21
4.09669354426569
 31
0.0
  0
LINE
  5
C9E
330
C8D
100
AcDbEntity
  8
0
100
AcDbLine
 10
1.5
 20
3.923692082123125
 30
0.0
 11
1.5
 21
3.099999999999454
 31
0.0
  0
LINE
  5
C9F
330
C8D
100
AcDbEntity
  8
0
100
AcDbLine
 10
1.5
 20
3.099999999999454
 30
0.0
 11
2.699999999998908
 21
3.099999999999454
 31
0.0
  0
LINE
  5
CA0
330
C8D
100
AcDbEntity
  8
0
100
AcDbLine
 10
2.699999999998908
 20
3.744040860223321
 30
0.0
 11
2.699999999998908
 21
3.099999999999454
 31
0.0
  0
LINE
  5
CA1
330
C8D
100
AcDbEntity
  8
0
100
AcDbLine
 10
6.622187598630262
 20
3.15685269804544
 30
0.0
 11
2.699999999998908
 21
3.744040860223321
 31
0.0
  0
LINE
  5
CA2
330
C8D
100
AcDbEntity
  8
0
100
AcDbLine
 10
1.5
 20
-3.100000000000363
 30
0.0
 11
2.699999999998908
 21
-3.100000000000363
 31
0.0
  0
LINE
  5
CA3
330
C8D
100
AcDbEntity
  8
0
100
AcDbLine
 10
11.31844746168099
 20
3.970495199198012
 30
0.0
 11
1.160848290810463
 21
5.491182784709053
 31
0.0
  0
LINE
  5
CA4
330
C8D
100
AcDbEntity
  8
0
100
AcDbLine
 10
9.5
 20
3.130475008156281
 30
0.0
 11
6.681411329471302
 21
3.552444090400967
 31
0.0
  0
ARC
  5
CA5
330
C8D
100
AcDbEntity
  8
0
100
AcDbCircle
 10
11.19999999999891
 20
-3.179312414488776
 30
0.0
 40
0.8
100
AcDbArc
 50
278.5144784341254
 51
0.0
  0
LINE
  5
CA6
330
C8D
100
AcDbEntity
  8
0
100
AcDbLine
 10
6.681411329471302
 20
-3.552444090400967
 30
0.0
 11
6.622187598630262
 21
-3.15685269804635
 31
0.0
  0
ARC
  5
CA7
330
C8D
100
AcDbEntity
  8
0
100
AcDbCircle
 10
0.2999999999992724
 20
-3.800000000000181
 30
0.0
 40
0.3
100
AcDbArc
 50
180.0
 51
278.5144784341254
  0
ARC
  5
CA8
330
C8D
100
AcDbEntity
  8
0
100
AcDbCircle
 10
1.042400829128382
 20
-4.699999999999818
 30
0.0
 40
0.8
100
AcDbArc
 50
270.0
 51
278.5144784341254
  0
LINE
  5
CA9
330
C8D
100
AcDbEntity
  8
0
100
AcDbLine
 10
0.3444177981309622
 20
-4.096693544266599
 30
0.0
 11
1.5
 21
-3.923692082124034
 31
0.0
  0
LINE
  5
CAA
330
C8D
100
AcDbEntity
  8
0
100
AcDbLine
 10
6.622187598630262
 20
-3.15685269804635
 30
0.0
 11
2.699999999998908
 21
-3.744040860224231
 31
0.0
  0
LINE
  5
CAB
330
C8D
100
AcDbEntity
  8
0
100
AcDbLine
 10
1.160848290810463
 20
-5.491182784709963
 30
0.0
 11
11.31844746168099
 21
-3.970495199198921
 31
0.0
  0
LINE
  5
CAC
330
C8D
100
AcDbEntity
  8
0
100
AcDbLine
 10
0.0
 20
3.800000000000181
 30
0.0
 11
0.0
 21
-3.800000000000181
 31
0.0
  0
LINE
  5
CAD
330
C8D
100
AcDbEntity
  8
0
100
AcDbLine
 10
12.0
 20
-2.699999999999818
 30
0.0
 11
12.0
 21
-3.179312414488776
 31
0.0
  0
LINE
  5
CAE
330
C8D
100
AcDbEntity
  8
0
100
AcDbLine
 10
2.699999999998908
 20
-3.100000000000363
 30
0.0
 11
2.699999999998908
 21
-3.744040860224231
 31
0.0
  0
LINE
  5
CAF
330
C8D
100
AcDbEntity
  8
0
100
AcDbLine
 10
1.5
 20
-3.100000000000363
 30
0.0
 11
1.5
 21
-3.923692082124034
 31
0.0
  0
LINE
  5
CB0
330
C8D
100
AcDbEntity
  8
0
100
AcDbLine
 10
9.5
 20
-3.130475008157191
 30
0.0
 11
6.681411329471302
 21
-3.552444090400967
 31
0.0
  0
LINE
  5
CB1
330
C8D
100
AcDbEntity
  8
0
100
AcDbLine
 10
9.203306455732672
 20
-3.174892806287971
 30
0.0
 11
8.951605599657341
 21
-1.493629388780391
 31
0.0
  0
LINE
  5
CB2
330
C8D
100
AcDbEntity
  8
0
100
AcDbLine
 10
8.807715063378054
 20
-3.234116537129011
 30
0.0
 11
8.556014207302723
 21
-1.552853119621431
 31
0.0
  0
LINE
  5
CB3
330
C8D
100
AcDbEntity
  8
0
100
AcDbLine
 10
-1.5
 20
5.5
 30
0.0
 11
-3.757359312881817
 21
5.5
 31
0.0
  0
ARC
  5
CB4
330
C8D
100
AcDbEntity
  8
0
100
AcDbCircle
 10
-2.5
 20
3.5
 30
0.0
 40
1.0
100
AcDbArc
 50
0.0
 51
90.0
  0
ARC
  5
CB5
330
C8D
100
AcDbEntity
  8
0
100
AcDbCircle
 10
-3.769781102879278
 20
4.149978862833449
 30
0.0
 40
0.75
100
AcDbArc
 50
47.16775949949599
 51
90.19499109987526
  0
ARC
  5
CB6
330
C8D
100
AcDbEntity
  8
0
100
AcDbCircle
 10
-2.75
 20
5.25
 30
0.0
 40
0.75
100
AcDbArc
 50
227.167759499496
 51
270.0
  0
LINE
  5
CB7
330
C8D
100
AcDbEntity
  8
0
100
AcDbLine
 10
-2.75
 20
4.5
 30
0.0
 11
-2.5
 21
4.5
 31
0.0
  0
LINE
  5
CB8
330
C8D
100
AcDbEntity
  8
0
100
AcDbLine
 10
-7.415254325502246
 20
3.064644661409147
 30
0.0
 11
-6.868629150101696
 21
3.611269837220788
 31
0.0
  0
ARC
  5
CB9
102
{ACAD_REACTORS
330
CD3
102
}
330
C8D
100
AcDbEntity
  8
0
100
AcDbCircle
 10
-7.980939750059405
 20
2.569669913566031
 30
0.0
 40
0.2
100
AcDbArc
 50
45.0000001037625
 51
135.0000000719631
  0
ARC
  5
CBA
330
C8D
100
AcDbEntity
  8
0
100
AcDbCircle
 10
-3.757359312881817
 20
0.5
 30
0.0
 40
5.0
100
AcDbArc
 50
90.0
 51
135.0
  0
ARC
  5
CBB
330
C8D
100
AcDbEntity
  8
0
100
AcDbCircle
 10
-3.757359312881817
 20
0.5
 30
0.0
 40
4.4
100
AcDbArc
 50
90.19499109987526
 51
135.0
  0
ARC
  5
CBC
330
C8D
100
AcDbEntity
  8
0
100
AcDbCircle
 10
-6.814213563102384
 20
0.9786796633270569
 30
0.0
 40
0.75
100
AcDbArc
 50
314.9999999676111
 51
45.0
  0
ARC
  5
CBD
102
{ACAD_REACTORS
330
CD3
102
}
330
C8D
100
AcDbEntity
  8
0
100
AcDbCircle
 10
-6.814213563102384
 20
0.9786796633270569
 30
0.0
 40
0.5
100
AcDbArc
 50
314.9999999676111
 51
45.0
  0
ARC
  5
CBE
330
C8D
100
AcDbEntity
  8
0
100
AcDbCircle
 10
-7.203122291144609
 20
2.852512627053329
 30
0.0
 40
0.3
100
AcDbArc
 50
135.0
 51
225.0000001112794
  0
LINE
  5
CBF
330
C8D
100
AcDbEntity
  8
0
100
AcDbLine
 10
-8.051650430128574
 20
3.276776694619002
 30
0.0
 11
-6.283883477519339
 21
1.509009749524921
 31
0.0
  0
LINE
  5
CC0
102
{ACAD_REACTORS
330
CD3
102
}
330
C8D
100
AcDbEntity
  8
0
100
AcDbLine
 10
-7.839518394079277
 20
2.711091270059114
 30
0.0
 11
-6.460660172508141
 21
1.33223305392039
 31
0.0
  0
ARC
  5
CC1
330
C8D
100
AcDbEntity
  8
0
100
AcDbCircle
 10
-12.57713383280133
 20
-2.521498914058611
 30
0.0
 40
0.3
100
AcDbArc
 50
45.00000003552097
 51
135.0
  0
ARC
  5
CC2
102
{ACAD_REACTORS
330
CD3
102
}
330
C8D
100
AcDbEntity
  8
0
100
AcDbCircle
 10
-12.29429112059733
 20
-1.743681468243266
 30
0.0
 40
0.2
100
AcDbArc
 50
135.0000000660675
 51
225.0000002990173
  0
LINE
  5
CC3
330
C8D
100
AcDbEntity
  8
0
100
AcDbLine
 10
-12.9899494936617
 20
-2.510050506339212
 30
0.0
 11
-12.78926586715715
 21
-2.309366879702793
 31
0.0
  0
LINE
  5
CC4
330
C8D
100
AcDbEntity
  8
0
100
AcDbLine
 10
-13.41421356237333
 20
-2.085786437626666
 30
0.0
 11
-7.292893218815152
 21
4.035533905932425
 31
0.0
  0
LINE
  5
CC5
102
{ACAD_REACTORS
330
CD3
102
}
330
C8D
100
AcDbEntity
  8
0
100
AcDbLine
 10
-12.43571247699765
 20
-1.602260112168551
 30
0.0
 11
-8.122361106474272
 21
2.711091269625285
 31
0.0
  0
ARC
  5
CC6
330
C8D
100
AcDbEntity
  8
0
100
AcDbCircle
 10
-2.5
 20
-3.5
 30
0.0
 40
1.0
100
AcDbArc
 50
270.0
 51
0.0
  0
ARC
  5
CC7
330
C8D
100
AcDbEntity
  8
0
100
AcDbCircle
 10
-7.519803902720013
 20
-4.150000000000545
 30
0.0
 40
0.75
100
AcDbArc
 50
270.0
 51
312.8334280660476
  0
ARC
  5
CC8
330
C8D
100
AcDbEntity
  8
0
100
AcDbCircle
 10
-6.5
 20
-5.25
 30
0.0
 40
0.75
100
AcDbArc
 50
90.0
 51
132.8334280660476
  0
LINE
  5
CC9
330
C8D
100
AcDbEntity
  8
0
100
AcDbLine
 10
-2.5
 20
-4.5
 30
0.0
 11
-6.5
 21
-4.5
 31
0.0
  0
ARC
  5
CCA
330
C8D
100
AcDbEntity
  8
0
100
AcDbCircle
 10
-10.7033008647486
 20
-2.910407640086305
 30
0.0
 40
0.75
100
AcDbArc
 50
225.0
 51
315.0
  0
ARC
  5
CCB
102
{ACAD_REACTORS
330
CD3
102
}
330
C8D
100
AcDbEntity
  8
0
100
AcDbCircle
 10
-10.7033008647486
 20
-2.910407640086305
 30
0.0
 40
0.5
100
AcDbArc
 50
225.0
 51
315.0
  0
LINE
  5
CCC
330
C8D
100
AcDbEntity
  8
0
100
AcDbLine
 10
-1.5
 20
-5.5
 30
0.0
 11
-12.0
 21
-5.5
 31
0.0
  0
LINE
  5
CCD
330
C8D
100
AcDbEntity
  8
0
100
AcDbLine
 10
-7.519803902720013
 20
-4.900000000000545
 30
0.0
 11
-12.0
 21
-4.900000000000545
 31
0.0
  0
ARC
  5
CCE
330
C8D
100
AcDbEntity
  8
0
100
AcDbCircle
 10
-12.0
 20
-3.5
 30
0.0
 40
2.0
100
AcDbArc
 50
135.0
 51
270.0
  0
LINE
  5
CCF
330
C8D
100
AcDbEntity
  8
0
100
AcDbLine
 10
-10.17297077881812
 20
-3.440737725935832
 30
0.0
 11
-6.283883477372
 21
0.4483495772774404
 31
0.0
  0
ARC
  5
CD0
330
C8D
100
AcDbEntity
  8
0
100
AcDbCircle
 10
-12.0
 20
-3.5
 30
0.0
 40
1.399999999999999
100
AcDbArc
 50
135.0
 51
270.0
  0
LINE
  5
CD1
330
C8D
100
AcDbEntity
  8
0
100
AcDbLine
 10
-13.00139790187859
 20
-1.672970777132832
 30
0.0
 11
-11.23363095093009
 21
-3.440737725682993
 31
0.0
  0
LINE
  5
CD2
330
C8D
100
AcDbEntity
  8
0
100
AcDbLine
 10
-1.5
 20
3.5
 30
0.0
 11
-1.5
 21
-3.5
 31
0.0
  0
HATCH
  5
CD3
330
C8D
100
AcDbEntity
  8
0
100
AcDbHatch
 10
0.0
 20
0.0
 30
0.0
210
0.0
220
0.0
230
1.0
  2
ANSI31
 70
     0
 71
     1
 91
        1
 92
        7
 72
     1
 73
     1
 93
        8
 10
-6.460660173204814
 20
1.332233054616153
 42
0.0
 10
-7.839518394101105
 20
2.711091270081851
 42
0.414213562178905
 10
-8.122361106481548
 20
2.711091269618009
 42
0.0
 10
-12.43571247701766
 20
-1.602260112190379
 42
0.4142135636146872
 10
-12.43571247604996
 20
-1.885102825264766
 42
0.0
 10
-11.05685425338015
 20
-3.263961032639599
 42
0.4142135608152901
 10
-10.34974747407432
 20
-3.263961030598693
 42
0.0
 10
-6.460660172428106
 20
0.625126272813759
 42
0.4142135628833784
 97
        8
330
CC0
330
CB9
330
CC5
330
CC2
330
CD5
330
CCB
330
CD4
330
CBD
 75
     0
 76
     1
 52
45.0
 41
0.25
 77
     0
 78
     1
 53
90.0
 43
-276.1145346408611
 44
-395.2719013892401
 45
-0.79375
 46
0.0000000000000002
 79
     0
 47
0.0364805528584695
 98
        1
 10
-7.399477738399582
 20
0.8532363732892918
  0
LINE
  5
CD4
102
{ACAD_REACTORS
330
CD3
102
}
330
C8D
100
AcDbEntity
  8
0
100
AcDbLine
 10
-10.34974747415435
 20
-3.263961030678729
 30
0.0
 11
-6.46066017270823
 21
0.6251262725336347
 31
0.0
  0
LINE
  5
CD5
102
{ACAD_REACTORS
330
CD3
102
}
330
C8D
100
AcDbEntity
  8
0
100
AcDbLine
 10
-12.43571247609543
 20
-1.885102825218382
 30
0.0
 11
-11.05685425534102
 21
-3.263961030678729
 31
0.0
  0
LINE
  5
CD6
330
C8D
100
AcDbEntity
  8
0
100
AcDbLine
 10
-1.5
 20
5.5
 30
0.0
 11
1.042400829128382
 21
5.5
 31
0.0
  0
LINE
  5
CD7
330
C8D
100
AcDbEntity
  8
0
100
AcDbLine
 10
-1.5
 20
-5.5
 30
0.0
 11
1.042400829128382
 21
-5.5
 31
0.0
  0
ENDBLK
  5
CD9
330
C8D
100
AcDbEntity
  8
0
 62
     4
100
AcDbBlockEnd
  0
ENDSEC
  0
SECTION
  2
ENTITIES
  0
LINE
  5
1595
330
1F
100
AcDbEntity
  8
SANINDUSA
100
AcDbLine
 10
-47.89919006662965
 20
669.7296817881563
 30
-0.0000001614416147
 11
-47.89919006662965
 21
671.5796817881562
 31
-0.0000001614416147
  0
LINE
  5
1596
330
1F
100
AcDbEntity
  8
SANINDUSA
100
AcDbLine
 10
-47.84434006662965
 20
669.7296817881563
 30
-0.0000001614416147
 11
-47.84434006662965
 21
671.5796817881562
 31
-0.0000001614416147
  0
LINE
  5
1598
330
1F
100
AcDbEntity
  8
SANINDUSA
100
AcDbLine
 10
-48.55834006662965
 20
669.7396817881562
 30
-0.0000001614416147
 11
-48.55834006662965
 21
671.5796817881562
 31
-0.0000001614416147
  0
LINE
  5
1599
330
1F
100
AcDbEntity
  8
SANINDUSA
100
AcDbLine
 10
-48.56684006662965
 20
669.7396817881562
 30
-0.0000001614416147
 11
-48.56684006662965
 21
671.5796817881562
 31
-0.0000001614416147
  0
LINE
  5
159A
330
1F
100
AcDbEntity
  8
SANINDUSA
100
AcDbLine
 10
-48.57284006662965
 20
669.7396817881562
 30
-0.0000001614416147
 11
-48.57284006662965
 21
671.5796817881562
 31
-0.0000001614416147
  0
LINE
  5
159B
330
1F
100
AcDbEntity
  8
SANINDUSA
100
AcDbLine
 10
-48.56114006662965
 20
669.7296817881563
 30
-0.0000001614416147
 11
-48.56114006662965
 21
671.5796817881562
 31
-0.0000001614416147
  0
LINE
  5
159C
330
1F
100
AcDbEntity
  8
SANINDUSA
100
AcDbLine
 10
-48.58514006662965
 20
669.7296817881563
 30
-0.0000001614416147
 11
-48.58514006662965
 21
671.5796817881562
 31
-0.0000001614416147
  0
LINE
  5
159D
330
1F
100
AcDbEntity
  8
SANINDUSA
100
AcDbLine
 10
-48.05834006662966
 20
670.0486817881563
 30
-0.0000001614416147
 11
-48.05834006662966
 21
671.2606817881465
 31
-0.0000001614416147
  0
LINE
  5
159E
330
1F
100
AcDbEntity
  8
SANINDUSA
100
AcDbLine
 10
-48.05534006662965
 20
670.0486817881563
 30
-0.0000001614416147
 11
-48.05534006662965
 21
671.2606817881465
 31
-0.0000001614416147
  0
LINE
  5
15A3
330
1F
100
AcDbEntity
  8
SANINDUSA
100
AcDbLine
 10
-48.05834006662966
 20
669.7396817881562
 30
-0.0000001614416147
 11
-48.55834006662965
 21
669.7396817881562
 31
-0.0000001614416147
  0
LINE
  5
15A9
330
1F
100
AcDbEntity
  8
SANINDUSA
100
AcDbLine
 10
-48.56684006662965
 20
669.7396817881562
 30
-0.0000001614416147
 11
-48.57284006662965
 21
669.7396817881562
 31
-0.0000001614416147
  0
LINE
  5
15AA
330
1F
100
AcDbEntity
  8
SANINDUSA
100
AcDbLine
 10
-47.88434006662965
 20
669.7296817881563
 30
-0.0000001614416147
 11
-47.84434006662965
 21
669.7296817881563
 31
-0.0000001614416147
  0
LINE
  5
15AB
330
1F
100
AcDbEntity
  8
SANINDUSA
100
AcDbLine
 10
-48.05534006662965
 20
669.7296817881563
 30
-0.0000001614416147
 11
-48.05534006662965
 21
670.0006817881562
 31
-0.0000001614416147
  0
LINE
  5
15AC
330
1F
100
AcDbEntity
  8
SANINDUSA
100
AcDbLine
 10
-48.05834006662966
 20
669.7396817881562
 30
-0.0000001614416147
 11
-48.05834006662966
 21
670.0006817881562
 31
-0.0000001614416147
  0
LINE
  5
15CB
330
1F
100
AcDbEntity
  8
SANINDUSA
100
AcDbLine
 10
-47.84434006662965
 20
669.7416817881562
 30
-0.0000001614416147
 11
-47.84434006662965
 21
670.0208708547384
 31
-0.0000001614416147
  0
LINE
  5
15D4
330
1F
100
AcDbEntity
  8
SANINDUSA
100
AcDbLine
 10
-48.05834006662966
 20
671.5796817881562
 30
-0.0000001614416147
 11
-48.55834006662965
 21
671.5796817881562
 31
-0.0000001614416147
  0
LINE
  5
15D7
330
1F
100
AcDbEntity
  8
SANINDUSA
100
AcDbLine
 10
-48.56114006662965
 20
671.5796817881562
 30
-0.0000001614416147
 11
-48.58514006662965
 21
671.5796817881562
 31
-0.0000001614416147
  0
LINE
  5
15D9
330
1F
100
AcDbEntity
  8
SANINDUSA
100
AcDbLine
 10
-48.05534006662965
 20
671.3086817881466
 30
-0.0000001614416147
 11
-48.05534006662965
 21
671.5796817881562
 31
-0.0000001614416147
  0
LINE
  5
15DA
330
1F
100
AcDbEntity
  8
SANINDUSA
100
AcDbLine
 10
-48.05834006662966
 20
671.3086817881466
 30
-0.0000001614416147
 11
-48.05834006662966
 21
671.5796817881562
 31
-0.0000001614416147
  0
CIRCLE
  5
15DC
330
1F
100
AcDbEntity
  8
SANINDUSA
100
AcDbCircle
 10
-48.50834006662966
 20
670.6596810202092
 30
-0.0000001614416147
 40
0.004
  0
LINE
  5
15FB
330
1F
100
AcDbEntity
  8
SANINDUSA
100
AcDbLine
 10
-47.84434006662965
 20
671.5796817881562
 30
-0.0000001614416147
 11
-48.05534006662965
 21
671.5796817881562
 31
-0.0000001614416147
  0
REGION
  5
1AF5
330
1F
100
AcDbEntity
  8
SANINDUSA
100
AcDbModelerGeometry
 70
     1
  1
koo nji n o         
  1
ni ^ *+0;:,4 ^ *+0\^ [ nf ^ LR mnjqoqoqkmnk QK o  
  1
n fqfffffffffffffffj:rooh n:rono 
  1
=0;& {rn {n {rn {rn |
  1
3*2/ {rn {rn {m {o |
  1
,7:33 {rn {rn {rn {l {rn {n |
  1
9><: {rn {rn {k {m {rn {j 90-(>-; ;0*=3: 0*+ |
  1
300/ {rn {rn {i {l |
  1
/3>1:r,*-9><: {rn rkiqfffhnonnljjmkmj ihoqimhlmfofmfinff rnqinkkninkhnfjnfhf:rooh o o n roqoon kqgfgkmjknjmgfjogg:ronf o 90-(>-;@) V V V V |
  1
<0:;8: {rn {h {g {rn {f 90-(>-; {k {rn |
  1
<0:;8: {rn {no {i {rn {nn -:):-,:; {k {rn |
  1
<0:;8: {rn {i {nm {rn {nl -:):-,:; {k {rn |
  1
:;8: {rn {nk {nj {i {ni 90-(>-; |
  1
<0:;8: {rn {nh {h {rn {ng 90-(>-; {k {rn |
  1
:;8: {rn {nf {nj {h {mo 90-(>-; |
  1
<0:;8: {rn {g {mn {rn {mm 90-(>-; {k {rn |
  1
:;8: {rn {nk {ml {g {mk 90-(>-; |
  1
):-+:' {rn {f {mj |
  1
):-+:' {rn {f {mi |
  1
,+->687+r<*-): {rn rkhqooikmiiihljlfji ihoqilnlmfofmfingf rnqinkkninkhnfjnfhf:rooh oqoon nqoognmfghmgoilolg:ronh o V V |
  1
<0:;8: {rn {mh {no {rn {mg -:):-,:; {k {rn |
  1
:;8: {rn {nf {mf {no {lo 90-(>-; |
  1
):-+:' {rn {nn {ln |
  1
:336/,:r<*-): {rn rkhqoolhlgojkmolhml ihoqilogmfofmfinf rnqinkkninkhnfjnfhf:rooh o o n roqooojoooooooooooomgkm mqkkfmnmhohikkgfk:ronf o n V V |
  1
<0:;8: {rn {nm {lm {rn {ll -:):-,:; {k {rn |
  1
:;8: {rn {lk {ml {nm {lj 90-(>-; |
  1
):-+:' {rn {mm {li |
  1
:336/,:r<*-): {rn rkhqooikmiiihljlfji ihoqilogmfofmfinf rnqinkkninkhnfjnfhf:rooh o o n roqooojooooooooooonligk mqkkfmnmhohikjkmki:ronf o n V V |
  1
/061+ {rn rkhqooikmiiihljlfji ihoqilnlmfofmfingf rnqinkkninkhnfjnfhf:rooh |
  1
/061+ {rn rkhqoolhlgojkmolhml ihoqilnlmfofmfingf rnqinkkninkhnfjnfhf:rooh |
  1
<0:;8: {rn {lh {nh {rn {lg 90-(>-; {k {rn |
  1
:;8: {rn {lf {mf {nh {ko 90-(>-; |
  1
):-+:' {rn {ng {kn |
  1
:336/,:r<*-): {rn rkhqoomlmlgkoiknljl ihoqilnlmfofmfingf rnqinkkninkhnfjnfhf:rooh o o n roqooofffffffffffffhljh kqgfgkmjknjmgflhgg:ronf o n V V |
  1
/061+ {rn rkhqoolmiiikfigmflj ihoqiloffjhjfimgi rnqinkkninkhnfjnfhf:rooh |
  1
<0:;8: {rn {mn {km {rn {kl 90-(>-; {k {rn |
  1
:;8: {rn {lk {kk {mn {kj 90-(>-; |
  1
):-+:' {rn {ll {ki |
  1
:336/,:r<*-): {rn rkhqoohgonkkooimkkk ihoqilnkmfofmfinfg rnqinkkninkhnfjnfhf:rooh o o n roqoooffffffffffffghjlk kqgfgkmjknjmgggfhl:ronf o n V V |
  1
/061+ {rn rkhqooiggkfmkfmlkjj ihoqilnomfofmfinfh rnqinkkninkhnfjnfhf:rooh |
  1
<0:;8: {rn {kh {mh {rn {kg -:):-,:; {k {rn |
  1
:;8: {rn {lf {kf {mh {jo 90-(>-; |
  1
):-+:' {rn {mg {jn |
  1
:336/,:r<*-): {rn rkhqooofofimhohgfhj ihoqilogmfofmfinf rnqinkkninkhnfjnfhf:rooh o o n roqoookffffffffffffkjg mqkkfmnmhohikkkggi:ronf o n V V |
  1
/061+ {rn rkhqoonlgnolnjffhh ihoqiloffjhjfimgi rnqinkkninkhnfjnfhf:rooh |
  1
<0:;8: {rn {lm {jm {rn {jl -:):-,:; {k {rn |
  1
:;8: {rn {jk {kk {lm {jj 90-(>-; |
  1
):-+:' {rn {kl {ji |
  1
,+->687+r<*-): {rn rkhqooggonkkooimkkf ihoqilnkmfofmfinfg rnqinkkninkhnfjnfhf:rooh kqgfgkmjknjmgfjogg:ronf oqoon o V V |
  1
/061+ {rn rkhqooggonkkooimkkf ihoqilnkmfofmfinfg rnqinkkninkhnfjnfhf:rooh |
  1
<0:;8: {rn {jh {lh {rn {jg 90-(>-; {k {rn |
  1
:;8: {rn {jf {kf {lh {io 90-(>-; |
  1
):-+:' {rn {lg {in |
  1
,+->687+r<*-): {rn rkhqooofofimhohgfhj ihoqilnlmfofmfingf rnqinkkninkhnfjnfhf:rooh oqoon rkqgfgkmjknjmgfjogg:ronf o V V |
  1
/061+ {rn rkhqooofofimhohgfhj ihoqilnlmfofmfingf rnqinkkninkhnfjnfhf:rooh |
  1
<0:;8: {rn {km {im {rn {il 90-(>-; {k {rn |
  1
:;8: {rn {jk {ik {km {ij 90-(>-; |
  1
):-+:' {rn {jl {ii |
  1
:336/,:r<*-): {rn rkhqoohgonkkooimkkk ihoqilmlmfofmfinfg rnqinkkninkhnfjnfhf:rooh o o n roqoooffffffffffffghfmk kqgfgkmjknjmggfnhj:ronf o n V V |
  1
/061+ {rn rkhqooggonkkooimkkf ihoqilmlmfofmfinfg rnqinkkninkhnfjnfhf:rooh |
  1
<0:;8: {rn {ih {kh {rn {ig -:):-,:; {k {rn |
  1
:;8: {rn {jf {if {kh {ho 90-(>-; |
  1
):-+:' {rn {kg {hn |
  1
:336/,:r<*-): {rn rkiqffflmlkilgmmljh ihoqilogmfofmfinf rnqinkkninkhnfjnfhf:rooh o o n roqooojooooooooooooooon mqkkfmnmhohikkhjkk:ronf o n V V |
  1
/061+ {rn rkiqffflmlkilgmmljh ihoqilnlmfofmfingf rnqinkkninkhnfjnfhf:rooh |
  1
<0:;8: {rn {jm {hm {rn {hl -:):-,:; {k {rn |
  1
:;8: {rn {hk {ik {jm {hj 90-(>-; |
  1
):-+:' {rn {il {hi |
  1
,+->687+r<*-): {rn rkhqoohgonkkooimkkk ihoqilllmfofmfinfi rnqinkkninkhnfjnfhf:rooh oqoon rnqlfmnnfolnlglokln:rong o V V |
  1
/061+ {rn rkhqoohgonkkooimkkk ihoqilllmfofmfinfi rnqinkkninkhnfjnfhf:rooh |
  1
<0:;8: {rn {hh {jh {rn {hg 90-(>-; {k {rn |
  1
:;8: {rn {hf {if {jh {go 90-(>-; |
  1
):-+:' {rn {jg {gn |
  1
,+->687+r<*-): {rn rkiqffggmlkilgmmljj ihoqilogmfofmfinf rnqinkkninkhnfjnfhf:rooh rlqmfhnhfinhimhilgh:ronh roqoon o V V |
  1
/061+ {rn rkiqffggmlkilgmmljj ihoqilogmfofmfinf rnqinkkninkhnfjnfhf:rooh |
  1
<0:;8: {rn {im {gm {rn {gl -:):-,:; {k {rn |
  1
:;8: {rn {hk {gk {im {gj 90-(>-; |
  1
):-+:' {rn {hl {gi |
  1
:336/,:r<*-): {rn rkiqfhilonkkooimkkl ihoqilmlmfofmfinfg rnqinkkninkhnfjnfhf:rooh o o n roqoon kqgfgkmjknjmgfjogg:ronf o n V V |
  1
/061+ {rn rkiqfhilonkkooimkkl ihoqilllmfofmfinfi rnqinkkninkhnfjnfhf:rooh |
  1
<0:;8: {rn {gh {ih {rn {gg -:):-,:; {k {rn |
  1
:;8: {rn {hf {gf {ih {fo 90-(>-; |
  1
):-+:' {rn {ig {fn |
  1
:336/,:r<*-): {rn rkiqffflmlkilgmmljh ihoqimlgmfofmfinfi rnqinkkninkhnfjnfhf:rooh o o n roqooojooooooooooooooon mqkkfmnmhohikkhjkk:ronf o n V V |
  1
/061+ {rn rkiqffggmlkilgmmljj ihoqimlgmfofmfinfi rnqinkkninkhnfjnfhf:rooh |
  1
<0:;8: {rn {hm {fm {rn {fl -:):-,:; {k {rn |
  1
:;8: {rn {gk {fk {hm {fj 90-(>-; |
  1
):-+:' {rn {gl {fi |
  1
,+->687+r<*-): {rn rkiqfhilonkkooimkkl ihoqilnlmfofmfingf rnqinkkninkhnfjnfhf:rooh roqoon nqngkiomnomimifjog:ronh o V V |
  1
/061+ {rn rkiqfhilonkkooimkkl ihoqilnlmfofmfingf rnqinkkninkhnfjnfhf:rooh |
  1
<0:;8: {rn {fh {hh {rn {fg 90-(>-; {k {rn |
  1
:;8: {rn {ff {gf {hh {noo 90-(>-; |
  1
):-+:' {rn {hg {non |
  1
,+->687+r<*-): {rn rkiqffflmlkilgmmljh ihoqimllmfofmfinfh rnqinkkninkhnfjnfhf:rooh roqoon rnqhkmgigkiknkoofji:ronh o V V |
  1
/061+ {rn rkiqffflmlkilgmmljh ihoqimllmfofmfinfh rnqinkkninkhnfjnfhf:rooh |
  1
<0:;8: {rn {gm {nom {rn {nol -:):-,:; {k {rn |
  1
:;8: {rn {fk {nok {gm {noj 90-(>-; |
  1
):-+:' {rn {fl {noi |
  1
:336/,:r<*-): {rn rkiqffilmlkilgmmljh ihoqilogmfofmfinf rnqinkkninkhnfjnfhf:rooh o o n roqooojooooooooooonnfoi mqkkfmnmhohikjllg:ronf o n V V |
  1
/061+ {rn rkiqffilmlkilgmmljh ihoqilnlmfofmfingf rnqinkkninkhnfjnfhf:rooh |
  1
<0:;8: {rn {noh {gh {rn {nog -:):-,:; {k {rn |
  1
:;8: {rn {ff {nof {gh {nno 90-(>-; |
  1
):-+:' {rn {gg {nnn |
  1
:336/,:r<*-): {rn rkhqooofofimhohgfhj ihoqimlgmfofmfinfi rnqinkkninkhnfjnfhf:rooh o o n roqooojoooooooooooomgkm mqkkfmnmhohikkgfk:ronf o n V V |
  1
/061+ {rn rkhqooofofimhohgfhj ihoqimllmfofmfinfh rnqinkkninkhnfjnfhf:rooh |
  1
<0:;8: {rn {fm {nnm {rn {nnl -:):-,:; {k {rn |
  1
:;8: {rn {nok {nnk {fm {nnj 90-(>-; |
  1
):-+:' {rn {nol {nni |
  1
,+->687+r<*-): {rn rkiqffigmlkilgmmljm ihoqilogmfofmfinf rnqinkkninkhnfjnfhf:rooh rnqihlognfljgfolmim:ronh roqoon o V V |
  1
/061+ {rn rkiqffigmlkilgmmljm ihoqilogmfofmfinf rnqinkkninkhnfjnfhf:rooh |
  1
<0:;8: {rn {nnh {fh {rn {nng 90-(>-; {k {rn |
  1
:;8: {rn {nnf {nof {fh {nmo 90-(>-; |
  1
):-+:' {rn {fg {nmn |
  1
:336/,:r<*-): {rn rkhqoomlmlgkoiknljl ihoqimllmfofmfinfh rnqinkkninkhnfjnfhf:rooh o o n roqoooffffffffffffffmij kqgfgkmjknjmgfkhmm:ronf o n V V |
  1
/061+ {rn rkhqoonlgnolnjffhh ihoqimliimkmimfjmj rnqinkkninkhnfjnfhf:rooh |
  1
<0:;8: {rn {nom {nmm {rn {nml 90-(>-; {k {rn |
  1
:;8: {rn {nnk {nmk {nom {nmj 90-(>-; |
  1
):-+:' {rn {nnl {nmi |
  1
:336/,:r<*-): {rn rkiqffilmlkilgmmljh ihoqimlgmfofmfinfi rnqinkkninkhnfjnfhf:rooh o o n roqooojooooooooooonoijf mqkkfmnmhohikjmhig:ronf o n V V |
  1
/061+ {rn rkiqffigmlkilgmmljm ihoqimlgmfofmfinfi rnqinkkninkhnfjnfhf:rooh |
  1
<0:;8: {rn {nmh {noh {rn {nmg -:):-,:; {k {rn |
  1
:;8: {rn {nnf {nmf {noh {nlo 90-(>-; |
  1
):-+:' {rn {nog {nln |
  1
:336/,:r<*-): {rn rkhqoolhlgojkmolhml ihoqimlgmfofmfinfi rnqinkkninkhnfjnfhf:rooh o o n roqoookffffffffffffikih mqkkfmnmhohikkjgni:ronf o n V V |
  1
/061+ {rn rkhqoolmiiikfigmflj ihoqimliimkmimfjmj rnqinkkninkhnfjnfhf:rooh |
  1
<0:;8: {rn {nnm {nlm {rn {nll -:):-,:; {k {rn |
  1
:;8: {rn {nlk {nmk {nnm {nlj 90-(>-; |
  1
):-+:' {rn {nml {nli |
  1
,+->687+r<*-): {rn rkiqffilmlkilgmmljh ihoqimllmfofmfinfh rnqinkkninkhnfjnfhf:rooh oqoon rnqfoflikgjmnmnjnml:rong o V V |
  1
/061+ {rn rkiqffilmlkilgmmljh ihoqimllmfofmfinfh rnqinkkninkhnfjnfhf:rooh |
  1
<0:;8: {rn {nlh {nnh {rn {nlg 90-(>-; {k {rn |
  1
:;8: {rn {nlf {nmf {nnh {nko 90-(>-; |
  1
):-+:' {rn {nng {nkn |
  1
,+->687+r<*-): {rn rkhqoolhlgojkmolhml ihoqimllmfofmfinfh rnqinkkninkhnfjnfhf:rooh roqoon fqhlfjfnnjmkmnjkgj:rong o V V |
  1
/061+ {rn rkhqoolhlgojkmolhml ihoqimllmfofmfinfh rnqinkkninkhnfjnfhf:rooh |
  1
<0:;8: {rn {nmm {nlh {rn {nkm 90-(>-; {k {rn |
  1
:;8: {rn {nlk {nkl {nmm {nkk 90-(>-; |
  1
):-+:' {rn {nll {nkj |
  1
:336/,:r<*-): {rn rkiqfhilonkkooimkkl ihoqimmlmfofmfingg rnqinkkninkhnfjnfhf:rooh o o n roqoon kqgfgkmjknjmgfjogg:ronf o n V V |
  1
/061+ {rn rkiqfhilonkkooimkkl ihoqimllmfofmfinfh rnqinkkninkhnfjnfhf:rooh |
  1
<0:;8: {rn {nlm {nmh {rn {nki -:):-,:; {k {rn |
  1
:;8: {rn {nlf {nkh {nmh {nkg 90-(>-; |
  1
):-+:' {rn {nmg {nkf |
  1
:336/,:r<*-): {rn rkhqooikmiiihljlfji ihoqimlgmfofmfinfi rnqinkkninkhnfjnfhf:rooh o o n roqooojoooooooooooogogf mqkkfmnmhohikjnjnn:ronf o n V V |
  1
/061+ {rn rkhqooikmiiihljlfji ihoqimllmfofmfinfh rnqinkkninkhnfjnfhf:rooh |
  1
:;8: {rn {njo {nkl {nlm {njn 90-(>-; |
  1
):-+:' {rn {nkm {njm |
  1
,+->687+r<*-): {rn rkiqfhilonkkooimkkl ihoqimnlmfofmfinf rnqinkkninkhnfjnfhf:rooh roqoon nqlfmnnfolnlglokln:rong o V V |
  1
/061+ {rn rkiqfhilonkkooimkkl ihoqimnlmfofmfinf rnqinkkninkhnfjnfhf:rooh |
  1
:;8: {rn {njo {nkh {nlh {njl 90-(>-; |
  1
):-+:' {rn {nlg {njk |
  1
:336/,:r<*-): {rn rkhqoohgonkkooimkkk ihoqimlmmfofmfingg rnqinkkninkhnfjnfhf:rooh o o n roqoooffffffffffffflioj kqgfgkmjknjmgfnfjg:ronf o n V V |
  1
/061+ {rn rkhqooiggkfmkfmlkjj ihoqimlimfofmfingf rnqinkkninkhnfjnfhf:rooh |
  1
):-+:' {rn {nki {njj |
  1
:336/,:r<*-): {rn rkhqoohgonkkooimkkk ihoqimmlmfofmfingg rnqinkkninkhnfjnfhf:rooh o o n roqoonoooooooooooonnli kqgfgkmjknjmfooiik:ronf o n V V |
  1
/061+ {rn rkhqoohgonkkooimkkk ihoqimnlmfofmfinf rnqinkkninkhnfjnfhf:rooh |
  1
,+->687+r<*-): {rn rkhqooggonkkooimkkf ihoqimmlmfofmfingg rnqinkkninkhnfjnfhf:rooh kqgfgkmjknjmgfjogg:ronf oqoon o V V |
  1
/061+ {rn rkhqooggonkkooimkkf ihoqimlmmfofmfingg rnqinkkninkhnfjnfhf:rooh |
  1
/061+ {rn rkhqooggonkkooimkkf ihoqimmlmfofmfingg rnqinkkninkhnfjnfhf:rooh |
  0
LINE
  5
1AF8
330
1F
100
AcDbEntity
  8
SANINDUSA
  6
Continuous
100
AcDbLine
 10
-47.17094815679624
 20
670.6243290967714
 30
-0.0000001612860599
 11
-47.67118150010441
 21
670.6243290967714
 31
-0.0000001612860599
  0
LINE
  5
1AF9
330
1F
100
AcDbEntity
  8
SANINDUSA
  6
Continuous
100
AcDbLine
 10
-47.17094815679624
 20
670.6303290967715
 30
-0.0000001612860599
 11
-47.67118150010442
 21
670.6303290967715
 31
-0.0000001612860599
  0
LINE
  5
1AFA
330
1F
100
AcDbEntity
  8
SANINDUSA
  6
Continuous
100
AcDbLine
 10
-47.67118150010442
 20
670.6303290967715
 30
-0.0000001612860599
 11
-47.67118150010441
 21
670.6243290967714
 31
-0.0000001612860599
  0
INSERT
  5
1AFB
330
1F
100
AcDbEntity
  8
SANINDUSA
100
AcDbBlockReference
  2
guarnizione
 10
-47.67118150010441
 20
670.6273290967715
 30
-0.0000001612860599
 41
0.001
 42
0.001
 43
0.001
  0
LINE
  5
1B3E
330
1F
100
AcDbEntity
  8
SANINDUSA
100
AcDbLine
 10
-47.10144815679615
 20
670.6229290406682
 30
-0.0000001612860598
 11
-47.10144815679623
 21
670.6139290406678
 31
-0.0000001612860598
  0
LINE
  5
1B3F
330
1F
100
AcDbEntity
  8
SANINDUSA
100
AcDbLine
 10
-47.10144815679624
 20
670.6240290929619
 30
-0.0000001612860598
 11
-47.10144815679624
 21
670.6230290929619
 31
-0.0000001612860598
1001
GENIUS_GENREC_14
1002
{
1000
PYDIR
1011
-47.23744815679624
1021
670.6240290929619
1031
-0.0000001612860598
1002
}
1002
{
1000
PXDIR
1011
-47.18444815679624
1021
670.6230290929619
1031
-0.0000001612860598
1002
}
1002
{
1000
PORI
1011
-47.23744815679624
1021
670.6230290929619
1031
-0.0000001612860598
1002
}
1002
{
1000
PINS
1011
-47.23744815679624
1021
670.6230290929619
1031
-0.0000001612860598
1002
}
1002
{
1000
PINS2
1011
-47.18444815679624
1021
670.6240290929619
1031
-0.0000001612860598
1002
}
1002
{
1000
C
1070
     1
1002
}
1001
GENIUS_GENODEF_13
1002
{
1000
HIER
1070
     0
1002
}
1002
{
1000
MANEDIT
1070
     0
1002
}
1002
{
1000
NOSEL
1070
     0
1002
}
1002
{
1000
BEHIND
1070
     0
1002
}
1002
{
1000
REACTOR
1002
}
1001
GENIUS_GENOBJ-N-REC_13
1002
{
1000
OWNER
1000
GEN
1002
}
  0
ARC
  5
1B40
330
1F
100
AcDbEntity
  8
SANINDUSA
100
AcDbCircle
 10
-47.10244815679622
 20
670.6139290406678
 30
-0.0000001612860598
 40
0.001
100
AcDbArc
 50
270.0
 51
0.0
  0
LINE
  5
1B41
330
1F
100
AcDbEntity
  8
SANINDUSA
100
AcDbLine
 10
-47.10144815679624
 20
670.6317290929619
 30
-0.0000001612860598
 11
-47.10144815679624
 21
670.6357290929619
 31
-0.0000001612860598
  0
ARC
  5
1B42
330
1F
100
AcDbEntity
  8
SANINDUSA
100
AcDbCircle
 10
-47.10244815679624
 20
670.6357290929619
 30
-0.0000001612860598
 40
0.001
100
AcDbArc
 50
0.0
 51
90.0
  0
LINE
  5
1B43
330
1F
100
AcDbEntity
  8
SANINDUSA
100
AcDbLine
 10
-46.99892346382235
 20
670.6243290929619
 30
-0.0000001614416152
 11
-46.99892346382235
 21
670.6303290929619
 31
-0.0000001614416152
  0
LINE
  5
1B44
330
1F
100
AcDbEntity
  8
SANINDUSA
100
AcDbLine
 10
-47.17079337872102
 20
670.6217290967715
 30
-0.0000001612860599
 11
-47.18229768040355
 21
670.6236214182647
 31
-0.0000001612860599
  0
LINE
  5
1B45
330
1F
100
AcDbEntity
  8
SANINDUSA
100
AcDbLine
 10
-47.18444815679624
 20
670.6209290929619
 30
-0.0000001612860598
 11
-47.16944815679624
 21
670.6209290406683
 31
-0.0000001612860598
  0
ARC
  5
1B46
330
1F
100
AcDbEntity
  8
SANINDUSA
100
AcDbCircle
 10
-47.17333968327548
 20
670.6240793669111
 30
-0.0000001612860599
 40
0.00075
100
AcDbArc
 50
350.6591658982246
 51
170.6591658982246
  0
CIRCLE
  5
1B47
330
1F
100
AcDbEntity
  8
SANINDUSA
100
AcDbCircle
 10
-47.16944815679624
 20
670.6129290406683
 30
-0.0000001612860598
 40
0.008
  0
LINE
  5
1B48
330
1F
100
AcDbEntity
  8
SANINDUSA
100
AcDbLine
 10
-47.18280029614251
 20
670.6249202180742
 30
-0.0000001612860599
 11
-47.18111532491088
 21
670.6246430602454
 31
-0.0000001612860599
  0
LINE
  5
1B49
330
1F
100
AcDbEntity
  8
SANINDUSA
100
AcDbLine
 10
-47.18280029614251
 20
670.6242134624402
 30
-0.0000001612860599
 11
-47.18280029614251
 21
670.6249202180742
 31
-0.0000001612860599
  0
ARC
  5
1B4A
330
1F
100
AcDbEntity
  8
SANINDUSA
100
AcDbCircle
 10
-47.18220029614251
 20
670.6242134624402
 30
-0.0000001612860599
 40
0.0006
100
AcDbArc
 50
180.0
 51
260.6591658977568
  0
LINE
  5
1B4B
330
1F
100
AcDbEntity
  8
SANINDUSA
100
AcDbLine
 10
-47.18444815679624
 20
670.6229290929619
 30
-0.0000001612860598
 11
-47.18444815679624
 21
670.6209290929619
 31
-0.0000001612860598
  0
LINE
  5
1B4C
330
1F
100
AcDbEntity
  8
SANINDUSA
100
AcDbLine
 10
-47.18444815679624
 20
670.6231290929618
 30
-0.0000001612860598
 11
-47.18444815679624
 21
670.6241290929618
 31
-0.0000001612860598
1001
GENIUS_GENREC_14
1002
{
1000
PYDIR
1011
-47.23744815679624
1021
670.6241290929618
1031
-0.0000001612860598
1002
}
1002
{
1000
PXDIR
1011
-47.18444815679624
1021
670.6231290929618
1031
-0.0000001612860598
1002
}
1002
{
1000
PORI
1011
-47.23744815679624
1021
670.6231290929618
1031
-0.0000001612860598
1002
}
1002
{
1000
PINS
1011
-47.23744815679624
1021
670.6231290929618
1031
-0.0000001612860598
1002
}
1002
{
1000
PINS2
1011
-47.18444815679624
1021
670.6241290929618
1031
-0.0000001612860598
1002
}
1002
{
1000
C
1070
     1
1002
}
1001
GENIUS_GENODEF_13
1002
{
1000
HIER
1070
     0
1002
}
1002
{
1000
MANEDIT
1070
     0
1002
}
1002
{
1000
NOSEL
1070
     0
1002
}
1002
{
1000
BEHIND
1070
     0
1002
}
1002
{
1000
REACTOR
1002
}
1001
GENIUS_GENOBJ-N-REC_13
1002
{
1000
OWNER
1000
GEN
1002
}
  0
ARC
  5
1B4D
330
1F
100
AcDbEntity
  8
SANINDUSA
100
AcDbCircle
 10
-47.17740029614251
 20
670.6242346695518
 30
-0.0000001612860599
 40
0.0006
100
AcDbArc
 50
260.6591658977568
 51
308.8488510002516
  0
ARC
  5
1B4E
330
1F
100
AcDbEntity
  8
SANINDUSA
100
AcDbCircle
 10
-47.17782205508543
 20
670.6244986122928
 30
-0.0000001612860599
 40
0.000175
100
AcDbArc
 50
277.999999999717
 51
97.99999999971698
  0
ARC
  5
1B4F
330
1F
100
AcDbEntity
  8
SANINDUSA
100
AcDbCircle
 10
-47.17460651516468
 20
670.6240791570077
 30
-0.0000001612860599
 40
0.0005
100
AcDbArc
 50
260.6591658977568
 51
350.6591658982246
  0
ARC
  5
1B50
330
1F
100
AcDbEntity
  8
SANINDUSA
100
AcDbCircle
 10
-47.17664757447589
 20
670.6233001054329
 30
-0.0000001612860599
 40
0.0006000000000005
100
AcDbArc
 50
80.65916589775685
 51
128.8488510002516
  0
LINE
  5
1B51
330
1F
100
AcDbEntity
  8
SANINDUSA
100
AcDbLine
 10
-47.17655019021484
 20
670.6238921496084
 30
-0.0000001612860599
 11
-47.17468766871555
 21
670.6235857868614
 31
-0.0000001612860599
  0
LINE
  5
1B52
330
1F
100
AcDbEntity
  8
SANINDUSA
100
AcDbLine
 10
-47.17411314501847
 20
670.6239980034568
 30
-0.0000001612860599
 11
-47.17407973849481
 21
670.6242010972374
 31
-0.0000001612860599
  0
ARC
  5
1B53
330
1F
100
AcDbEntity
  8
SANINDUSA
100
AcDbCircle
 10
-47.18121270917191
 20
670.6240510160699
 30
-0.0000001612860599
 40
0.0006
100
AcDbArc
 50
32.46948079254874
 51
80.65916589775685
  0
ARC
  5
1B54
330
1F
100
AcDbEntity
  8
SANINDUSA
100
AcDbCircle
 10
-47.18020029614251
 20
670.6246952364188
 30
-0.0000001612860599
 40
0.0006000000000005
100
AcDbArc
 50
212.4694807927673
 51
255.8991081938941
  0
ARC
  5
1B55
330
1F
100
AcDbEntity
  8
SANINDUSA
100
AcDbCircle
 10
-47.17990551922723
 20
670.6238776065421
 30
-0.0000001612860599
 40
0.0004999999999883
100
AcDbArc
 50
97.99999999971698
 51
151.873626034282
  0
LINE
  5
1B56
330
1F
100
AcDbEntity
  8
SANINDUSA
100
AcDbLine
 10
-47.17997510577772
 20
670.6243727405765
 30
-0.0000001612860599
 11
-47.17784641037809
 21
670.6246719092048
 31
-0.0000001612860599
  0
LINE
  5
1B57
330
1F
100
AcDbEntity
  8
SANINDUSA
100
AcDbLine
 10
-47.17779769979276
 20
670.6243253153806
 30
-0.0000001612860599
 11
-47.17987402814828
 21
670.6240335064606
 31
-0.0000001612860599
  0
LINE
  5
1B58
330
1F
100
AcDbEntity
  8
SANINDUSA
100
AcDbLine
 10
-47.17987402814828
 20
670.6240335064606
 30
-0.0000001612860599
 11
-47.17749768040355
 21
670.6236426253765
 31
-0.0000001612860599
  0
LINE
  5
1B59
330
1F
100
AcDbEntity
  8
SANINDUSA
100
AcDbLine
 10
-47.17833704568524
 20
670.6129290406684
 30
-0.0000001612860598
 11
-47.17833704568524
 21
670.6209290929619
 31
-0.0000001612860598
  0
LINE
  5
1B5A
330
1F
100
AcDbEntity
  8
SANINDUSA
100
AcDbLine
 10
-47.15444815679616
 20
670.6209290406682
 30
-0.0000001612860598
 11
-47.15444815679616
 21
670.6229290406682
 31
-0.0000001612860598
  0
LINE
  5
1B5B
330
1F
100
AcDbEntity
  8
SANINDUSA
100
AcDbLine
 10
-47.15444815679624
 20
670.6230290929619
 30
-0.0000001612860598
 11
-47.15444815679624
 21
670.6240290929619
 31
-0.0000001612860598
1001
GENIUS_GENREC_14
1002
{
1000
PYDIR
1011
-47.23744815679624
1021
670.6240290929619
1031
-0.0000001612860598
1002
}
1002
{
1000
PXDIR
1011
-47.18444815679624
1021
670.6230290929619
1031
-0.0000001612860598
1002
}
1002
{
1000
PORI
1011
-47.23744815679624
1021
670.6230290929619
1031
-0.0000001612860598
1002
}
1002
{
1000
PINS
1011
-47.23744815679624
1021
670.6230290929619
1031
-0.0000001612860598
1002
}
1002
{
1000
PINS2
1011
-47.18444815679624
1021
670.6240290929619
1031
-0.0000001612860598
1002
}
1002
{
1000
C
1070
     1
1002
}
1001
GENIUS_GENODEF_13
1002
{
1000
HIER
1070
     0
1002
}
1002
{
1000
MANEDIT
1070
     0
1002
}
1002
{
1000
NOSEL
1070
     0
1002
}
1002
{
1000
BEHIND
1070
     0
1002
}
1002
{
1000
REACTOR
1002
}
1001
GENIUS_GENOBJ-N-REC_13
1002
{
1000
OWNER
1000
GEN
1002
}
  0
LINE
  5
1B5C
330
1F
100
AcDbEntity
  8
SANINDUSA
100
AcDbLine
 10
-47.17079337872102
 20
670.6217290967715
 30
-0.0000001612860599
 11
-47.16980029614251
 21
670.6217290967715
 31
-0.0000001612860599
  0
LINE
  5
1B5D
330
1F
100
AcDbEntity
  8
SANINDUSA
100
AcDbLine
 10
-47.17259962805615
 20
670.6239576365848
 30
-0.0000001612860599
 11
-47.17264020483159
 21
670.6237109515117
 31
-0.0000001612860599
  0
ARC
  5
1B5E
330
1F
100
AcDbEntity
  8
SANINDUSA
100
AcDbCircle
 10
-47.17154815679624
 20
670.6236326663214
 30
-0.0000001612860599
 40
0.0006
100
AcDbArc
 50
260.6591658977568
 51
0.0
  0
LINE
  5
1B5F
330
1F
100
AcDbEntity
  8
SANINDUSA
100
AcDbLine
 10
-47.17222798823624
 20
670.6231364278146
 30
-0.0000001612860599
 11
-47.17164554105728
 21
670.6230406221459
 31
-0.0000001612860599
  0
ARC
  5
1B60
330
1F
100
AcDbEntity
  8
SANINDUSA
100
AcDbCircle
 10
-47.17214683468537
 20
670.6236297979609
 30
-0.0000001612860599
 40
0.0005
100
AcDbArc
 50
170.6591658982246
 51
260.6591658977568
  0
LINE
  5
1B61
330
1F
100
AcDbEntity
  8
SANINDUSA
100
AcDbLine
 10
-47.16055926790723
 20
670.6129290406677
 30
-0.0000001612860598
 11
-47.16055926790723
 21
670.6209290406682
 31
-0.0000001612860598
  0
LINE
  5
1B62
330
1F
100
AcDbEntity
  8
SANINDUSA
100
AcDbLine
 10
-47.15444815679616
 20
670.6209290406682
 30
-0.0000001612860598
 11
-47.16944820239251
 21
670.6209290406682
 31
-0.0000001612860598
  0
LINE
  5
1B63
330
1F
100
AcDbEntity
  8
SANINDUSA
100
AcDbLine
 10
-47.18229768040355
 20
670.6310367752783
 30
-0.0000001612860599
 11
-47.17079337872102
 21
670.6329290967715
 31
-0.0000001612860599
  0
ARC
  5
1B64
330
1F
100
AcDbEntity
  8
SANINDUSA
100
AcDbCircle
 10
-47.17333968327548
 20
670.6305788266319
 30
-0.0000001612860599
 40
0.00075
100
AcDbArc
 50
179.8634464257866
 51
9.340834101775367
  0
LINE
  5
1B65
330
1F
100
AcDbEntity
  8
SANINDUSA
100
AcDbLine
 10
-47.18444815679624
 20
670.6317290929619
 30
-0.0000001612860598
 11
-47.18444815679624
 21
670.6357290929619
 31
-0.0000001612860598
  0
LINE
  5
1B66
330
1F
100
AcDbEntity
  8
SANINDUSA
100
AcDbLine
 10
-47.18111532491088
 20
670.6300151332976
 30
-0.0000001612860599
 11
-47.18280029614251
 21
670.6297379754687
 31
-0.0000001612860599
  0
LINE
  5
1B67
330
1F
100
AcDbEntity
  8
SANINDUSA
100
AcDbLine
 10
-47.18280029614251
 20
670.6297379754687
 30
-0.0000001612860599
 11
-47.18280029614251
 21
670.6304447311027
 31
-0.0000001612860599
  0
ARC
  5
1B68
330
1F
100
AcDbEntity
  8
SANINDUSA
100
AcDbCircle
 10
-47.18220029614251
 20
670.6304447311027
 30
-0.0000001612860599
 40
0.0006
100
AcDbArc
 50
99.34083410224316
 51
180.0
  0
ARC
  5
1B69
330
1F
100
AcDbEntity
  8
SANINDUSA
100
AcDbCircle
 10
-47.17740029614251
 20
670.6304235239911
 30
-0.0000001612860599
 40
0.0006
100
AcDbArc
 50
51.1511489997484
 51
99.34083410224316
  0
ARC
  5
1B6A
330
1F
100
AcDbEntity
  8
SANINDUSA
100
AcDbCircle
 10
-47.17782205508543
 20
670.6301595812503
 30
-0.0000001612860599
 40
0.000175
100
AcDbArc
 50
262.000000000283
 51
82.00000000028301
  0
ARC
  5
1B6B
330
1F
100
AcDbEntity
  8
SANINDUSA
100
AcDbCircle
 10
-47.17458967972539
 20
670.6305818057659
 30
-0.0000001612860599
 40
0.0005
100
AcDbArc
 50
359.8634464257866
 51
99.34083410224316
  0
LINE
  5
1B6C
330
1F
100
AcDbEntity
  8
SANINDUSA
100
AcDbLine
 10
-47.17407973849481
 20
670.6304570963055
 30
-0.0000001612860599
 11
-47.17412031527024
 21
670.6307037813786
 31
-0.0000001612860599
  0
LINE
  5
1B6D
330
1F
100
AcDbEntity
  8
SANINDUSA
100
AcDbLine
 10
-47.17467083327625
 20
670.631075175912
 30
-0.0000001612860599
 11
-47.17655019021484
 21
670.6307660439346
 31
-0.0000001612860599
  0
ARC
  5
1B6E
330
1F
100
AcDbEntity
  8
SANINDUSA
100
AcDbCircle
 10
-47.17664757447589
 20
670.6313580881101
 30
-0.0000001612860599
 40
0.0006000000000005
100
AcDbArc
 50
231.1511489997484
 51
279.3408341022431
  0
ARC
  5
1B6F
330
1F
100
AcDbEntity
  8
SANINDUSA
100
AcDbCircle
 10
-47.17990551922723
 20
670.6307805870009
 30
-0.0000001612860599
 40
0.0005
100
AcDbArc
 50
208.12637396591
 51
262.000000000283
  0
ARC
  5
1B70
330
1F
100
AcDbEntity
  8
SANINDUSA
100
AcDbCircle
 10
-47.18121270917191
 20
670.630607177473
 30
-0.0000001612860599
 40
0.0006
100
AcDbArc
 50
279.3408341022431
 51
327.5305192074513
  0
ARC
  5
1B71
330
1F
100
AcDbEntity
  8
SANINDUSA
100
AcDbCircle
 10
-47.18020029614251
 20
670.6299629571242
 30
-0.0000001612860599
 40
0.0005999999999989
100
AcDbArc
 50
104.1008918080876
 51
147.5305192072327
  0
LINE
  5
1B72
330
1F
100
AcDbEntity
  8
SANINDUSA
100
AcDbLine
 10
-47.17784641037809
 20
670.6299862843382
 30
-0.0000001612860599
 11
-47.17997510577772
 21
670.6302854529665
 31
-0.0000001612860599
  0
LINE
  5
1B73
330
1F
100
AcDbEntity
  8
SANINDUSA
100
AcDbLine
 10
-47.17749768040355
 20
670.6310155681665
 30
-0.0000001612860599
 11
-47.17987402814828
 21
670.6306246870824
 31
-0.0000001612860599
  0
LINE
  5
1B74
330
1F
100
AcDbEntity
  8
SANINDUSA
100
AcDbLine
 10
-47.17987402814828
 20
670.6306246870824
 30
-0.0000001612860599
 11
-47.17779769979276
 21
670.6303328781623
 31
-0.0000001612860599
  0
ARC
  5
1B75
330
1F
100
AcDbEntity
  8
SANINDUSA
100
AcDbCircle
 10
-47.18544815679623
 20
670.6357290929619
 30
-0.0000001612860598
 40
0.001
100
AcDbArc
 50
0.0
 51
90.0
  0
LINE
  5
1B76
330
1F
100
AcDbEntity
  8
SANINDUSA
100
AcDbLine
 10
-47.15444815679624
 20
670.6317290929619
 30
-0.0000001612860598
 11
-47.15444815679624
 21
670.6357290929619
 31
-0.0000001612860598
  0
ARC
  5
1B77
330
1F
100
AcDbEntity
  8
SANINDUSA
100
AcDbCircle
 10
-47.15344815679624
 20
670.6357290929619
 30
-0.0000001612860598
 40
0.001
100
AcDbArc
 50
90.0
 51
180.0
  0
ARC
  5
1B78
330
1F
100
AcDbEntity
  8
SANINDUSA
100
AcDbCircle
 10
-47.17154815679624
 20
670.6310255272216
 30
-0.0000001612860599
 40
0.0006
100
AcDbArc
 50
0.0
 51
99.34083410224316
  0
LINE
  5
1B79
330
1F
100
AcDbEntity
  8
SANINDUSA
100
AcDbLine
 10
-47.17164554105728
 20
670.6316175713971
 30
-0.0000001612860599
 11
-47.17222798823624
 21
670.6315217657284
 31
-0.0000001612860599
  0
LINE
  5
1B7A
330
1F
100
AcDbEntity
  8
SANINDUSA
100
AcDbLine
 10
-47.17079337872102
 20
670.6329290967715
 30
-0.0000001612860599
 11
-47.16980029614251
 21
670.6329290967715
 31
-0.0000001612860599
  0
LINE
  5
1B7B
330
1F
100
AcDbEntity
  8
SANINDUSA
100
AcDbLine
 10
-47.17264020483159
 20
670.6309472420313
 30
-0.0000001612860599
 11
-47.17259962805615
 21
670.6307005569582
 31
-0.0000001612860599
  0
ARC
  5
1B7C
330
1F
100
AcDbEntity
  8
SANINDUSA
100
AcDbCircle
 10
-47.17214683468537
 20
670.6310283955822
 30
-0.0000001612860599
 40
0.0005
100
AcDbArc
 50
99.34083410224316
 51
189.3408341017753
  0
ARC
  5
1B7D
330
1F
100
AcDbEntity
  8
SANINDUSA
100
AcDbCircle
 10
-47.16896260383482
 20
670.6273290967715
 30
-0.0000001612860599
 40
0.0052623076923077
100
AcDbArc
 50
261.4923271274209
 51
98.50767287257907
  0
ARC
  5
1B7E
330
1F
100
AcDbEntity
  8
SANINDUSA
100
AcDbCircle
 10
-47.16896260383482
 20
670.6273290967715
 30
-0.0000001612860599
 40
0.0056623076923077
100
AcDbArc
 50
261.4923271274209
 51
98.50767287257907
  0
LINE
  5
1B7F
330
1F
100
AcDbEntity
  8
SANINDUSA
100
AcDbLine
 10
-47.17094815679624
 20
670.6236326663214
 30
-0.0000001612860599
 11
-47.17094815679624
 21
670.6310255272216
 31
-0.0000001612860599
  0
LINE
  5
1B80
330
1F
100
AcDbEntity
  8
SANINDUSA
100
AcDbLine
 10
-47.16980029614251
 20
670.6217290967715
 30
-0.0000001612860599
 11
-47.16980029614251
 21
670.6329290967715
 31
-0.0000001612860599
  0
LINE
  5
1B81
330
1F
100
AcDbEntity
  8
SANINDUSA
100
AcDbLine
 10
-47.16794815679624
 20
670.6303290929619
 30
-0.0000001612860598
 11
-47.16794815679624
 21
670.6243290929619
 31
-0.0000001612860598
1001
GENIUS_GENREC_14
1002
{
1000
PYDIR
1011
-47.32094815679624
1021
670.6241290929618
1031
-0.0000001612860598
1002
}
1002
{
1000
PXDIR
1011
-47.17094815679624
1021
670.6301290929619
1031
-0.0000001612860598
1002
}
1002
{
1000
PORI
1011
-47.32094815679624
1021
670.6301290929619
1031
-0.0000001612860598
1002
}
1002
{
1000
PINS
1011
-47.32094815679624
1021
670.6301290929619
1031
-0.0000001612860598
1002
}
1002
{
1000
PINS2
1011
-47.17094815679624
1021
670.6243290929619
1031
-0.0000001612860598
1002
}
1002
{
1000
C
1070
     1
1002
}
1001
GENIUS_GENODEF_13
1002
{
1000
HIER
1070
     0
1002
}
1002
{
1000
MANEDIT
1070
     0
1002
}
1002
{
1000
NOSEL
1070
     0
1002
}
1002
{
1000
BEHIND
1070
     0
1002
}
1002
{
1000
REACTOR
1002
}
1001
GENIUS_GENOBJ-N-REC_13
1002
{
1000
OWNER
1000
GEN
1002
}
  0
LINE
  5
1B82
330
1F
100
AcDbEntity
  8
SANINDUSA
  6
Continuous
100
AcDbLine
 10
-47.17094815679624
 20
670.6303290967715
 30
-0.0000001612860599
 11
-47.17094815679624
 21
670.6243290967714
 31
-0.0000001612860599
  0
LINE
  5
1B83
330
1F
100
AcDbEntity
  8
SANINDUSA
100
AcDbLine
 10
-47.23744815679624
 20
670.6241290929618
 30
-0.0000001612860598
 11
-47.23744815679624
 21
670.6231290929618
 31
-0.0000001612860598
1001
GENIUS_GENREC_14
1002
{
1000
PYDIR
1011
-47.23744815679624
1021
670.6241290929618
1031
-0.0000001612860598
1002
}
1002
{
1000
PXDIR
1011
-47.18444815679624
1021
670.6231290929618
1031
-0.0000001612860598
1002
}
1002
{
1000
PORI
1011
-47.23744815679624
1021
670.6231290929618
1031
-0.0000001612860598
1002
}
1002
{
1000
PINS
1011
-47.23744815679624
1021
670.6231290929618
1031
-0.0000001612860598
1002
}
1002
{
1000
PINS2
1011
-47.18444815679624
1021
670.6241290929618
1031
-0.0000001612860598
1002
}
1002
{
1000
C
1070
     1
1002
}
1001
GENIUS_GENODEF_13
1002
{
1000
HIER
1070
     0
1002
}
1002
{
1000
MANEDIT
1070
     0
1002
}
1002
{
1000
NOSEL
1070
     0
1002
}
1002
{
1000
BEHIND
1070
     0
1002
}
1002
{
1000
REACTOR
1002
}
1001
GENIUS_GENOBJ-N-REC_13
1002
{
1000
OWNER
1000
GEN
1002
}
  0
ARC
  5
1B84
330
1F
100
AcDbEntity
  8
SANINDUSA
100
AcDbCircle
 10
-47.23644815679624
 20
670.6139290406683
 30
-0.0000001612860598
 40
0.001
100
AcDbArc
 50
180.0
 51
270.0
  0
LINE
  5
1B85
330
1F
100
AcDbEntity
  8
SANINDUSA
100
AcDbLine
 10
-47.23744815679624
 20
670.6229290929619
 30
-0.0000001612860598
 11
-47.23744815679624
 21
670.6139290406683
 31
-0.0000001612860598
  0
LINE
  5
1B86
330
1F
100
AcDbEntity
  8
SANINDUSA
100
AcDbLine
 10
-47.23744815679624
 20
670.6317290929619
 30
-0.0000001612860598
 11
-47.23744815679624
 21
670.6357290929619
 31
-0.0000001612860598
  0
ARC
  5
1B87
330
1F
100
AcDbEntity
  8
SANINDUSA
100
AcDbCircle
 10
-47.23644815679624
 20
670.6357290929619
 30
-0.0000001612860598
 40
0.001
100
AcDbArc
 50
90.0
 51
180.0
  0
LINE
  5
1B88
330
1F
100
AcDbEntity
  8
SANINDUSA
100
AcDbLine
 10
-47.17833704568524
 20
670.6129290406684
 30
-0.0000001612860598
 11
-47.23644815679624
 21
670.6129290406683
 31
-0.0000001612860598
  0
LWPOLYLINE
  5
1B89
330
1F
100
AcDbEntity
  8
SANINDUSA
100
AcDbPolyline
 90
        4
 70
     1
 43
0.0
 38
-0.0000001612860599
 10
-47.23744815679624
 20
670.6315290929619
 10
-47.18444815679624
 20
670.6315290929619
 10
-47.18444815679624
 20
670.630529092962
 10
-47.23744815679624
 20
670.630529092962
1001
GENIUS_GENREC_14
1002
{
1000
PYDIR
1011
-46.9381658997171
1021
670.7177014027695
1031
-0.0000001612860598
1002
}
1002
{
1000
PXDIR
1011
-46.8851658997171
1021
670.7167014027695
1031
-0.0000001612860598
1002
}
1002
{
1000
PORI
1011
-46.9381658997171
1021
670.7167014027695
1031
-0.0000001612860598
1002
}
1002
{
1000
PINS
1011
-46.9381658997171
1021
670.7167014027695
1031
-0.0000001612860598
1002
}
1002
{
1000
PINS2
1011
-46.8851658997171
1021
670.7177014027695
1031
-0.0000001612860598
1002
}
1002
{
1000
C
1070
     1
1002
}
1001
GENIUS_GENODEF_13
1002
{
1000
HIER
1070
     0
1002
}
1002
{
1000
MANEDIT
1070
     0
1002
}
1002
{
1000
NOSEL
1070
     0
1002
}
1002
{
1000
BEHIND
1070
     0
1002
}
1002
{
1000
REACTOR
1002
}
1001
GENIUS_GENOBJ-N-REC_13
1002
{
1000
OWNER
1000
GEN
1002
}
  0
LINE
  5
1B8A
330
1F
100
AcDbEntity
  8
SANINDUSA
100
AcDbLine
 10
-47.18444815679624
 20
670.6317290929619
 30
-0.0000001612860598
 11
-47.23744815679624
 21
670.6317290929619
 31
-0.0000001612860598
  0
LWPOLYLINE
  5
1B8B
330
1F
100
AcDbEntity
  8
SANINDUSA
100
AcDbPolyline
 90
        2
 70
     0
 43
0.0
 38
-0.0000001612860599
 10
-47.23744815679624
 20
670.6231290929618
 10
-47.18444815679624
 20
670.6231290929618
1001
GENIUS_GENREC_14
1002
{
1000
PYDIR
1011
-46.9381658997171
1021
670.7175014027695
1031
-0.0000001612860598
1002
}
1002
{
1000
PXDIR
1011
-46.8851658997171
1021
670.7165014027696
1031
-0.0000001612860598
1002
}
1002
{
1000
PORI
1011
-46.9381658997171
1021
670.7165014027696
1031
-0.0000001612860598
1002
}
1002
{
1000
PINS
1011
-46.9381658997171
1021
670.7165014027696
1031
-0.0000001612860598
1002
}
1002
{
1000
PINS2
1011
-46.8851658997171
1021
670.7175014027695
1031
-0.0000001612860598
1002
}
1002
{
1000
C
1070
     1
1002
}
1001
GENIUS_GENODEF_13
1002
{
1000
HIER
1070
     0
1002
}
1002
{
1000
MANEDIT
1070
     0
1002
}
1002
{
1000
NOSEL
1070
     0
1002
}
1002
{
1000
BEHIND
1070
     0
1002
}
1002
{
1000
REACTOR
1002
}
1001
GENIUS_GENOBJ-N-REC_13
1002
{
1000
OWNER
1000
GEN
1002
}
  0
LWPOLYLINE
  5
1B8C
330
1F
100
AcDbEntity
  8
SANINDUSA
100
AcDbPolyline
 90
        2
 70
     0
 43
0.0
 38
-0.0000001612860599
 10
-47.18444815679624
 20
670.6241290929618
 10
-47.23744815679624
 20
670.6241290929618
1001
GENIUS_GENREC_14
1002
{
1000
PYDIR
1011
-46.9381658997171
1021
670.7175014027695
1031
-0.0000001612860598
1002
}
1002
{
1000
PXDIR
1011
-46.8851658997171
1021
670.7165014027696
1031
-0.0000001612860598
1002
}
1002
{
1000
PORI
1011
-46.9381658997171
1021
670.7165014027696
1031
-0.0000001612860598
1002
}
1002
{
1000
PINS
1011
-46.9381658997171
1021
670.7165014027696
1031
-0.0000001612860598
1002
}
1002
{
1000
PINS2
1011
-46.8851658997171
1021
670.7175014027695
1031
-0.0000001612860598
1002
}
1002
{
1000
C
1070
     1
1002
}
1001
GENIUS_GENODEF_13
1002
{
1000
HIER
1070
     0
1002
}
1002
{
1000
MANEDIT
1070
     0
1002
}
1002
{
1000
NOSEL
1070
     0
1002
}
1002
{
1000
BEHIND
1070
     0
1002
}
1002
{
1000
REACTOR
1002
}
1001
GENIUS_GENOBJ-N-REC_13
1002
{
1000
OWNER
1000
GEN
1002
}
  0
LINE
  5
1B8D
330
1F
100
AcDbEntity
  8
SANINDUSA
100
AcDbLine
 10
-47.23744815679624
 20
670.6229290929619
 30
-0.0000001612860598
 11
-47.18444815679624
 21
670.6229290929619
 31
-0.0000001612860598
  0
LINE
  5
1B8E
330
1F
100
AcDbEntity
  8
SANINDUSA
100
AcDbLine
 10
-47.23644815679624
 20
670.6367290929619
 30
-0.0000001612860598
 11
-47.18544815679623
 21
670.6367290929619
 31
-0.0000001612860598
  0
LINE
  5
1B8F
330
1F
100
AcDbEntity
  8
SANINDUSA
  6
Continuous
100
AcDbLine
 10
-46.99892346382235
 20
670.6303290929619
 30
-0.0000001614371458
 11
-47.16794815679624
 21
670.6303290929619
 31
-0.0000001612860598
  0
LINE
  5
1B90
330
1F
100
AcDbEntity
  8
SANINDUSA
  6
Continuous
100
AcDbLine
 10
-46.99892346382235
 20
670.6243290929619
 30
-0.0000001612939017
 11
-47.16794815679624
 21
670.6243290929619
 31
-0.0000001612860598
  0
LINE
  5
1B91
330
1F
100
AcDbEntity
  8
SANINDUSA
100
AcDbLine
 10
-47.10244815679623
 20
670.6129290406677
 30
-0.0000001612860598
 11
-47.16144815679624
 21
670.6129290406677
 31
-0.0000001612860598
  0
LWPOLYLINE
  5
1B92
330
1F
100
AcDbEntity
  8
SANINDUSA
100
AcDbPolyline
 90
        2
 70
     0
 43
0.0
 38
-0.0000001612860599
 10
-47.15444815679624
 20
670.6240290929619
 10
-47.10144815679624
 20
670.6240290929619
1001
GENIUS_GENREC_14
1002
{
1000
PYDIR
1011
-47.23744815679624
1021
670.4181191456903
1031
-0.0000001612860598
1002
}
1002
{
1000
PXDIR
1011
-47.18444815679624
1021
670.4171191456904
1031
-0.0000001612860598
1002
}
1002
{
1000
PORI
1011
-47.23744815679624
1021
670.4171191456904
1031
-0.0000001612860598
1002
}
1002
{
1000
PINS
1011
-47.23744815679624
1021
670.4171191456904
1031
-0.0000001612860598
1002
}
1002
{
1000
PINS2
1011
-47.18444815679624
1021
670.4181191456903
1031
-0.0000001612860598
1002
}
1002
{
1000
C
1070
     1
1002
}
1001
GENIUS_GENODEF_13
1002
{
1000
HIER
1070
     0
1002
}
1002
{
1000
MANEDIT
1070
     0
1002
}
1002
{
1000
NOSEL
1070
     0
1002
}
1002
{
1000
BEHIND
1070
     0
1002
}
1002
{
1000
REACTOR
1002
}
1001
GENIUS_GENOBJ-N-REC_13
1002
{
1000
OWNER
1000
GEN
1002
}
  0
LWPOLYLINE
  5
1B93
330
1F
100
AcDbEntity
  8
SANINDUSA
100
AcDbPolyline
 90
        2
 70
     0
 43
0.0
 38
-0.0000001612860599
 10
-47.10144815679624
 20
670.6230290929619
 10
-47.15444815679624
 20
670.6230290929619
1001
GENIUS_GENREC_14
1002
{
1000
PYDIR
1011
-47.23744815679624
1021
670.4181191456903
1031
-0.0000001612860598
1002
}
1002
{
1000
PXDIR
1011
-47.18444815679624
1021
670.4171191456904
1031
-0.0000001612860598
1002
}
1002
{
1000
PORI
1011
-47.23744815679624
1021
670.4171191456904
1031
-0.0000001612860598
1002
}
1002
{
1000
PINS
1011
-47.23744815679624
1021
670.4171191456904
1031
-0.0000001612860598
1002
}
1002
{
1000
PINS2
1011
-47.18444815679624
1021
670.4181191456903
1031
-0.0000001612860598
1002
}
1002
{
1000
C
1070
     1
1002
}
1001
GENIUS_GENODEF_13
1002
{
1000
HIER
1070
     0
1002
}
1002
{
1000
MANEDIT
1070
     0
1002
}
1002
{
1000
NOSEL
1070
     0
1002
}
1002
{
1000
BEHIND
1070
     0
1002
}
1002
{
1000
REACTOR
1002
}
1001
GENIUS_GENOBJ-N-REC_13
1002
{
1000
OWNER
1000
GEN
1002
}
  0
LWPOLYLINE
  5
1B94
330
1F
100
AcDbEntity
  8
SANINDUSA
100
AcDbPolyline
 90
        4
 70
     1
 43
0.0
 38
-0.0000001612860599
 10
-47.10144815679624
 20
670.6315290929619
 10
-47.15444815679624
 20
670.6315290929619
 10
-47.15444815679624
 20
670.630529092962
 10
-47.10144815679624
 20
670.630529092962
1001
GENIUS_GENREC_14
1002
{
1000
PYDIR
1011
-47.23744815679624
1021
670.4184191456904
1031
-0.0000001612860598
1002
}
1002
{
1000
PXDIR
1011
-47.18444815679624
1021
670.4174191456904
1031
-0.0000001612860598
1002
}
1002
{
1000
PORI
1011
-47.23744815679624
1021
670.4174191456904
1031
-0.0000001612860598
1002
}
1002
{
1000
PINS
1011
-47.23744815679624
1021
670.4174191456904
1031
-0.0000001612860598
1002
}
1002
{
1000
PINS2
1011
-47.18444815679624
1021
670.4184191456904
1031
-0.0000001612860598
1002
}
1002
{
1000
C
1070
     1
1002
}
1001
GENIUS_GENODEF_13
1002
{
1000
HIER
1070
     0
1002
}
1002
{
1000
MANEDIT
1070
     0
1002
}
1002
{
1000
NOSEL
1070
     0
1002
}
1002
{
1000
BEHIND
1070
     0
1002
}
1002
{
1000
REACTOR
1002
}
1001
GENIUS_GENOBJ-N-REC_13
1002
{
1000
OWNER
1000
GEN
1002
}
  0
LINE
  5
1B95
330
1F
100
AcDbEntity
  8
SANINDUSA
100
AcDbLine
 10
-47.15444815679616
 20
670.6229290406682
 30
-0.0000001612860598
 11
-47.10144815679615
 21
670.6229290406682
 31
-0.0000001612860598
  0
LINE
  5
1B96
330
1F
100
AcDbEntity
  8
SANINDUSA
100
AcDbLine
 10
-47.15444815679624
 20
670.6317290929619
 30
-0.0000001612860598
 11
-47.10144815679624
 21
670.6317290929619
 31
-0.0000001612860598
  0
LINE
  5
1B97
330
1F
100
AcDbEntity
  8
SANINDUSA
100
AcDbLine
 10
-47.10244815679624
 20
670.6367290929619
 30
-0.0000001612860598
 11
-47.15344815679624
 21
670.6367290929619
 31
-0.0000001612860598
  0
ARC
  5
1B99
330
1F
100
AcDbEntity
  8
SANINDUSA
  6
Continuous
100
AcDbCircle
 10
-46.96595144006244
 20
670.6138365979224
 30
-0.0000001612860599
 40
0.012
100
AcDbArc
 50
0.0
 51
0.0
  0
REGION
  5
1B9A
330
1F
100
AcDbEntity
  8
SANINDUSA
100
AcDbModelerGeometry
 70
     1
  1
koo nji n o         
  1
ni ^ *+0;:,4 ^ *+0\^ [ nf ^ LR mnjqoqoqkmnk QK o  
  1
n fqfffffffffffffffj:rooh n:rono 
  1
=0;& {rn {n {rn {rn |
  1
3*2/ {rn {rn {m {o |
  1
,7:33 {rn {rn {rn {l {rn {n |
  1
9><: {rn {rn {k {m {rn {j 90-(>-; ;0*=3: 0*+ |
  1
300/ {rn {rn {i {l |
  1
/3>1:r,*-9><: {rn rkiqfijlimlgglihnig ihoqimkonkmknkgnjm rnqinkkninkhnfjnfhf:rooh o o n roqoon kqgfgkmjknjmgfjogg:ronf o 90-(>-;@) V V V V |
  1
<0:;8: {rn {h {g {rn {f 90-(>-; {k {rn |
  1
<0:;8: {rn {no {i {rn {nn 90-(>-; {k {rn |
  1
<0:;8: {rn {i {nm {rn {nl 90-(>-; {k {rn |
  1
:;8: {rn {nk {nj {i {ni 90-(>-; |
  1
<0:;8: {rn {nh {h {rn {ng 90-(>-; {k {rn |
  1
:;8: {rn {nj {nf {h {mo 90-(>-; |
  1
<0:;8: {rn {g {mn {rn {mm 90-(>-; {k {rn |
  1
:;8: {rn {ml {nk {g {mk 90-(>-; |
  1
):-+:' {rn {f {mj |
  1
):-+:' {rn {f {mi |
  1
:336/,:r<*-): {rn rkiqfjhlonkkooimkkk ihoqiljomfofmfingh rnqinkkninkhnfjnfhf:rooh o o n oqooohohnoihgnngilgifk oqooohohnoihgnngijkhl o n V V |
  1
<0:;8: {rn {mh {no {rn {mg 90-(>-; {k {rn |
  1
:;8: {rn {nf {mf {no {lo 90-(>-; |
  1
):-+:' {rn {nn {ln |
  1
,+->687+r<*-): {rn rkiqfjhlonkkooimkkk ihoqiliomfofmfinfi rnqinkkninkhnfjnfhf:rooh roqoon kqgfgkmjknjmgfjogg:ronf o V V |
  1
<0:;8: {rn {nm {lm {rn {ll 90-(>-; {k {rn |
  1
:;8: {rn {lk {ml {nm {lj 90-(>-; |
  1
):-+:' {rn {mm {li |
  1
,+->687+r<*-): {rn rkiqfjilonkkooimkkh ihoqilkoklloijmkmf rnqinkkninkhnfjnfhf:rooh kqgfgkmjknjmgfjogg:ronf oqoon o V V |
  1
/061+ {rn rkiqfjilonkkooimkkh ihoqiljomfofmfingh rnqinkkninkhnfjnfhf:rooh |
  1
/061+ {rn rkiqfjhlonkkooimkkk ihoqiliomfofmfinfi rnqinkkninkhnfjnfhf:rooh |
  1
<0:;8: {rn {lh {nh {rn {lg 90-(>-; {k {rn |
  1
:;8: {rn {mf {lf {nh {ko 90-(>-; |
  1
):-+:' {rn {ng {kn |
  1
:336/,:r<*-): {rn rkiqffmlmkhkknfkkkg ihoqiljomfofmfingh rnqinkkninkhnfjnfhf:rooh o o n roqoon kqgfgkmjknjmgfjogg:ronf o n V V |
  1
/061+ {rn rkiqffmlmkhkknfkkkg ihoqiliomfofmfinfi rnqinkkninkhnfjnfhf:rooh |
  1
<0:;8: {rn {mn {km {rn {kl 90-(>-; {k {rn |
  1
:;8: {rn {kk {lk {mn {kj 90-(>-; |
  1
):-+:' {rn {ll {ki |
  1
:336/,:r<*-): {rn rkiqfjhlonkkooimkkk ihoqilkoklloijmkmf rnqinkkninkhnfjnfhf:rooh o o n oqooofmlghfjlmjnnjhihg roqooolgmiglklmlijmoffh o n V V |
  1
/061+ {rn rkiqfjilonkkooimkkh ihoqilkoklloijmkmf rnqinkkninkhnfjnfhf:rooh |
  1
<0:;8: {rn {kh {mh {rn {kg 90-(>-; {k {rn |
  1
:;8: {rn {lf {kf {mh {jo 90-(>-; |
  1
):-+:' {rn {mg {jn |
  1
,+->687+r<*-): {rn rkiqffmlmkhkknfkkkg ihoqilkomfofmfinf rnqinkkninkhnfjnfhf:rooh oqoon hqimkikmijfhmnikfm:rong o V V |
  1
/061+ {rn rkiqffmlmkhkknfkkkg ihoqilkomfofmfinf rnqinkkninkhnfjnfhf:rooh |
  1
<0:;8: {rn {lm {jm {rn {jl 90-(>-; {k {rn |
  1
:;8: {rn {jk {kk {lm {jj 90-(>-; |
  1
):-+:' {rn {kl {ji |
  1
,+->687+r<*-): {rn rkiqfjhjogjkigklilk ihoqilmkmnfgingoh rnqinkkninkhnfjnfhf:rooh oqooohohnoihgnngiimkhn oqooohohnoihgnngikhokl o V V |
  1
/061+ {rn rkiqfjijfklllmgnmjf ihoqillllinffhkln rnqinkkninkhnfjnfhf:rooh |
  1
<0:;8: {rn {jh {lh {rn {jg 90-(>-; {k {rn |
  1
:;8: {rn {kf {jf {lh {io 90-(>-; |
  1
):-+:' {rn {lg {in |
  1
:336/,:r<*-): {rn rkiqfiogonkkooimkkh ihoqillomfofmfinfm rnqinkkninkhnfjnfhf:rooh o o rn oqooohohnoihgnngijkhgk oqooohohnoihgnngijkhl o n V V |
  1
/061+ {rn rkiqfiogonkkooimkkh ihoqilkomfofmfinf rnqinkkninkhnfjnfhf:rooh |
  1
<0:;8: {rn {km {im {rn {il 90-(>-; {k {rn |
  1
:;8: {rn {ik {jk {km {ij 90-(>-; |
  1
):-+:' {rn {jl {ii |
  1
:336/,:r<*-): {rn rkiqfjigonkkooimkkf ihoqilnhnkghflffjn rnqinkkninkhnfjnfhf:rooh o o rn roqooofmlghfjlmjnnjgggm oqooolgmiglklmlijmnkfi o n V V |
  1
/061+ {rn rkiqfjhjogjkigklilk ihoqilmkmnfgingoh rnqinkkninkhnfjnfhf:rooh |
  1
<0:;8: {rn {ih {kh {rn {ig 90-(>-; {k {rn |
  1
:;8: {rn {jf {if {kh {ho 90-(>-; |
  1
):-+:' {rn {kg {hn |
  1
,+->687+r<*-): {rn rkiqfjfgonkkooimkkf ihoqillomfofmfinfm rnqinkkninkhnfjnfhf:rooh rkqgfgkmjknjmgfjogg:ronf roqoon o V V |
  1
/061+ {rn rkiqfjfgonkkooimkkf ihoqillomfofmfinfm rnqinkkninkhnfjnfhf:rooh |
  1
<0:;8: {rn {jm {hm {rn {hl 90-(>-; {k {rn |
  1
:;8: {rn {hk {ik {jm {hj 90-(>-; |
  1
):-+:' {rn {il {hi |
  1
,+->687+r<*-): {rn rkiqfjhgonkkooimkkh ihoqimgllfhjlnllih rnqinkkninkhnfjnfhf:rooh kqgfgkmjknjmgfjogg:ronf oqoon o V V |
  1
/061+ {rn rkiqfjhgonkkooimkkh ihoqilnhnkghflffjn rnqinkkninkhnfjnfhf:rooh |
  1
<0:;8: {rn {hh {jh {rn {hg 90-(>-; {k {rn |
  1
:;8: {rn {if {hf {jh {go 90-(>-; |
  1
):-+:' {rn {jg {gn |
  1
:336/,:r<*-): {rn rkiqfiogonkkooimkkh ihoqinjniffoiigkhk rnqinkkninkhnfjnfhf:rooh o o rn oqoooiflhnfjifojiohkmh roqooohmomkjmohfolfjoih o n V V |
  1
/061+ {rn rkiqfjfgonkkooimkkf ihoqinjniffoiigkhk rnqinkkninkhnfjnfhf:rooh |
  1
<0:;8: {rn {im {gm {rn {gl 90-(>-; {k {rn |
  1
:;8: {rn {gk {hk {im {gj 90-(>-; |
  1
):-+:' {rn {hl {gi |
  1
:336/,:r<*-): {rn rkiqfjgojnkkooimkkg ihoqimgllfhjlnllih rnqinkkninkhnfjnfhf:rooh o o n oqooomlofifgglnmgnninl rfqjihogjgofnmlnhmn:rooj o n V V |
  1
/061+ {rn rkiqfjhgonkkooimkkh ihoqimgllfhjlnllih rnqinkkninkhnfjnfhf:rooh |
  1
<0:;8: {rn {gh {ih {rn {gg 90-(>-; {k {rn |
  1
:;8: {rn {hf {gf {ih {fo 90-(>-; |
  1
):-+:' {rn {ig {fn |
  1
:336/,:r<*-): {rn rkiqfjhmnnllnimkjkf ihoqhnogmmijmioifn rnqinkkninkhnfjnfhf:rooh o o rn roqonkgggmlgfilhjnilk roqofjjihlklgiohggggk o n V V |
  1
/061+ {rn rkiqfioglgfkilgnkij ihoqinknhoinomfkm rnqinkkninkhnfjnfhf:rooh |
  1
<0:;8: {rn {hm {fm {rn {fl 90-(>-; {k {rn |
  1
:;8: {rn {fk {gk {hm {fj 90-(>-; |
  1
):-+:' {rn {gl {fi |
  1
,+->687+r<*-): {rn rkiqfjgljkfflkjlokm ihoqimhigmikiljmkh rnqinkkninkhnfjnfhf:rooh oqooohohnoihgnngiinojn oqooohohnoihgnngikgkil o V V |
  1
/061+ {rn rkiqfjhghkiillihnj ihoqimgnimfhiklglg rnqinkkninkhnfjnfhf:rooh |
  1
<0:;8: {rn {fh {hh {rn {fg 90-(>-; {k {rn |
  1
:;8: {rn {gf {ff {hh {noo 90-(>-; |
  1
):-+:' {rn {hg {non |
  1
:336/,:r<*-): {rn rkiqfglommlfogmnfjn ihoqingnmfofmfinfn rnqinkkninkhnfjnfhf:rooh o o rn roqoookfjlfhkhiigfkifjk iqhigjjfhljgoffokg:rooj o n V V |
  1
/061+ {rn rkiqfglnjijnjfngjof ihoqinhikhknglmmmk rnqinkkninkhnfjnfhf:rooh |
  1
<0:;8: {rn {gm {nom {rn {nol 90-(>-; {k {rn |
  1
:;8: {rn {nok {fk {gm {noj 90-(>-; |
  1
):-+:' {rn {fl {noi |
  1
:336/,:r<*-): {rn rkiqfjgoonkkooimkki ihoqimhlmfofmfinff rnqinkkninkhnfjnfhf:rooh o o rn roqoookffffffffffffhkn rgqonklgnminlgklmmh:ronh o n V V |
  1
/061+ {rn rkiqfjgljkfflkjlokm ihoqimhigmikiljmkh rnqinkkninkhnfjnfhf:rooh |
  1
<0:;8: {rn {noh {gh {rn {nog 90-(>-; {k {rn |
  1
:;8: {rn {ff {nof {gh {nno 90-(>-; |
  1
):-+:' {rn {gg {nnn |
  1
,+->687+r<*-): {rn rkiqfglommlfogmnfjn ihoqingimfofmfinf rnqinkkninkhnfjnfhf:rooh oqoon rkqgfgkmjknjmgfjogg:ronf o V V |
  1
/061+ {rn rkiqfglommlfogmnfjn ihoqingimfofmfinf rnqinkkninkhnfjnfhf:rooh |
  1
<0:;8: {rn {fm {nnm {rn {nnl 90-(>-; {k {rn |
  1
:;8: {rn {nnk {nok {fm {nnj 90-(>-; |
  1
):-+:' {rn {nol {nni |
  1
,+->687+r<*-): {rn rkiqfjhghkiillihnj ihoqimikfjmofkgjkg rnqinkkninkhnfjnfhf:rooh roqooohohnoihgnngiilnn oqooohohnoihgnngikiknk o V V |
  1
/061+ {rn rkiqfjgljkfflkjlokm ihoqimifhjjlfjhnlf rnqinkkninkhnfjnfhf:rooh |
  1
<0:;8: {rn {nnh {fh {rn {nng 90-(>-; {k {rn |
  1
:;8: {rn {nof {nnf {fh {nmo 90-(>-; |
  1
):-+:' {rn {fg {nmn |
  1
:336/,:r<*-): {rn rkiqfholmkhkknfkkj ihoqinfimfofmfingh rnqinkkninkhnfjnfhf:rooh o o n oqoon rkqgfgkmjknjmgfjogg:ronf o n V V |
  1
/061+ {rn rkiqfholmkhkknfkkj ihoqingimfofmfinf rnqinkkninkhnfjnfhf:rooh |
  1
<0:;8: {rn {nom {nmm {rn {nml 90-(>-; {k {rn |
  1
:;8: {rn {nmk {nnk {nom {nmj 90-(>-; |
  1
):-+:' {rn {nnl {nmi |
  1
:336/,:r<*-): {rn rkiqfjgojnkkooimkkg ihoqimilngklmhfonf rnqinkkninkhnfjnfhf:rooh o o n oqooomlofifgglnmhgmlih fqjihogjgofnmlllkh:rooj o n V V |
  1
/061+ {rn rkiqfjhghkiillihnj ihoqimikfjmofkgjkg rnqinkkninkhnfjnfhf:rooh |
  1
<0:;8: {rn {nmh {noh {rn {nmg 90-(>-; {k {rn |
  1
:;8: {rn {nnf {nmf {noh {nlo 90-(>-; |
  1
):-+:' {rn {nog {nln |
  1
,+->687+r<*-): {rn rkiqfholmkhkknfkkj ihoqimoimfofmfinfi rnqinkkninkhnfjnfhf:rooh roqoon nqhgnhlgkmkhmfnlln:rong o V V |
  1
/061+ {rn rkiqfholmkhkknfkkj ihoqimoimfofmfinfi rnqinkkninkhnfjnfhf:rooh |
  1
<0:;8: {rn {nnm {nlm {rn {nll 90-(>-; {k {rn |
  1
:;8: {rn {nlk {nmk {nnm {nlj 90-(>-; |
  1
):-+:' {rn {nml {nli |
  1
,+->687+r<*-): {rn rkiqfjhgonkkooimkkh ihoqininmfoiflooln rnqinkkninkhnfjnfhf:rooh kqgfgkmjknjmgfjogg:ronf oqoon o V V |
  1
/061+ {rn rkiqfjhgonkkooimkkh ihoqimilngklmhfonf rnqinkkninkhnfjnfhf:rooh |
  1
<0:;8: {rn {nlh {nnh {rn {nlg 90-(>-; {k {rn |
  1
:;8: {rn {nmf {nlf {nnh {nko 90-(>-; |
  1
):-+:' {rn {nng {nkn |
  1
:336/,:r<*-): {rn rkiqffmlmkhkknfkkkg ihoqinfimfofmfingh rnqinkkninkhnfjnfhf:rooh o o n roqooofglninmnnfhgihiff oqooongmhkollgljoffjii o n V V |
  1
/061+ {rn rkiqffmlmkhkknfkkkg ihoqimoimfofmfinfi rnqinkkninkhnfjnfhf:rooh |
  1
<0:;8: {rn {nmm {nlh {rn {nkm 90-(>-; {k {rn |
  1
:;8: {rn {nkl {nlk {nmm {nkk 90-(>-; |
  1
):-+:' {rn {nll {nkj |
  1
:336/,:r<*-): {rn rkiqfjigonkkooimkkf ihoqininmfoiflooln rnqinkkninkhnfjnfhf:rooh o o rn roqooofmljgnonhmhjkofkl roqooolglkollngljfjkhkl o n V V |
  1
/061+ {rn rkiqfjhgonkkooimkkh ihoqininmfoiflooln rnqinkkninkhnfjnfhf:rooh |
  1
<0:;8: {rn {nlm {nmh {rn {nki 90-(>-; {k {rn |
  1
:;8: {rn {nlf {nkh {nmh {nkg 90-(>-; |
  1
):-+:' {rn {nmg {nkf |
  1
:336/,:r<*-): {rn rkiqfjhmnnllnimkjkf ihoqhnogmmijmioifn rnqinkkninkhnfjnfhf:rooh o o n roqongogklgjjgfoogimj roqofhokfjljokmoghhh o n V V |
  1
/061+ {rn rkiqffmigkohoinfjnn ihoqingifjggnomkkj rnqinkkninkhnfjnfhf:rooh |
  1
:;8: {rn {njo {nkl {nlm {njn 90-(>-; |
  1
):-+:' {rn {nkm {njm |
  1
,+->687+r<*-): {rn rkiqfjiionookhkmkhk ihoqinkjnhmkllgmfm rnqinkkninkhnfjnfhf:rooh roqooohogmogojljfknfhij oqooohoioolhfofkngggih o V V |
  1
/061+ {rn rkiqfjhjohkklgjllgh ihoqinjkmoginmkihg rnqinkkninkhnfjnfhf:rooh |
  1
:;8: {rn {nkh {njo {nlh {njl 90-(>-; |
  1
):-+:' {rn {nlg {njk |
  1
:336/,:r<*-): {rn rkiqfjhlookmlognofk ihoqinlnomjfhhmiff rnqinkkninkhnfjnfhf:rooh o o n oqooohnoohlfljigjoojok roqooohoknmhnmlliigkhlh o n V V |
  1
/061+ {rn rkiqfjhlonllkhgnjim ihoqinmnomjfgnkmjk rnqinkkninkhnfjnfhf:rooh |
  1
):-+:' {rn {nki {njj |
  1
:336/,:r<*-): {rn rkiqfjhlohoogjllknf ihoqinlgofoljlmfmh rnqinkkninkhnfjnfhf:rooh o o n oqooofmnhglfgfimfinhjl oqooolghholgjnkflgglof o n V V |
  1
/061+ {rn rkiqfjiionookhkmkhk ihoqinkjnhmkllgmfm rnqinkkninkhnfjnfhf:rooh |
  1
,+->687+r<*-): {rn rkiqfjilookiijmgiki ihoqinlnnnfnflg rnqinkkninkhnfjnfhf:rooh rfqlmnijlooiiholjmf:rooi oqoooffffjijjmkkghiigl o V V |
  1
/061+ {rn rkiqfjilookiijmgiki ihoqinlnnnfnflg rnqinkkninkhnfjnfhf:rooh |
  1
/061+ {rn rkiqfjilohojnfgofhn ihoqinlgngljifgmmg rnqinkkninkhnfjnfhf:rooh |
  0
REGION
  5
1B9B
330
1F
100
AcDbEntity
  8
SANINDUSA
100
AcDbModelerGeometry
 70
     1
  1
koo hi n o          
  1
ni ^ *+0;:,4 ^ *+0\^ [ nf ^ LR mnjqoqoqkmnk QK o  
  1
n fqfffffffffffffffj:rooh n:rono 
  1
=0;& {rn {n {rn {rn |
  1
3*2/ {rn {rn {m {o |
  1
,7:33 {rn {rn {rn {l {rn {n |
  1
9><: {rn {rn {k {m {rn {j -:):-,:; ;0*=3: 0*+ |
  1
300/ {rn {rn {i {l |
  1
/3>1:r,*-9><: {rn rkiqfjiofgijjokhjf ihoqimlfgnnlkkhlkn rnqinkkninjnhkmihnl:rooh o o rn oqoon rkqgfgkmjknjmgfjogg:ronf o 90-(>-;@) V V V V |
  1
<0:;8: {rn {h {g {rn {f 90-(>-; {k {rn |
  1
<0:;8: {rn {no {i {rn {nn -:):-,:; {k {rn |
  1
<0:;8: {rn {i {nm {rn {nl -:):-,:; {k {rn |
  1
:;8: {rn {nk {nj {i {ni 90-(>-; |
  1
<0:;8: {rn {nh {h {rn {ng 90-(>-; {k {rn |
  1
:;8: {rn {nf {nj {h {mo 90-(>-; |
  1
<0:;8: {rn {g {mn {rn {mm 90-(>-; {k {rn |
  1
:;8: {rn {nk {ml {g {mk 90-(>-; |
  1
):-+:' {rn {f {mj |
  1
):-+:' {rn {f {mi |
  1
,+->687+r<*-): {rn rkiqfjlfjnkkooimkkh ihoqinmnomjfhhmhom rnqinkkninkhnfjnfhf:rooh fqffmgjojllhlmgklh:rong oqoon o V V |
  1
<0:;8: {rn {mh {no {rn {mg -:):-,:; {k {rn |
  1
:;8: {rn {nf {mf {no {lo 90-(>-; |
  1
):-+:' {rn {nn {ln |
  1
,+->687+r<*-): {rn rkiqfjkfjnkkooimkkj ihoqiliomfofmfinfi rnqinkkninkhnfjnfhf:rooh oqoon mqhflngiiggggigjfj:ronh o V V |
  1
<0:;8: {rn {nm {lm {rn {ll -:):-,:; {k {rn |
  1
:;8: {rn {lk {ml {nm {lj 90-(>-; |
  1
):-+:' {rn {mm {li |
  1
,+->687+r<*-): {rn rkiqfjlfjnkkooimkkh ihoqinmnomjfhhmhom rnqinkkninkhnfjnfhf:rooh roqoon nqnklokokglmniimjf:roni o V V |
  1
/061+ {rn rkiqfjlfjnkkooimkkh ihoqinmnomjfhhmhom rnqinkkninkhnfjnfhf:rooh |
  1
/061+ {rn rkiqfjlfjnkkooimkkh ihoqiliomfofmfinfi rnqinkkninkhnfjnfhf:rooh |
  1
<0:;8: {rn {lh {nh {rn {lg -:):-,:; {k {rn |
  1
:;8: {rn {lf {mf {nh {ko 90-(>-; |
  1
):-+:' {rn {ng {kn |
  1
:336/,:r<*-): {rn rkiqfjkfjnkkooimkkj ihoqiljomfofmfingh rnqinkkninkhnfjnfhf:rooh o o n roqoooffffffffffffggik kqgfgkmjknjmggfjmm:ronf o n V V |
  1
/061+ {rn rkiqfjkfjnkkooimkkj ihoqiliomfofmfinfi rnqinkkninkhnfjnfhf:rooh |
  1
<0:;8: {rn {mn {km {rn {kl -:):-,:; {k {rn |
  1
:;8: {rn {lk {kk {mn {kj 90-(>-; |
  1
):-+:' {rn {ll {ki |
  1
:336/,:r<*-): {rn rkiqfjkfjolmofhkfni ihoqinlnomjfhhmiff rnqinkkninkhnfjnfhf:rooh o o n roqoooffffffffffffggik kqgfgkmjknjmggfjmm:ronf o n V V |
  1
/061+ {rn rkiqfjkfjolmofhkfni ihoqinmnomjfhhmhom rnqinkkninkhnfjnfhf:rooh |
  1
<0:;8: {rn {kh {mh {rn {kg -:):-,:; {k {rn |
  1
:;8: {rn {kf {lf {mh {jo 90-(>-; |
  1
):-+:' {rn {mg {jn |
  1
,+->687+r<*-): {rn rkiqfjjfjnkkooimkkm ihoqilkoklloijmkmf rnqinkkninkhnfjnfhf:rooh kqgfgkmjknjmgfjogg:ronf oqoon o V V |
  1
/061+ {rn rkiqfjjfjnkkooimkkm ihoqiljomfofmfingh rnqinkkninkhnfjnfhf:rooh |
  1
<0:;8: {rn {lm {jm {rn {jl -:):-,:; {k {rn |
  1
:;8: {rn {kk {jk {lm {jj 90-(>-; |
  1
):-+:' {rn {kl {ji |
  1
,+->687+r<*-): {rn rkiqfjjfjomhhjmhlik ihoqinloflmhiohlfg rnqinkkninkhnfjnfhf:rooh rfqlmnijlooiinfjnk:rooi oqoooffffjijjmkkghihkg o V V |
  1
/061+ {rn rkiqfjjfjomhhjmhlik ihoqinloflmhiohlfg rnqinkkninkhnfjnfhf:rooh |
  1
<0:;8: {rn {jh {lh {rn {jg 90-(>-; {k {rn |
  1
:;8: {rn {jf {kf {lh {io 90-(>-; |
  1
):-+:' {rn {lg {in |
  1
:336/,:r<*-): {rn rkiqfjhlonkkooimkkk ihoqilkoklloijmkmf rnqinkkninkhnfjnfhf:rooh o o n roqoonlkffffffffffhjlh iqinmghklnoilfilon:ronf o n V V |
  1
/061+ {rn rkiqfjjfjnkkooimkkm ihoqilkoklloijmkmf rnqinkkninkhnfjnfhf:rooh |
  1
<0:;8: {rn {km {jh {rn {im 90-(>-; {k {rn |
  1
:;8: {rn {jk {il {km {ik 90-(>-; |
  1
):-+:' {rn {jl {ij |
  1
:336/,:r<*-): {rn rkiqfjhlohoogjllknf ihoqinlgofoljlmfmh rnqinkkninkhnfjnfhf:rooh o o n roqoonlkfffffffffffiff iqinmghklnoikoifol:ronf o n V V |
  1
/061+ {rn rkiqfjjfjhoihnghinm ihoqinlgmninfjiogf rnqinkkninkhnfjnfhf:rooh |
  1
<0:;8: {rn {jm {kh {rn {ii -:):-,:; {k {rn |
  1
:;8: {rn {jf {ih {kh {ig 90-(>-; |
  1
):-+:' {rn {kg {if |
  1
,+->687+r<*-): {rn rkiqfjhminojfkhomm ihoqilmnhkkfggohll rnqinkkninkhnfjnfhf:rooh oqooohohnoihgnngijgoif oqooohohnoihgnngijnknm o V V |
  1
/061+ {rn rkiqfjilkigkjfohgkj ihoqillogghnmlifhl rnqinkkninkhnfjnfhf:rooh |
  1
:;8: {rn {ho {il {jm {hn 90-(>-; |
  1
):-+:' {rn {im {hm |
  1
,+->687+r<*-): {rn rkiqfjiljlfolknjiki ihoqinkhijnnimonim rnqinkkninkhnfjnfhf:rooh roqooohogmogojljfkmkngg oqooohoioolhfofkngkklm o V V |
  1
/061+ {rn rkiqfjiljlfolknjiki ihoqinkhijnnimonim rnqinkkninkhnfjnfhf:rooh |
  1
:;8: {rn {ho {ih {jh {hl 90-(>-; |
  1
):-+:' {rn {jg {hk |
  1
:336/,:r<*-): {rn rkiqfjigonkkooimkkf ihoqilnhnkghflffjn rnqinkkninkhnfjnfhf:rooh o o n roqoooijoooooooooominkg lqnglfhijnfflfkinh:ronf o n V V |
  1
/061+ {rn rkiqfjhminojfkhomm ihoqilmnhkkfggohll rnqinkkninkhnfjnfhf:rooh |
  1
):-+:' {rn {ii {hj |
  1
:336/,:r<*-): {rn rkiqfjigonkkooimkkf ihoqininmfoiflooln rnqinkkninkhnfjnfhf:rooh o o n roqoooijoooooooooolnhn lqnglfhijnfflfhlkm:ronf o n V V |
  1
/061+ {rn rkiqfjhmiolkmjmiji ihoqinjiighlkoijkg rnqinkkninkhnfjnfhf:rooh |
  1
,+->687+r<*-): {rn rkiqfjhkjnkkooimkkm ihoqininmfoiflooln rnqinkkninkhnfjnfhf:rooh kqgfgkmjknjmgfjogg:ronf oqoon o V V |
  1
/061+ {rn rkiqfjhkjnkkooimkkm ihoqilnhnkghflffjn rnqinkkninkhnfjnfhf:rooh |
  1
/061+ {rn rkiqfjhkjnkkooimkkm ihoqininmfoiflooln rnqinkkninkhnfjnfhf:rooh |
  0
LINE
  5
1C15
330
1F
100
AcDbEntity
  8
SANINDUSA
100
AcDbLine
 10
-47.98884006662977
 20
670.0411817881562
 30
-0.0000001632354104
 11
-47.98884006662977
 21
670.0081817881562
 31
-0.0000001632354104
  0
LINE
  5
1C16
330
1F
100
AcDbEntity
  8
SANINDUSA
100
AcDbLine
 10
-48.04884006662978
 20
670.0016817881562
 30
-0.0000001632354104
 11
-48.04884006662978
 21
670.0226817881562
 31
-0.0000001632354104
  0
LINE
  5
1C17
330
1F
100
AcDbEntity
  8
SANINDUSA
100
AcDbLine
 10
-48.06384006662979
 20
670.0006817881562
 30
-0.0000001632354104
 11
-48.04984006662978
 21
670.0006817881562
 31
-0.0000001632354104
  0
LINE
  5
1C18
330
1F
100
AcDbEntity
  8
SANINDUSA
100
AcDbLine
 10
-47.98984006662977
 20
670.0071817881562
 30
-0.0000001632354104
 11
-48.04884006662978
 21
670.0071817881562
 31
-0.0000001632354104
  0
ARC
  5
1C19
330
1F
100
AcDbEntity
  8
SANINDUSA
100
AcDbCircle
 10
-48.04984006662978
 20
670.0016817881562
 30
-0.0000001632354104
 40
0.001
100
AcDbArc
 50
270.0
 51
0.0
  0
ARC
  5
1C1A
330
1F
100
AcDbEntity
  8
SANINDUSA
100
AcDbCircle
 10
-47.98984006662977
 20
670.0081817881562
 30
-0.0000001632354104
 40
0.001
100
AcDbArc
 50
270.0
 51
0.0
  0
LINE
  5
1C1B
330
1F
100
AcDbEntity
  8
SANINDUSA
100
AcDbLine
 10
-48.04984006662966
 20
670.0486817881563
 30
-0.0000001632354104
 11
-48.06384006662965
 21
670.0486817881563
 31
-0.0000001632354104
  0
LINE
  5
1C1C
330
1F
100
AcDbEntity
  8
SANINDUSA
100
AcDbLine
 10
-48.04884006662978
 20
670.0226817881562
 30
-0.0000001632354104
 11
-48.06484006662978
 21
670.0226817881562
 31
-0.0000001632354104
  0
LINE
  5
1C1D
330
1F
100
AcDbEntity
  8
SANINDUSA
100
AcDbLine
 10
-48.06572895551866
 20
670.0266817881562
 30
-0.0000001632354104
 11
-48.04884006662966
 21
670.0266817881562
 31
-0.0000001632354104
  0
LINE
  5
1C1E
330
1F
100
AcDbEntity
  8
SANINDUSA
100
AcDbLine
 10
-48.04795117774077
 20
670.0421817881562
 30
-0.0000001632354104
 11
-47.98984006662977
 21
670.0421817881562
 31
-0.0000001632354104
  0
ARC
  5
1C1F
330
1F
100
AcDbEntity
  8
SANINDUSA
100
AcDbCircle
 10
-48.04984006662966
 20
670.0476817881563
 30
-0.0000001632354104
 40
0.001
100
AcDbArc
 50
0.0
 51
90.0
  0
LINE
  5
1C20
330
1F
100
AcDbEntity
  8
SANINDUSA
100
AcDbLine
 10
-48.04884006662978
 20
670.0226817881562
 30
-0.0000001632354104
 11
-48.04795117774078
 21
670.0226817881562
 31
-0.0000001632354104
  0
LINE
  5
1C21
330
1F
100
AcDbEntity
  8
SANINDUSA
100
AcDbLine
 10
-48.04934006662978
 20
670.0266817881562
 30
-0.0000001632354104
 11
-48.04934006662978
 21
670.0226817881562
 31
-0.0000001632354104
  0
LINE
  5
1C22
330
1F
100
AcDbEntity
  8
SANINDUSA
100
AcDbLine
 10
-48.04795117774078
 20
670.0226817881562
 30
-0.0000001632354104
 11
-48.04795117774077
 21
670.0421817881562
 31
-0.0000001632354104
  0
LINE
  5
1C23
330
1F
100
AcDbEntity
  8
SANINDUSA
100
AcDbLine
 10
-48.04884006662966
 20
670.0266817881562
 30
-0.0000001632354104
 11
-48.04884006662966
 21
670.0476817881563
 31
-0.0000001632354104
  0
ARC
  5
1C24
330
1F
100
AcDbEntity
  8
SANINDUSA
100
AcDbCircle
 10
-47.98984006662977
 20
670.0411817881562
 30
-0.0000001632354104
 40
0.001
100
AcDbArc
 50
0.0
 51
90.0
  0
LINE
  5
1C25
330
1F
100
AcDbEntity
  8
SANINDUSA
100
AcDbLine
 10
-48.12484006662965
 20
670.0411817881562
 30
-0.0000001632354104
 11
-48.12484006662966
 21
670.0081817881562
 31
-0.0000001632354104
  0
LINE
  5
1C26
330
1F
100
AcDbEntity
  8
SANINDUSA
100
AcDbLine
 10
-48.06572895551866
 20
670.0071817881562
 30
-0.0000001632354104
 11
-48.06572895551866
 21
670.0266817881562
 31
-0.0000001632354104
  0
LINE
  5
1C27
330
1F
100
AcDbEntity
  8
SANINDUSA
100
AcDbLine
 10
-48.06484006662978
 20
670.0226817881562
 30
-0.0000001632354104
 11
-48.06484006662978
 21
670.0016817881562
 31
-0.0000001632354104
  0
LINE
  5
1C28
330
1F
100
AcDbEntity
  8
SANINDUSA
100
AcDbLine
 10
-48.12384006662966
 20
670.0071817881562
 30
-0.0000001632354104
 11
-48.06572895551866
 21
670.0071817881562
 31
-0.0000001632354104
  0
ARC
  5
1C29
330
1F
100
AcDbEntity
  8
SANINDUSA
100
AcDbCircle
 10
-48.12384006662966
 20
670.0081817881562
 30
-0.0000001632354104
 40
0.001
100
AcDbArc
 50
180.0
 51
270.0
  0
ARC
  5
1C2A
330
1F
100
AcDbEntity
  8
SANINDUSA
100
AcDbCircle
 10
-48.06384006662979
 20
670.0016817881562
 30
-0.0000001632354104
 40
0.001
100
AcDbArc
 50
180.0
 51
270.0
  0
LINE
  5
1C2B
330
1F
100
AcDbEntity
  8
SANINDUSA
100
AcDbLine
 10
-48.06484006662966
 20
670.0421817881562
 30
-0.0000001632354104
 11
-48.12384006662965
 21
670.0421817881562
 31
-0.0000001632354104
  0
ARC
  5
1C2C
330
1F
100
AcDbEntity
  8
SANINDUSA
100
AcDbCircle
 10
-48.12384006662965
 20
670.0411817881562
 30
-0.0000001632354104
 40
0.001
100
AcDbArc
 50
90.0
 51
180.0
  0
LINE
  5
1C2D
330
1F
100
AcDbEntity
  8
SANINDUSA
100
AcDbLine
 10
-48.06434006662978
 20
670.0266817881562
 30
-0.0000001632354104
 11
-48.06434006662978
 21
670.0226817881562
 31
-0.0000001632354104
  0
LINE
  5
1C2E
330
1F
100
AcDbEntity
  8
SANINDUSA
100
AcDbLine
 10
-48.06484006662965
 20
670.0476817881563
 30
-0.0000001632354104
 11
-48.06484006662966
 21
670.0421817881562
 31
-0.0000001632354104
  0
LINE
  5
1C2F
330
1F
100
AcDbEntity
  8
SANINDUSA
100
AcDbLine
 10
-48.06484006662966
 20
670.0421817881562
 30
-0.0000001632354104
 11
-48.06484006662966
 21
670.0266817881562
 31
-0.0000001632354104
  0
ARC
  5
1C30
330
1F
100
AcDbEntity
  8
SANINDUSA
100
AcDbCircle
 10
-48.06384006662965
 20
670.0476817881563
 30
-0.0000001632354104
 40
0.001
100
AcDbArc
 50
90.0
 51
180.0
  0
LINE
  5
1C31
330
1F
100
AcDbEntity
  8
SANINDUSA
100
AcDbLine
 10
-47.98884006662977
 20
671.3011817881465
 30
-0.0000001632354104
 11
-47.98884006662977
 21
671.2681817881466
 31
-0.0000001632354104
  0
LINE
  5
1C32
330
1F
100
AcDbEntity
  8
SANINDUSA
100
AcDbLine
 10
-48.04884006662978
 20
671.2616817881466
 30
-0.0000001632354104
 11
-48.04884006662978
 21
671.2826817881466
 31
-0.0000001632354104
  0
LINE
  5
1C33
330
1F
100
AcDbEntity
  8
SANINDUSA
100
AcDbLine
 10
-48.06384006662979
 20
671.2606817881465
 30
-0.0000001632354104
 11
-48.04984006662978
 21
671.2606817881465
 31
-0.0000001632354104
  0
LINE
  5
1C34
330
1F
100
AcDbEntity
  8
SANINDUSA
100
AcDbLine
 10
-47.98984006662977
 20
671.2671817881465
 30
-0.0000001632354104
 11
-48.04884006662978
 21
671.2671817881465
 31
-0.0000001632354104
  0
ARC
  5
1C35
330
1F
100
AcDbEntity
  8
SANINDUSA
100
AcDbCircle
 10
-48.04984006662978
 20
671.2616817881466
 30
-0.0000001632354104
 40
0.001
100
AcDbArc
 50
270.0
 51
0.0
  0
ARC
  5
1C36
330
1F
100
AcDbEntity
  8
SANINDUSA
100
AcDbCircle
 10
-47.98984006662977
 20
671.2681817881466
 30
-0.0000001632354104
 40
0.001
100
AcDbArc
 50
270.0
 51
0.0
  0
LINE
  5
1C37
330
1F
100
AcDbEntity
  8
SANINDUSA
100
AcDbLine
 10
-48.04984006662966
 20
671.3086817881466
 30
-0.0000001632354104
 11
-48.06384006662965
 21
671.3086817881466
 31
-0.0000001632354104
  0
LINE
  5
1C38
330
1F
100
AcDbEntity
  8
SANINDUSA
100
AcDbLine
 10
-48.04884006662978
 20
671.2826817881466
 30
-0.0000001632354104
 11
-48.06484006662978
 21
671.2826817881466
 31
-0.0000001632354104
  0
LINE
  5
1C39
330
1F
100
AcDbEntity
  8
SANINDUSA
100
AcDbLine
 10
-48.06572895551865
 20
671.2866817881465
 30
-0.0000001632354104
 11
-48.04884006662966
 21
671.2866817881465
 31
-0.0000001632354104
  0
LINE
  5
1C3A
330
1F
100
AcDbEntity
  8
SANINDUSA
100
AcDbLine
 10
-48.04795117774077
 20
671.3021817881466
 30
-0.0000001632354104
 11
-47.98984006662977
 21
671.3021817881466
 31
-0.0000001632354104
  0
ARC
  5
1C3B
330
1F
100
AcDbEntity
  8
SANINDUSA
100
AcDbCircle
 10
-48.04984006662966
 20
671.3076817881466
 30
-0.0000001632354104
 40
0.001
100
AcDbArc
 50
0.0
 51
90.0
  0
LINE
  5
1C3C
330
1F
100
AcDbEntity
  8
SANINDUSA
100
AcDbLine
 10
-48.04884006662978
 20
671.2826817881466
 30
-0.0000001632354104
 11
-48.04795117774078
 21
671.2826817881466
 31
-0.0000001632354104
  0
LINE
  5
1C3D
330
1F
100
AcDbEntity
  8
SANINDUSA
100
AcDbLine
 10
-48.04934006662978
 20
671.2866817881465
 30
-0.0000001632354104
 11
-48.04934006662978
 21
671.2826817881466
 31
-0.0000001632354104
  0
LINE
  5
1C3E
330
1F
100
AcDbEntity
  8
SANINDUSA
100
AcDbLine
 10
-48.04795117774078
 20
671.2826817881466
 30
-0.0000001632354104
 11
-48.04795117774077
 21
671.3021817881466
 31
-0.0000001632354104
  0
LINE
  5
1C3F
330
1F
100
AcDbEntity
  8
SANINDUSA
100
AcDbLine
 10
-48.04884006662966
 20
671.2866817881465
 30
-0.0000001632354104
 11
-48.04884006662966
 21
671.3076817881466
 31
-0.0000001632354104
  0
ARC
  5
1C40
330
1F
100
AcDbEntity
  8
SANINDUSA
100
AcDbCircle
 10
-47.98984006662977
 20
671.3011817881465
 30
-0.0000001632354104
 40
0.001
100
AcDbArc
 50
0.0
 51
90.0
  0
LINE
  5
1C41
330
1F
100
AcDbEntity
  8
SANINDUSA
100
AcDbLine
 10
-48.12484006662965
 20
671.3011817881465
 30
-0.0000001632354104
 11
-48.12484006662966
 21
671.2681817881466
 31
-0.0000001632354104
  0
LINE
  5
1C42
330
1F
100
AcDbEntity
  8
SANINDUSA
100
AcDbLine
 10
-48.06572895551865
 20
671.2671817881465
 30
-0.0000001632354104
 11
-48.06572895551865
 21
671.2866817881465
 31
-0.0000001632354104
  0
LINE
  5
1C43
330
1F
100
AcDbEntity
  8
SANINDUSA
100
AcDbLine
 10
-48.06484006662978
 20
671.2826817881466
 30
-0.0000001632354104
 11
-48.06484006662978
 21
671.2616817881466
 31
-0.0000001632354104
  0
LINE
  5
1C44
330
1F
100
AcDbEntity
  8
SANINDUSA
100
AcDbLine
 10
-48.12384006662966
 20
671.2671817881465
 30
-0.0000001632354104
 11
-48.06572895551865
 21
671.2671817881465
 31
-0.0000001632354104
  0
ARC
  5
1C45
330
1F
100
AcDbEntity
  8
SANINDUSA
100
AcDbCircle
 10
-48.12384006662966
 20
671.2681817881466
 30
-0.0000001632354104
 40
0.001
100
AcDbArc
 50
180.0
 51
270.0
  0
ARC
  5
1C46
330
1F
100
AcDbEntity
  8
SANINDUSA
100
AcDbCircle
 10
-48.06384006662979
 20
671.2616817881466
 30
-0.0000001632354104
 40
0.001
100
AcDbArc
 50
180.0
 51
270.0
  0
LINE
  5
1C47
330
1F
100
AcDbEntity
  8
SANINDUSA
100
AcDbLine
 10
-48.06484006662966
 20
671.3021817881466
 30
-0.0000001632354104
 11
-48.12384006662965
 21
671.3021817881466
 31
-0.0000001632354104
  0
ARC
  5
1C48
330
1F
100
AcDbEntity
  8
SANINDUSA
100
AcDbCircle
 10
-48.12384006662965
 20
671.3011817881465
 30
-0.0000001632354104
 40
0.001
100
AcDbArc
 50
90.0
 51
180.0
  0
LINE
  5
1C49
330
1F
100
AcDbEntity
  8
SANINDUSA
100
AcDbLine
 10
-48.06434006662978
 20
671.2866817881465
 30
-0.0000001632354104
 11
-48.06434006662978
 21
671.2826817881466
 31
-0.0000001632354104
  0
LINE
  5
1C4A
330
1F
100
AcDbEntity
  8
SANINDUSA
100
AcDbLine
 10
-48.06484006662965
 20
671.3076817881466
 30
-0.0000001632354104
 11
-48.06484006662966
 21
671.3021817881466
 31
-0.0000001632354104
  0
LINE
  5
1C4B
330
1F
100
AcDbEntity
  8
SANINDUSA
100
AcDbLine
 10
-48.06484006662966
 20
671.3021817881466
 30
-0.0000001632354104
 11
-48.06484006662966
 21
671.2866817881465
 31
-0.0000001632354104
  0
ARC
  5
1C4C
330
1F
100
AcDbEntity
  8
SANINDUSA
100
AcDbCircle
 10
-48.06384006662965
 20
671.3076817881466
 30
-0.0000001632354104
 40
0.001
100
AcDbArc
 50
90.0
 51
180.0
  0
LINE
  5
1FBD
330
1F
100
AcDbEntity
  8
SANINDUSA
100
AcDbLine
 10
-48.58514006662965
 20
669.7296817881563
 30
-0.0000001614416147
 11
-47.88434006662965
 21
669.7296817881563
 31
-0.0000001598271986
  0
ENDSEC
  0
SECTION
  2
OBJECTS
  0
DICTIONARY
  5
C
330
0
100
AcDbDictionary
281
     1
  3
ACAD_COLOR
350
1F9A
  3
ACAD_GROUP
350
D
  3
ACAD_LAYOUT
350
1A
  3
ACAD_MATERIAL
350
1F6D
  3
ACAD_MLEADERSTYLE
350
1FAF
  3
ACAD_MLINESTYLE
350
17
  3
ACAD_PLOTSETTINGS
350
19
  3
ACAD_PLOTSTYLENAME
350
E
  3
ACAD_SCALELIST
350
1F9D
  3
ACAD_TABLESTYLE
350
1F9B
  3
ACAD_VISUALSTYLE
350
1F86
  3
ACDB_RECOMPOSE_DATA
350
204A
  3
AcDbVariableDictionary
350
3D
  3
ASE_INDEX_DICTIONARY
350
1F5D
  3
DWGPROPS
350
204B
  0
DICTIONARY
  5
2004
330
8
100
AcDbDictionary
280
     1
281
     1
  0
DICTIONARY
  5
1FE0
330
10
100
AcDbDictionary
280
     1
281
     1
  3
ADSK_XREC_LAYER_RECONCILED
360
1FE1
  0
DICTIONARY
  5
1FE2
330
2F
100
AcDbDictionary
280
     1
281
     1
  3
ADSK_XREC_LAYER_RECONCILED
360
1FE3
  0
DICTIONARY
  5
1FE4
330
30
100
AcDbDictionary
280
     1
281
     1
  3
ADSK_XREC_LAYER_RECONCILED
360
1FE5
  0
DICTIONARY
  5
1FE6
330
31
100
AcDbDictionary
280
     1
281
     1
  3
ADSK_XREC_LAYER_RECONCILED
360
1FE7
  0
DICTIONARY
  5
1FE8
330
32
100
AcDbDictionary
280
     1
281
     1
  3
ADSK_XREC_LAYER_RECONCILED
360
1FE9
  0
DICTIONARY
  5
1FEA
330
33
100
AcDbDictionary
280
     1
281
     1
  3
ADSK_XREC_LAYER_RECONCILED
360
1FEB
  0
DICTIONARY
  5
1FEC
330
34
100
AcDbDictionary
280
     1
281
     1
  3
ADSK_XREC_LAYER_RECONCILED
360
1FED
  0
DICTIONARY
  5
1FEE
330
35
100
AcDbDictionary
280
     1
281
     1
  3
ADSK_XREC_LAYER_RECONCILED
360
1FEF
  0
DICTIONARY
  5
1FF0
330
36
100
AcDbDictionary
280
     1
281
     1
  3
ADSK_XREC_LAYER_RECONCILED
360
1FF1
  0
DICTIONARY
  5
1FF2
330
37
100
AcDbDictionary
280
     1
281
     1
  3
ADSK_XREC_LAYER_RECONCILED
360
1FF3
  0
DICTIONARY
  5
1FF4
330
5D6
100
AcDbDictionary
280
     1
281
     1
  3
ADSK_XREC_LAYER_RECONCILED
360
1FF5
  0
DICTIONARY
  5
1FF6
330
8AF
100
AcDbDictionary
280
     1
281
     1
  3
ADSK_XREC_LAYER_RECONCILED
360
1FF7
  0
DICTIONARY
  5
1FF8
330
8F8
100
AcDbDictionary
280
     1
281
     1
  3
ADSK_XREC_LAYER_RECONCILED
360
1FF9
  0
DICTIONARY
  5
1FFA
330
91D
100
AcDbDictionary
280
     1
281
     1
  3
ADSK_XREC_LAYER_RECONCILED
360
1FFB
  0
DICTIONARY
  5
1FFC
330
D1F
100
AcDbDictionary
280
     1
281
     1
  3
ADSK_XREC_LAYER_RECONCILED
360
1FFD
  0
DICTIONARY
  5
1FFE
330
1FC0
100
AcDbDictionary
280
     1
281
     1
  3
ADSK_XREC_LAYER_RECONCILED
360
1FFF
  0
DICTIONARY
  5
1F9A
102
{ACAD_REACTORS
330
C
102
}
330
C
100
AcDbDictionary
281
     1
  0
DICTIONARY
  5
D
102
{ACAD_REACTORS
330
C
102
}
330
C
100
AcDbDictionary
281
     1
  0
DICTIONARY
  5
1A
102
{ACAD_REACTORS
330
C
102
}
330
C
100
AcDbDictionary
281
     1
  3
Layout1
350
1E
  3
Layout2
350
26
  3
Model
350
22
  0
DICTIONARY
  5
1F6D
102
{ACAD_REACTORS
330
C
102
}
330
C
100
AcDbDictionary
281
     1
  3
ByBlock
350
1F76
  3
ByLayer
350
1F6E
  3
Global
350
1F7E
  0
DICTIONARY
  5
1FAF
102
{ACAD_REACTORS
330
C
102
}
330
C
100
AcDbDictionary
281
     1
  3
Standard
350
1FB0
  0
DICTIONARY
  5
17
102
{ACAD_REACTORS
330
C
102
}
330
C
100
AcDbDictionary
281
     1
  3
Standard
350
18
  0
DICTIONARY
  5
19
102
{ACAD_REACTORS
330
C
102
}
330
C
100
AcDbDictionary
281
     1
  0
ACDBDICTIONARYWDFLT
  5
E
102
{ACAD_REACTORS
330
C
102
}
330
C
100
AcDbDictionary
281
     1
  3
Normal
350
F
100
AcDbDictionaryWithDefault
340
F
  0
DICTIONARY
  5
1F9D
102
{ACAD_REACTORS
330
C
102
}
330
C
100
AcDbDictionary
281
     1
  3
A0
350
1F9E
  3
A1
350
1F9F
  3
A2
350
1FA0
  3
A3
350
1FA1
  3
A4
350
1FA2
  3
A5
350
1FA3
  3
A6
350
1FA4
  3
A7
350
1FA5
  3
A8
350
1FA6
  3
A9
350
1FA7
  3
B0
350
1FA8
  3
B1
350
1FA9
  3
B2
350
1FAA
  3
B3
350
1FAB
  3
B4
350
1FAC
  3
B5
350
1FAD
  3
B6
350
1FAE
  0
DICTIONARY
  5
1F9B
102
{ACAD_REACTORS
330
C
102
}
330
C
100
AcDbDictionary
281
     1
  3
Standard
350
1F9C
  0
DICTIONARY
  5
1F86
102
{ACAD_REACTORS
330
C
102
}
330
C
100
AcDbDictionary
281
     1
  3
2dWireframe
350
1F8C
  3
3D Hidden
350
1F8E
  3
3dWireframe
350
1F8D
  3
Basic
350
1F8B
  3
Brighten
350
1F92
  3
ColorChange
350
1F96
  3
Conceptual
350
1F8F
  3
Dim
350
1F91
  3
EdgeColorOff
350
1F99
  3
Facepattern
350
1F95
  3
Flat
350
1F87
  3
FlatWithEdges
350
1F88
  3
Gouraud
350
1F89
  3
GouraudWithEdges
350
1F8A
  3
JitterOff
350
1F97
  3
Linepattern
350
1F94
  3
OverhangOff
350
1F98
  3
Realistic
350
1F90
  3
Thicken
350
1F93
  0
XRECORD
  5
204A
102
{ACAD_REACTORS
330
C
102
}
330
C
100
AcDbXrecord
280
     1
 90
        1
330
1F9C
  0
DICTIONARY
  5
3D
102
{ACAD_REACTORS
330
C
102
}
330
C
100
AcDbDictionary
281
     1
  3
CANNOSCALE
350
203D
  3
CMLEADERSTYLE
350
203C
  3
CTABLESTYLE
350
203B
  3
DIMASSOC
350
3F
  3
HIDETEXT
350
3E
  3
INDEXCTL
350
203F
  3
SORTENTS
350
203E
  3
XCLIPFRAME
350
2048
  0
DICTIONARY
  5
1F5D
102
{ACAD_REACTORS
330
C
102
}
330
C
100
AcDbDictionary
281
     1
  3
ASEBlockHierarchyIndexRecord
350
1F5E
1001
DCO15
1040
1508217025.765
  0
XRECORD
  5
204B
102
{ACAD_REACTORS
330
C
102
}
330
C
100
AcDbXrecord
280
     1
  1
DWGPROPS COOKIE
  2

  3

  4

  6

  7

  8
Julio
  9

300
=
301
=
302
=
303
=
304
=
305
=
306
=
307
=
308
=
309
=
 40
0.1251437847222222
 41
2453258.720112477
 42
2455817.483921435
  1

 90
        0
  0
XRECORD
  5
1FE1
102
{ACAD_REACTORS
330
1FE0
102
}
330
1FE0
100
AcDbXrecord
280
     1
290
     1
  0
XRECORD
  5
1FE3
102
{ACAD_REACTORS
330
1FE2
102
}
330
1FE2
100
AcDbXrecord
280
     1
290
     1
  0
XRECORD
  5
1FE5
102
{ACAD_REACTORS
330
1FE4
102
}
330
1FE4
100
AcDbXrecord
280
     1
290
     1
  0
XRECORD
  5
1FE7
102
{ACAD_REACTORS
330
1FE6
102
}
330
1FE6
100
AcDbXrecord
280
     1
290
     1
  0
XRECORD
  5
1FE9
102
{ACAD_REACTORS
330
1FE8
102
}
330
1FE8
100
AcDbXrecord
280
     1
290
     1
  0
XRECORD
  5
1FEB
102
{ACAD_REACTORS
330
1FEA
102
}
330
1FEA
100
AcDbXrecord
280
     1
290
     1
  0
XRECORD
  5
1FED
102
{ACAD_REACTORS
330
1FEC
102
}
330
1FEC
100
AcDbXrecord
280
     1
290
     1
  0
XRECORD
  5
1FEF
102
{ACAD_REACTORS
330
1FEE
102
}
330
1FEE
100
AcDbXrecord
280
     1
290
     1
  0
XRECORD
  5
1FF1
102
{ACAD_REACTORS
330
1FF0
102
}
330
1FF0
100
AcDbXrecord
280
     1
290
     1
  0
XRECORD
  5
1FF3
102
{ACAD_REACTORS
330
1FF2
102
}
330
1FF2
100
AcDbXrecord
280
     1
290
     1
  0
XRECORD
  5
1FF5
102
{ACAD_REACTORS
330
1FF4
102
}
330
1FF4
100
AcDbXrecord
280
     1
290
     1
  0
XRECORD
  5
1FF7
102
{ACAD_REACTORS
330
1FF6
102
}
330
1FF6
100
AcDbXrecord
280
     1
290
     1
  0
XRECORD
  5
1FF9
102
{ACAD_REACTORS
330
1FF8
102
}
330
1FF8
100
AcDbXrecord
280
     1
290
     1
  0
XRECORD
  5
1FFB
102
{ACAD_REACTORS
330
1FFA
102
}
330
1FFA
100
AcDbXrecord
280
     1
290
     1
  0
XRECORD
  5
1FFD
102
{ACAD_REACTORS
330
1FFC
102
}
330
1FFC
100
AcDbXrecord
280
     1
290
     1
  0
XRECORD
  5
1FFF
102
{ACAD_REACTORS
330
1FFE
102
}
330
1FFE
100
AcDbXrecord
280
     1
290
     1
  0
LAYOUT
  5
1E
102
{ACAD_XDICTIONARY
360
204C
102
}
102
{ACAD_REACTORS
330
1A
102
}
330
1A
100
AcDbPlotSettings
  1

  2
Ploter HP500
  4

  6

 40
0.0
 41
0.0
 42
0.0
 43
0.0
 44
0.0
 45
0.0
 46
0.0
 47
0.0
 48
0.0
 49
0.0
140
0.0
141
0.0
142
1.0
143
1.0
 70
   688
 72
     0
 73
     0
 74
     5
  7
sanindusa.ctb
 75
    16
147
1.0
148
0.0
149
0.0
100
AcDbLayout
  1
Layout1
 70
     1
 71
     1
 10
0.0
 20
0.0
 11
420.0
 21
297.0
 12
0.0
 22
0.0
 32
0.0
 14
1.000000000000000E+20
 24
1.000000000000000E+20
 34
1.000000000000000E+20
 15
-1.000000000000000E+20
 25
-1.000000000000000E+20
 35
-1.000000000000000E+20
146
0.0
 13
0.0
 23
0.0
 33
0.0
 16
1.0
 26
0.0
 36
0.0
 17
0.0
 27
1.0
 37
0.0
 76
     0
330
1B
  0
LAYOUT
  5
26
102
{ACAD_XDICTIONARY
360
2050
102
}
102
{ACAD_REACTORS
330
1A
102
}
330
1A
100
AcDbPlotSettings
  1

  2
Ploter HP500
  4

  6

 40
0.0
 41
0.0
 42
0.0
 43
0.0
 44
0.0
 45
0.0
 46
0.0
 47
0.0
 48
0.0
 49
0.0
140
0.0
141
0.0
142
1.0
143
1.0
 70
   688
 72
     0
 73
     0
 74
     5
  7
sanindusa.ctb
 75
    16
147
1.0
148
0.0
149
0.0
100
AcDbLayout
  1
Layout2
 70
     1
 71
     2
 10
0.0
 20
0.0
 11
12.0
 21
9.0
 12
0.0
 22
0.0
 32
0.0
 14
0.0
 24
0.0
 34
0.0
 15
0.0
 25
0.0
 35
0.0
146
0.0
 13
0.0
 23
0.0
 33
0.0
 16
1.0
 26
0.0
 36
0.0
 17
0.0
 27
1.0
 37
0.0
 76
     0
330
23
  0
LAYOUT
  5
22
102
{ACAD_XDICTIONARY
360
204E
102
}
102
{ACAD_REACTORS
330
1A
102
}
330
1A
100
AcDbPlotSettings
  1

  2
Ploter HP500
  4
User268
  6

 40
4.995333194732666
 41
16.97565841674804
 42
4.995330810546875
 43
16.97567749023437
 44
209.9733276367187
 45
296.9259948730469
 46
0.0
 47
0.0
 48
0.0
 49
0.0
140
0.0
141
0.0
142
1.0
143
1.0
 70
 11952
 72
     1
 73
     1
 74
     0
  7

 75
     0
147
1.0
148
-427.5957866592534
149
7.362384574453926
100
AcDbLayout
  1
Model
 70
     1
 71
     0
 10
0.0
 20
0.0
 11
12.0
 21
9.0
 12
0.0
 22
0.0
 32
0.0
 14
0.0
 24
0.0
 34
0.0
 15
0.0
 25
0.0
 35
0.0
146
0.0
 13
0.0
 23
0.0
 33
0.0
 16
1.0
 26
0.0
 36
0.0
 17
0.0
 27
1.0
 37
0.0
 76
     0
330
1F
331
1F6B
  0
MATERIAL
  5
1F76
102
{ACAD_XDICTIONARY
360
1F77
102
}
102
{ACAD_REACTORS
330
1F6D
102
}
330
1F6D
100
AcDbMaterial
  1
ByBlock
 72
     0
 43
0.0008202099737533
 43
0.0
 43
0.0
 43
0.0
 43
0.0
 43
0.0008202099737533
 43
0.0
 43
0.0
 43
0.0
 43
0.0
 43
1.0
 43
0.0
 43
0.0
 43
0.0
 43
0.0
 43
1.0
 77
     0
 47
0.0008202099737533
 47
0.0
 47
0.0
 47
0.0
 47
0.0
 47
0.0008202099737533
 47
0.0
 47
0.0
 47
0.0
 47
0.0
 47
1.0
 47
0.0
 47
0.0
 47
0.0
 47
0.0
 47
1.0
171
     0
 49
0.0008202099737533
 49
0.0
 49
0.0
 49
0.0
 49
0.0
 49
0.0008202099737533
 49
0.0
 49
0.0
 49
0.0
 49
0.0
 49
1.0
 49
0.0
 49
0.0
 49
0.0
 49
0.0
 49
1.0
175
     0
142
0.0008202099737533
142
0.0
142
0.0
142
0.0
142
0.0
142
0.0008202099737533
142
0.0
142
0.0
142
0.0
142
0.0
142
1.0
142
0.0
142
0.0
142
0.0
142
0.0
142
1.0
179
     0
144
0.0008202099737533
144
0.0
144
0.0
144
0.0
144
0.0
144
0.0008202099737533
144
0.0
144
0.0
144
0.0
144
0.0
144
1.0
144
0.0
144
0.0
144
0.0
144
0.0
144
1.0
147
0.0008202099737533
147
0.0
147
0.0
147
0.0
147
0.0
147
0.0008202099737533
147
0.0
147
0.0
147
0.0
147
0.0
147
1.0
147
0.0
147
0.0
147
0.0
147
0.0
147
1.0
  0
MATERIAL
  5
1F6E
102
{ACAD_XDICTIONARY
360
1F6F
102
}
102
{ACAD_REACTORS
330
1F6D
102
}
330
1F6D
100
AcDbMaterial
  1
ByLayer
 72
     0
 43
0.0008202099737533
 43
0.0
 43
0.0
 43
0.0
 43
0.0
 43
0.0008202099737533
 43
0.0
 43
0.0
 43
0.0
 43
0.0
 43
1.0
 43
0.0
 43
0.0
 43
0.0
 43
0.0
 43
1.0
 77
     0
 47
0.0008202099737533
 47
0.0
 47
0.0
 47
0.0
 47
0.0
 47
0.0008202099737533
 47
0.0
 47
0.0
 47
0.0
 47
0.0
 47
1.0
 47
0.0
 47
0.0
 47
0.0
 47
0.0
 47
1.0
171
     0
 49
0.0008202099737533
 49
0.0
 49
0.0
 49
0.0
 49
0.0
 49
0.0008202099737533
 49
0.0
 49
0.0
 49
0.0
 49
0.0
 49
1.0
 49
0.0
 49
0.0
 49
0.0
 49
0.0
 49
1.0
175
     0
142
0.0008202099737533
142
0.0
142
0.0
142
0.0
142
0.0
142
0.0008202099737533
142
0.0
142
0.0
142
0.0
142
0.0
142
1.0
142
0.0
142
0.0
142
0.0
142
0.0
142
1.0
179
     0
144
0.0008202099737533
144
0.0
144
0.0
144
0.0
144
0.0
144
0.0008202099737533
144
0.0
144
0.0
144
0.0
144
0.0
144
1.0
144
0.0
144
0.0
144
0.0
144
0.0
144
1.0
147
0.0008202099737533
147
0.0
147
0.0
147
0.0
147
0.0
147
0.0008202099737533
147
0.0
147
0.0
147
0.0
147
0.0
147
1.0
147
0.0
147
0.0
147
0.0
147
0.0
147
1.0
  0
MATERIAL
  5
1F7E
102
{ACAD_XDICTIONARY
360
1F7F
102
}
102
{ACAD_REACTORS
330
1F6D
102
}
330
1F6D
100
AcDbMaterial
  1
Global
 72
     0
 43
0.0008202099737533
 43
0.0
 43
0.0
 43
0.0
 43
0.0
 43
0.0008202099737533
 43
0.0
 43
0.0
 43
0.0
 43
0.0
 43
1.0
 43
0.0
 43
0.0
 43
0.0
 43
0.0
 43
1.0
 77
     0
 47
0.0008202099737533
 47
0.0
 47
0.0
 47
0.0
 47
0.0
 47
0.0008202099737533
 47
0.0
 47
0.0
 47
0.0
 47
0.0
 47
1.0
 47
0.0
 47
0.0
 47
0.0
 47
0.0
 47
1.0
171
     0
 49
0.0008202099737533
 49
0.0
 49
0.0
 49
0.0
 49
0.0
 49
0.0008202099737533
 49
0.0
 49
0.0
 49
0.0
 49
0.0
 49
1.0
 49
0.0
 49
0.0
 49
0.0
 49
0.0
 49
1.0
175
     0
142
0.0008202099737533
142
0.0
142
0.0
142
0.0
142
0.0
142
0.0008202099737533
142
0.0
142
0.0
142
0.0
142
0.0
142
1.0
142
0.0
142
0.0
142
0.0
142
0.0
142
1.0
179
     0
144
0.0008202099737533
144
0.0
144
0.0
144
0.0
144
0.0
144
0.0008202099737533
144
0.0
144
0.0
144
0.0
144
0.0
144
1.0
144
0.0
144
0.0
144
0.0
144
0.0
144
1.0
147
0.0008202099737533
147
0.0
147
0.0
147
0.0
147
0.0
147
0.0008202099737533
147
0.0
147
0.0
147
0.0
147
0.0
147
1.0
147
0.0
147
0.0
147
0.0
147
0.0
147
1.0
  0
MLEADERSTYLE
  5
1FB0
102
{ACAD_REACTORS
330
1FAF
102
}
330
1FAF
100
AcDbMLeaderStyle
170
     2
171
     1
172
     0
 90
        2
 40
0.0
 41
0.0
173
     1
 91
-1056964608
340
14
 92
       -2
290
     1
 42
2.0
291
     1
 43
0.36
  3
Standard
 44
4.0
300

342
11
174
     1
178
     6
175
     1
176
     0
 93
-1056964608
 45
4.0
292
     0
297
     0
 46
4.0
 94
-1056964608
 47
1.0
 49
1.0
140
1.0
293
     1
141
0.0
294
     1
177
     0
142
1.0
295
     0
296
     0
143
0.125
1001
ACAD_MLEADERVER
1070
     2
  0
MLINESTYLE
  5
18
102
{ACAD_REACTORS
330
17
102
}
330
17
100
AcDbMlineStyle
  2
STANDARD
 70
     0
  3

 62
   256
 51
90.0
 52
90.0
 71
     2
 49
0.5
 62
   256
  6
BYLAYER
 49
-0.5
 62
   256
  6
BYLAYER
  0
ACDBPLACEHOLDER
  5
F
102
{ACAD_REACTORS
330
E
102
}
330
E
  0
SCALE
  5
1F9E
102
{ACAD_REACTORS
330
1F9D
102
}
330
1F9D
100
AcDbScale
 70
     0
300
1:1
140
1.0
141
1.0
290
     1
  0
SCALE
  5
1F9F
102
{ACAD_REACTORS
330
1F9D
102
}
330
1F9D
100
AcDbScale
 70
     0
300
1:2
140
1.0
141
2.0
290
     0
  0
SCALE
  5
1FA0
102
{ACAD_REACTORS
330
1F9D
102
}
330
1F9D
100
AcDbScale
 70
     0
300
1:4
140
1.0
141
4.0
290
     0
  0
SCALE
  5
1FA1
102
{ACAD_REACTORS
330
1F9D
102
}
330
1F9D
100
AcDbScale
 70
     0
300
1:5
140
1.0
141
5.0
290
     0
  0
SCALE
  5
1FA2
102
{ACAD_REACTORS
330
1F9D
102
}
330
1F9D
100
AcDbScale
 70
     0
300
1:8
140
1.0
141
8.0
290
     0
  0
SCALE
  5
1FA3
102
{ACAD_REACTORS
330
1F9D
102
}
330
1F9D
100
AcDbScale
 70
     0
300
1:10
140
1.0
141
10.0
290
     0
  0
SCALE
  5
1FA4
102
{ACAD_REACTORS
330
1F9D
102
}
330
1F9D
100
AcDbScale
 70
     0
300
1:16
140
1.0
141
16.0
290
     0
  0
SCALE
  5
1FA5
102
{ACAD_REACTORS
330
1F9D
102
}
330
1F9D
100
AcDbScale
 70
     0
300
1:20
140
1.0
141
20.0
290
     0
  0
SCALE
  5
1FA6
102
{ACAD_REACTORS
330
1F9D
102
}
330
1F9D
100
AcDbScale
 70
     0
300
1:30
140
1.0
141
30.0
290
     0
  0
SCALE
  5
1FA7
102
{ACAD_REACTORS
330
1F9D
102
}
330
1F9D
100
AcDbScale
 70
     0
300
1:40
140
1.0
141
40.0
290
     0
  0
SCALE
  5
1FA8
102
{ACAD_REACTORS
330
1F9D
102
}
330
1F9D
100
AcDbScale
 70
     0
300
1:50
140
1.0
141
50.0
290
     0
  0
SCALE
  5
1FA9
102
{ACAD_REACTORS
330
1F9D
102
}
330
1F9D
100
AcDbScale
 70
     0
300
1:100
140
1.0
141
100.0
290
     0
  0
SCALE
  5
1FAA
102
{ACAD_REACTORS
330
1F9D
102
}
330
1F9D
100
AcDbScale
 70
     0
300
2:1
140
2.0
141
1.0
290
     0
  0
SCALE
  5
1FAB
102
{ACAD_REACTORS
330
1F9D
102
}
330
1F9D
100
AcDbScale
 70
     0
300
4:1
140
4.0
141
1.0
290
     0
  0
SCALE
  5
1FAC
102
{ACAD_REACTORS
330
1F9D
102
}
330
1F9D
100
AcDbScale
 70
     0
300
8:1
140
8.0
141
1.0
290
     0
  0
SCALE
  5
1FAD
102
{ACAD_REACTORS
330
1F9D
102
}
330
1F9D
100
AcDbScale
 70
     0
300
10:1
140
10.0
141
1.0
290
     0
  0
SCALE
  5
1FAE
102
{ACAD_REACTORS
330
1F9D
102
}
330
1F9D
100
AcDbScale
 70
     0
300
100:1
140
100.0
141
1.0
290
     0
  0
TABLESTYLE
  5
1F9C
102
{ACAD_XDICTIONARY
360
2000
102
}
102
{ACAD_REACTORS
330
1F9B
102
}
330
1F9B
100
AcDbTableStyle
  3
Standard
 70
     0
 71
     0
 40
1.5
 41
1.5
280
     0
281
     0
  7
Standard
140
4.5
170
     2
 62
     0
 63
     7
283
     0
274
    -2
284
     1
 64
     0
275
    -2
285
     1
 65
     0
276
    -2
286
     1
 66
     0
277
    -2
287
     1
 67
     0
278
    -2
288
     1
 68
     0
279
    -2
289
     1
 69
     0
  7
Standard
140
6.0
170
     5
 62
     0
 63
     7
283
     0
274
    -2
284
     1
 64
     0
275
    -2
285
     1
 65
     0
276
    -2
286
     1
 66
     0
277
    -2
287
     1
 67
     0
278
    -2
288
     1
 68
     0
279
    -2
289
     1
 69
     0
  7
Standard
140
4.5
170
     5
 62
     0
 63
     7
283
     0
274
    -2
284
     1
 64
     0
275
    -2
285
     1
 65
     0
276
    -2
286
     1
 66
     0
277
    -2
287
     1
 67
     0
278
    -2
288
     1
 68
     0
279
    -2
289
     1
 69
     0
  0
VISUALSTYLE
  5
1F8C
102
{ACAD_XDICTIONARY
360
2061
102
}
102
{ACAD_REACTORS
330
1F86
102
}
330
1F86
100
AcDbVisualStyle
  2
2dWireframe
 70
     4
 71
     0
 72
     2
 73
     0
 90
        0
 40
-0.6
 41
-30.0
 62
     5
 63
     7
 74
     1
 91
        4
 64
     7
 65
   257
 75
     1
175
     1
 42
1.0
 92
        0
 66
   257
 43
1.0
 76
     1
 77
     6
 78
     2
 67
     7
 79
     5
170
     0
171
     0
290
     0
174
     0
 93
        1
 44
0.0
173
     0
291
     0
 45
0.0
1001
ACAD
1000
AcDbSavedByObjectVersion
1070
     0
  0
VISUALSTYLE
  5
1F8E
102
{ACAD_XDICTIONARY
360
2065
102
}
102
{ACAD_REACTORS
330
1F86
102
}
330
1F86
100
AcDbVisualStyle
  2
3D Hidden
 70
     6
 71
     1
 72
     2
 73
     2
 90
        0
 40
-0.6
 41
-30.0
 62
     5
 63
     7
 74
     2
 91
        2
 64
     7
 65
   257
 75
     2
175
     1
 42
179.0
 92
        0
 66
   257
 43
1.0
 76
     1
 77
     6
 78
     2
 67
     7
 79
     3
170
     0
171
     0
290
     0
174
     0
 93
        1
 44
0.0
173
     0
291
     0
 45
0.0
1001
ACAD
1000
AcDbSavedByObjectVersion
1070
     0
  0
VISUALSTYLE
  5
1F8D
102
{ACAD_XDICTIONARY
360
2063
102
}
102
{ACAD_REACTORS
330
1F86
102
}
330
1F86
100
AcDbVisualStyle
  2
3dWireframe
 70
     5
 71
     0
 72
     2
 73
     0
 90
        0
 40
-0.6
 41
-30.0
 62
     5
 63
     7
 74
     1
 91
        4
 64
     7
 65
   257
 75
     1
175
     1
 42
1.0
 92
        0
 66
   257
 43
1.0
 76
     1
 77
     6
 78
     2
 67
     7
 79
     5
170
     0
171
     0
290
     0
174
     0
 93
        1
 44
0.0
173
     0
291
     0
 45
0.0
1001
ACAD
1000
AcDbSavedByObjectVersion
1070
     0
  0
VISUALSTYLE
  5
1F8B
102
{ACAD_XDICTIONARY
360
205F
102
}
102
{ACAD_REACTORS
330
1F86
102
}
330
1F86
100
AcDbVisualStyle
  2
Basic
 70
     7
 71
     1
 72
     0
 73
     1
 90
        0
 40
-0.6
 41
-30.0
 62
     5
 63
     7
 74
     0
 91
        4
 64
     7
 65
   257
 75
     1
175
     1
 42
1.0
 92
        8
 66
     7
 43
1.0
 76
     1
 77
     6
 78
     2
 67
     7
 79
     5
170
     0
171
     0
290
     0
174
     0
 93
        1
 44
0.0
173
     0
291
     1
 45
0.0
1001
ACAD
1000
AcDbSavedByObjectVersion
1070
     0
  0
VISUALSTYLE
  5
1F92
102
{ACAD_XDICTIONARY
360
206D
102
}
102
{ACAD_REACTORS
330
1F86
102
}
330
1F86
100
AcDbVisualStyle
  2
Brighten
 70
    12
 71
     2
 72
     2
 73
     0
 90
        0
 40
-0.6
 41
-30.0
 62
     5
 63
     7
 74
     1
 91
        4
 64
     7
 65
   257
 75
     1
175
     1
 42
1.0
 92
        8
 66
     7
 43
1.0
 76
     1
 77
     6
 78
     2
 67
     7
 79
     5
170
     0
171
     0
290
     0
174
     0
 93
        1
 44
50.0
173
     0
291
     1
 45
0.0
1001
ACAD
1000
AcDbSavedByObjectVersion
1070
     0
  0
VISUALSTYLE
  5
1F96
102
{ACAD_XDICTIONARY
360
2075
102
}
102
{ACAD_REACTORS
330
1F86
102
}
330
1F86
100
AcDbVisualStyle
  2
ColorChange
 70
    16
 71
     2
 72
     2
 73
     3
 90
        0
 40
-0.6
 41
-30.0
 62
     5
 63
     8
 74
     1
 91
        4
 64
     7
 65
   257
 75
     1
175
     1
 42
1.0
 92
        8
 66
     8
 43
1.0
 76
     1
 77
     6
 78
     2
 67
     7
 79
     5
170
     0
171
     0
290
     0
174
     0
 93
        1
 44
0.0
173
     0
291
     1
 45
0.0
1001
ACAD
1000
AcDbSavedByObjectVersion
1070
     0
  0
VISUALSTYLE
  5
1F8F
102
{ACAD_XDICTIONARY
360
2067
102
}
102
{ACAD_REACTORS
330
1F86
102
}
330
1F86
100
AcDbVisualStyle
  2
Conceptual
 70
     9
 71
     3
 72
     2
 73
     0
 90
        0
 40
-0.6
 41
-30.0
 62
     5
 63
     7
 74
     2
 91
        2
 64
     7
 65
   257
 75
     1
175
     1
 42
179.0
 92
        8
 66
     7
 43
1.0
 76
     1
 77
     6
 78
     2
 67
     7
 79
     3
170
     0
171
     0
290
     0
174
     0
 93
        1
 44
0.0
173
     0
291
     0
 45
0.0
1001
ACAD
1000
AcDbSavedByObjectVersion
1070
     0
  0
VISUALSTYLE
  5
1F91
102
{ACAD_XDICTIONARY
360
206B
102
}
102
{ACAD_REACTORS
330
1F86
102
}
330
1F86
100
AcDbVisualStyle
  2
Dim
 70
    11
 71
     2
 72
     2
 73
     0
 90
        0
 40
-0.6
 41
-30.0
 62
     5
 63
     7
 74
     1
 91
        4
 64
     7
 65
   257
 75
     1
175
     1
 42
1.0
 92
        8
 66
     7
 43
1.0
 76
     1
 77
     6
 78
     2
 67
     7
 79
     5
170
     0
171
     0
290
     0
174
     0
 93
        1
 44
-50.0
173
     0
291
     1
 45
0.0
1001
ACAD
1000
AcDbSavedByObjectVersion
1070
     0
  0
VISUALSTYLE
  5
1F99
102
{ACAD_XDICTIONARY
360
207B
102
}
102
{ACAD_REACTORS
330
1F86
102
}
330
1F86
100
AcDbVisualStyle
  2
EdgeColorOff
 70
    22
 71
     2
 72
     2
 73
     0
 90
        0
 40
-0.6
 41
-30.0
 62
     5
 63
     7
 74
     1
 91
        4
 64
     7
 65
   257
 75
     1
175
     1
 42
1.0
 92
        8
 66
     7
 43
1.0
 76
     1
 77
     6
 78
     2
 67
     7
 79
     5
170
     0
171
     0
290
     0
174
     0
 93
        1
 44
0.0
173
     0
291
     1
 45
0.0
1001
ACAD
1000
AcDbSavedByObjectVersion
1070
     0
  0
VISUALSTYLE
  5
1F95
102
{ACAD_XDICTIONARY
360
2073
102
}
102
{ACAD_REACTORS
330
1F86
102
}
330
1F86
100
AcDbVisualStyle
  2
Facepattern
 70
    15
 71
     2
 72
     2
 73
     0
 90
        0
 40
-0.6
 41
-30.0
 62
     5
 63
     7
 74
     1
 91
        4
 64
     7
 65
   257
 75
     1
175
     1
 42
1.0
 92
        8
 66
     7
 43
1.0
 76
     1
 77
     6
 78
     2
 67
     7
 79
     5
170
     0
171
     0
290
     0
174
     0
 93
        1
 44
0.0
173
     0
291
     1
 45
0.0
1001
ACAD
1000
AcDbSavedByObjectVersion
1070
     0
  0
VISUALSTYLE
  5
1F87
102
{ACAD_XDICTIONARY
360
2057
102
}
102
{ACAD_REACTORS
330
1F86
102
}
330
1F86
100
AcDbVisualStyle
  2
Flat
 70
     0
 71
     2
 72
     1
 73
     1
 90
        2
 40
-0.6
 41
30.0
 62
     5
 63
     7
 74
     0
 91
        4
 64
     7
 65
   257
 75
     1
175
     1
 42
1.0
 92
        8
 66
     7
 43
1.0
 76
     1
 77
     6
 78
     2
 67
     7
 79
     5
170
     0
171
     0
290
     0
174
     0
 93
       13
 44
0.0
173
     0
291
     1
 45
0.0
1001
ACAD
1000
AcDbSavedByObjectVersion
1070
     0
  0
VISUALSTYLE
  5
1F88
102
{ACAD_XDICTIONARY
360
2059
102
}
102
{ACAD_REACTORS
330
1F86
102
}
330
1F86
100
AcDbVisualStyle
  2
FlatWithEdges
 70
     1
 71
     2
 72
     1
 73
     1
 90
        2
 40
-0.6
 41
30.0
 62
     5
 63
     7
 74
     1
 91
        4
 64
     7
 65
   257
 75
     1
175
     1
 42
1.0
 92
        0
 66
   257
 43
1.0
 76
     1
 77
     6
 78
     2
 67
     7
 79
     5
170
     0
171
     0
290
     0
174
     0
 93
       13
 44
0.0
173
     0
291
     1
 45
0.0
1001
ACAD
1000
AcDbSavedByObjectVersion
1070
     0
  0
VISUALSTYLE
  5
1F89
102
{ACAD_XDICTIONARY
360
205B
102
}
102
{ACAD_REACTORS
330
1F86
102
}
330
1F86
100
AcDbVisualStyle
  2
Gouraud
 70
     2
 71
     2
 72
     2
 73
     1
 90
        2
 40
-0.6
 41
30.0
 62
     5
 63
     7
 74
     0
 91
        4
 64
     7
 65
   257
 75
     1
175
     1
 42
1.0
 92
        0
 66
     7
 43
1.0
 76
     1
 77
     6
 78
     2
 67
     7
 79
     5
170
     0
171
     0
290
     0
174
     0
 93
       13
 44
0.0
173
     0
291
     1
 45
0.0
1001
ACAD
1000
AcDbSavedByObjectVersion
1070
     0
  0
VISUALSTYLE
  5
1F8A
102
{ACAD_XDICTIONARY
360
205D
102
}
102
{ACAD_REACTORS
330
1F86
102
}
330
1F86
100
AcDbVisualStyle
  2
GouraudWithEdges
 70
     3
 71
     2
 72
     2
 73
     1
 90
        2
 40
-0.6
 41
30.0
 62
     5
 63
     7
 74
     1
 91
        4
 64
     7
 65
   257
 75
     1
175
     1
 42
1.0
 92
        0
 66
   257
 43
1.0
 76
     1
 77
     6
 78
     2
 67
     7
 79
     5
170
     0
171
     0
290
     0
174
     0
 93
       13
 44
0.0
173
     0
291
     1
 45
0.0
1001
ACAD
1000
AcDbSavedByObjectVersion
1070
     0
  0
VISUALSTYLE
  5
1F97
102
{ACAD_XDICTIONARY
360
2077
102
}
102
{ACAD_REACTORS
330
1F86
102
}
330
1F86
100
AcDbVisualStyle
  2
JitterOff
 70
    20
 71
     2
 72
     2
 73
     0
 90
        0
 40
-0.6
 41
-30.0
 62
     5
 63
     7
 74
     1
 91
        4
 64
     7
 65
   257
 75
     1
175
     1
 42
1.0
 92
       10
 66
     7
 43
1.0
 76
     1
 77
     6
 78
     2
 67
     7
 79
     5
170
     0
171
     0
290
     0
174
     0
 93
        1
 44
0.0
173
     0
291
     1
 45
0.0
1001
ACAD
1000
AcDbSavedByObjectVersion
1070
     0
  0
VISUALSTYLE
  5
1F94
102
{ACAD_XDICTIONARY
360
2071
102
}
102
{ACAD_REACTORS
330
1F86
102
}
330
1F86
100
AcDbVisualStyle
  2
Linepattern
 70
    14
 71
     2
 72
     2
 73
     0
 90
        0
 40
-0.6
 41
-30.0
 62
     5
 63
     7
 74
     1
 91
        4
 64
     7
 65
   257
 75
     7
175
     7
 42
1.0
 92
        8
 66
     7
 43
1.0
 76
     1
 77
     6
 78
     2
 67
     7
 79
     5
170
     0
171
     0
290
     0
174
     0
 93
        1
 44
0.0
173
     0
291
     1
 45
0.0
1001
ACAD
1000
AcDbSavedByObjectVersion
1070
     0
  0
VISUALSTYLE
  5
1F98
102
{ACAD_XDICTIONARY
360
2079
102
}
102
{ACAD_REACTORS
330
1F86
102
}
330
1F86
100
AcDbVisualStyle
  2
OverhangOff
 70
    21
 71
     2
 72
     2
 73
     0
 90
        0
 40
-0.6
 41
-30.0
 62
     5
 63
     7
 74
     1
 91
        4
 64
     7
 65
   257
 75
     1
175
     1
 42
1.0
 92
        9
 66
     7
 43
1.0
 76
     1
 77
     6
 78
     2
 67
     7
 79
     5
170
     0
171
     0
290
     0
174
     0
 93
        1
 44
0.0
173
     0
291
     1
 45
0.0
1001
ACAD
1000
AcDbSavedByObjectVersion
1070
     0
  0
VISUALSTYLE
  5
1F90
102
{ACAD_XDICTIONARY
360
2069
102
}
102
{ACAD_REACTORS
330
1F86
102
}
330
1F86
100
AcDbVisualStyle
  2
Realistic
 70
     8
 71
     2
 72
     2
 73
     0
 90
        0
 40
-0.6
 41
-30.0
 62
     5
 63
     7
 74
     1
 91
        0
 64
     7
 65
   257
 75
     1
175
     1
 42
1.0
 92
        8
 66
     8
 43
1.0
 76
     1
 77
     6
 78
     2
 67
     7
 79
     5
170
     0
171
     0
290
     0
174
     0
 93
       13
 44
0.0
173
     0
291
     0
 45
0.0
1001
ACAD
1000
AcDbSavedByObjectVersion
1070
     0
  0
VISUALSTYLE
  5
1F93
102
{ACAD_XDICTIONARY
360
206F
102
}
102
{ACAD_REACTORS
330
1F86
102
}
330
1F86
100
AcDbVisualStyle
  2
Thicken
 70
    13
 71
     2
 72
     2
 73
     0
 90
        0
 40
-0.6
 41
-30.0
 62
     5
 63
     7
 74
     1
 91
        4
 64
     7
 65
   257
 75
     1
175
     1
 42
1.0
 92
       12
 66
     7
 43
1.0
 76
     1
 77
     6
 78
     2
 67
     7
 79
     5
170
     0
171
     0
290
     0
174
     0
 93
        1
 44
0.0
173
     0
291
     1
 45
0.0
1001
ACAD
1000
AcDbSavedByObjectVersion
1070
     0
  0
DICTIONARYVAR
  5
203D
102
{ACAD_REACTORS
330
3D
102
}
330
3D
100
DictionaryVariables
280
     0
  1
1:1
  0
DICTIONARYVAR
  5
203C
102
{ACAD_REACTORS
330
3D
102
}
330
3D
100
DictionaryVariables
280
     0
  1
STANDARD
  0
DICTIONARYVAR
  5
203B
102
{ACAD_REACTORS
330
3D
102
}
330
3D
100
DictionaryVariables
280
     0
  1
STANDARD
  0
DICTIONARYVAR
  5
3F
102
{ACAD_REACTORS
330
3D
102
}
330
3D
100
DictionaryVariables
280
     0
  1
2
  0
DICTIONARYVAR
  5
3E
102
{ACAD_REACTORS
330
3D
102
}
330
3D
100
DictionaryVariables
280
     0
  1
1
  0
DICTIONARYVAR
  5
203F
102
{ACAD_REACTORS
330
3D
102
}
330
3D
100
DictionaryVariables
280
     0
  1
0
  0
DICTIONARYVAR
  5
203E
102
{ACAD_REACTORS
330
3D
102
}
330
3D
100
DictionaryVariables
280
     0
  1
127
  0
DICTIONARYVAR
  5
2048
102
{ACAD_REACTORS
330
3D
102
}
330
3D
100
DictionaryVariables
280
     0
  1
2
  0
XRECORD
  5
1F5E
102
{ACAD_REACTORS
330
1F5D
102
}
330
1F5D
100
AcDbXrecord
280
     1
330
1AFB
330
0
  0
DICTIONARY
  5
204C
330
1E
100
AcDbDictionary
280
     1
281
     1
  3
ACAD_XREC_ROUNDTRIP
360
204D
  0
DICTIONARY
  5
2050
330
26
100
AcDbDictionary
280
     1
281
     1
  3
ACAD_XREC_ROUNDTRIP
360
2051
  0
DICTIONARY
  5
204E
330
22
100
AcDbDictionary
280
     1
281
     1
  3
ACAD_XREC_ROUNDTRIP
360
204F
  0
DICTIONARY
  5
1F77
330
1F76
100
AcDbDictionary
280
     1
281
     1
  3
ACAD_XREC_ROUNDTRIP
360
2055
  3
BUMPTILE
360
1F79
  3
DIFFUSETILE
360
1F78
  3
OPACITYTILE
360
1F7C
  3
REFLECTIONTILE
360
1F7B
  3
REFRACTIONTILE
360
1F7D
  3
SPECULARTILE
360
1F7A
  0
DICTIONARY
  5
1F6F
330
1F6E
100
AcDbDictionary
280
     1
281
     1
  3
ACAD_XREC_ROUNDTRIP
360
2054
  3
BUMPTILE
360
1F71
  3
DIFFUSETILE
360
1F70
  3
OPACITYTILE
360
1F74
  3
REFLECTIONTILE
360
1F73
  3
REFRACTIONTILE
360
1F75
  3
SPECULARTILE
360
1F72
  0
DICTIONARY
  5
1F7F
330
1F7E
100
AcDbDictionary
280
     1
281
     1
  3
ACAD_XREC_ROUNDTRIP
360
2056
  3
BUMPTILE
360
1F81
  3
DIFFUSETILE
360
1F80
  3
OPACITYTILE
360
1F84
  3
REFLECTIONTILE
360
1F83
  3
REFRACTIONTILE
360
1F85
  3
SPECULARTILE
360
1F82
  0
DICTIONARY
  5
2000
330
1F9C
100
AcDbDictionary
280
     1
281
     1
  3
ACAD_ROUNDTRIP_2008_TABLESTYLE_CELLSTYLEMAP
360
2049
  3
ACAD_XREC_ROUNDTRIP
360
207D
  0
DICTIONARY
  5
2061
330
1F8C
100
AcDbDictionary
280
     1
281
     1
  3
ACAD_XREC_ROUNDTRIP
360
2062
  0
DICTIONARY
  5
2065
330
1F8E
100
AcDbDictionary
280
     1
281
     1
  3
ACAD_XREC_ROUNDTRIP
360
2066
  0
DICTIONARY
  5
2063
330
1F8D
100
AcDbDictionary
280
     1
281
     1
  3
ACAD_XREC_ROUNDTRIP
360
2064
  0
DICTIONARY
  5
205F
330
1F8B
100
AcDbDictionary
280
     1
281
     1
  3
ACAD_XREC_ROUNDTRIP
360
2060
  0
DICTIONARY
  5
206D
330
1F92
100
AcDbDictionary
280
     1
281
     1
  3
ACAD_XREC_ROUNDTRIP
360
206E
  0
DICTIONARY
  5
2075
330
1F96
100
AcDbDictionary
280
     1
281
     1
  3
ACAD_XREC_ROUNDTRIP
360
2076
  0
DICTIONARY
  5
2067
330
1F8F
100
AcDbDictionary
280
     1
281
     1
  3
ACAD_XREC_ROUNDTRIP
360
2068
  0
DICTIONARY
  5
206B
330
1F91
100
AcDbDictionary
280
     1
281
     1
  3
ACAD_XREC_ROUNDTRIP
360
206C
  0
DICTIONARY
  5
207B
330
1F99
100
AcDbDictionary
280
     1
281
     1
  3
ACAD_XREC_ROUNDTRIP
360
207C
  0
DICTIONARY
  5
2073
330
1F95
100
AcDbDictionary
280
     1
281
     1
  3
ACAD_XREC_ROUNDTRIP
360
2074
  0
DICTIONARY
  5
2057
330
1F87
100
AcDbDictionary
280
     1
281
     1
  3
ACAD_XREC_ROUNDTRIP
360
2058
  0
DICTIONARY
  5
2059
330
1F88
100
AcDbDictionary
280
     1
281
     1
  3
ACAD_XREC_ROUNDTRIP
360
205A
  0
DICTIONARY
  5
205B
330
1F89
100
AcDbDictionary
280
     1
281
     1
  3
ACAD_XREC_ROUNDTRIP
360
205C
  0
DICTIONARY
  5
205D
330
1F8A
100
AcDbDictionary
280
     1
281
     1
  3
ACAD_XREC_ROUNDTRIP
360
205E
  0
DICTIONARY
  5
2077
330
1F97
100
AcDbDictionary
280
     1
281
     1
  3
ACAD_XREC_ROUNDTRIP
360
2078
  0
DICTIONARY
  5
2071
330
1F94
100
AcDbDictionary
280
     1
281
     1
  3
ACAD_XREC_ROUNDTRIP
360
2072
  0
DICTIONARY
  5
2079
330
1F98
100
AcDbDictionary
280
     1
281
     1
  3
ACAD_XREC_ROUNDTRIP
360
207A
  0
DICTIONARY
  5
2069
330
1F90
100
AcDbDictionary
280
     1
281
     1
  3
ACAD_XREC_ROUNDTRIP
360
206A
  0
DICTIONARY
  5
206F
330
1F93
100
AcDbDictionary
280
     1
281
     1
  3
ACAD_XREC_ROUNDTRIP
360
2070
  0
XRECORD
  5
204D
102
{ACAD_REACTORS
330
204C
102
}
330
204C
100
AcDbXrecord
280
     1
102
SHADEPLOT
 70
     0
102
SHADEPLOTRESLEVEL
 70
     2
102
SHADEPLOTCUSTOMDPI
 70
   300
  0
XRECORD
  5
2051
102
{ACAD_REACTORS
330
2050
102
}
330
2050
100
AcDbXrecord
280
     1
102
SHADEPLOT
 70
     0
102
SHADEPLOTRESLEVEL
 70
     2
102
SHADEPLOTCUSTOMDPI
 70
   300
  0
XRECORD
  5
204F
102
{ACAD_REACTORS
330
204E
102
}
330
204E
100
AcDbXrecord
280
     1
102
SHADEPLOT
 70
     0
102
SHADEPLOTRESLEVEL
 70
     2
102
SHADEPLOTCUSTOMDPI
 70
   300
  0
XRECORD
  5
2055
102
{ACAD_REACTORS
330
1F77
102
}
330
1F77
100
AcDbXrecord
280
     1
102
MATERIAL
148
0.0
149
0.0
149
0.0
 93
        0
 94
      127
282
     0
 72
     0
 77
     0
171
     0
175
     0
179
     0
273
     0
  0
XRECORD
  5
1F79
102
{ACAD_REACTORS
330
1F77
102
}
330
1F77
100
AcDbXrecord
280
     1
270
     1
271
     1
  0
XRECORD
  5
1F78
102
{ACAD_REACTORS
330
1F77
102
}
330
1F77
100
AcDbXrecord
280
     1
270
     1
271
     1
  0
XRECORD
  5
1F7C
102
{ACAD_REACTORS
330
1F77
102
}
330
1F77
100
AcDbXrecord
280
     1
270
     1
271
     1
  0
XRECORD
  5
1F7B
102
{ACAD_REACTORS
330
1F77
102
}
330
1F77
100
AcDbXrecord
280
     1
270
     1
271
     1
  0
XRECORD
  5
1F7D
102
{ACAD_REACTORS
330
1F77
102
}
330
1F77
100
AcDbXrecord
280
     1
270
     1
271
     1
  0
XRECORD
  5
1F7A
102
{ACAD_REACTORS
330
1F77
102
}
330
1F77
100
AcDbXrecord
280
     1
270
     1
271
     1
  0
XRECORD
  5
2054
102
{ACAD_REACTORS
330
1F6F
102
}
330
1F6F
100
AcDbXrecord
280
     1
102
MATERIAL
148
0.0
149
0.0
149
0.0
 93
        0
 94
      127
282
     0
 72
     0
 77
     0
171
     0
175
     0
179
     0
273
     0
  0
XRECORD
  5
1F71
102
{ACAD_REACTORS
330
1F6F
102
}
330
1F6F
100
AcDbXrecord
280
     1
270
     1
271
     1
  0
XRECORD
  5
1F70
102
{ACAD_REACTORS
330
1F6F
102
}
330
1F6F
100
AcDbXrecord
280
     1
270
     1
271
     1
  0
XRECORD
  5
1F74
102
{ACAD_REACTORS
330
1F6F
102
}
330
1F6F
100
AcDbXrecord
280
     1
270
     1
271
     1
  0
XRECORD
  5
1F73
102
{ACAD_REACTORS
330
1F6F
102
}
330
1F6F
100
AcDbXrecord
280
     1
270
     1
271
     1
  0
XRECORD
  5
1F75
102
{ACAD_REACTORS
330
1F6F
102
}
330
1F6F
100
AcDbXrecord
280
     1
270
     1
271
     1
  0
XRECORD
  5
1F72
102
{ACAD_REACTORS
330
1F6F
102
}
330
1F6F
100
AcDbXrecord
280
     1
270
     1
271
     1
  0
XRECORD
  5
2056
102
{ACAD_REACTORS
330
1F7F
102
}
330
1F7F
100
AcDbXrecord
280
     1
102
MATERIAL
148
0.0
149
0.0
149
0.0
 93
        0
 94
      127
282
     0
 72
     0
 77
     0
171
     0
175
     0
179
     0
273
     0
  0
XRECORD
  5
1F81
102
{ACAD_REACTORS
330
1F7F
102
}
330
1F7F
100
AcDbXrecord
280
     1
270
     1
271
     1
  0
XRECORD
  5
1F80
102
{ACAD_REACTORS
330
1F7F
102
}
330
1F7F
100
AcDbXrecord
280
     1
270
     1
271
     1
  0
XRECORD
  5
1F84
102
{ACAD_REACTORS
330
1F7F
102
}
330
1F7F
100
AcDbXrecord
280
     1
270
     1
271
     1
  0
XRECORD
  5
1F83
102
{ACAD_REACTORS
330
1F7F
102
}
330
1F7F
100
AcDbXrecord
280
     1
270
     1
271
     1
  0
XRECORD
  5
1F85
102
{ACAD_REACTORS
330
1F7F
102
}
330
1F7F
100
AcDbXrecord
280
     1
270
     1
271
     1
  0
XRECORD
  5
1F82
102
{ACAD_REACTORS
330
1F7F
102
}
330
1F7F
100
AcDbXrecord
280
     1
270
     1
271
     1
  0
CELLSTYLEMAP
  5
2049
102
{ACAD_REACTORS
330
2000
102
}
330
2000
100
AcDbCellStyleMap
 90
        3
300
CELLSTYLE
  1
TABLEFORMAT_BEGIN
 90
        5
170
     1
 91
        0
 92
    32768
 62
   257
 93
        1
300
CONTENTFORMAT
  1
CONTENTFORMAT_BEGIN
 90
        0
 91
        0
 92
      512
 93
        0
300

 40
0.0
140
1.0
 94
        5
 62
     0
340
11
144
6.0
309
CONTENTFORMAT_END
171
     1
301
MARGIN
  1
CELLMARGIN_BEGIN
 40
1.5
 40
1.5
 40
1.5
 40
1.5
 40
4.5
 40
4.5
309
CELLMARGIN_END
 94
        6
 95
        1
302
GRIDFORMAT
  1
GRIDFORMAT_BEGIN
 90
        0
 91
        1
 62
     0
 92
       -2
340
0
 93
        0
 40
1.125
309
GRIDFORMAT_END
 95
        2
302
GRIDFORMAT
  1
GRIDFORMAT_BEGIN
 90
        0
 91
        1
 62
     0
 92
       -2
340
0
 93
        0
 40
1.125
309
GRIDFORMAT_END
 95
        4
302
GRIDFORMAT
  1
GRIDFORMAT_BEGIN
 90
        0
 91
        1
 62
     0
 92
       -2
340
0
 93
        0
 40
1.125
309
GRIDFORMAT_END
 95
        8
302
GRIDFORMAT
  1
GRIDFORMAT_BEGIN
 90
        0
 91
        1
 62
     0
 92
       -2
340
0
 93
        0
 40
1.125
309
GRIDFORMAT_END
 95
       16
302
GRIDFORMAT
  1
GRIDFORMAT_BEGIN
 90
        0
 91
        1
 62
     0
 92
       -2
340
0
 93
        0
 40
1.125
309
GRIDFORMAT_END
 95
       32
302
GRIDFORMAT
  1
GRIDFORMAT_BEGIN
 90
        0
 91
        1
 62
     0
 92
       -2
340
0
 93
        0
 40
1.125
309
GRIDFORMAT_END
309
TABLEFORMAT_END
  1
CELLSTYLE_BEGIN
 90
        1
 91
        1
300
_TITLE
309
CELLSTYLE_END
300
CELLSTYLE
  1
TABLEFORMAT_BEGIN
 90
        5
170
     1
 91
        0
 92
        0
 62
   257
 93
        1
300
CONTENTFORMAT
  1
CONTENTFORMAT_BEGIN
 90
        0
 91
        0
 92
      512
 93
        0
300

 40
0.0
140
1.0
 94
        5
 62
     0
340
11
144
4.5
309
CONTENTFORMAT_END
171
     1
301
MARGIN
  1
CELLMARGIN_BEGIN
 40
1.5
 40
1.5
 40
1.5
 40
1.5
 40
4.5
 40
4.5
309
CELLMARGIN_END
 94
        6
 95
        1
302
GRIDFORMAT
  1
GRIDFORMAT_BEGIN
 90
        0
 91
        1
 62
     0
 92
       -2
340
0
 93
        0
 40
1.125
309
GRIDFORMAT_END
 95
        2
302
GRIDFORMAT
  1
GRIDFORMAT_BEGIN
 90
        0
 91
        1
 62
     0
 92
       -2
340
0
 93
        0
 40
1.125
309
GRIDFORMAT_END
 95
        4
302
GRIDFORMAT
  1
GRIDFORMAT_BEGIN
 90
        0
 91
        1
 62
     0
 92
       -2
340
0
 93
        0
 40
1.125
309
GRIDFORMAT_END
 95
        8
302
GRIDFORMAT
  1
GRIDFORMAT_BEGIN
 90
        0
 91
        1
 62
     0
 92
       -2
340
0
 93
        0
 40
1.125
309
GRIDFORMAT_END
 95
       16
302
GRIDFORMAT
  1
GRIDFORMAT_BEGIN
 90
        0
 91
        1
 62
     0
 92
       -2
340
0
 93
        0
 40
1.125
309
GRIDFORMAT_END
 95
       32
302
GRIDFORMAT
  1
GRIDFORMAT_BEGIN
 90
        0
 91
        1
 62
     0
 92
       -2
340
0
 93
        0
 40
1.125
309
GRIDFORMAT_END
309
TABLEFORMAT_END
  1
CELLSTYLE_BEGIN
 90
        2
 91
        1
300
_HEADER
309
CELLSTYLE_END
300
CELLSTYLE
  1
TABLEFORMAT_BEGIN
 90
        5
170
     1
 91
        0
 92
        0
 62
   257
 93
        1
300
CONTENTFORMAT
  1
CONTENTFORMAT_BEGIN
 90
        0
 91
        0
 92
      512
 93
        0
300

 40
0.0
140
1.0
 94
        2
 62
     0
340
11
144
4.5
309
CONTENTFORMAT_END
171
     1
301
MARGIN
  1
CELLMARGIN_BEGIN
 40
1.5
 40
1.5
 40
1.5
 40
1.5
 40
4.5
 40
4.5
309
CELLMARGIN_END
 94
        6
 95
        1
302
GRIDFORMAT
  1
GRIDFORMAT_BEGIN
 90
        0
 91
        1
 62
     0
 92
       -2
340
0
 93
        0
 40
1.125
309
GRIDFORMAT_END
 95
        2
302
GRIDFORMAT
  1
GRIDFORMAT_BEGIN
 90
        0
 91
        1
 62
     0
 92
       -2
340
0
 93
        0
 40
1.125
309
GRIDFORMAT_END
 95
        4
302
GRIDFORMAT
  1
GRIDFORMAT_BEGIN
 90
        0
 91
        1
 62
     0
 92
       -2
340
0
 93
        0
 40
1.125
309
GRIDFORMAT_END
 95
        8
302
GRIDFORMAT
  1
GRIDFORMAT_BEGIN
 90
        0
 91
        1
 62
     0
 92
       -2
340
0
 93
        0
 40
1.125
309
GRIDFORMAT_END
 95
       16
302
GRIDFORMAT
  1
GRIDFORMAT_BEGIN
 90
        0
 91
        1
 62
     0
 92
       -2
340
0
 93
        0
 40
1.125
309
GRIDFORMAT_END
 95
       32
302
GRIDFORMAT
  1
GRIDFORMAT_BEGIN
 90
        0
 91
        1
 62
     0
 92
       -2
340
0
 93
        0
 40
1.125
309
GRIDFORMAT_END
309
TABLEFORMAT_END
  1
CELLSTYLE_BEGIN
 90
        3
 91
        2
300
_DATA
309
CELLSTYLE_END
  0
XRECORD
  5
207D
102
{ACAD_REACTORS
330
2000
102
}
330
2000
100
AcDbXrecord
280
     1
102
ACAD_ROUNDTRIP_PRE2007_TABLESTYLE
 90
      512
 91
        0
  1

 92
      512
 93
        0
  2

 94
      512
 95
        0
  3

  0
XRECORD
  5
2062
102
{ACAD_REACTORS
330
2061
102
}
330
2061
100
AcDbXrecord
280
     1
102
RTVSPropertyOp0
 70
     1
102
RTVSPropertyOp1
 70
     1
102
RTVSPropertyOp2
 70
     1
102
RTVSPropertyOp3
 70
     1
102
RTVSPropertyOp4
 70
     1
102
RTVSPropertyOp5
 70
     1
102
RTVSPropertyOp6
 70
     1
102
RTVSPropertyOp7
 70
     1
102
RTVSPropertyOp8
 70
     1
102
RTVSPropertyOp9
 70
     1
102
RTVSPropertyOp10
 70
     1
102
RTVSPropertyOp11
 70
     1
102
RTVSPropertyOp12
 70
     1
102
RTVSPropertyOp13
 70
     1
102
RTVSPropertyOp14
 70
     1
102
RTVSPropertyOp15
 70
     1
102
RTVSPropertyOp16
 70
     1
102
RTVSPropertyOp17
 70
     1
102
RTVSPropertyOp18
 70
     1
102
RTVSPropertyOp19
 70
     1
102
RTVSPropertyOp20
 70
     1
102
RTVSPropertyOp21
 70
     1
102
RTVSPropertyOp22
 70
     1
102
RTVSPropertyOp23
 70
     1
102
RTVSPropertyOp24
 70
     1
102
RTVSPropertyOp25
 70
     1
102
RTVSPropertyOp26
 70
     1
102
RTVSPropertyOp27
 70
     1
  0
XRECORD
  5
2066
102
{ACAD_REACTORS
330
2065
102
}
330
2065
100
AcDbXrecord
280
     1
102
RTVSPropertyOp0
 70
     1
102
RTVSPropertyOp1
 70
     1
102
RTVSPropertyOp2
 70
     1
102
RTVSPropertyOp3
 70
     1
102
RTVSPropertyOp4
 70
     1
102
RTVSPropertyOp5
 70
     1
102
RTVSPropertyOp6
 70
     1
102
RTVSPropertyOp7
 70
     1
102
RTVSPropertyOp8
 70
     1
102
RTVSPropertyOp9
 70
     1
102
RTVSPropertyOp10
 70
     1
102
RTVSPropertyOp11
 70
     1
102
RTVSPropertyOp12
 70
     1
102
RTVSPropertyOp13
 70
     1
102
RTVSPropertyOp14
 70
     1
102
RTVSPropertyOp15
 70
     1
102
RTVSPropertyOp16
 70
     1
102
RTVSPropertyOp17
 70
     1
102
RTVSPropertyOp18
 70
     1
102
RTVSPropertyOp19
 70
     1
102
RTVSPropertyOp20
 70
     1
102
RTVSPropertyOp21
 70
     1
102
RTVSPropertyOp22
 70
     1
102
RTVSPropertyOp23
 70
     1
102
RTVSPropertyOp24
 70
     1
102
RTVSPropertyOp25
 70
     1
102
RTVSPropertyOp26
 70
     1
102
RTVSPropertyOp27
 70
     1
  0
XRECORD
  5
2064
102
{ACAD_REACTORS
330
2063
102
}
330
2063
100
AcDbXrecord
280
     1
102
RTVSPropertyOp0
 70
     1
102
RTVSPropertyOp1
 70
     1
102
RTVSPropertyOp2
 70
     1
102
RTVSPropertyOp3
 70
     1
102
RTVSPropertyOp4
 70
     1
102
RTVSPropertyOp5
 70
     1
102
RTVSPropertyOp6
 70
     1
102
RTVSPropertyOp7
 70
     1
102
RTVSPropertyOp8
 70
     1
102
RTVSPropertyOp9
 70
     1
102
RTVSPropertyOp10
 70
     1
102
RTVSPropertyOp11
 70
     1
102
RTVSPropertyOp12
 70
     1
102
RTVSPropertyOp13
 70
     1
102
RTVSPropertyOp14
 70
     1
102
RTVSPropertyOp15
 70
     1
102
RTVSPropertyOp16
 70
     1
102
RTVSPropertyOp17
 70
     1
102
RTVSPropertyOp18
 70
     1
102
RTVSPropertyOp19
 70
     1
102
RTVSPropertyOp20
 70
     1
102
RTVSPropertyOp21
 70
     1
102
RTVSPropertyOp22
 70
     1
102
RTVSPropertyOp23
 70
     1
102
RTVSPropertyOp24
 70
     1
102
RTVSPropertyOp25
 70
     1
102
RTVSPropertyOp26
 70
     1
102
RTVSPropertyOp27
 70
     1
  0
XRECORD
  5
2060
102
{ACAD_REACTORS
330
205F
102
}
330
205F
100
AcDbXrecord
280
     1
102
RTVSPropertyOp0
 70
     1
102
RTVSPropertyOp1
 70
     1
102
RTVSPropertyOp2
 70
     1
102
RTVSPropertyOp3
 70
     1
102
RTVSPropertyOp4
 70
     1
102
RTVSPropertyOp5
 70
     1
102
RTVSPropertyOp6
 70
     1
102
RTVSPropertyOp7
 70
     1
102
RTVSPropertyOp8
 70
     1
102
RTVSPropertyOp9
 70
     1
102
RTVSPropertyOp10
 70
     1
102
RTVSPropertyOp11
 70
     1
102
RTVSPropertyOp12
 70
     1
102
RTVSPropertyOp13
 70
     1
102
RTVSPropertyOp14
 70
     1
102
RTVSPropertyOp15
 70
     1
102
RTVSPropertyOp16
 70
     1
102
RTVSPropertyOp17
 70
     1
102
RTVSPropertyOp18
 70
     1
102
RTVSPropertyOp19
 70
     1
102
RTVSPropertyOp20
 70
     1
102
RTVSPropertyOp21
 70
     1
102
RTVSPropertyOp22
 70
     1
102
RTVSPropertyOp23
 70
     1
102
RTVSPropertyOp24
 70
     1
102
RTVSPropertyOp25
 70
     1
102
RTVSPropertyOp26
 70
     1
102
RTVSPropertyOp27
 70
     1
  0
XRECORD
  5
206E
102
{ACAD_REACTORS
330
206D
102
}
330
206D
100
AcDbXrecord
280
     1
102
RTVSPropertyOp0
 70
     1
102
RTVSPropertyOp1
 70
     1
102
RTVSPropertyOp2
 70
     1
102
RTVSPropertyOp3
 70
     1
102
RTVSPropertyOp4
 70
     1
102
RTVSPropertyOp5
 70
     1
102
RTVSPropertyOp6
 70
     1
102
RTVSPropertyOp7
 70
     1
102
RTVSPropertyOp8
 70
     1
102
RTVSPropertyOp9
 70
     1
102
RTVSPropertyOp10
 70
     1
102
RTVSPropertyOp11
 70
     1
102
RTVSPropertyOp12
 70
     1
102
RTVSPropertyOp13
 70
     1
102
RTVSPropertyOp14
 70
     1
102
RTVSPropertyOp15
 70
     1
102
RTVSPropertyOp16
 70
     1
102
RTVSPropertyOp17
 70
     1
102
RTVSPropertyOp18
 70
     1
102
RTVSPropertyOp19
 70
     1
102
RTVSPropertyOp20
 70
     1
102
RTVSPropertyOp21
 70
     1
102
RTVSPropertyOp22
 70
     1
102
RTVSPropertyOp23
 70
     1
102
RTVSPropertyOp24
 70
     1
102
RTVSPropertyOp25
 70
     1
102
RTVSPropertyOp26
 70
     1
102
RTVSPropertyOp27
 70
     1
  0
XRECORD
  5
2076
102
{ACAD_REACTORS
330
2075
102
}
330
2075
100
AcDbXrecord
280
     1
102
RTVSPropertyOp0
 70
     1
102
RTVSPropertyOp1
 70
     1
102
RTVSPropertyOp2
 70
     1
102
RTVSPropertyOp3
 70
     1
102
RTVSPropertyOp4
 70
     1
102
RTVSPropertyOp5
 70
     1
102
RTVSPropertyOp6
 70
     1
102
RTVSPropertyOp7
 70
     1
102
RTVSPropertyOp8
 70
     1
102
RTVSPropertyOp9
 70
     1
102
RTVSPropertyOp10
 70
     1
102
RTVSPropertyOp11
 70
     1
102
RTVSPropertyOp12
 70
     1
102
RTVSPropertyOp13
 70
     1
102
RTVSPropertyOp14
 70
     1
102
RTVSPropertyOp15
 70
     1
102
RTVSPropertyOp16
 70
     1
102
RTVSPropertyOp17
 70
     1
102
RTVSPropertyOp18
 70
     1
102
RTVSPropertyOp19
 70
     1
102
RTVSPropertyOp20
 70
     1
102
RTVSPropertyOp21
 70
     1
102
RTVSPropertyOp22
 70
     1
102
RTVSPropertyOp23
 70
     1
102
RTVSPropertyOp24
 70
     1
102
RTVSPropertyOp25
 70
     1
102
RTVSPropertyOp26
 70
     1
102
RTVSPropertyOp27
 70
     1
  0
XRECORD
  5
2068
102
{ACAD_REACTORS
330
2067
102
}
330
2067
100
AcDbXrecord
280
     1
102
RTVSPropertyOp0
 70
     1
102
RTVSPropertyOp1
 70
     1
102
RTVSPropertyOp2
 70
     1
102
RTVSPropertyOp3
 70
     1
102
RTVSPropertyOp4
 70
     1
102
RTVSPropertyOp5
 70
     1
102
RTVSPropertyOp6
 70
     1
102
RTVSPropertyOp7
 70
     1
102
RTVSPropertyOp8
 70
     1
102
RTVSPropertyOp9
 70
     1
102
RTVSPropertyOp10
 70
     1
102
RTVSPropertyOp11
 70
     1
102
RTVSPropertyOp12
 70
     1
102
RTVSPropertyOp13
 70
     1
102
RTVSPropertyOp14
 70
     1
102
RTVSPropertyOp15
 70
     1
102
RTVSPropertyOp16
 70
     1
102
RTVSPropertyOp17
 70
     1
102
RTVSPropertyOp18
 70
     1
102
RTVSPropertyOp19
 70
     1
102
RTVSPropertyOp20
 70
     1
102
RTVSPropertyOp21
 70
     1
102
RTVSPropertyOp22
 70
     1
102
RTVSPropertyOp23
 70
     1
102
RTVSPropertyOp24
 70
     1
102
RTVSPropertyOp25
 70
     1
102
RTVSPropertyOp26
 70
     1
102
RTVSPropertyOp27
 70
     1
  0
XRECORD
  5
206C
102
{ACAD_REACTORS
330
206B
102
}
330
206B
100
AcDbXrecord
280
     1
102
RTVSPropertyOp0
 70
     1
102
RTVSPropertyOp1
 70
     1
102
RTVSPropertyOp2
 70
     1
102
RTVSPropertyOp3
 70
     1
102
RTVSPropertyOp4
 70
     1
102
RTVSPropertyOp5
 70
     1
102
RTVSPropertyOp6
 70
     1
102
RTVSPropertyOp7
 70
     1
102
RTVSPropertyOp8
 70
     1
102
RTVSPropertyOp9
 70
     1
102
RTVSPropertyOp10
 70
     1
102
RTVSPropertyOp11
 70
     1
102
RTVSPropertyOp12
 70
     1
102
RTVSPropertyOp13
 70
     1
102
RTVSPropertyOp14
 70
     1
102
RTVSPropertyOp15
 70
     1
102
RTVSPropertyOp16
 70
     1
102
RTVSPropertyOp17
 70
     1
102
RTVSPropertyOp18
 70
     1
102
RTVSPropertyOp19
 70
     1
102
RTVSPropertyOp20
 70
     1
102
RTVSPropertyOp21
 70
     1
102
RTVSPropertyOp22
 70
     1
102
RTVSPropertyOp23
 70
     1
102
RTVSPropertyOp24
 70
     1
102
RTVSPropertyOp25
 70
     1
102
RTVSPropertyOp26
 70
     1
102
RTVSPropertyOp27
 70
     1
  0
XRECORD
  5
207C
102
{ACAD_REACTORS
330
207B
102
}
330
207B
100
AcDbXrecord
280
     1
102
RTVSPropertyOp0
 70
     0
102
RTVSPropertyOp1
 70
     0
102
RTVSPropertyOp2
 70
     0
102
RTVSPropertyOp3
 70
     0
102
RTVSPropertyOp4
 70
     0
102
RTVSPropertyOp5
 70
     0
102
RTVSPropertyOp6
 70
     0
102
RTVSPropertyOp7
 70
     0
102
RTVSPropertyOp8
 70
     0
102
RTVSPropertyOp9
 70
     0
102
RTVSPropertyOp10
 70
     0
102
RTVSPropertyOp11
 70
     0
102
RTVSPropertyOp12
 70
     0
102
RTVSPropertyOp13
 70
     0
102
RTVSPropertyOp14
 70
     2
102
RTVSPropertyOp15
 70
     0
102
RTVSPropertyOp16
 70
     0
102
RTVSPropertyOp17
 70
     0
102
RTVSPropertyOp18
 70
     0
102
RTVSPropertyOp19
 70
     0
102
RTVSPropertyOp20
 70
     0
102
RTVSPropertyOp21
 70
     0
102
RTVSPropertyOp22
 70
     0
102
RTVSPropertyOp23
 70
     0
102
RTVSPropertyOp24
 70
     0
102
RTVSPropertyOp25
 70
     0
102
RTVSPropertyOp26
 70
     0
102
RTVSPropertyOp27
 70
     0
  0
XRECORD
  5
2074
102
{ACAD_REACTORS
330
2073
102
}
330
2073
100
AcDbXrecord
280
     1
102
RTVSPropertyOp0
 70
     1
102
RTVSPropertyOp1
 70
     1
102
RTVSPropertyOp2
 70
     1
102
RTVSPropertyOp3
 70
     1
102
RTVSPropertyOp4
 70
     1
102
RTVSPropertyOp5
 70
     1
102
RTVSPropertyOp6
 70
     1
102
RTVSPropertyOp7
 70
     1
102
RTVSPropertyOp8
 70
     1
102
RTVSPropertyOp9
 70
     1
102
RTVSPropertyOp10
 70
     1
102
RTVSPropertyOp11
 70
     1
102
RTVSPropertyOp12
 70
     1
102
RTVSPropertyOp13
 70
     1
102
RTVSPropertyOp14
 70
     1
102
RTVSPropertyOp15
 70
     1
102
RTVSPropertyOp16
 70
     1
102
RTVSPropertyOp17
 70
     1
102
RTVSPropertyOp18
 70
     1
102
RTVSPropertyOp19
 70
     1
102
RTVSPropertyOp20
 70
     1
102
RTVSPropertyOp21
 70
     1
102
RTVSPropertyOp22
 70
     1
102
RTVSPropertyOp23
 70
     1
102
RTVSPropertyOp24
 70
     1
102
RTVSPropertyOp25
 70
     1
102
RTVSPropertyOp26
 70
     1
102
RTVSPropertyOp27
 70
     1
  0
XRECORD
  5
2058
102
{ACAD_REACTORS
330
2057
102
}
330
2057
100
AcDbXrecord
280
     1
102
RTVSPropertyOp0
 70
     1
102
RTVSPropertyOp1
 70
     1
102
RTVSPropertyOp2
 70
     1
102
RTVSPropertyOp3
 70
     1
102
RTVSPropertyOp4
 70
     1
102
RTVSPropertyOp5
 70
     1
102
RTVSPropertyOp6
 70
     1
102
RTVSPropertyOp7
 70
     1
102
RTVSPropertyOp8
 70
     1
102
RTVSPropertyOp9
 70
     1
102
RTVSPropertyOp10
 70
     1
102
RTVSPropertyOp11
 70
     1
102
RTVSPropertyOp12
 70
     1
102
RTVSPropertyOp13
 70
     1
102
RTVSPropertyOp14
 70
     1
102
RTVSPropertyOp15
 70
     1
102
RTVSPropertyOp16
 70
     1
102
RTVSPropertyOp17
 70
     1
102
RTVSPropertyOp18
 70
     1
102
RTVSPropertyOp19
 70
     1
102
RTVSPropertyOp20
 70
     1
102
RTVSPropertyOp21
 70
     1
102
RTVSPropertyOp22
 70
     1
102
RTVSPropertyOp23
 70
     1
102
RTVSPropertyOp24
 70
     1
102
RTVSPropertyOp25
 70
     1
102
RTVSPropertyOp26
 70
     1
102
RTVSPropertyOp27
 70
     1
  0
XRECORD
  5
205A
102
{ACAD_REACTORS
330
2059
102
}
330
2059
100
AcDbXrecord
280
     1
102
RTVSPropertyOp0
 70
     1
102
RTVSPropertyOp1
 70
     1
102
RTVSPropertyOp2
 70
     1
102
RTVSPropertyOp3
 70
     1
102
RTVSPropertyOp4
 70
     1
102
RTVSPropertyOp5
 70
     1
102
RTVSPropertyOp6
 70
     1
102
RTVSPropertyOp7
 70
     1
102
RTVSPropertyOp8
 70
     1
102
RTVSPropertyOp9
 70
     1
102
RTVSPropertyOp10
 70
     1
102
RTVSPropertyOp11
 70
     1
102
RTVSPropertyOp12
 70
     1
102
RTVSPropertyOp13
 70
     1
102
RTVSPropertyOp14
 70
     1
102
RTVSPropertyOp15
 70
     1
102
RTVSPropertyOp16
 70
     1
102
RTVSPropertyOp17
 70
     1
102
RTVSPropertyOp18
 70
     1
102
RTVSPropertyOp19
 70
     1
102
RTVSPropertyOp20
 70
     1
102
RTVSPropertyOp21
 70
     1
102
RTVSPropertyOp22
 70
     1
102
RTVSPropertyOp23
 70
     1
102
RTVSPropertyOp24
 70
     1
102
RTVSPropertyOp25
 70
     1
102
RTVSPropertyOp26
 70
     1
102
RTVSPropertyOp27
 70
     1
  0
XRECORD
  5
205C
102
{ACAD_REACTORS
330
205B
102
}
330
205B
100
AcDbXrecord
280
     1
102
RTVSPropertyOp0
 70
     1
102
RTVSPropertyOp1
 70
     1
102
RTVSPropertyOp2
 70
     1
102
RTVSPropertyOp3
 70
     1
102
RTVSPropertyOp4
 70
     1
102
RTVSPropertyOp5
 70
     1
102
RTVSPropertyOp6
 70
     1
102
RTVSPropertyOp7
 70
     1
102
RTVSPropertyOp8
 70
     1
102
RTVSPropertyOp9
 70
     1
102
RTVSPropertyOp10
 70
     1
102
RTVSPropertyOp11
 70
     1
102
RTVSPropertyOp12
 70
     1
102
RTVSPropertyOp13
 70
     1
102
RTVSPropertyOp14
 70
     1
102
RTVSPropertyOp15
 70
     1
102
RTVSPropertyOp16
 70
     1
102
RTVSPropertyOp17
 70
     1
102
RTVSPropertyOp18
 70
     1
102
RTVSPropertyOp19
 70
     1
102
RTVSPropertyOp20
 70
     1
102
RTVSPropertyOp21
 70
     1
102
RTVSPropertyOp22
 70
     1
102
RTVSPropertyOp23
 70
     1
102
RTVSPropertyOp24
 70
     1
102
RTVSPropertyOp25
 70
     1
102
RTVSPropertyOp26
 70
     1
102
RTVSPropertyOp27
 70
     1
  0
XRECORD
  5
205E
102
{ACAD_REACTORS
330
205D
102
}
330
205D
100
AcDbXrecord
280
     1
102
RTVSPropertyOp0
 70
     1
102
RTVSPropertyOp1
 70
     1
102
RTVSPropertyOp2
 70
     1
102
RTVSPropertyOp3
 70
     1
102
RTVSPropertyOp4
 70
     1
102
RTVSPropertyOp5
 70
     1
102
RTVSPropertyOp6
 70
     1
102
RTVSPropertyOp7
 70
     1
102
RTVSPropertyOp8
 70
     1
102
RTVSPropertyOp9
 70
     1
102
RTVSPropertyOp10
 70
     1
102
RTVSPropertyOp11
 70
     1
102
RTVSPropertyOp12
 70
     1
102
RTVSPropertyOp13
 70
     1
102
RTVSPropertyOp14
 70
     1
102
RTVSPropertyOp15
 70
     1
102
RTVSPropertyOp16
 70
     1
102
RTVSPropertyOp17
 70
     1
102
RTVSPropertyOp18
 70
     1
102
RTVSPropertyOp19
 70
     1
102
RTVSPropertyOp20
 70
     1
102
RTVSPropertyOp21
 70
     1
102
RTVSPropertyOp22
 70
     1
102
RTVSPropertyOp23
 70
     1
102
RTVSPropertyOp24
 70
     1
102
RTVSPropertyOp25
 70
     1
102
RTVSPropertyOp26
 70
     1
102
RTVSPropertyOp27
 70
     1
  0
XRECORD
  5
2078
102
{ACAD_REACTORS
330
2077
102
}
330
2077
100
AcDbXrecord
280
     1
102
RTVSPropertyOp0
 70
     0
102
RTVSPropertyOp1
 70
     0
102
RTVSPropertyOp2
 70
     0
102
RTVSPropertyOp3
 70
     0
102
RTVSPropertyOp4
 70
     0
102
RTVSPropertyOp5
 70
     0
102
RTVSPropertyOp6
 70
     0
102
RTVSPropertyOp7
 70
     0
102
RTVSPropertyOp8
 70
     0
102
RTVSPropertyOp9
 70
     0
102
RTVSPropertyOp10
 70
     0
102
RTVSPropertyOp11
 70
     0
102
RTVSPropertyOp12
 70
     0
102
RTVSPropertyOp13
 70
     0
102
RTVSPropertyOp14
 70
     2
102
RTVSPropertyOp15
 70
     0
102
RTVSPropertyOp16
 70
     0
102
RTVSPropertyOp17
 70
     0
102
RTVSPropertyOp18
 70
     0
102
RTVSPropertyOp19
 70
     0
102
RTVSPropertyOp20
 70
     0
102
RTVSPropertyOp21
 70
     0
102
RTVSPropertyOp22
 70
     0
102
RTVSPropertyOp23
 70
     0
102
RTVSPropertyOp24
 70
     0
102
RTVSPropertyOp25
 70
     0
102
RTVSPropertyOp26
 70
     0
102
RTVSPropertyOp27
 70
     0
  0
XRECORD
  5
2072
102
{ACAD_REACTORS
330
2071
102
}
330
2071
100
AcDbXrecord
280
     1
102
RTVSPropertyOp0
 70
     1
102
RTVSPropertyOp1
 70
     1
102
RTVSPropertyOp2
 70
     1
102
RTVSPropertyOp3
 70
     1
102
RTVSPropertyOp4
 70
     1
102
RTVSPropertyOp5
 70
     1
102
RTVSPropertyOp6
 70
     1
102
RTVSPropertyOp7
 70
     1
102
RTVSPropertyOp8
 70
     1
102
RTVSPropertyOp9
 70
     1
102
RTVSPropertyOp10
 70
     1
102
RTVSPropertyOp11
 70
     1
102
RTVSPropertyOp12
 70
     1
102
RTVSPropertyOp13
 70
     1
102
RTVSPropertyOp14
 70
     1
102
RTVSPropertyOp15
 70
     1
102
RTVSPropertyOp16
 70
     1
102
RTVSPropertyOp17
 70
     1
102
RTVSPropertyOp18
 70
     1
102
RTVSPropertyOp19
 70
     1
102
RTVSPropertyOp20
 70
     1
102
RTVSPropertyOp21
 70
     1
102
RTVSPropertyOp22
 70
     1
102
RTVSPropertyOp23
 70
     1
102
RTVSPropertyOp24
 70
     1
102
RTVSPropertyOp25
 70
     1
102
RTVSPropertyOp26
 70
     1
102
RTVSPropertyOp27
 70
     1
  0
XRECORD
  5
207A
102
{ACAD_REACTORS
330
2079
102
}
330
2079
100
AcDbXrecord
280
     1
102
RTVSPropertyOp0
 70
     0
102
RTVSPropertyOp1
 70
     0
102
RTVSPropertyOp2
 70
     0
102
RTVSPropertyOp3
 70
     0
102
RTVSPropertyOp4
 70
     0
102
RTVSPropertyOp5
 70
     0
102
RTVSPropertyOp6
 70
     0
102
RTVSPropertyOp7
 70
     0
102
RTVSPropertyOp8
 70
     0
102
RTVSPropertyOp9
 70
     0
102
RTVSPropertyOp10
 70
     0
102
RTVSPropertyOp11
 70
     0
102
RTVSPropertyOp12
 70
     0
102
RTVSPropertyOp13
 70
     0
102
RTVSPropertyOp14
 70
     2
102
RTVSPropertyOp15
 70
     0
102
RTVSPropertyOp16
 70
     0
102
RTVSPropertyOp17
 70
     0
102
RTVSPropertyOp18
 70
     0
102
RTVSPropertyOp19
 70
     0
102
RTVSPropertyOp20
 70
     0
102
RTVSPropertyOp21
 70
     0
102
RTVSPropertyOp22
 70
     0
102
RTVSPropertyOp23
 70
     0
102
RTVSPropertyOp24
 70
     0
102
RTVSPropertyOp25
 70
     0
102
RTVSPropertyOp26
 70
     0
102
RTVSPropertyOp27
 70
     0
  0
XRECORD
  5
206A
102
{ACAD_REACTORS
330
2069
102
}
330
2069
100
AcDbXrecord
280
     1
102
RTVSPropertyOp0
 70
     1
102
RTVSPropertyOp1
 70
     1
102
RTVSPropertyOp2
 70
     1
102
RTVSPropertyOp3
 70
     1
102
RTVSPropertyOp4
 70
     1
102
RTVSPropertyOp5
 70
     1
102
RTVSPropertyOp6
 70
     1
102
RTVSPropertyOp7
 70
     1
102
RTVSPropertyOp8
 70
     1
102
RTVSPropertyOp9
 70
     1
102
RTVSPropertyOp10
 70
     1
102
RTVSPropertyOp11
 70
     1
102
RTVSPropertyOp12
 70
     1
102
RTVSPropertyOp13
 70
     1
102
RTVSPropertyOp14
 70
     1
102
RTVSPropertyOp15
 70
     1
102
RTVSPropertyOp16
 70
     1
102
RTVSPropertyOp17
 70
     1
102
RTVSPropertyOp18
 70
     1
102
RTVSPropertyOp19
 70
     1
102
RTVSPropertyOp20
 70
     1
102
RTVSPropertyOp21
 70
     1
102
RTVSPropertyOp22
 70
     1
102
RTVSPropertyOp23
 70
     1
102
RTVSPropertyOp24
 70
     1
102
RTVSPropertyOp25
 70
     1
102
RTVSPropertyOp26
 70
     1
102
RTVSPropertyOp27
 70
     1
  0
XRECORD
  5
2070
102
{ACAD_REACTORS
330
206F
102
}
330
206F
100
AcDbXrecord
280
     1
102
RTVSPropertyOp0
 70
     1
102
RTVSPropertyOp1
 70
     1
102
RTVSPropertyOp2
 70
     1
102
RTVSPropertyOp3
 70
     1
102
RTVSPropertyOp4
 70
     1
102
RTVSPropertyOp5
 70
     1
102
RTVSPropertyOp6
 70
     1
102
RTVSPropertyOp7
 70
     1
102
RTVSPropertyOp8
 70
     1
102
RTVSPropertyOp9
 70
     1
102
RTVSPropertyOp10
 70
     1
102
RTVSPropertyOp11
 70
     1
102
RTVSPropertyOp12
 70
     1
102
RTVSPropertyOp13
 70
     1
102
RTVSPropertyOp14
 70
     1
102
RTVSPropertyOp15
 70
     1
102
RTVSPropertyOp16
 70
     1
102
RTVSPropertyOp17
 70
     1
102
RTVSPropertyOp18
 70
     1
102
RTVSPropertyOp19
 70
     1
102
RTVSPropertyOp20
 70
     1
102
RTVSPropertyOp21
 70
     1
102
RTVSPropertyOp22
 70
     1
102
RTVSPropertyOp23
 70
     1
102
RTVSPropertyOp24
 70
     1
102
RTVSPropertyOp25
 70
     1
102
RTVSPropertyOp26
 70
     1
102
RTVSPropertyOp27
 70
     1
  0
ENDSEC
  0
EOF
