  0
SECTION
  2
HEADER
  9
$ACADVER
  1
AC1018
  9
$ACADMAINTVER
 70
   104
  9
$DWGCODEPAGE
  3
ANSI_1252
  9
$LASTSAVEDBY
  1
Julio
  9
$INSBASE
 10
0.0
 20
0.0
 30
0.0
  9
$EXTMIN
 10
265.6542987214854
 20
345.0684665658612
 30
0.0
  9
$EXTMAX
 10
267.672546258702
 20
346.9184665658612
 30
0.0
  9
$LIMMIN
 10
0.0
 20
0.0
  9
$LIMMAX
 10
420.0
 20
297.0
  9
$ORTHOMODE
 70
     1
  9
$REGENMODE
 70
     1
  9
$FILLMODE
 70
     1
  9
$QTEXTMODE
 70
     0
  9
$MIRRTEXT
 70
     1
  9
$LTSCALE
 40
1.0
  9
$ATTMODE
 70
     1
  9
$TEXTSIZE
 40
2.5
  9
$TRACEWID
 40
1.0
  9
$TEXTSTYLE
  7
SANINDUSA
  9
$CLAYER
  8
cotas
  9
$CELTYPE
  6
ByLayer
  9
$CECOLOR
 62
   256
  9
$CELTSCALE
 40
1.0
  9
$DISPSILH
 70
     0
  9
$DIMSCALE
 40
1.0
  9
$DIMASZ
 40
3.0
  9
$DIMEXO
 40
1.0
  9
$DIMDLI
 40
1.0
  9
$DIMRND
 40
0.0
  9
$DIMDLE
 40
0.0
  9
$DIMEXE
 40
1.0
  9
$DIMTP
 40
0.0
  9
$DIMTM
 40
0.0
  9
$DIMTXT
 40
2.0
  9
$DIMCEN
 40
0.0
  9
$DIMTSZ
 40
0.0
  9
$DIMTOL
 70
     0
  9
$DIMLIM
 70
     0
  9
$DIMTIH
 70
     0
  9
$DIMTOH
 70
     0
  9
$DIMSE1
 70
     0
  9
$DIMSE2
 70
     0
  9
$DIMTAD
 70
     1
  9
$DIMZIN
 70
     8
  9
$DIMBLK
  1

  9
$DIMASO
 70
     1
  9
$DIMSHO
 70
     1
  9
$DIMPOST
  1

  9
$DIMAPOST
  1

  9
$DIMALT
 70
     0
  9
$DIMALTD
 70
     3
  9
$DIMALTF
 40
0.03937007874016
  9
$DIMLFAC
 40
1.0
  9
$DIMTOFL
 70
     1
  9
$DIMTVP
 40
0.0
  9
$DIMTIX
 70
     0
  9
$DIMSOXD
 70
     0
  9
$DIMSAH
 70
     0
  9
$DIMBLK1
  1

  9
$DIMBLK2
  1

  9
$DIMSTYLE
  2
SANINDUSA
  9
$DIMCLRD
 70
   256
  9
$DIMCLRE
 70
   256
  9
$DIMCLRT
 70
   256
  9
$DIMTFAC
 40
1.0
  9
$DIMGAP
 40
1.0
  9
$DIMJUST
 70
     0
  9
$DIMSD1
 70
     0
  9
$DIMSD2
 70
     0
  9
$DIMTOLJ
 70
     0
  9
$DIMTZIN
 70
     8
  9
$DIMALTZ
 70
     0
  9
$DIMALTTZ
 70
     0
  9
$DIMUPT
 70
     0
  9
$DIMDEC
 70
     1
  9
$DIMTDEC
 70
     1
  9
$DIMALTU
 70
     2
  9
$DIMALTTD
 70
     3
  9
$DIMTXSTY
  7
SANINDUSA
  9
$DIMAUNIT
 70
     0
  9
$DIMADEC
 70
     1
  9
$DIMALTRND
 40
0.0
  9
$DIMAZIN
 70
     0
  9
$DIMDSEP
 70
    44
  9
$DIMATFIT
 70
     3
  9
$DIMFRAC
 70
     0
  9
$DIMLDRBLK
  1

  9
$DIMLUNIT
 70
     2
  9
$DIMLWD
 70
    -1
  9
$DIMLWE
 70
    -1
  9
$DIMTMOVE
 70
     0
  9
$LUNITS
 70
     2
  9
$LUPREC
 70
     4
  9
$SKETCHINC
 40
1.0
  9
$FILLETRAD
 40
0.0
  9
$AUNITS
 70
     0
  9
$AUPREC
 70
     0
  9
$MENU
  1
.
  9
$ELEVATION
 40
0.0
  9
$PELEVATION
 40
0.0
  9
$THICKNESS
 40
0.0
  9
$LIMCHECK
 70
     0
  9
$CHAMFERA
 40
10.0
  9
$CHAMFERB
 40
10.0
  9
$CHAMFERC
 40
20.0
  9
$CHAMFERD
 40
0.0
  9
$SKPOLY
 70
     0
  9
$TDCREATE
 40
2453257.723330613
  9
$TDUCREATE
 40
2453257.681663947
  9
$TDUPDATE
 40
2455824.752287686
  9
$TDUUPDATE
 40
2455824.710621019
  9
$TDINDWG
 40
0.0308127199
  9
$TDUSRTIMER
 40
0.0308127199
  9
$USRTIMER
 70
     1
  9
$ANGBASE
 50
0.0
  9
$ANGDIR
 70
     0
  9
$PDMODE
 70
     0
  9
$PDSIZE
 40
0.0
  9
$PLINEWID
 40
0.0
  9
$SPLFRAME
 70
     0
  9
$SPLINETYPE
 70
     6
  9
$SPLINESEGS
 70
     8
  9
$HANDSEED
  5
20D5
  9
$SURFTAB1
 70
     6
  9
$SURFTAB2
 70
     6
  9
$SURFTYPE
 70
     6
  9
$SURFU
 70
     6
  9
$SURFV
 70
     6
  9
$UCSBASE
  2

  9
$UCSNAME
  2

  9
$UCSORG
 10
0.0
 20
0.0
 30
0.0
  9
$UCSXDIR
 10
1.0
 20
0.0
 30
0.0
  9
$UCSYDIR
 10
0.0
 20
1.0
 30
0.0
  9
$UCSORTHOREF
  2

  9
$UCSORTHOVIEW
 70
     0
  9
$UCSORGTOP
 10
0.0
 20
0.0
 30
0.0
  9
$UCSORGBOTTOM
 10
0.0
 20
0.0
 30
0.0
  9
$UCSORGLEFT
 10
0.0
 20
0.0
 30
0.0
  9
$UCSORGRIGHT
 10
0.0
 20
0.0
 30
0.0
  9
$UCSORGFRONT
 10
0.0
 20
0.0
 30
0.0
  9
$UCSORGBACK
 10
0.0
 20
0.0
 30
0.0
  9
$PUCSBASE
  2

  9
$PUCSNAME
  2

  9
$PUCSORG
 10
0.0
 20
0.0
 30
0.0
  9
$PUCSXDIR
 10
1.0
 20
0.0
 30
0.0
  9
$PUCSYDIR
 10
0.0
 20
1.0
 30
0.0
  9
$PUCSORTHOREF
  2

  9
$PUCSORTHOVIEW
 70
     0
  9
$PUCSORGTOP
 10
0.0
 20
0.0
 30
0.0
  9
$PUCSORGBOTTOM
 10
0.0
 20
0.0
 30
0.0
  9
$PUCSORGLEFT
 10
0.0
 20
0.0
 30
0.0
  9
$PUCSORGRIGHT
 10
0.0
 20
0.0
 30
0.0
  9
$PUCSORGFRONT
 10
0.0
 20
0.0
 30
0.0
  9
$PUCSORGBACK
 10
0.0
 20
0.0
 30
0.0
  9
$USERI1
 70
     0
  9
$USERI2
 70
     0
  9
$USERI3
 70
     0
  9
$USERI4
 70
     0
  9
$USERI5
 70
     0
  9
$USERR1
 40
0.0
  9
$USERR2
 40
0.0
  9
$USERR3
 40
0.0
  9
$USERR4
 40
0.0
  9
$USERR5
 40
0.0
  9
$WORLDVIEW
 70
     1
  9
$SHADEDGE
 70
     3
  9
$SHADEDIF
 70
    70
  9
$TILEMODE
 70
     1
  9
$MAXACTVP
 70
    64
  9
$PINSBASE
 10
0.0
 20
0.0
 30
0.0
  9
$PLIMCHECK
 70
     0
  9
$PEXTMIN
 10
1.000000000000000E+20
 20
1.000000000000000E+20
 30
1.000000000000000E+20
  9
$PEXTMAX
 10
-1.000000000000000E+20
 20
-1.000000000000000E+20
 30
-1.000000000000000E+20
  9
$PLIMMIN
 10
0.0
 20
0.0
  9
$PLIMMAX
 10
420.0
 20
297.0
  9
$UNITMODE
 70
     0
  9
$VISRETAIN
 70
     1
  9
$PLINEGEN
 70
     0
  9
$PSLTSCALE
 70
     1
  9
$TREEDEPTH
 70
  3020
  9
$CMLSTYLE
  2
Standard
  9
$CMLJUST
 70
     0
  9
$CMLSCALE
 40
20.0
  9
$PROXYGRAPHICS
 70
     1
  9
$MEASUREMENT
 70
     1
  9
$CELWEIGHT
370
    -1
  9
$ENDCAPS
280
     0
  9
$JOINSTYLE
280
     0
  9
$LWDISPLAY
290
     0
  9
$INSUNITS
 70
     4
  9
$HYPERLINKBASE
  1

  9
$STYLESHEET
  1
monochrome.ctb
  9
$XEDIT
290
     1
  9
$CEPSNTYPE
380
     0
  9
$PSTYLEMODE
290
     1
  9
$FINGERPRINTGUID
  2
{B98A73AA-52AA-4C10-B469-C0E7150AC31F}
  9
$VERSIONGUID
  2
{BFB5C7F7-9BE3-4D5B-BBAE-045129F21E20}
  9
$EXTNAMES
290
     1
  9
$PSVPSCALE
 40
0.0
  9
$OLESTARTUP
290
     0
  9
$SORTENTS
280
   127
  9
$INDEXCTL
280
     0
  9
$HIDETEXT
280
     1
  9
$XCLIPFRAME
290
     0
  9
$HALOGAP
280
     0
  9
$OBSCOLOR
 70
   257
  9
$OBSLTYPE
280
     0
  9
$INTERSECTIONDISPLAY
280
     0
  9
$INTERSECTIONCOLOR
 70
   257
  9
$DIMASSOC
280
     2
  9
$PROJECTNAME
  1

  0
ENDSEC
  0
SECTION
  2
CLASSES
  0
CLASS
  1
ACDBDICTIONARYWDFLT
  2
AcDbDictionaryWithDefault
  3
ObjectDBX Classes
 90
        0
 91
        1
280
     0
281
     0
  0
CLASS
  1
DICTIONARYVAR
  2
AcDbDictionaryVar
  3
ObjectDBX Classes
 90
        0
 91
       12
280
     0
281
     0
  0
CLASS
  1
DIMASSOC
  2
AcDbDimAssoc
  3
"AcDbDimAssoc|Product Desc:     AcDim ARX App For Dimension|Company:          Autodesk, Inc.|WEB Address:      www.autodesk.com"
 90
        0
 91
        5
280
     0
281
     0
  0
CLASS
  1
MATERIAL
  2
AcDbMaterial
  3
ObjectDBX Classes
 90
     1153
 91
        3
280
     0
281
     0
  0
CLASS
  1
VISUALSTYLE
  2
AcDbVisualStyle
  3
ObjectDBX Classes
 90
     4095
 91
       19
280
     0
281
     0
  0
CLASS
  1
TABLESTYLE
  2
AcDbTableStyle
  3
ObjectDBX Classes
 90
     4095
 91
        1
280
     0
281
     0
  0
CLASS
  1
SCALE
  2
AcDbScale
  3
ObjectDBX Classes
 90
     1153
 91
       17
280
     0
281
     0
  0
CLASS
  1
MLEADERSTYLE
  2
AcDbMLeaderStyle
  3
ACDB_MLEADERSTYLE_CLASS
 90
     4095
 91
        1
280
     0
281
     0
  0
CLASS
  1
CELLSTYLEMAP
  2
AcDbCellStyleMap
  3
ObjectDBX Classes
 90
     1152
 91
        2
280
     0
281
     0
  0
ENDSEC
  0
SECTION
  2
TABLES
  0
TABLE
  2
VPORT
  5
8
330
0
100
AcDbSymbolTable
 70
     1
  0
VPORT
  5
1FD3
330
8
100
AcDbSymbolTableRecord
100
AcDbViewportTableRecord
  2
*Active
 70
     0
 10
0.0
 20
0.0
 11
1.0
 21
1.0
 12
266.6634224900937
 22
345.9934665658612
 13
0.0
 23
0.0
 14
10.0
 24
10.0
 15
10.0
 25
10.0
 16
0.0
 26
0.0
 36
1.0
 17
0.0
 27
0.0
 37
0.0
 40
1.861562500000047
 41
1.645464025026068
 42
50.0
 43
0.0
 44
0.0
 50
0.0
 51
0.0
 71
     0
 72
   100
 73
     1
 74
     2
 75
     0
 76
     0
 77
     0
 78
     0
281
     0
 65
     1
110
0.0
120
0.0
130
0.0
111
1.0
121
0.0
131
0.0
112
0.0
122
1.0
132
0.0
 79
     0
146
0.0
  0
ENDTAB
  0
TABLE
  2
LTYPE
  5
5
330
0
100
AcDbSymbolTable
 70
     5
  0
LTYPE
  5
14
330
5
100
AcDbSymbolTableRecord
100
AcDbLinetypeTableRecord
  2
ByBlock
 70
     0
  3

 72
    65
 73
     0
 40
0.0
  0
LTYPE
  5
15
330
5
100
AcDbSymbolTableRecord
100
AcDbLinetypeTableRecord
  2
ByLayer
 70
     0
  3

 72
    65
 73
     0
 40
0.0
  0
LTYPE
  5
16
330
5
100
AcDbSymbolTableRecord
100
AcDbLinetypeTableRecord
  2
Continuous
 70
     0
  3
Solid line
 72
    65
 73
     0
 40
0.0
  0
LTYPE
  5
2D
330
5
100
AcDbSymbolTableRecord
100
AcDbLinetypeTableRecord
  2
DASHDOT
 70
     0
  3
Dash dot __ . __ . __ . __ . __ . __ . __ . __
 72
    65
 73
     4
 40
25.4
 49
12.7
 74
     0
 49
-6.349999999999999
 74
     0
 49
0.0
 74
     0
 49
-6.349999999999999
 74
     0
  0
LTYPE
  5
2E
330
5
100
AcDbSymbolTableRecord
100
AcDbLinetypeTableRecord
  2
HIDDEN
 70
     0
  3
Hidden __ __ __ __ __ __ __ __ __ __ __ __ __ _
 72
    65
 73
     2
 40
9.524999999999998
 49
6.349999999999999
 74
     0
 49
-3.174999999999999
 74
     0
  0
LTYPE
  5
D7C
330
5
100
AcDbSymbolTableRecord
100
AcDbLinetypeTableRecord
  2
CENTER
 70
     0
  3
____ _ ____ _ ____ _ ____ _ ____ _ ____ _ ____ 
 72
    65
 73
     4
 40
2.0
 49
1.25
 74
     0
 49
-0.25
 74
     0
 49
0.25
 74
     0
 49
-0.25
 74
     0
  0
ENDTAB
  0
TABLE
  2
LAYER
  5
2
330
0
100
AcDbSymbolTable
 70
    17
  0
LAYER
  5
10
102
{ACAD_XDICTIONARY
360
203E
102
}
330
2
100
AcDbSymbolTableRecord
100
AcDbLayerTableRecord
  2
0
 70
     0
 62
     7
  6
Continuous
370
    -3
390
F
  0
LAYER
  5
2F
102
{ACAD_XDICTIONARY
360
2040
102
}
330
2
100
AcDbSymbolTableRecord
100
AcDbLayerTableRecord
  2
1
 70
     0
 62
     1
  6
Continuous
370
    -3
390
F
  0
LAYER
  5
30
102
{ACAD_XDICTIONARY
360
2042
102
}
330
2
100
AcDbSymbolTableRecord
100
AcDbLayerTableRecord
  2
2
 70
     0
 62
     2
  6
Continuous
370
    -3
390
F
  0
LAYER
  5
31
102
{ACAD_XDICTIONARY
360
2044
102
}
330
2
100
AcDbSymbolTableRecord
100
AcDbLayerTableRecord
  2
3
 70
     0
 62
     3
  6
Continuous
370
    -3
390
F
  0
LAYER
  5
32
102
{ACAD_XDICTIONARY
360
2046
102
}
330
2
100
AcDbSymbolTableRecord
100
AcDbLayerTableRecord
  2
4
 70
     0
 62
     4
  6
Continuous
370
    -3
390
F
  0
LAYER
  5
33
102
{ACAD_XDICTIONARY
360
2048
102
}
330
2
100
AcDbSymbolTableRecord
100
AcDbLayerTableRecord
  2
5
 70
     0
 62
     5
  6
Continuous
370
    -3
390
F
  0
LAYER
  5
34
102
{ACAD_XDICTIONARY
360
204A
102
}
330
2
100
AcDbSymbolTableRecord
100
AcDbLayerTableRecord
  2
6
 70
     0
 62
     6
  6
Continuous
370
    -3
390
F
  0
LAYER
  5
35
102
{ACAD_XDICTIONARY
360
204C
102
}
330
2
100
AcDbSymbolTableRecord
100
AcDbLayerTableRecord
  2
7
 70
     0
 62
     7
  6
Continuous
370
    -3
390
F
  0
LAYER
  5
36
102
{ACAD_XDICTIONARY
360
204E
102
}
330
2
100
AcDbSymbolTableRecord
100
AcDbLayerTableRecord
  2
cen
 70
     0
 62
     7
  6
DASHDOT
370
    -3
390
F
  0
LAYER
  5
37
102
{ACAD_XDICTIONARY
360
2050
102
}
330
2
100
AcDbSymbolTableRecord
100
AcDbLayerTableRecord
  2
hid
 70
     0
 62
     7
  6
HIDDEN
370
    -3
390
F
  0
LAYER
  5
5D6
102
{ACAD_XDICTIONARY
360
2052
102
}
330
2
100
AcDbSymbolTableRecord
100
AcDbLayerTableRecord
  2
hatch
 70
     0
 62
     9
  6
Continuous
370
    -3
390
F
  0
LAYER
  5
8AF
102
{ACAD_XDICTIONARY
360
2054
102
}
330
2
100
AcDbSymbolTableRecord
100
AcDbLayerTableRecord
  2
9
 70
     0
 62
     9
  6
Continuous
370
    -3
390
F
  0
LAYER
  5
8F8
102
{ACAD_XDICTIONARY
360
2056
102
}
330
2
100
AcDbSymbolTableRecord
100
AcDbLayerTableRecord
  2
leg fin
 70
     0
 62
     9
  6
Continuous
370
    -3
390
F
  0
LAYER
  5
91D
102
{ACAD_XDICTIONARY
360
2058
102
}
330
2
100
AcDbSymbolTableRecord
100
AcDbLayerTableRecord
  2
cotas
 70
     0
 62
     1
  6
Continuous
370
    -3
390
F
  0
LAYER
  5
92F
330
2
100
AcDbSymbolTableRecord
100
AcDbLayerTableRecord
  2
Defpoints
 70
     0
 62
     7
  6
Continuous
290
     0
370
    -3
390
F
  0
LAYER
  5
D7D
102
{ACAD_XDICTIONARY
360
205A
102
}
330
2
100
AcDbSymbolTableRecord
100
AcDbLayerTableRecord
  2
quote
 70
     0
 62
     7
  6
Continuous
370
    18
390
F
  0
LAYER
  5
203D
102
{ACAD_XDICTIONARY
360
205C
102
}
330
2
100
AcDbSymbolTableRecord
100
AcDbLayerTableRecord
  2
SANINDUSA
 70
     0
 62
     3
  6
Continuous
370
    -3
390
F
  0
ENDTAB
  0
TABLE
  2
STYLE
  5
3
330
0
100
AcDbSymbolTable
 70
     3
  0
STYLE
  5
11
330
3
100
AcDbSymbolTableRecord
100
AcDbTextStyleTableRecord
  2
Standard
 70
     0
 40
0.0
 41
1.0
 50
0.0
 71
     0
 42
2.5
  3
Avgardn.ttf
  4

1001
ACAD
1000
AvantGarde Bk BT
1071
       34
  0
STYLE
  5
2C
330
3
100
AcDbSymbolTableRecord
100
AcDbTextStyleTableRecord
  2

 70
     1
 40
0.0
 41
1.0
 50
0.0
 71
     0
 42
2.5
  3
ltypeshp.shx
  4

  0
STYLE
  5
91F
330
3
100
AcDbSymbolTableRecord
100
AcDbTextStyleTableRecord
  2
SANINDUSA
 70
     0
 40
0.0
 41
1.0
 50
0.0
 71
     0
 42
2.5
  3
verdana.TTF
  4

1001
ACAD
1000
Verdana
1071
       34
  0
ENDTAB
  0
TABLE
  2
VIEW
  5
6
330
0
100
AcDbSymbolTable
 70
     0
  0
ENDTAB
  0
TABLE
  2
UCS
  5
7
330
0
100
AcDbSymbolTable
 70
     0
  0
ENDTAB
  0
TABLE
  2
APPID
  5
9
330
0
100
AcDbSymbolTable
 70
     8
  0
APPID
  5
12
330
9
100
AcDbSymbolTableRecord
100
AcDbRegAppTableRecord
  2
ACAD
 70
     0
  0
APPID
  5
3A
330
9
100
AcDbSymbolTableRecord
100
AcDbRegAppTableRecord
  2
DCO15
 70
     0
  0
APPID
  5
D7F
330
9
100
AcDbSymbolTableRecord
100
AcDbRegAppTableRecord
  2
GENIUS_GENDTOL_13
 70
     0
  0
APPID
  5
D80
330
9
100
AcDbSymbolTableRecord
100
AcDbRegAppTableRecord
  2
GENIUS_GENREC_14
 70
     0
  0
APPID
  5
D81
330
9
100
AcDbSymbolTableRecord
100
AcDbRegAppTableRecord
  2
GENIUS_GENODEF_13
 70
     0
  0
APPID
  5
D82
330
9
100
AcDbSymbolTableRecord
100
AcDbRegAppTableRecord
  2
GENIUS_GENOBJ-N-REC_13
 70
     0
  0
APPID
  5
201E
330
9
100
AcDbSymbolTableRecord
100
AcDbRegAppTableRecord
  2
ACAD_EXEMPT_FROM_CAD_STANDARDS
 70
     0
  0
APPID
  5
20D4
330
9
100
AcDbSymbolTableRecord
100
AcDbRegAppTableRecord
  2
ACAD_MLEADERVER
 70
     0
  0
ENDTAB
  0
TABLE
  2
DIMSTYLE
  5
A
330
0
100
AcDbSymbolTable
 70
     4
100
AcDbDimStyleTable
 71
     1
340
921
  0
DIMSTYLE
105
45
330
A
100
AcDbSymbolTableRecord
100
AcDbDimStyleTableRecord
  2
STANDARD
 70
     0
289
     0
340
11
  0
DIMSTYLE
105
921
330
A
100
AcDbSymbolTableRecord
100
AcDbDimStyleTableRecord
  2
SANINDUSA
 70
     0
 41
3.0
 42
1.0
 43
1.0
 44
1.0
 73
     0
 74
     0
 77
     1
 78
     8
140
2.0
141
0.0
143
0.03937007874016
147
1.0
171
     3
172
     1
176
   256
177
   256
178
   256
179
     1
271
     1
272
     1
274
     3
278
    44
283
     0
284
     8
340
91F
371
    -1
372
    -1
  0
DIMSTYLE
105
D7E
330
A
100
AcDbSymbolTableRecord
100
AcDbDimStyleTableRecord
  2
ISO-35
 70
     0
 41
2.5
 42
0.5
 43
5.25
 44
1.75
 73
     0
 74
     0
 77
     1
 78
     8
140
2.5
141
3.5
143
0.0394
147
0.875
171
     4
172
     1
176
   256
178
   256
271
     1
272
     1
273
     8
274
     4
340
11
371
    -1
  0
ENDTAB
  0
TABLE
  2
BLOCK_RECORD
  5
1
330
0
100
AcDbSymbolTable
 70
    25
  0
BLOCK_RECORD
  5
1F
330
1
100
AcDbSymbolTableRecord
100
AcDbBlockTableRecord
  2
*Model_Space
340
22
  0
BLOCK_RECORD
  5
1B
330
1
100
AcDbSymbolTableRecord
100
AcDbBlockTableRecord
  2
*Paper_Space
340
1E
  0
BLOCK_RECORD
  5
23
330
1
100
AcDbSymbolTableRecord
100
AcDbBlockTableRecord
  2
*Paper_Space0
340
26
  0
BLOCK_RECORD
  5
919
330
1
100
AcDbSymbolTableRecord
100
AcDbBlockTableRecord
  2
_DotSmall
340
0
  0
BLOCK_RECORD
  5
922
330
1
100
AcDbSymbolTableRecord
100
AcDbBlockTableRecord
  2
base para cotas
340
0
310
2800000020000000200000000100080000000000000400000000000000000000000000000000000000000000000080000080000000808000800000008000800080800000C0C0C000C0DCC000F0CAA6000020400000206000002080000020A0000020C0000020E00000400000004020000040400000406000004080000040A0
310
000040C0000040E00000600000006020000060400000606000006080000060A0000060C0000060E00000800000008020000080400000806000008080000080A0000080C0000080E00000A0000000A0200000A0400000A0600000A0800000A0A00000A0C00000A0E00000C0000000C0200000C0400000C0600000C0800000C0
310
A00000C0C00000C0E00000E0000000E0200000E0400000E0600000E0800000E0A00000E0C00000E0E00040000000400020004000400040006000400080004000A0004000C0004000E00040200000402020004020400040206000402080004020A0004020C0004020E000404000004040200040404000404060004040800040
310
40A0004040C0004040E00040600000406020004060400040606000406080004060A0004060C0004060E00040800000408020004080400040806000408080004080A0004080C0004080E00040A0000040A0200040A0400040A0600040A0800040A0A00040A0C00040A0E00040C0000040C0200040C0400040C0600040C08000
310
40C0A00040C0C00040C0E00040E0000040E0200040E0400040E0600040E0800040E0A00040E0C00040E0E00080000000800020008000400080006000800080008000A0008000C0008000E00080200000802020008020400080206000802080008020A0008020C0008020E00080400000804020008040400080406000804080
310
008040A0008040C0008040E00080600000806020008060400080606000806080008060A0008060C0008060E00080800000808020008080400080806000808080008080A0008080C0008080E00080A0000080A0200080A0400080A0600080A0800080A0A00080A0C00080A0E00080C0000080C0200080C0400080C0600080C0
310
800080C0A00080C0C00080C0E00080E0000080E0200080E0400080E0600080E0800080E0A00080E0C00080E0E000C0000000C0002000C0004000C0006000C0008000C000A000C000C000C000E000C0200000C0202000C0204000C0206000C0208000C020A000C020C000C020E000C0400000C0402000C0404000C0406000C0
310
408000C040A000C040C000C040E000C0600000C0602000C0604000C0606000C0608000C060A000C060C000C060E000C0800000C0802000C0804000C0806000C0808000C080A000C080C000C080E000C0A00000C0A02000C0A04000C0A06000C0A08000C0A0A000C0A0C000C0A0E000C0C00000C0C02000C0C04000C0C06000
310
C0C08000C0C0A000F0FBFF00A4A0A000808080000000FF0000FF000000FFFF00FF000000FF00FF00FFFF0000FFFFFF00A4A4A4A4A4A4A4A4A4A4A4A4A4A4A4A4A4A4A4A4A4A4A4A4A4A4A4A4A4A4A4A4A4A4A4A4A4A4A4A4A4A4A4A4A4A4A4A4A4A4A4A4A4A4A4A4A4A4A4A4A4A4A4A4A4A4A4A4A4A4A4A4A4A4A4A4A4A4A4
310
A4A4A4A4A4A4A4A4A4A4A4A4A4A4A4A4A4A4A4A4A4A4A4A4A4A4A4A4A4A4A4A4A4A4A4A4A4A4A4A4A4A4A4A4A4A4A4A4A4A4A4A4A4A4A4A4A4A4A4A4A4A4A4A4A4A4A4A4A4A4A4A4A4A4A4A4A4A4A4A4A4A4A4A4A4A4A4A4A4A4A4A4A4A4A4A4A4A4A4A4A4A4A4A4A4A4A4A4A4A4A4A4A4A4A4A4A4A4A4A4A4A4A4A4A4A4A4
310
A4A4A4A4A4A4A4A4A4A4A4A4A4A4A4A4A4A4A4A4A4A4A4A4A4A4A4A4A4A4A4A4A4A4A4A4A4A4A4A4A4A4A4A4A4A4A4A4A4A4A4A4A4A4A4A4A4A4A4A4A4A4A4A4A4A4A4A4A4A4A4A4A4A4A4A4A4A4A4A4A4A4A4A4A4A4A4A4A4A4A4A4A4A4A4A4A4A4A4A4A4A4A4A4A4A4A4A4A4A4A4A4A4A4A4A4A4A4A4A4A4A4A4A4A4A4A4
310
A4A4A4A4A4A4A4A4A4A4A4A4A4A4A4A4A4A4A4A4A4A4A4A4A4A4A4A4A4A4A4A4A4A4A4A4A4A4A4A4A4A4A4A4A4A4A4A4A4A4A4A4A4A4A4A4A4A4A4A4A4A4A4A4A4A4A4A4A4A4A4A4A4A4A4A4A4A4A4A4A4A4A4A4A4A4A4A4A4A4A4A4A4A4A4A4A4A4A4A4A4A4A4A4A4A4A4A4A4A4A4A4A4A4A4A4F9F9F9F9F9F9F9F9F9F9F9
310
F9F9F9F9F9F9F9F9F9F9F9F9F9F9F9F9F9F9F9A4A4F9F9F9F9F9F9F9F9F9F9F9F9F9F9F9F9F9F9F9F9F9F9F9F9F9F9F9F9F9F9A4A4F9F9F9F9F9F9F9F9F9F9F9F9F9F9F9F9F9F9F9F9F9F9F9F9F9F9F9F9F9F9A4A4F9A4A4A4A4A4A4A4A4A4A4A4A4A4A4A4A4A4A4A4A4A4A4A4A4A4A4A4A4F9A4A4A4A4A4A4A4A4A4A4A4A4
310
A4A4A4A4A4A4A4A4A4A4A4A4A4A4A4A4A4A4A4A4A4A4A4A4A4A4A4A4A4A4A4A4A4A4A4A4A4A4A4A4A4A4A4A4A4A4A4A4A4A4A4A4A4A4A4A4A4A4A4A4A4A4A4A4A4A4A4A4A4A4A4A4A4A4A4A4A4A4A4A4A4A4A4A4A4A4A4A4A4A4A4A4A4A4A4A4A4A4A4A4A4A4A4A4A4A4A4A4A4A4A4A4A4A4A4A4A4A4A4A4A4A4A4A4A4A4A4
310
A4A4A4A4A4A4A4A4A4A4A4A4A4A4A4A4A4A4A4A4A4A4A4A4A4A4A4A4A4A4A4A4A4A4A4A4A4A4A4A4A4A4A4A4A4A4A4A4A4A4A4A4A4A4A4A4A4A4A4A4A4A4A4A4A4A4A4A4A4A4A4A4A4A4A4A4A4A4A4A4A4A4A4A4A4A4A4A4A4A4A4A4A4A4A4A4A4A4A4A4A4A4A4A4A4A4A4A4A4A4A4A4A4A4A4A4A4A4A4A4A4A4A4A4A4A4A4
310
A4A4A4A4A4A4A4A4A4A4A4A4A4A4A4A4A4A4A4A4A4A4A4A4A4A4A4A4A4A4A4A4A4A4A4A4A4A4A4A4A4A4A4A4A4A4A4A4A4A4A4A4A4A4A4A4A4A4A4A4A4A4A4A4A4A4A4A4A4A4A4A4A4A4A4A4A4A4A4A4A4A4A4A4A4A4A4A4A4A4A4A4A4A4A4A4A4A4A4A4A4A4A4A4A4A4A4A4A4A4A4A4A4A4A4A4A4A4A4A4A4A4A4A4A4A4A4
310
A4A4A4A4A4A4A4A4A4A4A4A4A4A4A4A4A4A4A4A4A4A4A4A4A4A4A4A4A4A4A4A4A4A4A4A4A4A4A4A4A4A4A4A4A4A4A4A4A4A4A4A4A4A4A4A4
1001
ACAD
1000
DesignCenter Data
1002
{
1070
     1
1070
     4
1002
}
  0
BLOCK_RECORD
  5
AA8
330
1
100
AcDbSymbolTableRecord
100
AcDbBlockTableRecord
  2
_CLOSED
340
0
  0
BLOCK_RECORD
  5
CFB
330
1
100
AcDbSymbolTableRecord
100
AcDbBlockTableRecord
  2
guarnizione
340
0
102
{BLKREFS
331
12F9
331
12FA
102
}
  0
BLOCK_RECORD
  5
139F
330
1
100
AcDbSymbolTableRecord
100
AcDbBlockTableRecord
  2
*D5
340
0
  0
BLOCK_RECORD
  5
13B9
330
1
100
AcDbSymbolTableRecord
100
AcDbBlockTableRecord
  2
*D6
340
0
  0
BLOCK_RECORD
  5
13C5
330
1
100
AcDbSymbolTableRecord
100
AcDbBlockTableRecord
  2
*D7
340
0
  0
BLOCK_RECORD
  5
13F9
330
1
100
AcDbSymbolTableRecord
100
AcDbBlockTableRecord
  2
*D8
340
0
  0
BLOCK_RECORD
  5
1405
330
1
100
AcDbSymbolTableRecord
100
AcDbBlockTableRecord
  2
*D9
340
0
  0
BLOCK_RECORD
  5
1483
330
1
100
AcDbSymbolTableRecord
100
AcDbBlockTableRecord
  2
*D10
340
0
  0
BLOCK_RECORD
  5
148F
330
1
100
AcDbSymbolTableRecord
100
AcDbBlockTableRecord
  2
*D11
340
0
  0
BLOCK_RECORD
  5
149B
330
1
100
AcDbSymbolTableRecord
100
AcDbBlockTableRecord
  2
*D12
340
0
  0
BLOCK_RECORD
  5
14A7
330
1
100
AcDbSymbolTableRecord
100
AcDbBlockTableRecord
  2
*D13
340
0
  0
BLOCK_RECORD
  5
14B3
330
1
100
AcDbSymbolTableRecord
100
AcDbBlockTableRecord
  2
*D14
340
0
  0
BLOCK_RECORD
  5
14BF
330
1
100
AcDbSymbolTableRecord
100
AcDbBlockTableRecord
  2
*D15
340
0
  0
BLOCK_RECORD
  5
14C7
330
1
100
AcDbSymbolTableRecord
100
AcDbBlockTableRecord
  2
*D16
340
0
  0
BLOCK_RECORD
  5
14CF
330
1
100
AcDbSymbolTableRecord
100
AcDbBlockTableRecord
  2
*D17
340
0
  0
BLOCK_RECORD
  5
14DD
330
1
100
AcDbSymbolTableRecord
100
AcDbBlockTableRecord
  2
*D18
340
0
  0
BLOCK_RECORD
  5
1BE7
330
1
100
AcDbSymbolTableRecord
100
AcDbBlockTableRecord
  2
*D19
340
0
  0
BLOCK_RECORD
  5
1C05
330
1
100
AcDbSymbolTableRecord
100
AcDbBlockTableRecord
  2
*D20
340
0
  0
BLOCK_RECORD
  5
1E16
330
1
100
AcDbSymbolTableRecord
100
AcDbBlockTableRecord
  2
*D21
340
0
  0
BLOCK_RECORD
  5
1E2E
330
1
100
AcDbSymbolTableRecord
100
AcDbBlockTableRecord
  2
*D22
340
0
  0
BLOCK_RECORD
  5
2026
330
1
100
AcDbSymbolTableRecord
100
AcDbBlockTableRecord
  2
*D24
340
0
  0
ENDTAB
  0
ENDSEC
  0
SECTION
  2
BLOCKS
  0
BLOCK
  5
20
330
1F
100
AcDbEntity
  8
0
100
AcDbBlockBegin
  2
*Model_Space
 70
     0
 10
0.0
 20
0.0
 30
0.0
  3
*Model_Space
  1

  0
ENDBLK
  5
21
330
1F
100
AcDbEntity
  8
0
100
AcDbBlockEnd
  0
BLOCK
  5
1C
330
1B
100
AcDbEntity
 67
     1
  8
0
100
AcDbBlockBegin
  2
*Paper_Space
 70
     0
 10
0.0
 20
0.0
 30
0.0
  3
*Paper_Space
  1

  0
ENDBLK
  5
1D
330
1B
100
AcDbEntity
 67
     1
  8
0
100
AcDbBlockEnd
  0
BLOCK
  5
24
330
23
100
AcDbEntity
 67
     1
  8
0
100
AcDbBlockBegin
  2
*Paper_Space0
 70
     0
 10
0.0
 20
0.0
 30
0.0
  3
*Paper_Space0
  1

  0
ENDBLK
  5
25
330
23
100
AcDbEntity
 67
     1
  8
0
100
AcDbBlockEnd
  0
BLOCK
  5
91B
330
919
100
AcDbEntity
  8
0
100
AcDbBlockBegin
  2
_DotSmall
 70
     0
 10
0.0
 20
0.0
 30
0.0
  3
_DotSmall
  1

  0
LWPOLYLINE
  5
91A
330
919
100
AcDbEntity
  8
0
  6
ByBlock
 62
     0
100
AcDbPolyline
 90
        2
 70
     1
 43
0.5
 10
-0.0625
 20
0.0
 42
1.0
 10
0.0625
 20
0.0
 42
1.0
  0
ENDBLK
  5
91C
330
919
100
AcDbEntity
  8
0
100
AcDbBlockEnd
  0
BLOCK
  5
92A
330
922
100
AcDbEntity
  8
0
100
AcDbBlockBegin
  2
base para cotas
 70
     0
 10
0.0
 20
0.0
 30
0.0
  3
base para cotas
  1

  0
LINE
  5
B36
330
922
100
AcDbEntity
  8
cotas
100
AcDbLine
 10
0.0
 20
-30.0
 30
0.0
 11
327.1260136525398
 21
-30.0
 31
0.0
  0
LINE
  5
B37
330
922
100
AcDbEntity
  8
cotas
100
AcDbLine
 10
0.0
 20
-25.0
 30
0.0
 11
327.1260136525398
 21
-25.0
 31
0.0
  0
LINE
  5
B38
330
922
100
AcDbEntity
  8
cotas
100
AcDbLine
 10
0.0
 20
-20.0
 30
0.0
 11
327.1260136525398
 21
-20.0
 31
0.0
  0
LINE
  5
B39
330
922
100
AcDbEntity
  8
cotas
100
AcDbLine
 10
0.0
 20
-15.0
 30
0.0
 11
327.1260136525398
 21
-15.0
 31
0.0
  0
LINE
  5
B3A
330
922
100
AcDbEntity
  8
cotas
100
AcDbLine
 10
0.0
 20
-10.0
 30
0.0
 11
327.1260136525398
 21
-10.0
 31
0.0
  0
LINE
  5
B3B
330
922
100
AcDbEntity
  8
cotas
100
AcDbLine
 10
0.0
 20
0.0
 30
0.0
 11
0.0
 21
-30.0
 31
0.0
  0
LINE
  5
B3C
330
922
100
AcDbEntity
  8
cotas
100
AcDbLine
 10
327.1260136525398
 20
-30.0
 30
0.0
 11
327.1260136525398
 21
0.0
 31
0.0
  0
ENDBLK
  5
92B
330
922
100
AcDbEntity
  8
0
100
AcDbBlockEnd
  0
BLOCK
  5
AAD
330
AA8
100
AcDbEntity
  8
0
100
AcDbBlockBegin
  2
_CLOSED
 70
     0
 10
0.0
 20
0.0
 30
0.0
  3
_CLOSED
  1

  0
LINE
  5
AA9
330
AA8
100
AcDbEntity
  8
0
100
AcDbLine
 10
-1.0
 20
0.166667
 30
0.0
 11
0.0
 21
0.0
 31
0.0
  0
LINE
  5
AAA
330
AA8
100
AcDbEntity
  8
0
100
AcDbLine
 10
0.0
 20
0.0
 30
0.0
 11
-1.0
 21
-0.166667
 31
0.0
  0
LINE
  5
AAB
330
AA8
100
AcDbEntity
  8
0
100
AcDbLine
 10
-1.0
 20
0.166667
 30
0.0
 11
-1.0
 21
-0.166667
 31
0.0
  0
LINE
  5
AAC
330
AA8
100
AcDbEntity
  8
0
100
AcDbLine
 10
0.0
 20
0.0
 30
0.0
 11
-1.0
 21
0.0
 31
0.0
  0
ENDBLK
  5
AAE
330
AA8
100
AcDbEntity
  8
0
100
AcDbBlockEnd
  0
BLOCK
  5
D46
330
CFB
100
AcDbEntity
  8
0
100
AcDbBlockBegin
  2
guarnizione
 70
     0
 10
0.0
 20
0.0
 30
0.0
  3
guarnizione
  1

  0
LINE
  5
CFC
330
CFB
100
AcDbEntity
  8
0
100
AcDbLine
 10
12.0
 20
3.179312414488776
 30
0.0
 11
12.0
 21
2.699999999999818
 31
0.0
  0
LINE
  5
CFD
330
CFB
100
AcDbEntity
  8
0
100
AcDbLine
 10
9.5
 20
3.130475008156281
 30
0.0
 11
9.440776269158959
 21
2.734883615801663
 31
0.0
  0
ARC
  5
CFE
330
CFB
100
AcDbEntity
  8
0
100
AcDbCircle
 10
11.19999999999891
 20
3.179312414488776
 30
0.0
 40
0.8
100
AcDbArc
 50
0.0
 51
81.48552156587461
  0
ARC
  5
CFF
330
CFB
100
AcDbEntity
  8
0
100
AcDbCircle
 10
8.753809903480942
 20
1.523241254200002
 30
0.0
 40
0.1999999999999504
100
AcDbArc
 50
171.485521565823
 51
351.485521565823
  0
LINE
  5
D00
330
CFB
100
AcDbEntity
  8
0
100
AcDbLine
 10
11.65558220186904
 20
-2.403306455734309
 30
0.0
 11
9.440776269158959
 21
-2.734883615802573
 31
0.0
  0
ARC
  5
D01
330
CFB
100
AcDbEntity
  8
0
100
AcDbCircle
 10
8.753809903480942
 20
-1.523241254200911
 30
0.0
 40
0.1999999999999504
100
AcDbArc
 50
8.514478434176927
 51
188.5144784341769
  0
LINE
  5
D02
330
CFB
100
AcDbEntity
  8
0
100
AcDbLine
 10
9.5
 20
-3.130475008157191
 30
0.0
 11
9.440776269158959
 21
-2.734883615802573
 31
0.0
  0
ARC
  5
D03
330
CFB
100
AcDbEntity
  8
0
100
AcDbCircle
 10
11.69999999999891
 20
-2.699999999999818
 30
0.0
 40
0.3
100
AcDbArc
 50
0.0
 51
98.51447843412536
  0
ARC
  5
D04
330
CFB
100
AcDbEntity
  8
0
100
AcDbCircle
 10
11.69999999999891
 20
2.699999999999818
 30
0.0
 40
0.3
100
AcDbArc
 50
261.4855215658746
 51
0.0
  0
LINE
  5
D05
330
CFB
100
AcDbEntity
  8
0
100
AcDbLine
 10
11.65558220186904
 20
2.4033064557334
 30
0.0
 11
9.440776269158959
 21
2.734883615801663
 31
0.0
  0
LINE
  5
D06
330
CFB
100
AcDbEntity
  8
0
100
AcDbLine
 10
8.807715063378054
 20
3.234116537129011
 30
0.0
 11
8.556014207302723
 21
1.552853119620522
 31
0.0
  0
LINE
  5
D07
330
CFB
100
AcDbEntity
  8
0
100
AcDbLine
 10
9.203306455732672
 20
3.174892806287971
 30
0.0
 11
8.951605599657341
 21
1.493629388779481
 31
0.0
  0
LINE
  5
D08
330
CFB
100
AcDbEntity
  8
0
100
AcDbLine
 10
6.681411329471302
 20
3.552444090400967
 30
0.0
 11
6.622187598630262
 21
3.15685269804544
 31
0.0
  0
ARC
  5
D09
330
CFB
100
AcDbEntity
  8
0
100
AcDbCircle
 10
0.2999999999992724
 20
3.800000000000181
 30
0.0
 40
0.3
100
AcDbArc
 50
81.48552156587461
 51
180.0
  0
ARC
  5
D0A
330
CFB
100
AcDbEntity
  8
0
100
AcDbCircle
 10
1.042400829128382
 20
4.699999999999818
 30
0.0
 40
0.8
100
AcDbArc
 50
81.48552156587461
 51
90.0
  0
LINE
  5
D0B
330
CFB
100
AcDbEntity
  8
0
100
AcDbLine
 10
1.5
 20
3.923692082123125
 30
0.0
 11
0.3444177981309622
 21
4.09669354426569
 31
0.0
  0
LINE
  5
D0C
330
CFB
100
AcDbEntity
  8
0
100
AcDbLine
 10
1.5
 20
3.923692082123125
 30
0.0
 11
1.5
 21
3.099999999999454
 31
0.0
  0
LINE
  5
D0D
330
CFB
100
AcDbEntity
  8
0
100
AcDbLine
 10
1.5
 20
3.099999999999454
 30
0.0
 11
2.699999999998908
 21
3.099999999999454
 31
0.0
  0
LINE
  5
D0E
330
CFB
100
AcDbEntity
  8
0
100
AcDbLine
 10
2.699999999998908
 20
3.744040860223321
 30
0.0
 11
2.699999999998908
 21
3.099999999999454
 31
0.0
  0
LINE
  5
D0F
330
CFB
100
AcDbEntity
  8
0
100
AcDbLine
 10
6.622187598630262
 20
3.15685269804544
 30
0.0
 11
2.699999999998908
 21
3.744040860223321
 31
0.0
  0
LINE
  5
D10
330
CFB
100
AcDbEntity
  8
0
100
AcDbLine
 10
1.5
 20
-3.100000000000363
 30
0.0
 11
2.699999999998908
 21
-3.100000000000363
 31
0.0
  0
LINE
  5
D11
330
CFB
100
AcDbEntity
  8
0
100
AcDbLine
 10
11.31844746168099
 20
3.970495199198012
 30
0.0
 11
1.160848290810463
 21
5.491182784709053
 31
0.0
  0
LINE
  5
D12
330
CFB
100
AcDbEntity
  8
0
100
AcDbLine
 10
9.5
 20
3.130475008156281
 30
0.0
 11
6.681411329471302
 21
3.552444090400967
 31
0.0
  0
ARC
  5
D13
330
CFB
100
AcDbEntity
  8
0
100
AcDbCircle
 10
11.19999999999891
 20
-3.179312414488776
 30
0.0
 40
0.8
100
AcDbArc
 50
278.5144784341254
 51
0.0
  0
LINE
  5
D14
330
CFB
100
AcDbEntity
  8
0
100
AcDbLine
 10
6.681411329471302
 20
-3.552444090400967
 30
0.0
 11
6.622187598630262
 21
-3.15685269804635
 31
0.0
  0
ARC
  5
D15
330
CFB
100
AcDbEntity
  8
0
100
AcDbCircle
 10
0.2999999999992724
 20
-3.800000000000181
 30
0.0
 40
0.3
100
AcDbArc
 50
180.0
 51
278.5144784341254
  0
ARC
  5
D16
330
CFB
100
AcDbEntity
  8
0
100
AcDbCircle
 10
1.042400829128382
 20
-4.699999999999818
 30
0.0
 40
0.8
100
AcDbArc
 50
270.0
 51
278.5144784341254
  0
LINE
  5
D17
330
CFB
100
AcDbEntity
  8
0
100
AcDbLine
 10
0.3444177981309622
 20
-4.096693544266599
 30
0.0
 11
1.5
 21
-3.923692082124034
 31
0.0
  0
LINE
  5
D18
330
CFB
100
AcDbEntity
  8
0
100
AcDbLine
 10
6.622187598630262
 20
-3.15685269804635
 30
0.0
 11
2.699999999998908
 21
-3.744040860224231
 31
0.0
  0
LINE
  5
D19
330
CFB
100
AcDbEntity
  8
0
100
AcDbLine
 10
1.160848290810463
 20
-5.491182784709963
 30
0.0
 11
11.31844746168099
 21
-3.970495199198921
 31
0.0
  0
LINE
  5
D1A
330
CFB
100
AcDbEntity
  8
0
100
AcDbLine
 10
0.0
 20
3.800000000000181
 30
0.0
 11
0.0
 21
-3.800000000000181
 31
0.0
  0
LINE
  5
D1B
330
CFB
100
AcDbEntity
  8
0
100
AcDbLine
 10
12.0
 20
-2.699999999999818
 30
0.0
 11
12.0
 21
-3.179312414488776
 31
0.0
  0
LINE
  5
D1C
330
CFB
100
AcDbEntity
  8
0
100
AcDbLine
 10
2.699999999998908
 20
-3.100000000000363
 30
0.0
 11
2.699999999998908
 21
-3.744040860224231
 31
0.0
  0
LINE
  5
D1D
330
CFB
100
AcDbEntity
  8
0
100
AcDbLine
 10
1.5
 20
-3.100000000000363
 30
0.0
 11
1.5
 21
-3.923692082124034
 31
0.0
  0
LINE
  5
D1E
330
CFB
100
AcDbEntity
  8
0
100
AcDbLine
 10
9.5
 20
-3.130475008157191
 30
0.0
 11
6.681411329471302
 21
-3.552444090400967
 31
0.0
  0
LINE
  5
D1F
330
CFB
100
AcDbEntity
  8
0
100
AcDbLine
 10
9.203306455732672
 20
-3.174892806287971
 30
0.0
 11
8.951605599657341
 21
-1.493629388780391
 31
0.0
  0
LINE
  5
D20
330
CFB
100
AcDbEntity
  8
0
100
AcDbLine
 10
8.807715063378054
 20
-3.234116537129011
 30
0.0
 11
8.556014207302723
 21
-1.552853119621431
 31
0.0
  0
LINE
  5
D21
330
CFB
100
AcDbEntity
  8
0
100
AcDbLine
 10
-1.5
 20
5.5
 30
0.0
 11
-3.757359312881817
 21
5.5
 31
0.0
  0
ARC
  5
D22
330
CFB
100
AcDbEntity
  8
0
100
AcDbCircle
 10
-2.5
 20
3.5
 30
0.0
 40
1.0
100
AcDbArc
 50
0.0
 51
90.0
  0
ARC
  5
D23
330
CFB
100
AcDbEntity
  8
0
100
AcDbCircle
 10
-3.769781102879278
 20
4.149978862833449
 30
0.0
 40
0.75
100
AcDbArc
 50
47.16775949949599
 51
90.19499109987526
  0
ARC
  5
D24
330
CFB
100
AcDbEntity
  8
0
100
AcDbCircle
 10
-2.75
 20
5.25
 30
0.0
 40
0.75
100
AcDbArc
 50
227.167759499496
 51
270.0
  0
LINE
  5
D25
330
CFB
100
AcDbEntity
  8
0
100
AcDbLine
 10
-2.75
 20
4.5
 30
0.0
 11
-2.5
 21
4.5
 31
0.0
  0
LINE
  5
D26
330
CFB
100
AcDbEntity
  8
0
100
AcDbLine
 10
-7.415254325502246
 20
3.064644661409147
 30
0.0
 11
-6.868629150101696
 21
3.611269837220788
 31
0.0
  0
ARC
  5
D27
102
{ACAD_REACTORS
330
D41
102
}
330
CFB
100
AcDbEntity
  8
0
100
AcDbCircle
 10
-7.980939750059405
 20
2.569669913566031
 30
0.0
 40
0.2
100
AcDbArc
 50
45.0000001037625
 51
135.0000000719631
  0
ARC
  5
D28
330
CFB
100
AcDbEntity
  8
0
100
AcDbCircle
 10
-3.757359312881817
 20
0.5
 30
0.0
 40
5.0
100
AcDbArc
 50
90.0
 51
135.0
  0
ARC
  5
D29
330
CFB
100
AcDbEntity
  8
0
100
AcDbCircle
 10
-3.757359312881817
 20
0.5
 30
0.0
 40
4.4
100
AcDbArc
 50
90.19499109987526
 51
135.0
  0
ARC
  5
D2A
330
CFB
100
AcDbEntity
  8
0
100
AcDbCircle
 10
-6.814213563102384
 20
0.9786796633270569
 30
0.0
 40
0.75
100
AcDbArc
 50
314.9999999676111
 51
45.0
  0
ARC
  5
D2B
102
{ACAD_REACTORS
330
D41
102
}
330
CFB
100
AcDbEntity
  8
0
100
AcDbCircle
 10
-6.814213563102384
 20
0.9786796633270569
 30
0.0
 40
0.5
100
AcDbArc
 50
314.9999999676111
 51
45.0
  0
ARC
  5
D2C
330
CFB
100
AcDbEntity
  8
0
100
AcDbCircle
 10
-7.203122291144609
 20
2.852512627053329
 30
0.0
 40
0.3
100
AcDbArc
 50
135.0
 51
225.0000001112794
  0
LINE
  5
D2D
330
CFB
100
AcDbEntity
  8
0
100
AcDbLine
 10
-8.051650430128574
 20
3.276776694619002
 30
0.0
 11
-6.283883477519339
 21
1.509009749524921
 31
0.0
  0
LINE
  5
D2E
102
{ACAD_REACTORS
330
D41
102
}
330
CFB
100
AcDbEntity
  8
0
100
AcDbLine
 10
-7.839518394079277
 20
2.711091270059114
 30
0.0
 11
-6.460660172508141
 21
1.33223305392039
 31
0.0
  0
ARC
  5
D2F
330
CFB
100
AcDbEntity
  8
0
100
AcDbCircle
 10
-12.57713383280133
 20
-2.521498914058611
 30
0.0
 40
0.3
100
AcDbArc
 50
45.00000003552097
 51
135.0
  0
ARC
  5
D30
102
{ACAD_REACTORS
330
D41
102
}
330
CFB
100
AcDbEntity
  8
0
100
AcDbCircle
 10
-12.29429112059733
 20
-1.743681468243266
 30
0.0
 40
0.2
100
AcDbArc
 50
135.0000000660675
 51
225.0000002990173
  0
LINE
  5
D31
330
CFB
100
AcDbEntity
  8
0
100
AcDbLine
 10
-12.9899494936617
 20
-2.510050506339212
 30
0.0
 11
-12.78926586715715
 21
-2.309366879702793
 31
0.0
  0
LINE
  5
D32
330
CFB
100
AcDbEntity
  8
0
100
AcDbLine
 10
-13.41421356237333
 20
-2.085786437626666
 30
0.0
 11
-7.292893218815152
 21
4.035533905932425
 31
0.0
  0
LINE
  5
D33
102
{ACAD_REACTORS
330
D41
102
}
330
CFB
100
AcDbEntity
  8
0
100
AcDbLine
 10
-12.43571247699765
 20
-1.602260112168551
 30
0.0
 11
-8.122361106474272
 21
2.711091269625285
 31
0.0
  0
ARC
  5
D34
330
CFB
100
AcDbEntity
  8
0
100
AcDbCircle
 10
-2.5
 20
-3.5
 30
0.0
 40
1.0
100
AcDbArc
 50
270.0
 51
0.0
  0
ARC
  5
D35
330
CFB
100
AcDbEntity
  8
0
100
AcDbCircle
 10
-7.519803902720013
 20
-4.150000000000545
 30
0.0
 40
0.75
100
AcDbArc
 50
270.0
 51
312.8334280660476
  0
ARC
  5
D36
330
CFB
100
AcDbEntity
  8
0
100
AcDbCircle
 10
-6.5
 20
-5.25
 30
0.0
 40
0.75
100
AcDbArc
 50
90.0
 51
132.8334280660476
  0
LINE
  5
D37
330
CFB
100
AcDbEntity
  8
0
100
AcDbLine
 10
-2.5
 20
-4.5
 30
0.0
 11
-6.5
 21
-4.5
 31
0.0
  0
ARC
  5
D38
330
CFB
100
AcDbEntity
  8
0
100
AcDbCircle
 10
-10.7033008647486
 20
-2.910407640086305
 30
0.0
 40
0.75
100
AcDbArc
 50
225.0
 51
315.0
  0
ARC
  5
D39
102
{ACAD_REACTORS
330
D41
102
}
330
CFB
100
AcDbEntity
  8
0
100
AcDbCircle
 10
-10.7033008647486
 20
-2.910407640086305
 30
0.0
 40
0.5
100
AcDbArc
 50
225.0
 51
315.0
  0
LINE
  5
D3A
330
CFB
100
AcDbEntity
  8
0
100
AcDbLine
 10
-1.5
 20
-5.5
 30
0.0
 11
-12.0
 21
-5.5
 31
0.0
  0
LINE
  5
D3B
330
CFB
100
AcDbEntity
  8
0
100
AcDbLine
 10
-7.519803902720013
 20
-4.900000000000545
 30
0.0
 11
-12.0
 21
-4.900000000000545
 31
0.0
  0
ARC
  5
D3C
330
CFB
100
AcDbEntity
  8
0
100
AcDbCircle
 10
-12.0
 20
-3.5
 30
0.0
 40
2.0
100
AcDbArc
 50
135.0
 51
270.0
  0
LINE
  5
D3D
330
CFB
100
AcDbEntity
  8
0
100
AcDbLine
 10
-10.17297077881812
 20
-3.440737725935832
 30
0.0
 11
-6.283883477372
 21
0.4483495772774404
 31
0.0
  0
ARC
  5
D3E
330
CFB
100
AcDbEntity
  8
0
100
AcDbCircle
 10
-12.0
 20
-3.5
 30
0.0
 40
1.399999999999999
100
AcDbArc
 50
135.0
 51
270.0
  0
LINE
  5
D3F
330
CFB
100
AcDbEntity
  8
0
100
AcDbLine
 10
-13.00139790187859
 20
-1.672970777132832
 30
0.0
 11
-11.23363095093009
 21
-3.440737725682993
 31
0.0
  0
LINE
  5
D40
330
CFB
100
AcDbEntity
  8
0
100
AcDbLine
 10
-1.5
 20
3.5
 30
0.0
 11
-1.5
 21
-3.5
 31
0.0
  0
HATCH
  5
D41
330
CFB
100
AcDbEntity
  8
0
100
AcDbHatch
 10
0.0
 20
0.0
 30
0.0
210
0.0
220
0.0
230
1.0
  2
ANSI31
 70
     0
 71
     1
 91
        1
 92
        7
 72
     1
 73
     1
 93
        8
 10
-6.460660173204814
 20
1.332233054616153
 42
0.0
 10
-7.839518394101105
 20
2.711091270081851
 42
0.414213562178905
 10
-8.122361106481548
 20
2.711091269618009
 42
0.0
 10
-12.43571247701766
 20
-1.602260112190379
 42
0.4142135636146872
 10
-12.43571247604996
 20
-1.885102825264766
 42
0.0
 10
-11.05685425338015
 20
-3.263961032639599
 42
0.4142135608152901
 10
-10.34974747407432
 20
-3.263961030598693
 42
0.0
 10
-6.460660172428106
 20
0.625126272813759
 42
0.4142135628833784
 97
        8
330
D2E
330
D27
330
D33
330
D30
330
D43
330
D39
330
D42
330
D2B
 75
     0
 76
     1
 52
45.0
 41
0.25
 77
     0
 78
     1
 53
90.0
 43
-276.1145346408611
 44
-395.2719013892401
 45
-0.79375
 46
0.0000000000000002
 79
     0
 47
0.0364805528584695
 98
        1
 10
-7.399477738399582
 20
0.8532363732892918
  0
LINE
  5
D42
102
{ACAD_REACTORS
330
D41
102
}
330
CFB
100
AcDbEntity
  8
0
100
AcDbLine
 10
-10.34974747415435
 20
-3.263961030678729
 30
0.0
 11
-6.46066017270823
 21
0.6251262725336347
 31
0.0
  0
LINE
  5
D43
102
{ACAD_REACTORS
330
D41
102
}
330
CFB
100
AcDbEntity
  8
0
100
AcDbLine
 10
-12.43571247609543
 20
-1.885102825218382
 30
0.0
 11
-11.05685425534102
 21
-3.263961030678729
 31
0.0
  0
LINE
  5
D44
330
CFB
100
AcDbEntity
  8
0
100
AcDbLine
 10
-1.5
 20
5.5
 30
0.0
 11
1.042400829128382
 21
5.5
 31
0.0
  0
LINE
  5
D45
330
CFB
100
AcDbEntity
  8
0
100
AcDbLine
 10
-1.5
 20
-5.5
 30
0.0
 11
1.042400829128382
 21
-5.5
 31
0.0
  0
ENDBLK
  5
D47
330
CFB
100
AcDbEntity
  8
0
100
AcDbBlockEnd
  0
BLOCK
  5
13AB
330
139F
100
AcDbEntity
  8
0
100
AcDbBlockBegin
  2
*D5
 70
     1
 10
0.0
 20
0.0
 30
0.0
  3
*D5
  1

  0
LINE
  5
1DDD
330
139F
100
AcDbEntity
  8
7
100
AcDbLine
 10
354.698565840595
 20
155.1585886215953
 30
0.0
 11
352.4687157687645
 21
155.1585886215953
 31
0.0
  0
LINE
  5
1DDE
330
139F
100
AcDbEntity
  8
7
100
AcDbLine
 10
356.5668221417912
 20
154.1585886215941
 30
0.0
 11
352.4687157687645
 21
154.1585886215941
 31
0.0
  0
LINE
  5
1DDF
330
139F
100
AcDbEntity
  8
7
100
AcDbLine
 10
353.4687157687645
 20
158.1585886215952
 30
0.0
 11
353.4687157687645
 21
161.1585886215952
 31
0.0
  0
LINE
  5
1DE0
330
139F
100
AcDbEntity
  8
7
100
AcDbLine
 10
353.4687157687645
 20
151.158588621594
 30
0.0
 11
353.4687157687645
 21
143.2156739137364
 31
0.0
  0
LINE
  5
1DE1
330
139F
100
AcDbEntity
  8
7
100
AcDbLine
 10
353.4687157687645
 20
155.1585886215953
 30
0.0
 11
353.4687157687645
 21
154.1585886215941
 31
0.0
  0
SOLID
  5
1DE2
330
139F
100
AcDbEntity
  8
7
100
AcDbTrace
 10
352.9687157687645
 20
158.1585886215952
 30
0.0
 11
353.9687157687645
 21
158.1585886215952
 31
0.0
 12
353.4687157687645
 22
155.1585886215953
 32
0.0
 13
353.4687157687645
 23
155.1585886215953
 33
0.0
  0
SOLID
  5
1DE3
330
139F
100
AcDbEntity
  8
7
100
AcDbTrace
 10
352.9687157687645
 20
151.158588621594
 30
0.0
 11
353.9687157687645
 21
151.158588621594
 31
0.0
 12
353.4687157687645
 22
154.1585886215941
 32
0.0
 13
353.4687157687645
 23
154.1585886215941
 33
0.0
  0
MTEXT
  5
1DE4
330
139F
100
AcDbEntity
  8
7
100
AcDbMText
 10
351.4277486767564
 20
145.6871312676653
 30
0.0
 40
2.0
 41
0.0
 71
     5
 72
     1
  1
10
  7
SANINDUSA
 11
0.0000000000000001
 21
1.0
 31
0.0
 73
     1
 44
1.0
  0
POINT
  5
1DE5
330
139F
100
AcDbEntity
  8
Defpoints
 62
     0
100
AcDbPoint
 10
355.6985658405949
 20
155.1585886215953
 30
-0.0000001793795719
  0
POINT
  5
1DE6
330
139F
100
AcDbEntity
  8
Defpoints
 62
     0
100
AcDbPoint
 10
357.5668221417913
 20
154.1585886215941
 30
0.0
  0
POINT
  5
1DE7
330
139F
100
AcDbEntity
  8
Defpoints
 62
     0
100
AcDbPoint
 10
353.4687157687645
 20
154.1585886215941
 30
0.0
  0
ENDBLK
  5
13AC
330
139F
100
AcDbEntity
  8
0
100
AcDbBlockEnd
  0
BLOCK
  5
13C3
330
13B9
100
AcDbEntity
  8
0
100
AcDbBlockBegin
  2
*D6
 70
     1
 10
0.0
 20
0.0
 30
0.0
  3
*D6
  1

  0
LINE
  5
1DE8
330
13B9
100
AcDbEntity
  8
7
100
AcDbLine
 10
354.4687157687645
 20
183.6585886215953
 30
0.0
 11
359.4687157687645
 21
183.6585886215953
 31
0.0
  0
LINE
  5
1DE9
330
13B9
100
AcDbEntity
  8
7
100
AcDbLine
 10
356.698565840595
 20
155.1585886215953
 30
0.0
 11
359.4687157687645
 21
155.1585886215953
 31
0.0
  0
LINE
  5
1DEA
330
13B9
100
AcDbEntity
  8
7
100
AcDbLine
 10
358.4687157687645
 20
180.6585886215952
 30
0.0
 11
358.4687157687645
 21
158.1585886215952
 31
0.0
  0
SOLID
  5
1DEB
330
13B9
100
AcDbEntity
  8
7
100
AcDbTrace
 10
357.9687157687645
 20
180.6585886215952
 30
0.0
 11
358.9687157687645
 21
180.6585886215952
 31
0.0
 12
358.4687157687645
 22
183.6585886215953
 32
0.0
 13
358.4687157687645
 23
183.6585886215953
 33
0.0
  0
SOLID
  5
1DEC
330
13B9
100
AcDbEntity
  8
7
100
AcDbTrace
 10
357.9687157687645
 20
158.1585886215952
 30
0.0
 11
358.9687157687645
 21
158.1585886215952
 31
0.0
 12
358.4687157687645
 22
155.1585886215953
 32
0.0
 13
358.4687157687645
 23
155.1585886215953
 33
0.0
  0
MTEXT
  5
1DED
330
13B9
100
AcDbEntity
  8
7
100
AcDbMText
 10
356.4230475350505
 20
169.4085886215953
 30
0.0
 40
2.0
 41
0.0
 71
     5
 72
     1
  1
285
  7
SANINDUSA
 11
0.0000000000000001
 21
1.0
 31
0.0
 73
     1
 44
1.0
  0
POINT
  5
1DEE
330
13B9
100
AcDbEntity
  8
Defpoints
 62
     0
100
AcDbPoint
 10
353.4687157687645
 20
183.6585886215953
 30
-0.0000001793795719
  0
POINT
  5
1DEF
330
13B9
100
AcDbEntity
  8
Defpoints
 62
     0
100
AcDbPoint
 10
355.6985658405949
 20
155.1585886215953
 30
-0.0000001793795719
  0
POINT
  5
1DF0
330
13B9
100
AcDbEntity
  8
Defpoints
 62
     0
100
AcDbPoint
 10
358.4687157687645
 20
155.1585886215953
 30
0.0
  0
ENDBLK
  5
13C4
330
13B9
100
AcDbEntity
  8
0
100
AcDbBlockEnd
  0
BLOCK
  5
13CF
330
13C5
100
AcDbEntity
  8
0
100
AcDbBlockBegin
  2
*D7
 70
     1
 10
0.0
 20
0.0
 30
0.0
  3
*D7
  1

  0
LINE
  5
1DF1
330
13C5
100
AcDbEntity
  8
7
100
AcDbLine
 10
323.2573766153234
 20
183.6585886215953
 30
0.0
 11
310.5041719043235
 21
183.6585886215953
 31
0.0
  0
LINE
  5
1DF2
330
13C5
100
AcDbEntity
  8
7
100
AcDbLine
 10
315.5041719043235
 20
154.1585886215967
 30
0.0
 11
310.5041719043235
 21
154.1585886215967
 31
0.0
  0
LINE
  5
1DF3
330
13C5
100
AcDbEntity
  8
7
100
AcDbLine
 10
311.5041719043235
 20
180.6585886215953
 30
0.0
 11
311.5041719043235
 21
157.1585886215967
 31
0.0
  0
SOLID
  5
1DF4
330
13C5
100
AcDbEntity
  8
7
100
AcDbTrace
 10
311.0041719043235
 20
180.6585886215953
 30
0.0
 11
312.0041719043235
 21
180.6585886215953
 31
0.0
 12
311.5041719043235
 22
183.6585886215953
 32
0.0
 13
311.5041719043235
 23
183.6585886215953
 33
0.0
  0
SOLID
  5
1DF5
330
13C5
100
AcDbEntity
  8
7
100
AcDbTrace
 10
311.0041719043235
 20
157.1585886215967
 30
0.0
 11
312.0041719043235
 21
157.1585886215967
 31
0.0
 12
311.5041719043235
 22
154.1585886215967
 32
0.0
 13
311.5041719043235
 23
154.1585886215967
 33
0.0
  0
MTEXT
  5
1DF6
330
13C5
100
AcDbEntity
  8
7
100
AcDbMText
 10
309.4625332206431
 20
168.908588621596
 30
0.0
 40
2.0
 41
0.0
 71
     5
 72
     1
  1
295
  7
SANINDUSA
 11
0.0000000000000001
 21
1.0
 31
0.0
 73
     1
 44
1.0
  0
POINT
  5
1DF7
330
13C5
100
AcDbEntity
  8
Defpoints
 62
     0
100
AcDbPoint
 10
324.2573766153234
 20
183.6585886215953
 30
-0.0000001793795719
  0
POINT
  5
1DF8
330
13C5
100
AcDbEntity
  8
Defpoints
 62
     0
100
AcDbPoint
 10
316.5041719043235
 20
154.1585886215967
 30
0.0
  0
POINT
  5
1DF9
330
13C5
100
AcDbEntity
  8
Defpoints
 62
     0
100
AcDbPoint
 10
311.5041719043235
 20
154.1585886215967
 30
0.0
  0
ENDBLK
  5
13D0
330
13C5
100
AcDbEntity
  8
0
100
AcDbBlockEnd
  0
BLOCK
  5
1403
330
13F9
100
AcDbEntity
  8
0
100
AcDbBlockBegin
  2
*D8
 70
     1
 10
0.0
 20
0.0
 30
0.0
  3
*D8
  1

  0
LINE
  5
1DD4
330
13F9
100
AcDbEntity
  8
7
100
AcDbLine
 10
369.0846589206024
 20
339.1585886215966
 30
0.0
 11
362.4687157687645
 21
339.1585886215966
 31
0.0
  0
LINE
  5
1DD5
330
13F9
100
AcDbEntity
  8
7
100
AcDbLine
 10
369.0846589206025
 20
155.1585886215966
 30
0.0
 11
362.4687157687645
 21
155.1585886215966
 31
0.0
  0
LINE
  5
1DD6
330
13F9
100
AcDbEntity
  8
7
100
AcDbLine
 10
363.4687157687645
 20
336.1585886215966
 30
0.0
 11
363.4687157687645
 21
158.1585886215966
 31
0.0
  0
SOLID
  5
1DD7
330
13F9
100
AcDbEntity
  8
7
100
AcDbTrace
 10
362.9687157687645
 20
336.1585886215966
 30
0.0
 11
363.9687157687645
 21
336.1585886215966
 31
0.0
 12
363.4687157687645
 22
339.1585886215966
 32
0.0
 13
363.4687157687645
 23
339.1585886215966
 33
0.0
  0
SOLID
  5
1DD8
330
13F9
100
AcDbEntity
  8
7
100
AcDbTrace
 10
362.9687157687645
 20
158.1585886215966
 30
0.0
 11
363.9687157687645
 21
158.1585886215966
 31
0.0
 12
363.4687157687645
 22
155.1585886215966
 32
0.0
 13
363.4687157687645
 23
155.1585886215966
 33
0.0
  0
MTEXT
  5
1DD9
330
13F9
100
AcDbEntity
  8
7
100
AcDbMText
 10
361.4230475350505
 20
247.1585886215966
 30
0.0
 40
2.0
 41
0.0
 71
     5
 72
     1
  1
1840
  7
SANINDUSA
 11
0.0000000000000001
 21
1.0
 31
0.0
 73
     1
 44
1.0
  0
POINT
  5
1DDA
330
13F9
100
AcDbEntity
  8
Defpoints
 62
     0
100
AcDbPoint
 10
370.0846589206024
 20
339.1585886215966
 30
0.0
  0
POINT
  5
1DDB
330
13F9
100
AcDbEntity
  8
Defpoints
 62
     0
100
AcDbPoint
 10
370.0846589206025
 20
155.1585886215966
 30
0.0
  0
POINT
  5
1DDC
330
13F9
100
AcDbEntity
  8
Defpoints
 62
     0
100
AcDbPoint
 10
363.4687157687645
 20
155.1585886215966
 30
0.0
  0
ENDBLK
  5
1404
330
13F9
100
AcDbEntity
  8
0
100
AcDbBlockEnd
  0
BLOCK
  5
140F
330
1405
100
AcDbEntity
  8
0
100
AcDbBlockBegin
  2
*D9
 70
     1
 10
0.0
 20
0.0
 30
0.0
  3
*D9
  1

  0
LINE
  5
1DCB
330
1405
100
AcDbEntity
  8
7
100
AcDbLine
 10
404.6910599875123
 20
339.1585886215966
 30
0.0
 11
412.6533562393161
 21
339.1585886215966
 31
0.0
  0
LINE
  5
1DCC
330
1405
100
AcDbEntity
  8
7
100
AcDbLine
 10
406.8538435777035
 20
154.1585886215915
 30
0.0
 11
412.6533562393161
 21
154.1585886215915
 31
0.0
  0
LINE
  5
1DCD
330
1405
100
AcDbEntity
  8
7
100
AcDbLine
 10
411.653356239316
 20
336.1585886215966
 30
0.0
 11
411.653356239316
 21
157.1585886215915
 31
0.0
  0
SOLID
  5
1DCE
330
1405
100
AcDbEntity
  8
7
100
AcDbTrace
 10
411.1533562393161
 20
336.1585886215966
 30
0.0
 11
412.153356239316
 21
336.1585886215966
 31
0.0
 12
411.653356239316
 22
339.1585886215966
 32
0.0
 13
411.653356239316
 23
339.1585886215966
 33
0.0
  0
SOLID
  5
1DCF
330
1405
100
AcDbEntity
  8
7
100
AcDbTrace
 10
411.1533562393161
 20
157.1585886215915
 30
0.0
 11
412.153356239316
 21
157.1585886215915
 31
0.0
 12
411.653356239316
 22
154.1585886215915
 32
0.0
 13
411.653356239316
 23
154.1585886215915
 33
0.0
  0
MTEXT
  5
1DD0
330
1405
100
AcDbEntity
  8
7
100
AcDbMText
 10
409.6076880056021
 20
246.6585886215941
 30
0.0
 40
2.0
 41
0.0
 71
     5
 72
     1
  1
1850
  7
SANINDUSA
 11
0.0000000000000001
 21
1.0
 31
0.0
 73
     1
 44
1.0
  0
POINT
  5
1DD1
330
1405
100
AcDbEntity
  8
Defpoints
 62
     0
100
AcDbPoint
 10
403.6910599875122
 20
339.1585886215966
 30
0.0
  0
POINT
  5
1DD2
330
1405
100
AcDbEntity
  8
Defpoints
 62
     0
100
AcDbPoint
 10
405.8538435777035
 20
154.1585886215915
 30
0.0
  0
POINT
  5
1DD3
330
1405
100
AcDbEntity
  8
Defpoints
 62
     0
100
AcDbPoint
 10
411.653356239316
 20
154.1585886215915
 30
0.0
  0
ENDBLK
  5
1410
330
1405
100
AcDbEntity
  8
0
100
AcDbBlockEnd
  0
BLOCK
  5
148D
330
1483
100
AcDbEntity
  8
0
100
AcDbBlockBegin
  2
*D10
 70
     1
 10
0.0
 20
0.0
 30
0.0
  3
*D10
  1

  0
LINE
  5
1D1C
330
1483
100
AcDbEntity
  8
7
100
AcDbLine
 10
453.8925659632425
 20
256.394408308273
 30
0.0
 11
452.0725309132093
 21
245.7737683997317
 31
0.0
  0
LINE
  5
1D1D
330
1483
100
AcDbEntity
  8
7
100
AcDbLine
 10
433.6164205678979
 20
259.8690855044577
 30
0.0
 11
431.7963855178646
 21
249.2484455959164
 31
0.0
  0
LINE
  5
1D1E
330
1483
100
AcDbEntity
  8
7
100
AcDbLine
 10
449.2845397669539
 20
247.2661173429758
 30
0.0
 11
434.9221878008154
 21
249.7273611290742
 31
0.0
  0
SOLID
  5
1D1F
330
1483
100
AcDbEntity
  8
7
100
AcDbTrace
 10
449.3689925511278
 20
247.7589334620763
 30
0.0
 11
449.2000869827801
 21
246.7733012238753
 31
0.0
 12
452.2414364815571
 22
246.7594006379327
 32
0.0
 13
452.2414364815571
 23
246.7594006379327
 33
0.0
  0
SOLID
  5
1D20
330
1483
100
AcDbEntity
  8
7
100
AcDbTrace
 10
435.0066405849893
 20
250.2201772481747
 30
0.0
 11
434.8377350166416
 21
249.2345450099737
 31
0.0
 12
431.9652910862123
 22
250.2340778341174
 32
0.0
 13
431.9652910862123
 23
250.2340778341174
 33
0.0
  0
MTEXT
  5
1D21
330
1483
100
AcDbEntity
  8
7
100
AcDbMText
 10
442.4866625853937
 20
250.7334426160662
 30
0.0
 40
2.0
 41
0.0
 71
     5
 72
     1
  1
205,7
  7
SANINDUSA
 11
0.985632238201012
 21
-0.168905568347712
 31
0.0
 73
     1
 44
1.0
  0
POINT
  5
1D22
330
1483
100
AcDbEntity
  8
Defpoints
 62
     0
100
AcDbPoint
 10
454.0614715315903
 20
257.380040546474
 30
0.0
  0
POINT
  5
1D23
330
1483
100
AcDbEntity
  8
Defpoints
 62
     0
100
AcDbPoint
 10
433.7853261362456
 20
260.8547177426587
 30
0.0
  0
POINT
  5
1D24
330
1483
100
AcDbEntity
  8
Defpoints
 62
     0
100
AcDbPoint
 10
431.9652910862123
 20
250.2340778341174
 30
0.0
  0
ENDBLK
  5
148E
330
1483
100
AcDbEntity
  8
0
100
AcDbBlockEnd
  0
BLOCK
  5
1499
330
148F
100
AcDbEntity
  8
0
100
AcDbBlockBegin
  2
*D11
 70
     1
 10
0.0
 20
0.0
 30
0.0
  3
*D11
  1

  0
LINE
  5
1D92
330
148F
100
AcDbEntity
  8
7
100
AcDbLine
 10
429.0128956525217
 20
344.351016070335
 30
0.0
 11
429.0128956525217
 21
350.351016070335
 31
0.0
  0
LINE
  5
1D93
330
148F
100
AcDbEntity
  8
7
100
AcDbLine
 10
511.3825442684896
 20
345.0710160703343
 30
0.0
 11
511.3825442684896
 21
350.351016070335
 31
0.0
  0
LINE
  5
1D94
330
148F
100
AcDbEntity
  8
7
100
AcDbLine
 10
432.0128956525216
 20
349.3510160703349
 30
0.0
 11
508.3825442684895
 21
349.3510160703349
 31
0.0
  0
SOLID
  5
1D95
330
148F
100
AcDbEntity
  8
7
100
AcDbTrace
 10
432.0128956525216
 20
349.8510160703349
 30
0.0
 11
432.0128956525216
 21
348.8510160703349
 31
0.0
 12
429.0128956525217
 22
349.3510160703349
 32
0.0
 13
429.0128956525217
 23
349.3510160703349
 33
0.0
  0
SOLID
  5
1D96
330
148F
100
AcDbEntity
  8
7
100
AcDbTrace
 10
508.3825442684895
 20
349.8510160703349
 30
0.0
 11
508.3825442684895
 21
348.8510160703349
 31
0.0
 12
511.3825442684896
 22
349.3510160703349
 32
0.0
 13
511.3825442684896
 23
349.3510160703349
 33
0.0
  0
MTEXT
  5
1D97
330
148F
100
AcDbEntity
  8
7
100
AcDbMText
 10
470.1977199605056
 20
351.6223391059293
 30
0.0
 40
2.0
 41
0.0
 71
     5
 72
     1
  1
823,7
  7
SANINDUSA
 73
     1
 44
1.0
  0
POINT
  5
1D98
330
148F
100
AcDbEntity
  8
Defpoints
 62
     0
100
AcDbPoint
 10
429.0128956525217
 20
343.3510160703349
 30
0.0
  0
POINT
  5
1D99
330
148F
100
AcDbEntity
  8
Defpoints
 62
     0
100
AcDbPoint
 10
511.3825442684896
 20
344.0710160703343
 30
0.0
  0
POINT
  5
1D9A
330
148F
100
AcDbEntity
  8
Defpoints
 62
     0
100
AcDbPoint
 10
511.3825442684896
 20
349.3510160703349
 30
0.0
  0
ENDBLK
  5
149A
330
148F
100
AcDbEntity
  8
0
100
AcDbBlockEnd
  0
BLOCK
  5
14A5
330
149B
100
AcDbEntity
  8
0
100
AcDbBlockBegin
  2
*D12
 70
     1
 10
0.0
 20
0.0
 30
0.0
  3
*D12
  1

  0
LINE
  5
1D9B
330
149B
100
AcDbEntity
  8
7
100
AcDbLine
 10
429.0128956525217
 20
344.351016070335
 30
0.0
 11
423.0128956525216
 21
344.351016070335
 31
0.0
  0
LINE
  5
1D9C
330
149B
100
AcDbEntity
  8
7
100
AcDbLine
 10
428.2928956525223
 20
261.981367454366
 30
0.0
 11
423.0128956525216
 21
261.981367454366
 31
0.0
  0
LINE
  5
1D9D
330
149B
100
AcDbEntity
  8
7
100
AcDbLine
 10
424.0128956525216
 20
341.3510160703349
 30
0.0
 11
424.0128956525216
 21
264.981367454366
 31
0.0
  0
SOLID
  5
1D9E
330
149B
100
AcDbEntity
  8
7
100
AcDbTrace
 10
423.5128956525216
 20
341.3510160703349
 30
0.0
 11
424.5128956525217
 21
341.3510160703349
 31
0.0
 12
424.0128956525216
 22
344.351016070335
 32
0.0
 13
424.0128956525216
 23
344.351016070335
 33
0.0
  0
SOLID
  5
1D9F
330
149B
100
AcDbEntity
  8
7
100
AcDbTrace
 10
423.5128956525216
 20
264.981367454366
 30
0.0
 11
424.5128956525217
 21
264.981367454366
 31
0.0
 12
424.0128956525216
 22
261.981367454366
 32
0.0
 13
424.0128956525216
 23
261.981367454366
 33
0.0
  0
MTEXT
  5
1DA0
330
149B
100
AcDbEntity
  8
7
100
AcDbMText
 10
421.7415726169273
 20
303.1661917623506
 30
0.0
 40
2.0
 41
0.0
 71
     5
 72
     1
  1
823,7
  7
SANINDUSA
 11
0.0000000000000001
 21
1.0
 31
0.0
 73
     1
 44
1.0
  0
POINT
  5
1DA1
330
149B
100
AcDbEntity
  8
Defpoints
 62
     0
100
AcDbPoint
 10
430.0128956525217
 20
344.351016070335
 30
0.0
  0
POINT
  5
1DA2
330
149B
100
AcDbEntity
  8
Defpoints
 62
     0
100
AcDbPoint
 10
429.2928956525223
 20
261.981367454366
 30
0.0
  0
POINT
  5
1DA3
330
149B
100
AcDbEntity
  8
Defpoints
 62
     0
100
AcDbPoint
 10
424.0128956525216
 20
261.981367454366
 30
0.0
  0
ENDBLK
  5
14A6
330
149B
100
AcDbEntity
  8
0
100
AcDbBlockEnd
  0
BLOCK
  5
14B1
330
14A7
100
AcDbEntity
  8
0
100
AcDbBlockBegin
  2
*D13
 70
     1
 10
0.0
 20
0.0
 30
0.0
  3
*D13
  1

  0
LINE
  5
1D69
330
14A7
100
AcDbEntity
  8
7
100
AcDbLine
 10
497.4470171255731
 20
273.7413090625864
 30
0.0
 11
502.155879922099
 21
262.1081134050434
 31
0.0
  0
LINE
  5
1D6A
330
14A7
100
AcDbEntity
  8
7
100
AcDbLine
 10
454.7366771854409
 20
256.4530989532124
 30
0.0
 11
459.4455399819668
 21
244.8199032956693
 31
0.0
  0
LINE
  5
1D6B
330
14A7
100
AcDbEntity
  8
7
100
AcDbLine
 10
498.9998494884633
 20
261.9094380367528
 30
0.0
 11
461.851159107901
 21
246.8724618504832
 31
0.0
  0
SOLID
  5
1D6C
330
14A7
100
AcDbEntity
  8
7
100
AcDbTrace
 10
498.8122466615379
 20
262.3729088333836
 30
0.0
 11
499.1874523153888
 21
261.445967240122
 31
0.0
 12
501.7806742682482
 22
263.035054998305
 32
0.0
 13
501.7806742682482
 23
263.035054998305
 33
0.0
  0
SOLID
  5
1D6D
330
14A7
100
AcDbEntity
  8
7
100
AcDbTrace
 10
461.6635562809756
 20
247.335932647114
 30
0.0
 11
462.0387619348264
 21
246.4089910538524
 31
0.0
 12
459.0703343281161
 22
245.7468448889309
 32
0.0
 13
459.0703343281161
 23
245.7468448889309
 33
0.0
  0
MTEXT
  5
1D6E
330
14A7
100
AcDbEntity
  8
7
100
AcDbMText
 10
479.5732910535057
 20
256.4963337370437
 30
0.0
 40
2.0
 41
0.0
 71
     5
 72
     1
  1
460,8
  7
SANINDUSA
 11
0.9269415932616407
 21
0.3752056538507527
 31
0.0
 73
     1
 44
1.0
  0
POINT
  5
1D6F
330
14A7
100
AcDbEntity
  8
Defpoints
 62
     0
100
AcDbPoint
 10
497.0718114717223
 20
274.6682506558481
 30
0.0
  0
POINT
  5
1D70
330
14A7
100
AcDbEntity
  8
Defpoints
 62
     0
100
AcDbPoint
 10
454.3614715315903
 20
257.380040546474
 30
0.0
  0
POINT
  5
1D71
330
14A7
100
AcDbEntity
  8
Defpoints
 62
     0
100
AcDbPoint
 10
459.0703343281161
 20
245.7468448889309
 30
0.0
  0
ENDBLK
  5
14B2
330
14A7
100
AcDbEntity
  8
0
100
AcDbBlockEnd
  0
BLOCK
  5
14BD
330
14B3
100
AcDbEntity
  8
0
100
AcDbBlockBegin
  2
*D14
 70
     1
 10
0.0
 20
0.0
 30
0.0
  3
*D14
  1

  0
LINE
  5
1D72
330
14B3
100
AcDbEntity
  8
7
100
AcDbLine
 10
516.9108127696443
 20
318.6272345374155
 30
0.0
 11
528.2999934159533
 21
314.0171436726974
 31
0.0
  0
LINE
  5
1D73
330
14B3
100
AcDbEntity
  8
7
100
AcDbLine
 10
499.6226026602704
 20
275.9168945972835
 30
0.0
 11
511.0117833065794
 21
271.3068037325655
 31
0.0
  0
LINE
  5
1D74
330
14B3
100
AcDbEntity
  8
7
100
AcDbLine
 10
526.2474348611394
 20
311.6115245467632
 30
0.0
 11
511.21045867487
 21
274.4628341662012
 31
0.0
  0
SOLID
  5
1D75
330
14B3
100
AcDbEntity
  8
7
100
AcDbTrace
 10
525.7839640645086
 20
311.7991273736885
 30
0.0
 11
526.7109056577702
 21
311.4239217198378
 31
0.0
 12
527.3730518226916
 22
314.3923493265481
 32
0.0
 13
527.3730518226916
 23
314.3923493265481
 33
0.0
  0
SOLID
  5
1D76
330
14B3
100
AcDbEntity
  8
7
100
AcDbTrace
 10
510.7469878782392
 20
274.6504369931265
 30
0.0
 11
511.6739294715008
 21
274.2752313392758
 31
0.0
 12
510.0848417133177
 22
271.6820093864162
 32
0.0
 13
510.0848417133177
 23
271.6820093864162
 33
0.0
  0
MTEXT
  5
1D77
330
14B3
100
AcDbEntity
  8
7
100
AcDbMText
 10
516.623562974579
 20
293.8893926011588
 30
0.0
 40
2.0
 41
0.0
 71
     5
 72
     1
  1
460,8
  7
SANINDUSA
 11
0.3752056538507503
 21
0.9269415932616418
 31
0.0
 73
     1
 44
1.0
  0
POINT
  5
1D78
330
14B3
100
AcDbEntity
  8
Defpoints
 62
     0
100
AcDbPoint
 10
515.9838711763825
 20
319.0024401912662
 30
0.0
  0
POINT
  5
1D79
330
14B3
100
AcDbEntity
  8
Defpoints
 62
     0
100
AcDbPoint
 10
498.6956610670087
 20
276.2921002511343
 30
0.0
  0
POINT
  5
1D7A
330
14B3
100
AcDbEntity
  8
Defpoints
 62
     0
100
AcDbPoint
 10
510.0848417133177
 20
271.6820093864162
 30
0.0
  0
ENDBLK
  5
14BE
330
14B3
100
AcDbEntity
  8
0
100
AcDbBlockEnd
  0
BLOCK
  5
14C5
330
14BF
100
AcDbEntity
  8
0
100
AcDbBlockBegin
  2
*D15
 70
     1
 10
0.0
 20
0.0
 30
0.0
  3
*D15
  1

  0
LINE
  5
1CE5
330
14BF
100
AcDbEntity
  8
7
100
AcDbLine
 10
467.3704385398433
 20
279.5418013465442
 30
0.0
 11
472.6459098261054
 21
263.6617715748493
 31
0.0
  0
MTEXT
  5
1CE6
330
14BF
100
AcDbEntity
  8
7
100
AcDbMText
 10
471.3296486409857
 20
274.8156084143504
 30
0.0
 40
2.0
 41
0.0
 71
     5
 72
     1
  1
R614,7
  7
SANINDUSA
 11
0.3152663647954805
 21
-0.9490032240349044
 31
0.0
 73
     1
 44
1.0
  0
SOLID
  5
1CE7
330
14BF
100
AcDbEntity
  8
7
100
AcDbTrace
 10
473.1204114381228
 20
263.8194047572471
 30
0.0
 11
472.171408214088
 21
263.5041383924515
 31
0.0
 12
473.5917089204918
 22
260.8147619027446
 32
0.0
 13
473.5917089204918
 23
260.8147619027446
 33
0.0
  0
POINT
  5
1CE8
330
14BF
100
AcDbEntity
  8
Defpoints
 62
     0
100
AcDbPoint
 10
473.5917089204918
 20
260.8147619027446
 30
0.0
  0
POINT
  5
1CE9
330
14BF
100
AcDbEntity
  8
Defpoints
 62
     0
100
AcDbPoint
 10
454.2114715315886
 20
319.1524401912681
 30
0.0
  0
ENDBLK
  5
14C6
330
14BF
100
AcDbEntity
  8
0
100
AcDbBlockEnd
  0
BLOCK
  5
14CD
330
14C7
100
AcDbEntity
  8
0
100
AcDbBlockBegin
  2
*D16
 70
     1
 10
0.0
 20
0.0
 30
0.0
  3
*D16
  1

  0
LINE
  5
1CEA
330
14C7
100
AcDbEntity
  8
7
100
AcDbLine
 10
492.5777811437098
 20
302.7150617762552
 30
0.0
 11
507.95895541002
 21
296.1252650395193
 31
0.0
  0
MTEXT
  5
1CEB
330
14C7
100
AcDbEntity
  8
7
100
AcDbMText
 10
498.7407382192721
 20
302.5412678117966
 30
0.0
 40
2.0
 41
0.0
 71
     5
 72
     1
  1
R614,7
  7
SANINDUSA
 11
0.9191912218066933
 21
-0.3938115002809317
 31
0.0
 73
     1
 44
1.0
  0
SOLID
  5
1CEC
330
14C7
100
AcDbEntity
  8
7
100
AcDbTrace
 10
508.1558611601605
 20
296.5848606504227
 30
0.0
 11
507.7620496598796
 21
295.6656694286159
 31
0.0
 12
510.7165290754401
 22
294.9438305386765
 32
0.0
 13
510.7165290754401
 23
294.9438305386765
 33
0.0
  0
POINT
  5
1CED
330
14C7
100
AcDbEntity
  8
Defpoints
 62
     0
100
AcDbPoint
 10
510.7165290754401
 20
294.9438305386765
 30
0.0
  0
POINT
  5
1CEE
330
14C7
100
AcDbEntity
  8
Defpoints
 62
     0
100
AcDbPoint
 10
454.211471531587
 20
319.1524401912661
 30
0.0
  0
ENDBLK
  5
14CE
330
14C7
100
AcDbEntity
  8
0
100
AcDbBlockEnd
  0
BLOCK
  5
14DB
330
14CF
100
AcDbEntity
  8
0
100
AcDbBlockBegin
  2
*D17
 70
     1
 10
0.0
 20
0.0
 30
0.0
  3
*D17
  1

  0
LINE
  5
1D87
330
14CF
100
AcDbEntity
  8
7
100
AcDbLine
 10
497.778918252909
 20
273.9611438746615
 30
0.0
 11
509.3826315625483
 21
262.3574305650213
 31
0.0
  0
LINE
  5
1D88
330
14CF
100
AcDbEntity
  8
7
100
AcDbLine
 10
499.4027678481954
 20
275.5849934699478
 30
0.0
 11
511.0064811578348
 21
263.9812801603075
 31
0.0
  0
LINE
  5
1D89
330
14CF
100
AcDbEntity
  8
7
100
AcDbLine
 10
506.5542044378021
 20
260.9432170026483
 30
0.0
 11
504.4328840942425
 21
258.8218966590887
 31
0.0
  0
LINE
  5
1D8A
330
14CF
100
AcDbEntity
  8
7
100
AcDbLine
 10
512.4206947202079
 20
266.8097072850537
 30
0.0
 11
518.1302614295473
 21
272.5192739943926
 31
0.0
  0
LINE
  5
1D8B
330
14CF
100
AcDbEntity
  8
7
100
AcDbLine
 10
508.6755247813619
 20
263.0645373462079
 30
0.0
 11
510.2993743766482
 21
264.6883869414941
 31
0.0
  0
SOLID
  5
1D8C
330
14CF
100
AcDbEntity
  8
7
100
AcDbTrace
 10
506.2006510472088
 20
261.2967703932416
 30
0.0
 11
506.9077578283954
 21
260.589663612055
 31
0.0
 12
508.6755247813619
 22
263.0645373462079
 32
0.0
 13
508.6755247813619
 23
263.0645373462079
 33
0.0
  0
SOLID
  5
1D8D
330
14CF
100
AcDbEntity
  8
7
100
AcDbTrace
 10
512.0671413296147
 20
267.163260675647
 30
0.0
 11
512.7742481108013
 21
266.4561538944604
 31
0.0
 12
510.2993743766482
 22
264.6883869414941
 32
0.0
 13
510.2993743766482
 23
264.6883869414941
 33
0.0
  0
MTEXT
  5
1D8E
330
14CF
100
AcDbEntity
  8
7
100
AcDbMText
 10
514.8924816886943
 20
272.168807369466
 30
0.0
 40
2.0
 41
0.0
 71
     5
 72
     1
  1
23
  7
SANINDUSA
 11
0.7071067811865724
 21
0.7071067811865227
 31
0.0
 73
     1
 44
1.0
  0
POINT
  5
1D8F
330
14CF
100
AcDbEntity
  8
Defpoints
 62
     0
100
AcDbPoint
 10
497.0718114717224
 20
274.6682506558481
 30
0.0
  0
POINT
  5
1D90
330
14CF
100
AcDbEntity
  8
Defpoints
 62
     0
100
AcDbPoint
 10
498.6956610670088
 20
276.2921002511343
 30
0.0
  0
POINT
  5
1D91
330
14CF
100
AcDbEntity
  8
Defpoints
 62
     0
100
AcDbPoint
 10
510.2993743766482
 20
264.6883869414941
 30
0.0
  0
ENDBLK
  5
14DC
330
14CF
100
AcDbEntity
  8
0
100
AcDbBlockEnd
  0
BLOCK
  5
14E7
330
14DD
100
AcDbEntity
  8
0
100
AcDbBlockBegin
  2
*D18
 70
     1
 10
0.0
 20
0.0
 30
0.0
  3
*D18
  1

  0
LINE
  5
1D7B
330
14DD
100
AcDbEntity
  8
7
100
AcDbLine
 10
513.4948262183989
 20
339.7474911549588
 30
0.0
 11
522.2223122281222
 21
341.2431007013852
 31
0.0
  0
LINE
  5
1D7C
330
14DD
100
AcDbEntity
  8
7
100
AcDbLine
 10
516.9695034145838
 20
319.4713457596141
 30
0.0
 11
525.696989424307
 21
320.9669553060405
 31
0.0
  0
LINE
  5
1D7D
330
14DD
100
AcDbEntity
  8
7
100
AcDbLine
 10
521.7433966949644
 20
338.1172984184344
 30
0.0
 11
524.2046404810629
 21
323.7549464522958
 31
0.0
  0
SOLID
  5
1D7E
330
14DD
100
AcDbEntity
  8
7
100
AcDbTrace
 10
522.2362128140649
 20
338.2017512026083
 30
0.0
 11
521.2505805758639
 21
338.0328456342606
 31
0.0
 12
521.2366799899212
 22
341.0741951330375
 32
0.0
 13
521.2366799899212
 23
341.0741951330375
 33
0.0
  0
SOLID
  5
1D7F
330
14DD
100
AcDbEntity
  8
7
100
AcDbTrace
 10
524.6974566001634
 20
323.8393992364696
 30
0.0
 11
523.7118243619625
 21
323.6704936681219
 31
0.0
 12
524.711357186106
 22
320.7980497376928
 32
0.0
 13
524.711357186106
 23
320.7980497376928
 33
0.0
  0
MTEXT
  5
1D80
330
14DD
100
AcDbEntity
  8
7
100
AcDbMText
 10
525.2107219680547
 20
331.3194212368741
 30
0.0
 40
2.0
 41
0.0
 71
     5
 72
     1
  1
205,7
  7
SANINDUSA
 11
0.1689055683477155
 21
-0.9856322382010114
 31
0.0
 73
     1
 44
1.0
  0
POINT
  5
1D81
330
14DD
100
AcDbEntity
  8
Defpoints
 62
     0
100
AcDbPoint
 10
512.5091939801978
 20
339.578585586611
 30
0.0
  0
POINT
  5
1D82
330
14DD
100
AcDbEntity
  8
Defpoints
 62
     0
100
AcDbPoint
 10
515.9838711763826
 20
319.3024401912663
 30
0.0
  0
POINT
  5
1D83
330
14DD
100
AcDbEntity
  8
Defpoints
 62
     0
100
AcDbPoint
 10
524.711357186106
 20
320.7980497376928
 30
0.0
  0
ENDBLK
  5
14E8
330
14DD
100
AcDbEntity
  8
0
100
AcDbBlockEnd
  0
BLOCK
  5
1BF3
330
1BE7
100
AcDbEntity
  8
0
100
AcDbBlockBegin
  2
*D19
 70
     1
 10
0.0
 20
0.0
 30
0.0
  3
*D19
  1

  0
LINE
  5
1E06
330
1BE7
100
AcDbEntity
  8
7
100
AcDbLine
 10
518.6789256259896
 20
213.2715285944946
 30
0.0
 11
534.4706296904191
 21
213.2715285944961
 31
0.0
  0
LINE
  5
1E07
330
1BE7
100
AcDbEntity
  8
7
100
AcDbLine
 10
515.9838711763825
 20
216.8264096278526
 30
0.0
 11
515.9838711763823
 21
231.7582871085308
 31
0.0
  0
ARC
  5
1E08
330
1BE7
100
AcDbEntity
  8
7
100
AcDbCircle
 10
515.9838711763825
 20
213.2715285944942
 30
0.0
 40
17.48675851403656
100
AcDbArc
 50
9.841665772691522
 51
80.15833422731487
  0
SOLID
  5
1E09
330
1BE7
100
AcDbEntity
  8
7
100
AcDbTrace
 10
533.7114492034328
 20
216.303360707617
 30
0.0
 11
532.7151350309064
 21
216.2175815165337
 31
0.0
 12
533.4706296904191
 22
213.271528594496
 32
0.0
 13
533.4706296904191
 23
213.271528594496
 33
0.0
  0
SOLID
  5
1E0A
330
1BE7
100
AcDbEntity
  8
7
100
AcDbTrace
 10
518.9299240984202
 20
230.0027924490183
 30
0.0
 11
519.0157032895033
 21
230.9991066215447
 31
0.0
 12
515.9838711763823
 22
230.7582871085308
 32
0.0
 13
515.9838711763823
 23
230.7582871085308
 33
0.0
  0
MTEXT
  5
1E0B
102
{ACAD_XDICTIONARY
360
20A8
102
}
330
1BE7
100
AcDbEntity
  8
7
100
AcDbMText
 10
529.9530450752601
 20
227.2407024933733
 30
0.0
 40
2.0
 41
0.0
 71
     5
 72
     1
  1
90,0\U+00B0
  7
SANINDUSA
 11
0.7071067811865476
 21
-0.7071067811865475
 31
0.0
 73
     1
 44
1.0
  0
POINT
  5
1E0C
330
1BE7
100
AcDbEntity
  8
Defpoints
 62
     0
100
AcDbPoint
 10
531.1278482793815
 20
222.0149078515136
 30
0.0
  0
POINT
  5
1E0D
330
1BE7
100
AcDbEntity
  8
Defpoints
 62
     0
100
AcDbPoint
 10
515.9838711763825
 20
214.9665830441014
 30
0.0
  0
POINT
  5
1E0E
330
1BE7
100
AcDbEntity
  8
Defpoints
 62
     0
100
AcDbPoint
 10
517.6789256259895
 20
213.2715285944944
 30
0.0
  0
POINT
  5
1E0F
330
1BE7
100
AcDbEntity
  8
Defpoints
 62
     0
100
AcDbPoint
 10
517.1820629317462
 20
213.2715285944944
 30
0.0
  0
POINT
  5
1E10
330
1BE7
100
AcDbEntity
  8
Defpoints
 62
     0
100
AcDbPoint
 10
515.9838711763825
 20
215.8264096278526
 30
0.0
  0
ENDBLK
  5
1BF4
330
1BE7
100
AcDbEntity
  8
0
100
AcDbBlockEnd
  0
BLOCK
  5
1C11
330
1C05
100
AcDbEntity
  8
0
100
AcDbBlockBegin
  2
*D20
 70
     1
 10
0.0
 20
0.0
 30
0.0
  3
*D20
  1

  0
LINE
  5
1DFB
330
1C05
100
AcDbEntity
  8
7
100
AcDbLine
 10
452.6087183305754
 20
153.0441833993091
 30
0.0
 11
439.0675677006458
 21
153.0441833993091
 31
0.0
  0
LINE
  5
1DFC
330
1C05
100
AcDbEntity
  8
7
100
AcDbLine
 10
455.7565259811972
 20
150.3491289497022
 30
0.0
 11
455.7565259811979
 21
136.3552251187579
 31
0.0
  0
ARC
  5
1DFD
330
1C05
100
AcDbEntity
  8
7
100
AcDbCircle
 10
455.7565259811971
 20
153.0441833993091
 30
0.0
 40
15.68895828055117
100
AcDbArc
 50
190.9727038130878
 51
259.0272961869149
  0
SOLID
  5
1DFE
330
1C05
100
AcDbEntity
  8
7
100
AcDbTrace
 10
439.8566841269953
 20
150.0101220752149
 30
0.0
 11
440.8521031279799
 21
150.1057307174955
 31
0.0
 12
440.0675677006459
 22
153.0441833993091
 32
0.0
 13
440.0675677006459
 23
153.0441833993091
 33
0.0
  0
SOLID
  5
1DFF
330
1C05
100
AcDbEntity
  8
7
100
AcDbTrace
 10
452.818073299384
 20
138.1397605460918
 30
0.0
 11
452.7224646571036
 21
137.1443415451071
 31
0.0
 12
455.7565259811978
 22
137.3552251187579
 32
0.0
 13
455.7565259811978
 23
137.3552251187579
 33
0.0
  0
MTEXT
  5
1E00
102
{ACAD_XDICTIONARY
360
20A6
102
}
330
1C05
100
AcDbEntity
  8
7
100
AcDbMText
 10
446.2669255638981
 20
143.5545829820097
 30
0.0
 40
2.0
 41
0.0
 71
     5
 72
     1
  1
90,0\U+00B0
  7
SANINDUSA
 11
0.7071067811865476
 21
-0.7071067811865475
 31
0.0
 73
     1
 44
1.0
  0
POINT
  5
1E01
330
1C05
100
AcDbEntity
  8
Defpoints
 62
     0
100
AcDbPoint
 10
442.1694895513256
 20
145.1997042590333
 30
0.0
  0
POINT
  5
1E02
330
1C05
100
AcDbEntity
  8
Defpoints
 62
     0
100
AcDbPoint
 10
454.0614715315903
 20
153.0441833993091
 30
0.0
  0
POINT
  5
1E03
330
1C05
100
AcDbEntity
  8
Defpoints
 62
     0
100
AcDbPoint
 10
455.7565259811972
 20
151.3491289497022
 30
0.0
  0
POINT
  5
1E04
330
1C05
100
AcDbEntity
  8
Defpoints
 62
     0
100
AcDbPoint
 10
455.7565259811972
 20
151.7716443355493
 30
0.0
  0
POINT
  5
1E05
330
1C05
100
AcDbEntity
  8
Defpoints
 62
     0
100
AcDbPoint
 10
453.6087183305753
 20
153.0441833993091
 30
0.0
  0
ENDBLK
  5
1C12
330
1C05
100
AcDbEntity
  8
0
100
AcDbBlockEnd
  0
BLOCK
  5
1E20
330
1E16
100
AcDbEntity
  8
0
100
AcDbBlockBegin
  2
*D21
 70
     1
 10
0.0
 20
0.0
 30
0.0
  3
*D21
  1

  0
LINE
  5
1E6A
330
1E16
100
AcDbEntity
  8
7
100
AcDbLine
 10
315.5041719043235
 20
339.1585886215966
 30
0.0
 11
310.5041719043235
 21
339.1585886215966
 31
0.0
  0
LINE
  5
1E6B
330
1E16
100
AcDbEntity
  8
7
100
AcDbLine
 10
328.617464754517
 20
309.6585886206287
 30
0.0
 11
310.5041719043235
 21
309.6585886206287
 31
0.0
  0
LINE
  5
1E6C
330
1E16
100
AcDbEntity
  8
7
100
AcDbLine
 10
311.5041719043235
 20
336.1585886215966
 30
0.0
 11
311.5041719043235
 21
312.6585886206287
 31
0.0
  0
SOLID
  5
1E6D
330
1E16
100
AcDbEntity
  8
7
100
AcDbTrace
 10
311.0041719043235
 20
336.1585886215966
 30
0.0
 11
312.0041719043235
 21
336.1585886215966
 31
0.0
 12
311.5041719043235
 22
339.1585886215966
 32
0.0
 13
311.5041719043235
 23
339.1585886215966
 33
0.0
  0
SOLID
  5
1E6E
330
1E16
100
AcDbEntity
  8
7
100
AcDbTrace
 10
311.0041719043235
 20
312.6585886206287
 30
0.0
 11
312.0041719043235
 21
312.6585886206287
 31
0.0
 12
311.5041719043235
 22
309.6585886206287
 32
0.0
 13
311.5041719043235
 23
309.6585886206287
 33
0.0
  0
MTEXT
  5
1E6F
330
1E16
100
AcDbEntity
  8
7
100
AcDbMText
 10
309.4625332206431
 20
324.4085886211127
 30
0.0
 40
2.0
 41
0.0
 71
     5
 72
     1
  1
295
  7
SANINDUSA
 11
0.0000000000000001
 21
1.0
 31
0.0
 73
     1
 44
1.0
  0
POINT
  5
1E70
330
1E16
100
AcDbEntity
  8
Defpoints
 62
     0
100
AcDbPoint
 10
316.5041719043235
 20
339.1585886215966
 30
0.0
  0
POINT
  5
1E71
330
1E16
100
AcDbEntity
  8
Defpoints
 62
     0
100
AcDbPoint
 10
329.617464754517
 20
309.6585886206287
 30
-0.0000001793795719
  0
POINT
  5
1E72
330
1E16
100
AcDbEntity
  8
Defpoints
 62
     0
100
AcDbPoint
 10
311.5041719043235
 20
309.6585886206287
 30
0.0
  0
ENDBLK
  5
1E21
330
1E16
100
AcDbEntity
  8
0
100
AcDbBlockEnd
  0
BLOCK
  5
1E38
330
1E2E
100
AcDbEntity
  8
0
100
AcDbBlockBegin
  2
*D22
 70
     1
 10
0.0
 20
0.0
 30
0.0
  3
*D22
  1

  0
LINE
  5
1E61
330
1E2E
100
AcDbEntity
  8
7
100
AcDbLine
 10
316.5041719043235
 20
340.1585886215965
 30
0.0
 11
316.5041719043235
 21
345.1585886215966
 31
0.0
  0
LINE
  5
1E62
330
1E2E
100
AcDbEntity
  8
7
100
AcDbLine
 10
340.6880902616342
 20
340.1585886215964
 30
0.0
 11
340.6880902616342
 21
345.1585886215966
 31
0.0
  0
LINE
  5
1E63
330
1E2E
100
AcDbEntity
  8
7
100
AcDbLine
 10
319.5041719043235
 20
344.1585886215965
 30
0.0
 11
337.6880902616342
 21
344.1585886215965
 31
0.0
  0
SOLID
  5
1E64
330
1E2E
100
AcDbEntity
  8
7
100
AcDbTrace
 10
319.5041719043235
 20
344.6585886215966
 30
0.0
 11
319.5041719043235
 21
343.6585886215965
 31
0.0
 12
316.5041719043235
 22
344.1585886215965
 32
0.0
 13
316.5041719043235
 23
344.1585886215965
 33
0.0
  0
SOLID
  5
1E65
330
1E2E
100
AcDbEntity
  8
7
100
AcDbTrace
 10
337.6880902616342
 20
344.6585886215966
 30
0.0
 11
337.6880902616342
 21
343.6585886215965
 31
0.0
 12
340.6880902616342
 22
344.1585886215965
 32
0.0
 13
340.6880902616342
 23
344.1585886215965
 33
0.0
  0
MTEXT
  5
1E66
330
1E2E
100
AcDbEntity
  8
7
100
AcDbMText
 10
328.5961310829788
 20
346.1794079634367
 30
0.0
 40
2.0
 41
0.0
 71
     5
 72
     1
  1
242
  7
SANINDUSA
 73
     1
 44
1.0
  0
POINT
  5
1E67
330
1E2E
100
AcDbEntity
  8
Defpoints
 62
     0
100
AcDbPoint
 10
316.5041719043235
 20
339.1585886215966
 30
0.0
  0
POINT
  5
1E68
330
1E2E
100
AcDbEntity
  8
Defpoints
 62
     0
100
AcDbPoint
 10
340.6880902616342
 20
339.1585886215964
 30
0.0
  0
POINT
  5
1E69
330
1E2E
100
AcDbEntity
  8
Defpoints
 62
     0
100
AcDbPoint
 10
340.6880902616342
 20
344.1585886215965
 30
0.0
  0
ENDBLK
  5
1E39
330
1E2E
100
AcDbEntity
  8
0
100
AcDbBlockEnd
  0
BLOCK
  5
2027
330
2026
100
AcDbEntity
  8
0
100
AcDbBlockBegin
  2
*D24
 70
     1
 10
0.0
 20
0.0
 30
0.0
  3
*D24
  1

  0
LINE
  5
2033
330
2026
100
AcDbEntity
  8
cotas
100
AcDbLine
 10
404.6910599875123
 20
339.1585886215966
 30
0.0
 11
412.9950139611131
 21
339.1585886215966
 31
0.0
  0
LINE
  5
2034
330
2026
100
AcDbEntity
  8
cotas
100
AcDbLine
 10
404.6910599875129
 20
154.1585886215915
 30
0.0
 11
412.9950139611131
 21
154.1585886215915
 31
0.0
  0
LINE
  5
2035
330
2026
100
AcDbEntity
  8
cotas
100
AcDbLine
 10
411.9950139611131
 20
336.1585886215966
 30
0.0
 11
411.9950139611131
 21
157.1585886215915
 31
0.0
  0
SOLID
  5
2036
330
2026
100
AcDbEntity
  8
cotas
100
AcDbTrace
 10
411.4950139611131
 20
336.1585886215966
 30
0.0
 11
412.4950139611131
 21
336.1585886215966
 31
0.0
 12
411.9950139611131
 22
339.1585886215966
 32
0.0
 13
411.9950139611131
 23
339.1585886215966
 33
0.0
  0
SOLID
  5
2037
330
2026
100
AcDbEntity
  8
cotas
100
AcDbTrace
 10
411.4950139611131
 20
157.1585886215915
 30
0.0
 11
412.4950139611131
 21
157.1585886215915
 31
0.0
 12
411.9950139611131
 22
154.1585886215915
 32
0.0
 13
411.9950139611131
 23
154.1585886215915
 33
0.0
  0
MTEXT
  5
2038
330
2026
100
AcDbEntity
  8
cotas
100
AcDbMText
 10
409.9493457273991
 20
246.6585886215941
 30
0.0
 40
2.0
 41
0.0
 71
     5
 72
     1
  1
185
  7
SANINDUSA
 11
0.0000000000000001
 21
1.0
 31
0.0
 73
     1
 44
1.0
  0
POINT
  5
2039
330
2026
100
AcDbEntity
  8
Defpoints
 62
     0
100
AcDbPoint
 10
403.6910599875122
 20
339.1585886215966
 30
0.0
  0
POINT
  5
203A
330
2026
100
AcDbEntity
  8
Defpoints
 62
     0
100
AcDbPoint
 10
403.6910599875129
 20
154.1585886215915
 30
0.0
  0
POINT
  5
203B
330
2026
100
AcDbEntity
  8
Defpoints
 62
     0
100
AcDbPoint
 10
411.9950139611131
 20
154.1585886215915
 30
0.0
  0
ENDBLK
  5
2028
330
2026
100
AcDbEntity
  8
0
100
AcDbBlockEnd
  0
ENDSEC
  0
SECTION
  2
ENTITIES
  0
LINE
  5
1099
330
1F
100
AcDbEntity
  8
SANINDUSA
100
AcDbLine
 10
266.5261676023172
 20
345.0784665658612
 30
0.0
 11
266.5261676023172
 21
346.9184665658612
 31
0.0
  0
LINE
  5
109A
330
1F
100
AcDbEntity
  8
SANINDUSA
100
AcDbLine
 10
265.6932487214854
 20
345.0684665658612
 30
0.0
 11
265.6932487214854
 21
346.9184665658612
 31
0.0
  0
LINE
  5
109F
330
1F
100
AcDbEntity
  8
SANINDUSA
100
AcDbLine
 10
265.8961379050584
 20
345.3874665658613
 30
0.0
 11
265.8961379050584
 21
346.5994665658516
 31
0.0
  0
LINE
  5
10A0
330
1F
100
AcDbEntity
  8
SANINDUSA
100
AcDbLine
 10
265.9063379050584
 20
345.3874665658613
 30
0.0
 11
265.9063379050584
 21
346.5994665658516
 31
0.0
  0
LINE
  5
10A1
330
1F
100
AcDbEntity
  8
SANINDUSA
100
AcDbLine
 10
265.6542987214854
 20
345.0684665658612
 30
0.0
 11
265.6542987214854
 21
346.9184665658612
 31
0.0
  0
LINE
  5
10A3
330
1F
100
AcDbEntity
  8
SANINDUSA
100
AcDbLine
 10
266.3385676023172
 20
345.0784665658612
 30
0.0
 11
266.3385676023172
 21
346.9184665658612
 31
0.0
  0
LINE
  5
10A4
330
1F
100
AcDbEntity
  8
SANINDUSA
100
AcDbLine
 10
266.3470676023172
 20
345.0784665658612
 30
0.0
 11
266.3470676023172
 21
346.9184665658612
 31
0.0
  0
LINE
  5
10A9
330
1F
100
AcDbEntity
  8
SANINDUSA
100
AcDbLine
 10
266.5261676023172
 20
345.0684665658612
 30
0.0
 11
265.6542987214854
 21
345.0684665658612
 31
0.0
  0
LINE
  5
10B1
330
1F
100
AcDbEntity
  8
SANINDUSA
100
AcDbLine
 10
265.9063379050584
 20
345.0784665658612
 30
0.0
 11
265.9063379050584
 21
345.3394665658612
 31
0.0
  0
LINE
  5
10B2
330
1F
100
AcDbEntity
  8
SANINDUSA
100
AcDbLine
 10
265.8961379050584
 20
345.0684665658612
 30
0.0
 11
265.8961379050584
 21
345.3394665658612
 31
0.0
  0
LINE
  5
10B4
330
1F
100
AcDbEntity
  8
SANINDUSA
100
AcDbLine
 10
265.9063379050584
 20
345.0784665658612
 30
0.0
 11
266.3385676023172
 21
345.0784665658612
 31
0.0
  0
LINE
  5
10B5
330
1F
100
AcDbEntity
  8
SANINDUSA
100
AcDbLine
 10
266.3470676023172
 20
345.0784665658612
 30
0.0
 11
266.5261676023172
 21
345.0784665658612
 31
0.0
  0
LINE
  5
10B6
330
1F
100
AcDbEntity
  8
SANINDUSA
100
AcDbLine
 10
266.4799676023172
 20
345.0784665658612
 30
0.0
 11
266.4799676023172
 21
345.0684665658612
 31
0.0
  0
LINE
  5
10B7
330
1F
100
AcDbEntity
  8
SANINDUSA
100
AcDbLine
 10
266.5261676023172
 20
345.0784665658612
 30
0.0
 11
266.5261676023172
 21
345.0684665658612
 31
0.0
  0
CIRCLE
  5
10D4
330
1F
100
AcDbEntity
  8
SANINDUSA
100
AcDbCircle
 10
266.2885676023172
 20
345.9984657979142
 30
0.0
 40
0.004
  0
CIRCLE
  5
10D5
330
1F
100
AcDbEntity
  8
SANINDUSA
100
AcDbCircle
 10
266.3970676023172
 20
345.9984657979142
 30
0.0
 40
0.004
  0
LINE
  5
10DA
330
1F
100
AcDbEntity
  8
SANINDUSA
100
AcDbLine
 10
265.6542987214854
 20
346.9184665658612
 30
0.0
 11
265.8961379050584
 21
346.9184665658612
 31
0.0
  0
LINE
  5
10DE
330
1F
100
AcDbEntity
  8
SANINDUSA
100
AcDbLine
 10
265.8961379050584
 20
346.6474665658516
 30
0.0
 11
265.8961379050584
 21
346.9184665658612
 31
0.0
  0
LINE
  5
10DF
330
1F
100
AcDbEntity
  8
SANINDUSA
100
AcDbLine
 10
265.9063379050584
 20
346.6474665658516
 30
0.0
 11
265.9063379050584
 21
346.9184665658612
 31
0.0
  0
LINE
  5
10F7
330
1F
100
AcDbEntity
  8
SANINDUSA
100
AcDbLine
 10
265.9063379050584
 20
346.9184665658612
 30
0.0
 11
266.3385676023172
 21
346.9184665658612
 31
0.0
  0
LINE
  5
10F8
330
1F
100
AcDbEntity
  8
SANINDUSA
100
AcDbLine
 10
266.3470676023172
 20
346.9184665658612
 30
0.0
 11
266.5261676023172
 21
346.9184665658612
 31
0.0
  0
ARC
  5
124F
330
1F
100
AcDbEntity
  8
SANINDUSA
100
AcDbCircle
 10
267.031371717758
 20
346.167705616174
 30
0.0
 40
0.6147258176899341
100
AcDbArc
 50
250.6892348278261
 51
269.8601917267252
  0
ARC
  5
1250
330
1F
100
AcDbEntity
  8
SANINDUSA
100
AcDbCircle
 10
267.031371717758
 20
346.167705616174
 30
0.0
 40
0.6207258176899341
100
AcDbArc
 50
250.6922387440755
 51
269.8615431307895
  0
ARC
  5
126C
330
1F
100
AcDbEntity
  8
SANINDUSA
100
AcDbCircle
 10
267.031371717758
 20
346.167705616174
 30
0.0
 40
0.6207258176899341
100
AcDbArc
 50
270.1384568692105
 51
313.9349188569096
  0
ARC
  5
126D
330
1F
100
AcDbEntity
  8
SANINDUSA
100
AcDbCircle
 10
267.031371717758
 20
346.167705616174
 30
0.0
 40
0.6147258176899341
100
AcDbArc
 50
270.1398082732747
 51
313.9349188569096
  0
ARC
  5
126F
330
1F
100
AcDbEntity
  8
SANINDUSA
100
AcDbCircle
 10
267.031371717758
 20
346.167705616174
 30
0.0
 40
0.6207258176899341
100
AcDbArc
 50
316.0650811430904
 51
359.8615431307895
  0
ARC
  5
1270
330
1F
100
AcDbEntity
  8
SANINDUSA
100
AcDbCircle
 10
267.031371717758
 20
346.167705616174
 30
0.0
 40
0.6147258176899341
100
AcDbArc
 50
316.0650811430904
 51
359.8601917267253
  0
LINE
  5
127C
330
1F
100
AcDbEntity
  8
SANINDUSA
100
AcDbLine
 10
267.0169270589432
 20
345.5434949935542
 30
0.0
 11
267.0318949882905
 21
345.5425139436336
 31
0.0
  0
LINE
  5
127D
330
1F
100
AcDbEntity
  8
SANINDUSA
100
AcDbLine
 10
267.0225018606624
 20
345.5351124363781
 30
0.0
 11
267.0230250856962
 21
345.5430953077645
 31
0.0
  0
LINE
  5
127E
330
1F
100
AcDbEntity
  8
SANINDUSA
100
AcDbLine
 10
266.9645151699009
 20
345.5389130848878
 30
0.0
 11
267.0233888463721
 21
345.5350543002632
 31
0.0
  0
LINE
  5
127F
330
1F
100
AcDbEntity
  8
SANINDUSA
100
AcDbLine
 10
267.0170644089348
 20
345.5455905494748
 30
0.0
 11
267.0171298120641
 21
345.546588408398
 31
0.0
1001
GENIUS_GENREC_14
1002
{
1000
PYDIR
1011
267.0999521026928
1021
345.5411599486719
1031
0.0
1002
}
1002
{
1000
PXDIR
1011
267.047000176632
1021
345.5436284555978
1031
0.0
1002
}
1002
{
1000
PORI
1011
267.0998866995636
1021
345.5401620897486
1031
0.0
1002
}
1002
{
1000
PINS
1011
267.0998866995636
1021
345.5401620897486
1031
0.0
1002
}
1002
{
1000
PINS2
1011
267.0470655797612
1021
345.5446263145211
1031
0.0
1002
}
1002
{
1000
C
1070
     1
1002
}
1001
GENIUS_GENODEF_13
1002
{
1000
HIER
1070
     0
1002
}
1002
{
1000
MANEDIT
1070
     0
1002
}
1002
{
1000
NOSEL
1070
     0
1002
}
1002
{
1000
BEHIND
1070
     0
1002
}
1002
{
1000
REACTOR
1002
}
1001
GENIUS_GENOBJ-N-REC_13
1002
{
1000
OWNER
1000
GEN
1002
}
  0
LINE
  5
1280
330
1F
100
AcDbEntity
  8
SANINDUSA
100
AcDbLine
 10
267.0169270589432
 20
345.5434949935542
 30
0.0
 11
267.0170578652017
 21
345.5454907114007
 31
0.0
  0
ARC
  5
1281
330
1F
100
AcDbEntity
  8
SANINDUSA
100
AcDbCircle
 10
267.0169012247468
 20
345.5583906281824
 30
0.0
 40
0.001
100
AcDbArc
 50
356.250000001052
 51
86.25000000105201
  0
LINE
  5
1282
330
1F
100
AcDbEntity
  8
SANINDUSA
100
AcDbLine
 10
267.0176374711531
 20
345.5543337893602
 30
0.0
 11
267.0178990836701
 21
345.5583252250531
 31
0.0
  0
LINE
  5
1283
330
1F
100
AcDbEntity
  8
SANINDUSA
100
AcDbLine
 10
266.96417134227
 20
345.5489570772499
 30
0.0
 11
266.963582714107
 21
345.5399763469403
 31
0.0
  0
ARC
  5
1284
330
1F
100
AcDbEntity
  8
SANINDUSA
100
AcDbCircle
 10
266.9645805730302
 20
345.539910943811
 30
0.0
 40
0.001
100
AcDbArc
 50
176.250000001052
 51
266.250000001052
  0
ARC
  5
1285
330
1F
100
AcDbEntity
  8
SANINDUSA
100
AcDbCircle
 10
266.9660104196617
 20
345.5617261877731
 30
0.0
 40
0.001
100
AcDbArc
 50
86.25000000105201
 51
176.250000001052
  0
LINE
  5
1286
330
1F
100
AcDbEntity
  8
SANINDUSA
100
AcDbLine
 10
266.9642432891324
 20
345.5500547742472
 30
0.0
 11
266.9641778860031
 21
345.5490569153239
 31
0.0
1001
GENIUS_GENREC_14
1002
{
1000
PYDIR
1011
267.0999521026928
1021
345.5411599486719
1031
0.0
1002
}
1002
{
1000
PXDIR
1011
267.047000176632
1021
345.5436284555978
1031
0.0
1002
}
1002
{
1000
PORI
1011
267.0998866995636
1021
345.5401620897486
1031
0.0
1002
}
1002
{
1000
PINS
1011
267.0998866995636
1021
345.5401620897486
1031
0.0
1002
}
1002
{
1000
PINS2
1011
267.0470655797612
1021
345.5446263145211
1031
0.0
1002
}
1002
{
1000
C
1070
     1
1002
}
1001
GENIUS_GENODEF_13
1002
{
1000
HIER
1070
     0
1002
}
1002
{
1000
MANEDIT
1070
     0
1002
}
1002
{
1000
NOSEL
1070
     0
1002
}
1002
{
1000
BEHIND
1070
     0
1002
}
1002
{
1000
REACTOR
1002
}
1001
GENIUS_GENOBJ-N-REC_13
1002
{
1000
OWNER
1000
GEN
1002
}
  0
LINE
  5
1287
330
1F
100
AcDbEntity
  8
SANINDUSA
100
AcDbLine
 10
266.9647509482215
 20
345.5578001552094
 30
0.0
 11
266.9650125607384
 21
345.5617915909023
 31
0.0
  0
LINE
  5
1288
330
1F
100
AcDbEntity
  8
SANINDUSA
100
AcDbLine
 10
267.0170578652017
 20
345.5454907114007
 30
0.0
 11
266.96417134227
 21
345.5489570772499
 31
0.0
  0
LWPOLYLINE
  5
1289
330
1F
100
AcDbEntity
  8
SANINDUSA
100
AcDbPolyline
 90
        2
 70
     0
 43
0.0
 10
266.9641778860031
 20
345.5490569153239
 10
267.0170644089348
 20
345.5455905494748
1001
GENIUS_GENREC_14
1002
{
1000
PYDIR
1011
267.1203501782572
1021
345.8523744418981
1031
0.0
1002
}
1002
{
1000
PXDIR
1011
267.0675290584548
1021
345.8568386666705
1031
0.0
1002
}
1002
{
1000
PORI
1011
267.1204155813864
1021
345.8533723008213
1031
0.0
1002
}
1002
{
1000
PINS
1011
267.1204155813864
1021
345.8533723008213
1031
0.0
1002
}
1002
{
1000
PINS2
1011
267.0674636553255
1021
345.8558408077473
1031
0.0
1002
}
1002
{
1000
C
1070
     1
1002
}
1001
GENIUS_GENODEF_13
1002
{
1000
HIER
1070
     0
1002
}
1002
{
1000
MANEDIT
1070
     0
1002
}
1002
{
1000
NOSEL
1070
     0
1002
}
1002
{
1000
BEHIND
1070
     0
1002
}
1002
{
1000
REACTOR
1002
}
1001
GENIUS_GENOBJ-N-REC_13
1002
{
1000
OWNER
1000
GEN
1002
}
  0
LWPOLYLINE
  5
128A
330
1F
100
AcDbEntity
  8
SANINDUSA
100
AcDbPolyline
 90
        2
 70
     0
 43
0.0
 10
267.0171298120641
 20
345.546588408398
 10
266.9642432891324
 20
345.5500547742472
1001
GENIUS_GENREC_14
1002
{
1000
PYDIR
1011
267.1203501782572
1021
345.8523744418981
1031
0.0
1002
}
1002
{
1000
PXDIR
1011
267.0675290584548
1021
345.8568386666705
1031
0.0
1002
}
1002
{
1000
PORI
1011
267.1204155813864
1021
345.8533723008213
1031
0.0
1002
}
1002
{
1000
PINS
1011
267.1204155813864
1021
345.8533723008213
1031
0.0
1002
}
1002
{
1000
PINS2
1011
267.0674636553255
1021
345.8558408077473
1031
0.0
1002
}
1002
{
1000
C
1070
     1
1002
}
1001
GENIUS_GENODEF_13
1002
{
1000
HIER
1070
     0
1002
}
1002
{
1000
MANEDIT
1070
     0
1002
}
1002
{
1000
NOSEL
1070
     0
1002
}
1002
{
1000
BEHIND
1070
     0
1002
}
1002
{
1000
REACTOR
1002
}
1001
GENIUS_GENOBJ-N-REC_13
1002
{
1000
OWNER
1000
GEN
1002
}
  0
LINE
  5
128B
330
1F
100
AcDbEntity
  8
SANINDUSA
100
AcDbLine
 10
266.9660758227909
 20
345.5627240466963
 30
0.0
 11
267.0169666278761
 21
345.5593884871056
 31
0.0
  0
LINE
  5
128C
330
1F
100
AcDbEntity
  8
SANINDUSA
100
AcDbLine
 10
267.0176374711531
 20
345.5543337893602
 30
0.0
 11
266.9647509482215
 21
345.5578001552094
 31
0.0
  0
LWPOLYLINE
  5
128D
330
1F
100
AcDbEntity
  8
SANINDUSA
100
AcDbPolyline
 90
        4
 70
     1
 43
0.0
 10
266.9647378675957
 20
345.5576005834247
 10
267.0176243905272
 20
345.5541342175755
 10
267.0175589873981
 20
345.5531363586523
 10
266.9646724644664
 20
345.5566027245015
1001
GENIUS_GENREC_14
1002
{
1000
PYDIR
1011
267.1203346123125
1021
345.8521369514743
1031
0.0
1002
}
1002
{
1000
PXDIR
1011
267.06751349251
1021
345.8566011762468
1031
0.0
1002
}
1002
{
1000
PORI
1011
267.1204000154416
1021
345.8531348103976
1031
0.0
1002
}
1002
{
1000
PINS
1011
267.1204000154416
1021
345.8531348103976
1031
0.0
1002
}
1002
{
1000
PINS2
1011
267.0674480893808
1021
345.8556033173236
1031
0.0
1002
}
1002
{
1000
C
1070
     1
1002
}
1001
GENIUS_GENODEF_13
1002
{
1000
HIER
1070
     0
1002
}
1002
{
1000
MANEDIT
1070
     0
1002
}
1002
{
1000
NOSEL
1070
     0
1002
}
1002
{
1000
BEHIND
1070
     0
1002
}
1002
{
1000
REACTOR
1002
}
1001
GENIUS_GENOBJ-N-REC_13
1002
{
1000
OWNER
1000
GEN
1002
}
  0
LINE
  5
128E
330
1F
100
AcDbEntity
  8
SANINDUSA
100
AcDbLine
 10
267.0979924872945
 20
345.5578001552094
 30
0.0
 11
267.0977308747776
 21
345.5617915909023
 31
0.0
  0
ARC
  5
128F
330
1F
100
AcDbEntity
  8
SANINDUSA
100
AcDbCircle
 10
267.0967330158544
 20
345.5617261877731
 30
0.0
 40
0.001
100
AcDbArc
 50
3.749999998947981
 51
93.74999999894798
  0
LINE
  5
1290
330
1F
100
AcDbEntity
  8
SANINDUSA
100
AcDbLine
 10
267.098572093246
 20
345.5489570772499
 30
0.0
 11
267.0991607214091
 21
345.5399763469403
 31
0.0
  0
ARC
  5
1291
330
1F
100
AcDbEntity
  8
SANINDUSA
100
AcDbCircle
 10
267.0981628624858
 20
345.539910943811
 30
0.0
 40
0.001
100
AcDbArc
 50
273.749999998948
 51
3.749999998947981
  0
LINE
  5
1292
330
1F
100
AcDbEntity
  8
SANINDUSA
100
AcDbLine
 10
267.0985001463836
 20
345.5500547742472
 30
0.0
 11
267.0985655495128
 21
345.5490569153239
 31
0.0
1001
GENIUS_GENREC_14
1002
{
1000
PYDIR
1011
266.9627913328231
1021
345.5411599486719
1031
0.0
1002
}
1002
{
1000
PXDIR
1011
267.015743258884
1021
345.5436284555978
1031
0.0
1002
}
1002
{
1000
PORI
1011
266.9628567359524
1021
345.5401620897486
1031
0.0
1002
}
1002
{
1000
PINS
1011
266.9628567359524
1021
345.5401620897486
1031
0.0
1002
}
1002
{
1000
PINS2
1011
267.0156778557548
1021
345.5446263145211
1031
0.0
1002
}
1002
{
1000
C
1070
     1
1002
}
1001
GENIUS_GENODEF_13
1002
{
1000
HIER
1070
     0
1002
}
1002
{
1000
MANEDIT
1070
     0
1002
}
1002
{
1000
NOSEL
1070
     0
1002
}
1002
{
1000
BEHIND
1070
     0
1002
}
1002
{
1000
REACTOR
1002
}
1001
GENIUS_GENOBJ-N-REC_13
1002
{
1000
OWNER
1000
GEN
1002
}
  0
LINE
  5
1293
330
1F
100
AcDbEntity
  8
SANINDUSA
100
AcDbLine
 10
267.032871717758
 20
345.552981628571
 30
0.0
 11
267.032871717758
 21
345.5469816108811
 31
0.0
  0
LINE
  5
1294
330
1F
100
AcDbEntity
  8
SANINDUSA
100
AcDbLine
 10
267.029871717758
 20
345.552981628571
 30
0.0
 11
267.029871717758
 21
345.5469816108811
 31
0.0
  0
LINE
  5
1295
330
1F
100
AcDbEntity
  8
SANINDUSA
100
AcDbLine
 10
267.032871717758
 20
345.5529825374384
 30
0.0
 11
267.032871717758
 21
345.5469807020136
 31
0.0
  0
CIRCLE
  5
1296
330
1F
100
AcDbEntity
  8
SANINDUSA
100
AcDbCircle
 10
267.031371717758
 20
345.53453107523
 30
0.0
 40
0.008
  0
LINE
  5
1297
330
1F
100
AcDbEntity
  8
SANINDUSA
100
AcDbLine
 10
267.0402415748536
 20
345.5351124363781
 30
0.0
 11
267.0397183498197
 21
345.5430953077645
 31
0.0
  0
LINE
  5
1298
330
1F
100
AcDbEntity
  8
SANINDUSA
100
AcDbLine
 10
267.0458163765728
 20
345.5434949935542
 30
0.0
 11
267.0308484472255
 21
345.5425139436336
 31
0.0
  0
LINE
  5
1299
330
1F
100
AcDbEntity
  8
SANINDUSA
100
AcDbLine
 10
267.0451059643629
 20
345.5543337893602
 30
0.0
 11
267.0448443518459
 21
345.5583252250531
 31
0.0
  0
ARC
  5
129A
330
1F
100
AcDbEntity
  8
SANINDUSA
100
AcDbCircle
 10
267.0458422107692
 20
345.5583906281824
 30
0.0
 40
0.001
100
AcDbArc
 50
93.74999999894798
 51
183.7499999989479
  0
LINE
  5
129B
330
1F
100
AcDbEntity
  8
SANINDUSA
100
AcDbLine
 10
267.0456790265812
 20
345.5455905494748
 30
0.0
 11
267.045613623452
 21
345.546588408398
 31
0.0
1001
GENIUS_GENREC_14
1002
{
1000
PYDIR
1011
266.9627913328231
1021
345.5411599486719
1031
0.0
1002
}
1002
{
1000
PXDIR
1011
267.015743258884
1021
345.5436284555978
1031
0.0
1002
}
1002
{
1000
PORI
1011
266.9628567359524
1021
345.5401620897486
1031
0.0
1002
}
1002
{
1000
PINS
1011
266.9628567359524
1021
345.5401620897486
1031
0.0
1002
}
1002
{
1000
PINS2
1011
267.0156778557548
1021
345.5446263145211
1031
0.0
1002
}
1002
{
1000
C
1070
     1
1002
}
1001
GENIUS_GENODEF_13
1002
{
1000
HIER
1070
     0
1002
}
1002
{
1000
MANEDIT
1070
     0
1002
}
1002
{
1000
NOSEL
1070
     0
1002
}
1002
{
1000
BEHIND
1070
     0
1002
}
1002
{
1000
REACTOR
1002
}
1001
GENIUS_GENOBJ-N-REC_13
1002
{
1000
OWNER
1000
GEN
1002
}
  0
LINE
  5
129C
330
1F
100
AcDbEntity
  8
SANINDUSA
100
AcDbLine
 10
267.0458163765728
 20
345.5434949935542
 30
0.0
 11
267.0456855703144
 21
345.5454907114007
 31
0.0
  0
LINE
  5
129D
330
1F
100
AcDbEntity
  8
SANINDUSA
100
AcDbLine
 10
267.032871717758
 20
345.5536780501761
 30
0.0
 11
267.032871717758
 21
345.5462851892759
 31
0.0
  0
LINE
  5
129E
330
1F
100
AcDbEntity
  8
SANINDUSA
100
AcDbLine
 10
267.032871717758
 20
345.5529825392286
 30
0.0
 11
267.032871717758
 21
345.5469807002235
 31
0.0
  0
ARC
  5
129F
330
1F
100
AcDbEntity
  8
SANINDUSA
100
AcDbCircle
 10
267.0308861647966
 20
345.549981619726
 30
0.0
 40
0.0056623076923077
100
AcDbArc
 50
81.49232712661566
 51
278.5076728733843
  0
ARC
  5
12A0
330
1F
100
AcDbEntity
  8
SANINDUSA
100
AcDbCircle
 10
267.0308861647966
 20
345.549981619726
 30
0.0
 40
0.0052623076923077
100
AcDbArc
 50
81.49232712661566
 51
278.5076728733843
  0
LINE
  5
12A1
330
1F
100
AcDbEntity
  8
SANINDUSA
100
AcDbLine
 10
267.0317238571043
 20
345.555581619726
 30
0.0
 11
267.0317238571043
 21
345.544381619726
 31
0.0
  0
LINE
  5
12A2
330
1F
100
AcDbEntity
  8
SANINDUSA
100
AcDbLine
 10
267.0442212413653
 20
345.5462739412193
 30
0.0
 11
267.0327169396828
 21
345.544381619726
 31
0.0
  0
LINE
  5
12A3
330
1F
100
AcDbEntity
  8
SANINDUSA
100
AcDbLine
 10
267.0430388858727
 20
345.5472955831999
 30
0.0
 11
267.0447238571043
 21
345.5475727410288
 31
0.0
  0
ARC
  5
12A4
330
1F
100
AcDbEntity
  8
SANINDUSA
100
AcDbCircle
 10
267.0365132406872
 20
345.5467289107316
 30
0.0
 40
0.0005
100
AcDbArc
 50
179.8634464290415
 51
279.3408341018414
  0
ARC
  5
12A5
330
1F
100
AcDbEntity
  8
SANINDUSA
100
AcDbCircle
 10
267.0340703956471
 20
345.5462823209154
 30
0.0
 40
0.0005
100
AcDbArc
 50
279.3408341018414
 51
9.340834101841444
  0
LINE
  5
12A6
330
1F
100
AcDbEntity
  8
SANINDUSA
100
AcDbLine
 10
267.0360032994566
 20
345.5468536201919
 30
0.0
 11
267.036043876232
 21
345.5466069351189
 31
0.0
  0
LINE
  5
12A7
330
1F
100
AcDbEntity
  8
SANINDUSA
100
AcDbLine
 10
267.0345637657933
 20
345.5463634744663
 30
0.0
 11
267.0345231890179
 21
345.5466101595393
 31
0.0
  0
ARC
  5
12A8
330
1F
100
AcDbEntity
  8
SANINDUSA
100
AcDbCircle
 10
267.0352632442372
 20
345.5467318898657
 30
0.0
 40
0.00075
100
AcDbArc
 50
359.8634464290416
 51
189.3408341018414
  0
LINE
  5
12A9
330
1F
100
AcDbEntity
  8
SANINDUSA
100
AcDbLine
 10
267.0327169396828
 20
345.544381619726
 30
0.0
 11
267.0317238571043
 21
345.544381619726
 31
0.0
  0
LINE
  5
12AA
330
1F
100
AcDbEntity
  8
SANINDUSA
100
AcDbLine
 10
267.033569102019
 20
345.5456931451005
 30
0.0
 11
267.034151549198
 21
345.5457889507692
 31
0.0
  0
ARC
  5
12AB
330
1F
100
AcDbEntity
  8
SANINDUSA
100
AcDbCircle
 10
267.033471717758
 20
345.5462851892759
 30
0.0
 40
0.0006
100
AcDbArc
 50
180.0
 51
279.3408341018414
  0
LINE
  5
12AC
330
1F
100
AcDbEntity
  8
SANINDUSA
100
AcDbLine
 10
267.04179758911
 20
345.5466860294151
 30
0.0
 11
267.0397212607545
 21
345.5469778383352
 31
0.0
  0
LINE
  5
12AD
330
1F
100
AcDbEntity
  8
SANINDUSA
100
AcDbLine
 10
267.0394212413654
 20
345.546295148331
 30
0.0
 11
267.04179758911
 21
345.5466860294151
 31
0.0
  0
LINE
  5
12AE
330
1F
100
AcDbEntity
  8
SANINDUSA
100
AcDbLine
 10
267.0397699713399
 20
345.5473244321593
 30
0.0
 11
267.0418986667395
 21
345.547025263531
 31
0.0
  0
ARC
  5
12AF
330
1F
100
AcDbEntity
  8
SANINDUSA
100
AcDbCircle
 10
267.0421238571043
 20
345.5473477593733
 30
0.0
 40
0.0005999999999989
100
AcDbArc
 50
284.1008918065045
 51
327.5305192081069
  0
ARC
  5
12B0
330
1F
100
AcDbEntity
  8
SANINDUSA
100
AcDbCircle
 10
267.0431362701337
 20
345.5467035390245
 30
0.0
 40
0.0006
100
AcDbArc
 50
99.34083410184145
 51
147.5305192081069
  0
ARC
  5
12B1
330
1F
100
AcDbEntity
  8
SANINDUSA
100
AcDbCircle
 10
267.041829080189
 20
345.5465301294966
 30
0.0
 40
0.0005
100
AcDbArc
 50
28.12637396571802
 51
82.00000000144234
  0
ARC
  5
12B2
330
1F
100
AcDbEntity
  8
SANINDUSA
100
AcDbCircle
 10
267.0385711354377
 20
345.5459526283874
 30
0.0
 40
0.0006000000000005
100
AcDbArc
 50
51.15114899865663
 51
99.34083410184145
  0
LINE
  5
12B3
330
1F
100
AcDbEntity
  8
SANINDUSA
100
AcDbLine
 10
267.036594394238
 20
345.5462355405854
 30
0.0
 11
267.0384737511767
 21
345.5465446725629
 31
0.0
  0
ARC
  5
12B4
330
1F
100
AcDbEntity
  8
SANINDUSA
100
AcDbCircle
 10
267.0397456160472
 20
345.5471511352473
 30
0.0
 40
0.000175
100
AcDbArc
 50
82.00000000144234
 51
262.0000000014424
  0
ARC
  5
12B5
330
1F
100
AcDbEntity
  8
SANINDUSA
100
AcDbCircle
 10
267.0393238571043
 20
345.5468871925065
 30
0.0
 40
0.0006
100
AcDbArc
 50
231.1511489986566
 51
279.3408341018414
  0
ARC
  5
12B6
330
1F
100
AcDbEntity
  8
SANINDUSA
100
AcDbCircle
 10
267.0441238571043
 20
345.5468659853947
 30
0.0
 40
0.0006
100
AcDbArc
 50
279.3408341018414
 51
0.0
  0
LINE
  5
12B7
330
1F
100
AcDbEntity
  8
SANINDUSA
100
AcDbLine
 10
267.0447238571043
 20
345.5475727410288
 30
0.0
 11
267.0447238571043
 21
345.5468659853947
 31
0.0
  0
LINE
  5
12B8
330
1F
100
AcDbEntity
  8
SANINDUSA
100
AcDbLine
 10
267.0327169396828
 20
345.555581619726
 30
0.0
 11
267.0442212413653
 21
345.5536892982328
 31
0.0
  0
LINE
  5
12B9
330
1F
100
AcDbEntity
  8
SANINDUSA
100
AcDbLine
 10
267.0447238571043
 20
345.5523904984233
 30
0.0
 11
267.0430388858727
 21
345.5526676562521
 31
0.0
  0
LINE
  5
12BA
330
1F
100
AcDbEntity
  8
SANINDUSA
100
AcDbLine
 10
267.0384737511766
 20
345.5534185668891
 30
0.0
 11
267.0366112296773
 21
345.5537249296361
 31
0.0
  0
ARC
  5
12BB
330
1F
100
AcDbEntity
  8
SANINDUSA
100
AcDbCircle
 10
267.0340703956471
 20
345.5536809185367
 30
0.0
 40
0.0005
100
AcDbArc
 50
350.6591658981585
 51
80.65916589815856
  0
LINE
  5
12BC
330
1F
100
AcDbEntity
  8
SANINDUSA
100
AcDbLine
 10
267.0327169396828
 20
345.555581619726
 30
0.0
 11
267.0317238571043
 21
345.555581619726
 31
0.0
  0
LINE
  5
12BD
330
1F
100
AcDbEntity
  8
SANINDUSA
100
AcDbLine
 10
267.034151549198
 20
345.554174288683
 30
0.0
 11
267.033569102019
 21
345.5542700943516
 31
0.0
  0
ARC
  5
12BE
330
1F
100
AcDbEntity
  8
SANINDUSA
100
AcDbCircle
 10
267.033471717758
 20
345.5536780501761
 30
0.0
 40
0.0006
100
AcDbArc
 50
80.65916589815856
 51
180.0
  0
LINE
  5
12BF
330
1F
100
AcDbEntity
  8
SANINDUSA
100
AcDbLine
 10
267.0345231890179
 20
345.5533530799127
 30
0.0
 11
267.0345637657933
 21
345.5535997649858
 31
0.0
  0
ARC
  5
12C0
330
1F
100
AcDbEntity
  8
SANINDUSA
100
AcDbCircle
 10
267.0352632442372
 20
345.5532313495864
 30
0.0
 40
0.00075
100
AcDbArc
 50
170.6591658981585
 51
350.6591658981585
  0
LINE
  5
12C1
330
1F
100
AcDbEntity
  8
SANINDUSA
100
AcDbLine
 10
267.0360367059802
 20
345.5533127130407
 30
0.0
 11
267.0360032994566
 21
345.5531096192601
 31
0.0
  0
ARC
  5
12C2
330
1F
100
AcDbEntity
  8
SANINDUSA
100
AcDbCircle
 10
267.0365300761265
 20
345.5532315594898
 30
0.0
 40
0.0005
100
AcDbArc
 50
80.65916589815856
 51
170.6591658981585
  0
LINE
  5
12C3
330
1F
100
AcDbEntity
  8
SANINDUSA
100
AcDbLine
 10
267.04179758911
 20
345.5532772100371
 30
0.0
 11
267.0394212413654
 21
345.553668091121
 31
0.0
  0
LINE
  5
12C4
330
1F
100
AcDbEntity
  8
SANINDUSA
100
AcDbLine
 10
267.0397212607545
 20
345.5529854011168
 30
0.0
 11
267.04179758911
 21
345.5532772100371
 31
0.0
  0
LINE
  5
12C5
330
1F
100
AcDbEntity
  8
SANINDUSA
100
AcDbLine
 10
267.0418986667395
 20
345.5529379759211
 30
0.0
 11
267.0397699713399
 21
345.5526388072927
 31
0.0
  0
ARC
  5
12C6
330
1F
100
AcDbEntity
  8
SANINDUSA
100
AcDbCircle
 10
267.041829080189
 20
345.5534331099554
 30
0.0
 40
0.0004999999999883
100
AcDbArc
 50
278.0000000017828
 51
331.873626034282
  0
ARC
  5
12C7
330
1F
100
AcDbEntity
  8
SANINDUSA
100
AcDbCircle
 10
267.0421238571043
 20
345.5526154800788
 30
0.0
 40
0.0006000000000005
100
AcDbArc
 50
32.46948079189306
 51
75.89910819349554
  0
ARC
  5
12C8
330
1F
100
AcDbEntity
  8
SANINDUSA
100
AcDbCircle
 10
267.0431362701337
 20
345.5532597004276
 30
0.0
 40
0.0006
100
AcDbArc
 50
212.4694807918931
 51
260.6591658981585
  0
ARC
  5
12C9
330
1F
100
AcDbEntity
  8
SANINDUSA
100
AcDbCircle
 10
267.0385711354377
 20
345.5540106110646
 30
0.0
 40
0.0006000000000005
100
AcDbArc
 50
260.6591658981585
 51
308.8488510013434
  0
ARC
  5
12CA
330
1F
100
AcDbEntity
  8
SANINDUSA
100
AcDbCircle
 10
267.0397456160472
 20
345.5528121042048
 30
0.0
 40
0.000175
100
AcDbArc
 50
97.99999999855764
 51
277.9999999985577
  0
ARC
  5
12CB
330
1F
100
AcDbEntity
  8
SANINDUSA
100
AcDbCircle
 10
267.0393238571043
 20
345.5530760469456
 30
0.0
 40
0.0006
100
AcDbArc
 50
80.65916589815856
 51
128.8488510013434
  0
LINE
  5
12CC
330
1F
100
AcDbEntity
  8
SANINDUSA
100
AcDbLine
 10
267.0447238571043
 20
345.5530972540573
 30
0.0
 11
267.0447238571043
 21
345.5523904984233
 31
0.0
  0
ARC
  5
12CD
330
1F
100
AcDbEntity
  8
SANINDUSA
100
AcDbCircle
 10
267.0441238571043
 20
345.5530972540573
 30
0.0
 40
0.0006
100
AcDbArc
 50
0.0
 51
80.65916589815856
  0
LINE
  5
12CE
330
1F
100
AcDbEntity
  8
SANINDUSA
100
AcDbLine
 10
267.098228265615
 20
345.5389130848878
 30
0.0
 11
267.0393545891439
 21
345.5350543002632
 31
0.0
  0
LWPOLYLINE
  5
12CF
330
1F
100
AcDbEntity
  8
SANINDUSA
100
AcDbPolyline
 90
        4
 70
     1
 43
0.0
 10
267.0980055679204
 20
345.5576005834247
 10
267.0451190449887
 20
345.5541342175755
 10
267.045184448118
 20
345.5531363586523
 10
267.0980709710496
 20
345.5566027245015
1001
GENIUS_GENREC_14
1002
{
1000
PYDIR
1011
267.1203346123125
1021
345.8521369514743
1031
0.0
1002
}
1002
{
1000
PXDIR
1011
267.06751349251
1021
345.8566011762468
1031
0.0
1002
}
1002
{
1000
PORI
1011
267.1204000154416
1021
345.8531348103976
1031
0.0
1002
}
1002
{
1000
PINS
1011
267.1204000154416
1021
345.8531348103976
1031
0.0
1002
}
1002
{
1000
PINS2
1011
267.0674480893808
1021
345.8556033173236
1031
0.0
1002
}
1002
{
1000
C
1070
     1
1002
}
1001
GENIUS_GENODEF_13
1002
{
1000
HIER
1070
     0
1002
}
1002
{
1000
MANEDIT
1070
     0
1002
}
1002
{
1000
NOSEL
1070
     0
1002
}
1002
{
1000
BEHIND
1070
     0
1002
}
1002
{
1000
REACTOR
1002
}
1001
GENIUS_GENOBJ-N-REC_13
1002
{
1000
OWNER
1000
GEN
1002
}
  0
LINE
  5
12D0
330
1F
100
AcDbEntity
  8
SANINDUSA
100
AcDbLine
 10
267.0451059643629
 20
345.5543337893602
 30
0.0
 11
267.0979924872945
 21
345.5578001552094
 31
0.0
  0
LINE
  5
12D1
330
1F
100
AcDbEntity
  8
SANINDUSA
100
AcDbLine
 10
267.0966676127251
 20
345.5627240466963
 30
0.0
 11
267.04577680764
 21
345.5593884871056
 31
0.0
  0
LINE
  5
12D2
330
1F
100
AcDbEntity
  8
SANINDUSA
100
AcDbLine
 10
267.0456855703144
 20
345.5454907114007
 30
0.0
 11
267.098572093246
 21
345.5489570772499
 31
0.0
  0
LWPOLYLINE
  5
12D3
330
1F
100
AcDbEntity
  8
SANINDUSA
100
AcDbPolyline
 90
        2
 70
     0
 43
0.0
 10
267.0985655495128
 20
345.5490569153239
 10
267.0456790265812
 20
345.5455905494748
1001
GENIUS_GENREC_14
1002
{
1000
PYDIR
1011
267.1203501782572
1021
345.8523744418981
1031
0.0
1002
}
1002
{
1000
PXDIR
1011
267.0675290584548
1021
345.8568386666705
1031
0.0
1002
}
1002
{
1000
PORI
1011
267.1204155813864
1021
345.8533723008213
1031
0.0
1002
}
1002
{
1000
PINS
1011
267.1204155813864
1021
345.8533723008213
1031
0.0
1002
}
1002
{
1000
PINS2
1011
267.0674636553255
1021
345.8558408077473
1031
0.0
1002
}
1002
{
1000
C
1070
     1
1002
}
1001
GENIUS_GENODEF_13
1002
{
1000
HIER
1070
     0
1002
}
1002
{
1000
MANEDIT
1070
     0
1002
}
1002
{
1000
NOSEL
1070
     0
1002
}
1002
{
1000
BEHIND
1070
     0
1002
}
1002
{
1000
REACTOR
1002
}
1001
GENIUS_GENOBJ-N-REC_13
1002
{
1000
OWNER
1000
GEN
1002
}
  0
LWPOLYLINE
  5
12D4
330
1F
100
AcDbEntity
  8
SANINDUSA
100
AcDbPolyline
 90
        2
 70
     0
 43
0.0
 10
267.045613623452
 20
345.546588408398
 10
267.0985001463836
 20
345.5500547742472
1001
GENIUS_GENREC_14
1002
{
1000
PYDIR
1011
267.1203501782572
1021
345.8523744418981
1031
0.0
1002
}
1002
{
1000
PXDIR
1011
267.0675290584548
1021
345.8568386666705
1031
0.0
1002
}
1002
{
1000
PORI
1011
267.1204155813864
1021
345.8533723008213
1031
0.0
1002
}
1002
{
1000
PINS
1011
267.1204155813864
1021
345.8533723008213
1031
0.0
1002
}
1002
{
1000
PINS2
1011
267.0674636553255
1021
345.8558408077473
1031
0.0
1002
}
1002
{
1000
C
1070
     1
1002
}
1001
GENIUS_GENODEF_13
1002
{
1000
HIER
1070
     0
1002
}
1002
{
1000
MANEDIT
1070
     0
1002
}
1002
{
1000
NOSEL
1070
     0
1002
}
1002
{
1000
BEHIND
1070
     0
1002
}
1002
{
1000
REACTOR
1002
}
1001
GENIUS_GENOBJ-N-REC_13
1002
{
1000
OWNER
1000
GEN
1002
}
  0
LINE
  5
12F7
330
1F
100
AcDbEntity
  8
SANINDUSA
100
AcDbLine
 10
267.4740532279577
 20
345.7411837392886
 30
0.0
 11
267.4783739982666
 21
345.7370206942567
 31
0.0
  0
LINE
  5
12F8
330
1F
100
AcDbEntity
  8
SANINDUSA
100
AcDbLine
 10
267.4578935946434
 20
345.7250241059742
 30
0.0
 11
267.4620566396753
 21
345.7207033356653
 31
0.0
  0
INSERT
  5
12F9
330
1F
100
AcDbEntity
  8
SANINDUSA
100
AcDbBlockReference
  2
guarnizione
 10
267.4600900147277
 20
345.7228276858899
 30
0.0
 41
0.001
 42
0.001
 43
0.001
 50
225.0
  0
INSERT
  5
12FA
330
1F
100
AcDbEntity
  8
SANINDUSA
100
AcDbBlockReference
  2
guarnizione
 10
267.4762496480423
 20
345.738987319204
 30
0.0
 41
0.001
 42
0.001
 43
0.001
 50
44.99999999999999
  0
ARC
  5
1340
330
1F
100
AcDbEntity
  8
SANINDUSA
100
AcDbCircle
 10
267.031371717758
 20
346.167705616174
 30
0.0
 40
0.6207258176899341
100
AcDbArc
 50
0.1384568692104939
 51
19.30776125592449
  0
ARC
  5
1341
330
1F
100
AcDbEntity
  8
SANINDUSA
100
AcDbCircle
 10
267.031371717758
 20
346.167705616174
 30
0.0
 40
0.6147258176899341
100
AcDbArc
 50
0.139808273274725
 51
19.31076517217386
  0
LINE
  5
1342
330
1F
100
AcDbEntity
  8
SANINDUSA
100
AcDbLine
 10
267.6601642490441
 20
346.234562164031
 30
0.0
 11
267.6640230336687
 21
346.1756884875599
 31
0.0
  0
LINE
  5
1343
330
1F
100
AcDbEntity
  8
SANINDUSA
100
AcDbLine
 10
267.6447435445718
 20
346.1814398627788
 30
0.0
 11
267.6412771787226
 21
346.2343263857105
 31
0.0
  0
LINE
  5
1344
330
1F
100
AcDbEntity
  8
SANINDUSA
100
AcDbLine
 10
267.6363532872356
 20
346.2330015111411
 30
0.0
 11
267.6396888468264
 21
346.182110706056
 31
0.0
  0
LINE
  5
1345
330
1F
100
AcDbEntity
  8
SANINDUSA
100
AcDbLine
 10
267.6535866225313
 20
346.1820194687303
 30
0.0
 11
267.6501202566821
 21
346.2349059916619
 31
0.0
  0
LWPOLYLINE
  5
1346
330
1F
100
AcDbEntity
  8
SANINDUSA
100
AcDbPolyline
 90
        4
 70
     1
 43
0.0
 10
267.6414767505073
 20
346.2343394663363
 10
267.6449431163565
 20
346.1814529434047
 10
267.6459409752797
 20
346.1815183465339
 10
267.6424746094305
 20
346.2344048694656
1001
GENIUS_GENREC_14
1002
{
1000
PYDIR
1011
267.1203346123125
1021
345.8521369514743
1031
0.0
1002
}
1002
{
1000
PXDIR
1011
267.06751349251
1021
345.8566011762468
1031
0.0
1002
}
1002
{
1000
PORI
1011
267.1204000154416
1021
345.8531348103976
1031
0.0
1002
}
1002
{
1000
PINS
1011
267.1204000154416
1021
345.8531348103976
1031
0.0
1002
}
1002
{
1000
PINS2
1011
267.0674480893808
1021
345.8556033173236
1031
0.0
1002
}
1002
{
1000
C
1070
     1
1002
}
1001
GENIUS_GENODEF_13
1002
{
1000
HIER
1070
     0
1002
}
1002
{
1000
MANEDIT
1070
     0
1002
}
1002
{
1000
NOSEL
1070
     0
1002
}
1002
{
1000
BEHIND
1070
     0
1002
}
1002
{
1000
REACTOR
1002
}
1001
GENIUS_GENOBJ-N-REC_13
1002
{
1000
OWNER
1000
GEN
1002
}
  0
LWPOLYLINE
  5
1347
330
1F
100
AcDbEntity
  8
SANINDUSA
100
AcDbPolyline
 90
        2
 70
     0
 43
0.0
 10
267.652488925534
 20
346.1819475218679
 10
267.6490225596848
 20
346.2348340447996
1001
GENIUS_GENREC_14
1002
{
1000
PYDIR
1011
267.1203501782572
1021
345.8523744418981
1031
0.0
1002
}
1002
{
1000
PXDIR
1011
267.0675290584548
1021
345.8568386666705
1031
0.0
1002
}
1002
{
1000
PORI
1011
267.1204155813864
1021
345.8533723008213
1031
0.0
1002
}
1002
{
1000
PINS
1011
267.1204155813864
1021
345.8533723008213
1031
0.0
1002
}
1002
{
1000
PINS2
1011
267.0674636553255
1021
345.8558408077473
1031
0.0
1002
}
1002
{
1000
C
1070
     1
1002
}
1001
GENIUS_GENODEF_13
1002
{
1000
HIER
1070
     0
1002
}
1002
{
1000
MANEDIT
1070
     0
1002
}
1002
{
1000
NOSEL
1070
     0
1002
}
1002
{
1000
BEHIND
1070
     0
1002
}
1002
{
1000
REACTOR
1002
}
1001
GENIUS_GENOBJ-N-REC_13
1002
{
1000
OWNER
1000
GEN
1002
}
  0
LWPOLYLINE
  5
1348
330
1F
100
AcDbEntity
  8
SANINDUSA
100
AcDbPolyline
 90
        2
 70
     0
 43
0.0
 10
267.650020418608
 20
346.2348994479288
 10
267.6534867844572
 20
346.1820129249971
1001
GENIUS_GENREC_14
1002
{
1000
PYDIR
1011
267.1203501782572
1021
345.8523744418981
1031
0.0
1002
}
1002
{
1000
PXDIR
1011
267.0675290584548
1021
345.8568386666705
1031
0.0
1002
}
1002
{
1000
PORI
1011
267.1204155813864
1021
345.8533723008213
1031
0.0
1002
}
1002
{
1000
PINS
1011
267.1204155813864
1021
345.8533723008213
1031
0.0
1002
}
1002
{
1000
PINS2
1011
267.0674636553255
1021
345.8558408077473
1031
0.0
1002
}
1002
{
1000
C
1070
     1
1002
}
1001
GENIUS_GENODEF_13
1002
{
1000
HIER
1070
     0
1002
}
1002
{
1000
MANEDIT
1070
     0
1002
}
1002
{
1000
NOSEL
1070
     0
1002
}
1002
{
1000
BEHIND
1070
     0
1002
}
1002
{
1000
REACTOR
1002
}
1001
GENIUS_GENOBJ-N-REC_13
1002
{
1000
OWNER
1000
GEN
1002
}
  0
LINE
  5
134A
330
1F
100
AcDbEntity
  8
SANINDUSA
100
AcDbLine
 10
267.6535866225313
 20
346.1533917636176
 30
0.0
 11
267.6501202566821
 21
346.1005052406859
 31
0.0
  0
LINE
  5
134B
330
1F
100
AcDbEntity
  8
SANINDUSA
100
AcDbLine
 10
267.6447435445718
 20
346.1539713695691
 30
0.0
 11
267.6412771787226
 21
346.1010848466374
 31
0.0
  0
LINE
  5
134C
330
1F
100
AcDbEntity
  8
SANINDUSA
100
AcDbLine
 10
267.6601642490441
 20
346.1008490683169
 30
0.0
 11
267.6640230336687
 21
346.159722744788
 31
0.0
  0
ARC
  5
134D
330
1F
100
AcDbEntity
  8
SANINDUSA
100
AcDbCircle
 10
267.6373511461589
 20
346.1023443180776
 30
0.0
 40
0.001
100
AcDbArc
 50
176.250000001052
 51
266.250000001052
  0
LWPOLYLINE
  5
134E
330
1F
100
AcDbEntity
  8
SANINDUSA
100
AcDbPolyline
 90
        2
 70
     0
 43
0.0
 10
267.652488925534
 20
346.15346371048
 10
267.6490225596848
 20
346.1005771875484
1001
GENIUS_GENREC_14
1002
{
1000
PYDIR
1011
267.1203501782572
1021
345.8523744418981
1031
0.0
1002
}
1002
{
1000
PXDIR
1011
267.0675290584548
1021
345.8568386666705
1031
0.0
1002
}
1002
{
1000
PORI
1011
267.1204155813864
1021
345.8533723008213
1031
0.0
1002
}
1002
{
1000
PINS
1011
267.1204155813864
1021
345.8533723008213
1031
0.0
1002
}
1002
{
1000
PINS2
1011
267.0674636553255
1021
345.8558408077473
1031
0.0
1002
}
1002
{
1000
C
1070
     1
1002
}
1001
GENIUS_GENODEF_13
1002
{
1000
HIER
1070
     0
1002
}
1002
{
1000
MANEDIT
1070
     0
1002
}
1002
{
1000
NOSEL
1070
     0
1002
}
1002
{
1000
BEHIND
1070
     0
1002
}
1002
{
1000
REACTOR
1002
}
1001
GENIUS_GENOBJ-N-REC_13
1002
{
1000
OWNER
1000
GEN
1002
}
  0
LWPOLYLINE
  5
134F
330
1F
100
AcDbEntity
  8
SANINDUSA
100
AcDbPolyline
 90
        2
 70
     0
 43
0.0
 10
267.650020418608
 20
346.1005117844191
 10
267.6534867844572
 20
346.1533983073508
1001
GENIUS_GENREC_14
1002
{
1000
PYDIR
1011
267.1203501782572
1021
345.8523744418981
1031
0.0
1002
}
1002
{
1000
PXDIR
1011
267.0675290584548
1021
345.8568386666705
1031
0.0
1002
}
1002
{
1000
PORI
1011
267.1204155813864
1021
345.8533723008213
1031
0.0
1002
}
1002
{
1000
PINS
1011
267.1204155813864
1021
345.8533723008213
1031
0.0
1002
}
1002
{
1000
PINS2
1011
267.0674636553255
1021
345.8558408077473
1031
0.0
1002
}
1002
{
1000
C
1070
     1
1002
}
1001
GENIUS_GENODEF_13
1002
{
1000
HIER
1070
     0
1002
}
1002
{
1000
MANEDIT
1070
     0
1002
}
1002
{
1000
NOSEL
1070
     0
1002
}
1002
{
1000
BEHIND
1070
     0
1002
}
1002
{
1000
REACTOR
1002
}
1001
GENIUS_GENOBJ-N-REC_13
1002
{
1000
OWNER
1000
GEN
1002
}
  0
LWPOLYLINE
  5
1350
330
1F
100
AcDbEntity
  8
SANINDUSA
100
AcDbPolyline
 90
        4
 70
     1
 43
0.0
 10
267.6414767505073
 20
346.1010717660116
 10
267.6449431163565
 20
346.1539582889432
 10
267.6459409752797
 20
346.153892885814
 10
267.6424746094305
 20
346.1010063628823
1001
GENIUS_GENREC_14
1002
{
1000
PYDIR
1011
267.1203346123125
1021
345.8521369514743
1031
0.0
1002
}
1002
{
1000
PXDIR
1011
267.06751349251
1021
345.8566011762468
1031
0.0
1002
}
1002
{
1000
PORI
1011
267.1204000154416
1021
345.8531348103976
1031
0.0
1002
}
1002
{
1000
PINS
1011
267.1204000154416
1021
345.8531348103976
1031
0.0
1002
}
1002
{
1000
PINS2
1011
267.0674480893808
1021
345.8556033173236
1031
0.0
1002
}
1002
{
1000
C
1070
     1
1002
}
1001
GENIUS_GENODEF_13
1002
{
1000
HIER
1070
     0
1002
}
1002
{
1000
MANEDIT
1070
     0
1002
}
1002
{
1000
NOSEL
1070
     0
1002
}
1002
{
1000
BEHIND
1070
     0
1002
}
1002
{
1000
REACTOR
1002
}
1001
GENIUS_GENOBJ-N-REC_13
1002
{
1000
OWNER
1000
GEN
1002
}
  0
LINE
  5
1351
330
1F
100
AcDbEntity
  8
SANINDUSA
100
AcDbLine
 10
267.6490225596848
 20
346.1005771875484
 30
0.0
 11
267.650020418608
 21
346.1005117844191
 31
0.0
1001
GENIUS_GENREC_14
1002
{
1000
PYDIR
1011
267.6579173852601
1021
346.2362860011088
1031
0.0
1002
}
1002
{
1000
PXDIR
1011
267.6554488783342
1021
346.1833340750479
1031
0.0
1002
}
1002
{
1000
PORI
1011
267.6589152441833
1021
346.2362205979796
1031
0.0
1002
}
1002
{
1000
PINS
1011
267.6589152441833
1021
346.2362205979796
1031
0.0
1002
}
1002
{
1000
PINS2
1011
267.6544510194109
1021
346.1833994781772
1031
0.0
1002
}
1002
{
1000
C
1070
     1
1002
}
1001
GENIUS_GENODEF_13
1002
{
1000
HIER
1070
     0
1002
}
1002
{
1000
MANEDIT
1070
     0
1002
}
1002
{
1000
NOSEL
1070
     0
1002
}
1002
{
1000
BEHIND
1070
     0
1002
}
1002
{
1000
REACTOR
1002
}
1001
GENIUS_GENOBJ-N-REC_13
1002
{
1000
OWNER
1000
GEN
1002
}
  0
ARC
  5
1352
330
1F
100
AcDbEntity
  8
SANINDUSA
100
AcDbCircle
 10
267.6591663901209
 20
346.1009144714462
 30
0.0
 40
0.001
100
AcDbArc
 50
266.250000001052
 51
356.250000001052
  0
LINE
  5
1353
330
1F
100
AcDbEntity
  8
SANINDUSA
100
AcDbLine
 10
267.6501202566821
 20
346.1005052406859
 30
0.0
 11
267.6591009869917
 21
346.0999166125229
 31
0.0
  0
LINE
  5
1354
330
1F
100
AcDbEntity
  8
SANINDUSA
100
AcDbLine
 10
267.6412771787226
 20
346.1010848466374
 30
0.0
 11
267.6372857430297
 21
346.1013464591543
 31
0.0
  0
LINE
  5
1355
330
1F
100
AcDbEntity
  8
SANINDUSA
100
AcDbLine
 10
267.6363532872356
 20
346.1024097212068
 30
0.0
 11
267.6396888468264
 21
346.153300526292
 31
0.0
  0
ARC
  5
1356
330
1F
100
AcDbEntity
  8
SANINDUSA
100
AcDbCircle
 10
267.6459800798746
 20
346.1549534768277
 30
0.0
 40
0.0006
100
AcDbArc
 50
189.3408341018414
 51
270.0
  0
LINE
  5
1357
330
1F
100
AcDbEntity
  8
SANINDUSA
100
AcDbLine
 10
267.6459800798746
 20
346.1543534768277
 30
0.0
 11
267.6466868355087
 21
346.1543534768277
 31
0.0
  0
ARC
  5
1358
330
1F
100
AcDbEntity
  8
SANINDUSA
100
AcDbCircle
 10
267.6460012869864
 20
346.1597534768277
 30
0.0
 40
0.0006
100
AcDbArc
 50
141.1511489986566
 51
189.3408341018414
  0
ARC
  5
1359
330
1F
100
AcDbEntity
  8
SANINDUSA
100
AcDbCircle
 10
267.6462652297272
 20
346.1593317178848
 30
0.0
 40
0.000175
100
AcDbArc
 50
352.0000000014424
 51
172.0000000014423
  0
ARC
  5
135A
330
1F
100
AcDbEntity
  8
SANINDUSA
100
AcDbCircle
 10
267.6450667228674
 20
346.1605061984943
 30
0.0
 40
0.0006000000000005
100
AcDbArc
 50
321.1511489986566
 51
9.340834101841444
  0
ARC
  5
135B
330
1F
100
AcDbEntity
  8
SANINDUSA
100
AcDbCircle
 10
267.6458176335044
 20
346.1559410637983
 30
0.0
 40
0.0006
100
AcDbArc
 50
9.340834101841444
 51
57.53051920810694
  0
ARC
  5
135C
330
1F
100
AcDbEntity
  8
SANINDUSA
100
AcDbCircle
 10
267.6464618538532
 20
346.1569534768277
 30
0.0
 40
0.0006000000000005
100
AcDbArc
 50
194.1008918065044
 51
237.5305192081069
  0
ARC
  5
135D
330
1F
100
AcDbEntity
  8
SANINDUSA
100
AcDbCircle
 10
267.6456442239766
 20
346.157248253743
 30
0.0
 40
0.0004999999999883
100
AcDbArc
 50
298.126373965718
 51
351.9999999982172
  0
LINE
  5
135E
330
1F
100
AcDbEntity
  8
SANINDUSA
100
AcDbLine
 10
267.646139358011
 20
346.1571786671925
 30
0.0
 11
267.6464385266392
 21
346.1593073625921
 31
0.0
  0
LINE
  5
135F
330
1F
100
AcDbEntity
  8
SANINDUSA
100
AcDbLine
 10
267.6460919328151
 20
346.1593560731774
 30
0.0
 11
267.645800123895
 21
346.1572797448219
 31
0.0
  0
LINE
  5
1360
330
1F
100
AcDbEntity
  8
SANINDUSA
100
AcDbLine
 10
267.645800123895
 20
346.1572797448219
 30
0.0
 11
267.6454092428109
 21
346.1596560925666
 31
0.0
  0
ARC
  5
1361
330
1F
100
AcDbEntity
  8
SANINDUSA
100
AcDbCircle
 10
267.6458457744421
 20
346.1625472578055
 30
0.0
 40
0.0005
100
AcDbArc
 50
99.34083410184145
 51
189.3408341018414
  0
LINE
  5
1362
330
1F
100
AcDbEntity
  8
SANINDUSA
100
AcDbLine
 10
267.6457646208913
 20
346.1630406279517
 30
0.0
 11
267.6459677146719
 21
346.1630740344753
 31
0.0
  0
ARC
  5
1363
330
1F
100
AcDbEntity
  8
SANINDUSA
100
AcDbCircle
 10
267.6458459843455
 20
346.1638140896947
 30
0.0
 40
0.00075
100
AcDbArc
 50
279.3408341018414
 51
99.34083410184145
  0
LINE
  5
1364
330
1F
100
AcDbEntity
  8
SANINDUSA
100
AcDbLine
 10
267.6457242540192
 20
346.164554144914
 30
0.0
 11
267.6454775689462
 21
346.1645135681386
 31
0.0
  0
ARC
  5
1365
330
1F
100
AcDbEntity
  8
SANINDUSA
100
AcDbCircle
 10
267.6453992837558
 20
346.1656056161739
 30
0.0
 40
0.0006
100
AcDbArc
 50
90.0
 51
189.3408341018414
  0
LINE
  5
1366
330
1F
100
AcDbEntity
  8
SANINDUSA
100
AcDbLine
 10
267.6449030452491
 20
346.1649257847339
 30
0.0
 11
267.6448072395804
 21
346.1655082319129
 31
0.0
  0
LINE
  5
1367
330
1F
100
AcDbEntity
  8
SANINDUSA
100
AcDbLine
 10
267.6434957142059
 20
346.1663603942492
 30
0.0
 11
267.6434957142059
 21
346.1673534768277
 31
0.0
  0
ARC
  5
1368
330
1F
100
AcDbEntity
  8
SANINDUSA
100
AcDbCircle
 10
267.6453964153953
 20
346.1650069382848
 30
0.0
 40
0.0005
100
AcDbArc
 50
189.3408341018414
 51
279.3408341018414
  0
LINE
  5
1369
330
1F
100
AcDbEntity
  8
SANINDUSA
100
AcDbLine
 10
267.6456587670428
 20
346.1606035827553
 30
0.0
 11
267.6453524042959
 21
346.1624661042546
 31
0.0
  0
LINE
  5
136A
330
1F
100
AcDbEntity
  8
SANINDUSA
100
AcDbLine
 10
267.6466868355087
 20
346.1543534768277
 30
0.0
 11
267.6464096776798
 21
346.1560384480593
 31
0.0
  0
LINE
  5
136B
330
1F
100
AcDbEntity
  8
SANINDUSA
100
AcDbLine
 10
267.6434957142059
 20
346.1663603942492
 30
0.0
 11
267.6453880356992
 21
346.1548560925667
 31
0.0
  0
LINE
  5
136C
330
1F
100
AcDbEntity
  8
SANINDUSA
100
AcDbLine
 10
267.6515045929032
 20
346.1543534768277
 30
0.0
 11
267.6522113485372
 21
346.1543534768277
 31
0.0
  0
ARC
  5
136D
330
1F
100
AcDbEntity
  8
SANINDUSA
100
AcDbCircle
 10
267.6522113485372
 20
346.1549534768277
 30
0.0
 40
0.0006
100
AcDbArc
 50
270.0
 51
350.6591658981585
  0
ARC
  5
136E
330
1F
100
AcDbEntity
  8
SANINDUSA
100
AcDbCircle
 10
267.6521901414255
 20
346.1597534768277
 30
0.0
 40
0.0006
100
AcDbArc
 50
350.6591658981585
 51
38.84885100134338
  0
ARC
  5
136F
330
1F
100
AcDbEntity
  8
SANINDUSA
100
AcDbCircle
 10
267.6519261986847
 20
346.1593317178848
 30
0.0
 40
0.000175
100
AcDbArc
 50
7.999999998557663
 51
187.9999999985576
  0
LINE
  5
1370
330
1F
100
AcDbEntity
  8
SANINDUSA
100
AcDbLine
 10
267.6528417933465
 20
346.1624829396939
 30
0.0
 11
267.6525326613691
 21
346.1606035827553
 31
0.0
  0
ARC
  5
1371
330
1F
100
AcDbEntity
  8
SANINDUSA
100
AcDbCircle
 10
267.6531247055446
 20
346.1605061984943
 30
0.0
 40
0.0006000000000005
100
AcDbArc
 50
170.6591658981585
 51
218.8488510013434
  0
ARC
  5
1372
330
1F
100
AcDbEntity
  8
SANINDUSA
100
AcDbCircle
 10
267.6525472044353
 20
346.157248253743
 30
0.0
 40
0.0005
100
AcDbArc
 50
187.9999999985576
 51
241.873626034282
  0
ARC
  5
1373
330
1F
100
AcDbEntity
  8
SANINDUSA
100
AcDbCircle
 10
267.6523737949075
 20
346.1559410637983
 30
0.0
 40
0.0006
100
AcDbArc
 50
122.4694807918931
 51
170.6591658981585
  0
ARC
  5
1374
330
1F
100
AcDbEntity
  8
SANINDUSA
100
AcDbCircle
 10
267.6517295745587
 20
346.1569534768277
 30
0.0
 40
0.0005999999999989
100
AcDbArc
 50
302.4694807918931
 51
345.8991081934955
  0
LINE
  5
1375
330
1F
100
AcDbEntity
  8
SANINDUSA
100
AcDbLine
 10
267.6517529017726
 20
346.1593073625921
 30
0.0
 11
267.6520520704009
 21
346.1571786671925
 31
0.0
  0
LINE
  5
1376
330
1F
100
AcDbEntity
  8
SANINDUSA
100
AcDbLine
 10
267.6527821856009
 20
346.1596560925666
 30
0.0
 11
267.6523913045169
 21
346.1572797448219
 31
0.0
  0
LINE
  5
1377
330
1F
100
AcDbEntity
  8
SANINDUSA
100
AcDbLine
 10
267.6523913045169
 20
346.1572797448219
 30
0.0
 11
267.6520994955967
 21
346.1593560731774
 31
0.0
  0
ARC
  5
1378
330
1F
100
AcDbEntity
  8
SANINDUSA
100
AcDbCircle
 10
267.652792144656
 20
346.1656056161739
 30
0.0
 40
0.0006
100
AcDbArc
 50
350.6591658981585
 51
90.0
  0
LINE
  5
1379
330
1F
100
AcDbEntity
  8
SANINDUSA
100
AcDbLine
 10
267.6533841888315
 20
346.1655082319129
 30
0.0
 11
267.6532883831628
 21
346.1649257847339
 31
0.0
  0
LINE
  5
137A
330
1F
100
AcDbEntity
  8
SANINDUSA
100
AcDbLine
 10
267.6546957142059
 20
346.1663603942492
 30
0.0
 11
267.6546957142059
 21
346.1673534768277
 31
0.0
  0
ARC
  5
137B
330
1F
100
AcDbEntity
  8
SANINDUSA
100
AcDbCircle
 10
267.6523454440663
 20
346.1638140896947
 30
0.0
 40
0.00075
100
AcDbArc
 50
80.65916589815856
 51
270.1365535709584
  0
LINE
  5
137C
330
1F
100
AcDbEntity
  8
SANINDUSA
100
AcDbLine
 10
267.6527138594657
 20
346.1645135681386
 30
0.0
 11
267.6524671743926
 21
346.164554144914
 31
0.0
  0
LINE
  5
137D
330
1F
100
AcDbEntity
  8
SANINDUSA
100
AcDbLine
 10
267.65222371374
 20
346.1630740344753
 30
0.0
 11
267.6524703988131
 21
346.1630334576999
 31
0.0
  0
ARC
  5
137E
330
1F
100
AcDbEntity
  8
SANINDUSA
100
AcDbCircle
 10
267.6527950130166
 20
346.1650069382848
 30
0.0
 40
0.0005
100
AcDbArc
 50
260.6591658981585
 51
350.6591658981585
  0
ARC
  5
137F
330
1F
100
AcDbEntity
  8
SANINDUSA
100
AcDbCircle
 10
267.6523484232003
 20
346.1625640932449
 30
0.0
 40
0.0005
100
AcDbArc
 50
350.6591658981585
 51
90.1365535709584
  0
LINE
  5
1380
330
1F
100
AcDbEntity
  8
SANINDUSA
100
AcDbLine
 10
267.651781750732
 20
346.1560384480593
 30
0.0
 11
267.6515045929032
 21
346.1543534768277
 31
0.0
  0
LINE
  5
1381
330
1F
100
AcDbEntity
  8
SANINDUSA
100
AcDbLine
 10
267.6528033927127
 20
346.1548560925667
 30
0.0
 11
267.6546957142059
 21
346.1663603942492
 31
0.0
  0
LINE
  5
1382
330
1F
100
AcDbEntity
  8
SANINDUSA
100
AcDbLine
 10
267.6434957142059
 20
346.1673534768277
 30
0.0
 11
267.6546957142059
 21
346.1673534768277
 31
0.0
  0
ARC
  5
1383
330
1F
100
AcDbEntity
  8
SANINDUSA
100
AcDbCircle
 10
267.649095714206
 20
346.1681911691353
 30
0.0
 40
0.0052623076923077
100
AcDbArc
 50
351.4923271266157
 51
188.5076728733843
  0
ARC
  5
1384
330
1F
100
AcDbEntity
  8
SANINDUSA
100
AcDbCircle
 10
267.649095714206
 20
346.1681911691353
 30
0.0
 40
0.0056623076923077
100
AcDbArc
 50
351.4923271266157
 51
188.5076728733843
  0
LINE
  5
1385
330
1F
100
AcDbEntity
  8
SANINDUSA
100
AcDbLine
 10
267.6460947947034
 20
346.166205616174
 30
0.0
 11
267.6520966337085
 21
346.166205616174
 31
0.0
  0
LINE
  5
1386
330
1F
100
AcDbEntity
  8
SANINDUSA
100
AcDbLine
 10
267.6453992837558
 20
346.166205616174
 30
0.0
 11
267.652792144656
 21
346.166205616174
 31
0.0
  0
LINE
  5
1387
330
1F
100
AcDbEntity
  8
SANINDUSA
100
AcDbLine
 10
267.6555823403778
 20
346.1532609573591
 30
0.0
 11
267.6535866225313
 21
346.1533917636176
 31
0.0
  0
LINE
  5
1388
330
1F
100
AcDbEntity
  8
SANINDUSA
100
AcDbLine
 10
267.6534867844572
 20
346.1533983073508
 30
0.0
 11
267.652488925534
 21
346.15346371048
 31
0.0
1001
GENIUS_GENREC_14
1002
{
1000
PYDIR
1011
267.6579173852601
1021
346.2362860011088
1031
0.0
1002
}
1002
{
1000
PXDIR
1011
267.6554488783342
1021
346.1833340750479
1031
0.0
1002
}
1002
{
1000
PORI
1011
267.6589152441833
1021
346.2362205979796
1031
0.0
1002
}
1002
{
1000
PINS
1011
267.6589152441833
1021
346.2362205979796
1031
0.0
1002
}
1002
{
1000
PINS2
1011
267.6544510194109
1021
346.1833994781772
1031
0.0
1002
}
1002
{
1000
C
1070
     1
1002
}
1001
GENIUS_GENODEF_13
1002
{
1000
HIER
1070
     0
1002
}
1002
{
1000
MANEDIT
1070
     0
1002
}
1002
{
1000
NOSEL
1070
     0
1002
}
1002
{
1000
BEHIND
1070
     0
1002
}
1002
{
1000
REACTOR
1002
}
1001
GENIUS_GENOBJ-N-REC_13
1002
{
1000
OWNER
1000
GEN
1002
}
  0
ARC
  5
1389
330
1F
100
AcDbEntity
  8
SANINDUSA
100
AcDbCircle
 10
267.6406867057496
 20
346.1532351231627
 30
0.0
 40
0.001
100
AcDbArc
 50
86.25000000105201
 51
176.250000001052
  0
LINE
  5
138A
330
1F
100
AcDbEntity
  8
SANINDUSA
100
AcDbLine
 10
267.6447435445718
 20
346.1539713695691
 30
0.0
 11
267.6407521088789
 21
346.154232982086
 31
0.0
  0
LINE
  5
138B
330
1F
100
AcDbEntity
  8
SANINDUSA
100
AcDbLine
 10
267.6555823403778
 20
346.1532609573591
 30
0.0
 11
267.6565633902983
 21
346.1682288867065
 31
0.0
  0
LINE
  5
138C
330
1F
100
AcDbEntity
  8
SANINDUSA
100
AcDbLine
 10
267.6639648975538
 20
346.1588357590783
 30
0.0
 11
267.6559820261675
 21
346.1593589841122
 31
0.0
  0
LINE
  5
138D
330
1F
100
AcDbEntity
  8
SANINDUSA
100
AcDbLine
 10
267.6639648975538
 20
346.1765754732696
 30
0.0
 11
267.6559820261675
 21
346.1760522482357
 31
0.0
  0
LINE
  5
138E
330
1F
100
AcDbEntity
  8
SANINDUSA
100
AcDbLine
 10
267.6555823403778
 20
346.1821502749888
 30
0.0
 11
267.6565633902983
 21
346.1671823456415
 31
0.0
  0
LINE
  5
138F
330
1F
100
AcDbEntity
  8
SANINDUSA
100
AcDbLine
 10
267.6447435445718
 20
346.1814398627788
 30
0.0
 11
267.6407521088789
 21
346.1811782502619
 31
0.0
  0
ARC
  5
1390
330
1F
100
AcDbEntity
  8
SANINDUSA
100
AcDbCircle
 10
267.6406867057496
 20
346.1821761091851
 30
0.0
 40
0.001
100
AcDbArc
 50
183.7499999989479
 51
273.749999998948
  0
LINE
  5
1391
330
1F
100
AcDbEntity
  8
SANINDUSA
100
AcDbLine
 10
267.6555823403778
 20
346.1821502749888
 30
0.0
 11
267.6535866225313
 21
346.1820194687303
 31
0.0
  0
LINE
  5
1392
330
1F
100
AcDbEntity
  8
SANINDUSA
100
AcDbLine
 10
267.6534867844572
 20
346.1820129249971
 30
0.0
 11
267.652488925534
 21
346.1819475218679
 31
0.0
1001
GENIUS_GENREC_14
1002
{
1000
PYDIR
1011
267.6579173852601
1021
346.0991252312391
1031
0.0
1002
}
1002
{
1000
PXDIR
1011
267.6554488783342
1021
346.1520771573
1031
0.0
1002
}
1002
{
1000
PORI
1011
267.6589152441833
1021
346.0991906343684
1031
0.0
1002
}
1002
{
1000
PINS
1011
267.6589152441833
1021
346.0991906343684
1031
0.0
1002
}
1002
{
1000
PINS2
1011
267.6544510194109
1021
346.1520117541708
1031
0.0
1002
}
1002
{
1000
C
1070
     1
1002
}
1001
GENIUS_GENODEF_13
1002
{
1000
HIER
1070
     0
1002
}
1002
{
1000
MANEDIT
1070
     0
1002
}
1002
{
1000
NOSEL
1070
     0
1002
}
1002
{
1000
BEHIND
1070
     0
1002
}
1002
{
1000
REACTOR
1002
}
1001
GENIUS_GENOBJ-N-REC_13
1002
{
1000
OWNER
1000
GEN
1002
}
  0
LINE
  5
1393
330
1F
100
AcDbEntity
  8
SANINDUSA
100
AcDbLine
 10
267.6460947964935
 20
346.166205616174
 30
0.0
 11
267.6520966319184
 21
346.166205616174
 31
0.0
  0
LINE
  5
1394
330
1F
100
AcDbEntity
  8
SANINDUSA
100
AcDbLine
 10
267.646095705361
 20
346.1692056161739
 30
0.0
 11
267.6520957230509
 21
346.1692056161739
 31
0.0
  0
LINE
  5
1395
330
1F
100
AcDbEntity
  8
SANINDUSA
100
AcDbLine
 10
267.646095705361
 20
346.166205616174
 30
0.0
 11
267.6520957230509
 21
346.166205616174
 31
0.0
  0
CIRCLE
  5
1396
330
1F
100
AcDbEntity
  8
SANINDUSA
100
AcDbCircle
 10
267.664546258702
 20
346.167705616174
 30
0.0
 40
0.008
  0
LINE
  5
1397
330
1F
100
AcDbEntity
  8
SANINDUSA
100
AcDbLine
 10
267.6412771787226
 20
346.2343263857105
 30
0.0
 11
267.6372857430297
 21
346.2340647731935
 31
0.0
  0
LINE
  5
1398
330
1F
100
AcDbEntity
  8
SANINDUSA
100
AcDbLine
 10
267.6490225596848
 20
346.2348340447996
 30
0.0
 11
267.650020418608
 21
346.2348994479288
 31
0.0
1001
GENIUS_GENREC_14
1002
{
1000
PYDIR
1011
267.6579173852601
1021
346.0991252312391
1031
0.0
1002
}
1002
{
1000
PXDIR
1011
267.6554488783342
1021
346.1520771573
1031
0.0
1002
}
1002
{
1000
PORI
1011
267.6589152441833
1021
346.0991906343684
1031
0.0
1002
}
1002
{
1000
PINS
1011
267.6589152441833
1021
346.0991906343684
1031
0.0
1002
}
1002
{
1000
PINS2
1011
267.6544510194109
1021
346.1520117541708
1031
0.0
1002
}
1002
{
1000
C
1070
     1
1002
}
1001
GENIUS_GENODEF_13
1002
{
1000
HIER
1070
     0
1002
}
1002
{
1000
MANEDIT
1070
     0
1002
}
1002
{
1000
NOSEL
1070
     0
1002
}
1002
{
1000
BEHIND
1070
     0
1002
}
1002
{
1000
REACTOR
1002
}
1001
GENIUS_GENOBJ-N-REC_13
1002
{
1000
OWNER
1000
GEN
1002
}
  0
ARC
  5
1399
330
1F
100
AcDbEntity
  8
SANINDUSA
100
AcDbCircle
 10
267.6373511461589
 20
346.2330669142703
 30
0.0
 40
0.001
100
AcDbArc
 50
93.74999999894798
 51
183.7499999989479
  0
ARC
  5
139A
330
1F
100
AcDbEntity
  8
SANINDUSA
100
AcDbCircle
 10
267.6591663901209
 20
346.2344967609018
 30
0.0
 40
0.001
100
AcDbArc
 50
3.749999998947981
 51
93.74999999894798
  0
LINE
  5
139B
330
1F
100
AcDbEntity
  8
SANINDUSA
100
AcDbLine
 10
267.6501202566821
 20
346.2349059916619
 30
0.0
 11
267.6591009869917
 21
346.235494619825
 31
0.0
  0
LINE
  5
1950
330
1F
100
AcDbEntity
  8
SANINDUSA
100
AcDbLine
 10
265.8961379050584
 20
345.3394665658612
 30
0.0
 11
265.9063379050584
 21
345.3394665658612
 31
0.0
  0
LINE
  5
1952
330
1F
100
AcDbEntity
  8
SANINDUSA
100
AcDbLine
 10
265.9092379050584
 20
345.3614665658613
 30
0.0
 11
265.8932379050585
 21
345.3614665658613
 31
0.0
  0
LINE
  5
1953
330
1F
100
AcDbEntity
  8
SANINDUSA
100
AcDbLine
 10
265.8923490161696
 20
345.3654665658612
 30
0.0
 11
265.9092379050585
 21
345.3654665658612
 31
0.0
  0
LINE
  5
1954
330
1F
100
AcDbEntity
  8
SANINDUSA
100
AcDbLine
 10
265.9692379050584
 20
345.3799665658612
 30
0.0
 11
265.9692379050584
 21
345.3469665658612
 31
0.0
  0
LINE
  5
1955
330
1F
100
AcDbEntity
  8
SANINDUSA
100
AcDbLine
 10
265.9092379050584
 20
345.3404665658612
 30
0.0
 11
265.9092379050584
 21
345.3614665658613
 31
0.0
  0
LINE
  5
1956
330
1F
100
AcDbEntity
  8
SANINDUSA
100
AcDbLine
 10
265.9682379050585
 20
345.3459665658612
 30
0.0
 11
265.9092379050584
 21
345.3459665658612
 31
0.0
  0
ARC
  5
1957
330
1F
100
AcDbEntity
  8
SANINDUSA
100
AcDbCircle
 10
265.9082379050584
 20
345.3404665658612
 30
0.0
 40
0.001
100
AcDbArc
 50
270.0
 51
0.0
  0
LINE
  5
1958
330
1F
100
AcDbEntity
  8
SANINDUSA
100
AcDbLine
 10
265.8942379050584
 20
345.3394665658612
 30
0.0
 11
265.9082379050584
 21
345.3394665658612
 31
0.0
  0
ARC
  5
1959
330
1F
100
AcDbEntity
  8
SANINDUSA
100
AcDbCircle
 10
265.9682379050585
 20
345.3469665658612
 30
0.0
 40
0.001
100
AcDbArc
 50
270.0
 51
0.0
  0
LINE
  5
195A
330
1F
100
AcDbEntity
  8
SANINDUSA
100
AcDbLine
 10
265.9101267939474
 20
345.3809665658612
 30
0.0
 11
265.9682379050585
 21
345.3809665658612
 31
0.0
  0
ARC
  5
195B
330
1F
100
AcDbEntity
  8
SANINDUSA
100
AcDbCircle
 10
265.9082379050586
 20
345.3864665658612
 30
0.0
 40
0.001
100
AcDbArc
 50
0.0
 51
90.0
  0
LINE
  5
195C
330
1F
100
AcDbEntity
  8
SANINDUSA
100
AcDbLine
 10
265.9082379050586
 20
345.3874665658612
 30
0.0
 11
265.8942379050586
 21
345.3874665658613
 31
0.0
  0
LINE
  5
195D
330
1F
100
AcDbEntity
  8
SANINDUSA
100
AcDbLine
 10
265.9092379050584
 20
345.3614665658613
 30
0.0
 11
265.9101267939474
 21
345.3614665658613
 31
0.0
  0
LINE
  5
195E
330
1F
100
AcDbEntity
  8
SANINDUSA
100
AcDbLine
 10
265.9087379050585
 20
345.3654665658612
 30
0.0
 11
265.9087379050585
 21
345.3614665658613
 31
0.0
  0
LINE
  5
195F
330
1F
100
AcDbEntity
  8
SANINDUSA
100
AcDbLine
 10
265.9101267939474
 20
345.3614665658613
 30
0.0
 11
265.9101267939474
 21
345.3809665658612
 31
0.0
  0
LINE
  5
1960
330
1F
100
AcDbEntity
  8
SANINDUSA
100
AcDbLine
 10
265.9092379050585
 20
345.3654665658612
 30
0.0
 11
265.9092379050585
 21
345.3864665658612
 31
0.0
  0
ARC
  5
1961
330
1F
100
AcDbEntity
  8
SANINDUSA
100
AcDbCircle
 10
265.9682379050585
 20
345.3799665658612
 30
0.0
 40
0.001
100
AcDbArc
 50
0.0
 51
90.0
  0
ARC
  5
1962
330
1F
100
AcDbEntity
  8
SANINDUSA
100
AcDbCircle
 10
265.8942379050586
 20
345.3864665658612
 30
0.0
 40
0.001
100
AcDbArc
 50
90.0
 51
180.0
  0
ARC
  5
1963
330
1F
100
AcDbEntity
  8
SANINDUSA
100
AcDbCircle
 10
265.8942379050584
 20
345.3404665658612
 30
0.0
 40
0.001
100
AcDbArc
 50
180.0
 51
270.0
  0
LINE
  5
1964
330
1F
100
AcDbEntity
  8
SANINDUSA
100
AcDbLine
 10
265.8932379050585
 20
345.3614665658613
 30
0.0
 11
265.8932379050585
 21
345.3404665658612
 31
0.0
  0
LINE
  5
1965
330
1F
100
AcDbEntity
  8
SANINDUSA
100
AcDbLine
 10
265.8923490161696
 20
345.3459665658612
 30
0.0
 11
265.8923490161696
 21
345.3654665658612
 31
0.0
  0
LINE
  5
1966
330
1F
100
AcDbEntity
  8
SANINDUSA
100
AcDbLine
 10
265.8332379050586
 20
345.3799665658612
 30
0.0
 11
265.8332379050586
 21
345.3469665658612
 31
0.0
  0
LINE
  5
1967
330
1F
100
AcDbEntity
  8
SANINDUSA
100
AcDbLine
 10
265.8342379050586
 20
345.3459665658612
 30
0.0
 11
265.8923490161696
 21
345.3459665658612
 31
0.0
  0
ARC
  5
1968
330
1F
100
AcDbEntity
  8
SANINDUSA
100
AcDbCircle
 10
265.8342379050586
 20
345.3469665658612
 30
0.0
 40
0.001
100
AcDbArc
 50
180.0
 51
270.0
  0
LINE
  5
1969
330
1F
100
AcDbEntity
  8
SANINDUSA
100
AcDbLine
 10
265.8932379050586
 20
345.3809665658612
 30
0.0
 11
265.8342379050586
 21
345.3809665658612
 31
0.0
  0
ARC
  5
196A
330
1F
100
AcDbEntity
  8
SANINDUSA
100
AcDbCircle
 10
265.8342379050586
 20
345.3799665658612
 30
0.0
 40
0.001
100
AcDbArc
 50
90.0
 51
180.0
  0
LINE
  5
196B
330
1F
100
AcDbEntity
  8
SANINDUSA
100
AcDbLine
 10
265.8932379050586
 20
345.3864665658612
 30
0.0
 11
265.8932379050586
 21
345.3809665658612
 31
0.0
  0
LINE
  5
196C
330
1F
100
AcDbEntity
  8
SANINDUSA
100
AcDbLine
 10
265.8932379050586
 20
345.3809665658612
 30
0.0
 11
265.8932379050586
 21
345.3654665658612
 31
0.0
  0
LINE
  5
196D
330
1F
100
AcDbEntity
  8
SANINDUSA
100
AcDbLine
 10
265.8937379050585
 20
345.3654665658612
 30
0.0
 11
265.8937379050585
 21
345.3614665658613
 31
0.0
  0
LINE
  5
196E
330
1F
100
AcDbEntity
  8
SANINDUSA
100
AcDbLine
 10
265.9092379050584
 20
346.6214665658516
 30
0.0
 11
265.8932379050585
 21
346.6214665658516
 31
0.0
  0
LINE
  5
196F
330
1F
100
AcDbEntity
  8
SANINDUSA
100
AcDbLine
 10
265.8923490161696
 20
346.6254665658516
 30
0.0
 11
265.9092379050585
 21
346.6254665658516
 31
0.0
  0
LINE
  5
1970
330
1F
100
AcDbEntity
  8
SANINDUSA
100
AcDbLine
 10
265.9692379050584
 20
346.6399665658516
 30
0.0
 11
265.9692379050584
 21
346.6069665658516
 31
0.0
  0
LINE
  5
1971
330
1F
100
AcDbEntity
  8
SANINDUSA
100
AcDbLine
 10
265.9092379050584
 20
346.6004665658516
 30
0.0
 11
265.9092379050584
 21
346.6214665658516
 31
0.0
  0
LINE
  5
1972
330
1F
100
AcDbEntity
  8
SANINDUSA
100
AcDbLine
 10
265.9682379050585
 20
346.6059665658515
 30
0.0
 11
265.9092379050584
 21
346.6059665658515
 31
0.0
  0
ARC
  5
1973
330
1F
100
AcDbEntity
  8
SANINDUSA
100
AcDbCircle
 10
265.9082379050584
 20
346.6004665658516
 30
0.0
 40
0.001
100
AcDbArc
 50
270.0
 51
0.0
  0
ARC
  5
1975
330
1F
100
AcDbEntity
  8
SANINDUSA
100
AcDbCircle
 10
265.9682379050585
 20
346.6069665658516
 30
0.0
 40
0.001
100
AcDbArc
 50
270.0
 51
0.0
  0
LINE
  5
1976
330
1F
100
AcDbEntity
  8
SANINDUSA
100
AcDbLine
 10
265.9101267939474
 20
346.6409665658515
 30
0.0
 11
265.9682379050585
 21
346.6409665658515
 31
0.0
  0
ARC
  5
1977
330
1F
100
AcDbEntity
  8
SANINDUSA
100
AcDbCircle
 10
265.9082379050586
 20
346.6464665658516
 30
0.0
 40
0.001
100
AcDbArc
 50
0.0
 51
90.0
  0
LINE
  5
1978
330
1F
100
AcDbEntity
  8
SANINDUSA
100
AcDbLine
 10
265.9082379050586
 20
346.6474665658516
 30
0.0
 11
265.8942379050586
 21
346.6474665658516
 31
0.0
  0
LINE
  5
1979
330
1F
100
AcDbEntity
  8
SANINDUSA
100
AcDbLine
 10
265.9092379050584
 20
346.6214665658516
 30
0.0
 11
265.9101267939474
 21
346.6214665658516
 31
0.0
  0
LINE
  5
197A
330
1F
100
AcDbEntity
  8
SANINDUSA
100
AcDbLine
 10
265.9087379050585
 20
346.6254665658516
 30
0.0
 11
265.9087379050585
 21
346.6214665658516
 31
0.0
  0
LINE
  5
197B
330
1F
100
AcDbEntity
  8
SANINDUSA
100
AcDbLine
 10
265.9101267939474
 20
346.6214665658516
 30
0.0
 11
265.9101267939474
 21
346.6409665658515
 31
0.0
  0
LINE
  5
197C
330
1F
100
AcDbEntity
  8
SANINDUSA
100
AcDbLine
 10
265.9092379050585
 20
346.6254665658516
 30
0.0
 11
265.9092379050585
 21
346.6464665658516
 31
0.0
  0
ARC
  5
197D
330
1F
100
AcDbEntity
  8
SANINDUSA
100
AcDbCircle
 10
265.9682379050585
 20
346.6399665658516
 30
0.0
 40
0.001
100
AcDbArc
 50
0.0
 51
90.0
  0
ARC
  5
197E
330
1F
100
AcDbEntity
  8
SANINDUSA
100
AcDbCircle
 10
265.8942379050586
 20
346.6464665658516
 30
0.0
 40
0.001
100
AcDbArc
 50
90.0
 51
180.0
  0
ARC
  5
197F
330
1F
100
AcDbEntity
  8
SANINDUSA
100
AcDbCircle
 10
265.8942379050584
 20
346.6004665658516
 30
0.0
 40
0.001
100
AcDbArc
 50
180.0
 51
270.0
  0
LINE
  5
1980
330
1F
100
AcDbEntity
  8
SANINDUSA
100
AcDbLine
 10
265.8932379050585
 20
346.6214665658516
 30
0.0
 11
265.8932379050585
 21
346.6004665658516
 31
0.0
  0
LINE
  5
1981
330
1F
100
AcDbEntity
  8
SANINDUSA
100
AcDbLine
 10
265.8923490161696
 20
346.6059665658515
 30
0.0
 11
265.8923490161696
 21
346.6254665658516
 31
0.0
  0
LINE
  5
1982
330
1F
100
AcDbEntity
  8
SANINDUSA
100
AcDbLine
 10
265.8332379050586
 20
346.6399665658516
 30
0.0
 11
265.8332379050586
 21
346.6069665658516
 31
0.0
  0
LINE
  5
1983
330
1F
100
AcDbEntity
  8
SANINDUSA
100
AcDbLine
 10
265.8342379050586
 20
346.6059665658515
 30
0.0
 11
265.8923490161696
 21
346.6059665658515
 31
0.0
  0
ARC
  5
1984
330
1F
100
AcDbEntity
  8
SANINDUSA
100
AcDbCircle
 10
265.8342379050586
 20
346.6069665658516
 30
0.0
 40
0.001
100
AcDbArc
 50
180.0
 51
270.0
  0
LINE
  5
1985
330
1F
100
AcDbEntity
  8
SANINDUSA
100
AcDbLine
 10
265.8932379050586
 20
346.6409665658515
 30
0.0
 11
265.8342379050586
 21
346.6409665658515
 31
0.0
  0
ARC
  5
1986
330
1F
100
AcDbEntity
  8
SANINDUSA
100
AcDbCircle
 10
265.8342379050586
 20
346.6399665658516
 30
0.0
 40
0.001
100
AcDbArc
 50
90.0
 51
180.0
  0
LINE
  5
1987
330
1F
100
AcDbEntity
  8
SANINDUSA
100
AcDbLine
 10
265.8932379050586
 20
346.6464665658516
 30
0.0
 11
265.8932379050586
 21
346.6409665658515
 31
0.0
  0
LINE
  5
1988
330
1F
100
AcDbEntity
  8
SANINDUSA
100
AcDbLine
 10
265.8932379050586
 20
346.6409665658515
 30
0.0
 11
265.8932379050586
 21
346.6254665658516
 31
0.0
  0
LINE
  5
1989
330
1F
100
AcDbEntity
  8
SANINDUSA
100
AcDbLine
 10
265.8937379050585
 20
346.6254665658516
 30
0.0
 11
265.8937379050585
 21
346.6214665658516
 31
0.0
  0
LINE
  5
198B
330
1F
100
AcDbEntity
  8
SANINDUSA
100
AcDbLine
 10
265.8942379050584
 20
346.5994665658516
 30
0.0
 11
265.9082379050584
 21
346.5994665658516
 31
0.0
  0
ARC
  5
1E7B
330
1F
100
AcDbEntity
  8
SANINDUSA
100
AcDbCircle
 10
267.6121150744542
 20
346.40225283539
 30
0.0
 40
0.001
100
AcDbArc
 50
18.9999999993482
 51
198.9999999993482
  0
LINE
  5
1E7C
330
1F
100
AcDbEntity
  8
SANINDUSA
100
AcDbLine
 10
267.6111695558786
 20
346.4019272672356
 30
0.0
 11
267.6183320552766
 21
346.3811258585724
 31
0.0
  0
LINE
  5
1E7D
330
1F
100
AcDbEntity
  8
SANINDUSA
100
AcDbLine
 10
267.6171945424083
 20
346.3905725427917
 30
0.0
 11
267.6130605930298
 21
346.4025784035444
 31
0.0
  0
ARC
  5
1E7E
330
1F
100
AcDbEntity
  8
SANINDUSA
100
AcDbCircle
 10
267.6192775738522
 20
346.3814514267268
 30
0.0
 40
0.0010000000000001
100
AcDbArc
 50
198.9999999993482
 51
357.9411647494504
  0
ARC
  5
1E7F
330
1F
100
AcDbEntity
  8
SANINDUSA
100
AcDbCircle
 10
267.617667301696
 20
346.390735326869
 30
0.0
 40
0.0005
100
AcDbArc
 50
198.9999999993482
 51
3.439830354874824
  0
ARC
  5
1E80
330
1F
100
AcDbEntity
  8
SANINDUSA
100
AcDbCircle
 10
267.5216205603058
 20
346.3849620916524
 30
0.0
 40
0.0987200954923434
100
AcDbArc
 50
357.9411647494504
 51
18.94776340511853
  0
ARC
  5
1E81
330
1F
100
AcDbEntity
  8
SANINDUSA
100
AcDbCircle
 10
267.5216205603058
 20
346.3849620916524
 30
0.0
 40
0.0967200954923339
100
AcDbArc
 50
3.439830358125845
 51
17.1524350536824
  0
ARC
  5
1E82
330
1F
100
AcDbEntity
  8
SANINDUSA
100
AcDbCircle
 10
267.6140456927445
 20
346.416692391946
 30
0.0
 40
0.001
100
AcDbArc
 50
18.94776340203812
 51
135.0
  0
ARC
  5
1E83
330
1F
100
AcDbEntity
  8
SANINDUSA
100
AcDbCircle
 10
267.6130833628254
 20
346.4131913749647
 30
0.0
 40
0.001
100
AcDbArc
 50
17.1524350536824
 51
90.0
  0
LINE
  5
1E84
330
1F
100
AcDbEntity
  8
SANINDUSA
100
AcDbLine
 10
267.6133385859633
 20
346.4173994987271
 30
0.0
 11
267.6124233554195
 21
346.4164842681835
 31
0.0
  0
LINE
  5
1E85
330
1F
100
AcDbEntity
  8
SANINDUSA
100
AcDbLine
 10
267.5941765161017
 20
346.4141913749646
 30
0.0
 11
267.6130833628254
 21
346.4141913749646
 31
0.0
  0
ARC
  5
1E86
330
1F
100
AcDbEntity
  8
SANINDUSA
100
AcDbCircle
 10
267.6117162486384
 20
346.4171913749646
 30
0.0
 40
0.001
100
AcDbArc
 50
270.0
 51
315.0
  0
ARC
  5
1E87
330
1F
100
AcDbEntity
  8
SANINDUSA
100
AcDbCircle
 10
267.5941765161017
 20
346.4131913749647
 30
0.0
 40
0.001
100
AcDbArc
 50
90.0
 51
198.9999999993482
  0
LINE
  5
1E88
330
1F
100
AcDbEntity
  8
SANINDUSA
100
AcDbLine
 10
267.6117162486384
 20
346.4161913749646
 30
0.0
 11
267.6041966586894
 21
346.4161913749646
 31
0.0
  0
LINE
  5
1E89
330
1F
100
AcDbEntity
  8
SANINDUSA
100
AcDbLine
 10
267.5940968497972
 20
346.4103511892262
 30
0.0
 11
267.593230997526
 21
346.4128658068102
 31
0.0
  0
ARC
  5
1E8A
330
1F
100
AcDbEntity
  8
SANINDUSA
100
AcDbCircle
 10
267.6041966586894
 20
346.4156913749647
 30
0.0
 40
0.0005
100
AcDbArc
 50
90.0
 51
135.0
  0
ARC
  5
1E8B
330
1F
100
AcDbEntity
  8
SANINDUSA
100
AcDbCircle
 10
267.5950423683727
 20
346.4106767573806
 30
0.0
 40
0.001
100
AcDbArc
 50
198.9999999993482
 51
288.9999999993482
  0
LINE
  5
1E8C
330
1F
100
AcDbEntity
  8
SANINDUSA
100
AcDbLine
 10
267.6038431052988
 20
346.4160449283552
 30
0.0
 11
267.6034359985176
 21
346.415637821574
 31
0.0
  0
ARC
  5
1E8D
330
1F
100
AcDbEntity
  8
SANINDUSA
100
AcDbCircle
 10
267.5956935046817
 20
346.4087857202294
 30
0.0
 40
0.0010000000000001
100
AcDbArc
 50
288.9999999993482
 51
108.9999999993482
  0
ARC
  5
1E8E
330
1F
100
AcDbEntity
  8
SANINDUSA
100
AcDbCircle
 10
267.603082445127
 20
346.4159913749646
 30
0.0
 40
0.0005000000000003
100
AcDbArc
 50
225.0
 51
315.0
  0
ARC
  5
1E8F
330
1F
100
AcDbEntity
  8
SANINDUSA
100
AcDbCircle
 10
267.5963446409906
 20
346.4068946830782
 30
0.0
 40
0.0009999999999999
100
AcDbArc
 50
108.9999999993482
 51
198.9999999993482
  0
LINE
  5
1E90
330
1F
100
AcDbEntity
  8
SANINDUSA
100
AcDbLine
 10
267.6027288917364
 20
346.415637821574
 30
0.0
 11
267.6023217849552
 21
346.4160449283552
 31
0.0
  0
LINE
  5
1E91
330
1F
100
AcDbEntity
  8
SANINDUSA
100
AcDbLine
 10
267.6056621063636
 20
346.3767632453027
 30
0.0
 11
267.595399122415
 21
346.4065691149238
 31
0.0
  0
ARC
  5
1E92
330
1F
100
AcDbEntity
  8
SANINDUSA
100
AcDbCircle
 10
267.6019682315646
 20
346.4156913749647
 30
0.0
 40
0.0005
100
AcDbArc
 50
45.0
 51
90.0
  0
ARC
  5
1E93
330
1F
100
AcDbEntity
  8
SANINDUSA
100
AcDbCircle
 10
267.604716587788
 20
346.3764376771482
 30
0.0
 40
0.001
100
AcDbArc
 50
198.9999999993482
 51
18.9999999993482
  0
LINE
  5
1E94
330
1F
100
AcDbEntity
  8
SANINDUSA
100
AcDbLine
 10
267.6019682315646
 20
346.4161913749646
 30
0.0
 11
267.5944486416156
 21
346.4161913749646
 31
0.0
  0
LINE
  5
1E95
330
1F
100
AcDbEntity
  8
SANINDUSA
100
AcDbLine
 10
267.5912826417827
 20
346.4123811357802
 30
0.0
 11
267.6037710692124
 21
346.3761121089938
 31
0.0
  0
ARC
  5
1E96
330
1F
100
AcDbEntity
  8
SANINDUSA
100
AcDbCircle
 10
267.5944486416156
 20
346.4171913749646
 30
0.0
 40
0.0010000000000002
100
AcDbArc
 50
225.0
 51
270.0
  0
ARC
  5
1E97
330
1F
100
AcDbEntity
  8
SANINDUSA
100
AcDbCircle
 10
267.5941191975095
 20
346.4133578402435
 30
0.0
 40
0.003
100
AcDbArc
 50
180.0
 51
198.9999999993482
  0
LINE
  5
1E98
330
1F
100
AcDbEntity
  8
SANINDUSA
100
AcDbLine
 10
267.5937415348344
 20
346.4164842681835
 30
0.0
 11
267.5928263042907
 21
346.4173994987271
 31
0.0
  0
LINE
  5
1E99
330
1F
100
AcDbEntity
  8
SANINDUSA
100
AcDbLine
 10
267.5911191975095
 20
346.416692391946
 30
0.0
 11
267.5911191975095
 21
346.4133578402435
 31
0.0
  0
ARC
  5
1E9A
330
1F
100
AcDbEntity
  8
SANINDUSA
100
AcDbCircle
 10
267.5921191975096
 20
346.416692391946
 30
0.0
 40
0.0010000000000006
100
AcDbArc
 50
45.0
 51
180.0
  0
LINE
  5
1E9B
330
1F
100
AcDbEntity
  8
SANINDUSA
100
AcDbLine
 10
267.6130422288835
 20
346.3634758273364
 30
0.0
 11
267.6121669020621
 21
346.3660179610125
 31
0.0
  0
ARC
  5
1E9C
330
1F
100
AcDbEntity
  8
SANINDUSA
100
AcDbCircle
 10
267.6126396613499
 20
346.3661807450898
 30
0.0
 40
0.0005
100
AcDbArc
 50
128.4712206341759
 51
198.9999999993482
  0
ARC
  5
1E9D
330
1F
100
AcDbEntity
  8
SANINDUSA
100
AcDbCircle
 10
267.6135149881712
 20
346.3636386114136
 30
0.0
 40
0.0005000000000001
100
AcDbArc
 50
198.9999999993482
 51
265.4218215210587
  0
ARC
  5
1E9E
330
1F
100
AcDbEntity
  8
SANINDUSA
100
AcDbCircle
 10
267.6117064791625
 20
346.3673551262056
 30
0.0
 40
0.001
100
AcDbArc
 50
308.4712206341759
 51
89.52877936529507
  0
ARC
  5
1E9F
330
1F
100
AcDbEntity
  8
SANINDUSA
100
AcDbCircle
 10
267.6133952592394
 20
346.3621433973878
 30
0.0
 40
0.0009999999999999
100
AcDbArc
 50
288.9999999993482
 51
85.42182152105871
  0
ARC
  5
1EA0
330
1F
100
AcDbEntity
  8
SANINDUSA
100
AcDbCircle
 10
267.6117188155508
 20
346.3688550754759
 30
0.0
 40
0.0004999999999999
100
AcDbArc
 50
198.9999999993482
 51
269.5287793652951
  0
LINE
  5
1EA1
330
1F
100
AcDbEntity
  8
SANINDUSA
100
AcDbLine
 10
267.6137208273938
 20
346.3611978788122
 30
0.0
 11
267.6128698606758
 21
346.3609048674732
 31
0.0
  0
LINE
  5
1EA2
330
1F
100
AcDbEntity
  8
SANINDUSA
100
AcDbLine
 10
267.611246056263
 20
346.3686922913987
 30
0.0
 11
267.6107296520189
 21
346.3701920382218
 31
0.0
  0
ARC
  5
1EA3
330
1F
100
AcDbEntity
  8
SANINDUSA
100
AcDbCircle
 10
267.6125442925214
 20
346.3618503860488
 30
0.0
 40
0.0009999999999999
100
AcDbArc
 50
198.9999999993482
 51
288.9999999993482
  0
ARC
  5
1EA4
330
1F
100
AcDbEntity
  8
SANINDUSA
100
AcDbCircle
 10
267.6112024113067
 20
346.370354822299
 30
0.0
 40
0.0005
100
AcDbArc
 50
108.9999999993482
 51
198.9999999993482
  0
LINE
  5
1EA5
330
1F
100
AcDbEntity
  8
SANINDUSA
100
AcDbLine
 10
267.6115987739457
 20
346.3615248178943
 30
0.0
 11
267.6013433770803
 21
346.3913086530258
 31
0.0
  0
LINE
  5
1EA6
330
1F
100
AcDbEntity
  8
SANINDUSA
100
AcDbLine
 10
267.6110396272295
 20
346.3708275815868
 30
0.0
 11
267.6176582572587
 21
346.373106558668
 31
0.0
  0
ARC
  5
1EA7
330
1F
100
AcDbEntity
  8
SANINDUSA
100
AcDbCircle
 10
267.6022888956559
 20
346.3916342211802
 30
0.0
 40
0.001
100
AcDbArc
 50
18.9999999993482
 51
198.9999999993482
  0
ARC
  5
1EA8
330
1F
100
AcDbEntity
  8
SANINDUSA
100
AcDbCircle
 10
267.6178210413359
 20
346.3726337993802
 30
0.0
 40
0.0005
100
AcDbArc
 50
18.9999999993482
 51
108.9999999993482
  0
LINE
  5
1EA9
330
1F
100
AcDbEntity
  8
SANINDUSA
100
AcDbLine
 10
267.6032344142315
 20
346.3919597893347
 30
0.0
 11
267.6097529475555
 21
346.3730285939486
 31
0.0
  0
LINE
  5
1EAA
330
1F
100
AcDbEntity
  8
SANINDUSA
100
AcDbLine
 10
267.6182938006237
 20
346.3727965834574
 30
0.0
 11
267.6188102048678
 21
346.3712968366344
 31
0.0
  0
ARC
  5
1EAB
330
1F
100
AcDbEntity
  8
SANINDUSA
100
AcDbCircle
 10
267.6102257068433
 20
346.3731913780258
 30
0.0
 40
0.0005000000000001
100
AcDbArc
 50
198.9999999993482
 51
288.9999999993482
  0
ARC
  5
1EAC
330
1F
100
AcDbEntity
  8
SANINDUSA
100
AcDbCircle
 10
267.6183374455801
 20
346.3711340525571
 30
0.0
 40
0.0005
100
AcDbArc
 50
308.4712206341759
 51
18.9999999993482
  0
LINE
  5
1EAD
330
1F
100
AcDbEntity
  8
SANINDUSA
100
AcDbLine
 10
267.6103884909206
 20
346.372718618738
 30
0.0
 11
267.6170071209498
 21
346.3749975958192
 31
0.0
  0
ARC
  5
1EAE
330
1F
100
AcDbEntity
  8
SANINDUSA
100
AcDbCircle
 10
267.6192706277673
 20
346.3699596714413
 30
0.0
 40
0.001
100
AcDbArc
 50
128.4712206341759
 51
269.5287793652951
  0
ARC
  5
1EAF
330
1F
100
AcDbEntity
  8
SANINDUSA
100
AcDbCircle
 10
267.6168443368725
 20
346.375470355107
 30
0.0
 40
0.0005000000000001
100
AcDbArc
 50
288.9999999993482
 51
18.9999999993482
  0
ARC
  5
1EB0
330
1F
100
AcDbEntity
  8
SANINDUSA
100
AcDbCircle
 10
267.619258291379
 20
346.368459722171
 30
0.0
 40
0.0005
100
AcDbArc
 50
18.9999999993482
 51
89.52877936529507
  0
LINE
  5
1EB1
330
1F
100
AcDbEntity
  8
SANINDUSA
100
AcDbLine
 10
267.6173170961603
 20
346.3756331391842
 30
0.0
 11
267.6107985628363
 21
346.3945643345703
 31
0.0
  0
LINE
  5
1EB2
330
1F
100
AcDbEntity
  8
SANINDUSA
100
AcDbLine
 10
267.6197310506669
 20
346.3686225062482
 30
0.0
 11
267.6206063774882
 21
346.366080372572
 31
0.0
  0
ARC
  5
1EB3
330
1F
100
AcDbEntity
  8
SANINDUSA
100
AcDbCircle
 10
267.6117440814119
 20
346.3948899027248
 30
0.0
 40
0.001
100
AcDbArc
 50
18.9999999993482
 51
198.9999999993482
  0
ARC
  5
1EB4
330
1F
100
AcDbEntity
  8
SANINDUSA
100
AcDbCircle
 10
267.6201336182004
 20
346.3659175884948
 30
0.0
 40
0.0005000000000001
100
AcDbArc
 50
312.5781784802668
 51
18.9999999993482
  0
LINE
  5
1EB5
330
1F
100
AcDbEntity
  8
SANINDUSA
100
AcDbLine
 10
267.6126895999875
 20
346.3952154708792
 30
0.0
 11
267.6229449968529
 21
346.3654316357478
 31
0.0
  0
ARC
  5
1EB6
330
1F
100
AcDbEntity
  8
SANINDUSA
100
AcDbCircle
 10
267.6211485115593
 20
346.3648130562544
 30
0.0
 40
0.0009999999999999
100
AcDbArc
 50
132.5781784802668
 51
288.9999999993482
  0
ARC
  5
1EB7
330
1F
100
AcDbEntity
  8
SANINDUSA
100
AcDbCircle
 10
267.6219994782773
 20
346.3651060675934
 30
0.0
 40
0.0010000000000001
100
AcDbArc
 50
288.9999999993482
 51
18.9999999993482
  0
LINE
  5
1EB8
330
1F
100
AcDbEntity
  8
SANINDUSA
100
AcDbLine
 10
267.6223250464318
 20
346.3641605490178
 30
0.0
 11
267.6214740797137
 21
346.3638675376788
 31
0.0
  0
LINE
  5
1EB9
330
1F
100
AcDbEntity
  8
SANINDUSA
100
AcDbLine
 10
267.6041966586894
 20
346.4166913749646
 30
0.0
 11
267.6116535006861
 21
346.4166913749646
 31
0.0
  0
ARC
  5
1EBA
330
1F
100
AcDbEntity
  8
SANINDUSA
100
AcDbCircle
 10
267.6116535006861
 20
346.4181913749647
 30
0.0
 40
0.0014999999999999
100
AcDbArc
 50
270.0
 51
304.9999999996696
  0
ARC
  5
1EBB
330
1F
100
AcDbEntity
  8
SANINDUSA
100
AcDbCircle
 10
267.6041966586894
 20
346.4171913749646
 30
0.0
 40
0.0005000000000002
100
AcDbArc
 50
225.0
 51
270.0
  0
LINE
  5
1EBC
330
1F
100
AcDbEntity
  8
SANINDUSA
100
AcDbLine
 10
267.6125138653406
 20
346.4169626468982
 30
0.0
 11
267.6134147586645
 21
346.4175934591947
 31
0.0
  0
LINE
  5
1EBD
330
1F
100
AcDbEntity
  8
SANINDUSA
100
AcDbLine
 10
267.6034359985176
 20
346.4172449283552
 30
0.0
 11
267.6038431052988
 21
346.4168378215741
 31
0.0
  0
ARC
  5
1EBE
330
1F
100
AcDbEntity
  8
SANINDUSA
100
AcDbCircle
 10
267.6140456927445
 20
346.416692391946
 30
0.0
 40
0.0011
100
AcDbArc
 50
90.0
 51
124.9999999996696
  0
ARC
  5
1EBF
330
1F
100
AcDbEntity
  8
SANINDUSA
100
AcDbCircle
 10
267.603082445127
 20
346.4168913749646
 30
0.0
 40
0.0005000000000003
100
AcDbArc
 50
45.0
 51
135.0
  0
ARC
  5
1EC0
330
1F
100
AcDbEntity
  8
SANINDUSA
100
AcDbCircle
 10
267.6140456927445
 20
346.418792391946
 30
0.0
 40
0.001
100
AcDbArc
 50
270.0
 51
0.0
  0
LINE
  5
1EC1
330
1F
100
AcDbEntity
  8
SANINDUSA
100
AcDbLine
 10
267.6023217849552
 20
346.4168378215741
 30
0.0
 11
267.6027288917364
 21
346.4172449283552
 31
0.0
  0
LINE
  5
1EC2
330
1F
100
AcDbEntity
  8
SANINDUSA
100
AcDbLine
 10
267.6150456927445
 20
346.418792391946
 30
0.0
 11
267.6150456927445
 21
346.4196913749646
 31
0.0
  0
ARC
  5
1EC3
330
1F
100
AcDbEntity
  8
SANINDUSA
100
AcDbCircle
 10
267.6019682315646
 20
346.4171913749646
 30
0.0
 40
0.0005
100
AcDbArc
 50
270.0
 51
315.0
  0
LINE
  5
1EC4
330
1F
100
AcDbEntity
  8
SANINDUSA
100
AcDbLine
 10
267.6150456927445
 20
346.4196913749646
 30
0.0
 11
267.6114740553661
 21
346.4196913749646
 31
0.0
  0
LINE
  5
1EC5
330
1F
100
AcDbEntity
  8
SANINDUSA
100
AcDbLine
 10
267.5945113895679
 20
346.4166913749646
 30
0.0
 11
267.6019682315646
 21
346.4166913749646
 31
0.0
  0
ARC
  5
1EC6
330
1F
100
AcDbEntity
  8
SANINDUSA
100
AcDbCircle
 10
267.6114740553661
 20
346.4186913749646
 30
0.0
 40
0.001
100
AcDbArc
 50
90.0
 51
131.4096221102447
  0
ARC
  5
1EC7
330
1F
100
AcDbEntity
  8
SANINDUSA
100
AcDbCircle
 10
267.5945113895679
 20
346.4181913749647
 30
0.0
 40
0.0015
100
AcDbArc
 50
235.0000000003304
 51
270.0
  0
ARC
  5
1EC8
330
1F
100
AcDbEntity
  8
SANINDUSA
100
AcDbCircle
 10
267.6101511797105
 20
346.4201913749647
 30
0.0
 40
0.001
100
AcDbArc
 50
270.0
 51
311.4096221102447
  0
LINE
  5
1EC9
330
1F
100
AcDbEntity
  8
SANINDUSA
100
AcDbLine
 10
267.5927501315895
 20
346.4175934591947
 30
0.0
 11
267.5936510249134
 21
346.4169626468982
 31
0.0
  0
LINE
  5
1ECA
330
1F
100
AcDbEntity
  8
SANINDUSA
100
AcDbLine
 10
267.6101511797105
 20
346.4191913749646
 30
0.0
 11
267.5960137105435
 21
346.4191913749646
 31
0.0
  0
ARC
  5
1ECB
330
1F
100
AcDbEntity
  8
SANINDUSA
100
AcDbCircle
 10
267.5921191975096
 20
346.416692391946
 30
0.0
 40
0.0011000000000001
100
AcDbArc
 50
55.00000000033037
 51
90.0
  0
ARC
  5
1ECC
330
1F
100
AcDbEntity
  8
SANINDUSA
100
AcDbCircle
 10
267.5960137105435
 20
346.4201913749647
 30
0.0
 40
0.0009999999999999
100
AcDbArc
 50
228.5903778897552
 51
270.0
  0
ARC
  5
1ECD
330
1F
100
AcDbEntity
  8
SANINDUSA
100
AcDbCircle
 10
267.5921191975096
 20
346.418792391946
 30
0.0
 40
0.0009999999999999
100
AcDbArc
 50
180.0
 51
270.0
  0
ARC
  5
1ECE
330
1F
100
AcDbEntity
  8
SANINDUSA
100
AcDbCircle
 10
267.594690834888
 20
346.4186913749646
 30
0.0
 40
0.001
100
AcDbArc
 50
48.59037788975524
 51
90.0
  0
LINE
  5
1ECF
330
1F
100
AcDbEntity
  8
SANINDUSA
100
AcDbLine
 10
267.5911191975095
 20
346.4196913749646
 30
0.0
 11
267.5911191975095
 21
346.418792391946
 31
0.0
  0
LINE
  5
1ED0
330
1F
100
AcDbEntity
  8
SANINDUSA
100
AcDbLine
 10
267.594690834888
 20
346.4196913749646
 30
0.0
 11
267.5911191975095
 21
346.4196913749646
 31
0.0
  0
ARC
  5
1ED1
330
1F
100
AcDbEntity
  8
SANINDUSA
100
AcDbCircle
 10
266.7968244985419
 20
345.5869622594778
 30
0.0
 40
0.001
100
AcDbArc
 50
71.00000000065181
 51
251.0000000006518
  0
LINE
  5
1ED2
330
1F
100
AcDbEntity
  8
SANINDUSA
100
AcDbLine
 10
266.8085047911402
 20
345.5818827915237
 30
0.0
 11
266.7964989303875
 21
345.5860167409022
 31
0.0
  0
LINE
  5
1ED3
330
1F
100
AcDbEntity
  8
SANINDUSA
100
AcDbLine
 10
266.7971500666964
 20
345.5879077780533
 30
0.0
 11
266.8179514753596
 21
345.5807452786554
 31
0.0
  0
ARC
  5
1ED4
330
1F
100
AcDbEntity
  8
SANINDUSA
100
AcDbCircle
 10
266.808342007063
 20
345.5814100322359
 30
0.0
 40
0.0005
100
AcDbArc
 50
266.5601696451252
 51
71.00000000065181
  0
ARC
  5
1ED5
330
1F
100
AcDbEntity
  8
SANINDUSA
100
AcDbCircle
 10
266.8176259072051
 20
345.5797997600797
 30
0.0
 40
0.0010000000000001
100
AcDbArc
 50
272.0588352505495
 51
71.00000000065181
  0
ARC
  5
1ED6
330
1F
100
AcDbEntity
  8
SANINDUSA
100
AcDbCircle
 10
266.8141152422796
 20
345.6774567736261
 30
0.0
 40
0.0967200954923339
100
AcDbArc
 50
252.8475649463176
 51
266.5601696418741
  0
ARC
  5
1ED7
330
1F
100
AcDbEntity
  8
SANINDUSA
100
AcDbCircle
 10
266.8141152422796
 20
345.6774567736262
 30
0.0
 40
0.0987200954923434
100
AcDbArc
 50
251.0522365948815
 51
272.0588352505495
  0
ARC
  5
1ED8
330
1F
100
AcDbEntity
  8
SANINDUSA
100
AcDbCircle
 10
266.7858859589673
 20
345.5859939711066
 30
0.0
 40
0.001
100
AcDbArc
 50
180.0
 51
252.8475649463176
  0
ARC
  5
1ED9
330
1F
100
AcDbEntity
  8
SANINDUSA
100
AcDbCircle
 10
266.782384941986
 20
345.5850316411875
 30
0.0
 40
0.001
100
AcDbArc
 50
135.0
 51
251.0522365979619
  0
LINE
  5
1EDA
330
1F
100
AcDbEntity
  8
SANINDUSA
100
AcDbLine
 10
266.7848859589673
 20
345.6049008178303
 30
0.0
 11
266.7848859589673
 21
345.5859939711066
 31
0.0
  0
LINE
  5
1EDB
330
1F
100
AcDbEntity
  8
SANINDUSA
100
AcDbLine
 10
266.7816778352048
 20
345.5857387479686
 30
0.0
 11
266.7825930657485
 21
345.5866539785124
 31
0.0
  0
ARC
  5
1EDC
330
1F
100
AcDbEntity
  8
SANINDUSA
100
AcDbCircle
 10
266.7858859589673
 20
345.6049008178303
 30
0.0
 40
0.001
100
AcDbArc
 50
71.00000000065181
 51
180.0
  0
ARC
  5
1EDD
330
1F
100
AcDbEntity
  8
SANINDUSA
100
AcDbCircle
 10
266.7818859589673
 20
345.5873610852936
 30
0.0
 40
0.001
100
AcDbArc
 50
315.0
 51
0.0
  0
LINE
  5
1EDE
330
1F
100
AcDbEntity
  8
SANINDUSA
100
AcDbLine
 10
266.7887261447059
 20
345.6049804841348
 30
0.0
 11
266.7862115271218
 21
345.6058463364059
 31
0.0
  0
LINE
  5
1EDF
330
1F
100
AcDbEntity
  8
SANINDUSA
100
AcDbLine
 10
266.7828859589673
 20
345.5873610852936
 30
0.0
 11
266.7828859589673
 21
345.5948806752425
 31
0.0
  0
ARC
  5
1EE0
330
1F
100
AcDbEntity
  8
SANINDUSA
100
AcDbCircle
 10
266.7884005765514
 20
345.6040349655592
 30
0.0
 40
0.001
100
AcDbArc
 50
341.0000000006518
 51
71.00000000065181
  0
ARC
  5
1EE1
330
1F
100
AcDbEntity
  8
SANINDUSA
100
AcDbCircle
 10
266.7833859589674
 20
345.5948806752425
 30
0.0
 40
0.0005
100
AcDbArc
 50
135.0
 51
180.0
  0
ARC
  5
1EE2
330
1F
100
AcDbEntity
  8
SANINDUSA
100
AcDbCircle
 10
266.7902916137026
 20
345.6033838292503
 30
0.0
 40
0.0010000000000001
100
AcDbArc
 50
161.0000000006518
 51
341.0000000006518
  0
LINE
  5
1EE3
330
1F
100
AcDbEntity
  8
SANINDUSA
100
AcDbLine
 10
266.7830324055767
 20
345.5952342286332
 30
0.0
 11
266.7834395123579
 21
345.5956413354144
 31
0.0
  0
ARC
  5
1EE4
330
1F
100
AcDbEntity
  8
SANINDUSA
100
AcDbCircle
 10
266.7921826508538
 20
345.6027326929414
 30
0.0
 40
0.0009999999999999
100
AcDbArc
 50
71.00000000065181
 51
161.0000000006518
  0
ARC
  5
1EE5
330
1F
100
AcDbEntity
  8
SANINDUSA
100
AcDbCircle
 10
266.7830859589673
 20
345.595994888805
 30
0.0
 40
0.0005000000000003
100
AcDbArc
 50
315.0
 51
45.0
  0
LINE
  5
1EE6
330
1F
100
AcDbEntity
  8
SANINDUSA
100
AcDbLine
 10
266.8223140886293
 20
345.5934152275684
 30
0.0
 11
266.7925082190083
 21
345.603678211517
 31
0.0
  0
LINE
  5
1EE7
330
1F
100
AcDbEntity
  8
SANINDUSA
100
AcDbLine
 10
266.7834395123579
 20
345.5963484421956
 30
0.0
 11
266.7830324055767
 21
345.5967555489767
 31
0.0
  0
ARC
  5
1EE8
330
1F
100
AcDbEntity
  8
SANINDUSA
100
AcDbCircle
 10
266.8226396567837
 20
345.5943607461439
 30
0.0
 40
0.001
100
AcDbArc
 50
251.0000000006518
 51
71.00000000065181
  0
ARC
  5
1EE9
330
1F
100
AcDbEntity
  8
SANINDUSA
100
AcDbCircle
 10
266.7833859589674
 20
345.5971091023673
 30
0.0
 40
0.0005
100
AcDbArc
 50
180.0
 51
225.0
  0
LINE
  5
1EEA
330
1F
100
AcDbEntity
  8
SANINDUSA
100
AcDbLine
 10
266.7866961981518
 20
345.6077946921492
 30
0.0
 11
266.8229652249382
 21
345.5953062647196
 31
0.0
  0
LINE
  5
1EEB
330
1F
100
AcDbEntity
  8
SANINDUSA
100
AcDbLine
 10
266.7828859589673
 20
345.5971091023673
 30
0.0
 11
266.7828859589673
 21
345.6046286923164
 31
0.0
  0
ARC
  5
1EEC
330
1F
100
AcDbEntity
  8
SANINDUSA
100
AcDbCircle
 10
266.7857194936884
 20
345.6049581364224
 30
0.0
 40
0.003
100
AcDbArc
 50
71.00000000065181
 51
90.0
  0
ARC
  5
1EED
330
1F
100
AcDbEntity
  8
SANINDUSA
100
AcDbCircle
 10
266.7818859589673
 20
345.6046286923164
 30
0.0
 40
0.0010000000000002
100
AcDbArc
 50
0.0
 51
45.0
  0
LINE
  5
1EEE
330
1F
100
AcDbEntity
  8
SANINDUSA
100
AcDbLine
 10
266.782384941986
 20
345.6079581364225
 30
0.0
 11
266.7857194936884
 21
345.6079581364225
 31
0.0
  0
LINE
  5
1EEF
330
1F
100
AcDbEntity
  8
SANINDUSA
100
AcDbLine
 10
266.7825930657485
 20
345.6053357990975
 30
0.0
 11
266.7816778352048
 21
345.6062510296413
 31
0.0
  0
ARC
  5
1EF0
330
1F
100
AcDbEntity
  8
SANINDUSA
100
AcDbCircle
 10
266.782384941986
 20
345.6069581364224
 30
0.0
 40
0.0010000000000006
100
AcDbArc
 50
90.0
 51
225.0
  0
LINE
  5
1EF1
330
1F
100
AcDbEntity
  8
SANINDUSA
100
AcDbLine
 10
266.8356015065956
 20
345.5860351050485
 30
0.0
 11
266.8330593729194
 21
345.5869104318699
 31
0.0
  0
ARC
  5
1EF2
330
1F
100
AcDbEntity
  8
SANINDUSA
100
AcDbCircle
 10
266.8354387225183
 20
345.5855623457607
 30
0.0
 40
0.0005000000000001
100
AcDbArc
 50
4.578178478941294
 51
71.00000000065181
  0
ARC
  5
1EF3
330
1F
100
AcDbEntity
  8
SANINDUSA
100
AcDbCircle
 10
266.8328965888422
 20
345.5864376725821
 30
0.0
 40
0.0005
100
AcDbArc
 50
71.00000000065181
 51
141.528779365824
  0
ARC
  5
1EF4
330
1F
100
AcDbEntity
  8
SANINDUSA
100
AcDbCircle
 10
266.8369339365441
 20
345.5856820746926
 30
0.0
 40
0.0009999999999999
100
AcDbArc
 50
184.5781784789413
 51
341.0000000006518
  0
ARC
  5
1EF5
330
1F
100
AcDbEntity
  8
SANINDUSA
100
AcDbCircle
 10
266.8317222077263
 20
345.5873708547694
 30
0.0
 40
0.001
100
AcDbArc
 50
180.4712206347049
 51
321.528779365824
  0
LINE
  5
1EF6
330
1F
100
AcDbEntity
  8
SANINDUSA
100
AcDbLine
 10
266.8378794551197
 20
345.5853565065381
 30
0.0
 11
266.8381724664588
 21
345.5862074732562
 31
0.0
  0
ARC
  5
1EF7
330
1F
100
AcDbEntity
  8
SANINDUSA
100
AcDbCircle
 10
266.8302222584561
 20
345.5873585183811
 30
0.0
 40
0.0004999999999999
100
AcDbArc
 50
0.4712206347049471
 51
71.00000000065181
  0
ARC
  5
1EF8
330
1F
100
AcDbEntity
  8
SANINDUSA
100
AcDbCircle
 10
266.8372269478831
 20
345.5865330414106
 30
0.0
 40
0.0009999999999999
100
AcDbArc
 50
341.0000000006518
 51
71.00000000065181
  0
LINE
  5
1EF9
330
1F
100
AcDbEntity
  8
SANINDUSA
100
AcDbLine
 10
266.8303850425332
 20
345.5878312776689
 30
0.0
 11
266.8288852957102
 21
345.588347681913
 31
0.0
  0
LINE
  5
1EFA
330
1F
100
AcDbEntity
  8
SANINDUSA
100
AcDbLine
 10
266.8375525160376
 20
345.5874785599862
 30
0.0
 11
266.8077686809062
 21
345.5977339568516
 31
0.0
  0
ARC
  5
1EFB
330
1F
100
AcDbEntity
  8
SANINDUSA
100
AcDbCircle
 10
266.828722511633
 20
345.5878749226252
 30
0.0
 40
0.0005
100
AcDbArc
 50
71.00000000065181
 51
161.0000000006518
  0
ARC
  5
1EFC
330
1F
100
AcDbEntity
  8
SANINDUSA
100
AcDbCircle
 10
266.8074431127517
 20
345.596788438276
 30
0.0
 40
0.001
100
AcDbArc
 50
71.00000000065181
 51
251.0000000006518
  0
LINE
  5
1EFD
330
1F
100
AcDbEntity
  8
SANINDUSA
100
AcDbLine
 10
266.8282497523452
 20
345.5880377067025
 30
0.0
 11
266.8259707752639
 21
345.5814190766733
 31
0.0
  0
LINE
  5
1EFE
330
1F
100
AcDbEntity
  8
SANINDUSA
100
AcDbLine
 10
266.8071175445973
 20
345.5958429197004
 30
0.0
 11
266.8260487399834
 21
345.5893243863764
 31
0.0
  0
ARC
  5
1EFF
330
1F
100
AcDbEntity
  8
SANINDUSA
100
AcDbCircle
 10
266.8264435345518
 20
345.581256292596
 30
0.0
 40
0.0005
100
AcDbArc
 50
161.0000000006518
 51
251.0000000006518
  0
ARC
  5
1F00
330
1F
100
AcDbEntity
  8
SANINDUSA
100
AcDbCircle
 10
266.8258859559062
 20
345.5888516270886
 30
0.0
 40
0.0005000000000001
100
AcDbArc
 50
341.0000000006518
 51
71.00000000065181
  0
LINE
  5
1F01
330
1F
100
AcDbEntity
  8
SANINDUSA
100
AcDbLine
 10
266.8262807504746
 20
345.5807835333083
 30
0.0
 11
266.8277804972976
 21
345.5802671290641
 31
0.0
  0
LINE
  5
1F02
330
1F
100
AcDbEntity
  8
SANINDUSA
100
AcDbLine
 10
266.826358715194
 20
345.5886888430114
 30
0.0
 11
266.8240797381127
 21
345.5820702129822
 31
0.0
  0
ARC
  5
1F03
330
1F
100
AcDbEntity
  8
SANINDUSA
100
AcDbCircle
 10
266.8279432813748
 20
345.5807398883519
 30
0.0
 40
0.0005
100
AcDbArc
 50
251.0000000006518
 51
321.528779365824
  0
ARC
  5
1F04
330
1F
100
AcDbEntity
  8
SANINDUSA
100
AcDbCircle
 10
266.823606978825
 20
345.5822329970594
 30
0.0
 40
0.0005000000000001
100
AcDbArc
 50
251.0000000006518
 51
341.0000000006518
  0
ARC
  5
1F05
330
1F
100
AcDbEntity
  8
SANINDUSA
100
AcDbCircle
 10
266.8291176624907
 20
345.5798067061646
 30
0.0
 40
0.001
100
AcDbArc
 50
0.4712206347049471
 51
141.528779365824
  0
LINE
  5
1F06
330
1F
100
AcDbEntity
  8
SANINDUSA
100
AcDbLine
 10
266.8234441947477
 20
345.5817602377716
 30
0.0
 11
266.8045129993616
 21
345.5882787710956
 31
0.0
  0
ARC
  5
1F07
330
1F
100
AcDbEntity
  8
SANINDUSA
100
AcDbCircle
 10
266.830617611761
 20
345.5798190425529
 30
0.0
 40
0.0005
100
AcDbArc
 50
180.4712206347049
 51
251.0000000006518
  0
ARC
  5
1F08
330
1F
100
AcDbEntity
  8
SANINDUSA
100
AcDbCircle
 10
266.8041874312072
 20
345.58733325252
 30
0.0
 40
0.001
100
AcDbArc
 50
71.00000000065181
 51
251.0000000006518
  0
LINE
  5
1F09
330
1F
100
AcDbEntity
  8
SANINDUSA
100
AcDbLine
 10
266.8304548276838
 20
345.5793462832651
 30
0.0
 11
266.8329969613599
 21
345.5784709564437
 31
0.0
  0
LINE
  5
1F0A
330
1F
100
AcDbEntity
  8
SANINDUSA
100
AcDbLine
 10
266.8038618630528
 20
345.5863877339445
 30
0.0
 11
266.8336456981841
 21
345.576132337079
 31
0.0
  0
ARC
  5
1F0B
330
1F
100
AcDbEntity
  8
SANINDUSA
100
AcDbCircle
 10
266.8331597454372
 20
345.5789437157315
 30
0.0
 40
0.0005000000000001
100
AcDbArc
 50
251.0000000006518
 51
317.4218215197331
  0
ARC
  5
1F0C
330
1F
100
AcDbEntity
  8
SANINDUSA
100
AcDbCircle
 10
266.8339712663386
 20
345.5770778556547
 30
0.0
 40
0.0010000000000001
100
AcDbArc
 50
251.0000000006518
 51
341.0000000006518
  0
ARC
  5
1F0D
330
1F
100
AcDbEntity
  8
SANINDUSA
100
AcDbCircle
 10
266.8342642776776
 20
345.5779288223727
 30
0.0
 40
0.0009999999999999
100
AcDbArc
 50
341.0000000006518
 51
137.4218215197331
  0
LINE
  5
1F0E
330
1F
100
AcDbEntity
  8
SANINDUSA
100
AcDbLine
 10
266.8349167849142
 20
345.5767522875002
 30
0.0
 11
266.8352097962532
 21
345.5776032542182
 31
0.0
  0
LINE
  5
1F0F
330
1F
100
AcDbEntity
  8
SANINDUSA
100
AcDbLine
 10
266.7823859589673
 20
345.5948806752425
 30
0.0
 11
266.7823859589673
 21
345.5874238332459
 31
0.0
  0
ARC
  5
1F10
330
1F
100
AcDbEntity
  8
SANINDUSA
100
AcDbCircle
 10
266.7818859589673
 20
345.5948806752425
 30
0.0
 40
0.0005000000000002
100
AcDbArc
 50
0.0
 51
45.0
  0
ARC
  5
1F11
330
1F
100
AcDbEntity
  8
SANINDUSA
100
AcDbCircle
 10
266.7808859589674
 20
345.5874238332459
 30
0.0
 40
0.0014999999999999
100
AcDbArc
 50
325.0000000003304
 51
0.0
  0
LINE
  5
1F12
330
1F
100
AcDbEntity
  8
SANINDUSA
100
AcDbLine
 10
266.7818324055767
 20
345.5956413354144
 30
0.0
 11
266.7822395123579
 21
345.5952342286332
 31
0.0
  0
LINE
  5
1F13
330
1F
100
AcDbEntity
  8
SANINDUSA
100
AcDbLine
 10
266.7821146870338
 20
345.5865634685914
 30
0.0
 11
266.7814838747373
 21
345.5856625752675
 31
0.0
  0
ARC
  5
1F14
330
1F
100
AcDbEntity
  8
SANINDUSA
100
AcDbCircle
 10
266.7821859589673
 20
345.595994888805
 30
0.0
 40
0.0005000000000003
100
AcDbArc
 50
135.0
 51
225.0
  0
ARC
  5
1F15
330
1F
100
AcDbEntity
  8
SANINDUSA
100
AcDbCircle
 10
266.782384941986
 20
345.5850316411875
 30
0.0
 40
0.0011
100
AcDbArc
 50
145.0000000003303
 51
180.0
  0
LINE
  5
1F16
330
1F
100
AcDbEntity
  8
SANINDUSA
100
AcDbLine
 10
266.7822395123579
 20
345.5967555489767
 30
0.0
 11
266.7818324055767
 21
345.5963484421956
 31
0.0
  0
ARC
  5
1F17
330
1F
100
AcDbEntity
  8
SANINDUSA
100
AcDbCircle
 10
266.780284941986
 20
345.5850316411875
 30
0.0
 40
0.001
100
AcDbArc
 50
270.0
 51
0.0
  0
ARC
  5
1F18
330
1F
100
AcDbEntity
  8
SANINDUSA
100
AcDbCircle
 10
266.7818859589673
 20
345.5971091023673
 30
0.0
 40
0.0005
100
AcDbArc
 50
315.0
 51
0.0
  0
LINE
  5
1F19
330
1F
100
AcDbEntity
  8
SANINDUSA
100
AcDbLine
 10
266.780284941986
 20
345.5840316411875
 30
0.0
 11
266.7793859589673
 21
345.5840316411875
 31
0.0
  0
LINE
  5
1F1A
330
1F
100
AcDbEntity
  8
SANINDUSA
100
AcDbLine
 10
266.7823859589673
 20
345.604565944364
 30
0.0
 11
266.7823859589673
 21
345.5971091023673
 31
0.0
  0
LINE
  5
1F1B
330
1F
100
AcDbEntity
  8
SANINDUSA
100
AcDbLine
 10
266.7793859589673
 20
345.5840316411875
 30
0.0
 11
266.7793859589673
 21
345.5876032785659
 31
0.0
  0
ARC
  5
1F1C
330
1F
100
AcDbEntity
  8
SANINDUSA
100
AcDbCircle
 10
266.7808859589673
 20
345.604565944364
 30
0.0
 40
0.0015
100
AcDbArc
 50
0.0
 51
34.99999999966963
  0
ARC
  5
1F1D
330
1F
100
AcDbEntity
  8
SANINDUSA
100
AcDbCircle
 10
266.7803859589673
 20
345.5876032785659
 30
0.0
 40
0.001
100
AcDbArc
 50
138.5903778897552
 51
180.0
  0
LINE
  5
1F1E
330
1F
100
AcDbEntity
  8
SANINDUSA
100
AcDbLine
 10
266.7814838747373
 20
345.6063272023425
 30
0.0
 11
266.7821146870338
 21
345.6054263090186
 31
0.0
  0
ARC
  5
1F1F
330
1F
100
AcDbEntity
  8
SANINDUSA
100
AcDbCircle
 10
266.7788859589673
 20
345.5889261542214
 30
0.0
 40
0.001
100
AcDbArc
 50
318.5903778897552
 51
0.0
  0
ARC
  5
1F20
330
1F
100
AcDbEntity
  8
SANINDUSA
100
AcDbCircle
 10
266.782384941986
 20
345.6069581364224
 30
0.0
 40
0.0011000000000001
100
AcDbArc
 50
180.0
 51
214.9999999996696
  0
LINE
  5
1F21
330
1F
100
AcDbEntity
  8
SANINDUSA
100
AcDbLine
 10
266.7798859589673
 20
345.5889261542214
 30
0.0
 11
266.7798859589673
 21
345.6030636233885
 31
0.0
  0
ARC
  5
1F22
330
1F
100
AcDbEntity
  8
SANINDUSA
100
AcDbCircle
 10
266.780284941986
 20
345.6069581364224
 30
0.0
 40
0.0009999999999999
100
AcDbArc
 50
0.0
 51
90.0
  0
ARC
  5
1F23
330
1F
100
AcDbEntity
  8
SANINDUSA
100
AcDbCircle
 10
266.7788859589673
 20
345.6030636233885
 30
0.0
 40
0.0009999999999999
100
AcDbArc
 50
0.0
 51
41.40962211024475
  0
LINE
  5
1F24
330
1F
100
AcDbEntity
  8
SANINDUSA
100
AcDbLine
 10
266.7793859589673
 20
345.6079581364225
 30
0.0
 11
266.780284941986
 21
345.6079581364225
 31
0.0
  0
ARC
  5
1F25
330
1F
100
AcDbEntity
  8
SANINDUSA
100
AcDbCircle
 10
266.7803859589673
 20
345.604386499044
 30
0.0
 40
0.001
100
AcDbArc
 50
180.0
 51
221.4096221102447
  0
LINE
  5
1F26
330
1F
100
AcDbEntity
  8
SANINDUSA
100
AcDbLine
 10
266.7793859589673
 20
345.604386499044
 30
0.0
 11
266.7793859589673
 21
345.6079581364225
 31
0.0
  0
ENDSEC
  0
SECTION
  2
OBJECTS
  0
DICTIONARY
  5
C
330
0
100
AcDbDictionary
281
     1
  3
ACAD_COLOR
350
2002
  3
ACAD_GROUP
350
D
  3
ACAD_LAYOUT
350
1A
  3
ACAD_MATERIAL
350
1FD5
  3
ACAD_MLEADERSTYLE
350
2017
  3
ACAD_MLINESTYLE
350
17
  3
ACAD_PLOTSETTINGS
350
19
  3
ACAD_PLOTSTYLENAME
350
E
  3
ACAD_SCALELIST
350
2005
  3
ACAD_TABLESTYLE
350
2003
  3
ACAD_VISUALSTYLE
350
1FEE
  3
ACDB_RECOMPOSE_DATA
350
20A5
  3
AcDbVariableDictionary
350
3D
  3
ASE_INDEX_DICTIONARY
350
B91
  0
DICTIONARY
  5
203E
330
10
100
AcDbDictionary
280
     1
281
     1
  3
ADSK_XREC_LAYER_RECONCILED
360
203F
  0
DICTIONARY
  5
2040
330
2F
100
AcDbDictionary
280
     1
281
     1
  3
ADSK_XREC_LAYER_RECONCILED
360
2041
  0
DICTIONARY
  5
2042
330
30
100
AcDbDictionary
280
     1
281
     1
  3
ADSK_XREC_LAYER_RECONCILED
360
2043
  0
DICTIONARY
  5
2044
330
31
100
AcDbDictionary
280
     1
281
     1
  3
ADSK_XREC_LAYER_RECONCILED
360
2045
  0
DICTIONARY
  5
2046
330
32
100
AcDbDictionary
280
     1
281
     1
  3
ADSK_XREC_LAYER_RECONCILED
360
2047
  0
DICTIONARY
  5
2048
330
33
100
AcDbDictionary
280
     1
281
     1
  3
ADSK_XREC_LAYER_RECONCILED
360
2049
  0
DICTIONARY
  5
204A
330
34
100
AcDbDictionary
280
     1
281
     1
  3
ADSK_XREC_LAYER_RECONCILED
360
204B
  0
DICTIONARY
  5
204C
330
35
100
AcDbDictionary
280
     1
281
     1
  3
ADSK_XREC_LAYER_RECONCILED
360
204D
  0
DICTIONARY
  5
204E
330
36
100
AcDbDictionary
280
     1
281
     1
  3
ADSK_XREC_LAYER_RECONCILED
360
204F
  0
DICTIONARY
  5
2050
330
37
100
AcDbDictionary
280
     1
281
     1
  3
ADSK_XREC_LAYER_RECONCILED
360
2051
  0
DICTIONARY
  5
2052
330
5D6
100
AcDbDictionary
280
     1
281
     1
  3
ADSK_XREC_LAYER_RECONCILED
360
2053
  0
DICTIONARY
  5
2054
330
8AF
100
AcDbDictionary
280
     1
281
     1
  3
ADSK_XREC_LAYER_RECONCILED
360
2055
  0
DICTIONARY
  5
2056
330
8F8
100
AcDbDictionary
280
     1
281
     1
  3
ADSK_XREC_LAYER_RECONCILED
360
2057
  0
DICTIONARY
  5
2058
330
91D
100
AcDbDictionary
280
     1
281
     1
  3
ADSK_XREC_LAYER_RECONCILED
360
2059
  0
DICTIONARY
  5
205A
330
D7D
100
AcDbDictionary
280
     1
281
     1
  3
ADSK_XREC_LAYER_RECONCILED
360
205B
  0
DICTIONARY
  5
205C
330
203D
100
AcDbDictionary
280
     1
281
     1
  3
ADSK_XREC_LAYER_RECONCILED
360
205D
  0
DICTIONARY
  5
20A8
330
1E0B
100
AcDbDictionary
280
     1
281
     1
  3
ACAD_MTEXT_2008_RT
360
20A9
  0
DICTIONARY
  5
20A6
330
1E00
100
AcDbDictionary
280
     1
281
     1
  3
ACAD_MTEXT_2008_RT
360
20A7
  0
DICTIONARY
  5
2002
102
{ACAD_REACTORS
330
C
102
}
330
C
100
AcDbDictionary
281
     1
  0
DICTIONARY
  5
D
102
{ACAD_REACTORS
330
C
102
}
330
C
100
AcDbDictionary
281
     1
  0
DICTIONARY
  5
1A
102
{ACAD_REACTORS
330
C
102
}
330
C
100
AcDbDictionary
281
     1
  3
Layout1
350
1E
  3
Layout2
350
26
  3
Model
350
22
  0
DICTIONARY
  5
1FD5
102
{ACAD_REACTORS
330
C
102
}
330
C
100
AcDbDictionary
281
     1
  3
ByBlock
350
1FDE
  3
ByLayer
350
1FD6
  3
Global
350
1FE6
  0
DICTIONARY
  5
2017
102
{ACAD_REACTORS
330
C
102
}
330
C
100
AcDbDictionary
281
     1
  3
Standard
350
2018
  0
DICTIONARY
  5
17
102
{ACAD_REACTORS
330
C
102
}
330
C
100
AcDbDictionary
281
     1
  3
Standard
350
18
  0
DICTIONARY
  5
19
102
{ACAD_REACTORS
330
C
102
}
330
C
100
AcDbDictionary
281
     1
  0
ACDBDICTIONARYWDFLT
  5
E
102
{ACAD_REACTORS
330
C
102
}
330
C
100
AcDbDictionary
281
     1
  3
Normal
350
F
100
AcDbDictionaryWithDefault
340
F
  0
DICTIONARY
  5
2005
102
{ACAD_REACTORS
330
C
102
}
330
C
100
AcDbDictionary
281
     1
  3
A0
350
2006
  3
A1
350
2007
  3
A2
350
2008
  3
A3
350
2009
  3
A4
350
200A
  3
A5
350
200B
  3
A6
350
200C
  3
A7
350
200D
  3
A8
350
200E
  3
A9
350
200F
  3
B0
350
2010
  3
B1
350
2011
  3
B2
350
2012
  3
B3
350
2013
  3
B4
350
2014
  3
B5
350
2015
  3
B6
350
2016
  0
DICTIONARY
  5
2003
102
{ACAD_REACTORS
330
C
102
}
330
C
100
AcDbDictionary
281
     1
  3
Standard
350
2004
  0
DICTIONARY
  5
1FEE
102
{ACAD_REACTORS
330
C
102
}
330
C
100
AcDbDictionary
281
     1
  3
2dWireframe
350
1FF4
  3
3D Hidden
350
1FF6
  3
3dWireframe
350
1FF5
  3
Basic
350
1FF3
  3
Brighten
350
1FFA
  3
ColorChange
350
1FFE
  3
Conceptual
350
1FF7
  3
Dim
350
1FF9
  3
EdgeColorOff
350
2001
  3
Facepattern
350
1FFD
  3
Flat
350
1FEF
  3
FlatWithEdges
350
1FF0
  3
Gouraud
350
1FF1
  3
GouraudWithEdges
350
1FF2
  3
JitterOff
350
1FFF
  3
Linepattern
350
1FFC
  3
OverhangOff
350
2000
  3
Realistic
350
1FF8
  3
Thicken
350
1FFB
  0
XRECORD
  5
20A5
102
{ACAD_REACTORS
330
C
102
}
330
C
100
AcDbXrecord
280
     1
 90
        1
330
2004
  0
DICTIONARY
  5
3D
102
{ACAD_REACTORS
330
C
102
}
330
C
100
AcDbDictionary
281
     1
  3
CANNOSCALE
350
20A1
  3
CMLEADERSTYLE
350
20A0
  3
CTABLESTYLE
350
209F
  3
DIMASSOC
350
3F
  3
HIDETEXT
350
3E
  3
XCLIPFRAME
350
20A2
  0
DICTIONARY
  5
B91
102
{ACAD_REACTORS
330
C
102
}
330
C
100
AcDbDictionary
281
     1
  3
ASEBlockHierarchyIndexRecord
350
B92
1001
DCO15
1040
1485069952.593
  0
XRECORD
  5
203F
102
{ACAD_REACTORS
330
203E
102
}
330
203E
100
AcDbXrecord
280
     1
290
     1
  0
XRECORD
  5
2041
102
{ACAD_REACTORS
330
2040
102
}
330
2040
100
AcDbXrecord
280
     1
290
     1
  0
XRECORD
  5
2043
102
{ACAD_REACTORS
330
2042
102
}
330
2042
100
AcDbXrecord
280
     1
290
     1
  0
XRECORD
  5
2045
102
{ACAD_REACTORS
330
2044
102
}
330
2044
100
AcDbXrecord
280
     1
290
     1
  0
XRECORD
  5
2047
102
{ACAD_REACTORS
330
2046
102
}
330
2046
100
AcDbXrecord
280
     1
290
     1
  0
XRECORD
  5
2049
102
{ACAD_REACTORS
330
2048
102
}
330
2048
100
AcDbXrecord
280
     1
290
     1
  0
XRECORD
  5
204B
102
{ACAD_REACTORS
330
204A
102
}
330
204A
100
AcDbXrecord
280
     1
290
     1
  0
XRECORD
  5
204D
102
{ACAD_REACTORS
330
204C
102
}
330
204C
100
AcDbXrecord
280
     1
290
     1
  0
XRECORD
  5
204F
102
{ACAD_REACTORS
330
204E
102
}
330
204E
100
AcDbXrecord
280
     1
290
     1
  0
XRECORD
  5
2051
102
{ACAD_REACTORS
330
2050
102
}
330
2050
100
AcDbXrecord
280
     1
290
     1
  0
XRECORD
  5
2053
102
{ACAD_REACTORS
330
2052
102
}
330
2052
100
AcDbXrecord
280
     1
290
     1
  0
XRECORD
  5
2055
102
{ACAD_REACTORS
330
2054
102
}
330
2054
100
AcDbXrecord
280
     1
290
     1
  0
XRECORD
  5
2057
102
{ACAD_REACTORS
330
2056
102
}
330
2056
100
AcDbXrecord
280
     1
290
     1
  0
XRECORD
  5
2059
102
{ACAD_REACTORS
330
2058
102
}
330
2058
100
AcDbXrecord
280
     1
290
     1
  0
XRECORD
  5
205B
102
{ACAD_REACTORS
330
205A
102
}
330
205A
100
AcDbXrecord
280
     1
290
     1
  0
XRECORD
  5
205D
102
{ACAD_REACTORS
330
205C
102
}
330
205C
100
AcDbXrecord
280
     1
290
     1
  0
XRECORD
  5
20A9
102
{ACAD_REACTORS
330
20A8
102
}
330
20A8
100
AcDbXrecord
280
     1
 40
3752.0
  1
90,0°
  0
XRECORD
  5
20A7
102
{ACAD_REACTORS
330
20A6
102
}
330
20A6
100
AcDbXrecord
280
     1
 40
3752.0
  1
90,0°
  0
LAYOUT
  5
1E
102
{ACAD_REACTORS
330
1A
102
}
330
1A
100
AcDbPlotSettings
  1

  2
Ploter HP500
  4

  6

 40
0.0
 41
0.0
 42
0.0
 43
0.0
 44
0.0
 45
0.0
 46
0.0
 47
0.0
 48
0.0
 49
0.0
140
0.0
141
0.0
142
1.0
143
1.0
 70
   688
 72
     0
 73
     0
 74
     5
  7
monochrome.ctb
 75
    16
147
1.0
 76
     0
 77
     2
 78
   300
148
0.0
149
0.0
100
AcDbLayout
  1
Layout1
 70
     1
 71
     1
 10
0.0
 20
0.0
 11
420.0
 21
297.0
 12
0.0
 22
0.0
 32
0.0
 14
1.000000000000000E+20
 24
1.000000000000000E+20
 34
1.000000000000000E+20
 15
-1.000000000000000E+20
 25
-1.000000000000000E+20
 35
-1.000000000000000E+20
146
0.0
 13
0.0
 23
0.0
 33
0.0
 16
1.0
 26
0.0
 36
0.0
 17
0.0
 27
1.0
 37
0.0
 76
     0
330
1B
  0
LAYOUT
  5
26
102
{ACAD_REACTORS
330
1A
102
}
330
1A
100
AcDbPlotSettings
  1

  2
Ploter HP500
  4

  6

 40
0.0
 41
0.0
 42
0.0
 43
0.0
 44
0.0
 45
0.0
 46
0.0
 47
0.0
 48
0.0
 49
0.0
140
0.0
141
0.0
142
1.0
143
1.0
 70
   688
 72
     0
 73
     0
 74
     5
  7
monochrome.ctb
 75
    16
147
1.0
 76
     0
 77
     2
 78
   300
148
0.0
149
0.0
100
AcDbLayout
  1
Layout2
 70
     1
 71
     2
 10
0.0
 20
0.0
 11
12.0
 21
9.0
 12
0.0
 22
0.0
 32
0.0
 14
0.0
 24
0.0
 34
0.0
 15
0.0
 25
0.0
 35
0.0
146
0.0
 13
0.0
 23
0.0
 33
0.0
 16
1.0
 26
0.0
 36
0.0
 17
0.0
 27
1.0
 37
0.0
 76
     0
330
23
  0
LAYOUT
  5
22
102
{ACAD_REACTORS
330
1A
102
}
330
1A
100
AcDbPlotSettings
  1

  2
Ploter HP500
  4
User268
  6

 40
4.995333194732666
 41
16.97565841674804
 42
4.995330810546875
 43
16.97567749023437
 44
209.9733276367187
 45
296.9259948730469
 46
0.0
 47
0.0
 48
0.0
 49
0.0
140
0.0
141
0.0
142
1.0
143
1.0
 70
 11952
 72
     1
 73
     1
 74
     0
  7

 75
     0
147
1.0
 76
     0
 77
     2
 78
   300
148
-427.5957866592534
149
7.362384574453926
100
AcDbLayout
  1
Model
 70
     1
 71
     0
 10
0.0
 20
0.0
 11
12.0
 21
9.0
 12
0.0
 22
0.0
 32
0.0
 14
0.0
 24
0.0
 34
0.0
 15
0.0
 25
0.0
 35
0.0
146
0.0
 13
0.0
 23
0.0
 33
0.0
 16
1.0
 26
0.0
 36
0.0
 17
0.0
 27
1.0
 37
0.0
 76
     0
330
1F
331
1FD3
  0
MATERIAL
  5
1FDE
102
{ACAD_XDICTIONARY
360
1FDF
102
}
102
{ACAD_REACTORS
330
1FD5
102
}
330
1FD5
100
AcDbMaterial
  1
ByBlock
 72
     0
 43
0.0008202099737533
 43
0.0
 43
0.0
 43
0.0
 43
0.0
 43
0.0008202099737533
 43
0.0
 43
0.0
 43
0.0
 43
0.0
 43
1.0
 43
0.0
 43
0.0
 43
0.0
 43
0.0
 43
1.0
 77
     0
 47
0.0008202099737533
 47
0.0
 47
0.0
 47
0.0
 47
0.0
 47
0.0008202099737533
 47
0.0
 47
0.0
 47
0.0
 47
0.0
 47
1.0
 47
0.0
 47
0.0
 47
0.0
 47
0.0
 47
1.0
171
     0
 49
0.0008202099737533
 49
0.0
 49
0.0
 49
0.0
 49
0.0
 49
0.0008202099737533
 49
0.0
 49
0.0
 49
0.0
 49
0.0
 49
1.0
 49
0.0
 49
0.0
 49
0.0
 49
0.0
 49
1.0
175
     0
142
0.0008202099737533
142
0.0
142
0.0
142
0.0
142
0.0
142
0.0008202099737533
142
0.0
142
0.0
142
0.0
142
0.0
142
1.0
142
0.0
142
0.0
142
0.0
142
0.0
142
1.0
179
     0
144
0.0008202099737533
144
0.0
144
0.0
144
0.0
144
0.0
144
0.0008202099737533
144
0.0
144
0.0
144
0.0
144
0.0
144
1.0
144
0.0
144
0.0
144
0.0
144
0.0
144
1.0
147
0.0008202099737533
147
0.0
147
0.0
147
0.0
147
0.0
147
0.0008202099737533
147
0.0
147
0.0
147
0.0
147
0.0
147
1.0
147
0.0
147
0.0
147
0.0
147
0.0
147
1.0
  0
MATERIAL
  5
1FD6
102
{ACAD_XDICTIONARY
360
1FD7
102
}
102
{ACAD_REACTORS
330
1FD5
102
}
330
1FD5
100
AcDbMaterial
  1
ByLayer
 72
     0
 43
0.0008202099737533
 43
0.0
 43
0.0
 43
0.0
 43
0.0
 43
0.0008202099737533
 43
0.0
 43
0.0
 43
0.0
 43
0.0
 43
1.0
 43
0.0
 43
0.0
 43
0.0
 43
0.0
 43
1.0
 77
     0
 47
0.0008202099737533
 47
0.0
 47
0.0
 47
0.0
 47
0.0
 47
0.0008202099737533
 47
0.0
 47
0.0
 47
0.0
 47
0.0
 47
1.0
 47
0.0
 47
0.0
 47
0.0
 47
0.0
 47
1.0
171
     0
 49
0.0008202099737533
 49
0.0
 49
0.0
 49
0.0
 49
0.0
 49
0.0008202099737533
 49
0.0
 49
0.0
 49
0.0
 49
0.0
 49
1.0
 49
0.0
 49
0.0
 49
0.0
 49
0.0
 49
1.0
175
     0
142
0.0008202099737533
142
0.0
142
0.0
142
0.0
142
0.0
142
0.0008202099737533
142
0.0
142
0.0
142
0.0
142
0.0
142
1.0
142
0.0
142
0.0
142
0.0
142
0.0
142
1.0
179
     0
144
0.0008202099737533
144
0.0
144
0.0
144
0.0
144
0.0
144
0.0008202099737533
144
0.0
144
0.0
144
0.0
144
0.0
144
1.0
144
0.0
144
0.0
144
0.0
144
0.0
144
1.0
147
0.0008202099737533
147
0.0
147
0.0
147
0.0
147
0.0
147
0.0008202099737533
147
0.0
147
0.0
147
0.0
147
0.0
147
1.0
147
0.0
147
0.0
147
0.0
147
0.0
147
1.0
  0
MATERIAL
  5
1FE6
102
{ACAD_XDICTIONARY
360
1FE7
102
}
102
{ACAD_REACTORS
330
1FD5
102
}
330
1FD5
100
AcDbMaterial
  1
Global
 72
     0
 43
0.0008202099737533
 43
0.0
 43
0.0
 43
0.0
 43
0.0
 43
0.0008202099737533
 43
0.0
 43
0.0
 43
0.0
 43
0.0
 43
1.0
 43
0.0
 43
0.0
 43
0.0
 43
0.0
 43
1.0
 77
     0
 47
0.0008202099737533
 47
0.0
 47
0.0
 47
0.0
 47
0.0
 47
0.0008202099737533
 47
0.0
 47
0.0
 47
0.0
 47
0.0
 47
1.0
 47
0.0
 47
0.0
 47
0.0
 47
0.0
 47
1.0
171
     0
 49
0.0008202099737533
 49
0.0
 49
0.0
 49
0.0
 49
0.0
 49
0.0008202099737533
 49
0.0
 49
0.0
 49
0.0
 49
0.0
 49
1.0
 49
0.0
 49
0.0
 49
0.0
 49
0.0
 49
1.0
175
     0
142
0.0008202099737533
142
0.0
142
0.0
142
0.0
142
0.0
142
0.0008202099737533
142
0.0
142
0.0
142
0.0
142
0.0
142
1.0
142
0.0
142
0.0
142
0.0
142
0.0
142
1.0
179
     0
144
0.0008202099737533
144
0.0
144
0.0
144
0.0
144
0.0
144
0.0008202099737533
144
0.0
144
0.0
144
0.0
144
0.0
144
1.0
144
0.0
144
0.0
144
0.0
144
0.0
144
1.0
147
0.0008202099737533
147
0.0
147
0.0
147
0.0
147
0.0
147
0.0008202099737533
147
0.0
147
0.0
147
0.0
147
0.0
147
1.0
147
0.0
147
0.0
147
0.0
147
0.0
147
1.0
  0
MLEADERSTYLE
  5
2018
102
{ACAD_REACTORS
330
2017
102
}
330
2017
100
AcDbMLeaderStyle
170
     2
171
     1
172
     0
 90
        2
 40
0.0
 41
0.0
173
     1
 91
-1056964608
340
14
 92
       -2
290
     1
 42
2.0
291
     1
 43
0.36
  3
Standard
 44
4.0
300

342
11
174
     1
178
     6
175
     1
176
     0
 93
-1056964608
 45
4.0
292
     0
297
     0
 46
4.0
 94
-1056964608
 47
1.0
 49
1.0
140
1.0
293
     1
141
0.0
294
     1
177
     0
142
1.0
295
     0
296
     0
143
0.125
1001
ACAD_MLEADERVER
1070
     2
  0
MLINESTYLE
  5
18
102
{ACAD_REACTORS
330
17
102
}
330
17
100
AcDbMlineStyle
  2
STANDARD
 70
     0
  3

 62
   256
 51
90.0
 52
90.0
 71
     2
 49
0.5
 62
   256
  6
BYLAYER
 49
-0.5
 62
   256
  6
BYLAYER
  0
ACDBPLACEHOLDER
  5
F
102
{ACAD_REACTORS
330
E
102
}
330
E
  0
SCALE
  5
2006
102
{ACAD_REACTORS
330
2005
102
}
330
2005
100
AcDbScale
 70
     0
300
1:1
140
1.0
141
1.0
290
     1
  0
SCALE
  5
2007
102
{ACAD_REACTORS
330
2005
102
}
330
2005
100
AcDbScale
 70
     0
300
1:2
140
1.0
141
2.0
290
     0
  0
SCALE
  5
2008
102
{ACAD_REACTORS
330
2005
102
}
330
2005
100
AcDbScale
 70
     0
300
1:4
140
1.0
141
4.0
290
     0
  0
SCALE
  5
2009
102
{ACAD_REACTORS
330
2005
102
}
330
2005
100
AcDbScale
 70
     0
300
1:5
140
1.0
141
5.0
290
     0
  0
SCALE
  5
200A
102
{ACAD_REACTORS
330
2005
102
}
330
2005
100
AcDbScale
 70
     0
300
1:8
140
1.0
141
8.0
290
     0
  0
SCALE
  5
200B
102
{ACAD_REACTORS
330
2005
102
}
330
2005
100
AcDbScale
 70
     0
300
1:10
140
1.0
141
10.0
290
     0
  0
SCALE
  5
200C
102
{ACAD_REACTORS
330
2005
102
}
330
2005
100
AcDbScale
 70
     0
300
1:16
140
1.0
141
16.0
290
     0
  0
SCALE
  5
200D
102
{ACAD_REACTORS
330
2005
102
}
330
2005
100
AcDbScale
 70
     0
300
1:20
140
1.0
141
20.0
290
     0
  0
SCALE
  5
200E
102
{ACAD_REACTORS
330
2005
102
}
330
2005
100
AcDbScale
 70
     0
300
1:30
140
1.0
141
30.0
290
     0
  0
SCALE
  5
200F
102
{ACAD_REACTORS
330
2005
102
}
330
2005
100
AcDbScale
 70
     0
300
1:40
140
1.0
141
40.0
290
     0
  0
SCALE
  5
2010
102
{ACAD_REACTORS
330
2005
102
}
330
2005
100
AcDbScale
 70
     0
300
1:50
140
1.0
141
50.0
290
     0
  0
SCALE
  5
2011
102
{ACAD_REACTORS
330
2005
102
}
330
2005
100
AcDbScale
 70
     0
300
1:100
140
1.0
141
100.0
290
     0
  0
SCALE
  5
2012
102
{ACAD_REACTORS
330
2005
102
}
330
2005
100
AcDbScale
 70
     0
300
2:1
140
2.0
141
1.0
290
     0
  0
SCALE
  5
2013
102
{ACAD_REACTORS
330
2005
102
}
330
2005
100
AcDbScale
 70
     0
300
4:1
140
4.0
141
1.0
290
     0
  0
SCALE
  5
2014
102
{ACAD_REACTORS
330
2005
102
}
330
2005
100
AcDbScale
 70
     0
300
8:1
140
8.0
141
1.0
290
     0
  0
SCALE
  5
2015
102
{ACAD_REACTORS
330
2005
102
}
330
2005
100
AcDbScale
 70
     0
300
10:1
140
10.0
141
1.0
290
     0
  0
SCALE
  5
2016
102
{ACAD_REACTORS
330
2005
102
}
330
2005
100
AcDbScale
 70
     0
300
100:1
140
100.0
141
1.0
290
     0
  0
TABLESTYLE
  5
2004
102
{ACAD_XDICTIONARY
360
20A3
102
}
102
{ACAD_REACTORS
330
2003
102
}
330
2003
100
AcDbTableStyle
  3
Standard
 70
     0
 71
     0
 40
1.5
 41
1.5
280
     0
281
     0
  7
Standard
140
4.5
170
     2
 62
     0
 63
     7
283
     0
274
    -2
284
     1
 64
     0
275
    -2
285
     1
 65
     0
276
    -2
286
     1
 66
     0
277
    -2
287
     1
 67
     0
278
    -2
288
     1
 68
     0
279
    -2
289
     1
 69
     0
  7
Standard
140
6.0
170
     5
 62
     0
 63
     7
283
     0
274
    -2
284
     1
 64
     0
275
    -2
285
     1
 65
     0
276
    -2
286
     1
 66
     0
277
    -2
287
     1
 67
     0
278
    -2
288
     1
 68
     0
279
    -2
289
     1
 69
     0
  7
Standard
140
4.5
170
     5
 62
     0
 63
     7
283
     0
274
    -2
284
     1
 64
     0
275
    -2
285
     1
 65
     0
276
    -2
286
     1
 66
     0
277
    -2
287
     1
 67
     0
278
    -2
288
     1
 68
     0
279
    -2
289
     1
 69
     0
  0
VISUALSTYLE
  5
1FF4
102
{ACAD_XDICTIONARY
360
20B7
102
}
102
{ACAD_REACTORS
330
1FEE
102
}
330
1FEE
100
AcDbVisualStyle
  2
2dWireframe
 70
     4
 71
     0
 72
     2
 73
     0
 90
        0
 40
-0.6
 41
-30.0
 62
     5
 63
     7
421
 16777215
 74
     1
 91
        4
 64
     7
 65
   257
 75
     1
175
     1
 42
1.0
 92
        0
 66
   257
 43
1.0
 76
     1
 77
     6
 78
     2
 67
     7
 79
     5
170
     0
171
     0
290
     0
174
     0
 93
        1
 44
0.0
173
     0
291
     0
 45
0.0
1001
ACAD
1000
AcDbSavedByObjectVersion
1070
     0
  0
VISUALSTYLE
  5
1FF6
102
{ACAD_XDICTIONARY
360
20BB
102
}
102
{ACAD_REACTORS
330
1FEE
102
}
330
1FEE
100
AcDbVisualStyle
  2
3D Hidden
 70
     6
 71
     1
 72
     2
 73
     2
 90
        0
 40
-0.6
 41
-30.0
 62
     5
 63
     7
421
 16777215
 74
     2
 91
        2
 64
     7
 65
   257
 75
     2
175
     1
 42
179.0
 92
        0
 66
   257
 43
1.0
 76
     1
 77
     6
 78
     2
 67
     7
 79
     3
170
     0
171
     0
290
     0
174
     0
 93
        1
 44
0.0
173
     0
291
     0
 45
0.0
1001
ACAD
1000
AcDbSavedByObjectVersion
1070
     0
  0
VISUALSTYLE
  5
1FF5
102
{ACAD_XDICTIONARY
360
20B9
102
}
102
{ACAD_REACTORS
330
1FEE
102
}
330
1FEE
100
AcDbVisualStyle
  2
3dWireframe
 70
     5
 71
     0
 72
     2
 73
     0
 90
        0
 40
-0.6
 41
-30.0
 62
     5
 63
     7
421
 16777215
 74
     1
 91
        4
 64
     7
 65
   257
 75
     1
175
     1
 42
1.0
 92
        0
 66
   257
 43
1.0
 76
     1
 77
     6
 78
     2
 67
     7
 79
     5
170
     0
171
     0
290
     0
174
     0
 93
        1
 44
0.0
173
     0
291
     0
 45
0.0
1001
ACAD
1000
AcDbSavedByObjectVersion
1070
     0
  0
VISUALSTYLE
  5
1FF3
102
{ACAD_XDICTIONARY
360
20B5
102
}
102
{ACAD_REACTORS
330
1FEE
102
}
330
1FEE
100
AcDbVisualStyle
  2
Basic
 70
     7
 71
     1
 72
     0
 73
     1
 90
        0
 40
-0.6
 41
-30.0
 62
     5
 63
     7
421
 16777215
 74
     0
 91
        4
 64
     7
 65
   257
 75
     1
175
     1
 42
1.0
 92
        8
 66
     7
 43
1.0
 76
     1
 77
     6
 78
     2
 67
     7
 79
     5
170
     0
171
     0
290
     0
174
     0
 93
        1
 44
0.0
173
     0
291
     1
 45
0.0
1001
ACAD
1000
AcDbSavedByObjectVersion
1070
     0
  0
VISUALSTYLE
  5
1FFA
102
{ACAD_XDICTIONARY
360
20C3
102
}
102
{ACAD_REACTORS
330
1FEE
102
}
330
1FEE
100
AcDbVisualStyle
  2
Brighten
 70
    12
 71
     2
 72
     2
 73
     0
 90
        0
 40
-0.6
 41
-30.0
 62
     5
 63
     7
421
 16777215
 74
     1
 91
        4
 64
     7
 65
   257
 75
     1
175
     1
 42
1.0
 92
        8
 66
     7
 43
1.0
 76
     1
 77
     6
 78
     2
 67
     7
 79
     5
170
     0
171
     0
290
     0
174
     0
 93
        1
 44
50.0
173
     0
291
     1
 45
0.0
1001
ACAD
1000
AcDbSavedByObjectVersion
1070
     0
  0
VISUALSTYLE
  5
1FFE
102
{ACAD_XDICTIONARY
360
20CB
102
}
102
{ACAD_REACTORS
330
1FEE
102
}
330
1FEE
100
AcDbVisualStyle
  2
ColorChange
 70
    16
 71
     2
 72
     2
 73
     3
 90
        0
 40
-0.6
 41
-30.0
 62
     5
 63
     8
421
  8421504
 74
     1
 91
        4
 64
     7
 65
   257
 75
     1
175
     1
 42
1.0
 92
        8
 66
     8
424
  8421504
 43
1.0
 76
     1
 77
     6
 78
     2
 67
     7
 79
     5
170
     0
171
     0
290
     0
174
     0
 93
        1
 44
0.0
173
     0
291
     1
 45
0.0
1001
ACAD
1000
AcDbSavedByObjectVersion
1070
     0
  0
VISUALSTYLE
  5
1FF7
102
{ACAD_XDICTIONARY
360
20BD
102
}
102
{ACAD_REACTORS
330
1FEE
102
}
330
1FEE
100
AcDbVisualStyle
  2
Conceptual
 70
     9
 71
     3
 72
     2
 73
     0
 90
        0
 40
-0.6
 41
-30.0
 62
     5
 63
     7
421
 16777215
 74
     2
 91
        2
 64
     7
 65
   257
 75
     1
175
     1
 42
179.0
 92
        8
 66
     7
 43
1.0
 76
     1
 77
     6
 78
     2
 67
     7
 79
     3
170
     0
171
     0
290
     0
174
     0
 93
        1
 44
0.0
173
     0
291
     0
 45
0.0
1001
ACAD
1000
AcDbSavedByObjectVersion
1070
     0
  0
VISUALSTYLE
  5
1FF9
102
{ACAD_XDICTIONARY
360
20C1
102
}
102
{ACAD_REACTORS
330
1FEE
102
}
330
1FEE
100
AcDbVisualStyle
  2
Dim
 70
    11
 71
     2
 72
     2
 73
     0
 90
        0
 40
-0.6
 41
-30.0
 62
     5
 63
     7
421
 16777215
 74
     1
 91
        4
 64
     7
 65
   257
 75
     1
175
     1
 42
1.0
 92
        8
 66
     7
 43
1.0
 76
     1
 77
     6
 78
     2
 67
     7
 79
     5
170
     0
171
     0
290
     0
174
     0
 93
        1
 44
-50.0
173
     0
291
     1
 45
0.0
1001
ACAD
1000
AcDbSavedByObjectVersion
1070
     0
  0
VISUALSTYLE
  5
2001
102
{ACAD_XDICTIONARY
360
20D1
102
}
102
{ACAD_REACTORS
330
1FEE
102
}
330
1FEE
100
AcDbVisualStyle
  2
EdgeColorOff
 70
    22
 71
     2
 72
     2
 73
     0
 90
        0
 40
-0.6
 41
-30.0
 62
     5
 63
     7
421
 16777215
 74
     1
 91
        4
 64
     7
 65
   257
 75
     1
175
     1
 42
1.0
 92
        8
 66
     7
 43
1.0
 76
     1
 77
     6
 78
     2
 67
     7
 79
     5
170
     0
171
     0
290
     0
174
     0
 93
        1
 44
0.0
173
     0
291
     1
 45
0.0
1001
ACAD
1000
AcDbSavedByObjectVersion
1070
     0
  0
VISUALSTYLE
  5
1FFD
102
{ACAD_XDICTIONARY
360
20C9
102
}
102
{ACAD_REACTORS
330
1FEE
102
}
330
1FEE
100
AcDbVisualStyle
  2
Facepattern
 70
    15
 71
     2
 72
     2
 73
     0
 90
        0
 40
-0.6
 41
-30.0
 62
     5
 63
     7
421
 16777215
 74
     1
 91
        4
 64
     7
 65
   257
 75
     1
175
     1
 42
1.0
 92
        8
 66
     7
 43
1.0
 76
     1
 77
     6
 78
     2
 67
     7
 79
     5
170
     0
171
     0
290
     0
174
     0
 93
        1
 44
0.0
173
     0
291
     1
 45
0.0
1001
ACAD
1000
AcDbSavedByObjectVersion
1070
     0
  0
VISUALSTYLE
  5
1FEF
102
{ACAD_XDICTIONARY
360
20AD
102
}
102
{ACAD_REACTORS
330
1FEE
102
}
330
1FEE
100
AcDbVisualStyle
  2
Flat
 70
     0
 71
     2
 72
     1
 73
     1
 90
        2
 40
-0.6
 41
30.0
 62
     5
 63
     7
421
 16777215
 74
     0
 91
        4
 64
     7
 65
   257
 75
     1
175
     1
 42
1.0
 92
        8
 66
     7
 43
1.0
 76
     1
 77
     6
 78
     2
 67
     7
 79
     5
170
     0
171
     0
290
     0
174
     0
 93
       13
 44
0.0
173
     0
291
     1
 45
0.0
1001
ACAD
1000
AcDbSavedByObjectVersion
1070
     0
  0
VISUALSTYLE
  5
1FF0
102
{ACAD_XDICTIONARY
360
20AF
102
}
102
{ACAD_REACTORS
330
1FEE
102
}
330
1FEE
100
AcDbVisualStyle
  2
FlatWithEdges
 70
     1
 71
     2
 72
     1
 73
     1
 90
        2
 40
-0.6
 41
30.0
 62
     5
 63
     7
421
 16777215
 74
     1
 91
        4
 64
     7
 65
   257
 75
     1
175
     1
 42
1.0
 92
        0
 66
   257
 43
1.0
 76
     1
 77
     6
 78
     2
 67
     7
 79
     5
170
     0
171
     0
290
     0
174
     0
 93
       13
 44
0.0
173
     0
291
     1
 45
0.0
1001
ACAD
1000
AcDbSavedByObjectVersion
1070
     0
  0
VISUALSTYLE
  5
1FF1
102
{ACAD_XDICTIONARY
360
20B1
102
}
102
{ACAD_REACTORS
330
1FEE
102
}
330
1FEE
100
AcDbVisualStyle
  2
Gouraud
 70
     2
 71
     2
 72
     2
 73
     1
 90
        2
 40
-0.6
 41
30.0
 62
     5
 63
     7
421
 16777215
 74
     0
 91
        4
 64
     7
 65
   257
 75
     1
175
     1
 42
1.0
 92
        0
 66
     7
 43
1.0
 76
     1
 77
     6
 78
     2
 67
     7
 79
     5
170
     0
171
     0
290
     0
174
     0
 93
       13
 44
0.0
173
     0
291
     1
 45
0.0
1001
ACAD
1000
AcDbSavedByObjectVersion
1070
     0
  0
VISUALSTYLE
  5
1FF2
102
{ACAD_XDICTIONARY
360
20B3
102
}
102
{ACAD_REACTORS
330
1FEE
102
}
330
1FEE
100
AcDbVisualStyle
  2
GouraudWithEdges
 70
     3
 71
     2
 72
     2
 73
     1
 90
        2
 40
-0.6
 41
30.0
 62
     5
 63
     7
421
 16777215
 74
     1
 91
        4
 64
     7
 65
   257
 75
     1
175
     1
 42
1.0
 92
        0
 66
   257
 43
1.0
 76
     1
 77
     6
 78
     2
 67
     7
 79
     5
170
     0
171
     0
290
     0
174
     0
 93
       13
 44
0.0
173
     0
291
     1
 45
0.0
1001
ACAD
1000
AcDbSavedByObjectVersion
1070
     0
  0
VISUALSTYLE
  5
1FFF
102
{ACAD_XDICTIONARY
360
20CD
102
}
102
{ACAD_REACTORS
330
1FEE
102
}
330
1FEE
100
AcDbVisualStyle
  2
JitterOff
 70
    20
 71
     2
 72
     2
 73
     0
 90
        0
 40
-0.6
 41
-30.0
 62
     5
 63
     7
421
 16777215
 74
     1
 91
        4
 64
     7
 65
   257
 75
     1
175
     1
 42
1.0
 92
       10
 66
     7
 43
1.0
 76
     1
 77
     6
 78
     2
 67
     7
 79
     5
170
     0
171
     0
290
     0
174
     0
 93
        1
 44
0.0
173
     0
291
     1
 45
0.0
1001
ACAD
1000
AcDbSavedByObjectVersion
1070
     0
  0
VISUALSTYLE
  5
1FFC
102
{ACAD_XDICTIONARY
360
20C7
102
}
102
{ACAD_REACTORS
330
1FEE
102
}
330
1FEE
100
AcDbVisualStyle
  2
Linepattern
 70
    14
 71
     2
 72
     2
 73
     0
 90
        0
 40
-0.6
 41
-30.0
 62
     5
 63
     7
421
 16777215
 74
     1
 91
        4
 64
     7
 65
   257
 75
     7
175
     7
 42
1.0
 92
        8
 66
     7
 43
1.0
 76
     1
 77
     6
 78
     2
 67
     7
 79
     5
170
     0
171
     0
290
     0
174
     0
 93
        1
 44
0.0
173
     0
291
     1
 45
0.0
1001
ACAD
1000
AcDbSavedByObjectVersion
1070
     0
  0
VISUALSTYLE
  5
2000
102
{ACAD_XDICTIONARY
360
20CF
102
}
102
{ACAD_REACTORS
330
1FEE
102
}
330
1FEE
100
AcDbVisualStyle
  2
OverhangOff
 70
    21
 71
     2
 72
     2
 73
     0
 90
        0
 40
-0.6
 41
-30.0
 62
     5
 63
     7
421
 16777215
 74
     1
 91
        4
 64
     7
 65
   257
 75
     1
175
     1
 42
1.0
 92
        9
 66
     7
 43
1.0
 76
     1
 77
     6
 78
     2
 67
     7
 79
     5
170
     0
171
     0
290
     0
174
     0
 93
        1
 44
0.0
173
     0
291
     1
 45
0.0
1001
ACAD
1000
AcDbSavedByObjectVersion
1070
     0
  0
VISUALSTYLE
  5
1FF8
102
{ACAD_XDICTIONARY
360
20BF
102
}
102
{ACAD_REACTORS
330
1FEE
102
}
330
1FEE
100
AcDbVisualStyle
  2
Realistic
 70
     8
 71
     2
 72
     2
 73
     0
 90
        0
 40
-0.6
 41
-30.0
 62
     5
 63
     7
421
 16777215
 74
     1
 91
        0
 64
     7
 65
   257
 75
     1
175
     1
 42
1.0
 92
        8
 66
     8
424
  7895160
 43
1.0
 76
     1
 77
     6
 78
     2
 67
     7
 79
     5
170
     0
171
     0
290
     0
174
     0
 93
       13
 44
0.0
173
     0
291
     0
 45
0.0
1001
ACAD
1000
AcDbSavedByObjectVersion
1070
     0
  0
VISUALSTYLE
  5
1FFB
102
{ACAD_XDICTIONARY
360
20C5
102
}
102
{ACAD_REACTORS
330
1FEE
102
}
330
1FEE
100
AcDbVisualStyle
  2
Thicken
 70
    13
 71
     2
 72
     2
 73
     0
 90
        0
 40
-0.6
 41
-30.0
 62
     5
 63
     7
421
 16777215
 74
     1
 91
        4
 64
     7
 65
   257
 75
     1
175
     1
 42
1.0
 92
       12
 66
     7
 43
1.0
 76
     1
 77
     6
 78
     2
 67
     7
 79
     5
170
     0
171
     0
290
     0
174
     0
 93
        1
 44
0.0
173
     0
291
     1
 45
0.0
1001
ACAD
1000
AcDbSavedByObjectVersion
1070
     0
  0
DICTIONARYVAR
  5
20A1
102
{ACAD_REACTORS
330
3D
102
}
330
3D
100
DictionaryVariables
280
     0
  1
1:1
  0
DICTIONARYVAR
  5
20A0
102
{ACAD_REACTORS
330
3D
102
}
330
3D
100
DictionaryVariables
280
     0
  1
STANDARD
  0
DICTIONARYVAR
  5
209F
102
{ACAD_REACTORS
330
3D
102
}
330
3D
100
DictionaryVariables
280
     0
  1
STANDARD
  0
DICTIONARYVAR
  5
3F
102
{ACAD_REACTORS
330
3D
102
}
330
3D
100
DictionaryVariables
280
     0
  1
2
  0
DICTIONARYVAR
  5
3E
102
{ACAD_REACTORS
330
3D
102
}
330
3D
100
DictionaryVariables
280
     0
  1
1
  0
DICTIONARYVAR
  5
20A2
102
{ACAD_REACTORS
330
3D
102
}
330
3D
100
DictionaryVariables
280
     0
  1
2
  0
XRECORD
  5
B92
102
{ACAD_REACTORS
330
B91
102
}
330
B91
100
AcDbXrecord
280
     1
  0
DICTIONARY
  5
1FDF
330
1FDE
100
AcDbDictionary
280
     1
281
     1
  3
ACAD_XREC_ROUNDTRIP
360
20AB
  3
BUMPTILE
360
1FE1
  3
DIFFUSETILE
360
1FE0
  3
OPACITYTILE
360
1FE4
  3
REFLECTIONTILE
360
1FE3
  3
REFRACTIONTILE
360
1FE5
  3
SPECULARTILE
360
1FE2
  0
DICTIONARY
  5
1FD7
330
1FD6
100
AcDbDictionary
280
     1
281
     1
  3
ACAD_XREC_ROUNDTRIP
360
20AA
  3
BUMPTILE
360
1FD9
  3
DIFFUSETILE
360
1FD8
  3
OPACITYTILE
360
1FDC
  3
REFLECTIONTILE
360
1FDB
  3
REFRACTIONTILE
360
1FDD
  3
SPECULARTILE
360
1FDA
  0
DICTIONARY
  5
1FE7
330
1FE6
100
AcDbDictionary
280
     1
281
     1
  3
ACAD_XREC_ROUNDTRIP
360
20AC
  3
BUMPTILE
360
1FE9
  3
DIFFUSETILE
360
1FE8
  3
OPACITYTILE
360
1FEC
  3
REFLECTIONTILE
360
1FEB
  3
REFRACTIONTILE
360
1FED
  3
SPECULARTILE
360
1FEA
  0
DICTIONARY
  5
20A3
330
2004
100
AcDbDictionary
280
     1
281
     1
  3
ACAD_ROUNDTRIP_2008_TABLESTYLE_CELLSTYLEMAP
360
20A4
  3
ACAD_XREC_ROUNDTRIP
360
20D3
  0
DICTIONARY
  5
20B7
330
1FF4
100
AcDbDictionary
280
     1
281
     1
  3
ACAD_XREC_ROUNDTRIP
360
20B8
  0
DICTIONARY
  5
20BB
330
1FF6
100
AcDbDictionary
280
     1
281
     1
  3
ACAD_XREC_ROUNDTRIP
360
20BC
  0
DICTIONARY
  5
20B9
330
1FF5
100
AcDbDictionary
280
     1
281
     1
  3
ACAD_XREC_ROUNDTRIP
360
20BA
  0
DICTIONARY
  5
20B5
330
1FF3
100
AcDbDictionary
280
     1
281
     1
  3
ACAD_XREC_ROUNDTRIP
360
20B6
  0
DICTIONARY
  5
20C3
330
1FFA
100
AcDbDictionary
280
     1
281
     1
  3
ACAD_XREC_ROUNDTRIP
360
20C4
  0
DICTIONARY
  5
20CB
330
1FFE
100
AcDbDictionary
280
     1
281
     1
  3
ACAD_XREC_ROUNDTRIP
360
20CC
  0
DICTIONARY
  5
20BD
330
1FF7
100
AcDbDictionary
280
     1
281
     1
  3
ACAD_XREC_ROUNDTRIP
360
20BE
  0
DICTIONARY
  5
20C1
330
1FF9
100
AcDbDictionary
280
     1
281
     1
  3
ACAD_XREC_ROUNDTRIP
360
20C2
  0
DICTIONARY
  5
20D1
330
2001
100
AcDbDictionary
280
     1
281
     1
  3
ACAD_XREC_ROUNDTRIP
360
20D2
  0
DICTIONARY
  5
20C9
330
1FFD
100
AcDbDictionary
280
     1
281
     1
  3
ACAD_XREC_ROUNDTRIP
360
20CA
  0
DICTIONARY
  5
20AD
330
1FEF
100
AcDbDictionary
280
     1
281
     1
  3
ACAD_XREC_ROUNDTRIP
360
20AE
  0
DICTIONARY
  5
20AF
330
1FF0
100
AcDbDictionary
280
     1
281
     1
  3
ACAD_XREC_ROUNDTRIP
360
20B0
  0
DICTIONARY
  5
20B1
330
1FF1
100
AcDbDictionary
280
     1
281
     1
  3
ACAD_XREC_ROUNDTRIP
360
20B2
  0
DICTIONARY
  5
20B3
330
1FF2
100
AcDbDictionary
280
     1
281
     1
  3
ACAD_XREC_ROUNDTRIP
360
20B4
  0
DICTIONARY
  5
20CD
330
1FFF
100
AcDbDictionary
280
     1
281
     1
  3
ACAD_XREC_ROUNDTRIP
360
20CE
  0
DICTIONARY
  5
20C7
330
1FFC
100
AcDbDictionary
280
     1
281
     1
  3
ACAD_XREC_ROUNDTRIP
360
20C8
  0
DICTIONARY
  5
20CF
330
2000
100
AcDbDictionary
280
     1
281
     1
  3
ACAD_XREC_ROUNDTRIP
360
20D0
  0
DICTIONARY
  5
20BF
330
1FF8
100
AcDbDictionary
280
     1
281
     1
  3
ACAD_XREC_ROUNDTRIP
360
20C0
  0
DICTIONARY
  5
20C5
330
1FFB
100
AcDbDictionary
280
     1
281
     1
  3
ACAD_XREC_ROUNDTRIP
360
20C6
  0
XRECORD
  5
20AB
102
{ACAD_REACTORS
330
1FDF
102
}
330
1FDF
100
AcDbXrecord
280
     1
102
MATERIAL
148
0.0
149
0.0
149
0.0
 93
        0
 94
      127
282
     0
 72
     0
 77
     0
171
     0
175
     0
179
     0
273
     0
  0
XRECORD
  5
1FE1
102
{ACAD_REACTORS
330
1FDF
102
}
330
1FDF
100
AcDbXrecord
280
     1
270
     1
271
     1
  0
XRECORD
  5
1FE0
102
{ACAD_REACTORS
330
1FDF
102
}
330
1FDF
100
AcDbXrecord
280
     1
270
     1
271
     1
  0
XRECORD
  5
1FE4
102
{ACAD_REACTORS
330
1FDF
102
}
330
1FDF
100
AcDbXrecord
280
     1
270
     1
271
     1
  0
XRECORD
  5
1FE3
102
{ACAD_REACTORS
330
1FDF
102
}
330
1FDF
100
AcDbXrecord
280
     1
270
     1
271
     1
  0
XRECORD
  5
1FE5
102
{ACAD_REACTORS
330
1FDF
102
}
330
1FDF
100
AcDbXrecord
280
     1
270
     1
271
     1
  0
XRECORD
  5
1FE2
102
{ACAD_REACTORS
330
1FDF
102
}
330
1FDF
100
AcDbXrecord
280
     1
270
     1
271
     1
  0
XRECORD
  5
20AA
102
{ACAD_REACTORS
330
1FD7
102
}
330
1FD7
100
AcDbXrecord
280
     1
102
MATERIAL
148
0.0
149
0.0
149
0.0
 93
        0
 94
      127
282
     0
 72
     0
 77
     0
171
     0
175
     0
179
     0
273
     0
  0
XRECORD
  5
1FD9
102
{ACAD_REACTORS
330
1FD7
102
}
330
1FD7
100
AcDbXrecord
280
     1
270
     1
271
     1
  0
XRECORD
  5
1FD8
102
{ACAD_REACTORS
330
1FD7
102
}
330
1FD7
100
AcDbXrecord
280
     1
270
     1
271
     1
  0
XRECORD
  5
1FDC
102
{ACAD_REACTORS
330
1FD7
102
}
330
1FD7
100
AcDbXrecord
280
     1
270
     1
271
     1
  0
XRECORD
  5
1FDB
102
{ACAD_REACTORS
330
1FD7
102
}
330
1FD7
100
AcDbXrecord
280
     1
270
     1
271
     1
  0
XRECORD
  5
1FDD
102
{ACAD_REACTORS
330
1FD7
102
}
330
1FD7
100
AcDbXrecord
280
     1
270
     1
271
     1
  0
XRECORD
  5
1FDA
102
{ACAD_REACTORS
330
1FD7
102
}
330
1FD7
100
AcDbXrecord
280
     1
270
     1
271
     1
  0
XRECORD
  5
20AC
102
{ACAD_REACTORS
330
1FE7
102
}
330
1FE7
100
AcDbXrecord
280
     1
102
MATERIAL
148
0.0
149
0.0
149
0.0
 93
        0
 94
      127
282
     0
 72
     0
 77
     0
171
     0
175
     0
179
     0
273
     0
  0
XRECORD
  5
1FE9
102
{ACAD_REACTORS
330
1FE7
102
}
330
1FE7
100
AcDbXrecord
280
     1
270
     1
271
     1
  0
XRECORD
  5
1FE8
102
{ACAD_REACTORS
330
1FE7
102
}
330
1FE7
100
AcDbXrecord
280
     1
270
     1
271
     1
  0
XRECORD
  5
1FEC
102
{ACAD_REACTORS
330
1FE7
102
}
330
1FE7
100
AcDbXrecord
280
     1
270
     1
271
     1
  0
XRECORD
  5
1FEB
102
{ACAD_REACTORS
330
1FE7
102
}
330
1FE7
100
AcDbXrecord
280
     1
270
     1
271
     1
  0
XRECORD
  5
1FED
102
{ACAD_REACTORS
330
1FE7
102
}
330
1FE7
100
AcDbXrecord
280
     1
270
     1
271
     1
  0
XRECORD
  5
1FEA
102
{ACAD_REACTORS
330
1FE7
102
}
330
1FE7
100
AcDbXrecord
280
     1
270
     1
271
     1
  0
CELLSTYLEMAP
  5
20A4
102
{ACAD_REACTORS
330
20A3
102
}
330
20A3
100
AcDbCellStyleMap
 90
        3
300
CELLSTYLE
  1
TABLEFORMAT_BEGIN
 90
        5
170
     1
 91
        0
 92
    32768
 62
   257
 93
        1
300
CONTENTFORMAT
  1
CONTENTFORMAT_BEGIN
 90
        0
 91
        0
 92
      512
 93
        0
300

 40
0.0
140
1.0
 94
        5
 62
     0
340
11
144
6.0
309
CONTENTFORMAT_END
171
     1
301
MARGIN
  1
CELLMARGIN_BEGIN
 40
1.5
 40
1.5
 40
1.5
 40
1.5
 40
4.5
 40
4.5
309
CELLMARGIN_END
 94
        6
 95
        1
302
GRIDFORMAT
  1
GRIDFORMAT_BEGIN
 90
        0
 91
        1
 62
     0
 92
       -2
340
0
 93
        0
 40
1.125
309
GRIDFORMAT_END
 95
        2
302
GRIDFORMAT
  1
GRIDFORMAT_BEGIN
 90
        0
 91
        1
 62
     0
 92
       -2
340
0
 93
        0
 40
1.125
309
GRIDFORMAT_END
 95
        4
302
GRIDFORMAT
  1
GRIDFORMAT_BEGIN
 90
        0
 91
        1
 62
     0
 92
       -2
340
0
 93
        0
 40
1.125
309
GRIDFORMAT_END
 95
        8
302
GRIDFORMAT
  1
GRIDFORMAT_BEGIN
 90
        0
 91
        1
 62
     0
 92
       -2
340
0
 93
        0
 40
1.125
309
GRIDFORMAT_END
 95
       16
302
GRIDFORMAT
  1
GRIDFORMAT_BEGIN
 90
        0
 91
        1
 62
     0
 92
       -2
340
0
 93
        0
 40
1.125
309
GRIDFORMAT_END
 95
       32
302
GRIDFORMAT
  1
GRIDFORMAT_BEGIN
 90
        0
 91
        1
 62
     0
 92
       -2
340
0
 93
        0
 40
1.125
309
GRIDFORMAT_END
309
TABLEFORMAT_END
  1
CELLSTYLE_BEGIN
 90
        1
 91
        1
300
_TITLE
309
CELLSTYLE_END
300
CELLSTYLE
  1
TABLEFORMAT_BEGIN
 90
        5
170
     1
 91
        0
 92
        0
 62
   257
 93
        1
300
CONTENTFORMAT
  1
CONTENTFORMAT_BEGIN
 90
        0
 91
        0
 92
      512
 93
        0
300

 40
0.0
140
1.0
 94
        5
 62
     0
340
11
144
4.5
309
CONTENTFORMAT_END
171
     1
301
MARGIN
  1
CELLMARGIN_BEGIN
 40
1.5
 40
1.5
 40
1.5
 40
1.5
 40
4.5
 40
4.5
309
CELLMARGIN_END
 94
        6
 95
        1
302
GRIDFORMAT
  1
GRIDFORMAT_BEGIN
 90
        0
 91
        1
 62
     0
 92
       -2
340
0
 93
        0
 40
1.125
309
GRIDFORMAT_END
 95
        2
302
GRIDFORMAT
  1
GRIDFORMAT_BEGIN
 90
        0
 91
        1
 62
     0
 92
       -2
340
0
 93
        0
 40
1.125
309
GRIDFORMAT_END
 95
        4
302
GRIDFORMAT
  1
GRIDFORMAT_BEGIN
 90
        0
 91
        1
 62
     0
 92
       -2
340
0
 93
        0
 40
1.125
309
GRIDFORMAT_END
 95
        8
302
GRIDFORMAT
  1
GRIDFORMAT_BEGIN
 90
        0
 91
        1
 62
     0
 92
       -2
340
0
 93
        0
 40
1.125
309
GRIDFORMAT_END
 95
       16
302
GRIDFORMAT
  1
GRIDFORMAT_BEGIN
 90
        0
 91
        1
 62
     0
 92
       -2
340
0
 93
        0
 40
1.125
309
GRIDFORMAT_END
 95
       32
302
GRIDFORMAT
  1
GRIDFORMAT_BEGIN
 90
        0
 91
        1
 62
     0
 92
       -2
340
0
 93
        0
 40
1.125
309
GRIDFORMAT_END
309
TABLEFORMAT_END
  1
CELLSTYLE_BEGIN
 90
        2
 91
        1
300
_HEADER
309
CELLSTYLE_END
300
CELLSTYLE
  1
TABLEFORMAT_BEGIN
 90
        5
170
     1
 91
        0
 92
        0
 62
   257
 93
        1
300
CONTENTFORMAT
  1
CONTENTFORMAT_BEGIN
 90
        0
 91
        0
 92
      512
 93
        0
300

 40
0.0
140
1.0
 94
        2
 62
     0
340
11
144
4.5
309
CONTENTFORMAT_END
171
     1
301
MARGIN
  1
CELLMARGIN_BEGIN
 40
1.5
 40
1.5
 40
1.5
 40
1.5
 40
4.5
 40
4.5
309
CELLMARGIN_END
 94
        6
 95
        1
302
GRIDFORMAT
  1
GRIDFORMAT_BEGIN
 90
        0
 91
        1
 62
     0
 92
       -2
340
0
 93
        0
 40
1.125
309
GRIDFORMAT_END
 95
        2
302
GRIDFORMAT
  1
GRIDFORMAT_BEGIN
 90
        0
 91
        1
 62
     0
 92
       -2
340
0
 93
        0
 40
1.125
309
GRIDFORMAT_END
 95
        4
302
GRIDFORMAT
  1
GRIDFORMAT_BEGIN
 90
        0
 91
        1
 62
     0
 92
       -2
340
0
 93
        0
 40
1.125
309
GRIDFORMAT_END
 95
        8
302
GRIDFORMAT
  1
GRIDFORMAT_BEGIN
 90
        0
 91
        1
 62
     0
 92
       -2
340
0
 93
        0
 40
1.125
309
GRIDFORMAT_END
 95
       16
302
GRIDFORMAT
  1
GRIDFORMAT_BEGIN
 90
        0
 91
        1
 62
     0
 92
       -2
340
0
 93
        0
 40
1.125
309
GRIDFORMAT_END
 95
       32
302
GRIDFORMAT
  1
GRIDFORMAT_BEGIN
 90
        0
 91
        1
 62
     0
 92
       -2
340
0
 93
        0
 40
1.125
309
GRIDFORMAT_END
309
TABLEFORMAT_END
  1
CELLSTYLE_BEGIN
 90
        3
 91
        2
300
_DATA
309
CELLSTYLE_END
  0
XRECORD
  5
20D3
102
{ACAD_REACTORS
330
20A3
102
}
330
20A3
100
AcDbXrecord
280
     1
102
ACAD_ROUNDTRIP_PRE2007_TABLESTYLE
 90
      512
 91
        0
  1

 92
      512
 93
        0
  2

 94
      512
 95
        0
  3

  0
XRECORD
  5
20B8
102
{ACAD_REACTORS
330
20B7
102
}
330
20B7
100
AcDbXrecord
280
     1
102
RTVSPropertyOp0
 70
     1
102
RTVSPropertyOp1
 70
     1
102
RTVSPropertyOp2
 70
     1
102
RTVSPropertyOp3
 70
     1
102
RTVSPropertyOp4
 70
     1
102
RTVSPropertyOp5
 70
     1
102
RTVSPropertyOp6
 70
     1
102
RTVSPropertyOp7
 70
     1
102
RTVSPropertyOp8
 70
     1
102
RTVSPropertyOp9
 70
     1
102
RTVSPropertyOp10
 70
     1
102
RTVSPropertyOp11
 70
     1
102
RTVSPropertyOp12
 70
     1
102
RTVSPropertyOp13
 70
     1
102
RTVSPropertyOp14
 70
     1
102
RTVSPropertyOp15
 70
     1
102
RTVSPropertyOp16
 70
     1
102
RTVSPropertyOp17
 70
     1
102
RTVSPropertyOp18
 70
     1
102
RTVSPropertyOp19
 70
     1
102
RTVSPropertyOp20
 70
     1
102
RTVSPropertyOp21
 70
     1
102
RTVSPropertyOp22
 70
     1
102
RTVSPropertyOp23
 70
     1
102
RTVSPropertyOp24
 70
     1
102
RTVSPropertyOp25
 70
     1
102
RTVSPropertyOp26
 70
     1
102
RTVSPropertyOp27
 70
     1
  0
XRECORD
  5
20BC
102
{ACAD_REACTORS
330
20BB
102
}
330
20BB
100
AcDbXrecord
280
     1
102
RTVSPropertyOp0
 70
     1
102
RTVSPropertyOp1
 70
     1
102
RTVSPropertyOp2
 70
     1
102
RTVSPropertyOp3
 70
     1
102
RTVSPropertyOp4
 70
     1
102
RTVSPropertyOp5
 70
     1
102
RTVSPropertyOp6
 70
     1
102
RTVSPropertyOp7
 70
     1
102
RTVSPropertyOp8
 70
     1
102
RTVSPropertyOp9
 70
     1
102
RTVSPropertyOp10
 70
     1
102
RTVSPropertyOp11
 70
     1
102
RTVSPropertyOp12
 70
     1
102
RTVSPropertyOp13
 70
     1
102
RTVSPropertyOp14
 70
     1
102
RTVSPropertyOp15
 70
     1
102
RTVSPropertyOp16
 70
     1
102
RTVSPropertyOp17
 70
     1
102
RTVSPropertyOp18
 70
     1
102
RTVSPropertyOp19
 70
     1
102
RTVSPropertyOp20
 70
     1
102
RTVSPropertyOp21
 70
     1
102
RTVSPropertyOp22
 70
     1
102
RTVSPropertyOp23
 70
     1
102
RTVSPropertyOp24
 70
     1
102
RTVSPropertyOp25
 70
     1
102
RTVSPropertyOp26
 70
     1
102
RTVSPropertyOp27
 70
     1
  0
XRECORD
  5
20BA
102
{ACAD_REACTORS
330
20B9
102
}
330
20B9
100
AcDbXrecord
280
     1
102
RTVSPropertyOp0
 70
     1
102
RTVSPropertyOp1
 70
     1
102
RTVSPropertyOp2
 70
     1
102
RTVSPropertyOp3
 70
     1
102
RTVSPropertyOp4
 70
     1
102
RTVSPropertyOp5
 70
     1
102
RTVSPropertyOp6
 70
     1
102
RTVSPropertyOp7
 70
     1
102
RTVSPropertyOp8
 70
     1
102
RTVSPropertyOp9
 70
     1
102
RTVSPropertyOp10
 70
     1
102
RTVSPropertyOp11
 70
     1
102
RTVSPropertyOp12
 70
     1
102
RTVSPropertyOp13
 70
     1
102
RTVSPropertyOp14
 70
     1
102
RTVSPropertyOp15
 70
     1
102
RTVSPropertyOp16
 70
     1
102
RTVSPropertyOp17
 70
     1
102
RTVSPropertyOp18
 70
     1
102
RTVSPropertyOp19
 70
     1
102
RTVSPropertyOp20
 70
     1
102
RTVSPropertyOp21
 70
     1
102
RTVSPropertyOp22
 70
     1
102
RTVSPropertyOp23
 70
     1
102
RTVSPropertyOp24
 70
     1
102
RTVSPropertyOp25
 70
     1
102
RTVSPropertyOp26
 70
     1
102
RTVSPropertyOp27
 70
     1
  0
XRECORD
  5
20B6
102
{ACAD_REACTORS
330
20B5
102
}
330
20B5
100
AcDbXrecord
280
     1
102
RTVSPropertyOp0
 70
     1
102
RTVSPropertyOp1
 70
     1
102
RTVSPropertyOp2
 70
     1
102
RTVSPropertyOp3
 70
     1
102
RTVSPropertyOp4
 70
     1
102
RTVSPropertyOp5
 70
     1
102
RTVSPropertyOp6
 70
     1
102
RTVSPropertyOp7
 70
     1
102
RTVSPropertyOp8
 70
     1
102
RTVSPropertyOp9
 70
     1
102
RTVSPropertyOp10
 70
     1
102
RTVSPropertyOp11
 70
     1
102
RTVSPropertyOp12
 70
     1
102
RTVSPropertyOp13
 70
     1
102
RTVSPropertyOp14
 70
     1
102
RTVSPropertyOp15
 70
     1
102
RTVSPropertyOp16
 70
     1
102
RTVSPropertyOp17
 70
     1
102
RTVSPropertyOp18
 70
     1
102
RTVSPropertyOp19
 70
     1
102
RTVSPropertyOp20
 70
     1
102
RTVSPropertyOp21
 70
     1
102
RTVSPropertyOp22
 70
     1
102
RTVSPropertyOp23
 70
     1
102
RTVSPropertyOp24
 70
     1
102
RTVSPropertyOp25
 70
     1
102
RTVSPropertyOp26
 70
     1
102
RTVSPropertyOp27
 70
     1
  0
XRECORD
  5
20C4
102
{ACAD_REACTORS
330
20C3
102
}
330
20C3
100
AcDbXrecord
280
     1
102
RTVSPropertyOp0
 70
     1
102
RTVSPropertyOp1
 70
     1
102
RTVSPropertyOp2
 70
     1
102
RTVSPropertyOp3
 70
     1
102
RTVSPropertyOp4
 70
     1
102
RTVSPropertyOp5
 70
     1
102
RTVSPropertyOp6
 70
     1
102
RTVSPropertyOp7
 70
     1
102
RTVSPropertyOp8
 70
     1
102
RTVSPropertyOp9
 70
     1
102
RTVSPropertyOp10
 70
     1
102
RTVSPropertyOp11
 70
     1
102
RTVSPropertyOp12
 70
     1
102
RTVSPropertyOp13
 70
     1
102
RTVSPropertyOp14
 70
     1
102
RTVSPropertyOp15
 70
     1
102
RTVSPropertyOp16
 70
     1
102
RTVSPropertyOp17
 70
     1
102
RTVSPropertyOp18
 70
     1
102
RTVSPropertyOp19
 70
     1
102
RTVSPropertyOp20
 70
     1
102
RTVSPropertyOp21
 70
     1
102
RTVSPropertyOp22
 70
     1
102
RTVSPropertyOp23
 70
     1
102
RTVSPropertyOp24
 70
     1
102
RTVSPropertyOp25
 70
     1
102
RTVSPropertyOp26
 70
     1
102
RTVSPropertyOp27
 70
     1
  0
XRECORD
  5
20CC
102
{ACAD_REACTORS
330
20CB
102
}
330
20CB
100
AcDbXrecord
280
     1
102
RTVSPropertyOp0
 70
     1
102
RTVSPropertyOp1
 70
     1
102
RTVSPropertyOp2
 70
     1
102
RTVSPropertyOp3
 70
     1
102
RTVSPropertyOp4
 70
     1
102
RTVSPropertyOp5
 70
     1
102
RTVSPropertyOp6
 70
     1
102
RTVSPropertyOp7
 70
     1
102
RTVSPropertyOp8
 70
     1
102
RTVSPropertyOp9
 70
     1
102
RTVSPropertyOp10
 70
     1
102
RTVSPropertyOp11
 70
     1
102
RTVSPropertyOp12
 70
     1
102
RTVSPropertyOp13
 70
     1
102
RTVSPropertyOp14
 70
     1
102
RTVSPropertyOp15
 70
     1
102
RTVSPropertyOp16
 70
     1
102
RTVSPropertyOp17
 70
     1
102
RTVSPropertyOp18
 70
     1
102
RTVSPropertyOp19
 70
     1
102
RTVSPropertyOp20
 70
     1
102
RTVSPropertyOp21
 70
     1
102
RTVSPropertyOp22
 70
     1
102
RTVSPropertyOp23
 70
     1
102
RTVSPropertyOp24
 70
     1
102
RTVSPropertyOp25
 70
     1
102
RTVSPropertyOp26
 70
     1
102
RTVSPropertyOp27
 70
     1
  0
XRECORD
  5
20BE
102
{ACAD_REACTORS
330
20BD
102
}
330
20BD
100
AcDbXrecord
280
     1
102
RTVSPropertyOp0
 70
     1
102
RTVSPropertyOp1
 70
     1
102
RTVSPropertyOp2
 70
     1
102
RTVSPropertyOp3
 70
     1
102
RTVSPropertyOp4
 70
     1
102
RTVSPropertyOp5
 70
     1
102
RTVSPropertyOp6
 70
     1
102
RTVSPropertyOp7
 70
     1
102
RTVSPropertyOp8
 70
     1
102
RTVSPropertyOp9
 70
     1
102
RTVSPropertyOp10
 70
     1
102
RTVSPropertyOp11
 70
     1
102
RTVSPropertyOp12
 70
     1
102
RTVSPropertyOp13
 70
     1
102
RTVSPropertyOp14
 70
     1
102
RTVSPropertyOp15
 70
     1
102
RTVSPropertyOp16
 70
     1
102
RTVSPropertyOp17
 70
     1
102
RTVSPropertyOp18
 70
     1
102
RTVSPropertyOp19
 70
     1
102
RTVSPropertyOp20
 70
     1
102
RTVSPropertyOp21
 70
     1
102
RTVSPropertyOp22
 70
     1
102
RTVSPropertyOp23
 70
     1
102
RTVSPropertyOp24
 70
     1
102
RTVSPropertyOp25
 70
     1
102
RTVSPropertyOp26
 70
     1
102
RTVSPropertyOp27
 70
     1
  0
XRECORD
  5
20C2
102
{ACAD_REACTORS
330
20C1
102
}
330
20C1
100
AcDbXrecord
280
     1
102
RTVSPropertyOp0
 70
     1
102
RTVSPropertyOp1
 70
     1
102
RTVSPropertyOp2
 70
     1
102
RTVSPropertyOp3
 70
     1
102
RTVSPropertyOp4
 70
     1
102
RTVSPropertyOp5
 70
     1
102
RTVSPropertyOp6
 70
     1
102
RTVSPropertyOp7
 70
     1
102
RTVSPropertyOp8
 70
     1
102
RTVSPropertyOp9
 70
     1
102
RTVSPropertyOp10
 70
     1
102
RTVSPropertyOp11
 70
     1
102
RTVSPropertyOp12
 70
     1
102
RTVSPropertyOp13
 70
     1
102
RTVSPropertyOp14
 70
     1
102
RTVSPropertyOp15
 70
     1
102
RTVSPropertyOp16
 70
     1
102
RTVSPropertyOp17
 70
     1
102
RTVSPropertyOp18
 70
     1
102
RTVSPropertyOp19
 70
     1
102
RTVSPropertyOp20
 70
     1
102
RTVSPropertyOp21
 70
     1
102
RTVSPropertyOp22
 70
     1
102
RTVSPropertyOp23
 70
     1
102
RTVSPropertyOp24
 70
     1
102
RTVSPropertyOp25
 70
     1
102
RTVSPropertyOp26
 70
     1
102
RTVSPropertyOp27
 70
     1
  0
XRECORD
  5
20D2
102
{ACAD_REACTORS
330
20D1
102
}
330
20D1
100
AcDbXrecord
280
     1
102
RTVSPropertyOp0
 70
     0
102
RTVSPropertyOp1
 70
     0
102
RTVSPropertyOp2
 70
     0
102
RTVSPropertyOp3
 70
     0
102
RTVSPropertyOp4
 70
     0
102
RTVSPropertyOp5
 70
     0
102
RTVSPropertyOp6
 70
     0
102
RTVSPropertyOp7
 70
     0
102
RTVSPropertyOp8
 70
     0
102
RTVSPropertyOp9
 70
     0
102
RTVSPropertyOp10
 70
     0
102
RTVSPropertyOp11
 70
     0
102
RTVSPropertyOp12
 70
     0
102
RTVSPropertyOp13
 70
     0
102
RTVSPropertyOp14
 70
     2
102
RTVSPropertyOp15
 70
     0
102
RTVSPropertyOp16
 70
     0
102
RTVSPropertyOp17
 70
     0
102
RTVSPropertyOp18
 70
     0
102
RTVSPropertyOp19
 70
     0
102
RTVSPropertyOp20
 70
     0
102
RTVSPropertyOp21
 70
     0
102
RTVSPropertyOp22
 70
     0
102
RTVSPropertyOp23
 70
     0
102
RTVSPropertyOp24
 70
     0
102
RTVSPropertyOp25
 70
     0
102
RTVSPropertyOp26
 70
     0
102
RTVSPropertyOp27
 70
     0
  0
XRECORD
  5
20CA
102
{ACAD_REACTORS
330
20C9
102
}
330
20C9
100
AcDbXrecord
280
     1
102
RTVSPropertyOp0
 70
     1
102
RTVSPropertyOp1
 70
     1
102
RTVSPropertyOp2
 70
     1
102
RTVSPropertyOp3
 70
     1
102
RTVSPropertyOp4
 70
     1
102
RTVSPropertyOp5
 70
     1
102
RTVSPropertyOp6
 70
     1
102
RTVSPropertyOp7
 70
     1
102
RTVSPropertyOp8
 70
     1
102
RTVSPropertyOp9
 70
     1
102
RTVSPropertyOp10
 70
     1
102
RTVSPropertyOp11
 70
     1
102
RTVSPropertyOp12
 70
     1
102
RTVSPropertyOp13
 70
     1
102
RTVSPropertyOp14
 70
     1
102
RTVSPropertyOp15
 70
     1
102
RTVSPropertyOp16
 70
     1
102
RTVSPropertyOp17
 70
     1
102
RTVSPropertyOp18
 70
     1
102
RTVSPropertyOp19
 70
     1
102
RTVSPropertyOp20
 70
     1
102
RTVSPropertyOp21
 70
     1
102
RTVSPropertyOp22
 70
     1
102
RTVSPropertyOp23
 70
     1
102
RTVSPropertyOp24
 70
     1
102
RTVSPropertyOp25
 70
     1
102
RTVSPropertyOp26
 70
     1
102
RTVSPropertyOp27
 70
     1
  0
XRECORD
  5
20AE
102
{ACAD_REACTORS
330
20AD
102
}
330
20AD
100
AcDbXrecord
280
     1
102
RTVSPropertyOp0
 70
     1
102
RTVSPropertyOp1
 70
     1
102
RTVSPropertyOp2
 70
     1
102
RTVSPropertyOp3
 70
     1
102
RTVSPropertyOp4
 70
     1
102
RTVSPropertyOp5
 70
     1
102
RTVSPropertyOp6
 70
     1
102
RTVSPropertyOp7
 70
     1
102
RTVSPropertyOp8
 70
     1
102
RTVSPropertyOp9
 70
     1
102
RTVSPropertyOp10
 70
     1
102
RTVSPropertyOp11
 70
     1
102
RTVSPropertyOp12
 70
     1
102
RTVSPropertyOp13
 70
     1
102
RTVSPropertyOp14
 70
     1
102
RTVSPropertyOp15
 70
     1
102
RTVSPropertyOp16
 70
     1
102
RTVSPropertyOp17
 70
     1
102
RTVSPropertyOp18
 70
     1
102
RTVSPropertyOp19
 70
     1
102
RTVSPropertyOp20
 70
     1
102
RTVSPropertyOp21
 70
     1
102
RTVSPropertyOp22
 70
     1
102
RTVSPropertyOp23
 70
     1
102
RTVSPropertyOp24
 70
     1
102
RTVSPropertyOp25
 70
     1
102
RTVSPropertyOp26
 70
     1
102
RTVSPropertyOp27
 70
     1
  0
XRECORD
  5
20B0
102
{ACAD_REACTORS
330
20AF
102
}
330
20AF
100
AcDbXrecord
280
     1
102
RTVSPropertyOp0
 70
     1
102
RTVSPropertyOp1
 70
     1
102
RTVSPropertyOp2
 70
     1
102
RTVSPropertyOp3
 70
     1
102
RTVSPropertyOp4
 70
     1
102
RTVSPropertyOp5
 70
     1
102
RTVSPropertyOp6
 70
     1
102
RTVSPropertyOp7
 70
     1
102
RTVSPropertyOp8
 70
     1
102
RTVSPropertyOp9
 70
     1
102
RTVSPropertyOp10
 70
     1
102
RTVSPropertyOp11
 70
     1
102
RTVSPropertyOp12
 70
     1
102
RTVSPropertyOp13
 70
     1
102
RTVSPropertyOp14
 70
     1
102
RTVSPropertyOp15
 70
     1
102
RTVSPropertyOp16
 70
     1
102
RTVSPropertyOp17
 70
     1
102
RTVSPropertyOp18
 70
     1
102
RTVSPropertyOp19
 70
     1
102
RTVSPropertyOp20
 70
     1
102
RTVSPropertyOp21
 70
     1
102
RTVSPropertyOp22
 70
     1
102
RTVSPropertyOp23
 70
     1
102
RTVSPropertyOp24
 70
     1
102
RTVSPropertyOp25
 70
     1
102
RTVSPropertyOp26
 70
     1
102
RTVSPropertyOp27
 70
     1
  0
XRECORD
  5
20B2
102
{ACAD_REACTORS
330
20B1
102
}
330
20B1
100
AcDbXrecord
280
     1
102
RTVSPropertyOp0
 70
     1
102
RTVSPropertyOp1
 70
     1
102
RTVSPropertyOp2
 70
     1
102
RTVSPropertyOp3
 70
     1
102
RTVSPropertyOp4
 70
     1
102
RTVSPropertyOp5
 70
     1
102
RTVSPropertyOp6
 70
     1
102
RTVSPropertyOp7
 70
     1
102
RTVSPropertyOp8
 70
     1
102
RTVSPropertyOp9
 70
     1
102
RTVSPropertyOp10
 70
     1
102
RTVSPropertyOp11
 70
     1
102
RTVSPropertyOp12
 70
     1
102
RTVSPropertyOp13
 70
     1
102
RTVSPropertyOp14
 70
     1
102
RTVSPropertyOp15
 70
     1
102
RTVSPropertyOp16
 70
     1
102
RTVSPropertyOp17
 70
     1
102
RTVSPropertyOp18
 70
     1
102
RTVSPropertyOp19
 70
     1
102
RTVSPropertyOp20
 70
     1
102
RTVSPropertyOp21
 70
     1
102
RTVSPropertyOp22
 70
     1
102
RTVSPropertyOp23
 70
     1
102
RTVSPropertyOp24
 70
     1
102
RTVSPropertyOp25
 70
     1
102
RTVSPropertyOp26
 70
     1
102
RTVSPropertyOp27
 70
     1
  0
XRECORD
  5
20B4
102
{ACAD_REACTORS
330
20B3
102
}
330
20B3
100
AcDbXrecord
280
     1
102
RTVSPropertyOp0
 70
     1
102
RTVSPropertyOp1
 70
     1
102
RTVSPropertyOp2
 70
     1
102
RTVSPropertyOp3
 70
     1
102
RTVSPropertyOp4
 70
     1
102
RTVSPropertyOp5
 70
     1
102
RTVSPropertyOp6
 70
     1
102
RTVSPropertyOp7
 70
     1
102
RTVSPropertyOp8
 70
     1
102
RTVSPropertyOp9
 70
     1
102
RTVSPropertyOp10
 70
     1
102
RTVSPropertyOp11
 70
     1
102
RTVSPropertyOp12
 70
     1
102
RTVSPropertyOp13
 70
     1
102
RTVSPropertyOp14
 70
     1
102
RTVSPropertyOp15
 70
     1
102
RTVSPropertyOp16
 70
     1
102
RTVSPropertyOp17
 70
     1
102
RTVSPropertyOp18
 70
     1
102
RTVSPropertyOp19
 70
     1
102
RTVSPropertyOp20
 70
     1
102
RTVSPropertyOp21
 70
     1
102
RTVSPropertyOp22
 70
     1
102
RTVSPropertyOp23
 70
     1
102
RTVSPropertyOp24
 70
     1
102
RTVSPropertyOp25
 70
     1
102
RTVSPropertyOp26
 70
     1
102
RTVSPropertyOp27
 70
     1
  0
XRECORD
  5
20CE
102
{ACAD_REACTORS
330
20CD
102
}
330
20CD
100
AcDbXrecord
280
     1
102
RTVSPropertyOp0
 70
     0
102
RTVSPropertyOp1
 70
     0
102
RTVSPropertyOp2
 70
     0
102
RTVSPropertyOp3
 70
     0
102
RTVSPropertyOp4
 70
     0
102
RTVSPropertyOp5
 70
     0
102
RTVSPropertyOp6
 70
     0
102
RTVSPropertyOp7
 70
     0
102
RTVSPropertyOp8
 70
     0
102
RTVSPropertyOp9
 70
     0
102
RTVSPropertyOp10
 70
     0
102
RTVSPropertyOp11
 70
     0
102
RTVSPropertyOp12
 70
     0
102
RTVSPropertyOp13
 70
     0
102
RTVSPropertyOp14
 70
     2
102
RTVSPropertyOp15
 70
     0
102
RTVSPropertyOp16
 70
     0
102
RTVSPropertyOp17
 70
     0
102
RTVSPropertyOp18
 70
     0
102
RTVSPropertyOp19
 70
     0
102
RTVSPropertyOp20
 70
     0
102
RTVSPropertyOp21
 70
     0
102
RTVSPropertyOp22
 70
     0
102
RTVSPropertyOp23
 70
     0
102
RTVSPropertyOp24
 70
     0
102
RTVSPropertyOp25
 70
     0
102
RTVSPropertyOp26
 70
     0
102
RTVSPropertyOp27
 70
     0
  0
XRECORD
  5
20C8
102
{ACAD_REACTORS
330
20C7
102
}
330
20C7
100
AcDbXrecord
280
     1
102
RTVSPropertyOp0
 70
     1
102
RTVSPropertyOp1
 70
     1
102
RTVSPropertyOp2
 70
     1
102
RTVSPropertyOp3
 70
     1
102
RTVSPropertyOp4
 70
     1
102
RTVSPropertyOp5
 70
     1
102
RTVSPropertyOp6
 70
     1
102
RTVSPropertyOp7
 70
     1
102
RTVSPropertyOp8
 70
     1
102
RTVSPropertyOp9
 70
     1
102
RTVSPropertyOp10
 70
     1
102
RTVSPropertyOp11
 70
     1
102
RTVSPropertyOp12
 70
     1
102
RTVSPropertyOp13
 70
     1
102
RTVSPropertyOp14
 70
     1
102
RTVSPropertyOp15
 70
     1
102
RTVSPropertyOp16
 70
     1
102
RTVSPropertyOp17
 70
     1
102
RTVSPropertyOp18
 70
     1
102
RTVSPropertyOp19
 70
     1
102
RTVSPropertyOp20
 70
     1
102
RTVSPropertyOp21
 70
     1
102
RTVSPropertyOp22
 70
     1
102
RTVSPropertyOp23
 70
     1
102
RTVSPropertyOp24
 70
     1
102
RTVSPropertyOp25
 70
     1
102
RTVSPropertyOp26
 70
     1
102
RTVSPropertyOp27
 70
     1
  0
XRECORD
  5
20D0
102
{ACAD_REACTORS
330
20CF
102
}
330
20CF
100
AcDbXrecord
280
     1
102
RTVSPropertyOp0
 70
     0
102
RTVSPropertyOp1
 70
     0
102
RTVSPropertyOp2
 70
     0
102
RTVSPropertyOp3
 70
     0
102
RTVSPropertyOp4
 70
     0
102
RTVSPropertyOp5
 70
     0
102
RTVSPropertyOp6
 70
     0
102
RTVSPropertyOp7
 70
     0
102
RTVSPropertyOp8
 70
     0
102
RTVSPropertyOp9
 70
     0
102
RTVSPropertyOp10
 70
     0
102
RTVSPropertyOp11
 70
     0
102
RTVSPropertyOp12
 70
     0
102
RTVSPropertyOp13
 70
     0
102
RTVSPropertyOp14
 70
     2
102
RTVSPropertyOp15
 70
     0
102
RTVSPropertyOp16
 70
     0
102
RTVSPropertyOp17
 70
     0
102
RTVSPropertyOp18
 70
     0
102
RTVSPropertyOp19
 70
     0
102
RTVSPropertyOp20
 70
     0
102
RTVSPropertyOp21
 70
     0
102
RTVSPropertyOp22
 70
     0
102
RTVSPropertyOp23
 70
     0
102
RTVSPropertyOp24
 70
     0
102
RTVSPropertyOp25
 70
     0
102
RTVSPropertyOp26
 70
     0
102
RTVSPropertyOp27
 70
     0
  0
XRECORD
  5
20C0
102
{ACAD_REACTORS
330
20BF
102
}
330
20BF
100
AcDbXrecord
280
     1
102
RTVSPropertyOp0
 70
     1
102
RTVSPropertyOp1
 70
     1
102
RTVSPropertyOp2
 70
     1
102
RTVSPropertyOp3
 70
     1
102
RTVSPropertyOp4
 70
     1
102
RTVSPropertyOp5
 70
     1
102
RTVSPropertyOp6
 70
     1
102
RTVSPropertyOp7
 70
     1
102
RTVSPropertyOp8
 70
     1
102
RTVSPropertyOp9
 70
     1
102
RTVSPropertyOp10
 70
     1
102
RTVSPropertyOp11
 70
     1
102
RTVSPropertyOp12
 70
     1
102
RTVSPropertyOp13
 70
     1
102
RTVSPropertyOp14
 70
     1
102
RTVSPropertyOp15
 70
     1
102
RTVSPropertyOp16
 70
     1
102
RTVSPropertyOp17
 70
     1
102
RTVSPropertyOp18
 70
     1
102
RTVSPropertyOp19
 70
     1
102
RTVSPropertyOp20
 70
     1
102
RTVSPropertyOp21
 70
     1
102
RTVSPropertyOp22
 70
     1
102
RTVSPropertyOp23
 70
     1
102
RTVSPropertyOp24
 70
     1
102
RTVSPropertyOp25
 70
     1
102
RTVSPropertyOp26
 70
     1
102
RTVSPropertyOp27
 70
     1
  0
XRECORD
  5
20C6
102
{ACAD_REACTORS
330
20C5
102
}
330
20C5
100
AcDbXrecord
280
     1
102
RTVSPropertyOp0
 70
     1
102
RTVSPropertyOp1
 70
     1
102
RTVSPropertyOp2
 70
     1
102
RTVSPropertyOp3
 70
     1
102
RTVSPropertyOp4
 70
     1
102
RTVSPropertyOp5
 70
     1
102
RTVSPropertyOp6
 70
     1
102
RTVSPropertyOp7
 70
     1
102
RTVSPropertyOp8
 70
     1
102
RTVSPropertyOp9
 70
     1
102
RTVSPropertyOp10
 70
     1
102
RTVSPropertyOp11
 70
     1
102
RTVSPropertyOp12
 70
     1
102
RTVSPropertyOp13
 70
     1
102
RTVSPropertyOp14
 70
     1
102
RTVSPropertyOp15
 70
     1
102
RTVSPropertyOp16
 70
     1
102
RTVSPropertyOp17
 70
     1
102
RTVSPropertyOp18
 70
     1
102
RTVSPropertyOp19
 70
     1
102
RTVSPropertyOp20
 70
     1
102
RTVSPropertyOp21
 70
     1
102
RTVSPropertyOp22
 70
     1
102
RTVSPropertyOp23
 70
     1
102
RTVSPropertyOp24
 70
     1
102
RTVSPropertyOp25
 70
     1
102
RTVSPropertyOp26
 70
     1
102
RTVSPropertyOp27
 70
     1
  0
ENDSEC
  0
EOF
