  0
SECTION
  2
HEADER
  9
$ACADVER
  1
AC1015
  9
$ACADMAINTVER
 70
    20
  9
$DWGCODEPAGE
  3
ANSI_1252
  9
$INSBASE
 10
0.0
 20
0.0
 30
0.0
  9
$EXTMIN
 10
5046.476826175318
 20
2668.871328433398
 30
0.0
  9
$EXTMAX
 10
5048.286461149905
 20
2670.71725661205
 30
0.0
  9
$LIMMIN
 10
0.0
 20
0.0
  9
$LIMMAX
 10
420.0
 20
297.0
  9
$ORTHOMODE
 70
     1
  9
$REGENMODE
 70
     1
  9
$FILLMODE
 70
     1
  9
$QTEXTMODE
 70
     0
  9
$MIRRTEXT
 70
     1
  9
$LTSCALE
 40
1.0
  9
$ATTMODE
 70
     1
  9
$TEXTSIZE
 40
2.5
  9
$TRACEWID
 40
1.0
  9
$TEXTSTYLE
  7
SANINDUSA
  9
$CLAYER
  8
cotas
  9
$CELTYPE
  6
ByLayer
  9
$CECOLOR
 62
   256
  9
$CELTSCALE
 40
1.0
  9
$DISPSILH
 70
     0
  9
$DIMSCALE
 40
1.0
  9
$DIMASZ
 40
2.0
  9
$DIMEXO
 40
1.0
  9
$DIMDLI
 40
1.0
  9
$DIMRND
 40
0.0
  9
$DIMDLE
 40
0.0
  9
$DIMEXE
 40
1.0
  9
$DIMTP
 40
0.0
  9
$DIMTM
 40
0.0
  9
$DIMTXT
 40
2.0
  9
$DIMCEN
 40
0.0
  9
$DIMTSZ
 40
0.0
  9
$DIMTOL
 70
     0
  9
$DIMLIM
 70
     0
  9
$DIMTIH
 70
     0
  9
$DIMTOH
 70
     0
  9
$DIMSE1
 70
     0
  9
$DIMSE2
 70
     0
  9
$DIMTAD
 70
     1
  9
$DIMZIN
 70
     8
  9
$DIMBLK
  1

  9
$DIMASO
 70
     1
  9
$DIMSHO
 70
     1
  9
$DIMPOST
  1

  9
$DIMAPOST
  1

  9
$DIMALT
 70
     0
  9
$DIMALTD
 70
     3
  9
$DIMALTF
 40
0.03937007874016
  9
$DIMLFAC
 40
1.0
  9
$DIMTOFL
 70
     1
  9
$DIMTVP
 40
0.0
  9
$DIMTIX
 70
     0
  9
$DIMSOXD
 70
     0
  9
$DIMSAH
 70
     0
  9
$DIMBLK1
  1

  9
$DIMBLK2
  1

  9
$DIMSTYLE
  2
SANINDUSA
  9
$DIMCLRD
 70
   256
  9
$DIMCLRE
 70
   256
  9
$DIMCLRT
 70
   256
  9
$DIMTFAC
 40
1.0
  9
$DIMGAP
 40
1.0
  9
$DIMJUST
 70
     0
  9
$DIMSD1
 70
     0
  9
$DIMSD2
 70
     0
  9
$DIMTOLJ
 70
     0
  9
$DIMTZIN
 70
     8
  9
$DIMALTZ
 70
     0
  9
$DIMALTTZ
 70
     0
  9
$DIMUPT
 70
     0
  9
$DIMDEC
 70
     1
  9
$DIMTDEC
 70
     1
  9
$DIMALTU
 70
     2
  9
$DIMALTTD
 70
     3
  9
$DIMTXSTY
  7
SANINDUSA
  9
$DIMAUNIT
 70
     0
  9
$DIMADEC
 70
     1
  9
$DIMALTRND
 40
0.0
  9
$DIMAZIN
 70
     0
  9
$DIMDSEP
 70
    44
  9
$DIMATFIT
 70
     3
  9
$DIMFRAC
 70
     0
  9
$DIMLDRBLK
  1

  9
$DIMLUNIT
 70
     2
  9
$DIMLWD
 70
    -1
  9
$DIMLWE
 70
    -1
  9
$DIMTMOVE
 70
     0
  9
$LUNITS
 70
     2
  9
$LUPREC
 70
     4
  9
$SKETCHINC
 40
1.0
  9
$FILLETRAD
 40
0.0
  9
$AUNITS
 70
     0
  9
$AUPREC
 70
     0
  9
$MENU
  1
.
  9
$ELEVATION
 40
0.0
  9
$PELEVATION
 40
0.0
  9
$THICKNESS
 40
0.0
  9
$LIMCHECK
 70
     0
  9
$CHAMFERA
 40
10.0
  9
$CHAMFERB
 40
10.0
  9
$CHAMFERC
 40
20.0
  9
$CHAMFERD
 40
0.0
  9
$SKPOLY
 70
     0
  9
$TDCREATE
 40
2455824.689158889
  9
$TDUCREATE
 40
2455824.647492222
  9
$TDUPDATE
 40
2455824.693878032
  9
$TDUUPDATE
 40
2455824.652211366
  9
$TDINDWG
 40
0.0047195023
  9
$TDUSRTIMER
 40
0.0047195023
  9
$USRTIMER
 70
     1
  9
$ANGBASE
 50
0.0
  9
$ANGDIR
 70
     0
  9
$PDMODE
 70
     0
  9
$PDSIZE
 40
0.0
  9
$PLINEWID
 40
0.0
  9
$SPLFRAME
 70
     0
  9
$SPLINETYPE
 70
     6
  9
$SPLINESEGS
 70
     8
  9
$HANDSEED
  5
1993
  9
$SURFTAB1
 70
     6
  9
$SURFTAB2
 70
     6
  9
$SURFTYPE
 70
     6
  9
$SURFU
 70
     6
  9
$SURFV
 70
     6
  9
$UCSBASE
  2

  9
$UCSNAME
  2

  9
$UCSORG
 10
0.0
 20
0.0
 30
0.0
  9
$UCSXDIR
 10
1.0
 20
0.0
 30
0.0
  9
$UCSYDIR
 10
0.0
 20
1.0
 30
0.0
  9
$UCSORTHOREF
  2

  9
$UCSORTHOVIEW
 70
     0
  9
$UCSORGTOP
 10
0.0
 20
0.0
 30
0.0
  9
$UCSORGBOTTOM
 10
0.0
 20
0.0
 30
0.0
  9
$UCSORGLEFT
 10
0.0
 20
0.0
 30
0.0
  9
$UCSORGRIGHT
 10
0.0
 20
0.0
 30
0.0
  9
$UCSORGFRONT
 10
0.0
 20
0.0
 30
0.0
  9
$UCSORGBACK
 10
0.0
 20
0.0
 30
0.0
  9
$PUCSBASE
  2

  9
$PUCSNAME
  2

  9
$PUCSORG
 10
0.0
 20
0.0
 30
0.0
  9
$PUCSXDIR
 10
1.0
 20
0.0
 30
0.0
  9
$PUCSYDIR
 10
0.0
 20
1.0
 30
0.0
  9
$PUCSORTHOREF
  2

  9
$PUCSORTHOVIEW
 70
     0
  9
$PUCSORGTOP
 10
0.0
 20
0.0
 30
0.0
  9
$PUCSORGBOTTOM
 10
0.0
 20
0.0
 30
0.0
  9
$PUCSORGLEFT
 10
0.0
 20
0.0
 30
0.0
  9
$PUCSORGRIGHT
 10
0.0
 20
0.0
 30
0.0
  9
$PUCSORGFRONT
 10
0.0
 20
0.0
 30
0.0
  9
$PUCSORGBACK
 10
0.0
 20
0.0
 30
0.0
  9
$USERI1
 70
     0
  9
$USERI2
 70
     0
  9
$USERI3
 70
     0
  9
$USERI4
 70
     0
  9
$USERI5
 70
     0
  9
$USERR1
 40
0.0
  9
$USERR2
 40
0.0
  9
$USERR3
 40
0.0
  9
$USERR4
 40
0.0
  9
$USERR5
 40
0.0
  9
$WORLDVIEW
 70
     1
  9
$SHADEDGE
 70
     3
  9
$SHADEDIF
 70
    70
  9
$TILEMODE
 70
     1
  9
$MAXACTVP
 70
    64
  9
$PINSBASE
 10
0.0
 20
0.0
 30
0.0
  9
$PLIMCHECK
 70
     0
  9
$PEXTMIN
 10
1.000000000000000E+20
 20
1.000000000000000E+20
 30
1.000000000000000E+20
  9
$PEXTMAX
 10
-1.000000000000000E+20
 20
-1.000000000000000E+20
 30
-1.000000000000000E+20
  9
$PLIMMIN
 10
0.0
 20
0.0
  9
$PLIMMAX
 10
420.0
 20
297.0
  9
$UNITMODE
 70
     0
  9
$VISRETAIN
 70
     1
  9
$PLINEGEN
 70
     0
  9
$PSLTSCALE
 70
     1
  9
$TREEDEPTH
 70
  3020
  9
$CMLSTYLE
  2
Standard
  9
$CMLJUST
 70
     0
  9
$CMLSCALE
 40
20.0
  9
$PROXYGRAPHICS
 70
     1
  9
$MEASUREMENT
 70
     1
  9
$CELWEIGHT
370
    -1
  9
$ENDCAPS
280
     0
  9
$JOINSTYLE
280
     0
  9
$LWDISPLAY
290
     0
  9
$INSUNITS
 70
     4
  9
$HYPERLINKBASE
  1

  9
$STYLESHEET
  1
sanindusa.ctb
  9
$XEDIT
290
     1
  9
$CEPSNTYPE
380
     0
  9
$PSTYLEMODE
290
     1
  9
$FINGERPRINTGUID
  2
{72ED45AC-4D1F-4BF3-A269-28EF9513F614}
  9
$VERSIONGUID
  2
{290DB219-4AF8-4982-94A8-7FB5EAE8AD9A}
  9
$EXTNAMES
290
     1
  9
$PSVPSCALE
 40
0.0
  9
$OLESTARTUP
290
     0
  0
ENDSEC
  0
SECTION
  2
CLASSES
  0
CLASS
  1
ACDBDICTIONARYWDFLT
  2
AcDbDictionaryWithDefault
  3
ObjectDBX Classes
 90
        0
280
     0
281
     0
  0
CLASS
  1
ACDBPLACEHOLDER
  2
AcDbPlaceHolder
  3
ObjectDBX Classes
 90
        0
280
     0
281
     0
  0
CLASS
  1
LAYOUT
  2
AcDbLayout
  3
ObjectDBX Classes
 90
        0
280
     0
281
     0
  0
CLASS
  1
DICTIONARYVAR
  2
AcDbDictionaryVar
  3
ObjectDBX Classes
 90
        0
280
     0
281
     0
  0
CLASS
  1
DIMASSOC
  2
AcDbDimAssoc
  3
"AcDbDimAssoc|Product Desc:     AcDim ARX App For Dimension|Company:          Autodesk, Inc.|WEB Address:      www.autodesk.com"
 90
        0
280
     0
281
     0
  0
CLASS
  1
TABLESTYLE
  2
AcDbTableStyle
  3
ObjectDBX Classes
 90
     4095
280
     0
281
     0
  0
CLASS
  1
MATERIAL
  2
AcDbMaterial
  3
ObjectDBX Classes
 90
     1153
280
     0
281
     0
  0
CLASS
  1
VISUALSTYLE
  2
AcDbVisualStyle
  3
ObjectDBX Classes
 90
     4095
280
     0
281
     0
  0
CLASS
  1
SCALE
  2
AcDbScale
  3
ObjectDBX Classes
 90
     1153
280
     0
281
     0
  0
CLASS
  1
MLEADERSTYLE
  2
AcDbMLeaderStyle
  3
ACDB_MLEADERSTYLE_CLASS
 90
     4095
280
     0
281
     0
  0
CLASS
  1
AEC_REFEDIT_STATUS_TRACKER
  2
AecDbRefEditStatusTracker
  3
AecArchBase60|Product Desc: Autodesk Architectural Desktop 2007 |Company: Autodesk,Inc. |WEB Address: www.autodesk.com
 90
      129
280
     0
281
     0
  0
CLASS
  1
NPOCOLLECTION
  2
AcDbImpNonPersistentObjectsCollection
  3
ObjectDBX Classes
 90
     1153
280
     0
281
     0
  0
CLASS
  1
CELLSTYLEMAP
  2
AcDbCellStyleMap
  3
ObjectDBX Classes
 90
     1152
280
     0
281
     0
  0
ENDSEC
  0
SECTION
  2
TABLES
  0
TABLE
  2
VPORT
  5
8
330
0
100
AcDbSymbolTable
 70
     1
  0
VPORT
  5
1068
330
8
100
AcDbSymbolTableRecord
100
AcDbViewportTableRecord
  2
*Active
 70
     0
 10
0.0
 20
0.0
 11
1.0
 21
1.0
 12
5047.381643662612
 22
2669.794292522724
 13
0.0
 23
0.0
 14
10.0
 24
10.0
 15
10.0
 25
10.0
 16
0.0
 26
0.0
 36
1.0
 17
0.0
 27
0.0
 37
0.0
 40
1.857465229769331
 41
1.645464025026068
 42
50.0
 43
0.0
 44
0.0
 50
0.0
 51
0.0
 71
     0
 72
   100
 73
     1
 74
     2
 75
     0
 76
     0
 77
     0
 78
     0
281
     0
 65
     1
110
0.0
120
0.0
130
0.0
111
1.0
121
0.0
131
0.0
112
0.0
122
1.0
132
0.0
 79
     0
146
0.0
  0
ENDTAB
  0
TABLE
  2
LTYPE
  5
5
330
0
100
AcDbSymbolTable
 70
     5
  0
LTYPE
  5
14
330
5
100
AcDbSymbolTableRecord
100
AcDbLinetypeTableRecord
  2
ByBlock
 70
     0
  3

 72
    65
 73
     0
 40
0.0
  0
LTYPE
  5
15
330
5
100
AcDbSymbolTableRecord
100
AcDbLinetypeTableRecord
  2
ByLayer
 70
     0
  3

 72
    65
 73
     0
 40
0.0
  0
LTYPE
  5
16
330
5
100
AcDbSymbolTableRecord
100
AcDbLinetypeTableRecord
  2
Continuous
 70
     0
  3
Solid line
 72
    65
 73
     0
 40
0.0
  0
LTYPE
  5
2D
330
5
100
AcDbSymbolTableRecord
100
AcDbLinetypeTableRecord
  2
DASHDOT
 70
     0
  3
Dash dot __ . __ . __ . __ . __ . __ . __ . __
 72
    65
 73
     4
 40
25.4
 49
12.7
 74
     0
 49
-6.349999999999999
 74
     0
 49
0.0
 74
     0
 49
-6.349999999999999
 74
     0
  0
LTYPE
  5
2E
330
5
100
AcDbSymbolTableRecord
100
AcDbLinetypeTableRecord
  2
HIDDEN
 70
     0
  3
Hidden __ __ __ __ __ __ __ __ __ __ __ __ __ _
 72
    65
 73
     2
 40
9.524999999999998
 49
6.349999999999999
 74
     0
 49
-3.174999999999999
 74
     0
  0
LTYPE
  5
C75
330
5
100
AcDbSymbolTableRecord
100
AcDbLinetypeTableRecord
  2
AM_ISO02W050
 70
     0
  3
__ __ __ __ __ __ __ __ __ __ __ __ __ __ __
 72
    65
 73
     2
 40
7.5
 49
6.0
 74
     0
 49
-1.5
 74
     0
  0
LTYPE
  5
C76
330
5
100
AcDbSymbolTableRecord
100
AcDbLinetypeTableRecord
  2
AM_ISO08W050
 70
     0
  3
____ . ____ . ____ . ____ . ____ . ____ . ____
 72
    65
 73
     4
 40
18.0
 49
12.0
 74
     0
 49
-1.5
 74
     0
 49
3.0
 74
     0
 49
-1.5
 74
     0
  0
ENDTAB
  0
TABLE
  2
LAYER
  5
2
102
{ACAD_XDICTIONARY
360
1051
102
}
330
0
100
AcDbSymbolTable
 70
    21
  0
LAYER
  5
10
102
{ACAD_XDICTIONARY
360
18F1
102
}
330
2
100
AcDbSymbolTableRecord
100
AcDbLayerTableRecord
  2
0
 70
     0
 62
     7
  6
Continuous
370
    -3
390
F
  0
LAYER
  5
2F
102
{ACAD_XDICTIONARY
360
18F3
102
}
330
2
100
AcDbSymbolTableRecord
100
AcDbLayerTableRecord
  2
1
 70
     0
 62
     1
  6
Continuous
370
    -3
390
F
  0
LAYER
  5
30
102
{ACAD_XDICTIONARY
360
18F5
102
}
330
2
100
AcDbSymbolTableRecord
100
AcDbLayerTableRecord
  2
2
 70
     0
 62
     2
  6
Continuous
370
    -3
390
F
  0
LAYER
  5
31
102
{ACAD_XDICTIONARY
360
18F7
102
}
330
2
100
AcDbSymbolTableRecord
100
AcDbLayerTableRecord
  2
3
 70
     0
 62
     3
  6
Continuous
370
    -3
390
F
  0
LAYER
  5
32
102
{ACAD_XDICTIONARY
360
18F9
102
}
330
2
100
AcDbSymbolTableRecord
100
AcDbLayerTableRecord
  2
4
 70
     0
 62
     4
  6
Continuous
370
    -3
390
F
  0
LAYER
  5
33
102
{ACAD_XDICTIONARY
360
18FB
102
}
330
2
100
AcDbSymbolTableRecord
100
AcDbLayerTableRecord
  2
5
 70
     0
 62
     5
  6
Continuous
370
    -3
390
F
  0
LAYER
  5
34
102
{ACAD_XDICTIONARY
360
18FD
102
}
330
2
100
AcDbSymbolTableRecord
100
AcDbLayerTableRecord
  2
6
 70
     0
 62
     6
  6
Continuous
370
    -3
390
F
  0
LAYER
  5
35
102
{ACAD_XDICTIONARY
360
18FF
102
}
330
2
100
AcDbSymbolTableRecord
100
AcDbLayerTableRecord
  2
7
 70
     0
 62
     7
  6
Continuous
370
    -3
390
F
  0
LAYER
  5
36
102
{ACAD_XDICTIONARY
360
1901
102
}
330
2
100
AcDbSymbolTableRecord
100
AcDbLayerTableRecord
  2
cen
 70
     0
 62
     7
  6
DASHDOT
370
    -3
390
F
  0
LAYER
  5
37
102
{ACAD_XDICTIONARY
360
1903
102
}
330
2
100
AcDbSymbolTableRecord
100
AcDbLayerTableRecord
  2
hid
 70
     0
 62
     7
  6
HIDDEN
370
    -3
390
F
  0
LAYER
  5
5D6
102
{ACAD_XDICTIONARY
360
1905
102
}
330
2
100
AcDbSymbolTableRecord
100
AcDbLayerTableRecord
  2
hatch
 70
     0
 62
     9
  6
Continuous
370
    -3
390
F
  0
LAYER
  5
8AF
102
{ACAD_XDICTIONARY
360
1907
102
}
330
2
100
AcDbSymbolTableRecord
100
AcDbLayerTableRecord
  2
9
 70
     0
 62
     9
  6
Continuous
370
    -3
390
F
  0
LAYER
  5
8F8
102
{ACAD_XDICTIONARY
360
1909
102
}
330
2
100
AcDbSymbolTableRecord
100
AcDbLayerTableRecord
  2
leg fin
 70
     0
 62
     9
  6
Continuous
370
    -3
390
F
  0
LAYER
  5
91D
102
{ACAD_XDICTIONARY
360
190B
102
}
330
2
100
AcDbSymbolTableRecord
100
AcDbLayerTableRecord
  2
cotas
 70
     0
 62
     1
  6
Continuous
370
    -3
390
F
  0
LAYER
  5
92F
330
2
100
AcDbSymbolTableRecord
100
AcDbLayerTableRecord
  2
Defpoints
 70
     0
 62
     7
  6
Continuous
290
     0
370
    -3
390
F
  0
LAYER
  5
C7B
102
{ACAD_XDICTIONARY
360
190D
102
}
330
2
100
AcDbSymbolTableRecord
100
AcDbLayerTableRecord
  2
SANINDUSA
 70
     0
 62
     3
  6
Continuous
370
    -3
390
F
  0
LAYER
  5
1060
102
{ACAD_XDICTIONARY
360
190F
102
}
330
2
100
AcDbSymbolTableRecord
100
AcDbLayerTableRecord
  2
hid1
 70
     0
 62
     9
  6
HIDDEN
370
    -3
390
F
1001
AcAecLayerStandard
1000

1000

  0
LAYER
  5
10B3
102
{ACAD_XDICTIONARY
360
1911
102
}
330
2
100
AcDbSymbolTableRecord
100
AcDbLayerTableRecord
  2
PROFILI
 70
     0
 62
     7
  6
Continuous
370
     9
390
F
  0
LAYER
  5
10B4
102
{ACAD_XDICTIONARY
360
1913
102
}
330
2
100
AcDbSymbolTableRecord
100
AcDbLayerTableRecord
  2
VETRI
 70
     0
 62
     7
  6
Continuous
370
     9
390
F
  0
LAYER
  5
10B5
102
{ACAD_XDICTIONARY
360
1915
102
}
330
2
100
AcDbSymbolTableRecord
100
AcDbLayerTableRecord
  2
GUARNIZIONI
 70
     0
 62
     7
  6
Continuous
370
     9
390
F
  0
LAYER
  5
10B6
102
{ACAD_XDICTIONARY
360
1917
102
}
330
2
100
AcDbSymbolTableRecord
100
AcDbLayerTableRecord
  2
TAPPI
 70
     0
 62
     7
  6
Continuous
370
     9
390
F
  0
ENDTAB
  0
TABLE
  2
STYLE
  5
3
330
0
100
AcDbSymbolTable
 70
     4
  0
STYLE
  5
11
330
3
100
AcDbSymbolTableRecord
100
AcDbTextStyleTableRecord
  2
Standard
 70
     0
 40
0.0
 41
1.0
 50
0.0
 71
     0
 42
2.5
  3
Avgardn.ttf
  4

1001
ACAD
1000
AvantGarde Bk BT
1071
       34
  0
STYLE
  5
2C
330
3
100
AcDbSymbolTableRecord
100
AcDbTextStyleTableRecord
  2

 70
     1
 40
0.0
 41
1.0
 50
0.0
 71
     0
 42
2.5
  3
ltypeshp.shx
  4

  0
STYLE
  5
91F
330
3
100
AcDbSymbolTableRecord
100
AcDbTextStyleTableRecord
  2
SANINDUSA
 70
     0
 40
0.0
 41
1.0
 50
0.0
 71
     0
 42
2.5
  3
verdana.TTF
  4

1001
ACAD
1000
Verdana
1071
       34
  0
STYLE
  5
C7C
330
3
100
AcDbSymbolTableRecord
100
AcDbTextStyleTableRecord
  2
futura
 70
     0
 40
0.0
 41
1.0
 50
0.0
 71
     0
 42
2.5
  3
ZURCHN.TTF
  4

1001
ACAD
1000
Zurich BT
1071
       34
  0
ENDTAB
  0
TABLE
  2
VIEW
  5
6
330
0
100
AcDbSymbolTable
 70
     0
  0
ENDTAB
  0
TABLE
  2
UCS
  5
7
330
0
100
AcDbSymbolTable
 70
     0
  0
ENDTAB
  0
TABLE
  2
APPID
  5
9
330
0
100
AcDbSymbolTable
 70
    15
  0
APPID
  5
12
330
9
100
AcDbSymbolTableRecord
100
AcDbRegAppTableRecord
  2
ACAD
 70
     0
  0
APPID
  5
3A
330
9
100
AcDbSymbolTableRecord
100
AcDbRegAppTableRecord
  2
DCO15
 70
     0
  0
APPID
  5
EEE
330
9
100
AcDbSymbolTableRecord
100
AcDbRegAppTableRecord
  2
ACAD_DSTYLE_DIMTEXT_FILL
 70
     0
  0
APPID
  5
EEF
330
9
100
AcDbSymbolTableRecord
100
AcDbRegAppTableRecord
  2
ACAD_DSTYLE_DIMEXT_LENGTH
 70
     0
  0
APPID
  5
EF0
330
9
100
AcDbSymbolTableRecord
100
AcDbRegAppTableRecord
  2
ACAD_DSTYLE_DIMEXT_ENABLED
 70
     0
  0
APPID
  5
EF1
330
9
100
AcDbSymbolTableRecord
100
AcDbRegAppTableRecord
  2
ACAD_DSTYLE_DIM_LINETYPE
 70
     0
  0
APPID
  5
EF2
330
9
100
AcDbSymbolTableRecord
100
AcDbRegAppTableRecord
  2
ACAD_DSTYLE_DIM_EXT1_LINETYPE
 70
     0
  0
APPID
  5
EF3
330
9
100
AcDbSymbolTableRecord
100
AcDbRegAppTableRecord
  2
ACAD_DSTYLE_DIM_EXT2_LINETYPE
 70
     0
  0
APPID
  5
FAF
330
9
100
AcDbSymbolTableRecord
100
AcDbRegAppTableRecord
  2
ACAD_DSTYLE_DIMJOGGED_JOGANGLE_SYMBOL
 70
     0
  0
APPID
  5
1013
330
9
100
AcDbSymbolTableRecord
100
AcDbRegAppTableRecord
  2
ACAD_DSTYLE_DIMARC_LENGTH_SYMBOL
 70
     0
  0
APPID
  5
1061
330
9
100
AcDbSymbolTableRecord
100
AcDbRegAppTableRecord
  2
AcAecLayerStandard
 70
     0
  0
APPID
  5
10B7
330
9
100
AcDbSymbolTableRecord
100
AcDbRegAppTableRecord
  2
GENIUS_GENREC_14
 70
     0
  0
APPID
  5
10B8
330
9
100
AcDbSymbolTableRecord
100
AcDbRegAppTableRecord
  2
GENIUS_GENODEF_13
 70
     0
  0
APPID
  5
10B9
330
9
100
AcDbSymbolTableRecord
100
AcDbRegAppTableRecord
  2
GENIUS_GENOBJ-N-REC_13
 70
     0
  0
APPID
  5
1992
330
9
100
AcDbSymbolTableRecord
100
AcDbRegAppTableRecord
  2
ACAD_MLEADERVER
 70
     0
  0
ENDTAB
  0
TABLE
  2
DIMSTYLE
  5
A
330
0
100
AcDbSymbolTable
 70
     3
100
AcDbDimStyleTable
 71
     1
340
921
  0
DIMSTYLE
105
45
330
A
100
AcDbSymbolTableRecord
100
AcDbDimStyleTableRecord
  2
STANDARD
 70
     0
289
     0
340
11
  0
DIMSTYLE
105
921
330
A
100
AcDbSymbolTableRecord
100
AcDbDimStyleTableRecord
  2
SANINDUSA
 70
     0
 41
2.0
 42
1.0
 43
1.0
 44
1.0
 73
     0
 74
     0
 77
     1
 78
     8
140
2.0
141
0.0
143
0.03937007874016
147
1.0
171
     3
172
     1
176
   256
177
   256
178
   256
179
     1
271
     1
272
     1
274
     3
278
    44
283
     0
284
     8
340
91F
371
    -1
372
    -1
1001
ACAD_DSTYLE_DIMJOGGED_JOGANGLE_SYMBOL
1070
   384
1040
1.570796326794896
  0
DIMSTYLE
105
C7D
330
A
100
AcDbSymbolTableRecord
100
AcDbDimStyleTableRecord
  2
AM_ISO
 70
     0
  4
"
 41
2.5
 42
1.0
 43
10.0
 44
1.0
 47
0.1
 48
0.1
 73
     0
 74
     0
 77
     1
 78
     8
 79
     2
140
3.5
141
0.0
143
0.0393701
146
0.71
147
1.5
172
     1
176
   256
177
   256
178
     2
271
     2
272
     3
274
     4
283
     0
284
     8
340
11
371
    -1
372
    -1
  0
ENDTAB
  0
TABLE
  2
BLOCK_RECORD
  5
1
330
0
100
AcDbSymbolTable
 70
     9
  0
BLOCK_RECORD
  5
1F
330
1
100
AcDbSymbolTableRecord
100
AcDbBlockTableRecord
  2
*Model_Space
340
22
  0
BLOCK_RECORD
  5
1B
330
1
100
AcDbSymbolTableRecord
100
AcDbBlockTableRecord
  2
*Paper_Space
340
1E
  0
BLOCK_RECORD
  5
23
330
1
100
AcDbSymbolTableRecord
100
AcDbBlockTableRecord
  2
*Paper_Space0
340
26
  0
BLOCK_RECORD
  5
919
330
1
100
AcDbSymbolTableRecord
100
AcDbBlockTableRecord
  2
_DotSmall
340
0
  0
BLOCK_RECORD
  5
922
330
1
100
AcDbSymbolTableRecord
100
AcDbBlockTableRecord
  2
base para cotas
340
0
310
2800000020000000200000000100080000000000000400000000000000000000000000000000000000000000000080000080000000808000800000008000800080800000C0C0C000C0DCC000F0CAA6000020400000206000002080000020A0000020C0000020E00000400000004020000040400000406000004080000040A0
310
000040C0000040E00000600000006020000060400000606000006080000060A0000060C0000060E00000800000008020000080400000806000008080000080A0000080C0000080E00000A0000000A0200000A0400000A0600000A0800000A0A00000A0C00000A0E00000C0000000C0200000C0400000C0600000C0800000C0
310
A00000C0C00000C0E00000E0000000E0200000E0400000E0600000E0800000E0A00000E0C00000E0E00040000000400020004000400040006000400080004000A0004000C0004000E00040200000402020004020400040206000402080004020A0004020C0004020E000404000004040200040404000404060004040800040
310
40A0004040C0004040E00040600000406020004060400040606000406080004060A0004060C0004060E00040800000408020004080400040806000408080004080A0004080C0004080E00040A0000040A0200040A0400040A0600040A0800040A0A00040A0C00040A0E00040C0000040C0200040C0400040C0600040C08000
310
40C0A00040C0C00040C0E00040E0000040E0200040E0400040E0600040E0800040E0A00040E0C00040E0E00080000000800020008000400080006000800080008000A0008000C0008000E00080200000802020008020400080206000802080008020A0008020C0008020E00080400000804020008040400080406000804080
310
008040A0008040C0008040E00080600000806020008060400080606000806080008060A0008060C0008060E00080800000808020008080400080806000808080008080A0008080C0008080E00080A0000080A0200080A0400080A0600080A0800080A0A00080A0C00080A0E00080C0000080C0200080C0400080C0600080C0
310
800080C0A00080C0C00080C0E00080E0000080E0200080E0400080E0600080E0800080E0A00080E0C00080E0E000C0000000C0002000C0004000C0006000C0008000C000A000C000C000C000E000C0200000C0202000C0204000C0206000C0208000C020A000C020C000C020E000C0400000C0402000C0404000C0406000C0
310
408000C040A000C040C000C040E000C0600000C0602000C0604000C0606000C0608000C060A000C060C000C060E000C0800000C0802000C0804000C0806000C0808000C080A000C080C000C080E000C0A00000C0A02000C0A04000C0A06000C0A08000C0A0A000C0A0C000C0A0E000C0C00000C0C02000C0C04000C0C06000
310
C0C08000C0C0A000F0FBFF00A4A0A000808080000000FF0000FF000000FFFF00FF000000FF00FF00FFFF0000FFFFFF00A4A4A4A4A4A4A4A4A4A4A4A4A4A4A4A4A4A4A4A4A4A4A4A4A4A4A4A4A4A4A4A4A4A4A4A4A4A4A4A4A4A4A4A4A4A4A4A4A4A4A4A4A4A4A4A4A4A4A4A4A4A4A4A4A4A4A4A4A4A4A4A4A4A4A4A4A4A4A4
310
A4A4A4A4A4A4A4A4A4A4A4A4A4A4A4A4A4A4A4A4A4A4A4A4A4A4A4A4A4A4A4A4A4A4A4A4A4A4A4A4A4A4A4A4A4A4A4A4A4A4A4A4A4A4A4A4A4A4A4A4A4A4A4A4A4A4A4A4A4A4A4A4A4A4A4A4A4A4A4A4A4A4A4A4A4A4A4A4A4A4A4A4A4A4A4A4A4A4A4A4A4A4A4A4A4A4A4A4A4A4A4A4A4A4A4A4A4A4A4A4A4A4A4A4A4A4A4
310
A4A4A4A4A4A4A4A4A4A4A4A4A4A4A4A4A4A4A4A4A4A4A4A4A4A4A4A4A4A4A4A4A4A4A4A4A4A4A4A4A4A4A4A4A4A4A4A4A4A4A4A4A4A4A4A4A4A4A4A4A4A4A4A4A4A4A4A4A4A4A4A4A4A4A4A4A4A4A4A4A4A4A4A4A4A4A4A4A4A4A4A4A4A4A4A4A4A4A4A4A4A4A4A4A4A4A4A4A4A4A4A4A4A4A4A4A4A4A4A4A4A4A4A4A4A4A4
310
A4A4A4A4A4A4A4A4A4A4A4A4A4A4A4A4A4A4A4A4A4A4A4A4A4A4A4A4A4A4A4A4A4A4A4A4A4A4A4A4A4A4A4A4A4A4A4A4A4A4A4A4A4A4A4A4A4A4A4A4A4A4A4A4A4A4A4A4A4A4A4A4A4A4A4A4A4A4A4A4A4A4A4A4A4A4A4A4A4A4A4A4A4A4A4A4A4A4A4A4A4A4A4A4A4A4A4A4A4A4A4A4A4A4A4A4F9F9F9F9F9F9F9F9F9F9F9
310
F9F9F9F9F9F9F9F9F9F9F9F9F9F9F9F9F9F9F9A4A4F9F9F9F9F9F9F9F9F9F9F9F9F9F9F9F9F9F9F9F9F9F9F9F9F9F9F9F9F9F9A4A4F9F9F9F9F9F9F9F9F9F9F9F9F9F9F9F9F9F9F9F9F9F9F9F9F9F9F9F9F9F9A4A4F9A4A4A4A4A4A4A4A4A4A4A4A4A4A4A4A4A4A4A4A4A4A4A4A4A4A4A4A4F9A4A4A4A4A4A4A4A4A4A4A4A4
310
A4A4A4A4A4A4A4A4A4A4A4A4A4A4A4A4A4A4A4A4A4A4A4A4A4A4A4A4A4A4A4A4A4A4A4A4A4A4A4A4A4A4A4A4A4A4A4A4A4A4A4A4A4A4A4A4A4A4A4A4A4A4A4A4A4A4A4A4A4A4A4A4A4A4A4A4A4A4A4A4A4A4A4A4A4A4A4A4A4A4A4A4A4A4A4A4A4A4A4A4A4A4A4A4A4A4A4A4A4A4A4A4A4A4A4A4A4A4A4A4A4A4A4A4A4A4A4
310
A4A4A4A4A4A4A4A4A4A4A4A4A4A4A4A4A4A4A4A4A4A4A4A4A4A4A4A4A4A4A4A4A4A4A4A4A4A4A4A4A4A4A4A4A4A4A4A4A4A4A4A4A4A4A4A4A4A4A4A4A4A4A4A4A4A4A4A4A4A4A4A4A4A4A4A4A4A4A4A4A4A4A4A4A4A4A4A4A4A4A4A4A4A4A4A4A4A4A4A4A4A4A4A4A4A4A4A4A4A4A4A4A4A4A4A4A4A4A4A4A4A4A4A4A4A4A4
310
A4A4A4A4A4A4A4A4A4A4A4A4A4A4A4A4A4A4A4A4A4A4A4A4A4A4A4A4A4A4A4A4A4A4A4A4A4A4A4A4A4A4A4A4A4A4A4A4A4A4A4A4A4A4A4A4A4A4A4A4A4A4A4A4A4A4A4A4A4A4A4A4A4A4A4A4A4A4A4A4A4A4A4A4A4A4A4A4A4A4A4A4A4A4A4A4A4A4A4A4A4A4A4A4A4A4A4A4A4A4A4A4A4A4A4A4A4A4A4A4A4A4A4A4A4A4A4
310
A4A4A4A4A4A4A4A4A4A4A4A4A4A4A4A4A4A4A4A4A4A4A4A4A4A4A4A4A4A4A4A4A4A4A4A4A4A4A4A4A4A4A4A4A4A4A4A4A4A4A4A4A4A4A4A4
1001
ACAD
1000
DesignCenter Data
1002
{
1070
     1
1070
     4
1002
}
  0
BLOCK_RECORD
  5
AA8
330
1
100
AcDbSymbolTableRecord
100
AcDbBlockTableRecord
  2
_CLOSED
340
0
  0
BLOCK_RECORD
  5
B79
330
1
100
AcDbSymbolTableRecord
100
AcDbBlockTableRecord
  2
nota revisoes
340
0
1001
ACAD
1000
DesignCenter Data
1002
{
1070
     1
1070
     4
1002
}
  0
BLOCK_RECORD
  5
B8E
330
1
100
AcDbSymbolTableRecord
100
AcDbBlockTableRecord
  2
a3l
340
0
1001
ACAD
1000
DesignCenter Data
1002
{
1070
     1
1070
     4
1002
}
  0
BLOCK_RECORD
  5
B9E
330
1
100
AcDbSymbolTableRecord
100
AcDbBlockTableRecord
  2
legenda desenvolvimento
340
0
1001
ACAD
1000
DesignCenter Data
1002
{
1070
     1
1070
     4
1002
}
  0
BLOCK_RECORD
  5
18DA
330
1
100
AcDbSymbolTableRecord
100
AcDbBlockTableRecord
  2
*D8
340
0
  0
ENDTAB
  0
ENDSEC
  0
SECTION
  2
BLOCKS
  0
BLOCK
  5
20
330
1F
100
AcDbEntity
  8
0
100
AcDbBlockBegin
  2
*Model_Space
 70
     0
 10
0.0
 20
0.0
 30
0.0
  3
*Model_Space
  1

  0
ENDBLK
  5
21
330
1F
100
AcDbEntity
  8
0
100
AcDbBlockEnd
  0
BLOCK
  5
1C
330
1B
100
AcDbEntity
 67
     1
  8
0
100
AcDbBlockBegin
  2
*Paper_Space
 70
     0
 10
0.0
 20
0.0
 30
0.0
  3
*Paper_Space
  1

  0
ENDBLK
  5
1D
330
1B
100
AcDbEntity
 67
     1
  8
0
100
AcDbBlockEnd
  0
BLOCK
  5
24
330
23
100
AcDbEntity
 67
     1
  8
0
100
AcDbBlockBegin
  2
*Paper_Space0
 70
     0
 10
0.0
 20
0.0
 30
0.0
  3
*Paper_Space0
  1

  0
ENDBLK
  5
25
330
23
100
AcDbEntity
 67
     1
  8
0
100
AcDbBlockEnd
  0
BLOCK
  5
91B
330
919
100
AcDbEntity
  8
0
100
AcDbBlockBegin
  2
_DotSmall
 70
     0
 10
0.0
 20
0.0
 30
0.0
  3
_DotSmall
  1

  0
LWPOLYLINE
  5
91A
330
919
100
AcDbEntity
  8
0
  6
ByBlock
 62
     0
100
AcDbPolyline
 90
        2
 70
     1
 43
0.5
 10
-0.0625
 20
0.0
 42
1.0
 10
0.0625
 20
0.0
 42
1.0
  0
ENDBLK
  5
91C
330
919
100
AcDbEntity
  8
0
100
AcDbBlockEnd
  0
BLOCK
  5
92A
330
922
100
AcDbEntity
  8
0
100
AcDbBlockBegin
  2
base para cotas
 70
     0
 10
0.0
 20
0.0
 30
0.0
  3
base para cotas
  1

  0
LINE
  5
B36
330
922
100
AcDbEntity
  8
cotas
100
AcDbLine
 10
0.0
 20
-30.0
 30
0.0
 11
327.1260136525398
 21
-30.0
 31
0.0
  0
LINE
  5
B37
330
922
100
AcDbEntity
  8
cotas
100
AcDbLine
 10
0.0
 20
-25.0
 30
0.0
 11
327.1260136525398
 21
-25.0
 31
0.0
  0
LINE
  5
B38
330
922
100
AcDbEntity
  8
cotas
100
AcDbLine
 10
0.0
 20
-20.0
 30
0.0
 11
327.1260136525398
 21
-20.0
 31
0.0
  0
LINE
  5
B39
330
922
100
AcDbEntity
  8
cotas
100
AcDbLine
 10
0.0
 20
-15.0
 30
0.0
 11
327.1260136525398
 21
-15.0
 31
0.0
  0
LINE
  5
B3A
330
922
100
AcDbEntity
  8
cotas
100
AcDbLine
 10
0.0
 20
-10.0
 30
0.0
 11
327.1260136525398
 21
-10.0
 31
0.0
  0
LINE
  5
B3B
330
922
100
AcDbEntity
  8
cotas
100
AcDbLine
 10
0.0
 20
0.0
 30
0.0
 11
0.0
 21
-30.0
 31
0.0
  0
LINE
  5
B3C
330
922
100
AcDbEntity
  8
cotas
100
AcDbLine
 10
327.1260136525398
 20
-30.0
 30
0.0
 11
327.1260136525398
 21
0.0
 31
0.0
  0
ENDBLK
  5
92B
330
922
100
AcDbEntity
  8
0
100
AcDbBlockEnd
  0
BLOCK
  5
AAD
330
AA8
100
AcDbEntity
  8
0
100
AcDbBlockBegin
  2
_CLOSED
 70
     0
 10
0.0
 20
0.0
 30
0.0
  3
_CLOSED
  1

  0
LINE
  5
AA9
330
AA8
100
AcDbEntity
  8
0
100
AcDbLine
 10
-1.0
 20
0.166667
 30
0.0
 11
0.0
 21
0.0
 31
0.0
  0
LINE
  5
AAA
330
AA8
100
AcDbEntity
  8
0
100
AcDbLine
 10
0.0
 20
0.0
 30
0.0
 11
-1.0
 21
-0.166667
 31
0.0
  0
LINE
  5
AAB
330
AA8
100
AcDbEntity
  8
0
100
AcDbLine
 10
-1.0
 20
0.166667
 30
0.0
 11
-1.0
 21
-0.166667
 31
0.0
  0
LINE
  5
AAC
330
AA8
100
AcDbEntity
  8
0
100
AcDbLine
 10
0.0
 20
0.0
 30
0.0
 11
-1.0
 21
0.0
 31
0.0
  0
ENDBLK
  5
AAE
330
AA8
100
AcDbEntity
  8
0
100
AcDbBlockEnd
  0
BLOCK
  5
B7C
330
B79
100
AcDbEntity
  8
0
100
AcDbBlockBegin
  2
nota revisoes
 70
     0
 10
0.0
 20
0.0
 30
0.0
  3
nota revisoes
  1

  0
CIRCLE
  5
B7A
330
B79
100
AcDbEntity
  8
4
100
AcDbCircle
 10
0.0
 20
0.0
 30
0.0
 40
13.69426055101189
  0
TEXT
  5
B7B
330
B79
100
AcDbEntity
  8
4
100
AcDbText
 10
-5.496248358154345
 20
-5.354545554066362
 30
0.0
 40
12.0
  1
1
  7
SANINDUSA
 72
     1
 11
-0.249774214433728
 21
-5.354545554066362
 31
0.0
100
AcDbText
  0
ENDBLK
  5
B7D
330
B79
100
AcDbEntity
  8
0
100
AcDbBlockEnd
  0
BLOCK
  5
B9C
330
B8E
100
AcDbEntity
  8
0
100
AcDbBlockBegin
  2
a3l
 70
     0
 10
0.0
 20
0.0
 30
0.0
  3
a3l
  1

  0
LINE
  5
B8F
330
B8E
100
AcDbEntity
  8
1
100
AcDbLine
 10
-364.2925296599447
 20
-362.1188951399395
 30
0.0
 11
-364.2925296599447
 21
-65.11889513993946
 31
0.0
  0
LINE
  5
B90
330
B8E
100
AcDbEntity
  8
4
100
AcDbLine
 10
-369.2925296599447
 20
-357.1188951399395
 30
0.0
 11
-369.2925296599447
 21
-70.11889513993946
 31
0.0
  0
LINE
  5
B91
330
B8E
100
AcDbEntity
  8
1
100
AcDbLine
 10
-784.2925296599446
 20
-65.11889513993946
 30
0.0
 11
-784.2925296599446
 21
-362.1188951399395
 31
0.0
  0
LINE
  5
B92
330
B8E
100
AcDbEntity
  8
4
100
AcDbLine
 10
-759.2925296599446
 20
-357.1188951399395
 30
0.0
 11
-759.2925296599446
 21
-70.11889513993946
 31
0.0
  0
LINE
  5
B93
330
B8E
100
AcDbEntity
  8
1
100
AcDbLine
 10
-784.2925296599446
 20
-362.1188951399395
 30
0.0
 11
-364.2925296599447
 21
-362.1188951399395
 31
0.0
  0
LINE
  5
B94
330
B8E
100
AcDbEntity
  8
4
100
AcDbLine
 10
-759.2925296599446
 20
-357.1188951399395
 30
0.0
 11
-369.2925296599447
 21
-357.1188951399395
 31
0.0
  0
LINE
  5
B95
330
B8E
100
AcDbEntity
  8
1
100
AcDbLine
 10
-654.2925296599446
 20
-357.1188951399395
 30
0.0
 11
-654.2925296599446
 21
-362.1188951399395
 31
0.0
  0
LINE
  5
B96
330
B8E
100
AcDbEntity
  8
1
100
AcDbLine
 10
-364.2925296599447
 20
-65.11889513993946
 30
0.0
 11
-784.2925296599446
 21
-65.11889513993946
 31
0.0
  0
LINE
  5
B97
330
B8E
100
AcDbEntity
  8
4
100
AcDbLine
 10
-369.2925296599447
 20
-70.11889513993946
 30
0.0
 11
-759.2925296599446
 21
-70.11889513993946
 31
0.0
  0
LINE
  5
B98
330
B8E
100
AcDbEntity
  8
1
100
AcDbLine
 10
-654.2925296599446
 20
-65.11889513993946
 30
0.0
 11
-654.2925296599446
 21
-70.11889513993946
 31
0.0
  0
LINE
  5
B99
330
B8E
100
AcDbEntity
  8
1
100
AcDbLine
 10
-549.2925296599446
 20
-70.11889513993946
 30
0.0
 11
-549.2925296599446
 21
-65.11889513993946
 31
0.0
  0
LINE
  5
B9A
330
B8E
100
AcDbEntity
  8
1
100
AcDbLine
 10
-369.2925296599447
 20
-65.11889513993946
 30
0.0
 11
-364.2925296599447
 21
-65.11889513993946
 31
0.0
  0
LINE
  5
B9B
330
B8E
100
AcDbEntity
  8
1
100
AcDbLine
 10
-549.2925296599446
 20
-357.1188951399395
 30
0.0
 11
-549.2925296599446
 21
-362.1188951399395
 31
0.0
  0
ENDBLK
  5
B9D
330
B8E
100
AcDbEntity
  8
0
100
AcDbBlockEnd
  0
BLOCK
  5
C13
330
B9E
100
AcDbEntity
  8
0
100
AcDbBlockBegin
  2
legenda desenvolvimento
 70
     2
 10
0.0
 20
0.0
 30
0.0
  3
legenda desenvolvimento
  1

  0
ATTDEF
  5
B9F
330
B9E
100
AcDbEntity
  8
1
100
AcDbText
 10
-108.606245802552
 20
55.5
 30
0.0
 40
4.0
  1
XXXXXXXXXXXXXX
 41
0.8
  7
SANINDUSA
 72
     4
 11
-87.5
 21
57.5
 31
0.0
100
AcDbAttributeDefinition
  3
Nome do Produto:
  2
PRODUTO
 70
     0
  0
ATTDEF
  5
BA0
330
B9E
100
AcDbEntity
  8
1
100
AcDbText
 10
-97.9997966101695
 20
41.25
 30
0.0
 40
3.0
  1
XXXXXXXXX
 41
0.8
  7
futura
 72
     4
 11
-87.5
 21
42.75
 31
0.0
100
AcDbAttributeDefinition
  3
Nome da Peça:
  2
PECA
 70
     0
  0
ATTDEF
  5
BA1
330
B9E
100
AcDbEntity
  8
1
100
AcDbText
 10
-133.4422431161853
 20
21.11745296763252
 30
0.0
 40
2.5
  1
X
 41
0.8
  7
SANINDUSA
 72
     4
 11
-132.5
 21
22.36745296763252
 31
0.0
100
AcDbAttributeDefinition
  3
Cod. TESTE:
  2
TESTE
 70
     0
  0
ATTDEF
  5
BA2
330
B9E
100
AcDbEntity
  8
1
100
AcDbText
 10
-124.3844862323707
 20
21.11745296763252
 30
0.0
 40
2.5
  1
XX
 41
0.8
  7
SANINDUSA
 72
     4
 11
-122.5
 21
22.36745296763252
 31
0.0
100
AcDbAttributeDefinition
  3
Cod. Ano:
  2
ANO
 70
     0
  0
ATTDEF
  5
BA3
330
B9E
100
AcDbEntity
  8
1
100
AcDbText
 10
-112.526889953052
 20
21.11745296763252
 30
0.0
 40
2.5
  1
XXX
 41
0.8
  7
SANINDUSA
 72
     4
 11
-109.700160604496
 21
22.36745296763252
 31
0.0
100
AcDbAttributeDefinition
  3
Cod. Sequência:
  2
SEQUENCIA
 70
     0
  0
ATTDEF
  5
BA4
330
B9E
100
AcDbEntity
  8
1
100
AcDbText
 10
-99.35382430979316
 20
21.11745296763252
 30
0.0
 40
2.5
  1
XX
 41
0.8
  7
SANINDUSA
 72
     4
 11
-97.46933807742244
 21
22.36745296763252
 31
0.0
100
AcDbAttributeDefinition
  3
Cod. Tipo:
  2
TIPO
 70
     0
  0
ATTDEF
  5
BA5
330
B9E
100
AcDbEntity
  8
1
100
AcDbText
 10
-87.42035911468438
 20
21.11745296763252
 30
0.0
 40
2.5
  1
XXX
 41
0.8
  7
SANINDUSA
 72
     4
 11
-84.59362976612828
 21
22.36745296763252
 31
0.0
100
AcDbAttributeDefinition
  3
Cod. Produto:
  2
PRODUTO
 70
     0
  0
ATTDEF
  5
BA6
330
B9E
100
AcDbEntity
  8
1
100
AcDbText
 10
-74.62051971917853
 20
21.11745296763252
 30
0.0
 40
2.5
  1
XXX
 41
0.8
  7
SANINDUSA
 72
     4
 11
-71.79379037062244
 21
22.36745296763252
 31
0.0
100
AcDbAttributeDefinition
  3
Cod. Peça:
  2
PECA
 70
     0
  0
ATTDEF
  5
BA7
330
B9E
100
AcDbEntity
  8
1
100
AcDbText
 10
-61.10603446650329
 20
21.11745296763252
 30
0.0
 40
2.5
  1
XX
 41
0.8
  7
SANINDUSA
 72
     4
 11
-59.22154823413257
 21
22.36745296763252
 31
0.0
100
AcDbAttributeDefinition
  3
Cod. Revisão:
  2
REV
 70
     0
  0
ATTDEF
  5
BA8
330
B9E
100
AcDbEntity
  8
1
100
AcDbText
 10
-48.43615325006194
 20
21.11745296763252
 30
0.0
 40
2.5
  1
XX
 41
0.8
  7
SANINDUSA
 72
     4
 11
-46.55166701769121
 21
22.36745296763252
 31
0.0
100
AcDbAttributeDefinition
  3
Cod. Alteração:
  2
ALT
 70
     0
  0
ATTDEF
  5
BA9
330
B9E
100
AcDbEntity
  8
1
100
AcDbText
 10
-35.19086635325722
 20
23.98875083948959
 30
0.0
 40
3.0
  1
1/XXX
 41
0.8
  7
SANINDUSA
 72
     4
 11
-30.0
 21
25.25
 31
0.0
100
AcDbAttributeDefinition
  3
Escala geral:
  2
ESCALA
 70
     0
  0
ATTDEF
  5
BAA
330
B9E
100
AcDbEntity
  8
1
100
AcDbText
 10
-15.65345869711215
 20
23.75
 30
0.0
 40
3.0
  1
XXXXX
 41
0.8
  7
SANINDUSA
 72
     4
 11
-10.0
 21
25.25
 31
0.0
100
AcDbAttributeDefinition
  3
Folha:
  2
FOLHA
 70
     0
  0
ATTDEF
  5
BAB
330
B9E
100
AcDbEntity
  8
1
100
AcDbText
 10
-178.5146998822042
 20
56.9531347542807
 30
0.0
 40
2.0
  1
xx
 41
0.8
  7
SANINDUSA
 72
     4
 11
-177.2123493113513
 21
57.70330265219877
 31
0.0
100
AcDbAttributeDefinition
  3
revisão
  2
REV.
 70
     0
  0
ATTDEF
  5
BAC
330
B9E
100
AcDbEntity
  8
1
100
AcDbText
 10
-172.7849640077129
 20
56.9531347542807
 30
0.0
 40
2.0
  1
xx
 41
0.8
  7
SANINDUSA
 72
     4
 11
-171.48261343686
 21
57.70330265219877
 31
0.0
100
AcDbAttributeDefinition
  3
alteração
  2
ALT.
 70
     0
  0
ATTDEF
  5
BAD
330
B9E
100
AcDbEntity
  8
1
100
AcDbText
 10
-168.007199951307
 20
56.70330265219877
 30
0.0
 40
2.0
  1
xx/xx/xxxx
 41
0.8
  7
SANINDUSA
 11
-168.007199951307
 21
57.70330265219877
 31
0.0
100
AcDbAttributeDefinition
  3
data
  2
DATA
 70
     0
 74
     2
  0
ATTDEF
  5
BAE
330
B9E
100
AcDbEntity
  8
1
100
AcDbText
 10
-168.5396372253371
 20
13.15916722632639
 30
0.0
 40
2.0
  1
XX/XX/XXXX
 41
0.8
  7
SANINDUSA
 72
     4
 11
-161.5099528734231
 21
14.0
 31
0.0
100
AcDbAttributeDefinition
  3
Data projecto
  2
DATA_PROJ
 70
     0
  0
ATTDEF
  5
BAF
330
B9E
100
AcDbEntity
  8
1
100
AcDbText
 10
-150.8658110728766
 20
13.24983210208193
 30
0.0
 40
2.0
  1
xxxxxxxx
 41
0.8
  7
SANINDUSA
 72
     4
 11
-145.6564087894649
 21
14.0
 31
0.0
100
AcDbAttributeDefinition
  3
nome de quem projectou
  2
NOME
 70
     0
  0
ATTDEF
  5
BB0
330
B9E
100
AcDbEntity
  8
1
100
AcDbText
 10
-168.5396372253371
 20
9.159167226326394
 30
0.0
 40
2.0
  1
XX/XX/XXXX
 41
0.8
  7
SANINDUSA
 72
     4
 11
-161.5099528734231
 21
10.0
 31
0.0
100
AcDbAttributeDefinition
  3
Data desenhou
  2
DATA_DES
 70
     0
  0
ATTDEF
  5
BB1
330
B9E
100
AcDbEntity
  8
1
100
AcDbText
 10
-151.516986358303
 20
9.249832102081933
 30
0.0
 40
2.0
  1
xxxxxxxxx
 41
0.8
  7
SANINDUSA
 72
     4
 11
-145.6564087894649
 21
10.0
 31
0.0
100
AcDbAttributeDefinition
  3
nome
  2
NOME
 70
     0
  0
ATTDEF
  5
BB2
330
B9E
100
AcDbEntity
  8
1
100
AcDbText
 10
-127.2924214135946
 20
14.1979876583216
 30
0.0
 40
2.0
  1
Vitreous China
 41
0.8
  7
SANINDUSA
 72
     4
 11
-119.231709526422
 21
15.22216495852308
 31
0.0
100
AcDbAttributeDefinition
  3
Nome do Material:
  2
MATERIAL
 70
     0
  0
ATTDEF
  5
BB3
330
B9E
100
AcDbEntity
  8
1
100
AcDbText
 10
-103.1563452122093
 20
14.38019043949261
 30
0.0
 40
2.0
  1
Branco
 41
0.8
  7
SANINDUSA
 72
     4
 11
-99.33418268702462
 21
15.35937109765245
 31
0.0
100
AcDbAttributeDefinition
  3
cor da peça
  2
COR
 70
     0
  0
ATTDEF
  5
BB4
330
B9E
100
AcDbEntity
  8
1
100
AcDbText
 10
-116.7235057085292
 20
5.975822699798522
 30
0.0
 40
2.0
  1
Vidrado
 41
0.8
  7
SANINDUSA
 72
     4
 11
-112.5
 21
7.0
 31
0.0
100
AcDbAttributeDefinition
  3
Tipo de acabamento:
  2
ACABAMENTO
 70
     0
  0
ATTDEF
  5
BB5
330
B9E
100
AcDbEntity
  8
1
100
AcDbText
 10
-79.18527869967246
 20
16.65066409850533
 30
0.0
 40
2.0
  1
XXXXXXX
 41
0.8
  7
SANINDUSA
 72
     4
 11
-73.90871724903445
 21
17.65066409850533
 31
0.0
100
AcDbAttributeDefinition
  3
Normas
  2
NORMAS
 70
     0
  0
ATTDEF
  5
BB6
330
B9E
100
AcDbEntity
  8
1
100
AcDbText
 10
-30.55312290127603
 20
14.0
 30
0.0
 40
2.0
  1
XXXXXXXXXXXXXX
 41
0.8
  7
SANINDUSA
 72
     4
 11
-20.0
 21
15.0
 31
0.0
100
AcDbAttributeDefinition
  3
Substitui o desenho:
  2
SUBSTITUI
 70
     0
  0
ATTDEF
  5
BB7
330
B9E
100
AcDbEntity
  8
1
100
AcDbText
 10
-31.30691739422431
 20
6.0
 30
0.0
 40
2.0
  1
XXXXXXXXXXXXXXX
 41
0.8
  7
SANINDUSA
 72
     4
 11
-20.0
 21
7.0
 31
0.0
100
AcDbAttributeDefinition
  3
Substituido por:
  2
SUBSTITUIDO
 70
     0
  0
ATTDEF
  5
BB8
330
B9E
100
AcDbEntity
  8
1
100
AcDbText
 10
-110.0220608548302
 20
1.478208457928303
 30
0.0
 40
2.0
  1
XXXXXXXXXXXXXXXXXXXXXXXXXXXXXXXXXX
 41
0.8
  7
SANINDUSA
 11
-110.0220608548302
 21
2.478208457928303
 31
0.0
100
AcDbAttributeDefinition
  3
Localização do desenho:
  2
LOC-DWG
 70
     0
 74
     2
  0
LINE
  5
BB9
330
B9E
100
AcDbEntity
  8
3
100
AcDbLine
 10
-135.0
 20
4.0
 30
0.0
 11
0.0000000000004547
 21
4.0
 31
0.0
  0
LINE
  5
BBA
330
B9E
100
AcDbEntity
  8
3
100
AcDbLine
 10
-90.00000000000046
 20
12.0
 30
0.0
 11
-135.0
 21
12.0
 31
0.0
  0
LINE
  5
BBB
330
B9E
100
AcDbEntity
  8
3
100
AcDbLine
 10
-135.0
 20
32.5
 30
0.0
 11
-40.0
 21
32.5
 31
0.0
  0
TEXT
  5
BBC
330
B9E
100
AcDbEntity
  8
1
100
AcDbText
 10
-134.0
 20
1.25
 30
0.0
 40
2.0
  1
Localização do des.:
 41
0.8
  7
SANINDUSA
 11
-134.0
 21
2.25
 31
0.0
100
AcDbText
 73
     2
  0
LINE
  5
BBD
330
B9E
100
AcDbEntity
  8
3
100
AcDbLine
 10
-180.0
 20
65.0
 30
0.0
 11
0.0
 21
65.0
 31
0.0
  0
LINE
  5
BBE
330
B9E
100
AcDbEntity
  8
leg fin
100
AcDbLine
 10
-40.0
 20
25.05956924886846
 30
0.0
 11
-135.0
 21
25.05956924886846
 31
0.0
  0
LINE
  5
BBF
330
B9E
100
AcDbEntity
  8
leg fin
100
AcDbLine
 10
-40.0
 20
28.5
 30
0.0
 11
-135.0
 21
28.5
 31
0.0
  0
LINE
  5
BC0
330
B9E
100
AcDbEntity
  8
3
100
AcDbLine
 10
-135.0
 20
50.0
 30
0.0
 11
-40.0
 21
50.0
 31
0.0
  0
TEXT
  5
BC1
330
B9E
100
AcDbEntity
  8
1
100
AcDbText
 10
-134.0
 20
29.75
 30
0.0
 40
2.0
  1
Desenho nº:
 41
0.8
  7
SANINDUSA
 11
-134.0
 21
30.75
 31
0.0
100
AcDbText
 73
     2
  0
TEXT
  5
BC2
330
B9E
100
AcDbEntity
  8
1
100
AcDbText
 10
-134.0
 20
9.25
 30
0.0
 40
2.0
  1
Acabamento:
 41
0.8
  7
SANINDUSA
 11
-134.0
 21
10.25
 31
0.0
100
AcDbText
 73
     2
  0
LINE
  5
BC3
330
B9E
100
AcDbEntity
  8
3
100
AcDbLine
 10
-180.0
 20
20.0
 30
0.0
 11
0.0
 21
20.0
 31
0.0
  0
LINE
  5
BC4
330
B9E
100
AcDbEntity
  8
1
100
AcDbLine
 10
-174.5810776056337
 20
55.5
 30
0.0
 11
-174.5810776056337
 21
65.0
 31
0.0
  0
LINE
  5
BC5
330
B9E
100
AcDbEntity
  8
1
100
AcDbLine
 10
-168.9210461879161
 20
55.5
 30
0.0
 11
-168.9210461879161
 21
65.0
 31
0.0
  0
LINE
  5
BC6
330
B9E
100
AcDbEntity
  8
1
100
AcDbLine
 10
-154.0988595589306
 20
55.5
 30
0.0
 11
-154.0988595589306
 21
65.0
 31
0.0
  0
LINE
  5
BC7
330
B9E
100
AcDbEntity
  8
3
100
AcDbLine
 10
-180.0
 20
65.0
 30
0.0
 11
-180.0
 21
0.0
 31
0.0
  0
LINE
  5
BC8
330
B9E
100
AcDbEntity
  8
3
100
AcDbLine
 10
-135.0
 20
0.0
 30
0.0
 11
-135.0
 21
65.0
 31
0.0
  0
TEXT
  5
BC9
330
B9E
100
AcDbEntity
  8
1
100
AcDbText
 10
-179.0
 20
9.75
 30
0.0
 40
1.5
  1
Des.
 41
0.8
  7
SANINDUSA
 11
-179.0
 21
10.5
 31
0.0
100
AcDbText
 73
     2
  0
LINE
  5
BCA
330
B9E
100
AcDbEntity
  8
1
100
AcDbLine
 10
-168.9210461879161
 20
20.0
 30
0.0
 11
-168.9210461879161
 21
0.0
 31
0.0
  0
LINE
  5
BCB
330
B9E
100
AcDbEntity
  8
1
100
AcDbLine
 10
-154.0988595589306
 20
20.0
 30
0.0
 11
-154.0988595589306
 21
0.0
 31
0.0
  0
LINE
  5
BCC
330
B9E
100
AcDbEntity
  8
1
100
AcDbLine
 10
-180.0
 20
4.0
 30
0.0
 11
-135.0
 21
4.0
 31
0.0
  0
LINE
  5
BCD
330
B9E
100
AcDbEntity
  8
1
100
AcDbLine
 10
-180.0
 20
8.0
 30
0.0
 11
-135.0
 21
8.0
 31
0.0
  0
TEXT
  5
BCE
330
B9E
100
AcDbEntity
  8
1
100
AcDbText
 10
-179.0
 20
1.73257823687436
 30
0.0
 40
1.5
  1
Aprov.
 41
0.8
  7
SANINDUSA
 11
-179.0
 21
2.48257823687436
 31
0.0
100
AcDbText
 73
     2
  0
TEXT
  5
BCF
330
B9E
100
AcDbEntity
  8
1
100
AcDbText
 10
-179.0
 20
5.75
 30
0.0
 40
1.5
  1
Ver.
 41
0.8
  7
SANINDUSA
 11
-179.0
 21
6.5
 31
0.0
100
AcDbText
 73
     2
  0
LINE
  5
BD0
330
B9E
100
AcDbEntity
  8
1
100
AcDbLine
 10
-180.0
 20
16.0
 30
0.0
 11
-135.0
 21
16.0
 31
0.0
  0
LINE
  5
BD1
330
B9E
100
AcDbEntity
  8
1
100
AcDbLine
 10
-180.0
 20
12.0
 30
0.0
 11
-135.0
 21
12.0
 31
0.0
  0
TEXT
  5
BD2
330
B9E
100
AcDbEntity
  8
1
100
AcDbText
 10
-179.0
 20
13.75
 30
0.0
 40
1.5
  1
Proj.
 41
0.8
  7
SANINDUSA
 11
-179.0
 21
14.5
 31
0.0
100
AcDbText
 73
     2
  0
TEXT
  5
BD3
330
B9E
100
AcDbEntity
  8
1
100
AcDbText
 10
-167.9210461879161
 20
17.75
 30
0.0
 40
1.5
  1
Data
 41
0.8
  7
SANINDUSA
 11
-167.9210461879161
 21
18.5
 31
0.0
100
AcDbText
 73
     2
  0
TEXT
  5
BD4
330
B9E
100
AcDbEntity
  8
1
100
AcDbText
 10
-153.0988595589306
 20
17.75
 30
0.0
 40
1.5
  1
Nome
 41
0.8
  7
SANINDUSA
 11
-153.0988595589306
 21
18.5
 31
0.0
100
AcDbText
 73
     2
  0
LINE
  5
BD5
330
B9E
100
AcDbEntity
  8
leg fin
100
AcDbLine
 10
-130.0
 20
20.0
 30
0.0
 11
-130.0
 21
28.5
 31
0.0
  0
TEXT
  5
BD6
330
B9E
100
AcDbEntity
  8
1
100
AcDbText
 10
-134.0
 20
17.25
 30
0.0
 40
2.0
  1
Material:
 41
0.8
  7
SANINDUSA
 11
-134.0
 21
18.25
 31
0.0
100
AcDbText
 73
     2
  0
TEXT
  5
BD7
330
B9E
100
AcDbEntity
  8
1
100
AcDbText
 10
-129.0
 20
26.43288406845113
 30
0.0
 40
1.5
  1
Ano:
 41
0.8
  7
SANINDUSA
 11
-129.0
 21
27.18288406845113
 31
0.0
100
AcDbText
 73
     2
  0
LINE
  5
BD8
330
B9E
100
AcDbEntity
  8
1
100
AcDbLine
 10
-180.0
 20
55.5
 30
0.0
 11
-135.0
 21
55.5
 31
0.0
  0
TEXT
  5
BD9
330
B9E
100
AcDbEntity
  8
1
100
AcDbText
 10
-179.0
 20
52.67772246885193
 30
0.0
 40
1.5
  1
descrição
 41
0.8
  7
SANINDUSA
 11
-179.0
 21
53.42772246885193
 31
0.0
100
AcDbText
 73
     2
  0
TEXT
  5
BDA
330
B9E
100
AcDbEntity
  8
1
100
AcDbText
 10
-134.0
 20
47.25
 30
0.0
 40
2.0
  1
Peça:
 41
0.8
  7
SANINDUSA
 11
-134.0
 21
48.25
 31
0.0
100
AcDbText
 73
     2
  0
LINE
  5
BDB
330
B9E
100
AcDbEntity
  8
1
100
AcDbLine
 10
-180.0
 20
59.5
 30
0.0
 11
-135.0
 21
59.5
 31
0.0
  0
TEXT
  5
BDC
330
B9E
100
AcDbEntity
  8
1
100
AcDbText
 10
-173.5810776056337
 20
62.75
 30
0.0
 40
1.5
  1
Alt.
 41
0.8
  7
SANINDUSA
 11
-173.5810776056337
 21
63.5
 31
0.0
100
AcDbText
 73
     2
  0
TEXT
  5
BDD
330
B9E
100
AcDbEntity
  8
1
100
AcDbText
 10
-179.0
 20
62.75
 30
0.0
 40
1.5
  1
Rev.
 41
0.8
  7
SANINDUSA
 11
-179.0
 21
63.5
 31
0.0
100
AcDbText
 73
     2
  0
TEXT
  5
BDE
330
B9E
100
AcDbEntity
  8
1
100
AcDbText
 10
-167.9210461879161
 20
62.75
 30
0.0
 40
1.5
  1
Data
 41
0.8
  7
SANINDUSA
 11
-167.9210461879161
 21
63.5
 31
0.0
100
AcDbText
 73
     2
  0
TEXT
  5
BDF
330
B9E
100
AcDbEntity
  8
1
100
AcDbText
 10
-153.0988595589306
 20
62.75
 30
0.0
 40
1.5
  1
Nome
 41
0.8
  7
SANINDUSA
 11
-153.0988595589306
 21
63.5
 31
0.0
100
AcDbText
 73
     2
  0
TEXT
  5
BE0
330
B9E
100
AcDbEntity
  8
1
100
AcDbText
 10
-134.0
 20
62.25
 30
0.0
 40
2.0
  1
Produto:
 41
0.8
  7
SANINDUSA
 11
-134.0
 21
63.25
 31
0.0
100
AcDbText
 73
     2
  0
LINE
  5
BE1
330
B9E
100
AcDbEntity
  8
3
100
AcDbLine
 10
-40.0
 20
4.0
 30
0.0
 11
-40.0
 21
65.0
 31
0.0
  0
LWPOLYLINE
  5
BE2
102
{ACAD_REACTORS
330
BEC
102
}
330
B9E
100
AcDbEntity
  8
9
100
AcDbPolyline
 90
       12
 70
     1
 43
0.0
 10
-3.038714600644652
 20
58.90010174665076
 10
-5.726962862472191
 20
58.90010174665076
 10
-5.726962862472191
 20
58.5001017466509
 10
-3.038748516195028
 20
58.5001017466509
 42
-0.4142135623731731
 10
-2.638748516194482
 20
58.1001017466508
 10
-2.638748516194482
 20
57.42799728675596
 10
-5.21497371544865
 20
57.42799728675596
 42
0.4142135623731289
 10
-6.014973715448377
 20
56.627997286756
 10
-6.014973715448377
 20
55.92380871629643
 42
0.4142135623731132
 10
-5.21497371544865
 20
55.12380871629648
 10
-2.23871460064447
 20
55.12380871629648
 10
-2.23871460064447
 20
58.10010174665103
 42
0.4142135623730717
  0
LWPOLYLINE
  5
BE3
102
{ACAD_REACTORS
330
BEC
102
}
330
B9E
100
AcDbEntity
  8
9
100
AcDbPolyline
 90
       20
 70
     1
 43
0.0
 10
-10.01531287095122
 20
57.82799728675581
 10
-10.01531287095122
 20
58.10010174665103
 42
-0.4142135623730744
 10
-9.615312870951584
 20
58.5001017466509
 10
-6.92703069357276
 20
58.5001017466509
 10
-6.92703069357276
 20
58.90010174665076
 10
-9.615346786501959
 20
58.90010174665076
 42
0.4142135623730883
 10
-10.41534678650168
 20
58.1001017466508
 10
-10.41534678650168
 20
57.82796337120567
 42
0.4142135623730717
 10
-9.615346786501959
 20
57.02796337120571
 10
-7.423079531965413
 20
57.02796337120571
 42
-0.4142135623730847
 10
-7.023079531965322
 20
56.62796337120562
 10
-7.023079531965322
 20
55.90786840766487
 42
-0.4142135623730744
 10
-7.423079531965413
 20
55.507868407665
 10
-10.41534678650168
 20
55.507868407665
 10
-10.41534678650168
 20
55.12380871629648
 10
-7.445787917283723
 20
55.12380871629648
 42
0.4114777732064574
 10
-6.645822882998345
 20
55.9163291493976
 10
-6.639238813324936
 20
56.62051771985716
 42
0.4169546541682913
 10
-7.439203847610315
 20
57.42799728675596
 10
-9.615312870951584
 20
57.42799728675596
 42
-0.4142135623731576
  0
LWPOLYLINE
  5
BE4
102
{ACAD_REACTORS
330
BEC
102
}
330
B9E
100
AcDbEntity
  8
9
100
AcDbPolyline
 90
       12
 70
     1
 43
0.0
 10
-14.41561811090378
 20
58.90010174665076
 10
-14.79964388672215
 20
58.90010174665076
 10
-14.79964388672215
 20
55.92380871629643
 42
0.4142135623731133
 10
-13.99964388672242
 20
55.12380871629648
 10
-11.8233508563676
 20
55.12380871629648
 42
0.4142135623730872
 10
-11.02335085636741
 20
55.92380871629643
 10
-11.02335085636741
 20
58.90010174665076
 10
-11.42338477191788
 20
58.90010174665076
 10
-11.42338477191788
 20
55.91567577726095
 42
-0.4131711701795318
 10
-11.82196067063523
 20
55.51567831234956
 10
-14.0141940096214
 20
55.50787335710947
 42
-0.4152567234624407
 10
-14.41561811090378
 20
55.90787082202087
  0
LWPOLYLINE
  5
BE5
102
{ACAD_REACTORS
330
BEC
102
}
330
B9E
100
AcDbEntity
  8
9
100
AcDbPolyline
 90
        6
 70
     1
 43
0.0
 10
-15.80771578768872
 20
55.507868407665
 10
-18.39994912667453
 20
55.507868407665
 42
-0.4142135623731731
 10
-18.79994912667462
 20
55.90786840766487
 10
-18.79994912667462
 20
58.10010174665103
 42
-0.4142135623730744
 10
-18.39994912667453
 20
58.5001017466509
 10
-15.80771578768872
 20
58.5001017466509
  0
LWPOLYLINE
  5
BE6
102
{ACAD_REACTORS
330
BEC
102
}
330
B9E
100
AcDbEntity
  8
9
100
AcDbPolyline
 90
        8
 70
     1
 43
0.0
 10
-15.4236900118708
 20
59.87619128370352
 10
-15.80771578768872
 20
59.87619128370352
 10
-15.80771578768872
 20
58.90010174665076
 10
-18.39176256411201
 20
58.90010174665076
 42
0.4131164467977967
 10
-19.19175694739761
 20
58.1030995310698
 10
-19.1999120763262
 20
55.92680650071542
 42
0.4153115297271718
 10
-18.39991769304061
 20
55.12380871629648
 10
-15.4236900118708
 20
55.12380871629648
  0
LWPOLYLINE
  5
BE7
102
{ACAD_REACTORS
330
BEC
102
}
330
B9E
100
AcDbEntity
  8
9
100
AcDbPolyline
 90
       10
 70
     1
 43
0.0
 10
-20.59201288790928
 20
58.90010174665076
 10
-23.56830591826338
 20
58.90010174665076
 10
-23.56830591826338
 20
55.12380871629648
 10
-23.18424622689509
 20
55.12380871629648
 10
-23.18424622689509
 20
58.5001017466509
 10
-20.59204680345965
 20
58.5001017466509
 42
-0.4142135623730898
 10
-20.19204680345956
 20
58.1001017466508
 10
-20.19204680345956
 20
55.12380871629648
 10
-19.79201288790909
 20
55.12380871629648
 10
-19.79201288790909
 20
58.10010174665103
 42
0.4142135623731132
  0
LWPOLYLINE
  5
BE8
102
{ACAD_REACTORS
330
BEC
102
}
330
B9E
100
AcDbEntity
  8
9
100
AcDbPolyline
 90
        4
 70
     1
 43
0.0
 10
-24.19231812786165
 20
58.90010174665076
 10
-24.57637781922995
 20
58.90010174665076
 10
-24.57637781922995
 20
55.12380871629648
 10
-24.19231812786165
 20
55.12380871629648
  0
LWPOLYLINE
  5
BE9
102
{ACAD_REACTORS
330
BEC
102
}
330
B9E
100
AcDbEntity
  8
9
100
AcDbPolyline
 90
       10
 70
     1
 43
0.0
 10
-28.57661522808212
 20
58.5001017466509
 10
-25.98444972019706
 20
58.5001017466509
 42
-0.4142135623731731
 10
-25.58444972019652
 20
58.1001017466508
 10
-25.58444972019652
 20
55.12380871629648
 10
-25.2004239443786
 20
55.12380871629648
 10
-25.2004239443786
 20
58.10010174665103
 42
0.4142135623730717
 10
-26.00042394437833
 20
58.90010174665076
 10
-28.97664914363259
 20
58.90010174665076
 10
-28.97664914363259
 20
55.12380871629648
 10
-28.57661522808212
 20
55.12380871629648
  0
LWPOLYLINE
  5
BEA
102
{ACAD_REACTORS
330
BEC
102
}
330
B9E
100
AcDbEntity
  8
9
100
AcDbPolyline
 90
       12
 70
     1
 43
0.0
 10
-29.58465321349832
 20
58.10010174665103
 42
0.4142135623730716
 10
-30.3846532134985
 20
58.90010174665076
 10
-33.07296930642724
 20
58.90010174665076
 10
-33.07296930642724
 20
58.5001017466509
 10
-30.38468712904842
 20
58.5001017466509
 42
-0.4142135623730067
 10
-29.98468712904878
 20
58.1001017466508
 10
-29.98468712904878
 20
57.42799728675618
 10
-32.56098015940324
 20
57.42799728675596
 42
0.4142135623731289
 10
-33.36098015940343
 20
56.627997286756
 10
-33.36098015940343
 20
55.92380871629643
 42
0.4142135623731132
 10
-32.56098015940324
 20
55.12380871629648
 10
-29.58465321349832
 20
55.12380871629648
  0
LWPOLYLINE
  5
BEB
102
{ACAD_REACTORS
330
BEC
102
}
330
B9E
100
AcDbEntity
  8
9
100
AcDbPolyline
 90
       20
 70
     1
 43
0.0
 10
-34.7850262845518
 20
57.42799728675596
 10
-36.96125148380543
 20
57.42799728675596
 42
-0.4142135623730898
 10
-37.36125148380552
 20
57.82799728675604
 10
-37.36125148380552
 20
58.10010174665103
 42
-0.4142135623730744
 10
-36.96125148380543
 20
58.5001017466509
 10
-34.27303713752781
 20
58.50010174665067
 10
-34.27303713752781
 20
58.90010174665076
 10
-36.96128539935535
 20
58.90010174665076
 42
0.4142135623731289
 10
-37.76128539935553
 20
58.1001017466508
 10
-37.76128539935553
 20
57.82796337120567
 42
0.4142135623730716
 10
-36.9612853993558
 20
57.02796337120571
 10
-34.76901814481926
 20
57.02796337120571
 42
-0.414213562373168
 10
-34.36901814481962
 20
56.62796337120562
 10
-34.36901814481962
 20
55.90786840766487
 42
-0.4142135623730744
 10
-34.76901814481926
 20
55.507868407665
 10
-37.76128539935553
 20
55.507868407665
 10
-37.76128539935553
 20
55.12380871629648
 10
-34.7850262845518
 20
55.12380871629648
 42
0.4142135623731289
 10
-33.98502628455162
 20
55.92380871629643
 10
-33.98502628455162
 20
56.627997286756
 42
0.4142135623731132
  0
HATCH
  5
BEC
330
B9E
100
AcDbEntity
  8
9
100
AcDbHatch
 10
0.0
 20
0.0
 30
0.0
210
0.0
220
0.0
230
1.0
  2
SOLID
 70
     1
 71
     1
 91
       13
 92
        7
 72
     1
 73
     1
 93
       20
 10
-34.36901814481962
 20
55.90786840766487
 42
-0.414213562372991
 10
-34.76901814481926
 20
55.507868407665
 42
0.0
 10
-37.76128539935553
 20
55.507868407665
 42
0.0
 10
-37.76128539935553
 20
55.12380871629648
 42
0.0
 10
-34.7850262845518
 20
55.12380871629648
 42
0.4142135623731705
 10
-33.98502628455162
 20
55.92380871629666
 42
0.0
 10
-33.98502628455162
 20
56.627997286756
 42
0.4142135623731547
 10
-34.7850262845518
 20
57.42799728675596
 42
0.0
 10
-36.96125148380543
 20
57.42799728675596
 42
-0.4142135623730898
 10
-37.36125148380552
 20
57.82799728675604
 42
0.0
 10
-37.36125148380552
 20
58.1001017466508
 42
-0.4142135623731575
 10
-36.96125148380543
 20
58.5001017466509
 42
0.0
 10
-34.27303713752781
 20
58.50010174665067
 42
0.0
 10
-34.27303713752781
 20
58.90010174665076
 42
0.0
 10
-36.96128539935535
 20
58.90010174665076
 42
0.4142135623731705
 10
-37.76128539935553
 20
58.10010174665058
 42
0.0
 10
-37.76128539935553
 20
57.82796337120544
 42
0.4142135623730299
 10
-36.9612853993558
 20
57.02796337120571
 42
0.0
 10
-34.76901814481926
 20
57.02796337120571
 42
-0.4142135623730015
 10
-34.36901814481962
 20
56.62796337120608
 42
0.0
 97
        1
330
BEB
 92
        7
 72
     1
 73
     1
 93
       12
 10
-33.36098015940343
 20
55.92380871629666
 42
0.4142135623731547
 10
-32.56098015940324
 20
55.12380871629648
 42
0.0
 10
-29.58465321349877
 20
55.12380871629648
 42
0.0
 10
-29.58465321349832
 20
58.10010174665058
 42
0.4142135623731964
 10
-30.3846532134985
 20
58.90010174665076
 42
0.0
 10
-33.07296930642724
 20
58.90010174665076
 42
0.0
 10
-33.07296930642724
 20
58.50010174665067
 42
0.0
 10
-30.38468712904887
 20
58.5001017466509
 42
-0.4142135623732564
 10
-29.98468712904878
 20
58.10010174665103
 42
0.0
 10
-29.98468712904923
 20
57.42799728675596
 42
0.0
 10
-32.56098015940324
 20
57.42799728675596
 42
0.4142135623731705
 10
-33.36098015940343
 20
56.627997286756
 42
0.0
 97
        1
330
BEA
 92
       22
 72
     1
 73
     1
 93
        6
 10
-32.97692046803468
 20
56.62796337120562
 42
-0.4142135623731576
 10
-32.57692046803459
 20
57.02796337120571
 42
0.0
 10
-29.98468712904878
 20
57.02796337120571
 42
0.0
 10
-29.98468712904878
 20
55.507868407665
 42
0.0
 10
-32.57692046803459
 20
55.507868407665
 42
-0.4142135623731731
 10
-32.97692046803468
 20
55.90786840766487
 42
0.0
 97
        1
330
C11
 92
        7
 72
     1
 73
     1
 93
       10
 10
-28.57661522808212
 20
58.5001017466509
 42
0.0
 10
-25.98444972019661
 20
58.5001017466509
 42
-0.4142135623730067
 10
-25.58444972019652
 20
58.10010174665058
 42
0.0
 10
-25.58444972019606
 20
55.12380871629648
 42
0.0
 10
-25.20042394437906
 20
55.12380871629648
 42
0.0
 10
-25.2004239443786
 20
58.1001017466508
 42
0.4142135623731134
 10
-26.00042394437833
 20
58.90010174665076
 42
0.0
 10
-28.97664914363259
 20
58.90010174665076
 42
0.0
 10
-28.97664914363259
 20
55.12380871629648
 42
0.0
 10
-28.57661522808212
 20
55.12380871629648
 42
0.0
 97
        1
330
BE9
 92
        7
 72
     0
 73
     1
 93
        4
 10
-24.57637781922995
 20
55.12380871629648
 10
-24.19231812786165
 20
55.12380871629648
 10
-24.19231812786165
 20
58.90010174665076
 10
-24.57637781922995
 20
58.90010174665076
 97
        1
330
BE8
 92
        7
 72
     0
 73
     1
 93
        4
 10
-24.19231812786165
 20
59.87619128370352
 10
-24.5763778192304
 20
59.87619128370352
 10
-24.5763778192304
 20
59.28412752246913
 10
-24.1923181278612
 20
59.28412752246913
 97
        1
330
C12
 92
        7
 72
     1
 73
     1
 93
       10
 10
-23.18424622689509
 20
58.5001017466509
 42
0.0
 10
-20.59204680345965
 20
58.5001017466509
 42
-0.4142135623730898
 10
-20.19204680345956
 20
58.1001017466508
 42
0.0
 10
-20.19204680345956
 20
55.12380871629648
 42
0.0
 10
-19.79201288790909
 20
55.12380871629648
 42
0.0
 10
-19.79201288790909
 20
58.1001017466508
 42
0.4142135623731547
 10
-20.59201288790928
 20
58.90010174665076
 42
0.0
 10
-23.56830591826338
 20
58.90010174665076
 42
0.0
 10
-23.56830591826338
 20
55.12380871629648
 42
0.0
 10
-23.18424622689463
 20
55.12380871629648
 42
0.0
 97
        1
330
BE7
 92
        7
 72
     1
 73
     1
 93
        8
 10
-19.1999120763262
 20
55.92680650071542
 42
0.4153115297271299
 10
-18.39991769304061
 20
55.12380871629648
 42
0.0
 10
-15.4236900118708
 20
55.12380871629648
 42
0.0
 10
-15.4236900118708
 20
59.87619128370352
 42
0.0
 10
-15.80771578768872
 20
59.87619128370352
 42
0.0
 10
-15.80771578768872
 20
58.90010174665076
 42
0.0
 10
-18.39176256411201
 20
58.90010174665076
 42
0.4131164467977965
 10
-19.19175694739761
 20
58.1030995310698
 42
0.0
 97
        1
330
BE6
 92
       22
 72
     1
 73
     1
 93
        6
 10
-18.79994912667462
 20
58.1001017466508
 42
-0.4142135623731575
 10
-18.39994912667453
 20
58.5001017466509
 42
0.0
 10
-15.80771578768872
 20
58.50010174665067
 42
0.0
 10
-15.80771578768827
 20
55.507868407665
 42
0.0
 10
-18.39994912667453
 20
55.507868407665
 42
-0.4142135623731731
 10
-18.79994912667462
 20
55.90786840766487
 42
0.0
 97
        1
330
BE5
 92
        7
 72
     1
 73
     1
 93
       12
 10
-14.79964388672215
 20
55.92380871629621
 42
0.4142135623729885
 10
-13.99964388672242
 20
55.12380871629648
 42
0.0
 10
-11.8233508563676
 20
55.12380871629648
 42
0.4142135623731289
 10
-11.02335085636741
 20
55.92380871629666
 42
0.0
 10
-11.02335085636741
 20
58.90010174665076
 42
0.0
 10
-11.42338477191788
 20
58.90010174665076
 42
0.0
 10
-11.42338477191788
 20
55.91567577726095
 42
-0.4131711701795319
 10
-11.82196067063523
 20
55.51567831234956
 42
0.0
 10
-14.01419400962095
 20
55.50787335710947
 42
-0.4152567234626918
 10
-14.41561811090378
 20
55.90787082202087
 42
0.0
 10
-14.41561811090378
 20
58.90010174665076
 42
0.0
 10
-14.7996438867226
 20
58.90010174665076
 42
0.0
 97
        1
330
BE4
 92
        7
 72
     1
 73
     1
 93
       20
 10
-7.423079531965413
 20
57.02796337120571
 42
-0.414213562373168
 10
-7.023079531965322
 20
56.62796337120562
 42
0.0
 10
-7.023079531965322
 20
55.90786840766487
 42
-0.4142135623731575
 10
-7.423079531965413
 20
55.507868407665
 42
0.0
 10
-10.41534678650168
 20
55.507868407665
 42
0.0
 10
-10.41534678650168
 20
55.12380871629648
 42
0.0
 10
-7.445787917283723
 20
55.12380871629648
 42
0.4114777732065809
 10
-6.645822882998345
 20
55.91632914939783
 42
0.0
 10
-6.639238813324936
 20
56.62051771985716
 42
0.4169546541682913
 10
-7.439203847610315
 20
57.42799728675596
 42
0.0
 10
-9.615312870951584
 20
57.42799728675596
 42
-0.4142135623729911
 10
-10.01531287095122
 20
57.82799728675581
 42
0.0
 10
-10.01531287095122
 20
58.10010174665103
 42
-0.414213562372991
 10
-9.615312870951584
 20
58.5001017466509
 42
0.0
 10
-6.92703069357276
 20
58.50010174665067
 42
0.0
 10
-6.927030693572305
 20
58.90010174665076
 42
0.0
 10
-9.615346786501959
 20
58.90010174665076
 42
0.4142135623730467
 10
-10.41534678650168
 20
58.10010174665103
 42
0.0
 10
-10.41534678650168
 20
57.82796337120544
 42
0.4142135623730301
 10
-9.615346786501959
 20
57.02796337120571
 42
0.0
 97
        1
330
BE3
 92
        7
 72
     1
 73
     1
 93
       12
 10
-5.21497371544865
 20
57.42799728675596
 42
0.4142135623730871
 10
-6.014973715448377
 20
56.627997286756
 42
0.0
 10
-6.014973715448377
 20
55.92380871629621
 42
0.4142135623730715
 10
-5.21497371544865
 20
55.12380871629648
 42
0.0
 10
-2.23871460064447
 20
55.12380871629648
 42
0.0
 10
-2.23871460064447
 20
58.10010174665058
 42
0.414213562373155
 10
-3.038714600644652
 20
58.90010174665076
 42
0.0
 10
-5.726962862471737
 20
58.90010174665076
 42
0.0
 10
-5.726962862472191
 20
58.5001017466509
 42
0.0
 10
-3.038748516194573
 20
58.5001017466509
 42
-0.4142135623730067
 10
-2.638748516194482
 20
58.10010174665058
 42
0.0
 10
-2.638748516194482
 20
57.42799728675596
 42
0.0
 97
        1
330
BE2
 92
       22
 72
     1
 73
     1
 93
        6
 10
-2.638748516194937
 20
57.02796337120571
 42
0.0
 10
-2.638748516194482
 20
55.50786840766477
 42
0.0
 10
-5.21497371544865
 20
55.507868407665
 42
-0.4142135623731731
 10
-5.614973715448741
 20
55.90786840766509
 42
0.0
 10
-5.614973715448741
 20
56.62796337120562
 42
-0.4142135623731576
 10
-5.21497371544865
 20
57.02796337120571
 42
0.0
 97
        1
330
C0D
 75
     0
 76
     1
 47
0.0407044778999864
 98
       13
 10
-34.18710075113677
 20
56.16907953933765
 10
-33.12851374392494
 20
56.49471602641233
 10
-33.12851374392494
 20
56.49471602641233
 10
-28.77202873835904
 20
57.51232930166111
 10
-24.41554807250941
 20
57.91937341678636
 10
-24.41554807250941
 20
59.384734621186
 10
-23.31624584658039
 20
58.3264175319116
 10
-19.04119127844888
 20
57.75655517324913
 10
-19.04119127844888
 20
57.75655517324913
 10
-14.64399105416578
 20
57.43091868617466
 10
-8.048195057457178
 20
57.22739662861204
 10
-4.017427461911665
 20
57.18669281458665
 10
-4.017427461911665
 20
57.18669281458665
  0
TEXT
  5
BED
330
B9E
100
AcDbEntity
  8
leg fin
100
AcDbText
 10
3.391127401597259
 20
2.107634911895729
 30
0.0
 40
1.5
  1
Este desenho é propriedade da Sanindusa, S.A., e não pode ser copiado nem divulgado sem nossa autorização.
 50
90.0
 41
0.8
  7
SANINDUSA
100
AcDbText
  0
LINE
  5
BEE
330
B9E
100
AcDbEntity
  8
3
100
AcDbLine
 10
-90.0
 20
4.0
 30
0.0
 11
-90.0
 21
12.0
 31
0.0
  0
TEXT
  5
BEF
330
B9E
100
AcDbEntity
  8
1
100
AcDbText
 10
-39.0
 20
9.25
 30
0.0
 40
2.0
  1
Substituido por:
 41
0.8
  7
SANINDUSA
 11
-39.0
 21
10.25
 31
0.0
100
AcDbText
 73
     2
  0
POINT
  5
BF0
330
B9E
100
AcDbEntity
  8
SANINDUSA
100
AcDbPoint
 10
0.0
 20
0.0
 30
0.0
  0
TEXT
  5
BF1
330
B9E
100
AcDbEntity
  8
1
100
AcDbText
 10
-89.0
 20
16.74927010445663
 30
0.0
 40
2.0
  1
Normas:
 41
0.8
  7
SANINDUSA
 11
-89.0
 21
17.74927010445663
 31
0.0
100
AcDbText
 73
     2
  0
LINE
  5
BF2
330
B9E
100
AcDbEntity
  8
3
100
AcDbLine
 10
-90.0
 20
12.0
 30
0.0
 11
-90.0
 21
20.0
 31
0.0
  0
LINE
  5
BF3
330
B9E
100
AcDbEntity
  8
3
100
AcDbLine
 10
-110.546019464768
 20
12.0
 30
0.0
 11
-110.546019464768
 21
20.0
 31
0.0
  0
TEXT
  5
BF4
330
B9E
100
AcDbEntity
  8
1
100
AcDbText
 10
-109.6177520618648
 20
17.25
 30
0.0
 40
2.0
  1
Cor:
 41
0.8
  7
SANINDUSA
 11
-109.6177520618648
 21
18.25
 31
0.0
100
AcDbText
 73
     2
  0
LINE
  5
BF5
330
B9E
100
AcDbEntity
  8
leg fin
100
AcDbLine
 10
-91.42857142857156
 20
20.0
 30
0.0
 11
-91.42857142857156
 21
28.5
 31
0.0
  0
LINE
  5
BF6
330
B9E
100
AcDbEntity
  8
leg fin
100
AcDbLine
 10
-104.2857142857142
 20
20.0
 30
0.0
 11
-104.2857142857142
 21
28.5
 31
0.0
  0
LINE
  5
BF7
330
B9E
100
AcDbEntity
  8
leg fin
100
AcDbLine
 10
-117.1428571428573
 20
20.0
 30
0.0
 11
-117.1428571428573
 21
28.5
 31
0.0
  0
POINT
  5
BF8
330
B9E
100
AcDbEntity
  8
SANINDUSA
100
AcDbPoint
 10
-117.1428571428573
 20
28.5
 30
0.0
  0
POINT
  5
BF9
330
B9E
100
AcDbEntity
  8
SANINDUSA
100
AcDbPoint
 10
-104.2857142857142
 20
28.5
 30
0.0
  0
POINT
  5
BFA
330
B9E
100
AcDbEntity
  8
SANINDUSA
100
AcDbPoint
 10
-91.42857142857156
 20
28.5
 30
0.0
  0
TEXT
  5
BFB
330
B9E
100
AcDbEntity
  8
1
100
AcDbText
 10
-116.200160604496
 20
26.43288406845113
 30
0.0
 40
1.5
  1
Nº Seq.:
 41
0.8
  7
SANINDUSA
 11
-116.200160604496
 21
27.18288406845113
 31
0.0
100
AcDbText
 73
     2
  0
TEXT
  5
BFC
330
B9E
100
AcDbEntity
  8
1
100
AcDbText
 10
-103.2106584078738
 20
26.43288406845113
 30
0.0
 40
1.5
  1
Tipo:
 41
0.8
  7
SANINDUSA
 11
-103.2106584078738
 21
27.18288406845113
 31
0.0
100
AcDbText
 73
     2
  0
TEXT
  5
BFD
330
B9E
100
AcDbEntity
  8
1
100
AcDbText
 10
-90.22114672289353
 20
26.43288406845113
 30
0.0
 40
1.5
  1
Prod.:
 41
0.8
  7
SANINDUSA
 11
-90.22114672289353
 21
27.18288406845113
 31
0.0
100
AcDbText
 73
     2
  0
TEXT
  5
BFE
330
B9E
100
AcDbEntity
  8
1
100
AcDbText
 10
-64.77320576346574
 20
26.43288406845113
 30
0.0
 40
1.5
  1
Rev.:
 41
0.8
  7
SANINDUSA
 11
-64.77320576346574
 21
27.18288406845113
 31
0.0
100
AcDbText
 73
     2
  0
LINE
  5
BFF
330
B9E
100
AcDbEntity
  8
leg fin
100
AcDbLine
 10
-52.85714285714266
 20
20.0
 30
0.0
 11
-52.85714285714266
 21
28.5
 31
0.0
  0
LINE
  5
C00
330
B9E
100
AcDbEntity
  8
leg fin
100
AcDbLine
 10
-65.71428571428578
 20
20.0
 30
0.0
 11
-65.71428571428578
 21
28.5
 31
0.0
  0
LINE
  5
C01
330
B9E
100
AcDbEntity
  8
leg fin
100
AcDbLine
 10
-78.57142857142844
 20
20.0
 30
0.0
 11
-78.57142857142844
 21
28.5
 31
0.0
  0
POINT
  5
C02
330
B9E
100
AcDbEntity
  8
SANINDUSA
100
AcDbPoint
 10
-78.57142857142844
 20
28.5
 30
0.0
  0
POINT
  5
C03
330
B9E
100
AcDbEntity
  8
SANINDUSA
100
AcDbPoint
 10
-65.71428571428578
 20
28.5
 30
0.0
  0
POINT
  5
C04
330
B9E
100
AcDbEntity
  8
SANINDUSA
100
AcDbPoint
 10
-52.85714285714266
 20
28.5
 30
0.0
  0
TEXT
  5
C05
330
B9E
100
AcDbEntity
  8
1
100
AcDbText
 10
-77.61097961686573
 20
26.43288406845113
 30
0.0
 40
1.5
  1
Peça:
 41
0.8
  7
SANINDUSA
 11
-77.61097961686573
 21
27.18288406845113
 31
0.0
100
AcDbText
 73
     2
  0
TEXT
  5
C06
330
B9E
100
AcDbEntity
  8
1
100
AcDbText
 10
-52.06538060077036
 20
26.43288406845113
 30
0.0
 40
1.5
  1
Alt.:
 41
0.8
  7
SANINDUSA
 11
-52.06538060077036
 21
27.18288406845113
 31
0.0
100
AcDbText
 73
     2
  0
LINE
  5
C07
330
B9E
100
AcDbEntity
  8
3
100
AcDbLine
 10
0.0
 20
12.0
 30
0.0
 11
-40.0
 21
12.0
 31
0.0
  0
LINE
  5
C08
330
B9E
100
AcDbEntity
  8
3
100
AcDbLine
 10
-40.0
 20
32.5
 30
0.0
 11
0.0
 21
32.5
 31
0.0
  0
TEXT
  5
C09
330
B9E
100
AcDbEntity
  8
1
100
AcDbText
 10
-19.0
 20
29.75
 30
0.0
 40
2.0
  1
Folha:
 41
0.8
  7
SANINDUSA
 11
-19.0
 21
30.75
 31
0.0
100
AcDbText
 73
     2
  0
LINE
  5
C0A
330
B9E
100
AcDbEntity
  8
3
100
AcDbLine
 10
-20.0
 20
32.5
 30
0.0
 11
-20.0
 21
20.0
 31
0.0
  0
TEXT
  5
C0B
330
B9E
100
AcDbEntity
  8
1
100
AcDbText
 10
-39.0
 20
29.75
 30
0.0
 40
2.0
  1
Escala:
 41
0.8
  7
SANINDUSA
 11
-39.0
 21
30.75
 31
0.0
100
AcDbText
 73
     2
  0
TEXT
  5
C0C
330
B9E
100
AcDbEntity
  8
1
100
AcDbText
 10
-39.0
 20
17.25
 30
0.0
 40
2.0
  1
Substitui:
 41
0.8
  7
SANINDUSA
 11
-39.0
 21
18.25
 31
0.0
100
AcDbText
 73
     2
  0
LWPOLYLINE
  5
C0D
102
{ACAD_REACTORS
330
BEC
102
}
330
B9E
100
AcDbEntity
  8
9
100
AcDbPolyline
 90
        6
 70
     1
 43
0.0
 10
-2.638748516194482
 20
57.02796337120571
 10
-2.638748516194482
 20
55.50786840766477
 10
-5.21497371544865
 20
55.507868407665
 42
-0.4142135623730898
 10
-5.614973715448741
 20
55.90786840766487
 10
-5.614973715448741
 20
56.62796337120562
 42
-0.4142135623731576
 10
-5.21497371544865
 20
57.02796337120571
  0
LINE
  5
C0E
330
B9E
100
AcDbEntity
  8
3
100
AcDbLine
 10
-40.0
 20
50.0
 30
0.0
 11
0.0
 21
50.0
 31
0.0
  0
ATTDEF
  5
C0F
330
B9E
100
AcDbEntity
  8
1
100
AcDbText
 10
-31.30691739422431
 20
40.25
 30
0.0
 40
2.0
  1
XXXXXXXXXXXXXXX
 41
0.8
  7
SANINDUSA
 72
     4
 11
-20.0
 21
41.25
 31
0.0
100
AcDbAttributeDefinition
  3
Observações:
  2
OBS
 70
     0
  0
TEXT
  5
C10
330
B9E
100
AcDbEntity
  8
1
100
AcDbText
 10
-39.0
 20
47.25
 30
0.0
 40
2.0
  1
Observações:
 41
0.8
  7
SANINDUSA
 11
-39.0
 21
48.25
 31
0.0
100
AcDbText
 73
     2
  0
LWPOLYLINE
  5
C11
102
{ACAD_REACTORS
330
BEC
102
}
330
B9E
100
AcDbEntity
  8
9
100
AcDbPolyline
 90
        6
 70
     1
 43
0.0
 10
-29.98468712904878
 20
57.02796337120571
 10
-29.98468712904878
 20
55.507868407665
 10
-32.57692046803459
 20
55.507868407665
 42
-0.4142135623731731
 10
-32.97692046803468
 20
55.90786840766487
 10
-32.97692046803468
 20
56.62796337120562
 42
-0.4142135623731576
 10
-32.57692046803459
 20
57.02796337120571
  0
LWPOLYLINE
  5
C12
102
{ACAD_REACTORS
330
BEC
102
}
330
B9E
100
AcDbEntity
  8
9
100
AcDbPolyline
 90
        4
 70
     1
 43
0.0
 10
-24.19231812786165
 20
59.87619128370352
 10
-24.57637781922995
 20
59.87619128370352
 10
-24.57637781922995
 20
59.28412752246913
 10
-24.19231812786165
 20
59.28412752246913
  0
ENDBLK
  5
C14
330
B9E
100
AcDbEntity
  8
0
100
AcDbBlockEnd
  0
BLOCK
  5
18DB
330
18DA
100
AcDbEntity
  8
0
100
AcDbBlockBegin
  2
*D8
 70
     1
 10
0.0
 20
0.0
 30
0.0
  3
*D8
  1

  0
LINE
  5
18E7
330
18DA
100
AcDbEntity
  8
cotas
100
AcDbLine
 10
5514.848722099706
 20
3464.987251479029
 30
0.0
 11
5834.147430686669
 21
3464.987251479029
 31
0.0
  0
LINE
  5
18E8
330
18DA
100
AcDbEntity
  8
cotas
100
AcDbLine
 10
5528.847872677729
 20
1619.059072826541
 30
0.0
 11
5834.147430686668
 21
1619.059072826541
 31
0.0
  0
LINE
  5
18E9
330
18DA
100
AcDbEntity
  8
cotas
100
AcDbLine
 10
5833.147430686668
 20
3462.987251479029
 30
0.0
 11
5833.147430686667
 21
1621.059072826541
 31
0.0
  0
SOLID
  5
18EA
330
18DA
100
AcDbEntity
  8
cotas
100
AcDbTrace
 10
5832.814097353336
 20
3462.987251479029
 30
0.0
 11
5833.480764020002
 21
3462.987251479029
 31
0.0
 12
5833.147430686668
 22
3464.987251479029
 32
0.0
 13
5833.147430686668
 23
3464.987251479029
 33
0.0
  0
SOLID
  5
18EB
330
18DA
100
AcDbEntity
  8
cotas
100
AcDbTrace
 10
5832.814097353335
 20
1621.059072826541
 30
0.0
 11
5833.48076402
 21
1621.059072826541
 31
0.0
 12
5833.147430686667
 22
1619.059072826541
 32
0.0
 13
5833.147430686667
 23
1619.059072826541
 33
0.0
  0
MTEXT
  5
18EC
330
18DA
100
AcDbEntity
  8
cotas
100
AcDbMText
 10
5830.876107651073
 20
2542.023162152786
 30
0.0
 40
2.0
 41
0.0
 71
     5
 72
     1
  1
1845,9
  7
SANINDUSA
 11
0.0000000000000001
 21
1.0
 31
0.0
 73
     1
 44
1.0
1001
ACAD
1000
MTEXTBEGIN
1070
    73
1070
     1
1070
    44
1040
1.0
1070
    74
1070
     0
1000
MTEXTEND
  0
POINT
  5
18ED
330
18DA
100
AcDbEntity
  8
Defpoints
 62
     0
100
AcDbPoint
 10
5513.848722099707
 20
3464.987251479029
 30
0.0
  0
POINT
  5
18EE
330
18DA
100
AcDbEntity
  8
Defpoints
 62
     0
100
AcDbPoint
 10
5527.847872677729
 20
1619.059072826541
 30
0.0
  0
POINT
  5
18EF
330
18DA
100
AcDbEntity
  8
Defpoints
 62
     0
100
AcDbPoint
 10
5833.147430686667
 20
1619.059072826541
 30
0.0
  0
ENDBLK
  5
18DC
330
18DA
100
AcDbEntity
  8
0
100
AcDbBlockEnd
  0
ENDSEC
  0
SECTION
  2
ENTITIES
  0
LINE
  5
14CD
330
1F
100
AcDbEntity
  8
SANINDUSA
100
AcDbLine
 10
5048.234846314713
 20
2668.871328433398
 30
0.0
 11
5047.534311149905
 21
2668.871328433398
 31
0.0
  0
LINE
  5
14CE
330
1F
100
AcDbEntity
  8
SANINDUSA
100
AcDbLine
 10
5048.234846314713
 20
2668.871328433398
 30
0.0
 11
5048.286461149905
 21
2668.871328433398
 31
0.0
  0
LINE
  5
14CF
330
1F
100
AcDbEntity
  8
SANINDUSA
100
AcDbLine
 10
5046.948288680746
 20
2670.183513294168
 30
0.0
 11
5047.221682428031
 21
2670.183513294168
 31
0.0
  0
LINE
  5
14D0
330
1F
100
AcDbEntity
  8
SANINDUSA
100
AcDbLine
 10
5047.221682428031
 20
2670.165513294168
 30
0.0
 11
5046.95468242803
 21
2670.165513294168
 31
0.0
  0
POLYLINE
  5
14D1
330
1F
100
AcDbEntity
  8
SANINDUSA
100
AcDb2dPolyline
 66
     1
 10
0.0
 20
0.0
 30
0.0
 70
     1
  0
VERTEX
  5
14D2
330
14D1
100
AcDbEntity
  8
SANINDUSA
100
AcDbVertex
100
AcDb2dVertex
 10
5047.223682428032
 20
2670.164963294168
 30
0.0
 42
0.4142135623730829
  0
VERTEX
  5
14D3
330
14D1
100
AcDbEntity
  8
SANINDUSA
100
AcDbVertex
100
AcDb2dVertex
 10
5047.224482428031
 20
2670.164163294168
 30
0.0
  0
VERTEX
  5
14D4
330
14D1
100
AcDbEntity
  8
SANINDUSA
100
AcDbVertex
100
AcDb2dVertex
 10
5047.247876175316
 20
2670.164163294168
 30
0.0
 42
0.4142135623730951
  0
VERTEX
  5
14D5
330
14D1
100
AcDbEntity
  8
SANINDUSA
100
AcDbVertex
100
AcDb2dVertex
 10
5047.249676175316
 20
2670.165963294168
 30
0.0
  0
VERTEX
  5
14D6
330
14D1
100
AcDbEntity
  8
SANINDUSA
100
AcDbVertex
100
AcDb2dVertex
 10
5047.249676175316
 20
2670.183063294168
 30
0.0
 42
0.4142135623730951
  0
VERTEX
  5
14D7
330
14D1
100
AcDbEntity
  8
SANINDUSA
100
AcDbVertex
100
AcDb2dVertex
 10
5047.247876175316
 20
2670.184863294168
 30
0.0
  0
VERTEX
  5
14D8
330
14D1
100
AcDbEntity
  8
SANINDUSA
100
AcDbVertex
100
AcDb2dVertex
 10
5047.227876175316
 20
2670.184863294168
 30
0.0
 42
0.4142135623730951
  0
VERTEX
  5
14D9
330
14D1
100
AcDbEntity
  8
SANINDUSA
100
AcDbVertex
100
AcDb2dVertex
 10
5047.227076175317
 20
2670.184063294168
 30
0.0
  0
VERTEX
  5
14DA
330
14D1
100
AcDbEntity
  8
SANINDUSA
100
AcDbVertex
100
AcDb2dVertex
 10
5047.227076175317
 20
2670.183863294168
 30
0.0
  0
VERTEX
  5
14DB
330
14D1
100
AcDbEntity
  8
SANINDUSA
100
AcDbVertex
100
AcDb2dVertex
 10
5047.247876175316
 20
2670.183863294168
 30
0.0
 42
-0.4142135623730951
  0
VERTEX
  5
14DC
330
14D1
100
AcDbEntity
  8
SANINDUSA
100
AcDbVertex
100
AcDb2dVertex
 10
5047.248676175316
 20
2670.183063294168
 30
0.0
  0
VERTEX
  5
14DD
330
14D1
100
AcDbEntity
  8
SANINDUSA
100
AcDbVertex
100
AcDb2dVertex
 10
5047.248676175316
 20
2670.165963294168
 30
0.0
 42
-0.4142135623730951
  0
VERTEX
  5
14DE
330
14D1
100
AcDbEntity
  8
SANINDUSA
100
AcDbVertex
100
AcDb2dVertex
 10
5047.247876175316
 20
2670.165163294168
 30
0.0
  0
VERTEX
  5
14DF
330
14D1
100
AcDbEntity
  8
SANINDUSA
100
AcDbVertex
100
AcDb2dVertex
 10
5047.223682428032
 20
2670.165163294168
 30
0.0
  0
SEQEND
  5
14E0
330
14D1
100
AcDbEntity
  8
SANINDUSA
  0
LINE
  5
14E1
330
1F
100
AcDbEntity
  8
SANINDUSA
100
AcDbLine
 10
5047.223482428031
 20
2670.165513294168
 30
0.0
 11
5047.221682428031
 21
2670.165513294168
 31
0.0
  0
LINE
  5
14E2
330
1F
100
AcDbEntity
  8
SANINDUSA
100
AcDbLine
 10
5047.221682428031
 20
2670.183513294168
 30
0.0
 11
5047.229876175316
 21
2670.183513294168
 31
0.0
  0
POLYLINE
  5
14E3
330
1F
100
AcDbEntity
  8
SANINDUSA
100
AcDb2dPolyline
 66
     1
 10
0.0
 20
0.0
 30
0.0
 70
     1
  0
VERTEX
  5
14E4
330
14E3
100
AcDbEntity
  8
SANINDUSA
100
AcDbVertex
100
AcDb2dVertex
 10
5047.227908277442
 20
2670.17287657141
 30
0.0
 42
0.2881936776524728
  0
VERTEX
  5
14E5
330
14E3
100
AcDbEntity
  8
SANINDUSA
100
AcDbVertex
100
AcDb2dVertex
 10
5047.228088502817
 20
2670.172763282504
 30
0.0
  0
VERTEX
  5
14E6
330
14E3
100
AcDbEntity
  8
SANINDUSA
100
AcDbVertex
100
AcDb2dVertex
 10
5047.228482547584
 20
2670.172763282504
 30
0.0
 42
0.4142361536442981
  0
VERTEX
  5
14E7
330
14E3
100
AcDbEntity
  8
SANINDUSA
100
AcDbVertex
100
AcDb2dVertex
 10
5047.228682547584
 20
2670.172963297931
 30
0.0
  0
VERTEX
  5
14E8
330
14E3
100
AcDbEntity
  8
SANINDUSA
100
AcDbVertex
100
AcDb2dVertex
 10
5047.228682308478
 20
2670.176063297931
 30
0.0
 42
0.4141909714629004
  0
VERTEX
  5
14E9
330
14E3
100
AcDbEntity
  8
SANINDUSA
100
AcDbVertex
100
AcDb2dVertex
 10
5047.228482308479
 20
2670.176263282505
 30
0.0
  0
VERTEX
  5
14EA
330
14E3
100
AcDbEntity
  8
SANINDUSA
100
AcDbVertex
100
AcDb2dVertex
 10
5047.228086108609
 20
2670.176263282505
 30
0.0
 42
0.2849150464417384
  0
VERTEX
  5
14EB
330
14E3
100
AcDbEntity
  8
SANINDUSA
100
AcDbVertex
100
AcDb2dVertex
 10
5047.227906947326
 20
2670.176152171393
 30
0.0
 42
-0.6201736729454037
  0
VERTEX
  5
14EC
330
14E3
100
AcDbEntity
  8
SANINDUSA
100
AcDbVertex
100
AcDb2dVertex
 10
5047.227459044117
 20
2670.176152171393
 30
0.0
 42
0.2849150464416744
  0
VERTEX
  5
14ED
330
14E3
100
AcDbEntity
  8
SANINDUSA
100
AcDbVertex
100
AcDb2dVertex
 10
5047.227279882834
 20
2670.176263282505
 30
0.0
  0
VERTEX
  5
14EE
330
14E3
100
AcDbEntity
  8
SANINDUSA
100
AcDbVertex
100
AcDb2dVertex
 10
5047.225086109865
 20
2670.176263282505
 30
0.0
 42
0.2849150464419475
  0
VERTEX
  5
14EF
330
14E3
100
AcDbEntity
  8
SANINDUSA
100
AcDbVertex
100
AcDb2dVertex
 10
5047.224906948582
 20
2670.176152171393
 30
0.0
 42
-0.6201736729454037
  0
VERTEX
  5
14F0
330
14E3
100
AcDbEntity
  8
SANINDUSA
100
AcDbVertex
100
AcDb2dVertex
 10
5047.224459045374
 20
2670.176152171393
 30
0.0
 42
0.2849150464416744
  0
VERTEX
  5
14F1
330
14E3
100
AcDbEntity
  8
SANINDUSA
100
AcDbVertex
100
AcDb2dVertex
 10
5047.22427988409
 20
2670.176263282505
 30
0.0
  0
VERTEX
  5
14F2
330
14E3
100
AcDbEntity
  8
SANINDUSA
100
AcDbVertex
100
AcDb2dVertex
 10
5047.223277874159
 20
2670.176263282505
 30
0.0
 42
-0.5595519418734724
  0
VERTEX
  5
14F3
330
14E3
100
AcDbEntity
  8
SANINDUSA
100
AcDbVertex
100
AcDb2dVertex
 10
5047.221851214451
 20
2670.178587604307
 30
0.0
 42
-0.2824196144421607
  0
VERTEX
  5
14F4
330
14E3
100
AcDbEntity
  8
SANINDUSA
100
AcDbVertex
100
AcDb2dVertex
 10
5047.229876175316
 20
2670.183513294168
 30
0.0
  0
VERTEX
  5
14F5
330
14E3
100
AcDbEntity
  8
SANINDUSA
100
AcDbVertex
100
AcDb2dVertex
 10
5047.246676175316
 20
2670.183513294168
 30
0.0
 42
-0.4142135623730951
  0
VERTEX
  5
14F6
330
14E3
100
AcDbEntity
  8
SANINDUSA
100
AcDbVertex
100
AcDb2dVertex
 10
5047.248476175316
 20
2670.181713294168
 30
0.0
  0
VERTEX
  5
14F7
330
14E3
100
AcDbEntity
  8
SANINDUSA
100
AcDbVertex
100
AcDb2dVertex
 10
5047.248476175316
 20
2670.167313294168
 30
0.0
 42
-0.4142135623730951
  0
VERTEX
  5
14F8
330
14E3
100
AcDbEntity
  8
SANINDUSA
100
AcDbVertex
100
AcDb2dVertex
 10
5047.246676175316
 20
2670.165513294168
 30
0.0
  0
VERTEX
  5
14F9
330
14E3
100
AcDbEntity
  8
SANINDUSA
100
AcDbVertex
100
AcDb2dVertex
 10
5047.223482428031
 20
2670.165513294168
 30
0.0
 42
-0.414213562373095
  0
VERTEX
  5
14FA
330
14E3
100
AcDbEntity
  8
SANINDUSA
100
AcDbVertex
100
AcDb2dVertex
 10
5047.221682428031
 20
2670.167313294168
 30
0.0
  0
VERTEX
  5
14FB
330
14E3
100
AcDbEntity
  8
SANINDUSA
100
AcDbVertex
100
AcDb2dVertex
 10
5047.221682428031
 20
2670.170963282505
 30
0.0
 42
-0.4142135623731689
  0
VERTEX
  5
14FC
330
14E3
100
AcDbEntity
  8
SANINDUSA
100
AcDbVertex
100
AcDb2dVertex
 10
5047.223482428031
 20
2670.172763282504
 30
0.0
  0
VERTEX
  5
14FD
330
14E3
100
AcDbEntity
  8
SANINDUSA
100
AcDbVertex
100
AcDb2dVertex
 10
5047.224277489883
 20
2670.172763282504
 30
0.0
 42
0.2881936776528216
  0
VERTEX
  5
14FE
330
14E3
100
AcDbEntity
  8
SANINDUSA
100
AcDbVertex
100
AcDb2dVertex
 10
5047.224457715259
 20
2670.17287657141
 30
0.0
 42
-0.6285957498500262
  0
VERTEX
  5
14FF
330
14E3
100
AcDbEntity
  8
SANINDUSA
100
AcDbVertex
100
AcDb2dVertex
 10
5047.224908278699
 20
2670.17287657141
 30
0.0
 42
0.2881936776519791
  0
VERTEX
  5
1500
330
14E3
100
AcDbEntity
  8
SANINDUSA
100
AcDbVertex
100
AcDb2dVertex
 10
5047.225088504074
 20
2670.172763282504
 30
0.0
  0
VERTEX
  5
1501
330
14E3
100
AcDbEntity
  8
SANINDUSA
100
AcDbVertex
100
AcDb2dVertex
 10
5047.227277488627
 20
2670.172763282504
 30
0.0
 42
0.2881936776528216
  0
VERTEX
  5
1502
330
14E3
100
AcDbEntity
  8
SANINDUSA
100
AcDbVertex
100
AcDb2dVertex
 10
5047.227457714003
 20
2670.17287657141
 30
0.0
 42
-0.6285957498503012
  0
SEQEND
  5
1503
330
14E3
100
AcDbEntity
  8
SANINDUSA
  0
POLYLINE
  5
1504
330
1F
100
AcDbEntity
  8
SANINDUSA
100
AcDb2dPolyline
 66
     1
 10
0.0
 20
0.0
 30
0.0
  0
VERTEX
  5
1505
330
1504
100
AcDbEntity
  8
SANINDUSA
100
AcDbVertex
100
AcDb2dVertex
 10
5047.223277874159
 20
2670.177063282504
 30
0.0
 42
-0.5595519418736761
  0
VERTEX
  5
1506
330
1504
100
AcDbEntity
  8
SANINDUSA
100
AcDbVertex
100
AcDb2dVertex
 10
5047.222564544306
 20
2670.178225443406
 30
0.0
 42
-0.2824196144421585
  0
VERTEX
  5
1507
330
1504
100
AcDbEntity
  8
SANINDUSA
100
AcDbVertex
100
AcDb2dVertex
 10
5047.229876175316
 20
2670.182713294168
 30
0.0
  0
VERTEX
  5
1508
330
1504
100
AcDbEntity
  8
SANINDUSA
100
AcDbVertex
100
AcDb2dVertex
 10
5047.246676175316
 20
2670.182713294168
 30
0.0
 42
-0.4142135623730951
  0
VERTEX
  5
1509
330
1504
100
AcDbEntity
  8
SANINDUSA
100
AcDbVertex
100
AcDb2dVertex
 10
5047.247676175317
 20
2670.181713294168
 30
0.0
  0
VERTEX
  5
150A
330
1504
100
AcDbEntity
  8
SANINDUSA
100
AcDbVertex
100
AcDb2dVertex
 10
5047.247676175317
 20
2670.167313294168
 30
0.0
 42
-0.4142135623730951
  0
VERTEX
  5
150B
330
1504
100
AcDbEntity
  8
SANINDUSA
100
AcDbVertex
100
AcDb2dVertex
 10
5047.246676175316
 20
2670.166313294168
 30
0.0
  0
VERTEX
  5
150C
330
1504
100
AcDbEntity
  8
SANINDUSA
100
AcDbVertex
100
AcDb2dVertex
 10
5047.223282428031
 20
2670.166313294168
 30
0.0
 42
-0.4142135623730951
  0
VERTEX
  5
150D
330
1504
100
AcDbEntity
  8
SANINDUSA
100
AcDbVertex
100
AcDb2dVertex
 10
5047.222482428031
 20
2670.167113294168
 30
0.0
  0
VERTEX
  5
150E
330
1504
100
AcDbEntity
  8
SANINDUSA
100
AcDbVertex
100
AcDb2dVertex
 10
5047.222482428031
 20
2670.171158229131
 30
0.0
 42
-0.4141964814073941
  0
VERTEX
  5
150F
330
1504
100
AcDbEntity
  8
SANINDUSA
100
AcDbVertex
100
AcDb2dVertex
 10
5047.223282381377
 20
2670.171958229131
 30
0.0
  0
VERTEX
  5
1510
330
1504
100
AcDbEntity
  8
SANINDUSA
100
AcDbVertex
100
AcDb2dVertex
 10
5047.228682562497
 20
2670.171958229131
 30
0.0
 42
0.4142135623730951
  0
VERTEX
  5
1511
330
1504
100
AcDbEntity
  8
SANINDUSA
100
AcDbVertex
100
AcDb2dVertex
 10
5047.229482562497
 20
2670.17275822913
 30
0.0
  0
VERTEX
  5
1512
330
1504
100
AcDbEntity
  8
SANINDUSA
100
AcDbVertex
100
AcDb2dVertex
 10
5047.229482562497
 20
2670.176263007633
 30
0.0
 42
0.4141964814075006
  0
VERTEX
  5
1513
330
1504
100
AcDbEntity
  8
SANINDUSA
100
AcDbVertex
100
AcDb2dVertex
 10
5047.228682609151
 20
2670.177063007631
 30
0.0
  0
VERTEX
  5
1514
330
1504
100
AcDbEntity
  8
SANINDUSA
100
AcDbVertex
100
AcDb2dVertex
 10
5047.223269795318
 20
2670.177063323298
 30
0.0
  0
SEQEND
  5
1515
330
1504
100
AcDbEntity
  8
SANINDUSA
  0
LINE
  5
1516
330
1F
100
AcDbEntity
  8
SANINDUSA
100
AcDbLine
 10
5047.221682428031
 20
2670.165513294168
 30
0.0
 11
5047.221682428031
 21
2670.183513294168
 31
0.0
  0
LWPOLYLINE
  5
1517
330
1F
100
AcDbEntity
  8
SANINDUSA
100
AcDbPolyline
 90
       24
 70
     0
 43
0.0
 10
5046.954886981902
 20
2670.177063282504
 42
0.5595519418736761
 10
5046.955600311757
 20
2670.178225443406
 42
0.2824196144421492
 10
5046.948288680746
 20
2670.182713294168
 10
5046.931488680746
 20
2670.182713294168
 42
0.4142135623730951
 10
5046.930488680746
 20
2670.181713294168
 10
5046.930488680746
 20
2670.167313294168
 42
0.4142135623730951
 10
5046.931488680746
 20
2670.166313294168
 10
5046.94553820143
 20
2670.166313294168
 42
0.4142179409445129
 10
5046.945738201429
 20
2670.166513297158
 10
5046.945738193958
 20
2670.167013142355
 42
-0.4142135623730951
 10
5046.946838159425
 20
2670.168113176886
 10
5046.952281788136
 20
2670.168113416617
 42
-0.4142135623729619
 10
5046.953281819529
 20
2670.16711344801
 10
5046.953281819529
 20
2670.166513294168
 42
0.4142135623731557
 10
5046.953481819529
 20
2670.166313294168
 10
5046.954882428031
 20
2670.166313294168
 42
0.4142135623730951
 10
5046.955682428031
 20
2670.167113294168
 10
5046.955682428031
 20
2670.171158229131
 42
0.4141964814073941
 10
5046.954882474685
 20
2670.171958229131
 10
5046.949482293566
 20
2670.171958229131
 42
-0.4142135623730951
 10
5046.948682293566
 20
2670.17275822913
 10
5046.948682293566
 20
2670.176263007633
 42
-0.4141964814075605
 10
5046.949482246912
 20
2670.177063007631
 10
5046.954895060744
 20
2670.177063323298
  0
LWPOLYLINE
  5
1518
330
1F
100
AcDbEntity
  8
SANINDUSA
100
AcDbPolyline
 90
       47
 70
     1
 43
0.0
 10
5046.95468242803
 20
2670.172763282504
 42
-0.4142135623731689
 10
5046.95648242803
 20
2670.170963282505
 10
5046.95648242803
 20
2670.167313294168
 42
-0.414213562373095
 10
5046.95468242803
 20
2670.165513294168
 10
5046.95078186034
 20
2670.165513294168
 42
-0.414213562373539
 10
5046.950481860341
 20
2670.165813294168
 10
5046.950481860341
 20
2670.166013369529
 42
-0.4142043677656045
 10
5046.950781850923
 20
2670.166313369529
 10
5046.952181844644
 20
2670.166313413478
 42
0.4142135623723476
 10
5046.952481835226
 20
2670.166613422896
 10
5046.952481822668
 20
2670.167013422896
 42
0.4142135623735391
 10
5046.95218181325
 20
2670.167313413478
 10
5046.946838184538
 20
2670.167313176886
 42
0.4142135623730951
 10
5046.946538193957
 20
2670.167013167469
 10
5046.946538199163
 20
2670.166613290263
 42
0.4142097496745312
 10
5046.946838199163
 20
2670.166313294168
 10
5046.948374807165
 20
2670.166313294168
 42
-0.4142124969067638
 10
5046.948674807165
 20
2670.16601329526
 10
5046.948674807893
 20
2670.165813295259
 42
-0.4142146278402292
 10
5046.948374807893
 20
2670.165513294168
 10
5046.931488680746
 20
2670.165513294168
 42
-0.4142135623730951
 10
5046.929688680746
 20
2670.167313294168
 10
5046.929688680746
 20
2670.181713294168
 42
-0.4142135623730951
 10
5046.931488680746
 20
2670.183513294168
 10
5046.948288680746
 20
2670.183513294168
 42
-0.2824196144421607
 10
5046.956313641612
 20
2670.178587604307
 42
-0.5595519418734725
 10
5046.954886981902
 20
2670.176263282505
 10
5046.953884971971
 20
2670.176263282505
 42
0.2849150464416745
 10
5046.953705810688
 20
2670.176152171393
 42
-0.6201736729454037
 10
5046.95325790748
 20
2670.176152171393
 42
0.2849150464419475
 10
5046.953078746196
 20
2670.176263282505
 10
5046.950884973228
 20
2670.176263282505
 42
0.2849150464416745
 10
5046.950705811944
 20
2670.176152171393
 42
-0.6201736729454037
 10
5046.950257908736
 20
2670.176152171393
 42
0.2849150464417386
 10
5046.950078747453
 20
2670.176263282505
 10
5046.949682547584
 20
2670.176263282505
 42
0.4141909714629504
 10
5046.949482547584
 20
2670.176063297931
 10
5046.949482308479
 20
2670.172963297931
 42
0.4142361536441169
 10
5046.949682308478
 20
2670.172763282504
 10
5046.950076353245
 20
2670.172763282504
 42
0.2881936776528218
 10
5046.950256578621
 20
2670.17287657141
 42
-0.6285957498503011
 10
5046.95070714206
 20
2670.17287657141
 42
0.2881936776528216
 10
5046.950887367436
 20
2670.172763282504
 10
5046.953076351989
 20
2670.172763282504
 42
0.2881936776519791
 10
5046.953256577364
 20
2670.17287657141
 42
-0.6285957498500262
 10
5046.953707140804
 20
2670.17287657141
 42
0.2881936776528216
 10
5046.953887366179
 20
2670.172763282504
  0
LWPOLYLINE
  5
1519
330
1F
100
AcDbEntity
  8
SANINDUSA
100
AcDbPolyline
 90
       16
 70
     1
 43
0.0
 10
5046.947109998895
 20
2670.167013295182
 10
5046.947109998895
 20
2670.166613295183
 42
0.4142135623731617
 10
5046.947409998896
 20
2670.166313295182
 10
5046.949109998895
 20
2670.166313295182
 10
5046.949109998895
 20
2670.164813295182
 10
5046.951848647809
 20
2670.155032406205
 42
0.336331981882131
 10
5046.952137537015
 20
2670.154813295182
 10
5046.952314460775
 20
2670.154813295182
 42
0.4966340902678533
 10
5046.952603349982
 20
2670.15519418416
 10
5046.949909998895
 20
2670.164813295182
 10
5046.949909998895
 20
2670.166313295182
 10
5046.951609998895
 20
2670.166313295182
 42
0.4142135623730951
 10
5046.951909998895
 20
2670.166613295183
 10
5046.951909998895
 20
2670.167013295182
 42
0.4142135623731228
 10
5046.951609998895
 20
2670.167313295182
 10
5046.947409998896
 20
2670.167313295182
 42
0.4142135623730655
  0
LWPOLYLINE
  5
151A
330
1F
100
AcDbEntity
  8
SANINDUSA
100
AcDbPolyline
 90
        4
 70
     1
 43
0.0
 10
5046.949582428031
 20
2670.173013297931
 10
5047.228582428032
 20
2670.173013297931
 10
5047.228582428032
 20
2670.17601329793
 10
5046.949582428031
 20
2670.17601329793
1001
GENIUS_GENREC_14
1002
{
1000
PYDIR
1011
5046.949582428031
1021
2670.17601329793
1031
0.0
1002
}
1002
{
1000
PXDIR
1011
5047.228582428032
1021
2670.173013297931
1031
0.0
1002
}
1002
{
1000
PORI
1011
5046.949582428031
1021
2670.173013297931
1031
0.0
1002
}
1002
{
1000
PINS
1011
5046.949582428031
1021
2670.173013297931
1031
0.0
1002
}
1002
{
1000
PINS2
1011
5047.228582428032
1021
2670.17601329793
1031
0.0
1002
}
1002
{
1000
C
1070
     1
1002
}
1001
GENIUS_GENODEF_13
1002
{
1000
HIER
1070
     0
1002
}
1002
{
1000
MANEDIT
1070
     0
1002
}
1002
{
1000
NOSEL
1070
     0
1002
}
1002
{
1000
BEHIND
1070
     0
1002
}
1002
{
1000
OTHER
1070
     0
1002
}
1002
{
1000
REACTOR
1002
}
1001
GENIUS_GENOBJ-N-REC_13
1002
{
1000
OWNER
1000
GEN
1002
}
  0
LINE
  5
151B
330
1F
100
AcDbEntity
  8
SANINDUSA
100
AcDbLine
 10
5046.496176175317
 20
2669.440007041453
 30
0.0
 11
5046.496176175317
 21
2669.707007041453
 31
0.0
  0
LINE
  5
151C
330
1F
100
AcDbEntity
  8
SANINDUSA
100
AcDbLine
 10
5046.478176175317
 20
2669.713400788738
 30
0.0
 11
5046.478176175317
 21
2669.440007041453
 31
0.0
  0
LWPOLYLINE
  5
151D
330
1F
100
AcDbEntity
  8
SANINDUSA
100
AcDbPolyline
 90
        4
 70
     1
 43
0.0
 10
5046.488676171555
 20
2669.712107041453
 10
5046.488676171556
 20
2669.433107041453
 10
5046.485676171556
 20
2669.433107041453
 10
5046.485676171554
 20
2669.712107041453
1001
GENIUS_GENREC_14
1002
{
1000
PYDIR
1011
5046.485676171554
1021
2669.712107041453
1031
0.0
1002
}
1002
{
1000
PXDIR
1011
5046.488676171556
1021
2669.433107041453
1031
0.0
1002
}
1002
{
1000
PORI
1011
5046.488676171555
1021
2669.712107041453
1031
0.0
1002
}
1002
{
1000
PINS
1011
5046.488676171555
1021
2669.712107041453
1031
0.0
1002
}
1002
{
1000
PINS2
1011
5046.485676171556
1021
2669.433107041453
1031
0.0
1002
}
1002
{
1000
C
1070
     1
1002
}
1001
GENIUS_GENODEF_13
1002
{
1000
HIER
1070
     0
1002
}
1002
{
1000
MANEDIT
1070
     0
1002
}
1002
{
1000
NOSEL
1070
     0
1002
}
1002
{
1000
BEHIND
1070
     0
1002
}
1002
{
1000
OTHER
1070
     0
1002
}
1002
{
1000
REACTOR
1002
}
1001
GENIUS_GENOBJ-N-REC_13
1002
{
1000
OWNER
1000
GEN
1002
}
  0
LWPOLYLINE
  5
151E
330
1F
100
AcDbEntity
  8
SANINDUSA
100
AcDbPolyline
 90
       16
 70
     1
 43
0.0
 10
5046.494676174303
 20
2669.714579470589
 10
5046.495076174303
 20
2669.714579470589
 42
-0.4142135623731617
 10
5046.495376174302
 20
2669.714279470589
 10
5046.495376174302
 20
2669.712579470589
 10
5046.496876174303
 20
2669.712579470589
 10
5046.506657063281
 20
2669.709840821675
 42
-0.336331981882131
 10
5046.506876174303
 20
2669.709551932469
 10
5046.506876174303
 20
2669.709375008709
 42
-0.4966340902678533
 10
5046.506495285325
 20
2669.709086119503
 10
5046.496876174303
 20
2669.711779470589
 10
5046.495376174302
 20
2669.711779470589
 10
5046.495376174302
 20
2669.710079470589
 42
-0.4142135623730951
 10
5046.495076174303
 20
2669.709779470589
 10
5046.494676174303
 20
2669.709779470589
 42
-0.4142135623731228
 10
5046.494376174304
 20
2669.710079470589
 10
5046.494376174304
 20
2669.714279470589
 42
-0.4142135623730655
  0
LWPOLYLINE
  5
151F
330
1F
100
AcDbEntity
  8
SANINDUSA
100
AcDbPolyline
 90
       47
 70
     1
 43
0.0
 10
5046.488926186981
 20
2669.707007041453
 42
0.4142135623731689
 10
5046.490726186981
 20
2669.705207041453
 10
5046.494376175317
 20
2669.705207041453
 42
0.414213562373095
 10
5046.496176175317
 20
2669.707007041453
 10
5046.496176175317
 20
2669.710907609144
 42
0.414213562373539
 10
5046.495876175317
 20
2669.711207609144
 10
5046.495676099955
 20
2669.711207609144
 42
0.4142043677656045
 10
5046.495376099956
 20
2669.710907618561
 10
5046.495376056006
 20
2669.709507624841
 42
-0.4142135623723476
 10
5046.495076046589
 20
2669.709207634259
 10
5046.494676046589
 20
2669.709207646815
 42
-0.4142135623735391
 10
5046.494376056007
 20
2669.709507656233
 10
5046.494376292599
 20
2669.714851284945
 42
-0.4142135623730951
 10
5046.494676302017
 20
2669.715151275527
 10
5046.495076179223
 20
2669.715151270322
 42
-0.4142097496745312
 10
5046.495376175317
 20
2669.714851270321
 10
5046.495376175317
 20
2669.713314662319
 42
0.4142124969067638
 10
5046.495676174226
 20
2669.713014662319
 10
5046.495876174225
 20
2669.713014661591
 42
0.4142146278402292
 10
5046.496176175317
 20
2669.713314661591
 10
5046.496176175317
 20
2669.730200788738
 42
0.4142135623730951
 10
5046.494376175317
 20
2669.732000788738
 10
5046.479976175318
 20
2669.732000788738
 42
0.4142135623730951
 10
5046.478176175317
 20
2669.730200788738
 10
5046.478176175317
 20
2669.713400788738
 42
0.2824196144421607
 10
5046.483101865178
 20
2669.705375827873
 42
0.5595519418734725
 10
5046.48542618698
 20
2669.706802487582
 10
5046.48542618698
 20
2669.707804497513
 42
-0.2849150464416745
 10
5046.485537298092
 20
2669.707983658796
 42
0.6201736729454037
 10
5046.485537298092
 20
2669.708431562004
 42
-0.2849150464419475
 10
5046.48542618698
 20
2669.708610723287
 10
5046.48542618698
 20
2669.710804496256
 42
-0.2849150464416745
 10
5046.485537298092
 20
2669.71098365754
 42
0.6201736729454037
 10
5046.485537298092
 20
2669.711431560747
 42
-0.2849150464417386
 10
5046.48542618698
 20
2669.711610722031
 10
5046.48542618698
 20
2669.7120069219
 42
-0.4141909714629504
 10
5046.485626171556
 20
2669.7122069219
 10
5046.488726171554
 20
2669.712207161006
 42
-0.4142361536441169
 10
5046.488926186981
 20
2669.712007161006
 10
5046.488926186981
 20
2669.711613116239
 42
-0.2881936776528218
 10
5046.488812898076
 20
2669.711432890863
 42
0.6285957498503011
 10
5046.488812898076
 20
2669.710982327424
 42
-0.2881936776528216
 10
5046.488926186981
 20
2669.710802102049
 10
5046.488926186981
 20
2669.708613117495
 42
-0.2881936776519791
 10
5046.488812898076
 20
2669.70843289212
 42
0.6285957498500262
 10
5046.488812898076
 20
2669.70798232868
 42
-0.2881936776528216
 10
5046.488926186981
 20
2669.707802103305
  0
LWPOLYLINE
  5
1520
330
1F
100
AcDbEntity
  8
SANINDUSA
100
AcDbPolyline
 90
       24
 70
     0
 43
0.0
 10
5046.48462618698
 20
2669.706802487582
 42
-0.5595519418736761
 10
5046.48346402608
 20
2669.706089157728
 42
-0.2824196144421492
 10
5046.478976175317
 20
2669.713400788738
 10
5046.478976175317
 20
2669.730200788738
 42
-0.4142135623730951
 10
5046.479976175318
 20
2669.731200788738
 10
5046.494376175317
 20
2669.731200788738
 42
-0.4142135623730951
 10
5046.495376175317
 20
2669.730200788738
 10
5046.495376175317
 20
2669.716151268054
 42
-0.4142179409445129
 10
5046.495176172327
 20
2669.715951268054
 10
5046.49467632713
 20
2669.715951275526
 42
0.4142135623730951
 10
5046.493576292599
 20
2669.714851310058
 10
5046.493576052868
 20
2669.709407681347
 42
0.4142135623729619
 10
5046.494576021475
 20
2669.708407649955
 10
5046.495176175318
 20
2669.708407649955
 42
-0.4142135623731557
 10
5046.495376175317
 20
2669.708207649955
 10
5046.495376175317
 20
2669.706807041453
 42
-0.4142135623730951
 10
5046.494576175317
 20
2669.706007041453
 10
5046.490531240354
 20
2669.706007041453
 42
-0.4141964814073941
 10
5046.489731240354
 20
2669.706806994798
 10
5046.489731240354
 20
2669.712207175918
 42
0.4142135623730951
 10
5046.488931240355
 20
2669.713007175918
 10
5046.485426461853
 20
2669.713007175918
 42
0.4141964814075605
 10
5046.484626461854
 20
2669.712207222573
 10
5046.484626146187
 20
2669.706794408739
  0
POLYLINE
  5
1521
330
1F
100
AcDbEntity
  8
SANINDUSA
100
AcDb2dPolyline
 66
     1
 10
0.0
 20
0.0
 30
0.0
  0
VERTEX
  5
1522
330
1521
100
AcDbEntity
  8
SANINDUSA
100
AcDbVertex
100
AcDb2dVertex
 10
5046.484626186981
 20
2669.438411595324
 30
0.0
 42
0.5595519418736761
  0
VERTEX
  5
1523
330
1521
100
AcDbEntity
  8
SANINDUSA
100
AcDbVertex
100
AcDb2dVertex
 10
5046.48346402608
 20
2669.439124925178
 30
0.0
 42
0.2824196144421585
  0
VERTEX
  5
1524
330
1521
100
AcDbEntity
  8
SANINDUSA
100
AcDbVertex
100
AcDb2dVertex
 10
5046.478976175318
 20
2669.431813294167
 30
0.0
  0
VERTEX
  5
1525
330
1521
100
AcDbEntity
  8
SANINDUSA
100
AcDbVertex
100
AcDb2dVertex
 10
5046.478976175318
 20
2669.415013294167
 30
0.0
 42
0.4142135623730951
  0
VERTEX
  5
1526
330
1521
100
AcDbEntity
  8
SANINDUSA
100
AcDbVertex
100
AcDb2dVertex
 10
5046.479976175318
 20
2669.414013294168
 30
0.0
  0
VERTEX
  5
1527
330
1521
100
AcDbEntity
  8
SANINDUSA
100
AcDbVertex
100
AcDb2dVertex
 10
5046.494376175317
 20
2669.414013294168
 30
0.0
 42
0.4142135623730951
  0
VERTEX
  5
1528
330
1521
100
AcDbEntity
  8
SANINDUSA
100
AcDbVertex
100
AcDb2dVertex
 10
5046.495376175318
 20
2669.415013294167
 30
0.0
  0
VERTEX
  5
1529
330
1521
100
AcDbEntity
  8
SANINDUSA
100
AcDbVertex
100
AcDb2dVertex
 10
5046.495376175318
 20
2669.438407041452
 30
0.0
 42
0.4142135623730951
  0
VERTEX
  5
152A
330
1521
100
AcDbEntity
  8
SANINDUSA
100
AcDbVertex
100
AcDb2dVertex
 10
5046.494576175318
 20
2669.439207041452
 30
0.0
  0
VERTEX
  5
152B
330
1521
100
AcDbEntity
  8
SANINDUSA
100
AcDbVertex
100
AcDb2dVertex
 10
5046.490531240355
 20
2669.439207041452
 30
0.0
 42
0.4141964814073941
  0
VERTEX
  5
152C
330
1521
100
AcDbEntity
  8
SANINDUSA
100
AcDbVertex
100
AcDb2dVertex
 10
5046.489731240356
 20
2669.438407088107
 30
0.0
  0
VERTEX
  5
152D
330
1521
100
AcDbEntity
  8
SANINDUSA
100
AcDbVertex
100
AcDb2dVertex
 10
5046.489731240356
 20
2669.433006906988
 30
0.0
 42
-0.4142135623730951
  0
VERTEX
  5
152E
330
1521
100
AcDbEntity
  8
SANINDUSA
100
AcDbVertex
100
AcDb2dVertex
 10
5046.488931240356
 20
2669.432206906988
 30
0.0
  0
VERTEX
  5
152F
330
1521
100
AcDbEntity
  8
SANINDUSA
100
AcDbVertex
100
AcDb2dVertex
 10
5046.485426461853
 20
2669.432206906988
 30
0.0
 42
-0.4141964814075006
  0
VERTEX
  5
1530
330
1521
100
AcDbEntity
  8
SANINDUSA
100
AcDbVertex
100
AcDb2dVertex
 10
5046.484626461854
 20
2669.433006860333
 30
0.0
  0
VERTEX
  5
1531
330
1521
100
AcDbEntity
  8
SANINDUSA
100
AcDbVertex
100
AcDb2dVertex
 10
5046.484626146188
 20
2669.438419674166
 30
0.0
  0
SEQEND
  5
1532
330
1521
100
AcDbEntity
  8
SANINDUSA
  0
POLYLINE
  5
1533
330
1F
100
AcDbEntity
  8
SANINDUSA
100
AcDb2dPolyline
 66
     1
 10
0.0
 20
0.0
 30
0.0
 70
     1
  0
VERTEX
  5
1534
330
1533
100
AcDbEntity
  8
SANINDUSA
100
AcDbVertex
100
AcDb2dVertex
 10
5046.488812898076
 20
2669.433781192042
 30
0.0
 42
-0.2881936776524728
  0
VERTEX
  5
1535
330
1533
100
AcDbEntity
  8
SANINDUSA
100
AcDbVertex
100
AcDb2dVertex
 10
5046.488926186981
 20
2669.433600966667
 30
0.0
  0
VERTEX
  5
1536
330
1533
100
AcDbEntity
  8
SANINDUSA
100
AcDbVertex
100
AcDb2dVertex
 10
5046.488926186981
 20
2669.4332069219
 30
0.0
 42
-0.4142361536442981
  0
VERTEX
  5
1537
330
1533
100
AcDbEntity
  8
SANINDUSA
100
AcDbVertex
100
AcDb2dVertex
 10
5046.488726171556
 20
2669.4330069219
 30
0.0
  0
VERTEX
  5
1538
330
1533
100
AcDbEntity
  8
SANINDUSA
100
AcDbVertex
100
AcDb2dVertex
 10
5046.485626171556
 20
2669.433007161006
 30
0.0
 42
-0.4141909714629004
  0
VERTEX
  5
1539
330
1533
100
AcDbEntity
  8
SANINDUSA
100
AcDbVertex
100
AcDb2dVertex
 10
5046.485426186982
 20
2669.433207161005
 30
0.0
  0
VERTEX
  5
153A
330
1533
100
AcDbEntity
  8
SANINDUSA
100
AcDbVertex
100
AcDb2dVertex
 10
5046.485426186982
 20
2669.433603360875
 30
0.0
 42
-0.2849150464417384
  0
VERTEX
  5
153B
330
1533
100
AcDbEntity
  8
SANINDUSA
100
AcDbVertex
100
AcDb2dVertex
 10
5046.485537298092
 20
2669.433782522158
 30
0.0
 42
0.6201736729454037
  0
VERTEX
  5
153C
330
1533
100
AcDbEntity
  8
SANINDUSA
100
AcDbVertex
100
AcDb2dVertex
 10
5046.485537298092
 20
2669.434230425366
 30
0.0
 42
-0.2849150464416744
  0
VERTEX
  5
153D
330
1533
100
AcDbEntity
  8
SANINDUSA
100
AcDbVertex
100
AcDb2dVertex
 10
5046.485426186982
 20
2669.43440958665
 30
0.0
  0
VERTEX
  5
153E
330
1533
100
AcDbEntity
  8
SANINDUSA
100
AcDbVertex
100
AcDb2dVertex
 10
5046.485426186982
 20
2669.436603359618
 30
0.0
 42
-0.2849150464419475
  0
VERTEX
  5
153F
330
1533
100
AcDbEntity
  8
SANINDUSA
100
AcDbVertex
100
AcDb2dVertex
 10
5046.485537298092
 20
2669.436782520901
 30
0.0
 42
0.6201736729454037
  0
VERTEX
  5
1540
330
1533
100
AcDbEntity
  8
SANINDUSA
100
AcDbVertex
100
AcDb2dVertex
 10
5046.485537298092
 20
2669.43723042411
 30
0.0
 42
-0.2849150464416744
  0
VERTEX
  5
1541
330
1533
100
AcDbEntity
  8
SANINDUSA
100
AcDbVertex
100
AcDb2dVertex
 10
5046.485426186982
 20
2669.437409585393
 30
0.0
  0
VERTEX
  5
1542
330
1533
100
AcDbEntity
  8
SANINDUSA
100
AcDbVertex
100
AcDb2dVertex
 10
5046.485426186982
 20
2669.438411595324
 30
0.0
 42
0.5595519418734724
  0
VERTEX
  5
1543
330
1533
100
AcDbEntity
  8
SANINDUSA
100
AcDbVertex
100
AcDb2dVertex
 10
5046.483101865179
 20
2669.439838255033
 30
0.0
 42
0.2824196144421607
  0
VERTEX
  5
1544
330
1533
100
AcDbEntity
  8
SANINDUSA
100
AcDbVertex
100
AcDb2dVertex
 10
5046.478176175317
 20
2669.431813294167
 30
0.0
  0
VERTEX
  5
1545
330
1533
100
AcDbEntity
  8
SANINDUSA
100
AcDbVertex
100
AcDb2dVertex
 10
5046.478176175317
 20
2669.415013294167
 30
0.0
 42
0.4142135623730951
  0
VERTEX
  5
1546
330
1533
100
AcDbEntity
  8
SANINDUSA
100
AcDbVertex
100
AcDb2dVertex
 10
5046.479976175318
 20
2669.413213294167
 30
0.0
  0
VERTEX
  5
1547
330
1533
100
AcDbEntity
  8
SANINDUSA
100
AcDbVertex
100
AcDb2dVertex
 10
5046.494376175317
 20
2669.413213294167
 30
0.0
 42
0.4142135623730951
  0
VERTEX
  5
1548
330
1533
100
AcDbEntity
  8
SANINDUSA
100
AcDbVertex
100
AcDb2dVertex
 10
5046.496176175317
 20
2669.415013294167
 30
0.0
  0
VERTEX
  5
1549
330
1533
100
AcDbEntity
  8
SANINDUSA
100
AcDbVertex
100
AcDb2dVertex
 10
5046.496176175317
 20
2669.438207041453
 30
0.0
 42
0.414213562373095
  0
VERTEX
  5
154A
330
1533
100
AcDbEntity
  8
SANINDUSA
100
AcDbVertex
100
AcDb2dVertex
 10
5046.494376175317
 20
2669.440007041453
 30
0.0
  0
VERTEX
  5
154B
330
1533
100
AcDbEntity
  8
SANINDUSA
100
AcDbVertex
100
AcDb2dVertex
 10
5046.490726186981
 20
2669.440007041453
 30
0.0
 42
0.4142135623731689
  0
VERTEX
  5
154C
330
1533
100
AcDbEntity
  8
SANINDUSA
100
AcDbVertex
100
AcDb2dVertex
 10
5046.488926186981
 20
2669.438207041452
 30
0.0
  0
VERTEX
  5
154D
330
1533
100
AcDbEntity
  8
SANINDUSA
100
AcDbVertex
100
AcDb2dVertex
 10
5046.488926186981
 20
2669.437411979601
 30
0.0
 42
-0.2881936776528216
  0
VERTEX
  5
154E
330
1533
100
AcDbEntity
  8
SANINDUSA
100
AcDbVertex
100
AcDb2dVertex
 10
5046.488812898076
 20
2669.437231754225
 30
0.0
 42
0.6285957498500262
  0
VERTEX
  5
154F
330
1533
100
AcDbEntity
  8
SANINDUSA
100
AcDbVertex
100
AcDb2dVertex
 10
5046.488812898076
 20
2669.436781190786
 30
0.0
 42
-0.2881936776519791
  0
VERTEX
  5
1550
330
1533
100
AcDbEntity
  8
SANINDUSA
100
AcDbVertex
100
AcDb2dVertex
 10
5046.488926186981
 20
2669.43660096541
 30
0.0
  0
VERTEX
  5
1551
330
1533
100
AcDbEntity
  8
SANINDUSA
100
AcDbVertex
100
AcDb2dVertex
 10
5046.488926186981
 20
2669.434411980858
 30
0.0
 42
-0.2881936776528216
  0
VERTEX
  5
1552
330
1533
100
AcDbEntity
  8
SANINDUSA
100
AcDbVertex
100
AcDb2dVertex
 10
5046.488812898076
 20
2669.434231755482
 30
0.0
 42
0.6285957498503012
  0
SEQEND
  5
1553
330
1533
100
AcDbEntity
  8
SANINDUSA
  0
POLYLINE
  5
1554
330
1F
100
AcDbEntity
  8
SANINDUSA
100
AcDb2dPolyline
 66
     1
 10
0.0
 20
0.0
 30
0.0
 70
     1
  0
VERTEX
  5
1555
330
1554
100
AcDbEntity
  8
SANINDUSA
100
AcDbVertex
100
AcDb2dVertex
 10
5046.496726175318
 20
2669.438007041453
 30
0.0
 42
-0.4142135623730829
  0
VERTEX
  5
1556
330
1554
100
AcDbEntity
  8
SANINDUSA
100
AcDbVertex
100
AcDb2dVertex
 10
5046.497526175318
 20
2669.437207041453
 30
0.0
  0
VERTEX
  5
1557
330
1554
100
AcDbEntity
  8
SANINDUSA
100
AcDbVertex
100
AcDb2dVertex
 10
5046.497526175318
 20
2669.413813294168
 30
0.0
 42
-0.4142135623730951
  0
VERTEX
  5
1558
330
1554
100
AcDbEntity
  8
SANINDUSA
100
AcDbVertex
100
AcDb2dVertex
 10
5046.495726175318
 20
2669.412013294168
 30
0.0
  0
VERTEX
  5
1559
330
1554
100
AcDbEntity
  8
SANINDUSA
100
AcDbVertex
100
AcDb2dVertex
 10
5046.478626175318
 20
2669.412013294168
 30
0.0
 42
-0.4142135623730951
  0
VERTEX
  5
155A
330
1554
100
AcDbEntity
  8
SANINDUSA
100
AcDbVertex
100
AcDb2dVertex
 10
5046.476826175318
 20
2669.413813294168
 30
0.0
  0
VERTEX
  5
155B
330
1554
100
AcDbEntity
  8
SANINDUSA
100
AcDbVertex
100
AcDb2dVertex
 10
5046.476826175318
 20
2669.433813294168
 30
0.0
 42
-0.4142135623730951
  0
VERTEX
  5
155C
330
1554
100
AcDbEntity
  8
SANINDUSA
100
AcDbVertex
100
AcDb2dVertex
 10
5046.477626175318
 20
2669.434613294168
 30
0.0
  0
VERTEX
  5
155D
330
1554
100
AcDbEntity
  8
SANINDUSA
100
AcDbVertex
100
AcDb2dVertex
 10
5046.477826175318
 20
2669.434613294168
 30
0.0
  0
VERTEX
  5
155E
330
1554
100
AcDbEntity
  8
SANINDUSA
100
AcDbVertex
100
AcDb2dVertex
 10
5046.477826175318
 20
2669.413813294168
 30
0.0
 42
0.4142135623730951
  0
VERTEX
  5
155F
330
1554
100
AcDbEntity
  8
SANINDUSA
100
AcDbVertex
100
AcDb2dVertex
 10
5046.478626175318
 20
2669.413013294168
 30
0.0
  0
VERTEX
  5
1560
330
1554
100
AcDbEntity
  8
SANINDUSA
100
AcDbVertex
100
AcDb2dVertex
 10
5046.495726175318
 20
2669.413013294168
 30
0.0
 42
0.4142135623730951
  0
VERTEX
  5
1561
330
1554
100
AcDbEntity
  8
SANINDUSA
100
AcDbVertex
100
AcDb2dVertex
 10
5046.496526175317
 20
2669.413813294168
 30
0.0
  0
VERTEX
  5
1562
330
1554
100
AcDbEntity
  8
SANINDUSA
100
AcDbVertex
100
AcDb2dVertex
 10
5046.496526175317
 20
2669.438007041453
 30
0.0
  0
SEQEND
  5
1563
330
1554
100
AcDbEntity
  8
SANINDUSA
  0
LINE
  5
1564
330
1F
100
AcDbEntity
  8
SANINDUSA
100
AcDbLine
 10
5046.496176175317
 20
2669.440007041453
 30
0.0
 11
5046.478176175317
 21
2669.440007041453
 31
0.0
  0
LINE
  5
1565
330
1F
100
AcDbEntity
  8
SANINDUSA
100
AcDbLine
 10
5046.478176175317
 20
2669.440007041453
 30
0.0
 11
5046.478176175317
 21
2669.431813294167
 31
0.0
  0
LINE
  5
1566
330
1F
100
AcDbEntity
  8
SANINDUSA
100
AcDbLine
 10
5046.496176175317
 20
2669.438207041453
 30
0.0
 11
5046.496176175317
 21
2669.440007041453
 31
0.0
  0
ARC
  5
1567
330
1F
100
AcDbEntity
  8
SANINDUSA
100
AcDbCircle
 10
5047.003276425078
 20
2669.658413044407
 30
0.0
 40
0.5300013173371112
100
AcDbArc
 50
97.81123347062747
 51
172.1836115509001
  0
ARC
  5
1568
330
1F
100
AcDbEntity
  8
SANINDUSA
100
AcDbCircle
 10
5047.003276425078
 20
2669.658413044407
 30
0.0
 40
0.5120013173371114
100
AcDbArc
 50
97.93404177392666
 51
172.0659582482826
  0
POLYLINE
  5
1569
330
1F
100
AcDbEntity
  8
SANINDUSA
100
AcDb2dPolyline
 66
     1
 10
0.0
 20
0.0
 30
0.0
 70
     1
  0
VERTEX
  5
156A
330
1569
100
AcDbEntity
  8
SANINDUSA
100
AcDbVertex
100
AcDb2dVertex
 10
5046.66229793082
 20
2670.012563057153
 30
0.0
 42
-0.0392067269493321
  0
VERTEX
  5
156B
330
1569
100
AcDbEntity
  8
SANINDUSA
100
AcDbVertex
100
AcDb2dVertex
 10
5046.662833068487
 20
2670.013176757362
 30
0.0
  0
VERTEX
  5
156C
330
1569
100
AcDbEntity
  8
SANINDUSA
100
AcDbVertex
100
AcDb2dVertex
 10
5046.673546204234
 20
2670.023675744098
 30
0.0
 42
-0.4142135623730951
  0
VERTEX
  5
156D
330
1569
100
AcDbEntity
  8
SANINDUSA
100
AcDbVertex
100
AcDb2dVertex
 10
5046.673829032533
 20
2670.023672888778
 30
0.0
  0
VERTEX
  5
156E
330
1569
100
AcDbEntity
  8
SANINDUSA
100
AcDbVertex
100
AcDb2dVertex
 10
5046.675049575268
 20
2670.022427450496
 30
0.0
 42
-0.4141794006479897
  0
VERTEX
  5
156F
330
1569
100
AcDbEntity
  8
SANINDUSA
100
AcDbVertex
100
AcDb2dVertex
 10
5046.675046736608
 20
2670.022144638525
 30
0.0
  0
VERTEX
  5
1570
330
1569
100
AcDbEntity
  8
SANINDUSA
100
AcDbVertex
100
AcDb2dVertex
 10
5046.670904574355
 20
2670.018084328311
 30
0.0
 42
0.4141794006481879
  0
VERTEX
  5
1571
330
1569
100
AcDbEntity
  8
SANINDUSA
100
AcDbVertex
100
AcDb2dVertex
 10
5046.670890381053
 20
2670.016670268455
 30
0.0
  0
VERTEX
  5
1572
330
1569
100
AcDbEntity
  8
SANINDUSA
100
AcDbVertex
100
AcDb2dVertex
 10
5046.673759735607
 20
2670.013742387355
 30
0.0
 42
0.4142135623731032
  0
VERTEX
  5
1573
330
1569
100
AcDbEntity
  8
SANINDUSA
100
AcDbVertex
100
AcDb2dVertex
 10
5046.675173877105
 20
2670.013728110754
 30
0.0
  0
VERTEX
  5
1574
330
1569
100
AcDbEntity
  8
SANINDUSA
100
AcDbVertex
100
AcDb2dVertex
 10
5046.67931641292
 20
2670.017787839819
 30
0.0
 42
-0.4142135623734281
  0
VERTEX
  5
1575
330
1569
100
AcDbEntity
  8
SANINDUSA
100
AcDbVertex
100
AcDb2dVertex
 10
5046.679599241219
 20
2670.017784984499
 30
0.0
  0
VERTEX
  5
1576
330
1569
100
AcDbEntity
  8
SANINDUSA
100
AcDbVertex
100
AcDb2dVertex
 10
5046.680828357024
 20
2670.016530798281
 30
0.0
 42
-0.4142135623730951
  0
VERTEX
  5
1577
330
1569
100
AcDbEntity
  8
SANINDUSA
100
AcDbVertex
100
AcDb2dVertex
 10
5046.680825501704
 20
2670.016247969981
 30
0.0
  0
VERTEX
  5
1578
330
1569
100
AcDbEntity
  8
SANINDUSA
100
AcDbVertex
100
AcDb2dVertex
 10
5046.670112365958
 20
2670.005748983245
 30
0.0
 42
-0.0392054911123095
  0
VERTEX
  5
1579
330
1569
100
AcDbEntity
  8
SANINDUSA
100
AcDbVertex
100
AcDb2dVertex
 10
5046.669488007777
 20
2670.005226359609
 30
0.0
 42
-0.3690147635156997
  0
VERTEX
  5
157A
330
1569
100
AcDbEntity
  8
SANINDUSA
100
AcDbVertex
100
AcDb2dVertex
 10
5046.669099786511
 20
2670.005260793424
 30
0.0
  0
VERTEX
  5
157B
330
1569
100
AcDbEntity
  8
SANINDUSA
100
AcDbVertex
100
AcDb2dVertex
 10
5046.662324521686
 20
2670.012174219956
 30
0.0
 42
-0.3690147635155541
  0
SEQEND
  5
157C
330
1569
100
AcDbEntity
  8
SANINDUSA
  0
POLYLINE
  5
157D
330
1F
100
AcDbEntity
  8
SANINDUSA
100
AcDb2dPolyline
 66
     1
 10
0.0
 20
0.0
 30
0.0
  0
VERTEX
  5
157E
330
157D
100
AcDbEntity
  8
SANINDUSA
100
AcDbVertex
100
AcDb2dVertex
 10
5046.661902592874
 20
2670.013385002095
 30
0.0
 42
0.1716209804019301
  0
VERTEX
  5
157F
330
157D
100
AcDbEntity
  8
SANINDUSA
100
AcDbVertex
100
AcDb2dVertex
 10
5046.660142255643
 20
2670.009791998797
 30
0.0
 42
0.2265071203787086
  0
VERTEX
  5
1580
330
157D
100
AcDbEntity
  8
SANINDUSA
100
AcDbVertex
100
AcDb2dVertex
 10
5046.660198086396
 20
2670.009628928943
 30
0.0
  0
VERTEX
  5
1581
330
157D
100
AcDbEntity
  8
SANINDUSA
100
AcDbVertex
100
AcDb2dVertex
 10
5046.660995827322
 20
2670.008815011363
 30
0.0
 42
0.4142135623729286
  0
VERTEX
  5
1582
330
157D
100
AcDbEntity
  8
SANINDUSA
100
AcDbVertex
100
AcDb2dVertex
 10
5046.661561484254
 20
2670.00880933371
 30
0.0
  0
VERTEX
  5
1583
330
157D
100
AcDbEntity
  8
SANINDUSA
100
AcDbVertex
100
AcDb2dVertex
 10
5046.662046479455
 20
2670.009284689608
 30
0.0
 42
0.6681786379187177
  0
VERTEX
  5
1584
330
157D
100
AcDbEntity
  8
SANINDUSA
100
AcDbVertex
100
AcDb2dVertex
 10
5046.661908491988
 20
2670.009627513179
 30
0.0
  0
VERTEX
  5
1585
330
157D
100
AcDbEntity
  8
SANINDUSA
100
AcDbVertex
100
AcDb2dVertex
 10
5046.661396646435
 20
2670.009632650713
 30
0.0
 42
-0.1989123673798312
  0
VERTEX
  5
1586
330
157D
100
AcDbEntity
  8
SANINDUSA
100
AcDbVertex
100
AcDb2dVertex
 10
5046.661255820143
 20
2670.009692645819
 30
0.0
  0
VERTEX
  5
1587
330
157D
100
AcDbEntity
  8
SANINDUSA
100
AcDbVertex
100
AcDb2dVertex
 10
5046.661049215886
 20
2670.009903439612
 30
0.0
 42
-0.2461049196730113
  0
VERTEX
  5
1588
330
157D
100
AcDbEntity
  8
SANINDUSA
100
AcDbVertex
100
AcDb2dVertex
 10
5046.66099564401
 20
2670.010081181897
 30
0.0
 42
-0.0583912209941408
  0
VERTEX
  5
1589
330
157D
100
AcDbEntity
  8
SANINDUSA
100
AcDbVertex
100
AcDb2dVertex
 10
5046.661360883649
 20
2670.011235172144
 30
0.0
 42
-0.5279768385267204
  0
VERTEX
  5
158A
330
157D
100
AcDbEntity
  8
SANINDUSA
100
AcDbVertex
100
AcDb2dVertex
 10
5046.662011282264
 20
2670.011350882417
 30
0.0
  0
VERTEX
  5
158B
330
157D
100
AcDbEntity
  8
SANINDUSA
100
AcDbVertex
100
AcDb2dVertex
 10
5046.668270291939
 20
2670.004964238549
 30
0.0
 42
-0.5279768385263968
  0
VERTEX
  5
158C
330
157D
100
AcDbEntity
  8
SANINDUSA
100
AcDbVertex
100
AcDb2dVertex
 10
5046.668141477463
 20
2670.004316307954
 30
0.0
 42
-0.0583632005594956
  0
VERTEX
  5
158D
330
157D
100
AcDbEntity
  8
SANINDUSA
100
AcDbVertex
100
AcDb2dVertex
 10
5046.666980922736
 20
2670.003974533215
 30
0.0
 42
-0.2461049196740124
  0
VERTEX
  5
158E
330
157D
100
AcDbEntity
  8
SANINDUSA
100
AcDbVertex
100
AcDb2dVertex
 10
5046.666804291586
 20
2670.004031662033
 30
0.0
  0
VERTEX
  5
158F
330
157D
100
AcDbEntity
  8
SANINDUSA
100
AcDbVertex
100
AcDb2dVertex
 10
5046.666597582079
 20
2670.004242563209
 30
0.0
 42
-0.1989123673798311
  0
VERTEX
  5
1590
330
157D
100
AcDbEntity
  8
SANINDUSA
100
AcDbVertex
100
AcDb2dVertex
 10
5046.6665404258
 20
2670.004384565383
 30
0.0
  0
VERTEX
  5
1591
330
157D
100
AcDbEntity
  8
SANINDUSA
100
AcDbVertex
100
AcDb2dVertex
 10
5046.666545563333
 20
2670.004896410936
 30
0.0
 42
0.6681786379187177
  0
VERTEX
  5
1592
330
157D
100
AcDbEntity
  8
SANINDUSA
100
AcDbVertex
100
AcDb2dVertex
 10
5046.666205578587
 20
2670.005041251935
 30
0.0
  0
VERTEX
  5
1593
330
157D
100
AcDbEntity
  8
SANINDUSA
100
AcDbVertex
100
AcDb2dVertex
 10
5046.665720583384
 20
2670.004565896038
 30
0.0
 42
0.4142135623730951
  0
VERTEX
  5
1594
330
157D
100
AcDbEntity
  8
SANINDUSA
100
AcDbVertex
100
AcDb2dVertex
 10
5046.665714897189
 20
2670.004000247824
 30
0.0
  0
VERTEX
  5
1595
330
157D
100
AcDbEntity
  8
SANINDUSA
100
AcDbVertex
100
AcDb2dVertex
 10
5046.666445179438
 20
2670.003255156853
 30
0.0
 42
0.2309634091047596
  0
VERTEX
  5
1596
330
157D
100
AcDbEntity
  8
SANINDUSA
100
AcDbVertex
100
AcDb2dVertex
 10
5046.666775750955
 20
2670.003137674972
 30
0.0
 42
0.1672346938542433
  0
VERTEX
  5
1597
330
157D
100
AcDbEntity
  8
SANINDUSA
100
AcDbVertex
100
AcDb2dVertex
 10
5046.670301782263
 20
2670.004814493497
 30
0.0
  0
VERTEX
  5
1598
330
157D
100
AcDbEntity
  8
SANINDUSA
100
AcDbVertex
100
AcDb2dVertex
 10
5046.681385448802
 20
2670.015676601579
 30
0.0
 42
0.4142135623731617
  0
VERTEX
  5
1599
330
157D
100
AcDbEntity
  8
SANINDUSA
100
AcDbVertex
100
AcDb2dVertex
 10
5046.681399725403
 20
2670.017090743078
 30
0.0
  0
VERTEX
  5
159A
330
157D
100
AcDbEntity
  8
SANINDUSA
100
AcDbVertex
100
AcDb2dVertex
 10
5046.680167134423
 20
2670.018348475353
 30
0.0
 42
0.4142306435449703
  0
VERTEX
  5
159B
330
157D
100
AcDbEntity
  8
SANINDUSA
100
AcDbVertex
100
AcDb2dVertex
 10
5046.678752951275
 20
2670.018362711134
 30
0.0
  0
VERTEX
  5
159C
330
157D
100
AcDbEntity
  8
SANINDUSA
100
AcDbVertex
100
AcDb2dVertex
 10
5046.677614237506
 20
2670.01724662936
 30
0.0
 42
-0.2881936776526472
  0
VERTEX
  5
159D
330
157D
100
AcDbEntity
  8
SANINDUSA
100
AcDbVertex
100
AcDb2dVertex
 10
5046.677406226969
 20
2670.017201383601
 30
0.0
 42
0.628595749850598
  0
VERTEX
  5
159E
330
157D
100
AcDbEntity
  8
SANINDUSA
100
AcDbVertex
100
AcDb2dVertex
 10
5046.677084448876
 20
2670.016886000864
 30
0.0
 42
-0.2881936776522668
  0
VERTEX
  5
159F
330
157D
100
AcDbEntity
  8
SANINDUSA
100
AcDbVertex
100
AcDb2dVertex
 10
5046.677035036937
 20
2670.016678940432
 30
0.0
  0
VERTEX
  5
15A0
330
157D
100
AcDbEntity
  8
SANINDUSA
100
AcDbVertex
100
AcDb2dVertex
 10
5046.675471733714
 20
2670.015146707941
 30
0.0
 42
-0.2881936776528216
  0
VERTEX
  5
15A1
330
157D
100
AcDbEntity
  8
SANINDUSA
100
AcDbVertex
100
AcDb2dVertex
 10
5046.675263723177
 20
2670.015101462182
 30
0.0
 42
0.6285957498500262
  0
VERTEX
  5
15A2
330
157D
100
AcDbEntity
  8
SANINDUSA
100
AcDbVertex
100
AcDb2dVertex
 10
5046.674941945084
 20
2670.014786079445
 30
0.0
 42
-0.2881936776526472
  0
VERTEX
  5
15A3
330
157D
100
AcDbEntity
  8
SANINDUSA
100
AcDbVertex
100
AcDb2dVertex
 10
5046.674892533146
 20
2670.014579019013
 30
0.0
  0
VERTEX
  5
15A4
330
157D
100
AcDbEntity
  8
SANINDUSA
100
AcDbVertex
100
AcDb2dVertex
 10
5046.674610702197
 20
2670.014302789469
 30
0.0
 42
-0.4142135623729997
  0
VERTEX
  5
15A5
330
157D
100
AcDbEntity
  8
SANINDUSA
100
AcDbVertex
100
AcDb2dVertex
 10
5046.674327873731
 20
2670.014305628295
 30
0.0
  0
VERTEX
  5
15A6
330
157D
100
AcDbEntity
  8
SANINDUSA
100
AcDbVertex
100
AcDb2dVertex
 10
5046.671457979924
 20
2670.017233718037
 30
0.0
 42
-0.4142135623731903
  0
VERTEX
  5
15A7
330
157D
100
AcDbEntity
  8
SANINDUSA
100
AcDbVertex
100
AcDb2dVertex
 10
5046.67146081875
 20
2670.017516546502
 30
0.0
  0
VERTEX
  5
15A8
330
157D
100
AcDbEntity
  8
SANINDUSA
100
AcDbVertex
100
AcDb2dVertex
 10
5046.671744359565
 20
2670.01779445193
 30
0.0
 42
-0.2849150464417384
  0
VERTEX
  5
15A9
330
157D
100
AcDbEntity
  8
SANINDUSA
100
AcDbVertex
100
AcDb2dVertex
 10
5046.671950085762
 20
2670.017840508162
 30
0.0
 42
0.6201736729456835
  0
VERTEX
  5
15AA
330
157D
100
AcDbEntity
  8
SANINDUSA
100
AcDbVertex
100
AcDb2dVertex
 10
5046.672269964003
 20
2670.018154028807
 30
0.0
 42
-0.284915046441269
  0
VERTEX
  5
15AB
330
157D
100
AcDbEntity
  8
SANINDUSA
100
AcDbVertex
100
AcDb2dVertex
 10
5046.6723201404
 20
2670.01835878909
 30
0.0
  0
VERTEX
  5
15AC
330
157D
100
AcDbEntity
  8
SANINDUSA
100
AcDbVertex
100
AcDb2dVertex
 10
5046.673886863358
 20
2670.019894373349
 30
0.0
 42
-0.2849150464419475
  0
VERTEX
  5
15AD
330
157D
100
AcDbEntity
  8
SANINDUSA
100
AcDbVertex
100
AcDb2dVertex
 10
5046.674092589554
 20
2670.019940429581
 30
0.0
 42
0.6201736729451243
  0
VERTEX
  5
15AE
330
157D
100
AcDbEntity
  8
SANINDUSA
100
AcDbVertex
100
AcDb2dVertex
 10
5046.674412467794
 20
2670.020253950226
 30
0.0
 42
-0.2849150464416061
  0
VERTEX
  5
15AF
330
157D
100
AcDbEntity
  8
SANINDUSA
100
AcDbVertex
100
AcDb2dVertex
 10
5046.674462644191
 20
2670.020458710509
 30
0.0
  0
VERTEX
  5
15B0
330
157D
100
AcDbEntity
  8
SANINDUSA
100
AcDbVertex
100
AcDb2dVertex
 10
5046.675603338546
 20
2670.021576733506
 30
0.0
 42
0.4141964814073941
  0
VERTEX
  5
15B1
330
157D
100
AcDbEntity
  8
SANINDUSA
100
AcDbVertex
100
AcDb2dVertex
 10
5046.675617573497
 20
2670.022990834184
 30
0.0
  0
VERTEX
  5
15B2
330
157D
100
AcDbEntity
  8
SANINDUSA
100
AcDbVertex
100
AcDb2dVertex
 10
5046.674400400912
 20
2670.024232833575
 30
0.0
 42
0.4142135623732283
  0
VERTEX
  5
15B3
330
157D
100
AcDbEntity
  8
SANINDUSA
100
AcDbVertex
100
AcDb2dVertex
 10
5046.672986259412
 20
2670.024247110176
 30
0.0
  0
VERTEX
  5
15B4
330
157D
100
AcDbEntity
  8
SANINDUSA
100
AcDbVertex
100
AcDb2dVertex
 10
5046.664643326745
 20
2670.016070950377
 30
0.0
 42
-0.468822488376375
  0
VERTEX
  5
15B5
330
157D
100
AcDbEntity
  8
SANINDUSA
100
AcDbVertex
100
AcDb2dVertex
 10
5046.66311385565
 20
2670.016226710113
 30
0.0
 42
-0.0576948838717018
  0
VERTEX
  5
15B6
330
157D
100
AcDbEntity
  8
SANINDUSA
100
AcDbVertex
100
AcDb2dVertex
 10
5046.661085282766
 20
2670.020149502898
 30
0.0
 42
-0.3118351474612041
  0
VERTEX
  5
15B7
330
157D
100
AcDbEntity
  8
SANINDUSA
100
AcDbVertex
100
AcDb2dVertex
 10
5046.66135833583
 20
2670.021253019874
 30
0.0
 42
1.797146556744268
  0
VERTEX
  5
15B8
330
157D
100
AcDbEntity
  8
SANINDUSA
100
AcDbVertex
100
AcDb2dVertex
 10
5046.659730679504
 20
2670.021742055595
 30
0.0
 42
0.0886637753107092
  0
VERTEX
  5
15B9
330
157D
100
AcDbEntity
  8
SANINDUSA
100
AcDbVertex
100
AcDb2dVertex
 10
5046.662729897141
 20
2670.015375346287
 30
0.0
 42
-0.3686029284448436
  0
VERTEX
  5
15BA
330
157D
100
AcDbEntity
  8
SANINDUSA
100
AcDbVertex
100
AcDb2dVertex
 10
5046.662614274564
 20
2670.014082457705
 30
0.0
  0
VERTEX
  5
15BB
330
157D
100
AcDbEntity
  8
SANINDUSA
100
AcDbVertex
100
AcDb2dVertex
 10
5046.661902582298
 20
2670.01338499173
 30
0.0
  0
SEQEND
  5
15BC
330
157D
100
AcDbEntity
  8
SANINDUSA
  0
POLYLINE
  5
15BD
330
1F
100
AcDbEntity
  8
SANINDUSA
100
AcDb2dPolyline
 66
     1
 10
0.0
 20
0.0
 30
0.0
  0
VERTEX
  5
15BE
330
15BD
100
AcDbEntity
  8
SANINDUSA
100
AcDbVertex
100
AcDb2dVertex
 10
5046.662973495195
 20
2670.010445163767
 30
0.0
 42
0.4368825303742488
  0
VERTEX
  5
15BF
330
15BD
100
AcDbEntity
  8
SANINDUSA
100
AcDbVertex
100
AcDb2dVertex
 10
5046.662857721009
 20
2670.010535331763
 30
0.0
  0
VERTEX
  5
15C0
330
15BD
100
AcDbEntity
  8
SANINDUSA
100
AcDbVertex
100
AcDb2dVertex
 10
5046.661677542903
 20
2670.01034234615
 30
0.0
 42
0.414213562372984
  0
VERTEX
  5
15C1
330
15BD
100
AcDbEntity
  8
SANINDUSA
100
AcDbVertex
100
AcDb2dVertex
 10
5046.661495312852
 20
2670.010126031084
 30
0.0
  0
VERTEX
  5
15C2
330
15BD
100
AcDbEntity
  8
SANINDUSA
100
AcDbVertex
100
AcDb2dVertex
 10
5046.661499698899
 20
2670.010074746435
 30
0.0
 42
0.1989123673797088
  0
VERTEX
  5
15C3
330
15BD
100
AcDbEntity
  8
SANINDUSA
100
AcDbVertex
100
AcDb2dVertex
 10
5046.661570115352
 20
2670.009938831091
 30
0.0
  0
VERTEX
  5
15C4
330
15BD
100
AcDbEntity
  8
SANINDUSA
100
AcDbVertex
100
AcDb2dVertex
 10
5046.662240160131
 20
2670.009840679399
 30
0.0
 42
-0.2083851459438857
  0
VERTEX
  5
15C5
330
15BD
100
AcDbEntity
  8
SANINDUSA
100
AcDbVertex
100
AcDb2dVertex
 10
5046.662307998005
 20
2670.00979849348
 30
0.0
 42
-0.1302921987711861
  0
VERTEX
  5
15C6
330
15BD
100
AcDbEntity
  8
SANINDUSA
100
AcDbVertex
100
AcDb2dVertex
 10
5046.662463739015
 20
2670.009364361428
 30
0.0
  0
VERTEX
  5
15C7
330
15BD
100
AcDbEntity
  8
SANINDUSA
100
AcDbVertex
100
AcDb2dVertex
 10
5046.662502745911
 20
2670.008908266303
 30
0.0
 42
-0.3234232629811839
  0
VERTEX
  5
15C8
330
15BD
100
AcDbEntity
  8
SANINDUSA
100
AcDbVertex
100
AcDb2dVertex
 10
5046.662442501562
 20
2670.008807830547
 30
0.0
  0
VERTEX
  5
15C9
330
15BD
100
AcDbEntity
  8
SANINDUSA
100
AcDbVertex
100
AcDb2dVertex
 10
5046.661427328515
 20
2670.008372756385
 30
0.0
 42
0.1925824035672822
  0
VERTEX
  5
15CA
330
15BD
100
AcDbEntity
  8
SANINDUSA
100
AcDbVertex
100
AcDb2dVertex
 10
5046.660692012491
 20
2670.00763744036
 30
0.0
  0
VERTEX
  5
15CB
330
15BD
100
AcDbEntity
  8
SANINDUSA
100
AcDbVertex
100
AcDb2dVertex
 10
5046.660455256935
 20
2670.00708501073
 30
0.0
 42
-0.5305984520675703
  0
VERTEX
  5
15CC
330
15BD
100
AcDbEntity
  8
SANINDUSA
100
AcDbVertex
100
AcDb2dVertex
 10
5046.660292631755
 20
2670.007053691981
 30
0.0
  0
VERTEX
  5
15CD
330
15BD
100
AcDbEntity
  8
SANINDUSA
100
AcDbVertex
100
AcDb2dVertex
 10
5046.659384083701
 20
2670.007962240035
 30
0.0
 42
0.5072628673585859
  0
VERTEX
  5
15CE
330
15BD
100
AcDbEntity
  8
SANINDUSA
100
AcDbVertex
100
AcDb2dVertex
 10
5046.659224601161
 20
2670.007937568
 30
0.0
  0
VERTEX
  5
15CF
330
15BD
100
AcDbEntity
  8
SANINDUSA
100
AcDbVertex
100
AcDb2dVertex
 10
5046.657692665728
 20
2670.004983685146
 30
0.0
 42
0.3269085594239665
  0
VERTEX
  5
15D0
330
15BD
100
AcDbEntity
  8
SANINDUSA
100
AcDbVertex
100
AcDb2dVertex
 10
5046.657873277556
 20
2670.00381619193
 30
0.0
  0
VERTEX
  5
15D1
330
15BD
100
AcDbEntity
  8
SANINDUSA
100
AcDbVertex
100
AcDb2dVertex
 10
5046.660701704681
 20
2670.000987764805
 30
0.0
 42
0.3269085594239223
  0
VERTEX
  5
15D2
330
15BD
100
AcDbEntity
  8
SANINDUSA
100
AcDbVertex
100
AcDb2dVertex
 10
5046.661869197897
 20
2670.000807152976
 30
0.0
  0
VERTEX
  5
15D3
330
15BD
100
AcDbEntity
  8
SANINDUSA
100
AcDbVertex
100
AcDb2dVertex
 10
5046.66482308075
 20
2670.002339088411
 30
0.0
 42
0.5072628673591617
  0
VERTEX
  5
15D4
330
15BD
100
AcDbEntity
  8
SANINDUSA
100
AcDbVertex
100
AcDb2dVertex
 10
5046.664847752786
 20
2670.00249857095
 30
0.0
  0
VERTEX
  5
15D5
330
15BD
100
AcDbEntity
  8
SANINDUSA
100
AcDbVertex
100
AcDb2dVertex
 10
5046.66378688927
 20
2670.003559434466
 30
0.0
 42
-0.5305984520676007
  0
VERTEX
  5
15D6
330
15BD
100
AcDbEntity
  8
SANINDUSA
100
AcDbVertex
100
AcDb2dVertex
 10
5046.663818208018
 20
2670.003722059647
 30
0.0
  0
VERTEX
  5
15D7
330
15BD
100
AcDbEntity
  8
SANINDUSA
100
AcDbVertex
100
AcDb2dVertex
 10
5046.664444169252
 20
2670.003990328746
 30
0.0
 42
0.1925824035673543
  0
VERTEX
  5
15D8
330
15BD
100
AcDbEntity
  8
SANINDUSA
100
AcDbVertex
100
AcDb2dVertex
 10
5046.665074440128
 20
2670.004620599624
 30
0.0
  0
VERTEX
  5
15D9
330
15BD
100
AcDbEntity
  8
SANINDUSA
100
AcDbVertex
100
AcDb2dVertex
 10
5046.665506378218
 20
2670.005628455167
 30
0.0
 42
-0.3473749129884166
  0
VERTEX
  5
15DA
330
15BD
100
AcDbEntity
  8
SANINDUSA
100
AcDbVertex
100
AcDb2dVertex
 10
5046.665615352139
 20
2670.005687597374
 30
0.0
  0
VERTEX
  5
15DB
330
15BD
100
AcDbEntity
  8
SANINDUSA
100
AcDbVertex
100
AcDb2dVertex
 10
5046.666314329155
 20
2670.005566582043
 30
0.0
 42
-0.1103571466829044
  0
VERTEX
  5
15DC
330
15BD
100
AcDbEntity
  8
SANINDUSA
100
AcDbVertex
100
AcDb2dVertex
 10
5046.666677173138
 20
2670.005416899617
 30
0.0
 42
-0.2116742589343529
  0
VERTEX
  5
15DD
330
15BD
100
AcDbEntity
  8
SANINDUSA
100
AcDbVertex
100
AcDb2dVertex
 10
5046.666719013328
 20
2670.005347497405
 30
0.0
  0
VERTEX
  5
15DE
330
15BD
100
AcDbEntity
  8
SANINDUSA
100
AcDbVertex
100
AcDb2dVertex
 10
5046.666809809173
 20
2670.004626859638
 30
0.0
 42
0.1989123673797088
  0
VERTEX
  5
15DF
330
15BD
100
AcDbEntity
  8
SANINDUSA
100
AcDbVertex
100
AcDb2dVertex
 10
5046.66693916431
 20
2670.004545014016
 30
0.0
  0
VERTEX
  5
15E0
330
15BD
100
AcDbEntity
  8
SANINDUSA
100
AcDbVertex
100
AcDb2dVertex
 10
5046.666989881666
 20
2670.004536233216
 30
0.0
 42
0.4142135623729841
  0
VERTEX
  5
15E1
330
15BD
100
AcDbEntity
  8
SANINDUSA
100
AcDbVertex
100
AcDb2dVertex
 10
5046.667221068777
 20
2670.004699182654
 30
0.0
  0
VERTEX
  5
15E2
330
15BD
100
AcDbEntity
  8
SANINDUSA
100
AcDbVertex
100
AcDb2dVertex
 10
5046.667514846664
 20
2670.005858388571
 30
0.0
 42
0.4368825303742487
  0
VERTEX
  5
15E3
330
15BD
100
AcDbEntity
  8
SANINDUSA
100
AcDbVertex
100
AcDb2dVertex
 10
5046.667434970576
 20
2670.005981489101
 30
0.0
 42
-0.2163535043884636
  0
VERTEX
  5
15E4
330
15BD
100
AcDbEntity
  8
SANINDUSA
100
AcDbVertex
100
AcDb2dVertex
 10
5046.662954501742
 20
2670.010495775708
 30
0.0
  0
SEQEND
  5
15E5
330
15BD
100
AcDbEntity
  8
SANINDUSA
  0
POLYLINE
  5
15E6
330
1F
100
AcDbEntity
  8
SANINDUSA
100
AcDb2dPolyline
 66
     1
 10
0.0
 20
0.0
 30
0.0
 70
     1
  0
VERTEX
  5
15E7
330
15E6
100
AcDbEntity
  8
SANINDUSA
100
AcDbVertex
100
AcDb2dVertex
 10
5046.661059670503
 20
2670.007479872641
 30
0.0
  0
VERTEX
  5
15E8
330
15E6
100
AcDbEntity
  8
SANINDUSA
100
AcDbVertex
100
AcDb2dVertex
 10
5046.660701704681
 20
2670.006644619055
 30
0.0
  0
VERTEX
  5
15E9
330
15E6
100
AcDbEntity
  8
SANINDUSA
100
AcDbVertex
100
AcDb2dVertex
 10
5046.663377816344
 20
2670.003968507392
 30
0.0
  0
VERTEX
  5
15EA
330
15E6
100
AcDbEntity
  8
SANINDUSA
100
AcDbVertex
100
AcDb2dVertex
 10
5046.664286601532
 20
2670.004357986758
 30
0.0
 42
0.1925824035674305
  0
VERTEX
  5
15EB
330
15E6
100
AcDbEntity
  8
SANINDUSA
100
AcDbVertex
100
AcDb2dVertex
 10
5046.664706782117
 20
2670.004778167344
 30
0.0
  0
VERTEX
  5
15EC
330
15E6
100
AcDbEntity
  8
SANINDUSA
100
AcDbVertex
100
AcDb2dVertex
 10
5046.665203956264
 20
2670.005938240355
 30
0.0
 42
0.3818149661416109
  0
VERTEX
  5
15ED
330
15E6
100
AcDbEntity
  8
SANINDUSA
100
AcDbVertex
100
AcDb2dVertex
 10
5046.665161448348
 20
2670.006064574732
 30
0.0
 42
-0.1518180644621605
  0
VERTEX
  5
15EE
330
15E6
100
AcDbEntity
  8
SANINDUSA
100
AcDbVertex
100
AcDb2dVertex
 10
5046.662909351269
 20
2670.008468979637
 30
0.0
 42
0.4006661320027832
  0
VERTEX
  5
15EF
330
15E6
100
AcDbEntity
  8
SANINDUSA
100
AcDbVertex
100
AcDb2dVertex
 10
5046.662779974134
 20
2670.008517274615
 30
0.0
  0
VERTEX
  5
15F0
330
15E6
100
AcDbEntity
  8
SANINDUSA
100
AcDbVertex
100
AcDb2dVertex
 10
5046.661584896234
 20
2670.008005098372
 30
0.0
 42
0.1925824035673727
  0
SEQEND
  5
15F1
330
15E6
100
AcDbEntity
  8
SANINDUSA
  0
POLYLINE
  5
15F2
330
1F
100
AcDbEntity
  8
SANINDUSA
100
AcDb2dPolyline
 66
     1
 10
0.0
 20
0.0
 30
0.0
 70
     1
  0
VERTEX
  5
15F3
330
15F2
100
AcDbEntity
  8
SANINDUSA
100
AcDbVertex
100
AcDb2dVertex
 10
5046.661055258072
 20
2670.001341318196
 30
0.0
 42
0.3269085594239496
  0
VERTEX
  5
15F4
330
15F2
100
AcDbEntity
  8
SANINDUSA
100
AcDbVertex
100
AcDb2dVertex
 10
5046.661639004679
 20
2670.001251012282
 30
0.0
  0
VERTEX
  5
15F5
330
15F2
100
AcDbEntity
  8
SANINDUSA
100
AcDbVertex
100
AcDb2dVertex
 10
5046.663986564446
 20
2670.002468497934
 30
0.0
 42
0.5072628673586409
  0
VERTEX
  5
15F6
330
15F2
100
AcDbEntity
  8
SANINDUSA
100
AcDbVertex
100
AcDb2dVertex
 10
5046.664011236481
 20
2670.002627980473
 30
0.0
  0
VERTEX
  5
15F7
330
15F2
100
AcDbEntity
  8
SANINDUSA
100
AcDbVertex
100
AcDb2dVertex
 10
5046.659513493223
 20
2670.007125723731
 30
0.0
 42
0.5072628673585822
  0
VERTEX
  5
15F8
330
15F2
100
AcDbEntity
  8
SANINDUSA
100
AcDbVertex
100
AcDb2dVertex
 10
5046.659354010684
 20
2670.007101051696
 30
0.0
  0
VERTEX
  5
15F9
330
15F2
100
AcDbEntity
  8
SANINDUSA
100
AcDbVertex
100
AcDb2dVertex
 10
5046.658136525032
 20
2670.004753491928
 30
0.0
 42
0.3269085594239496
  0
VERTEX
  5
15FA
330
15F2
100
AcDbEntity
  8
SANINDUSA
100
AcDbVertex
100
AcDb2dVertex
 10
5046.658226830946
 20
2670.00416974532
 30
0.0
  0
SEQEND
  5
15FB
330
15F2
100
AcDbEntity
  8
SANINDUSA
  0
POLYLINE
  5
15FC
330
1F
100
AcDbEntity
  8
SANINDUSA
100
AcDb2dPolyline
 66
     1
 10
0.0
 20
0.0
 30
0.0
  0
VERTEX
  5
15FD
330
15FC
100
AcDbEntity
  8
SANINDUSA
100
AcDbVertex
100
AcDb2dVertex
 10
5046.972281481926
 20
2670.150456967946
 30
0.0
  0
VERTEX
  5
15FE
330
15FC
100
AcDbEntity
  8
SANINDUSA
100
AcDbVertex
100
AcDb2dVertex
 10
5046.960456584676
 20
2670.149951713276
 30
0.0
 42
0.4142056759633454
  0
VERTEX
  5
15FF
330
15FC
100
AcDbEntity
  8
SANINDUSA
100
AcDbVertex
100
AcDb2dVertex
 10
5046.95950018421
 20
2670.148909962684
 30
0.0
  0
VERTEX
  5
1600
330
15FC
100
AcDbEntity
  8
SANINDUSA
100
AcDbVertex
100
AcDb2dVertex
 10
5046.959575104378
 20
2670.147155435714
 30
0.0
 42
0.4142306435449703
  0
VERTEX
  5
1601
330
15FC
100
AcDbEntity
  8
SANINDUSA
100
AcDbVertex
100
AcDb2dVertex
 10
5046.960616914384
 20
2670.146199010836
 30
0.0
  0
VERTEX
  5
1602
330
15FC
100
AcDbEntity
  8
SANINDUSA
100
AcDbVertex
100
AcDb2dVertex
 10
5046.962209920275
 20
2670.146267126954
 30
0.0
 42
-0.2881936776522669
  0
VERTEX
  5
1603
330
15FC
100
AcDbEntity
  8
SANINDUSA
100
AcDbVertex
100
AcDb2dVertex
 10
5046.962394820869
 20
2670.146161640783
 30
0.0
 42
0.6285957498500262
  0
VERTEX
  5
1604
330
15FC
100
AcDbEntity
  8
SANINDUSA
100
AcDbVertex
100
AcDb2dVertex
 10
5046.962844972974
 20
2670.146180889057
 30
0.0
 42
-0.2881936776522143
  0
VERTEX
  5
1605
330
15FC
100
AcDbEntity
  8
SANINDUSA
100
AcDbVertex
100
AcDb2dVertex
 10
5046.963020194063
 20
2670.146301773847
 30
0.0
  0
VERTEX
  5
1606
330
15FC
100
AcDbEntity
  8
SANINDUSA
100
AcDbVertex
100
AcDb2dVertex
 10
5046.965207180214
 20
2670.146395288256
 30
0.0
 42
-0.2881936776520399
  0
VERTEX
  5
1607
330
15FC
100
AcDbEntity
  8
SANINDUSA
100
AcDbVertex
100
AcDb2dVertex
 10
5046.965392080808
 20
2670.146289802086
 30
0.0
 42
0.6285957498500262
  0
VERTEX
  5
1608
330
15FC
100
AcDbEntity
  8
SANINDUSA
100
AcDbVertex
100
AcDb2dVertex
 10
5046.965842232913
 20
2670.14630905036
 30
0.0
 42
-0.2881936776522668
  0
VERTEX
  5
1609
330
15FC
100
AcDbEntity
  8
SANINDUSA
100
AcDbVertex
100
AcDb2dVertex
 10
5046.966017454002
 20
2670.14642993515
 30
0.0
  0
VERTEX
  5
160A
330
15FC
100
AcDbEntity
  8
SANINDUSA
100
AcDbVertex
100
AcDb2dVertex
 10
5046.966411841126
 20
2670.146446798941
 30
0.0
 42
-0.4142306435457696
  0
VERTEX
  5
160B
330
15FC
100
AcDbEntity
  8
SANINDUSA
100
AcDbVertex
100
AcDb2dVertex
 10
5046.966620203128
 20
2670.146255513965
 30
0.0
  0
VERTEX
  5
160C
330
15FC
100
AcDbEntity
  8
SANINDUSA
100
AcDbVertex
100
AcDb2dVertex
 10
5046.966795118095
 20
2670.142159246785
 30
0.0
 42
-0.4141964814077272
  0
VERTEX
  5
160D
330
15FC
100
AcDbEntity
  8
SANINDUSA
100
AcDbVertex
100
AcDb2dVertex
 10
5046.966603844274
 20
2670.141950896935
 30
0.0
  0
VERTEX
  5
160E
330
15FC
100
AcDbEntity
  8
SANINDUSA
100
AcDbVertex
100
AcDb2dVertex
 10
5046.966207304013
 20
2670.141933941076
 30
0.0
 42
-0.2849150464410597
  0
VERTEX
  5
160F
330
15FC
100
AcDbEntity
  8
SANINDUSA
100
AcDbVertex
100
AcDb2dVertex
 10
5046.966023559576
 20
2670.142037296899
 30
0.0
 42
0.6201736729456835
  0
VERTEX
  5
1610
330
15FC
100
AcDbEntity
  8
SANINDUSA
100
AcDbVertex
100
AcDb2dVertex
 10
5046.965576065274
 20
2670.142018162271
 30
0.0
 42
-0.2849150464419475
  0
VERTEX
  5
1611
330
15FC
100
AcDbEntity
  8
SANINDUSA
100
AcDbVertex
100
AcDb2dVertex
 10
5046.965401814271
 20
2670.141899498747
 30
0.0
  0
VERTEX
  5
1612
330
15FC
100
AcDbEntity
  8
SANINDUSA
100
AcDbVertex
100
AcDb2dVertex
 10
5046.963210044075
 20
2670.141805779773
 30
0.0
 42
-0.2849150464410597
  0
VERTEX
  5
1613
330
15FC
100
AcDbEntity
  8
SANINDUSA
100
AcDbVertex
100
AcDb2dVertex
 10
5046.963026299637
 20
2670.141909135596
 30
0.0
 42
0.6201736729456835
  0
VERTEX
  5
1614
330
15FC
100
AcDbEntity
  8
SANINDUSA
100
AcDbVertex
100
AcDb2dVertex
 10
5046.962578805335
 20
2670.141890000969
 30
0.0
 42
-0.284915046441397
  0
VERTEX
  5
1615
330
15FC
100
AcDbEntity
  8
SANINDUSA
100
AcDbVertex
100
AcDb2dVertex
 10
5046.962404554331
 20
2670.141771337444
 30
0.0
  0
VERTEX
  5
1616
330
15FC
100
AcDbEntity
  8
SANINDUSA
100
AcDbVertex
100
AcDb2dVertex
 10
5046.960808777695
 20
2670.141703102851
 30
0.0
 42
0.4141964814073941
  0
VERTEX
  5
1617
330
15FC
100
AcDbEntity
  8
SANINDUSA
100
AcDbVertex
100
AcDb2dVertex
 10
5046.959852408593
 20
2670.140661353599
 30
0.0
  0
VERTEX
  5
1618
330
15FC
100
AcDbEntity
  8
SANINDUSA
100
AcDbVertex
100
AcDb2dVertex
 10
5046.959926806078
 20
2670.138919067136
 30
0.0
 42
0.4142214488268239
  0
VERTEX
  5
1619
330
15FC
100
AcDbEntity
  8
SANINDUSA
100
AcDbVertex
100
AcDb2dVertex
 10
5046.960968584721
 20
2670.137962640917
 30
0.0
  0
VERTEX
  5
161A
330
15FC
100
AcDbEntity
  8
SANINDUSA
100
AcDbVertex
100
AcDb2dVertex
 10
5046.975954910801
 20
2670.138602977241
 30
0.0
 42
0.3653825997089465
  0
VERTEX
  5
161B
330
15FC
100
AcDbEntity
  8
SANINDUSA
100
AcDbVertex
100
AcDb2dVertex
 10
5046.981650572341
 20
2670.143838479758
 30
0.0
 42
0.243385931735339
  0
VERTEX
  5
161C
330
15FC
100
AcDbEntity
  8
SANINDUSA
100
AcDbVertex
100
AcDb2dVertex
 10
5046.981492715993
 20
2670.144270066664
 30
0.0
  0
VERTEX
  5
161D
330
15FC
100
AcDbEntity
  8
SANINDUSA
100
AcDbVertex
100
AcDb2dVertex
 10
5046.98104136284
 20
2670.144684403362
 30
0.0
 42
-0.4142135623730951
  0
VERTEX
  5
161E
330
15FC
100
AcDbEntity
  8
SANINDUSA
100
AcDbVertex
100
AcDb2dVertex
 10
5046.981029279672
 20
2670.144966987857
 30
0.0
  0
VERTEX
  5
161F
330
15FC
100
AcDbEntity
  8
SANINDUSA
100
AcDbVertex
100
AcDb2dVertex
 10
5046.981443616368
 20
2670.145418341008
 30
0.0
 42
0.243385932516115
  0
VERTEX
  5
1620
330
15FC
100
AcDbEntity
  8
SANINDUSA
100
AcDbVertex
100
AcDb2dVertex
 10
5046.981564055019
 20
2670.145861827666
 30
0.0
 42
0.3653648080399314
  0
VERTEX
  5
1621
330
15FC
100
AcDbEntity
  8
SANINDUSA
100
AcDbVertex
100
AcDb2dVertex
 10
5046.975442641742
 20
2670.150592038106
 30
0.0
  0
VERTEX
  5
1622
330
15FC
100
AcDbEntity
  8
SANINDUSA
100
AcDbVertex
100
AcDb2dVertex
 10
5046.974679916687
 20
2670.15055944836
 30
0.0
 42
0.4142135623730951
  0
VERTEX
  5
1623
330
15FC
100
AcDbEntity
  8
SANINDUSA
100
AcDbVertex
100
AcDb2dVertex
 10
5046.97439299689
 20
2670.150246915112
 30
0.0
  0
VERTEX
  5
1624
330
15FC
100
AcDbEntity
  8
SANINDUSA
100
AcDbVertex
100
AcDb2dVertex
 10
5046.974401534709
 20
2670.15004709743
 30
0.0
 42
0.4142135623730951
  0
VERTEX
  5
1625
330
15FC
100
AcDbEntity
  8
SANINDUSA
100
AcDbVertex
100
AcDb2dVertex
 10
5046.974714067957
 20
2670.149760177636
 30
0.0
  0
VERTEX
  5
1626
330
15FC
100
AcDbEntity
  8
SANINDUSA
100
AcDbVertex
100
AcDb2dVertex
 10
5046.975476793012
 20
2670.149792767381
 30
0.0
 42
-0.0325821046079382
  0
VERTEX
  5
1627
330
15FC
100
AcDbEntity
  8
SANINDUSA
100
AcDbVertex
100
AcDb2dVertex
 10
5046.976153611672
 20
2670.149777577631
 30
0.0
 42
-0.3765495638224707
  0
VERTEX
  5
1628
330
15FC
100
AcDbEntity
  8
SANINDUSA
100
AcDbVertex
100
AcDb2dVertex
 10
5046.97642709769
 20
2670.149491534167
 30
0.0
  0
VERTEX
  5
1629
330
15FC
100
AcDbEntity
  8
SANINDUSA
100
AcDbVertex
100
AcDb2dVertex
 10
5046.976442400607
 20
2670.149133387202
 30
0.0
 42
-0.4142135623735391
  0
VERTEX
  5
162A
330
15FC
100
AcDbEntity
  8
SANINDUSA
100
AcDbVertex
100
AcDb2dVertex
 10
5046.976155480813
 20
2670.148820853954
 30
0.0
  0
VERTEX
  5
162B
330
15FC
100
AcDbEntity
  8
SANINDUSA
100
AcDbVertex
100
AcDb2dVertex
 10
5046.970816720381
 20
2670.148592808095
 30
0.0
 42
-0.4142135623730951
  0
VERTEX
  5
162C
330
15FC
100
AcDbEntity
  8
SANINDUSA
100
AcDbVertex
100
AcDb2dVertex
 10
5046.970504187132
 20
2670.14887972789
 30
0.0
  0
VERTEX
  5
162D
330
15FC
100
AcDbEntity
  8
SANINDUSA
100
AcDbVertex
100
AcDb2dVertex
 10
5046.970487111497
 20
2670.149279363252
 30
0.0
 42
-0.4142135623730951
  0
VERTEX
  5
162E
330
15FC
100
AcDbEntity
  8
SANINDUSA
100
AcDbVertex
100
AcDb2dVertex
 10
5046.970774031293
 20
2670.1495918965
 30
0.0
  0
VERTEX
  5
162F
330
15FC
100
AcDbEntity
  8
SANINDUSA
100
AcDbVertex
100
AcDb2dVertex
 10
5046.972309209568
 20
2670.149657491658
 30
0.0
 42
0.4142135623735391
  0
VERTEX
  5
1630
330
15FC
100
AcDbEntity
  8
SANINDUSA
100
AcDbVertex
100
AcDb2dVertex
 10
5046.972596129363
 20
2670.149970024906
 30
0.0
  0
VERTEX
  5
1631
330
15FC
100
AcDbEntity
  8
SANINDUSA
100
AcDbVertex
100
AcDb2dVertex
 10
5046.972587591546
 20
2670.150169842587
 30
0.0
 42
0.4142135623726511
  0
VERTEX
  5
1632
330
15FC
100
AcDbEntity
  8
SANINDUSA
100
AcDbVertex
100
AcDb2dVertex
 10
5046.972275058298
 20
2670.150456762382
 30
0.0
  0
SEQEND
  5
1633
330
15FC
100
AcDbEntity
  8
SANINDUSA
  0
POLYLINE
  5
1634
330
1F
100
AcDbEntity
  8
SANINDUSA
100
AcDb2dPolyline
 66
     1
 10
0.0
 20
0.0
 30
0.0
 70
     1
  0
VERTEX
  5
1635
330
1634
100
AcDbEntity
  8
SANINDUSA
100
AcDbVertex
100
AcDb2dVertex
 10
5046.976289540923
 20
2670.148025852138
 30
0.0
 42
0.4142135623729619
  0
VERTEX
  5
1636
330
1634
100
AcDbEntity
  8
SANINDUSA
100
AcDbVertex
100
AcDb2dVertex
 10
5046.97724594024
 20
2670.149067629632
 30
0.0
  0
VERTEX
  5
1637
330
1634
100
AcDbEntity
  8
SANINDUSA
100
AcDbVertex
100
AcDb2dVertex
 10
5046.977243518949
 20
2670.149124297115
 30
0.0
 42
-0.5461174401556712
  0
VERTEX
  5
1638
330
1634
100
AcDbEntity
  8
SANINDUSA
100
AcDbVertex
100
AcDb2dVertex
 10
5046.977656172157
 20
2670.149415038301
 30
0.0
 42
-0.2409586185726194
  0
VERTEX
  5
1639
330
1634
100
AcDbEntity
  8
SANINDUSA
100
AcDbVertex
100
AcDb2dVertex
 10
5046.98075089318
 20
2670.145828813041
 30
0.0
 42
-0.2504808541652698
  0
VERTEX
  5
163A
330
1634
100
AcDbEntity
  8
SANINDUSA
100
AcDbVertex
100
AcDb2dVertex
 10
5046.980633447267
 20
2670.145372291643
 30
0.0
  0
VERTEX
  5
163B
330
1634
100
AcDbEntity
  8
SANINDUSA
100
AcDbVertex
100
AcDb2dVertex
 10
5046.980230009836
 20
2670.144932811487
 30
0.0
 42
0.4142135623730951
  0
VERTEX
  5
163C
330
1634
100
AcDbEntity
  8
SANINDUSA
100
AcDbVertex
100
AcDb2dVertex
 10
5046.980242093004
 20
2670.144650226991
 30
0.0
  0
VERTEX
  5
163D
330
1634
100
AcDbEntity
  8
SANINDUSA
100
AcDbVertex
100
AcDb2dVertex
 10
5046.980681573316
 20
2670.144246789418
 30
0.0
 42
-0.2504808671429759
  0
VERTEX
  5
163E
330
1634
100
AcDbEntity
  8
SANINDUSA
100
AcDbVertex
100
AcDb2dVertex
 10
5046.980837560528
 20
2670.143801959856
 30
0.0
 42
-0.3578210409310957
  0
VERTEX
  5
163F
330
1634
100
AcDbEntity
  8
SANINDUSA
100
AcDbVertex
100
AcDb2dVertex
 10
5046.975920759531
 20
2670.139402247965
 30
0.0
  0
VERTEX
  5
1640
330
1634
100
AcDbEntity
  8
SANINDUSA
100
AcDbVertex
100
AcDb2dVertex
 10
5046.960934428209
 20
2670.13876190816
 30
0.0
 42
-0.4142135623730951
  0
VERTEX
  5
1641
330
1634
100
AcDbEntity
  8
SANINDUSA
100
AcDbVertex
100
AcDb2dVertex
 10
5046.96072607786
 20
2670.138953193634
 30
0.0
  0
VERTEX
  5
1642
330
1634
100
AcDbEntity
  8
SANINDUSA
100
AcDbVertex
100
AcDb2dVertex
 10
5046.960651683438
 20
2670.140695408381
 30
0.0
 42
-0.4141794006486556
  0
VERTEX
  5
1643
330
1634
100
AcDbEntity
  8
SANINDUSA
100
AcDbVertex
100
AcDb2dVertex
 10
5046.960842945605
 20
2670.140903757733
 30
0.0
  0
VERTEX
  5
1644
330
1634
100
AcDbEntity
  8
SANINDUSA
100
AcDbVertex
100
AcDb2dVertex
 10
5046.96663832144
 20
2670.141151903637
 30
0.0
 42
0.4141964814074665
  0
VERTEX
  5
1645
330
1634
100
AcDbEntity
  8
SANINDUSA
100
AcDbVertex
100
AcDb2dVertex
 10
5046.967594629787
 20
2670.142193708661
 30
0.0
  0
VERTEX
  5
1646
330
1634
100
AcDbEntity
  8
SANINDUSA
100
AcDbVertex
100
AcDb2dVertex
 10
5046.967419499424
 20
2670.146289416302
 30
0.0
 42
0.4141964814075477
  0
VERTEX
  5
1647
330
1634
100
AcDbEntity
  8
SANINDUSA
100
AcDbVertex
100
AcDb2dVertex
 10
5046.96637775017
 20
2670.147245785404
 30
0.0
  0
VERTEX
  5
1648
330
1634
100
AcDbEntity
  8
SANINDUSA
100
AcDbVertex
100
AcDb2dVertex
 10
5046.960582345433
 20
2670.146998315457
 30
0.0
 42
-0.4141794006486554
  0
VERTEX
  5
1649
330
1634
100
AcDbEntity
  8
SANINDUSA
100
AcDbVertex
100
AcDb2dVertex
 10
5046.960373996081
 20
2670.147189577624
 30
0.0
  0
VERTEX
  5
164A
330
1634
100
AcDbEntity
  8
SANINDUSA
100
AcDbVertex
100
AcDb2dVertex
 10
5046.960299398452
 20
2670.148931783683
 30
0.0
 42
-0.4142135623730951
  0
VERTEX
  5
164B
330
1634
100
AcDbEntity
  8
SANINDUSA
100
AcDbVertex
100
AcDb2dVertex
 10
5046.960490659623
 20
2670.149140156341
 30
0.0
  0
VERTEX
  5
164C
330
1634
100
AcDbEntity
  8
SANINDUSA
100
AcDbVertex
100
AcDb2dVertex
 10
5046.969475724849
 20
2670.149524353136
 30
0.0
 42
-0.4142227570402988
  0
VERTEX
  5
164D
330
1634
100
AcDbEntity
  8
SANINDUSA
100
AcDbVertex
100
AcDb2dVertex
 10
5046.969684086621
 20
2670.149333073541
 30
0.0
  0
VERTEX
  5
164E
330
1634
100
AcDbEntity
  8
SANINDUSA
100
AcDbVertex
100
AcDb2dVertex
 10
5046.969704916408
 20
2670.14884557662
 30
0.0
 42
0.4142135623730951
  0
VERTEX
  5
164F
330
1634
100
AcDbEntity
  8
SANINDUSA
100
AcDbVertex
100
AcDb2dVertex
 10
5046.970850871652
 20
2670.147793537371
 30
0.0
  0
SEQEND
  5
1650
330
1634
100
AcDbEntity
  8
SANINDUSA
  0
POLYLINE
  5
1651
330
1F
100
AcDbEntity
  8
SANINDUSA
100
AcDb2dPolyline
 66
     1
 10
0.0
 20
0.0
 30
0.0
  0
VERTEX
  5
1652
330
1651
100
AcDbEntity
  8
SANINDUSA
100
AcDbVertex
100
AcDb2dVertex
 10
5046.976206754251
 20
2670.148906802704
 30
0.0
  0
VERTEX
  5
1653
330
1651
100
AcDbEntity
  8
SANINDUSA
100
AcDbVertex
100
AcDb2dVertex
 10
5046.970764465724
 20
2670.148674264388
 30
0.0
 42
-0.4142135623725959
  0
VERTEX
  5
1654
330
1651
100
AcDbEntity
  8
SANINDUSA
100
AcDbVertex
100
AcDb2dVertex
 10
5046.970556110224
 20
2670.148865544252
 30
0.0
  0
VERTEX
  5
1655
330
1651
100
AcDbEntity
  8
SANINDUSA
100
AcDbVertex
100
AcDb2dVertex
 10
5046.970539033187
 20
2670.149265212435
 30
0.0
 42
-0.4142135623730951
  0
VERTEX
  5
1656
330
1651
100
AcDbEntity
  8
SANINDUSA
100
AcDbVertex
100
AcDb2dVertex
 10
5046.970730313051
 20
2670.149473567934
 30
0.0
  0
VERTEX
  5
1657
330
1651
100
AcDbEntity
  8
SANINDUSA
100
AcDbVertex
100
AcDb2dVertex
 10
5046.972465309008
 20
2670.149547700909
 30
0.0
 42
0.4142135623730951
  0
VERTEX
  5
1658
330
1651
100
AcDbEntity
  8
SANINDUSA
100
AcDbVertex
100
AcDb2dVertex
 10
5046.972656588871
 20
2670.149756056407
 30
0.0
  0
VERTEX
  5
1659
330
1651
100
AcDbEntity
  8
SANINDUSA
100
AcDbVertex
100
AcDb2dVertex
 10
5046.97262389147
 20
2670.150521300997
 30
0.0
 42
0.1943803091380277
  0
VERTEX
  5
165A
330
1651
100
AcDbEntity
  8
SANINDUSA
100
AcDbVertex
100
AcDb2dVertex
 10
5046.972561879734
 20
2670.150657709797
 30
0.0
  0
VERTEX
  5
165B
330
1651
100
AcDbEntity
  8
SANINDUSA
100
AcDbVertex
100
AcDb2dVertex
 10
5046.964543173095
 20
2670.158281381636
 30
0.0
 42
-0.9826972631155188
  0
VERTEX
  5
165C
330
1651
100
AcDbEntity
  8
SANINDUSA
100
AcDbVertex
100
AcDb2dVertex
 10
5046.964956020552
 20
2670.158731084161
 30
0.0
  0
VERTEX
  5
165D
330
1651
100
AcDbEntity
  8
SANINDUSA
100
AcDbVertex
100
AcDb2dVertex
 10
5046.974273472513
 20
2670.150472219033
 30
0.0
 42
-0.2034522994238806
  0
VERTEX
  5
165E
330
1651
100
AcDbEntity
  8
SANINDUSA
100
AcDbVertex
100
AcDb2dVertex
 10
5046.974340626761
 20
2670.150331089173
 30
0.0
  0
VERTEX
  5
165F
330
1651
100
AcDbEntity
  8
SANINDUSA
100
AcDbVertex
100
AcDb2dVertex
 10
5046.974362085893
 20
2670.149828863188
 30
0.0
 42
0.4142135623730951
  0
VERTEX
  5
1660
330
1651
100
AcDbEntity
  8
SANINDUSA
100
AcDbVertex
100
AcDb2dVertex
 10
5046.974570441392
 20
2670.149637583324
 30
0.0
  0
VERTEX
  5
1661
330
1651
100
AcDbEntity
  8
SANINDUSA
100
AcDbVertex
100
AcDb2dVertex
 10
5046.975532984129
 20
2670.149678710888
 30
0.0
 42
-0.0325821046079315
  0
VERTEX
  5
1662
330
1651
100
AcDbEntity
  8
SANINDUSA
100
AcDbVertex
100
AcDb2dVertex
 10
5046.976196787045
 20
2670.149663813247
 30
0.0
 42
-0.3765495638223387
  0
VERTEX
  5
1663
330
1651
100
AcDbEntity
  8
SANINDUSA
100
AcDbVertex
100
AcDb2dVertex
 10
5046.976379111057
 20
2670.149473117605
 30
0.0
  0
VERTEX
  5
1664
330
1651
100
AcDbEntity
  8
SANINDUSA
100
AcDbVertex
100
AcDb2dVertex
 10
5046.976394413974
 20
2670.14911497064
 30
0.0
 42
-0.4142135623730951
  0
VERTEX
  5
1665
330
1651
100
AcDbEntity
  8
SANINDUSA
100
AcDbVertex
100
AcDb2dVertex
 10
5046.976203134111
 20
2670.148906615141
 30
0.0
  0
SEQEND
  5
1666
330
1651
100
AcDbEntity
  8
SANINDUSA
  0
LINE
  5
1667
330
1F
100
AcDbEntity
  8
SANINDUSA
100
AcDbLine
 10
5046.699740840963
 20
2670.066610959735
 30
0.0
 11
5046.697097006589
 21
2670.070093676985
 31
0.0
  0
LINE
  5
1668
330
1F
100
AcDbEntity
  8
SANINDUSA
100
AcDbLine
 10
5046.713579857238
 20
2670.067063331272
 30
0.0
 11
5046.710228156752
 21
2670.071309043999
 31
0.0
  0
LINE
  5
1669
330
1F
100
AcDbEntity
  8
SANINDUSA
100
AcDbLine
 10
5046.71039366304
 20
2670.07143969992
 30
0.0
 11
5046.713745363526
 21
2670.067193987193
 31
0.0
  0
ARC
  5
166A
330
1F
100
AcDbEntity
  8
SANINDUSA
100
AcDbCircle
 10
5046.705898208181
 20
2670.064691733245
 30
0.0
 40
0.0043531468531479
100
AcDbArc
 50
46.80660446387266
 51
209.7707625480112
  0
ARC
  5
166B
330
1F
100
AcDbEntity
  8
SANINDUSA
100
AcDbCircle
 10
5046.724986741971
 20
2670.040511680998
 30
0.0
 40
0.0363115390518475
100
AcDbArc
 50
115.1963733618507
 51
141.3850235638922
  0
CIRCLE
  5
166C
330
1F
100
AcDbEntity
  8
SANINDUSA
100
AcDbCircle
 10
5046.705894222981
 20
2670.064694870563
 30
0.0
 40
0.0046999999999998
  0
CIRCLE
  5
166D
330
1F
100
AcDbEntity
  8
SANINDUSA
100
AcDbCircle
 10
5046.705898208181
 20
2670.064691733245
 30
0.0
 40
0.0045000000000009
  0
ARC
  5
166E
330
1F
100
AcDbEntity
  8
SANINDUSA
100
AcDbCircle
 10
5046.986232469311
 20
2669.709607200145
 30
0.0
 40
0.4440000000000001
100
AcDbArc
 50
125.5136857672604
 51
131.0647721877964
  0
ARC
  5
166F
330
1F
100
AcDbEntity
  8
SANINDUSA
100
AcDbCircle
 10
5046.723949914598
 20
2670.073313294798
 30
0.0
 40
0.002
100
AcDbArc
 50
38.28868349527111
 51
91.82571451906527
  0
LINE
  5
1670
330
1F
100
AcDbEntity
  8
SANINDUSA
100
AcDbLine
 10
5046.728314023575
 20
2670.071012893722
 30
0.0
 11
5046.725519712134
 21
2670.074552542835
 31
0.0
  0
LINE
  5
1671
330
1F
100
AcDbEntity
  8
SANINDUSA
100
AcDbLine
 10
5046.698830950134
 20
2670.067809556937
 30
0.0
 11
5046.704796017492
 21
2670.072337817198
 31
0.0
  0
LINE
  5
1672
330
1F
100
AcDbEntity
  8
SANINDUSA
100
AcDbLine
 10
5046.7073721581
 20
2670.078521600031
 30
0.0
 11
5046.704651260913
 21
2670.082105831956
 31
0.0
  0
LINE
  5
1673
330
1F
100
AcDbEntity
  8
SANINDUSA
100
AcDbLine
 10
5046.703950691011
 20
2670.082201758039
 30
0.0
 11
5046.704651260913
 21
2670.082105831956
 31
0.0
  0
ARC
  5
1674
330
1F
100
AcDbEntity
  8
SANINDUSA
100
AcDbCircle
 10
5046.709953842294
 20
2670.07246346839
 30
0.0
 40
0.0009999999999998
100
AcDbArc
 50
38.28868349527111
 51
115.1963733618507
  0
LINE
  5
1675
330
1F
100
AcDbEntity
  8
SANINDUSA
100
AcDbLine
 10
5046.705632815195
 20
2670.071235505413
 30
0.0
 11
5046.703062073947
 21
2670.074621937246
 31
0.0
  0
ARC
  5
1676
330
1F
100
AcDbEntity
  8
SANINDUSA
100
AcDbCircle
 10
5046.710777585889
 20
2670.071742780812
 30
0.0
 40
0.0007000000000107
100
AcDbArc
 50
114.46402379546
 51
218.2886834952711
  0
LINE
  5
1677
330
1F
100
AcDbEntity
  8
SANINDUSA
100
AcDbLine
 10
5046.711084697641
 20
2670.072644857471
 30
0.0
 11
5046.710738741063
 21
2670.073083092408
 31
0.0
  0
ARC
  5
1678
330
1F
100
AcDbEntity
  8
SANINDUSA
100
AcDbCircle
 10
5046.724986741971
 20
2670.040511680998
 30
0.0
 40
0.035011539051848
100
AcDbArc
 50
113.3951596583256
 51
114.46402379546
  0
ARC
  5
1679
330
1F
100
AcDbEntity
  8
SANINDUSA
100
AcDbCircle
 10
5046.724995268506
 20
2670.040518412115
 30
0.0
 40
0.0348115390518547
100
AcDbArc
 50
114.46402379546
 51
115.2894335400113
  0
LINE
  5
167A
330
1F
100
AcDbEntity
  8
SANINDUSA
100
AcDbLine
 10
5046.707276232019
 20
2670.07782103013
 30
0.0
 11
5046.7073721581
 21
2670.078521600031
 31
0.0
  0
ARC
  5
167B
330
1F
100
AcDbEntity
  8
SANINDUSA
100
AcDbCircle
 10
5046.710786112424
 20
2670.071749511929
 30
0.0
 40
0.0005
100
AcDbArc
 50
114.46402379546
 51
218.2886834952711
  0
LINE
  5
167C
330
1F
100
AcDbEntity
  8
SANINDUSA
100
AcDbLine
 10
5046.692939304317
 20
2670.06693744138
 30
0.0
 11
5046.692238734415
 21
2670.067033367462
 31
0.0
  0
LINE
  5
167D
330
1F
100
AcDbEntity
  8
SANINDUSA
100
AcDbLine
 10
5046.689613763311
 20
2670.071318169289
 30
0.0
 11
5046.689517837228
 21
2670.070617599387
 31
0.0
  0
LINE
  5
167E
330
1F
100
AcDbEntity
  8
SANINDUSA
100
AcDbLine
 10
5046.689517837228
 20
2670.070617599387
 30
0.0
 11
5046.692238734415
 21
2670.067033367462
 31
0.0
  0
LINE
  5
167F
330
1F
100
AcDbEntity
  8
SANINDUSA
100
AcDbLine
 10
5046.7073721581
 20
2670.078521600031
 30
0.0
 11
5046.692238734415
 21
2670.067033367462
 31
0.0
  0
LINE
  5
1680
330
1F
100
AcDbEntity
  8
SANINDUSA
100
AcDbLine
 10
5046.692939304317
 20
2670.06693744138
 30
0.0
 11
5046.707276232019
 21
2670.07782103013
 31
0.0
  0
LINE
  5
1681
330
1F
100
AcDbEntity
  8
SANINDUSA
100
AcDbLine
 10
5046.689517837228
 20
2670.070617599387
 30
0.0
 11
5046.704651260913
 21
2670.082105831956
 31
0.0
  0
LINE
  5
1682
330
1F
100
AcDbEntity
  8
SANINDUSA
100
AcDbLine
 10
5046.703950691011
 20
2670.082201758039
 30
0.0
 11
5046.689613763311
 21
2670.071318169289
 31
0.0
  0
ARC
  5
1683
330
1F
100
AcDbEntity
  8
SANINDUSA
100
AcDbCircle
 10
5046.724995268506
 20
2670.040518412115
 30
0.0
 40
0.0348115390518547
100
AcDbArc
 50
91.82571451906527
 51
114.46402379546
  0
LINE
  5
1684
330
1F
100
AcDbEntity
  8
SANINDUSA
100
AcDbLine
 10
5046.729068427088
 20
2670.070057786498
 30
0.0
 11
5046.730844023958
 21
2670.067808577697
 31
0.0
  0
ARC
  5
1685
330
1F
100
AcDbEntity
  8
SANINDUSA
100
AcDbCircle
 10
5046.728489327655
 20
2670.065949705642
 30
0.0
 40
0.003
100
AcDbArc
 50
305.8519473620635
 51
38.28868349527111
  0
LINE
  5
1686
330
1F
100
AcDbEntity
  8
SANINDUSA
100
AcDbLine
 10
5046.691769065118
 20
2670.047908710039
 30
0.0
 11
5046.69456363022
 21
2670.044368739607
 31
0.0
  0
ARC
  5
1687
330
1F
100
AcDbEntity
  8
SANINDUSA
100
AcDbCircle
 10
5046.702543946903
 20
2670.054746135523
 30
0.0
 40
0.0005
100
AcDbArc
 50
173.2886835079974
 51
308.2886834952711
  0
ARC
  5
1688
330
1F
100
AcDbEntity
  8
SANINDUSA
100
AcDbCircle
 10
5046.702552473438
 20
2670.054752866641
 30
0.0
 40
0.0007
100
AcDbArc
 50
173.2886835079974
 51
308.2886834952711
  0
LINE
  5
1689
330
1F
100
AcDbEntity
  8
SANINDUSA
100
AcDbLine
 10
5046.702222873358
 20
2670.056295989165
 30
0.0
 11
5046.70204737311
 21
2670.054804568972
 31
0.0
  0
LINE
  5
168A
330
1F
100
AcDbEntity
  8
SANINDUSA
100
AcDbLine
 10
5046.701857270127
 20
2670.054834673468
 30
0.0
 11
5046.702032770376
 21
2670.056326093662
 31
0.0
  0
ARC
  5
168B
330
1F
100
AcDbEntity
  8
SANINDUSA
100
AcDbCircle
 10
5046.700236578185
 20
2670.056529722957
 30
0.0
 40
0.002
100
AcDbArc
 50
353.2886835079974
 51
38.28868349527111
  0
ARC
  5
168C
330
1F
100
AcDbEntity
  8
SANINDUSA
100
AcDbCircle
 10
5046.70024510472
 20
2670.056536454075
 30
0.0
 40
0.0018
100
AcDbArc
 50
353.2886835079974
 51
38.28868349527111
  0
ARC
  5
168D
330
1F
100
AcDbEntity
  8
SANINDUSA
100
AcDbCircle
 10
5046.693338862654
 20
2670.049147958077
 30
0.0
 40
0.002
100
AcDbArc
 50
164.7516524747643
 51
218.2886834952711
  0
LINE
  5
168E
330
1F
100
AcDbEntity
  8
SANINDUSA
100
AcDbLine
 10
5046.695318110881
 20
2670.043413534657
 30
0.0
 11
5046.697093663468
 21
2670.041164381951
 31
0.0
  0
LINE
  5
168F
330
1F
100
AcDbEntity
  8
SANINDUSA
100
AcDbLine
 10
5046.694570004377
 20
2670.044374293135
 30
0.0
 11
5046.694563376561
 21
2670.044369060926
 31
0.0
  0
ARC
  5
1690
330
1F
100
AcDbEntity
  8
SANINDUSA
100
AcDbCircle
 10
5046.69944835977
 20
2670.043023254006
 30
0.0
 40
0.003
100
AcDbArc
 50
218.2886834952711
 51
310.7268517966947
  0
ARC
  5
1691
330
1F
100
AcDbEntity
  8
SANINDUSA
100
AcDbCircle
 10
5046.724986741971
 20
2670.040511680999
 30
0.0
 40
0.0350115390518602
100
AcDbArc
 50
142.1175032793041
 51
143.1863037539252
  0
LINE
  5
1692
330
1F
100
AcDbEntity
  8
SANINDUSA
100
AcDbLine
 10
5046.696610911892
 20
2670.061929418427
 30
0.0
 11
5046.696956918526
 21
2670.061491120085
 31
0.0
  0
ARC
  5
1693
330
1F
100
AcDbEntity
  8
SANINDUSA
100
AcDbCircle
 10
5046.697905615006
 20
2670.061580479598
 30
0.0
 40
0.000700000000011
100
AcDbArc
 50
38.28868349527111
 51
142.1175032793041
  0
ARC
  5
1694
330
1F
100
AcDbEntity
  8
SANINDUSA
100
AcDbCircle
 10
5046.724995268506
 20
2670.040518412115
 30
0.0
 40
0.0348115390518547
100
AcDbArc
 50
141.3185980987043
 51
142.1175032793041
  0
ARC
  5
1695
330
1F
100
AcDbEntity
  8
SANINDUSA
100
AcDbCircle
 10
5046.69739581066
 20
2670.062549042446
 30
0.0
 40
0.0010000000000073
100
AcDbArc
 50
141.3850235638922
 51
218.2886834952711
  0
ARC
  5
1696
330
1F
100
AcDbEntity
  8
SANINDUSA
100
AcDbCircle
 10
5046.697914141542
 20
2670.061587210716
 30
0.0
 40
0.0005
100
AcDbArc
 50
38.28868349527111
 51
142.1175032793041
  0
ARC
  5
1697
330
1F
100
AcDbEntity
  8
SANINDUSA
100
AcDbCircle
 10
5046.716348907726
 20
2670.065644210094
 30
0.0
 40
0.0005
100
AcDbArc
 50
308.2886834952711
 51
83.28868351104238
  0
SPLINE
  5
1698
330
1F
100
AcDbEntity
  8
SANINDUSA
100
AcDbSpline
210
0.0
220
0.0
230
1.0
 70
     8
 71
     3
 72
    20
 73
    16
 74
     0
 42
0.0000000001
 43
0.0000000001
 40
0.0
 40
0.0
 40
0.0
 40
0.0
 40
0.0431555304672254
 40
0.0431555304672254
 40
0.0431555304672254
 40
0.1753193425231027
 40
0.1753193425231027
 40
0.1753193425231027
 40
0.2697220654201579
 40
0.2697220654201579
 40
0.2697220654201579
 40
0.3371525817751973
 40
0.3371525817751973
 40
0.3371525817751973
 40
0.3853172363145112
 40
0.3853172363145112
 40
0.3853172363145112
 40
0.3853172363145112
 10
5046.702178961981
 20
2670.062164478601
 30
0.0
 10
5046.702170600822
 20
2670.062176783339
 30
0.0
 10
5046.702162433238
 20
2670.062189222083
 30
0.0
 10
5046.702154529629
 20
2670.062201753429
 30
0.0
 10
5046.702130324829
 20
2670.062240130678
 30
0.0
 10
5046.702108195687
 20
2670.062279190839
 30
0.0
 10
5046.702093591283
 20
2670.062319823735
 30
0.0
 10
5046.702083159567
 20
2670.062348847231
 30
0.0
 10
5046.702076798124
 20
2670.062378488758
 30
0.0
 10
5046.702077740071
 20
2670.062409683957
 30
0.0
 10
5046.702078412889
 20
2670.062431966241
 30
0.0
 10
5046.702082855641
 20
2670.062454838052
 30
0.0
 10
5046.702092157198
 20
2670.062478543266
 30
0.0
 10
5046.702098801166
 20
2670.062495475562
 30
0.0
 10
5046.702107945787
 20
2670.062512811553
 30
0.0
 10
5046.70211959426
 20
2670.062530260516
 30
0.0
  0
SPLINE
  5
1699
330
1F
100
AcDbEntity
  8
SANINDUSA
100
AcDbSpline
210
0.0
220
0.0
230
1.0
 70
     8
 71
     3
 72
    20
 73
    16
 74
     0
 42
0.0000000001
 43
0.0000000001
 40
0.0
 40
0.0
 40
0.0
 40
0.0
 40
0.0480735469503326
 40
0.0480735469503326
 40
0.0480735469503326
 40
0.1153765126807983
 40
0.1153765126807983
 40
0.1153765126807983
 40
0.2096006647034502
 40
0.2096006647034502
 40
0.2096006647034502
 40
0.341514477535163
 40
0.341514477535163
 40
0.341514477535163
 40
0.3845883756026611
 40
0.3845883756026611
 40
0.3845883756026611
 40
0.3845883756026611
 10
5046.702918639907
 20
2670.061518082283
 30
0.0
 10
5046.702899000809
 20
2670.061510816234
 30
0.0
 10
5046.70288003253
 20
2670.061505939514
 30
0.0
 10
5046.70286196666
 20
2670.061503399969
 30
0.0
 10
5046.702836674441
 20
2670.061499844605
 30
0.0
 10
5046.702813392348
 20
2670.061500859177
 30
0.0
 10
5046.702791639605
 20
2670.061505361416
 30
0.0
 10
5046.702761185763
 20
2670.061511664551
 30
0.0
 10
5046.702733535454
 20
2670.061524877
 30
0.0
 10
5046.70270790503
 20
2670.061541645418
 30
0.0
 10
5046.702672022436
 20
2670.061565121203
 30
0.0
 10
5046.70263880827
 20
2670.061595984037
 30
0.0
 10
5046.702607155325
 20
2670.061628382377
 30
0.0
 10
5046.70259681967
 20
2670.061638961426
 30
0.0
 10
5046.702586639515
 20
2670.061649769769
 30
0.0
 10
5046.702576630753
 20
2670.061660738074
 30
0.0
  0
SPLINE
  5
169A
330
1F
100
AcDbEntity
  8
SANINDUSA
100
AcDbSpline
210
0.0
220
0.0
230
1.0
 70
     8
 71
     3
 72
    20
 73
    16
 74
     0
 42
0.0000000001
 43
0.0000000001
 40
-0.5867553122555013
 40
-0.5867553122555013
 40
-0.5867553122555013
 40
-0.5867553122555013
 40
-0.5210387172828694
 40
-0.5210387172828694
 40
-0.5210387172828694
 40
-0.3197816451791844
 40
-0.3197816451791844
 40
-0.3197816451791844
 40
-0.1760265936765523
 40
-0.1760265936765523
 40
-0.1760265936765523
 40
-0.0733444140318151
 40
-0.0733444140318151
 40
-0.0733444140318151
 40
0.0000000000001401
 40
0.0000000000001401
 40
0.0000000000001401
 40
0.0000000000001401
 10
5046.703387075321
 20
2670.061721301687
 30
0.0
 10
5046.703371733331
 20
2670.061709696695
 30
0.0
 10
5046.703356134525
 20
2670.061698431709
 30
0.0
 10
5046.703340290826
 20
2670.061687537974
 30
0.0
 10
5046.703291769498
 20
2670.06165417591
 30
0.0
 10
5046.70324096935
 20
2670.061624274974
 30
0.0
 10
5046.703188081054
 20
2670.061598861936
 30
0.0
 10
5046.703150303701
 20
2670.061580709766
 30
0.0
 10
5046.703111378955
 20
2670.061564800221
 30
0.0
 10
5046.703071169652
 20
2670.061551691601
 30
0.0
 10
5046.703042448721
 20
2670.061542328301
 30
0.0
 10
5046.703013135099
 20
2670.061534424085
 30
0.0
 10
5046.70298331121
 20
2670.061528306236
 30
0.0
 10
5046.70296200843
 20
2670.061523936345
 30
0.0
 10
5046.702940444184
 20
2670.061520477933
 30
0.0
 10
5046.702918639907
 20
2670.061518082283
 30
0.0
  0
SPLINE
  5
169B
330
1F
100
AcDbEntity
  8
SANINDUSA
100
AcDbSpline
210
0.0
220
0.0
230
1.0
 70
     8
 71
     3
 72
    20
 73
    16
 74
     0
 42
0.0000000001
 43
0.0000000001
 40
-0.5867559660496065
 40
-0.5867559660496065
 40
-0.5867559660496065
 40
-0.5867559660496065
 40
-0.5134114702933794
 40
-0.5134114702933794
 40
-0.5134114702933794
 40
-0.4107291762346614
 40
-0.4107291762346614
 40
-0.4107291762346614
 40
-0.2669739645524562
 40
-0.2669739645524562
 40
-0.2669739645524562
 40
-0.0657166681973689
 40
-0.0657166681973689
 40
-0.0657166681973689
 40
0.0000000000002109
 40
0.0000000000002109
 40
0.0000000000002109
 40
0.0000000000002109
 10
5046.70211959426
 20
2670.062530260516
 30
0.0
 10
5046.702126985952
 20
2670.062550913109
 30
0.0
 10
5046.702135355665
 20
2670.062571085534
 30
0.0
 10
5046.70214455125
 20
2670.062590792018
 30
0.0
 10
5046.702157425071
 20
2670.062618381095
 30
0.0
 10
5046.70217191799
 20
2670.062645059108
 30
0.0
 10
5046.702187692415
 20
2670.06267082174
 30
0.0
 10
5046.70220977661
 20
2670.062706889423
 30
0.0
 10
5046.702234286389
 20
2670.062741056743
 30
0.0
 10
5046.702260712261
 20
2670.062773588834
 30
0.0
 10
5046.702297708481
 20
2670.062819133763
 30
0.0
 10
5046.702338585396
 20
2670.062861605747
 30
0.0
 10
5046.702382299734
 20
2670.062901057486
 30
0.0
 10
5046.702396573803
 20
2670.062913939686
 30
0.0
 10
5046.702411152116
 20
2670.062926497478
 30
0.0
 10
5046.702426001495
 20
2670.062938726513
 30
0.0
  0
ARC
  5
169C
330
1F
100
AcDbEntity
  8
SANINDUSA
100
AcDbCircle
 10
5046.705898208181
 20
2670.064691733245
 30
0.0
 40
0.0044966441200263
100
AcDbArc
 50
214.1963909123084
 51
222.3809760857015
  0
ARC
  5
169D
330
1F
100
AcDbEntity
  8
SANINDUSA
100
AcDbCircle
 10
5046.715158181308
 20
2670.068309310426
 30
0.0
 40
0.0018
100
AcDbArc
 50
218.2886834952711
 51
263.2886835110424
  0
ARC
  5
169E
330
1F
100
AcDbEntity
  8
SANINDUSA
100
AcDbCircle
 10
5046.715149654774
 20
2670.068302579309
 30
0.0
 40
0.002
100
AcDbArc
 50
218.2886834952711
 51
263.2886835110424
  0
SPLINE
  5
169F
330
1F
100
AcDbEntity
  8
SANINDUSA
100
AcDbSpline
210
0.0
220
0.0
230
1.0
 70
     8
 71
     3
 72
    20
 73
    16
 74
     0
 42
0.0000000001
 43
0.0000000001
 40
-0.5867553122555979
 40
-0.5867553122555979
 40
-0.5867553122555979
 40
-0.5867553122555979
 40
-0.5134108982236482
 40
-0.5134108982236482
 40
-0.5134108982236482
 40
-0.4107287185789187
 40
-0.4107287185789187
 40
-0.4107287185789187
 40
-0.2669736670762972
 40
-0.2669736670762972
 40
-0.2669736670762972
 40
-0.0657165949726272
 40
-0.0657165949726272
 40
-0.0657165949726272
 40
0.0
 40
0.0
 40
0.0
 40
0.0
 10
5046.708409341041
 20
2670.067662164803
 30
0.0
 10
5046.708426463799
 20
2670.067675116803
 30
0.0
 10
5046.708443906387
 20
2670.067687645316
 30
0.0
 10
5046.708461652428
 20
2670.067699706812
 30
0.0
 10
5046.708486496886
 20
2670.067716592906
 30
0.0
 10
5046.708511935403
 20
2670.067732564465
 30
0.0
 10
5046.708537936002
 20
2670.067747493158
 30
0.0
 10
5046.70857433684
 20
2670.06776839333
 30
0.0
 10
5046.708611795435
 20
2670.067787239771
 30
0.0
 10
5046.708650407406
 20
2670.06780365549
 30
0.0
 10
5046.708704464165
 20
2670.067826637497
 30
0.0
 10
5046.708761156541
 20
2670.067845028826
 30
0.0
 10
5046.708819760088
 20
2670.067856493833
 30
0.0
 10
5046.708838895941
 20
2670.067860237509
 30
0.0
 10
5046.708858239824
 20
2670.067863237705
 30
0.0
 10
5046.708877776456
 20
2670.067865384206
 30
0.0
  0
SPLINE
  5
16A0
330
1F
100
AcDbEntity
  8
SANINDUSA
100
AcDbSpline
210
0.0
220
0.0
230
1.0
 70
     8
 71
     3
 72
    20
 73
    16
 74
     0
 42
0.0000000001
 43
0.0000000001
 40
0.0
 40
0.0
 40
0.0
 40
0.0
 40
0.0481065524694527
 40
0.0481065524694527
 40
0.0481065524694527
 40
0.1154557259266865
 40
0.1154557259266865
 40
0.1154557259266865
 40
0.2097445687668138
 40
0.2097445687668138
 40
0.2097445687668138
 40
0.341748948742992
 40
0.341748948742992
 40
0.341748948742992
 40
0.3848524197556216
 40
0.3848524197556216
 40
0.3848524197556216
 40
0.3848524197556216
 10
5046.708877776456
 20
2670.067865384206
 30
0.0
 10
5046.708897429036
 20
2670.067872655245
 30
0.0
 10
5046.708916411246
 20
2670.067877534901
 30
0.0
 10
5046.708934500262
 20
2670.067880073623
 30
0.0
 10
5046.708959824886
 20
2670.067883627833
 30
0.0
 10
5046.708983191866
 20
2670.067882587172
 30
0.0
 10
5046.709004902885
 20
2670.067878078926
 30
0.0
 10
5046.70903529831
 20
2670.067871767383
 30
0.0
 10
5046.709062687122
 20
2670.067858717565
 30
0.0
 10
5046.70908852146
 20
2670.067841814446
 30
0.0
 10
5046.709124689534
 20
2670.06781815008
 30
0.0
 10
5046.709157546626
 20
2670.067787543522
 30
0.0
 10
5046.709189237551
 20
2670.067755108151
 30
0.0
 10
5046.709199585608
 20
2670.06774451701
 30
0.0
 10
5046.709209769975
 20
2670.067733704252
 30
0.0
 10
5046.70921978561
 20
2670.067722728416
 30
0.0
  0
SPLINE
  5
16A1
330
1F
100
AcDbEntity
  8
SANINDUSA
100
AcDbSpline
210
0.0
220
0.0
230
1.0
 70
     8
 71
     3
 72
    20
 73
    16
 74
     0
 42
0.0000000001
 43
0.0000000001
 40
-0.0000000000003746
 40
-0.0000000000003746
 40
-0.0000000000003746
 40
-0.0000000000003746
 40
0.0481646545390696
 40
0.0481646545390696
 40
0.0481646545390696
 40
0.1155951708942915
 40
0.1155951708942915
 40
0.1155951708942915
 40
0.2099978937916021
 40
0.2099978937916021
 40
0.2099978937916021
 40
0.342161705847837
 40
0.342161705847837
 40
0.342161705847837
 40
0.3853172363151791
 40
0.3853172363151791
 40
0.3853172363151791
 40
0.3853172363151791
 10
5046.709617454382
 20
2670.06721898789
 30
0.0
 10
5046.709626786032
 20
2670.067205254923
 30
0.0
 10
5046.709635879158
 20
2670.067191354267
 30
0.0
 10
5046.709644627672
 20
2670.067177345922
 30
0.0
 10
5046.709656875589
 20
2670.06715773424
 30
0.0
 10
5046.70966849092
 20
2670.067137867746
 30
0.0
 10
5046.70967883856
 20
2670.067117806734
 30
0.0
 10
5046.709693325254
 20
2670.067089721317
 30
0.0
 10
5046.709705509891
 20
2670.067060951756
 30
0.0
 10
5046.709712503982
 20
2670.067031337435
 30
0.0
 10
5046.709722295708
 20
2670.066989877386
 30
0.0
 10
5046.709721750738
 20
2670.066946312005
 30
0.0
 10
5046.709702105984
 20
2670.066899627552
 30
0.0
 10
5046.709695691371
 20
2670.066884383649
 30
0.0
 10
5046.709687259134
 20
2670.066868840244
 30
0.0
 10
5046.709676822103
 20
2670.066853205973
 30
0.0
  0
SPLINE
  5
16A2
330
1F
100
AcDbEntity
  8
SANINDUSA
100
AcDbSpline
210
0.0
220
0.0
230
1.0
 70
     8
 71
     3
 72
    20
 73
    16
 74
     0
 42
0.0000000001
 43
0.0000000001
 40
-0.5867559660494415
 40
-0.5867559660494415
 40
-0.5867559660494415
 40
-0.5867559660494415
 40
-0.5134114702932613
 40
-0.5134114702932613
 40
-0.5134114702932613
 40
-0.4107291762346091
 40
-0.4107291762346091
 40
-0.4107291762346091
 40
-0.2669739645524959
 40
-0.2669739645524959
 40
-0.2669739645524959
 40
-0.0657166681975375
 40
-0.0657166681975375
 40
-0.0657166681975375
 40
0.0
 40
0.0
 40
0.0
 40
0.0
 10
5046.709676822103
 20
2670.066853205973
 30
0.0
 10
5046.709669430411
 20
2670.066832553381
 30
0.0
 10
5046.709661060698
 20
2670.066812380956
 30
0.0
 10
5046.709651865112
 20
2670.066792674472
 30
0.0
 10
5046.709638991292
 20
2670.066765085394
 30
0.0
 10
5046.709624498373
 20
2670.066738407381
 30
0.0
 10
5046.709608723948
 20
2670.066712644751
 30
0.0
 10
5046.709586639753
 20
2670.066676577067
 30
0.0
 10
5046.709562129973
 20
2670.066642409747
 30
0.0
 10
5046.709535704102
 20
2670.066609877655
 30
0.0
 10
5046.709498707881
 20
2670.066564332727
 30
0.0
 10
5046.709457830966
 20
2670.066521860743
 30
0.0
 10
5046.709414116628
 20
2670.066482409004
 30
0.0
 10
5046.709399842558
 20
2670.066469526804
 30
0.0
 10
5046.709385264247
 20
2670.066456969012
 30
0.0
 10
5046.709370414868
 20
2670.066444739978
 30
0.0
  0
ARC
  5
16A3
330
1F
100
AcDbEntity
  8
SANINDUSA
100
AcDbCircle
 10
5046.705898208181
 20
2670.064691733245
 30
0.0
 40
0.0044966441200263
100
AcDbArc
 50
34.19639091230843
 51
42.38097608570153
  0
ELLIPSE
  5
16A4
330
1F
100
AcDbEntity
  8
SANINDUSA
100
AcDbEllipse
 10
5046.705556840606
 20
2670.065124155135
 30
0.0
 11
0.0058708176637839
 21
0.0046346099421045
 31
0.0
210
0.0
220
0.0
230
1.0
 40
0.0348994967024541
 41
1.03609607496944
 42
2.105496578620353
  0
ELLIPSE
  5
16A5
330
1F
100
AcDbEntity
  8
SANINDUSA
100
AcDbEllipse
 10
5046.706239575756
 20
2670.064259311355
 30
0.0
 11
-0.0058708176637837
 21
-0.0046346099421044
 31
0.0
210
0.0
220
0.0
230
1.0
 40
0.0348994967019768
 41
1.03609607496942
 42
2.105496578620374
  0
LINE
  5
16A6
330
1F
100
AcDbEntity
  8
SANINDUSA
100
AcDbLine
 10
5046.716407341175
 20
2670.066140783887
 30
0.0
 11
5046.714915920983
 21
2670.066316284136
 31
0.0
  0
LINE
  5
16A7
330
1F
100
AcDbEntity
  8
SANINDUSA
100
AcDbLine
 10
5046.714947820896
 20
2670.06652164477
 30
0.0
 11
5046.716439241088
 21
2670.066346144522
 31
0.0
  0
ARC
  5
16A8
330
1F
100
AcDbEntity
  8
SANINDUSA
100
AcDbCircle
 10
5046.716357434262
 20
2670.065650941211
 30
0.0
 40
0.0007
100
AcDbArc
 50
308.2886834952711
 51
83.28868351104238
  0
LINE
  5
16A9
330
1F
100
AcDbEntity
  8
SANINDUSA
100
AcDbLine
 10
5046.702853758912
 20
2670.05435368614
 30
0.0
 11
5046.716658719736
 21
2670.06525176071
 31
0.0
  0
LINE
  5
16AA
330
1F
100
AcDbEntity
  8
SANINDUSA
100
AcDbLine
 10
5046.716791171075
 20
2670.065101512073
 30
0.0
 11
5046.702986210251
 21
2670.054203437504
 31
0.0
  0
LINE
  5
16AB
330
1F
100
AcDbEntity
  8
SANINDUSA
100
AcDbLine
 10
5046.701657922503
 20
2670.057651777308
 30
0.0
 11
5046.698306590926
 21
2670.061897022725
 31
0.0
  0
LINE
  5
16AC
330
1F
100
AcDbEntity
  8
SANINDUSA
100
AcDbLine
 10
5046.698455044145
 20
2670.062014216411
 30
0.0
 11
5046.701806375722
 21
2670.057768970994
 31
0.0
  0
ARC
  5
16AD
330
1F
100
AcDbEntity
  8
SANINDUSA
100
AcDbCircle
 10
5046.705898208181
 20
2670.064691733245
 30
0.0
 40
0.0043531468531479
100
AcDbArc
 50
226.8066044638727
 51
29.7707625480112
  0
ARC
  5
16AE
330
1F
100
AcDbEntity
  8
SANINDUSA
100
AcDbCircle
 10
5046.724995268506
 20
2670.040518412115
 30
0.0
 40
0.0348115390518547
100
AcDbArc
 50
142.1175032793041
 51
164.7516524747643
  0
ARC
  5
16AF
330
1F
100
AcDbEntity
  8
SANINDUSA
100
AcDbCircle
 10
5046.9832656903
 20
2669.713367793121
 30
0.0
 40
0.4320000000000001
100
AcDbArc
 50
125.8519473620635
 51
130.7268517966947
  0
ARC
  5
16B0
330
1F
100
AcDbEntity
  8
SANINDUSA
100
AcDbCircle
 10
5046.9832656903
 20
2669.713367793121
 30
0.0
 40
0.438
100
AcDbArc
 50
125.4758001504743
 51
131.1029896111783
  0
LINE
  5
16B1
330
1F
100
AcDbEntity
  8
SANINDUSA
100
AcDbLine
 10
5046.903710273172
 20
2670.157850601774
 30
0.0
 11
5046.902928416556
 21
2670.161993957447
 31
0.0
  0
LINE
  5
16B2
330
1F
100
AcDbEntity
  8
SANINDUSA
100
AcDbLine
 10
5046.911102285245
 20
2670.15906572677
 30
0.0
 11
5046.910287674503
 21
2670.163382659014
 31
0.0
  0
LINE
  5
16B3
330
1F
100
AcDbEntity
  8
SANINDUSA
100
AcDbLine
 10
5046.910819430626
 20
2670.160564681009
 30
0.0
 11
5046.903460172678
 21
2670.159175979442
 31
0.0
  0
LINE
  5
16B4
330
1F
100
AcDbEntity
  8
SANINDUSA
100
AcDbLine
 10
5046.915417139378
 20
2670.164350595722
 30
0.0
 11
5046.915815753836
 21
2670.16493463897
 31
0.0
  0
LINE
  5
16B5
330
1F
100
AcDbEntity
  8
SANINDUSA
100
AcDbLine
 10
5046.914981324282
 20
2670.169356598639
 30
0.0
 11
5046.915815753836
 21
2670.16493463897
 31
0.0
  0
LINE
  5
16B6
330
1F
100
AcDbEntity
  8
SANINDUSA
100
AcDbLine
 10
5046.914397281035
 20
2670.169755213096
 30
0.0
 11
5046.914981324282
 21
2670.169356598639
 31
0.0
  0
LINE
  5
16B7
330
1F
100
AcDbEntity
  8
SANINDUSA
100
AcDbLine
 10
5046.914981324282
 20
2670.169356598639
 30
0.0
 11
5046.8963108279
 21
2670.165833451636
 31
0.0
  0
LINE
  5
16B8
330
1F
100
AcDbEntity
  8
SANINDUSA
100
AcDbLine
 10
5046.896709442356
 20
2670.166417494883
 30
0.0
 11
5046.914397281035
 21
2670.169755213096
 31
0.0
  0
LINE
  5
16B9
330
1F
100
AcDbEntity
  8
SANINDUSA
100
AcDbLine
 10
5046.897145257452
 20
2670.161411491966
 30
0.0
 11
5046.915815753836
 21
2670.16493463897
 31
0.0
  0
LINE
  5
16BA
330
1F
100
AcDbEntity
  8
SANINDUSA
100
AcDbLine
 10
5046.915417139378
 20
2670.164350595722
 30
0.0
 11
5046.897729300699
 21
2670.161012877509
 31
0.0
  0
LINE
  5
16BB
330
1F
100
AcDbEntity
  8
SANINDUSA
100
AcDbLine
 10
5046.897145257452
 20
2670.161411491966
 30
0.0
 11
5046.8963108279
 21
2670.165833451636
 31
0.0
  0
LINE
  5
16BC
330
1F
100
AcDbEntity
  8
SANINDUSA
100
AcDbLine
 10
5046.896709442356
 20
2670.166417494883
 30
0.0
 11
5046.8963108279
 21
2670.165833451636
 31
0.0
  0
LINE
  5
16BD
330
1F
100
AcDbEntity
  8
SANINDUSA
100
AcDbLine
 10
5046.897729300699
 20
2670.161012877509
 30
0.0
 11
5046.897145257452
 21
2670.161411491966
 31
0.0
  0
ARC
  5
16BE
330
1F
100
AcDbEntity
  8
SANINDUSA
100
AcDbCircle
 10
5046.979175168729
 20
2669.711252162498
 30
0.0
 40
0.438
100
AcDbArc
 50
96.28635893159799
 51
101.9135483593261
  0
ARC
  5
16BF
330
1F
100
AcDbEntity
  8
SANINDUSA
100
AcDbCircle
 10
5046.979175168729
 20
2669.711252162498
 30
0.0
 40
0.4320000000000001
100
AcDbArc
 50
96.66249677010512
 51
101.5374011787454
  0
ARC
  5
16C0
330
1F
100
AcDbEntity
  8
SANINDUSA
100
AcDbCircle
 10
5046.913254103268
 20
2670.122816922179
 30
0.0
 40
0.0348115390518547
100
AcDbArc
 50
62.63769607461604
 51
85.27184523585599
  0
ARC
  5
16C1
330
1F
100
AcDbEntity
  8
SANINDUSA
100
AcDbCircle
 10
5046.908392188413
 20
2670.153237457207
 30
0.0
 40
0.0043531468531479
100
AcDbArc
 50
197.6185859738297
 51
0.5827440672089952
  0
LINE
  5
16C2
330
1F
100
AcDbEntity
  8
SANINDUSA
100
AcDbLine
 10
5046.915401881131
 20
2670.15690269871
 30
0.0
 11
5046.916257365293
 21
2670.15156212956
 31
0.0
  0
LINE
  5
16C3
330
1F
100
AcDbEntity
  8
SANINDUSA
100
AcDbLine
 10
5046.916444121205
 20
2670.151592045235
 30
0.0
 11
5046.915588637043
 21
2670.156932614384
 31
0.0
  0
LINE
  5
16C4
330
1F
100
AcDbEntity
  8
SANINDUSA
100
AcDbLine
 10
5046.900715927662
 20
2670.1454979753
 30
0.0
 11
5046.91808273232
 21
2670.148279893463
 31
0.0
  0
LINE
  5
16C5
330
1F
100
AcDbEntity
  8
SANINDUSA
100
AcDbLine
 10
5046.918061824896
 20
2670.148479094089
 30
0.0
 11
5046.900695020239
 21
2670.145697175926
 31
0.0
  0
ARC
  5
16C6
330
1F
100
AcDbEntity
  8
SANINDUSA
100
AcDbCircle
 10
5046.900605208993
 20
2670.14618916368
 30
0.0
 40
0.0007
100
AcDbArc
 50
144.1006650402522
 51
279.1006650128692
  0
LINE
  5
16C7
330
1F
100
AcDbEntity
  8
SANINDUSA
100
AcDbLine
 10
5046.900918722506
 20
2670.147816076033
 30
0.0
 11
5046.900038175081
 21
2670.146599617748
 31
0.0
  0
LINE
  5
16C8
330
1F
100
AcDbEntity
  8
SANINDUSA
100
AcDbLine
 10
5046.900210911252
 20
2670.146484063389
 30
0.0
 11
5046.901091458678
 21
2670.147700521674
 31
0.0
  0
ELLIPSE
  5
16C9
330
1F
100
AcDbEntity
  8
SANINDUSA
100
AcDbEllipse
 10
5046.908479328269
 20
2670.152693465335
 30
0.0
 11
0.0073855583400048
 21
0.001183062704692
 31
0.0
210
0.0
220
0.0
230
-0.9999999999999998
 40
0.0348994967019767
 41
1.03609607496942
 42
2.105496578620374
  0
ELLIPSE
  5
16CA
330
1F
100
AcDbEntity
  8
SANINDUSA
100
AcDbEllipse
 10
5046.908305048556
 20
2670.15378144908
 30
0.0
 11
-0.0073855583400051
 21
-0.0011830627046921
 31
0.0
210
0.0
220
0.0
230
-0.9999999999999998
 40
0.0348994967024541
 41
1.03609607496944
 42
2.105496578620353
  0
ARC
  5
16CB
330
1F
100
AcDbEntity
  8
SANINDUSA
100
AcDbCircle
 10
5046.908392188413
 20
2670.153237457207
 30
0.0
 40
0.0044966441200263
100
AcDbArc
 50
185.0083724354663
 51
193.192957615269
  0
SPLINE
  5
16CC
330
1F
100
AcDbEntity
  8
SANINDUSA
100
AcDbSpline
210
0.0
220
0.0
230
1.0
 70
     8
 71
     3
 72
    20
 73
    16
 74
     0
 42
0.0000000001
 43
0.0000000001
 40
-0.5867559660494415
 40
-0.5867559660494415
 40
-0.5867559660494415
 40
-0.5867559660494415
 40
-0.5134114702932613
 40
-0.5134114702932613
 40
-0.5134114702932613
 40
-0.4107291762346091
 40
-0.4107291762346091
 40
-0.4107291762346091
 40
-0.2669739645524959
 40
-0.2669739645524959
 40
-0.2669739645524959
 40
-0.0657166681975375
 40
-0.0657166681975375
 40
-0.0657166681975375
 40
0.0
 40
0.0
 40
0.0
 40
0.0
 10
5046.904243236652
 20
2670.151919850736
 30
0.0
 10
5046.904263440636
 20
2670.151911308739
 30
0.0
 10
5046.904283953364
 20
2670.151903811617
 30
0.0
 10
5046.904304682299
 20
2670.151897237762
 30
0.0
 10
5046.904333702808
 20
2670.151888034364
 30
0.0
 10
5046.90436314895
 20
2670.15188063938
 30
0.0
 10
5046.904392788992
 20
2670.151874807272
 30
0.0
 10
5046.904434285053
 20
2670.151866642321
 30
0.0
 10
5046.904476024653
 20
2670.151861549101
 30
0.0
 10
5046.90451785799
 20
2670.15185897314
 30
0.0
 10
5046.904576424662
 20
2670.151855366795
 30
0.0
 10
5046.904635357016
 20
2670.151856696951
 30
0.0
 10
5046.904693987527
 20
2670.151862160115
 30
0.0
 10
5046.904713132184
 20
2670.151863944005
 30
0.0
 10
5046.904732244061
 20
2670.151866171438
 30
0.0
 10
5046.904751297499
 20
2670.15186882094
 30
0.0
  0
SPLINE
  5
16CD
330
1F
100
AcDbEntity
  8
SANINDUSA
100
AcDbSpline
210
0.0
220
0.0
230
1.0
 70
     8
 71
     3
 72
    20
 73
    16
 74
     0
 42
0.0000000001
 43
0.0000000001
 40
-0.0000000000003746
 40
-0.0000000000003746
 40
-0.0000000000003746
 40
-0.0000000000003746
 40
0.0481646545390696
 40
0.0481646545390696
 40
0.0481646545390696
 40
0.1155951708942915
 40
0.1155951708942915
 40
0.1155951708942915
 40
0.2099978937916021
 40
0.2099978937916021
 40
0.2099978937916021
 40
0.342161705847837
 40
0.342161705847837
 40
0.342161705847837
 40
0.3853172363151791
 40
0.3853172363151791
 40
0.3853172363151791
 40
0.3853172363151791
 10
5046.904014224388
 20
2670.15221118271
 30
0.0
 10
5046.90401801381
 20
2670.15219501749
 30
0.0
 10
5046.904022088131
 20
2670.152178914289
 30
0.0
 10
5046.904026475015
 20
2670.152162991807
 30
0.0
 10
5046.904032616652
 20
2670.152140700331
 30
0.0
 10
5046.904039374092
 20
2670.152118701911
 30
0.0
 10
5046.904047132936
 20
2670.152097504784
 30
0.0
 10
5046.904057995316
 20
2670.152067828805
 30
0.0
 10
5046.904070919731
 20
2670.152039383902
 30
0.0
 10
5046.904087979931
 20
2670.152014187179
 30
0.0
 10
5046.90411186421
 20
2670.151978911766
 30
0.0
 10
5046.904144296029
 20
2670.151949818527
 30
0.0
 10
5046.904191954194
 20
2670.151932670529
 30
0.0
 10
5046.904207516043
 20
2670.151927071183
 30
0.0
 10
5046.904224664275
 20
2670.151922753982
 30
0.0
 10
5046.904243236652
 20
2670.151919850736
 30
0.0
  0
SPLINE
  5
16CE
330
1F
100
AcDbEntity
  8
SANINDUSA
100
AcDbSpline
210
0.0
220
0.0
230
1.0
 70
     8
 71
     3
 72
    20
 73
    16
 74
     0
 42
0.0000000001
 43
0.0000000001
 40
0.0
 40
0.0
 40
0.0
 40
0.0
 40
0.0481065524694527
 40
0.0481065524694527
 40
0.0481065524694527
 40
0.1154557259266865
 40
0.1154557259266865
 40
0.1154557259266865
 40
0.2097445687668138
 40
0.2097445687668138
 40
0.2097445687668138
 40
0.341748948742992
 40
0.341748948742992
 40
0.341748948742992
 40
0.3848524197556216
 40
0.3848524197556216
 40
0.3848524197556216
 40
0.3848524197556216
 10
5046.904039266713
 20
2670.153193182973
 30
0.0
 10
5046.90402061039
 20
2670.153183641824
 30
0.0
 10
5046.904004167904
 20
2670.153172975054
 30
0.0
 10
5046.903990052982
 20
2670.153161380805
 30
0.0
 10
5046.903970292091
 20
2670.153145148856
 30
0.0
 10
5046.903955238244
 20
2670.15312724689
 30
0.0
 10
5046.903943857545
 20
2670.153108216064
 30
0.0
 10
5046.903927924567
 20
2670.153081572909
 30
0.0
 10
5046.903918986282
 20
2670.153052580638
 30
0.0
 10
5046.903913936313
 20
2670.153022123681
 30
0.0
 10
5046.903906866358
 20
2670.15297948394
 30
0.0
 10
5046.903907147232
 20
2670.152934581035
 30
0.0
 10
5046.90390956357
 20
2670.152889298263
 30
0.0
 10
5046.903910352579
 20
2670.152874512052
 30
0.0
 10
5046.90391141551
 20
2670.152859696275
 30
0.0
 10
5046.903912712696
 20
2670.152844894275
 30
0.0
  0
SPLINE
  5
16CF
330
1F
100
AcDbEntity
  8
SANINDUSA
100
AcDbSpline
210
0.0
220
0.0
230
1.0
 70
     8
 71
     3
 72
    20
 73
    16
 74
     0
 42
0.0000000001
 43
0.0000000001
 40
-0.5867553122555979
 40
-0.5867553122555979
 40
-0.5867553122555979
 40
-0.5867553122555979
 40
-0.5134108982236482
 40
-0.5134108982236482
 40
-0.5134108982236482
 40
-0.4107287185789187
 40
-0.4107287185789187
 40
-0.4107287185789187
 40
-0.2669736670762972
 40
-0.2669736670762972
 40
-0.2669736670762972
 40
-0.0657165949726272
 40
-0.0657165949726272
 40
-0.0657165949726272
 40
0.0
 40
0.0
 40
0.0
 40
0.0
 10
5046.904505967122
 20
2670.153400355829
 30
0.0
 10
5046.904484842496
 20
2670.15339652264
 30
0.0
 10
5046.904463813016
 20
2670.153392167361
 30
0.0
 10
5046.904442921805
 20
2670.153387272572
 30
0.0
 10
5046.904413674109
 20
2670.153380419869
 30
0.0
 10
5046.904384697299
 20
2670.153372510801
 30
0.0
 10
5046.904356107472
 20
2670.153363482025
 30
0.0
 10
5046.904316081714
 20
2670.153350841738
 30
0.0
 10
5046.904276851326
 20
2670.153336032571
 30
0.0
 10
5046.90423862903
 20
2670.153318728923
 30
0.0
 10
5046.904185117816
 20
2670.153294503815
 30
0.0
 10
5046.904133200864
 20
2670.153265231024
 30
0.0
 10
5046.904085087596
 20
2670.153229862453
 30
0.0
 10
5046.90406937714
 20
2670.153218313533
 30
0.0
 10
5046.904054073027
 20
2670.153206108163
 30
0.0
 10
5046.904039266713
 20
2670.153193182973
 30
0.0
  0
ARC
  5
16D0
330
1F
100
AcDbEntity
  8
SANINDUSA
100
AcDbCircle
 10
5046.899471361786
 20
2670.148873247584
 30
0.0
 40
0.002
100
AcDbArc
 50
324.1006650402523
 51
9.100665016990367
  0
ARC
  5
16D1
330
1F
100
AcDbEntity
  8
SANINDUSA
100
AcDbCircle
 10
5046.899460635303
 20
2670.148871529352
 30
0.0
 40
0.0018
100
AcDbArc
 50
324.1006650402523
 51
9.100665016990367
  0
ARC
  5
16D2
330
1F
100
AcDbEntity
  8
SANINDUSA
100
AcDbCircle
 10
5046.908392188413
 20
2670.153237457207
 30
0.0
 40
0.0044966441200263
100
AcDbArc
 50
5.008372435466266
 51
13.19295761526906
  0
SPLINE
  5
16D3
330
1F
100
AcDbEntity
  8
SANINDUSA
100
AcDbSpline
210
0.0
220
0.0
230
1.0
 70
     8
 71
     3
 72
    20
 73
    16
 74
     0
 42
0.0000000001
 43
0.0000000001
 40
-0.5867559660496065
 40
-0.5867559660496065
 40
-0.5867559660496065
 40
-0.5867559660496065
 40
-0.5134114702933794
 40
-0.5134114702933794
 40
-0.5134114702933794
 40
-0.4107291762346614
 40
-0.4107291762346614
 40
-0.4107291762346614
 40
-0.2669739645524562
 40
-0.2669739645524562
 40
-0.2669739645524562
 40
-0.0657166681973689
 40
-0.0657166681973689
 40
-0.0657166681973689
 40
0.0000000000002109
 40
0.0000000000002109
 40
0.0000000000002109
 40
0.0000000000002109
 10
5046.912541140173
 20
2670.154555063679
 30
0.0
 10
5046.912520936189
 20
2670.154563605676
 30
0.0
 10
5046.912500423461
 20
2670.154571102798
 30
0.0
 10
5046.912479694526
 20
2670.154577676653
 30
0.0
 10
5046.912450674017
 20
2670.15458688005
 30
0.0
 10
5046.912421227876
 20
2670.154594275035
 30
0.0
 10
5046.912391587833
 20
2670.154600107143
 30
0.0
 10
5046.912350091773
 20
2670.154608272094
 30
0.0
 10
5046.912308352172
 20
2670.154613365313
 30
0.0
 10
5046.912266518835
 20
2670.154615941275
 30
0.0
 10
5046.912207952163
 20
2670.15461954762
 30
0.0
 10
5046.91214901981
 20
2670.154618217463
 30
0.0
 10
5046.912090389298
 20
2670.154612754299
 30
0.0
 10
5046.912071244641
 20
2670.154610970409
 30
0.0
 10
5046.912052132764
 20
2670.154608742976
 30
0.0
 10
5046.912033079326
 20
2670.154606093474
 30
0.0
  0
SPLINE
  5
16D4
330
1F
100
AcDbEntity
  8
SANINDUSA
100
AcDbSpline
210
0.0
220
0.0
230
1.0
 70
     8
 71
     3
 72
    20
 73
    16
 74
     0
 42
0.0000000001
 43
0.0000000001
 40
-0.5867553122555013
 40
-0.5867553122555013
 40
-0.5867553122555013
 40
-0.5867553122555013
 40
-0.5210387172828694
 40
-0.5210387172828694
 40
-0.5210387172828694
 40
-0.3197816451791844
 40
-0.3197816451791844
 40
-0.3197816451791844
 40
-0.1760265936765523
 40
-0.1760265936765523
 40
-0.1760265936765523
 40
-0.0733444140318151
 40
-0.0733444140318151
 40
-0.0733444140318151
 40
0.0000000000001401
 40
0.0000000000001401
 40
0.0000000000001401
 40
0.0000000000001401
 10
5046.912278409704
 20
2670.153074558586
 30
0.0
 10
5046.912297337367
 20
2670.153077993122
 30
0.0
 10
5046.912316188665
 20
2670.153081846854
 30
0.0
 10
5046.912334932527
 20
2670.153086132163
 30
0.0
 10
5046.912392335607
 20
2670.153099255921
 30
0.0
 10
5046.912448734187
 20
2670.153116400053
 30
0.0
 10
5046.912503243505
 20
2670.153138119365
 30
0.0
 10
5046.912542178732
 20
2670.153153633159
 30
0.0
 10
5046.912580240251
 20
2670.153171509687
 30
0.0
 10
5046.912617110031
 20
2670.153192227874
 30
0.0
 10
5046.912643445589
 20
2670.153207026579
 30
0.0
 10
5046.912669108562
 20
2670.153223249307
 30
0.0
 10
5046.912693802277
 20
2670.153241056971
 30
0.0
 10
5046.912711440644
 20
2670.15325377673
 30
0.0
 10
5046.912728585208
 20
2670.153267306006
 30
0.0
 10
5046.912745110112
 20
2670.153281731442
 30
0.0
  0
SPLINE
  5
16D5
330
1F
100
AcDbEntity
  8
SANINDUSA
100
AcDbSpline
210
0.0
220
0.0
230
1.0
 70
     8
 71
     3
 72
    20
 73
    16
 74
     0
 42
0.0000000001
 43
0.0000000001
 40
0.0
 40
0.0
 40
0.0
 40
0.0
 40
0.0480735469503326
 40
0.0480735469503326
 40
0.0480735469503326
 40
0.1153765126807983
 40
0.1153765126807983
 40
0.1153765126807983
 40
0.2096006647034502
 40
0.2096006647034502
 40
0.2096006647034502
 40
0.341514477535163
 40
0.341514477535163
 40
0.341514477535163
 40
0.3845883756026611
 40
0.3845883756026611
 40
0.3845883756026611
 40
0.3845883756026611
 10
5046.912745110112
 20
2670.153281731442
 30
0.0
 10
5046.912763753636
 20
2670.153291266044
 30
0.0
 10
5046.91278018453
 20
2670.153301924551
 30
0.0
 10
5046.912794284387
 20
2670.153313501207
 30
0.0
 10
5046.912814024188
 20
2670.153329708525
 30
0.0
 10
5046.912829039768
 20
2670.153347530354
 30
0.0
 10
5046.912840453135
 20
2670.153366587822
 30
0.0
 10
5046.912856431848
 20
2670.153393268277
 30
0.0
 10
5046.91286542748
 20
2670.153422563107
 30
0.0
 10
5046.912870438532
 20
2670.153452778795
 30
0.0
 10
5046.912877454004
 20
2670.153495080758
 30
0.0
 10
5046.912877226262
 20
2670.153540419963
 30
0.0
 10
5046.912874811464
 20
2670.153585649711
 30
0.0
 10
5046.912874022957
 20
2670.153600418608
 30
0.0
 10
5046.912872960426
 20
2670.153615228295
 30
0.0
 10
5046.912871664128
 20
2670.15363002014
 30
0.0
  0
SPLINE
  5
16D6
330
1F
100
AcDbEntity
  8
SANINDUSA
100
AcDbSpline
210
0.0
220
0.0
230
1.0
 70
     8
 71
     3
 72
    20
 73
    16
 74
     0
 42
0.0000000001
 43
0.0000000001
 40
0.0
 40
0.0
 40
0.0
 40
0.0
 40
0.0431555304672254
 40
0.0431555304672254
 40
0.0431555304672254
 40
0.1753193425231027
 40
0.1753193425231027
 40
0.1753193425231027
 40
0.2697220654201579
 40
0.2697220654201579
 40
0.2697220654201579
 40
0.3371525817751973
 40
0.3371525817751973
 40
0.3371525817751973
 40
0.3853172363145112
 40
0.3853172363145112
 40
0.3853172363145112
 40
0.3853172363145112
 10
5046.912770152437
 20
2670.154263731705
 30
0.0
 10
5046.912766757115
 20
2670.154278215742
 30
0.0
 10
5046.912763132116
 20
2670.154292648038
 30
0.0
 10
5046.91275926025
 20
2670.154306948749
 30
0.0
 10
5046.912747402658
 20
2670.154350744673
 30
0.0
 10
5046.912733637213
 20
2670.154393475315
 30
0.0
 10
5046.91271361994
 20
2670.154431732726
 30
0.0
 10
5046.912699321888
 20
2670.154459059449
 30
0.0
 10
5046.912681813354
 20
2670.154483808981
 30
0.0
 10
5046.912658216875
 20
2670.154504235284
 30
0.0
 10
5046.912641362248
 20
2670.154518825501
 30
0.0
 10
5046.912621521453
 20
2670.154531040272
 30
0.0
 10
5046.912597777825
 20
2670.154540243327
 30
0.0
 10
5046.91258081809
 20
2670.154546816938
 30
0.0
 10
5046.912561868273
 20
2670.154551823448
 30
0.0
 10
5046.912541140173
 20
2670.154555063679
 30
0.0
  0
ARC
  5
16D7
330
1F
100
AcDbEntity
  8
SANINDUSA
100
AcDbCircle
 10
5046.900615935475
 20
2670.146190881912
 30
0.0
 40
0.0005
100
AcDbArc
 50
144.1006650402522
 51
279.1006650128692
  0
ARC
  5
16D8
330
1F
100
AcDbEntity
  8
SANINDUSA
100
AcDbCircle
 10
5046.916082343028
 20
2670.157011699148
 30
0.0
 40
0.0005
100
AcDbArc
 50
85.27184523585599
 51
189.1006650169904
  0
ARC
  5
16D9
330
1F
100
AcDbEntity
  8
SANINDUSA
100
AcDbCircle
 10
5046.915725379179
 20
2670.158044348164
 30
0.0
 40
0.0010000000000073
100
AcDbArc
 50
9.100665016990367
 51
86.00432498785119
  0
ARC
  5
16DA
330
1F
100
AcDbEntity
  8
SANINDUSA
100
AcDbCircle
 10
5046.913254103268
 20
2670.122816922179
 30
0.0
 40
0.0348115390518547
100
AcDbArc
 50
85.27184523585599
 51
86.07075040353405
  0
ARC
  5
16DB
330
1F
100
AcDbEntity
  8
SANINDUSA
100
AcDbCircle
 10
5046.916093069509
 20
2670.15701341738
 30
0.0
 40
0.000700000000011
100
AcDbArc
 50
85.27184523585599
 51
189.1006650427175
  0
LINE
  5
16DC
330
1F
100
AcDbEntity
  8
SANINDUSA
100
AcDbLine
 10
5046.916712791149
 20
2670.158202517692
 30
0.0
 11
5046.916801115204
 21
2670.157651133172
 31
0.0
  0
ARC
  5
16DD
330
1F
100
AcDbEntity
  8
SANINDUSA
100
AcDbCircle
 10
5046.913264829749
 20
2670.122818640411
 30
0.0
 40
0.0350115390518602
100
AcDbArc
 50
84.20304478634729
 51
85.27184523585599
  0
ARC
  5
16DE
330
1F
100
AcDbEntity
  8
SANINDUSA
100
AcDbCircle
 10
5046.928706195906
 20
2670.143314522329
 30
0.0
 40
0.003
100
AcDbArc
 50
276.6624967701051
 51
9.100665016990367
  0
LINE
  5
16DF
330
1F
100
AcDbEntity
  8
SANINDUSA
100
AcDbLine
 10
5046.93101457901
 20
2670.147819522386
 30
0.0
 11
5046.931022916883
 21
2670.147820857997
 31
0.0
  0
LINE
  5
16E0
330
1F
100
AcDbEntity
  8
SANINDUSA
100
AcDbLine
 10
5046.93121519194
 20
2670.146618491728
 30
0.0
 11
5046.931668431819
 21
2670.143789030913
 31
0.0
  0
ARC
  5
16E1
330
1F
100
AcDbEntity
  8
SANINDUSA
100
AcDbCircle
 10
5046.928334797605
 20
2670.151957439561
 30
0.0
 40
0.002
100
AcDbArc
 50
9.100665016990367
 51
62.63769607461604
  0
ARC
  5
16E2
330
1F
100
AcDbEntity
  8
SANINDUSA
100
AcDbCircle
 10
5046.918221462751
 20
2670.151876750385
 30
0.0
 40
0.0018
100
AcDbArc
 50
189.1006650169904
 51
234.1006650191464
  0
ARC
  5
16E3
330
1F
100
AcDbEntity
  8
SANINDUSA
100
AcDbCircle
 10
5046.918232189234
 20
2670.151878468617
 30
0.0
 40
0.002
100
AcDbArc
 50
189.1006650169904
 51
234.1006650191464
  0
LINE
  5
16E4
330
1F
100
AcDbEntity
  8
SANINDUSA
100
AcDbLine
 10
5046.918382467719
 20
2670.149538115755
 30
0.0
 11
5046.917166009433
 21
2670.150418663182
 31
0.0
  0
LINE
  5
16E5
330
1F
100
AcDbEntity
  8
SANINDUSA
100
AcDbLine
 10
5046.917059463324
 20
2670.150258371724
 30
0.0
 11
5046.91827592161
 21
2670.149377824298
 31
0.0
  0
ARC
  5
16E6
330
1F
100
AcDbEntity
  8
SANINDUSA
100
AcDbCircle
 10
5046.917972013651
 20
2670.148971081843
 30
0.0
 40
0.0007
100
AcDbArc
 50
279.1006650128692
 51
54.10066501914636
  0
ARC
  5
16E7
330
1F
100
AcDbEntity
  8
SANINDUSA
100
AcDbCircle
 10
5046.917982740133
 20
2670.148972800075
 30
0.0
 40
0.0005
100
AcDbArc
 50
279.1006650128692
 51
54.10066501914636
  0
LINE
  5
16E8
330
1F
100
AcDbEntity
  8
SANINDUSA
100
AcDbLine
 10
5046.930309621547
 20
2670.152273778616
 30
0.0
 11
5046.931022981633
 21
2670.147820453774
 31
0.0
  0
ARC
  5
16E9
330
1F
100
AcDbEntity
  8
SANINDUSA
100
AcDbCircle
 10
5046.913254103268
 20
2670.122816922179
 30
0.0
 40
0.0348115390518547
100
AcDbArc
 50
112.9253247630763
 51
135.5636340059392
  0
ARC
  5
16EA
330
1F
100
AcDbEntity
  8
SANINDUSA
100
AcDbCircle
 10
5046.899888692534
 20
2670.154418306769
 30
0.0
 40
0.0005
100
AcDbArc
 50
9.100665016990367
 51
112.9253247630763
  0
ARC
  5
16EB
330
1F
100
AcDbEntity
  8
SANINDUSA
100
AcDbCircle
 10
5046.913254103268
 20
2670.122816922179
 30
0.0
 40
0.0348115390518547
100
AcDbArc
 50
112.0999150222289
 51
112.9253247630763
  0
ARC
  5
16EC
330
1F
100
AcDbEntity
  8
SANINDUSA
100
AcDbCircle
 10
5046.913264829751
 20
2670.122818640411
 30
0.0
 40
0.035011539051848
100
AcDbArc
 50
112.9253247630763
 51
113.994188868571
  0
LINE
  5
16ED
330
1F
100
AcDbEntity
  8
SANINDUSA
100
AcDbLine
 10
5046.899027597951
 20
2670.154804717029
 30
0.0
 11
5046.898939286672
 21
2670.155356021785
 31
0.0
  0
ARC
  5
16EE
330
1F
100
AcDbEntity
  8
SANINDUSA
100
AcDbCircle
 10
5046.899899419016
 20
2670.154420025001
 30
0.0
 40
0.0007000000000107
100
AcDbArc
 50
9.100665016990367
 51
112.9253247630763
  0
ARC
  5
16EF
330
1F
100
AcDbEntity
  8
SANINDUSA
100
AcDbCircle
 10
5046.899926698643
 20
2670.155514191313
 30
0.0
 40
0.0009999999999998
100
AcDbArc
 50
112.1929751454018
 51
189.1006650169904
  0
LINE
  5
16F0
330
1F
100
AcDbEntity
  8
SANINDUSA
100
AcDbLine
 10
5046.888564202131
 20
2670.141019568291
 30
0.0
 11
5046.887850906795
 21
2670.14547248891
 31
0.0
  0
ARC
  5
16F1
330
1F
100
AcDbEntity
  8
SANINDUSA
100
AcDbCircle
 10
5046.889825730737
 20
2670.145788827967
 30
0.0
 40
0.002
100
AcDbArc
 50
135.5636340059392
 51
189.1006650169904
  0
ARC
  5
16F2
330
1F
100
AcDbEntity
  8
SANINDUSA
100
AcDbCircle
 10
5046.979934309641
 20
2669.706522728885
 30
0.0
 40
0.4440000000000001
100
AcDbArc
 50
96.32457633297438
 51
101.8756627522259
  0
CIRCLE
  5
16F3
330
1F
100
AcDbEntity
  8
SANINDUSA
100
AcDbCircle
 10
5046.908392188413
 20
2670.153237457207
 30
0.0
 40
0.0045000000000009
  0
CIRCLE
  5
16F4
330
1F
100
AcDbEntity
  8
SANINDUSA
100
AcDbCircle
 10
5046.908392577468
 20
2670.153242514204
 30
0.0
 40
0.0046999999999998
  0
ARC
  5
16F5
330
1F
100
AcDbEntity
  8
SANINDUSA
100
AcDbCircle
 10
5046.913264829751
 20
2670.122818640411
 30
0.0
 40
0.0363115390518475
100
AcDbArc
 50
86.00432498785119
 51
112.1929751454018
  0
ARC
  5
16F6
330
1F
100
AcDbEntity
  8
SANINDUSA
100
AcDbCircle
 10
5046.908392188413
 20
2670.153237457207
 30
0.0
 40
0.0043531468531479
100
AcDbArc
 50
17.61858597382972
 51
180.5827440672089
  0
LINE
  5
16F7
330
1F
100
AcDbEntity
  8
SANINDUSA
100
AcDbLine
 10
5046.900382398519
 20
2670.154497391533
 30
0.0
 11
5046.901237976851
 21
2670.149156234502
 31
0.0
  0
LINE
  5
16F8
330
1F
100
AcDbEntity
  8
SANINDUSA
100
AcDbLine
 10
5046.901446185728
 20
2670.14918958664
 30
0.0
 11
5046.900590607396
 21
2670.15453074367
 31
0.0
  0
ARC
  5
16F9
330
1F
100
AcDbEntity
  8
SANINDUSA
100
AcDbCircle
 10
5046.89217187984
 20
2670.137462706388
 30
0.0
 40
0.003
100
AcDbArc
 50
189.1006650169904
 51
281.5374011787454
  0
LINE
  5
16FA
330
1F
100
AcDbEntity
  8
SANINDUSA
100
AcDbLine
 10
5046.888756392744
 20
2670.139817729185
 30
0.0
 11
5046.889209643928
 21
2670.136988197804
 31
0.0
  0
LINE
  5
16FB
330
1F
100
AcDbEntity
  8
SANINDUSA
100
AcDbLine
 10
5048.25846284875
 20
2668.920675612898
 30
0.0
 11
5048.286461149905
 21
2668.920675612898
 31
0.0
  0
LINE
  5
16FC
330
1F
100
AcDbEntity
  8
SANINDUSA
100
AcDbLine
 10
5048.25846284875
 20
2668.920675612898
 30
0.0
 11
5048.25846284875
 21
2668.871328433398
 31
0.0
  0
LINE
  5
16FD
330
1F
100
AcDbEntity
  8
SANINDUSA
100
AcDbLine
 10
5048.286461149905
 20
2668.871328433398
 30
0.0
 11
5048.286461149905
 21
2668.920675612898
 31
0.0
  0
LINE
  5
16FE
330
1F
100
AcDbEntity
  8
SANINDUSA
100
AcDbLine
 10
5048.286461149905
 20
2668.871328433398
 30
0.0
 11
5048.25846284875
 21
2668.871328433398
 31
0.0
  0
LINE
  5
16FF
330
1F
100
AcDbEntity
  8
SANINDUSA
100
AcDbLine
 10
5048.286461149905
 20
2668.920675612898
 30
0.0
 11
5048.286461149905
 21
2670.66790943255
 31
0.0
  0
LINE
  5
1700
330
1F
100
AcDbEntity
  8
SANINDUSA
100
AcDbLine
 10
5048.263861149905
 20
2668.920675612898
 30
0.0
 11
5048.263861149905
 21
2670.66790943255
 31
0.0
  0
LINE
  5
1701
330
1F
100
AcDbEntity
  8
SANINDUSA
100
AcDbLine
 10
5048.25846284875
 20
2670.66790943255
 30
0.0
 11
5048.25846284875
 21
2668.920675612898
 31
0.0
  0
LINE
  5
1702
330
1F
100
AcDbEntity
  8
SANINDUSA
100
AcDbLine
 10
5048.25846284875
 20
2670.66790943255
 30
0.0
 11
5048.286461149905
 21
2670.66790943255
 31
0.0
  0
LINE
  5
1703
330
1F
100
AcDbEntity
  8
SANINDUSA
100
AcDbLine
 10
5048.286461149905
 20
2670.71725661205
 30
0.0
 11
5048.286461149905
 21
2670.66790943255
 31
0.0
  0
LINE
  5
1704
330
1F
100
AcDbEntity
  8
SANINDUSA
100
AcDbLine
 10
5048.25846284875
 20
2670.66790943255
 30
0.0
 11
5048.25846284875
 21
2670.71725661205
 31
0.0
  0
LINE
  5
1705
330
1F
100
AcDbEntity
  8
SANINDUSA
100
AcDbLine
 10
5048.286461149905
 20
2670.71725661205
 30
0.0
 11
5048.25846284875
 21
2670.71725661205
 31
0.0
  0
LINE
  5
1706
330
1F
100
AcDbEntity
  8
SANINDUSA
100
AcDbLine
 10
5047.513611149906
 20
2668.920675612898
 30
0.0
 11
5047.513611149906
 21
2670.66790943255
 31
0.0
  0
LINE
  5
1707
330
1F
100
AcDbEntity
  8
SANINDUSA
100
AcDbLine
 10
5047.534311149905
 20
2668.920675612898
 30
0.0
 11
5047.534311149905
 21
2670.66790943255
 31
0.0
  0
LINE
  5
1708
330
1F
100
AcDbEntity
  8
SANINDUSA
100
AcDbLine
 10
5048.25846284875
 20
2670.71725661205
 30
0.0
 11
5047.534311149905
 21
2670.71725661205
 31
0.0
  0
LINE
  5
1709
330
1F
100
AcDbEntity
  8
SANINDUSA
100
AcDbLine
 10
5047.513611149906
 20
2670.66790943255
 30
0.0
 11
5047.513611149906
 21
2670.71725661205
 31
0.0
  0
LINE
  5
170A
330
1F
100
AcDbEntity
  8
SANINDUSA
100
AcDbLine
 10
5047.534311149905
 20
2670.71725661205
 30
0.0
 11
5047.534311149905
 21
2670.66790943255
 31
0.0
  0
LINE
  5
170B
330
1F
100
AcDbEntity
  8
SANINDUSA
100
AcDbLine
 10
5047.513611149906
 20
2670.66790943255
 30
0.0
 11
5047.534311149905
 21
2670.66790943255
 31
0.0
  0
LINE
  5
170C
330
1F
100
AcDbEntity
  8
SANINDUSA
100
AcDbLine
 10
5047.534311149905
 20
2670.71725661205
 30
0.0
 11
5047.513611149906
 21
2670.71725661205
 31
0.0
  0
LINE
  5
170D
330
1F
100
AcDbEntity
  8
SANINDUSA
100
AcDbLine
 10
5047.718911149906
 20
2670.664292522724
 30
0.0
 11
5047.996761149905
 21
2670.664292522724
 31
0.0
  0
LINE
  5
170E
330
1F
100
AcDbEntity
  8
SANINDUSA
100
AcDbLine
 10
5047.718911149906
 20
2670.709859730941
 30
0.0
 11
5047.996761149905
 21
2670.709859730941
 31
0.0
  0
LINE
  5
170F
330
1F
100
AcDbEntity
  8
SANINDUSA
100
AcDbLine
 10
5048.018461149905
 20
2668.907291986201
 30
0.0
 11
5048.018461149905
 21
2670.681293059246
 31
0.0
  0
LINE
  5
1710
330
1F
100
AcDbEntity
  8
SANINDUSA
100
AcDbLine
 10
5047.996761149905
 20
2668.907291986201
 30
0.0
 11
5047.996761149905
 21
2670.664292522724
 31
0.0
  0
LINE
  5
1711
330
1F
100
AcDbEntity
  8
SANINDUSA
100
AcDbLine
 10
5047.996761149905
 20
2670.681293059246
 30
0.0
 11
5048.018461149905
 21
2670.681293059246
 31
0.0
  0
LINE
  5
1712
330
1F
100
AcDbEntity
  8
SANINDUSA
100
AcDbLine
 10
5047.996761149905
 20
2670.664292522724
 30
0.0
 11
5047.996761149905
 21
2670.709859730941
 31
0.0
  0
LINE
  5
1713
330
1F
100
AcDbEntity
  8
SANINDUSA
100
AcDbLine
 10
5047.696911149905
 20
2668.907292499397
 30
0.0
 11
5047.696911149905
 21
2670.681292546051
 31
0.0
  0
LINE
  5
1714
330
1F
100
AcDbEntity
  8
SANINDUSA
100
AcDbLine
 10
5047.718911149906
 20
2668.907292499397
 30
0.0
 11
5047.718911149906
 21
2670.664292522724
 31
0.0
  0
LINE
  5
1715
330
1F
100
AcDbEntity
  8
SANINDUSA
100
AcDbLine
 10
5047.717321149906
 20
2670.681292546051
 30
0.0
 11
5047.696911149905
 21
2670.681292546051
 31
0.0
  0
LINE
  5
1716
330
1F
100
AcDbEntity
  8
SANINDUSA
100
AcDbLine
 10
5047.718911149906
 20
2670.664292522724
 30
0.0
 11
5047.718911149906
 21
2670.709859730941
 31
0.0
  0
LINE
  5
1717
330
1F
100
AcDbEntity
  8
SANINDUSA
100
AcDbLine
 10
5047.513611149906
 20
2668.920675612898
 30
0.0
 11
5047.513611149906
 21
2668.871328433398
 31
0.0
  0
LINE
  5
1718
330
1F
100
AcDbEntity
  8
SANINDUSA
100
AcDbLine
 10
5047.534311149905
 20
2668.871328433398
 30
0.0
 11
5047.534311149905
 21
2668.920675612898
 31
0.0
  0
LINE
  5
1719
330
1F
100
AcDbEntity
  8
SANINDUSA
100
AcDbLine
 10
5047.513611149906
 20
2668.920675612898
 30
0.0
 11
5047.534311149905
 21
2668.920675612898
 31
0.0
  0
LINE
  5
171A
330
1F
100
AcDbEntity
  8
SANINDUSA
100
AcDbLine
 10
5047.534311149905
 20
2668.871328433398
 30
0.0
 11
5047.513611149906
 21
2668.871328433398
 31
0.0
  0
LINE
  5
171B
330
1F
100
AcDbEntity
  8
SANINDUSA
100
AcDbLine
 10
5047.560511149906
 20
2670.664292522724
 30
0.0
 11
5047.682011149905
 21
2670.664292522724
 31
0.0
  0
LINE
  5
171C
330
1F
100
AcDbEntity
  8
SANINDUSA
100
AcDbLine
 10
5047.548511149905
 20
2670.709859730941
 30
0.0
 11
5047.682011149905
 21
2670.709859730941
 31
0.0
  0
LINE
  5
171D
330
1F
100
AcDbEntity
  8
SANINDUSA
100
AcDbLine
 10
5047.682011149905
 20
2670.681293059246
 30
0.0
 11
5047.682011149905
 21
2670.709859730941
 31
0.0
  0
LINE
  5
171E
330
1F
100
AcDbEntity
  8
SANINDUSA
100
AcDbLine
 10
5047.682011149905
 20
2670.681293059246
 30
0.0
 11
5047.695311149904
 21
2670.681293059246
 31
0.0
  0
LINE
  5
171F
330
1F
100
AcDbEntity
  8
SANINDUSA
100
AcDbLine
 10
5047.695311149904
 20
2668.907291473006
 30
0.0
 11
5047.695311149904
 21
2670.681293059246
 31
0.0
  0
LINE
  5
1720
330
1F
100
AcDbEntity
  8
SANINDUSA
100
AcDbLine
 10
5047.548511149905
 20
2670.681293059246
 30
0.0
 11
5047.548511149905
 21
2670.709859730941
 31
0.0
  0
LINE
  5
1721
330
1F
100
AcDbEntity
  8
SANINDUSA
100
AcDbLine
 10
5047.547911149905
 20
2668.907291986201
 30
0.0
 11
5047.547911149905
 21
2670.681293059246
 31
0.0
  0
LINE
  5
1722
330
1F
100
AcDbEntity
  8
SANINDUSA
100
AcDbLine
 10
5047.560511149906
 20
2668.907291986201
 30
0.0
 11
5047.560511149906
 21
2670.681293059246
 31
0.0
  0
LINE
  5
1723
330
1F
100
AcDbEntity
  8
SANINDUSA
100
AcDbLine
 10
5047.560511149906
 20
2670.681293059246
 30
0.0
 11
5047.547911149905
 21
2670.681293059246
 31
0.0
  0
LINE
  5
1724
330
1F
100
AcDbEntity
  8
SANINDUSA
100
AcDbLine
 10
5047.717321149906
 20
2670.681292546051
 30
0.0
 11
5047.996761149905
 21
2670.681292546051
 31
0.0
  0
LINE
  5
1725
330
1F
100
AcDbEntity
  8
SANINDUSA
100
AcDbLine
 10
5047.560511149906
 20
2670.681293059246
 30
0.0
 11
5047.682011149905
 21
2670.681293059246
 31
0.0
  0
ARC
  5
1726
330
1F
100
AcDbEntity
  8
SANINDUSA
100
AcDbCircle
 10
5046.977782552959
 20
2669.718736176634
 30
0.0
 40
0.4276000000000001
100
AcDbArc
 50
91.51439875650103
 51
135.7343088439765
  0
ARC
  5
1727
330
1F
100
AcDbEntity
  8
SANINDUSA
100
AcDbCircle
 10
5046.977782552959
 20
2669.718736176634
 30
0.0
 40
0.4236000000000001
100
AcDbArc
 50
91.51439875650103
 51
135.7343088439765
  0
LINE
  5
1728
330
1F
100
AcDbEntity
  8
SANINDUSA
100
AcDbLine
 10
5046.674438010443
 20
2670.014403301161
 30
0.0
 11
5046.67157356717
 21
2670.017195247567
 31
0.0
  0
LINE
  5
1729
330
1F
100
AcDbEntity
  8
SANINDUSA
100
AcDbLine
 10
5046.966587581249
 20
2670.142188219501
 30
0.0
 11
5046.96648186858
 21
2670.146186822361
 31
0.0
  0
ARC
  5
172A
330
1F
100
AcDbEntity
  8
SANINDUSA
100
AcDbCircle
 10
5046.977782552959
 20
2669.718736176634
 30
0.0
 40
0.4316000000000001
100
AcDbArc
 50
92.4333303501435
 51
134.8010249140237
  0
ARC
  5
172B
330
1F
100
AcDbEntity
  8
SANINDUSA
100
AcDbCircle
 10
5046.977782552959
 20
2669.718736176634
 30
0.0
 40
0.4196000000000001
100
AcDbArc
 50
92.4333303501435
 51
134.8010249140237
  0
LINE
  5
172C
330
1F
100
AcDbEntity
  8
SANINDUSA
100
AcDbLine
 10
5046.959967654288
 20
2670.13795782372
 30
0.0
 11
5046.959458171963
 21
2670.149947003332
 31
0.0
  0
LINE
  5
172D
330
1F
100
AcDbEntity
  8
SANINDUSA
100
AcDbLine
 10
5046.682112712619
 20
2670.016466768803
 30
0.0
 11
5046.673656949787
 21
2670.024981466387
 31
0.0
  0
ARC
  5
172E
330
1F
100
AcDbEntity
  8
SANINDUSA
100
AcDbCircle
 10
5046.977782552959
 20
2669.718736176634
 30
0.0
 40
0.4304000000000001
100
AcDbArc
 50
92.4333303501435
 51
134.8010249140237
  0
LINE
  5
172F
330
1F
100
AcDbEntity
  8
SANINDUSA
100
AcDbLine
 10
5046.595078509749
 20
2669.961948628522
 30
0.0
 11
5046.5915957925
 21
2669.964592462895
 31
0.0
  0
SPLINE
  5
1730
330
1F
100
AcDbEntity
  8
SANINDUSA
100
AcDbSpline
210
0.0
220
0.0
230
1.0
 70
     8
 71
     3
 72
    20
 73
    16
 74
     0
 42
0.0000000001
 43
0.0000000001
 40
-0.0000000000003746
 40
-0.0000000000003746
 40
-0.0000000000003746
 40
-0.0000000000003746
 40
0.0481646545390696
 40
0.0481646545390696
 40
0.0481646545390696
 40
0.1155951708942915
 40
0.1155951708942915
 40
0.1155951708942915
 40
0.2099978937916021
 40
0.2099978937916021
 40
0.2099978937916021
 40
0.342161705847837
 40
0.342161705847837
 40
0.342161705847837
 40
0.3853172363151791
 40
0.3853172363151791
 40
0.3853172363151791
 40
0.3853172363151791
 10
5046.594470481596
 20
2669.952072015102
 30
0.0
 10
5046.594484214562
 20
2669.952062683452
 30
0.0
 10
5046.594498115218
 20
2669.952053590326
 30
0.0
 10
5046.594512123562
 20
2669.952044841814
 30
0.0
 10
5046.594531735245
 20
2669.952032593896
 30
0.0
 10
5046.594551601739
 20
2669.952020978564
 30
0.0
 10
5046.59457166275
 20
2669.952010630925
 30
0.0
 10
5046.594599748169
 20
2669.951996144229
 30
0.0
 10
5046.594628517729
 20
2669.951983959593
 30
0.0
 10
5046.594658132049
 20
2669.951976965503
 30
0.0
 10
5046.594699592098
 20
2669.951967173776
 30
0.0
 10
5046.59474315748
 20
2669.951967718747
 30
0.0
 10
5046.594789841932
 20
2669.9519873635
 30
0.0
 10
5046.594805085835
 20
2669.951993778113
 30
0.0
 10
5046.594820629241
 20
2669.95200221035
 30
0.0
 10
5046.594836263512
 20
2669.952012647382
 30
0.0
  0
ARC
  5
1731
330
1F
100
AcDbEntity
  8
SANINDUSA
100
AcDbCircle
 10
5046.593386890176
 20
2669.946539814711
 30
0.0
 40
0.002
100
AcDbArc
 50
6.711316492002605
 51
51.7113165047289
  0
ARC
  5
1732
330
1F
100
AcDbEntity
  8
SANINDUSA
100
AcDbCircle
 10
5046.593380159058
 20
2669.946531288176
 30
0.0
 40
0.0018
100
AcDbArc
 50
6.711316492002605
 51
51.7113165047289
  0
ARC
  5
1733
330
1F
100
AcDbEntity
  8
SANINDUSA
100
AcDbCircle
 10
5046.948321676364
 20
2669.678423779185
 30
0.0
 40
0.438
100
AcDbArc
 50
138.8970103863174
 51
144.5241998495256
  0
ARC
  5
1734
330
1F
100
AcDbEntity
  8
SANINDUSA
100
AcDbCircle
 10
5046.95208226934
 20
2669.675457000174
 30
0.0
 40
0.4440000000000001
100
AcDbArc
 50
138.9352278096748
 51
144.4863142176042
  0
ELLIPSE
  5
1735
330
1F
100
AcDbEntity
  8
SANINDUSA
100
AcDbEllipse
 10
5046.59656531435
 20
2669.956132628878
 30
0.0
 11
-0.0046346099420901
 21
-0.0058708176637954
 31
0.0
210
0.0
220
0.0
230
-1.0
 40
0.0348994967024541
 41
1.03609607496944
 42
2.105496578620353
  0
ARC
  5
1736
330
1F
100
AcDbEntity
  8
SANINDUSA
100
AcDbCircle
 10
5046.595739763843
 20
2669.93320014183
 30
0.0
 40
0.003
100
AcDbArc
 50
231.7113165047289
 51
324.1480526320782
  0
CIRCLE
  5
1737
330
1F
100
AcDbEntity
  8
SANINDUSA
100
AcDbCircle
 10
5046.596997736241
 20
2669.955791261303
 30
0.0
 40
0.0045000000000009
  0
CIRCLE
  5
1738
330
1F
100
AcDbEntity
  8
SANINDUSA
100
AcDbCircle
 10
5046.596994598922
 20
2669.955795246503
 30
0.0
 40
0.0046999999999998
  0
ARC
  5
1739
330
1F
100
AcDbEntity
  8
SANINDUSA
100
AcDbCircle
 10
5046.621177788487
 20
2669.936702727513
 30
0.0
 40
0.0363115390518475
100
AcDbArc
 50
128.6149764523683
 51
154.8036266256654
  0
ARC
  5
173A
330
1F
100
AcDbEntity
  8
SANINDUSA
100
AcDbCircle
 10
5046.596997736241
 20
2669.955791261303
 30
0.0
 40
0.0043531468531479
100
AcDbArc
 50
60.22923745198879
 51
223.1933955182936
  0
LINE
  5
173B
330
1F
100
AcDbEntity
  8
SANINDUSA
100
AcDbLine
 10
5046.645222700682
 20
2669.979576756866
 30
0.0
 11
5046.636708003099
 21
2669.988032519697
 31
0.0
  0
LINE
  5
173C
330
1F
100
AcDbEntity
  8
SANINDUSA
100
AcDbLine
 10
5046.647286168324
 20
2669.987251459042
 30
0.0
 11
5046.644494221917
 21
2669.990115902314
 31
0.0
  0
POLYLINE
  5
173D
330
1F
100
AcDbEntity
  8
SANINDUSA
100
AcDb2dPolyline
 66
     1
 10
0.0
 20
0.0
 30
0.0
  0
VERTEX
  5
173E
330
173D
100
AcDbEntity
  8
SANINDUSA
100
AcDbVertex
100
AcDb2dVertex
 10
5046.648304467391
 20
2669.999786876611
 30
0.0
 42
-0.1716209804019301
  0
VERTEX
  5
173F
330
173D
100
AcDbEntity
  8
SANINDUSA
100
AcDbVertex
100
AcDb2dVertex
 10
5046.651897470688
 20
2670.001547213841
 30
0.0
 42
-0.2265071203787086
  0
VERTEX
  5
1740
330
173D
100
AcDbEntity
  8
SANINDUSA
100
AcDbVertex
100
AcDb2dVertex
 10
5046.652060540541
 20
2670.00149138309
 30
0.0
  0
VERTEX
  5
1741
330
173D
100
AcDbEntity
  8
SANINDUSA
100
AcDbVertex
100
AcDb2dVertex
 10
5046.652874458121
 20
2670.000693642162
 30
0.0
 42
-0.4142135623729286
  0
VERTEX
  5
1742
330
173D
100
AcDbEntity
  8
SANINDUSA
100
AcDbVertex
100
AcDb2dVertex
 10
5046.652880135774
 20
2670.000127985231
 30
0.0
  0
VERTEX
  5
1743
330
173D
100
AcDbEntity
  8
SANINDUSA
100
AcDbVertex
100
AcDb2dVertex
 10
5046.652404779877
 20
2669.999642990029
 30
0.0
 42
-0.6681786379187177
  0
VERTEX
  5
1744
330
173D
100
AcDbEntity
  8
SANINDUSA
100
AcDbVertex
100
AcDb2dVertex
 10
5046.652061956304
 20
2669.999780977496
 30
0.0
  0
VERTEX
  5
1745
330
173D
100
AcDbEntity
  8
SANINDUSA
100
AcDbVertex
100
AcDb2dVertex
 10
5046.652056818772
 20
2670.00029282305
 30
0.0
 42
0.1989123673798312
  0
VERTEX
  5
1746
330
173D
100
AcDbEntity
  8
SANINDUSA
100
AcDbVertex
100
AcDb2dVertex
 10
5046.651996823666
 20
2670.000433649343
 30
0.0
  0
VERTEX
  5
1747
330
173D
100
AcDbEntity
  8
SANINDUSA
100
AcDbVertex
100
AcDb2dVertex
 10
5046.651786029872
 20
2670.000640253598
 30
0.0
 42
0.2461049196730113
  0
VERTEX
  5
1748
330
173D
100
AcDbEntity
  8
SANINDUSA
100
AcDbVertex
100
AcDb2dVertex
 10
5046.651608287588
 20
2670.000693825474
 30
0.0
 42
0.0583912209941408
  0
VERTEX
  5
1749
330
173D
100
AcDbEntity
  8
SANINDUSA
100
AcDbVertex
100
AcDb2dVertex
 10
5046.650454297341
 20
2670.000328585835
 30
0.0
 42
0.5279768385267204
  0
VERTEX
  5
174A
330
173D
100
AcDbEntity
  8
SANINDUSA
100
AcDbVertex
100
AcDb2dVertex
 10
5046.650338587067
 20
2669.99967818722
 30
0.0
  0
VERTEX
  5
174B
330
173D
100
AcDbEntity
  8
SANINDUSA
100
AcDbVertex
100
AcDb2dVertex
 10
5046.656725230935
 20
2669.993419177546
 30
0.0
 42
0.5279768385263968
  0
VERTEX
  5
174C
330
173D
100
AcDbEntity
  8
SANINDUSA
100
AcDbVertex
100
AcDb2dVertex
 10
5046.657373161531
 20
2669.993547992021
 30
0.0
 42
0.0583632005594956
  0
VERTEX
  5
174D
330
173D
100
AcDbEntity
  8
SANINDUSA
100
AcDbVertex
100
AcDb2dVertex
 10
5046.657714936269
 20
2669.994708546747
 30
0.0
 42
0.2461049196740124
  0
VERTEX
  5
174E
330
173D
100
AcDbEntity
  8
SANINDUSA
100
AcDbVertex
100
AcDb2dVertex
 10
5046.657657807452
 20
2669.9948851779
 30
0.0
  0
VERTEX
  5
174F
330
173D
100
AcDbEntity
  8
SANINDUSA
100
AcDbVertex
100
AcDb2dVertex
 10
5046.657446906276
 20
2669.995091887404
 30
0.0
 42
0.1989123673798311
  0
VERTEX
  5
1750
330
173D
100
AcDbEntity
  8
SANINDUSA
100
AcDbVertex
100
AcDb2dVertex
 10
5046.657304904101
 20
2669.995149043685
 30
0.0
  0
VERTEX
  5
1751
330
173D
100
AcDbEntity
  8
SANINDUSA
100
AcDbVertex
100
AcDb2dVertex
 10
5046.656793058549
 20
2669.995143906152
 30
0.0
 42
-0.6681786379187177
  0
VERTEX
  5
1752
330
173D
100
AcDbEntity
  8
SANINDUSA
100
AcDbVertex
100
AcDb2dVertex
 10
5046.656648217549
 20
2669.995483890898
 30
0.0
  0
VERTEX
  5
1753
330
173D
100
AcDbEntity
  8
SANINDUSA
100
AcDbVertex
100
AcDb2dVertex
 10
5046.657123573446
 20
2669.9959688861
 30
0.0
 42
-0.4142135623730951
  0
VERTEX
  5
1754
330
173D
100
AcDbEntity
  8
SANINDUSA
100
AcDbVertex
100
AcDb2dVertex
 10
5046.657689221661
 20
2669.995974572295
 30
0.0
  0
VERTEX
  5
1755
330
173D
100
AcDbEntity
  8
SANINDUSA
100
AcDbVertex
100
AcDb2dVertex
 10
5046.658434312631
 20
2669.995244290047
 30
0.0
 42
-0.2309634091047596
  0
VERTEX
  5
1756
330
173D
100
AcDbEntity
  8
SANINDUSA
100
AcDbVertex
100
AcDb2dVertex
 10
5046.658551794513
 20
2669.994913718529
 30
0.0
 42
-0.1672346938542433
  0
VERTEX
  5
1757
330
173D
100
AcDbEntity
  8
SANINDUSA
100
AcDbVertex
100
AcDb2dVertex
 10
5046.656874975987
 20
2669.991387687222
 30
0.0
  0
VERTEX
  5
1758
330
173D
100
AcDbEntity
  8
SANINDUSA
100
AcDbVertex
100
AcDb2dVertex
 10
5046.646012867905
 20
2669.980304020683
 30
0.0
 42
-0.4142135623731617
  0
VERTEX
  5
1759
330
173D
100
AcDbEntity
  8
SANINDUSA
100
AcDbVertex
100
AcDb2dVertex
 10
5046.644598726407
 20
2669.980289744082
 30
0.0
  0
VERTEX
  5
175A
330
173D
100
AcDbEntity
  8
SANINDUSA
100
AcDbVertex
100
AcDb2dVertex
 10
5046.643340994131
 20
2669.981522335061
 30
0.0
 42
-0.4142306435449703
  0
VERTEX
  5
175B
330
173D
100
AcDbEntity
  8
SANINDUSA
100
AcDbVertex
100
AcDb2dVertex
 10
5046.643326758351
 20
2669.98293651821
 30
0.0
  0
VERTEX
  5
175C
330
173D
100
AcDbEntity
  8
SANINDUSA
100
AcDbVertex
100
AcDb2dVertex
 10
5046.644442840126
 20
2669.984075231978
 30
0.0
 42
0.2881936776526472
  0
VERTEX
  5
175D
330
173D
100
AcDbEntity
  8
SANINDUSA
100
AcDbVertex
100
AcDb2dVertex
 10
5046.644488085884
 20
2669.984283242515
 30
0.0
 42
-0.628595749850598
  0
VERTEX
  5
175E
330
173D
100
AcDbEntity
  8
SANINDUSA
100
AcDbVertex
100
AcDb2dVertex
 10
5046.644803468621
 20
2669.984605020609
 30
0.0
 42
0.2881936776522668
  0
VERTEX
  5
175F
330
173D
100
AcDbEntity
  8
SANINDUSA
100
AcDbVertex
100
AcDb2dVertex
 10
5046.645010529053
 20
2669.984654432547
 30
0.0
  0
VERTEX
  5
1760
330
173D
100
AcDbEntity
  8
SANINDUSA
100
AcDbVertex
100
AcDb2dVertex
 10
5046.646542761544
 20
2669.98621773577
 30
0.0
 42
0.2881936776528216
  0
VERTEX
  5
1761
330
173D
100
AcDbEntity
  8
SANINDUSA
100
AcDbVertex
100
AcDb2dVertex
 10
5046.646588007302
 20
2669.986425746307
 30
0.0
 42
-0.6285957498500262
  0
VERTEX
  5
1762
330
173D
100
AcDbEntity
  8
SANINDUSA
100
AcDbVertex
100
AcDb2dVertex
 10
5046.64690339004
 20
2669.986747524401
 30
0.0
 42
0.2881936776526472
  0
VERTEX
  5
1763
330
173D
100
AcDbEntity
  8
SANINDUSA
100
AcDbVertex
100
AcDb2dVertex
 10
5046.647110450471
 20
2669.986796936339
 30
0.0
  0
VERTEX
  5
1764
330
173D
100
AcDbEntity
  8
SANINDUSA
100
AcDbVertex
100
AcDb2dVertex
 10
5046.647386680017
 20
2669.987078767287
 30
0.0
 42
0.4142135623729997
  0
VERTEX
  5
1765
330
173D
100
AcDbEntity
  8
SANINDUSA
100
AcDbVertex
100
AcDb2dVertex
 10
5046.64738384119
 20
2669.987361595753
 30
0.0
  0
VERTEX
  5
1766
330
173D
100
AcDbEntity
  8
SANINDUSA
100
AcDbVertex
100
AcDb2dVertex
 10
5046.644455751448
 20
2669.990231489561
 30
0.0
 42
0.4142135623731903
  0
VERTEX
  5
1767
330
173D
100
AcDbEntity
  8
SANINDUSA
100
AcDbVertex
100
AcDb2dVertex
 10
5046.644172922983
 20
2669.990228650735
 30
0.0
  0
VERTEX
  5
1768
330
173D
100
AcDbEntity
  8
SANINDUSA
100
AcDbVertex
100
AcDb2dVertex
 10
5046.643895017554
 20
2669.989945109918
 30
0.0
 42
0.2849150464417384
  0
VERTEX
  5
1769
330
173D
100
AcDbEntity
  8
SANINDUSA
100
AcDbVertex
100
AcDb2dVertex
 10
5046.643848961322
 20
2669.989739383722
 30
0.0
 42
-0.6201736729456835
  0
VERTEX
  5
176A
330
173D
100
AcDbEntity
  8
SANINDUSA
100
AcDbVertex
100
AcDb2dVertex
 10
5046.643535440678
 20
2669.989419505481
 30
0.0
 42
0.284915046441269
  0
VERTEX
  5
176B
330
173D
100
AcDbEntity
  8
SANINDUSA
100
AcDbVertex
100
AcDb2dVertex
 10
5046.643330680393
 20
2669.989369329084
 30
0.0
  0
VERTEX
  5
176C
330
173D
100
AcDbEntity
  8
SANINDUSA
100
AcDbVertex
100
AcDb2dVertex
 10
5046.641795096135
 20
2669.987802606128
 30
0.0
 42
0.2849150464419475
  0
VERTEX
  5
176D
330
173D
100
AcDbEntity
  8
SANINDUSA
100
AcDbVertex
100
AcDb2dVertex
 10
5046.641749039904
 20
2669.987596879931
 30
0.0
 42
-0.6201736729451243
  0
VERTEX
  5
176E
330
173D
100
AcDbEntity
  8
SANINDUSA
100
AcDbVertex
100
AcDb2dVertex
 10
5046.641435519259
 20
2669.98727700169
 30
0.0
 42
0.2849150464416061
  0
VERTEX
  5
176F
330
173D
100
AcDbEntity
  8
SANINDUSA
100
AcDbVertex
100
AcDb2dVertex
 10
5046.641230758975
 20
2669.987226825293
 30
0.0
  0
VERTEX
  5
1770
330
173D
100
AcDbEntity
  8
SANINDUSA
100
AcDbVertex
100
AcDb2dVertex
 10
5046.640112735978
 20
2669.986086130938
 30
0.0
 42
-0.4141964814073941
  0
VERTEX
  5
1771
330
173D
100
AcDbEntity
  8
SANINDUSA
100
AcDbVertex
100
AcDb2dVertex
 10
5046.6386986353
 20
2669.986071895988
 30
0.0
  0
VERTEX
  5
1772
330
173D
100
AcDbEntity
  8
SANINDUSA
100
AcDbVertex
100
AcDb2dVertex
 10
5046.63745663591
 20
2669.987289068572
 30
0.0
 42
-0.4142135623732283
  0
VERTEX
  5
1773
330
173D
100
AcDbEntity
  8
SANINDUSA
100
AcDbVertex
100
AcDb2dVertex
 10
5046.637442359308
 20
2669.988703210071
 30
0.0
  0
VERTEX
  5
1774
330
173D
100
AcDbEntity
  8
SANINDUSA
100
AcDbVertex
100
AcDb2dVertex
 10
5046.645618519107
 20
2669.99704614274
 30
0.0
 42
0.468822488376375
  0
VERTEX
  5
1775
330
173D
100
AcDbEntity
  8
SANINDUSA
100
AcDbVertex
100
AcDb2dVertex
 10
5046.645462759371
 20
2669.998575613835
 30
0.0
 42
0.0576948838717018
  0
VERTEX
  5
1776
330
173D
100
AcDbEntity
  8
SANINDUSA
100
AcDbVertex
100
AcDb2dVertex
 10
5046.641539966587
 20
2670.000604186719
 30
0.0
 42
0.3118351474612041
  0
VERTEX
  5
1777
330
173D
100
AcDbEntity
  8
SANINDUSA
100
AcDbVertex
100
AcDb2dVertex
 10
5046.64043644961
 20
2670.000331133655
 30
0.0
 42
-1.797146556744268
  0
VERTEX
  5
1778
330
173D
100
AcDbEntity
  8
SANINDUSA
100
AcDbVertex
100
AcDb2dVertex
 10
5046.63994741389
 20
2670.001958789981
 30
0.0
 42
-0.0886637753107092
  0
VERTEX
  5
1779
330
173D
100
AcDbEntity
  8
SANINDUSA
100
AcDbVertex
100
AcDb2dVertex
 10
5046.646314123198
 20
2669.998959572344
 30
0.0
 42
0.3686029284448436
  0
VERTEX
  5
177A
330
173D
100
AcDbEntity
  8
SANINDUSA
100
AcDbVertex
100
AcDb2dVertex
 10
5046.64760701178
 20
2669.99907519492
 30
0.0
  0
VERTEX
  5
177B
330
173D
100
AcDbEntity
  8
SANINDUSA
100
AcDbVertex
100
AcDb2dVertex
 10
5046.648304477754
 20
2669.999786887186
 30
0.0
  0
SEQEND
  5
177C
330
173D
100
AcDbEntity
  8
SANINDUSA
  0
POLYLINE
  5
177D
330
1F
100
AcDbEntity
  8
SANINDUSA
100
AcDb2dPolyline
 66
     1
 10
0.0
 20
0.0
 30
0.0
 70
     1
  0
VERTEX
  5
177E
330
177D
100
AcDbEntity
  8
SANINDUSA
100
AcDbVertex
100
AcDb2dVertex
 10
5046.649126412331
 20
2669.999391538663
 30
0.0
 42
0.0392067269493321
  0
VERTEX
  5
177F
330
177D
100
AcDbEntity
  8
SANINDUSA
100
AcDbVertex
100
AcDb2dVertex
 10
5046.648512712122
 20
2669.998856400998
 30
0.0
  0
VERTEX
  5
1780
330
177D
100
AcDbEntity
  8
SANINDUSA
100
AcDbVertex
100
AcDb2dVertex
 10
5046.638013725386
 20
2669.988143265251
 30
0.0
 42
0.4142135623730951
  0
VERTEX
  5
1781
330
177D
100
AcDbEntity
  8
SANINDUSA
100
AcDbVertex
100
AcDb2dVertex
 10
5046.638016580707
 20
2669.987860436951
 30
0.0
  0
VERTEX
  5
1782
330
177D
100
AcDbEntity
  8
SANINDUSA
100
AcDbVertex
100
AcDb2dVertex
 10
5046.639262018989
 20
2669.986639894216
 30
0.0
 42
0.4141794006479897
  0
VERTEX
  5
1783
330
177D
100
AcDbEntity
  8
SANINDUSA
100
AcDbVertex
100
AcDb2dVertex
 10
5046.639544830959
 20
2669.986642732876
 30
0.0
  0
VERTEX
  5
1784
330
177D
100
AcDbEntity
  8
SANINDUSA
100
AcDbVertex
100
AcDb2dVertex
 10
5046.643605141174
 20
2669.990784895129
 30
0.0
 42
-0.4141794006481879
  0
VERTEX
  5
1785
330
177D
100
AcDbEntity
  8
SANINDUSA
100
AcDbVertex
100
AcDb2dVertex
 10
5046.645019201029
 20
2669.990799088431
 30
0.0
  0
VERTEX
  5
1786
330
177D
100
AcDbEntity
  8
SANINDUSA
100
AcDbVertex
100
AcDb2dVertex
 10
5046.64794708213
 20
2669.987929733878
 30
0.0
 42
-0.4142135623731032
  0
VERTEX
  5
1787
330
177D
100
AcDbEntity
  8
SANINDUSA
100
AcDbVertex
100
AcDb2dVertex
 10
5046.647961358731
 20
2669.986515592379
 30
0.0
  0
VERTEX
  5
1788
330
177D
100
AcDbEntity
  8
SANINDUSA
100
AcDbVertex
100
AcDb2dVertex
 10
5046.643901629666
 20
2669.982373056565
 30
0.0
 42
0.4142135623734281
  0
VERTEX
  5
1789
330
177D
100
AcDbEntity
  8
SANINDUSA
100
AcDbVertex
100
AcDb2dVertex
 10
5046.643904484986
 20
2669.982090228265
 30
0.0
  0
VERTEX
  5
178A
330
177D
100
AcDbEntity
  8
SANINDUSA
100
AcDbVertex
100
AcDb2dVertex
 10
5046.645158671204
 20
2669.980861112461
 30
0.0
 42
0.4142135623730951
  0
VERTEX
  5
178B
330
177D
100
AcDbEntity
  8
SANINDUSA
100
AcDbVertex
100
AcDb2dVertex
 10
5046.645441499503
 20
2669.980863967781
 30
0.0
  0
VERTEX
  5
178C
330
177D
100
AcDbEntity
  8
SANINDUSA
100
AcDbVertex
100
AcDb2dVertex
 10
5046.655940486239
 20
2669.991577103527
 30
0.0
 42
0.0392054911123095
  0
VERTEX
  5
178D
330
177D
100
AcDbEntity
  8
SANINDUSA
100
AcDbVertex
100
AcDb2dVertex
 10
5046.656463109876
 20
2669.992201461707
 30
0.0
 42
0.3690147635156997
  0
VERTEX
  5
178E
330
177D
100
AcDbEntity
  8
SANINDUSA
100
AcDbVertex
100
AcDb2dVertex
 10
5046.656428676061
 20
2669.992589682974
 30
0.0
  0
VERTEX
  5
178F
330
177D
100
AcDbEntity
  8
SANINDUSA
100
AcDbVertex
100
AcDb2dVertex
 10
5046.649515249528
 20
2669.999364947799
 30
0.0
 42
0.3690147635155541
  0
SEQEND
  5
1790
330
177D
100
AcDbEntity
  8
SANINDUSA
  0
POLYLINE
  5
1791
330
1F
100
AcDbEntity
  8
SANINDUSA
100
AcDb2dPolyline
 66
     1
 10
0.0
 20
0.0
 30
0.0
 70
     1
  0
VERTEX
  5
1792
330
1791
100
AcDbEntity
  8
SANINDUSA
100
AcDbVertex
100
AcDb2dVertex
 10
5046.660348151288
 20
2670.000634211413
 30
0.0
 42
-0.3269085594239496
  0
VERTEX
  5
1793
330
1791
100
AcDbEntity
  8
SANINDUSA
100
AcDbVertex
100
AcDb2dVertex
 10
5046.660438457203
 20
2670.000050464806
 30
0.0
  0
VERTEX
  5
1794
330
1791
100
AcDbEntity
  8
SANINDUSA
100
AcDbVertex
100
AcDb2dVertex
 10
5046.659220971551
 20
2669.997702905038
 30
0.0
 42
-0.5072628673586409
  0
VERTEX
  5
1795
330
1791
100
AcDbEntity
  8
SANINDUSA
100
AcDbVertex
100
AcDb2dVertex
 10
5046.659061489012
 20
2669.997678233003
 30
0.0
  0
VERTEX
  5
1796
330
1791
100
AcDbEntity
  8
SANINDUSA
100
AcDbVertex
100
AcDb2dVertex
 10
5046.654563745754
 20
2670.002175976261
 30
0.0
 42
-0.5072628673585822
  0
VERTEX
  5
1797
330
1791
100
AcDbEntity
  8
SANINDUSA
100
AcDbVertex
100
AcDb2dVertex
 10
5046.654588417789
 20
2670.0023354588
 30
0.0
  0
VERTEX
  5
1798
330
1791
100
AcDbEntity
  8
SANINDUSA
100
AcDbVertex
100
AcDb2dVertex
 10
5046.656935977556
 20
2670.003552944452
 30
0.0
 42
-0.3269085594239496
  0
VERTEX
  5
1799
330
1791
100
AcDbEntity
  8
SANINDUSA
100
AcDbVertex
100
AcDb2dVertex
 10
5046.657519724163
 20
2670.003462638538
 30
0.0
  0
SEQEND
  5
179A
330
1791
100
AcDbEntity
  8
SANINDUSA
  0
POLYLINE
  5
179B
330
1F
100
AcDbEntity
  8
SANINDUSA
100
AcDb2dPolyline
 66
     1
 10
0.0
 20
0.0
 30
0.0
 70
     1
  0
VERTEX
  5
179C
330
179B
100
AcDbEntity
  8
SANINDUSA
100
AcDbVertex
100
AcDb2dVertex
 10
5046.654209596844
 20
2670.000629798981
 30
0.0
  0
VERTEX
  5
179D
330
179B
100
AcDbEntity
  8
SANINDUSA
100
AcDbVertex
100
AcDb2dVertex
 10
5046.655044850429
 20
2670.000987764804
 30
0.0
  0
VERTEX
  5
179E
330
179B
100
AcDbEntity
  8
SANINDUSA
100
AcDbVertex
100
AcDb2dVertex
 10
5046.657720962092
 20
2669.998311653141
 30
0.0
  0
VERTEX
  5
179F
330
179B
100
AcDbEntity
  8
SANINDUSA
100
AcDbVertex
100
AcDb2dVertex
 10
5046.657331482726
 20
2669.997402867953
 30
0.0
 42
-0.1925824035674305
  0
VERTEX
  5
17A0
330
179B
100
AcDbEntity
  8
SANINDUSA
100
AcDbVertex
100
AcDb2dVertex
 10
5046.65691130214
 20
2669.996982687368
 30
0.0
  0
VERTEX
  5
17A1
330
179B
100
AcDbEntity
  8
SANINDUSA
100
AcDbVertex
100
AcDb2dVertex
 10
5046.655751229129
 20
2669.99648551322
 30
0.0
 42
-0.3818149661416109
  0
VERTEX
  5
17A2
330
179B
100
AcDbEntity
  8
SANINDUSA
100
AcDbVertex
100
AcDb2dVertex
 10
5046.655624894753
 20
2669.996528021136
 30
0.0
 42
0.1518180644621605
  0
VERTEX
  5
17A3
330
179B
100
AcDbEntity
  8
SANINDUSA
100
AcDbVertex
100
AcDb2dVertex
 10
5046.653220489847
 20
2669.998780118216
 30
0.0
 42
-0.4006661320027832
  0
VERTEX
  5
17A4
330
179B
100
AcDbEntity
  8
SANINDUSA
100
AcDbVertex
100
AcDb2dVertex
 10
5046.653172194869
 20
2669.99890949535
 30
0.0
  0
VERTEX
  5
17A5
330
179B
100
AcDbEntity
  8
SANINDUSA
100
AcDbVertex
100
AcDb2dVertex
 10
5046.653684371111
 20
2670.00010457325
 30
0.0
 42
-0.1925824035673727
  0
SEQEND
  5
17A6
330
179B
100
AcDbEntity
  8
SANINDUSA
  0
POLYLINE
  5
17A7
330
1F
100
AcDbEntity
  8
SANINDUSA
100
AcDb2dPolyline
 66
     1
 10
0.0
 20
0.0
 30
0.0
  0
VERTEX
  5
17A8
330
17A7
100
AcDbEntity
  8
SANINDUSA
100
AcDbVertex
100
AcDb2dVertex
 10
5046.651244305717
 20
2669.998715974289
 30
0.0
 42
-0.4368825303742488
  0
VERTEX
  5
17A9
330
17A7
100
AcDbEntity
  8
SANINDUSA
100
AcDbVertex
100
AcDb2dVertex
 10
5046.651154137721
 20
2669.998831748476
 30
0.0
  0
VERTEX
  5
17AA
330
17A7
100
AcDbEntity
  8
SANINDUSA
100
AcDbVertex
100
AcDb2dVertex
 10
5046.651347123335
 20
2670.00001192658
 30
0.0
 42
-0.414213562372984
  0
VERTEX
  5
17AB
330
17A7
100
AcDbEntity
  8
SANINDUSA
100
AcDbVertex
100
AcDb2dVertex
 10
5046.6515634384
 20
2670.000194156633
 30
0.0
  0
VERTEX
  5
17AC
330
17A7
100
AcDbEntity
  8
SANINDUSA
100
AcDbVertex
100
AcDb2dVertex
 10
5046.65161472305
 20
2670.000189770585
 30
0.0
 42
-0.1989123673797088
  0
VERTEX
  5
17AD
330
17A7
100
AcDbEntity
  8
SANINDUSA
100
AcDbVertex
100
AcDb2dVertex
 10
5046.651750638392
 20
2670.000119354132
 30
0.0
  0
VERTEX
  5
17AE
330
17A7
100
AcDbEntity
  8
SANINDUSA
100
AcDbVertex
100
AcDb2dVertex
 10
5046.651848790085
 20
2669.999449309354
 30
0.0
 42
0.2083851459438857
  0
VERTEX
  5
17AF
330
17A7
100
AcDbEntity
  8
SANINDUSA
100
AcDbVertex
100
AcDb2dVertex
 10
5046.651890976004
 20
2669.999381471479
 30
0.0
 42
0.1302921987711861
  0
VERTEX
  5
17B0
330
17A7
100
AcDbEntity
  8
SANINDUSA
100
AcDbVertex
100
AcDb2dVertex
 10
5046.652325108057
 20
2669.99922573047
 30
0.0
  0
VERTEX
  5
17B1
330
17A7
100
AcDbEntity
  8
SANINDUSA
100
AcDbVertex
100
AcDb2dVertex
 10
5046.652781203182
 20
2669.999186723573
 30
0.0
 42
0.3234232629811839
  0
VERTEX
  5
17B2
330
17A7
100
AcDbEntity
  8
SANINDUSA
100
AcDbVertex
100
AcDb2dVertex
 10
5046.652881638937
 20
2669.999246967922
 30
0.0
  0
VERTEX
  5
17B3
330
17A7
100
AcDbEntity
  8
SANINDUSA
100
AcDbVertex
100
AcDb2dVertex
 10
5046.653316713101
 20
2670.000262140969
 30
0.0
 42
-0.1925824035672822
  0
VERTEX
  5
17B4
330
17A7
100
AcDbEntity
  8
SANINDUSA
100
AcDbVertex
100
AcDb2dVertex
 10
5046.654052029125
 20
2670.000997456993
 30
0.0
  0
VERTEX
  5
17B5
330
17A7
100
AcDbEntity
  8
SANINDUSA
100
AcDbVertex
100
AcDb2dVertex
 10
5046.654604458755
 20
2670.001234212549
 30
0.0
 42
0.5305984520675703
  0
VERTEX
  5
17B6
330
17A7
100
AcDbEntity
  8
SANINDUSA
100
AcDbVertex
100
AcDb2dVertex
 10
5046.654635777503
 20
2670.00139683773
 30
0.0
  0
VERTEX
  5
17B7
330
17A7
100
AcDbEntity
  8
SANINDUSA
100
AcDbVertex
100
AcDb2dVertex
 10
5046.65372722945
 20
2670.002305385784
 30
0.0
 42
-0.5072628673585859
  0
VERTEX
  5
17B8
330
17A7
100
AcDbEntity
  8
SANINDUSA
100
AcDbVertex
100
AcDb2dVertex
 10
5046.653751901485
 20
2670.002464868323
 30
0.0
  0
VERTEX
  5
17B9
330
17A7
100
AcDbEntity
  8
SANINDUSA
100
AcDbVertex
100
AcDb2dVertex
 10
5046.656705784339
 20
2670.003996803757
 30
0.0
 42
-0.3269085594239665
  0
VERTEX
  5
17BA
330
17A7
100
AcDbEntity
  8
SANINDUSA
100
AcDbVertex
100
AcDb2dVertex
 10
5046.657873277554
 20
2670.003816191929
 30
0.0
  0
VERTEX
  5
17BB
330
17A7
100
AcDbEntity
  8
SANINDUSA
100
AcDbVertex
100
AcDb2dVertex
 10
5046.660701704679
 20
2670.000987764804
 30
0.0
 42
-0.3269085594239223
  0
VERTEX
  5
17BC
330
17A7
100
AcDbEntity
  8
SANINDUSA
100
AcDbVertex
100
AcDb2dVertex
 10
5046.660882316508
 20
2669.999820271588
 30
0.0
  0
VERTEX
  5
17BD
330
17A7
100
AcDbEntity
  8
SANINDUSA
100
AcDbVertex
100
AcDb2dVertex
 10
5046.659350381073
 20
2669.996866388734
 30
0.0
 42
-0.5072628673591617
  0
VERTEX
  5
17BE
330
17A7
100
AcDbEntity
  8
SANINDUSA
100
AcDbVertex
100
AcDb2dVertex
 10
5046.659190898534
 20
2669.996841716699
 30
0.0
  0
VERTEX
  5
17BF
330
17A7
100
AcDbEntity
  8
SANINDUSA
100
AcDbVertex
100
AcDb2dVertex
 10
5046.658130035019
 20
2669.997902580215
 30
0.0
 42
0.5305984520676007
  0
VERTEX
  5
17C0
330
17A7
100
AcDbEntity
  8
SANINDUSA
100
AcDbVertex
100
AcDb2dVertex
 10
5046.657967409838
 20
2669.997871261466
 30
0.0
  0
VERTEX
  5
17C1
330
17A7
100
AcDbEntity
  8
SANINDUSA
100
AcDbVertex
100
AcDb2dVertex
 10
5046.657699140738
 20
2669.997245300234
 30
0.0
 42
-0.1925824035673543
  0
VERTEX
  5
17C2
330
17A7
100
AcDbEntity
  8
SANINDUSA
100
AcDbVertex
100
AcDb2dVertex
 10
5046.65706886986
 20
2669.996615029356
 30
0.0
  0
VERTEX
  5
17C3
330
17A7
100
AcDbEntity
  8
SANINDUSA
100
AcDbVertex
100
AcDb2dVertex
 10
5046.656061014317
 20
2669.996183091266
 30
0.0
 42
0.3473749129884166
  0
VERTEX
  5
17C4
330
17A7
100
AcDbEntity
  8
SANINDUSA
100
AcDbVertex
100
AcDb2dVertex
 10
5046.65600187211
 20
2669.996074117344
 30
0.0
  0
VERTEX
  5
17C5
330
17A7
100
AcDbEntity
  8
SANINDUSA
100
AcDbVertex
100
AcDb2dVertex
 10
5046.656122887442
 20
2669.995375140329
 30
0.0
 42
0.1103571466829044
  0
VERTEX
  5
17C6
330
17A7
100
AcDbEntity
  8
SANINDUSA
100
AcDbVertex
100
AcDb2dVertex
 10
5046.656272569867
 20
2669.995012296346
 30
0.0
 42
0.2116742589343529
  0
VERTEX
  5
17C7
330
17A7
100
AcDbEntity
  8
SANINDUSA
100
AcDbVertex
100
AcDb2dVertex
 10
5046.656341972078
 20
2669.994970456157
 30
0.0
  0
VERTEX
  5
17C8
330
17A7
100
AcDbEntity
  8
SANINDUSA
100
AcDbVertex
100
AcDb2dVertex
 10
5046.657062609846
 20
2669.994879660312
 30
0.0
 42
-0.1989123673797088
  0
VERTEX
  5
17C9
330
17A7
100
AcDbEntity
  8
SANINDUSA
100
AcDbVertex
100
AcDb2dVertex
 10
5046.657144455469
 20
2669.994750305174
 30
0.0
  0
VERTEX
  5
17CA
330
17A7
100
AcDbEntity
  8
SANINDUSA
100
AcDbVertex
100
AcDb2dVertex
 10
5046.657153236268
 20
2669.994699587818
 30
0.0
 42
-0.4142135623729841
  0
VERTEX
  5
17CB
330
17A7
100
AcDbEntity
  8
SANINDUSA
100
AcDbVertex
100
AcDb2dVertex
 10
5046.65699028683
 20
2669.994468400707
 30
0.0
  0
VERTEX
  5
17CC
330
17A7
100
AcDbEntity
  8
SANINDUSA
100
AcDbVertex
100
AcDb2dVertex
 10
5046.655831080914
 20
2669.99417462282
 30
0.0
 42
-0.4368825303742487
  0
VERTEX
  5
17CD
330
17A7
100
AcDbEntity
  8
SANINDUSA
100
AcDbVertex
100
AcDb2dVertex
 10
5046.655707980383
 20
2669.994254498908
 30
0.0
 42
0.2163535043884636
  0
VERTEX
  5
17CE
330
17A7
100
AcDbEntity
  8
SANINDUSA
100
AcDbVertex
100
AcDb2dVertex
 10
5046.651193693777
 20
2669.998734967743
 30
0.0
  0
SEQEND
  5
17CF
330
17A7
100
AcDbEntity
  8
SANINDUSA
  0
LINE
  5
17D0
330
1F
100
AcDbEntity
  8
SANINDUSA
100
AcDbLine
 10
5046.595167824715
 20
2669.946741648588
 30
0.0
 11
5046.595343324963
 21
2669.945250228396
 31
0.0
  0
LINE
  5
17D1
330
1F
100
AcDbEntity
  8
SANINDUSA
100
AcDbLine
 10
5046.595548685598
 20
2669.94528212831
 30
0.0
 11
5046.595373185349
 21
2669.946773548502
 31
0.0
  0
SPLINE
  5
17D2
330
1F
100
AcDbEntity
  8
SANINDUSA
100
AcDbSpline
210
0.0
220
0.0
230
1.0
 70
     8
 71
     3
 72
    20
 73
    16
 74
     0
 42
0.0000000001
 43
0.0000000001
 40
-0.5867559660494415
 40
-0.5867559660494415
 40
-0.5867559660494415
 40
-0.5867559660494415
 40
-0.5134114702932613
 40
-0.5134114702932613
 40
-0.5134114702932613
 40
-0.4107291762346091
 40
-0.4107291762346091
 40
-0.4107291762346091
 40
-0.2669739645524959
 40
-0.2669739645524959
 40
-0.2669739645524959
 40
-0.0657166681975375
 40
-0.0657166681975375
 40
-0.0657166681975375
 40
0.0
 40
0.0
 40
0.0
 40
0.0
 10
5046.594836263512
 20
2669.952012647382
 30
0.0
 10
5046.594856916104
 20
2669.952020039073
 30
0.0
 10
5046.594877088529
 20
2669.952028408787
 30
0.0
 10
5046.594896795013
 20
2669.952037604373
 30
0.0
 10
5046.59492438409
 20
2669.952050478193
 30
0.0
 10
5046.594951062103
 20
2669.952064971111
 30
0.0
 10
5046.594976824735
 20
2669.952080745537
 30
0.0
 10
5046.595012892417
 20
2669.952102829731
 30
0.0
 10
5046.595047059737
 20
2669.952127339511
 30
0.0
 10
5046.595079591829
 20
2669.952153765383
 30
0.0
 10
5046.595125136757
 20
2669.952190761604
 30
0.0
 10
5046.595167608741
 20
2669.952231638518
 30
0.0
 10
5046.59520706048
 20
2669.952275352856
 30
0.0
 10
5046.59521994268
 20
2669.952289626925
 30
0.0
 10
5046.595232500472
 20
2669.952304205237
 30
0.0
 10
5046.595244729508
 20
2669.952319054616
 30
0.0
  0
ARC
  5
17D3
330
1F
100
AcDbEntity
  8
SANINDUSA
100
AcDbCircle
 10
5046.948321676364
 20
2669.678423779185
 30
0.0
 40
0.4320000000000001
100
AcDbArc
 50
139.2731482230506
 51
144.1480526320781
  0
ARC
  5
17D4
330
1F
100
AcDbEntity
  8
SANINDUSA
100
AcDbCircle
 10
5046.621171057369
 20
2669.936694200979
 30
0.0
 40
0.0348115390518547
100
AcDbArc
 50
105.2483475183831
 51
127.8824966841324
  0
LINE
  5
17D5
330
1F
100
AcDbEntity
  8
SANINDUSA
100
AcDbLine
 10
5046.599675253073
 20
2669.96323442534
 30
0.0
 11
5046.60392049849
 21
2669.959883093763
 31
0.0
  0
LINE
  5
17D6
330
1F
100
AcDbEntity
  8
SANINDUSA
100
AcDbLine
 10
5046.604037692176
 20
2669.960031546982
 30
0.0
 11
5046.599792446759
 21
2669.963382878558
 31
0.0
  0
LINE
  5
17D7
330
1F
100
AcDbEntity
  8
SANINDUSA
100
AcDbLine
 10
5046.596587957411
 20
2669.944898298409
 30
0.0
 11
5046.60748603198
 21
2669.958703259234
 31
0.0
  0
LINE
  5
17D8
330
1F
100
AcDbEntity
  8
SANINDUSA
100
AcDbLine
 10
5046.607335783345
 20
2669.958835710572
 30
0.0
 11
5046.596437708775
 21
2669.945030749748
 31
0.0
  0
ARC
  5
17D9
330
1F
100
AcDbEntity
  8
SANINDUSA
100
AcDbCircle
 10
5046.618666215479
 20
2669.962241109713
 30
0.0
 40
0.003
100
AcDbArc
 50
319.2731482230506
 51
51.7113165047289
  0
LINE
  5
17DA
330
1F
100
AcDbEntity
  8
SANINDUSA
100
AcDbLine
 10
5046.617315176351
 20
2669.967119465107
 30
0.0
 11
5046.617320408559
 21
2669.967126092924
 31
0.0
  0
LINE
  5
17DB
330
1F
100
AcDbEntity
  8
SANINDUSA
100
AcDbLine
 10
5046.618275934828
 20
2669.966371358604
 30
0.0
 11
5046.620525087535
 21
2669.964595806016
 31
0.0
  0
ARC
  5
17DC
330
1F
100
AcDbEntity
  8
SANINDUSA
100
AcDbCircle
 10
5046.612541511408
 20
2669.968350606831
 30
0.0
 40
0.002
100
AcDbArc
 50
51.7113165047289
 51
105.2483475183831
  0
ARC
  5
17DD
330
1F
100
AcDbEntity
  8
SANINDUSA
100
AcDbCircle
 10
5046.60515301541
 20
2669.961444364764
 30
0.0
 40
0.0018
100
AcDbArc
 50
231.7113165047289
 51
276.7113164889576
  0
ARC
  5
17DE
330
1F
100
AcDbEntity
  8
SANINDUSA
100
AcDbCircle
 10
5046.605159746527
 20
2669.961452891298
 30
0.0
 40
0.002
100
AcDbArc
 50
231.7113165047289
 51
276.7113164889576
  0
LINE
  5
17DF
330
1F
100
AcDbEntity
  8
SANINDUSA
100
AcDbLine
 10
5046.606854796016
 20
2669.959832199357
 30
0.0
 11
5046.605363375823
 21
2669.959656699108
 31
0.0
  0
LINE
  5
17E0
330
1F
100
AcDbEntity
  8
SANINDUSA
100
AcDbLine
 10
5046.605393480319
 20
2669.959466596126
 30
0.0
 11
5046.606884900512
 21
2669.959642096375
 31
0.0
  0
ARC
  5
17E1
330
1F
100
AcDbEntity
  8
SANINDUSA
100
AcDbCircle
 10
5046.606936602843
 20
2669.959136996046
 30
0.0
 40
0.0007
100
AcDbArc
 50
321.7113165047289
 51
96.71131648895762
  0
ARC
  5
17E2
330
1F
100
AcDbEntity
  8
SANINDUSA
100
AcDbCircle
 10
5046.606943333961
 20
2669.959145522581
 30
0.0
 40
0.0005
100
AcDbArc
 50
321.7113165047289
 51
96.71131648895762
  0
LINE
  5
17E3
330
1F
100
AcDbEntity
  8
SANINDUSA
100
AcDbLine
 10
5046.613780759447
 20
2669.969920404366
 30
0.0
 11
5046.617320729878
 21
2669.967125839264
 31
0.0
  0
ARC
  5
17E4
330
1F
100
AcDbEntity
  8
SANINDUSA
100
AcDbCircle
 10
5046.596997736241
 20
2669.955791261303
 30
0.0
 40
0.0044966441200263
100
AcDbArc
 50
47.61902389505211
 51
55.80360908769158
  0
SPLINE
  5
17E5
330
1F
100
AcDbEntity
  8
SANINDUSA
100
AcDbSpline
210
0.0
220
0.0
230
1.0
 70
     8
 71
     3
 72
    20
 73
    16
 74
     0
 42
0.0000000001
 43
0.0000000001
 40
-0.5867559660496065
 40
-0.5867559660496065
 40
-0.5867559660496065
 40
-0.5867559660496065
 40
-0.5134114702933794
 40
-0.5134114702933794
 40
-0.5134114702933794
 40
-0.4107291762346614
 40
-0.4107291762346614
 40
-0.4107291762346614
 40
-0.2669739645524562
 40
-0.2669739645524562
 40
-0.2669739645524562
 40
-0.0657166681973689
 40
-0.0657166681973689
 40
-0.0657166681973689
 40
0.0000000000002109
 40
0.0000000000002109
 40
0.0000000000002109
 40
0.0000000000002109
 10
5046.599159208968
 20
2669.959569875225
 30
0.0
 10
5046.599138556376
 20
2669.959562483533
 30
0.0
 10
5046.599118383951
 20
2669.95955411382
 30
0.0
 10
5046.599098677467
 20
2669.959544918234
 30
0.0
 10
5046.599071088389
 20
2669.959532044413
 30
0.0
 10
5046.599044410377
 20
2669.959517551495
 30
0.0
 10
5046.599018647745
 20
2669.95950177707
 30
0.0
 10
5046.598982580062
 20
2669.959479692875
 30
0.0
 10
5046.598948412742
 20
2669.959455183095
 30
0.0
 10
5046.59891588065
 20
2669.959428757223
 30
0.0
 10
5046.598870335722
 20
2669.959391761003
 30
0.0
 10
5046.598827863738
 20
2669.959350884088
 30
0.0
 10
5046.598788411999
 20
2669.95930716975
 30
0.0
 10
5046.598775529798
 20
2669.959292895681
 30
0.0
 10
5046.598762972007
 20
2669.959278317369
 30
0.0
 10
5046.598750742972
 20
2669.95926346799
 30
0.0
  0
SPLINE
  5
17E6
330
1F
100
AcDbEntity
  8
SANINDUSA
100
AcDbSpline
210
0.0
220
0.0
230
1.0
 70
     8
 71
     3
 72
    20
 73
    16
 74
     0
 42
0.0000000001
 43
0.0000000001
 40
-0.5867553122555013
 40
-0.5867553122555013
 40
-0.5867553122555013
 40
-0.5867553122555013
 40
-0.5210387172828694
 40
-0.5210387172828694
 40
-0.5210387172828694
 40
-0.3197816451791844
 40
-0.3197816451791844
 40
-0.3197816451791844
 40
-0.1760265936765523
 40
-0.1760265936765523
 40
-0.1760265936765523
 40
-0.0733444140318151
 40
-0.0733444140318151
 40
-0.0733444140318151
 40
0.0000000000001401
 40
0.0000000000001401
 40
0.0000000000001401
 40
0.0000000000001401
 10
5046.599968167797
 20
2669.958302394162
 30
0.0
 10
5046.599979772789
 20
2669.958317736154
 30
0.0
 10
5046.599991037776
 20
2669.958333334959
 30
0.0
 10
5046.600001931512
 20
2669.958349178658
 30
0.0
 10
5046.600035293575
 20
2669.958397699986
 30
0.0
 10
5046.60006519451
 20
2669.958448500135
 30
0.0
 10
5046.600090607548
 20
2669.95850138843
 30
0.0
 10
5046.600108759719
 20
2669.958539165783
 30
0.0
 10
5046.600124669263
 20
2669.958578090529
 30
0.0
 10
5046.600137777883
 20
2669.958618299832
 30
0.0
 10
5046.600147141184
 20
2669.958647020763
 30
0.0
 10
5046.6001550454
 20
2669.958676334386
 30
0.0
 10
5046.600161163248
 20
2669.958706158275
 30
0.0
 10
5046.600165533139
 20
2669.958727461054
 30
0.0
 10
5046.600168991552
 20
2669.9587490253
 30
0.0
 10
5046.600171387201
 20
2669.958770829577
 30
0.0
  0
SPLINE
  5
17E7
330
1F
100
AcDbEntity
  8
SANINDUSA
100
AcDbSpline
210
0.0
220
0.0
230
1.0
 70
     8
 71
     3
 72
    20
 73
    16
 74
     0
 42
0.0000000001
 43
0.0000000001
 40
0.0
 40
0.0
 40
0.0
 40
0.0
 40
0.0480735469503326
 40
0.0480735469503326
 40
0.0480735469503326
 40
0.1153765126807983
 40
0.1153765126807983
 40
0.1153765126807983
 40
0.2096006647034502
 40
0.2096006647034502
 40
0.2096006647034502
 40
0.341514477535163
 40
0.341514477535163
 40
0.341514477535163
 40
0.3845883756026611
 40
0.3845883756026611
 40
0.3845883756026611
 40
0.3845883756026611
 10
5046.600171387201
 20
2669.958770829577
 30
0.0
 10
5046.600178653251
 20
2669.958790468675
 30
0.0
 10
5046.600183529971
 20
2669.958809436955
 30
0.0
 10
5046.600186069515
 20
2669.958827502825
 30
0.0
 10
5046.600189624879
 20
2669.958852795043
 30
0.0
 10
5046.600188610309
 20
2669.958876077136
 30
0.0
 10
5046.600184108068
 20
2669.95889782988
 30
0.0
 10
5046.600177804933
 20
2669.958928283721
 30
0.0
 10
5046.600164592485
 20
2669.958955934031
 30
0.0
 10
5046.600147824067
 20
2669.958981564454
 30
0.0
 10
5046.600124348281
 20
2669.959017447049
 30
0.0
 10
5046.600093485448
 20
2669.959050661214
 30
0.0
 10
5046.600061087108
 20
2669.959082314159
 30
0.0
 10
5046.600050508058
 20
2669.959092649814
 30
0.0
 10
5046.600039699716
 20
2669.959102829969
 30
0.0
 10
5046.600028731411
 20
2669.959112838732
 30
0.0
  0
SPLINE
  5
17E8
330
1F
100
AcDbEntity
  8
SANINDUSA
100
AcDbSpline
210
0.0
220
0.0
230
1.0
 70
     8
 71
     3
 72
    20
 73
    16
 74
     0
 42
0.0000000001
 43
0.0000000001
 40
0.0
 40
0.0
 40
0.0
 40
0.0
 40
0.0431555304672254
 40
0.0431555304672254
 40
0.0431555304672254
 40
0.1753193425231027
 40
0.1753193425231027
 40
0.1753193425231027
 40
0.2697220654201579
 40
0.2697220654201579
 40
0.2697220654201579
 40
0.3371525817751973
 40
0.3371525817751973
 40
0.3371525817751973
 40
0.3853172363145112
 40
0.3853172363145112
 40
0.3853172363145112
 40
0.3853172363145112
 10
5046.599524990884
 20
2669.959510507504
 30
0.0
 10
5046.599512686146
 20
2669.959518868662
 30
0.0
 10
5046.599500247402
 20
2669.959527036247
 30
0.0
 10
5046.599487716055
 20
2669.959534939855
 30
0.0
 10
5046.599449338807
 20
2669.959559144654
 30
0.0
 10
5046.599410278645
 20
2669.959581273797
 30
0.0
 10
5046.59936964575
 20
2669.9595958782
 30
0.0
 10
5046.599340622254
 20
2669.959606309918
 30
0.0
 10
5046.599310980727
 20
2669.95961267136
 30
0.0
 10
5046.599279785528
 20
2669.959611729414
 30
0.0
 10
5046.599257503243
 20
2669.959611056595
 30
0.0
 10
5046.599234631433
 20
2669.959606613844
 30
0.0
 10
5046.599210926219
 20
2669.959597312287
 30
0.0
 10
5046.599193993923
 20
2669.959590668318
 30
0.0
 10
5046.599176657932
 20
2669.959581523697
 30
0.0
 10
5046.599159208968
 20
2669.959569875225
 30
0.0
  0
ARC
  5
17E9
330
1F
100
AcDbEntity
  8
SANINDUSA
100
AcDbCircle
 10
5046.600102258769
 20
2669.963775327942
 30
0.0
 40
0.0005
100
AcDbArc
 50
127.8824966841324
 51
231.7113165047289
  0
ARC
  5
17EA
330
1F
100
AcDbEntity
  8
SANINDUSA
100
AcDbCircle
 10
5046.599140427039
 20
2669.964293658825
 30
0.0
 40
0.0010000000000073
100
AcDbArc
 50
51.7113165047289
 51
128.6149764523683
  0
ARC
  5
17EB
330
1F
100
AcDbEntity
  8
SANINDUSA
100
AcDbCircle
 10
5046.621171057369
 20
2669.936694200979
 30
0.0
 40
0.0348115390518547
100
AcDbArc
 50
127.8824966841324
 51
128.6814018809561
  0
ARC
  5
17EC
330
1F
100
AcDbEntity
  8
SANINDUSA
100
AcDbCircle
 10
5046.600108989887
 20
2669.963783854477
 30
0.0
 40
0.000700000000011
100
AcDbArc
 50
127.8824967001313
 51
231.7113165047289
  0
LINE
  5
17ED
330
1F
100
AcDbEntity
  8
SANINDUSA
100
AcDbLine
 10
5046.599760051058
 20
2669.965078557592
 30
0.0
 11
5046.600198349399
 21
2669.964732550959
 31
0.0
  0
ARC
  5
17EE
330
1F
100
AcDbEntity
  8
SANINDUSA
100
AcDbCircle
 10
5046.621177788486
 20
2669.936702727513
 30
0.0
 40
0.0350115390518602
100
AcDbArc
 50
126.8136962304621
 51
127.8824966841324
  0
ARC
  5
17EF
330
1F
100
AcDbEntity
  8
SANINDUSA
100
AcDbCircle
 10
5046.596997736241
 20
2669.955791261303
 30
0.0
 40
0.0043531468531479
100
AcDbArc
 50
240.2292374519888
 51
43.19339551829359
  0
ARC
  5
17F0
330
1F
100
AcDbEntity
  8
SANINDUSA
100
AcDbCircle
 10
5046.596038528273
 20
2669.945332035223
 30
0.0
 40
0.0007
100
AcDbArc
 50
186.7113164920026
 51
321.7113165047289
  0
ELLIPSE
  5
17F1
330
1F
100
AcDbEntity
  8
SANINDUSA
100
AcDbEllipse
 10
5046.597430158129
 20
2669.955449893728
 30
0.0
 11
0.0046346099420899
 21
0.0058708176637952
 31
0.0
210
0.0
220
0.0
230
-1.0
 40
0.0348994967019768
 41
1.03609607496942
 42
2.105496578620374
  0
ARC
  5
17F2
330
1F
100
AcDbEntity
  8
SANINDUSA
100
AcDbCircle
 10
5046.596045259391
 20
2669.945340561758
 30
0.0
 40
0.0005
100
AcDbArc
 50
186.7113164920026
 51
321.7113165047289
  0
LINE
  5
17F3
330
1F
100
AcDbEntity
  8
SANINDUSA
100
AcDbLine
 10
5046.590453964072
 20
2669.95605665429
 30
0.0
 11
5046.587067532239
 21
2669.958627395538
 31
0.0
  0
LINE
  5
17F4
330
1F
100
AcDbEntity
  8
SANINDUSA
100
AcDbLine
 10
5046.593879912548
 20
2669.962858519349
 30
0.0
 11
5046.589351652286
 21
2669.956893451992
 31
0.0
  0
LINE
  5
17F5
330
1F
100
AcDbEntity
  8
SANINDUSA
100
AcDbLine
 10
5046.590371300196
 20
2669.972075706175
 30
0.0
 11
5046.591071870096
 21
2669.972171632256
 31
0.0
  0
LINE
  5
17F6
330
1F
100
AcDbEntity
  8
SANINDUSA
100
AcDbLine
 10
5046.594752028106
 20
2669.968750165168
 30
0.0
 11
5046.594656102023
 21
2669.969450735069
 31
0.0
  0
LINE
  5
17F7
330
1F
100
AcDbEntity
  8
SANINDUSA
100
AcDbLine
 10
5046.591071870096
 20
2669.972171632256
 30
0.0
 11
5046.594656102023
 21
2669.969450735069
 31
0.0
  0
LINE
  5
17F8
330
1F
100
AcDbEntity
  8
SANINDUSA
100
AcDbLine
 10
5046.579487711446
 20
2669.957738778473
 30
0.0
 11
5046.590371300196
 21
2669.972075706175
 31
0.0
  0
LINE
  5
17F9
330
1F
100
AcDbEntity
  8
SANINDUSA
100
AcDbLine
 10
5046.591071870096
 20
2669.972171632256
 30
0.0
 11
5046.579583637528
 21
2669.957038208571
 31
0.0
  0
LINE
  5
17FA
330
1F
100
AcDbEntity
  8
SANINDUSA
100
AcDbLine
 10
5046.594752028106
 20
2669.968750165168
 30
0.0
 11
5046.583868439355
 21
2669.954413237466
 31
0.0
  0
LINE
  5
17FB
330
1F
100
AcDbEntity
  8
SANINDUSA
100
AcDbLine
 10
5046.583167869454
 20
2669.954317311384
 30
0.0
 11
5046.594656102023
 21
2669.969450735069
 31
0.0
  0
LINE
  5
17FC
330
1F
100
AcDbEntity
  8
SANINDUSA
100
AcDbLine
 10
5046.579487711446
 20
2669.957738778473
 30
0.0
 11
5046.579583637528
 21
2669.957038208571
 31
0.0
  0
LINE
  5
17FD
330
1F
100
AcDbEntity
  8
SANINDUSA
100
AcDbLine
 10
5046.583167869454
 20
2669.954317311384
 30
0.0
 11
5046.579583637528
 21
2669.957038208571
 31
0.0
  0
LINE
  5
17FE
330
1F
100
AcDbEntity
  8
SANINDUSA
100
AcDbLine
 10
5046.583868439355
 20
2669.954413237466
 30
0.0
 11
5046.583167869454
 21
2669.954317311384
 31
0.0
  0
ARC
  5
17FF
330
1F
100
AcDbEntity
  8
SANINDUSA
100
AcDbCircle
 10
5046.596997736241
 20
2669.955791261303
 30
0.0
 40
0.0044966441200263
100
AcDbArc
 50
227.6190238950521
 51
235.8036090876916
  0
SPLINE
  5
1800
330
1F
100
AcDbEntity
  8
SANINDUSA
100
AcDbSpline
210
0.0
220
0.0
230
1.0
 70
     8
 71
     3
 72
    20
 73
    16
 74
     0
 42
0.0000000001
 43
0.0000000001
 40
0.0
 40
0.0
 40
0.0
 40
0.0
 40
0.0481065524694527
 40
0.0481065524694527
 40
0.0481065524694527
 40
0.1154557259266865
 40
0.1154557259266865
 40
0.1154557259266865
 40
0.2097445687668138
 40
0.2097445687668138
 40
0.2097445687668138
 40
0.341748948742992
 40
0.341748948742992
 40
0.341748948742992
 40
0.3848524197556216
 40
0.3848524197556216
 40
0.3848524197556216
 40
0.3848524197556216
 10
5046.593824085278
 20
2669.952811693029
 30
0.0
 10
5046.59381681424
 20
2669.952792040448
 30
0.0
 10
5046.593811934584
 20
2669.952773058239
 30
0.0
 10
5046.593809395861
 20
2669.952754969222
 30
0.0
 10
5046.593805841651
 20
2669.952729644598
 30
0.0
 10
5046.593806882313
 20
2669.952706277618
 30
0.0
 10
5046.593811390558
 20
2669.9526845666
 30
0.0
 10
5046.593817702103
 20
2669.952654171174
 30
0.0
 10
5046.59383075192
 20
2669.952626782362
 30
0.0
 10
5046.593847655039
 20
2669.952600948024
 30
0.0
 10
5046.593871319405
 20
2669.952564779951
 30
0.0
 10
5046.593901925962
 20
2669.952531922859
 30
0.0
 10
5046.593934361333
 20
2669.952500231933
 30
0.0
 10
5046.593944952475
 20
2669.952489883876
 30
0.0
 10
5046.593955765232
 20
2669.952479699509
 30
0.0
 10
5046.593966741069
 20
2669.952469683874
 30
0.0
  0
SPLINE
  5
1801
330
1F
100
AcDbEntity
  8
SANINDUSA
100
AcDbSpline
210
0.0
220
0.0
230
1.0
 70
     8
 71
     3
 72
    20
 73
    16
 74
     0
 42
0.0000000001
 43
0.0000000001
 40
-0.5867553122555979
 40
-0.5867553122555979
 40
-0.5867553122555979
 40
-0.5867553122555979
 40
-0.5134108982236482
 40
-0.5134108982236482
 40
-0.5134108982236482
 40
-0.4107287185789187
 40
-0.4107287185789187
 40
-0.4107287185789187
 40
-0.2669736670762972
 40
-0.2669736670762972
 40
-0.2669736670762972
 40
-0.0657165949726272
 40
-0.0657165949726272
 40
-0.0657165949726272
 40
0.0
 40
0.0
 40
0.0
 40
0.0
 10
5046.594027304681
 20
2669.953280128443
 30
0.0
 10
5046.594014352682
 20
2669.953263005686
 30
0.0
 10
5046.594001824169
 20
2669.953245563096
 30
0.0
 10
5046.593989762673
 20
2669.953227817056
 30
0.0
 10
5046.593972876578
 20
2669.953202972599
 30
0.0
 10
5046.593956905019
 20
2669.953177534081
 30
0.0
 10
5046.593941976325
 20
2669.953151533483
 30
0.0
 10
5046.593921076155
 20
2669.953115132645
 30
0.0
 10
5046.593902229714
 20
2669.95307767405
 30
0.0
 10
5046.593885813994
 20
2669.953039062078
 30
0.0
 10
5046.593862831988
 20
2669.952985005318
 30
0.0
 10
5046.593844440658
 20
2669.952928312944
 30
0.0
 10
5046.593832975652
 20
2669.952869709395
 30
0.0
 10
5046.593829231976
 20
2669.952850573543
 30
0.0
 10
5046.59382623178
 20
2669.952831229661
 30
0.0
 10
5046.593824085278
 20
2669.952811693029
 30
0.0
  0
LINE
  5
1802
330
1F
100
AcDbEntity
  8
SANINDUSA
100
AcDbLine
 10
5046.591631682987
 20
2669.932621042397
 30
0.0
 11
5046.593880891787
 21
2669.930845445526
 31
0.0
  0
ARC
  5
1803
330
1F
100
AcDbEntity
  8
SANINDUSA
100
AcDbCircle
 10
5046.621171057369
 20
2669.936694200979
 30
0.0
 40
0.0348115390518547
100
AcDbArc
 50
155.5359762153299
 51
178.1742854540627
  0
ARC
  5
1804
330
1F
100
AcDbEntity
  8
SANINDUSA
100
AcDbCircle
 10
5046.589939957556
 20
2669.950903357059
 30
0.0
 40
0.0005
100
AcDbArc
 50
51.7113165047289
 51
155.5359762153299
  0
ARC
  5
1805
330
1F
100
AcDbEntity
  8
SANINDUSA
100
AcDbCircle
 10
5046.621171057369
 20
2669.936694200979
 30
0.0
 40
0.0348115390518547
100
AcDbArc
 50
154.7105664835467
 51
155.5359762153299
  0
ARC
  5
1806
330
1F
100
AcDbEntity
  8
SANINDUSA
100
AcDbCircle
 10
5046.621177788487
 20
2669.936702727514
 30
0.0
 40
0.035011539051848
100
AcDbArc
 50
155.5359762153299
 51
156.6048403313287
  0
LINE
  5
1807
330
1F
100
AcDbEntity
  8
SANINDUSA
100
AcDbLine
 10
5046.589044612014
 20
2669.950604771843
 30
0.0
 11
5046.588606377077
 21
2669.950950728422
 31
0.0
  0
ARC
  5
1808
330
1F
100
AcDbEntity
  8
SANINDUSA
100
AcDbCircle
 10
5046.589946688673
 20
2669.950911883594
 30
0.0
 40
0.0007000000000107
100
AcDbArc
 50
51.7113165047289
 51
155.5359762153299
  0
ARC
  5
1809
330
1F
100
AcDbEntity
  8
SANINDUSA
100
AcDbCircle
 10
5046.589226001096
 20
2669.95173562719
 30
0.0
 40
0.0009999999999998
100
AcDbArc
 50
154.8036266256654
 51
231.7113165047289
  0
LINE
  5
180A
330
1F
100
AcDbEntity
  8
SANINDUSA
100
AcDbLine
 10
5046.590676575764
 20
2669.933375445909
 30
0.0
 11
5046.58713692665
 21
2669.936169757351
 31
0.0
  0
ARC
  5
180B
330
1F
100
AcDbEntity
  8
SANINDUSA
100
AcDbCircle
 10
5046.588376174686
 20
2669.937739554887
 30
0.0
 40
0.002
100
AcDbArc
 50
178.1742854540627
 51
231.7113165047289
  0
LINE
  5
180C
330
1F
100
AcDbEntity
  8
SANINDUSA
100
AcDbLine
 10
5046.590249769565
 20
2669.951295806443
 30
0.0
 11
5046.594495482292
 21
2669.947944105958
 31
0.0
  0
LINE
  5
180D
330
1F
100
AcDbEntity
  8
SANINDUSA
100
AcDbLine
 10
5046.594626138213
 20
2669.948109612246
 30
0.0
 11
5046.590380425485
 21
2669.951461312732
 31
0.0
  0
ARC
  5
180E
330
1F
100
AcDbEntity
  8
SANINDUSA
100
AcDbCircle
 10
5046.942953292851
 20
2669.683906916526
 30
0.0
 40
0.4316000000000001
100
AcDbArc
 50
135.1989751043359
 51
177.5666696498565
  0
ARC
  5
180F
330
1F
100
AcDbEntity
  8
SANINDUSA
100
AcDbCircle
 10
5046.942953292851
 20
2669.683906916526
 30
0.0
 40
0.4304000000000001
100
AcDbArc
 50
135.1989751043359
 51
177.5666696498565
  0
ARC
  5
1810
330
1F
100
AcDbEntity
  8
SANINDUSA
100
AcDbCircle
 10
5046.942953292851
 20
2669.683906916526
 30
0.0
 40
0.4236000000000001
100
AcDbArc
 50
134.2656911746818
 51
178.4856012174529
  0
ARC
  5
1811
330
1F
100
AcDbEntity
  8
SANINDUSA
100
AcDbCircle
 10
5046.942953292851
 20
2669.683906916526
 30
0.0
 40
0.4276000000000001
100
AcDbArc
 50
134.2656911746818
 51
178.4856012174529
  0
ARC
  5
1812
330
1F
100
AcDbEntity
  8
SANINDUSA
100
AcDbCircle
 10
5046.942953292851
 20
2669.683906916526
 30
0.0
 40
0.4196000000000001
100
AcDbArc
 50
135.1989751043359
 51
177.5666696498565
  0
LINE
  5
1813
330
1F
100
AcDbEntity
  8
SANINDUSA
100
AcDbLine
 10
5046.516191494184
 20
2669.760973541821
 30
0.0
 11
5046.513409576022
 21
2669.743606737164
 31
0.0
  0
LINE
  5
1814
330
1F
100
AcDbEntity
  8
SANINDUSA
100
AcDbLine
 10
5046.513210375396
 20
2669.743627644587
 30
0.0
 11
5046.515992293559
 21
2669.760994449245
 31
0.0
  0
ARC
  5
1815
330
1F
100
AcDbEntity
  8
SANINDUSA
100
AcDbCircle
 10
5046.950437306986
 20
2669.682514300756
 30
0.0
 40
0.438
100
AcDbArc
 50
168.08645161518
 51
173.7136410971534
  0
ARC
  5
1816
330
1F
100
AcDbEntity
  8
SANINDUSA
100
AcDbCircle
 10
5046.950437306986
 20
2669.682514300756
 30
0.0
 40
0.4320000000000001
100
AcDbArc
 50
168.4625988467832
 51
173.3375032527511
  0
ARC
  5
1817
330
1F
100
AcDbEntity
  8
SANINDUSA
100
AcDbCircle
 10
5046.9551667406
 20
2669.681755159845
 30
0.0
 40
0.4440000000000001
100
AcDbArc
 50
168.1243372424122
 51
173.6754236641554
  0
LINE
  5
1818
330
1F
100
AcDbEntity
  8
SANINDUSA
100
AcDbLine
 10
5046.495271974603
 20
2669.764980027128
 30
0.0
 11
5046.491934256389
 21
2669.747292188449
 31
0.0
  0
LINE
  5
1819
330
1F
100
AcDbEntity
  8
SANINDUSA
100
AcDbLine
 10
5046.492332870846
 20
2669.746708145202
 30
0.0
 11
5046.495856017849
 21
2669.765378641585
 31
0.0
  0
LINE
  5
181A
330
1F
100
AcDbEntity
  8
SANINDUSA
100
AcDbLine
 10
5046.497338873763
 20
2669.746272330105
 30
0.0
 11
5046.500676591976
 21
2669.763960168785
 31
0.0
  0
LINE
  5
181B
330
1F
100
AcDbEntity
  8
SANINDUSA
100
AcDbLine
 10
5046.50027797752
 20
2669.764544212032
 30
0.0
 11
5046.496754830516
 21
2669.745873715648
 31
0.0
  0
ARC
  5
181C
330
1F
100
AcDbEntity
  8
SANINDUSA
100
AcDbCircle
 10
5046.538870829074
 20
2669.748424639734
 30
0.0
 40
0.0363115390518475
100
AcDbArc
 50
157.8070248545981
 51
183.9956750121488
  0
LINE
  5
181D
330
1F
100
AcDbEntity
  8
SANINDUSA
100
AcDbLine
 10
5046.521871740299
 20
2669.772933076739
 30
0.0
 11
5046.524701271681
 21
2669.772479825557
 31
0.0
  0
ARC
  5
181E
330
1F
100
AcDbEntity
  8
SANINDUSA
100
AcDbCircle
 10
5046.524226763097
 20
2669.769517589644
 30
0.0
 40
0.003
100
AcDbArc
 50
348.4625988467832
 51
80.89933498713076
  0
ARC
  5
181F
330
1F
100
AcDbEntity
  8
SANINDUSA
100
AcDbCircle
 10
5046.515498587574
 20
2669.761073534008
 30
0.0
 40
0.0005
100
AcDbArc
 50
350.8993349830096
 51
125.8993349808536
  0
LINE
  5
1820
330
1F
100
AcDbEntity
  8
SANINDUSA
100
AcDbLine
 10
5046.507192077952
 20
2669.761307070965
 30
0.0
 11
5046.512533234983
 21
2669.760451492633
 31
0.0
  0
LINE
  5
1821
330
1F
100
AcDbEntity
  8
SANINDUSA
100
AcDbLine
 10
5046.513873393451
 20
2669.760770746977
 30
0.0
 11
5046.515089851737
 21
2669.761651294404
 31
0.0
  0
LINE
  5
1822
330
1F
100
AcDbEntity
  8
SANINDUSA
100
AcDbLine
 10
5046.515205406096
 20
2669.761478558232
 30
0.0
 11
5046.513988947811
 21
2669.760598010806
 31
0.0
  0
ARC
  5
1823
330
1F
100
AcDbEntity
  8
SANINDUSA
100
AcDbCircle
 10
5046.512816221902
 20
2669.762218107699
 30
0.0
 40
0.002
100
AcDbArc
 50
260.8993349871308
 51
305.8993349808536
  0
ARC
  5
1824
330
1F
100
AcDbEntity
  8
SANINDUSA
100
AcDbCircle
 10
5046.512817940133
 20
2669.76222883418
 30
0.0
 40
0.0018
100
AcDbArc
 50
260.8993349871308
 51
305.8993349808536
  0
LINE
  5
1825
330
1F
100
AcDbEntity
  8
SANINDUSA
100
AcDbLine
 10
5046.512499882845
 20
2669.760243283757
 30
0.0
 11
5046.507158725814
 21
2669.761098862088
 31
0.0
  0
LINE
  5
1826
330
1F
100
AcDbEntity
  8
SANINDUSA
100
AcDbLine
 10
5046.500676591976
 20
2669.763960168785
 30
0.0
 11
5046.50027797752
 21
2669.764544212032
 31
0.0
  0
LINE
  5
1827
330
1F
100
AcDbEntity
  8
SANINDUSA
100
AcDbLine
 10
5046.495271974603
 20
2669.764980027128
 30
0.0
 11
5046.495856017849
 21
2669.765378641585
 31
0.0
  0
LINE
  5
1828
330
1F
100
AcDbEntity
  8
SANINDUSA
100
AcDbLine
 10
5046.50027797752
 20
2669.764544212032
 30
0.0
 11
5046.495856017849
 21
2669.765378641585
 31
0.0
  0
ARC
  5
1829
330
1F
100
AcDbEntity
  8
SANINDUSA
100
AcDbCircle
 10
5046.538872547307
 20
2669.748435366216
 30
0.0
 40
0.0348115390518547
100
AcDbArc
 50
134.4363659936983
 51
157.07467527107
  0
ARC
  5
182A
330
1F
100
AcDbEntity
  8
SANINDUSA
100
AcDbCircle
 10
5046.538870829074
 20
2669.748424639733
 30
0.0
 40
0.035011539051848
100
AcDbArc
 50
156.0058111420241
 51
157.07467527107
  0
LINE
  5
182B
330
1F
100
AcDbEntity
  8
SANINDUSA
100
AcDbLine
 10
5046.506884752456
 20
2669.762661871534
 30
0.0
 11
5046.506333447701
 21
2669.762750182811
 31
0.0
  0
ARC
  5
182C
330
1F
100
AcDbEntity
  8
SANINDUSA
100
AcDbCircle
 10
5046.506175278172
 20
2669.76176277084
 30
0.0
 40
0.0009999999999998
100
AcDbArc
 50
80.89933498713076
 51
157.8070248545981
  0
ARC
  5
182D
330
1F
100
AcDbEntity
  8
SANINDUSA
100
AcDbCircle
 10
5046.515900641519
 20
2669.771863738747
 30
0.0
 40
0.002
100
AcDbArc
 50
80.89933498713076
 51
134.4363659936983
  0
LINE
  5
182E
330
1F
100
AcDbEntity
  8
SANINDUSA
100
AcDbLine
 10
5046.520669901195
 20
2669.773125267353
 30
0.0
 11
5046.516216980574
 21
2669.773838562689
 31
0.0
  0
ARC
  5
182F
330
1F
100
AcDbEntity
  8
SANINDUSA
100
AcDbCircle
 10
5046.515500305805
 20
2669.761084260491
 30
0.0
 40
0.0007
100
AcDbArc
 50
350.8993349830096
 51
125.8993349808536
  0
ARC
  5
1830
330
1F
100
AcDbEntity
  8
SANINDUSA
100
AcDbCircle
 10
5046.507271162717
 20
2669.76180077695
 30
0.0
 40
0.0005
100
AcDbArc
 50
157.07467527107
 51
260.8993349871308
  0
ARC
  5
1831
330
1F
100
AcDbEntity
  8
SANINDUSA
100
AcDbCircle
 10
5046.507269444484
 20
2669.761790050468
 30
0.0
 40
0.0007000000000107
100
AcDbArc
 50
157.07467527107
 51
260.8993349871308
  0
ARC
  5
1832
330
1F
100
AcDbEntity
  8
SANINDUSA
100
AcDbCircle
 10
5046.538872547307
 20
2669.748435366216
 30
0.0
 40
0.0348115390518547
100
AcDbArc
 50
157.07467527107
 51
157.9000849875735
  0
ARC
  5
1833
330
1F
100
AcDbEntity
  8
SANINDUSA
100
AcDbCircle
 10
5046.503645121321
 20
2669.745964090306
 30
0.0
 40
0.0010000000000073
100
AcDbArc
 50
183.9956750121488
 51
260.8993349871308
  0
LINE
  5
1834
330
1F
100
AcDbEntity
  8
SANINDUSA
100
AcDbLine
 10
5046.504786770775
 20
2669.746287588353
 30
0.0
 11
5046.510127339924
 21
2669.745432104193
 31
0.0
  0
LINE
  5
1835
330
1F
100
AcDbEntity
  8
SANINDUSA
100
AcDbLine
 10
5046.51009742425
 20
2669.745245348281
 30
0.0
 11
5046.5047568551
 21
2669.746100832441
 31
0.0
  0
ARC
  5
1836
330
1F
100
AcDbEntity
  8
SANINDUSA
100
AcDbCircle
 10
5046.504677770338
 20
2669.745607126456
 30
0.0
 40
0.0005
100
AcDbArc
 50
80.89933498713076
 51
184.7281547662916
  0
ARC
  5
1837
330
1F
100
AcDbEntity
  8
SANINDUSA
100
AcDbCircle
 10
5046.538872547307
 20
2669.748435366216
 30
0.0
 40
0.0348115390518547
100
AcDbArc
 50
183.9292495722575
 51
184.7281547662916
  0
ARC
  5
1838
330
1F
100
AcDbEntity
  8
SANINDUSA
100
AcDbCircle
 10
5046.504676052105
 20
2669.745596399974
 30
0.0
 40
0.000700000000011
100
AcDbArc
 50
80.89933498713076
 51
184.7281547662916
  0
LINE
  5
1839
330
1F
100
AcDbEntity
  8
SANINDUSA
100
AcDbLine
 10
5046.491934256389
 20
2669.747292188449
 30
0.0
 11
5046.492332870846
 21
2669.746708145202
 31
0.0
  0
LINE
  5
183A
330
1F
100
AcDbEntity
  8
SANINDUSA
100
AcDbLine
 10
5046.497338873763
 20
2669.746272330105
 30
0.0
 11
5046.496754830516
 21
2669.745873715648
 31
0.0
  0
LINE
  5
183B
330
1F
100
AcDbEntity
  8
SANINDUSA
100
AcDbLine
 10
5046.492332870846
 20
2669.746708145202
 30
0.0
 11
5046.496754830516
 21
2669.745873715648
 31
0.0
  0
ARC
  5
183C
330
1F
100
AcDbEntity
  8
SANINDUSA
100
AcDbCircle
 10
5046.518374947156
 20
2669.732983273578
 30
0.0
 40
0.003
100
AcDbArc
 50
260.8993349871308
 51
353.3375032527511
  0
ARC
  5
183D
330
1F
100
AcDbEntity
  8
SANINDUSA
100
AcDbCircle
 10
5046.538872547307
 20
2669.748435366216
 30
0.0
 40
0.0348115390518547
100
AcDbArc
 50
184.7281547662916
 51
207.3623039604993
  0
LINE
  5
183E
330
1F
100
AcDbEntity
  8
SANINDUSA
100
AcDbLine
 10
5046.503486951793
 20
2669.744976678336
 30
0.0
 11
5046.504038336313
 21
2669.74488835428
 31
0.0
  0
ARC
  5
183F
330
1F
100
AcDbEntity
  8
SANINDUSA
100
AcDbCircle
 10
5046.538870829074
 20
2669.748424639735
 30
0.0
 40
0.0350115390518602
100
AcDbArc
 50
184.7281547662916
 51
185.7969552369429
  0
LINE
  5
1840
330
1F
100
AcDbEntity
  8
SANINDUSA
100
AcDbLine
 10
5046.513869947099
 20
2669.730674890474
 30
0.0
 11
5046.513868611489
 21
2669.730666552602
 31
0.0
  0
LINE
  5
1841
330
1F
100
AcDbEntity
  8
SANINDUSA
100
AcDbLine
 10
5046.515070977758
 20
2669.730474277544
 30
0.0
 11
5046.517900438572
 21
2669.730021037665
 31
0.0
  0
ARC
  5
1842
330
1F
100
AcDbEntity
  8
SANINDUSA
100
AcDbCircle
 10
5046.509732029925
 20
2669.733354671879
 30
0.0
 40
0.002
100
AcDbArc
 50
207.3623039604993
 51
260.8993349871308
  0
ARC
  5
1843
330
1F
100
AcDbEntity
  8
SANINDUSA
100
AcDbCircle
 10
5046.509812719101
 20
2669.743468006732
 30
0.0
 40
0.0018
100
AcDbArc
 50
35.89933495974774
 51
80.89933498713076
  0
ARC
  5
1844
330
1F
100
AcDbEntity
  8
SANINDUSA
100
AcDbCircle
 10
5046.509811000868
 20
2669.74345728025
 30
0.0
 40
0.002
100
AcDbArc
 50
35.89933495974774
 51
80.89933498713076
  0
LINE
  5
1845
330
1F
100
AcDbEntity
  8
SANINDUSA
100
AcDbLine
 10
5046.51215135373
 20
2669.743307001765
 30
0.0
 11
5046.511270806303
 21
2669.74452346005
 31
0.0
  0
LINE
  5
1846
330
1F
100
AcDbEntity
  8
SANINDUSA
100
AcDbLine
 10
5046.511431097762
 20
2669.74463000616
 30
0.0
 11
5046.512311645187
 21
2669.743413547874
 31
0.0
  0
ARC
  5
1847
330
1F
100
AcDbEntity
  8
SANINDUSA
100
AcDbCircle
 10
5046.512718387642
 20
2669.743717455834
 30
0.0
 40
0.0007
100
AcDbArc
 50
215.8993349597477
 51
350.8993349830096
  0
ARC
  5
1848
330
1F
100
AcDbEntity
  8
SANINDUSA
100
AcDbCircle
 10
5046.51271666941
 20
2669.743706729351
 30
0.0
 40
0.0005
100
AcDbArc
 50
215.8993349597477
 51
350.8993349830096
  0
LINE
  5
1849
330
1F
100
AcDbEntity
  8
SANINDUSA
100
AcDbLine
 10
5046.509415690869
 20
2669.731379847937
 30
0.0
 11
5046.513869015711
 21
2669.730666487851
 31
0.0
  0
LINE
  5
184A
330
1F
100
AcDbEntity
  8
SANINDUSA
100
AcDbLine
 10
5046.503838867712
 20
2669.757979196312
 30
0.0
 11
5046.499695512038
 21
2669.758761052928
 31
0.0
  0
LINE
  5
184B
330
1F
100
AcDbEntity
  8
SANINDUSA
100
AcDbLine
 10
5046.501124788476
 20
2669.750870038858
 30
0.0
 11
5046.502513490043
 21
2669.758229296805
 31
0.0
  0
LINE
  5
184C
330
1F
100
AcDbEntity
  8
SANINDUSA
100
AcDbLine
 10
5046.502623742714
 20
2669.750587184239
 30
0.0
 11
5046.49830681047
 21
2669.751401794981
 31
0.0
  0
ELLIPSE
  5
184D
330
1F
100
AcDbEntity
  8
SANINDUSA
100
AcDbEllipse
 10
5046.50899600415
 20
2669.753210141215
 30
0.0
 11
-0.0011830627046738
 21
-0.0073855583400077
 31
0.0
210
0.0
220
0.0
230
1.0
 40
0.0348994967019768
 41
1.03609607496942
 42
2.105496578620374
  0
ELLIPSE
  5
184E
330
1F
100
AcDbEntity
  8
SANINDUSA
100
AcDbEllipse
 10
5046.507908020405
 20
2669.753384420929
 30
0.0
 11
0.0011830627046738
 21
0.007385558340008
 31
0.0
210
0.0
220
0.0
230
1.0
 40
0.0348994967024541
 41
1.03609607496944
 42
2.105496578620353
  0
ARC
  5
184F
330
1F
100
AcDbEntity
  8
SANINDUSA
100
AcDbCircle
 10
5046.508452012279
 20
2669.753297281071
 30
0.0
 40
0.0044966441200263
100
AcDbArc
 50
76.8070423653101
 51
84.99162756680837
  0
SPLINE
  5
1850
330
1F
100
AcDbEntity
  8
SANINDUSA
100
AcDbSpline
210
0.0
220
0.0
230
1.0
 70
     8
 71
     3
 72
    20
 73
    16
 74
     0
 42
0.0000000001
 43
0.0000000001
 40
-0.5867559660494415
 40
-0.5867559660494415
 40
-0.5867559660494415
 40
-0.5867559660494415
 40
-0.5134114702932613
 40
-0.5134114702932613
 40
-0.5134114702932613
 40
-0.4107291762346091
 40
-0.4107291762346091
 40
-0.4107291762346091
 40
-0.2669739645524959
 40
-0.2669739645524959
 40
-0.2669739645524959
 40
-0.0657166681975375
 40
-0.0657166681975375
 40
-0.0657166681975375
 40
0.0
 40
0.0
 40
0.0
 40
0.0
 10
5046.50976961875
 20
2669.757446232832
 30
0.0
 10
5046.509778160746
 20
2669.757426028848
 30
0.0
 10
5046.509785657868
 20
2669.75740551612
 30
0.0
 10
5046.509792231724
 20
2669.757384787185
 30
0.0
 10
5046.509801435121
 20
2669.757355766677
 30
0.0
 10
5046.509808830105
 20
2669.757326320535
 30
0.0
 10
5046.509814662213
 20
2669.757296680491
 30
0.0
 10
5046.509822827164
 20
2669.757255184431
 30
0.0
 10
5046.509827920385
 20
2669.757213444832
 30
0.0
 10
5046.509830496344
 20
2669.757171611494
 30
0.0
 10
5046.509834102689
 20
2669.757113044822
 30
0.0
 10
5046.509832772533
 20
2669.757054112469
 30
0.0
 10
5046.50982730937
 20
2669.756995481957
 30
0.0
 10
5046.50982552548
 20
2669.7569763373
 30
0.0
 10
5046.509823298047
 20
2669.756957225423
 30
0.0
 10
5046.509820648545
 20
2669.756938171986
 30
0.0
  0
SPLINE
  5
1851
330
1F
100
AcDbEntity
  8
SANINDUSA
100
AcDbSpline
210
0.0
220
0.0
230
1.0
 70
     8
 71
     3
 72
    20
 73
    16
 74
     0
 42
0.0000000001
 43
0.0000000001
 40
-0.0000000000003746
 40
-0.0000000000003746
 40
-0.0000000000003746
 40
-0.0000000000003746
 40
0.0481646545390696
 40
0.0481646545390696
 40
0.0481646545390696
 40
0.1155951708942915
 40
0.1155951708942915
 40
0.1155951708942915
 40
0.2099978937916021
 40
0.2099978937916021
 40
0.2099978937916021
 40
0.342161705847837
 40
0.342161705847837
 40
0.342161705847837
 40
0.3853172363151791
 40
0.3853172363151791
 40
0.3853172363151791
 40
0.3853172363151791
 10
5046.509478286775
 20
2669.757675245096
 30
0.0
 10
5046.509494451996
 20
2669.757671455674
 30
0.0
 10
5046.509510555196
 20
2669.757667381353
 30
0.0
 10
5046.509526477679
 20
2669.75766299447
 30
0.0
 10
5046.509548769154
 20
2669.757656852833
 30
0.0
 10
5046.509570767574
 20
2669.757650095393
 30
0.0
 10
5046.509591964702
 20
2669.757642336549
 30
0.0
 10
5046.50962164068
 20
2669.757631474168
 30
0.0
 10
5046.509650085583
 20
2669.757618549753
 30
0.0
 10
5046.509675282306
 20
2669.757601489554
 30
0.0
 10
5046.509710557718
 20
2669.757577605274
 30
0.0
 10
5046.509739650958
 20
2669.757545173455
 30
0.0
 10
5046.509756798956
 20
2669.75749751529
 30
0.0
 10
5046.509762398302
 20
2669.757481953441
 30
0.0
 10
5046.509766715503
 20
2669.75746480521
 30
0.0
 10
5046.50976961875
 20
2669.757446232832
 30
0.0
  0
SPLINE
  5
1852
330
1F
100
AcDbEntity
  8
SANINDUSA
100
AcDbSpline
210
0.0
220
0.0
230
1.0
 70
     8
 71
     3
 72
    20
 73
    16
 74
     0
 42
0.0000000001
 43
0.0000000001
 40
0.0
 40
0.0
 40
0.0
 40
0.0
 40
0.0481065524694527
 40
0.0481065524694527
 40
0.0481065524694527
 40
0.1154557259266865
 40
0.1154557259266865
 40
0.1154557259266865
 40
0.2097445687668138
 40
0.2097445687668138
 40
0.2097445687668138
 40
0.341748948742992
 40
0.341748948742992
 40
0.341748948742992
 40
0.3848524197556216
 40
0.3848524197556216
 40
0.3848524197556216
 40
0.3848524197556216
 10
5046.508496286513
 20
2669.75765020277
 30
0.0
 10
5046.50850582766
 20
2669.757668859094
 30
0.0
 10
5046.508516494431
 20
2669.75768530158
 30
0.0
 10
5046.50852808868
 20
2669.757699416502
 30
0.0
 10
5046.508544320629
 20
2669.757719177393
 30
0.0
 10
5046.508562222595
 20
2669.757734231241
 30
0.0
 10
5046.508581253419
 20
2669.757745611939
 30
0.0
 10
5046.508607896576
 20
2669.757761544917
 30
0.0
 10
5046.508636888847
 20
2669.757770483202
 30
0.0
 10
5046.508667345804
 20
2669.757775533171
 30
0.0
 10
5046.508709985545
 20
2669.757782603126
 30
0.0
 10
5046.508754888451
 20
2669.757782322252
 30
0.0
 10
5046.508800171221
 20
2669.757779905914
 30
0.0
 10
5046.508814957434
 20
2669.757779116906
 30
0.0
 10
5046.50882977321
 20
2669.757778053974
 30
0.0
 10
5046.50884457521
 20
2669.757776756787
 30
0.0
  0
SPLINE
  5
1853
330
1F
100
AcDbEntity
  8
SANINDUSA
100
AcDbSpline
210
0.0
220
0.0
230
1.0
 70
     8
 71
     3
 72
    20
 73
    16
 74
     0
 42
0.0000000001
 43
0.0000000001
 40
-0.5867553122555979
 40
-0.5867553122555979
 40
-0.5867553122555979
 40
-0.5867553122555979
 40
-0.5134108982236482
 40
-0.5134108982236482
 40
-0.5134108982236482
 40
-0.4107287185789187
 40
-0.4107287185789187
 40
-0.4107287185789187
 40
-0.2669736670762972
 40
-0.2669736670762972
 40
-0.2669736670762972
 40
-0.0657165949726272
 40
-0.0657165949726272
 40
-0.0657165949726272
 40
0.0
 40
0.0
 40
0.0
 40
0.0
 10
5046.508289113656
 20
2669.757183502362
 30
0.0
 10
5046.508292946844
 20
2669.757204626988
 30
0.0
 10
5046.508297302124
 20
2669.757225656469
 30
0.0
 10
5046.508302196912
 20
2669.75724654768
 30
0.0
 10
5046.508309049617
 20
2669.757275795375
 30
0.0
 10
5046.508316958684
 20
2669.757304772185
 30
0.0
 10
5046.50832598746
 20
2669.757333362013
 30
0.0
 10
5046.508338627746
 20
2669.757373387771
 30
0.0
 10
5046.508353436914
 20
2669.757412618158
 30
0.0
 10
5046.508370740562
 20
2669.757450840454
 30
0.0
 10
5046.50839496567
 20
2669.757504351669
 30
0.0
 10
5046.508424238462
 20
2669.757556268621
 30
0.0
 10
5046.508459607032
 20
2669.757604381889
 30
0.0
 10
5046.508471155952
 20
2669.757620092344
 30
0.0
 10
5046.508483361321
 20
2669.757635396457
 30
0.0
 10
5046.508496286513
 20
2669.75765020277
 30
0.0
  0
ARC
  5
1854
330
1F
100
AcDbEntity
  8
SANINDUSA
100
AcDbCircle
 10
5046.508452012279
 20
2669.753297281071
 30
0.0
 40
0.0044966441200263
100
AcDbArc
 50
256.8070423653101
 51
264.9916275668084
  0
SPLINE
  5
1855
330
1F
100
AcDbEntity
  8
SANINDUSA
100
AcDbSpline
210
0.0
220
0.0
230
1.0
 70
     8
 71
     3
 72
    20
 73
    16
 74
     0
 42
0.0000000001
 43
0.0000000001
 40
-0.5867559660496065
 40
-0.5867559660496065
 40
-0.5867559660496065
 40
-0.5867559660496065
 40
-0.5134114702933794
 40
-0.5134114702933794
 40
-0.5134114702933794
 40
-0.4107291762346614
 40
-0.4107291762346614
 40
-0.4107291762346614
 40
-0.2669739645524562
 40
-0.2669739645524562
 40
-0.2669739645524562
 40
-0.0657166681973689
 40
-0.0657166681973689
 40
-0.0657166681973689
 40
0.0000000000002109
 40
0.0000000000002109
 40
0.0000000000002109
 40
0.0000000000002109
 10
5046.507134405806
 20
2669.749148329311
 30
0.0
 10
5046.507125863809
 20
2669.749168533295
 30
0.0
 10
5046.507118366688
 20
2669.749189046023
 30
0.0
 10
5046.507111792833
 20
2669.749209774958
 30
0.0
 10
5046.507102589435
 20
2669.749238795466
 30
0.0
 10
5046.507095194451
 20
2669.749268241608
 30
0.0
 10
5046.507089362343
 20
2669.749297881651
 30
0.0
 10
5046.507081197392
 20
2669.749339377712
 30
0.0
 10
5046.507076104171
 20
2669.749381117311
 30
0.0
 10
5046.507073528211
 20
2669.749422950649
 30
0.0
 10
5046.507069921865
 20
2669.749481517321
 30
0.0
 10
5046.507071252023
 20
2669.749540449674
 30
0.0
 10
5046.507076715186
 20
2669.749599080186
 30
0.0
 10
5046.507078499075
 20
2669.749618224843
 30
0.0
 10
5046.507080726509
 20
2669.74963733672
 30
0.0
 10
5046.507083376011
 20
2669.749656390158
 30
0.0
  0
SPLINE
  5
1856
330
1F
100
AcDbEntity
  8
SANINDUSA
100
AcDbSpline
210
0.0
220
0.0
230
1.0
 70
     8
 71
     3
 72
    20
 73
    16
 74
     0
 42
0.0000000001
 43
0.0000000001
 40
-0.5867553122555013
 40
-0.5867553122555013
 40
-0.5867553122555013
 40
-0.5867553122555013
 40
-0.5210387172828694
 40
-0.5210387172828694
 40
-0.5210387172828694
 40
-0.3197816451791844
 40
-0.3197816451791844
 40
-0.3197816451791844
 40
-0.1760265936765523
 40
-0.1760265936765523
 40
-0.1760265936765523
 40
-0.0733444140318151
 40
-0.0733444140318151
 40
-0.0733444140318151
 40
0.0000000000001401
 40
0.0000000000001401
 40
0.0000000000001401
 40
0.0000000000001401
 10
5046.508614910899
 20
2669.749411059781
 30
0.0
 10
5046.508611476363
 20
2669.749392132116
 30
0.0
 10
5046.50860762263
 20
2669.749373280819
 30
0.0
 10
5046.508603337322
 20
2669.749354536956
 30
0.0
 10
5046.508590213564
 20
2669.749297133876
 30
0.0
 10
5046.508573069432
 20
2669.749240735297
 30
0.0
 10
5046.50855135012
 20
2669.74918622598
 30
0.0
 10
5046.508535836326
 20
2669.749147290752
 30
0.0
 10
5046.508517959798
 20
2669.749109229234
 30
0.0
 10
5046.50849724161
 20
2669.749072359453
 30
0.0
 10
5046.508482442906
 20
2669.749046023896
 30
0.0
 10
5046.508466220178
 20
2669.749020360923
 30
0.0
 10
5046.508448412515
 20
2669.748995667208
 30
0.0
 10
5046.508435692754
 20
2669.748978028839
 30
0.0
 10
5046.508422163479
 20
2669.748960884276
 30
0.0
 10
5046.508407738043
 20
2669.748944359373
 30
0.0
  0
SPLINE
  5
1857
330
1F
100
AcDbEntity
  8
SANINDUSA
100
AcDbSpline
210
0.0
220
0.0
230
1.0
 70
     8
 71
     3
 72
    20
 73
    16
 74
     0
 42
0.0000000001
 43
0.0000000001
 40
0.0
 40
0.0
 40
0.0
 40
0.0
 40
0.0480735469503326
 40
0.0480735469503326
 40
0.0480735469503326
 40
0.1153765126807983
 40
0.1153765126807983
 40
0.1153765126807983
 40
0.2096006647034502
 40
0.2096006647034502
 40
0.2096006647034502
 40
0.341514477535163
 40
0.341514477535163
 40
0.341514477535163
 40
0.3845883756026611
 40
0.3845883756026611
 40
0.3845883756026611
 40
0.3845883756026611
 10
5046.508407738043
 20
2669.748944359373
 30
0.0
 10
5046.508398203441
 20
2669.748925715848
 30
0.0
 10
5046.508387544935
 20
2669.748909284954
 30
0.0
 10
5046.508375968278
 20
2669.748895185097
 30
0.0
 10
5046.508359760959
 20
2669.748875445296
 30
0.0
 10
5046.508341939131
 20
2669.748860429717
 30
0.0
 10
5046.508322881663
 20
2669.748849016349
 30
0.0
 10
5046.508296201208
 20
2669.748833037635
 30
0.0
 10
5046.508266906378
 20
2669.748824042004
 30
0.0
 10
5046.50823669069
 20
2669.748819030952
 30
0.0
 10
5046.508194388726
 20
2669.748812015479
 30
0.0
 10
5046.508149049522
 20
2669.748812243222
 30
0.0
 10
5046.508103819775
 20
2669.748814658021
 30
0.0
 10
5046.508089050877
 20
2669.748815446526
 30
0.0
 10
5046.50807424119
 20
2669.748816509059
 30
0.0
 10
5046.508059449346
 20
2669.748817805356
 30
0.0
  0
SPLINE
  5
1858
330
1F
100
AcDbEntity
  8
SANINDUSA
100
AcDbSpline
210
0.0
220
0.0
230
1.0
 70
     8
 71
     3
 72
    20
 73
    16
 74
     0
 42
0.0000000001
 43
0.0000000001
 40
0.0
 40
0.0
 40
0.0
 40
0.0
 40
0.0431555304672254
 40
0.0431555304672254
 40
0.0431555304672254
 40
0.1753193425231027
 40
0.1753193425231027
 40
0.1753193425231027
 40
0.2697220654201579
 40
0.2697220654201579
 40
0.2697220654201579
 40
0.3371525817751973
 40
0.3371525817751973
 40
0.3371525817751973
 40
0.3853172363145112
 40
0.3853172363145112
 40
0.3853172363145112
 40
0.3853172363145112
 10
5046.50742573778
 20
2669.748919317048
 30
0.0
 10
5046.507411253743
 20
2669.748922712369
 30
0.0
 10
5046.507396821446
 20
2669.748926337368
 30
0.0
 10
5046.507382520736
 20
2669.748930209235
 30
0.0
 10
5046.507338724812
 20
2669.748942066827
 30
0.0
 10
5046.50729599417
 20
2669.74895583227
 30
0.0
 10
5046.50725773676
 20
2669.748975849544
 30
0.0
 10
5046.507230410036
 20
2669.748990147597
 30
0.0
 10
5046.507205660505
 20
2669.74900765613
 30
0.0
 10
5046.507185234201
 20
2669.749031252609
 30
0.0
 10
5046.507170643984
 20
2669.749048107236
 30
0.0
 10
5046.507158429212
 20
2669.749067948031
 30
0.0
 10
5046.507149226158
 20
2669.74909169166
 30
0.0
 10
5046.507142652547
 20
2669.749108651394
 30
0.0
 10
5046.507137646037
 20
2669.749127601211
 30
0.0
 10
5046.507134405806
 20
2669.749148329311
 30
0.0
  0
CIRCLE
  5
1859
330
1F
100
AcDbEntity
  8
SANINDUSA
100
AcDbCircle
 10
5046.508452012279
 20
2669.753297281071
 30
0.0
 40
0.0045000000000009
  0
CIRCLE
  5
185A
330
1F
100
AcDbEntity
  8
SANINDUSA
100
AcDbCircle
 10
5046.508446955281
 20
2669.753296892015
 30
0.0
 40
0.0046999999999998
  0
ARC
  5
185B
330
1F
100
AcDbEntity
  8
SANINDUSA
100
AcDbCircle
 10
5046.508452012279
 20
2669.753297281071
 30
0.0
 40
0.0043531468531479
100
AcDbArc
 50
89.417255932526
 51
252.3814140092237
  0
ARC
  5
185C
330
1F
100
AcDbEntity
  8
SANINDUSA
100
AcDbCircle
 10
5046.508452012279
 20
2669.753297281071
 30
0.0
 40
0.0043531468531479
100
AcDbArc
 50
269.417255932526
 51
72.38141400922369
  0
POLYLINE
  5
185D
330
1F
100
AcDbEntity
  8
SANINDUSA
100
AcDb2dPolyline
 66
     1
 10
0.0
 20
0.0
 30
0.0
  0
VERTEX
  5
185E
330
185D
100
AcDbEntity
  8
SANINDUSA
100
AcDbVertex
100
AcDb2dVertex
 10
5046.51123250154
 20
2669.689407987558
 30
0.0
  0
VERTEX
  5
185F
330
185D
100
AcDbEntity
  8
SANINDUSA
100
AcDbVertex
100
AcDb2dVertex
 10
5046.511737756209
 20
2669.701232884808
 30
0.0
 42
-0.4142056759633454
  0
VERTEX
  5
1860
330
185D
100
AcDbEntity
  8
SANINDUSA
100
AcDbVertex
100
AcDb2dVertex
 10
5046.512779506802
 20
2669.702189285275
 30
0.0
  0
VERTEX
  5
1861
330
185D
100
AcDbEntity
  8
SANINDUSA
100
AcDbVertex
100
AcDb2dVertex
 10
5046.514534033772
 20
2669.702114365106
 30
0.0
 42
-0.4142306435449703
  0
VERTEX
  5
1862
330
185D
100
AcDbEntity
  8
SANINDUSA
100
AcDbVertex
100
AcDb2dVertex
 10
5046.515490458649
 20
2669.7010725551
 30
0.0
  0
VERTEX
  5
1863
330
185D
100
AcDbEntity
  8
SANINDUSA
100
AcDbVertex
100
AcDb2dVertex
 10
5046.515422342531
 20
2669.699479549209
 30
0.0
 42
0.2881936776522669
  0
VERTEX
  5
1864
330
185D
100
AcDbEntity
  8
SANINDUSA
100
AcDbVertex
100
AcDb2dVertex
 10
5046.515527828702
 20
2669.699294648614
 30
0.0
 42
-0.6285957498500262
  0
VERTEX
  5
1865
330
185D
100
AcDbEntity
  8
SANINDUSA
100
AcDbVertex
100
AcDb2dVertex
 10
5046.515508580428
 20
2669.69884449651
 30
0.0
 42
0.2881936776522143
  0
VERTEX
  5
1866
330
185D
100
AcDbEntity
  8
SANINDUSA
100
AcDbVertex
100
AcDb2dVertex
 10
5046.515387695638
 20
2669.698669275422
 30
0.0
  0
VERTEX
  5
1867
330
185D
100
AcDbEntity
  8
SANINDUSA
100
AcDbVertex
100
AcDb2dVertex
 10
5046.515294181229
 20
2669.69648228927
 30
0.0
 42
0.2881936776520399
  0
VERTEX
  5
1868
330
185D
100
AcDbEntity
  8
SANINDUSA
100
AcDbVertex
100
AcDb2dVertex
 10
5046.515399667399
 20
2669.696297388675
 30
0.0
 42
-0.6285957498500262
  0
VERTEX
  5
1869
330
185D
100
AcDbEntity
  8
SANINDUSA
100
AcDbVertex
100
AcDb2dVertex
 10
5046.515380419125
 20
2669.695847236571
 30
0.0
 42
0.2881936776522668
  0
VERTEX
  5
186A
330
185D
100
AcDbEntity
  8
SANINDUSA
100
AcDbVertex
100
AcDb2dVertex
 10
5046.515259534336
 20
2669.695672015483
 30
0.0
  0
VERTEX
  5
186B
330
185D
100
AcDbEntity
  8
SANINDUSA
100
AcDbVertex
100
AcDb2dVertex
 10
5046.515242670544
 20
2669.695277628358
 30
0.0
 42
0.4142306435457696
  0
VERTEX
  5
186C
330
185D
100
AcDbEntity
  8
SANINDUSA
100
AcDbVertex
100
AcDb2dVertex
 10
5046.51543395552
 20
2669.695069266356
 30
0.0
  0
VERTEX
  5
186D
330
185D
100
AcDbEntity
  8
SANINDUSA
100
AcDbVertex
100
AcDb2dVertex
 10
5046.5195302227
 20
2669.69489435139
 30
0.0
 42
0.4141964814077272
  0
VERTEX
  5
186E
330
185D
100
AcDbEntity
  8
SANINDUSA
100
AcDbVertex
100
AcDb2dVertex
 10
5046.51973857255
 20
2669.69508562521
 30
0.0
  0
VERTEX
  5
186F
330
185D
100
AcDbEntity
  8
SANINDUSA
100
AcDbVertex
100
AcDb2dVertex
 10
5046.519755528409
 20
2669.695482165471
 30
0.0
 42
0.2849150464410597
  0
VERTEX
  5
1870
330
185D
100
AcDbEntity
  8
SANINDUSA
100
AcDbVertex
100
AcDb2dVertex
 10
5046.519652172587
 20
2669.695665909908
 30
0.0
 42
-0.6201736729456835
  0
VERTEX
  5
1871
330
185D
100
AcDbEntity
  8
SANINDUSA
100
AcDbVertex
100
AcDb2dVertex
 10
5046.519671307214
 20
2669.69611340421
 30
0.0
 42
0.2849150464419475
  0
VERTEX
  5
1872
330
185D
100
AcDbEntity
  8
SANINDUSA
100
AcDbVertex
100
AcDb2dVertex
 10
5046.519789970739
 20
2669.696287655213
 30
0.0
  0
VERTEX
  5
1873
330
185D
100
AcDbEntity
  8
SANINDUSA
100
AcDbVertex
100
AcDb2dVertex
 10
5046.519883689711
 20
2669.69847942541
 30
0.0
 42
0.2849150464410597
  0
VERTEX
  5
1874
330
185D
100
AcDbEntity
  8
SANINDUSA
100
AcDbVertex
100
AcDb2dVertex
 10
5046.519780333889
 20
2669.698663169847
 30
0.0
 42
-0.6201736729456835
  0
VERTEX
  5
1875
330
185D
100
AcDbEntity
  8
SANINDUSA
100
AcDbVertex
100
AcDb2dVertex
 10
5046.519799468517
 20
2669.699110664149
 30
0.0
 42
0.284915046441397
  0
VERTEX
  5
1876
330
185D
100
AcDbEntity
  8
SANINDUSA
100
AcDbVertex
100
AcDb2dVertex
 10
5046.519918132041
 20
2669.699284915152
 30
0.0
  0
VERTEX
  5
1877
330
185D
100
AcDbEntity
  8
SANINDUSA
100
AcDbVertex
100
AcDb2dVertex
 10
5046.519986366635
 20
2669.700880691789
 30
0.0
 42
-0.4141964814073941
  0
VERTEX
  5
1878
330
185D
100
AcDbEntity
  8
SANINDUSA
100
AcDbVertex
100
AcDb2dVertex
 10
5046.521028115886
 20
2669.701837060892
 30
0.0
  0
VERTEX
  5
1879
330
185D
100
AcDbEntity
  8
SANINDUSA
100
AcDbVertex
100
AcDb2dVertex
 10
5046.522770402349
 20
2669.701762663406
 30
0.0
 42
-0.4142214488268239
  0
VERTEX
  5
187A
330
185D
100
AcDbEntity
  8
SANINDUSA
100
AcDbVertex
100
AcDb2dVertex
 10
5046.523726828568
 20
2669.700720884763
 30
0.0
  0
VERTEX
  5
187B
330
185D
100
AcDbEntity
  8
SANINDUSA
100
AcDbVertex
100
AcDb2dVertex
 10
5046.523086492244
 20
2669.685734558683
 30
0.0
 42
-0.3653825997089465
  0
VERTEX
  5
187C
330
185D
100
AcDbEntity
  8
SANINDUSA
100
AcDbVertex
100
AcDb2dVertex
 10
5046.517850989727
 20
2669.680038897143
 30
0.0
 42
-0.243385931735339
  0
VERTEX
  5
187D
330
185D
100
AcDbEntity
  8
SANINDUSA
100
AcDbVertex
100
AcDb2dVertex
 10
5046.517419402821
 20
2669.680196753491
 30
0.0
  0
VERTEX
  5
187E
330
185D
100
AcDbEntity
  8
SANINDUSA
100
AcDbVertex
100
AcDb2dVertex
 10
5046.517005066123
 20
2669.680648106643
 30
0.0
 42
0.4142135623730951
  0
VERTEX
  5
187F
330
185D
100
AcDbEntity
  8
SANINDUSA
100
AcDbVertex
100
AcDb2dVertex
 10
5046.516722481627
 20
2669.680660189812
 30
0.0
  0
VERTEX
  5
1880
330
185D
100
AcDbEntity
  8
SANINDUSA
100
AcDbVertex
100
AcDb2dVertex
 10
5046.516271128478
 20
2669.680245853116
 30
0.0
 42
-0.243385932516115
  0
VERTEX
  5
1881
330
185D
100
AcDbEntity
  8
SANINDUSA
100
AcDbVertex
100
AcDb2dVertex
 10
5046.515827641819
 20
2669.680125414465
 30
0.0
 42
-0.3653648080399314
  0
VERTEX
  5
1882
330
185D
100
AcDbEntity
  8
SANINDUSA
100
AcDbVertex
100
AcDb2dVertex
 10
5046.51109743138
 20
2669.686246827742
 30
0.0
  0
VERTEX
  5
1883
330
185D
100
AcDbEntity
  8
SANINDUSA
100
AcDbVertex
100
AcDb2dVertex
 10
5046.511130021126
 20
2669.687009552798
 30
0.0
 42
-0.4142135623730951
  0
VERTEX
  5
1884
330
185D
100
AcDbEntity
  8
SANINDUSA
100
AcDbVertex
100
AcDb2dVertex
 10
5046.511442554373
 20
2669.687296472593
 30
0.0
  0
VERTEX
  5
1885
330
185D
100
AcDbEntity
  8
SANINDUSA
100
AcDbVertex
100
AcDb2dVertex
 10
5046.511642372054
 20
2669.687287934776
 30
0.0
 42
-0.4142135623730951
  0
VERTEX
  5
1886
330
185D
100
AcDbEntity
  8
SANINDUSA
100
AcDbVertex
100
AcDb2dVertex
 10
5046.51192929185
 20
2669.686975401527
 30
0.0
  0
VERTEX
  5
1887
330
185D
100
AcDbEntity
  8
SANINDUSA
100
AcDbVertex
100
AcDb2dVertex
 10
5046.511896702105
 20
2669.686212676471
 30
0.0
 42
0.0325821046079382
  0
VERTEX
  5
1888
330
185D
100
AcDbEntity
  8
SANINDUSA
100
AcDbVertex
100
AcDb2dVertex
 10
5046.511911891855
 20
2669.685535857812
 30
0.0
 42
0.3765495638224707
  0
VERTEX
  5
1889
330
185D
100
AcDbEntity
  8
SANINDUSA
100
AcDbVertex
100
AcDb2dVertex
 10
5046.512197935317
 20
2669.685262371794
 30
0.0
  0
VERTEX
  5
188A
330
185D
100
AcDbEntity
  8
SANINDUSA
100
AcDbVertex
100
AcDb2dVertex
 10
5046.512556082284
 20
2669.685247068877
 30
0.0
 42
0.4142135623735391
  0
VERTEX
  5
188B
330
185D
100
AcDbEntity
  8
SANINDUSA
100
AcDbVertex
100
AcDb2dVertex
 10
5046.512868615531
 20
2669.685533988672
 30
0.0
  0
VERTEX
  5
188C
330
185D
100
AcDbEntity
  8
SANINDUSA
100
AcDbVertex
100
AcDb2dVertex
 10
5046.51309666139
 20
2669.690872749104
 30
0.0
 42
0.4142135623730951
  0
VERTEX
  5
188D
330
185D
100
AcDbEntity
  8
SANINDUSA
100
AcDbVertex
100
AcDb2dVertex
 10
5046.512809741596
 20
2669.691185282352
 30
0.0
  0
VERTEX
  5
188E
330
185D
100
AcDbEntity
  8
SANINDUSA
100
AcDbVertex
100
AcDb2dVertex
 10
5046.512410106233
 20
2669.691202357987
 30
0.0
 42
0.4142135623730951
  0
VERTEX
  5
188F
330
185D
100
AcDbEntity
  8
SANINDUSA
100
AcDbVertex
100
AcDb2dVertex
 10
5046.512097572986
 20
2669.690915438192
 30
0.0
  0
VERTEX
  5
1890
330
185D
100
AcDbEntity
  8
SANINDUSA
100
AcDbVertex
100
AcDb2dVertex
 10
5046.512031977828
 20
2669.689380259916
 30
0.0
 42
-0.4142135623735391
  0
VERTEX
  5
1891
330
185D
100
AcDbEntity
  8
SANINDUSA
100
AcDbVertex
100
AcDb2dVertex
 10
5046.51171944458
 20
2669.689093340121
 30
0.0
  0
VERTEX
  5
1892
330
185D
100
AcDbEntity
  8
SANINDUSA
100
AcDbVertex
100
AcDb2dVertex
 10
5046.511519626899
 20
2669.689101877938
 30
0.0
 42
-0.4142135623726511
  0
VERTEX
  5
1893
330
185D
100
AcDbEntity
  8
SANINDUSA
100
AcDbVertex
100
AcDb2dVertex
 10
5046.511232707103
 20
2669.689414411187
 30
0.0
  0
SEQEND
  5
1894
330
185D
100
AcDbEntity
  8
SANINDUSA
  0
POLYLINE
  5
1895
330
1F
100
AcDbEntity
  8
SANINDUSA
100
AcDb2dPolyline
 66
     1
 10
0.0
 20
0.0
 30
0.0
 70
     1
  0
VERTEX
  5
1896
330
1895
100
AcDbEntity
  8
SANINDUSA
100
AcDbVertex
100
AcDb2dVertex
 10
5046.513663617347
 20
2669.685399928561
 30
0.0
 42
-0.4142135623729619
  0
VERTEX
  5
1897
330
1895
100
AcDbEntity
  8
SANINDUSA
100
AcDbVertex
100
AcDb2dVertex
 10
5046.512621839854
 20
2669.684443529244
 30
0.0
  0
VERTEX
  5
1898
330
1895
100
AcDbEntity
  8
SANINDUSA
100
AcDbVertex
100
AcDb2dVertex
 10
5046.512565172371
 20
2669.684445950534
 30
0.0
 42
0.5461174401556712
  0
VERTEX
  5
1899
330
1895
100
AcDbEntity
  8
SANINDUSA
100
AcDbVertex
100
AcDb2dVertex
 10
5046.512274431185
 20
2669.684033297327
 30
0.0
 42
0.2409586185726194
  0
VERTEX
  5
189A
330
1895
100
AcDbEntity
  8
SANINDUSA
100
AcDbVertex
100
AcDb2dVertex
 10
5046.515860656445
 20
2669.680938576306
 30
0.0
 42
0.2504808541652698
  0
VERTEX
  5
189B
330
1895
100
AcDbEntity
  8
SANINDUSA
100
AcDbVertex
100
AcDb2dVertex
 10
5046.516317177842
 20
2669.681056022218
 30
0.0
  0
VERTEX
  5
189C
330
1895
100
AcDbEntity
  8
SANINDUSA
100
AcDbVertex
100
AcDb2dVertex
 10
5046.516756657998
 20
2669.681459459649
 30
0.0
 42
-0.4142135623730951
  0
VERTEX
  5
189D
330
1895
100
AcDbEntity
  8
SANINDUSA
100
AcDbVertex
100
AcDb2dVertex
 10
5046.517039242494
 20
2669.68144737648
 30
0.0
  0
VERTEX
  5
189E
330
1895
100
AcDbEntity
  8
SANINDUSA
100
AcDbVertex
100
AcDb2dVertex
 10
5046.517442680067
 20
2669.681007896169
 30
0.0
 42
0.2504808671429759
  0
VERTEX
  5
189F
330
1895
100
AcDbEntity
  8
SANINDUSA
100
AcDbVertex
100
AcDb2dVertex
 10
5046.517887509629
 20
2669.680851908957
 30
0.0
 42
0.3578210409310957
  0
VERTEX
  5
18A0
330
1895
100
AcDbEntity
  8
SANINDUSA
100
AcDbVertex
100
AcDb2dVertex
 10
5046.52228722152
 20
2669.685768709954
 30
0.0
  0
VERTEX
  5
18A1
330
1895
100
AcDbEntity
  8
SANINDUSA
100
AcDbVertex
100
AcDb2dVertex
 10
5046.522927561325
 20
2669.700755041275
 30
0.0
 42
0.4142135623730951
  0
VERTEX
  5
18A2
330
1895
100
AcDbEntity
  8
SANINDUSA
100
AcDbVertex
100
AcDb2dVertex
 10
5046.522736275852
 20
2669.700963391623
 30
0.0
  0
VERTEX
  5
18A3
330
1895
100
AcDbEntity
  8
SANINDUSA
100
AcDbVertex
100
AcDb2dVertex
 10
5046.520994061104
 20
2669.701037786047
 30
0.0
 42
0.4141794006486556
  0
VERTEX
  5
18A4
330
1895
100
AcDbEntity
  8
SANINDUSA
100
AcDbVertex
100
AcDb2dVertex
 10
5046.520785711752
 20
2669.700846523879
 30
0.0
  0
VERTEX
  5
18A5
330
1895
100
AcDbEntity
  8
SANINDUSA
100
AcDbVertex
100
AcDb2dVertex
 10
5046.520537565847
 20
2669.695051148044
 30
0.0
 42
-0.4141964814074665
  0
VERTEX
  5
18A6
330
1895
100
AcDbEntity
  8
SANINDUSA
100
AcDbVertex
100
AcDb2dVertex
 10
5046.519495760825
 20
2669.694094839697
 30
0.0
  0
VERTEX
  5
18A7
330
1895
100
AcDbEntity
  8
SANINDUSA
100
AcDbVertex
100
AcDb2dVertex
 10
5046.515400053183
 20
2669.694269970062
 30
0.0
 42
-0.4141964814075477
  0
VERTEX
  5
18A8
330
1895
100
AcDbEntity
  8
SANINDUSA
100
AcDbVertex
100
AcDb2dVertex
 10
5046.514443684081
 20
2669.695311719313
 30
0.0
  0
VERTEX
  5
18A9
330
1895
100
AcDbEntity
  8
SANINDUSA
100
AcDbVertex
100
AcDb2dVertex
 10
5046.514691154029
 20
2669.701107124052
 30
0.0
 42
0.4141794006486554
  0
VERTEX
  5
18AA
330
1895
100
AcDbEntity
  8
SANINDUSA
100
AcDbVertex
100
AcDb2dVertex
 10
5046.514499891862
 20
2669.701315473404
 30
0.0
  0
VERTEX
  5
18AB
330
1895
100
AcDbEntity
  8
SANINDUSA
100
AcDbVertex
100
AcDb2dVertex
 10
5046.512757685802
 20
2669.701390071032
 30
0.0
 42
0.4142135623730951
  0
VERTEX
  5
18AC
330
1895
100
AcDbEntity
  8
SANINDUSA
100
AcDbVertex
100
AcDb2dVertex
 10
5046.512549313145
 20
2669.701198809861
 30
0.0
  0
VERTEX
  5
18AD
330
1895
100
AcDbEntity
  8
SANINDUSA
100
AcDbVertex
100
AcDb2dVertex
 10
5046.512165116349
 20
2669.692213744635
 30
0.0
 42
0.4142227570402988
  0
VERTEX
  5
18AE
330
1895
100
AcDbEntity
  8
SANINDUSA
100
AcDbVertex
100
AcDb2dVertex
 10
5046.512356395944
 20
2669.692005382863
 30
0.0
  0
VERTEX
  5
18AF
330
1895
100
AcDbEntity
  8
SANINDUSA
100
AcDbVertex
100
AcDb2dVertex
 10
5046.512843892866
 20
2669.691984553076
 30
0.0
 42
-0.4142135623730951
  0
VERTEX
  5
18B0
330
1895
100
AcDbEntity
  8
SANINDUSA
100
AcDbVertex
100
AcDb2dVertex
 10
5046.513895932115
 20
2669.690838597833
 30
0.0
  0
SEQEND
  5
18B1
330
1895
100
AcDbEntity
  8
SANINDUSA
  0
POLYLINE
  5
18B2
330
1F
100
AcDbEntity
  8
SANINDUSA
100
AcDb2dPolyline
 66
     1
 10
0.0
 20
0.0
 30
0.0
  0
VERTEX
  5
18B3
330
18B2
100
AcDbEntity
  8
SANINDUSA
100
AcDbVertex
100
AcDb2dVertex
 10
5046.512782666781
 20
2669.685482715232
 30
0.0
  0
VERTEX
  5
18B4
330
18B2
100
AcDbEntity
  8
SANINDUSA
100
AcDbVertex
100
AcDb2dVertex
 10
5046.513015205096
 20
2669.69092500376
 30
0.0
 42
0.4142135623725959
  0
VERTEX
  5
18B5
330
18B2
100
AcDbEntity
  8
SANINDUSA
100
AcDbVertex
100
AcDb2dVertex
 10
5046.512823925233
 20
2669.69113335926
 30
0.0
  0
VERTEX
  5
18B6
330
18B2
100
AcDbEntity
  8
SANINDUSA
100
AcDbVertex
100
AcDb2dVertex
 10
5046.51242425705
 20
2669.691150436297
 30
0.0
 42
0.4142135623730951
  0
VERTEX
  5
18B7
330
18B2
100
AcDbEntity
  8
SANINDUSA
100
AcDbVertex
100
AcDb2dVertex
 10
5046.512215901552
 20
2669.690959156433
 30
0.0
  0
VERTEX
  5
18B8
330
18B2
100
AcDbEntity
  8
SANINDUSA
100
AcDbVertex
100
AcDb2dVertex
 10
5046.512141768577
 20
2669.689224160477
 30
0.0
 42
-0.4142135623730951
  0
VERTEX
  5
18B9
330
18B2
100
AcDbEntity
  8
SANINDUSA
100
AcDbVertex
100
AcDb2dVertex
 10
5046.511933413078
 20
2669.689032880613
 30
0.0
  0
VERTEX
  5
18BA
330
18B2
100
AcDbEntity
  8
SANINDUSA
100
AcDbVertex
100
AcDb2dVertex
 10
5046.511168168487
 20
2669.689065578014
 30
0.0
 42
-0.1943803091380277
  0
VERTEX
  5
18BB
330
18B2
100
AcDbEntity
  8
SANINDUSA
100
AcDbVertex
100
AcDb2dVertex
 10
5046.511031759688
 20
2669.68912758975
 30
0.0
  0
VERTEX
  5
18BC
330
18B2
100
AcDbEntity
  8
SANINDUSA
100
AcDbVertex
100
AcDb2dVertex
 10
5046.50340808785
 20
2669.697146296389
 30
0.0
 42
0.9826972631155188
  0
VERTEX
  5
18BD
330
18B2
100
AcDbEntity
  8
SANINDUSA
100
AcDbVertex
100
AcDb2dVertex
 10
5046.502958385324
 20
2669.696733448933
 30
0.0
  0
VERTEX
  5
18BE
330
18B2
100
AcDbEntity
  8
SANINDUSA
100
AcDbVertex
100
AcDb2dVertex
 10
5046.511217250452
 20
2669.687415996972
 30
0.0
 42
0.2034522994238806
  0
VERTEX
  5
18BF
330
18B2
100
AcDbEntity
  8
SANINDUSA
100
AcDbVertex
100
AcDb2dVertex
 10
5046.511358380312
 20
2669.687348842723
 30
0.0
  0
VERTEX
  5
18C0
330
18B2
100
AcDbEntity
  8
SANINDUSA
100
AcDbVertex
100
AcDb2dVertex
 10
5046.511860606297
 20
2669.687327383591
 30
0.0
 42
-0.4142135623730951
  0
VERTEX
  5
18C1
330
18B2
100
AcDbEntity
  8
SANINDUSA
100
AcDbVertex
100
AcDb2dVertex
 10
5046.512051886161
 20
2669.687119028093
 30
0.0
  0
VERTEX
  5
18C2
330
18B2
100
AcDbEntity
  8
SANINDUSA
100
AcDbVertex
100
AcDb2dVertex
 10
5046.512010758598
 20
2669.686156485355
 30
0.0
 42
0.0325821046079315
  0
VERTEX
  5
18C3
330
18B2
100
AcDbEntity
  8
SANINDUSA
100
AcDbVertex
100
AcDb2dVertex
 10
5046.512025656237
 20
2669.685492682439
 30
0.0
 42
0.3765495638223387
  0
VERTEX
  5
18C4
330
18B2
100
AcDbEntity
  8
SANINDUSA
100
AcDbVertex
100
AcDb2dVertex
 10
5046.51221635188
 20
2669.685310358427
 30
0.0
  0
VERTEX
  5
18C5
330
18B2
100
AcDbEntity
  8
SANINDUSA
100
AcDbVertex
100
AcDb2dVertex
 10
5046.512574498845
 20
2669.68529505551
 30
0.0
 42
0.4142135623730951
  0
VERTEX
  5
18C6
330
18B2
100
AcDbEntity
  8
SANINDUSA
100
AcDbVertex
100
AcDb2dVertex
 10
5046.512782854344
 20
2669.685486335374
 30
0.0
  0
SEQEND
  5
18C7
330
18B2
100
AcDbEntity
  8
SANINDUSA
  0
LINE
  5
18C8
330
1F
100
AcDbEntity
  8
SANINDUSA
100
AcDbLine
 10
5046.523731645765
 20
2669.701721815196
 30
0.0
 11
5046.511742466153
 21
2669.702231297522
 31
0.0
  0
LINE
  5
18C9
330
1F
100
AcDbEntity
  8
SANINDUSA
100
AcDbLine
 10
5046.519501249983
 20
2669.695101888234
 30
0.0
 11
5046.515502647124
 21
2669.695207600904
 31
0.0
  0
LINE
  5
18CA
330
1F
100
AcDbEntity
  8
SANINDUSA
100
AcDbLine
 10
5047.682011149905
 20
2670.681293059246
 30
0.0
 11
5047.682011149905
 21
2668.907291986201
 31
0.0
  0
LINE
  5
18CB
330
1F
100
AcDbEntity
  8
SANINDUSA
100
AcDbLine
 10
5047.718911149906
 20
2668.924292522724
 30
0.0
 11
5047.996761149905
 21
2668.924292522724
 31
0.0
  0
LINE
  5
18CC
330
1F
100
AcDbEntity
  8
SANINDUSA
100
AcDbLine
 10
5047.718911149906
 20
2668.878725314507
 30
0.0
 11
5047.996761149905
 21
2668.878725314507
 31
0.0
  0
LINE
  5
18CD
330
1F
100
AcDbEntity
  8
SANINDUSA
100
AcDbLine
 10
5047.717321149906
 20
2668.907292499397
 30
0.0
 11
5047.996761149905
 21
2668.907292499397
 31
0.0
  0
LINE
  5
18CE
330
1F
100
AcDbEntity
  8
SANINDUSA
100
AcDbLine
 10
5047.548511149905
 20
2668.878725314507
 30
0.0
 11
5047.682011149905
 21
2668.878725314507
 31
0.0
  0
LINE
  5
18CF
330
1F
100
AcDbEntity
  8
SANINDUSA
100
AcDbLine
 10
5047.560511149906
 20
2668.924292522724
 30
0.0
 11
5047.682011149905
 21
2668.924292522724
 31
0.0
  0
LINE
  5
18D0
330
1F
100
AcDbEntity
  8
SANINDUSA
100
AcDbLine
 10
5047.560511149906
 20
2668.907291986201
 30
0.0
 11
5047.682011149905
 21
2668.907291986201
 31
0.0
  0
LINE
  5
18D1
330
1F
100
AcDbEntity
  8
SANINDUSA
100
AcDbLine
 10
5047.548511149905
 20
2668.907291986201
 30
0.0
 11
5047.548511149905
 21
2668.878725314507
 31
0.0
  0
LINE
  5
18D2
330
1F
100
AcDbEntity
  8
SANINDUSA
100
AcDbLine
 10
5047.560511149906
 20
2668.907291986201
 30
0.0
 11
5047.547911149905
 21
2668.907291986201
 31
0.0
  0
LINE
  5
18D3
330
1F
100
AcDbEntity
  8
SANINDUSA
100
AcDbLine
 10
5047.682011149905
 20
2668.907291986201
 30
0.0
 11
5047.682011149905
 21
2668.878725314507
 31
0.0
  0
LINE
  5
18D4
330
1F
100
AcDbEntity
  8
SANINDUSA
100
AcDbLine
 10
5047.718911149906
 20
2668.924292522724
 30
0.0
 11
5047.718911149906
 21
2668.878725314507
 31
0.0
  0
LINE
  5
18D5
330
1F
100
AcDbEntity
  8
SANINDUSA
100
AcDbLine
 10
5047.682011149905
 20
2668.907291986201
 30
0.0
 11
5047.695311149904
 21
2668.907291986201
 31
0.0
  0
LINE
  5
18D6
330
1F
100
AcDbEntity
  8
SANINDUSA
100
AcDbLine
 10
5047.717321149906
 20
2668.907292499397
 30
0.0
 11
5047.696911149905
 21
2668.907292499397
 31
0.0
  0
LINE
  5
18D7
330
1F
100
AcDbEntity
  8
SANINDUSA
100
AcDbLine
 10
5047.996761149905
 20
2668.924292522724
 30
0.0
 11
5047.996761149905
 21
2668.878725314507
 31
0.0
  0
LINE
  5
18D8
330
1F
100
AcDbEntity
  8
SANINDUSA
100
AcDbLine
 10
5047.996761149905
 20
2668.907291986201
 30
0.0
 11
5048.018461149905
 21
2668.907291986201
 31
0.0
  0
ENDSEC
  0
SECTION
  2
OBJECTS
  0
DICTIONARY
  5
C
330
0
100
AcDbDictionary
281
     1
  3
ACAD_2007HEADERVARS_RT
350
1960
  3
ACAD_COLOR
350
EE6
  3
ACAD_GROUP
350
D
  3
ACAD_LAYOUT
350
1A
  3
ACAD_MATERIAL
350
EE5
  3
ACAD_MLEADERSTYLE
350
10A8
  3
ACAD_MLINESTYLE
350
17
  3
ACAD_PLOTSETTINGS
350
19
  3
ACAD_PLOTSTYLENAME
350
E
  3
ACAD_SCALELIST
350
1096
  3
ACAD_TABLESTYLE
350
EE7
  3
ACAD_VISUALSTYLE
350
1082
  3
ACDB_RECOMPOSE_DATA
350
195E
  3
AcDbVariableDictionary
350
3D
  3
AEC_PROPERTY_SET_DEFS
350
14C9
  3
ASE_INDEX_DICTIONARY
350
1066
  3
Autodesk_PNP
350
10B2
  3
DWGPROPS
350
195F
  0
DICTIONARY
  5
1051
330
2
100
AcDbDictionary
280
     1
281
     1
  3
ACAD_LAYERFILTERS
360
1065
  3
ACLYDICTIONARY
360
1064
  0
DICTIONARY
  5
18F1
330
10
100
AcDbDictionary
280
     1
281
     1
  3
ADSK_XREC_LAYER_RECONCILED
360
18F2
  0
DICTIONARY
  5
18F3
330
2F
100
AcDbDictionary
280
     1
281
     1
  3
ADSK_XREC_LAYER_RECONCILED
360
18F4
  0
DICTIONARY
  5
18F5
330
30
100
AcDbDictionary
280
     1
281
     1
  3
ADSK_XREC_LAYER_RECONCILED
360
18F6
  0
DICTIONARY
  5
18F7
330
31
100
AcDbDictionary
280
     1
281
     1
  3
ADSK_XREC_LAYER_RECONCILED
360
18F8
  0
DICTIONARY
  5
18F9
330
32
100
AcDbDictionary
280
     1
281
     1
  3
ADSK_XREC_LAYER_RECONCILED
360
18FA
  0
DICTIONARY
  5
18FB
330
33
100
AcDbDictionary
280
     1
281
     1
  3
ADSK_XREC_LAYER_RECONCILED
360
18FC
  0
DICTIONARY
  5
18FD
330
34
100
AcDbDictionary
280
     1
281
     1
  3
ADSK_XREC_LAYER_RECONCILED
360
18FE
  0
DICTIONARY
  5
18FF
330
35
100
AcDbDictionary
280
     1
281
     1
  3
ADSK_XREC_LAYER_RECONCILED
360
1900
  0
DICTIONARY
  5
1901
330
36
100
AcDbDictionary
280
     1
281
     1
  3
ADSK_XREC_LAYER_RECONCILED
360
1902
  0
DICTIONARY
  5
1903
330
37
100
AcDbDictionary
280
     1
281
     1
  3
ADSK_XREC_LAYER_RECONCILED
360
1904
  0
DICTIONARY
  5
1905
330
5D6
100
AcDbDictionary
280
     1
281
     1
  3
ADSK_XREC_LAYER_RECONCILED
360
1906
  0
DICTIONARY
  5
1907
330
8AF
100
AcDbDictionary
280
     1
281
     1
  3
ADSK_XREC_LAYER_RECONCILED
360
1908
  0
DICTIONARY
  5
1909
330
8F8
100
AcDbDictionary
280
     1
281
     1
  3
ADSK_XREC_LAYER_RECONCILED
360
190A
  0
DICTIONARY
  5
190B
330
91D
100
AcDbDictionary
280
     1
281
     1
  3
ADSK_XREC_LAYER_RECONCILED
360
190C
  0
DICTIONARY
  5
190D
330
C7B
100
AcDbDictionary
280
     1
281
     1
  3
ADSK_XREC_LAYER_RECONCILED
360
190E
  0
DICTIONARY
  5
190F
330
1060
100
AcDbDictionary
280
     1
281
     1
  3
ADSK_XREC_LAYER_RECONCILED
360
1910
  0
DICTIONARY
  5
1911
330
10B3
100
AcDbDictionary
280
     1
281
     1
  3
ADSK_XREC_LAYER_RECONCILED
360
1912
  0
DICTIONARY
  5
1913
330
10B4
100
AcDbDictionary
280
     1
281
     1
  3
ADSK_XREC_LAYER_RECONCILED
360
1914
  0
DICTIONARY
  5
1915
330
10B5
100
AcDbDictionary
280
     1
281
     1
  3
ADSK_XREC_LAYER_RECONCILED
360
1916
  0
DICTIONARY
  5
1917
330
10B6
100
AcDbDictionary
280
     1
281
     1
  3
ADSK_XREC_LAYER_RECONCILED
360
1918
  0
DICTIONARY
  5
1960
102
{ACAD_REACTORS
330
C
102
}
330
C
100
AcDbDictionary
281
     1
  3
DIMJOGANG
350
1961
  0
DICTIONARY
  5
EE6
102
{ACAD_REACTORS
330
C
102
}
330
C
100
AcDbDictionary
281
     1
  0
DICTIONARY
  5
D
102
{ACAD_REACTORS
330
C
102
}
330
C
100
AcDbDictionary
281
     1
  0
DICTIONARY
  5
1A
102
{ACAD_REACTORS
330
C
102
}
330
C
100
AcDbDictionary
281
     1
  3
Layout1
350
1E
  3
Layout2
350
26
  3
Model
350
22
  0
DICTIONARY
  5
EE5
102
{ACAD_REACTORS
330
C
102
}
330
C
100
AcDbDictionary
281
     1
  3
ByBlock
350
1072
  3
ByLayer
350
106A
  3
Global
350
107A
  0
DICTIONARY
  5
10A8
102
{ACAD_REACTORS
330
C
102
}
330
C
100
AcDbDictionary
281
     1
  3
Standard
350
10A9
  0
DICTIONARY
  5
17
102
{ACAD_REACTORS
330
C
102
}
330
C
100
AcDbDictionary
281
     1
  3
Standard
350
18
  0
DICTIONARY
  5
19
102
{ACAD_REACTORS
330
C
102
}
330
C
100
AcDbDictionary
281
     1
  0
ACDBDICTIONARYWDFLT
  5
E
102
{ACAD_REACTORS
330
C
102
}
330
C
100
AcDbDictionary
281
     1
  3
Normal
350
F
100
AcDbDictionaryWithDefault
340
F
  0
DICTIONARY
  5
1096
102
{ACAD_REACTORS
330
C
102
}
330
C
100
AcDbDictionary
281
     1
  3
A0
350
1097
  3
A1
350
1098
  3
A2
350
1099
  3
A3
350
109A
  3
A4
350
109B
  3
A5
350
109C
  3
A6
350
109D
  3
A7
350
109E
  3
A8
350
109F
  3
A9
350
10A0
  3
B0
350
10A1
  3
B1
350
10A2
  3
B2
350
10A3
  3
B3
350
10A4
  3
B4
350
10A5
  3
B5
350
10A6
  3
B6
350
10A7
  0
DICTIONARY
  5
EE7
102
{ACAD_REACTORS
330
C
102
}
330
C
100
AcDbDictionary
281
     1
  3
Standard
350
EE8
  0
DICTIONARY
  5
1082
102
{ACAD_REACTORS
330
C
102
}
330
C
100
AcDbDictionary
281
     1
  3
2dWireframe
350
1088
  3
3D Hidden
350
108A
  3
3dWireframe
350
1089
  3
Basic
350
1087
  3
Brighten
350
108E
  3
ColorChange
350
1092
  3
Conceptual
350
108B
  3
Dim
350
108D
  3
EdgeColorOff
350
1095
  3
Facepattern
350
1091
  3
Flat
350
1083
  3
FlatWithEdges
350
1084
  3
Gouraud
350
1085
  3
GouraudWithEdges
350
1086
  3
JitterOff
350
1093
  3
Linepattern
350
1090
  3
OverhangOff
350
1094
  3
Realistic
350
108C
  3
Thicken
350
108F
  0
XRECORD
  5
195E
102
{ACAD_REACTORS
330
C
102
}
330
C
100
AcDbXrecord
280
     1
 90
        1
330
EE8
  0
DICTIONARY
  5
3D
102
{ACAD_REACTORS
330
C
102
}
330
C
100
AcDbDictionary
281
     1
  3
CANNOSCALE
350
1958
  3
CMLEADERSTYLE
350
1957
  3
CTABLESTYLE
350
1049
  3
DIMASSOC
350
3F
  3
HIDETEXT
350
3E
  3
INDEXCTL
350
195A
  3
SORTENTS
350
1959
  3
XCLIPFRAME
350
195B
  0
DICTIONARY
  5
14C9
102
{ACAD_REACTORS
330
C
102
}
330
C
100
AcDbDictionary
281
     1
  0
DICTIONARY
  5
1066
102
{ACAD_REACTORS
330
C
102
}
330
C
100
AcDbDictionary
281
     1
  3
ASEBlockHierarchyIndexRecord
350
1067
1001
DCO15
1040
1602247867.484
  0
DICTIONARY
  5
10B2
102
{ACAD_REACTORS
330
C
102
}
330
C
100
AcDbDictionary
281
     1
  0
XRECORD
  5
195F
102
{ACAD_REACTORS
330
C
102
}
330
C
100
AcDbXrecord
280
     1
  1
DWGPROPS COOKIE
  2

  3

  4

  6

  7

  8
Julio
  9

300
=
301
=
302
=
303
=
304
=
305
=
306
=
307
=
308
=
309
=
 40
0.0047191435185185
 41
2455824.689158889
 42
2455824.693878032
  1

 90
        0
  0
DICTIONARY
  5
1065
102
{ACAD_REACTORS
330
1051
102
}
330
1051
100
AcDbDictionary
281
     1
  0
DICTIONARY
  5
1064
102
{ACAD_REACTORS
330
1051
102
}
330
1051
100
AcDbDictionary
281
     1
1001
ACAD
1000
<All
  0
XRECORD
  5
18F2
102
{ACAD_REACTORS
330
18F1
102
}
330
18F1
100
AcDbXrecord
280
     1
290
     1
  0
XRECORD
  5
18F4
102
{ACAD_REACTORS
330
18F3
102
}
330
18F3
100
AcDbXrecord
280
     1
290
     1
  0
XRECORD
  5
18F6
102
{ACAD_REACTORS
330
18F5
102
}
330
18F5
100
AcDbXrecord
280
     1
290
     1
  0
XRECORD
  5
18F8
102
{ACAD_REACTORS
330
18F7
102
}
330
18F7
100
AcDbXrecord
280
     1
290
     1
  0
XRECORD
  5
18FA
102
{ACAD_REACTORS
330
18F9
102
}
330
18F9
100
AcDbXrecord
280
     1
290
     1
  0
XRECORD
  5
18FC
102
{ACAD_REACTORS
330
18FB
102
}
330
18FB
100
AcDbXrecord
280
     1
290
     1
  0
XRECORD
  5
18FE
102
{ACAD_REACTORS
330
18FD
102
}
330
18FD
100
AcDbXrecord
280
     1
290
     1
  0
XRECORD
  5
1900
102
{ACAD_REACTORS
330
18FF
102
}
330
18FF
100
AcDbXrecord
280
     1
290
     1
  0
XRECORD
  5
1902
102
{ACAD_REACTORS
330
1901
102
}
330
1901
100
AcDbXrecord
280
     1
290
     1
  0
XRECORD
  5
1904
102
{ACAD_REACTORS
330
1903
102
}
330
1903
100
AcDbXrecord
280
     1
290
     1
  0
XRECORD
  5
1906
102
{ACAD_REACTORS
330
1905
102
}
330
1905
100
AcDbXrecord
280
     1
290
     1
  0
XRECORD
  5
1908
102
{ACAD_REACTORS
330
1907
102
}
330
1907
100
AcDbXrecord
280
     1
290
     1
  0
XRECORD
  5
190A
102
{ACAD_REACTORS
330
1909
102
}
330
1909
100
AcDbXrecord
280
     1
290
     1
  0
XRECORD
  5
190C
102
{ACAD_REACTORS
330
190B
102
}
330
190B
100
AcDbXrecord
280
     1
290
     1
  0
XRECORD
  5
190E
102
{ACAD_REACTORS
330
190D
102
}
330
190D
100
AcDbXrecord
280
     1
290
     1
  0
XRECORD
  5
1910
102
{ACAD_REACTORS
330
190F
102
}
330
190F
100
AcDbXrecord
280
     1
290
     1
  0
XRECORD
  5
1912
102
{ACAD_REACTORS
330
1911
102
}
330
1911
100
AcDbXrecord
280
     1
290
     1
  0
XRECORD
  5
1914
102
{ACAD_REACTORS
330
1913
102
}
330
1913
100
AcDbXrecord
280
     1
290
     1
  0
XRECORD
  5
1916
102
{ACAD_REACTORS
330
1915
102
}
330
1915
100
AcDbXrecord
280
     1
290
     1
  0
XRECORD
  5
1918
102
{ACAD_REACTORS
330
1917
102
}
330
1917
100
AcDbXrecord
280
     1
290
     1
  0
XRECORD
  5
1961
102
{ACAD_REACTORS
330
1960
102
}
330
1960
100
AcDbXrecord
280
     1
 40
1.570796326794896
  0
LAYOUT
  5
1E
102
{ACAD_XDICTIONARY
360
1962
102
}
102
{ACAD_REACTORS
330
1A
102
}
330
1A
100
AcDbPlotSettings
  1

  2
Ploter HP500
  4

  6

 40
0.0
 41
0.0
 42
0.0
 43
0.0
 44
0.0
 45
0.0
 46
0.0
 47
0.0
 48
0.0
 49
0.0
140
0.0
141
0.0
142
1.0
143
1.0
 70
   688
 72
     0
 73
     0
 74
     5
  7
sanindusa.ctb
 75
    16
147
1.0
148
0.0
149
0.0
100
AcDbLayout
  1
Layout1
 70
     1
 71
     1
 10
0.0
 20
0.0
 11
420.0
 21
297.0
 12
0.0
 22
0.0
 32
0.0
 14
1.000000000000000E+20
 24
1.000000000000000E+20
 34
1.000000000000000E+20
 15
-1.000000000000000E+20
 25
-1.000000000000000E+20
 35
-1.000000000000000E+20
146
0.0
 13
0.0
 23
0.0
 33
0.0
 16
1.0
 26
0.0
 36
0.0
 17
0.0
 27
1.0
 37
0.0
 76
     0
330
1B
  0
LAYOUT
  5
26
102
{ACAD_XDICTIONARY
360
1966
102
}
102
{ACAD_REACTORS
330
1A
102
}
330
1A
100
AcDbPlotSettings
  1

  2
Ploter HP500
  4

  6

 40
0.0
 41
0.0
 42
0.0
 43
0.0
 44
0.0
 45
0.0
 46
0.0
 47
0.0
 48
0.0
 49
0.0
140
0.0
141
0.0
142
1.0
143
1.0
 70
   688
 72
     0
 73
     0
 74
     5
  7
sanindusa.ctb
 75
    16
147
1.0
148
0.0
149
0.0
100
AcDbLayout
  1
Layout2
 70
     1
 71
     2
 10
0.0
 20
0.0
 11
12.0
 21
9.0
 12
0.0
 22
0.0
 32
0.0
 14
0.0
 24
0.0
 34
0.0
 15
0.0
 25
0.0
 35
0.0
146
0.0
 13
0.0
 23
0.0
 33
0.0
 16
1.0
 26
0.0
 36
0.0
 17
0.0
 27
1.0
 37
0.0
 76
     0
330
23
  0
LAYOUT
  5
22
102
{ACAD_XDICTIONARY
360
1964
102
}
102
{ACAD_REACTORS
330
1A
102
}
330
1A
100
AcDbPlotSettings
  1

  2
Ploter HP500
  4
User268
  6

 40
4.995333194732666
 41
16.97565841674804
 42
4.995330810546875
 43
16.97567749023437
 44
209.9733276367187
 45
296.9259948730469
 46
0.0
 47
0.0
 48
0.0
 49
0.0
140
0.0
141
0.0
142
1.0
143
1.0
 70
 11952
 72
     1
 73
     1
 74
     0
  7
sanindusa.ctb
 75
     0
147
1.0
148
-427.5957866592534
149
7.362384574453926
100
AcDbLayout
  1
Model
 70
     1
 71
     0
 10
0.0
 20
0.0
 11
12.0
 21
9.0
 12
0.0
 22
0.0
 32
0.0
 14
0.0
 24
0.0
 34
0.0
 15
0.0
 25
0.0
 35
0.0
146
0.0
 13
0.0
 23
0.0
 33
0.0
 16
1.0
 26
0.0
 36
0.0
 17
0.0
 27
1.0
 37
0.0
 76
     0
330
1F
331
1068
  0
MATERIAL
  5
1072
102
{ACAD_XDICTIONARY
360
1073
102
}
102
{ACAD_REACTORS
330
EE5
102
}
330
EE5
100
AcDbMaterial
  1
ByBlock
 72
     0
 43
0.0008202099737533
 43
0.0
 43
0.0
 43
0.0
 43
0.0
 43
0.0008202099737533
 43
0.0
 43
0.0
 43
0.0
 43
0.0
 43
1.0
 43
0.0
 43
0.0
 43
0.0
 43
0.0
 43
1.0
 77
     0
 47
0.0008202099737533
 47
0.0
 47
0.0
 47
0.0
 47
0.0
 47
0.0008202099737533
 47
0.0
 47
0.0
 47
0.0
 47
0.0
 47
1.0
 47
0.0
 47
0.0
 47
0.0
 47
0.0
 47
1.0
171
     0
 49
0.0008202099737533
 49
0.0
 49
0.0
 49
0.0
 49
0.0
 49
0.0008202099737533
 49
0.0
 49
0.0
 49
0.0
 49
0.0
 49
1.0
 49
0.0
 49
0.0
 49
0.0
 49
0.0
 49
1.0
175
     0
142
0.0008202099737533
142
0.0
142
0.0
142
0.0
142
0.0
142
0.0008202099737533
142
0.0
142
0.0
142
0.0
142
0.0
142
1.0
142
0.0
142
0.0
142
0.0
142
0.0
142
1.0
179
     0
144
0.0008202099737533
144
0.0
144
0.0
144
0.0
144
0.0
144
0.0008202099737533
144
0.0
144
0.0
144
0.0
144
0.0
144
1.0
144
0.0
144
0.0
144
0.0
144
0.0
144
1.0
147
0.0008202099737533
147
0.0
147
0.0
147
0.0
147
0.0
147
0.0008202099737533
147
0.0
147
0.0
147
0.0
147
0.0
147
1.0
147
0.0
147
0.0
147
0.0
147
0.0
147
1.0
  0
MATERIAL
  5
106A
102
{ACAD_XDICTIONARY
360
106B
102
}
102
{ACAD_REACTORS
330
EE5
102
}
330
EE5
100
AcDbMaterial
  1
ByLayer
 72
     0
 43
0.0008202099737533
 43
0.0
 43
0.0
 43
0.0
 43
0.0
 43
0.0008202099737533
 43
0.0
 43
0.0
 43
0.0
 43
0.0
 43
1.0
 43
0.0
 43
0.0
 43
0.0
 43
0.0
 43
1.0
 77
     0
 47
0.0008202099737533
 47
0.0
 47
0.0
 47
0.0
 47
0.0
 47
0.0008202099737533
 47
0.0
 47
0.0
 47
0.0
 47
0.0
 47
1.0
 47
0.0
 47
0.0
 47
0.0
 47
0.0
 47
1.0
171
     0
 49
0.0008202099737533
 49
0.0
 49
0.0
 49
0.0
 49
0.0
 49
0.0008202099737533
 49
0.0
 49
0.0
 49
0.0
 49
0.0
 49
1.0
 49
0.0
 49
0.0
 49
0.0
 49
0.0
 49
1.0
175
     0
142
0.0008202099737533
142
0.0
142
0.0
142
0.0
142
0.0
142
0.0008202099737533
142
0.0
142
0.0
142
0.0
142
0.0
142
1.0
142
0.0
142
0.0
142
0.0
142
0.0
142
1.0
179
     0
144
0.0008202099737533
144
0.0
144
0.0
144
0.0
144
0.0
144
0.0008202099737533
144
0.0
144
0.0
144
0.0
144
0.0
144
1.0
144
0.0
144
0.0
144
0.0
144
0.0
144
1.0
147
0.0008202099737533
147
0.0
147
0.0
147
0.0
147
0.0
147
0.0008202099737533
147
0.0
147
0.0
147
0.0
147
0.0
147
1.0
147
0.0
147
0.0
147
0.0
147
0.0
147
1.0
  0
MATERIAL
  5
107A
102
{ACAD_XDICTIONARY
360
107B
102
}
102
{ACAD_REACTORS
330
EE5
102
}
330
EE5
100
AcDbMaterial
  1
Global
 72
     0
 43
0.0008202099737533
 43
0.0
 43
0.0
 43
0.0
 43
0.0
 43
0.0008202099737533
 43
0.0
 43
0.0
 43
0.0
 43
0.0
 43
1.0
 43
0.0
 43
0.0
 43
0.0
 43
0.0
 43
1.0
 77
     0
 47
0.0008202099737533
 47
0.0
 47
0.0
 47
0.0
 47
0.0
 47
0.0008202099737533
 47
0.0
 47
0.0
 47
0.0
 47
0.0
 47
1.0
 47
0.0
 47
0.0
 47
0.0
 47
0.0
 47
1.0
171
     0
 49
0.0008202099737533
 49
0.0
 49
0.0
 49
0.0
 49
0.0
 49
0.0008202099737533
 49
0.0
 49
0.0
 49
0.0
 49
0.0
 49
1.0
 49
0.0
 49
0.0
 49
0.0
 49
0.0
 49
1.0
175
     0
142
0.0008202099737533
142
0.0
142
0.0
142
0.0
142
0.0
142
0.0008202099737533
142
0.0
142
0.0
142
0.0
142
0.0
142
1.0
142
0.0
142
0.0
142
0.0
142
0.0
142
1.0
179
     0
144
0.0008202099737533
144
0.0
144
0.0
144
0.0
144
0.0
144
0.0008202099737533
144
0.0
144
0.0
144
0.0
144
0.0
144
1.0
144
0.0
144
0.0
144
0.0
144
0.0
144
1.0
147
0.0008202099737533
147
0.0
147
0.0
147
0.0
147
0.0
147
0.0008202099737533
147
0.0
147
0.0
147
0.0
147
0.0
147
1.0
147
0.0
147
0.0
147
0.0
147
0.0
147
1.0
  0
MLEADERSTYLE
  5
10A9
102
{ACAD_REACTORS
330
10A8
102
}
330
10A8
100
AcDbMLeaderStyle
170
     2
171
     1
172
     0
 90
        2
 40
0.0
 41
0.0
173
     1
 91
-1056964608
340
14
 92
       -2
290
     1
 42
2.0
291
     1
 43
0.36
  3
Standard
 44
4.0
300

342
11
174
     1
178
     6
175
     1
176
     0
 93
-1056964608
 45
4.0
292
     0
297
     0
 46
4.0
 94
-1056964608
 47
1.0
 49
1.0
140
1.0
293
     1
141
0.0
294
     1
177
     0
142
1.0
295
     0
296
     0
143
0.125
1001
ACAD_MLEADERVER
1070
     2
  0
MLINESTYLE
  5
18
102
{ACAD_REACTORS
330
17
102
}
330
17
100
AcDbMlineStyle
  2
STANDARD
 70
     0
  3

 62
   256
 51
90.0
 52
90.0
 71
     2
 49
0.5
 62
   256
  6
BYLAYER
 49
-0.5
 62
   256
  6
BYLAYER
  0
ACDBPLACEHOLDER
  5
F
102
{ACAD_REACTORS
330
E
102
}
330
E
  0
SCALE
  5
1097
102
{ACAD_REACTORS
330
1096
102
}
330
1096
100
AcDbScale
 70
     0
300
1:1
140
1.0
141
1.0
290
     1
  0
SCALE
  5
1098
102
{ACAD_REACTORS
330
1096
102
}
330
1096
100
AcDbScale
 70
     0
300
1:2
140
1.0
141
2.0
290
     0
  0
SCALE
  5
1099
102
{ACAD_REACTORS
330
1096
102
}
330
1096
100
AcDbScale
 70
     0
300
1:4
140
1.0
141
4.0
290
     0
  0
SCALE
  5
109A
102
{ACAD_REACTORS
330
1096
102
}
330
1096
100
AcDbScale
 70
     0
300
1:5
140
1.0
141
5.0
290
     0
  0
SCALE
  5
109B
102
{ACAD_REACTORS
330
1096
102
}
330
1096
100
AcDbScale
 70
     0
300
1:8
140
1.0
141
8.0
290
     0
  0
SCALE
  5
109C
102
{ACAD_REACTORS
330
1096
102
}
330
1096
100
AcDbScale
 70
     0
300
1:10
140
1.0
141
10.0
290
     0
  0
SCALE
  5
109D
102
{ACAD_REACTORS
330
1096
102
}
330
1096
100
AcDbScale
 70
     0
300
1:16
140
1.0
141
16.0
290
     0
  0
SCALE
  5
109E
102
{ACAD_REACTORS
330
1096
102
}
330
1096
100
AcDbScale
 70
     0
300
1:20
140
1.0
141
20.0
290
     0
  0
SCALE
  5
109F
102
{ACAD_REACTORS
330
1096
102
}
330
1096
100
AcDbScale
 70
     0
300
1:30
140
1.0
141
30.0
290
     0
  0
SCALE
  5
10A0
102
{ACAD_REACTORS
330
1096
102
}
330
1096
100
AcDbScale
 70
     0
300
1:40
140
1.0
141
40.0
290
     0
  0
SCALE
  5
10A1
102
{ACAD_REACTORS
330
1096
102
}
330
1096
100
AcDbScale
 70
     0
300
1:50
140
1.0
141
50.0
290
     0
  0
SCALE
  5
10A2
102
{ACAD_REACTORS
330
1096
102
}
330
1096
100
AcDbScale
 70
     0
300
1:100
140
1.0
141
100.0
290
     0
  0
SCALE
  5
10A3
102
{ACAD_REACTORS
330
1096
102
}
330
1096
100
AcDbScale
 70
     0
300
2:1
140
2.0
141
1.0
290
     0
  0
SCALE
  5
10A4
102
{ACAD_REACTORS
330
1096
102
}
330
1096
100
AcDbScale
 70
     0
300
4:1
140
4.0
141
1.0
290
     0
  0
SCALE
  5
10A5
102
{ACAD_REACTORS
330
1096
102
}
330
1096
100
AcDbScale
 70
     0
300
8:1
140
8.0
141
1.0
290
     0
  0
SCALE
  5
10A6
102
{ACAD_REACTORS
330
1096
102
}
330
1096
100
AcDbScale
 70
     0
300
10:1
140
10.0
141
1.0
290
     0
  0
SCALE
  5
10A7
102
{ACAD_REACTORS
330
1096
102
}
330
1096
100
AcDbScale
 70
     0
300
100:1
140
100.0
141
1.0
290
     0
  0
TABLESTYLE
  5
EE8
102
{ACAD_XDICTIONARY
360
195C
102
}
102
{ACAD_REACTORS
330
EE7
102
}
330
EE7
100
AcDbTableStyle
  3
Standard
 70
     0
 71
     0
 40
1.5
 41
1.5
280
     0
281
     0
  7
Standard
140
4.5
170
     2
 62
     0
 63
     7
283
     0
274
    -2
284
     1
 64
     0
275
    -2
285
     1
 65
     0
276
    -2
286
     1
 66
     0
277
    -2
287
     1
 67
     0
278
    -2
288
     1
 68
     0
279
    -2
289
     1
 69
     0
  7
Standard
140
6.0
170
     5
 62
     0
 63
     7
283
     0
274
    -2
284
     1
 64
     0
275
    -2
285
     1
 65
     0
276
    -2
286
     1
 66
     0
277
    -2
287
     1
 67
     0
278
    -2
288
     1
 68
     0
279
    -2
289
     1
 69
     0
  7
Standard
140
4.5
170
     5
 62
     0
 63
     7
283
     0
274
    -2
284
     1
 64
     0
275
    -2
285
     1
 65
     0
276
    -2
286
     1
 66
     0
277
    -2
287
     1
 67
     0
278
    -2
288
     1
 68
     0
279
    -2
289
     1
 69
     0
  0
VISUALSTYLE
  5
1088
102
{ACAD_XDICTIONARY
360
1976
102
}
102
{ACAD_REACTORS
330
1082
102
}
330
1082
100
AcDbVisualStyle
  2
2dWireframe
 70
     4
 71
     0
 72
     2
 73
     0
 90
        0
 40
-0.6
 41
-30.0
 62
     5
 63
     7
 74
     1
 91
        4
 64
     7
 65
   257
 75
     1
175
     1
 42
1.0
 92
        0
 66
   257
 43
1.0
 76
     1
 77
     6
 78
     2
 67
     7
 79
     5
170
     0
171
     0
290
     0
174
     0
 93
        1
 44
0.0
173
     0
291
     0
 45
0.0
1001
ACAD
1000
AcDbSavedByObjectVersion
1070
     0
  0
VISUALSTYLE
  5
108A
102
{ACAD_XDICTIONARY
360
197A
102
}
102
{ACAD_REACTORS
330
1082
102
}
330
1082
100
AcDbVisualStyle
  2
3D Hidden
 70
     6
 71
     1
 72
     2
 73
     2
 90
        0
 40
-0.6
 41
-30.0
 62
     5
 63
     7
 74
     2
 91
        2
 64
     7
 65
   257
 75
     2
175
     1
 42
179.0
 92
        0
 66
   257
 43
1.0
 76
     1
 77
     6
 78
     2
 67
     7
 79
     3
170
     0
171
     0
290
     0
174
     0
 93
        1
 44
0.0
173
     0
291
     0
 45
0.0
1001
ACAD
1000
AcDbSavedByObjectVersion
1070
     0
  0
VISUALSTYLE
  5
1089
102
{ACAD_XDICTIONARY
360
1978
102
}
102
{ACAD_REACTORS
330
1082
102
}
330
1082
100
AcDbVisualStyle
  2
3dWireframe
 70
     5
 71
     0
 72
     2
 73
     0
 90
        0
 40
-0.6
 41
-30.0
 62
     5
 63
     7
 74
     1
 91
        4
 64
     7
 65
   257
 75
     1
175
     1
 42
1.0
 92
        0
 66
   257
 43
1.0
 76
     1
 77
     6
 78
     2
 67
     7
 79
     5
170
     0
171
     0
290
     0
174
     0
 93
        1
 44
0.0
173
     0
291
     0
 45
0.0
1001
ACAD
1000
AcDbSavedByObjectVersion
1070
     0
  0
VISUALSTYLE
  5
1087
102
{ACAD_XDICTIONARY
360
1974
102
}
102
{ACAD_REACTORS
330
1082
102
}
330
1082
100
AcDbVisualStyle
  2
Basic
 70
     7
 71
     1
 72
     0
 73
     1
 90
        0
 40
-0.6
 41
-30.0
 62
     5
 63
     7
 74
     0
 91
        4
 64
     7
 65
   257
 75
     1
175
     1
 42
1.0
 92
        8
 66
     7
 43
1.0
 76
     1
 77
     6
 78
     2
 67
     7
 79
     5
170
     0
171
     0
290
     0
174
     0
 93
        1
 44
0.0
173
     0
291
     1
 45
0.0
1001
ACAD
1000
AcDbSavedByObjectVersion
1070
     0
  0
VISUALSTYLE
  5
108E
102
{ACAD_XDICTIONARY
360
1982
102
}
102
{ACAD_REACTORS
330
1082
102
}
330
1082
100
AcDbVisualStyle
  2
Brighten
 70
    12
 71
     2
 72
     2
 73
     0
 90
        0
 40
-0.6
 41
-30.0
 62
     5
 63
     7
 74
     1
 91
        4
 64
     7
 65
   257
 75
     1
175
     1
 42
1.0
 92
        8
 66
     7
 43
1.0
 76
     1
 77
     6
 78
     2
 67
     7
 79
     5
170
     0
171
     0
290
     0
174
     0
 93
        1
 44
50.0
173
     0
291
     1
 45
0.0
1001
ACAD
1000
AcDbSavedByObjectVersion
1070
     0
  0
VISUALSTYLE
  5
1092
102
{ACAD_XDICTIONARY
360
198A
102
}
102
{ACAD_REACTORS
330
1082
102
}
330
1082
100
AcDbVisualStyle
  2
ColorChange
 70
    16
 71
     2
 72
     2
 73
     3
 90
        0
 40
-0.6
 41
-30.0
 62
     5
 63
     8
 74
     1
 91
        4
 64
     7
 65
   257
 75
     1
175
     1
 42
1.0
 92
        8
 66
     8
 43
1.0
 76
     1
 77
     6
 78
     2
 67
     7
 79
     5
170
     0
171
     0
290
     0
174
     0
 93
        1
 44
0.0
173
     0
291
     1
 45
0.0
1001
ACAD
1000
AcDbSavedByObjectVersion
1070
     0
  0
VISUALSTYLE
  5
108B
102
{ACAD_XDICTIONARY
360
197C
102
}
102
{ACAD_REACTORS
330
1082
102
}
330
1082
100
AcDbVisualStyle
  2
Conceptual
 70
     9
 71
     3
 72
     2
 73
     0
 90
        0
 40
-0.6
 41
-30.0
 62
     5
 63
     7
 74
     2
 91
        2
 64
     7
 65
   257
 75
     1
175
     1
 42
179.0
 92
        8
 66
     7
 43
1.0
 76
     1
 77
     6
 78
     2
 67
     7
 79
     3
170
     0
171
     0
290
     0
174
     0
 93
        1
 44
0.0
173
     0
291
     0
 45
0.0
1001
ACAD
1000
AcDbSavedByObjectVersion
1070
     0
  0
VISUALSTYLE
  5
108D
102
{ACAD_XDICTIONARY
360
1980
102
}
102
{ACAD_REACTORS
330
1082
102
}
330
1082
100
AcDbVisualStyle
  2
Dim
 70
    11
 71
     2
 72
     2
 73
     0
 90
        0
 40
-0.6
 41
-30.0
 62
     5
 63
     7
 74
     1
 91
        4
 64
     7
 65
   257
 75
     1
175
     1
 42
1.0
 92
        8
 66
     7
 43
1.0
 76
     1
 77
     6
 78
     2
 67
     7
 79
     5
170
     0
171
     0
290
     0
174
     0
 93
        1
 44
-50.0
173
     0
291
     1
 45
0.0
1001
ACAD
1000
AcDbSavedByObjectVersion
1070
     0
  0
VISUALSTYLE
  5
1095
102
{ACAD_XDICTIONARY
360
1990
102
}
102
{ACAD_REACTORS
330
1082
102
}
330
1082
100
AcDbVisualStyle
  2
EdgeColorOff
 70
    22
 71
     2
 72
     2
 73
     0
 90
        0
 40
-0.6
 41
-30.0
 62
     5
 63
     7
 74
     1
 91
        4
 64
     7
 65
   257
 75
     1
175
     1
 42
1.0
 92
        8
 66
     7
 43
1.0
 76
     1
 77
     6
 78
     2
 67
     7
 79
     5
170
     0
171
     0
290
     0
174
     0
 93
        1
 44
0.0
173
     0
291
     1
 45
0.0
1001
ACAD
1000
AcDbSavedByObjectVersion
1070
     0
  0
VISUALSTYLE
  5
1091
102
{ACAD_XDICTIONARY
360
1988
102
}
102
{ACAD_REACTORS
330
1082
102
}
330
1082
100
AcDbVisualStyle
  2
Facepattern
 70
    15
 71
     2
 72
     2
 73
     0
 90
        0
 40
-0.6
 41
-30.0
 62
     5
 63
     7
 74
     1
 91
        4
 64
     7
 65
   257
 75
     1
175
     1
 42
1.0
 92
        8
 66
     7
 43
1.0
 76
     1
 77
     6
 78
     2
 67
     7
 79
     5
170
     0
171
     0
290
     0
174
     0
 93
        1
 44
0.0
173
     0
291
     1
 45
0.0
1001
ACAD
1000
AcDbSavedByObjectVersion
1070
     0
  0
VISUALSTYLE
  5
1083
102
{ACAD_XDICTIONARY
360
196C
102
}
102
{ACAD_REACTORS
330
1082
102
}
330
1082
100
AcDbVisualStyle
  2
Flat
 70
     0
 71
     2
 72
     1
 73
     1
 90
        2
 40
-0.6
 41
30.0
 62
     5
 63
     7
 74
     0
 91
        4
 64
     7
 65
   257
 75
     1
175
     1
 42
1.0
 92
        8
 66
     7
 43
1.0
 76
     1
 77
     6
 78
     2
 67
     7
 79
     5
170
     0
171
     0
290
     0
174
     0
 93
       13
 44
0.0
173
     0
291
     1
 45
0.0
1001
ACAD
1000
AcDbSavedByObjectVersion
1070
     0
  0
VISUALSTYLE
  5
1084
102
{ACAD_XDICTIONARY
360
196E
102
}
102
{ACAD_REACTORS
330
1082
102
}
330
1082
100
AcDbVisualStyle
  2
FlatWithEdges
 70
     1
 71
     2
 72
     1
 73
     1
 90
        2
 40
-0.6
 41
30.0
 62
     5
 63
     7
 74
     1
 91
        4
 64
     7
 65
   257
 75
     1
175
     1
 42
1.0
 92
        0
 66
   257
 43
1.0
 76
     1
 77
     6
 78
     2
 67
     7
 79
     5
170
     0
171
     0
290
     0
174
     0
 93
       13
 44
0.0
173
     0
291
     1
 45
0.0
1001
ACAD
1000
AcDbSavedByObjectVersion
1070
     0
  0
VISUALSTYLE
  5
1085
102
{ACAD_XDICTIONARY
360
1970
102
}
102
{ACAD_REACTORS
330
1082
102
}
330
1082
100
AcDbVisualStyle
  2
Gouraud
 70
     2
 71
     2
 72
     2
 73
     1
 90
        2
 40
-0.6
 41
30.0
 62
     5
 63
     7
 74
     0
 91
        4
 64
     7
 65
   257
 75
     1
175
     1
 42
1.0
 92
        0
 66
     7
 43
1.0
 76
     1
 77
     6
 78
     2
 67
     7
 79
     5
170
     0
171
     0
290
     0
174
     0
 93
       13
 44
0.0
173
     0
291
     1
 45
0.0
1001
ACAD
1000
AcDbSavedByObjectVersion
1070
     0
  0
VISUALSTYLE
  5
1086
102
{ACAD_XDICTIONARY
360
1972
102
}
102
{ACAD_REACTORS
330
1082
102
}
330
1082
100
AcDbVisualStyle
  2
GouraudWithEdges
 70
     3
 71
     2
 72
     2
 73
     1
 90
        2
 40
-0.6
 41
30.0
 62
     5
 63
     7
 74
     1
 91
        4
 64
     7
 65
   257
 75
     1
175
     1
 42
1.0
 92
        0
 66
   257
 43
1.0
 76
     1
 77
     6
 78
     2
 67
     7
 79
     5
170
     0
171
     0
290
     0
174
     0
 93
       13
 44
0.0
173
     0
291
     1
 45
0.0
1001
ACAD
1000
AcDbSavedByObjectVersion
1070
     0
  0
VISUALSTYLE
  5
1093
102
{ACAD_XDICTIONARY
360
198C
102
}
102
{ACAD_REACTORS
330
1082
102
}
330
1082
100
AcDbVisualStyle
  2
JitterOff
 70
    20
 71
     2
 72
     2
 73
     0
 90
        0
 40
-0.6
 41
-30.0
 62
     5
 63
     7
 74
     1
 91
        4
 64
     7
 65
   257
 75
     1
175
     1
 42
1.0
 92
       10
 66
     7
 43
1.0
 76
     1
 77
     6
 78
     2
 67
     7
 79
     5
170
     0
171
     0
290
     0
174
     0
 93
        1
 44
0.0
173
     0
291
     1
 45
0.0
1001
ACAD
1000
AcDbSavedByObjectVersion
1070
     0
  0
VISUALSTYLE
  5
1090
102
{ACAD_XDICTIONARY
360
1986
102
}
102
{ACAD_REACTORS
330
1082
102
}
330
1082
100
AcDbVisualStyle
  2
Linepattern
 70
    14
 71
     2
 72
     2
 73
     0
 90
        0
 40
-0.6
 41
-30.0
 62
     5
 63
     7
 74
     1
 91
        4
 64
     7
 65
   257
 75
     7
175
     7
 42
1.0
 92
        8
 66
     7
 43
1.0
 76
     1
 77
     6
 78
     2
 67
     7
 79
     5
170
     0
171
     0
290
     0
174
     0
 93
        1
 44
0.0
173
     0
291
     1
 45
0.0
1001
ACAD
1000
AcDbSavedByObjectVersion
1070
     0
  0
VISUALSTYLE
  5
1094
102
{ACAD_XDICTIONARY
360
198E
102
}
102
{ACAD_REACTORS
330
1082
102
}
330
1082
100
AcDbVisualStyle
  2
OverhangOff
 70
    21
 71
     2
 72
     2
 73
     0
 90
        0
 40
-0.6
 41
-30.0
 62
     5
 63
     7
 74
     1
 91
        4
 64
     7
 65
   257
 75
     1
175
     1
 42
1.0
 92
        9
 66
     7
 43
1.0
 76
     1
 77
     6
 78
     2
 67
     7
 79
     5
170
     0
171
     0
290
     0
174
     0
 93
        1
 44
0.0
173
     0
291
     1
 45
0.0
1001
ACAD
1000
AcDbSavedByObjectVersion
1070
     0
  0
VISUALSTYLE
  5
108C
102
{ACAD_XDICTIONARY
360
197E
102
}
102
{ACAD_REACTORS
330
1082
102
}
330
1082
100
AcDbVisualStyle
  2
Realistic
 70
     8
 71
     2
 72
     2
 73
     0
 90
        0
 40
-0.6
 41
-30.0
 62
     5
 63
     7
 74
     1
 91
        0
 64
     7
 65
   257
 75
     1
175
     1
 42
1.0
 92
        8
 66
     8
 43
1.0
 76
     1
 77
     6
 78
     2
 67
     7
 79
     5
170
     0
171
     0
290
     0
174
     0
 93
       13
 44
0.0
173
     0
291
     0
 45
0.0
1001
ACAD
1000
AcDbSavedByObjectVersion
1070
     0
  0
VISUALSTYLE
  5
108F
102
{ACAD_XDICTIONARY
360
1984
102
}
102
{ACAD_REACTORS
330
1082
102
}
330
1082
100
AcDbVisualStyle
  2
Thicken
 70
    13
 71
     2
 72
     2
 73
     0
 90
        0
 40
-0.6
 41
-30.0
 62
     5
 63
     7
 74
     1
 91
        4
 64
     7
 65
   257
 75
     1
175
     1
 42
1.0
 92
       12
 66
     7
 43
1.0
 76
     1
 77
     6
 78
     2
 67
     7
 79
     5
170
     0
171
     0
290
     0
174
     0
 93
        1
 44
0.0
173
     0
291
     1
 45
0.0
1001
ACAD
1000
AcDbSavedByObjectVersion
1070
     0
  0
DICTIONARYVAR
  5
1958
102
{ACAD_REACTORS
330
3D
102
}
330
3D
100
DictionaryVariables
280
     0
  1
1:1
  0
DICTIONARYVAR
  5
1957
102
{ACAD_REACTORS
330
3D
102
}
330
3D
100
DictionaryVariables
280
     0
  1
STANDARD
  0
DICTIONARYVAR
  5
1049
102
{ACAD_REACTORS
330
3D
102
}
330
3D
100
DictionaryVariables
280
     0
  1
STANDARD
  0
DICTIONARYVAR
  5
3F
102
{ACAD_REACTORS
330
3D
102
}
330
3D
100
DictionaryVariables
280
     0
  1
2
  0
DICTIONARYVAR
  5
3E
102
{ACAD_REACTORS
330
3D
102
}
330
3D
100
DictionaryVariables
280
     0
  1
1
  0
DICTIONARYVAR
  5
195A
102
{ACAD_REACTORS
330
3D
102
}
330
3D
100
DictionaryVariables
280
     0
  1
0
  0
DICTIONARYVAR
  5
1959
102
{ACAD_REACTORS
330
3D
102
}
330
3D
100
DictionaryVariables
280
     0
  1
127
  0
DICTIONARYVAR
  5
195B
102
{ACAD_REACTORS
330
3D
102
}
330
3D
100
DictionaryVariables
280
     0
  1
0
  0
XRECORD
  5
1067
102
{ACAD_REACTORS
330
1066
102
}
330
1066
100
AcDbXrecord
280
     1
  0
DICTIONARY
  5
1962
330
1E
100
AcDbDictionary
280
     1
281
     1
  3
ACAD_XREC_ROUNDTRIP
360
1963
  0
DICTIONARY
  5
1966
330
26
100
AcDbDictionary
280
     1
281
     1
  3
ACAD_XREC_ROUNDTRIP
360
1967
  0
DICTIONARY
  5
1964
330
22
100
AcDbDictionary
280
     1
281
     1
  3
ACAD_XREC_ROUNDTRIP
360
1965
  0
DICTIONARY
  5
1073
330
1072
100
AcDbDictionary
280
     1
281
     1
  3
ACAD_XREC_ROUNDTRIP
360
196A
  3
BUMPTILE
360
1075
  3
DIFFUSETILE
360
1074
  3
OPACITYTILE
360
1078
  3
REFLECTIONTILE
360
1077
  3
REFRACTIONTILE
360
1079
  3
SPECULARTILE
360
1076
  0
DICTIONARY
  5
106B
330
106A
100
AcDbDictionary
280
     1
281
     1
  3
ACAD_XREC_ROUNDTRIP
360
1969
  3
BUMPTILE
360
106D
  3
DIFFUSETILE
360
106C
  3
OPACITYTILE
360
1070
  3
REFLECTIONTILE
360
106F
  3
REFRACTIONTILE
360
1071
  3
SPECULARTILE
360
106E
  0
DICTIONARY
  5
107B
330
107A
100
AcDbDictionary
280
     1
281
     1
  3
ACAD_XREC_ROUNDTRIP
360
196B
  3
BUMPTILE
360
107D
  3
DIFFUSETILE
360
107C
  3
OPACITYTILE
360
1080
  3
REFLECTIONTILE
360
107F
  3
REFRACTIONTILE
360
1081
  3
SPECULARTILE
360
107E
  0
DICTIONARY
  5
195C
330
EE8
100
AcDbDictionary
280
     1
281
     1
  3
ACAD_ROUNDTRIP_2008_TABLESTYLE_CELLSTYLEMAP
360
195D
  3
ACAD_XREC_ROUNDTRIP
360
1968
  0
DICTIONARY
  5
1976
330
1088
100
AcDbDictionary
280
     1
281
     1
  3
ACAD_XREC_ROUNDTRIP
360
1977
  0
DICTIONARY
  5
197A
330
108A
100
AcDbDictionary
280
     1
281
     1
  3
ACAD_XREC_ROUNDTRIP
360
197B
  0
DICTIONARY
  5
1978
330
1089
100
AcDbDictionary
280
     1
281
     1
  3
ACAD_XREC_ROUNDTRIP
360
1979
  0
DICTIONARY
  5
1974
330
1087
100
AcDbDictionary
280
     1
281
     1
  3
ACAD_XREC_ROUNDTRIP
360
1975
  0
DICTIONARY
  5
1982
330
108E
100
AcDbDictionary
280
     1
281
     1
  3
ACAD_XREC_ROUNDTRIP
360
1983
  0
DICTIONARY
  5
198A
330
1092
100
AcDbDictionary
280
     1
281
     1
  3
ACAD_XREC_ROUNDTRIP
360
198B
  0
DICTIONARY
  5
197C
330
108B
100
AcDbDictionary
280
     1
281
     1
  3
ACAD_XREC_ROUNDTRIP
360
197D
  0
DICTIONARY
  5
1980
330
108D
100
AcDbDictionary
280
     1
281
     1
  3
ACAD_XREC_ROUNDTRIP
360
1981
  0
DICTIONARY
  5
1990
330
1095
100
AcDbDictionary
280
     1
281
     1
  3
ACAD_XREC_ROUNDTRIP
360
1991
  0
DICTIONARY
  5
1988
330
1091
100
AcDbDictionary
280
     1
281
     1
  3
ACAD_XREC_ROUNDTRIP
360
1989
  0
DICTIONARY
  5
196C
330
1083
100
AcDbDictionary
280
     1
281
     1
  3
ACAD_XREC_ROUNDTRIP
360
196D
  0
DICTIONARY
  5
196E
330
1084
100
AcDbDictionary
280
     1
281
     1
  3
ACAD_XREC_ROUNDTRIP
360
196F
  0
DICTIONARY
  5
1970
330
1085
100
AcDbDictionary
280
     1
281
     1
  3
ACAD_XREC_ROUNDTRIP
360
1971
  0
DICTIONARY
  5
1972
330
1086
100
AcDbDictionary
280
     1
281
     1
  3
ACAD_XREC_ROUNDTRIP
360
1973
  0
DICTIONARY
  5
198C
330
1093
100
AcDbDictionary
280
     1
281
     1
  3
ACAD_XREC_ROUNDTRIP
360
198D
  0
DICTIONARY
  5
1986
330
1090
100
AcDbDictionary
280
     1
281
     1
  3
ACAD_XREC_ROUNDTRIP
360
1987
  0
DICTIONARY
  5
198E
330
1094
100
AcDbDictionary
280
     1
281
     1
  3
ACAD_XREC_ROUNDTRIP
360
198F
  0
DICTIONARY
  5
197E
330
108C
100
AcDbDictionary
280
     1
281
     1
  3
ACAD_XREC_ROUNDTRIP
360
197F
  0
DICTIONARY
  5
1984
330
108F
100
AcDbDictionary
280
     1
281
     1
  3
ACAD_XREC_ROUNDTRIP
360
1985
  0
XRECORD
  5
1963
102
{ACAD_REACTORS
330
1962
102
}
330
1962
100
AcDbXrecord
280
     1
102
SHADEPLOT
 70
     0
102
SHADEPLOTRESLEVEL
 70
     2
102
SHADEPLOTCUSTOMDPI
 70
   300
  0
XRECORD
  5
1967
102
{ACAD_REACTORS
330
1966
102
}
330
1966
100
AcDbXrecord
280
     1
102
SHADEPLOT
 70
     0
102
SHADEPLOTRESLEVEL
 70
     2
102
SHADEPLOTCUSTOMDPI
 70
   300
  0
XRECORD
  5
1965
102
{ACAD_REACTORS
330
1964
102
}
330
1964
100
AcDbXrecord
280
     1
102
SHADEPLOT
 70
     0
102
SHADEPLOTRESLEVEL
 70
     2
102
SHADEPLOTCUSTOMDPI
 70
   300
  0
XRECORD
  5
196A
102
{ACAD_REACTORS
330
1073
102
}
330
1073
100
AcDbXrecord
280
     1
102
MATERIAL
148
0.0
149
0.0
149
0.0
 93
        0
 94
      127
282
     0
 72
     0
 77
     0
171
     0
175
     0
179
     0
273
     0
  0
XRECORD
  5
1075
102
{ACAD_REACTORS
330
1073
102
}
330
1073
100
AcDbXrecord
280
     1
270
     1
271
     1
  0
XRECORD
  5
1074
102
{ACAD_REACTORS
330
1073
102
}
330
1073
100
AcDbXrecord
280
     1
270
     1
271
     1
  0
XRECORD
  5
1078
102
{ACAD_REACTORS
330
1073
102
}
330
1073
100
AcDbXrecord
280
     1
270
     1
271
     1
  0
XRECORD
  5
1077
102
{ACAD_REACTORS
330
1073
102
}
330
1073
100
AcDbXrecord
280
     1
270
     1
271
     1
  0
XRECORD
  5
1079
102
{ACAD_REACTORS
330
1073
102
}
330
1073
100
AcDbXrecord
280
     1
270
     1
271
     1
  0
XRECORD
  5
1076
102
{ACAD_REACTORS
330
1073
102
}
330
1073
100
AcDbXrecord
280
     1
270
     1
271
     1
  0
XRECORD
  5
1969
102
{ACAD_REACTORS
330
106B
102
}
330
106B
100
AcDbXrecord
280
     1
102
MATERIAL
148
0.0
149
0.0
149
0.0
 93
        0
 94
      127
282
     0
 72
     0
 77
     0
171
     0
175
     0
179
     0
273
     0
  0
XRECORD
  5
106D
102
{ACAD_REACTORS
330
106B
102
}
330
106B
100
AcDbXrecord
280
     1
270
     1
271
     1
  0
XRECORD
  5
106C
102
{ACAD_REACTORS
330
106B
102
}
330
106B
100
AcDbXrecord
280
     1
270
     1
271
     1
  0
XRECORD
  5
1070
102
{ACAD_REACTORS
330
106B
102
}
330
106B
100
AcDbXrecord
280
     1
270
     1
271
     1
  0
XRECORD
  5
106F
102
{ACAD_REACTORS
330
106B
102
}
330
106B
100
AcDbXrecord
280
     1
270
     1
271
     1
  0
XRECORD
  5
1071
102
{ACAD_REACTORS
330
106B
102
}
330
106B
100
AcDbXrecord
280
     1
270
     1
271
     1
  0
XRECORD
  5
106E
102
{ACAD_REACTORS
330
106B
102
}
330
106B
100
AcDbXrecord
280
     1
270
     1
271
     1
  0
XRECORD
  5
196B
102
{ACAD_REACTORS
330
107B
102
}
330
107B
100
AcDbXrecord
280
     1
102
MATERIAL
148
0.0
149
0.0
149
0.0
 93
        0
 94
      127
282
     0
 72
     0
 77
     0
171
     0
175
     0
179
     0
273
     0
  0
XRECORD
  5
107D
102
{ACAD_REACTORS
330
107B
102
}
330
107B
100
AcDbXrecord
280
     1
270
     1
271
     1
  0
XRECORD
  5
107C
102
{ACAD_REACTORS
330
107B
102
}
330
107B
100
AcDbXrecord
280
     1
270
     1
271
     1
  0
XRECORD
  5
1080
102
{ACAD_REACTORS
330
107B
102
}
330
107B
100
AcDbXrecord
280
     1
270
     1
271
     1
  0
XRECORD
  5
107F
102
{ACAD_REACTORS
330
107B
102
}
330
107B
100
AcDbXrecord
280
     1
270
     1
271
     1
  0
XRECORD
  5
1081
102
{ACAD_REACTORS
330
107B
102
}
330
107B
100
AcDbXrecord
280
     1
270
     1
271
     1
  0
XRECORD
  5
107E
102
{ACAD_REACTORS
330
107B
102
}
330
107B
100
AcDbXrecord
280
     1
270
     1
271
     1
  0
CELLSTYLEMAP
  5
195D
102
{ACAD_REACTORS
330
195C
102
}
330
195C
100
AcDbCellStyleMap
 90
        3
300
CELLSTYLE
  1
TABLEFORMAT_BEGIN
 90
        5
170
     1
 91
        0
 92
    32768
 62
   257
 93
        1
300
CONTENTFORMAT
  1
CONTENTFORMAT_BEGIN
 90
        0
 91
        0
 92
        4
 93
        0
300

 40
0.0
140
1.0
 94
        5
 62
     0
340
11
144
6.0
309
CONTENTFORMAT_END
171
     1
301
MARGIN
  1
CELLMARGIN_BEGIN
 40
1.5
 40
1.5
 40
1.5
 40
1.5
 40
0.18
 40
0.18
309
CELLMARGIN_END
 94
        6
 95
        1
302
GRIDFORMAT
  1
GRIDFORMAT_BEGIN
 90
        0
 91
        1
 62
     0
 92
       -2
340
0
 93
        0
 40
0.045
309
GRIDFORMAT_END
 95
        2
302
GRIDFORMAT
  1
GRIDFORMAT_BEGIN
 90
        0
 91
        1
 62
     0
 92
       -2
340
0
 93
        0
 40
0.045
309
GRIDFORMAT_END
 95
        4
302
GRIDFORMAT
  1
GRIDFORMAT_BEGIN
 90
        0
 91
        1
 62
     0
 92
       -2
340
0
 93
        0
 40
0.045
309
GRIDFORMAT_END
 95
        8
302
GRIDFORMAT
  1
GRIDFORMAT_BEGIN
 90
        0
 91
        1
 62
     0
 92
       -2
340
0
 93
        0
 40
0.045
309
GRIDFORMAT_END
 95
       16
302
GRIDFORMAT
  1
GRIDFORMAT_BEGIN
 90
        0
 91
        1
 62
     0
 92
       -2
340
0
 93
        0
 40
0.045
309
GRIDFORMAT_END
 95
       32
302
GRIDFORMAT
  1
GRIDFORMAT_BEGIN
 90
        0
 91
        1
 62
     0
 92
       -2
340
0
 93
        0
 40
0.045
309
GRIDFORMAT_END
309
TABLEFORMAT_END
  1
CELLSTYLE_BEGIN
 90
        1
 91
        1
300
_TITLE
309
CELLSTYLE_END
300
CELLSTYLE
  1
TABLEFORMAT_BEGIN
 90
        5
170
     1
 91
        0
 92
        0
 62
   257
 93
        1
300
CONTENTFORMAT
  1
CONTENTFORMAT_BEGIN
 90
        0
 91
        0
 92
        4
 93
        0
300

 40
0.0
140
1.0
 94
        5
 62
     0
340
11
144
4.5
309
CONTENTFORMAT_END
171
     1
301
MARGIN
  1
CELLMARGIN_BEGIN
 40
1.5
 40
1.5
 40
1.5
 40
1.5
 40
0.18
 40
0.18
309
CELLMARGIN_END
 94
        6
 95
        1
302
GRIDFORMAT
  1
GRIDFORMAT_BEGIN
 90
        0
 91
        1
 62
     0
 92
       -2
340
0
 93
        0
 40
0.045
309
GRIDFORMAT_END
 95
        2
302
GRIDFORMAT
  1
GRIDFORMAT_BEGIN
 90
        0
 91
        1
 62
     0
 92
       -2
340
0
 93
        0
 40
0.045
309
GRIDFORMAT_END
 95
        4
302
GRIDFORMAT
  1
GRIDFORMAT_BEGIN
 90
        0
 91
        1
 62
     0
 92
       -2
340
0
 93
        0
 40
0.045
309
GRIDFORMAT_END
 95
        8
302
GRIDFORMAT
  1
GRIDFORMAT_BEGIN
 90
        0
 91
        1
 62
     0
 92
       -2
340
0
 93
        0
 40
0.045
309
GRIDFORMAT_END
 95
       16
302
GRIDFORMAT
  1
GRIDFORMAT_BEGIN
 90
        0
 91
        1
 62
     0
 92
       -2
340
0
 93
        0
 40
0.045
309
GRIDFORMAT_END
 95
       32
302
GRIDFORMAT
  1
GRIDFORMAT_BEGIN
 90
        0
 91
        1
 62
     0
 92
       -2
340
0
 93
        0
 40
0.045
309
GRIDFORMAT_END
309
TABLEFORMAT_END
  1
CELLSTYLE_BEGIN
 90
        2
 91
        1
300
_HEADER
309
CELLSTYLE_END
300
CELLSTYLE
  1
TABLEFORMAT_BEGIN
 90
        5
170
     1
 91
        0
 92
        0
 62
   257
 93
        1
300
CONTENTFORMAT
  1
CONTENTFORMAT_BEGIN
 90
        0
 91
        0
 92
        4
 93
        0
300

 40
0.0
140
1.0
 94
        2
 62
     0
340
11
144
4.5
309
CONTENTFORMAT_END
171
     1
301
MARGIN
  1
CELLMARGIN_BEGIN
 40
1.5
 40
1.5
 40
1.5
 40
1.5
 40
0.18
 40
0.18
309
CELLMARGIN_END
 94
        6
 95
        1
302
GRIDFORMAT
  1
GRIDFORMAT_BEGIN
 90
        0
 91
        1
 62
     0
 92
       -2
340
0
 93
        0
 40
0.045
309
GRIDFORMAT_END
 95
        2
302
GRIDFORMAT
  1
GRIDFORMAT_BEGIN
 90
        0
 91
        1
 62
     0
 92
       -2
340
0
 93
        0
 40
0.045
309
GRIDFORMAT_END
 95
        4
302
GRIDFORMAT
  1
GRIDFORMAT_BEGIN
 90
        0
 91
        1
 62
     0
 92
       -2
340
0
 93
        0
 40
0.045
309
GRIDFORMAT_END
 95
        8
302
GRIDFORMAT
  1
GRIDFORMAT_BEGIN
 90
        0
 91
        1
 62
     0
 92
       -2
340
0
 93
        0
 40
0.045
309
GRIDFORMAT_END
 95
       16
302
GRIDFORMAT
  1
GRIDFORMAT_BEGIN
 90
        0
 91
        1
 62
     0
 92
       -2
340
0
 93
        0
 40
0.045
309
GRIDFORMAT_END
 95
       32
302
GRIDFORMAT
  1
GRIDFORMAT_BEGIN
 90
        0
 91
        1
 62
     0
 92
       -2
340
0
 93
        0
 40
0.045
309
GRIDFORMAT_END
309
TABLEFORMAT_END
  1
CELLSTYLE_BEGIN
 90
        3
 91
        2
300
_DATA
309
CELLSTYLE_END
  0
XRECORD
  5
1968
102
{ACAD_REACTORS
330
195C
102
}
330
195C
100
AcDbXrecord
280
     1
102
ACAD_ROUNDTRIP_PRE2007_TABLESTYLE
 90
        4
 91
        0
  1

 92
        4
 93
        0
  2

 94
        4
 95
        0
  3

  0
XRECORD
  5
1977
102
{ACAD_REACTORS
330
1976
102
}
330
1976
100
AcDbXrecord
280
     1
102
RTVSPropertyOp0
 70
     1
102
RTVSPropertyOp1
 70
     1
102
RTVSPropertyOp2
 70
     1
102
RTVSPropertyOp3
 70
     1
102
RTVSPropertyOp4
 70
     1
102
RTVSPropertyOp5
 70
     1
102
RTVSPropertyOp6
 70
     1
102
RTVSPropertyOp7
 70
     1
102
RTVSPropertyOp8
 70
     1
102
RTVSPropertyOp9
 70
     1
102
RTVSPropertyOp10
 70
     1
102
RTVSPropertyOp11
 70
     1
102
RTVSPropertyOp12
 70
     1
102
RTVSPropertyOp13
 70
     1
102
RTVSPropertyOp14
 70
     1
102
RTVSPropertyOp15
 70
     1
102
RTVSPropertyOp16
 70
     1
102
RTVSPropertyOp17
 70
     1
102
RTVSPropertyOp18
 70
     1
102
RTVSPropertyOp19
 70
     1
102
RTVSPropertyOp20
 70
     1
102
RTVSPropertyOp21
 70
     1
102
RTVSPropertyOp22
 70
     1
102
RTVSPropertyOp23
 70
     1
102
RTVSPropertyOp24
 70
     1
102
RTVSPropertyOp25
 70
     1
102
RTVSPropertyOp26
 70
     1
102
RTVSPropertyOp27
 70
     1
  0
XRECORD
  5
197B
102
{ACAD_REACTORS
330
197A
102
}
330
197A
100
AcDbXrecord
280
     1
102
RTVSPropertyOp0
 70
     1
102
RTVSPropertyOp1
 70
     1
102
RTVSPropertyOp2
 70
     1
102
RTVSPropertyOp3
 70
     1
102
RTVSPropertyOp4
 70
     1
102
RTVSPropertyOp5
 70
     1
102
RTVSPropertyOp6
 70
     1
102
RTVSPropertyOp7
 70
     1
102
RTVSPropertyOp8
 70
     1
102
RTVSPropertyOp9
 70
     1
102
RTVSPropertyOp10
 70
     1
102
RTVSPropertyOp11
 70
     1
102
RTVSPropertyOp12
 70
     1
102
RTVSPropertyOp13
 70
     1
102
RTVSPropertyOp14
 70
     1
102
RTVSPropertyOp15
 70
     1
102
RTVSPropertyOp16
 70
     1
102
RTVSPropertyOp17
 70
     1
102
RTVSPropertyOp18
 70
     1
102
RTVSPropertyOp19
 70
     1
102
RTVSPropertyOp20
 70
     1
102
RTVSPropertyOp21
 70
     1
102
RTVSPropertyOp22
 70
     1
102
RTVSPropertyOp23
 70
     1
102
RTVSPropertyOp24
 70
     1
102
RTVSPropertyOp25
 70
     1
102
RTVSPropertyOp26
 70
     1
102
RTVSPropertyOp27
 70
     1
  0
XRECORD
  5
1979
102
{ACAD_REACTORS
330
1978
102
}
330
1978
100
AcDbXrecord
280
     1
102
RTVSPropertyOp0
 70
     1
102
RTVSPropertyOp1
 70
     1
102
RTVSPropertyOp2
 70
     1
102
RTVSPropertyOp3
 70
     1
102
RTVSPropertyOp4
 70
     1
102
RTVSPropertyOp5
 70
     1
102
RTVSPropertyOp6
 70
     1
102
RTVSPropertyOp7
 70
     1
102
RTVSPropertyOp8
 70
     1
102
RTVSPropertyOp9
 70
     1
102
RTVSPropertyOp10
 70
     1
102
RTVSPropertyOp11
 70
     1
102
RTVSPropertyOp12
 70
     1
102
RTVSPropertyOp13
 70
     1
102
RTVSPropertyOp14
 70
     1
102
RTVSPropertyOp15
 70
     1
102
RTVSPropertyOp16
 70
     1
102
RTVSPropertyOp17
 70
     1
102
RTVSPropertyOp18
 70
     1
102
RTVSPropertyOp19
 70
     1
102
RTVSPropertyOp20
 70
     1
102
RTVSPropertyOp21
 70
     1
102
RTVSPropertyOp22
 70
     1
102
RTVSPropertyOp23
 70
     1
102
RTVSPropertyOp24
 70
     1
102
RTVSPropertyOp25
 70
     1
102
RTVSPropertyOp26
 70
     1
102
RTVSPropertyOp27
 70
     1
  0
XRECORD
  5
1975
102
{ACAD_REACTORS
330
1974
102
}
330
1974
100
AcDbXrecord
280
     1
102
RTVSPropertyOp0
 70
     1
102
RTVSPropertyOp1
 70
     1
102
RTVSPropertyOp2
 70
     1
102
RTVSPropertyOp3
 70
     1
102
RTVSPropertyOp4
 70
     1
102
RTVSPropertyOp5
 70
     1
102
RTVSPropertyOp6
 70
     1
102
RTVSPropertyOp7
 70
     1
102
RTVSPropertyOp8
 70
     1
102
RTVSPropertyOp9
 70
     1
102
RTVSPropertyOp10
 70
     1
102
RTVSPropertyOp11
 70
     1
102
RTVSPropertyOp12
 70
     1
102
RTVSPropertyOp13
 70
     1
102
RTVSPropertyOp14
 70
     1
102
RTVSPropertyOp15
 70
     1
102
RTVSPropertyOp16
 70
     1
102
RTVSPropertyOp17
 70
     1
102
RTVSPropertyOp18
 70
     1
102
RTVSPropertyOp19
 70
     1
102
RTVSPropertyOp20
 70
     1
102
RTVSPropertyOp21
 70
     1
102
RTVSPropertyOp22
 70
     1
102
RTVSPropertyOp23
 70
     1
102
RTVSPropertyOp24
 70
     1
102
RTVSPropertyOp25
 70
     1
102
RTVSPropertyOp26
 70
     1
102
RTVSPropertyOp27
 70
     1
  0
XRECORD
  5
1983
102
{ACAD_REACTORS
330
1982
102
}
330
1982
100
AcDbXrecord
280
     1
102
RTVSPropertyOp0
 70
     1
102
RTVSPropertyOp1
 70
     1
102
RTVSPropertyOp2
 70
     1
102
RTVSPropertyOp3
 70
     1
102
RTVSPropertyOp4
 70
     1
102
RTVSPropertyOp5
 70
     1
102
RTVSPropertyOp6
 70
     1
102
RTVSPropertyOp7
 70
     1
102
RTVSPropertyOp8
 70
     1
102
RTVSPropertyOp9
 70
     1
102
RTVSPropertyOp10
 70
     1
102
RTVSPropertyOp11
 70
     1
102
RTVSPropertyOp12
 70
     1
102
RTVSPropertyOp13
 70
     1
102
RTVSPropertyOp14
 70
     1
102
RTVSPropertyOp15
 70
     1
102
RTVSPropertyOp16
 70
     1
102
RTVSPropertyOp17
 70
     1
102
RTVSPropertyOp18
 70
     1
102
RTVSPropertyOp19
 70
     1
102
RTVSPropertyOp20
 70
     1
102
RTVSPropertyOp21
 70
     1
102
RTVSPropertyOp22
 70
     1
102
RTVSPropertyOp23
 70
     1
102
RTVSPropertyOp24
 70
     1
102
RTVSPropertyOp25
 70
     1
102
RTVSPropertyOp26
 70
     1
102
RTVSPropertyOp27
 70
     1
  0
XRECORD
  5
198B
102
{ACAD_REACTORS
330
198A
102
}
330
198A
100
AcDbXrecord
280
     1
102
RTVSPropertyOp0
 70
     1
102
RTVSPropertyOp1
 70
     1
102
RTVSPropertyOp2
 70
     1
102
RTVSPropertyOp3
 70
     1
102
RTVSPropertyOp4
 70
     1
102
RTVSPropertyOp5
 70
     1
102
RTVSPropertyOp6
 70
     1
102
RTVSPropertyOp7
 70
     1
102
RTVSPropertyOp8
 70
     1
102
RTVSPropertyOp9
 70
     1
102
RTVSPropertyOp10
 70
     1
102
RTVSPropertyOp11
 70
     1
102
RTVSPropertyOp12
 70
     1
102
RTVSPropertyOp13
 70
     1
102
RTVSPropertyOp14
 70
     1
102
RTVSPropertyOp15
 70
     1
102
RTVSPropertyOp16
 70
     1
102
RTVSPropertyOp17
 70
     1
102
RTVSPropertyOp18
 70
     1
102
RTVSPropertyOp19
 70
     1
102
RTVSPropertyOp20
 70
     1
102
RTVSPropertyOp21
 70
     1
102
RTVSPropertyOp22
 70
     1
102
RTVSPropertyOp23
 70
     1
102
RTVSPropertyOp24
 70
     1
102
RTVSPropertyOp25
 70
     1
102
RTVSPropertyOp26
 70
     1
102
RTVSPropertyOp27
 70
     1
  0
XRECORD
  5
197D
102
{ACAD_REACTORS
330
197C
102
}
330
197C
100
AcDbXrecord
280
     1
102
RTVSPropertyOp0
 70
     1
102
RTVSPropertyOp1
 70
     1
102
RTVSPropertyOp2
 70
     1
102
RTVSPropertyOp3
 70
     1
102
RTVSPropertyOp4
 70
     1
102
RTVSPropertyOp5
 70
     1
102
RTVSPropertyOp6
 70
     1
102
RTVSPropertyOp7
 70
     1
102
RTVSPropertyOp8
 70
     1
102
RTVSPropertyOp9
 70
     1
102
RTVSPropertyOp10
 70
     1
102
RTVSPropertyOp11
 70
     1
102
RTVSPropertyOp12
 70
     1
102
RTVSPropertyOp13
 70
     1
102
RTVSPropertyOp14
 70
     1
102
RTVSPropertyOp15
 70
     1
102
RTVSPropertyOp16
 70
     1
102
RTVSPropertyOp17
 70
     1
102
RTVSPropertyOp18
 70
     1
102
RTVSPropertyOp19
 70
     1
102
RTVSPropertyOp20
 70
     1
102
RTVSPropertyOp21
 70
     1
102
RTVSPropertyOp22
 70
     1
102
RTVSPropertyOp23
 70
     1
102
RTVSPropertyOp24
 70
     1
102
RTVSPropertyOp25
 70
     1
102
RTVSPropertyOp26
 70
     1
102
RTVSPropertyOp27
 70
     1
  0
XRECORD
  5
1981
102
{ACAD_REACTORS
330
1980
102
}
330
1980
100
AcDbXrecord
280
     1
102
RTVSPropertyOp0
 70
     1
102
RTVSPropertyOp1
 70
     1
102
RTVSPropertyOp2
 70
     1
102
RTVSPropertyOp3
 70
     1
102
RTVSPropertyOp4
 70
     1
102
RTVSPropertyOp5
 70
     1
102
RTVSPropertyOp6
 70
     1
102
RTVSPropertyOp7
 70
     1
102
RTVSPropertyOp8
 70
     1
102
RTVSPropertyOp9
 70
     1
102
RTVSPropertyOp10
 70
     1
102
RTVSPropertyOp11
 70
     1
102
RTVSPropertyOp12
 70
     1
102
RTVSPropertyOp13
 70
     1
102
RTVSPropertyOp14
 70
     1
102
RTVSPropertyOp15
 70
     1
102
RTVSPropertyOp16
 70
     1
102
RTVSPropertyOp17
 70
     1
102
RTVSPropertyOp18
 70
     1
102
RTVSPropertyOp19
 70
     1
102
RTVSPropertyOp20
 70
     1
102
RTVSPropertyOp21
 70
     1
102
RTVSPropertyOp22
 70
     1
102
RTVSPropertyOp23
 70
     1
102
RTVSPropertyOp24
 70
     1
102
RTVSPropertyOp25
 70
     1
102
RTVSPropertyOp26
 70
     1
102
RTVSPropertyOp27
 70
     1
  0
XRECORD
  5
1991
102
{ACAD_REACTORS
330
1990
102
}
330
1990
100
AcDbXrecord
280
     1
102
RTVSPropertyOp0
 70
     0
102
RTVSPropertyOp1
 70
     0
102
RTVSPropertyOp2
 70
     0
102
RTVSPropertyOp3
 70
     0
102
RTVSPropertyOp4
 70
     0
102
RTVSPropertyOp5
 70
     0
102
RTVSPropertyOp6
 70
     0
102
RTVSPropertyOp7
 70
     0
102
RTVSPropertyOp8
 70
     0
102
RTVSPropertyOp9
 70
     0
102
RTVSPropertyOp10
 70
     0
102
RTVSPropertyOp11
 70
     0
102
RTVSPropertyOp12
 70
     0
102
RTVSPropertyOp13
 70
     0
102
RTVSPropertyOp14
 70
     2
102
RTVSPropertyOp15
 70
     0
102
RTVSPropertyOp16
 70
     0
102
RTVSPropertyOp17
 70
     0
102
RTVSPropertyOp18
 70
     0
102
RTVSPropertyOp19
 70
     0
102
RTVSPropertyOp20
 70
     0
102
RTVSPropertyOp21
 70
     0
102
RTVSPropertyOp22
 70
     0
102
RTVSPropertyOp23
 70
     0
102
RTVSPropertyOp24
 70
     0
102
RTVSPropertyOp25
 70
     0
102
RTVSPropertyOp26
 70
     0
102
RTVSPropertyOp27
 70
     0
  0
XRECORD
  5
1989
102
{ACAD_REACTORS
330
1988
102
}
330
1988
100
AcDbXrecord
280
     1
102
RTVSPropertyOp0
 70
     1
102
RTVSPropertyOp1
 70
     1
102
RTVSPropertyOp2
 70
     1
102
RTVSPropertyOp3
 70
     1
102
RTVSPropertyOp4
 70
     1
102
RTVSPropertyOp5
 70
     1
102
RTVSPropertyOp6
 70
     1
102
RTVSPropertyOp7
 70
     1
102
RTVSPropertyOp8
 70
     1
102
RTVSPropertyOp9
 70
     1
102
RTVSPropertyOp10
 70
     1
102
RTVSPropertyOp11
 70
     1
102
RTVSPropertyOp12
 70
     1
102
RTVSPropertyOp13
 70
     1
102
RTVSPropertyOp14
 70
     1
102
RTVSPropertyOp15
 70
     1
102
RTVSPropertyOp16
 70
     1
102
RTVSPropertyOp17
 70
     1
102
RTVSPropertyOp18
 70
     1
102
RTVSPropertyOp19
 70
     1
102
RTVSPropertyOp20
 70
     1
102
RTVSPropertyOp21
 70
     1
102
RTVSPropertyOp22
 70
     1
102
RTVSPropertyOp23
 70
     1
102
RTVSPropertyOp24
 70
     1
102
RTVSPropertyOp25
 70
     1
102
RTVSPropertyOp26
 70
     1
102
RTVSPropertyOp27
 70
     1
  0
XRECORD
  5
196D
102
{ACAD_REACTORS
330
196C
102
}
330
196C
100
AcDbXrecord
280
     1
102
RTVSPropertyOp0
 70
     1
102
RTVSPropertyOp1
 70
     1
102
RTVSPropertyOp2
 70
     1
102
RTVSPropertyOp3
 70
     1
102
RTVSPropertyOp4
 70
     1
102
RTVSPropertyOp5
 70
     1
102
RTVSPropertyOp6
 70
     1
102
RTVSPropertyOp7
 70
     1
102
RTVSPropertyOp8
 70
     1
102
RTVSPropertyOp9
 70
     1
102
RTVSPropertyOp10
 70
     1
102
RTVSPropertyOp11
 70
     1
102
RTVSPropertyOp12
 70
     1
102
RTVSPropertyOp13
 70
     1
102
RTVSPropertyOp14
 70
     1
102
RTVSPropertyOp15
 70
     1
102
RTVSPropertyOp16
 70
     1
102
RTVSPropertyOp17
 70
     1
102
RTVSPropertyOp18
 70
     1
102
RTVSPropertyOp19
 70
     1
102
RTVSPropertyOp20
 70
     1
102
RTVSPropertyOp21
 70
     1
102
RTVSPropertyOp22
 70
     1
102
RTVSPropertyOp23
 70
     1
102
RTVSPropertyOp24
 70
     1
102
RTVSPropertyOp25
 70
     1
102
RTVSPropertyOp26
 70
     1
102
RTVSPropertyOp27
 70
     1
  0
XRECORD
  5
196F
102
{ACAD_REACTORS
330
196E
102
}
330
196E
100
AcDbXrecord
280
     1
102
RTVSPropertyOp0
 70
     1
102
RTVSPropertyOp1
 70
     1
102
RTVSPropertyOp2
 70
     1
102
RTVSPropertyOp3
 70
     1
102
RTVSPropertyOp4
 70
     1
102
RTVSPropertyOp5
 70
     1
102
RTVSPropertyOp6
 70
     1
102
RTVSPropertyOp7
 70
     1
102
RTVSPropertyOp8
 70
     1
102
RTVSPropertyOp9
 70
     1
102
RTVSPropertyOp10
 70
     1
102
RTVSPropertyOp11
 70
     1
102
RTVSPropertyOp12
 70
     1
102
RTVSPropertyOp13
 70
     1
102
RTVSPropertyOp14
 70
     1
102
RTVSPropertyOp15
 70
     1
102
RTVSPropertyOp16
 70
     1
102
RTVSPropertyOp17
 70
     1
102
RTVSPropertyOp18
 70
     1
102
RTVSPropertyOp19
 70
     1
102
RTVSPropertyOp20
 70
     1
102
RTVSPropertyOp21
 70
     1
102
RTVSPropertyOp22
 70
     1
102
RTVSPropertyOp23
 70
     1
102
RTVSPropertyOp24
 70
     1
102
RTVSPropertyOp25
 70
     1
102
RTVSPropertyOp26
 70
     1
102
RTVSPropertyOp27
 70
     1
  0
XRECORD
  5
1971
102
{ACAD_REACTORS
330
1970
102
}
330
1970
100
AcDbXrecord
280
     1
102
RTVSPropertyOp0
 70
     1
102
RTVSPropertyOp1
 70
     1
102
RTVSPropertyOp2
 70
     1
102
RTVSPropertyOp3
 70
     1
102
RTVSPropertyOp4
 70
     1
102
RTVSPropertyOp5
 70
     1
102
RTVSPropertyOp6
 70
     1
102
RTVSPropertyOp7
 70
     1
102
RTVSPropertyOp8
 70
     1
102
RTVSPropertyOp9
 70
     1
102
RTVSPropertyOp10
 70
     1
102
RTVSPropertyOp11
 70
     1
102
RTVSPropertyOp12
 70
     1
102
RTVSPropertyOp13
 70
     1
102
RTVSPropertyOp14
 70
     1
102
RTVSPropertyOp15
 70
     1
102
RTVSPropertyOp16
 70
     1
102
RTVSPropertyOp17
 70
     1
102
RTVSPropertyOp18
 70
     1
102
RTVSPropertyOp19
 70
     1
102
RTVSPropertyOp20
 70
     1
102
RTVSPropertyOp21
 70
     1
102
RTVSPropertyOp22
 70
     1
102
RTVSPropertyOp23
 70
     1
102
RTVSPropertyOp24
 70
     1
102
RTVSPropertyOp25
 70
     1
102
RTVSPropertyOp26
 70
     1
102
RTVSPropertyOp27
 70
     1
  0
XRECORD
  5
1973
102
{ACAD_REACTORS
330
1972
102
}
330
1972
100
AcDbXrecord
280
     1
102
RTVSPropertyOp0
 70
     1
102
RTVSPropertyOp1
 70
     1
102
RTVSPropertyOp2
 70
     1
102
RTVSPropertyOp3
 70
     1
102
RTVSPropertyOp4
 70
     1
102
RTVSPropertyOp5
 70
     1
102
RTVSPropertyOp6
 70
     1
102
RTVSPropertyOp7
 70
     1
102
RTVSPropertyOp8
 70
     1
102
RTVSPropertyOp9
 70
     1
102
RTVSPropertyOp10
 70
     1
102
RTVSPropertyOp11
 70
     1
102
RTVSPropertyOp12
 70
     1
102
RTVSPropertyOp13
 70
     1
102
RTVSPropertyOp14
 70
     1
102
RTVSPropertyOp15
 70
     1
102
RTVSPropertyOp16
 70
     1
102
RTVSPropertyOp17
 70
     1
102
RTVSPropertyOp18
 70
     1
102
RTVSPropertyOp19
 70
     1
102
RTVSPropertyOp20
 70
     1
102
RTVSPropertyOp21
 70
     1
102
RTVSPropertyOp22
 70
     1
102
RTVSPropertyOp23
 70
     1
102
RTVSPropertyOp24
 70
     1
102
RTVSPropertyOp25
 70
     1
102
RTVSPropertyOp26
 70
     1
102
RTVSPropertyOp27
 70
     1
  0
XRECORD
  5
198D
102
{ACAD_REACTORS
330
198C
102
}
330
198C
100
AcDbXrecord
280
     1
102
RTVSPropertyOp0
 70
     0
102
RTVSPropertyOp1
 70
     0
102
RTVSPropertyOp2
 70
     0
102
RTVSPropertyOp3
 70
     0
102
RTVSPropertyOp4
 70
     0
102
RTVSPropertyOp5
 70
     0
102
RTVSPropertyOp6
 70
     0
102
RTVSPropertyOp7
 70
     0
102
RTVSPropertyOp8
 70
     0
102
RTVSPropertyOp9
 70
     0
102
RTVSPropertyOp10
 70
     0
102
RTVSPropertyOp11
 70
     0
102
RTVSPropertyOp12
 70
     0
102
RTVSPropertyOp13
 70
     0
102
RTVSPropertyOp14
 70
     2
102
RTVSPropertyOp15
 70
     0
102
RTVSPropertyOp16
 70
     0
102
RTVSPropertyOp17
 70
     0
102
RTVSPropertyOp18
 70
     0
102
RTVSPropertyOp19
 70
     0
102
RTVSPropertyOp20
 70
     0
102
RTVSPropertyOp21
 70
     0
102
RTVSPropertyOp22
 70
     0
102
RTVSPropertyOp23
 70
     0
102
RTVSPropertyOp24
 70
     0
102
RTVSPropertyOp25
 70
     0
102
RTVSPropertyOp26
 70
     0
102
RTVSPropertyOp27
 70
     0
  0
XRECORD
  5
1987
102
{ACAD_REACTORS
330
1986
102
}
330
1986
100
AcDbXrecord
280
     1
102
RTVSPropertyOp0
 70
     1
102
RTVSPropertyOp1
 70
     1
102
RTVSPropertyOp2
 70
     1
102
RTVSPropertyOp3
 70
     1
102
RTVSPropertyOp4
 70
     1
102
RTVSPropertyOp5
 70
     1
102
RTVSPropertyOp6
 70
     1
102
RTVSPropertyOp7
 70
     1
102
RTVSPropertyOp8
 70
     1
102
RTVSPropertyOp9
 70
     1
102
RTVSPropertyOp10
 70
     1
102
RTVSPropertyOp11
 70
     1
102
RTVSPropertyOp12
 70
     1
102
RTVSPropertyOp13
 70
     1
102
RTVSPropertyOp14
 70
     1
102
RTVSPropertyOp15
 70
     1
102
RTVSPropertyOp16
 70
     1
102
RTVSPropertyOp17
 70
     1
102
RTVSPropertyOp18
 70
     1
102
RTVSPropertyOp19
 70
     1
102
RTVSPropertyOp20
 70
     1
102
RTVSPropertyOp21
 70
     1
102
RTVSPropertyOp22
 70
     1
102
RTVSPropertyOp23
 70
     1
102
RTVSPropertyOp24
 70
     1
102
RTVSPropertyOp25
 70
     1
102
RTVSPropertyOp26
 70
     1
102
RTVSPropertyOp27
 70
     1
  0
XRECORD
  5
198F
102
{ACAD_REACTORS
330
198E
102
}
330
198E
100
AcDbXrecord
280
     1
102
RTVSPropertyOp0
 70
     0
102
RTVSPropertyOp1
 70
     0
102
RTVSPropertyOp2
 70
     0
102
RTVSPropertyOp3
 70
     0
102
RTVSPropertyOp4
 70
     0
102
RTVSPropertyOp5
 70
     0
102
RTVSPropertyOp6
 70
     0
102
RTVSPropertyOp7
 70
     0
102
RTVSPropertyOp8
 70
     0
102
RTVSPropertyOp9
 70
     0
102
RTVSPropertyOp10
 70
     0
102
RTVSPropertyOp11
 70
     0
102
RTVSPropertyOp12
 70
     0
102
RTVSPropertyOp13
 70
     0
102
RTVSPropertyOp14
 70
     2
102
RTVSPropertyOp15
 70
     0
102
RTVSPropertyOp16
 70
     0
102
RTVSPropertyOp17
 70
     0
102
RTVSPropertyOp18
 70
     0
102
RTVSPropertyOp19
 70
     0
102
RTVSPropertyOp20
 70
     0
102
RTVSPropertyOp21
 70
     0
102
RTVSPropertyOp22
 70
     0
102
RTVSPropertyOp23
 70
     0
102
RTVSPropertyOp24
 70
     0
102
RTVSPropertyOp25
 70
     0
102
RTVSPropertyOp26
 70
     0
102
RTVSPropertyOp27
 70
     0
  0
XRECORD
  5
197F
102
{ACAD_REACTORS
330
197E
102
}
330
197E
100
AcDbXrecord
280
     1
102
RTVSPropertyOp0
 70
     1
102
RTVSPropertyOp1
 70
     1
102
RTVSPropertyOp2
 70
     1
102
RTVSPropertyOp3
 70
     1
102
RTVSPropertyOp4
 70
     1
102
RTVSPropertyOp5
 70
     1
102
RTVSPropertyOp6
 70
     1
102
RTVSPropertyOp7
 70
     1
102
RTVSPropertyOp8
 70
     1
102
RTVSPropertyOp9
 70
     1
102
RTVSPropertyOp10
 70
     1
102
RTVSPropertyOp11
 70
     1
102
RTVSPropertyOp12
 70
     1
102
RTVSPropertyOp13
 70
     1
102
RTVSPropertyOp14
 70
     1
102
RTVSPropertyOp15
 70
     1
102
RTVSPropertyOp16
 70
     1
102
RTVSPropertyOp17
 70
     1
102
RTVSPropertyOp18
 70
     1
102
RTVSPropertyOp19
 70
     1
102
RTVSPropertyOp20
 70
     1
102
RTVSPropertyOp21
 70
     1
102
RTVSPropertyOp22
 70
     1
102
RTVSPropertyOp23
 70
     1
102
RTVSPropertyOp24
 70
     1
102
RTVSPropertyOp25
 70
     1
102
RTVSPropertyOp26
 70
     1
102
RTVSPropertyOp27
 70
     1
  0
XRECORD
  5
1985
102
{ACAD_REACTORS
330
1984
102
}
330
1984
100
AcDbXrecord
280
     1
102
RTVSPropertyOp0
 70
     1
102
RTVSPropertyOp1
 70
     1
102
RTVSPropertyOp2
 70
     1
102
RTVSPropertyOp3
 70
     1
102
RTVSPropertyOp4
 70
     1
102
RTVSPropertyOp5
 70
     1
102
RTVSPropertyOp6
 70
     1
102
RTVSPropertyOp7
 70
     1
102
RTVSPropertyOp8
 70
     1
102
RTVSPropertyOp9
 70
     1
102
RTVSPropertyOp10
 70
     1
102
RTVSPropertyOp11
 70
     1
102
RTVSPropertyOp12
 70
     1
102
RTVSPropertyOp13
 70
     1
102
RTVSPropertyOp14
 70
     1
102
RTVSPropertyOp15
 70
     1
102
RTVSPropertyOp16
 70
     1
102
RTVSPropertyOp17
 70
     1
102
RTVSPropertyOp18
 70
     1
102
RTVSPropertyOp19
 70
     1
102
RTVSPropertyOp20
 70
     1
102
RTVSPropertyOp21
 70
     1
102
RTVSPropertyOp22
 70
     1
102
RTVSPropertyOp23
 70
     1
102
RTVSPropertyOp24
 70
     1
102
RTVSPropertyOp25
 70
     1
102
RTVSPropertyOp26
 70
     1
102
RTVSPropertyOp27
 70
     1
  0
ENDSEC
  0
EOF
