  0
SECTION
  2
HEADER
  9
$ACADVER
  1
AC1015
  9
$ACADMAINTVER
 70
    20
  9
$DWGCODEPAGE
  3
ANSI_1252
  9
$INSBASE
 10
0.0
 20
0.0
 30
0.0
  9
$EXTMIN
 10
4013.492313202693
 20
1626.464491381888
 30
0.0
  9
$EXTMAX
 10
4015.340502560579
 20
1628.310419560541
 30
0.0
  9
$LIMMIN
 10
0.0
 20
0.0
  9
$LIMMAX
 10
420.0
 20
297.0
  9
$ORTHOMODE
 70
     1
  9
$REGENMODE
 70
     1
  9
$FILLMODE
 70
     1
  9
$QTEXTMODE
 70
     0
  9
$MIRRTEXT
 70
     1
  9
$LTSCALE
 40
1.0
  9
$ATTMODE
 70
     1
  9
$TEXTSIZE
 40
2.5
  9
$TRACEWID
 40
1.0
  9
$TEXTSTYLE
  7
SANINDUSA
  9
$CLAYER
  8
cotas
  9
$CELTYPE
  6
ByLayer
  9
$CECOLOR
 62
   256
  9
$CELTSCALE
 40
1.0
  9
$DISPSILH
 70
     0
  9
$DIMSCALE
 40
1.0
  9
$DIMASZ
 40
2.0
  9
$DIMEXO
 40
1.0
  9
$DIMDLI
 40
1.0
  9
$DIMRND
 40
0.0
  9
$DIMDLE
 40
0.0
  9
$DIMEXE
 40
1.0
  9
$DIMTP
 40
0.0
  9
$DIMTM
 40
0.0
  9
$DIMTXT
 40
2.0
  9
$DIMCEN
 40
0.0
  9
$DIMTSZ
 40
0.0
  9
$DIMTOL
 70
     0
  9
$DIMLIM
 70
     0
  9
$DIMTIH
 70
     0
  9
$DIMTOH
 70
     0
  9
$DIMSE1
 70
     0
  9
$DIMSE2
 70
     0
  9
$DIMTAD
 70
     1
  9
$DIMZIN
 70
     8
  9
$DIMBLK
  1

  9
$DIMASO
 70
     1
  9
$DIMSHO
 70
     1
  9
$DIMPOST
  1

  9
$DIMAPOST
  1

  9
$DIMALT
 70
     0
  9
$DIMALTD
 70
     3
  9
$DIMALTF
 40
0.03937007874016
  9
$DIMLFAC
 40
1.0
  9
$DIMTOFL
 70
     1
  9
$DIMTVP
 40
0.0
  9
$DIMTIX
 70
     0
  9
$DIMSOXD
 70
     0
  9
$DIMSAH
 70
     0
  9
$DIMBLK1
  1

  9
$DIMBLK2
  1

  9
$DIMSTYLE
  2
SANINDUSA
  9
$DIMCLRD
 70
   256
  9
$DIMCLRE
 70
   256
  9
$DIMCLRT
 70
   256
  9
$DIMTFAC
 40
1.0
  9
$DIMGAP
 40
1.0
  9
$DIMJUST
 70
     0
  9
$DIMSD1
 70
     0
  9
$DIMSD2
 70
     0
  9
$DIMTOLJ
 70
     0
  9
$DIMTZIN
 70
     8
  9
$DIMALTZ
 70
     0
  9
$DIMALTTZ
 70
     0
  9
$DIMUPT
 70
     0
  9
$DIMDEC
 70
     1
  9
$DIMTDEC
 70
     1
  9
$DIMALTU
 70
     2
  9
$DIMALTTD
 70
     3
  9
$DIMTXSTY
  7
SANINDUSA
  9
$DIMAUNIT
 70
     0
  9
$DIMADEC
 70
     1
  9
$DIMALTRND
 40
0.0
  9
$DIMAZIN
 70
     0
  9
$DIMDSEP
 70
    44
  9
$DIMATFIT
 70
     3
  9
$DIMFRAC
 70
     0
  9
$DIMLDRBLK
  1

  9
$DIMLUNIT
 70
     2
  9
$DIMLWD
 70
    -1
  9
$DIMLWE
 70
    -1
  9
$DIMTMOVE
 70
     0
  9
$LUNITS
 70
     2
  9
$LUPREC
 70
     4
  9
$SKETCHINC
 40
1.0
  9
$FILLETRAD
 40
0.0
  9
$AUNITS
 70
     0
  9
$AUPREC
 70
     0
  9
$MENU
  1
.
  9
$ELEVATION
 40
0.0
  9
$PELEVATION
 40
0.0
  9
$THICKNESS
 40
0.0
  9
$LIMCHECK
 70
     0
  9
$CHAMFERA
 40
10.0
  9
$CHAMFERB
 40
10.0
  9
$CHAMFERC
 40
20.0
  9
$CHAMFERD
 40
0.0
  9
$SKPOLY
 70
     0
  9
$TDCREATE
 40
2455824.730529329
  9
$TDUCREATE
 40
2455824.688862662
  9
$TDUPDATE
 40
2455824.747554433
  9
$TDUUPDATE
 40
2455824.705887766
  9
$TDINDWG
 40
0.0170256481
  9
$TDUSRTIMER
 40
0.0170254630
  9
$USRTIMER
 70
     1
  9
$ANGBASE
 50
0.0
  9
$ANGDIR
 70
     0
  9
$PDMODE
 70
     0
  9
$PDSIZE
 40
0.0
  9
$PLINEWID
 40
0.0
  9
$SPLFRAME
 70
     0
  9
$SPLINETYPE
 70
     6
  9
$SPLINESEGS
 70
     8
  9
$HANDSEED
  5
1857
  9
$SURFTAB1
 70
     6
  9
$SURFTAB2
 70
     6
  9
$SURFTYPE
 70
     6
  9
$SURFU
 70
     6
  9
$SURFV
 70
     6
  9
$UCSBASE
  2

  9
$UCSNAME
  2

  9
$UCSORG
 10
0.0
 20
0.0
 30
0.0
  9
$UCSXDIR
 10
1.0
 20
0.0
 30
0.0
  9
$UCSYDIR
 10
0.0
 20
1.0
 30
0.0
  9
$UCSORTHOREF
  2

  9
$UCSORTHOVIEW
 70
     0
  9
$UCSORGTOP
 10
0.0
 20
0.0
 30
0.0
  9
$UCSORGBOTTOM
 10
0.0
 20
0.0
 30
0.0
  9
$UCSORGLEFT
 10
0.0
 20
0.0
 30
0.0
  9
$UCSORGRIGHT
 10
0.0
 20
0.0
 30
0.0
  9
$UCSORGFRONT
 10
0.0
 20
0.0
 30
0.0
  9
$UCSORGBACK
 10
0.0
 20
0.0
 30
0.0
  9
$PUCSBASE
  2

  9
$PUCSNAME
  2

  9
$PUCSORG
 10
0.0
 20
0.0
 30
0.0
  9
$PUCSXDIR
 10
1.0
 20
0.0
 30
0.0
  9
$PUCSYDIR
 10
0.0
 20
1.0
 30
0.0
  9
$PUCSORTHOREF
  2

  9
$PUCSORTHOVIEW
 70
     0
  9
$PUCSORGTOP
 10
0.0
 20
0.0
 30
0.0
  9
$PUCSORGBOTTOM
 10
0.0
 20
0.0
 30
0.0
  9
$PUCSORGLEFT
 10
0.0
 20
0.0
 30
0.0
  9
$PUCSORGRIGHT
 10
0.0
 20
0.0
 30
0.0
  9
$PUCSORGFRONT
 10
0.0
 20
0.0
 30
0.0
  9
$PUCSORGBACK
 10
0.0
 20
0.0
 30
0.0
  9
$USERI1
 70
     0
  9
$USERI2
 70
     0
  9
$USERI3
 70
     0
  9
$USERI4
 70
     0
  9
$USERI5
 70
     0
  9
$USERR1
 40
0.0
  9
$USERR2
 40
0.0
  9
$USERR3
 40
0.0
  9
$USERR4
 40
0.0
  9
$USERR5
 40
0.0
  9
$WORLDVIEW
 70
     1
  9
$SHADEDGE
 70
     3
  9
$SHADEDIF
 70
    70
  9
$TILEMODE
 70
     1
  9
$MAXACTVP
 70
    64
  9
$PINSBASE
 10
0.0
 20
0.0
 30
0.0
  9
$PLIMCHECK
 70
     0
  9
$PEXTMIN
 10
1.000000000000000E+20
 20
1.000000000000000E+20
 30
1.000000000000000E+20
  9
$PEXTMAX
 10
-1.000000000000000E+20
 20
-1.000000000000000E+20
 30
-1.000000000000000E+20
  9
$PLIMMIN
 10
0.0
 20
0.0
  9
$PLIMMAX
 10
420.0
 20
297.0
  9
$UNITMODE
 70
     0
  9
$VISRETAIN
 70
     1
  9
$PLINEGEN
 70
     0
  9
$PSLTSCALE
 70
     1
  9
$TREEDEPTH
 70
  3020
  9
$CMLSTYLE
  2
Standard
  9
$CMLJUST
 70
     0
  9
$CMLSCALE
 40
20.0
  9
$PROXYGRAPHICS
 70
     1
  9
$MEASUREMENT
 70
     1
  9
$CELWEIGHT
370
    -1
  9
$ENDCAPS
280
     0
  9
$JOINSTYLE
280
     0
  9
$LWDISPLAY
290
     0
  9
$INSUNITS
 70
     4
  9
$HYPERLINKBASE
  1

  9
$STYLESHEET
  1
sanindusa.ctb
  9
$XEDIT
290
     1
  9
$CEPSNTYPE
380
     0
  9
$PSTYLEMODE
290
     1
  9
$FINGERPRINTGUID
  2
{2C502FE9-2163-433F-9A08-E38ECE9A3EB0}
  9
$VERSIONGUID
  2
{390A9533-B518-44C4-848E-46260815A4D0}
  9
$EXTNAMES
290
     1
  9
$PSVPSCALE
 40
0.0
  9
$OLESTARTUP
290
     0
  0
ENDSEC
  0
SECTION
  2
CLASSES
  0
CLASS
  1
ACDBDICTIONARYWDFLT
  2
AcDbDictionaryWithDefault
  3
ObjectDBX Classes
 90
        0
280
     0
281
     0
  0
CLASS
  1
ACDBPLACEHOLDER
  2
AcDbPlaceHolder
  3
ObjectDBX Classes
 90
        0
280
     0
281
     0
  0
CLASS
  1
LAYOUT
  2
AcDbLayout
  3
ObjectDBX Classes
 90
        0
280
     0
281
     0
  0
CLASS
  1
DICTIONARYVAR
  2
AcDbDictionaryVar
  3
ObjectDBX Classes
 90
        0
280
     0
281
     0
  0
CLASS
  1
DIMASSOC
  2
AcDbDimAssoc
  3
"AcDbDimAssoc|Product Desc:     AcDim ARX App For Dimension|Company:          Autodesk, Inc.|WEB Address:      www.autodesk.com"
 90
    32768
280
     0
281
     0
  0
CLASS
  1
TABLESTYLE
  2
AcDbTableStyle
  3
ObjectDBX Classes
 90
     4095
280
     0
281
     0
  0
CLASS
  1
MATERIAL
  2
AcDbMaterial
  3
ObjectDBX Classes
 90
     1153
280
     0
281
     0
  0
CLASS
  1
VISUALSTYLE
  2
AcDbVisualStyle
  3
ObjectDBX Classes
 90
     4095
280
     0
281
     0
  0
CLASS
  1
SCALE
  2
AcDbScale
  3
ObjectDBX Classes
 90
     1153
280
     0
281
     0
  0
CLASS
  1
MLEADERSTYLE
  2
AcDbMLeaderStyle
  3
ACDB_MLEADERSTYLE_CLASS
 90
     4095
280
     0
281
     0
  0
CLASS
  1
AEC_REFEDIT_STATUS_TRACKER
  2
AecDbRefEditStatusTracker
  3
AecArchBase60|Product Desc: Autodesk Architectural Desktop 2007 |Company: Autodesk,Inc. |WEB Address: www.autodesk.com
 90
      129
280
     0
281
     0
  0
CLASS
  1
NPOCOLLECTION
  2
AcDbImpNonPersistentObjectsCollection
  3
ObjectDBX Classes
 90
     1153
280
     0
281
     0
  0
CLASS
  1
CELLSTYLEMAP
  2
AcDbCellStyleMap
  3
ObjectDBX Classes
 90
     1152
280
     0
281
     0
  0
ENDSEC
  0
SECTION
  2
TABLES
  0
TABLE
  2
VPORT
  5
8
330
0
100
AcDbSymbolTable
 70
     1
  0
VPORT
  5
1068
330
8
100
AcDbSymbolTableRecord
100
AcDbViewportTableRecord
  2
*Active
 70
     0
 10
0.0
 20
0.0
 11
1.0
 21
1.0
 12
4014.416407881635
 22
1627.387455471215
 13
0.0
 23
0.0
 14
10.0
 24
10.0
 15
10.0
 25
10.0
 16
0.0
 26
0.0
 36
1.0
 17
0.0
 27
0.0
 37
0.0
 40
1.858070206795545
 41
1.645464025026068
 42
50.0
 43
0.0
 44
0.0
 50
0.0
 51
0.0
 71
     0
 72
   100
 73
     1
 74
     2
 75
     0
 76
     0
 77
     0
 78
     0
281
     0
 65
     1
110
0.0
120
0.0
130
0.0
111
1.0
121
0.0
131
0.0
112
0.0
122
1.0
132
0.0
 79
     0
146
0.0
  0
ENDTAB
  0
TABLE
  2
LTYPE
  5
5
330
0
100
AcDbSymbolTable
 70
     5
  0
LTYPE
  5
14
330
5
100
AcDbSymbolTableRecord
100
AcDbLinetypeTableRecord
  2
ByBlock
 70
     0
  3

 72
    65
 73
     0
 40
0.0
  0
LTYPE
  5
15
330
5
100
AcDbSymbolTableRecord
100
AcDbLinetypeTableRecord
  2
ByLayer
 70
     0
  3

 72
    65
 73
     0
 40
0.0
  0
LTYPE
  5
16
330
5
100
AcDbSymbolTableRecord
100
AcDbLinetypeTableRecord
  2
Continuous
 70
     0
  3
Solid line
 72
    65
 73
     0
 40
0.0
  0
LTYPE
  5
2D
330
5
100
AcDbSymbolTableRecord
100
AcDbLinetypeTableRecord
  2
DASHDOT
 70
     0
  3
Dash dot __ . __ . __ . __ . __ . __ . __ . __
 72
    65
 73
     4
 40
25.4
 49
12.7
 74
     0
 49
-6.349999999999999
 74
     0
 49
0.0
 74
     0
 49
-6.349999999999999
 74
     0
  0
LTYPE
  5
2E
330
5
100
AcDbSymbolTableRecord
100
AcDbLinetypeTableRecord
  2
HIDDEN
 70
     0
  3
Hidden __ __ __ __ __ __ __ __ __ __ __ __ __ _
 72
    65
 73
     2
 40
9.524999999999998
 49
6.349999999999999
 74
     0
 49
-3.174999999999999
 74
     0
  0
LTYPE
  5
C75
330
5
100
AcDbSymbolTableRecord
100
AcDbLinetypeTableRecord
  2
AM_ISO02W050
 70
     0
  3
__ __ __ __ __ __ __ __ __ __ __ __ __ __ __
 72
    65
 73
     2
 40
7.5
 49
6.0
 74
     0
 49
-1.5
 74
     0
  0
LTYPE
  5
C76
330
5
100
AcDbSymbolTableRecord
100
AcDbLinetypeTableRecord
  2
AM_ISO08W050
 70
     0
  3
____ . ____ . ____ . ____ . ____ . ____ . ____
 72
    65
 73
     4
 40
18.0
 49
12.0
 74
     0
 49
-1.5
 74
     0
 49
3.0
 74
     0
 49
-1.5
 74
     0
  0
ENDTAB
  0
TABLE
  2
LAYER
  5
2
102
{ACAD_XDICTIONARY
360
1051
102
}
330
0
100
AcDbSymbolTable
 70
    21
  0
LAYER
  5
10
102
{ACAD_XDICTIONARY
360
17B5
102
}
330
2
100
AcDbSymbolTableRecord
100
AcDbLayerTableRecord
  2
0
 70
     0
 62
     7
  6
Continuous
370
    -3
390
F
  0
LAYER
  5
2F
102
{ACAD_XDICTIONARY
360
17B7
102
}
330
2
100
AcDbSymbolTableRecord
100
AcDbLayerTableRecord
  2
1
 70
     0
 62
     1
  6
Continuous
370
    -3
390
F
  0
LAYER
  5
30
102
{ACAD_XDICTIONARY
360
17B9
102
}
330
2
100
AcDbSymbolTableRecord
100
AcDbLayerTableRecord
  2
2
 70
     0
 62
     2
  6
Continuous
370
    -3
390
F
  0
LAYER
  5
31
102
{ACAD_XDICTIONARY
360
17BB
102
}
330
2
100
AcDbSymbolTableRecord
100
AcDbLayerTableRecord
  2
3
 70
     0
 62
     3
  6
Continuous
370
    -3
390
F
  0
LAYER
  5
32
102
{ACAD_XDICTIONARY
360
17BD
102
}
330
2
100
AcDbSymbolTableRecord
100
AcDbLayerTableRecord
  2
4
 70
     0
 62
     4
  6
Continuous
370
    -3
390
F
  0
LAYER
  5
33
102
{ACAD_XDICTIONARY
360
17BF
102
}
330
2
100
AcDbSymbolTableRecord
100
AcDbLayerTableRecord
  2
5
 70
     0
 62
     5
  6
Continuous
370
    -3
390
F
  0
LAYER
  5
34
102
{ACAD_XDICTIONARY
360
17C1
102
}
330
2
100
AcDbSymbolTableRecord
100
AcDbLayerTableRecord
  2
6
 70
     0
 62
     6
  6
Continuous
370
    -3
390
F
  0
LAYER
  5
35
102
{ACAD_XDICTIONARY
360
17C3
102
}
330
2
100
AcDbSymbolTableRecord
100
AcDbLayerTableRecord
  2
7
 70
     0
 62
     7
  6
Continuous
370
    -3
390
F
  0
LAYER
  5
36
102
{ACAD_XDICTIONARY
360
17C5
102
}
330
2
100
AcDbSymbolTableRecord
100
AcDbLayerTableRecord
  2
cen
 70
     0
 62
     7
  6
DASHDOT
370
    -3
390
F
  0
LAYER
  5
37
102
{ACAD_XDICTIONARY
360
17C7
102
}
330
2
100
AcDbSymbolTableRecord
100
AcDbLayerTableRecord
  2
hid
 70
     0
 62
     7
  6
HIDDEN
370
    -3
390
F
  0
LAYER
  5
5D6
102
{ACAD_XDICTIONARY
360
17C9
102
}
330
2
100
AcDbSymbolTableRecord
100
AcDbLayerTableRecord
  2
hatch
 70
     0
 62
     9
  6
Continuous
370
    -3
390
F
  0
LAYER
  5
8AF
102
{ACAD_XDICTIONARY
360
17CB
102
}
330
2
100
AcDbSymbolTableRecord
100
AcDbLayerTableRecord
  2
9
 70
     0
 62
     9
  6
Continuous
370
    -3
390
F
  0
LAYER
  5
8F8
102
{ACAD_XDICTIONARY
360
17CD
102
}
330
2
100
AcDbSymbolTableRecord
100
AcDbLayerTableRecord
  2
leg fin
 70
     0
 62
     9
  6
Continuous
370
    -3
390
F
  0
LAYER
  5
91D
102
{ACAD_XDICTIONARY
360
17CF
102
}
330
2
100
AcDbSymbolTableRecord
100
AcDbLayerTableRecord
  2
cotas
 70
     0
 62
     1
  6
Continuous
370
    -3
390
F
  0
LAYER
  5
92F
330
2
100
AcDbSymbolTableRecord
100
AcDbLayerTableRecord
  2
Defpoints
 70
     0
 62
     7
  6
Continuous
290
     0
370
    -3
390
F
  0
LAYER
  5
C7B
102
{ACAD_XDICTIONARY
360
17D1
102
}
330
2
100
AcDbSymbolTableRecord
100
AcDbLayerTableRecord
  2
SANINDUSA
 70
     0
 62
     3
  6
Continuous
370
    -3
390
F
  0
LAYER
  5
1060
102
{ACAD_XDICTIONARY
360
17D3
102
}
330
2
100
AcDbSymbolTableRecord
100
AcDbLayerTableRecord
  2
hid1
 70
     0
 62
     9
  6
HIDDEN
370
    -3
390
F
1001
AcAecLayerStandard
1000

1000

  0
LAYER
  5
10B3
102
{ACAD_XDICTIONARY
360
17D5
102
}
330
2
100
AcDbSymbolTableRecord
100
AcDbLayerTableRecord
  2
VETRI
 70
     0
 62
     7
  6
Continuous
370
     0
390
F
  0
LAYER
  5
10B4
102
{ACAD_XDICTIONARY
360
17D7
102
}
330
2
100
AcDbSymbolTableRecord
100
AcDbLayerTableRecord
  2
PROFILI
 70
     0
 62
     7
  6
Continuous
370
     0
390
F
  0
LAYER
  5
10B5
102
{ACAD_XDICTIONARY
360
17D9
102
}
330
2
100
AcDbSymbolTableRecord
100
AcDbLayerTableRecord
  2
GUARNIZIONI
 70
     0
 62
     7
  6
Continuous
370
     0
390
F
  0
LAYER
  5
10B6
102
{ACAD_XDICTIONARY
360
17DB
102
}
330
2
100
AcDbSymbolTableRecord
100
AcDbLayerTableRecord
  2
TAPPI
 70
     0
 62
     7
  6
Continuous
370
     0
390
F
  0
ENDTAB
  0
TABLE
  2
STYLE
  5
3
330
0
100
AcDbSymbolTable
 70
     4
  0
STYLE
  5
11
330
3
100
AcDbSymbolTableRecord
100
AcDbTextStyleTableRecord
  2
Standard
 70
     0
 40
0.0
 41
1.0
 50
0.0
 71
     0
 42
2.5
  3
Avgardn.ttf
  4

1001
ACAD
1000
AvantGarde Bk BT
1071
       34
  0
STYLE
  5
2C
330
3
100
AcDbSymbolTableRecord
100
AcDbTextStyleTableRecord
  2

 70
     1
 40
0.0
 41
1.0
 50
0.0
 71
     0
 42
2.5
  3
ltypeshp.shx
  4

  0
STYLE
  5
91F
330
3
100
AcDbSymbolTableRecord
100
AcDbTextStyleTableRecord
  2
SANINDUSA
 70
     0
 40
0.0
 41
1.0
 50
0.0
 71
     0
 42
2.5
  3
verdana.TTF
  4

1001
ACAD
1000
Verdana
1071
       34
  0
STYLE
  5
C7C
330
3
100
AcDbSymbolTableRecord
100
AcDbTextStyleTableRecord
  2
futura
 70
     0
 40
0.0
 41
1.0
 50
0.0
 71
     0
 42
2.5
  3
ZURCHN.TTF
  4

1001
ACAD
1000
Zurich BT
1071
       34
  0
ENDTAB
  0
TABLE
  2
VIEW
  5
6
330
0
100
AcDbSymbolTable
 70
     0
  0
ENDTAB
  0
TABLE
  2
UCS
  5
7
330
0
100
AcDbSymbolTable
 70
     0
  0
ENDTAB
  0
TABLE
  2
APPID
  5
9
330
0
100
AcDbSymbolTable
 70
    15
  0
APPID
  5
12
330
9
100
AcDbSymbolTableRecord
100
AcDbRegAppTableRecord
  2
ACAD
 70
     0
  0
APPID
  5
3A
330
9
100
AcDbSymbolTableRecord
100
AcDbRegAppTableRecord
  2
DCO15
 70
     0
  0
APPID
  5
EEE
330
9
100
AcDbSymbolTableRecord
100
AcDbRegAppTableRecord
  2
ACAD_DSTYLE_DIMTEXT_FILL
 70
     0
  0
APPID
  5
EEF
330
9
100
AcDbSymbolTableRecord
100
AcDbRegAppTableRecord
  2
ACAD_DSTYLE_DIMEXT_LENGTH
 70
     0
  0
APPID
  5
EF0
330
9
100
AcDbSymbolTableRecord
100
AcDbRegAppTableRecord
  2
ACAD_DSTYLE_DIMEXT_ENABLED
 70
     0
  0
APPID
  5
EF1
330
9
100
AcDbSymbolTableRecord
100
AcDbRegAppTableRecord
  2
ACAD_DSTYLE_DIM_LINETYPE
 70
     0
  0
APPID
  5
EF2
330
9
100
AcDbSymbolTableRecord
100
AcDbRegAppTableRecord
  2
ACAD_DSTYLE_DIM_EXT1_LINETYPE
 70
     0
  0
APPID
  5
EF3
330
9
100
AcDbSymbolTableRecord
100
AcDbRegAppTableRecord
  2
ACAD_DSTYLE_DIM_EXT2_LINETYPE
 70
     0
  0
APPID
  5
FAF
330
9
100
AcDbSymbolTableRecord
100
AcDbRegAppTableRecord
  2
ACAD_DSTYLE_DIMJOGGED_JOGANGLE_SYMBOL
 70
     0
  0
APPID
  5
1013
330
9
100
AcDbSymbolTableRecord
100
AcDbRegAppTableRecord
  2
ACAD_DSTYLE_DIMARC_LENGTH_SYMBOL
 70
     0
  0
APPID
  5
1061
330
9
100
AcDbSymbolTableRecord
100
AcDbRegAppTableRecord
  2
AcAecLayerStandard
 70
     0
  0
APPID
  5
10B7
330
9
100
AcDbSymbolTableRecord
100
AcDbRegAppTableRecord
  2
GENIUS_GENREC_14
 70
     0
  0
APPID
  5
10B8
330
9
100
AcDbSymbolTableRecord
100
AcDbRegAppTableRecord
  2
GENIUS_GENODEF_13
 70
     0
  0
APPID
  5
10B9
330
9
100
AcDbSymbolTableRecord
100
AcDbRegAppTableRecord
  2
GENIUS_GENOBJ-N-REC_13
 70
     0
  0
APPID
  5
1856
330
9
100
AcDbSymbolTableRecord
100
AcDbRegAppTableRecord
  2
ACAD_MLEADERVER
 70
     0
  0
ENDTAB
  0
TABLE
  2
DIMSTYLE
  5
A
330
0
100
AcDbSymbolTable
 70
     3
100
AcDbDimStyleTable
 71
     1
340
921
  0
DIMSTYLE
105
45
330
A
100
AcDbSymbolTableRecord
100
AcDbDimStyleTableRecord
  2
STANDARD
 70
     0
289
     0
340
11
  0
DIMSTYLE
105
921
330
A
100
AcDbSymbolTableRecord
100
AcDbDimStyleTableRecord
  2
SANINDUSA
 70
     0
 41
2.0
 42
1.0
 43
1.0
 44
1.0
 73
     0
 74
     0
 77
     1
 78
     8
140
2.0
141
0.0
143
0.03937007874016
147
1.0
171
     3
172
     1
176
   256
177
   256
178
   256
179
     1
271
     1
272
     1
274
     3
278
    44
283
     0
284
     8
340
91F
371
    -1
372
    -1
1001
ACAD_DSTYLE_DIMJOGGED_JOGANGLE_SYMBOL
1070
   384
1040
1.570796326794896
  0
DIMSTYLE
105
C7D
330
A
100
AcDbSymbolTableRecord
100
AcDbDimStyleTableRecord
  2
AM_ISO
 70
     0
  4
"
 41
2.5
 42
1.0
 43
10.0
 44
1.0
 47
0.1
 48
0.1
 73
     0
 74
     0
 77
     1
 78
     8
 79
     2
140
3.5
141
0.0
143
0.0393701
146
0.71
147
1.5
172
     1
176
   256
177
   256
178
     2
271
     2
272
     3
274
     4
283
     0
284
     8
340
11
371
    -1
372
    -1
  0
ENDTAB
  0
TABLE
  2
BLOCK_RECORD
  5
1
330
0
100
AcDbSymbolTable
 70
     8
  0
BLOCK_RECORD
  5
1F
330
1
100
AcDbSymbolTableRecord
100
AcDbBlockTableRecord
  2
*Model_Space
340
22
  0
BLOCK_RECORD
  5
1B
330
1
100
AcDbSymbolTableRecord
100
AcDbBlockTableRecord
  2
*Paper_Space
340
1E
  0
BLOCK_RECORD
  5
23
330
1
100
AcDbSymbolTableRecord
100
AcDbBlockTableRecord
  2
*Paper_Space0
340
26
  0
BLOCK_RECORD
  5
919
330
1
100
AcDbSymbolTableRecord
100
AcDbBlockTableRecord
  2
_DotSmall
340
0
  0
BLOCK_RECORD
  5
922
330
1
100
AcDbSymbolTableRecord
100
AcDbBlockTableRecord
  2
base para cotas
340
0
310
2800000020000000200000000100080000000000000400000000000000000000000000000000000000000000000080000080000000808000800000008000800080800000C0C0C000C0DCC000F0CAA6000020400000206000002080000020A0000020C0000020E00000400000004020000040400000406000004080000040A0
310
000040C0000040E00000600000006020000060400000606000006080000060A0000060C0000060E00000800000008020000080400000806000008080000080A0000080C0000080E00000A0000000A0200000A0400000A0600000A0800000A0A00000A0C00000A0E00000C0000000C0200000C0400000C0600000C0800000C0
310
A00000C0C00000C0E00000E0000000E0200000E0400000E0600000E0800000E0A00000E0C00000E0E00040000000400020004000400040006000400080004000A0004000C0004000E00040200000402020004020400040206000402080004020A0004020C0004020E000404000004040200040404000404060004040800040
310
40A0004040C0004040E00040600000406020004060400040606000406080004060A0004060C0004060E00040800000408020004080400040806000408080004080A0004080C0004080E00040A0000040A0200040A0400040A0600040A0800040A0A00040A0C00040A0E00040C0000040C0200040C0400040C0600040C08000
310
40C0A00040C0C00040C0E00040E0000040E0200040E0400040E0600040E0800040E0A00040E0C00040E0E00080000000800020008000400080006000800080008000A0008000C0008000E00080200000802020008020400080206000802080008020A0008020C0008020E00080400000804020008040400080406000804080
310
008040A0008040C0008040E00080600000806020008060400080606000806080008060A0008060C0008060E00080800000808020008080400080806000808080008080A0008080C0008080E00080A0000080A0200080A0400080A0600080A0800080A0A00080A0C00080A0E00080C0000080C0200080C0400080C0600080C0
310
800080C0A00080C0C00080C0E00080E0000080E0200080E0400080E0600080E0800080E0A00080E0C00080E0E000C0000000C0002000C0004000C0006000C0008000C000A000C000C000C000E000C0200000C0202000C0204000C0206000C0208000C020A000C020C000C020E000C0400000C0402000C0404000C0406000C0
310
408000C040A000C040C000C040E000C0600000C0602000C0604000C0606000C0608000C060A000C060C000C060E000C0800000C0802000C0804000C0806000C0808000C080A000C080C000C080E000C0A00000C0A02000C0A04000C0A06000C0A08000C0A0A000C0A0C000C0A0E000C0C00000C0C02000C0C04000C0C06000
310
C0C08000C0C0A000F0FBFF00A4A0A000808080000000FF0000FF000000FFFF00FF000000FF00FF00FFFF0000FFFFFF00A4A4A4A4A4A4A4A4A4A4A4A4A4A4A4A4A4A4A4A4A4A4A4A4A4A4A4A4A4A4A4A4A4A4A4A4A4A4A4A4A4A4A4A4A4A4A4A4A4A4A4A4A4A4A4A4A4A4A4A4A4A4A4A4A4A4A4A4A4A4A4A4A4A4A4A4A4A4A4
310
A4A4A4A4A4A4A4A4A4A4A4A4A4A4A4A4A4A4A4A4A4A4A4A4A4A4A4A4A4A4A4A4A4A4A4A4A4A4A4A4A4A4A4A4A4A4A4A4A4A4A4A4A4A4A4A4A4A4A4A4A4A4A4A4A4A4A4A4A4A4A4A4A4A4A4A4A4A4A4A4A4A4A4A4A4A4A4A4A4A4A4A4A4A4A4A4A4A4A4A4A4A4A4A4A4A4A4A4A4A4A4A4A4A4A4A4A4A4A4A4A4A4A4A4A4A4A4
310
A4A4A4A4A4A4A4A4A4A4A4A4A4A4A4A4A4A4A4A4A4A4A4A4A4A4A4A4A4A4A4A4A4A4A4A4A4A4A4A4A4A4A4A4A4A4A4A4A4A4A4A4A4A4A4A4A4A4A4A4A4A4A4A4A4A4A4A4A4A4A4A4A4A4A4A4A4A4A4A4A4A4A4A4A4A4A4A4A4A4A4A4A4A4A4A4A4A4A4A4A4A4A4A4A4A4A4A4A4A4A4A4A4A4A4A4A4A4A4A4A4A4A4A4A4A4A4
310
A4A4A4A4A4A4A4A4A4A4A4A4A4A4A4A4A4A4A4A4A4A4A4A4A4A4A4A4A4A4A4A4A4A4A4A4A4A4A4A4A4A4A4A4A4A4A4A4A4A4A4A4A4A4A4A4A4A4A4A4A4A4A4A4A4A4A4A4A4A4A4A4A4A4A4A4A4A4A4A4A4A4A4A4A4A4A4A4A4A4A4A4A4A4A4A4A4A4A4A4A4A4A4A4A4A4A4A4A4A4A4A4A4A4A4A4F9F9F9F9F9F9F9F9F9F9F9
310
F9F9F9F9F9F9F9F9F9F9F9F9F9F9F9F9F9F9F9A4A4F9F9F9F9F9F9F9F9F9F9F9F9F9F9F9F9F9F9F9F9F9F9F9F9F9F9F9F9F9F9A4A4F9F9F9F9F9F9F9F9F9F9F9F9F9F9F9F9F9F9F9F9F9F9F9F9F9F9F9F9F9F9A4A4F9A4A4A4A4A4A4A4A4A4A4A4A4A4A4A4A4A4A4A4A4A4A4A4A4A4A4A4A4F9A4A4A4A4A4A4A4A4A4A4A4A4
310
A4A4A4A4A4A4A4A4A4A4A4A4A4A4A4A4A4A4A4A4A4A4A4A4A4A4A4A4A4A4A4A4A4A4A4A4A4A4A4A4A4A4A4A4A4A4A4A4A4A4A4A4A4A4A4A4A4A4A4A4A4A4A4A4A4A4A4A4A4A4A4A4A4A4A4A4A4A4A4A4A4A4A4A4A4A4A4A4A4A4A4A4A4A4A4A4A4A4A4A4A4A4A4A4A4A4A4A4A4A4A4A4A4A4A4A4A4A4A4A4A4A4A4A4A4A4A4
310
A4A4A4A4A4A4A4A4A4A4A4A4A4A4A4A4A4A4A4A4A4A4A4A4A4A4A4A4A4A4A4A4A4A4A4A4A4A4A4A4A4A4A4A4A4A4A4A4A4A4A4A4A4A4A4A4A4A4A4A4A4A4A4A4A4A4A4A4A4A4A4A4A4A4A4A4A4A4A4A4A4A4A4A4A4A4A4A4A4A4A4A4A4A4A4A4A4A4A4A4A4A4A4A4A4A4A4A4A4A4A4A4A4A4A4A4A4A4A4A4A4A4A4A4A4A4A4
310
A4A4A4A4A4A4A4A4A4A4A4A4A4A4A4A4A4A4A4A4A4A4A4A4A4A4A4A4A4A4A4A4A4A4A4A4A4A4A4A4A4A4A4A4A4A4A4A4A4A4A4A4A4A4A4A4A4A4A4A4A4A4A4A4A4A4A4A4A4A4A4A4A4A4A4A4A4A4A4A4A4A4A4A4A4A4A4A4A4A4A4A4A4A4A4A4A4A4A4A4A4A4A4A4A4A4A4A4A4A4A4A4A4A4A4A4A4A4A4A4A4A4A4A4A4A4A4
310
A4A4A4A4A4A4A4A4A4A4A4A4A4A4A4A4A4A4A4A4A4A4A4A4A4A4A4A4A4A4A4A4A4A4A4A4A4A4A4A4A4A4A4A4A4A4A4A4A4A4A4A4A4A4A4A4
1001
ACAD
1000
DesignCenter Data
1002
{
1070
     1
1070
     4
1002
}
  0
BLOCK_RECORD
  5
AA8
330
1
100
AcDbSymbolTableRecord
100
AcDbBlockTableRecord
  2
_CLOSED
340
0
  0
BLOCK_RECORD
  5
B79
330
1
100
AcDbSymbolTableRecord
100
AcDbBlockTableRecord
  2
nota revisoes
340
0
1001
ACAD
1000
DesignCenter Data
1002
{
1070
     1
1070
     4
1002
}
  0
BLOCK_RECORD
  5
B8E
330
1
100
AcDbSymbolTableRecord
100
AcDbBlockTableRecord
  2
a3l
340
0
1001
ACAD
1000
DesignCenter Data
1002
{
1070
     1
1070
     4
1002
}
  0
BLOCK_RECORD
  5
B9E
330
1
100
AcDbSymbolTableRecord
100
AcDbBlockTableRecord
  2
legenda desenvolvimento
340
0
1001
ACAD
1000
DesignCenter Data
1002
{
1070
     1
1070
     4
1002
}
  0
ENDTAB
  0
ENDSEC
  0
SECTION
  2
BLOCKS
  0
BLOCK
  5
20
330
1F
100
AcDbEntity
  8
0
100
AcDbBlockBegin
  2
*Model_Space
 70
     0
 10
0.0
 20
0.0
 30
0.0
  3
*Model_Space
  1

  0
ENDBLK
  5
21
330
1F
100
AcDbEntity
  8
0
100
AcDbBlockEnd
  0
BLOCK
  5
1C
330
1B
100
AcDbEntity
 67
     1
  8
0
100
AcDbBlockBegin
  2
*Paper_Space
 70
     0
 10
0.0
 20
0.0
 30
0.0
  3
*Paper_Space
  1

  0
ENDBLK
  5
1D
330
1B
100
AcDbEntity
 67
     1
  8
0
100
AcDbBlockEnd
  0
BLOCK
  5
24
330
23
100
AcDbEntity
 67
     1
  8
0
100
AcDbBlockBegin
  2
*Paper_Space0
 70
     0
 10
0.0
 20
0.0
 30
0.0
  3
*Paper_Space0
  1

  0
ENDBLK
  5
25
330
23
100
AcDbEntity
 67
     1
  8
0
100
AcDbBlockEnd
  0
BLOCK
  5
91B
330
919
100
AcDbEntity
  8
0
100
AcDbBlockBegin
  2
_DotSmall
 70
     0
 10
0.0
 20
0.0
 30
0.0
  3
_DotSmall
  1

  0
LWPOLYLINE
  5
91A
330
919
100
AcDbEntity
  8
0
  6
ByBlock
 62
     0
100
AcDbPolyline
 90
        2
 70
     1
 43
0.5
 10
-0.0625
 20
0.0
 42
1.0
 10
0.0625
 20
0.0
 42
1.0
  0
ENDBLK
  5
91C
330
919
100
AcDbEntity
  8
0
100
AcDbBlockEnd
  0
BLOCK
  5
92A
330
922
100
AcDbEntity
  8
0
100
AcDbBlockBegin
  2
base para cotas
 70
     0
 10
0.0
 20
0.0
 30
0.0
  3
base para cotas
  1

  0
LINE
  5
B36
330
922
100
AcDbEntity
  8
cotas
100
AcDbLine
 10
0.0
 20
-30.0
 30
0.0
 11
327.1260136525398
 21
-30.0
 31
0.0
  0
LINE
  5
B37
330
922
100
AcDbEntity
  8
cotas
100
AcDbLine
 10
0.0
 20
-25.0
 30
0.0
 11
327.1260136525398
 21
-25.0
 31
0.0
  0
LINE
  5
B38
330
922
100
AcDbEntity
  8
cotas
100
AcDbLine
 10
0.0
 20
-20.0
 30
0.0
 11
327.1260136525398
 21
-20.0
 31
0.0
  0
LINE
  5
B39
330
922
100
AcDbEntity
  8
cotas
100
AcDbLine
 10
0.0
 20
-15.0
 30
0.0
 11
327.1260136525398
 21
-15.0
 31
0.0
  0
LINE
  5
B3A
330
922
100
AcDbEntity
  8
cotas
100
AcDbLine
 10
0.0
 20
-10.0
 30
0.0
 11
327.1260136525398
 21
-10.0
 31
0.0
  0
LINE
  5
B3B
330
922
100
AcDbEntity
  8
cotas
100
AcDbLine
 10
0.0
 20
0.0
 30
0.0
 11
0.0
 21
-30.0
 31
0.0
  0
LINE
  5
B3C
330
922
100
AcDbEntity
  8
cotas
100
AcDbLine
 10
327.1260136525398
 20
-30.0
 30
0.0
 11
327.1260136525398
 21
0.0
 31
0.0
  0
ENDBLK
  5
92B
330
922
100
AcDbEntity
  8
0
100
AcDbBlockEnd
  0
BLOCK
  5
AAD
330
AA8
100
AcDbEntity
  8
0
100
AcDbBlockBegin
  2
_CLOSED
 70
     0
 10
0.0
 20
0.0
 30
0.0
  3
_CLOSED
  1

  0
LINE
  5
AA9
330
AA8
100
AcDbEntity
  8
0
100
AcDbLine
 10
-1.0
 20
0.166667
 30
0.0
 11
0.0
 21
0.0
 31
0.0
  0
LINE
  5
AAA
330
AA8
100
AcDbEntity
  8
0
100
AcDbLine
 10
0.0
 20
0.0
 30
0.0
 11
-1.0
 21
-0.166667
 31
0.0
  0
LINE
  5
AAB
330
AA8
100
AcDbEntity
  8
0
100
AcDbLine
 10
-1.0
 20
0.166667
 30
0.0
 11
-1.0
 21
-0.166667
 31
0.0
  0
LINE
  5
AAC
330
AA8
100
AcDbEntity
  8
0
100
AcDbLine
 10
0.0
 20
0.0
 30
0.0
 11
-1.0
 21
0.0
 31
0.0
  0
ENDBLK
  5
AAE
330
AA8
100
AcDbEntity
  8
0
100
AcDbBlockEnd
  0
BLOCK
  5
B7C
330
B79
100
AcDbEntity
  8
0
100
AcDbBlockBegin
  2
nota revisoes
 70
     0
 10
0.0
 20
0.0
 30
0.0
  3
nota revisoes
  1

  0
CIRCLE
  5
B7A
330
B79
100
AcDbEntity
  8
4
100
AcDbCircle
 10
0.0
 20
0.0
 30
0.0
 40
13.69426055101189
  0
TEXT
  5
B7B
330
B79
100
AcDbEntity
  8
4
100
AcDbText
 10
-5.496248358154345
 20
-5.354545554066362
 30
0.0
 40
12.0
  1
1
  7
SANINDUSA
 72
     1
 11
-0.249774214433728
 21
-5.354545554066362
 31
0.0
100
AcDbText
  0
ENDBLK
  5
B7D
330
B79
100
AcDbEntity
  8
0
100
AcDbBlockEnd
  0
BLOCK
  5
B9C
330
B8E
100
AcDbEntity
  8
0
100
AcDbBlockBegin
  2
a3l
 70
     0
 10
0.0
 20
0.0
 30
0.0
  3
a3l
  1

  0
LINE
  5
B8F
330
B8E
100
AcDbEntity
  8
1
100
AcDbLine
 10
-364.2925296599447
 20
-362.1188951399395
 30
0.0
 11
-364.2925296599447
 21
-65.11889513993946
 31
0.0
  0
LINE
  5
B90
330
B8E
100
AcDbEntity
  8
4
100
AcDbLine
 10
-369.2925296599447
 20
-357.1188951399395
 30
0.0
 11
-369.2925296599447
 21
-70.11889513993946
 31
0.0
  0
LINE
  5
B91
330
B8E
100
AcDbEntity
  8
1
100
AcDbLine
 10
-784.2925296599446
 20
-65.11889513993946
 30
0.0
 11
-784.2925296599446
 21
-362.1188951399395
 31
0.0
  0
LINE
  5
B92
330
B8E
100
AcDbEntity
  8
4
100
AcDbLine
 10
-759.2925296599446
 20
-357.1188951399395
 30
0.0
 11
-759.2925296599446
 21
-70.11889513993946
 31
0.0
  0
LINE
  5
B93
330
B8E
100
AcDbEntity
  8
1
100
AcDbLine
 10
-784.2925296599446
 20
-362.1188951399395
 30
0.0
 11
-364.2925296599447
 21
-362.1188951399395
 31
0.0
  0
LINE
  5
B94
330
B8E
100
AcDbEntity
  8
4
100
AcDbLine
 10
-759.2925296599446
 20
-357.1188951399395
 30
0.0
 11
-369.2925296599447
 21
-357.1188951399395
 31
0.0
  0
LINE
  5
B95
330
B8E
100
AcDbEntity
  8
1
100
AcDbLine
 10
-654.2925296599446
 20
-357.1188951399395
 30
0.0
 11
-654.2925296599446
 21
-362.1188951399395
 31
0.0
  0
LINE
  5
B96
330
B8E
100
AcDbEntity
  8
1
100
AcDbLine
 10
-364.2925296599447
 20
-65.11889513993946
 30
0.0
 11
-784.2925296599446
 21
-65.11889513993946
 31
0.0
  0
LINE
  5
B97
330
B8E
100
AcDbEntity
  8
4
100
AcDbLine
 10
-369.2925296599447
 20
-70.11889513993946
 30
0.0
 11
-759.2925296599446
 21
-70.11889513993946
 31
0.0
  0
LINE
  5
B98
330
B8E
100
AcDbEntity
  8
1
100
AcDbLine
 10
-654.2925296599446
 20
-65.11889513993946
 30
0.0
 11
-654.2925296599446
 21
-70.11889513993946
 31
0.0
  0
LINE
  5
B99
330
B8E
100
AcDbEntity
  8
1
100
AcDbLine
 10
-549.2925296599446
 20
-70.11889513993946
 30
0.0
 11
-549.2925296599446
 21
-65.11889513993946
 31
0.0
  0
LINE
  5
B9A
330
B8E
100
AcDbEntity
  8
1
100
AcDbLine
 10
-369.2925296599447
 20
-65.11889513993946
 30
0.0
 11
-364.2925296599447
 21
-65.11889513993946
 31
0.0
  0
LINE
  5
B9B
330
B8E
100
AcDbEntity
  8
1
100
AcDbLine
 10
-549.2925296599446
 20
-357.1188951399395
 30
0.0
 11
-549.2925296599446
 21
-362.1188951399395
 31
0.0
  0
ENDBLK
  5
B9D
330
B8E
100
AcDbEntity
  8
0
100
AcDbBlockEnd
  0
BLOCK
  5
C13
330
B9E
100
AcDbEntity
  8
0
100
AcDbBlockBegin
  2
legenda desenvolvimento
 70
     2
 10
0.0
 20
0.0
 30
0.0
  3
legenda desenvolvimento
  1

  0
ATTDEF
  5
B9F
330
B9E
100
AcDbEntity
  8
1
100
AcDbText
 10
-108.606245802552
 20
55.5
 30
0.0
 40
4.0
  1
XXXXXXXXXXXXXX
 41
0.8
  7
SANINDUSA
 72
     4
 11
-87.5
 21
57.5
 31
0.0
100
AcDbAttributeDefinition
  3
Nome do Produto:
  2
PRODUTO
 70
     0
  0
ATTDEF
  5
BA0
330
B9E
100
AcDbEntity
  8
1
100
AcDbText
 10
-97.9997966101695
 20
41.25
 30
0.0
 40
3.0
  1
XXXXXXXXX
 41
0.8
  7
futura
 72
     4
 11
-87.5
 21
42.75
 31
0.0
100
AcDbAttributeDefinition
  3
Nome da Peça:
  2
PECA
 70
     0
  0
ATTDEF
  5
BA1
330
B9E
100
AcDbEntity
  8
1
100
AcDbText
 10
-133.4422431161853
 20
21.11745296763252
 30
0.0
 40
2.5
  1
X
 41
0.8
  7
SANINDUSA
 72
     4
 11
-132.5
 21
22.36745296763252
 31
0.0
100
AcDbAttributeDefinition
  3
Cod. TESTE:
  2
TESTE
 70
     0
  0
ATTDEF
  5
BA2
330
B9E
100
AcDbEntity
  8
1
100
AcDbText
 10
-124.3844862323707
 20
21.11745296763252
 30
0.0
 40
2.5
  1
XX
 41
0.8
  7
SANINDUSA
 72
     4
 11
-122.5
 21
22.36745296763252
 31
0.0
100
AcDbAttributeDefinition
  3
Cod. Ano:
  2
ANO
 70
     0
  0
ATTDEF
  5
BA3
330
B9E
100
AcDbEntity
  8
1
100
AcDbText
 10
-112.526889953052
 20
21.11745296763252
 30
0.0
 40
2.5
  1
XXX
 41
0.8
  7
SANINDUSA
 72
     4
 11
-109.700160604496
 21
22.36745296763252
 31
0.0
100
AcDbAttributeDefinition
  3
Cod. Sequência:
  2
SEQUENCIA
 70
     0
  0
ATTDEF
  5
BA4
330
B9E
100
AcDbEntity
  8
1
100
AcDbText
 10
-99.35382430979316
 20
21.11745296763252
 30
0.0
 40
2.5
  1
XX
 41
0.8
  7
SANINDUSA
 72
     4
 11
-97.46933807742244
 21
22.36745296763252
 31
0.0
100
AcDbAttributeDefinition
  3
Cod. Tipo:
  2
TIPO
 70
     0
  0
ATTDEF
  5
BA5
330
B9E
100
AcDbEntity
  8
1
100
AcDbText
 10
-87.42035911468438
 20
21.11745296763252
 30
0.0
 40
2.5
  1
XXX
 41
0.8
  7
SANINDUSA
 72
     4
 11
-84.59362976612828
 21
22.36745296763252
 31
0.0
100
AcDbAttributeDefinition
  3
Cod. Produto:
  2
PRODUTO
 70
     0
  0
ATTDEF
  5
BA6
330
B9E
100
AcDbEntity
  8
1
100
AcDbText
 10
-74.62051971917853
 20
21.11745296763252
 30
0.0
 40
2.5
  1
XXX
 41
0.8
  7
SANINDUSA
 72
     4
 11
-71.79379037062244
 21
22.36745296763252
 31
0.0
100
AcDbAttributeDefinition
  3
Cod. Peça:
  2
PECA
 70
     0
  0
ATTDEF
  5
BA7
330
B9E
100
AcDbEntity
  8
1
100
AcDbText
 10
-61.10603446650329
 20
21.11745296763252
 30
0.0
 40
2.5
  1
XX
 41
0.8
  7
SANINDUSA
 72
     4
 11
-59.22154823413257
 21
22.36745296763252
 31
0.0
100
AcDbAttributeDefinition
  3
Cod. Revisão:
  2
REV
 70
     0
  0
ATTDEF
  5
BA8
330
B9E
100
AcDbEntity
  8
1
100
AcDbText
 10
-48.43615325006194
 20
21.11745296763252
 30
0.0
 40
2.5
  1
XX
 41
0.8
  7
SANINDUSA
 72
     4
 11
-46.55166701769121
 21
22.36745296763252
 31
0.0
100
AcDbAttributeDefinition
  3
Cod. Alteração:
  2
ALT
 70
     0
  0
ATTDEF
  5
BA9
330
B9E
100
AcDbEntity
  8
1
100
AcDbText
 10
-35.19086635325722
 20
23.98875083948959
 30
0.0
 40
3.0
  1
1/XXX
 41
0.8
  7
SANINDUSA
 72
     4
 11
-30.0
 21
25.25
 31
0.0
100
AcDbAttributeDefinition
  3
Escala geral:
  2
ESCALA
 70
     0
  0
ATTDEF
  5
BAA
330
B9E
100
AcDbEntity
  8
1
100
AcDbText
 10
-15.65345869711215
 20
23.75
 30
0.0
 40
3.0
  1
XXXXX
 41
0.8
  7
SANINDUSA
 72
     4
 11
-10.0
 21
25.25
 31
0.0
100
AcDbAttributeDefinition
  3
Folha:
  2
FOLHA
 70
     0
  0
ATTDEF
  5
BAB
330
B9E
100
AcDbEntity
  8
1
100
AcDbText
 10
-178.5146998822042
 20
56.9531347542807
 30
0.0
 40
2.0
  1
xx
 41
0.8
  7
SANINDUSA
 72
     4
 11
-177.2123493113513
 21
57.70330265219877
 31
0.0
100
AcDbAttributeDefinition
  3
revisão
  2
REV.
 70
     0
  0
ATTDEF
  5
BAC
330
B9E
100
AcDbEntity
  8
1
100
AcDbText
 10
-172.7849640077129
 20
56.9531347542807
 30
0.0
 40
2.0
  1
xx
 41
0.8
  7
SANINDUSA
 72
     4
 11
-171.48261343686
 21
57.70330265219877
 31
0.0
100
AcDbAttributeDefinition
  3
alteração
  2
ALT.
 70
     0
  0
ATTDEF
  5
BAD
330
B9E
100
AcDbEntity
  8
1
100
AcDbText
 10
-168.007199951307
 20
56.70330265219877
 30
0.0
 40
2.0
  1
xx/xx/xxxx
 41
0.8
  7
SANINDUSA
 11
-168.007199951307
 21
57.70330265219877
 31
0.0
100
AcDbAttributeDefinition
  3
data
  2
DATA
 70
     0
 74
     2
  0
ATTDEF
  5
BAE
330
B9E
100
AcDbEntity
  8
1
100
AcDbText
 10
-168.5396372253371
 20
13.15916722632639
 30
0.0
 40
2.0
  1
XX/XX/XXXX
 41
0.8
  7
SANINDUSA
 72
     4
 11
-161.5099528734231
 21
14.0
 31
0.0
100
AcDbAttributeDefinition
  3
Data projecto
  2
DATA_PROJ
 70
     0
  0
ATTDEF
  5
BAF
330
B9E
100
AcDbEntity
  8
1
100
AcDbText
 10
-150.8658110728766
 20
13.24983210208193
 30
0.0
 40
2.0
  1
xxxxxxxx
 41
0.8
  7
SANINDUSA
 72
     4
 11
-145.6564087894649
 21
14.0
 31
0.0
100
AcDbAttributeDefinition
  3
nome de quem projectou
  2
NOME
 70
     0
  0
ATTDEF
  5
BB0
330
B9E
100
AcDbEntity
  8
1
100
AcDbText
 10
-168.5396372253371
 20
9.159167226326394
 30
0.0
 40
2.0
  1
XX/XX/XXXX
 41
0.8
  7
SANINDUSA
 72
     4
 11
-161.5099528734231
 21
10.0
 31
0.0
100
AcDbAttributeDefinition
  3
Data desenhou
  2
DATA_DES
 70
     0
  0
ATTDEF
  5
BB1
330
B9E
100
AcDbEntity
  8
1
100
AcDbText
 10
-151.516986358303
 20
9.249832102081933
 30
0.0
 40
2.0
  1
xxxxxxxxx
 41
0.8
  7
SANINDUSA
 72
     4
 11
-145.6564087894649
 21
10.0
 31
0.0
100
AcDbAttributeDefinition
  3
nome
  2
NOME
 70
     0
  0
ATTDEF
  5
BB2
330
B9E
100
AcDbEntity
  8
1
100
AcDbText
 10
-127.2924214135946
 20
14.1979876583216
 30
0.0
 40
2.0
  1
Vitreous China
 41
0.8
  7
SANINDUSA
 72
     4
 11
-119.231709526422
 21
15.22216495852308
 31
0.0
100
AcDbAttributeDefinition
  3
Nome do Material:
  2
MATERIAL
 70
     0
  0
ATTDEF
  5
BB3
330
B9E
100
AcDbEntity
  8
1
100
AcDbText
 10
-103.1563452122093
 20
14.38019043949261
 30
0.0
 40
2.0
  1
Branco
 41
0.8
  7
SANINDUSA
 72
     4
 11
-99.33418268702462
 21
15.35937109765245
 31
0.0
100
AcDbAttributeDefinition
  3
cor da peça
  2
COR
 70
     0
  0
ATTDEF
  5
BB4
330
B9E
100
AcDbEntity
  8
1
100
AcDbText
 10
-116.7235057085292
 20
5.975822699798522
 30
0.0
 40
2.0
  1
Vidrado
 41
0.8
  7
SANINDUSA
 72
     4
 11
-112.5
 21
7.0
 31
0.0
100
AcDbAttributeDefinition
  3
Tipo de acabamento:
  2
ACABAMENTO
 70
     0
  0
ATTDEF
  5
BB5
330
B9E
100
AcDbEntity
  8
1
100
AcDbText
 10
-79.18527869967246
 20
16.65066409850533
 30
0.0
 40
2.0
  1
XXXXXXX
 41
0.8
  7
SANINDUSA
 72
     4
 11
-73.90871724903445
 21
17.65066409850533
 31
0.0
100
AcDbAttributeDefinition
  3
Normas
  2
NORMAS
 70
     0
  0
ATTDEF
  5
BB6
330
B9E
100
AcDbEntity
  8
1
100
AcDbText
 10
-30.55312290127603
 20
14.0
 30
0.0
 40
2.0
  1
XXXXXXXXXXXXXX
 41
0.8
  7
SANINDUSA
 72
     4
 11
-20.0
 21
15.0
 31
0.0
100
AcDbAttributeDefinition
  3
Substitui o desenho:
  2
SUBSTITUI
 70
     0
  0
ATTDEF
  5
BB7
330
B9E
100
AcDbEntity
  8
1
100
AcDbText
 10
-31.30691739422431
 20
6.0
 30
0.0
 40
2.0
  1
XXXXXXXXXXXXXXX
 41
0.8
  7
SANINDUSA
 72
     4
 11
-20.0
 21
7.0
 31
0.0
100
AcDbAttributeDefinition
  3
Substituido por:
  2
SUBSTITUIDO
 70
     0
  0
ATTDEF
  5
BB8
330
B9E
100
AcDbEntity
  8
1
100
AcDbText
 10
-110.0220608548302
 20
1.478208457928303
 30
0.0
 40
2.0
  1
XXXXXXXXXXXXXXXXXXXXXXXXXXXXXXXXXX
 41
0.8
  7
SANINDUSA
 11
-110.0220608548302
 21
2.478208457928303
 31
0.0
100
AcDbAttributeDefinition
  3
Localização do desenho:
  2
LOC-DWG
 70
     0
 74
     2
  0
LINE
  5
BB9
330
B9E
100
AcDbEntity
  8
3
100
AcDbLine
 10
-135.0
 20
4.0
 30
0.0
 11
0.0000000000004547
 21
4.0
 31
0.0
  0
LINE
  5
BBA
330
B9E
100
AcDbEntity
  8
3
100
AcDbLine
 10
-90.00000000000046
 20
12.0
 30
0.0
 11
-135.0
 21
12.0
 31
0.0
  0
LINE
  5
BBB
330
B9E
100
AcDbEntity
  8
3
100
AcDbLine
 10
-135.0
 20
32.5
 30
0.0
 11
-40.0
 21
32.5
 31
0.0
  0
TEXT
  5
BBC
330
B9E
100
AcDbEntity
  8
1
100
AcDbText
 10
-134.0
 20
1.25
 30
0.0
 40
2.0
  1
Localização do des.:
 41
0.8
  7
SANINDUSA
 11
-134.0
 21
2.25
 31
0.0
100
AcDbText
 73
     2
  0
LINE
  5
BBD
330
B9E
100
AcDbEntity
  8
3
100
AcDbLine
 10
-180.0
 20
65.0
 30
0.0
 11
0.0
 21
65.0
 31
0.0
  0
LINE
  5
BBE
330
B9E
100
AcDbEntity
  8
leg fin
100
AcDbLine
 10
-40.0
 20
25.05956924886846
 30
0.0
 11
-135.0
 21
25.05956924886846
 31
0.0
  0
LINE
  5
BBF
330
B9E
100
AcDbEntity
  8
leg fin
100
AcDbLine
 10
-40.0
 20
28.5
 30
0.0
 11
-135.0
 21
28.5
 31
0.0
  0
LINE
  5
BC0
330
B9E
100
AcDbEntity
  8
3
100
AcDbLine
 10
-135.0
 20
50.0
 30
0.0
 11
-40.0
 21
50.0
 31
0.0
  0
TEXT
  5
BC1
330
B9E
100
AcDbEntity
  8
1
100
AcDbText
 10
-134.0
 20
29.75
 30
0.0
 40
2.0
  1
Desenho nº:
 41
0.8
  7
SANINDUSA
 11
-134.0
 21
30.75
 31
0.0
100
AcDbText
 73
     2
  0
TEXT
  5
BC2
330
B9E
100
AcDbEntity
  8
1
100
AcDbText
 10
-134.0
 20
9.25
 30
0.0
 40
2.0
  1
Acabamento:
 41
0.8
  7
SANINDUSA
 11
-134.0
 21
10.25
 31
0.0
100
AcDbText
 73
     2
  0
LINE
  5
BC3
330
B9E
100
AcDbEntity
  8
3
100
AcDbLine
 10
-180.0
 20
20.0
 30
0.0
 11
0.0
 21
20.0
 31
0.0
  0
LINE
  5
BC4
330
B9E
100
AcDbEntity
  8
1
100
AcDbLine
 10
-174.5810776056337
 20
55.5
 30
0.0
 11
-174.5810776056337
 21
65.0
 31
0.0
  0
LINE
  5
BC5
330
B9E
100
AcDbEntity
  8
1
100
AcDbLine
 10
-168.9210461879161
 20
55.5
 30
0.0
 11
-168.9210461879161
 21
65.0
 31
0.0
  0
LINE
  5
BC6
330
B9E
100
AcDbEntity
  8
1
100
AcDbLine
 10
-154.0988595589306
 20
55.5
 30
0.0
 11
-154.0988595589306
 21
65.0
 31
0.0
  0
LINE
  5
BC7
330
B9E
100
AcDbEntity
  8
3
100
AcDbLine
 10
-180.0
 20
65.0
 30
0.0
 11
-180.0
 21
0.0
 31
0.0
  0
LINE
  5
BC8
330
B9E
100
AcDbEntity
  8
3
100
AcDbLine
 10
-135.0
 20
0.0
 30
0.0
 11
-135.0
 21
65.0
 31
0.0
  0
TEXT
  5
BC9
330
B9E
100
AcDbEntity
  8
1
100
AcDbText
 10
-179.0
 20
9.75
 30
0.0
 40
1.5
  1
Des.
 41
0.8
  7
SANINDUSA
 11
-179.0
 21
10.5
 31
0.0
100
AcDbText
 73
     2
  0
LINE
  5
BCA
330
B9E
100
AcDbEntity
  8
1
100
AcDbLine
 10
-168.9210461879161
 20
20.0
 30
0.0
 11
-168.9210461879161
 21
0.0
 31
0.0
  0
LINE
  5
BCB
330
B9E
100
AcDbEntity
  8
1
100
AcDbLine
 10
-154.0988595589306
 20
20.0
 30
0.0
 11
-154.0988595589306
 21
0.0
 31
0.0
  0
LINE
  5
BCC
330
B9E
100
AcDbEntity
  8
1
100
AcDbLine
 10
-180.0
 20
4.0
 30
0.0
 11
-135.0
 21
4.0
 31
0.0
  0
LINE
  5
BCD
330
B9E
100
AcDbEntity
  8
1
100
AcDbLine
 10
-180.0
 20
8.0
 30
0.0
 11
-135.0
 21
8.0
 31
0.0
  0
TEXT
  5
BCE
330
B9E
100
AcDbEntity
  8
1
100
AcDbText
 10
-179.0
 20
1.73257823687436
 30
0.0
 40
1.5
  1
Aprov.
 41
0.8
  7
SANINDUSA
 11
-179.0
 21
2.48257823687436
 31
0.0
100
AcDbText
 73
     2
  0
TEXT
  5
BCF
330
B9E
100
AcDbEntity
  8
1
100
AcDbText
 10
-179.0
 20
5.75
 30
0.0
 40
1.5
  1
Ver.
 41
0.8
  7
SANINDUSA
 11
-179.0
 21
6.5
 31
0.0
100
AcDbText
 73
     2
  0
LINE
  5
BD0
330
B9E
100
AcDbEntity
  8
1
100
AcDbLine
 10
-180.0
 20
16.0
 30
0.0
 11
-135.0
 21
16.0
 31
0.0
  0
LINE
  5
BD1
330
B9E
100
AcDbEntity
  8
1
100
AcDbLine
 10
-180.0
 20
12.0
 30
0.0
 11
-135.0
 21
12.0
 31
0.0
  0
TEXT
  5
BD2
330
B9E
100
AcDbEntity
  8
1
100
AcDbText
 10
-179.0
 20
13.75
 30
0.0
 40
1.5
  1
Proj.
 41
0.8
  7
SANINDUSA
 11
-179.0
 21
14.5
 31
0.0
100
AcDbText
 73
     2
  0
TEXT
  5
BD3
330
B9E
100
AcDbEntity
  8
1
100
AcDbText
 10
-167.9210461879161
 20
17.75
 30
0.0
 40
1.5
  1
Data
 41
0.8
  7
SANINDUSA
 11
-167.9210461879161
 21
18.5
 31
0.0
100
AcDbText
 73
     2
  0
TEXT
  5
BD4
330
B9E
100
AcDbEntity
  8
1
100
AcDbText
 10
-153.0988595589306
 20
17.75
 30
0.0
 40
1.5
  1
Nome
 41
0.8
  7
SANINDUSA
 11
-153.0988595589306
 21
18.5
 31
0.0
100
AcDbText
 73
     2
  0
LINE
  5
BD5
330
B9E
100
AcDbEntity
  8
leg fin
100
AcDbLine
 10
-130.0
 20
20.0
 30
0.0
 11
-130.0
 21
28.5
 31
0.0
  0
TEXT
  5
BD6
330
B9E
100
AcDbEntity
  8
1
100
AcDbText
 10
-134.0
 20
17.25
 30
0.0
 40
2.0
  1
Material:
 41
0.8
  7
SANINDUSA
 11
-134.0
 21
18.25
 31
0.0
100
AcDbText
 73
     2
  0
TEXT
  5
BD7
330
B9E
100
AcDbEntity
  8
1
100
AcDbText
 10
-129.0
 20
26.43288406845113
 30
0.0
 40
1.5
  1
Ano:
 41
0.8
  7
SANINDUSA
 11
-129.0
 21
27.18288406845113
 31
0.0
100
AcDbText
 73
     2
  0
LINE
  5
BD8
330
B9E
100
AcDbEntity
  8
1
100
AcDbLine
 10
-180.0
 20
55.5
 30
0.0
 11
-135.0
 21
55.5
 31
0.0
  0
TEXT
  5
BD9
330
B9E
100
AcDbEntity
  8
1
100
AcDbText
 10
-179.0
 20
52.67772246885193
 30
0.0
 40
1.5
  1
descrição
 41
0.8
  7
SANINDUSA
 11
-179.0
 21
53.42772246885193
 31
0.0
100
AcDbText
 73
     2
  0
TEXT
  5
BDA
330
B9E
100
AcDbEntity
  8
1
100
AcDbText
 10
-134.0
 20
47.25
 30
0.0
 40
2.0
  1
Peça:
 41
0.8
  7
SANINDUSA
 11
-134.0
 21
48.25
 31
0.0
100
AcDbText
 73
     2
  0
LINE
  5
BDB
330
B9E
100
AcDbEntity
  8
1
100
AcDbLine
 10
-180.0
 20
59.5
 30
0.0
 11
-135.0
 21
59.5
 31
0.0
  0
TEXT
  5
BDC
330
B9E
100
AcDbEntity
  8
1
100
AcDbText
 10
-173.5810776056337
 20
62.75
 30
0.0
 40
1.5
  1
Alt.
 41
0.8
  7
SANINDUSA
 11
-173.5810776056337
 21
63.5
 31
0.0
100
AcDbText
 73
     2
  0
TEXT
  5
BDD
330
B9E
100
AcDbEntity
  8
1
100
AcDbText
 10
-179.0
 20
62.75
 30
0.0
 40
1.5
  1
Rev.
 41
0.8
  7
SANINDUSA
 11
-179.0
 21
63.5
 31
0.0
100
AcDbText
 73
     2
  0
TEXT
  5
BDE
330
B9E
100
AcDbEntity
  8
1
100
AcDbText
 10
-167.9210461879161
 20
62.75
 30
0.0
 40
1.5
  1
Data
 41
0.8
  7
SANINDUSA
 11
-167.9210461879161
 21
63.5
 31
0.0
100
AcDbText
 73
     2
  0
TEXT
  5
BDF
330
B9E
100
AcDbEntity
  8
1
100
AcDbText
 10
-153.0988595589306
 20
62.75
 30
0.0
 40
1.5
  1
Nome
 41
0.8
  7
SANINDUSA
 11
-153.0988595589306
 21
63.5
 31
0.0
100
AcDbText
 73
     2
  0
TEXT
  5
BE0
330
B9E
100
AcDbEntity
  8
1
100
AcDbText
 10
-134.0
 20
62.25
 30
0.0
 40
2.0
  1
Produto:
 41
0.8
  7
SANINDUSA
 11
-134.0
 21
63.25
 31
0.0
100
AcDbText
 73
     2
  0
LINE
  5
BE1
330
B9E
100
AcDbEntity
  8
3
100
AcDbLine
 10
-40.0
 20
4.0
 30
0.0
 11
-40.0
 21
65.0
 31
0.0
  0
LWPOLYLINE
  5
BE2
102
{ACAD_REACTORS
330
BEC
102
}
330
B9E
100
AcDbEntity
  8
9
100
AcDbPolyline
 90
       12
 70
     1
 43
0.0
 10
-3.038714600644652
 20
58.90010174665076
 10
-5.726962862472191
 20
58.90010174665076
 10
-5.726962862472191
 20
58.5001017466509
 10
-3.038748516195028
 20
58.5001017466509
 42
-0.4142135623731731
 10
-2.638748516194482
 20
58.1001017466508
 10
-2.638748516194482
 20
57.42799728675596
 10
-5.21497371544865
 20
57.42799728675596
 42
0.4142135623731289
 10
-6.014973715448377
 20
56.627997286756
 10
-6.014973715448377
 20
55.92380871629643
 42
0.4142135623731132
 10
-5.21497371544865
 20
55.12380871629648
 10
-2.23871460064447
 20
55.12380871629648
 10
-2.23871460064447
 20
58.10010174665103
 42
0.4142135623730717
  0
LWPOLYLINE
  5
BE3
102
{ACAD_REACTORS
330
BEC
102
}
330
B9E
100
AcDbEntity
  8
9
100
AcDbPolyline
 90
       20
 70
     1
 43
0.0
 10
-10.01531287095122
 20
57.82799728675581
 10
-10.01531287095122
 20
58.10010174665103
 42
-0.4142135623730744
 10
-9.615312870951584
 20
58.5001017466509
 10
-6.92703069357276
 20
58.5001017466509
 10
-6.92703069357276
 20
58.90010174665076
 10
-9.615346786501959
 20
58.90010174665076
 42
0.4142135623730883
 10
-10.41534678650168
 20
58.1001017466508
 10
-10.41534678650168
 20
57.82796337120567
 42
0.4142135623730717
 10
-9.615346786501959
 20
57.02796337120571
 10
-7.423079531965413
 20
57.02796337120571
 42
-0.4142135623730847
 10
-7.023079531965322
 20
56.62796337120562
 10
-7.023079531965322
 20
55.90786840766487
 42
-0.4142135623730744
 10
-7.423079531965413
 20
55.507868407665
 10
-10.41534678650168
 20
55.507868407665
 10
-10.41534678650168
 20
55.12380871629648
 10
-7.445787917283723
 20
55.12380871629648
 42
0.4114777732064574
 10
-6.645822882998345
 20
55.9163291493976
 10
-6.639238813324936
 20
56.62051771985716
 42
0.4169546541682913
 10
-7.439203847610315
 20
57.42799728675596
 10
-9.615312870951584
 20
57.42799728675596
 42
-0.4142135623731576
  0
LWPOLYLINE
  5
BE4
102
{ACAD_REACTORS
330
BEC
102
}
330
B9E
100
AcDbEntity
  8
9
100
AcDbPolyline
 90
       12
 70
     1
 43
0.0
 10
-14.41561811090378
 20
58.90010174665076
 10
-14.79964388672215
 20
58.90010174665076
 10
-14.79964388672215
 20
55.92380871629643
 42
0.4142135623731133
 10
-13.99964388672242
 20
55.12380871629648
 10
-11.8233508563676
 20
55.12380871629648
 42
0.4142135623730872
 10
-11.02335085636741
 20
55.92380871629643
 10
-11.02335085636741
 20
58.90010174665076
 10
-11.42338477191788
 20
58.90010174665076
 10
-11.42338477191788
 20
55.91567577726095
 42
-0.4131711701795318
 10
-11.82196067063523
 20
55.51567831234956
 10
-14.0141940096214
 20
55.50787335710947
 42
-0.4152567234624407
 10
-14.41561811090378
 20
55.90787082202087
  0
LWPOLYLINE
  5
BE5
102
{ACAD_REACTORS
330
BEC
102
}
330
B9E
100
AcDbEntity
  8
9
100
AcDbPolyline
 90
        6
 70
     1
 43
0.0
 10
-15.80771578768872
 20
55.507868407665
 10
-18.39994912667453
 20
55.507868407665
 42
-0.4142135623731731
 10
-18.79994912667462
 20
55.90786840766487
 10
-18.79994912667462
 20
58.10010174665103
 42
-0.4142135623730744
 10
-18.39994912667453
 20
58.5001017466509
 10
-15.80771578768872
 20
58.5001017466509
  0
LWPOLYLINE
  5
BE6
102
{ACAD_REACTORS
330
BEC
102
}
330
B9E
100
AcDbEntity
  8
9
100
AcDbPolyline
 90
        8
 70
     1
 43
0.0
 10
-15.4236900118708
 20
59.87619128370352
 10
-15.80771578768872
 20
59.87619128370352
 10
-15.80771578768872
 20
58.90010174665076
 10
-18.39176256411201
 20
58.90010174665076
 42
0.4131164467977967
 10
-19.19175694739761
 20
58.1030995310698
 10
-19.1999120763262
 20
55.92680650071542
 42
0.4153115297271718
 10
-18.39991769304061
 20
55.12380871629648
 10
-15.4236900118708
 20
55.12380871629648
  0
LWPOLYLINE
  5
BE7
102
{ACAD_REACTORS
330
BEC
102
}
330
B9E
100
AcDbEntity
  8
9
100
AcDbPolyline
 90
       10
 70
     1
 43
0.0
 10
-20.59201288790928
 20
58.90010174665076
 10
-23.56830591826338
 20
58.90010174665076
 10
-23.56830591826338
 20
55.12380871629648
 10
-23.18424622689509
 20
55.12380871629648
 10
-23.18424622689509
 20
58.5001017466509
 10
-20.59204680345965
 20
58.5001017466509
 42
-0.4142135623730898
 10
-20.19204680345956
 20
58.1001017466508
 10
-20.19204680345956
 20
55.12380871629648
 10
-19.79201288790909
 20
55.12380871629648
 10
-19.79201288790909
 20
58.10010174665103
 42
0.4142135623731132
  0
LWPOLYLINE
  5
BE8
102
{ACAD_REACTORS
330
BEC
102
}
330
B9E
100
AcDbEntity
  8
9
100
AcDbPolyline
 90
        4
 70
     1
 43
0.0
 10
-24.19231812786165
 20
58.90010174665076
 10
-24.57637781922995
 20
58.90010174665076
 10
-24.57637781922995
 20
55.12380871629648
 10
-24.19231812786165
 20
55.12380871629648
  0
LWPOLYLINE
  5
BE9
102
{ACAD_REACTORS
330
BEC
102
}
330
B9E
100
AcDbEntity
  8
9
100
AcDbPolyline
 90
       10
 70
     1
 43
0.0
 10
-28.57661522808212
 20
58.5001017466509
 10
-25.98444972019706
 20
58.5001017466509
 42
-0.4142135623731731
 10
-25.58444972019652
 20
58.1001017466508
 10
-25.58444972019652
 20
55.12380871629648
 10
-25.2004239443786
 20
55.12380871629648
 10
-25.2004239443786
 20
58.10010174665103
 42
0.4142135623730717
 10
-26.00042394437833
 20
58.90010174665076
 10
-28.97664914363259
 20
58.90010174665076
 10
-28.97664914363259
 20
55.12380871629648
 10
-28.57661522808212
 20
55.12380871629648
  0
LWPOLYLINE
  5
BEA
102
{ACAD_REACTORS
330
BEC
102
}
330
B9E
100
AcDbEntity
  8
9
100
AcDbPolyline
 90
       12
 70
     1
 43
0.0
 10
-29.58465321349832
 20
58.10010174665103
 42
0.4142135623730716
 10
-30.3846532134985
 20
58.90010174665076
 10
-33.07296930642724
 20
58.90010174665076
 10
-33.07296930642724
 20
58.5001017466509
 10
-30.38468712904842
 20
58.5001017466509
 42
-0.4142135623730067
 10
-29.98468712904878
 20
58.1001017466508
 10
-29.98468712904878
 20
57.42799728675618
 10
-32.56098015940324
 20
57.42799728675596
 42
0.4142135623731289
 10
-33.36098015940343
 20
56.627997286756
 10
-33.36098015940343
 20
55.92380871629643
 42
0.4142135623731132
 10
-32.56098015940324
 20
55.12380871629648
 10
-29.58465321349832
 20
55.12380871629648
  0
LWPOLYLINE
  5
BEB
102
{ACAD_REACTORS
330
BEC
102
}
330
B9E
100
AcDbEntity
  8
9
100
AcDbPolyline
 90
       20
 70
     1
 43
0.0
 10
-34.7850262845518
 20
57.42799728675596
 10
-36.96125148380543
 20
57.42799728675596
 42
-0.4142135623730898
 10
-37.36125148380552
 20
57.82799728675604
 10
-37.36125148380552
 20
58.10010174665103
 42
-0.4142135623730744
 10
-36.96125148380543
 20
58.5001017466509
 10
-34.27303713752781
 20
58.50010174665067
 10
-34.27303713752781
 20
58.90010174665076
 10
-36.96128539935535
 20
58.90010174665076
 42
0.4142135623731289
 10
-37.76128539935553
 20
58.1001017466508
 10
-37.76128539935553
 20
57.82796337120567
 42
0.4142135623730716
 10
-36.9612853993558
 20
57.02796337120571
 10
-34.76901814481926
 20
57.02796337120571
 42
-0.414213562373168
 10
-34.36901814481962
 20
56.62796337120562
 10
-34.36901814481962
 20
55.90786840766487
 42
-0.4142135623730744
 10
-34.76901814481926
 20
55.507868407665
 10
-37.76128539935553
 20
55.507868407665
 10
-37.76128539935553
 20
55.12380871629648
 10
-34.7850262845518
 20
55.12380871629648
 42
0.4142135623731289
 10
-33.98502628455162
 20
55.92380871629643
 10
-33.98502628455162
 20
56.627997286756
 42
0.4142135623731132
  0
HATCH
  5
BEC
330
B9E
100
AcDbEntity
  8
9
100
AcDbHatch
 10
0.0
 20
0.0
 30
0.0
210
0.0
220
0.0
230
1.0
  2
SOLID
 70
     1
 71
     1
 91
       13
 92
        7
 72
     1
 73
     1
 93
       20
 10
-34.36901814481962
 20
55.90786840766487
 42
-0.414213562372991
 10
-34.76901814481926
 20
55.507868407665
 42
0.0
 10
-37.76128539935553
 20
55.507868407665
 42
0.0
 10
-37.76128539935553
 20
55.12380871629648
 42
0.0
 10
-34.7850262845518
 20
55.12380871629648
 42
0.4142135623731705
 10
-33.98502628455162
 20
55.92380871629666
 42
0.0
 10
-33.98502628455162
 20
56.627997286756
 42
0.4142135623731547
 10
-34.7850262845518
 20
57.42799728675596
 42
0.0
 10
-36.96125148380543
 20
57.42799728675596
 42
-0.4142135623730898
 10
-37.36125148380552
 20
57.82799728675604
 42
0.0
 10
-37.36125148380552
 20
58.1001017466508
 42
-0.4142135623731575
 10
-36.96125148380543
 20
58.5001017466509
 42
0.0
 10
-34.27303713752781
 20
58.50010174665067
 42
0.0
 10
-34.27303713752781
 20
58.90010174665076
 42
0.0
 10
-36.96128539935535
 20
58.90010174665076
 42
0.4142135623731705
 10
-37.76128539935553
 20
58.10010174665058
 42
0.0
 10
-37.76128539935553
 20
57.82796337120544
 42
0.4142135623730299
 10
-36.9612853993558
 20
57.02796337120571
 42
0.0
 10
-34.76901814481926
 20
57.02796337120571
 42
-0.4142135623730015
 10
-34.36901814481962
 20
56.62796337120608
 42
0.0
 97
        1
330
BEB
 92
        7
 72
     1
 73
     1
 93
       12
 10
-33.36098015940343
 20
55.92380871629666
 42
0.4142135623731547
 10
-32.56098015940324
 20
55.12380871629648
 42
0.0
 10
-29.58465321349877
 20
55.12380871629648
 42
0.0
 10
-29.58465321349832
 20
58.10010174665058
 42
0.4142135623731964
 10
-30.3846532134985
 20
58.90010174665076
 42
0.0
 10
-33.07296930642724
 20
58.90010174665076
 42
0.0
 10
-33.07296930642724
 20
58.50010174665067
 42
0.0
 10
-30.38468712904887
 20
58.5001017466509
 42
-0.4142135623732564
 10
-29.98468712904878
 20
58.10010174665103
 42
0.0
 10
-29.98468712904923
 20
57.42799728675596
 42
0.0
 10
-32.56098015940324
 20
57.42799728675596
 42
0.4142135623731705
 10
-33.36098015940343
 20
56.627997286756
 42
0.0
 97
        1
330
BEA
 92
       22
 72
     1
 73
     1
 93
        6
 10
-32.97692046803468
 20
56.62796337120562
 42
-0.4142135623731576
 10
-32.57692046803459
 20
57.02796337120571
 42
0.0
 10
-29.98468712904878
 20
57.02796337120571
 42
0.0
 10
-29.98468712904878
 20
55.507868407665
 42
0.0
 10
-32.57692046803459
 20
55.507868407665
 42
-0.4142135623731731
 10
-32.97692046803468
 20
55.90786840766487
 42
0.0
 97
        1
330
C11
 92
        7
 72
     1
 73
     1
 93
       10
 10
-28.57661522808212
 20
58.5001017466509
 42
0.0
 10
-25.98444972019661
 20
58.5001017466509
 42
-0.4142135623730067
 10
-25.58444972019652
 20
58.10010174665058
 42
0.0
 10
-25.58444972019606
 20
55.12380871629648
 42
0.0
 10
-25.20042394437906
 20
55.12380871629648
 42
0.0
 10
-25.2004239443786
 20
58.1001017466508
 42
0.4142135623731134
 10
-26.00042394437833
 20
58.90010174665076
 42
0.0
 10
-28.97664914363259
 20
58.90010174665076
 42
0.0
 10
-28.97664914363259
 20
55.12380871629648
 42
0.0
 10
-28.57661522808212
 20
55.12380871629648
 42
0.0
 97
        1
330
BE9
 92
        7
 72
     0
 73
     1
 93
        4
 10
-24.57637781922995
 20
55.12380871629648
 10
-24.19231812786165
 20
55.12380871629648
 10
-24.19231812786165
 20
58.90010174665076
 10
-24.57637781922995
 20
58.90010174665076
 97
        1
330
BE8
 92
        7
 72
     0
 73
     1
 93
        4
 10
-24.19231812786165
 20
59.87619128370352
 10
-24.5763778192304
 20
59.87619128370352
 10
-24.5763778192304
 20
59.28412752246913
 10
-24.1923181278612
 20
59.28412752246913
 97
        1
330
C12
 92
        7
 72
     1
 73
     1
 93
       10
 10
-23.18424622689509
 20
58.5001017466509
 42
0.0
 10
-20.59204680345965
 20
58.5001017466509
 42
-0.4142135623730898
 10
-20.19204680345956
 20
58.1001017466508
 42
0.0
 10
-20.19204680345956
 20
55.12380871629648
 42
0.0
 10
-19.79201288790909
 20
55.12380871629648
 42
0.0
 10
-19.79201288790909
 20
58.1001017466508
 42
0.4142135623731547
 10
-20.59201288790928
 20
58.90010174665076
 42
0.0
 10
-23.56830591826338
 20
58.90010174665076
 42
0.0
 10
-23.56830591826338
 20
55.12380871629648
 42
0.0
 10
-23.18424622689463
 20
55.12380871629648
 42
0.0
 97
        1
330
BE7
 92
        7
 72
     1
 73
     1
 93
        8
 10
-19.1999120763262
 20
55.92680650071542
 42
0.4153115297271299
 10
-18.39991769304061
 20
55.12380871629648
 42
0.0
 10
-15.4236900118708
 20
55.12380871629648
 42
0.0
 10
-15.4236900118708
 20
59.87619128370352
 42
0.0
 10
-15.80771578768872
 20
59.87619128370352
 42
0.0
 10
-15.80771578768872
 20
58.90010174665076
 42
0.0
 10
-18.39176256411201
 20
58.90010174665076
 42
0.4131164467977965
 10
-19.19175694739761
 20
58.1030995310698
 42
0.0
 97
        1
330
BE6
 92
       22
 72
     1
 73
     1
 93
        6
 10
-18.79994912667462
 20
58.1001017466508
 42
-0.4142135623731575
 10
-18.39994912667453
 20
58.5001017466509
 42
0.0
 10
-15.80771578768872
 20
58.50010174665067
 42
0.0
 10
-15.80771578768827
 20
55.507868407665
 42
0.0
 10
-18.39994912667453
 20
55.507868407665
 42
-0.4142135623731731
 10
-18.79994912667462
 20
55.90786840766487
 42
0.0
 97
        1
330
BE5
 92
        7
 72
     1
 73
     1
 93
       12
 10
-14.79964388672215
 20
55.92380871629621
 42
0.4142135623729885
 10
-13.99964388672242
 20
55.12380871629648
 42
0.0
 10
-11.8233508563676
 20
55.12380871629648
 42
0.4142135623731289
 10
-11.02335085636741
 20
55.92380871629666
 42
0.0
 10
-11.02335085636741
 20
58.90010174665076
 42
0.0
 10
-11.42338477191788
 20
58.90010174665076
 42
0.0
 10
-11.42338477191788
 20
55.91567577726095
 42
-0.4131711701795319
 10
-11.82196067063523
 20
55.51567831234956
 42
0.0
 10
-14.01419400962095
 20
55.50787335710947
 42
-0.4152567234626918
 10
-14.41561811090378
 20
55.90787082202087
 42
0.0
 10
-14.41561811090378
 20
58.90010174665076
 42
0.0
 10
-14.7996438867226
 20
58.90010174665076
 42
0.0
 97
        1
330
BE4
 92
        7
 72
     1
 73
     1
 93
       20
 10
-7.423079531965413
 20
57.02796337120571
 42
-0.414213562373168
 10
-7.023079531965322
 20
56.62796337120562
 42
0.0
 10
-7.023079531965322
 20
55.90786840766487
 42
-0.4142135623731575
 10
-7.423079531965413
 20
55.507868407665
 42
0.0
 10
-10.41534678650168
 20
55.507868407665
 42
0.0
 10
-10.41534678650168
 20
55.12380871629648
 42
0.0
 10
-7.445787917283723
 20
55.12380871629648
 42
0.4114777732065809
 10
-6.645822882998345
 20
55.91632914939783
 42
0.0
 10
-6.639238813324936
 20
56.62051771985716
 42
0.4169546541682913
 10
-7.439203847610315
 20
57.42799728675596
 42
0.0
 10
-9.615312870951584
 20
57.42799728675596
 42
-0.4142135623729911
 10
-10.01531287095122
 20
57.82799728675581
 42
0.0
 10
-10.01531287095122
 20
58.10010174665103
 42
-0.414213562372991
 10
-9.615312870951584
 20
58.5001017466509
 42
0.0
 10
-6.92703069357276
 20
58.50010174665067
 42
0.0
 10
-6.927030693572305
 20
58.90010174665076
 42
0.0
 10
-9.615346786501959
 20
58.90010174665076
 42
0.4142135623730467
 10
-10.41534678650168
 20
58.10010174665103
 42
0.0
 10
-10.41534678650168
 20
57.82796337120544
 42
0.4142135623730301
 10
-9.615346786501959
 20
57.02796337120571
 42
0.0
 97
        1
330
BE3
 92
        7
 72
     1
 73
     1
 93
       12
 10
-5.21497371544865
 20
57.42799728675596
 42
0.4142135623730871
 10
-6.014973715448377
 20
56.627997286756
 42
0.0
 10
-6.014973715448377
 20
55.92380871629621
 42
0.4142135623730715
 10
-5.21497371544865
 20
55.12380871629648
 42
0.0
 10
-2.23871460064447
 20
55.12380871629648
 42
0.0
 10
-2.23871460064447
 20
58.10010174665058
 42
0.414213562373155
 10
-3.038714600644652
 20
58.90010174665076
 42
0.0
 10
-5.726962862471737
 20
58.90010174665076
 42
0.0
 10
-5.726962862472191
 20
58.5001017466509
 42
0.0
 10
-3.038748516194573
 20
58.5001017466509
 42
-0.4142135623730067
 10
-2.638748516194482
 20
58.10010174665058
 42
0.0
 10
-2.638748516194482
 20
57.42799728675596
 42
0.0
 97
        1
330
BE2
 92
       22
 72
     1
 73
     1
 93
        6
 10
-2.638748516194937
 20
57.02796337120571
 42
0.0
 10
-2.638748516194482
 20
55.50786840766477
 42
0.0
 10
-5.21497371544865
 20
55.507868407665
 42
-0.4142135623731731
 10
-5.614973715448741
 20
55.90786840766509
 42
0.0
 10
-5.614973715448741
 20
56.62796337120562
 42
-0.4142135623731576
 10
-5.21497371544865
 20
57.02796337120571
 42
0.0
 97
        1
330
C0D
 75
     0
 76
     1
 47
0.0407044778999864
 98
       13
 10
-34.18710075113677
 20
56.16907953933765
 10
-33.12851374392494
 20
56.49471602641233
 10
-33.12851374392494
 20
56.49471602641233
 10
-28.77202873835904
 20
57.51232930166111
 10
-24.41554807250941
 20
57.91937341678636
 10
-24.41554807250941
 20
59.384734621186
 10
-23.31624584658039
 20
58.3264175319116
 10
-19.04119127844888
 20
57.75655517324913
 10
-19.04119127844888
 20
57.75655517324913
 10
-14.64399105416578
 20
57.43091868617466
 10
-8.048195057457178
 20
57.22739662861204
 10
-4.017427461911665
 20
57.18669281458665
 10
-4.017427461911665
 20
57.18669281458665
  0
TEXT
  5
BED
330
B9E
100
AcDbEntity
  8
leg fin
100
AcDbText
 10
3.391127401597259
 20
2.107634911895729
 30
0.0
 40
1.5
  1
Este desenho é propriedade da Sanindusa, S.A., e não pode ser copiado nem divulgado sem nossa autorização.
 50
90.0
 41
0.8
  7
SANINDUSA
100
AcDbText
  0
LINE
  5
BEE
330
B9E
100
AcDbEntity
  8
3
100
AcDbLine
 10
-90.0
 20
4.0
 30
0.0
 11
-90.0
 21
12.0
 31
0.0
  0
TEXT
  5
BEF
330
B9E
100
AcDbEntity
  8
1
100
AcDbText
 10
-39.0
 20
9.25
 30
0.0
 40
2.0
  1
Substituido por:
 41
0.8
  7
SANINDUSA
 11
-39.0
 21
10.25
 31
0.0
100
AcDbText
 73
     2
  0
POINT
  5
BF0
330
B9E
100
AcDbEntity
  8
SANINDUSA
100
AcDbPoint
 10
0.0
 20
0.0
 30
0.0
  0
TEXT
  5
BF1
330
B9E
100
AcDbEntity
  8
1
100
AcDbText
 10
-89.0
 20
16.74927010445663
 30
0.0
 40
2.0
  1
Normas:
 41
0.8
  7
SANINDUSA
 11
-89.0
 21
17.74927010445663
 31
0.0
100
AcDbText
 73
     2
  0
LINE
  5
BF2
330
B9E
100
AcDbEntity
  8
3
100
AcDbLine
 10
-90.0
 20
12.0
 30
0.0
 11
-90.0
 21
20.0
 31
0.0
  0
LINE
  5
BF3
330
B9E
100
AcDbEntity
  8
3
100
AcDbLine
 10
-110.546019464768
 20
12.0
 30
0.0
 11
-110.546019464768
 21
20.0
 31
0.0
  0
TEXT
  5
BF4
330
B9E
100
AcDbEntity
  8
1
100
AcDbText
 10
-109.6177520618648
 20
17.25
 30
0.0
 40
2.0
  1
Cor:
 41
0.8
  7
SANINDUSA
 11
-109.6177520618648
 21
18.25
 31
0.0
100
AcDbText
 73
     2
  0
LINE
  5
BF5
330
B9E
100
AcDbEntity
  8
leg fin
100
AcDbLine
 10
-91.42857142857156
 20
20.0
 30
0.0
 11
-91.42857142857156
 21
28.5
 31
0.0
  0
LINE
  5
BF6
330
B9E
100
AcDbEntity
  8
leg fin
100
AcDbLine
 10
-104.2857142857142
 20
20.0
 30
0.0
 11
-104.2857142857142
 21
28.5
 31
0.0
  0
LINE
  5
BF7
330
B9E
100
AcDbEntity
  8
leg fin
100
AcDbLine
 10
-117.1428571428573
 20
20.0
 30
0.0
 11
-117.1428571428573
 21
28.5
 31
0.0
  0
POINT
  5
BF8
330
B9E
100
AcDbEntity
  8
SANINDUSA
100
AcDbPoint
 10
-117.1428571428573
 20
28.5
 30
0.0
  0
POINT
  5
BF9
330
B9E
100
AcDbEntity
  8
SANINDUSA
100
AcDbPoint
 10
-104.2857142857142
 20
28.5
 30
0.0
  0
POINT
  5
BFA
330
B9E
100
AcDbEntity
  8
SANINDUSA
100
AcDbPoint
 10
-91.42857142857156
 20
28.5
 30
0.0
  0
TEXT
  5
BFB
330
B9E
100
AcDbEntity
  8
1
100
AcDbText
 10
-116.200160604496
 20
26.43288406845113
 30
0.0
 40
1.5
  1
Nº Seq.:
 41
0.8
  7
SANINDUSA
 11
-116.200160604496
 21
27.18288406845113
 31
0.0
100
AcDbText
 73
     2
  0
TEXT
  5
BFC
330
B9E
100
AcDbEntity
  8
1
100
AcDbText
 10
-103.2106584078738
 20
26.43288406845113
 30
0.0
 40
1.5
  1
Tipo:
 41
0.8
  7
SANINDUSA
 11
-103.2106584078738
 21
27.18288406845113
 31
0.0
100
AcDbText
 73
     2
  0
TEXT
  5
BFD
330
B9E
100
AcDbEntity
  8
1
100
AcDbText
 10
-90.22114672289353
 20
26.43288406845113
 30
0.0
 40
1.5
  1
Prod.:
 41
0.8
  7
SANINDUSA
 11
-90.22114672289353
 21
27.18288406845113
 31
0.0
100
AcDbText
 73
     2
  0
TEXT
  5
BFE
330
B9E
100
AcDbEntity
  8
1
100
AcDbText
 10
-64.77320576346574
 20
26.43288406845113
 30
0.0
 40
1.5
  1
Rev.:
 41
0.8
  7
SANINDUSA
 11
-64.77320576346574
 21
27.18288406845113
 31
0.0
100
AcDbText
 73
     2
  0
LINE
  5
BFF
330
B9E
100
AcDbEntity
  8
leg fin
100
AcDbLine
 10
-52.85714285714266
 20
20.0
 30
0.0
 11
-52.85714285714266
 21
28.5
 31
0.0
  0
LINE
  5
C00
330
B9E
100
AcDbEntity
  8
leg fin
100
AcDbLine
 10
-65.71428571428578
 20
20.0
 30
0.0
 11
-65.71428571428578
 21
28.5
 31
0.0
  0
LINE
  5
C01
330
B9E
100
AcDbEntity
  8
leg fin
100
AcDbLine
 10
-78.57142857142844
 20
20.0
 30
0.0
 11
-78.57142857142844
 21
28.5
 31
0.0
  0
POINT
  5
C02
330
B9E
100
AcDbEntity
  8
SANINDUSA
100
AcDbPoint
 10
-78.57142857142844
 20
28.5
 30
0.0
  0
POINT
  5
C03
330
B9E
100
AcDbEntity
  8
SANINDUSA
100
AcDbPoint
 10
-65.71428571428578
 20
28.5
 30
0.0
  0
POINT
  5
C04
330
B9E
100
AcDbEntity
  8
SANINDUSA
100
AcDbPoint
 10
-52.85714285714266
 20
28.5
 30
0.0
  0
TEXT
  5
C05
330
B9E
100
AcDbEntity
  8
1
100
AcDbText
 10
-77.61097961686573
 20
26.43288406845113
 30
0.0
 40
1.5
  1
Peça:
 41
0.8
  7
SANINDUSA
 11
-77.61097961686573
 21
27.18288406845113
 31
0.0
100
AcDbText
 73
     2
  0
TEXT
  5
C06
330
B9E
100
AcDbEntity
  8
1
100
AcDbText
 10
-52.06538060077036
 20
26.43288406845113
 30
0.0
 40
1.5
  1
Alt.:
 41
0.8
  7
SANINDUSA
 11
-52.06538060077036
 21
27.18288406845113
 31
0.0
100
AcDbText
 73
     2
  0
LINE
  5
C07
330
B9E
100
AcDbEntity
  8
3
100
AcDbLine
 10
0.0
 20
12.0
 30
0.0
 11
-40.0
 21
12.0
 31
0.0
  0
LINE
  5
C08
330
B9E
100
AcDbEntity
  8
3
100
AcDbLine
 10
-40.0
 20
32.5
 30
0.0
 11
0.0
 21
32.5
 31
0.0
  0
TEXT
  5
C09
330
B9E
100
AcDbEntity
  8
1
100
AcDbText
 10
-19.0
 20
29.75
 30
0.0
 40
2.0
  1
Folha:
 41
0.8
  7
SANINDUSA
 11
-19.0
 21
30.75
 31
0.0
100
AcDbText
 73
     2
  0
LINE
  5
C0A
330
B9E
100
AcDbEntity
  8
3
100
AcDbLine
 10
-20.0
 20
32.5
 30
0.0
 11
-20.0
 21
20.0
 31
0.0
  0
TEXT
  5
C0B
330
B9E
100
AcDbEntity
  8
1
100
AcDbText
 10
-39.0
 20
29.75
 30
0.0
 40
2.0
  1
Escala:
 41
0.8
  7
SANINDUSA
 11
-39.0
 21
30.75
 31
0.0
100
AcDbText
 73
     2
  0
TEXT
  5
C0C
330
B9E
100
AcDbEntity
  8
1
100
AcDbText
 10
-39.0
 20
17.25
 30
0.0
 40
2.0
  1
Substitui:
 41
0.8
  7
SANINDUSA
 11
-39.0
 21
18.25
 31
0.0
100
AcDbText
 73
     2
  0
LWPOLYLINE
  5
C0D
102
{ACAD_REACTORS
330
BEC
102
}
330
B9E
100
AcDbEntity
  8
9
100
AcDbPolyline
 90
        6
 70
     1
 43
0.0
 10
-2.638748516194482
 20
57.02796337120571
 10
-2.638748516194482
 20
55.50786840766477
 10
-5.21497371544865
 20
55.507868407665
 42
-0.4142135623730898
 10
-5.614973715448741
 20
55.90786840766487
 10
-5.614973715448741
 20
56.62796337120562
 42
-0.4142135623731576
 10
-5.21497371544865
 20
57.02796337120571
  0
LINE
  5
C0E
330
B9E
100
AcDbEntity
  8
3
100
AcDbLine
 10
-40.0
 20
50.0
 30
0.0
 11
0.0
 21
50.0
 31
0.0
  0
ATTDEF
  5
C0F
330
B9E
100
AcDbEntity
  8
1
100
AcDbText
 10
-31.30691739422431
 20
40.25
 30
0.0
 40
2.0
  1
XXXXXXXXXXXXXXX
 41
0.8
  7
SANINDUSA
 72
     4
 11
-20.0
 21
41.25
 31
0.0
100
AcDbAttributeDefinition
  3
Observações:
  2
OBS
 70
     0
  0
TEXT
  5
C10
330
B9E
100
AcDbEntity
  8
1
100
AcDbText
 10
-39.0
 20
47.25
 30
0.0
 40
2.0
  1
Observações:
 41
0.8
  7
SANINDUSA
 11
-39.0
 21
48.25
 31
0.0
100
AcDbText
 73
     2
  0
LWPOLYLINE
  5
C11
102
{ACAD_REACTORS
330
BEC
102
}
330
B9E
100
AcDbEntity
  8
9
100
AcDbPolyline
 90
        6
 70
     1
 43
0.0
 10
-29.98468712904878
 20
57.02796337120571
 10
-29.98468712904878
 20
55.507868407665
 10
-32.57692046803459
 20
55.507868407665
 42
-0.4142135623731731
 10
-32.97692046803468
 20
55.90786840766487
 10
-32.97692046803468
 20
56.62796337120562
 42
-0.4142135623731576
 10
-32.57692046803459
 20
57.02796337120571
  0
LWPOLYLINE
  5
C12
102
{ACAD_REACTORS
330
BEC
102
}
330
B9E
100
AcDbEntity
  8
9
100
AcDbPolyline
 90
        4
 70
     1
 43
0.0
 10
-24.19231812786165
 20
59.87619128370352
 10
-24.57637781922995
 20
59.87619128370352
 10
-24.57637781922995
 20
59.28412752246913
 10
-24.19231812786165
 20
59.28412752246913
  0
ENDBLK
  5
C14
330
B9E
100
AcDbEntity
  8
0
100
AcDbBlockEnd
  0
ENDSEC
  0
SECTION
  2
ENTITIES
  0
POLYLINE
  5
143B
330
1F
100
AcDbEntity
  8
SANINDUSA
100
AcDb2dPolyline
 66
     1
 10
0.0
 20
0.0
 30
0.0
 70
     1
  0
VERTEX
  5
143C
330
143B
100
AcDbEntity
  8
SANINDUSA
100
AcDbVertex
100
AcDb2dVertex
 10
4013.504299925452
 20
1627.870654173845
 30
0.0
 42
0.2881936776524728
  0
VERTEX
  5
143D
330
143B
100
AcDbEntity
  8
SANINDUSA
100
AcDbVertex
100
AcDb2dVertex
 10
4013.504413214357
 20
1627.870834399221
 30
0.0
  0
VERTEX
  5
143E
330
143B
100
AcDbEntity
  8
SANINDUSA
100
AcDbVertex
100
AcDb2dVertex
 10
4013.504413214357
 20
1627.871228443988
 30
0.0
 42
0.4142361536442981
  0
VERTEX
  5
143F
330
143B
100
AcDbEntity
  8
SANINDUSA
100
AcDbVertex
100
AcDb2dVertex
 10
4013.50421319893
 20
1627.871428443988
 30
0.0
  0
VERTEX
  5
1440
330
143B
100
AcDbEntity
  8
SANINDUSA
100
AcDbVertex
100
AcDb2dVertex
 10
4013.50111319893
 20
1627.871428204882
 30
0.0
 42
0.4141909714629004
  0
VERTEX
  5
1441
330
143B
100
AcDbEntity
  8
SANINDUSA
100
AcDbVertex
100
AcDb2dVertex
 10
4013.500913214357
 20
1627.871228204883
 30
0.0
  0
VERTEX
  5
1442
330
143B
100
AcDbEntity
  8
SANINDUSA
100
AcDbVertex
100
AcDb2dVertex
 10
4013.500913214357
 20
1627.870832005013
 30
0.0
 42
0.2849150464417384
  0
VERTEX
  5
1443
330
143B
100
AcDbEntity
  8
SANINDUSA
100
AcDbVertex
100
AcDb2dVertex
 10
4013.501024325468
 20
1627.87065284373
 30
0.0
 42
-0.6201736729454037
  0
VERTEX
  5
1444
330
143B
100
AcDbEntity
  8
SANINDUSA
100
AcDbVertex
100
AcDb2dVertex
 10
4013.501024325468
 20
1627.870204940522
 30
0.0
 42
0.2849150464416744
  0
VERTEX
  5
1445
330
143B
100
AcDbEntity
  8
SANINDUSA
100
AcDbVertex
100
AcDb2dVertex
 10
4013.500913214357
 20
1627.870025779238
 30
0.0
  0
VERTEX
  5
1446
330
143B
100
AcDbEntity
  8
SANINDUSA
100
AcDbVertex
100
AcDb2dVertex
 10
4013.500913214357
 20
1627.86783200627
 30
0.0
 42
0.2849150464419475
  0
VERTEX
  5
1447
330
143B
100
AcDbEntity
  8
SANINDUSA
100
AcDbVertex
100
AcDb2dVertex
 10
4013.501024325468
 20
1627.867652844987
 30
0.0
 42
-0.6201736729454037
  0
VERTEX
  5
1448
330
143B
100
AcDbEntity
  8
SANINDUSA
100
AcDbVertex
100
AcDb2dVertex
 10
4013.501024325468
 20
1627.867204941778
 30
0.0
 42
0.2849150464416744
  0
VERTEX
  5
1449
330
143B
100
AcDbEntity
  8
SANINDUSA
100
AcDbVertex
100
AcDb2dVertex
 10
4013.500913214357
 20
1627.867025780495
 30
0.0
  0
VERTEX
  5
144A
330
143B
100
AcDbEntity
  8
SANINDUSA
100
AcDbVertex
100
AcDb2dVertex
 10
4013.500913214357
 20
1627.866023770564
 30
0.0
 42
-0.5595519418734724
  0
VERTEX
  5
144B
330
143B
100
AcDbEntity
  8
SANINDUSA
100
AcDbVertex
100
AcDb2dVertex
 10
4013.498588892555
 20
1627.864597110855
 30
0.0
 42
-0.2824196144421607
  0
VERTEX
  5
144C
330
143B
100
AcDbEntity
  8
SANINDUSA
100
AcDbVertex
100
AcDb2dVertex
 10
4013.493663202694
 20
1627.872622071721
 30
0.0
  0
VERTEX
  5
144D
330
143B
100
AcDbEntity
  8
SANINDUSA
100
AcDbVertex
100
AcDb2dVertex
 10
4013.493663202694
 20
1627.88942207172
 30
0.0
 42
-0.4142135623730951
  0
VERTEX
  5
144E
330
143B
100
AcDbEntity
  8
SANINDUSA
100
AcDbVertex
100
AcDb2dVertex
 10
4013.495463202693
 20
1627.89122207172
 30
0.0
  0
VERTEX
  5
144F
330
143B
100
AcDbEntity
  8
SANINDUSA
100
AcDbVertex
100
AcDb2dVertex
 10
4013.509863202693
 20
1627.89122207172
 30
0.0
 42
-0.4142135623730951
  0
VERTEX
  5
1450
330
143B
100
AcDbEntity
  8
SANINDUSA
100
AcDbVertex
100
AcDb2dVertex
 10
4013.511663202693
 20
1627.88942207172
 30
0.0
  0
VERTEX
  5
1451
330
143B
100
AcDbEntity
  8
SANINDUSA
100
AcDbVertex
100
AcDb2dVertex
 10
4013.511663202693
 20
1627.866228324435
 30
0.0
 42
-0.414213562373095
  0
VERTEX
  5
1452
330
143B
100
AcDbEntity
  8
SANINDUSA
100
AcDbVertex
100
AcDb2dVertex
 10
4013.509863202693
 20
1627.864428324435
 30
0.0
  0
VERTEX
  5
1453
330
143B
100
AcDbEntity
  8
SANINDUSA
100
AcDbVertex
100
AcDb2dVertex
 10
4013.506213214357
 20
1627.864428324435
 30
0.0
 42
-0.4142135623731689
  0
VERTEX
  5
1454
330
143B
100
AcDbEntity
  8
SANINDUSA
100
AcDbVertex
100
AcDb2dVertex
 10
4013.504413214357
 20
1627.866228324435
 30
0.0
  0
VERTEX
  5
1455
330
143B
100
AcDbEntity
  8
SANINDUSA
100
AcDbVertex
100
AcDb2dVertex
 10
4013.504413214357
 20
1627.867023386287
 30
0.0
 42
0.2881936776528216
  0
VERTEX
  5
1456
330
143B
100
AcDbEntity
  8
SANINDUSA
100
AcDbVertex
100
AcDb2dVertex
 10
4013.504299925452
 20
1627.867203611662
 30
0.0
 42
-0.6285957498500262
  0
VERTEX
  5
1457
330
143B
100
AcDbEntity
  8
SANINDUSA
100
AcDbVertex
100
AcDb2dVertex
 10
4013.504299925452
 20
1627.867654175101
 30
0.0
 42
0.2881936776519791
  0
VERTEX
  5
1458
330
143B
100
AcDbEntity
  8
SANINDUSA
100
AcDbVertex
100
AcDb2dVertex
 10
4013.504413214357
 20
1627.867834400477
 30
0.0
  0
VERTEX
  5
1459
330
143B
100
AcDbEntity
  8
SANINDUSA
100
AcDbVertex
100
AcDb2dVertex
 10
4013.504413214357
 20
1627.870023385031
 30
0.0
 42
0.2881936776528216
  0
VERTEX
  5
145A
330
143B
100
AcDbEntity
  8
SANINDUSA
100
AcDbVertex
100
AcDb2dVertex
 10
4013.504299925452
 20
1627.870203610406
 30
0.0
 42
-0.6285957498503012
  0
SEQEND
  5
145B
330
143B
100
AcDbEntity
  8
SANINDUSA
  0
POLYLINE
  5
145C
330
1F
100
AcDbEntity
  8
SANINDUSA
100
AcDb2dPolyline
 66
     1
 10
0.0
 20
0.0
 30
0.0
  0
VERTEX
  5
145D
330
145C
100
AcDbEntity
  8
SANINDUSA
100
AcDbVertex
100
AcDb2dVertex
 10
4013.500113214357
 20
1627.866023770564
 30
0.0
 42
-0.5595519418736761
  0
VERTEX
  5
145E
330
145C
100
AcDbEntity
  8
SANINDUSA
100
AcDbVertex
100
AcDb2dVertex
 10
4013.498951053455
 20
1627.86531044071
 30
0.0
 42
-0.2824196144421585
  0
VERTEX
  5
145F
330
145C
100
AcDbEntity
  8
SANINDUSA
100
AcDbVertex
100
AcDb2dVertex
 10
4013.494463202693
 20
1627.872622071721
 30
0.0
  0
VERTEX
  5
1460
330
145C
100
AcDbEntity
  8
SANINDUSA
100
AcDbVertex
100
AcDb2dVertex
 10
4013.494463202693
 20
1627.88942207172
 30
0.0
 42
-0.4142135623730951
  0
VERTEX
  5
1461
330
145C
100
AcDbEntity
  8
SANINDUSA
100
AcDbVertex
100
AcDb2dVertex
 10
4013.495463202693
 20
1627.89042207172
 30
0.0
  0
VERTEX
  5
1462
330
145C
100
AcDbEntity
  8
SANINDUSA
100
AcDbVertex
100
AcDb2dVertex
 10
4013.509863202693
 20
1627.89042207172
 30
0.0
 42
-0.4142135623730951
  0
VERTEX
  5
1463
330
145C
100
AcDbEntity
  8
SANINDUSA
100
AcDbVertex
100
AcDb2dVertex
 10
4013.510863202693
 20
1627.88942207172
 30
0.0
  0
VERTEX
  5
1464
330
145C
100
AcDbEntity
  8
SANINDUSA
100
AcDbVertex
100
AcDb2dVertex
 10
4013.510863202693
 20
1627.866028324435
 30
0.0
 42
-0.4142135623730951
  0
VERTEX
  5
1465
330
145C
100
AcDbEntity
  8
SANINDUSA
100
AcDbVertex
100
AcDb2dVertex
 10
4013.510063202693
 20
1627.865228324435
 30
0.0
  0
VERTEX
  5
1466
330
145C
100
AcDbEntity
  8
SANINDUSA
100
AcDbVertex
100
AcDb2dVertex
 10
4013.50601826773
 20
1627.865228324435
 30
0.0
 42
-0.4141964814073941
  0
VERTEX
  5
1467
330
145C
100
AcDbEntity
  8
SANINDUSA
100
AcDbVertex
100
AcDb2dVertex
 10
4013.505218267731
 20
1627.866028277781
 30
0.0
  0
VERTEX
  5
1468
330
145C
100
AcDbEntity
  8
SANINDUSA
100
AcDbVertex
100
AcDb2dVertex
 10
4013.505218267731
 20
1627.8714284589
 30
0.0
 42
0.4142135623730951
  0
VERTEX
  5
1469
330
145C
100
AcDbEntity
  8
SANINDUSA
100
AcDbVertex
100
AcDb2dVertex
 10
4013.504418267731
 20
1627.8722284589
 30
0.0
  0
VERTEX
  5
146A
330
145C
100
AcDbEntity
  8
SANINDUSA
100
AcDbVertex
100
AcDb2dVertex
 10
4013.500913489229
 20
1627.8722284589
 30
0.0
 42
0.4141964814075006
  0
VERTEX
  5
146B
330
145C
100
AcDbEntity
  8
SANINDUSA
100
AcDbVertex
100
AcDb2dVertex
 10
4013.50011348923
 20
1627.871428505555
 30
0.0
  0
VERTEX
  5
146C
330
145C
100
AcDbEntity
  8
SANINDUSA
100
AcDbVertex
100
AcDb2dVertex
 10
4013.500113173563
 20
1627.866015691722
 30
0.0
  0
SEQEND
  5
146D
330
145C
100
AcDbEntity
  8
SANINDUSA
  0
POLYLINE
  5
146E
330
1F
100
AcDbEntity
  8
SANINDUSA
100
AcDb2dPolyline
 66
     1
 10
0.0
 20
0.0
 30
0.0
 70
     1
  0
VERTEX
  5
146F
330
146E
100
AcDbEntity
  8
SANINDUSA
100
AcDbVertex
100
AcDb2dVertex
 10
4013.512213202694
 20
1627.866428324435
 30
0.0
 42
0.4142135623730829
  0
VERTEX
  5
1470
330
146E
100
AcDbEntity
  8
SANINDUSA
100
AcDbVertex
100
AcDb2dVertex
 10
4013.513013202693
 20
1627.867228324435
 30
0.0
  0
VERTEX
  5
1471
330
146E
100
AcDbEntity
  8
SANINDUSA
100
AcDbVertex
100
AcDb2dVertex
 10
4013.513013202693
 20
1627.89062207172
 30
0.0
 42
0.4142135623730951
  0
VERTEX
  5
1472
330
146E
100
AcDbEntity
  8
SANINDUSA
100
AcDbVertex
100
AcDb2dVertex
 10
4013.511213202693
 20
1627.89242207172
 30
0.0
  0
VERTEX
  5
1473
330
146E
100
AcDbEntity
  8
SANINDUSA
100
AcDbVertex
100
AcDb2dVertex
 10
4013.494113202693
 20
1627.89242207172
 30
0.0
 42
0.4142135623730951
  0
VERTEX
  5
1474
330
146E
100
AcDbEntity
  8
SANINDUSA
100
AcDbVertex
100
AcDb2dVertex
 10
4013.492313202693
 20
1627.89062207172
 30
0.0
  0
VERTEX
  5
1475
330
146E
100
AcDbEntity
  8
SANINDUSA
100
AcDbVertex
100
AcDb2dVertex
 10
4013.492313202693
 20
1627.87062207172
 30
0.0
 42
0.4142135623730951
  0
VERTEX
  5
1476
330
146E
100
AcDbEntity
  8
SANINDUSA
100
AcDbVertex
100
AcDb2dVertex
 10
4013.493113202693
 20
1627.86982207172
 30
0.0
  0
VERTEX
  5
1477
330
146E
100
AcDbEntity
  8
SANINDUSA
100
AcDbVertex
100
AcDb2dVertex
 10
4013.493313202693
 20
1627.86982207172
 30
0.0
  0
VERTEX
  5
1478
330
146E
100
AcDbEntity
  8
SANINDUSA
100
AcDbVertex
100
AcDb2dVertex
 10
4013.493313202693
 20
1627.89062207172
 30
0.0
 42
-0.4142135623730951
  0
VERTEX
  5
1479
330
146E
100
AcDbEntity
  8
SANINDUSA
100
AcDbVertex
100
AcDb2dVertex
 10
4013.494113202693
 20
1627.89142207172
 30
0.0
  0
VERTEX
  5
147A
330
146E
100
AcDbEntity
  8
SANINDUSA
100
AcDbVertex
100
AcDb2dVertex
 10
4013.511213202693
 20
1627.89142207172
 30
0.0
 42
-0.4142135623730951
  0
VERTEX
  5
147B
330
146E
100
AcDbEntity
  8
SANINDUSA
100
AcDbVertex
100
AcDb2dVertex
 10
4013.512013202693
 20
1627.89062207172
 30
0.0
  0
VERTEX
  5
147C
330
146E
100
AcDbEntity
  8
SANINDUSA
100
AcDbVertex
100
AcDb2dVertex
 10
4013.512013202693
 20
1627.866428324435
 30
0.0
  0
SEQEND
  5
147D
330
146E
100
AcDbEntity
  8
SANINDUSA
  0
LINE
  5
147E
330
1F
100
AcDbEntity
  8
SANINDUSA
100
AcDbLine
 10
4013.511663198931
 20
1627.461228324435
 30
0.0
 11
4013.511663198931
 21
1627.071422067958
 31
0.0
  0
LINE
  5
147F
330
1F
100
AcDbEntity
  8
SANINDUSA
100
AcDbLine
 10
4013.493663198931
 20
1627.461228324435
 30
0.0
 11
4013.493663198931
 21
1627.071422067958
 31
0.0
  0
LINE
  5
1480
330
1F
100
AcDbEntity
  8
SANINDUSA
100
AcDbLine
 10
4013.503863198931
 20
1627.071422067958
 30
0.0
 11
4013.503863198931
 21
1627.459428324435
 31
0.0
  0
LINE
  5
1481
330
1F
100
AcDbEntity
  8
SANINDUSA
100
AcDbLine
 10
4013.523379658454
 20
1627.087746228806
 30
0.0
 11
4013.523379658454
 21
1627.474945937215
 31
0.0
  0
LINE
  5
1482
330
1F
100
AcDbEntity
  8
SANINDUSA
100
AcDbLine
 10
4013.535379658453
 20
1627.087746228806
 30
0.0
 11
4013.535379658453
 21
1627.474945937215
 31
0.0
  0
LINE
  5
1483
330
1F
100
AcDbEntity
  8
SANINDUSA
100
AcDbLine
 10
4013.523279658453
 20
1627.110257679186
 30
0.0
 11
4013.523279658453
 21
1627.121234195243
 31
0.0
  0
ARC
  5
1484
330
1F
100
AcDbEntity
  8
SANINDUSA
100
AcDbCircle
 10
4013.547587991786
 20
1627.115745937214
 30
0.0
 40
0.0105083333333802
100
AcDbArc
 50
160.544842895981
 51
199.455157104019
  0
LINE
  5
1485
330
1F
100
AcDbEntity
  8
SANINDUSA
100
AcDbLine
 10
4013.537079658453
 20
1627.110995937214
 30
0.0
 11
4013.537079658453
 21
1627.120495937214
 31
0.0
  0
LINE
  5
1486
330
1F
100
AcDbEntity
  8
SANINDUSA
100
AcDbLine
 10
4013.536979658453
 20
1627.109745937214
 30
0.0
 11
4013.536979658453
 21
1627.121745937214
 31
0.0
  0
LINE
  5
1487
330
1F
100
AcDbEntity
  8
SANINDUSA
100
AcDbLine
 10
4013.537679658453
 20
1627.109745937214
 30
0.0
 11
4013.537679658453
 21
1627.121745937214
 31
0.0
  0
ARC
  5
1488
330
1F
100
AcDbEntity
  8
SANINDUSA
100
AcDbCircle
 10
4013.530571325119
 20
1627.115745937214
 30
0.0
 40
0.0105083333333802
100
AcDbArc
 50
340.544842895981
 51
19.45515710401903
  0
LINE
  5
1489
330
1F
100
AcDbEntity
  8
SANINDUSA
100
AcDbLine
 10
4013.541079658453
 20
1627.110995937214
 30
0.0
 11
4013.541079658454
 21
1627.120495937214
 31
0.0
  0
LINE
  5
148A
330
1F
100
AcDbEntity
  8
SANINDUSA
100
AcDbLine
 10
4013.540479658453
 20
1627.109745937214
 30
0.0
 11
4013.540479658454
 21
1627.121745937214
 31
0.0
  0
LINE
  5
148B
330
1F
100
AcDbEntity
  8
SANINDUSA
100
AcDbLine
 10
4013.535479658453
 20
1627.109745937215
 30
0.0
 11
4013.535479658453
 21
1627.121745937214
 31
0.0
  0
LINE
  5
148C
330
1F
100
AcDbEntity
  8
SANINDUSA
100
AcDbLine
 10
4013.514863201097
 20
1627.111245937215
 30
0.0
 11
4013.514863201098
 21
1627.120245937215
 31
0.0
  0
POLYLINE
  5
148D
330
1F
100
AcDbEntity
  8
SANINDUSA
100
AcDb2dPolyline
 66
     1
 10
0.0
 20
0.0
 30
0.0
 70
     1
  0
VERTEX
  5
148E
330
148D
100
AcDbEntity
  8
SANINDUSA
100
AcDbVertex
100
AcDb2dVertex
 10
4013.509363198931
 20
1627.125245937101
 30
0.0
  0
VERTEX
  5
148F
330
148D
100
AcDbEntity
  8
SANINDUSA
100
AcDbVertex
100
AcDb2dVertex
 10
4013.509863199045
 20
1627.124745937215
 30
0.0
  0
VERTEX
  5
1490
330
148D
100
AcDbEntity
  8
SANINDUSA
100
AcDbVertex
100
AcDb2dVertex
 10
4013.509863203151
 20
1627.106745937215
 30
0.0
  0
VERTEX
  5
1491
330
148D
100
AcDbEntity
  8
SANINDUSA
100
AcDbVertex
100
AcDb2dVertex
 10
4013.509363203265
 20
1627.106245937101
 30
0.0
  0
VERTEX
  5
1492
330
148D
100
AcDbEntity
  8
SANINDUSA
100
AcDbVertex
100
AcDb2dVertex
 10
4013.505363203266
 20
1627.106245936188
 30
0.0
  0
VERTEX
  5
1493
330
148D
100
AcDbEntity
  8
SANINDUSA
100
AcDbVertex
100
AcDb2dVertex
 10
4013.504863203151
 20
1627.106745936074
 30
0.0
  0
VERTEX
  5
1494
330
148D
100
AcDbEntity
  8
SANINDUSA
100
AcDbVertex
100
AcDb2dVertex
 10
4013.504863199044
 20
1627.124745936074
 30
0.0
  0
VERTEX
  5
1495
330
148D
100
AcDbEntity
  8
SANINDUSA
100
AcDbVertex
100
AcDb2dVertex
 10
4013.50536319893
 20
1627.125245936188
 30
0.0
  0
SEQEND
  5
1496
330
148D
100
AcDbEntity
  8
SANINDUSA
  0
POLYLINE
  5
1497
330
1F
100
AcDbEntity
  8
SANINDUSA
100
AcDb2dPolyline
 66
     1
 10
0.0
 20
0.0
 30
0.0
 70
     1
  0
VERTEX
  5
1498
330
1497
100
AcDbEntity
  8
SANINDUSA
100
AcDbVertex
100
AcDb2dVertex
 10
4013.524243408864
 20
1627.070934479934
 30
0.0
 42
-0.0392067269493321
  0
VERTEX
  5
1499
330
1497
100
AcDbEntity
  8
SANINDUSA
100
AcDbVertex
100
AcDb2dVertex
 10
4013.524179658734
 20
1627.07174622878
 30
0.0
  0
VERTEX
  5
149A
330
1497
100
AcDbEntity
  8
SANINDUSA
100
AcDbVertex
100
AcDb2dVertex
 10
4013.524179656825
 20
1627.08674622878
 30
0.0
 42
-0.4142135623730951
  0
VERTEX
  5
149B
330
1497
100
AcDbEntity
  8
SANINDUSA
100
AcDbVertex
100
AcDb2dVertex
 10
4013.5243796568
 20
1627.086946228805
 30
0.0
  0
VERTEX
  5
149C
330
1497
100
AcDbEntity
  8
SANINDUSA
100
AcDbVertex
100
AcDb2dVertex
 10
4013.526123457558
 20
1627.086946229028
 30
0.0
 42
-0.4141794006479897
  0
VERTEX
  5
149D
330
1497
100
AcDbEntity
  8
SANINDUSA
100
AcDbVertex
100
AcDb2dVertex
 10
4013.526323457582
 20
1627.086746252381
 30
0.0
  0
VERTEX
  5
149E
330
1497
100
AcDbEntity
  8
SANINDUSA
100
AcDbVertex
100
AcDb2dVertex
 10
4013.526324134851
 20
1627.080945939743
 30
0.0
 42
0.4141794006481879
  0
VERTEX
  5
149F
330
1497
100
AcDbEntity
  8
SANINDUSA
100
AcDbVertex
100
AcDb2dVertex
 10
4013.527324134971
 20
1627.079946056507
 30
0.0
  0
VERTEX
  5
14A0
330
1497
100
AcDbEntity
  8
SANINDUSA
100
AcDbVertex
100
AcDb2dVertex
 10
4013.531423608508
 20
1627.079946057028
 30
0.0
 42
0.4142135623731032
  0
VERTEX
  5
14A1
330
1497
100
AcDbEntity
  8
SANINDUSA
100
AcDbVertex
100
AcDb2dVertex
 10
4013.532423608381
 20
1627.080946057155
 30
0.0
  0
VERTEX
  5
14A2
330
1497
100
AcDbEntity
  8
SANINDUSA
100
AcDbVertex
100
AcDb2dVertex
 10
4013.532423607642
 20
1627.086746229829
 30
0.0
 42
-0.4142135623734281
  0
VERTEX
  5
14A3
330
1497
100
AcDbEntity
  8
SANINDUSA
100
AcDbVertex
100
AcDb2dVertex
 10
4013.532623607618
 20
1627.086946229855
 30
0.0
  0
VERTEX
  5
14A4
330
1497
100
AcDbEntity
  8
SANINDUSA
100
AcDbVertex
100
AcDb2dVertex
 10
4013.5343796568
 20
1627.086946230078
 30
0.0
 42
-0.4142135623730951
  0
VERTEX
  5
14A5
330
1497
100
AcDbEntity
  8
SANINDUSA
100
AcDbVertex
100
AcDb2dVertex
 10
4013.534579656826
 20
1627.086746230103
 30
0.0
  0
VERTEX
  5
14A6
330
1497
100
AcDbEntity
  8
SANINDUSA
100
AcDbVertex
100
AcDb2dVertex
 10
4013.534579658734
 20
1627.071746230104
 30
0.0
 42
-0.0392054911123095
  0
VERTEX
  5
14A7
330
1497
100
AcDbEntity
  8
SANINDUSA
100
AcDbVertex
100
AcDb2dVertex
 10
4013.534515912819
 20
1627.070934506592
 30
0.0
 42
-0.3690147635156997
  0
VERTEX
  5
14A8
330
1497
100
AcDbEntity
  8
SANINDUSA
100
AcDbVertex
100
AcDb2dVertex
 10
4013.534219591246
 20
1627.070681336757
 30
0.0
  0
VERTEX
  5
14A9
330
1497
100
AcDbEntity
  8
SANINDUSA
100
AcDbVertex
100
AcDb2dVertex
 10
4013.52453973175
 20
1627.070681311636
 30
0.0
 42
-0.3690147635155541
  0
SEQEND
  5
14AA
330
1497
100
AcDbEntity
  8
SANINDUSA
  0
LINE
  5
14AB
330
1F
100
AcDbEntity
  8
SANINDUSA
100
AcDbLine
 10
4013.523379658454
 20
1627.087746228806
 30
0.0
 11
4013.535379658453
 21
1627.087746228806
 31
0.0
  0
POLYLINE
  5
14AC
330
1F
100
AcDbEntity
  8
SANINDUSA
100
AcDb2dPolyline
 66
     1
 10
0.0
 20
0.0
 30
0.0
  0
VERTEX
  5
14AD
330
14AC
100
AcDbEntity
  8
SANINDUSA
100
AcDbVertex
100
AcDb2dVertex
 10
4013.526273414205
 20
1627.06982144749
 30
0.0
 42
0.4368825303742488
  0
VERTEX
  5
14AE
330
14AC
100
AcDbEntity
  8
SANINDUSA
100
AcDbVertex
100
AcDb2dVertex
 10
4013.526127792473
 20
1627.069803330066
 30
0.0
  0
VERTEX
  5
14AF
330
14AC
100
AcDbEntity
  8
SANINDUSA
100
AcDbVertex
100
AcDb2dVertex
 10
4013.525429816064
 20
1627.068832303426
 30
0.0
 42
0.414213562372984
  0
VERTEX
  5
14B0
330
14AC
100
AcDbEntity
  8
SANINDUSA
100
AcDbVertex
100
AcDb2dVertex
 10
4013.525453939313
 20
1627.06855049131
 30
0.0
  0
VERTEX
  5
14B1
330
14AC
100
AcDbEntity
  8
SANINDUSA
100
AcDbVertex
100
AcDb2dVertex
 10
4013.52549330697
 20
1627.068517331995
 30
0.0
 42
0.1989123673797088
  0
VERTEX
  5
14B2
330
14AC
100
AcDbEntity
  8
SANINDUSA
100
AcDbVertex
100
AcDb2dVertex
 10
4013.525639209117
 20
1627.068471028419
 30
0.0
  0
VERTEX
  5
14B3
330
14AC
100
AcDbEntity
  8
SANINDUSA
100
AcDbVertex
100
AcDb2dVertex
 10
4013.526182375191
 20
1627.068875459347
 30
0.0
 42
-0.2083851459438857
  0
VERTEX
  5
14B4
330
14AC
100
AcDbEntity
  8
SANINDUSA
100
AcDbVertex
100
AcDb2dVertex
 10
4013.526260172375
 20
1627.068893603955
 30
0.0
 42
-0.1302921987711861
  0
VERTEX
  5
14B5
330
14AC
100
AcDbEntity
  8
SANINDUSA
100
AcDbVertex
100
AcDb2dVertex
 10
4013.526677290639
 20
1627.06869678359
 30
0.0
  0
VERTEX
  5
14B6
330
14AC
100
AcDbEntity
  8
SANINDUSA
100
AcDbVertex
100
AcDb2dVertex
 10
4013.52702740314
 20
1627.068401884392
 30
0.0
 42
-0.3234232629811839
  0
VERTEX
  5
14B7
330
14AC
100
AcDbEntity
  8
SANINDUSA
100
AcDbVertex
100
AcDb2dVertex
 10
4013.527055831425
 20
1627.068288268568
 30
0.0
  0
VERTEX
  5
14B8
330
14AC
100
AcDbEntity
  8
SANINDUSA
100
AcDbVertex
100
AcDb2dVertex
 10
4013.526645717825
 20
1627.067262757634
 30
0.0
 42
0.1925824035672822
  0
VERTEX
  5
14B9
330
14AC
100
AcDbEntity
  8
SANINDUSA
100
AcDbVertex
100
AcDb2dVertex
 10
4013.526645797177
 20
1627.066222863743
 30
0.0
  0
VERTEX
  5
14BA
330
14AC
100
AcDbEntity
  8
SANINDUSA
100
AcDbVertex
100
AcDb2dVertex
 10
4013.526869055038
 20
1627.065664842581
 30
0.0
 42
-0.5305984520675703
  0
VERTEX
  5
14BB
330
14AC
100
AcDbEntity
  8
SANINDUSA
100
AcDbVertex
100
AcDb2dVertex
 10
4013.526776217834
 20
1627.065527696429
 30
0.0
  0
VERTEX
  5
14BC
330
14AC
100
AcDbEntity
  8
SANINDUSA
100
AcDbVertex
100
AcDb2dVertex
 10
4013.525491336859
 20
1627.065527598382
 30
0.0
 42
0.5072628673585859
  0
VERTEX
  5
14BD
330
14AC
100
AcDbEntity
  8
SANINDUSA
100
AcDbVertex
100
AcDb2dVertex
 10
4013.525396021374
 20
1627.06539737416
 30
0.0
  0
VERTEX
  5
14BE
330
14AC
100
AcDbEntity
  8
SANINDUSA
100
AcDbVertex
100
AcDb2dVertex
 10
4013.52640173208
 20
1627.062225498363
 30
0.0
 42
0.3269085594239665
  0
VERTEX
  5
14BF
330
14AC
100
AcDbEntity
  8
SANINDUSA
100
AcDbVertex
100
AcDb2dVertex
 10
4013.527355039546
 20
1627.061527740586
 30
0.0
  0
VERTEX
  5
14C0
330
14AC
100
AcDbEntity
  8
SANINDUSA
100
AcDbVertex
100
AcDb2dVertex
 10
4013.531355039535
 20
1627.061528045819
 30
0.0
 42
0.3269085594239223
  0
VERTEX
  5
14C1
330
14AC
100
AcDbEntity
  8
SANINDUSA
100
AcDbVertex
100
AcDb2dVertex
 10
4013.532308240501
 20
1627.062225949079
 30
0.0
  0
VERTEX
  5
14C2
330
14AC
100
AcDbEntity
  8
SANINDUSA
100
AcDbVertex
100
AcDb2dVertex
 10
4013.533313467115
 20
1627.065397978327
 30
0.0
 42
0.5072628673591617
  0
VERTEX
  5
14C3
330
14AC
100
AcDbEntity
  8
SANINDUSA
100
AcDbVertex
100
AcDb2dVertex
 10
4013.533218131756
 20
1627.065528188
 30
0.0
  0
VERTEX
  5
14C4
330
14AC
100
AcDbEntity
  8
SANINDUSA
100
AcDbVertex
100
AcDb2dVertex
 10
4013.531717844189
 20
1627.065528073515
 30
0.0
 42
-0.5305984520676007
  0
VERTEX
  5
14C5
330
14AC
100
AcDbEntity
  8
SANINDUSA
100
AcDbVertex
100
AcDb2dVertex
 10
4013.531624986055
 20
1627.065665205497
 30
0.0
  0
VERTEX
  5
14C6
330
14AC
100
AcDbEntity
  8
SANINDUSA
100
AcDbVertex
100
AcDb2dVertex
 10
4013.531877864337
 20
1627.066297541128
 30
0.0
 42
0.1925824035673543
  0
VERTEX
  5
14C7
330
14AC
100
AcDbEntity
  8
SANINDUSA
100
AcDbVertex
100
AcDb2dVertex
 10
4013.53187779632
 20
1627.067188878749
 30
0.0
  0
VERTEX
  5
14C8
330
14AC
100
AcDbEntity
  8
SANINDUSA
100
AcDbVertex
100
AcDb2dVertex
 10
4013.531470483497
 20
1627.068206935511
 30
0.0
 42
-0.3473749129884166
  0
VERTEX
  5
14C9
330
14AC
100
AcDbEntity
  8
SANINDUSA
100
AcDbVertex
100
AcDb2dVertex
 10
4013.531505710768
 20
1627.068325814255
 30
0.0
  0
VERTEX
  5
14CA
330
14AC
100
AcDbEntity
  8
SANINDUSA
100
AcDbVertex
100
AcDb2dVertex
 10
4013.53208550173
 20
1627.068734539125
 30
0.0
 42
-0.1103571466829044
  0
VERTEX
  5
14CB
330
14AC
100
AcDbEntity
  8
SANINDUSA
100
AcDbVertex
100
AcDb2dVertex
 10
4013.532447901126
 20
1627.068885294762
 30
0.0
 42
-0.2116742589343529
  0
VERTEX
  5
14CC
330
14AC
100
AcDbEntity
  8
SANINDUSA
100
AcDbVertex
100
AcDb2dVertex
 10
4013.532526562868
 20
1627.068865811471
 30
0.0
  0
VERTEX
  5
14CD
330
14AC
100
AcDbEntity
  8
SANINDUSA
100
AcDbVertex
100
AcDb2dVertex
 10
4013.533100367062
 20
1627.068420489762
 30
0.0
 42
0.1989123673797088
  0
VERTEX
  5
14CE
330
14AC
100
AcDbEntity
  8
SANINDUSA
100
AcDbVertex
100
AcDb2dVertex
 10
4013.533249705989
 20
1627.068454095458
 30
0.0
  0
VERTEX
  5
14CF
330
14AC
100
AcDbEntity
  8
SANINDUSA
100
AcDbVertex
100
AcDb2dVertex
 10
4013.533291775274
 20
1627.068483752292
 30
0.0
 42
0.4142135623729841
  0
VERTEX
  5
14D0
330
14AC
100
AcDbEntity
  8
SANINDUSA
100
AcDbVertex
100
AcDb2dVertex
 10
4013.533340005329
 20
1627.0687624526
 30
0.0
  0
VERTEX
  5
14D1
330
14AC
100
AcDbEntity
  8
SANINDUSA
100
AcDbVertex
100
AcDb2dVertex
 10
4013.532727976901
 20
1627.0697898206
 30
0.0
 42
0.4368825303742487
  0
VERTEX
  5
14D2
330
14AC
100
AcDbEntity
  8
SANINDUSA
100
AcDbVertex
100
AcDb2dVertex
 10
4013.532584448427
 20
1627.069820373944
 30
0.0
 42
-0.2163535043884636
  0
VERTEX
  5
14D3
330
14AC
100
AcDbEntity
  8
SANINDUSA
100
AcDbVertex
100
AcDb2dVertex
 10
4013.526224194053
 20
1627.069843801381
 30
0.0
  0
SEQEND
  5
14D4
330
14AC
100
AcDbEntity
  8
SANINDUSA
  0
POLYLINE
  5
14D5
330
1F
100
AcDbEntity
  8
SANINDUSA
100
AcDb2dPolyline
 66
     1
 10
0.0
 20
0.0
 30
0.0
 70
     1
  0
VERTEX
  5
14D6
330
14D5
100
AcDbEntity
  8
SANINDUSA
100
AcDbVertex
100
AcDb2dVertex
 10
4013.531340404055
 20
1627.062028045818
 30
0.0
 42
0.3269085594239496
  0
VERTEX
  5
14D7
330
14D5
100
AcDbEntity
  8
SANINDUSA
100
AcDbVertex
100
AcDb2dVertex
 10
4013.531817004539
 20
1627.062376997448
 30
0.0
  0
VERTEX
  5
14D8
330
14D5
100
AcDbEntity
  8
SANINDUSA
100
AcDbVertex
100
AcDb2dVertex
 10
4013.532615895242
 20
1627.064897926208
 30
0.0
 42
0.5072628673586409
  0
VERTEX
  5
14D9
330
14D5
100
AcDbEntity
  8
SANINDUSA
100
AcDbVertex
100
AcDb2dVertex
 10
4013.532520559884
 20
1627.065028135882
 30
0.0
  0
VERTEX
  5
14DA
330
14D5
100
AcDbEntity
  8
SANINDUSA
100
AcDbVertex
100
AcDb2dVertex
 10
4013.526159790387
 20
1627.065027650503
 30
0.0
 42
0.5072628673585822
  0
VERTEX
  5
14DB
330
14D5
100
AcDbEntity
  8
SANINDUSA
100
AcDbVertex
100
AcDb2dVertex
 10
4013.526064474903
 20
1627.064897426281
 30
0.0
  0
VERTEX
  5
14DC
330
14D5
100
AcDbEntity
  8
SANINDUSA
100
AcDbVertex
100
AcDb2dVertex
 10
4013.526863750334
 20
1627.062376619473
 30
0.0
 42
0.3269085594239496
  0
VERTEX
  5
14DD
330
14D5
100
AcDbEntity
  8
SANINDUSA
100
AcDbVertex
100
AcDb2dVertex
 10
4013.527340404067
 20
1627.062027740584
 30
0.0
  0
SEQEND
  5
14DE
330
14D5
100
AcDbEntity
  8
SANINDUSA
  0
POLYLINE
  5
14DF
330
1F
100
AcDbEntity
  8
SANINDUSA
100
AcDb2dPolyline
 66
     1
 10
0.0
 20
0.0
 30
0.0
 70
     1
  0
VERTEX
  5
14E0
330
14DF
100
AcDbEntity
  8
SANINDUSA
100
AcDbVertex
100
AcDb2dVertex
 10
4013.531340404055
 20
1627.062028045818
 30
0.0
 42
0.3269085594239496
  0
VERTEX
  5
14E1
330
14DF
100
AcDbEntity
  8
SANINDUSA
100
AcDbVertex
100
AcDb2dVertex
 10
4013.531817004539
 20
1627.062376997448
 30
0.0
  0
VERTEX
  5
14E2
330
14DF
100
AcDbEntity
  8
SANINDUSA
100
AcDbVertex
100
AcDb2dVertex
 10
4013.532615895242
 20
1627.064897926208
 30
0.0
 42
0.5072628673586409
  0
VERTEX
  5
14E3
330
14DF
100
AcDbEntity
  8
SANINDUSA
100
AcDbVertex
100
AcDb2dVertex
 10
4013.532520559884
 20
1627.065028135882
 30
0.0
  0
VERTEX
  5
14E4
330
14DF
100
AcDbEntity
  8
SANINDUSA
100
AcDbVertex
100
AcDb2dVertex
 10
4013.526159790387
 20
1627.065027650503
 30
0.0
 42
0.5072628673585822
  0
VERTEX
  5
14E5
330
14DF
100
AcDbEntity
  8
SANINDUSA
100
AcDbVertex
100
AcDb2dVertex
 10
4013.526064474903
 20
1627.064897426281
 30
0.0
  0
VERTEX
  5
14E6
330
14DF
100
AcDbEntity
  8
SANINDUSA
100
AcDbVertex
100
AcDb2dVertex
 10
4013.526863750334
 20
1627.062376619473
 30
0.0
 42
0.3269085594239496
  0
VERTEX
  5
14E7
330
14DF
100
AcDbEntity
  8
SANINDUSA
100
AcDbVertex
100
AcDb2dVertex
 10
4013.527340404067
 20
1627.062027740584
 30
0.0
  0
SEQEND
  5
14E8
330
14DF
100
AcDbEntity
  8
SANINDUSA
  0
ARC
  5
14E9
330
1F
100
AcDbEntity
  8
SANINDUSA
100
AcDbCircle
 10
4013.541663198931
 20
1627.071422067958
 30
0.0
 40
0.048
100
AcDbArc
 50
180.0
 51
270.0
  0
ARC
  5
14EA
330
1F
100
AcDbEntity
  8
SANINDUSA
100
AcDbCircle
 10
4013.541663198931
 20
1627.071422067958
 30
0.0
 40
0.03
100
AcDbArc
 50
180.0
 51
270.0
  0
POLYLINE
  5
14EB
330
1F
100
AcDbEntity
  8
SANINDUSA
100
AcDb2dPolyline
 66
     1
 10
0.0
 20
0.0
 30
0.0
  0
VERTEX
  5
14EC
330
14EB
100
AcDbEntity
  8
SANINDUSA
100
AcDbVertex
100
AcDb2dVertex
 10
4013.523379658454
 20
1627.07122743182
 30
0.0
 42
0.1716209804019301
  0
VERTEX
  5
14ED
330
14EB
100
AcDbEntity
  8
SANINDUSA
100
AcDbVertex
100
AcDb2dVertex
 10
4013.524713697256
 20
1627.067455323611
 30
0.0
 42
0.2265071203787086
  0
VERTEX
  5
14EE
330
14EB
100
AcDbEntity
  8
SANINDUSA
100
AcDbVertex
100
AcDb2dVertex
 10
4013.524869240985
 20
1627.067381060578
 30
0.0
  0
VERTEX
  5
14EF
330
14EB
100
AcDbEntity
  8
SANINDUSA
100
AcDbVertex
100
AcDb2dVertex
 10
4013.526008913047
 20
1627.067381127186
 30
0.0
 42
0.4142135623729286
  0
VERTEX
  5
14F0
330
14EB
100
AcDbEntity
  8
SANINDUSA
100
AcDbVertex
100
AcDb2dVertex
 10
4013.526408889668
 20
1627.067781150564
 30
0.0
  0
VERTEX
  5
14F1
330
14EB
100
AcDbEntity
  8
SANINDUSA
100
AcDbVertex
100
AcDb2dVertex
 10
4013.526408849978
 20
1627.068460255544
 30
0.0
 42
0.6681786379187177
  0
VERTEX
  5
14F2
330
14EB
100
AcDbEntity
  8
SANINDUSA
100
AcDbVertex
100
AcDb2dVertex
 10
4013.526067420357
 20
1627.068601656945
 30
0.0
  0
VERTEX
  5
14F3
330
14EB
100
AcDbEntity
  8
SANINDUSA
100
AcDbVertex
100
AcDb2dVertex
 10
4013.525705493818
 20
1627.068239688098
 30
0.0
 42
-0.1989123673798312
  0
VERTEX
  5
14F4
330
14EB
100
AcDbEntity
  8
SANINDUSA
100
AcDbVertex
100
AcDb2dVertex
 10
4013.525564075886
 20
1627.068181101189
 30
0.0
  0
VERTEX
  5
14F5
330
14EB
100
AcDbEntity
  8
SANINDUSA
100
AcDbVertex
100
AcDb2dVertex
 10
4013.525268916029
 20
1627.068181083938
 30
0.0
 42
-0.2461049196730113
  0
VERTEX
  5
14F6
330
14EB
100
AcDbEntity
  8
SANINDUSA
100
AcDbVertex
100
AcDb2dVertex
 10
4013.525104474175
 20
1627.068267229992
 30
0.0
 42
-0.0583912209941408
  0
VERTEX
  5
14F7
330
14EB
100
AcDbEntity
  8
SANINDUSA
100
AcDbVertex
100
AcDb2dVertex
 10
4013.524535926836
 20
1627.069335802594
 30
0.0
 42
-0.5279768385267204
  0
VERTEX
  5
14F8
330
14EB
100
AcDbEntity
  8
SANINDUSA
100
AcDbVertex
100
AcDb2dVertex
 10
4013.524908520538
 20
1627.069881312593
 30
0.0
  0
VERTEX
  5
14F9
330
14EB
100
AcDbEntity
  8
SANINDUSA
100
AcDbVertex
100
AcDb2dVertex
 10
4013.533850803355
 20
1627.069881335799
 30
0.0
 42
-0.5279768385263968
  0
VERTEX
  5
14FA
330
14EB
100
AcDbEntity
  8
SANINDUSA
100
AcDbVertex
100
AcDb2dVertex
 10
4013.534223399889
 20
1627.069335827734
 30
0.0
 42
-0.0583632005594956
  0
VERTEX
  5
14FB
330
14EB
100
AcDbEntity
  8
SANINDUSA
100
AcDbVertex
100
AcDb2dVertex
 10
4013.533655188725
 20
1627.068267729744
 30
0.0
 42
-0.2461049196740124
  0
VERTEX
  5
14FC
330
14EB
100
AcDbEntity
  8
SANINDUSA
100
AcDbVertex
100
AcDb2dVertex
 10
4013.533490756942
 20
1627.068181564469
 30
0.0
  0
VERTEX
  5
14FD
330
14EB
100
AcDbEntity
  8
SANINDUSA
100
AcDbVertex
100
AcDb2dVertex
 10
4013.533195446722
 20
1627.068181547209
 30
0.0
 42
-0.1989123673798311
  0
VERTEX
  5
14FE
330
14EB
100
AcDbEntity
  8
SANINDUSA
100
AcDbVertex
100
AcDb2dVertex
 10
4013.533054021944
 20
1627.068240117588
 30
0.0
  0
VERTEX
  5
14FF
330
14EB
100
AcDbEntity
  8
SANINDUSA
100
AcDbVertex
100
AcDb2dVertex
 10
4013.532692053096
 20
1627.068602044126
 30
0.0
 42
0.6681786379187177
  0
VERTEX
  5
1500
330
14EB
100
AcDbEntity
  8
SANINDUSA
100
AcDbVertex
100
AcDb2dVertex
 10
4013.532350640006
 20
1627.068460602815
 30
0.0
  0
VERTEX
  5
1501
330
14EB
100
AcDbEntity
  8
SANINDUSA
100
AcDbVertex
100
AcDb2dVertex
 10
4013.532350679696
 20
1627.067781497836
 30
0.0
 42
0.4142135623730951
  0
VERTEX
  5
1502
330
14EB
100
AcDbEntity
  8
SANINDUSA
100
AcDbVertex
100
AcDb2dVertex
 10
4013.53275069087
 20
1627.067381521214
 30
0.0
  0
VERTEX
  5
1503
330
14EB
100
AcDbEntity
  8
SANINDUSA
100
AcDbVertex
100
AcDb2dVertex
 10
4013.533793989825
 20
1627.06738158219
 30
0.0
 42
0.2309634091047596
  0
VERTEX
  5
1504
330
14EB
100
AcDbEntity
  8
SANINDUSA
100
AcDbVertex
100
AcDb2dVertex
 10
4013.534109274161
 20
1627.067535450018
 30
0.0
 42
0.1672346938542433
  0
VERTEX
  5
1505
330
14EB
100
AcDbEntity
  8
SANINDUSA
100
AcDbVertex
100
AcDb2dVertex
 10
4013.535379658454
 20
1627.071227433347
 30
0.0
  0
VERTEX
  5
1506
330
14EB
100
AcDbEntity
  8
SANINDUSA
100
AcDbVertex
100
AcDb2dVertex
 10
4013.535379658453
 20
1627.086746230206
 30
0.0
 42
0.4142135623731617
  0
VERTEX
  5
1507
330
14EB
100
AcDbEntity
  8
SANINDUSA
100
AcDbVertex
100
AcDb2dVertex
 10
4013.534379658326
 20
1627.087746230078
 30
0.0
  0
VERTEX
  5
1508
330
14EB
100
AcDbEntity
  8
SANINDUSA
100
AcDbVertex
100
AcDb2dVertex
 10
4013.53261864413
 20
1627.087746229854
 30
0.0
 42
0.4142306435449703
  0
VERTEX
  5
1509
330
14EB
100
AcDbEntity
  8
SANINDUSA
100
AcDbVertex
100
AcDb2dVertex
 10
4013.531618644258
 20
1627.086746171408
 30
0.0
  0
VERTEX
  5
150A
330
14EB
100
AcDbEntity
  8
SANINDUSA
100
AcDbVertex
100
AcDb2dVertex
 10
4013.531618737448
 20
1627.08515170988
 30
0.0
 42
-0.2881936776526472
  0
VERTEX
  5
150B
330
14EB
100
AcDbEntity
  8
SANINDUSA
100
AcDbVertex
100
AcDb2dVertex
 10
4013.531505459076
 20
1627.084971477884
 30
0.0
 42
0.628595749850598
  0
VERTEX
  5
150C
330
14EB
100
AcDbEntity
  8
SANINDUSA
100
AcDbVertex
100
AcDb2dVertex
 10
4013.53150548541
 20
1627.084520914445
 30
0.0
 42
-0.2881936776522668
  0
VERTEX
  5
150D
330
14EB
100
AcDbEntity
  8
SANINDUSA
100
AcDbVertex
100
AcDb2dVertex
 10
4013.531618784848
 20
1627.084340695691
 30
0.0
  0
VERTEX
  5
150E
330
14EB
100
AcDbEntity
  8
SANINDUSA
100
AcDbVertex
100
AcDb2dVertex
 10
4013.531618912785
 20
1627.082151711142
 30
0.0
 42
-0.2881936776528216
  0
VERTEX
  5
150F
330
14EB
100
AcDbEntity
  8
SANINDUSA
100
AcDbVertex
100
AcDb2dVertex
 10
4013.531505634413
 20
1627.081971479145
 30
0.0
 42
0.6285957498500262
  0
VERTEX
  5
1510
330
14EB
100
AcDbEntity
  8
SANINDUSA
100
AcDbVertex
100
AcDb2dVertex
 10
4013.531505660746
 20
1627.081520915707
 30
0.0
 42
-0.2881936776526472
  0
VERTEX
  5
1511
330
14EB
100
AcDbEntity
  8
SANINDUSA
100
AcDbVertex
100
AcDb2dVertex
 10
4013.531618960185
 20
1627.081340696953
 30
0.0
  0
VERTEX
  5
1512
330
14EB
100
AcDbEntity
  8
SANINDUSA
100
AcDbVertex
100
AcDb2dVertex
 10
4013.531618983249
 20
1627.080946068717
 30
0.0
 42
-0.4142135623729997
  0
VERTEX
  5
1513
330
14EB
100
AcDbEntity
  8
SANINDUSA
100
AcDbVertex
100
AcDb2dVertex
 10
4013.531418994939
 20
1627.080746057028
 30
0.0
  0
VERTEX
  5
1514
330
14EB
100
AcDbEntity
  8
SANINDUSA
100
AcDbVertex
100
AcDb2dVertex
 10
4013.527318994946
 20
1627.080745817401
 30
0.0
 42
-0.4142135623731903
  0
VERTEX
  5
1515
330
14EB
100
AcDbEntity
  8
SANINDUSA
100
AcDbVertex
100
AcDb2dVertex
 10
4013.527118983257
 20
1627.080945805712
 30
0.0
  0
VERTEX
  5
1516
330
14EB
100
AcDbEntity
  8
SANINDUSA
100
AcDbVertex
100
AcDb2dVertex
 10
4013.527118960054
 20
1627.081342828155
 30
0.0
 42
-0.2849150464417384
  0
VERTEX
  5
1517
330
14EB
100
AcDbEntity
  8
SANINDUSA
100
AcDbVertex
100
AcDb2dVertex
 10
4013.527230060693
 20
1627.081521995932
 30
0.0
 42
0.6201736729456835
  0
VERTEX
  5
1518
330
14EB
100
AcDbEntity
  8
SANINDUSA
100
AcDbVertex
100
AcDb2dVertex
 10
4013.527230034514
 20
1627.081969899139
 30
0.0
 42
-0.284915046441269
  0
VERTEX
  5
1519
330
14EB
100
AcDbEntity
  8
SANINDUSA
100
AcDbVertex
100
AcDb2dVertex
 10
4013.527118912932
 20
1627.082149053929
 30
0.0
  0
VERTEX
  5
151A
330
14EB
100
AcDbEntity
  8
SANINDUSA
100
AcDbVertex
100
AcDb2dVertex
 10
4013.527118784717
 20
1627.084342826893
 30
0.0
 42
-0.2849150464419475
  0
VERTEX
  5
151B
330
14EB
100
AcDbEntity
  8
SANINDUSA
100
AcDbVertex
100
AcDb2dVertex
 10
4013.527229885356
 20
1627.08452199467
 30
0.0
 42
0.6201736729451243
  0
VERTEX
  5
151C
330
14EB
100
AcDbEntity
  8
SANINDUSA
100
AcDbVertex
100
AcDb2dVertex
 10
4013.527229859177
 20
1627.084969897878
 30
0.0
 42
-0.2849150464416061
  0
VERTEX
  5
151D
330
14EB
100
AcDbEntity
  8
SANINDUSA
100
AcDbVertex
100
AcDb2dVertex
 10
4013.527118737595
 20
1627.085149052667
 30
0.0
  0
VERTEX
  5
151E
330
14EB
100
AcDbEntity
  8
SANINDUSA
100
AcDbVertex
100
AcDb2dVertex
 10
4013.527118644244
 20
1627.086746287473
 30
0.0
 42
0.4141964814073941
  0
VERTEX
  5
151F
330
14EB
100
AcDbEntity
  8
SANINDUSA
100
AcDbVertex
100
AcDb2dVertex
 10
4013.526118644119
 20
1627.087746229027
 30
0.0
  0
VERTEX
  5
1520
330
14EB
100
AcDbEntity
  8
SANINDUSA
100
AcDbVertex
100
AcDb2dVertex
 10
4013.524379658326
 20
1627.087746228806
 30
0.0
 42
0.4142135623732283
  0
VERTEX
  5
1521
330
14EB
100
AcDbEntity
  8
SANINDUSA
100
AcDbVertex
100
AcDb2dVertex
 10
4013.523379658454
 20
1627.086746228678
 30
0.0
  0
VERTEX
  5
1522
330
14EB
100
AcDbEntity
  8
SANINDUSA
100
AcDbVertex
100
AcDb2dVertex
 10
4013.523379657964
 20
1627.075064871113
 30
0.0
 42
-0.468822488376375
  0
VERTEX
  5
1523
330
14EB
100
AcDbEntity
  8
SANINDUSA
100
AcDbVertex
100
AcDb2dVertex
 10
4013.522197886628
 20
1627.074081530159
 30
0.0
 42
-0.0576948838717018
  0
VERTEX
  5
1524
330
14EB
100
AcDbEntity
  8
SANINDUSA
100
AcDbVertex
100
AcDb2dVertex
 10
4013.517976328368
 20
1627.075378394471
 30
0.0
 42
-0.3118351474612041
  0
VERTEX
  5
1525
330
14EB
100
AcDbEntity
  8
SANINDUSA
100
AcDbVertex
100
AcDb2dVertex
 10
4013.517379305134
 20
1627.076345798704
 30
0.0
 42
1.797146556744268
  0
VERTEX
  5
1526
330
14EB
100
AcDbEntity
  8
SANINDUSA
100
AcDbVertex
100
AcDb2dVertex
 10
4013.515890782023
 20
1627.075525603606
 30
0.0
 42
0.0886637753107092
  0
VERTEX
  5
1527
330
14EB
100
AcDbEntity
  8
SANINDUSA
100
AcDbVertex
100
AcDb2dVertex
 10
4013.522537193469
 20
1627.073211406392
 30
0.0
 42
-0.3686029284448436
  0
VERTEX
  5
1528
330
14EB
100
AcDbEntity
  8
SANINDUSA
100
AcDbVertex
100
AcDb2dVertex
 10
4013.523379658327
 20
1627.072223893138
 30
0.0
  0
VERTEX
  5
1529
330
14EB
100
AcDbEntity
  8
SANINDUSA
100
AcDbVertex
100
AcDb2dVertex
 10
4013.523379658454
 20
1627.071227417013
 30
0.0
  0
SEQEND
  5
152A
330
14EB
100
AcDbEntity
  8
SANINDUSA
  0
LINE
  5
152B
330
1F
100
AcDbEntity
  8
SANINDUSA
100
AcDbLine
 10
4013.535479658453
 20
1627.112245937214
 30
0.0
 11
4013.523279658453
 21
1627.112245937215
 31
0.0
1001
ACAD
1000
ASC_BOUNDS
1002
{
1070
    19
1002
}
  0
LINE
  5
152C
330
1F
100
AcDbEntity
  8
SANINDUSA
100
AcDbLine
 10
4013.511663198931
 20
1627.071422067958
 30
0.0
 11
4013.493663198931
 21
1627.071422067958
 31
0.0
  0
ARC
  5
152D
330
1F
100
AcDbEntity
  8
SANINDUSA
100
AcDbCircle
 10
4013.512363201611
 20
1627.108620938498
 30
0.0
 40
0.0036249987164691
100
AcDbArc
 50
46.39717290708757
 51
133.6028270839189
  0
LINE
  5
152E
330
1F
100
AcDbEntity
  8
SANINDUSA
100
AcDbLine
 10
4013.523279658453
 20
1627.110257679186
 30
0.0
 11
4013.514863201097
 21
1627.111245937215
 31
0.0
  0
LINE
  5
152F
330
1F
100
AcDbEntity
  8
SANINDUSA
100
AcDbLine
 10
4013.541663198931
 20
1627.041422067958
 30
0.0
 11
4013.541663198931
 21
1627.023422067958
 31
0.0
  0
POLYLINE
  5
1530
330
1F
100
AcDbEntity
  8
SANINDUSA
100
AcDb2dPolyline
 66
     1
 10
0.0
 20
0.0
 30
0.0
 70
     1
  0
VERTEX
  5
1531
330
1530
100
AcDbEntity
  8
SANINDUSA
100
AcDbVertex
100
AcDb2dVertex
 10
4013.52700257919
 20
1627.066371448353
 30
0.0
  0
VERTEX
  5
1532
330
1530
100
AcDbEntity
  8
SANINDUSA
100
AcDbVertex
100
AcDb2dVertex
 10
4013.527340136987
 20
1627.065527740574
 30
0.0
  0
VERTEX
  5
1533
330
1530
100
AcDbEntity
  8
SANINDUSA
100
AcDbVertex
100
AcDb2dVertex
 10
4013.531124730384
 20
1627.06552802937
 30
0.0
  0
VERTEX
  5
1534
330
1530
100
AcDbEntity
  8
SANINDUSA
100
AcDbVertex
100
AcDb2dVertex
 10
4013.531491865
 20
1627.066446069058
 30
0.0
 42
0.1925824035674305
  0
VERTEX
  5
1535
330
1530
100
AcDbEntity
  8
SANINDUSA
100
AcDbVertex
100
AcDb2dVertex
 10
4013.531491819655
 20
1627.067040294139
 30
0.0
  0
VERTEX
  5
1536
330
1530
100
AcDbEntity
  8
SANINDUSA
100
AcDbVertex
100
AcDb2dVertex
 10
4013.531022989953
 20
1627.068212109071
 30
0.0
 42
0.3818149661416109
  0
VERTEX
  5
1537
330
1530
100
AcDbEntity
  8
SANINDUSA
100
AcDbVertex
100
AcDb2dVertex
 10
4013.5309035959
 20
1627.068271374219
 30
0.0
 42
-0.1518180644621605
  0
VERTEX
  5
1538
330
1530
100
AcDbEntity
  8
SANINDUSA
100
AcDbVertex
100
AcDb2dVertex
 10
4013.527610943561
 20
1627.068378820859
 30
0.0
 42
0.4006661320027832
  0
VERTEX
  5
1539
330
1530
100
AcDbEntity
  8
SANINDUSA
100
AcDbVertex
100
AcDb2dVertex
 10
4013.527485314781
 20
1627.06832147753
 30
0.0
  0
VERTEX
  5
153A
330
1530
100
AcDbEntity
  8
SANINDUSA
100
AcDbVertex
100
AcDb2dVertex
 10
4013.52700252251
 20
1627.067114229704
 30
0.0
 42
0.1925824035673727
  0
SEQEND
  5
153B
330
1530
100
AcDbEntity
  8
SANINDUSA
  0
LINE
  5
153C
330
1F
100
AcDbEntity
  8
SANINDUSA
100
AcDbLine
 10
4013.536979658453
 20
1627.109745937214
 30
0.0
 11
4013.535479658453
 21
1627.109745937215
 31
0.0
  0
ARC
  5
153D
330
1F
100
AcDbEntity
  8
SANINDUSA
100
AcDbCircle
 10
4013.538681741787
 20
1627.110995937214
 30
0.0
 40
0.0016020833333333
100
AcDbArc
 50
128.7179883491911
 51
231.2820116406524
  0
LINE
  5
153E
330
1F
100
AcDbEntity
  8
SANINDUSA
100
AcDbLine
 10
4013.540479658453
 20
1627.109745937214
 30
0.0
 11
4013.537679658453
 21
1627.109745937214
 31
0.0
  0
LINE
  5
153F
330
1F
100
AcDbEntity
  8
SANINDUSA
100
AcDbLine
 10
4013.537079658453
 20
1627.112245937214
 30
0.0
 11
4013.536979658453
 21
1627.112245937214
 31
0.0
  0
LINE
  5
1540
330
1F
100
AcDbEntity
  8
SANINDUSA
100
AcDbLine
 10
4013.540479658453
 20
1627.112245937214
 30
0.0
 11
4013.537679658453
 21
1627.112245937214
 31
0.0
  0
ARC
  5
1541
330
1F
100
AcDbEntity
  8
SANINDUSA
100
AcDbCircle
 10
4013.539477575119
 20
1627.110995937214
 30
0.0
 40
0.0016020833333333
100
AcDbArc
 50
308.7179883491911
 51
51.28201164065238
  0
LINE
  5
1542
330
1F
100
AcDbEntity
  8
SANINDUSA
100
AcDbLine
 10
4013.535479658453
 20
1627.119245937214
 30
0.0
 11
4013.523279658453
 21
1627.119245937215
 31
0.0
1001
ACAD
1000
ASC_BOUNDS
1002
{
1070
    19
1002
}
  0
ARC
  5
1543
330
1F
100
AcDbEntity
  8
SANINDUSA
100
AcDbCircle
 10
4013.512363200585
 20
1627.122870938498
 30
0.0
 40
0.0036250012835311
100
AcDbArc
 50
226.3971891430183
 51
313.6028108569817
  0
LINE
  5
1544
330
1F
100
AcDbEntity
  8
SANINDUSA
100
AcDbLine
 10
4013.514863201098
 20
1627.120245937215
 30
0.0
 11
4013.523279658453
 21
1627.121234195243
 31
0.0
  0
LINE
  5
1545
330
1F
100
AcDbEntity
  8
SANINDUSA
100
AcDbLine
 10
4013.537079658453
 20
1627.119245937214
 30
0.0
 11
4013.536979658453
 21
1627.119245937214
 31
0.0
  0
LINE
  5
1546
330
1F
100
AcDbEntity
  8
SANINDUSA
100
AcDbLine
 10
4013.540479658454
 20
1627.121745937214
 30
0.0
 11
4013.537679658453
 21
1627.121745937214
 31
0.0
  0
ARC
  5
1547
330
1F
100
AcDbEntity
  8
SANINDUSA
100
AcDbCircle
 10
4013.53947757512
 20
1627.120495937214
 30
0.0
 40
0.001602083333332
100
AcDbArc
 50
308.7179883491911
 51
51.28201164065238
  0
ARC
  5
1548
330
1F
100
AcDbEntity
  8
SANINDUSA
100
AcDbCircle
 10
4013.538681741787
 20
1627.120495937214
 30
0.0
 40
0.001602083333332
100
AcDbArc
 50
128.7179883491911
 51
231.2820116406524
  0
LINE
  5
1549
330
1F
100
AcDbEntity
  8
SANINDUSA
100
AcDbLine
 10
4013.540479658454
 20
1627.119245937214
 30
0.0
 11
4013.537679658453
 21
1627.119245937214
 31
0.0
  0
LINE
  5
154A
330
1F
100
AcDbEntity
  8
SANINDUSA
100
AcDbLine
 10
4013.536979658453
 20
1627.121745937214
 30
0.0
 11
4013.535479658453
 21
1627.121745937214
 31
0.0
  0
LINE
  5
154B
330
1F
100
AcDbEntity
  8
SANINDUSA
100
AcDbLine
 10
4013.493663202694
 20
1627.864428324435
 30
0.0
 11
4013.493663202694
 21
1627.478038258697
 31
0.0
  0
LINE
  5
154C
330
1F
100
AcDbEntity
  8
SANINDUSA
100
AcDbLine
 10
4013.511663202693
 20
1627.864428324435
 30
0.0
 11
4013.511663202693
 21
1627.484428324435
 31
0.0
  0
POLYLINE
  5
154D
330
1F
100
AcDbEntity
  8
SANINDUSA
100
AcDb2dPolyline
 66
     1
 10
0.0
 20
0.0
 30
0.0
  0
VERTEX
  5
154E
330
154D
100
AcDbEntity
  8
SANINDUSA
100
AcDbVertex
100
AcDb2dVertex
 10
4013.523363229007
 20
1627.487781655197
 30
0.0
  0
VERTEX
  5
154F
330
154D
100
AcDbEntity
  8
SANINDUSA
100
AcDbVertex
100
AcDb2dVertex
 10
4013.523362857456
 20
1627.475945968605
 30
0.0
 42
0.4142056759633454
  0
VERTEX
  5
1550
330
154D
100
AcDbEntity
  8
SANINDUSA
100
AcDbVertex
100
AcDb2dVertex
 10
4013.524362799136
 20
1627.474945937215
 30
0.0
  0
VERTEX
  5
1551
330
154D
100
AcDbEntity
  8
SANINDUSA
100
AcDbVertex
100
AcDb2dVertex
 10
4013.52611892496
 20
1627.4749458348
 30
0.0
 42
0.4142306435449703
  0
VERTEX
  5
1552
330
154D
100
AcDbEntity
  8
SANINDUSA
100
AcDbVertex
100
AcDb2dVertex
 10
4013.527118983279
 20
1627.475945834798
 30
0.0
  0
VERTEX
  5
1553
330
154D
100
AcDbEntity
  8
SANINDUSA
100
AcDbVertex
100
AcDb2dVertex
 10
4013.527118983279
 20
1627.47754029633
 30
0.0
 42
-0.2881936776522669
  0
VERTEX
  5
1554
330
154D
100
AcDbEntity
  8
SANINDUSA
100
AcDbVertex
100
AcDb2dVertex
 10
4013.527232272184
 20
1627.477720521705
 30
0.0
 42
0.6285957498500262
  0
VERTEX
  5
1555
330
154D
100
AcDbEntity
  8
SANINDUSA
100
AcDbVertex
100
AcDb2dVertex
 10
4013.527232272184
 20
1627.478171085144
 30
0.0
 42
-0.2881936776522143
  0
VERTEX
  5
1556
330
154D
100
AcDbEntity
  8
SANINDUSA
100
AcDbVertex
100
AcDb2dVertex
 10
4013.527118983279
 20
1627.47835131052
 30
0.0
  0
VERTEX
  5
1557
330
154D
100
AcDbEntity
  8
SANINDUSA
100
AcDbVertex
100
AcDb2dVertex
 10
4013.527118983279
 20
1627.480540295073
 30
0.0
 42
-0.2881936776520399
  0
VERTEX
  5
1558
330
154D
100
AcDbEntity
  8
SANINDUSA
100
AcDbVertex
100
AcDb2dVertex
 10
4013.527232272184
 20
1627.480720520449
 30
0.0
 42
0.6285957498500262
  0
VERTEX
  5
1559
330
154D
100
AcDbEntity
  8
SANINDUSA
100
AcDbVertex
100
AcDb2dVertex
 10
4013.527232272184
 20
1627.481171083888
 30
0.0
 42
-0.2881936776522668
  0
VERTEX
  5
155A
330
154D
100
AcDbEntity
  8
SANINDUSA
100
AcDbVertex
100
AcDb2dVertex
 10
4013.527118983279
 20
1627.481351309263
 30
0.0
  0
VERTEX
  5
155B
330
154D
100
AcDbEntity
  8
SANINDUSA
100
AcDbVertex
100
AcDb2dVertex
 10
4013.527118983279
 20
1627.481746056768
 30
0.0
 42
-0.4142306435457696
  0
VERTEX
  5
155C
330
154D
100
AcDbEntity
  8
SANINDUSA
100
AcDbVertex
100
AcDb2dVertex
 10
4013.527318994943
 20
1627.481946056767
 30
0.0
  0
VERTEX
  5
155D
330
154D
100
AcDbEntity
  8
SANINDUSA
100
AcDbVertex
100
AcDb2dVertex
 10
4013.531418994943
 20
1627.481945817662
 30
0.0
 42
-0.4141964814077272
  0
VERTEX
  5
155E
330
154D
100
AcDbEntity
  8
SANINDUSA
100
AcDbVertex
100
AcDb2dVertex
 10
4013.531618983279
 20
1627.481745817662
 30
0.0
  0
VERTEX
  5
155F
330
154D
100
AcDbEntity
  8
SANINDUSA
100
AcDbVertex
100
AcDb2dVertex
 10
4013.531618983279
 20
1627.481348915055
 30
0.0
 42
-0.2849150464410597
  0
VERTEX
  5
1560
330
154D
100
AcDbEntity
  8
SANINDUSA
100
AcDbVertex
100
AcDb2dVertex
 10
4013.531507872168
 20
1627.481169753772
 30
0.0
 42
0.6201736729456835
  0
VERTEX
  5
1561
330
154D
100
AcDbEntity
  8
SANINDUSA
100
AcDbVertex
100
AcDb2dVertex
 10
4013.531507872168
 20
1627.480721850564
 30
0.0
 42
-0.2849150464419475
  0
VERTEX
  5
1562
330
154D
100
AcDbEntity
  8
SANINDUSA
100
AcDbVertex
100
AcDb2dVertex
 10
4013.531618983279
 20
1627.480542689281
 30
0.0
  0
VERTEX
  5
1563
330
154D
100
AcDbEntity
  8
SANINDUSA
100
AcDbVertex
100
AcDb2dVertex
 10
4013.531618983279
 20
1627.478348916312
 30
0.0
 42
-0.2849150464410597
  0
VERTEX
  5
1564
330
154D
100
AcDbEntity
  8
SANINDUSA
100
AcDbVertex
100
AcDb2dVertex
 10
4013.531507872168
 20
1627.478169755029
 30
0.0
 42
0.6201736729456835
  0
VERTEX
  5
1565
330
154D
100
AcDbEntity
  8
SANINDUSA
100
AcDbVertex
100
AcDb2dVertex
 10
4013.531507872168
 20
1627.477721851821
 30
0.0
 42
-0.284915046441397
  0
VERTEX
  5
1566
330
154D
100
AcDbEntity
  8
SANINDUSA
100
AcDbVertex
100
AcDb2dVertex
 10
4013.531618983279
 20
1627.477542690537
 30
0.0
  0
VERTEX
  5
1567
330
154D
100
AcDbEntity
  8
SANINDUSA
100
AcDbVertex
100
AcDb2dVertex
 10
4013.531618983279
 20
1627.475945455729
 30
0.0
 42
0.4141964814073941
  0
VERTEX
  5
1568
330
154D
100
AcDbEntity
  8
SANINDUSA
100
AcDbVertex
100
AcDb2dVertex
 10
4013.532618924961
 20
1627.47494545573
 30
0.0
  0
VERTEX
  5
1569
330
154D
100
AcDbEntity
  8
SANINDUSA
100
AcDbVertex
100
AcDb2dVertex
 10
4013.534362799124
 20
1627.474945354031
 30
0.0
 42
0.4142214488268239
  0
VERTEX
  5
156A
330
154D
100
AcDbEntity
  8
SANINDUSA
100
AcDbVertex
100
AcDb2dVertex
 10
4013.535362857441
 20
1627.475945322636
 30
0.0
  0
VERTEX
  5
156B
330
154D
100
AcDbEntity
  8
SANINDUSA
100
AcDbVertex
100
AcDb2dVertex
 10
4013.535363328329
 20
1627.490945322629
 30
0.0
 42
0.3653825997089465
  0
VERTEX
  5
156C
330
154D
100
AcDbEntity
  8
SANINDUSA
100
AcDbVertex
100
AcDb2dVertex
 10
4013.530375926722
 20
1627.496859447433
 30
0.0
 42
0.243385931735339
  0
VERTEX
  5
156D
330
154D
100
AcDbEntity
  8
SANINDUSA
100
AcDbVertex
100
AcDb2dVertex
 10
4013.529937990132
 20
1627.496720172785
 30
0.0
  0
VERTEX
  5
156E
330
154D
100
AcDbEntity
  8
SANINDUSA
100
AcDbVertex
100
AcDb2dVertex
 10
4013.529504749686
 20
1627.49628693234
 30
0.0
 42
-0.4142135623730951
  0
VERTEX
  5
156F
330
154D
100
AcDbEntity
  8
SANINDUSA
100
AcDbVertex
100
AcDb2dVertex
 10
4013.529221906973
 20
1627.49628693234
 30
0.0
  0
VERTEX
  5
1570
330
154D
100
AcDbEntity
  8
SANINDUSA
100
AcDbVertex
100
AcDb2dVertex
 10
4013.528788666531
 20
1627.496720172784
 30
0.0
 42
0.243385932516115
  0
VERTEX
  5
1571
330
154D
100
AcDbEntity
  8
SANINDUSA
100
AcDbVertex
100
AcDb2dVertex
 10
4013.528350729941
 20
1627.496859447433
 30
0.0
 42
0.3653648080399314
  0
VERTEX
  5
1572
330
154D
100
AcDbEntity
  8
SANINDUSA
100
AcDbVertex
100
AcDb2dVertex
 10
4013.523363328334
 20
1627.490945699339
 30
0.0
  0
VERTEX
  5
1573
330
154D
100
AcDbEntity
  8
SANINDUSA
100
AcDbVertex
100
AcDb2dVertex
 10
4013.523363304368
 20
1627.490182278352
 30
0.0
 42
0.4142135623730951
  0
VERTEX
  5
1574
330
154D
100
AcDbEntity
  8
SANINDUSA
100
AcDbVertex
100
AcDb2dVertex
 10
4013.52366329495
 20
1627.489882268934
 30
0.0
  0
VERTEX
  5
1575
330
154D
100
AcDbEntity
  8
SANINDUSA
100
AcDbVertex
100
AcDb2dVertex
 10
4013.523863294951
 20
1627.489882262656
 30
0.0
 42
0.4142135623730951
  0
VERTEX
  5
1576
330
154D
100
AcDbEntity
  8
SANINDUSA
100
AcDbVertex
100
AcDb2dVertex
 10
4013.524163304368
 20
1627.490182253238
 30
0.0
  0
VERTEX
  5
1577
330
154D
100
AcDbEntity
  8
SANINDUSA
100
AcDbVertex
100
AcDb2dVertex
 10
4013.524163328334
 20
1627.490945674225
 30
0.0
 42
-0.0325821046079382
  0
VERTEX
  5
1578
330
154D
100
AcDbEntity
  8
SANINDUSA
100
AcDbVertex
100
AcDb2dVertex
 10
4013.524207418217
 20
1627.491621226079
 30
0.0
 42
-0.3765495638224707
  0
VERTEX
  5
1579
330
154D
100
AcDbEntity
  8
SANINDUSA
100
AcDbVertex
100
AcDb2dVertex
 10
4013.524504883988
 20
1627.491882242516
 30
0.0
  0
VERTEX
  5
157A
330
154D
100
AcDbEntity
  8
SANINDUSA
100
AcDbVertex
100
AcDb2dVertex
 10
4013.524863357735
 20
1627.491882231262
 30
0.0
 42
-0.4142135623735391
  0
VERTEX
  5
157B
330
154D
100
AcDbEntity
  8
SANINDUSA
100
AcDbVertex
100
AcDb2dVertex
 10
4013.525163348318
 20
1627.491582221845
 30
0.0
  0
VERTEX
  5
157C
330
154D
100
AcDbEntity
  8
SANINDUSA
100
AcDbVertex
100
AcDb2dVertex
 10
4013.525163111725
 20
1627.486238593133
 30
0.0
 42
-0.4142135623730951
  0
VERTEX
  5
157D
330
154D
100
AcDbEntity
  8
SANINDUSA
100
AcDbVertex
100
AcDb2dVertex
 10
4013.524863102308
 20
1627.485938602551
 30
0.0
  0
VERTEX
  5
157E
330
154D
100
AcDbEntity
  8
SANINDUSA
100
AcDbVertex
100
AcDb2dVertex
 10
4013.524463102307
 20
1627.485938615108
 30
0.0
 42
-0.4142135623730951
  0
VERTEX
  5
157F
330
154D
100
AcDbEntity
  8
SANINDUSA
100
AcDbVertex
100
AcDb2dVertex
 10
4013.524163111726
 20
1627.486238624526
 30
0.0
  0
VERTEX
  5
1580
330
154D
100
AcDbEntity
  8
SANINDUSA
100
AcDbVertex
100
AcDb2dVertex
 10
4013.524163159963
 20
1627.487775203538
 30
0.0
 42
0.4142135623735391
  0
VERTEX
  5
1581
330
154D
100
AcDbEntity
  8
SANINDUSA
100
AcDbVertex
100
AcDb2dVertex
 10
4013.523863169381
 20
1627.488075212956
 30
0.0
  0
VERTEX
  5
1582
330
154D
100
AcDbEntity
  8
SANINDUSA
100
AcDbVertex
100
AcDb2dVertex
 10
4013.523663169381
 20
1627.488075219234
 30
0.0
 42
0.4142135623726511
  0
VERTEX
  5
1583
330
154D
100
AcDbEntity
  8
SANINDUSA
100
AcDbVertex
100
AcDb2dVertex
 10
4013.523363159964
 20
1627.487775228652
 30
0.0
  0
SEQEND
  5
1584
330
154D
100
AcDbEntity
  8
SANINDUSA
  0
POLYLINE
  5
1585
330
1F
100
AcDbEntity
  8
SANINDUSA
100
AcDb2dPolyline
 66
     1
 10
0.0
 20
0.0
 30
0.0
 70
     1
  0
VERTEX
  5
1586
330
1585
100
AcDbEntity
  8
SANINDUSA
100
AcDbVertex
100
AcDb2dVertex
 10
4013.525963351456
 20
1627.491682196731
 30
0.0
 42
0.4142135623729619
  0
VERTEX
  5
1587
330
1585
100
AcDbEntity
  8
SANINDUSA
100
AcDbVertex
100
AcDb2dVertex
 10
4013.524963382848
 20
1627.492682228123
 30
0.0
  0
VERTEX
  5
1588
330
1585
100
AcDbEntity
  8
SANINDUSA
100
AcDbVertex
100
AcDb2dVertex
 10
4013.52490666366
 20
1627.492682229904
 30
0.0
 42
-0.5461174401556712
  0
VERTEX
  5
1589
330
1585
100
AcDbEntity
  8
SANINDUSA
100
AcDbVertex
100
AcDb2dVertex
 10
4013.524633816635
 20
1627.49310692698
 30
0.0
 42
-0.2409586185726194
  0
VERTEX
  5
158A
330
1585
100
AcDbEntity
  8
SANINDUSA
100
AcDbVertex
100
AcDb2dVertex
 10
4013.528348975784
 20
1627.496045617557
 30
0.0
 42
-0.2504808541652698
  0
VERTEX
  5
158B
330
1585
100
AcDbEntity
  8
SANINDUSA
100
AcDbVertex
100
AcDb2dVertex
 10
4013.528800063065
 20
1627.495908776065
 30
0.0
  0
VERTEX
  5
158C
330
1585
100
AcDbEntity
  8
SANINDUSA
100
AcDbVertex
100
AcDb2dVertex
 10
4013.529221906975
 20
1627.495486932155
 30
0.0
 42
0.4142135623730951
  0
VERTEX
  5
158D
330
1585
100
AcDbEntity
  8
SANINDUSA
100
AcDbVertex
100
AcDb2dVertex
 10
4013.529504749687
 20
1627.495486932155
 30
0.0
  0
VERTEX
  5
158E
330
1585
100
AcDbEntity
  8
SANINDUSA
100
AcDbVertex
100
AcDb2dVertex
 10
4013.529926593745
 20
1627.495908776213
 30
0.0
 42
-0.2504808671429759
  0
VERTEX
  5
158F
330
1585
100
AcDbEntity
  8
SANINDUSA
100
AcDbVertex
100
AcDb2dVertex
 10
4013.530377681052
 20
1627.496045617699
 30
0.0
 42
-0.3578210409310957
  0
VERTEX
  5
1590
330
1585
100
AcDbEntity
  8
SANINDUSA
100
AcDbVertex
100
AcDb2dVertex
 10
4013.534563328328
 20
1627.490945347743
 30
0.0
  0
VERTEX
  5
1591
330
1585
100
AcDbEntity
  8
SANINDUSA
100
AcDbVertex
100
AcDb2dVertex
 10
4013.534562860696
 20
1627.475945342365
 30
0.0
 42
-0.4142135623730951
  0
VERTEX
  5
1592
330
1585
100
AcDbEntity
  8
SANINDUSA
100
AcDbVertex
100
AcDb2dVertex
 10
4013.534362849032
 20
1627.475745354029
 30
0.0
  0
VERTEX
  5
1593
330
1585
100
AcDbEntity
  8
SANINDUSA
100
AcDbVertex
100
AcDb2dVertex
 10
4013.53261904665
 20
1627.475745455725
 30
0.0
 42
-0.4141794006486556
  0
VERTEX
  5
1594
330
1585
100
AcDbEntity
  8
SANINDUSA
100
AcDbVertex
100
AcDb2dVertex
 10
4013.532419058314
 20
1627.475945444061
 30
0.0
  0
VERTEX
  5
1595
330
1585
100
AcDbEntity
  8
SANINDUSA
100
AcDbVertex
100
AcDb2dVertex
 10
4013.532418720028
 20
1627.481746129998
 30
0.0
 42
0.4141964814074665
  0
VERTEX
  5
1596
330
1585
100
AcDbEntity
  8
SANINDUSA
100
AcDbVertex
100
AcDb2dVertex
 10
4013.53141872003
 20
1627.48274607168
 30
0.0
  0
VERTEX
  5
1597
330
1585
100
AcDbEntity
  8
SANINDUSA
100
AcDbVertex
100
AcDb2dVertex
 10
4013.527319269856
 20
1627.48274607168
 30
0.0
 42
0.4141964814075477
  0
VERTEX
  5
1598
330
1585
100
AcDbEntity
  8
SANINDUSA
100
AcDbVertex
100
AcDb2dVertex
 10
4013.526319269857
 20
1627.481746129998
 30
0.0
  0
VERTEX
  5
1599
330
1585
100
AcDbEntity
  8
SANINDUSA
100
AcDbVertex
100
AcDb2dVertex
 10
4013.52631893157
 20
1627.475945444061
 30
0.0
 42
-0.4141794006486554
  0
VERTEX
  5
159A
330
1585
100
AcDbEntity
  8
SANINDUSA
100
AcDbVertex
100
AcDb2dVertex
 10
4013.526118943235
 20
1627.475745455725
 30
0.0
  0
VERTEX
  5
159B
330
1585
100
AcDbEntity
  8
SANINDUSA
100
AcDbVertex
100
AcDb2dVertex
 10
4013.524375140852
 20
1627.475745354029
 30
0.0
 42
-0.4142135623730951
  0
VERTEX
  5
159C
330
1585
100
AcDbEntity
  8
SANINDUSA
100
AcDbVertex
100
AcDb2dVertex
 10
4013.524175129189
 20
1627.475945342365
 30
0.0
  0
VERTEX
  5
159D
330
1585
100
AcDbEntity
  8
SANINDUSA
100
AcDbVertex
100
AcDb2dVertex
 10
4013.524175129189
 20
1627.484938617869
 30
0.0
 42
-0.4142227570402988
  0
VERTEX
  5
159E
330
1585
100
AcDbEntity
  8
SANINDUSA
100
AcDbVertex
100
AcDb2dVertex
 10
4013.524375135467
 20
1627.485138617869
 30
0.0
  0
VERTEX
  5
159F
330
1585
100
AcDbEntity
  8
SANINDUSA
100
AcDbVertex
100
AcDb2dVertex
 10
4013.524863077194
 20
1627.485138602551
 30
0.0
 42
0.4142135623730951
  0
VERTEX
  5
15A0
330
1585
100
AcDbEntity
  8
SANINDUSA
100
AcDbVertex
100
AcDb2dVertex
 10
4013.525963111725
 20
1627.486238568019
 30
0.0
  0
SEQEND
  5
15A1
330
1585
100
AcDbEntity
  8
SANINDUSA
  0
REGION
  5
15A2
330
1F
100
AcDbEntity
  8
SANINDUSA
100
AcDbModelerGeometry
 70
     1
  1
koo nmn n o         
  1
ni ^ *+0;:,4 ^ *+0\^ [ nf ^ LR mnjqoqoqkmnk QK o  
  1
n fqfffffffffffffffj:rooh n:rono 
  1
=0;& {rn {n {rn {rn |
  1
3*2/ {rn {rn {m {o |
  1
,7:33 {rn {rn {rn {l {rn {n |
  1
9><: {rn {rn {k {m {rn {j 90-(>-; ;0*=3: 0*+ |
  1
300/ {rn {rn {i {l |
  1
/3>1:r,*-9><: {rn konlqjomfhginhmhmh nimhqkhllmihihmilm o o o n oqoon o o 90-(>-;@) V V V V |
  1
<0:;8: {rn {h {g {rn {f 90-(>-; {k {rn |
  1
<0:;8: {rn {no {i {rn {nn 90-(>-; {k {rn |
  1
<0:;8: {rn {i {nm {rn {nl 90-(>-; {k {rn |
  1
:;8: {rn {nk {nj {i {ni 90-(>-; |
  1
<0:;8: {rn {nh {h {rn {ng 90-(>-; {k {rn |
  1
:;8: {rn {nj {nf {h {mo 90-(>-; |
  1
<0:;8: {rn {g {mn {rn {mm 90-(>-; {k {rn |
  1
:;8: {rn {ml {nk {g {mk 90-(>-; |
  1
):-+:' {rn {f {mj |
  1
):-+:' {rn {f {mi |
  1
:336/,:r<*-): {rn konlqjoofnlnfgflof nimhqkhfmmglmkkljn o o o rn roqooojijigjkmkfkfljhfk roqooojijigjkmkfjooooff o n V V |
  1
<0:;8: {rn {mh {no {rn {mg 90-(>-; {k {rn |
  1
:;8: {rn {nf {mf {no {lo 90-(>-; |
  1
):-+:' {rn {nn {ln |
  1
,+->687+r<*-): {rn konlqjoonnlnfgflnn nimhqkhfmmglmkkljn o o oqoon o V V |
  1
<0:;8: {rn {nm {lm {rn {ll 90-(>-; {k {rn |
  1
:;8: {rn {lk {ml {nm {lj 90-(>-; |
  1
):-+:' {rn {mm {li |
  1
,+->687+r<*-): {rn konlqjokknlnfgfloh nimhqkhgkmglmkkljl o roqoon o o V V |
  1
/061+ {rn konlqjoofnlnfgflof nimhqkhgkmglmkkljl o |
  1
/061+ {rn konlqjoonnlnfgflnn nimhqkhfmmglmkkljn o |
  1
<0:;8: {rn {lh {nh {rn {lg 90-(>-; {k {rn |
  1
:;8: {rn {mf {lf {nh {ko 90-(>-; |
  1
):-+:' {rn {ng {kn |
  1
:336/,:r<*-): {rn konlqkfflnlnfgflog nimhqkgkimglmkkljn o o o n oqoookngkfnkffkgjilmfm oqoooigngofffnhikjinii o n V V |
  1
/061+ {rn konlqjoonnlnfgflnn nimhqkgkimglmkkljn o |
  1
<0:;8: {rn {mn {km {rn {kl 90-(>-; {k {rn |
  1
:;8: {rn {kk {lk {mn {kj 90-(>-; |
  1
):-+:' {rn {ll {ki |
  1
:336/,:r<*-): {rn konlqjokknlnfgfloh nimhqkhfmmglmkkljn o o o rn oqooojijigjkmkfkflhmkh roqooojijigjkmkfjoonjim o n V V |
  1
/061+ {rn konlqjokknlnfgfloh nimhqkhgkmglmkkljl o |
  1
<0:;8: {rn {kh {mh {rn {kg 90-(>-; {k {rn |
  1
:;8: {rn {lf {kf {mh {jo 90-(>-; |
  1
):-+:' {rn {mg {jn |
  1
:336/,:r<*-): {rn konlqjomiilnfgflog nimhqkhgoloomfmoof o o o n roqooifggjjmknjjjooloj oqookmgfjlhgifikljjol o n V V |
  1
/061+ {rn konlqkfgfjnolihigi nimhqkgjlknijlikfg o |
  1
<0:;8: {rn {lm {jm {rn {jl 90-(>-; {k {rn |
  1
:;8: {rn {jk {kk {lm {jj 90-(>-; |
  1
):-+:' {rn {kl {ji |
  1
,+->687+r<*-): {rn konlqjojmnlnfgfloj nimhqkgkimglmkkljn o lqligkfggfjkjkfkfk:roni roqoon o V V |
  1
/061+ {rn konlqjojmnlnfgfloj nimhqkhfmmglmkkljn o |
  1
<0:;8: {rn {jh {lh {rn {jg 90-(>-; {k {rn |
  1
:;8: {rn {kf {jf {lh {io 90-(>-; |
  1
):-+:' {rn {lg {in |
  1
,+->687+r<*-): {rn konlqkfkkilnfgfln nimhqkhgoloomfmoof o o roqoon o V V |
  1
/061+ {rn konlqkfkkilnfgfln nimhqkhgoloomfmoof o |
  1
<0:;8: {rn {km {im {rn {il 90-(>-; {k {rn |
  1
:;8: {rn {ik {jk {km {ij 90-(>-; |
  1
):-+:' {rn {jl {ii |
  1
:336/,:r<*-): {rn konlqjoionlnfgflog nimhqkgkimglmkkljn o o o n roqooojijigjkmkfkgihikm oqooojijigjkmkfkffimi o n V V |
  1
/061+ {rn konlqjojmnlnfgfloj nimhqkgkimglmkkljn o |
  1
<0:;8: {rn {ih {kh {rn {ig 90-(>-; {k {rn |
  1
:;8: {rn {jf {if {kh {ho 90-(>-; |
  1
):-+:' {rn {kg {hn |
  1
:336/,:r<*-): {rn konlqkfjkilnfgflog nimhqkinmmglmkkljl o o o n roqooohohnoihgnnghnfoii roqooohohnoihgnngijkhjn o n V V |
  1
/061+ {rn konlqkfkkilnfgfln nimhqkinmmglmkkljl o |
  1
<0:;8: {rn {jm {hm {rn {hl 90-(>-; {k {rn |
  1
:;8: {rn {hk {ik {jm {hj 90-(>-; |
  1
):-+:' {rn {il {hi |
  1
,+->687+r<*-): {rn konlqjnooilnfgflog nimhqkgjkmglmkkljn o roqoon o o V V |
  1
/061+ {rn konlqjoionlnfgflog nimhqkgjkmglmkkljn o |
  1
<0:;8: {rn {hh {jh {rn {hg 90-(>-; {k {rn |
  1
:;8: {rn {if {hf {jh {go 90-(>-; |
  1
):-+:' {rn {jg {gn |
  1
,+->687+r<*-): {rn konlqkfjkilnfgflog nimhqkiommglmkkljn o oqoon iqlnjfljkmgfhggmhl:ronh o V V |
  1
/061+ {rn konlqkfjkilnfgflog nimhqkiommglmkkljn o |
  1
<0:;8: {rn {im {gm {rn {gl 90-(>-; {k {rn |
  1
:;8: {rn {gk {hk {im {gj 90-(>-; |
  1
):-+:' {rn {hl {gi |
  1
:336/,:r<*-): {rn konlqjnooilnfgflog nimhqkgkimglmkkljn o o o n oqooojijigjkmkfkflhhgf oqooojijigjkmkfkghlkhj o n V V |
  1
/061+ {rn konlqjnooilnfgflog nimhqkgjkmglmkkljn o |
  1
<0:;8: {rn {gh {ih {rn {gg 90-(>-; {k {rn |
  1
:;8: {rn {hf {gf {ih {fo 90-(>-; |
  1
):-+:' {rn {ig {fn |
  1
:336/,:r<*-): {rn konlqjofgilnfgflog nimhqkinmmglmkkljl o o o n oqooohohnoihgnngjgffkf roqooohohnoihgnngijkmil o n V V |
  1
/061+ {rn konlqjofgilnfgflog nimhqkiommglmkkljn o |
  1
<0:;8: {rn {hm {fm {rn {fl 90-(>-; {k {rn |
  1
:;8: {rn {fk {gk {hm {fj 90-(>-; |
  1
):-+:' {rn {gl {fi |
  1
,+->687+r<*-): {rn konlqjnogilnfgfloi nimhqkhifkglmkkljm o mqligkhjhgjgihnfnk:roni oqoon o V V |
  1
/061+ {rn konlqjnogilnfgfloi nimhqkgkimglmkkljn o |
  1
<0:;8: {rn {fh {hh {rn {fg 90-(>-; {k {rn |
  1
:;8: {rn {gf {ff {hh {noo 90-(>-; |
  1
):-+:' {rn {hg {non |
  1
,+->687+r<*-): {rn konlqjnogilnfgfloi nimhqkinmmglmkkljl o o oqoon o V V |
  1
/061+ {rn konlqjnogilnfgfloi nimhqkinmmglmkkljl o |
  1
<0:;8: {rn {gm {nom {rn {nol 90-(>-; {k {rn |
  1
:;8: {rn {nok {fk {gm {noj 90-(>-; |
  1
):-+:' {rn {fl {noi |
  1
:336/,:r<*-): {rn konlqjnojilnfgflof nimhqkhifkglmkkljm o o o n oqooomnmnlmolkljiijjik roqooomnmnlmolkljiijjik o n V V |
  1
/061+ {rn konlqjnogilnfgfloi nimhqkhifkglmkkljm o |
  1
<0:;8: {rn {nom {gh {rn {noh 90-(>-; {k {rn |
  1
:;8: {rn {ff {nog {gh {nof 90-(>-; |
  1
):-+:' {rn {gg {nno |
  1
:336/,:r<*-): {rn konlqjnojilnfgflof nimhqkighoglmkkljl o o o n oqooomnmnlmolkljjliflj oqooomnmnlmolkljhfknhg o n V V |
  1
/061+ {rn konlqjnogilnfgfloi nimhqkighoglmkkljl o |
  1
<0:;8: {rn {fm {fh {rn {nnn 90-(>-; {k {rn |
  1
:;8: {rn {nnm {nok {fm {nnl 90-(>-; |
  1
):-+:' {rn {nol {nnk |
  1
,+->687+r<*-): {rn konlqjnonilnfgfln nimhqkhiikglmkkljm o oqoon rmqmhlhlihjkkjjoigm:ronj o V V |
  1
/061+ {rn konlqjnojilnfgflof nimhqkhiikglmkkljm o |
  1
:;8: {rn {nog {nnj {fh {nni 90-(>-; |
  1
):-+:' {rn {fg {nnh |
  1
,+->687+r<*-): {rn konlqjnojilnfgflof nimhqkifooglmkkljm o roqoon o o V V |
  1
/061+ {rn konlqjnojilnfgflof nimhqkifooglmkkljm o |
  1
:;8: {rn {nnj {nnm {nom {nng 90-(>-; |
  1
):-+:' {rn {nnn {nnf |
  1
:336/,:r<*-): {rn konlqjnonilnfgfln nimhqkhjjkglmkkljl o o o rn roqooohhhgnhkjflokmjlf oqooohhhgnhkjflokgfhoj o n V V |
  1
/061+ {rn konlqjnonilnfgfln nimhqkhiikglmkkljm o |
  1
):-+:' {rn {noh {nmo |
  1
:336/,:r<*-): {rn konlqjnonilnfgfln nimhqkhonoglmkkljm o o o rn roqooohhhgnhkjflokgfhoj roqooohhhgnhkjfloinglmk o n V V |
  1
/061+ {rn konlqjnonilnfgfln nimhqkifooglmkkljm o |
  1
,+->687+r<*-): {rn konlqjofoilnfgfloi nimhqkhonoglmkkljm o lqlklhlojmnmmlighh:roni oqoon o V V |
  1
/061+ {rn konlqjofoilnfgfloi nimhqkhjjkglmkkljl o |
  1
/061+ {rn konlqjofoilnfgfloi nimhqkhonoglmkkljm o |
  0
REGION
  5
15A3
330
1F
100
AcDbEntity
  8
SANINDUSA
100
AcDbModelerGeometry
 70
     1
  1
koo mkn n o         
  1
ni ^ *+0;:,4 ^ *+0\^ [ nf ^ LR mnjqoqoqkmnk QK o  
  1
n fqfffffffffffffffj:rooh n:rono 
  1
=0;& {rn {n {rn {rn |
  1
3*2/ {rn {rn {m {o |
  1
,7:33 {rn {rn {rn {l {rn {n |
  1
9><: {rn {rn {k {m {rn {j 90-(>-; ;0*=3: 0*+ |
  1
300/ {rn {rn {i {l |
  1
/3>1:r,*-9><: {rn konlqjolihimmglkni nimhqkhlknhklkholk o o o n oqoon o o 90-(>-;@) V V V V |
  1
<0:;8: {rn {h {g {rn {f 90-(>-; {k {rn |
  1
<0:;8: {rn {no {i {rn {nn 90-(>-; {k {rn |
  1
<0:;8: {rn {i {nm {rn {nl 90-(>-; {k {rn |
  1
:;8: {rn {nk {nj {i {ni 90-(>-; |
  1
<0:;8: {rn {nh {h {rn {ng 90-(>-; {k {rn |
  1
:;8: {rn {nj {nf {h {mo 90-(>-; |
  1
<0:;8: {rn {g {mn {rn {mm 90-(>-; {k {rn |
  1
:;8: {rn {ml {nk {g {mk 90-(>-; |
  1
):-+:' {rn {f {mj |
  1
):-+:' {rn {f {mi |
  1
,+->687+r<*-): {rn konlqjofgilnfgflog nimhqkgimmglmkkljm o roqoon o o V V |
  1
<0:;8: {rn {mh {no {rn {mg -:):-,:; {k {rn |
  1
:;8: {rn {nf {mf {no {lo 90-(>-; |
  1
):-+:' {rn {nn {ln |
  1
:336/,:r<*-): {rn konlqjoimnlnfgfloh nimhqkgkkmglmkkljm o o o n oqoonhfffffffffffhmhm o o n V V |
  1
<0:;8: {rn {nm {lm {rn {ll 90-(>-; {k {rn |
  1
:;8: {rn {lk {ml {nm {lj 90-(>-; |
  1
):-+:' {rn {mm {li |
  1
:336/,:r<*-): {rn konlqjofgilnfgflog nimhqkgkkmglmkkljm o o o n oqoongooooooooooongnf o o n V V |
  1
/061+ {rn konlqjofgilnfgflog nimhqkgimmglmkkljm o |
  1
/061+ {rn konlqjoimnlnfgfloh nimhqkgimmglmkkljm o |
  1
<0:;8: {rn {lh {nh {rn {lg 90-(>-; {k {rn |
  1
:;8: {rn {lf {mf {nh {ko 90-(>-; |
  1
):-+:' {rn {ng {kn |
  1
,+->687+r<*-): {rn konlqjokknlnfgfloh nimhqkgkkmglmkkljm o o roqoon o V V |
  1
/061+ {rn konlqjokknlnfgfloh nimhqkgkkmglmkkljm o |
  1
<0:;8: {rn {mn {km {rn {kl 90-(>-; {k {rn |
  1
:;8: {rn {kk {lk {mn {kj 90-(>-; |
  1
):-+:' {rn {ll {ki |
  1
,+->687+r<*-): {rn konlqjnniilnfgflog nimhqkhkojglmkkljm o o oqoon o V V |
  1
/061+ {rn konlqjnniilnfgflog nimhqkgkkmglmkkljm o |
  1
<0:;8: {rn {kh {mh {rn {kg -:):-,:; {k {rn |
  1
:;8: {rn {lf {kf {mh {jo 90-(>-; |
  1
):-+:' {rn {mg {jn |
  1
:336/,:r<*-): {rn konlqjokmnlnfgflog nimhqkglilnklhlmn o o o n oqooonfffffffffffgngnn o o n V V |
  1
/061+ {rn konlqjokknlnfgfloh nimhqkglilnklhlmn o |
  1
<0:;8: {rn {lm {jm {rn {jl 90-(>-; {k {rn |
  1
:;8: {rn {jk {kk {lm {jj 90-(>-; |
  1
):-+:' {rn {kl {ji |
  1
:336/,:r<*-): {rn konlqjnnlilnfgfloh nimhqkhkojglmkkljm o o o n oqooolooooooooooongnf o o n V V |
  1
/061+ {rn konlqjnniilnfgflog nimhqkhkojglmkkljm o |
  1
<0:;8: {rn {jh {lh {rn {jg -:):-,:; {k {rn |
  1
:;8: {rn {jf {kf {lh {io 90-(>-; |
  1
):-+:' {rn {lg {in |
  1
:336/,:r<*-): {rn konlqjokknlnfgfloh nimhqkglmmglmkkljm o o o n oqooomjoooooooooooooon o o n V V |
  1
/061+ {rn konlqjoklomoghgmom nimhqkglkjmmhiolg o |
  1
<0:;8: {rn {km {im {rn {il 90-(>-; {k {rn |
  1
:;8: {rn {ik {jk {km {ij 90-(>-; |
  1
):-+:' {rn {jl {ii |
  1
,+->687+r<*-): {rn konlqjnnnilnfgfloh nimhqkhlhjglmkkljl o oqoon o o V V |
  1
/061+ {rn konlqjnnlilnfgfloh nimhqkhlhjglmkkljl o |
  1
<0:;8: {rn {ih {kh {rn {ig -:):-,:; {k {rn |
  1
:;8: {rn {if {jf {kh {ho 90-(>-; |
  1
):-+:' {rn {kg {hn |
  1
:336/,:r<*-): {rn konlqjokmnlnfgflog nimhqkgmgmjmnnjkfk o o o n oqooomooooooooooooooon o o n V V |
  1
/061+ {rn konlqjoklomoghgnfl nimhqkglooklhmglnn o |
  1
<0:;8: {rn {jm {hm {rn {hl -:):-,:; {k {rn |
  1
:;8: {rn {hk {ik {jm {hj 90-(>-; |
  1
):-+:' {rn {il {hi |
  1
:336/,:r<*-): {rn konlqjnnnilnfgfloh nimhqkhkojglmkkljm o o o n oqooomfffffffffffmhmkm o o n V V |
  1
/061+ {rn konlqjnnnilnfgfloh nimhqkhlhjglmkkljl o |
  1
<0:;8: {rn {hh {jh {rn {hg 90-(>-; {k {rn |
  1
:;8: {rn {hf {if {jh {go 90-(>-; |
  1
):-+:' {rn {jg {gn |
  1
,+->687+r<*-): {rn konlqjokknlnfgfloh nimhqkgoilnklhlmlk o o oqoon o V V |
  1
/061+ {rn konlqjokknlnfgfloh nimhqkgmgmjmnnjkfk o |
  1
<0:;8: {rn {im {gm {rn {gl 90-(>-; {k {rn |
  1
:;8: {rn {hk {gk {im {gj 90-(>-; |
  1
):-+:' {rn {hl {gi |
  1
,+->687+r<*-): {rn konlqjnogilnfgfloi nimhqkhjjkglmkkljl o nqmmohfgmjhknmonkf:ronj roqoon o V V |
  1
/061+ {rn konlqjnogilnfgfloi nimhqkhkojglmkkljm o |
  1
<0:;8: {rn {gh {ih {rn {gg -:):-,:; {k {rn |
  1
:;8: {rn {hf {gf {ih {fo 90-(>-; |
  1
):-+:' {rn {ig {fn |
  1
:336/,:r<*-): {rn konlqjokmnlnfgflog nimhqkgoilnklhlmlk o o o n oqooomooooooooooooooon o o n V V |
  1
/061+ {rn konlqjokknlnfgfloh nimhqkgoilnklhlmlk o |
  1
<0:;8: {rn {hm {fm {rn {fl -:):-,:; {k {rn |
  1
:;8: {rn {fk {gk {hm {fj 90-(>-; |
  1
):-+:' {rn {gl {fi |
  1
:336/,:r<*-): {rn konlqjnojilnfgflof nimhqkhjjkglmkkljl o o o n oqooomfffffffffffmhmkm o o n V V |
  1
/061+ {rn konlqjnogilnfgfloi nimhqkhjjkglmkkljl o |
  1
<0:;8: {rn {fh {hh {rn {fg -:):-,:; {k {rn |
  1
:;8: {rn {ff {gf {hh {noo 90-(>-; |
  1
):-+:' {rn {hg {non |
  1
:336/,:r<*-): {rn konlqjokknlnfgfloh nimhqkgommglmkkljl o o o n oqooomjoooooooooooooon o o n V V |
  1
/061+ {rn konlqjoklomoghgnfl nimhqkgokjmmhiokon o |
  1
<0:;8: {rn {gm {nom {rn {nol 90-(>-; {k {rn |
  1
:;8: {rn {fk {nok {gm {noj 90-(>-; |
  1
):-+:' {rn {fl {noi |
  1
,+->687+r<*-): {rn konlqjnonilnfgfln nimhqkhjgkglmkkljm o oqoon o o V V |
  1
/061+ {rn konlqjnojilnfgflof nimhqkhjgkglmkkljm o |
  1
<0:;8: {rn {noh {gh {rn {nog -:):-,:; {k {rn |
  1
:;8: {rn {nof {ff {gh {nno 90-(>-; |
  1
):-+:' {rn {gg {nnn |
  1
:336/,:r<*-): {rn konlqjokmnlnfgflog nimhqkhfgmjmnnjkh o o o n oqooomooooooooooooooon o o n V V |
  1
/061+ {rn konlqjoklomoghgmom nimhqkgoooklhmgln o |
  1
<0:;8: {rn {fm {nnm {rn {nnl -:):-,:; {k {rn |
  1
:;8: {rn {nnk {nok {fm {nnj 90-(>-; |
  1
):-+:' {rn {nol {nni |
  1
:336/,:r<*-): {rn konlqjnonilnfgfln nimhqkhjjkglmkkljl o o o n oqooomfffffffffffmhmkm o o n V V |
  1
/061+ {rn konlqjnonilnfgfln nimhqkhjgkglmkkljm o |
  1
<0:;8: {rn {nnh {fh {rn {nng 90-(>-; {k {rn |
  1
:;8: {rn {nnf {nof {fh {nmo 90-(>-; |
  1
):-+:' {rn {fg {nmn |
  1
,+->687+r<*-): {rn konlqjokknlnfgfloh nimhqkhfkmglmkkljl o o oqoon o V V |
  1
/061+ {rn konlqjokknlnfgfloh nimhqkhfgmjmnnjkh o |
  1
<0:;8: {rn {nom {nmm {rn {nml 90-(>-; {k {rn |
  1
:;8: {rn {nnk {nmk {nom {nmj 90-(>-; |
  1
):-+:' {rn {nnl {nmi |
  1
,+->687+r<*-): {rn konlqjofgilnfgflog nimhqkhonoglmkkljm o o oqoon o V V |
  1
/061+ {rn konlqjofgilnfgflog nimhqkhjjkglmkkljl o |
  1
<0:;8: {rn {nmh {noh {rn {nmg -:):-,:; {k {rn |
  1
:;8: {rn {nnf {nmf {noh {nlo 90-(>-; |
  1
):-+:' {rn {nog {nln |
  1
:336/,:r<*-): {rn konlqjokmnlnfgflog nimhqkhfkmglmkkljl o o o n oqooomooooooooooooooon o o n V V |
  1
/061+ {rn konlqjokknlnfgfloh nimhqkhfkmglmkkljl o |
  1
<0:;8: {rn {nnm {nlm {rn {nll -:):-,:; {k {rn |
  1
:;8: {rn {nlk {nmk {nnm {nlj 90-(>-; |
  1
):-+:' {rn {nml {nli |
  1
:336/,:r<*-): {rn konlqjnonilnfgfln nimhqkhonoglmkkljm o o o n oqooolooooooooooongnf o o n V V |
  1
/061+ {rn konlqjofgilnfgflog nimhqkhonoglmkkljm o |
  1
<0:;8: {rn {nlh {nnh {rn {nlg 90-(>-; {k {rn |
  1
:;8: {rn {nlf {nmf {nnh {nko 90-(>-; |
  1
):-+:' {rn {nng {nkn |
  1
,+->687+r<*-): {rn konlqjokmnlnfgflog nimhqkhfmmglmkkljn o roqoon o o V V |
  1
/061+ {rn konlqjokmnlnfgflog nimhqkhfmmglmkkljn o |
  1
<0:;8: {rn {nmm {nkm {rn {nkl 90-(>-; {k {rn |
  1
:;8: {rn {nlk {nkk {nmm {nkj 90-(>-; |
  1
):-+:' {rn {nll {nki |
  1
,+->687+r<*-): {rn konlqjnojilnfgflof nimhqkifgoglmkkljm o roqoon rmqmhlhlihjkklklggi:ronj o V V |
  1
/061+ {rn konlqjnonilnfgfln nimhqkifgoglmkkljm o |
  1
<0:;8: {rn {nkh {nmh {rn {nkg -:):-,:; {k {rn |
  1
:;8: {rn {nlf {nkf {nmh {njo 90-(>-; |
  1
):-+:' {rn {nmg {njn |
  1
:336/,:r<*-): {rn konlqjonnnlnfgflof nimhqkhfkmglmkkljl o o o n oqooomooooooooooooooon o o n V V |
  1
/061+ {rn konlqjonnnlnfgflof nimhqkhfmmglmkkljn o |
  1
<0:;8: {rn {nlm {njm {rn {njl 90-(>-; {k {rn |
  1
:;8: {rn {njk {nkk {nlm {njj 90-(>-; |
  1
):-+:' {rn {nkl {nji |
  1
:336/,:r<*-): {rn konlqjnojilnfgflof nimhqkhonoglmkkljm o o o n oqooolooooooooooongnf o o n V V |
  1
/061+ {rn konlqjnojilnfgflof nimhqkifgoglmkkljm o |
  1
<0:;8: {rn {njh {nlh {rn {njg 90-(>-; {k {rn |
  1
:;8: {rn {njf {nkf {nlh {nio 90-(>-; |
  1
):-+:' {rn {nlg {nin |
  1
,+->687+r<*-): {rn konlqjoofnlnfgflof nimhqkhfkmglmkkljl o kqjglnkojngkkingf:ronj oqoon o V V |
  1
/061+ {rn konlqjoofnlnfgflof nimhqkhfkmglmkkljl o |
  1
<0:;8: {rn {nkm {nim {rn {nil 90-(>-; {k {rn |
  1
:;8: {rn {nik {njk {nkm {nij 90-(>-; |
  1
):-+:' {rn {njl {nii |
  1
,+->687+r<*-): {rn konlqjnogilnfgfloi nimhqkhnikglmkkljn o nqngnninfjoljkkgon:ronj roqoon o V V |
  1
/061+ {rn konlqjnogilnfgfloi nimhqkhonoglmkkljm o |
  1
<0:;8: {rn {nih {nkh {rn {nig -:):-,:; {k {rn |
  1
:;8: {rn {njf {nif {nkh {nho 90-(>-; |
  1
):-+:' {rn {nkg {nhn |
  1
:336/,:r<*-): {rn konlqjonnnlnfgflof nimhqkhfgmjmnnjkh o o o n oqooomooooooooooooooon o o n V V |
  1
/061+ {rn konlqjoofnlnfgflof nimhqkhfgmjmnnjkh o |
  1
<0:;8: {rn {njm {nhm {rn {nhl 90-(>-; {k {rn |
  1
:;8: {rn {nhk {nik {njm {nhj 90-(>-; |
  1
):-+:' {rn {nil {nhi |
  1
:336/,:r<*-): {rn konlqjnnnilnfgfloh nimhqkhnikglmkkljn o o o n oqoooloooooooooonofnlf o o n V V |
  1
/061+ {rn konlqjnogilnfgfloi nimhqkhnikglmkkljn o |
  1
<0:;8: {rn {nhh {njh {rn {nhg 90-(>-; {k {rn |
  1
:;8: {rn {nhf {nif {njh {ngo 90-(>-; |
  1
):-+:' {rn {njg {ngn |
  1
:336/,:r<*-): {rn konlqjoofnlnfgflof nimhqkgommglmkkljl o o o n oqooomjoooooooooooooon o o n V V |
  1
/061+ {rn konlqjonomklnookml nimhqkgoooklhmglol o |
  1
<0:;8: {rn {nim {ngm {rn {ngl 90-(>-; {k {rn |
  1
:;8: {rn {ngk {nhk {nim {ngj 90-(>-; |
  1
):-+:' {rn {nhl {ngi |
  1
,+->687+r<*-): {rn konlqjnnlilnfgfloh nimhqkhnfkglmkkljl o roqoon o o V V |
  1
/061+ {rn konlqjnnnilnfgfloh nimhqkhnfkglmkkljl o |
  1
<0:;8: {rn {ngh {nih {rn {ngg -:):-,:; {k {rn |
  1
:;8: {rn {nhf {ngf {nih {nfo 90-(>-; |
  1
):-+:' {rn {nig {nfn |
  1
:336/,:r<*-): {rn konlqjonnnlnfgflof nimhqkgoilnklhlmlk o o o n oqooomooooooooooooooon o o n V V |
  1
/061+ {rn konlqjonomklnooknf nimhqkgokjmmhiolfk o |
  1
<0:;8: {rn {nhm {nfm {rn {nfl 90-(>-; {k {rn |
  1
:;8: {rn {nfk {ngk {nhm {nfj 90-(>-; |
  1
):-+:' {rn {ngl {nfi |
  1
:336/,:r<*-): {rn konlqjnnlilnfgfloh nimhqkhnikglmkkljn o o o n oqooolooooooooooongnf o o n V V |
  1
/061+ {rn konlqjnnlilnfgfloh nimhqkhnfkglmkkljl o |
  1
<0:;8: {rn {nfh {nhh {rn {nfg 90-(>-; {k {rn |
  1
:;8: {rn {nff {ngf {nhh {moo 90-(>-; |
  1
):-+:' {rn {nhg {mon |
  1
,+->687+r<*-): {rn konlqjoofnlnfgflof nimhqkgoilnklhlmlk o o oqoon o V V |
  1
/061+ {rn konlqjoofnlnfgflof nimhqkgoilnklhlmlk o |
  1
<0:;8: {rn {ngm {mom {rn {mol 90-(>-; {k {rn |
  1
:;8: {rn {mok {nfk {ngm {moj 90-(>-; |
  1
):-+:' {rn {nfl {moi |
  1
,+->687+r<*-): {rn konlqjnniilnfgflog nimhqkinmmglmkkljl o rnqhkjihnmnminjfhln:roni oqoon o V V |
  1
/061+ {rn konlqjnniilnfgflog nimhqkhnikglmkkljn o |
  1
<0:;8: {rn {moh {ngh {rn {mog -:):-,:; {k {rn |
  1
:;8: {rn {nff {mof {ngh {mno 90-(>-; |
  1
):-+:' {rn {ngg {mnn |
  1
:336/,:r<*-): {rn konlqjonnnlnfgflof nimhqkgmgmjmnnjkhm o o o n oqooomooooooooooooooon o o n V V |
  1
/061+ {rn konlqjoofnlnfgflof nimhqkgmgmjmnnjkhm o |
  1
<0:;8: {rn {nfm {mnm {rn {mnl 90-(>-; {k {rn |
  1
:;8: {rn {mnk {mok {nfm {mnj 90-(>-; |
  1
):-+:' {rn {mol {mni |
  1
:336/,:r<*-): {rn konlqjofgilnfgflog nimhqkinmmglmkkljl o o o n oqoongooooooooooongnf o o n V V |
  1
/061+ {rn konlqjnniilnfgflog nimhqkinmmglmkkljl o |
  1
<0:;8: {rn {mnh {nfh {rn {mng 90-(>-; {k {rn |
  1
:;8: {rn {mnf {mof {nfh {mmo 90-(>-; |
  1
):-+:' {rn {nfg {mmn |
  1
:336/,:r<*-): {rn konlqjoofnlnfgflof nimhqkglmmglmkkljm o o o n oqooomjoooooooooooooon o o n V V |
  1
/061+ {rn konlqjonomklnookml nimhqkglooklhmgloj o |
  1
<0:;8: {rn {mom {mmm {rn {mml 90-(>-; {k {rn |
  1
:;8: {rn {mmk {mnk {mom {mmj 90-(>-; |
  1
):-+:' {rn {mnl {mmi |
  1
,+->687+r<*-): {rn konlqkfjkilnfgflog nimhqkjfkmglmkkljl o oqoon o o V V |
  1
/061+ {rn konlqjofgilnfgflog nimhqkjfkmglmkkljl o |
  1
<0:;8: {rn {mmm {moh {rn {mmh 90-(>-; {k {rn |
  1
:;8: {rn {mnf {mmg {moh {mmf 90-(>-; |
  1
):-+:' {rn {mog {mlo |
  1
:336/,:r<*-): {rn konlqjonnnlnfgflof nimhqkglilnklhlmll o o o n oqooonfffffffffffhohkn o o n V V |
  1
/061+ {rn konlqjonomklnooknf nimhqkglkjmmhiolfl o |
  1
<0:;8: {rn {mnm {mnh {rn {mln 90-(>-; {k {rn |
  1
:;8: {rn {mlm {mmk {mnm {mll 90-(>-; |
  1
):-+:' {rn {mml {mlk |
  1
:336/,:r<*-): {rn konlqkfjkilnfgflog nimhqkinmmglmkkljl o o o n oqoonhfffffffffffmhmj o o n V V |
  1
/061+ {rn konlqkfjkilnfgflog nimhqkjfkmglmkkljl o |
  1
:;8: {rn {mmg {mlj {mnh {mli 90-(>-; |
  1
):-+:' {rn {mng {mlh |
  1
,+->687+r<*-): {rn konlqjoofnlnfgflof nimhqkglilnklhlmll o o oqoon o V V |
  1
/061+ {rn konlqjoofnlnfgflof nimhqkglilnklhlmll o |
  1
:;8: {rn {mlj {mlm {mmm {mlg 90-(>-; |
  1
):-+:' {rn {mln {mlf |
  1
,+->687+r<*-): {rn konlqkfliilnfgflog nimhqkhgoloomfmoof o o roqoon o V V |
  1
/061+ {rn konlqkfliilnfgflog nimhqkinmmglmkkljl o |
  1
):-+:' {rn {mmh {mko |
  1
:336/,:r<*-): {rn konlqkfflnlnfgflog nimhqkgkimglmkkljn o o o n oqoonioooooooooohilfg o o n V V |
  1
/061+ {rn konlqjoofnlnfgflof nimhqkgkimglmkkljn o |
  1
:336/,:r<*-): {rn konlqjomiilnfgflog nimhqkhgoloomfmoof o o o n oqoofoooooooooooonlgn o o n V V |
  1
/061+ {rn konlqkfliilnfgflog nimhqkhgoloomfmoof o |
  1
/061+ {rn konlqkfgjggghkioik nimhqkgiojkfgmgikl o |
  0
POLYLINE
  5
15A4
330
1F
100
AcDbEntity
  8
SANINDUSA
100
AcDb2dPolyline
 66
     1
 10
0.0
 20
0.0
 30
0.0
  0
VERTEX
  5
15A5
330
15A4
100
AcDbEntity
  8
SANINDUSA
100
AcDbVertex
100
AcDb2dVertex
 10
4013.525058971754
 20
1627.491637120245
 30
0.0
  0
VERTEX
  5
15A6
330
15A4
100
AcDbEntity
  8
SANINDUSA
100
AcDbVertex
100
AcDb2dVertex
 10
4013.525058800751
 20
1627.486189866031
 30
0.0
 42
-0.4142135623725959
  0
VERTEX
  5
15A7
330
15A4
100
AcDbEntity
  8
SANINDUSA
100
AcDbVertex
100
AcDb2dVertex
 10
4013.524858794474
 20
1627.48598987231
 30
0.0
  0
VERTEX
  5
15A8
330
15A4
100
AcDbEntity
  8
SANINDUSA
100
AcDbVertex
100
AcDb2dVertex
 10
4013.524458761621
 20
1627.485989884868
 30
0.0
 42
-0.4142135623730951
  0
VERTEX
  5
15A9
330
15A4
100
AcDbEntity
  8
SANINDUSA
100
AcDbVertex
100
AcDb2dVertex
 10
4013.5242587679
 20
1627.486189891146
 30
0.0
  0
VERTEX
  5
15AA
330
15A4
100
AcDbEntity
  8
SANINDUSA
100
AcDbVertex
100
AcDb2dVertex
 10
4013.524258822417
 20
1627.487926470159
 30
0.0
 42
0.4142135623730951
  0
VERTEX
  5
15AB
330
15A4
100
AcDbEntity
  8
SANINDUSA
100
AcDbVertex
100
AcDb2dVertex
 10
4013.524058828696
 20
1627.488126476437
 30
0.0
  0
VERTEX
  5
15AC
330
15A4
100
AcDbEntity
  8
SANINDUSA
100
AcDbVertex
100
AcDb2dVertex
 10
4013.523292885875
 20
1627.488126500482
 30
0.0
 42
0.1943803091380277
  0
VERTEX
  5
15AD
330
15A4
100
AcDbEntity
  8
SANINDUSA
100
AcDbVertex
100
AcDb2dVertex
 10
4013.523153952439
 20
1627.488070372803
 30
0.0
  0
VERTEX
  5
15AE
330
15A4
100
AcDbEntity
  8
SANINDUSA
100
AcDbVertex
100
AcDb2dVertex
 10
4013.515194677746
 20
1627.480384673432
 30
0.0
 42
-0.9826972631155188
  0
VERTEX
  5
15AF
330
15A4
100
AcDbEntity
  8
SANINDUSA
100
AcDbVertex
100
AcDb2dVertex
 10
4013.5147630228
 20
1627.480816355481
 30
0.0
  0
VERTEX
  5
15B0
330
15A4
100
AcDbEntity
  8
SANINDUSA
100
AcDbVertex
100
AcDb2dVertex
 10
4013.523412393879
 20
1627.48977247876
 30
0.0
 42
-0.2034522994238806
  0
VERTEX
  5
15B1
330
15A4
100
AcDbEntity
  8
SANINDUSA
100
AcDbVertex
100
AcDb2dVertex
 10
4013.523556263756
 20
1627.489833542569
 30
0.0
  0
VERTEX
  5
15B2
330
15A4
100
AcDbEntity
  8
SANINDUSA
100
AcDbVertex
100
AcDb2dVertex
 10
4013.524058947986
 20
1627.489833526789
 30
0.0
 42
0.4142135623730951
  0
VERTEX
  5
15B3
330
15A4
100
AcDbEntity
  8
SANINDUSA
100
AcDbVertex
100
AcDb2dVertex
 10
4013.524258954265
 20
1627.49003352051
 30
0.0
  0
VERTEX
  5
15B4
330
15A4
100
AcDbEntity
  8
SANINDUSA
100
AcDbVertex
100
AcDb2dVertex
 10
4013.524258984508
 20
1627.490996941497
 30
0.0
 42
-0.0325821046079315
  0
VERTEX
  5
15B5
330
15A4
100
AcDbEntity
  8
SANINDUSA
100
AcDbVertex
100
AcDb2dVertex
 10
4013.524302226509
 20
1627.491659501969
 30
0.0
 42
-0.3765495638223387
  0
VERTEX
  5
15B6
330
15A4
100
AcDbEntity
  8
SANINDUSA
100
AcDbVertex
100
AcDb2dVertex
 10
4013.524500537022
 20
1627.491833512927
 30
0.0
  0
VERTEX
  5
15B7
330
15A4
100
AcDbEntity
  8
SANINDUSA
100
AcDbVertex
100
AcDb2dVertex
 10
4013.524859010771
 20
1627.491833501674
 30
0.0
 42
-0.4142135623730951
  0
VERTEX
  5
15B8
330
15A4
100
AcDbEntity
  8
SANINDUSA
100
AcDbVertex
100
AcDb2dVertex
 10
4013.525059004492
 20
1627.491633495395
 30
0.0
  0
SEQEND
  5
15B9
330
15A4
100
AcDbEntity
  8
SANINDUSA
  0
LINE
  5
15BA
330
1F
100
AcDbEntity
  8
SANINDUSA
100
AcDbLine
 10
4013.523362857456
 20
1627.474945937215
 30
0.0
 11
4013.535379658453
 21
1627.474945937215
 31
0.0
  0
LINE
  5
15BB
330
1F
100
AcDbEntity
  8
SANINDUSA
100
AcDbLine
 10
4013.535479658453
 20
1627.443445937215
 30
0.0
 11
4013.523279658453
 21
1627.443445937215
 31
0.0
1001
ACAD
1000
ASC_BOUNDS
1002
{
1070
    19
1002
}
  0
LINE
  5
15BC
330
1F
100
AcDbEntity
  8
SANINDUSA
100
AcDbLine
 10
4013.535479658453
 20
1627.450445937215
 30
0.0
 11
4013.523279658453
 21
1627.450445937215
 31
0.0
1001
ACAD
1000
ASC_BOUNDS
1002
{
1070
    19
1002
}
  0
LINE
  5
15BD
330
1F
100
AcDbEntity
  8
SANINDUSA
100
AcDbLine
 10
4013.523279658453
 20
1627.452434195243
 30
0.0
 11
4013.523279658453
 21
1627.441457679186
 31
0.0
  0
POLYLINE
  5
15BE
330
1F
100
AcDbEntity
  8
SANINDUSA
100
AcDb2dPolyline
 66
     1
 10
0.0
 20
0.0
 30
0.0
 70
     1
  0
VERTEX
  5
15BF
330
15BE
100
AcDbEntity
  8
SANINDUSA
100
AcDbVertex
100
AcDb2dVertex
 10
4013.509363198931
 20
1627.437445937328
 30
0.0
  0
VERTEX
  5
15C0
330
15BE
100
AcDbEntity
  8
SANINDUSA
100
AcDbVertex
100
AcDb2dVertex
 10
4013.509863199045
 20
1627.437945937214
 30
0.0
  0
VERTEX
  5
15C1
330
15BE
100
AcDbEntity
  8
SANINDUSA
100
AcDbVertex
100
AcDb2dVertex
 10
4013.509863203151
 20
1627.455945937214
 30
0.0
  0
VERTEX
  5
15C2
330
15BE
100
AcDbEntity
  8
SANINDUSA
100
AcDbVertex
100
AcDb2dVertex
 10
4013.509363203265
 20
1627.456445937328
 30
0.0
  0
VERTEX
  5
15C3
330
15BE
100
AcDbEntity
  8
SANINDUSA
100
AcDbVertex
100
AcDb2dVertex
 10
4013.505363203266
 20
1627.456445938241
 30
0.0
  0
VERTEX
  5
15C4
330
15BE
100
AcDbEntity
  8
SANINDUSA
100
AcDbVertex
100
AcDb2dVertex
 10
4013.504863203151
 20
1627.455945938355
 30
0.0
  0
VERTEX
  5
15C5
330
15BE
100
AcDbEntity
  8
SANINDUSA
100
AcDbVertex
100
AcDb2dVertex
 10
4013.504863199044
 20
1627.437945938355
 30
0.0
  0
VERTEX
  5
15C6
330
15BE
100
AcDbEntity
  8
SANINDUSA
100
AcDbVertex
100
AcDb2dVertex
 10
4013.50536319893
 20
1627.437445938241
 30
0.0
  0
SEQEND
  5
15C7
330
15BE
100
AcDbEntity
  8
SANINDUSA
  0
LINE
  5
15C8
330
1F
100
AcDbEntity
  8
SANINDUSA
100
AcDbLine
 10
4013.514863201097
 20
1627.451445937214
 30
0.0
 11
4013.514863201098
 21
1627.442445937214
 31
0.0
  0
ARC
  5
15C9
330
1F
100
AcDbEntity
  8
SANINDUSA
100
AcDbCircle
 10
4013.512363200585
 20
1627.439820935931
 30
0.0
 40
0.0036250012835311
100
AcDbArc
 50
46.39718914301833
 51
133.6028108569816
  0
ARC
  5
15CA
330
1F
100
AcDbEntity
  8
SANINDUSA
100
AcDbCircle
 10
4013.512363201611
 20
1627.454070935931
 30
0.0
 40
0.0036249987164691
100
AcDbArc
 50
226.3971729160811
 51
313.6028270929124
  0
LWPOLYLINE
  5
15CB
330
1F
100
AcDbEntity
  8
SANINDUSA
100
AcDbPolyline
 90
       20
 70
     0
 43
0.0
 10
4013.509985707536
 20
1627.470154697328
 10
4013.509985878538
 20
1627.475601951542
 42
-0.4142135623725959
 10
4013.510185884817
 20
1627.475801945263
 10
4013.510585917668
 20
1627.475801932705
 42
-0.4142135623730951
 10
4013.510785911389
 20
1627.475601926427
 10
4013.510785856873
 20
1627.473865347414
 42
0.4142135623730951
 10
4013.510985850595
 20
1627.473665341136
 10
4013.511751793415
 20
1627.473665317091
 42
0.1943803091380277
 10
4013.511890726851
 20
1627.47372144477
 10
4013.519850001545
 20
1627.481407144141
 42
-0.9826972631155188
 10
4013.52028165649
 20
1627.480975462092
 10
4013.51163228541
 20
1627.472019338813
 42
-0.2034522994238806
 10
4013.511488415534
 20
1627.471958275003
 10
4013.510985731303
 20
1627.471958290784
 42
0.4142135623730951
 10
4013.510785725026
 20
1627.471758297063
 10
4013.510785694782
 20
1627.470794876076
 42
-0.0325821046079315
 10
4013.510742452782
 20
1627.470132315603
 42
-0.3765495638223387
 10
4013.510544142267
 20
1627.469958304645
 10
4013.510185668519
 20
1627.469958315899
 42
-0.4142135623730951
 10
4013.509985674798
 20
1627.470158322177
  0
LINE
  5
15CC
330
1F
100
AcDbEntity
  8
SANINDUSA
100
AcDbLine
 10
4013.523279658453
 20
1627.452434195243
 30
0.0
 11
4013.514863201097
 21
1627.451445937214
 31
0.0
  0
LINE
  5
15CD
330
1F
100
AcDbEntity
  8
SANINDUSA
100
AcDbLine
 10
4013.514863201098
 20
1627.442445937214
 30
0.0
 11
4013.523279658453
 21
1627.441457679186
 31
0.0
  0
LINE
  5
15CE
330
1F
100
AcDbEntity
  8
SANINDUSA
100
AcDbLine
 10
4013.536979658453
 20
1627.440945937215
 30
0.0
 11
4013.535479658453
 21
1627.440945937215
 31
0.0
  0
LINE
  5
15CF
330
1F
100
AcDbEntity
  8
SANINDUSA
100
AcDbLine
 10
4013.535479658453
 20
1627.452945937215
 30
0.0
 11
4013.535479658453
 21
1627.440945937215
 31
0.0
  0
LINE
  5
15D0
330
1F
100
AcDbEntity
  8
SANINDUSA
100
AcDbLine
 10
4013.540479658453
 20
1627.452945937215
 30
0.0
 11
4013.540479658454
 21
1627.440945937215
 31
0.0
  0
LINE
  5
15D1
330
1F
100
AcDbEntity
  8
SANINDUSA
100
AcDbLine
 10
4013.541079658453
 20
1627.451695937215
 30
0.0
 11
4013.541079658454
 21
1627.442195937215
 31
0.0
  0
ARC
  5
15D2
330
1F
100
AcDbEntity
  8
SANINDUSA
100
AcDbCircle
 10
4013.530571325119
 20
1627.446945937215
 30
0.0
 40
0.0105083333333802
100
AcDbArc
 50
340.544842895981
 51
19.45515710401903
  0
LINE
  5
15D3
330
1F
100
AcDbEntity
  8
SANINDUSA
100
AcDbLine
 10
4013.540479658454
 20
1627.443445937215
 30
0.0
 11
4013.537679658453
 21
1627.443445937215
 31
0.0
  0
LINE
  5
15D4
330
1F
100
AcDbEntity
  8
SANINDUSA
100
AcDbLine
 10
4013.537679658453
 20
1627.452945937215
 30
0.0
 11
4013.537679658453
 21
1627.440945937215
 31
0.0
  0
LINE
  5
15D5
330
1F
100
AcDbEntity
  8
SANINDUSA
100
AcDbLine
 10
4013.536979658453
 20
1627.452945937215
 30
0.0
 11
4013.536979658453
 21
1627.440945937215
 31
0.0
  0
ARC
  5
15D6
330
1F
100
AcDbEntity
  8
SANINDUSA
100
AcDbCircle
 10
4013.538681741787
 20
1627.442195937215
 30
0.0
 40
0.001602083333332
100
AcDbArc
 50
128.7179883593476
 51
231.2820116508089
  0
ARC
  5
15D7
330
1F
100
AcDbEntity
  8
SANINDUSA
100
AcDbCircle
 10
4013.53947757512
 20
1627.442195937215
 30
0.0
 40
0.001602083333332
100
AcDbArc
 50
308.7179883593476
 51
51.28201165080891
  0
LINE
  5
15D8
330
1F
100
AcDbEntity
  8
SANINDUSA
100
AcDbLine
 10
4013.540479658454
 20
1627.440945937215
 30
0.0
 11
4013.537679658453
 21
1627.440945937215
 31
0.0
  0
LINE
  5
15D9
330
1F
100
AcDbEntity
  8
SANINDUSA
100
AcDbLine
 10
4013.537079658453
 20
1627.451695937215
 30
0.0
 11
4013.537079658453
 21
1627.442195937215
 31
0.0
  0
ARC
  5
15DA
330
1F
100
AcDbEntity
  8
SANINDUSA
100
AcDbCircle
 10
4013.539477575119
 20
1627.451695937215
 30
0.0
 40
0.0016020833333333
100
AcDbArc
 50
308.7179883593476
 51
51.28201165080891
  0
ARC
  5
15DB
330
1F
100
AcDbEntity
  8
SANINDUSA
100
AcDbCircle
 10
4013.547587991786
 20
1627.446945937215
 30
0.0
 40
0.0105083333333802
100
AcDbArc
 50
160.544842895981
 51
199.455157104019
  0
LINE
  5
15DC
330
1F
100
AcDbEntity
  8
SANINDUSA
100
AcDbLine
 10
4013.540479658453
 20
1627.450445937215
 30
0.0
 11
4013.537679658453
 21
1627.450445937215
 31
0.0
  0
LINE
  5
15DD
330
1F
100
AcDbEntity
  8
SANINDUSA
100
AcDbLine
 10
4013.537079658453
 20
1627.443445937215
 30
0.0
 11
4013.536979658453
 21
1627.443445937215
 31
0.0
  0
LINE
  5
15DE
330
1F
100
AcDbEntity
  8
SANINDUSA
100
AcDbLine
 10
4013.537079658453
 20
1627.450445937215
 30
0.0
 11
4013.536979658453
 21
1627.450445937215
 31
0.0
  0
LINE
  5
15DF
330
1F
100
AcDbEntity
  8
SANINDUSA
100
AcDbLine
 10
4013.540479658453
 20
1627.452945937215
 30
0.0
 11
4013.537679658453
 21
1627.452945937215
 31
0.0
  0
ARC
  5
15E0
330
1F
100
AcDbEntity
  8
SANINDUSA
100
AcDbCircle
 10
4013.538681741787
 20
1627.451695937215
 30
0.0
 40
0.0016020833333333
100
AcDbArc
 50
128.7179883593476
 51
231.2820116508089
  0
LINE
  5
15E1
330
1F
100
AcDbEntity
  8
SANINDUSA
100
AcDbLine
 10
4013.536979658453
 20
1627.452945937215
 30
0.0
 11
4013.535479658453
 21
1627.452945937215
 31
0.0
  0
LINE
  5
15E2
330
1F
100
AcDbEntity
  8
SANINDUSA
100
AcDbLine
 10
4013.511663202693
 20
1627.864428324435
 30
0.0
 11
4013.493663202694
 21
1627.864428324435
 31
0.0
  0
LWPOLYLINE
  5
15E3
330
1F
100
AcDbEntity
  8
SANINDUSA
100
AcDbPolyline
 90
        4
 70
     1
 43
0.0
 10
4013.50116319893
 20
1627.479328324435
 10
4013.50416319893
 20
1627.479328324435
 10
4013.50416319893
 20
1627.871328324435
 10
4013.50116319893
 20
1627.871328324435
1001
GENIUS_GENREC_14
1002
{
1000
PYDIR
1011
4013.50116319893
1021
1627.871328324435
1031
0.0
1002
}
1002
{
1000
PXDIR
1011
4013.50416319893
1021
1627.479328324435
1031
0.0
1002
}
1002
{
1000
PORI
1011
4013.50116319893
1021
1627.479328324435
1031
0.0
1002
}
1002
{
1000
PINS
1011
4013.50116319893
1021
1627.479328324435
1031
0.0
1002
}
1002
{
1000
PINS2
1011
4013.50416319893
1021
1627.871328324435
1031
0.0
1002
}
1002
{
1000
C
1070
     1
1002
}
1001
GENIUS_GENODEF_13
1002
{
1000
HIER
1070
     0
1002
}
1002
{
1000
MANEDIT
1070
     0
1002
}
1002
{
1000
NOSEL
1070
     0
1002
}
1002
{
1000
BEHIND
1070
     0
1002
}
1002
{
1000
OTHER
1070
     0
1002
}
1002
{
1000
REACTOR
1002
}
1001
GENIUS_GENOBJ-N-REC_13
1002
{
1000
OWNER
1000
GEN
1002
}
  0
LWPOLYLINE
  5
15E4
330
1F
100
AcDbEntity
  8
SANINDUSA
100
AcDbPolyline
 90
        4
 70
     1
 43
0.0
 10
4013.527368994942
 20
1627.080845937214
 10
4013.531368994942
 20
1627.080845937214
 10
4013.531368994942
 20
1627.481845937215
 10
4013.527368994942
 20
1627.481845937215
1001
GENIUS_GENREC_14
1002
{
1000
PYDIR
1011
4013.527368994942
1021
1627.481845937215
1031
0.0
1002
}
1002
{
1000
PXDIR
1011
4013.531368994942
1021
1627.080845937214
1031
0.0
1002
}
1002
{
1000
PORI
1011
4013.527368994942
1021
1627.080845937214
1031
0.0
1002
}
1002
{
1000
PINS
1011
4013.527368994942
1021
1627.080845937214
1031
0.0
1002
}
1002
{
1000
PINS2
1011
4013.531368994942
1021
1627.481845937215
1031
0.0
1002
}
1002
{
1000
C
1070
     1
1002
}
1001
GENIUS_GENODEF_13
1002
{
1000
HIER
1070
     0
1002
}
1002
{
1000
MANEDIT
1070
     0
1002
}
1002
{
1000
NOSEL
1070
     0
1002
}
1002
{
1000
BEHIND
1070
     0
1002
}
1002
{
1000
OTHER
1070
     0
1002
}
1002
{
1000
REACTOR
1002
}
1001
GENIUS_GENOBJ-N-REC_13
1002
{
1000
OWNER
1000
GEN
1002
}
  0
LINE
  5
15E5
330
1F
100
AcDbEntity
  8
SANINDUSA
100
AcDbLine
 10
4013.493663202694
 20
1627.872622071721
 30
0.0
 11
4013.493663202694
 21
1627.864428324435
 31
0.0
  0
LINE
  5
15E6
330
1F
100
AcDbEntity
  8
SANINDUSA
100
AcDbLine
 10
4014.875298248238
 20
1628.26107238104
 30
0.0
 11
4014.875298248238
 21
1626.513838680942
 31
0.0
  0
LINE
  5
15E7
330
1F
100
AcDbEntity
  8
SANINDUSA
100
AcDbLine
 10
4014.848498248238
 20
1626.513838680942
 30
0.0
 11
4014.848498248238
 21
1628.26107238104
 31
0.0
  0
LINE
  5
15E8
330
1F
100
AcDbEntity
  8
SANINDUSA
100
AcDbLine
 10
4015.312504259423
 20
1628.26107238104
 30
0.0
 11
4015.312504259423
 21
1626.513838561389
 31
0.0
  0
LINE
  5
15E9
330
1F
100
AcDbEntity
  8
SANINDUSA
100
AcDbLine
 10
4015.340502560579
 20
1626.513838561389
 30
0.0
 11
4015.340502560579
 21
1628.26107238104
 31
0.0
  0
LINE
  5
15EA
330
1F
100
AcDbEntity
  8
SANINDUSA
100
AcDbLine
 10
4015.317902560579
 20
1626.513838561389
 30
0.0
 11
4015.317902560579
 21
1628.26107238104
 31
0.0
  0
LINE
  5
15EB
330
1F
100
AcDbEntity
  8
SANINDUSA
100
AcDbLine
 10
4014.471502560579
 20
1626.514138680942
 30
0.0
 11
4014.471502560579
 21
1628.260772261487
 31
0.0
  0
LINE
  5
15EC
330
1F
100
AcDbEntity
  8
SANINDUSA
100
AcDbLine
 10
4015.312504259423
 20
1626.513838561389
 30
0.0
 11
4014.610802560579
 21
1626.513838561389
 31
0.0
  0
LINE
  5
15ED
330
1F
100
AcDbEntity
  8
SANINDUSA
100
AcDbLine
 10
4015.312504259423
 20
1626.464491381888
 30
0.0
 11
4014.610802560579
 21
1626.464491381888
 31
0.0
  0
LINE
  5
15EE
330
1F
100
AcDbEntity
  8
SANINDUSA
100
AcDbLine
 10
4014.610802560579
 20
1626.515138561388
 30
0.0
 11
4014.610802560579
 21
1626.464491381888
 31
0.0
  0
LINE
  5
15EF
330
1F
100
AcDbEntity
  8
SANINDUSA
100
AcDbLine
 10
4014.471502560579
 20
1626.505138561389
 30
0.0
 11
4014.471502560579
 21
1626.464491381888
 31
0.0
  0
LINE
  5
15F0
330
1F
100
AcDbEntity
  8
SANINDUSA
100
AcDbLine
 10
4014.471502560579
 20
1626.464491381888
 30
0.0
 11
4014.610802560579
 21
1626.464491381888
 31
0.0
  0
LINE
  5
15F1
330
1F
100
AcDbEntity
  8
SANINDUSA
100
AcDbLine
 10
4014.471502560579
 20
1626.514138680942
 30
0.0
 11
4014.471502560579
 21
1626.505138561389
 31
0.0
  0
LINE
  5
15F2
330
1F
100
AcDbEntity
  8
SANINDUSA
100
AcDbLine
 10
4014.610802560579
 20
1626.515138561388
 30
0.0
 11
4014.481502560579
 21
1626.515138561388
 31
0.0
  0
LINE
  5
15F3
330
1F
100
AcDbEntity
  8
SANINDUSA
100
AcDbLine
 10
4015.340502560579
 20
1626.464491381888
 30
0.0
 11
4015.340502560579
 21
1626.513838561389
 31
0.0
  0
LINE
  5
15F4
330
1F
100
AcDbEntity
  8
SANINDUSA
100
AcDbLine
 10
4015.312504259423
 20
1626.513838561389
 30
0.0
 11
4015.312504259423
 21
1626.464491381888
 31
0.0
  0
LINE
  5
15F5
330
1F
100
AcDbEntity
  8
SANINDUSA
100
AcDbLine
 10
4015.340502560579
 20
1626.464491381888
 30
0.0
 11
4015.312504259423
 21
1626.464491381888
 31
0.0
  0
POLYLINE
  5
15F6
330
1F
100
AcDbEntity
  8
SANINDUSA
100
AcDb2dPolyline
 66
     1
 10
0.0
 20
0.0
 30
0.0
  0
VERTEX
  5
15F7
330
15F6
100
AcDbEntity
  8
SANINDUSA
100
AcDbVertex
100
AcDb2dVertex
 10
4013.541460686467
 20
1627.053130737927
 30
0.0
 42
-0.1716209804019301
  0
VERTEX
  5
15F8
330
15F6
100
AcDbEntity
  8
SANINDUSA
100
AcDbVertex
100
AcDb2dVertex
 10
4013.537688578259
 20
1627.05446477673
 30
0.0
 42
-0.2265071203787086
  0
VERTEX
  5
15F9
330
15F6
100
AcDbEntity
  8
SANINDUSA
100
AcDbVertex
100
AcDb2dVertex
 10
4013.537614315224
 20
1627.054620320459
 30
0.0
  0
VERTEX
  5
15FA
330
15F6
100
AcDbEntity
  8
SANINDUSA
100
AcDbVertex
100
AcDb2dVertex
 10
4013.537614381834
 20
1627.055759992521
 30
0.0
 42
-0.4142135623729286
  0
VERTEX
  5
15FB
330
15F6
100
AcDbEntity
  8
SANINDUSA
100
AcDbVertex
100
AcDb2dVertex
 10
4013.538014405212
 20
1627.056159969142
 30
0.0
  0
VERTEX
  5
15FC
330
15F6
100
AcDbEntity
  8
SANINDUSA
100
AcDbVertex
100
AcDb2dVertex
 10
4013.538693510191
 20
1627.056159929452
 30
0.0
 42
-0.6681786379187177
  0
VERTEX
  5
15FD
330
15F6
100
AcDbEntity
  8
SANINDUSA
100
AcDbVertex
100
AcDb2dVertex
 10
4013.538834911592
 20
1627.055818499831
 30
0.0
  0
VERTEX
  5
15FE
330
15F6
100
AcDbEntity
  8
SANINDUSA
100
AcDbVertex
100
AcDb2dVertex
 10
4013.538472942746
 20
1627.055456573292
 30
0.0
 42
0.1989123673798312
  0
VERTEX
  5
15FF
330
15F6
100
AcDbEntity
  8
SANINDUSA
100
AcDbVertex
100
AcDb2dVertex
 10
4013.538414355837
 20
1627.05531515536
 30
0.0
  0
VERTEX
  5
1600
330
15F6
100
AcDbEntity
  8
SANINDUSA
100
AcDbVertex
100
AcDb2dVertex
 10
4013.538414338586
 20
1627.055019995503
 30
0.0
 42
0.2461049196730113
  0
VERTEX
  5
1601
330
15F6
100
AcDbEntity
  8
SANINDUSA
100
AcDbVertex
100
AcDb2dVertex
 10
4013.53850048464
 20
1627.054855553649
 30
0.0
 42
0.0583912209941408
  0
VERTEX
  5
1602
330
15F6
100
AcDbEntity
  8
SANINDUSA
100
AcDbVertex
100
AcDb2dVertex
 10
4013.539569057241
 20
1627.05428700631
 30
0.0
 42
0.5279768385267204
  0
VERTEX
  5
1603
330
15F6
100
AcDbEntity
  8
SANINDUSA
100
AcDbVertex
100
AcDb2dVertex
 10
4013.54011456724
 20
1627.054659600012
 30
0.0
  0
VERTEX
  5
1604
330
15F6
100
AcDbEntity
  8
SANINDUSA
100
AcDbVertex
100
AcDb2dVertex
 10
4013.540114590447
 20
1627.06360188283
 30
0.0
 42
0.5279768385263968
  0
VERTEX
  5
1605
330
15F6
100
AcDbEntity
  8
SANINDUSA
100
AcDbVertex
100
AcDb2dVertex
 10
4013.539569082381
 20
1627.063974479363
 30
0.0
 42
0.0583632005594956
  0
VERTEX
  5
1606
330
15F6
100
AcDbEntity
  8
SANINDUSA
100
AcDbVertex
100
AcDb2dVertex
 10
4013.538500984392
 20
1627.063406268199
 30
0.0
 42
0.2461049196740124
  0
VERTEX
  5
1607
330
15F6
100
AcDbEntity
  8
SANINDUSA
100
AcDbVertex
100
AcDb2dVertex
 10
4013.538414819117
 20
1627.063241836416
 30
0.0
  0
VERTEX
  5
1608
330
15F6
100
AcDbEntity
  8
SANINDUSA
100
AcDbVertex
100
AcDb2dVertex
 10
4013.538414801857
 20
1627.062946526197
 30
0.0
 42
0.1989123673798311
  0
VERTEX
  5
1609
330
15F6
100
AcDbEntity
  8
SANINDUSA
100
AcDbVertex
100
AcDb2dVertex
 10
4013.538473372236
 20
1627.062805101417
 30
0.0
  0
VERTEX
  5
160A
330
15F6
100
AcDbEntity
  8
SANINDUSA
100
AcDbVertex
100
AcDb2dVertex
 10
4013.538835298773
 20
1627.06244313257
 30
0.0
 42
-0.6681786379187177
  0
VERTEX
  5
160B
330
15F6
100
AcDbEntity
  8
SANINDUSA
100
AcDbVertex
100
AcDb2dVertex
 10
4013.538693857463
 20
1627.06210171948
 30
0.0
  0
VERTEX
  5
160C
330
15F6
100
AcDbEntity
  8
SANINDUSA
100
AcDbVertex
100
AcDb2dVertex
 10
4013.538014752484
 20
1627.062101759171
 30
0.0
 42
-0.4142135623730951
  0
VERTEX
  5
160D
330
15F6
100
AcDbEntity
  8
SANINDUSA
100
AcDbVertex
100
AcDb2dVertex
 10
4013.537614775862
 20
1627.062501770343
 30
0.0
  0
VERTEX
  5
160E
330
15F6
100
AcDbEntity
  8
SANINDUSA
100
AcDbVertex
100
AcDb2dVertex
 10
4013.537614836838
 20
1627.063545069299
 30
0.0
 42
-0.2309634091047596
  0
VERTEX
  5
160F
330
15F6
100
AcDbEntity
  8
SANINDUSA
100
AcDbVertex
100
AcDb2dVertex
 10
4013.537768704667
 20
1627.063860353635
 30
0.0
 42
-0.1672346938542433
  0
VERTEX
  5
1610
330
15F6
100
AcDbEntity
  8
SANINDUSA
100
AcDbVertex
100
AcDb2dVertex
 10
4013.541460687995
 20
1627.065130737927
 30
0.0
  0
VERTEX
  5
1611
330
15F6
100
AcDbEntity
  8
SANINDUSA
100
AcDbVertex
100
AcDb2dVertex
 10
4013.556979484853
 20
1627.065130737927
 30
0.0
 42
-0.4142135623731617
  0
VERTEX
  5
1612
330
15F6
100
AcDbEntity
  8
SANINDUSA
100
AcDbVertex
100
AcDb2dVertex
 10
4013.557979484726
 20
1627.0641307378
 30
0.0
  0
VERTEX
  5
1613
330
15F6
100
AcDbEntity
  8
SANINDUSA
100
AcDbVertex
100
AcDb2dVertex
 10
4013.557979484501
 20
1627.062369723604
 30
0.0
 42
-0.4142306435449703
  0
VERTEX
  5
1614
330
15F6
100
AcDbEntity
  8
SANINDUSA
100
AcDbVertex
100
AcDb2dVertex
 10
4013.556979426056
 20
1627.061369723733
 30
0.0
  0
VERTEX
  5
1615
330
15F6
100
AcDbEntity
  8
SANINDUSA
100
AcDbVertex
100
AcDb2dVertex
 10
4013.555384964528
 20
1627.061369816922
 30
0.0
 42
0.2881936776526472
  0
VERTEX
  5
1616
330
15F6
100
AcDbEntity
  8
SANINDUSA
100
AcDbVertex
100
AcDb2dVertex
 10
4013.555204732532
 20
1627.06125653855
 30
0.0
 42
-0.628595749850598
  0
VERTEX
  5
1617
330
15F6
100
AcDbEntity
  8
SANINDUSA
100
AcDbVertex
100
AcDb2dVertex
 10
4013.554754169093
 20
1627.061256564884
 30
0.0
 42
0.2881936776522668
  0
VERTEX
  5
1618
330
15F6
100
AcDbEntity
  8
SANINDUSA
100
AcDbVertex
100
AcDb2dVertex
 10
4013.554573950339
 20
1627.061369864323
 30
0.0
  0
VERTEX
  5
1619
330
15F6
100
AcDbEntity
  8
SANINDUSA
100
AcDbVertex
100
AcDb2dVertex
 10
4013.55238496579
 20
1627.061369992259
 30
0.0
 42
0.2881936776528216
  0
VERTEX
  5
161A
330
15F6
100
AcDbEntity
  8
SANINDUSA
100
AcDbVertex
100
AcDb2dVertex
 10
4013.552204733794
 20
1627.061256713887
 30
0.0
 42
-0.6285957498500262
  0
VERTEX
  5
161B
330
15F6
100
AcDbEntity
  8
SANINDUSA
100
AcDbVertex
100
AcDb2dVertex
 10
4013.551754170355
 20
1627.061256740221
 30
0.0
 42
0.2881936776526472
  0
VERTEX
  5
161C
330
15F6
100
AcDbEntity
  8
SANINDUSA
100
AcDbVertex
100
AcDb2dVertex
 10
4013.551573951601
 20
1627.061370039659
 30
0.0
  0
VERTEX
  5
161D
330
15F6
100
AcDbEntity
  8
SANINDUSA
100
AcDbVertex
100
AcDb2dVertex
 10
4013.551179323365
 20
1627.061370062724
 30
0.0
 42
0.4142135623729997
  0
VERTEX
  5
161E
330
15F6
100
AcDbEntity
  8
SANINDUSA
100
AcDbVertex
100
AcDb2dVertex
 10
4013.550979311676
 20
1627.061170074413
 30
0.0
  0
VERTEX
  5
161F
330
15F6
100
AcDbEntity
  8
SANINDUSA
100
AcDbVertex
100
AcDb2dVertex
 10
4013.550979072049
 20
1627.05707007442
 30
0.0
 42
0.4142135623731903
  0
VERTEX
  5
1620
330
15F6
100
AcDbEntity
  8
SANINDUSA
100
AcDbVertex
100
AcDb2dVertex
 10
4013.551179060359
 20
1627.056870062731
 30
0.0
  0
VERTEX
  5
1621
330
15F6
100
AcDbEntity
  8
SANINDUSA
100
AcDbVertex
100
AcDb2dVertex
 10
4013.551576082803
 20
1627.056870039527
 30
0.0
 42
0.2849150464417384
  0
VERTEX
  5
1622
330
15F6
100
AcDbEntity
  8
SANINDUSA
100
AcDbVertex
100
AcDb2dVertex
 10
4013.551755250579
 20
1627.056981140167
 30
0.0
 42
-0.6201736729456835
  0
VERTEX
  5
1623
330
15F6
100
AcDbEntity
  8
SANINDUSA
100
AcDbVertex
100
AcDb2dVertex
 10
4013.552203153787
 20
1627.056981113989
 30
0.0
 42
0.284915046441269
  0
VERTEX
  5
1624
330
15F6
100
AcDbEntity
  8
SANINDUSA
100
AcDbVertex
100
AcDb2dVertex
 10
4013.552382308577
 20
1627.056869992407
 30
0.0
  0
VERTEX
  5
1625
330
15F6
100
AcDbEntity
  8
SANINDUSA
100
AcDbVertex
100
AcDb2dVertex
 10
4013.554576081541
 20
1627.05686986419
 30
0.0
 42
0.2849150464419475
  0
VERTEX
  5
1626
330
15F6
100
AcDbEntity
  8
SANINDUSA
100
AcDbVertex
100
AcDb2dVertex
 10
4013.554755249319
 20
1627.05698096483
 30
0.0
 42
-0.6201736729451243
  0
VERTEX
  5
1627
330
15F6
100
AcDbEntity
  8
SANINDUSA
100
AcDbVertex
100
AcDb2dVertex
 10
4013.555203152526
 20
1627.056980938652
 30
0.0
 42
0.2849150464416061
  0
VERTEX
  5
1628
330
15F6
100
AcDbEntity
  8
SANINDUSA
100
AcDbVertex
100
AcDb2dVertex
 10
4013.555382307315
 20
1627.05686981707
 30
0.0
  0
VERTEX
  5
1629
330
15F6
100
AcDbEntity
  8
SANINDUSA
100
AcDbVertex
100
AcDb2dVertex
 10
4013.55697954212
 20
1627.056869723719
 30
0.0
 42
-0.4141964814073941
  0
VERTEX
  5
162A
330
15F6
100
AcDbEntity
  8
SANINDUSA
100
AcDbVertex
100
AcDb2dVertex
 10
4013.557979483675
 20
1627.055869723593
 30
0.0
  0
VERTEX
  5
162B
330
15F6
100
AcDbEntity
  8
SANINDUSA
100
AcDbVertex
100
AcDb2dVertex
 10
4013.557979483453
 20
1627.0541307378
 30
0.0
 42
-0.4142135623732283
  0
VERTEX
  5
162C
330
15F6
100
AcDbEntity
  8
SANINDUSA
100
AcDbVertex
100
AcDb2dVertex
 10
4013.556979483326
 20
1627.053130737927
 30
0.0
  0
VERTEX
  5
162D
330
15F6
100
AcDbEntity
  8
SANINDUSA
100
AcDbVertex
100
AcDb2dVertex
 10
4013.545298125761
 20
1627.053130737439
 30
0.0
 42
0.468822488376375
  0
VERTEX
  5
162E
330
15F6
100
AcDbEntity
  8
SANINDUSA
100
AcDbVertex
100
AcDb2dVertex
 10
4013.544314784807
 20
1627.051948966101
 30
0.0
 42
0.0576948838717018
  0
VERTEX
  5
162F
330
15F6
100
AcDbEntity
  8
SANINDUSA
100
AcDbVertex
100
AcDb2dVertex
 10
4013.545611649118
 20
1627.047727407842
 30
0.0
 42
0.3118351474612041
  0
VERTEX
  5
1630
330
15F6
100
AcDbEntity
  8
SANINDUSA
100
AcDbVertex
100
AcDb2dVertex
 10
4013.546579053352
 20
1627.047130384609
 30
0.0
 42
-1.797146556744268
  0
VERTEX
  5
1631
330
15F6
100
AcDbEntity
  8
SANINDUSA
100
AcDbVertex
100
AcDb2dVertex
 10
4013.545758858254
 20
1627.045641861497
 30
0.0
 42
-0.0886637753107092
  0
VERTEX
  5
1632
330
15F6
100
AcDbEntity
  8
SANINDUSA
100
AcDbVertex
100
AcDb2dVertex
 10
4013.54344466104
 20
1627.052288272943
 30
0.0
 42
0.3686029284448436
  0
VERTEX
  5
1633
330
15F6
100
AcDbEntity
  8
SANINDUSA
100
AcDbVertex
100
AcDb2dVertex
 10
4013.542457147785
 20
1627.053130737801
 30
0.0
  0
VERTEX
  5
1634
330
15F6
100
AcDbEntity
  8
SANINDUSA
100
AcDbVertex
100
AcDb2dVertex
 10
4013.541460671661
 20
1627.053130737927
 30
0.0
  0
SEQEND
  5
1635
330
15F6
100
AcDbEntity
  8
SANINDUSA
  0
POLYLINE
  5
1636
330
1F
100
AcDbEntity
  8
SANINDUSA
100
AcDb2dPolyline
 66
     1
 10
0.0
 20
0.0
 30
0.0
 70
     1
  0
VERTEX
  5
1637
330
1636
100
AcDbEntity
  8
SANINDUSA
100
AcDbVertex
100
AcDb2dVertex
 10
4013.541167734582
 20
1627.053994488338
 30
0.0
 42
0.0392067269493321
  0
VERTEX
  5
1638
330
1636
100
AcDbEntity
  8
SANINDUSA
100
AcDbVertex
100
AcDb2dVertex
 10
4013.541979483428
 20
1627.053930738209
 30
0.0
  0
VERTEX
  5
1639
330
1636
100
AcDbEntity
  8
SANINDUSA
100
AcDbVertex
100
AcDb2dVertex
 10
4013.556979483428
 20
1627.0539307363
 30
0.0
 42
0.4142135623730951
  0
VERTEX
  5
163A
330
1636
100
AcDbEntity
  8
SANINDUSA
100
AcDbVertex
100
AcDb2dVertex
 10
4013.557179483454
 20
1627.054130736274
 30
0.0
  0
VERTEX
  5
163B
330
1636
100
AcDbEntity
  8
SANINDUSA
100
AcDbVertex
100
AcDb2dVertex
 10
4013.557179483675
 20
1627.055874537032
 30
0.0
 42
0.4141794006479897
  0
VERTEX
  5
163C
330
1636
100
AcDbEntity
  8
SANINDUSA
100
AcDbVertex
100
AcDb2dVertex
 10
4013.556979507028
 20
1627.056074537057
 30
0.0
  0
VERTEX
  5
163D
330
1636
100
AcDbEntity
  8
SANINDUSA
100
AcDbVertex
100
AcDb2dVertex
 10
4013.55117919439
 20
1627.056075214325
 30
0.0
 42
-0.4141794006481879
  0
VERTEX
  5
163E
330
1636
100
AcDbEntity
  8
SANINDUSA
100
AcDbVertex
100
AcDb2dVertex
 10
4013.550179311154
 20
1627.057075214445
 30
0.0
  0
VERTEX
  5
163F
330
1636
100
AcDbEntity
  8
SANINDUSA
100
AcDbVertex
100
AcDb2dVertex
 10
4013.550179311677
 20
1627.061174687982
 30
0.0
 42
-0.4142135623731032
  0
VERTEX
  5
1640
330
1636
100
AcDbEntity
  8
SANINDUSA
100
AcDbVertex
100
AcDb2dVertex
 10
4013.551179311803
 20
1627.062174687855
 30
0.0
  0
VERTEX
  5
1641
330
1636
100
AcDbEntity
  8
SANINDUSA
100
AcDbVertex
100
AcDb2dVertex
 10
4013.556979484477
 20
1627.062174687117
 30
0.0
 42
0.4142135623734281
  0
VERTEX
  5
1642
330
1636
100
AcDbEntity
  8
SANINDUSA
100
AcDbVertex
100
AcDb2dVertex
 10
4013.557179484503
 20
1627.062374687092
 30
0.0
  0
VERTEX
  5
1643
330
1636
100
AcDbEntity
  8
SANINDUSA
100
AcDbVertex
100
AcDb2dVertex
 10
4013.557179484727
 20
1627.064130736274
 30
0.0
 42
0.4142135623730951
  0
VERTEX
  5
1644
330
1636
100
AcDbEntity
  8
SANINDUSA
100
AcDbVertex
100
AcDb2dVertex
 10
4013.556979484752
 20
1627.0643307363
 30
0.0
  0
VERTEX
  5
1645
330
1636
100
AcDbEntity
  8
SANINDUSA
100
AcDbVertex
100
AcDb2dVertex
 10
4013.541979484751
 20
1627.064330738209
 30
0.0
 42
0.0392054911123095
  0
VERTEX
  5
1646
330
1636
100
AcDbEntity
  8
SANINDUSA
100
AcDbVertex
100
AcDb2dVertex
 10
4013.54116776124
 20
1627.064266992292
 30
0.0
 42
0.3690147635156997
  0
VERTEX
  5
1647
330
1636
100
AcDbEntity
  8
SANINDUSA
100
AcDbVertex
100
AcDb2dVertex
 10
4013.540914591405
 20
1627.06397067072
 30
0.0
  0
VERTEX
  5
1648
330
1636
100
AcDbEntity
  8
SANINDUSA
100
AcDbVertex
100
AcDb2dVertex
 10
4013.540914566283
 20
1627.054290811224
 30
0.0
 42
0.3690147635155541
  0
SEQEND
  5
1649
330
1636
100
AcDbEntity
  8
SANINDUSA
  0
POLYLINE
  5
164A
330
1F
100
AcDbEntity
  8
SANINDUSA
100
AcDb2dPolyline
 66
     1
 10
0.0
 20
0.0
 30
0.0
 70
     1
  0
VERTEX
  5
164B
330
164A
100
AcDbEntity
  8
SANINDUSA
100
AcDbVertex
100
AcDb2dVertex
 10
4013.536604703001
 20
1627.056753658665
 30
0.0
  0
VERTEX
  5
164C
330
164A
100
AcDbEntity
  8
SANINDUSA
100
AcDbVertex
100
AcDb2dVertex
 10
4013.535760995222
 20
1627.057091216462
 30
0.0
  0
VERTEX
  5
164D
330
164A
100
AcDbEntity
  8
SANINDUSA
100
AcDbVertex
100
AcDb2dVertex
 10
4013.535761284018
 20
1627.060875809859
 30
0.0
  0
VERTEX
  5
164E
330
164A
100
AcDbEntity
  8
SANINDUSA
100
AcDbVertex
100
AcDb2dVertex
 10
4013.536679323705
 20
1627.061242944474
 30
0.0
 42
-0.1925824035674305
  0
VERTEX
  5
164F
330
164A
100
AcDbEntity
  8
SANINDUSA
100
AcDbVertex
100
AcDb2dVertex
 10
4013.537273548787
 20
1627.061242899129
 30
0.0
  0
VERTEX
  5
1650
330
164A
100
AcDbEntity
  8
SANINDUSA
100
AcDbVertex
100
AcDb2dVertex
 10
4013.538445363718
 20
1627.060774069427
 30
0.0
 42
-0.3818149661416109
  0
VERTEX
  5
1651
330
164A
100
AcDbEntity
  8
SANINDUSA
100
AcDbVertex
100
AcDb2dVertex
 10
4013.538504628868
 20
1627.060654675374
 30
0.0
 42
0.1518180644621605
  0
VERTEX
  5
1652
330
164A
100
AcDbEntity
  8
SANINDUSA
100
AcDbVertex
100
AcDb2dVertex
 10
4013.538612075507
 20
1627.057362023036
 30
0.0
 42
-0.4006661320027832
  0
VERTEX
  5
1653
330
164A
100
AcDbEntity
  8
SANINDUSA
100
AcDbVertex
100
AcDb2dVertex
 10
4013.538554732178
 20
1627.057236394255
 30
0.0
  0
VERTEX
  5
1654
330
164A
100
AcDbEntity
  8
SANINDUSA
100
AcDbVertex
100
AcDb2dVertex
 10
4013.537347484351
 20
1627.056753601985
 30
0.0
 42
-0.1925824035673727
  0
SEQEND
  5
1655
330
164A
100
AcDbEntity
  8
SANINDUSA
  0
POLYLINE
  5
1656
330
1F
100
AcDbEntity
  8
SANINDUSA
100
AcDb2dPolyline
 66
     1
 10
0.0
 20
0.0
 30
0.0
  0
VERTEX
  5
1657
330
1656
100
AcDbEntity
  8
SANINDUSA
100
AcDbVertex
100
AcDb2dVertex
 10
4013.540054702138
 20
1627.056024493679
 30
0.0
 42
-0.4368825303742488
  0
VERTEX
  5
1658
330
1656
100
AcDbEntity
  8
SANINDUSA
100
AcDbVertex
100
AcDb2dVertex
 10
4013.540036584714
 20
1627.055878871947
 30
0.0
  0
VERTEX
  5
1659
330
1656
100
AcDbEntity
  8
SANINDUSA
100
AcDbVertex
100
AcDb2dVertex
 10
4013.539065558074
 20
1627.055180895538
 30
0.0
 42
-0.414213562372984
  0
VERTEX
  5
165A
330
1656
100
AcDbEntity
  8
SANINDUSA
100
AcDbVertex
100
AcDb2dVertex
 10
4013.538783745958
 20
1627.055205018786
 30
0.0
  0
VERTEX
  5
165B
330
1656
100
AcDbEntity
  8
SANINDUSA
100
AcDbVertex
100
AcDb2dVertex
 10
4013.538750586643
 20
1627.055244386444
 30
0.0
 42
-0.1989123673797088
  0
VERTEX
  5
165C
330
1656
100
AcDbEntity
  8
SANINDUSA
100
AcDbVertex
100
AcDb2dVertex
 10
4013.538704283067
 20
1627.055390288591
 30
0.0
  0
VERTEX
  5
165D
330
1656
100
AcDbEntity
  8
SANINDUSA
100
AcDbVertex
100
AcDb2dVertex
 10
4013.539108713994
 20
1627.055933454665
 30
0.0
 42
0.2083851459438857
  0
VERTEX
  5
165E
330
1656
100
AcDbEntity
  8
SANINDUSA
100
AcDbVertex
100
AcDb2dVertex
 10
4013.539126858603
 20
1627.05601125185
 30
0.0
 42
0.1302921987711861
  0
VERTEX
  5
165F
330
1656
100
AcDbEntity
  8
SANINDUSA
100
AcDbVertex
100
AcDb2dVertex
 10
4013.538930038238
 20
1627.056428370113
 30
0.0
  0
VERTEX
  5
1660
330
1656
100
AcDbEntity
  8
SANINDUSA
100
AcDbVertex
100
AcDb2dVertex
 10
4013.53863513904
 20
1627.056778482614
 30
0.0
 42
0.3234232629811839
  0
VERTEX
  5
1661
330
1656
100
AcDbEntity
  8
SANINDUSA
100
AcDbVertex
100
AcDb2dVertex
 10
4013.538521523216
 20
1627.056806910899
 30
0.0
  0
VERTEX
  5
1662
330
1656
100
AcDbEntity
  8
SANINDUSA
100
AcDbVertex
100
AcDb2dVertex
 10
4013.537496012282
 20
1627.056396797299
 30
0.0
 42
-0.1925824035672822
  0
VERTEX
  5
1663
330
1656
100
AcDbEntity
  8
SANINDUSA
100
AcDbVertex
100
AcDb2dVertex
 10
4013.536456118391
 20
1627.056396876651
 30
0.0
  0
VERTEX
  5
1664
330
1656
100
AcDbEntity
  8
SANINDUSA
100
AcDbVertex
100
AcDb2dVertex
 10
4013.535898097228
 20
1627.056620134512
 30
0.0
 42
0.5305984520675703
  0
VERTEX
  5
1665
330
1656
100
AcDbEntity
  8
SANINDUSA
100
AcDbVertex
100
AcDb2dVertex
 10
4013.535760951077
 20
1627.056527297308
 30
0.0
  0
VERTEX
  5
1666
330
1656
100
AcDbEntity
  8
SANINDUSA
100
AcDbVertex
100
AcDb2dVertex
 10
4013.535760853029
 20
1627.055242416333
 30
0.0
 42
-0.5072628673585859
  0
VERTEX
  5
1667
330
1656
100
AcDbEntity
  8
SANINDUSA
100
AcDbVertex
100
AcDb2dVertex
 10
4013.535630628807
 20
1627.055147100848
 30
0.0
  0
VERTEX
  5
1668
330
1656
100
AcDbEntity
  8
SANINDUSA
100
AcDbVertex
100
AcDb2dVertex
 10
4013.532458753011
 20
1627.056152811554
 30
0.0
 42
-0.3269085594239665
  0
VERTEX
  5
1669
330
1656
100
AcDbEntity
  8
SANINDUSA
100
AcDbVertex
100
AcDb2dVertex
 10
4013.531760995234
 20
1627.057106119021
 30
0.0
  0
VERTEX
  5
166A
330
1656
100
AcDbEntity
  8
SANINDUSA
100
AcDbVertex
100
AcDb2dVertex
 10
4013.531761300467
 20
1627.061106119009
 30
0.0
 42
-0.3269085594239223
  0
VERTEX
  5
166B
330
1656
100
AcDbEntity
  8
SANINDUSA
100
AcDbVertex
100
AcDb2dVertex
 10
4013.532459203727
 20
1627.062059319975
 30
0.0
  0
VERTEX
  5
166C
330
1656
100
AcDbEntity
  8
SANINDUSA
100
AcDbVertex
100
AcDb2dVertex
 10
4013.535631232975
 20
1627.063064546588
 30
0.0
 42
-0.5072628673591617
  0
VERTEX
  5
166D
330
1656
100
AcDbEntity
  8
SANINDUSA
100
AcDbVertex
100
AcDb2dVertex
 10
4013.535761442648
 20
1627.06296921123
 30
0.0
  0
VERTEX
  5
166E
330
1656
100
AcDbEntity
  8
SANINDUSA
100
AcDbVertex
100
AcDb2dVertex
 10
4013.535761328164
 20
1627.061468923663
 30
0.0
 42
0.5305984520676007
  0
VERTEX
  5
166F
330
1656
100
AcDbEntity
  8
SANINDUSA
100
AcDbVertex
100
AcDb2dVertex
 10
4013.535898460146
 20
1627.061376065529
 30
0.0
  0
VERTEX
  5
1670
330
1656
100
AcDbEntity
  8
SANINDUSA
100
AcDbVertex
100
AcDb2dVertex
 10
4013.536530795776
 20
1627.061628943811
 30
0.0
 42
-0.1925824035673543
  0
VERTEX
  5
1671
330
1656
100
AcDbEntity
  8
SANINDUSA
100
AcDbVertex
100
AcDb2dVertex
 10
4013.537422133397
 20
1627.061628875794
 30
0.0
  0
VERTEX
  5
1672
330
1656
100
AcDbEntity
  8
SANINDUSA
100
AcDbVertex
100
AcDb2dVertex
 10
4013.538440190159
 20
1627.061221562971
 30
0.0
 42
0.3473749129884166
  0
VERTEX
  5
1673
330
1656
100
AcDbEntity
  8
SANINDUSA
100
AcDbVertex
100
AcDb2dVertex
 10
4013.538559068902
 20
1627.061256790242
 30
0.0
  0
VERTEX
  5
1674
330
1656
100
AcDbEntity
  8
SANINDUSA
100
AcDbVertex
100
AcDb2dVertex
 10
4013.538967793773
 20
1627.061836581204
 30
0.0
 42
0.1103571466829044
  0
VERTEX
  5
1675
330
1656
100
AcDbEntity
  8
SANINDUSA
100
AcDbVertex
100
AcDb2dVertex
 10
4013.53911854941
 20
1627.0621989806
 30
0.0
 42
0.2116742589343529
  0
VERTEX
  5
1676
330
1656
100
AcDbEntity
  8
SANINDUSA
100
AcDbVertex
100
AcDb2dVertex
 10
4013.539099066119
 20
1627.062277642343
 30
0.0
  0
VERTEX
  5
1677
330
1656
100
AcDbEntity
  8
SANINDUSA
100
AcDbVertex
100
AcDb2dVertex
 10
4013.53865374441
 20
1627.062851446536
 30
0.0
 42
-0.1989123673797088
  0
VERTEX
  5
1678
330
1656
100
AcDbEntity
  8
SANINDUSA
100
AcDbVertex
100
AcDb2dVertex
 10
4013.538687350107
 20
1627.063000785462
 30
0.0
  0
VERTEX
  5
1679
330
1656
100
AcDbEntity
  8
SANINDUSA
100
AcDbVertex
100
AcDb2dVertex
 10
4013.53871700694
 20
1627.063042854748
 30
0.0
 42
-0.4142135623729841
  0
VERTEX
  5
167A
330
1656
100
AcDbEntity
  8
SANINDUSA
100
AcDbVertex
100
AcDb2dVertex
 10
4013.538995707248
 20
1627.063091084803
 30
0.0
  0
VERTEX
  5
167B
330
1656
100
AcDbEntity
  8
SANINDUSA
100
AcDbVertex
100
AcDb2dVertex
 10
4013.540023075249
 20
1627.062479056376
 30
0.0
 42
-0.4368825303742487
  0
VERTEX
  5
167C
330
1656
100
AcDbEntity
  8
SANINDUSA
100
AcDbVertex
100
AcDb2dVertex
 10
4013.540053628593
 20
1627.062335527901
 30
0.0
 42
0.2163535043884636
  0
VERTEX
  5
167D
330
1656
100
AcDbEntity
  8
SANINDUSA
100
AcDbVertex
100
AcDb2dVertex
 10
4013.540077056028
 20
1627.055975273527
 30
0.0
  0
SEQEND
  5
167E
330
1656
100
AcDbEntity
  8
SANINDUSA
  0
POLYLINE
  5
167F
330
1F
100
AcDbEntity
  8
SANINDUSA
100
AcDb2dPolyline
 66
     1
 10
0.0
 20
0.0
 30
0.0
 70
     1
  0
VERTEX
  5
1680
330
167F
100
AcDbEntity
  8
SANINDUSA
100
AcDbVertex
100
AcDb2dVertex
 10
4013.532261300465
 20
1627.061091483529
 30
0.0
 42
-0.3269085594239496
  0
VERTEX
  5
1681
330
167F
100
AcDbEntity
  8
SANINDUSA
100
AcDbVertex
100
AcDb2dVertex
 10
4013.532610252095
 20
1627.061568084012
 30
0.0
  0
VERTEX
  5
1682
330
167F
100
AcDbEntity
  8
SANINDUSA
100
AcDbVertex
100
AcDb2dVertex
 10
4013.535131180856
 20
1627.062366974717
 30
0.0
 42
-0.5072628673586409
  0
VERTEX
  5
1683
330
167F
100
AcDbEntity
  8
SANINDUSA
100
AcDbVertex
100
AcDb2dVertex
 10
4013.535261390529
 20
1627.062271639358
 30
0.0
  0
VERTEX
  5
1684
330
167F
100
AcDbEntity
  8
SANINDUSA
100
AcDbVertex
100
AcDb2dVertex
 10
4013.53526090515
 20
1627.055910869862
 30
0.0
 42
-0.5072628673585822
  0
VERTEX
  5
1685
330
167F
100
AcDbEntity
  8
SANINDUSA
100
AcDbVertex
100
AcDb2dVertex
 10
4013.535130680929
 20
1627.055815554377
 30
0.0
  0
VERTEX
  5
1686
330
167F
100
AcDbEntity
  8
SANINDUSA
100
AcDbVertex
100
AcDb2dVertex
 10
4013.532609874121
 20
1627.056614829808
 30
0.0
 42
-0.3269085594239496
  0
VERTEX
  5
1687
330
167F
100
AcDbEntity
  8
SANINDUSA
100
AcDbVertex
100
AcDb2dVertex
 10
4013.532260995233
 20
1627.057091483541
 30
0.0
  0
SEQEND
  5
1688
330
167F
100
AcDbEntity
  8
SANINDUSA
  0
POLYLINE
  5
1689
330
1F
100
AcDbEntity
  8
SANINDUSA
100
AcDb2dPolyline
 66
     1
 10
0.0
 20
0.0
 30
0.0
 70
     1
  0
VERTEX
  5
168A
330
1689
100
AcDbEntity
  8
SANINDUSA
100
AcDbVertex
100
AcDb2dVertex
 10
4013.532261300465
 20
1627.061091483529
 30
0.0
 42
-0.3269085594239496
  0
VERTEX
  5
168B
330
1689
100
AcDbEntity
  8
SANINDUSA
100
AcDbVertex
100
AcDb2dVertex
 10
4013.532610252095
 20
1627.061568084012
 30
0.0
  0
VERTEX
  5
168C
330
1689
100
AcDbEntity
  8
SANINDUSA
100
AcDbVertex
100
AcDb2dVertex
 10
4013.535131180856
 20
1627.062366974717
 30
0.0
 42
-0.5072628673586409
  0
VERTEX
  5
168D
330
1689
100
AcDbEntity
  8
SANINDUSA
100
AcDbVertex
100
AcDb2dVertex
 10
4013.535261390529
 20
1627.062271639358
 30
0.0
  0
VERTEX
  5
168E
330
1689
100
AcDbEntity
  8
SANINDUSA
100
AcDbVertex
100
AcDb2dVertex
 10
4013.53526090515
 20
1627.055910869862
 30
0.0
 42
-0.5072628673585822
  0
VERTEX
  5
168F
330
1689
100
AcDbEntity
  8
SANINDUSA
100
AcDbVertex
100
AcDb2dVertex
 10
4013.535130680929
 20
1627.055815554377
 30
0.0
  0
VERTEX
  5
1690
330
1689
100
AcDbEntity
  8
SANINDUSA
100
AcDbVertex
100
AcDb2dVertex
 10
4013.532609874121
 20
1627.056614829808
 30
0.0
 42
-0.3269085594239496
  0
VERTEX
  5
1691
330
1689
100
AcDbEntity
  8
SANINDUSA
100
AcDbVertex
100
AcDb2dVertex
 10
4013.532260995233
 20
1627.057091483541
 30
0.0
  0
SEQEND
  5
1692
330
1689
100
AcDbEntity
  8
SANINDUSA
  0
LWPOLYLINE
  5
1693
330
1F
100
AcDbEntity
  8
SANINDUSA
100
AcDbPolyline
 90
        4
 70
     1
 43
0.0
 10
4013.551079191862
 20
1627.057120074417
 10
4013.551079191862
 20
1627.061120074416
 10
4013.952079191863
 20
1627.061120074416
 10
4013.952079191863
 20
1627.057120074417
1001
GENIUS_GENREC_14
1002
{
1000
PYDIR
1011
4013.952079191863
1021
1627.057120074417
1031
0.0
1002
}
1002
{
1000
PXDIR
1011
4013.551079191862
1021
1627.061120074416
1031
0.0
1002
}
1002
{
1000
PORI
1011
4013.551079191862
1021
1627.057120074417
1031
0.0
1002
}
1002
{
1000
PINS
1011
4013.551079191862
1021
1627.057120074417
1031
0.0
1002
}
1002
{
1000
PINS2
1011
4013.952079191863
1021
1627.061120074416
1031
0.0
1002
}
1002
{
1000
C
1070
     1
1002
}
1001
GENIUS_GENODEF_13
1002
{
1000
HIER
1070
     0
1002
}
1002
{
1000
MANEDIT
1070
     0
1002
}
1002
{
1000
NOSEL
1070
     0
1002
}
1002
{
1000
BEHIND
1070
     0
1002
}
1002
{
1000
OTHER
1070
     0
1002
}
1002
{
1000
REACTOR
1002
}
1001
GENIUS_GENOBJ-N-REC_13
1002
{
1000
OWNER
1000
GEN
1002
}
  0
LINE
  5
1694
330
1F
100
AcDbEntity
  8
SANINDUSA
100
AcDbLine
 10
4013.557979483453
 20
1627.065130737927
 30
0.0
 11
4013.945179191863
 21
1627.065130737927
 31
0.0
  0
LINE
  5
1695
330
1F
100
AcDbEntity
  8
SANINDUSA
100
AcDbLine
 10
4013.557979483453
 20
1627.053130737927
 30
0.0
 11
4013.945179191863
 21
1627.053130737927
 31
0.0
  0
LINE
  5
1696
330
1F
100
AcDbEntity
  8
SANINDUSA
100
AcDbLine
 10
4013.557979483453
 20
1627.053130737927
 30
0.0
 11
4013.557979483453
 21
1627.065130737927
 31
0.0
  0
LINE
  5
1697
330
1F
100
AcDbEntity
  8
SANINDUSA
100
AcDbLine
 10
4013.590479191862
 20
1627.044614280572
 30
0.0
 11
4013.591467449891
 21
1627.053030737927
 31
0.0
  0
LINE
  5
1698
330
1F
100
AcDbEntity
  8
SANINDUSA
100
AcDbLine
 10
4013.580490933834
 20
1627.053030737927
 30
0.0
 11
4013.581479191862
 21
1627.044614280572
 31
0.0
  0
ARC
  5
1699
330
1F
100
AcDbEntity
  8
SANINDUSA
100
AcDbCircle
 10
4013.593104193147
 20
1627.042114280059
 30
0.0
 40
0.0036250012835311
100
AcDbArc
 50
136.3971891430183
 51
223.6028108569817
  0
ARC
  5
169A
330
1F
100
AcDbEntity
  8
SANINDUSA
100
AcDbCircle
 10
4013.578854193147
 20
1627.042114281085
 30
0.0
 40
0.0036249987164691
100
AcDbArc
 50
316.3971729160626
 51
43.60282709292142
  0
POLYLINE
  5
169B
330
1F
100
AcDbEntity
  8
SANINDUSA
100
AcDb2dPolyline
 66
     1
 10
0.0
 20
0.0
 30
0.0
 70
     1
  0
VERTEX
  5
169C
330
169B
100
AcDbEntity
  8
SANINDUSA
100
AcDbVertex
100
AcDb2dVertex
 10
4013.595479191748
 20
1627.039114278405
 30
0.0
  0
VERTEX
  5
169D
330
169B
100
AcDbEntity
  8
SANINDUSA
100
AcDbVertex
100
AcDb2dVertex
 10
4013.594979191863
 20
1627.039614278519
 30
0.0
  0
VERTEX
  5
169E
330
169B
100
AcDbEntity
  8
SANINDUSA
100
AcDbVertex
100
AcDb2dVertex
 10
4013.576979191863
 20
1627.039614282625
 30
0.0
  0
VERTEX
  5
169F
330
169B
100
AcDbEntity
  8
SANINDUSA
100
AcDbVertex
100
AcDb2dVertex
 10
4013.576479191748
 20
1627.03911428274
 30
0.0
  0
VERTEX
  5
16A0
330
169B
100
AcDbEntity
  8
SANINDUSA
100
AcDbVertex
100
AcDb2dVertex
 10
4013.576479190837
 20
1627.03511428274
 30
0.0
  0
VERTEX
  5
16A1
330
169B
100
AcDbEntity
  8
SANINDUSA
100
AcDbVertex
100
AcDb2dVertex
 10
4013.576979190722
 20
1627.034614282625
 30
0.0
  0
VERTEX
  5
16A2
330
169B
100
AcDbEntity
  8
SANINDUSA
100
AcDbVertex
100
AcDb2dVertex
 10
4013.594979190722
 20
1627.034614278519
 30
0.0
  0
VERTEX
  5
16A3
330
169B
100
AcDbEntity
  8
SANINDUSA
100
AcDbVertex
100
AcDb2dVertex
 10
4013.595479190836
 20
1627.035114278404
 30
0.0
  0
SEQEND
  5
16A4
330
169B
100
AcDbEntity
  8
SANINDUSA
  0
LINE
  5
16A5
330
1F
100
AcDbEntity
  8
SANINDUSA
100
AcDbLine
 10
4013.581479191862
 20
1627.044614280572
 30
0.0
 11
4013.590479191862
 21
1627.044614280572
 31
0.0
  0
LINE
  5
16A6
330
1F
100
AcDbEntity
  8
SANINDUSA
100
AcDbLine
 10
4013.591979191862
 20
1627.066730737927
 30
0.0
 11
4013.591979191862
 21
1627.065230737927
 31
0.0
  0
LINE
  5
16A7
330
1F
100
AcDbEntity
  8
SANINDUSA
100
AcDbLine
 10
4013.589479191862
 20
1627.070230737927
 30
0.0
 11
4013.589479191862
 21
1627.067430737927
 31
0.0
  0
ARC
  5
16A8
330
1F
100
AcDbEntity
  8
SANINDUSA
100
AcDbCircle
 10
4013.590729191862
 20
1627.068432821261
 30
0.0
 40
0.001602083333332
100
AcDbArc
 50
218.7179883593476
 51
321.2820116508089
  0
ARC
  5
16A9
330
1F
100
AcDbEntity
  8
SANINDUSA
100
AcDbCircle
 10
4013.590729191862
 20
1627.069228654594
 30
0.0
 40
0.001602083333332
100
AcDbArc
 50
38.71798835934762
 51
141.2820116508089
  0
LINE
  5
16AA
330
1F
100
AcDbEntity
  8
SANINDUSA
100
AcDbLine
 10
4013.591979191862
 20
1627.070230737927
 30
0.0
 11
4013.591979191862
 21
1627.067430737927
 31
0.0
  0
LINE
  5
16AB
330
1F
100
AcDbEntity
  8
SANINDUSA
100
AcDbLine
 10
4013.589479191862
 20
1627.066830737927
 30
0.0
 11
4013.589479191862
 21
1627.066730737927
 31
0.0
  0
LINE
  5
16AC
330
1F
100
AcDbEntity
  8
SANINDUSA
100
AcDbLine
 10
4013.589479191862
 20
1627.065230737927
 30
0.0
 11
4013.589479191863
 21
1627.053030737927
 31
0.0
1001
ACAD
1000
ASC_BOUNDS
1002
{
1070
    19
1002
}
  0
ARC
  5
16AD
330
1F
100
AcDbEntity
  8
SANINDUSA
100
AcDbCircle
 10
4013.581229191862
 20
1627.069228654594
 30
0.0
 40
0.0016020833333333
100
AcDbArc
 50
38.71798835934762
 51
141.2820116508089
  0
LINE
  5
16AE
330
1F
100
AcDbEntity
  8
SANINDUSA
100
AcDbLine
 10
4013.582479191862
 20
1627.070230737927
 30
0.0
 11
4013.582479191862
 21
1627.067430737927
 31
0.0
  0
LINE
  5
16AF
330
1F
100
AcDbEntity
  8
SANINDUSA
100
AcDbLine
 10
4013.582479191862
 20
1627.066830737927
 30
0.0
 11
4013.582479191862
 21
1627.066730737927
 31
0.0
  0
LINE
  5
16B0
330
1F
100
AcDbEntity
  8
SANINDUSA
100
AcDbLine
 10
4013.579979191862
 20
1627.070230737927
 30
0.0
 11
4013.579979191862
 21
1627.067430737927
 31
0.0
  0
ARC
  5
16B1
330
1F
100
AcDbEntity
  8
SANINDUSA
100
AcDbCircle
 10
4013.581229191862
 20
1627.06843282126
 30
0.0
 40
0.0016020833333333
100
AcDbArc
 50
218.7179883593476
 51
321.2820116508089
  0
LINE
  5
16B2
330
1F
100
AcDbEntity
  8
SANINDUSA
100
AcDbLine
 10
4013.579979191862
 20
1627.066730737927
 30
0.0
 11
4013.579979191862
 21
1627.065230737927
 31
0.0
  0
LINE
  5
16B3
330
1F
100
AcDbEntity
  8
SANINDUSA
100
AcDbLine
 10
4013.582479191862
 20
1627.065230737927
 30
0.0
 11
4013.582479191863
 21
1627.053030737927
 31
0.0
1001
ACAD
1000
ASC_BOUNDS
1002
{
1070
    19
1002
}
  0
LINE
  5
16B4
330
1F
100
AcDbEntity
  8
SANINDUSA
100
AcDbLine
 10
4013.579979191862
 20
1627.065230737927
 30
0.0
 11
4013.591979191862
 21
1627.065230737927
 31
0.0
  0
LINE
  5
16B5
330
1F
100
AcDbEntity
  8
SANINDUSA
100
AcDbLine
 10
4013.579979191862
 20
1627.070230737927
 30
0.0
 11
4013.591979191862
 21
1627.070230737927
 31
0.0
  0
LINE
  5
16B6
330
1F
100
AcDbEntity
  8
SANINDUSA
100
AcDbLine
 10
4013.581229191862
 20
1627.070830737927
 30
0.0
 11
4013.590729191862
 21
1627.070830737927
 31
0.0
  0
ARC
  5
16B7
330
1F
100
AcDbEntity
  8
SANINDUSA
100
AcDbCircle
 10
4013.585979191862
 20
1627.060322404594
 30
0.0
 40
0.0105083333333802
100
AcDbArc
 50
70.54484289597303
 51
109.4551571040269
  0
LINE
  5
16B8
330
1F
100
AcDbEntity
  8
SANINDUSA
100
AcDbLine
 10
4013.579979191862
 20
1627.067430737927
 30
0.0
 11
4013.591979191862
 21
1627.067430737927
 31
0.0
  0
LINE
  5
16B9
330
1F
100
AcDbEntity
  8
SANINDUSA
100
AcDbLine
 10
4013.579979191862
 20
1627.066730737927
 30
0.0
 11
4013.591979191862
 21
1627.066730737927
 31
0.0
  0
LINE
  5
16BA
330
1F
100
AcDbEntity
  8
SANINDUSA
100
AcDbLine
 10
4013.581229191863
 20
1627.066830737927
 30
0.0
 11
4013.590729191862
 21
1627.066830737927
 31
0.0
  0
ARC
  5
16BB
330
1F
100
AcDbEntity
  8
SANINDUSA
100
AcDbCircle
 10
4013.585979191861
 20
1627.07733907126
 30
0.0
 40
0.0105083333333802
100
AcDbArc
 50
250.544842895973
 51
289.455157104027
  0
LINE
  5
16BC
330
1F
100
AcDbEntity
  8
SANINDUSA
100
AcDbLine
 10
4013.580490933834
 20
1627.053030737927
 30
0.0
 11
4013.591467449891
 21
1627.053030737927
 31
0.0
  0
LINE
  5
16BD
330
1F
100
AcDbEntity
  8
SANINDUSA
100
AcDbLine
 10
4013.912679191863
 20
1627.044614280572
 30
0.0
 11
4013.911690933834
 21
1627.053030737927
 31
0.0
  0
LINE
  5
16BE
330
1F
100
AcDbEntity
  8
SANINDUSA
100
AcDbLine
 10
4013.922667449891
 20
1627.053030737927
 30
0.0
 11
4013.921679191862
 21
1627.044614280572
 31
0.0
  0
POLYLINE
  5
16BF
330
1F
100
AcDbEntity
  8
SANINDUSA
100
AcDb2dPolyline
 66
     1
 10
0.0
 20
0.0
 30
0.0
 70
     1
  0
VERTEX
  5
16C0
330
16BF
100
AcDbEntity
  8
SANINDUSA
100
AcDbVertex
100
AcDb2dVertex
 10
4013.907679191976
 20
1627.039114278405
 30
0.0
  0
VERTEX
  5
16C1
330
16BF
100
AcDbEntity
  8
SANINDUSA
100
AcDbVertex
100
AcDb2dVertex
 10
4013.908179191862
 20
1627.039614278519
 30
0.0
  0
VERTEX
  5
16C2
330
16BF
100
AcDbEntity
  8
SANINDUSA
100
AcDbVertex
100
AcDb2dVertex
 10
4013.926179191862
 20
1627.039614282626
 30
0.0
  0
VERTEX
  5
16C3
330
16BF
100
AcDbEntity
  8
SANINDUSA
100
AcDbVertex
100
AcDb2dVertex
 10
4013.926679191976
 20
1627.03911428274
 30
0.0
  0
VERTEX
  5
16C4
330
16BF
100
AcDbEntity
  8
SANINDUSA
100
AcDbVertex
100
AcDb2dVertex
 10
4013.926679192889
 20
1627.03511428274
 30
0.0
  0
VERTEX
  5
16C5
330
16BF
100
AcDbEntity
  8
SANINDUSA
100
AcDbVertex
100
AcDb2dVertex
 10
4013.926179193003
 20
1627.034614282625
 30
0.0
  0
VERTEX
  5
16C6
330
16BF
100
AcDbEntity
  8
SANINDUSA
100
AcDbVertex
100
AcDb2dVertex
 10
4013.908179193003
 20
1627.034614278519
 30
0.0
  0
VERTEX
  5
16C7
330
16BF
100
AcDbEntity
  8
SANINDUSA
100
AcDbVertex
100
AcDb2dVertex
 10
4013.907679192889
 20
1627.035114278404
 30
0.0
  0
SEQEND
  5
16C8
330
16BF
100
AcDbEntity
  8
SANINDUSA
  0
ARC
  5
16C9
330
1F
100
AcDbEntity
  8
SANINDUSA
100
AcDbCircle
 10
4013.924304190578
 20
1627.042114281086
 30
0.0
 40
0.0036249987164691
100
AcDbArc
 50
136.3971729070786
 51
223.6028270839373
  0
ARC
  5
16CA
330
1F
100
AcDbEntity
  8
SANINDUSA
100
AcDbCircle
 10
4013.910054190579
 20
1627.042114280059
 30
0.0
 40
0.0036250012835311
100
AcDbArc
 50
316.3971891430183
 51
43.60281085698168
  0
LINE
  5
16CB
330
1F
100
AcDbEntity
  8
SANINDUSA
100
AcDbLine
 10
4013.921679191862
 20
1627.044614280572
 30
0.0
 11
4013.912679191863
 21
1627.044614280572
 31
0.0
  0
LINE
  5
16CC
330
1F
100
AcDbEntity
  8
SANINDUSA
100
AcDbLine
 10
4013.923179191863
 20
1627.066730737927
 30
0.0
 11
4013.923179191862
 21
1627.065230737927
 31
0.0
  0
ARC
  5
16CD
330
1F
100
AcDbEntity
  8
SANINDUSA
100
AcDbCircle
 10
4013.921929191863
 20
1627.06843282126
 30
0.0
 40
0.0016020833333333
100
AcDbArc
 50
218.7179883491911
 51
321.2820116406523
  0
LINE
  5
16CE
330
1F
100
AcDbEntity
  8
SANINDUSA
100
AcDbLine
 10
4013.923179191863
 20
1627.070230737927
 30
0.0
 11
4013.923179191863
 21
1627.067430737927
 31
0.0
  0
LINE
  5
16CF
330
1F
100
AcDbEntity
  8
SANINDUSA
100
AcDbLine
 10
4013.920679191863
 20
1627.066830737927
 30
0.0
 11
4013.920679191863
 21
1627.066730737927
 31
0.0
  0
LINE
  5
16D0
330
1F
100
AcDbEntity
  8
SANINDUSA
100
AcDbLine
 10
4013.913679191863
 20
1627.066830737927
 30
0.0
 11
4013.913679191863
 21
1627.066730737927
 31
0.0
  0
LINE
  5
16D1
330
1F
100
AcDbEntity
  8
SANINDUSA
100
AcDbLine
 10
4013.920679191863
 20
1627.070230737927
 30
0.0
 11
4013.920679191863
 21
1627.067430737927
 31
0.0
  0
ARC
  5
16D2
330
1F
100
AcDbEntity
  8
SANINDUSA
100
AcDbCircle
 10
4013.917179191863
 20
1627.07733907126
 30
0.0
 40
0.0105083333333802
100
AcDbArc
 50
250.544842895973
 51
289.455157104027
  0
ARC
  5
16D3
330
1F
100
AcDbEntity
  8
SANINDUSA
100
AcDbCircle
 10
4013.921929191863
 20
1627.069228654594
 30
0.0
 40
0.0016020833333333
100
AcDbArc
 50
38.71798834919108
 51
141.2820116406523
  0
LINE
  5
16D4
330
1F
100
AcDbEntity
  8
SANINDUSA
100
AcDbLine
 10
4013.921929191863
 20
1627.066830737927
 30
0.0
 11
4013.912429191863
 21
1627.066830737927
 31
0.0
  0
LINE
  5
16D5
330
1F
100
AcDbEntity
  8
SANINDUSA
100
AcDbLine
 10
4013.911179191863
 20
1627.070230737927
 30
0.0
 11
4013.911179191863
 21
1627.067430737927
 31
0.0
  0
ARC
  5
16D6
330
1F
100
AcDbEntity
  8
SANINDUSA
100
AcDbCircle
 10
4013.912429191863
 20
1627.069228654594
 30
0.0
 40
0.001602083333332
100
AcDbArc
 50
38.71798834919108
 51
141.2820116406523
  0
ARC
  5
16D7
330
1F
100
AcDbEntity
  8
SANINDUSA
100
AcDbCircle
 10
4013.912429191863
 20
1627.068432821261
 30
0.0
 40
0.001602083333332
100
AcDbArc
 50
218.7179883491911
 51
321.2820116406523
  0
LINE
  5
16D8
330
1F
100
AcDbEntity
  8
SANINDUSA
100
AcDbLine
 10
4013.923179191863
 20
1627.066730737927
 30
0.0
 11
4013.911179191863
 21
1627.066730737927
 31
0.0
  0
LINE
  5
16D9
330
1F
100
AcDbEntity
  8
SANINDUSA
100
AcDbLine
 10
4013.923179191863
 20
1627.067430737927
 30
0.0
 11
4013.911179191863
 21
1627.067430737927
 31
0.0
  0
LINE
  5
16DA
330
1F
100
AcDbEntity
  8
SANINDUSA
100
AcDbLine
 10
4013.913679191864
 20
1627.070230737927
 30
0.0
 11
4013.913679191863
 21
1627.067430737927
 31
0.0
  0
ARC
  5
16DB
330
1F
100
AcDbEntity
  8
SANINDUSA
100
AcDbCircle
 10
4013.917179191863
 20
1627.060322404594
 30
0.0
 40
0.0105083333333802
100
AcDbArc
 50
70.54484289597303
 51
109.4551571040269
  0
LINE
  5
16DC
330
1F
100
AcDbEntity
  8
SANINDUSA
100
AcDbLine
 10
4013.921929191863
 20
1627.070830737927
 30
0.0
 11
4013.912429191863
 21
1627.070830737927
 31
0.0
  0
LINE
  5
16DD
330
1F
100
AcDbEntity
  8
SANINDUSA
100
AcDbLine
 10
4013.923179191863
 20
1627.070230737927
 30
0.0
 11
4013.911179191863
 21
1627.070230737927
 31
0.0
  0
LINE
  5
16DE
330
1F
100
AcDbEntity
  8
SANINDUSA
100
AcDbLine
 10
4013.923179191862
 20
1627.065230737927
 30
0.0
 11
4013.911179191863
 21
1627.065230737927
 31
0.0
  0
LINE
  5
16DF
330
1F
100
AcDbEntity
  8
SANINDUSA
100
AcDbLine
 10
4013.911179191863
 20
1627.066730737927
 30
0.0
 11
4013.911179191863
 21
1627.065230737927
 31
0.0
  0
LINE
  5
16E0
330
1F
100
AcDbEntity
  8
SANINDUSA
100
AcDbLine
 10
4013.922667449891
 20
1627.053030737927
 30
0.0
 11
4013.911690933834
 21
1627.053030737927
 31
0.0
  0
LINE
  5
16E1
330
1F
100
AcDbEntity
  8
SANINDUSA
100
AcDbLine
 10
4013.920679191863
 20
1627.065230737927
 30
0.0
 11
4013.920679191863
 21
1627.053030737927
 31
0.0
1001
ACAD
1000
ASC_BOUNDS
1002
{
1070
    19
1002
}
  0
LINE
  5
16E2
330
1F
100
AcDbEntity
  8
SANINDUSA
100
AcDbLine
 10
4013.913679191863
 20
1627.065230737927
 30
0.0
 11
4013.913679191863
 21
1627.053030737927
 31
0.0
1001
ACAD
1000
ASC_BOUNDS
1002
{
1070
    19
1002
}
  0
POLYLINE
  5
16E3
330
1F
100
AcDbEntity
  8
SANINDUSA
100
AcDb2dPolyline
 66
     1
 10
0.0
 20
0.0
 30
0.0
  0
VERTEX
  5
16E4
330
16E3
100
AcDbEntity
  8
SANINDUSA
100
AcDbVertex
100
AcDb2dVertex
 10
4013.961870374892
 20
1627.054810051228
 30
0.0
  0
VERTEX
  5
16E5
330
16E3
100
AcDbEntity
  8
SANINDUSA
100
AcDbVertex
100
AcDb2dVertex
 10
4013.95642312068
 20
1627.054809880226
 30
0.0
 42
0.4142135623725959
  0
VERTEX
  5
16E6
330
16E3
100
AcDbEntity
  8
SANINDUSA
100
AcDbVertex
100
AcDb2dVertex
 10
4013.956223126958
 20
1627.054609873947
 30
0.0
  0
VERTEX
  5
16E7
330
16E3
100
AcDbEntity
  8
SANINDUSA
100
AcDbVertex
100
AcDb2dVertex
 10
4013.956223139516
 20
1627.054209841096
 30
0.0
 42
0.4142135623730951
  0
VERTEX
  5
16E8
330
16E3
100
AcDbEntity
  8
SANINDUSA
100
AcDbVertex
100
AcDb2dVertex
 10
4013.956423145795
 20
1627.054009847375
 30
0.0
  0
VERTEX
  5
16E9
330
16E3
100
AcDbEntity
  8
SANINDUSA
100
AcDbVertex
100
AcDb2dVertex
 10
4013.958159724807
 20
1627.05400990189
 30
0.0
 42
-0.4142135623730951
  0
VERTEX
  5
16EA
330
16E3
100
AcDbEntity
  8
SANINDUSA
100
AcDbVertex
100
AcDb2dVertex
 10
4013.958359731084
 20
1627.053809908169
 30
0.0
  0
VERTEX
  5
16EB
330
16E3
100
AcDbEntity
  8
SANINDUSA
100
AcDbVertex
100
AcDb2dVertex
 10
4013.95835975513
 20
1627.053043965349
 30
0.0
 42
-0.1943803091380277
  0
VERTEX
  5
16EC
330
16E3
100
AcDbEntity
  8
SANINDUSA
100
AcDbVertex
100
AcDb2dVertex
 10
4013.958303627451
 20
1627.052905031913
 30
0.0
  0
VERTEX
  5
16ED
330
16E3
100
AcDbEntity
  8
SANINDUSA
100
AcDbVertex
100
AcDb2dVertex
 10
4013.95061792808
 20
1627.044945757219
 30
0.0
 42
0.9826972631155188
  0
VERTEX
  5
16EE
330
16E3
100
AcDbEntity
  8
SANINDUSA
100
AcDbVertex
100
AcDb2dVertex
 10
4013.951049610128
 20
1627.044514102274
 30
0.0
  0
VERTEX
  5
16EF
330
16E3
100
AcDbEntity
  8
SANINDUSA
100
AcDbVertex
100
AcDb2dVertex
 10
4013.960005733408
 20
1627.053163473354
 30
0.0
 42
0.2034522994238806
  0
VERTEX
  5
16F0
330
16E3
100
AcDbEntity
  8
SANINDUSA
100
AcDbVertex
100
AcDb2dVertex
 10
4013.960066797217
 20
1627.053307343231
 30
0.0
  0
VERTEX
  5
16F1
330
16E3
100
AcDbEntity
  8
SANINDUSA
100
AcDbVertex
100
AcDb2dVertex
 10
4013.960066781437
 20
1627.05381002746
 30
0.0
 42
-0.4142135623730951
  0
VERTEX
  5
16F2
330
16E3
100
AcDbEntity
  8
SANINDUSA
100
AcDbVertex
100
AcDb2dVertex
 10
4013.960266775158
 20
1627.054010033739
 30
0.0
  0
VERTEX
  5
16F3
330
16E3
100
AcDbEntity
  8
SANINDUSA
100
AcDbVertex
100
AcDb2dVertex
 10
4013.961230196144
 20
1627.054010063982
 30
0.0
 42
0.0325821046079315
  0
VERTEX
  5
16F4
330
16E3
100
AcDbEntity
  8
SANINDUSA
100
AcDbVertex
100
AcDb2dVertex
 10
4013.961892756618
 20
1627.054053305983
 30
0.0
 42
0.3765495638223387
  0
VERTEX
  5
16F5
330
16E3
100
AcDbEntity
  8
SANINDUSA
100
AcDbVertex
100
AcDb2dVertex
 10
4013.962066767575
 20
1627.054251616497
 30
0.0
  0
VERTEX
  5
16F6
330
16E3
100
AcDbEntity
  8
SANINDUSA
100
AcDbVertex
100
AcDb2dVertex
 10
4013.962066756322
 20
1627.054610090245
 30
0.0
 42
0.4142135623730951
  0
VERTEX
  5
16F7
330
16E3
100
AcDbEntity
  8
SANINDUSA
100
AcDbVertex
100
AcDb2dVertex
 10
4013.961866750043
 20
1627.054810083966
 30
0.0
  0
SEQEND
  5
16F8
330
16E3
100
AcDbEntity
  8
SANINDUSA
  0
POLYLINE
  5
16F9
330
1F
100
AcDbEntity
  8
SANINDUSA
100
AcDb2dPolyline
 66
     1
 10
0.0
 20
0.0
 30
0.0
 70
     1
  0
VERTEX
  5
16FA
330
16F9
100
AcDbEntity
  8
SANINDUSA
100
AcDbVertex
100
AcDb2dVertex
 10
4013.961915451378
 20
1627.05571443093
 30
0.0
 42
-0.4142135623729619
  0
VERTEX
  5
16FB
330
16F9
100
AcDbEntity
  8
SANINDUSA
100
AcDbVertex
100
AcDb2dVertex
 10
4013.96291548277
 20
1627.054714462323
 30
0.0
  0
VERTEX
  5
16FC
330
16F9
100
AcDbEntity
  8
SANINDUSA
100
AcDbVertex
100
AcDb2dVertex
 10
4013.962915484551
 20
1627.054657743135
 30
0.0
 42
0.5461174401556712
  0
VERTEX
  5
16FD
330
16F9
100
AcDbEntity
  8
SANINDUSA
100
AcDbVertex
100
AcDb2dVertex
 10
4013.963340181628
 20
1627.054384896108
 30
0.0
 42
0.2409586185726194
  0
VERTEX
  5
16FE
330
16F9
100
AcDbEntity
  8
SANINDUSA
100
AcDbVertex
100
AcDb2dVertex
 10
4013.966278872205
 20
1627.058100055258
 30
0.0
 42
0.2504808541652698
  0
VERTEX
  5
16FF
330
16F9
100
AcDbEntity
  8
SANINDUSA
100
AcDbVertex
100
AcDb2dVertex
 10
4013.966142030713
 20
1627.058551142539
 30
0.0
  0
VERTEX
  5
1700
330
16F9
100
AcDbEntity
  8
SANINDUSA
100
AcDbVertex
100
AcDb2dVertex
 10
4013.965720186803
 20
1627.058972986449
 30
0.0
 42
-0.4142135623730951
  0
VERTEX
  5
1701
330
16F9
100
AcDbEntity
  8
SANINDUSA
100
AcDbVertex
100
AcDb2dVertex
 10
4013.965720186803
 20
1627.059255829161
 30
0.0
  0
VERTEX
  5
1702
330
16F9
100
AcDbEntity
  8
SANINDUSA
100
AcDbVertex
100
AcDb2dVertex
 10
4013.966142030862
 20
1627.059677673219
 30
0.0
 42
0.2504808671429759
  0
VERTEX
  5
1703
330
16F9
100
AcDbEntity
  8
SANINDUSA
100
AcDbVertex
100
AcDb2dVertex
 10
4013.966278872347
 20
1627.060128760525
 30
0.0
 42
0.3578210409310957
  0
VERTEX
  5
1704
330
16F9
100
AcDbEntity
  8
SANINDUSA
100
AcDbVertex
100
AcDb2dVertex
 10
4013.96117860239
 20
1627.064314407803
 30
0.0
  0
VERTEX
  5
1705
330
16F9
100
AcDbEntity
  8
SANINDUSA
100
AcDbVertex
100
AcDb2dVertex
 10
4013.946178597012
 20
1627.06431394017
 30
0.0
 42
0.4142135623730951
  0
VERTEX
  5
1706
330
16F9
100
AcDbEntity
  8
SANINDUSA
100
AcDbVertex
100
AcDb2dVertex
 10
4013.945978608677
 20
1627.064113928507
 30
0.0
  0
VERTEX
  5
1707
330
16F9
100
AcDbEntity
  8
SANINDUSA
100
AcDbVertex
100
AcDb2dVertex
 10
4013.945978710373
 20
1627.062370126125
 30
0.0
 42
0.4141794006486556
  0
VERTEX
  5
1708
330
16F9
100
AcDbEntity
  8
SANINDUSA
100
AcDbVertex
100
AcDb2dVertex
 10
4013.946178698708
 20
1627.062170137788
 30
0.0
  0
VERTEX
  5
1709
330
16F9
100
AcDbEntity
  8
SANINDUSA
100
AcDbVertex
100
AcDb2dVertex
 10
4013.951979384645
 20
1627.062169799502
 30
0.0
 42
-0.4141964814074665
  0
VERTEX
  5
170A
330
16F9
100
AcDbEntity
  8
SANINDUSA
100
AcDbVertex
100
AcDb2dVertex
 10
4013.952979326328
 20
1627.061169799503
 30
0.0
  0
VERTEX
  5
170B
330
16F9
100
AcDbEntity
  8
SANINDUSA
100
AcDbVertex
100
AcDb2dVertex
 10
4013.952979326328
 20
1627.05707034933
 30
0.0
 42
-0.4141964814075477
  0
VERTEX
  5
170C
330
16F9
100
AcDbEntity
  8
SANINDUSA
100
AcDbVertex
100
AcDb2dVertex
 10
4013.951979384645
 20
1627.056070349332
 30
0.0
  0
VERTEX
  5
170D
330
16F9
100
AcDbEntity
  8
SANINDUSA
100
AcDbVertex
100
AcDb2dVertex
 10
4013.946178698708
 20
1627.056070011045
 30
0.0
 42
0.4141794006486554
  0
VERTEX
  5
170E
330
16F9
100
AcDbEntity
  8
SANINDUSA
100
AcDbVertex
100
AcDb2dVertex
 10
4013.945978710373
 20
1627.055870022709
 30
0.0
  0
VERTEX
  5
170F
330
16F9
100
AcDbEntity
  8
SANINDUSA
100
AcDbVertex
100
AcDb2dVertex
 10
4013.945978608677
 20
1627.054126220326
 30
0.0
 42
0.4142135623730951
  0
VERTEX
  5
1710
330
16F9
100
AcDbEntity
  8
SANINDUSA
100
AcDbVertex
100
AcDb2dVertex
 10
4013.946178597012
 20
1627.053926208663
 30
0.0
  0
VERTEX
  5
1711
330
16F9
100
AcDbEntity
  8
SANINDUSA
100
AcDbVertex
100
AcDb2dVertex
 10
4013.955171872517
 20
1627.053926208663
 30
0.0
 42
0.4142227570402988
  0
VERTEX
  5
1712
330
16F9
100
AcDbEntity
  8
SANINDUSA
100
AcDbVertex
100
AcDb2dVertex
 10
4013.955371872517
 20
1627.054126214942
 30
0.0
  0
VERTEX
  5
1713
330
16F9
100
AcDbEntity
  8
SANINDUSA
100
AcDbVertex
100
AcDb2dVertex
 10
4013.955371857199
 20
1627.054614156668
 30
0.0
 42
-0.4142135623730951
  0
VERTEX
  5
1714
330
16F9
100
AcDbEntity
  8
SANINDUSA
100
AcDbVertex
100
AcDb2dVertex
 10
4013.956471822667
 20
1627.055714191199
 30
0.0
  0
SEQEND
  5
1715
330
16F9
100
AcDbEntity
  8
SANINDUSA
  0
POLYLINE
  5
1716
330
1F
100
AcDbEntity
  8
SANINDUSA
100
AcDb2dPolyline
 66
     1
 10
0.0
 20
0.0
 30
0.0
  0
VERTEX
  5
1717
330
1716
100
AcDbEntity
  8
SANINDUSA
100
AcDbVertex
100
AcDb2dVertex
 10
4013.958014909845
 20
1627.053114308481
 30
0.0
  0
VERTEX
  5
1718
330
1716
100
AcDbEntity
  8
SANINDUSA
100
AcDbVertex
100
AcDb2dVertex
 10
4013.946179223252
 20
1627.05311393693
 30
0.0
 42
-0.4142056759633454
  0
VERTEX
  5
1719
330
1716
100
AcDbEntity
  8
SANINDUSA
100
AcDbVertex
100
AcDb2dVertex
 10
4013.945179191863
 20
1627.054113878611
 30
0.0
  0
VERTEX
  5
171A
330
1716
100
AcDbEntity
  8
SANINDUSA
100
AcDbVertex
100
AcDb2dVertex
 10
4013.945179089448
 20
1627.055870004435
 30
0.0
 42
-0.4142306435449703
  0
VERTEX
  5
171B
330
1716
100
AcDbEntity
  8
SANINDUSA
100
AcDbVertex
100
AcDb2dVertex
 10
4013.946179089447
 20
1627.056870062753
 30
0.0
  0
VERTEX
  5
171C
330
1716
100
AcDbEntity
  8
SANINDUSA
100
AcDbVertex
100
AcDb2dVertex
 10
4013.947773550976
 20
1627.056870062753
 30
0.0
 42
0.2881936776522669
  0
VERTEX
  5
171D
330
1716
100
AcDbEntity
  8
SANINDUSA
100
AcDbVertex
100
AcDb2dVertex
 10
4013.947953776353
 20
1627.056983351658
 30
0.0
 42
-0.6285957498500262
  0
VERTEX
  5
171E
330
1716
100
AcDbEntity
  8
SANINDUSA
100
AcDbVertex
100
AcDb2dVertex
 10
4013.948404339792
 20
1627.056983351658
 30
0.0
 42
0.2881936776522143
  0
VERTEX
  5
171F
330
1716
100
AcDbEntity
  8
SANINDUSA
100
AcDbVertex
100
AcDb2dVertex
 10
4013.948584565167
 20
1627.056870062753
 30
0.0
  0
VERTEX
  5
1720
330
1716
100
AcDbEntity
  8
SANINDUSA
100
AcDbVertex
100
AcDb2dVertex
 10
4013.950773549721
 20
1627.056870062753
 30
0.0
 42
0.2881936776520399
  0
VERTEX
  5
1721
330
1716
100
AcDbEntity
  8
SANINDUSA
100
AcDbVertex
100
AcDb2dVertex
 10
4013.950953775096
 20
1627.056983351658
 30
0.0
 42
-0.6285957498500262
  0
VERTEX
  5
1722
330
1716
100
AcDbEntity
  8
SANINDUSA
100
AcDbVertex
100
AcDb2dVertex
 10
4013.951404338535
 20
1627.056983351658
 30
0.0
 42
0.2881936776522668
  0
VERTEX
  5
1723
330
1716
100
AcDbEntity
  8
SANINDUSA
100
AcDbVertex
100
AcDb2dVertex
 10
4013.951584563911
 20
1627.056870062753
 30
0.0
  0
VERTEX
  5
1724
330
1716
100
AcDbEntity
  8
SANINDUSA
100
AcDbVertex
100
AcDb2dVertex
 10
4013.951979311416
 20
1627.056870062753
 30
0.0
 42
0.4142306435457696
  0
VERTEX
  5
1725
330
1716
100
AcDbEntity
  8
SANINDUSA
100
AcDbVertex
100
AcDb2dVertex
 10
4013.952179311416
 20
1627.057070074416
 30
0.0
  0
VERTEX
  5
1726
330
1716
100
AcDbEntity
  8
SANINDUSA
100
AcDbVertex
100
AcDb2dVertex
 10
4013.95217907231
 20
1627.061170074417
 30
0.0
 42
0.4141964814077272
  0
VERTEX
  5
1727
330
1716
100
AcDbEntity
  8
SANINDUSA
100
AcDbVertex
100
AcDb2dVertex
 10
4013.95197907231
 20
1627.061370062753
 30
0.0
  0
VERTEX
  5
1728
330
1716
100
AcDbEntity
  8
SANINDUSA
100
AcDbVertex
100
AcDb2dVertex
 10
4013.951582169704
 20
1627.061370062753
 30
0.0
 42
0.2849150464410597
  0
VERTEX
  5
1729
330
1716
100
AcDbEntity
  8
SANINDUSA
100
AcDbVertex
100
AcDb2dVertex
 10
4013.95140300842
 20
1627.061258951642
 30
0.0
 42
-0.6201736729456835
  0
VERTEX
  5
172A
330
1716
100
AcDbEntity
  8
SANINDUSA
100
AcDbVertex
100
AcDb2dVertex
 10
4013.950955105212
 20
1627.061258951642
 30
0.0
 42
0.2849150464419475
  0
VERTEX
  5
172B
330
1716
100
AcDbEntity
  8
SANINDUSA
100
AcDbVertex
100
AcDb2dVertex
 10
4013.950775943928
 20
1627.061370062753
 30
0.0
  0
VERTEX
  5
172C
330
1716
100
AcDbEntity
  8
SANINDUSA
100
AcDbVertex
100
AcDb2dVertex
 10
4013.94858217096
 20
1627.061370062753
 30
0.0
 42
0.2849150464410597
  0
VERTEX
  5
172D
330
1716
100
AcDbEntity
  8
SANINDUSA
100
AcDbVertex
100
AcDb2dVertex
 10
4013.948403009677
 20
1627.061258951642
 30
0.0
 42
-0.6201736729456835
  0
VERTEX
  5
172E
330
1716
100
AcDbEntity
  8
SANINDUSA
100
AcDbVertex
100
AcDb2dVertex
 10
4013.947955106469
 20
1627.061258951642
 30
0.0
 42
0.284915046441397
  0
VERTEX
  5
172F
330
1716
100
AcDbEntity
  8
SANINDUSA
100
AcDbVertex
100
AcDb2dVertex
 10
4013.947775945186
 20
1627.061370062753
 30
0.0
  0
VERTEX
  5
1730
330
1716
100
AcDbEntity
  8
SANINDUSA
100
AcDbVertex
100
AcDb2dVertex
 10
4013.946178710376
 20
1627.061370062753
 30
0.0
 42
-0.4141964814073941
  0
VERTEX
  5
1731
330
1716
100
AcDbEntity
  8
SANINDUSA
100
AcDbVertex
100
AcDb2dVertex
 10
4013.945178710378
 20
1627.062370004434
 30
0.0
  0
VERTEX
  5
1732
330
1716
100
AcDbEntity
  8
SANINDUSA
100
AcDbVertex
100
AcDb2dVertex
 10
4013.945178608678
 20
1627.064113878597
 30
0.0
 42
-0.4142214488268239
  0
VERTEX
  5
1733
330
1716
100
AcDbEntity
  8
SANINDUSA
100
AcDbVertex
100
AcDb2dVertex
 10
4013.946178577284
 20
1627.065113936916
 30
0.0
  0
VERTEX
  5
1734
330
1716
100
AcDbEntity
  8
SANINDUSA
100
AcDbVertex
100
AcDb2dVertex
 10
4013.961178577277
 20
1627.065114407802
 30
0.0
 42
-0.3653825997089465
  0
VERTEX
  5
1735
330
1716
100
AcDbEntity
  8
SANINDUSA
100
AcDbVertex
100
AcDb2dVertex
 10
4013.96709270208
 20
1627.060127006196
 30
0.0
 42
-0.243385931735339
  0
VERTEX
  5
1736
330
1716
100
AcDbEntity
  8
SANINDUSA
100
AcDbVertex
100
AcDb2dVertex
 10
4013.966953427433
 20
1627.059689069606
 30
0.0
  0
VERTEX
  5
1737
330
1716
100
AcDbEntity
  8
SANINDUSA
100
AcDbVertex
100
AcDb2dVertex
 10
4013.966520186988
 20
1627.05925582916
 30
0.0
 42
0.4142135623730951
  0
VERTEX
  5
1738
330
1716
100
AcDbEntity
  8
SANINDUSA
100
AcDbVertex
100
AcDb2dVertex
 10
4013.966520186988
 20
1627.058972986448
 30
0.0
  0
VERTEX
  5
1739
330
1716
100
AcDbEntity
  8
SANINDUSA
100
AcDbVertex
100
AcDb2dVertex
 10
4013.966953427432
 20
1627.058539746005
 30
0.0
 42
-0.243385932516115
  0
VERTEX
  5
173A
330
1716
100
AcDbEntity
  8
SANINDUSA
100
AcDbVertex
100
AcDb2dVertex
 10
4013.96709270208
 20
1627.058101809415
 30
0.0
 42
-0.3653648080399314
  0
VERTEX
  5
173B
330
1716
100
AcDbEntity
  8
SANINDUSA
100
AcDbVertex
100
AcDb2dVertex
 10
4013.961178953986
 20
1627.053114407808
 30
0.0
  0
VERTEX
  5
173C
330
1716
100
AcDbEntity
  8
SANINDUSA
100
AcDbVertex
100
AcDb2dVertex
 10
4013.960415532999
 20
1627.053114383843
 30
0.0
 42
-0.4142135623730951
  0
VERTEX
  5
173D
330
1716
100
AcDbEntity
  8
SANINDUSA
100
AcDbVertex
100
AcDb2dVertex
 10
4013.960115523582
 20
1627.053414374425
 30
0.0
  0
VERTEX
  5
173E
330
1716
100
AcDbEntity
  8
SANINDUSA
100
AcDbVertex
100
AcDb2dVertex
 10
4013.960115517304
 20
1627.053614374425
 30
0.0
 42
-0.4142135623730951
  0
VERTEX
  5
173F
330
1716
100
AcDbEntity
  8
SANINDUSA
100
AcDbVertex
100
AcDb2dVertex
 10
4013.960415507886
 20
1627.053914383842
 30
0.0
  0
VERTEX
  5
1740
330
1716
100
AcDbEntity
  8
SANINDUSA
100
AcDbVertex
100
AcDb2dVertex
 10
4013.961178928872
 20
1627.053914407808
 30
0.0
 42
0.0325821046079382
  0
VERTEX
  5
1741
330
1716
100
AcDbEntity
  8
SANINDUSA
100
AcDbVertex
100
AcDb2dVertex
 10
4013.961854480727
 20
1627.053958497691
 30
0.0
 42
0.3765495638224707
  0
VERTEX
  5
1742
330
1716
100
AcDbEntity
  8
SANINDUSA
100
AcDbVertex
100
AcDb2dVertex
 10
4013.962115497164
 20
1627.054255963461
 30
0.0
  0
VERTEX
  5
1743
330
1716
100
AcDbEntity
  8
SANINDUSA
100
AcDbVertex
100
AcDb2dVertex
 10
4013.96211548591
 20
1627.054614437209
 30
0.0
 42
0.4142135623735391
  0
VERTEX
  5
1744
330
1716
100
AcDbEntity
  8
SANINDUSA
100
AcDbVertex
100
AcDb2dVertex
 10
4013.961815476493
 20
1627.054914427791
 30
0.0
  0
VERTEX
  5
1745
330
1716
100
AcDbEntity
  8
SANINDUSA
100
AcDbVertex
100
AcDb2dVertex
 10
4013.956471847781
 20
1627.054914191199
 30
0.0
 42
0.4142135623730951
  0
VERTEX
  5
1746
330
1716
100
AcDbEntity
  8
SANINDUSA
100
AcDbVertex
100
AcDb2dVertex
 10
4013.956171857199
 20
1627.054614181782
 30
0.0
  0
VERTEX
  5
1747
330
1716
100
AcDbEntity
  8
SANINDUSA
100
AcDbVertex
100
AcDb2dVertex
 10
4013.956171869756
 20
1627.054214181782
 30
0.0
 42
0.4142135623730951
  0
VERTEX
  5
1748
330
1716
100
AcDbEntity
  8
SANINDUSA
100
AcDbVertex
100
AcDb2dVertex
 10
4013.956471879174
 20
1627.0539141912
 30
0.0
  0
VERTEX
  5
1749
330
1716
100
AcDbEntity
  8
SANINDUSA
100
AcDbVertex
100
AcDb2dVertex
 10
4013.958008458186
 20
1627.053914239437
 30
0.0
 42
-0.4142135623735391
  0
VERTEX
  5
174A
330
1716
100
AcDbEntity
  8
SANINDUSA
100
AcDbVertex
100
AcDb2dVertex
 10
4013.958308467604
 20
1627.053614248855
 30
0.0
  0
VERTEX
  5
174B
330
1716
100
AcDbEntity
  8
SANINDUSA
100
AcDbVertex
100
AcDb2dVertex
 10
4013.958308473882
 20
1627.053414248855
 30
0.0
 42
-0.4142135623726511
  0
VERTEX
  5
174C
330
1716
100
AcDbEntity
  8
SANINDUSA
100
AcDbVertex
100
AcDb2dVertex
 10
4013.958008483299
 20
1627.053114239437
 30
0.0
  0
SEQEND
  5
174D
330
1716
100
AcDbEntity
  8
SANINDUSA
  0
LINE
  5
174E
330
1F
100
AcDbEntity
  8
SANINDUSA
100
AcDbLine
 10
4013.945179191863
 20
1627.05311393693
 30
0.0
 11
4013.945179191863
 21
1627.065130737927
 31
0.0
  0
LINE
  5
174F
330
1F
100
AcDbEntity
  8
SANINDUSA
100
AcDbLine
 10
4013.511663202693
 20
1627.866228324435
 30
0.0
 11
4013.511663202693
 21
1627.864428324435
 31
0.0
  0
POLYLINE
  5
1750
330
1F
100
AcDbEntity
  8
SANINDUSA
100
AcDb2dPolyline
 66
     1
 10
0.0
 20
0.0
 30
0.0
 70
     1
  0
VERTEX
  5
1751
330
1750
100
AcDbEntity
  8
SANINDUSA
100
AcDbVertex
100
AcDb2dVertex
 10
4014.340895298972
 20
1627.034058794479
 30
0.0
 42
-0.2881936776524728
  0
VERTEX
  5
1752
330
1750
100
AcDbEntity
  8
SANINDUSA
100
AcDbVertex
100
AcDb2dVertex
 10
4014.341075524348
 20
1627.034172083384
 30
0.0
  0
VERTEX
  5
1753
330
1750
100
AcDbEntity
  8
SANINDUSA
100
AcDbVertex
100
AcDb2dVertex
 10
4014.341469569115
 20
1627.034172083384
 30
0.0
 42
-0.4142361536442981
  0
VERTEX
  5
1754
330
1750
100
AcDbEntity
  8
SANINDUSA
100
AcDbVertex
100
AcDb2dVertex
 10
4014.341669569114
 20
1627.033972067958
 30
0.0
  0
VERTEX
  5
1755
330
1750
100
AcDbEntity
  8
SANINDUSA
100
AcDbVertex
100
AcDb2dVertex
 10
4014.341669330009
 20
1627.030872067958
 30
0.0
 42
-0.4141909714629004
  0
VERTEX
  5
1756
330
1750
100
AcDbEntity
  8
SANINDUSA
100
AcDbVertex
100
AcDb2dVertex
 10
4014.341469330009
 20
1627.030672083384
 30
0.0
  0
VERTEX
  5
1757
330
1750
100
AcDbEntity
  8
SANINDUSA
100
AcDbVertex
100
AcDb2dVertex
 10
4014.341073130139
 20
1627.030672083384
 30
0.0
 42
-0.2849150464417384
  0
VERTEX
  5
1758
330
1750
100
AcDbEntity
  8
SANINDUSA
100
AcDbVertex
100
AcDb2dVertex
 10
4014.340893968856
 20
1627.030783194495
 30
0.0
 42
0.6201736729454037
  0
VERTEX
  5
1759
330
1750
100
AcDbEntity
  8
SANINDUSA
100
AcDbVertex
100
AcDb2dVertex
 10
4014.340446065648
 20
1627.030783194495
 30
0.0
 42
-0.2849150464416744
  0
VERTEX
  5
175A
330
1750
100
AcDbEntity
  8
SANINDUSA
100
AcDbVertex
100
AcDb2dVertex
 10
4014.340266904365
 20
1627.030672083384
 30
0.0
  0
VERTEX
  5
175B
330
1750
100
AcDbEntity
  8
SANINDUSA
100
AcDbVertex
100
AcDb2dVertex
 10
4014.338073131397
 20
1627.030672083384
 30
0.0
 42
-0.2849150464419475
  0
VERTEX
  5
175C
330
1750
100
AcDbEntity
  8
SANINDUSA
100
AcDbVertex
100
AcDb2dVertex
 10
4014.337893970114
 20
1627.030783194495
 30
0.0
 42
0.6201736729454037
  0
VERTEX
  5
175D
330
1750
100
AcDbEntity
  8
SANINDUSA
100
AcDbVertex
100
AcDb2dVertex
 10
4014.337446066905
 20
1627.030783194495
 30
0.0
 42
-0.2849150464416744
  0
VERTEX
  5
175E
330
1750
100
AcDbEntity
  8
SANINDUSA
100
AcDbVertex
100
AcDb2dVertex
 10
4014.337266905622
 20
1627.030672083384
 30
0.0
  0
VERTEX
  5
175F
330
1750
100
AcDbEntity
  8
SANINDUSA
100
AcDbVertex
100
AcDb2dVertex
 10
4014.336264895691
 20
1627.030672083384
 30
0.0
 42
0.5595519418734724
  0
VERTEX
  5
1760
330
1750
100
AcDbEntity
  8
SANINDUSA
100
AcDbVertex
100
AcDb2dVertex
 10
4014.33483823598
 20
1627.028347761581
 30
0.0
 42
0.2824196144421607
  0
VERTEX
  5
1761
330
1750
100
AcDbEntity
  8
SANINDUSA
100
AcDbVertex
100
AcDb2dVertex
 10
4014.342863196847
 20
1627.023422071721
 30
0.0
  0
VERTEX
  5
1762
330
1750
100
AcDbEntity
  8
SANINDUSA
100
AcDbVertex
100
AcDb2dVertex
 10
4014.359663196847
 20
1627.023422071721
 30
0.0
 42
0.4142135623730951
  0
VERTEX
  5
1763
330
1750
100
AcDbEntity
  8
SANINDUSA
100
AcDbVertex
100
AcDb2dVertex
 10
4014.361463196847
 20
1627.02522207172
 30
0.0
  0
VERTEX
  5
1764
330
1750
100
AcDbEntity
  8
SANINDUSA
100
AcDbVertex
100
AcDb2dVertex
 10
4014.361463196847
 20
1627.03962207172
 30
0.0
 42
0.4142135623730951
  0
VERTEX
  5
1765
330
1750
100
AcDbEntity
  8
SANINDUSA
100
AcDbVertex
100
AcDb2dVertex
 10
4014.359663196847
 20
1627.041422071721
 30
0.0
  0
VERTEX
  5
1766
330
1750
100
AcDbEntity
  8
SANINDUSA
100
AcDbVertex
100
AcDb2dVertex
 10
4014.336469449562
 20
1627.041422071721
 30
0.0
 42
0.414213562373095
  0
VERTEX
  5
1767
330
1750
100
AcDbEntity
  8
SANINDUSA
100
AcDbVertex
100
AcDb2dVertex
 10
4014.334669449562
 20
1627.03962207172
 30
0.0
  0
VERTEX
  5
1768
330
1750
100
AcDbEntity
  8
SANINDUSA
100
AcDbVertex
100
AcDb2dVertex
 10
4014.334669449562
 20
1627.035972083384
 30
0.0
 42
0.4142135623731689
  0
VERTEX
  5
1769
330
1750
100
AcDbEntity
  8
SANINDUSA
100
AcDbVertex
100
AcDb2dVertex
 10
4014.336469449562
 20
1627.034172083384
 30
0.0
  0
VERTEX
  5
176A
330
1750
100
AcDbEntity
  8
SANINDUSA
100
AcDbVertex
100
AcDb2dVertex
 10
4014.337264511413
 20
1627.034172083384
 30
0.0
 42
-0.2881936776528216
  0
VERTEX
  5
176B
330
1750
100
AcDbEntity
  8
SANINDUSA
100
AcDbVertex
100
AcDb2dVertex
 10
4014.337444736789
 20
1627.034058794479
 30
0.0
 42
0.6285957498500262
  0
VERTEX
  5
176C
330
1750
100
AcDbEntity
  8
SANINDUSA
100
AcDbVertex
100
AcDb2dVertex
 10
4014.337895300228
 20
1627.034058794479
 30
0.0
 42
-0.2881936776519791
  0
VERTEX
  5
176D
330
1750
100
AcDbEntity
  8
SANINDUSA
100
AcDbVertex
100
AcDb2dVertex
 10
4014.338075525603
 20
1627.034172083384
 30
0.0
  0
VERTEX
  5
176E
330
1750
100
AcDbEntity
  8
SANINDUSA
100
AcDbVertex
100
AcDb2dVertex
 10
4014.340264510156
 20
1627.034172083384
 30
0.0
 42
-0.2881936776528216
  0
VERTEX
  5
176F
330
1750
100
AcDbEntity
  8
SANINDUSA
100
AcDbVertex
100
AcDb2dVertex
 10
4014.340444735532
 20
1627.034058794479
 30
0.0
 42
0.6285957498503012
  0
SEQEND
  5
1770
330
1750
100
AcDbEntity
  8
SANINDUSA
  0
POLYLINE
  5
1771
330
1F
100
AcDbEntity
  8
SANINDUSA
100
AcDb2dPolyline
 66
     1
 10
0.0
 20
0.0
 30
0.0
  0
VERTEX
  5
1772
330
1771
100
AcDbEntity
  8
SANINDUSA
100
AcDbVertex
100
AcDb2dVertex
 10
4014.336264895691
 20
1627.029872083384
 30
0.0
 42
0.5595519418736761
  0
VERTEX
  5
1773
330
1771
100
AcDbEntity
  8
SANINDUSA
100
AcDbVertex
100
AcDb2dVertex
 10
4014.335551565835
 20
1627.028709922483
 30
0.0
 42
0.2824196144421585
  0
VERTEX
  5
1774
330
1771
100
AcDbEntity
  8
SANINDUSA
100
AcDbVertex
100
AcDb2dVertex
 10
4014.342863196847
 20
1627.02422207172
 30
0.0
  0
VERTEX
  5
1775
330
1771
100
AcDbEntity
  8
SANINDUSA
100
AcDbVertex
100
AcDb2dVertex
 10
4014.359663196847
 20
1627.02422207172
 30
0.0
 42
0.4142135623730951
  0
VERTEX
  5
1776
330
1771
100
AcDbEntity
  8
SANINDUSA
100
AcDbVertex
100
AcDb2dVertex
 10
4014.360663196846
 20
1627.02522207172
 30
0.0
  0
VERTEX
  5
1777
330
1771
100
AcDbEntity
  8
SANINDUSA
100
AcDbVertex
100
AcDb2dVertex
 10
4014.360663196846
 20
1627.03962207172
 30
0.0
 42
0.4142135623730951
  0
VERTEX
  5
1778
330
1771
100
AcDbEntity
  8
SANINDUSA
100
AcDbVertex
100
AcDb2dVertex
 10
4014.359663196847
 20
1627.04062207172
 30
0.0
  0
VERTEX
  5
1779
330
1771
100
AcDbEntity
  8
SANINDUSA
100
AcDbVertex
100
AcDb2dVertex
 10
4014.336269449562
 20
1627.04062207172
 30
0.0
 42
0.4142135623730951
  0
VERTEX
  5
177A
330
1771
100
AcDbEntity
  8
SANINDUSA
100
AcDbVertex
100
AcDb2dVertex
 10
4014.335469449561
 20
1627.03982207172
 30
0.0
  0
VERTEX
  5
177B
330
1771
100
AcDbEntity
  8
SANINDUSA
100
AcDbVertex
100
AcDb2dVertex
 10
4014.335469449561
 20
1627.035777136757
 30
0.0
 42
0.4141964814073941
  0
VERTEX
  5
177C
330
1771
100
AcDbEntity
  8
SANINDUSA
100
AcDbVertex
100
AcDb2dVertex
 10
4014.336269402907
 20
1627.034977136758
 30
0.0
  0
VERTEX
  5
177D
330
1771
100
AcDbEntity
  8
SANINDUSA
100
AcDbVertex
100
AcDb2dVertex
 10
4014.341669584027
 20
1627.034977136758
 30
0.0
 42
-0.4142135623730951
  0
VERTEX
  5
177E
330
1771
100
AcDbEntity
  8
SANINDUSA
100
AcDbVertex
100
AcDb2dVertex
 10
4014.342469584026
 20
1627.034177136758
 30
0.0
  0
VERTEX
  5
177F
330
1771
100
AcDbEntity
  8
SANINDUSA
100
AcDbVertex
100
AcDb2dVertex
 10
4014.342469584026
 20
1627.030672358256
 30
0.0
 42
-0.4141964814075006
  0
VERTEX
  5
1780
330
1771
100
AcDbEntity
  8
SANINDUSA
100
AcDbVertex
100
AcDb2dVertex
 10
4014.341669630681
 20
1627.029872358258
 30
0.0
  0
VERTEX
  5
1781
330
1771
100
AcDbEntity
  8
SANINDUSA
100
AcDbVertex
100
AcDb2dVertex
 10
4014.336256816848
 20
1627.029872042591
 30
0.0
  0
SEQEND
  5
1782
330
1771
100
AcDbEntity
  8
SANINDUSA
  0
POLYLINE
  5
1783
330
1F
100
AcDbEntity
  8
SANINDUSA
100
AcDb2dPolyline
 66
     1
 10
0.0
 20
0.0
 30
0.0
 70
     1
  0
VERTEX
  5
1784
330
1783
100
AcDbEntity
  8
SANINDUSA
100
AcDbVertex
100
AcDb2dVertex
 10
4014.336669449561
 20
1627.04197207172
 30
0.0
 42
-0.4142135623730829
  0
VERTEX
  5
1785
330
1783
100
AcDbEntity
  8
SANINDUSA
100
AcDbVertex
100
AcDb2dVertex
 10
4014.337469449562
 20
1627.04277207172
 30
0.0
  0
VERTEX
  5
1786
330
1783
100
AcDbEntity
  8
SANINDUSA
100
AcDbVertex
100
AcDb2dVertex
 10
4014.360863196847
 20
1627.04277207172
 30
0.0
 42
-0.4142135623730951
  0
VERTEX
  5
1787
330
1783
100
AcDbEntity
  8
SANINDUSA
100
AcDbVertex
100
AcDb2dVertex
 10
4014.362663196846
 20
1627.04097207172
 30
0.0
  0
VERTEX
  5
1788
330
1783
100
AcDbEntity
  8
SANINDUSA
100
AcDbVertex
100
AcDb2dVertex
 10
4014.362663196846
 20
1627.02387207172
 30
0.0
 42
-0.4142135623730951
  0
VERTEX
  5
1789
330
1783
100
AcDbEntity
  8
SANINDUSA
100
AcDbVertex
100
AcDb2dVertex
 10
4014.360863196847
 20
1627.02207207172
 30
0.0
  0
VERTEX
  5
178A
330
1783
100
AcDbEntity
  8
SANINDUSA
100
AcDbVertex
100
AcDb2dVertex
 10
4014.340863196847
 20
1627.02207207172
 30
0.0
 42
-0.4142135623730951
  0
VERTEX
  5
178B
330
1783
100
AcDbEntity
  8
SANINDUSA
100
AcDbVertex
100
AcDb2dVertex
 10
4014.340063196846
 20
1627.02287207172
 30
0.0
  0
VERTEX
  5
178C
330
1783
100
AcDbEntity
  8
SANINDUSA
100
AcDbVertex
100
AcDb2dVertex
 10
4014.340063196846
 20
1627.023072071721
 30
0.0
  0
VERTEX
  5
178D
330
1783
100
AcDbEntity
  8
SANINDUSA
100
AcDbVertex
100
AcDb2dVertex
 10
4014.360863196847
 20
1627.023072071721
 30
0.0
 42
0.4142135623730951
  0
VERTEX
  5
178E
330
1783
100
AcDbEntity
  8
SANINDUSA
100
AcDbVertex
100
AcDb2dVertex
 10
4014.361663196846
 20
1627.02387207172
 30
0.0
  0
VERTEX
  5
178F
330
1783
100
AcDbEntity
  8
SANINDUSA
100
AcDbVertex
100
AcDb2dVertex
 10
4014.361663196846
 20
1627.04097207172
 30
0.0
 42
0.4142135623730951
  0
VERTEX
  5
1790
330
1783
100
AcDbEntity
  8
SANINDUSA
100
AcDbVertex
100
AcDb2dVertex
 10
4014.360863196847
 20
1627.04177207172
 30
0.0
  0
VERTEX
  5
1791
330
1783
100
AcDbEntity
  8
SANINDUSA
100
AcDbVertex
100
AcDb2dVertex
 10
4014.336669449561
 20
1627.04177207172
 30
0.0
  0
SEQEND
  5
1792
330
1783
100
AcDbEntity
  8
SANINDUSA
  0
LINE
  5
1793
330
1F
100
AcDbEntity
  8
SANINDUSA
100
AcDbLine
 10
4014.334669449562
 20
1627.023422071721
 30
0.0
 11
4013.948279383823
 21
1627.023422071721
 31
0.0
  0
LINE
  5
1794
330
1F
100
AcDbEntity
  8
SANINDUSA
100
AcDbLine
 10
4014.342863196847
 20
1627.023422071721
 30
0.0
 11
4014.334669449562
 21
1627.023422071721
 31
0.0
  0
LINE
  5
1795
330
1F
100
AcDbEntity
  8
SANINDUSA
100
AcDbLine
 10
4014.334669449562
 20
1627.041422071721
 30
0.0
 11
4014.334669449562
 21
1627.023422071721
 31
0.0
  0
LINE
  5
1796
330
1F
100
AcDbEntity
  8
SANINDUSA
100
AcDbLine
 10
4014.334669449562
 20
1627.041422071721
 30
0.0
 11
4013.954669449561
 21
1627.041422071721
 31
0.0
  0
LWPOLYLINE
  5
1797
330
1F
100
AcDbEntity
  8
SANINDUSA
100
AcDbPolyline
 90
        4
 70
     1
 43
0.0
 10
4013.949569449561
 20
1627.030922067958
 10
4013.949569449561
 20
1627.033922067958
 10
4014.341569449562
 20
1627.033922067958
 10
4014.341569449562
 20
1627.030922067958
1001
GENIUS_GENREC_14
1002
{
1000
PYDIR
1011
4014.341569449562
1021
1627.030922067958
1031
0.0
1002
}
1002
{
1000
PXDIR
1011
4013.949569449561
1021
1627.033922067958
1031
0.0
1002
}
1002
{
1000
PORI
1011
4013.949569449561
1021
1627.030922067958
1031
0.0
1002
}
1002
{
1000
PINS
1011
4013.949569449561
1021
1627.030922067958
1031
0.0
1002
}
1002
{
1000
PINS2
1011
4014.341569449562
1021
1627.033922067958
1031
0.0
1002
}
1002
{
1000
C
1070
     1
1002
}
1001
GENIUS_GENODEF_13
1002
{
1000
HIER
1070
     0
1002
}
1002
{
1000
MANEDIT
1070
     0
1002
}
1002
{
1000
NOSEL
1070
     0
1002
}
1002
{
1000
BEHIND
1070
     0
1002
}
1002
{
1000
OTHER
1070
     0
1002
}
1002
{
1000
REACTOR
1002
}
1001
GENIUS_GENOBJ-N-REC_13
1002
{
1000
OWNER
1000
GEN
1002
}
  0
LINE
  5
1798
330
1F
100
AcDbEntity
  8
SANINDUSA
100
AcDbLine
 10
4014.336469449562
 20
1627.041422071721
 30
0.0
 11
4014.334669449562
 21
1627.041422071721
 31
0.0
  0
LINE
  5
1799
330
1F
100
AcDbEntity
  8
SANINDUSA
100
AcDbLine
 10
4014.331228978325
 20
1627.041422071721
 30
0.0
 11
4014.333028978325
 21
1627.041422071721
 31
0.0
  0
REGION
  5
179A
330
1F
100
AcDbEntity
  8
SANINDUSA
100
AcDbModelerGeometry
 70
     1
  1
koo nmn n o         
  1
ni ^ *+0;:,4 ^ *+0\^ [ nf ^ LR mnjqoqoqkmnk QK o  
  1
n fqfffffffffffffffj:rooh n:rono 
  1
=0;& {rn {n {rn {rn |
  1
3*2/ {rn {rn {m {o |
  1
,7:33 {rn {rn {rn {l {rn {n |
  1
9><: {rn {rn {k {m {rn {j 90-(>-; ;0*=3: 0*+ |
  1
300/ {rn {rn {i {l |
  1
/3>1:r,*-9><: {rn konlqfkljihgfmlgfi nimhqolmhlhkgimffg o o o n rmqigihlfhnfjfmghgh:ronh oqoon o -:):-,:@) V V V V |
  1
<0:;8: {rn {h {g {rn {f -:):-,:; {k {rn |
  1
<0:;8: {rn {no {i {rn {nn -:):-,:; {k {rn |
  1
<0:;8: {rn {i {nm {rn {nl -:):-,:; {k {rn |
  1
:;8: {rn {nk {nj {i {ni 90-(>-; |
  1
<0:;8: {rn {nh {h {rn {ng -:):-,:; {k {rn |
  1
:;8: {rn {nf {nk {h {mo 90-(>-; |
  1
<0:;8: {rn {g {mn {rn {mm -:):-,:; {k {rn |
  1
:;8: {rn {nj {ml {g {mk 90-(>-; |
  1
):-+:' {rn {f {mj |
  1
):-+:' {rn {f {mi |
  1
:336/,:r<*-): {rn konlqfkfkifkkfjinj nimhqoloihmoihfjg o o o n roqooojijigjkmkfkffgjgn roqooojijigjkmkfkflhlnm o n V V |
  1
<0:;8: {rn {mh {no {rn {mg -:):-,:; {k {rn |
  1
:;8: {rn {mf {nf {no {lo 90-(>-; |
  1
):-+:' {rn {ng {ln |
  1
,+->687+r<*-): {rn konlqfkgiifkkfjinh nimhqolknhmoihfjg o mqigihlfhnfjfmghgh:ronh roqoon o V V |
  1
<0:;8: {rn {nm {lm {rn {ll -:):-,:; {k {rn |
  1
:;8: {rn {ml {lk {nm {lj 90-(>-; |
  1
):-+:' {rn {nl {li |
  1
,+->687+r<*-): {rn konlqfkfkifkkfjinj nimhqomfghmoihfjg o oqoon mqigihlfhnfjfmghgh:ronh o V V |
  1
/061+ {rn konlqfkgiifkkfjinh nimhqoloihmoihfjg o |
  1
/061+ {rn konlqfkfkifkkfjinj nimhqomfghmoihfjg o |
  1
<0:;8: {rn {lh {nh {rn {lg -:):-,:; {k {rn |
  1
:;8: {rn {lf {mf {nh {ko 90-(>-; |
  1
):-+:' {rn {mg {kn |
  1
:336/,:r<*-): {rn konlqfkfkifkkfjinj nimhqolknhmoihfjg o o o n roqooojijigjkmkfjoolog oqooojijigjkmkfkfljhmf o n V V |
  1
/061+ {rn konlqfkgiifkkfjinh nimhqolknhmoihfjg o |
  1
<0:;8: {rn {mn {km {rn {kl -:):-,:; {k {rn |
  1
:;8: {rn {lk {kk {mn {kj 90-(>-; |
  1
):-+:' {rn {mm {ki |
  1
:336/,:r<*-): {rn konlqfjkgifkkfjini nimhqomfohmoihfjgm o o o rn oqoooigngofffnhikjjokf oqoookngkfnkffkgjijnmj o n V V |
  1
/061+ {rn konlqfjkgifkkfjini nimhqomfghmoihfjg o |
  1
<0:;8: {rn {kh {mh {rn {kg -:):-,:; {k {rn |
  1
:;8: {rn {kf {lf {mh {jo 90-(>-; |
  1
):-+:' {rn {lg {jn |
  1
,+->687+r<*-): {rn konlqfjkgifkkfjini nimhqolkfhmoihfjgn o roqoon lqoffgmkfmlkfjiinj:roni o V V |
  1
/061+ {rn konlqfkfkifkkfjinj nimhqolkfhmoihfjgn o |
  1
<0:;8: {rn {lm {jm {rn {jl -:):-,:; {k {rn |
  1
:;8: {rn {kk {jk {lm {jj 90-(>-; |
  1
):-+:' {rn {ll {ji |
  1
:336/,:r<*-): {rn konlqfkgmhnnjklmhk nimhqolmkmmoihfjgn o o o rn oqookmgfjlhgifiklhlhi roqooifggjjmknjjkffnjn o n V V |
  1
/061+ {rn konlqfjjjgmhhghhil nimhqomghoffojhfjf o |
  1
<0:;8: {rn {jh {lh {rn {jg -:):-,:; {k {rn |
  1
:;8: {rn {jf {kf {lh {io 90-(>-; |
  1
):-+:' {rn {kg {in |
  1
:336/,:r<*-): {rn konlqfjkgifkkfjini nimhqoljhhmoihfjgn o o o rn oqooojijigjkmkfkffhhhg roqooojijigjkmkfkgiinnl o n V V |
  1
/061+ {rn konlqfjkgifkkfjini nimhqolkfhmoihfjgn o |
  1
<0:;8: {rn {km {im {rn {il -:):-,:; {k {rn |
  1
:;8: {rn {jk {ik {km {ij 90-(>-; |
  1
):-+:' {rn {kl {ii |
  1
,+->687+r<*-): {rn konlqfkgmhnnjklmhk nimhqomkmmmoihfjgn o roqoon rmqigihlfhnfjfmghgh:ronh o V V |
  1
/061+ {rn konlqfkgmhnnjklmhk nimhqomkmmmoihfjgn o |
  1
<0:;8: {rn {ih {kh {rn {ig -:):-,:; {k {rn |
  1
:;8: {rn {if {jf {kh {ho 90-(>-; |
  1
):-+:' {rn {jg {hn |
  1
,+->687+r<*-): {rn konlqfjjiifkkfjink nimhqolfgmmoihfjgn o mqigihlfhnfjfmghgh:ronh roqoon o V V |
  1
/061+ {rn konlqfjjiifkkfjink nimhqoljhhmoihfjgn o |
  1
<0:;8: {rn {jm {hm {rn {hl -:):-,:; {k {rn |
  1
:;8: {rn {ik {hk {jm {hj 90-(>-; |
  1
):-+:' {rn {jl {hi |
  1
:336/,:r<*-): {rn konlqflnkifkkfjinj nimhqomjmmmoihfjgn o o o rn roqooohohnoihgnngijmgjk roqooohohnoihgnnghmofik o n V V |
  1
/061+ {rn konlqflnkifkkfjinj nimhqomkmmmoihfjgn o |
  1
<0:;8: {rn {hh {jh {rn {hg -:):-,:; {k {rn |
  1
:;8: {rn {hf {if {jh {go 90-(>-; |
  1
):-+:' {rn {ig {gn |
  1
:336/,:r<*-): {rn konlqfjkgifkkfjini nimhqolfgmmoihfjgn o o o rn oqooojijigjkmkfkghnfjh oqooojijigjkmkfkflfloh o n V V |
  1
/061+ {rn konlqfjjiifkkfjink nimhqolfgmmoihfjgn o |
  1
<0:;8: {rn {im {gm {rn {gl -:):-,:; {k {rn |
  1
:;8: {rn {hk {gk {im {gj 90-(>-; |
  1
):-+:' {rn {il {gi |
  1
,+->687+r<*-): {rn konlqflokifkkfjinl nimhqomjmmmoihfjgn o lqimfnfjhoflgjfkfm:ronh oqoon o V V |
  1
/061+ {rn konlqflokifkkfjinl nimhqomjmmmoihfjgn o |
  1
<0:;8: {rn {gh {ih {rn {gg -:):-,:; {k {rn |
  1
:;8: {rn {gf {hf {ih {fo 90-(>-; |
  1
):-+:' {rn {hg {fn |
  1
,+->687+r<*-): {rn konlqfkhngfkkfjing nimhqokoimmoihfjgn o oqoon mqilhnkfhjhgmikhfl:roni o V V |
  1
/061+ {rn konlqfjkgifkkfjini nimhqokoimmoihfjgn o |
  1
<0:;8: {rn {hm {fm {rn {fl -:):-,:; {k {rn |
  1
:;8: {rn {gk {fk {hm {fj 90-(>-; |
  1
):-+:' {rn {hl {fi |
  1
:336/,:r<*-): {rn konlqflnkifkkfjinj nimhqolfimmoihfjgn o o o rn roqooohohnoihgnngijinin oqooohohnoihgnngjggok o n V V |
  1
/061+ {rn konlqflokifkkfjinl nimhqolfimmoihfjgn o |
  1
<0:;8: {rn {fh {hh {rn {fg -:):-,:; {k {rn |
  1
:;8: {rn {ff {gf {hh {noo 90-(>-; |
  1
):-+:' {rn {gg {non |
  1
:336/,:r<*-): {rn konlqfkhngfkkfjing nimhqokolmmoihfjgm o o o rn roqooomnmnlmolkljiiinlk oqooomnmnlmolkljiikffj o n V V |
  1
/061+ {rn konlqfkhngfkkfjing nimhqokoimmoihfjgn o |
  1
<0:;8: {rn {gm {nom {rn {nol -:):-,:; {k {rn |
  1
:;8: {rn {fk {nok {gm {noj 90-(>-; |
  1
):-+:' {rn {gl {noi |
  1
,+->687+r<*-): {rn konlqflnkifkkfjinj nimhqokoimmoihfjgn o oqoon mqigihlfhnfjfmghgh:ronh o V V |
  1
/061+ {rn konlqflnkifkkfjinj nimhqokoimmoihfjgn o |
  1
<0:;8: {rn {nom {gh {rn {noh -:):-,:; {k {rn |
  1
:;8: {rn {nog {ff {gh {nof 90-(>-; |
  1
):-+:' {rn {fg {nno |
  1
,+->687+r<*-): {rn konlqfkiggfkkfjinh nimhqolffmmoihfjgn o rmqlooioknjnijoffih:ronj oqoon o V V |
  1
/061+ {rn konlqfkiggfkkfjinh nimhqokolmmoihfjgm o |
  1
<0:;8: {rn {fm {fh {rn {nnn -:):-,:; {k {rn |
  1
:;8: {rn {nok {nnm {fm {nnl 90-(>-; |
  1
):-+:' {rn {fl {nnk |
  1
:336/,:r<*-): {rn konlqflgfkfkkfjinh nimhqokolmmoihfjgm o o o rn oqooomnmnlmolkljhfliof oqooomnmnlmolkljjlhjok o n V V |
  1
/061+ {rn konlqflgfkfkkfjinh nimhqokoimmoihfjgn o |
  1
:;8: {rn {nnj {nog {fh {nni 90-(>-; |
  1
):-+:' {rn {noh {nnh |
  1
:336/,:r<*-): {rn konlqfkjhgfkkfjinh nimhqolffmmoihfjgn o o o n oqooohhhgnhkjflokfnhgh roqooohhhgnhkjflokmlmfg o n V V |
  1
/061+ {rn konlqfkiggfkkfjinh nimhqolffmmoihfjgn o |
  1
:;8: {rn {nnm {nnj {nom {nng 90-(>-; |
  1
):-+:' {rn {nol {nnf |
  1
,+->687+r<*-): {rn konlqflfmkfkkfjink nimhqokolmmoihfjgm o mqigihlfhnfjfmghgh:ronh roqoon o V V |
  1
/061+ {rn konlqflfmkfkkfjink nimhqokolmmoihfjgm o |
  1
):-+:' {rn {nnn {nmo |
  1
,+->687+r<*-): {rn konlqfkolkfkkfjing nimhqolggmmoihfjgn o oqoon lqinmkokkflngmfhji:roni o V V |
  1
/061+ {rn konlqfkjhgfkkfjinh nimhqolggmmoihfjgn o |
  1
:336/,:r<*-): {rn konlqfkolkfkkfjing nimhqolffmmoihfjgn o o o n roqooohhhgnhkjfloinimln roqooohhhgnhkjflokfnhgh o n V V |
  1
/061+ {rn konlqflfmkfkkfjink nimhqolffmmoihfjgn o |
  1
/061+ {rn konlqfkolkfkkfjing nimhqolggmmoihfjgn o |
  0
REGION
  5
179B
330
1F
100
AcDbEntity
  8
SANINDUSA
100
AcDbModelerGeometry
 70
     1
  1
koo mkn n o         
  1
ni ^ *+0;:,4 ^ *+0\^ [ nf ^ LR mnjqoqoqkmnk QK o  
  1
n fqfffffffffffffffj:rooh n:rono 
  1
=0;& {rn {n {rn {rn |
  1
3*2/ {rn {rn {m {o |
  1
,7:33 {rn {rn {rn {l {rn {n |
  1
9><: {rn {rn {k {m {rn {j 90-(>-; ;0*=3: 0*+ |
  1
300/ {rn {rn {i {l |
  1
/3>1:r,*-9><: {rn konlqfklijgjjfgmfi nimhqollkljofhligh o o o n rmqigihlfhnfjfmghgh:ronh oqoon o -:):-,:@) V V V V |
  1
<0:;8: {rn {h {g {rn {f -:):-,:; {k {rn |
  1
<0:;8: {rn {no {i {rn {nn -:):-,:; {k {rn |
  1
<0:;8: {rn {i {nm {rn {nl -:):-,:; {k {rn |
  1
:;8: {rn {nk {nj {i {ni 90-(>-; |
  1
<0:;8: {rn {nh {h {rn {ng -:):-,:; {k {rn |
  1
:;8: {rn {nf {nk {h {mo 90-(>-; |
  1
<0:;8: {rn {g {mn {rn {mm -:):-,:; {k {rn |
  1
:;8: {rn {nj {ml {g {mk 90-(>-; |
  1
):-+:' {rn {f {mj |
  1
):-+:' {rn {f {mi |
  1
,+->687+r<*-): {rn konlqfjikifkkfjini nimhqolfimmoihfjgn o mqigihlfhnfjfmghgh:ronh roqoon o V V |
  1
<0:;8: {rn {mh {no {rn {mg -:):-,:; {k {rn |
  1
:;8: {rn {mf {nf {no {lo 90-(>-; |
  1
):-+:' {rn {ng {ln |
  1
:336/,:r<*-): {rn konlqfjkiifkkfjini nimhqolfimmoihfjgn o o o rn rkqglinlnkfjmihihoj:ronh oqoongooooooooooongnf o n V V |
  1
<0:;8: {rn {nm {lm {rn {ll 90-(>-; {k {rn |
  1
:;8: {rn {ml {lk {nm {lj 90-(>-; |
  1
):-+:' {rn {nl {li |
  1
:336/,:r<*-): {rn konlqfjkiifkkfjini nimhqoljfhmoihfjg o o o rn rkqglinlnkfjmiikkf:ronh oqoonhfffffffffffhmhm o n V V |
  1
/061+ {rn konlqfjikifkkfjini nimhqolfimmoihfjgn o |
  1
/061+ {rn konlqfjikifkkfjini nimhqoljfhmoihfjg o |
  1
<0:;8: {rn {lh {nh {rn {lg -:):-,:; {k {rn |
  1
:;8: {rn {lf {mf {nh {ko 90-(>-; |
  1
):-+:' {rn {mg {kn |
  1
,+->687+r<*-): {rn konlqfkkmffkkfjini nimhqoknkmmoihfjgn o oqoon mqigihlfhnfjfmghgh:ronh o V V |
  1
/061+ {rn konlqfjkiifkkfjini nimhqoknkmmoihfjgn o |
  1
<0:;8: {rn {mn {km {rn {kl -:):-,:; {k {rn |
  1
:;8: {rn {kk {lk {mn {kj 90-(>-; |
  1
):-+:' {rn {mm {ki |
  1
,+->687+r<*-): {rn konlqfjkiifkkfjini nimhqolknhmoihfjg o roqoon rmqigihlfhnfjfmghgh:ronh o V V |
  1
/061+ {rn konlqfjkiifkkfjini nimhqolknhmoihfjg o |
  1
<0:;8: {rn {kh {mh {rn {kg -:):-,:; {k {rn |
  1
:;8: {rn {kf {lf {mh {jo 90-(>-; |
  1
):-+:' {rn {lg {jn |
  1
:336/,:r<*-): {rn konlqfkkmffkkfjini nimhqoknnmmoihfjg o o o rn rgqoiomnfnjghgljmlj:rong oqooolooooooooooongnf o n V V |
  1
/061+ {rn konlqfkkmffkkfjini nimhqoknkmmoihfjgn o |
  1
<0:;8: {rn {lm {jm {rn {jl 90-(>-; {k {rn |
  1
:;8: {rn {kk {jk {lm {jj 90-(>-; |
  1
):-+:' {rn {ll {ji |
  1
:336/,:r<*-): {rn konlqfjlghmjimkkhj nimhqollfhmoihfjgn o o o rn rjqlhlkhfklfngoghol:rong oqooonfffffffffffgngnn o n V V |
  1
/061+ {rn konlqfjlghmjimkkhj nimhqolknhmoihfjg o |
  1
<0:;8: {rn {jh {lh {rn {jg -:):-,:; {k {rn |
  1
:;8: {rn {jf {kf {lh {io 90-(>-; |
  1
):-+:' {rn {kg {in |
  1
,+->687+r<*-): {rn konlqfklfffkkfjinj nimhqokofmmoihfjg o rmqigihlfhnfjfmghgh:ronh oqoon o V V |
  1
/061+ {rn konlqfklfffkkfjinj nimhqoknnmmoihfjg o |
  1
<0:;8: {rn {km {im {rn {il 90-(>-; {k {rn |
  1
:;8: {rn {ik {jk {km {ij 90-(>-; |
  1
):-+:' {rn {kl {ii |
  1
:336/,:r<*-): {rn konlqfjlkifkkfjinj nimhqolknhmoihfjg o o o rn riqhnigkfmfgfgmnfif:rong oqooomjoooooooooooooon o n V V |
  1
/061+ {rn konlqfjliflkonnikk nimhqolkoiofjigkhl o |
  1
<0:;8: {rn {ih {kh {rn {ig 90-(>-; {k {rn |
  1
:;8: {rn {if {jf {kh {ho 90-(>-; |
  1
):-+:' {rn {jg {hn |
  1
:336/,:r<*-): {rn konlqfkkmffkkfjini nimhqokofmmoihfjg o o o rn rgqoiomnfnjghjfoghl:rong oqooomfffffffffffmhmkm o n V V |
  1
/061+ {rn konlqfklfffkkfjinj nimhqokofmmoihfjg o |
  1
<0:;8: {rn {jm {hm {rn {hl 90-(>-; {k {rn |
  1
:;8: {rn {hk {ik {jm {hj 90-(>-; |
  1
):-+:' {rn {jl {hi |
  1
:336/,:r<*-): {rn konlqfjloiilliihjf nimhqollfhmoihfjgn o o o rn rjqlhlkhfklfngjhjgl:rong oqooomooooooooooooooon o n V V |
  1
/061+ {rn konlqfjlmkjkfhfjhi nimhqolkoiofjigkii o |
  1
<0:;8: {rn {hh {jh {rn {hg -:):-,:; {k {rn |
  1
:;8: {rn {if {hf {jh {go 90-(>-; |
  1
):-+:' {rn {ig {gn |
  1
,+->687+r<*-): {rn konlqfkjhgfkkfjinh nimhqokoimmoihfjgn o roqoon nqnflflogiomniogin:ronj o V V |
  1
/061+ {rn konlqfkkmffkkfjini nimhqokoimmoihfjgn o |
  1
<0:;8: {rn {im {gm {rn {gl -:):-,:; {k {rn |
  1
:;8: {rn {gk {hk {im {gj 90-(>-; |
  1
):-+:' {rn {il {gi |
  1
,+->687+r<*-): {rn konlqfjoghmjimkjon nimhqolknhmoihfjg o oqoon mqigihlfhnfjfmghgh:ronh o V V |
  1
/061+ {rn konlqfjloiilliihjf nimhqolknhmoihfjg o |
  1
<0:;8: {rn {gh {ih {rn {gg 90-(>-; {k {rn |
  1
:;8: {rn {gf {hf {ih {fo 90-(>-; |
  1
):-+:' {rn {hg {fn |
  1
:336/,:r<*-): {rn konlqfkjhgfkkfjinh nimhqokolmmoihfjgm o o o rn rgqoiomnfnjghjfoghl:rong oqooomfffffffffffmhmkm o n V V |
  1
/061+ {rn konlqfkjhgfkkfjinh nimhqokoimmoihfjgn o |
  1
<0:;8: {rn {hm {fm {rn {fl 90-(>-; {k {rn |
  1
:;8: {rn {gk {fk {hm {fj 90-(>-; |
  1
):-+:' {rn {hl {fi |
  1
:336/,:r<*-): {rn konlqfjoghmjimkjon nimhqollfhmoihfjgn o o o rn rjqlhlkhfklfngjhjgl:rong oqooomooooooooooooooon o n V V |
  1
/061+ {rn konlqfjoghmjimkjon nimhqolknhmoihfjg o |
  1
<0:;8: {rn {fh {hh {rn {fg -:):-,:; {k {rn |
  1
:;8: {rn {gf {ff {hh {noo 90-(>-; |
  1
):-+:' {rn {gg {non |
  1
,+->687+r<*-): {rn konlqfkiogfkkfjink nimhqolffmmoihfjgn o rmqigihlfhnfjfmghgh:ronh oqoon o V V |
  1
/061+ {rn konlqfkiogfkkfjink nimhqokolmmoihfjgm o |
  1
<0:;8: {rn {gm {nom {rn {nol 90-(>-; {k {rn |
  1
:;8: {rn {nok {fk {gm {noj 90-(>-; |
  1
):-+:' {rn {gl {noi |
  1
:336/,:r<*-): {rn konlqfjokifkkfjing nimhqolknhmoihfjg o o o rn riqhnigkfmfgfgmnfif:rong oqooomjoooooooooooooon o n V V |
  1
/061+ {rn konlqfjoiflkonniij nimhqolkoiofjigkig o |
  1
<0:;8: {rn {noh {gh {rn {nog 90-(>-; {k {rn |
  1
:;8: {rn {nof {ff {gh {nno 90-(>-; |
  1
):-+:' {rn {fg {nnn |
  1
:336/,:r<*-): {rn konlqfkjhgfkkfjinh nimhqolffmmoihfjgn o o o rn rgqoiomnfnjghjfoghl:rong oqooomfffffffffffmhmkm o n V V |
  1
/061+ {rn konlqfkiogfkkfjink nimhqolffmmoihfjgn o |
  1
<0:;8: {rn {fm {nnm {rn {nnl 90-(>-; {k {rn |
  1
:;8: {rn {nnk {nok {fm {nnj 90-(>-; |
  1
):-+:' {rn {fl {nni |
  1
:336/,:r<*-): {rn konlqfjooiilliihlk nimhqollfhmoihfjgn o o o rn rjqlhlkhfklfngjhjgl:rong oqooomooooooooooooooon o n V V |
  1
/061+ {rn konlqfjomkjkfhfjhk nimhqolkoiofjigkh o |
  1
<0:;8: {rn {nnh {fh {rn {nng -:):-,:; {k {rn |
  1
:;8: {rn {nof {nnf {fh {nmo 90-(>-; |
  1
):-+:' {rn {nog {nmn |
  1
,+->687+r<*-): {rn konlqfkolkfkkfjing nimhqolfimmoihfjgn o oqoon mqigihlfhnfjfmghgh:ronh o V V |
  1
/061+ {rn konlqfkjhgfkkfjinh nimhqolfimmoihfjgn o |
  1
<0:;8: {rn {nom {nmm {rn {nml -:):-,:; {k {rn |
  1
:;8: {rn {nmk {nnk {nom {nmj 90-(>-; |
  1
):-+:' {rn {nol {nmi |
  1
,+->687+r<*-): {rn konlqfkfiifkkfjim nimhqolknhmoihfjg o oqoon mqigihlfhnfjfmghgh:ronh o V V |
  1
/061+ {rn konlqfjooiilliihlk nimhqolknhmoihfjg o |
  1
<0:;8: {rn {nmh {noh {rn {nmg 90-(>-; {k {rn |
  1
:;8: {rn {nmf {nnf {noh {nlo 90-(>-; |
  1
):-+:' {rn {nng {nln |
  1
:336/,:r<*-): {rn konlqfkolkfkkfjing nimhqolffmmoihfjgn o o o rn rgqoiomnfnjghgljmlj:rong oqooolooooooooooongnf o n V V |
  1
/061+ {rn konlqfkolkfkkfjing nimhqolfimmoihfjgn o |
  1
<0:;8: {rn {nnm {nlm {rn {nll 90-(>-; {k {rn |
  1
:;8: {rn {nmk {nlk {nnm {nlj 90-(>-; |
  1
):-+:' {rn {nnl {nli |
  1
:336/,:r<*-): {rn konlqfkfiifkkfjim nimhqollfhmoihfjgn o o o rn rjqlhlkhfklfngjhjgl:rong oqooomooooooooooooooon o n V V |
  1
/061+ {rn konlqfkfiifkkfjim nimhqolknhmoihfjg o |
  1
<0:;8: {rn {nlh {nnh {rn {nlg -:):-,:; {k {rn |
  1
:;8: {rn {nmf {nlf {nnh {nko 90-(>-; |
  1
):-+:' {rn {nmg {nkn |
  1
,+->687+r<*-): {rn konlqfkookfkkfjinh nimhqokolmmoihfjgm o rmqmkigifljhmlgkjfg:ronj roqoon o V V |
  1
/061+ {rn konlqfkookfkkfjinh nimhqolffmmoihfjgn o |
  1
<0:;8: {rn {nmm {nkm {rn {nkl -:):-,:; {k {rn |
  1
:;8: {rn {nkk {nlk {nmm {nkj 90-(>-; |
  1
):-+:' {rn {nml {nki |
  1
,+->687+r<*-): {rn konlqfkfkifkkfjinj nimhqollfhmoihfjgn o mqigihlfhnfjfmghgh:ronh roqoon o V V |
  1
/061+ {rn konlqfkfkifkkfjinj nimhqollfhmoihfjgn o |
  1
<0:;8: {rn {nkh {nmh {rn {nkg -:):-,:; {k {rn |
  1
:;8: {rn {nkf {nlf {nmh {njo 90-(>-; |
  1
):-+:' {rn {nlg {njn |
  1
:336/,:r<*-): {rn konlqfkolkfkkfjing nimhqokolmmoihfjgm o o o rn rgqoiomnfnjghgljmlj:rong oqooolooooooooooongnf o n V V |
  1
/061+ {rn konlqfkookfkkfjinh nimhqokolmmoihfjgm o |
  1
<0:;8: {rn {nlm {njm {rn {njl 90-(>-; {k {rn |
  1
:;8: {rn {nkk {njk {nlm {njj 90-(>-; |
  1
):-+:' {rn {nll {nji |
  1
:336/,:r<*-): {rn konlqfkfiifkkfjim nimhqologhmoihfjgm o o o rn rjqlhlkhfklfngjhjgl:rong oqooomooooooooooooooon o n V V |
  1
/061+ {rn konlqfkfkifkkfjinj nimhqologhmoihfjgm o |
  1
<0:;8: {rn {njh {nlh {rn {njg -:):-,:; {k {rn |
  1
:;8: {rn {njf {nkf {nlh {nio 90-(>-; |
  1
):-+:' {rn {nkg {nin |
  1
,+->687+r<*-): {rn konlqfknggfkkfjini nimhqokoimmoihfjgn o roqoon nqnjkmfkjjlnjgjjnk:ronj o V V |
  1
/061+ {rn konlqfkolkfkkfjing nimhqokoimmoihfjgn o |
  1
<0:;8: {rn {nkm {nim {rn {nil -:):-,:; {k {rn |
  1
:;8: {rn {nik {njk {nkm {nij 90-(>-; |
  1
):-+:' {rn {nkl {nii |
  1
,+->687+r<*-): {rn konlqfkfiifkkfjim nimhqoloihmoihfjg o oqoon kqinooohfnjikmnnhj:ronj o V V |
  1
/061+ {rn konlqfkfiifkkfjim nimhqoloihmoihfjg o |
  1
<0:;8: {rn {nih {nkh {rn {nig -:):-,:; {k {rn |
  1
:;8: {rn {nif {njf {nkh {nho 90-(>-; |
  1
):-+:' {rn {njg {nhn |
  1
:336/,:r<*-): {rn konlqfknggfkkfjini nimhqokofmmoihfjg o o o rn rgqoiomnfnjggohfjfh:rong oqoooloooooooooonofnlf o n V V |
  1
/061+ {rn konlqfknggfkkfjini nimhqokoimmoihfjgn o |
  1
<0:;8: {rn {njm {nhm {rn {nhl 90-(>-; {k {rn |
  1
:;8: {rn {nik {nhk {njm {nhj 90-(>-; |
  1
):-+:' {rn {njl {nhi |
  1
:336/,:r<*-): {rn konlqfjooiilliihlk nimhqologhmoihfjgm o o o rn rjqlhlkhfklfngjhjgl:rong oqooomooooooooooooooon o n V V |
  1
/061+ {rn konlqfjooiilliihlk nimhqoloihmoihfjg o |
  1
<0:;8: {rn {nhh {njh {rn {nhg -:):-,:; {k {rn |
  1
:;8: {rn {nhf {nif {njh {ngo 90-(>-; |
  1
):-+:' {rn {nig {ngn |
  1
,+->687+r<*-): {rn konlqfkmngfkkfjinh nimhqoknnmmoihfjg o mqigihlfhnfjfmghgh:ronh roqoon o V V |
  1
/061+ {rn konlqfkmngfkkfjinh nimhqokofmmoihfjg o |
  1
<0:;8: {rn {nim {ngm {rn {ngl -:):-,:; {k {rn |
  1
:;8: {rn {ngk {nhk {nim {ngj 90-(>-; |
  1
):-+:' {rn {nil {ngi |
  1
:336/,:r<*-): {rn konlqfjokifkkfjing nimhqoloihmoihfjg o o o rn riqhnigkfmfgfgmnfif:rong oqooomjoooooooooooooon o n V V |
  1
/061+ {rn konlqfjomkjkfhfjij nimhqolohglnhfoifk o |
  1
<0:;8: {rn {ngh {nih {rn {ngg -:):-,:; {k {rn |
  1
:;8: {rn {ngf {nhf {nih {nfo 90-(>-; |
  1
):-+:' {rn {nhg {nfn |
  1
:336/,:r<*-): {rn konlqfknggfkkfjini nimhqoknnmmoihfjg o o o rn rgqoiomnfnjghgljmlj:rong oqooolooooooooooongnf o n V V |
  1
/061+ {rn konlqfkmngfkkfjinh nimhqoknnmmoihfjg o |
  1
<0:;8: {rn {nhm {nfm {rn {nfl 90-(>-; {k {rn |
  1
:;8: {rn {ngk {nfk {nhm {nfj 90-(>-; |
  1
):-+:' {rn {nhl {nfi |
  1
:336/,:r<*-): {rn konlqfjoghmjimkjon nimhqologhmoihfjgm o o o rn rjqlhlkhfklfngjhjgl:rong oqooomooooooooooooooon o n V V |
  1
/061+ {rn konlqfjoiflkonniin nimhqolohglnhfoif o |
  1
<0:;8: {rn {nfh {nhh {rn {nfg -:):-,:; {k {rn |
  1
:;8: {rn {nff {ngf {nhh {moo 90-(>-; |
  1
):-+:' {rn {ngg {mon |
  1
,+->687+r<*-): {rn konlqflnkifkkfjinj nimhqoknkmmoihfjgn o oqoon rnqkhiffhmkoijiigjm:roni o V V |
  1
/061+ {rn konlqfknggfkkfjini nimhqoknkmmoihfjgn o |
  1
<0:;8: {rn {ngm {mom {rn {mol -:):-,:; {k {rn |
  1
:;8: {rn {mok {nfk {ngm {moj 90-(>-; |
  1
):-+:' {rn {ngl {moi |
  1
,+->687+r<*-): {rn konlqfjoghmjimkjon nimhqoloihmoihfjg o oqoon mqigihlfhnfjfmghgh:ronh o V V |
  1
/061+ {rn konlqfjoghmjimkjon nimhqoloihmoihfjg o |
  1
<0:;8: {rn {moh {ngh {rn {mog -:):-,:; {k {rn |
  1
:;8: {rn {mof {nff {ngh {mno 90-(>-; |
  1
):-+:' {rn {nfg {mnn |
  1
:336/,:r<*-): {rn konlqflnkifkkfjinj nimhqolfimmoihfjgn o o o rn rkqglinlnkfjmihihoj:ronh oqoongooooooooooongnf o n V V |
  1
/061+ {rn konlqflnkifkkfjinj nimhqoknkmmoihfjgn o |
  1
<0:;8: {rn {nfm {mnm {rn {mnl 90-(>-; {k {rn |
  1
:;8: {rn {mok {mnk {nfm {mnj 90-(>-; |
  1
):-+:' {rn {nfl {mni |
  1
:336/,:r<*-): {rn konlqfjloiilliihli nimhqologhmoihfjgm o o o rn rjqlhlkhfklfngjhjgl:rong oqooomooooooooooooooon o n V V |
  1
/061+ {rn konlqfjloiilliihli nimhqoloihmoihfjg o |
  1
<0:;8: {rn {mnh {nfh {rn {mng -:):-,:; {k {rn |
  1
:;8: {rn {mnf {mof {nfh {mmo 90-(>-; |
  1
):-+:' {rn {mog {mmn |
  1
,+->687+r<*-): {rn konlqfmfiifkkfjinj nimhqomjmmmoihfjgn o rmqigihlfhnfjfmghgh:ronh oqoon o V V |
  1
/061+ {rn konlqfmfiifkkfjinj nimhqolfimmoihfjgn o |
  1
<0:;8: {rn {mom {mmm {rn {mml -:):-,:; {k {rn |
  1
:;8: {rn {mmk {mnk {mom {mmj 90-(>-; |
  1
):-+:' {rn {mol {mmi |
  1
:336/,:r<*-): {rn konlqfjlkifkkfjinj nimhqoloihmoihfjg o o o rn riqhnigkfmfgfgmnfif:rong oqooomjoooooooooooooon o n V V |
  1
/061+ {rn konlqfjlmkjkfhfjhn nimhqolohglnhfoifk o |
  1
<0:;8: {rn {mmm {moh {rn {mmh -:):-,:; {k {rn |
  1
:;8: {rn {mmg {mnf {moh {mmf 90-(>-; |
  1
):-+:' {rn {mng {mlo |
  1
:336/,:r<*-): {rn konlqflnkifkkfjinj nimhqomjmmmoihfjgn o o o rn rkqglinlnkfjmijmmif:ronh oqoonhfffffffffffmhmj o n V V |
  1
/061+ {rn konlqfmfiifkkfjinj nimhqomjmmmoihfjgn o |
  1
<0:;8: {rn {mnm {mnh {rn {mln -:):-,:; {k {rn |
  1
:;8: {rn {mmk {mlm {mnm {mll 90-(>-; |
  1
):-+:' {rn {mnl {mlk |
  1
:336/,:r<*-): {rn konlqfjlghmjimkkfg nimhqologhmoihfjgm o o o rn rjqlhlkhfklfnhhgfii:rong oqooonfffffffffffhohkn o n V V |
  1
/061+ {rn konlqfjliflkonnijg nimhqolohglnhfoif o |
  1
:;8: {rn {mlj {mmg {mnh {mli 90-(>-; |
  1
):-+:' {rn {mmh {mlh |
  1
,+->687+r<*-): {rn konlqfkgmhnnjklmhk nimhqomlkmmoihfjgn o roqoon rmqigihlfhnfjfmghgh:ronh o V V |
  1
/061+ {rn konlqflnkifkkfjinj nimhqomlkmmoihfjgn o |
  1
:;8: {rn {mlm {mlj {mmm {mlg 90-(>-; |
  1
):-+:' {rn {mml {mlf |
  1
,+->687+r<*-): {rn konlqfjlghmjimkkfg nimhqoloihmoihfjg o oqoon mqigihlfhnfjfmghgh:ronh o V V |
  1
/061+ {rn konlqfjlghmjimkkfg nimhqoloihmoihfjg o |
  1
):-+:' {rn {mln {mko |
  1
:336/,:r<*-): {rn konlqfkgmhnnjklmhk nimhqolmkmmoihfjgn o o o rn rmqkngoijhkhillimgl:roni oqoofoooooooooooonlgn o n V V |
  1
/061+ {rn konlqfkgmhnnjklmhk nimhqomlkmmoihfjgn o |
  1
:336/,:r<*-): {rn konlqfjkgifkkfjini nimhqomfohmoihfjgm o o o rn rkqmfghgljjnlifnlmk:ronh oqoonioooooooooohilfg o n V V |
  1
/061+ {rn konlqfjkgifkkfjini nimhqoloihmoihfjg o |
  1
/061+ {rn konlqfjimfinohffn nimhqomglkhhklillh o |
  0
LWPOLYLINE
  5
179C
330
1F
100
AcDbEntity
  8
SANINDUSA
100
AcDbPolyline
 90
       20
 70
     0
 43
0.0
 10
4013.940395822454
 20
1627.039744576563
 10
4013.945843076668
 20
1627.039744747566
 42
0.4142135623725959
 10
4013.946043070389
 20
1627.039944753844
 10
4013.946043057831
 20
1627.040344786695
 42
0.4142135623730951
 10
4013.945843051553
 20
1627.040544780417
 10
4013.944106472541
 20
1627.040544725901
 42
-0.4142135623730951
 10
4013.943906466263
 20
1627.040744719623
 10
4013.943906442217
 20
1627.041510662442
 42
-0.1943803091380277
 10
4013.943962569896
 20
1627.041649595878
 10
4013.951648269268
 20
1627.049608870572
 42
0.9826972631155188
 10
4013.951216587218
 20
1627.050040525518
 10
4013.942260463939
 20
1627.041391154438
 42
0.2034522994238806
 10
4013.94219940013
 20
1627.041247284561
 10
4013.94219941591
 20
1627.040744600331
 42
-0.4142135623730951
 10
4013.941999422189
 20
1627.040544594053
 10
4013.941036001202
 20
1627.040544563809
 42
0.0325821046079315
 10
4013.940373440729
 20
1627.040501321808
 42
0.3765495638223387
 10
4013.940199429772
 20
1627.040303011295
 10
4013.940199441026
 20
1627.039944537547
 42
0.4142135623730951
 10
4013.940399447304
 20
1627.039744543825
  0
LINE
  5
179D
330
1F
100
AcDbEntity
  8
SANINDUSA
100
AcDbLine
 10
4013.541663198931
 20
1627.033622067958
 30
0.0
 11
4013.929669449561
 21
1627.033622067958
 31
0.0
  0
LINE
  5
179E
330
1F
100
AcDbEntity
  8
SANINDUSA
100
AcDbLine
 10
4013.931469449562
 20
1627.041422067958
 30
0.0
 11
4013.541663198931
 21
1627.041422067958
 31
0.0
  0
LINE
  5
179F
330
1F
100
AcDbEntity
  8
SANINDUSA
100
AcDbLine
 10
4013.931469449562
 20
1627.023422067958
 30
0.0
 11
4013.541663198931
 21
1627.023422067958
 31
0.0
  0
LINE
  5
17A0
330
1F
100
AcDbEntity
  8
SANINDUSA
100
AcDbLine
 10
4014.471502560579
 20
1626.514138680942
 30
0.0
 11
4014.477143908489
 21
1626.514138680942
 31
0.0
  0
ARC
  5
17A1
330
1F
100
AcDbEntity
  8
SANINDUSA
100
AcDbCircle
 10
4014.481502560579
 20
1626.505138561389
 30
0.0
 40
0.01
100
AcDbArc
 50
90.0
 51
180.0
  0
LINE
  5
17A2
330
1F
100
AcDbEntity
  8
SANINDUSA
100
AcDbLine
 10
4015.312504259423
 20
1626.513838561389
 30
0.0
 11
4015.340502560579
 21
1626.513838561389
 31
0.0
  0
LINE
  5
17A3
330
1F
100
AcDbEntity
  8
SANINDUSA
100
AcDbLine
 10
4015.312504259423
 20
1628.310419560541
 30
0.0
 11
4014.610802560579
 21
1628.310419560541
 31
0.0
  0
LINE
  5
17A4
330
1F
100
AcDbEntity
  8
SANINDUSA
100
AcDbLine
 10
4015.312504259423
 20
1628.26107238104
 30
0.0
 11
4014.610802560579
 21
1628.26107238104
 31
0.0
  0
LINE
  5
17A5
330
1F
100
AcDbEntity
  8
SANINDUSA
100
AcDbLine
 10
4014.471502560579
 20
1628.310419560541
 30
0.0
 11
4014.610802560579
 21
1628.310419560541
 31
0.0
  0
LINE
  5
17A6
330
1F
100
AcDbEntity
  8
SANINDUSA
100
AcDbLine
 10
4014.610802560579
 20
1628.25977238104
 30
0.0
 11
4014.481502560579
 21
1628.25977238104
 31
0.0
  0
ARC
  5
17A7
330
1F
100
AcDbEntity
  8
SANINDUSA
100
AcDbCircle
 10
4014.481502560579
 20
1628.26977238104
 30
0.0
 40
0.01
100
AcDbArc
 50
180.0
 51
270.0
  0
LINE
  5
17A8
330
1F
100
AcDbEntity
  8
SANINDUSA
100
AcDbLine
 10
4014.471502560579
 20
1628.26977238104
 30
0.0
 11
4014.471502560579
 21
1628.310419560541
 31
0.0
  0
LINE
  5
17A9
330
1F
100
AcDbEntity
  8
SANINDUSA
100
AcDbLine
 10
4014.471502560579
 20
1628.260772261487
 30
0.0
 11
4014.471502560579
 21
1628.26977238104
 31
0.0
  0
LINE
  5
17AA
330
1F
100
AcDbEntity
  8
SANINDUSA
100
AcDbLine
 10
4014.471502560579
 20
1628.260772261487
 30
0.0
 11
4014.477143908489
 21
1628.260772261487
 31
0.0
  0
LINE
  5
17AB
330
1F
100
AcDbEntity
  8
SANINDUSA
100
AcDbLine
 10
4014.610802560579
 20
1628.25977238104
 30
0.0
 11
4014.610802560579
 21
1628.310419560541
 31
0.0
  0
LINE
  5
17AC
330
1F
100
AcDbEntity
  8
SANINDUSA
100
AcDbLine
 10
4015.312504259423
 20
1628.26107238104
 30
0.0
 11
4015.340502560579
 21
1628.26107238104
 31
0.0
  0
LINE
  5
17AD
330
1F
100
AcDbEntity
  8
SANINDUSA
100
AcDbLine
 10
4015.340502560579
 20
1628.310419560541
 30
0.0
 11
4015.312504259423
 21
1628.310419560541
 31
0.0
  0
LINE
  5
17AE
330
1F
100
AcDbEntity
  8
SANINDUSA
100
AcDbLine
 10
4015.312504259423
 20
1628.26107238104
 30
0.0
 11
4015.312504259423
 21
1628.310419560541
 31
0.0
  0
LINE
  5
17AF
330
1F
100
AcDbEntity
  8
SANINDUSA
100
AcDbLine
 10
4015.340502560579
 20
1628.310419560541
 30
0.0
 11
4015.340502560579
 21
1628.26107238104
 31
0.0
  0
LINE
  5
17B0
330
1F
100
AcDbEntity
  8
SANINDUSA
100
AcDbLine
 10
4014.489502560579
 20
1628.25977238104
 30
0.0
 11
4014.489502560579
 21
1626.515138561388
 31
0.0
  0
LINE
  5
17B1
330
1F
100
AcDbEntity
  8
SANINDUSA
100
AcDbLine
 10
4014.493219999385
 20
1628.25977238104
 30
0.0
 11
4014.493219999385
 21
1626.515138561388
 31
0.0
  0
LINE
  5
17B2
330
1F
100
AcDbEntity
  8
SANINDUSA
100
AcDbLine
 10
4014.513219020101
 20
1628.25977238104
 30
0.0
 11
4014.513219020101
 21
1626.515138561388
 31
0.0
  0
LINE
  5
17B3
330
1F
100
AcDbEntity
  8
SANINDUSA
100
AcDbLine
 10
4014.515552560579
 20
1628.25977238104
 30
0.0
 11
4014.515552560579
 21
1626.515138561388
 31
0.0
  0
LINE
  5
17B4
330
1F
100
AcDbEntity
  8
SANINDUSA
100
AcDbLine
 10
4014.535912560579
 20
1628.25977238104
 30
0.0
 11
4014.535912560579
 21
1626.515138561388
 31
0.0
  0
ENDSEC
  0
SECTION
  2
OBJECTS
  0
DICTIONARY
  5
C
330
0
100
AcDbDictionary
281
     1
  3
ACAD_2007HEADERVARS_RT
350
1824
  3
ACAD_COLOR
350
EE6
  3
ACAD_GROUP
350
D
  3
ACAD_LAYOUT
350
1A
  3
ACAD_MATERIAL
350
EE5
  3
ACAD_MLEADERSTYLE
350
10A8
  3
ACAD_MLINESTYLE
350
17
  3
ACAD_PLOTSETTINGS
350
19
  3
ACAD_PLOTSTYLENAME
350
E
  3
ACAD_SCALELIST
350
1096
  3
ACAD_TABLESTYLE
350
EE7
  3
ACAD_VISUALSTYLE
350
1082
  3
ACDB_RECOMPOSE_DATA
350
1822
  3
AcDbVariableDictionary
350
3D
  3
AEC_PROPERTY_SET_DEFS
350
1437
  3
ASE_INDEX_DICTIONARY
350
1066
  3
Autodesk_PNP
350
10B2
  3
DWGPROPS
350
1823
  0
DICTIONARY
  5
1051
330
2
100
AcDbDictionary
280
     1
281
     1
  3
ACAD_LAYERFILTERS
360
1065
  3
ACLYDICTIONARY
360
1064
  0
DICTIONARY
  5
17B5
330
10
100
AcDbDictionary
280
     1
281
     1
  3
ADSK_XREC_LAYER_RECONCILED
360
17B6
  0
DICTIONARY
  5
17B7
330
2F
100
AcDbDictionary
280
     1
281
     1
  3
ADSK_XREC_LAYER_RECONCILED
360
17B8
  0
DICTIONARY
  5
17B9
330
30
100
AcDbDictionary
280
     1
281
     1
  3
ADSK_XREC_LAYER_RECONCILED
360
17BA
  0
DICTIONARY
  5
17BB
330
31
100
AcDbDictionary
280
     1
281
     1
  3
ADSK_XREC_LAYER_RECONCILED
360
17BC
  0
DICTIONARY
  5
17BD
330
32
100
AcDbDictionary
280
     1
281
     1
  3
ADSK_XREC_LAYER_RECONCILED
360
17BE
  0
DICTIONARY
  5
17BF
330
33
100
AcDbDictionary
280
     1
281
     1
  3
ADSK_XREC_LAYER_RECONCILED
360
17C0
  0
DICTIONARY
  5
17C1
330
34
100
AcDbDictionary
280
     1
281
     1
  3
ADSK_XREC_LAYER_RECONCILED
360
17C2
  0
DICTIONARY
  5
17C3
330
35
100
AcDbDictionary
280
     1
281
     1
  3
ADSK_XREC_LAYER_RECONCILED
360
17C4
  0
DICTIONARY
  5
17C5
330
36
100
AcDbDictionary
280
     1
281
     1
  3
ADSK_XREC_LAYER_RECONCILED
360
17C6
  0
DICTIONARY
  5
17C7
330
37
100
AcDbDictionary
280
     1
281
     1
  3
ADSK_XREC_LAYER_RECONCILED
360
17C8
  0
DICTIONARY
  5
17C9
330
5D6
100
AcDbDictionary
280
     1
281
     1
  3
ADSK_XREC_LAYER_RECONCILED
360
17CA
  0
DICTIONARY
  5
17CB
330
8AF
100
AcDbDictionary
280
     1
281
     1
  3
ADSK_XREC_LAYER_RECONCILED
360
17CC
  0
DICTIONARY
  5
17CD
330
8F8
100
AcDbDictionary
280
     1
281
     1
  3
ADSK_XREC_LAYER_RECONCILED
360
17CE
  0
DICTIONARY
  5
17CF
330
91D
100
AcDbDictionary
280
     1
281
     1
  3
ADSK_XREC_LAYER_RECONCILED
360
17D0
  0
DICTIONARY
  5
17D1
330
C7B
100
AcDbDictionary
280
     1
281
     1
  3
ADSK_XREC_LAYER_RECONCILED
360
17D2
  0
DICTIONARY
  5
17D3
330
1060
100
AcDbDictionary
280
     1
281
     1
  3
ADSK_XREC_LAYER_RECONCILED
360
17D4
  0
DICTIONARY
  5
17D5
330
10B3
100
AcDbDictionary
280
     1
281
     1
  3
ADSK_XREC_LAYER_RECONCILED
360
17D6
  0
DICTIONARY
  5
17D7
330
10B4
100
AcDbDictionary
280
     1
281
     1
  3
ADSK_XREC_LAYER_RECONCILED
360
17D8
  0
DICTIONARY
  5
17D9
330
10B5
100
AcDbDictionary
280
     1
281
     1
  3
ADSK_XREC_LAYER_RECONCILED
360
17DA
  0
DICTIONARY
  5
17DB
330
10B6
100
AcDbDictionary
280
     1
281
     1
  3
ADSK_XREC_LAYER_RECONCILED
360
17DC
  0
DICTIONARY
  5
1824
102
{ACAD_REACTORS
330
C
102
}
330
C
100
AcDbDictionary
281
     1
  3
DIMJOGANG
350
1825
  0
DICTIONARY
  5
EE6
102
{ACAD_REACTORS
330
C
102
}
330
C
100
AcDbDictionary
281
     1
  0
DICTIONARY
  5
D
102
{ACAD_REACTORS
330
C
102
}
330
C
100
AcDbDictionary
281
     1
  0
DICTIONARY
  5
1A
102
{ACAD_REACTORS
330
C
102
}
330
C
100
AcDbDictionary
281
     1
  3
Layout1
350
1E
  3
Layout2
350
26
  3
Model
350
22
  0
DICTIONARY
  5
EE5
102
{ACAD_REACTORS
330
C
102
}
330
C
100
AcDbDictionary
281
     1
  3
ByBlock
350
1072
  3
ByLayer
350
106A
  3
Global
350
107A
  0
DICTIONARY
  5
10A8
102
{ACAD_REACTORS
330
C
102
}
330
C
100
AcDbDictionary
281
     1
  3
Standard
350
10A9
  0
DICTIONARY
  5
17
102
{ACAD_REACTORS
330
C
102
}
330
C
100
AcDbDictionary
281
     1
  3
Standard
350
18
  0
DICTIONARY
  5
19
102
{ACAD_REACTORS
330
C
102
}
330
C
100
AcDbDictionary
281
     1
  0
ACDBDICTIONARYWDFLT
  5
E
102
{ACAD_REACTORS
330
C
102
}
330
C
100
AcDbDictionary
281
     1
  3
Normal
350
F
100
AcDbDictionaryWithDefault
340
F
  0
DICTIONARY
  5
1096
102
{ACAD_REACTORS
330
C
102
}
330
C
100
AcDbDictionary
281
     1
  3
A0
350
1097
  3
A1
350
1098
  3
A2
350
1099
  3
A3
350
109A
  3
A4
350
109B
  3
A5
350
109C
  3
A6
350
109D
  3
A7
350
109E
  3
A8
350
109F
  3
A9
350
10A0
  3
B0
350
10A1
  3
B1
350
10A2
  3
B2
350
10A3
  3
B3
350
10A4
  3
B4
350
10A5
  3
B5
350
10A6
  3
B6
350
10A7
  0
DICTIONARY
  5
EE7
102
{ACAD_REACTORS
330
C
102
}
330
C
100
AcDbDictionary
281
     1
  3
Standard
350
EE8
  0
DICTIONARY
  5
1082
102
{ACAD_REACTORS
330
C
102
}
330
C
100
AcDbDictionary
281
     1
  3
2dWireframe
350
1088
  3
3D Hidden
350
108A
  3
3dWireframe
350
1089
  3
Basic
350
1087
  3
Brighten
350
108E
  3
ColorChange
350
1092
  3
Conceptual
350
108B
  3
Dim
350
108D
  3
EdgeColorOff
350
1095
  3
Facepattern
350
1091
  3
Flat
350
1083
  3
FlatWithEdges
350
1084
  3
Gouraud
350
1085
  3
GouraudWithEdges
350
1086
  3
JitterOff
350
1093
  3
Linepattern
350
1090
  3
OverhangOff
350
1094
  3
Realistic
350
108C
  3
Thicken
350
108F
  0
XRECORD
  5
1822
102
{ACAD_REACTORS
330
C
102
}
330
C
100
AcDbXrecord
280
     1
 90
        1
330
EE8
  0
DICTIONARY
  5
3D
102
{ACAD_REACTORS
330
C
102
}
330
C
100
AcDbDictionary
281
     1
  3
CANNOSCALE
350
181C
  3
CMLEADERSTYLE
350
181B
  3
CTABLESTYLE
350
1049
  3
DIMASSOC
350
3F
  3
HIDETEXT
350
3E
  3
INDEXCTL
350
181E
  3
SORTENTS
350
181D
  3
XCLIPFRAME
350
181F
  0
DICTIONARY
  5
1437
102
{ACAD_REACTORS
330
C
102
}
330
C
100
AcDbDictionary
281
     1
  0
DICTIONARY
  5
1066
102
{ACAD_REACTORS
330
C
102
}
330
C
100
AcDbDictionary
281
     1
  3
ASEBlockHierarchyIndexRecord
350
1067
1001
DCO15
1040
1602247867.484
  0
DICTIONARY
  5
10B2
102
{ACAD_REACTORS
330
C
102
}
330
C
100
AcDbDictionary
281
     1
  0
XRECORD
  5
1823
102
{ACAD_REACTORS
330
C
102
}
330
C
100
AcDbXrecord
280
     1
  1
DWGPROPS COOKIE
  2

  3

  4

  6

  7

  8
Julio
  9

300
=
301
=
302
=
303
=
304
=
305
=
306
=
307
=
308
=
309
=
 40
0.0170252893518519
 41
2455824.730529329
 42
2455824.747554433
  1

 90
        0
  0
DICTIONARY
  5
1065
102
{ACAD_REACTORS
330
1051
102
}
330
1051
100
AcDbDictionary
281
     1
  0
DICTIONARY
  5
1064
102
{ACAD_REACTORS
330
1051
102
}
330
1051
100
AcDbDictionary
281
     1
1001
ACAD
1000
<All
  0
XRECORD
  5
17B6
102
{ACAD_REACTORS
330
17B5
102
}
330
17B5
100
AcDbXrecord
280
     1
290
     1
  0
XRECORD
  5
17B8
102
{ACAD_REACTORS
330
17B7
102
}
330
17B7
100
AcDbXrecord
280
     1
290
     1
  0
XRECORD
  5
17BA
102
{ACAD_REACTORS
330
17B9
102
}
330
17B9
100
AcDbXrecord
280
     1
290
     1
  0
XRECORD
  5
17BC
102
{ACAD_REACTORS
330
17BB
102
}
330
17BB
100
AcDbXrecord
280
     1
290
     1
  0
XRECORD
  5
17BE
102
{ACAD_REACTORS
330
17BD
102
}
330
17BD
100
AcDbXrecord
280
     1
290
     1
  0
XRECORD
  5
17C0
102
{ACAD_REACTORS
330
17BF
102
}
330
17BF
100
AcDbXrecord
280
     1
290
     1
  0
XRECORD
  5
17C2
102
{ACAD_REACTORS
330
17C1
102
}
330
17C1
100
AcDbXrecord
280
     1
290
     1
  0
XRECORD
  5
17C4
102
{ACAD_REACTORS
330
17C3
102
}
330
17C3
100
AcDbXrecord
280
     1
290
     1
  0
XRECORD
  5
17C6
102
{ACAD_REACTORS
330
17C5
102
}
330
17C5
100
AcDbXrecord
280
     1
290
     1
  0
XRECORD
  5
17C8
102
{ACAD_REACTORS
330
17C7
102
}
330
17C7
100
AcDbXrecord
280
     1
290
     1
  0
XRECORD
  5
17CA
102
{ACAD_REACTORS
330
17C9
102
}
330
17C9
100
AcDbXrecord
280
     1
290
     1
  0
XRECORD
  5
17CC
102
{ACAD_REACTORS
330
17CB
102
}
330
17CB
100
AcDbXrecord
280
     1
290
     1
  0
XRECORD
  5
17CE
102
{ACAD_REACTORS
330
17CD
102
}
330
17CD
100
AcDbXrecord
280
     1
290
     1
  0
XRECORD
  5
17D0
102
{ACAD_REACTORS
330
17CF
102
}
330
17CF
100
AcDbXrecord
280
     1
290
     1
  0
XRECORD
  5
17D2
102
{ACAD_REACTORS
330
17D1
102
}
330
17D1
100
AcDbXrecord
280
     1
290
     1
  0
XRECORD
  5
17D4
102
{ACAD_REACTORS
330
17D3
102
}
330
17D3
100
AcDbXrecord
280
     1
290
     1
  0
XRECORD
  5
17D6
102
{ACAD_REACTORS
330
17D5
102
}
330
17D5
100
AcDbXrecord
280
     1
290
     1
  0
XRECORD
  5
17D8
102
{ACAD_REACTORS
330
17D7
102
}
330
17D7
100
AcDbXrecord
280
     1
290
     1
  0
XRECORD
  5
17DA
102
{ACAD_REACTORS
330
17D9
102
}
330
17D9
100
AcDbXrecord
280
     1
290
     1
  0
XRECORD
  5
17DC
102
{ACAD_REACTORS
330
17DB
102
}
330
17DB
100
AcDbXrecord
280
     1
290
     1
  0
XRECORD
  5
1825
102
{ACAD_REACTORS
330
1824
102
}
330
1824
100
AcDbXrecord
280
     1
 40
1.570796326794896
  0
LAYOUT
  5
1E
102
{ACAD_XDICTIONARY
360
1826
102
}
102
{ACAD_REACTORS
330
1A
102
}
330
1A
100
AcDbPlotSettings
  1

  2
Ploter HP500
  4

  6

 40
0.0
 41
0.0
 42
0.0
 43
0.0
 44
0.0
 45
0.0
 46
0.0
 47
0.0
 48
0.0
 49
0.0
140
0.0
141
0.0
142
1.0
143
1.0
 70
   688
 72
     0
 73
     0
 74
     5
  7
sanindusa.ctb
 75
    16
147
1.0
148
0.0
149
0.0
100
AcDbLayout
  1
Layout1
 70
     1
 71
     1
 10
0.0
 20
0.0
 11
420.0
 21
297.0
 12
0.0
 22
0.0
 32
0.0
 14
1.000000000000000E+20
 24
1.000000000000000E+20
 34
1.000000000000000E+20
 15
-1.000000000000000E+20
 25
-1.000000000000000E+20
 35
-1.000000000000000E+20
146
0.0
 13
0.0
 23
0.0
 33
0.0
 16
1.0
 26
0.0
 36
0.0
 17
0.0
 27
1.0
 37
0.0
 76
     0
330
1B
  0
LAYOUT
  5
26
102
{ACAD_XDICTIONARY
360
182A
102
}
102
{ACAD_REACTORS
330
1A
102
}
330
1A
100
AcDbPlotSettings
  1

  2
Ploter HP500
  4

  6

 40
0.0
 41
0.0
 42
0.0
 43
0.0
 44
0.0
 45
0.0
 46
0.0
 47
0.0
 48
0.0
 49
0.0
140
0.0
141
0.0
142
1.0
143
1.0
 70
   688
 72
     0
 73
     0
 74
     5
  7
sanindusa.ctb
 75
    16
147
1.0
148
0.0
149
0.0
100
AcDbLayout
  1
Layout2
 70
     1
 71
     2
 10
0.0
 20
0.0
 11
12.0
 21
9.0
 12
0.0
 22
0.0
 32
0.0
 14
0.0
 24
0.0
 34
0.0
 15
0.0
 25
0.0
 35
0.0
146
0.0
 13
0.0
 23
0.0
 33
0.0
 16
1.0
 26
0.0
 36
0.0
 17
0.0
 27
1.0
 37
0.0
 76
     0
330
23
  0
LAYOUT
  5
22
102
{ACAD_XDICTIONARY
360
1828
102
}
102
{ACAD_REACTORS
330
1A
102
}
330
1A
100
AcDbPlotSettings
  1

  2
Ploter HP500
  4
User268
  6

 40
4.995333194732666
 41
16.97565841674804
 42
4.995330810546875
 43
16.97567749023437
 44
209.9733276367187
 45
296.9259948730469
 46
0.0
 47
0.0
 48
0.0
 49
0.0
140
0.0
141
0.0
142
1.0
143
1.0
 70
 11952
 72
     1
 73
     1
 74
     0
  7
sanindusa.ctb
 75
     0
147
1.0
148
-427.5957866592534
149
7.362384574453926
100
AcDbLayout
  1
Model
 70
     1
 71
     0
 10
0.0
 20
0.0
 11
12.0
 21
9.0
 12
0.0
 22
0.0
 32
0.0
 14
0.0
 24
0.0
 34
0.0
 15
0.0
 25
0.0
 35
0.0
146
0.0
 13
0.0
 23
0.0
 33
0.0
 16
1.0
 26
0.0
 36
0.0
 17
0.0
 27
1.0
 37
0.0
 76
     0
330
1F
331
1068
  0
MATERIAL
  5
1072
102
{ACAD_XDICTIONARY
360
1073
102
}
102
{ACAD_REACTORS
330
EE5
102
}
330
EE5
100
AcDbMaterial
  1
ByBlock
 72
     0
 43
0.0008202099737533
 43
0.0
 43
0.0
 43
0.0
 43
0.0
 43
0.0008202099737533
 43
0.0
 43
0.0
 43
0.0
 43
0.0
 43
1.0
 43
0.0
 43
0.0
 43
0.0
 43
0.0
 43
1.0
 77
     0
 47
0.0008202099737533
 47
0.0
 47
0.0
 47
0.0
 47
0.0
 47
0.0008202099737533
 47
0.0
 47
0.0
 47
0.0
 47
0.0
 47
1.0
 47
0.0
 47
0.0
 47
0.0
 47
0.0
 47
1.0
171
     0
 49
0.0008202099737533
 49
0.0
 49
0.0
 49
0.0
 49
0.0
 49
0.0008202099737533
 49
0.0
 49
0.0
 49
0.0
 49
0.0
 49
1.0
 49
0.0
 49
0.0
 49
0.0
 49
0.0
 49
1.0
175
     0
142
0.0008202099737533
142
0.0
142
0.0
142
0.0
142
0.0
142
0.0008202099737533
142
0.0
142
0.0
142
0.0
142
0.0
142
1.0
142
0.0
142
0.0
142
0.0
142
0.0
142
1.0
179
     0
144
0.0008202099737533
144
0.0
144
0.0
144
0.0
144
0.0
144
0.0008202099737533
144
0.0
144
0.0
144
0.0
144
0.0
144
1.0
144
0.0
144
0.0
144
0.0
144
0.0
144
1.0
147
0.0008202099737533
147
0.0
147
0.0
147
0.0
147
0.0
147
0.0008202099737533
147
0.0
147
0.0
147
0.0
147
0.0
147
1.0
147
0.0
147
0.0
147
0.0
147
0.0
147
1.0
  0
MATERIAL
  5
106A
102
{ACAD_XDICTIONARY
360
106B
102
}
102
{ACAD_REACTORS
330
EE5
102
}
330
EE5
100
AcDbMaterial
  1
ByLayer
 72
     0
 43
0.0008202099737533
 43
0.0
 43
0.0
 43
0.0
 43
0.0
 43
0.0008202099737533
 43
0.0
 43
0.0
 43
0.0
 43
0.0
 43
1.0
 43
0.0
 43
0.0
 43
0.0
 43
0.0
 43
1.0
 77
     0
 47
0.0008202099737533
 47
0.0
 47
0.0
 47
0.0
 47
0.0
 47
0.0008202099737533
 47
0.0
 47
0.0
 47
0.0
 47
0.0
 47
1.0
 47
0.0
 47
0.0
 47
0.0
 47
0.0
 47
1.0
171
     0
 49
0.0008202099737533
 49
0.0
 49
0.0
 49
0.0
 49
0.0
 49
0.0008202099737533
 49
0.0
 49
0.0
 49
0.0
 49
0.0
 49
1.0
 49
0.0
 49
0.0
 49
0.0
 49
0.0
 49
1.0
175
     0
142
0.0008202099737533
142
0.0
142
0.0
142
0.0
142
0.0
142
0.0008202099737533
142
0.0
142
0.0
142
0.0
142
0.0
142
1.0
142
0.0
142
0.0
142
0.0
142
0.0
142
1.0
179
     0
144
0.0008202099737533
144
0.0
144
0.0
144
0.0
144
0.0
144
0.0008202099737533
144
0.0
144
0.0
144
0.0
144
0.0
144
1.0
144
0.0
144
0.0
144
0.0
144
0.0
144
1.0
147
0.0008202099737533
147
0.0
147
0.0
147
0.0
147
0.0
147
0.0008202099737533
147
0.0
147
0.0
147
0.0
147
0.0
147
1.0
147
0.0
147
0.0
147
0.0
147
0.0
147
1.0
  0
MATERIAL
  5
107A
102
{ACAD_XDICTIONARY
360
107B
102
}
102
{ACAD_REACTORS
330
EE5
102
}
330
EE5
100
AcDbMaterial
  1
Global
 72
     0
 43
0.0008202099737533
 43
0.0
 43
0.0
 43
0.0
 43
0.0
 43
0.0008202099737533
 43
0.0
 43
0.0
 43
0.0
 43
0.0
 43
1.0
 43
0.0
 43
0.0
 43
0.0
 43
0.0
 43
1.0
 77
     0
 47
0.0008202099737533
 47
0.0
 47
0.0
 47
0.0
 47
0.0
 47
0.0008202099737533
 47
0.0
 47
0.0
 47
0.0
 47
0.0
 47
1.0
 47
0.0
 47
0.0
 47
0.0
 47
0.0
 47
1.0
171
     0
 49
0.0008202099737533
 49
0.0
 49
0.0
 49
0.0
 49
0.0
 49
0.0008202099737533
 49
0.0
 49
0.0
 49
0.0
 49
0.0
 49
1.0
 49
0.0
 49
0.0
 49
0.0
 49
0.0
 49
1.0
175
     0
142
0.0008202099737533
142
0.0
142
0.0
142
0.0
142
0.0
142
0.0008202099737533
142
0.0
142
0.0
142
0.0
142
0.0
142
1.0
142
0.0
142
0.0
142
0.0
142
0.0
142
1.0
179
     0
144
0.0008202099737533
144
0.0
144
0.0
144
0.0
144
0.0
144
0.0008202099737533
144
0.0
144
0.0
144
0.0
144
0.0
144
1.0
144
0.0
144
0.0
144
0.0
144
0.0
144
1.0
147
0.0008202099737533
147
0.0
147
0.0
147
0.0
147
0.0
147
0.0008202099737533
147
0.0
147
0.0
147
0.0
147
0.0
147
1.0
147
0.0
147
0.0
147
0.0
147
0.0
147
1.0
  0
MLEADERSTYLE
  5
10A9
102
{ACAD_REACTORS
330
10A8
102
}
330
10A8
100
AcDbMLeaderStyle
170
     2
171
     1
172
     0
 90
        2
 40
0.0
 41
0.0
173
     1
 91
-1056964608
340
14
 92
       -2
290
     1
 42
2.0
291
     1
 43
0.36
  3
Standard
 44
4.0
300

342
11
174
     1
178
     6
175
     1
176
     0
 93
-1056964608
 45
4.0
292
     0
297
     0
 46
4.0
 94
-1056964608
 47
1.0
 49
1.0
140
1.0
293
     1
141
0.0
294
     1
177
     0
142
1.0
295
     0
296
     0
143
0.125
1001
ACAD_MLEADERVER
1070
     2
  0
MLINESTYLE
  5
18
102
{ACAD_REACTORS
330
17
102
}
330
17
100
AcDbMlineStyle
  2
STANDARD
 70
     0
  3

 62
   256
 51
90.0
 52
90.0
 71
     2
 49
0.5
 62
   256
  6
BYLAYER
 49
-0.5
 62
   256
  6
BYLAYER
  0
ACDBPLACEHOLDER
  5
F
102
{ACAD_REACTORS
330
E
102
}
330
E
  0
SCALE
  5
1097
102
{ACAD_REACTORS
330
1096
102
}
330
1096
100
AcDbScale
 70
     0
300
1:1
140
1.0
141
1.0
290
     1
  0
SCALE
  5
1098
102
{ACAD_REACTORS
330
1096
102
}
330
1096
100
AcDbScale
 70
     0
300
1:2
140
1.0
141
2.0
290
     0
  0
SCALE
  5
1099
102
{ACAD_REACTORS
330
1096
102
}
330
1096
100
AcDbScale
 70
     0
300
1:4
140
1.0
141
4.0
290
     0
  0
SCALE
  5
109A
102
{ACAD_REACTORS
330
1096
102
}
330
1096
100
AcDbScale
 70
     0
300
1:5
140
1.0
141
5.0
290
     0
  0
SCALE
  5
109B
102
{ACAD_REACTORS
330
1096
102
}
330
1096
100
AcDbScale
 70
     0
300
1:8
140
1.0
141
8.0
290
     0
  0
SCALE
  5
109C
102
{ACAD_REACTORS
330
1096
102
}
330
1096
100
AcDbScale
 70
     0
300
1:10
140
1.0
141
10.0
290
     0
  0
SCALE
  5
109D
102
{ACAD_REACTORS
330
1096
102
}
330
1096
100
AcDbScale
 70
     0
300
1:16
140
1.0
141
16.0
290
     0
  0
SCALE
  5
109E
102
{ACAD_REACTORS
330
1096
102
}
330
1096
100
AcDbScale
 70
     0
300
1:20
140
1.0
141
20.0
290
     0
  0
SCALE
  5
109F
102
{ACAD_REACTORS
330
1096
102
}
330
1096
100
AcDbScale
 70
     0
300
1:30
140
1.0
141
30.0
290
     0
  0
SCALE
  5
10A0
102
{ACAD_REACTORS
330
1096
102
}
330
1096
100
AcDbScale
 70
     0
300
1:40
140
1.0
141
40.0
290
     0
  0
SCALE
  5
10A1
102
{ACAD_REACTORS
330
1096
102
}
330
1096
100
AcDbScale
 70
     0
300
1:50
140
1.0
141
50.0
290
     0
  0
SCALE
  5
10A2
102
{ACAD_REACTORS
330
1096
102
}
330
1096
100
AcDbScale
 70
     0
300
1:100
140
1.0
141
100.0
290
     0
  0
SCALE
  5
10A3
102
{ACAD_REACTORS
330
1096
102
}
330
1096
100
AcDbScale
 70
     0
300
2:1
140
2.0
141
1.0
290
     0
  0
SCALE
  5
10A4
102
{ACAD_REACTORS
330
1096
102
}
330
1096
100
AcDbScale
 70
     0
300
4:1
140
4.0
141
1.0
290
     0
  0
SCALE
  5
10A5
102
{ACAD_REACTORS
330
1096
102
}
330
1096
100
AcDbScale
 70
     0
300
8:1
140
8.0
141
1.0
290
     0
  0
SCALE
  5
10A6
102
{ACAD_REACTORS
330
1096
102
}
330
1096
100
AcDbScale
 70
     0
300
10:1
140
10.0
141
1.0
290
     0
  0
SCALE
  5
10A7
102
{ACAD_REACTORS
330
1096
102
}
330
1096
100
AcDbScale
 70
     0
300
100:1
140
100.0
141
1.0
290
     0
  0
TABLESTYLE
  5
EE8
102
{ACAD_XDICTIONARY
360
1820
102
}
102
{ACAD_REACTORS
330
EE7
102
}
330
EE7
100
AcDbTableStyle
  3
Standard
 70
     0
 71
     0
 40
1.5
 41
1.5
280
     0
281
     0
  7
Standard
140
4.5
170
     2
 62
     0
 63
     7
283
     0
274
    -2
284
     1
 64
     0
275
    -2
285
     1
 65
     0
276
    -2
286
     1
 66
     0
277
    -2
287
     1
 67
     0
278
    -2
288
     1
 68
     0
279
    -2
289
     1
 69
     0
  7
Standard
140
6.0
170
     5
 62
     0
 63
     7
283
     0
274
    -2
284
     1
 64
     0
275
    -2
285
     1
 65
     0
276
    -2
286
     1
 66
     0
277
    -2
287
     1
 67
     0
278
    -2
288
     1
 68
     0
279
    -2
289
     1
 69
     0
  7
Standard
140
4.5
170
     5
 62
     0
 63
     7
283
     0
274
    -2
284
     1
 64
     0
275
    -2
285
     1
 65
     0
276
    -2
286
     1
 66
     0
277
    -2
287
     1
 67
     0
278
    -2
288
     1
 68
     0
279
    -2
289
     1
 69
     0
  0
VISUALSTYLE
  5
1088
102
{ACAD_XDICTIONARY
360
183A
102
}
102
{ACAD_REACTORS
330
1082
102
}
330
1082
100
AcDbVisualStyle
  2
2dWireframe
 70
     4
 71
     0
 72
     2
 73
     0
 90
        0
 40
-0.6
 41
-30.0
 62
     5
 63
     7
 74
     1
 91
        4
 64
     7
 65
   257
 75
     1
175
     1
 42
1.0
 92
        0
 66
   257
 43
1.0
 76
     1
 77
     6
 78
     2
 67
     7
 79
     5
170
     0
171
     0
290
     0
174
     0
 93
        1
 44
0.0
173
     0
291
     0
 45
0.0
1001
ACAD
1000
AcDbSavedByObjectVersion
1070
     0
  0
VISUALSTYLE
  5
108A
102
{ACAD_XDICTIONARY
360
183E
102
}
102
{ACAD_REACTORS
330
1082
102
}
330
1082
100
AcDbVisualStyle
  2
3D Hidden
 70
     6
 71
     1
 72
     2
 73
     2
 90
        0
 40
-0.6
 41
-30.0
 62
     5
 63
     7
 74
     2
 91
        2
 64
     7
 65
   257
 75
     2
175
     1
 42
179.0
 92
        0
 66
   257
 43
1.0
 76
     1
 77
     6
 78
     2
 67
     7
 79
     3
170
     0
171
     0
290
     0
174
     0
 93
        1
 44
0.0
173
     0
291
     0
 45
0.0
1001
ACAD
1000
AcDbSavedByObjectVersion
1070
     0
  0
VISUALSTYLE
  5
1089
102
{ACAD_XDICTIONARY
360
183C
102
}
102
{ACAD_REACTORS
330
1082
102
}
330
1082
100
AcDbVisualStyle
  2
3dWireframe
 70
     5
 71
     0
 72
     2
 73
     0
 90
        0
 40
-0.6
 41
-30.0
 62
     5
 63
     7
 74
     1
 91
        4
 64
     7
 65
   257
 75
     1
175
     1
 42
1.0
 92
        0
 66
   257
 43
1.0
 76
     1
 77
     6
 78
     2
 67
     7
 79
     5
170
     0
171
     0
290
     0
174
     0
 93
        1
 44
0.0
173
     0
291
     0
 45
0.0
1001
ACAD
1000
AcDbSavedByObjectVersion
1070
     0
  0
VISUALSTYLE
  5
1087
102
{ACAD_XDICTIONARY
360
1838
102
}
102
{ACAD_REACTORS
330
1082
102
}
330
1082
100
AcDbVisualStyle
  2
Basic
 70
     7
 71
     1
 72
     0
 73
     1
 90
        0
 40
-0.6
 41
-30.0
 62
     5
 63
     7
 74
     0
 91
        4
 64
     7
 65
   257
 75
     1
175
     1
 42
1.0
 92
        8
 66
     7
 43
1.0
 76
     1
 77
     6
 78
     2
 67
     7
 79
     5
170
     0
171
     0
290
     0
174
     0
 93
        1
 44
0.0
173
     0
291
     1
 45
0.0
1001
ACAD
1000
AcDbSavedByObjectVersion
1070
     0
  0
VISUALSTYLE
  5
108E
102
{ACAD_XDICTIONARY
360
1846
102
}
102
{ACAD_REACTORS
330
1082
102
}
330
1082
100
AcDbVisualStyle
  2
Brighten
 70
    12
 71
     2
 72
     2
 73
     0
 90
        0
 40
-0.6
 41
-30.0
 62
     5
 63
     7
 74
     1
 91
        4
 64
     7
 65
   257
 75
     1
175
     1
 42
1.0
 92
        8
 66
     7
 43
1.0
 76
     1
 77
     6
 78
     2
 67
     7
 79
     5
170
     0
171
     0
290
     0
174
     0
 93
        1
 44
50.0
173
     0
291
     1
 45
0.0
1001
ACAD
1000
AcDbSavedByObjectVersion
1070
     0
  0
VISUALSTYLE
  5
1092
102
{ACAD_XDICTIONARY
360
184E
102
}
102
{ACAD_REACTORS
330
1082
102
}
330
1082
100
AcDbVisualStyle
  2
ColorChange
 70
    16
 71
     2
 72
     2
 73
     3
 90
        0
 40
-0.6
 41
-30.0
 62
     5
 63
     8
 74
     1
 91
        4
 64
     7
 65
   257
 75
     1
175
     1
 42
1.0
 92
        8
 66
     8
 43
1.0
 76
     1
 77
     6
 78
     2
 67
     7
 79
     5
170
     0
171
     0
290
     0
174
     0
 93
        1
 44
0.0
173
     0
291
     1
 45
0.0
1001
ACAD
1000
AcDbSavedByObjectVersion
1070
     0
  0
VISUALSTYLE
  5
108B
102
{ACAD_XDICTIONARY
360
1840
102
}
102
{ACAD_REACTORS
330
1082
102
}
330
1082
100
AcDbVisualStyle
  2
Conceptual
 70
     9
 71
     3
 72
     2
 73
     0
 90
        0
 40
-0.6
 41
-30.0
 62
     5
 63
     7
 74
     2
 91
        2
 64
     7
 65
   257
 75
     1
175
     1
 42
179.0
 92
        8
 66
     7
 43
1.0
 76
     1
 77
     6
 78
     2
 67
     7
 79
     3
170
     0
171
     0
290
     0
174
     0
 93
        1
 44
0.0
173
     0
291
     0
 45
0.0
1001
ACAD
1000
AcDbSavedByObjectVersion
1070
     0
  0
VISUALSTYLE
  5
108D
102
{ACAD_XDICTIONARY
360
1844
102
}
102
{ACAD_REACTORS
330
1082
102
}
330
1082
100
AcDbVisualStyle
  2
Dim
 70
    11
 71
     2
 72
     2
 73
     0
 90
        0
 40
-0.6
 41
-30.0
 62
     5
 63
     7
 74
     1
 91
        4
 64
     7
 65
   257
 75
     1
175
     1
 42
1.0
 92
        8
 66
     7
 43
1.0
 76
     1
 77
     6
 78
     2
 67
     7
 79
     5
170
     0
171
     0
290
     0
174
     0
 93
        1
 44
-50.0
173
     0
291
     1
 45
0.0
1001
ACAD
1000
AcDbSavedByObjectVersion
1070
     0
  0
VISUALSTYLE
  5
1095
102
{ACAD_XDICTIONARY
360
1854
102
}
102
{ACAD_REACTORS
330
1082
102
}
330
1082
100
AcDbVisualStyle
  2
EdgeColorOff
 70
    22
 71
     2
 72
     2
 73
     0
 90
        0
 40
-0.6
 41
-30.0
 62
     5
 63
     7
 74
     1
 91
        4
 64
     7
 65
   257
 75
     1
175
     1
 42
1.0
 92
        8
 66
     7
 43
1.0
 76
     1
 77
     6
 78
     2
 67
     7
 79
     5
170
     0
171
     0
290
     0
174
     0
 93
        1
 44
0.0
173
     0
291
     1
 45
0.0
1001
ACAD
1000
AcDbSavedByObjectVersion
1070
     0
  0
VISUALSTYLE
  5
1091
102
{ACAD_XDICTIONARY
360
184C
102
}
102
{ACAD_REACTORS
330
1082
102
}
330
1082
100
AcDbVisualStyle
  2
Facepattern
 70
    15
 71
     2
 72
     2
 73
     0
 90
        0
 40
-0.6
 41
-30.0
 62
     5
 63
     7
 74
     1
 91
        4
 64
     7
 65
   257
 75
     1
175
     1
 42
1.0
 92
        8
 66
     7
 43
1.0
 76
     1
 77
     6
 78
     2
 67
     7
 79
     5
170
     0
171
     0
290
     0
174
     0
 93
        1
 44
0.0
173
     0
291
     1
 45
0.0
1001
ACAD
1000
AcDbSavedByObjectVersion
1070
     0
  0
VISUALSTYLE
  5
1083
102
{ACAD_XDICTIONARY
360
1830
102
}
102
{ACAD_REACTORS
330
1082
102
}
330
1082
100
AcDbVisualStyle
  2
Flat
 70
     0
 71
     2
 72
     1
 73
     1
 90
        2
 40
-0.6
 41
30.0
 62
     5
 63
     7
 74
     0
 91
        4
 64
     7
 65
   257
 75
     1
175
     1
 42
1.0
 92
        8
 66
     7
 43
1.0
 76
     1
 77
     6
 78
     2
 67
     7
 79
     5
170
     0
171
     0
290
     0
174
     0
 93
       13
 44
0.0
173
     0
291
     1
 45
0.0
1001
ACAD
1000
AcDbSavedByObjectVersion
1070
     0
  0
VISUALSTYLE
  5
1084
102
{ACAD_XDICTIONARY
360
1832
102
}
102
{ACAD_REACTORS
330
1082
102
}
330
1082
100
AcDbVisualStyle
  2
FlatWithEdges
 70
     1
 71
     2
 72
     1
 73
     1
 90
        2
 40
-0.6
 41
30.0
 62
     5
 63
     7
 74
     1
 91
        4
 64
     7
 65
   257
 75
     1
175
     1
 42
1.0
 92
        0
 66
   257
 43
1.0
 76
     1
 77
     6
 78
     2
 67
     7
 79
     5
170
     0
171
     0
290
     0
174
     0
 93
       13
 44
0.0
173
     0
291
     1
 45
0.0
1001
ACAD
1000
AcDbSavedByObjectVersion
1070
     0
  0
VISUALSTYLE
  5
1085
102
{ACAD_XDICTIONARY
360
1834
102
}
102
{ACAD_REACTORS
330
1082
102
}
330
1082
100
AcDbVisualStyle
  2
Gouraud
 70
     2
 71
     2
 72
     2
 73
     1
 90
        2
 40
-0.6
 41
30.0
 62
     5
 63
     7
 74
     0
 91
        4
 64
     7
 65
   257
 75
     1
175
     1
 42
1.0
 92
        0
 66
     7
 43
1.0
 76
     1
 77
     6
 78
     2
 67
     7
 79
     5
170
     0
171
     0
290
     0
174
     0
 93
       13
 44
0.0
173
     0
291
     1
 45
0.0
1001
ACAD
1000
AcDbSavedByObjectVersion
1070
     0
  0
VISUALSTYLE
  5
1086
102
{ACAD_XDICTIONARY
360
1836
102
}
102
{ACAD_REACTORS
330
1082
102
}
330
1082
100
AcDbVisualStyle
  2
GouraudWithEdges
 70
     3
 71
     2
 72
     2
 73
     1
 90
        2
 40
-0.6
 41
30.0
 62
     5
 63
     7
 74
     1
 91
        4
 64
     7
 65
   257
 75
     1
175
     1
 42
1.0
 92
        0
 66
   257
 43
1.0
 76
     1
 77
     6
 78
     2
 67
     7
 79
     5
170
     0
171
     0
290
     0
174
     0
 93
       13
 44
0.0
173
     0
291
     1
 45
0.0
1001
ACAD
1000
AcDbSavedByObjectVersion
1070
     0
  0
VISUALSTYLE
  5
1093
102
{ACAD_XDICTIONARY
360
1850
102
}
102
{ACAD_REACTORS
330
1082
102
}
330
1082
100
AcDbVisualStyle
  2
JitterOff
 70
    20
 71
     2
 72
     2
 73
     0
 90
        0
 40
-0.6
 41
-30.0
 62
     5
 63
     7
 74
     1
 91
        4
 64
     7
 65
   257
 75
     1
175
     1
 42
1.0
 92
       10
 66
     7
 43
1.0
 76
     1
 77
     6
 78
     2
 67
     7
 79
     5
170
     0
171
     0
290
     0
174
     0
 93
        1
 44
0.0
173
     0
291
     1
 45
0.0
1001
ACAD
1000
AcDbSavedByObjectVersion
1070
     0
  0
VISUALSTYLE
  5
1090
102
{ACAD_XDICTIONARY
360
184A
102
}
102
{ACAD_REACTORS
330
1082
102
}
330
1082
100
AcDbVisualStyle
  2
Linepattern
 70
    14
 71
     2
 72
     2
 73
     0
 90
        0
 40
-0.6
 41
-30.0
 62
     5
 63
     7
 74
     1
 91
        4
 64
     7
 65
   257
 75
     7
175
     7
 42
1.0
 92
        8
 66
     7
 43
1.0
 76
     1
 77
     6
 78
     2
 67
     7
 79
     5
170
     0
171
     0
290
     0
174
     0
 93
        1
 44
0.0
173
     0
291
     1
 45
0.0
1001
ACAD
1000
AcDbSavedByObjectVersion
1070
     0
  0
VISUALSTYLE
  5
1094
102
{ACAD_XDICTIONARY
360
1852
102
}
102
{ACAD_REACTORS
330
1082
102
}
330
1082
100
AcDbVisualStyle
  2
OverhangOff
 70
    21
 71
     2
 72
     2
 73
     0
 90
        0
 40
-0.6
 41
-30.0
 62
     5
 63
     7
 74
     1
 91
        4
 64
     7
 65
   257
 75
     1
175
     1
 42
1.0
 92
        9
 66
     7
 43
1.0
 76
     1
 77
     6
 78
     2
 67
     7
 79
     5
170
     0
171
     0
290
     0
174
     0
 93
        1
 44
0.0
173
     0
291
     1
 45
0.0
1001
ACAD
1000
AcDbSavedByObjectVersion
1070
     0
  0
VISUALSTYLE
  5
108C
102
{ACAD_XDICTIONARY
360
1842
102
}
102
{ACAD_REACTORS
330
1082
102
}
330
1082
100
AcDbVisualStyle
  2
Realistic
 70
     8
 71
     2
 72
     2
 73
     0
 90
        0
 40
-0.6
 41
-30.0
 62
     5
 63
     7
 74
     1
 91
        0
 64
     7
 65
   257
 75
     1
175
     1
 42
1.0
 92
        8
 66
     8
 43
1.0
 76
     1
 77
     6
 78
     2
 67
     7
 79
     5
170
     0
171
     0
290
     0
174
     0
 93
       13
 44
0.0
173
     0
291
     0
 45
0.0
1001
ACAD
1000
AcDbSavedByObjectVersion
1070
     0
  0
VISUALSTYLE
  5
108F
102
{ACAD_XDICTIONARY
360
1848
102
}
102
{ACAD_REACTORS
330
1082
102
}
330
1082
100
AcDbVisualStyle
  2
Thicken
 70
    13
 71
     2
 72
     2
 73
     0
 90
        0
 40
-0.6
 41
-30.0
 62
     5
 63
     7
 74
     1
 91
        4
 64
     7
 65
   257
 75
     1
175
     1
 42
1.0
 92
       12
 66
     7
 43
1.0
 76
     1
 77
     6
 78
     2
 67
     7
 79
     5
170
     0
171
     0
290
     0
174
     0
 93
        1
 44
0.0
173
     0
291
     1
 45
0.0
1001
ACAD
1000
AcDbSavedByObjectVersion
1070
     0
  0
DICTIONARYVAR
  5
181C
102
{ACAD_REACTORS
330
3D
102
}
330
3D
100
DictionaryVariables
280
     0
  1
1:1
  0
DICTIONARYVAR
  5
181B
102
{ACAD_REACTORS
330
3D
102
}
330
3D
100
DictionaryVariables
280
     0
  1
STANDARD
  0
DICTIONARYVAR
  5
1049
102
{ACAD_REACTORS
330
3D
102
}
330
3D
100
DictionaryVariables
280
     0
  1
STANDARD
  0
DICTIONARYVAR
  5
3F
102
{ACAD_REACTORS
330
3D
102
}
330
3D
100
DictionaryVariables
280
     0
  1
2
  0
DICTIONARYVAR
  5
3E
102
{ACAD_REACTORS
330
3D
102
}
330
3D
100
DictionaryVariables
280
     0
  1
1
  0
DICTIONARYVAR
  5
181E
102
{ACAD_REACTORS
330
3D
102
}
330
3D
100
DictionaryVariables
280
     0
  1
0
  0
DICTIONARYVAR
  5
181D
102
{ACAD_REACTORS
330
3D
102
}
330
3D
100
DictionaryVariables
280
     0
  1
127
  0
DICTIONARYVAR
  5
181F
102
{ACAD_REACTORS
330
3D
102
}
330
3D
100
DictionaryVariables
280
     0
  1
0
  0
XRECORD
  5
1067
102
{ACAD_REACTORS
330
1066
102
}
330
1066
100
AcDbXrecord
280
     1
  0
DICTIONARY
  5
1826
330
1E
100
AcDbDictionary
280
     1
281
     1
  3
ACAD_XREC_ROUNDTRIP
360
1827
  0
DICTIONARY
  5
182A
330
26
100
AcDbDictionary
280
     1
281
     1
  3
ACAD_XREC_ROUNDTRIP
360
182B
  0
DICTIONARY
  5
1828
330
22
100
AcDbDictionary
280
     1
281
     1
  3
ACAD_XREC_ROUNDTRIP
360
1829
  0
DICTIONARY
  5
1073
330
1072
100
AcDbDictionary
280
     1
281
     1
  3
ACAD_XREC_ROUNDTRIP
360
182E
  3
BUMPTILE
360
1075
  3
DIFFUSETILE
360
1074
  3
OPACITYTILE
360
1078
  3
REFLECTIONTILE
360
1077
  3
REFRACTIONTILE
360
1079
  3
SPECULARTILE
360
1076
  0
DICTIONARY
  5
106B
330
106A
100
AcDbDictionary
280
     1
281
     1
  3
ACAD_XREC_ROUNDTRIP
360
182D
  3
BUMPTILE
360
106D
  3
DIFFUSETILE
360
106C
  3
OPACITYTILE
360
1070
  3
REFLECTIONTILE
360
106F
  3
REFRACTIONTILE
360
1071
  3
SPECULARTILE
360
106E
  0
DICTIONARY
  5
107B
330
107A
100
AcDbDictionary
280
     1
281
     1
  3
ACAD_XREC_ROUNDTRIP
360
182F
  3
BUMPTILE
360
107D
  3
DIFFUSETILE
360
107C
  3
OPACITYTILE
360
1080
  3
REFLECTIONTILE
360
107F
  3
REFRACTIONTILE
360
1081
  3
SPECULARTILE
360
107E
  0
DICTIONARY
  5
1820
330
EE8
100
AcDbDictionary
280
     1
281
     1
  3
ACAD_ROUNDTRIP_2008_TABLESTYLE_CELLSTYLEMAP
360
1821
  3
ACAD_XREC_ROUNDTRIP
360
182C
  0
DICTIONARY
  5
183A
330
1088
100
AcDbDictionary
280
     1
281
     1
  3
ACAD_XREC_ROUNDTRIP
360
183B
  0
DICTIONARY
  5
183E
330
108A
100
AcDbDictionary
280
     1
281
     1
  3
ACAD_XREC_ROUNDTRIP
360
183F
  0
DICTIONARY
  5
183C
330
1089
100
AcDbDictionary
280
     1
281
     1
  3
ACAD_XREC_ROUNDTRIP
360
183D
  0
DICTIONARY
  5
1838
330
1087
100
AcDbDictionary
280
     1
281
     1
  3
ACAD_XREC_ROUNDTRIP
360
1839
  0
DICTIONARY
  5
1846
330
108E
100
AcDbDictionary
280
     1
281
     1
  3
ACAD_XREC_ROUNDTRIP
360
1847
  0
DICTIONARY
  5
184E
330
1092
100
AcDbDictionary
280
     1
281
     1
  3
ACAD_XREC_ROUNDTRIP
360
184F
  0
DICTIONARY
  5
1840
330
108B
100
AcDbDictionary
280
     1
281
     1
  3
ACAD_XREC_ROUNDTRIP
360
1841
  0
DICTIONARY
  5
1844
330
108D
100
AcDbDictionary
280
     1
281
     1
  3
ACAD_XREC_ROUNDTRIP
360
1845
  0
DICTIONARY
  5
1854
330
1095
100
AcDbDictionary
280
     1
281
     1
  3
ACAD_XREC_ROUNDTRIP
360
1855
  0
DICTIONARY
  5
184C
330
1091
100
AcDbDictionary
280
     1
281
     1
  3
ACAD_XREC_ROUNDTRIP
360
184D
  0
DICTIONARY
  5
1830
330
1083
100
AcDbDictionary
280
     1
281
     1
  3
ACAD_XREC_ROUNDTRIP
360
1831
  0
DICTIONARY
  5
1832
330
1084
100
AcDbDictionary
280
     1
281
     1
  3
ACAD_XREC_ROUNDTRIP
360
1833
  0
DICTIONARY
  5
1834
330
1085
100
AcDbDictionary
280
     1
281
     1
  3
ACAD_XREC_ROUNDTRIP
360
1835
  0
DICTIONARY
  5
1836
330
1086
100
AcDbDictionary
280
     1
281
     1
  3
ACAD_XREC_ROUNDTRIP
360
1837
  0
DICTIONARY
  5
1850
330
1093
100
AcDbDictionary
280
     1
281
     1
  3
ACAD_XREC_ROUNDTRIP
360
1851
  0
DICTIONARY
  5
184A
330
1090
100
AcDbDictionary
280
     1
281
     1
  3
ACAD_XREC_ROUNDTRIP
360
184B
  0
DICTIONARY
  5
1852
330
1094
100
AcDbDictionary
280
     1
281
     1
  3
ACAD_XREC_ROUNDTRIP
360
1853
  0
DICTIONARY
  5
1842
330
108C
100
AcDbDictionary
280
     1
281
     1
  3
ACAD_XREC_ROUNDTRIP
360
1843
  0
DICTIONARY
  5
1848
330
108F
100
AcDbDictionary
280
     1
281
     1
  3
ACAD_XREC_ROUNDTRIP
360
1849
  0
XRECORD
  5
1827
102
{ACAD_REACTORS
330
1826
102
}
330
1826
100
AcDbXrecord
280
     1
102
SHADEPLOT
 70
     0
102
SHADEPLOTRESLEVEL
 70
     2
102
SHADEPLOTCUSTOMDPI
 70
   300
  0
XRECORD
  5
182B
102
{ACAD_REACTORS
330
182A
102
}
330
182A
100
AcDbXrecord
280
     1
102
SHADEPLOT
 70
     0
102
SHADEPLOTRESLEVEL
 70
     2
102
SHADEPLOTCUSTOMDPI
 70
   300
  0
XRECORD
  5
1829
102
{ACAD_REACTORS
330
1828
102
}
330
1828
100
AcDbXrecord
280
     1
102
SHADEPLOT
 70
     0
102
SHADEPLOTRESLEVEL
 70
     2
102
SHADEPLOTCUSTOMDPI
 70
   300
  0
XRECORD
  5
182E
102
{ACAD_REACTORS
330
1073
102
}
330
1073
100
AcDbXrecord
280
     1
102
MATERIAL
148
0.0
149
0.0
149
0.0
 93
        0
 94
      127
282
     0
 72
     0
 77
     0
171
     0
175
     0
179
     0
273
     0
  0
XRECORD
  5
1075
102
{ACAD_REACTORS
330
1073
102
}
330
1073
100
AcDbXrecord
280
     1
270
     1
271
     1
  0
XRECORD
  5
1074
102
{ACAD_REACTORS
330
1073
102
}
330
1073
100
AcDbXrecord
280
     1
270
     1
271
     1
  0
XRECORD
  5
1078
102
{ACAD_REACTORS
330
1073
102
}
330
1073
100
AcDbXrecord
280
     1
270
     1
271
     1
  0
XRECORD
  5
1077
102
{ACAD_REACTORS
330
1073
102
}
330
1073
100
AcDbXrecord
280
     1
270
     1
271
     1
  0
XRECORD
  5
1079
102
{ACAD_REACTORS
330
1073
102
}
330
1073
100
AcDbXrecord
280
     1
270
     1
271
     1
  0
XRECORD
  5
1076
102
{ACAD_REACTORS
330
1073
102
}
330
1073
100
AcDbXrecord
280
     1
270
     1
271
     1
  0
XRECORD
  5
182D
102
{ACAD_REACTORS
330
106B
102
}
330
106B
100
AcDbXrecord
280
     1
102
MATERIAL
148
0.0
149
0.0
149
0.0
 93
        0
 94
      127
282
     0
 72
     0
 77
     0
171
     0
175
     0
179
     0
273
     0
  0
XRECORD
  5
106D
102
{ACAD_REACTORS
330
106B
102
}
330
106B
100
AcDbXrecord
280
     1
270
     1
271
     1
  0
XRECORD
  5
106C
102
{ACAD_REACTORS
330
106B
102
}
330
106B
100
AcDbXrecord
280
     1
270
     1
271
     1
  0
XRECORD
  5
1070
102
{ACAD_REACTORS
330
106B
102
}
330
106B
100
AcDbXrecord
280
     1
270
     1
271
     1
  0
XRECORD
  5
106F
102
{ACAD_REACTORS
330
106B
102
}
330
106B
100
AcDbXrecord
280
     1
270
     1
271
     1
  0
XRECORD
  5
1071
102
{ACAD_REACTORS
330
106B
102
}
330
106B
100
AcDbXrecord
280
     1
270
     1
271
     1
  0
XRECORD
  5
106E
102
{ACAD_REACTORS
330
106B
102
}
330
106B
100
AcDbXrecord
280
     1
270
     1
271
     1
  0
XRECORD
  5
182F
102
{ACAD_REACTORS
330
107B
102
}
330
107B
100
AcDbXrecord
280
     1
102
MATERIAL
148
0.0
149
0.0
149
0.0
 93
        0
 94
      127
282
     0
 72
     0
 77
     0
171
     0
175
     0
179
     0
273
     0
  0
XRECORD
  5
107D
102
{ACAD_REACTORS
330
107B
102
}
330
107B
100
AcDbXrecord
280
     1
270
     1
271
     1
  0
XRECORD
  5
107C
102
{ACAD_REACTORS
330
107B
102
}
330
107B
100
AcDbXrecord
280
     1
270
     1
271
     1
  0
XRECORD
  5
1080
102
{ACAD_REACTORS
330
107B
102
}
330
107B
100
AcDbXrecord
280
     1
270
     1
271
     1
  0
XRECORD
  5
107F
102
{ACAD_REACTORS
330
107B
102
}
330
107B
100
AcDbXrecord
280
     1
270
     1
271
     1
  0
XRECORD
  5
1081
102
{ACAD_REACTORS
330
107B
102
}
330
107B
100
AcDbXrecord
280
     1
270
     1
271
     1
  0
XRECORD
  5
107E
102
{ACAD_REACTORS
330
107B
102
}
330
107B
100
AcDbXrecord
280
     1
270
     1
271
     1
  0
CELLSTYLEMAP
  5
1821
102
{ACAD_REACTORS
330
1820
102
}
330
1820
100
AcDbCellStyleMap
 90
        3
300
CELLSTYLE
  1
TABLEFORMAT_BEGIN
 90
        5
170
     1
 91
        0
 92
    32768
 62
   257
 93
        1
300
CONTENTFORMAT
  1
CONTENTFORMAT_BEGIN
 90
        0
 91
        0
 92
        4
 93
        0
300

 40
0.0
140
1.0
 94
        5
 62
     0
340
11
144
6.0
309
CONTENTFORMAT_END
171
     1
301
MARGIN
  1
CELLMARGIN_BEGIN
 40
1.5
 40
1.5
 40
1.5
 40
1.5
 40
0.18
 40
0.18
309
CELLMARGIN_END
 94
        6
 95
        1
302
GRIDFORMAT
  1
GRIDFORMAT_BEGIN
 90
        0
 91
        1
 62
     0
 92
       -2
340
0
 93
        0
 40
0.045
309
GRIDFORMAT_END
 95
        2
302
GRIDFORMAT
  1
GRIDFORMAT_BEGIN
 90
        0
 91
        1
 62
     0
 92
       -2
340
0
 93
        0
 40
0.045
309
GRIDFORMAT_END
 95
        4
302
GRIDFORMAT
  1
GRIDFORMAT_BEGIN
 90
        0
 91
        1
 62
     0
 92
       -2
340
0
 93
        0
 40
0.045
309
GRIDFORMAT_END
 95
        8
302
GRIDFORMAT
  1
GRIDFORMAT_BEGIN
 90
        0
 91
        1
 62
     0
 92
       -2
340
0
 93
        0
 40
0.045
309
GRIDFORMAT_END
 95
       16
302
GRIDFORMAT
  1
GRIDFORMAT_BEGIN
 90
        0
 91
        1
 62
     0
 92
       -2
340
0
 93
        0
 40
0.045
309
GRIDFORMAT_END
 95
       32
302
GRIDFORMAT
  1
GRIDFORMAT_BEGIN
 90
        0
 91
        1
 62
     0
 92
       -2
340
0
 93
        0
 40
0.045
309
GRIDFORMAT_END
309
TABLEFORMAT_END
  1
CELLSTYLE_BEGIN
 90
        1
 91
        1
300
_TITLE
309
CELLSTYLE_END
300
CELLSTYLE
  1
TABLEFORMAT_BEGIN
 90
        5
170
     1
 91
        0
 92
        0
 62
   257
 93
        1
300
CONTENTFORMAT
  1
CONTENTFORMAT_BEGIN
 90
        0
 91
        0
 92
        4
 93
        0
300

 40
0.0
140
1.0
 94
        5
 62
     0
340
11
144
4.5
309
CONTENTFORMAT_END
171
     1
301
MARGIN
  1
CELLMARGIN_BEGIN
 40
1.5
 40
1.5
 40
1.5
 40
1.5
 40
0.18
 40
0.18
309
CELLMARGIN_END
 94
        6
 95
        1
302
GRIDFORMAT
  1
GRIDFORMAT_BEGIN
 90
        0
 91
        1
 62
     0
 92
       -2
340
0
 93
        0
 40
0.045
309
GRIDFORMAT_END
 95
        2
302
GRIDFORMAT
  1
GRIDFORMAT_BEGIN
 90
        0
 91
        1
 62
     0
 92
       -2
340
0
 93
        0
 40
0.045
309
GRIDFORMAT_END
 95
        4
302
GRIDFORMAT
  1
GRIDFORMAT_BEGIN
 90
        0
 91
        1
 62
     0
 92
       -2
340
0
 93
        0
 40
0.045
309
GRIDFORMAT_END
 95
        8
302
GRIDFORMAT
  1
GRIDFORMAT_BEGIN
 90
        0
 91
        1
 62
     0
 92
       -2
340
0
 93
        0
 40
0.045
309
GRIDFORMAT_END
 95
       16
302
GRIDFORMAT
  1
GRIDFORMAT_BEGIN
 90
        0
 91
        1
 62
     0
 92
       -2
340
0
 93
        0
 40
0.045
309
GRIDFORMAT_END
 95
       32
302
GRIDFORMAT
  1
GRIDFORMAT_BEGIN
 90
        0
 91
        1
 62
     0
 92
       -2
340
0
 93
        0
 40
0.045
309
GRIDFORMAT_END
309
TABLEFORMAT_END
  1
CELLSTYLE_BEGIN
 90
        2
 91
        1
300
_HEADER
309
CELLSTYLE_END
300
CELLSTYLE
  1
TABLEFORMAT_BEGIN
 90
        5
170
     1
 91
        0
 92
        0
 62
   257
 93
        1
300
CONTENTFORMAT
  1
CONTENTFORMAT_BEGIN
 90
        0
 91
        0
 92
        4
 93
        0
300

 40
0.0
140
1.0
 94
        2
 62
     0
340
11
144
4.5
309
CONTENTFORMAT_END
171
     1
301
MARGIN
  1
CELLMARGIN_BEGIN
 40
1.5
 40
1.5
 40
1.5
 40
1.5
 40
0.18
 40
0.18
309
CELLMARGIN_END
 94
        6
 95
        1
302
GRIDFORMAT
  1
GRIDFORMAT_BEGIN
 90
        0
 91
        1
 62
     0
 92
       -2
340
0
 93
        0
 40
0.045
309
GRIDFORMAT_END
 95
        2
302
GRIDFORMAT
  1
GRIDFORMAT_BEGIN
 90
        0
 91
        1
 62
     0
 92
       -2
340
0
 93
        0
 40
0.045
309
GRIDFORMAT_END
 95
        4
302
GRIDFORMAT
  1
GRIDFORMAT_BEGIN
 90
        0
 91
        1
 62
     0
 92
       -2
340
0
 93
        0
 40
0.045
309
GRIDFORMAT_END
 95
        8
302
GRIDFORMAT
  1
GRIDFORMAT_BEGIN
 90
        0
 91
        1
 62
     0
 92
       -2
340
0
 93
        0
 40
0.045
309
GRIDFORMAT_END
 95
       16
302
GRIDFORMAT
  1
GRIDFORMAT_BEGIN
 90
        0
 91
        1
 62
     0
 92
       -2
340
0
 93
        0
 40
0.045
309
GRIDFORMAT_END
 95
       32
302
GRIDFORMAT
  1
GRIDFORMAT_BEGIN
 90
        0
 91
        1
 62
     0
 92
       -2
340
0
 93
        0
 40
0.045
309
GRIDFORMAT_END
309
TABLEFORMAT_END
  1
CELLSTYLE_BEGIN
 90
        3
 91
        2
300
_DATA
309
CELLSTYLE_END
  0
XRECORD
  5
182C
102
{ACAD_REACTORS
330
1820
102
}
330
1820
100
AcDbXrecord
280
     1
102
ACAD_ROUNDTRIP_PRE2007_TABLESTYLE
 90
        4
 91
        0
  1

 92
        4
 93
        0
  2

 94
        4
 95
        0
  3

  0
XRECORD
  5
183B
102
{ACAD_REACTORS
330
183A
102
}
330
183A
100
AcDbXrecord
280
     1
102
RTVSPropertyOp0
 70
     1
102
RTVSPropertyOp1
 70
     1
102
RTVSPropertyOp2
 70
     1
102
RTVSPropertyOp3
 70
     1
102
RTVSPropertyOp4
 70
     1
102
RTVSPropertyOp5
 70
     1
102
RTVSPropertyOp6
 70
     1
102
RTVSPropertyOp7
 70
     1
102
RTVSPropertyOp8
 70
     1
102
RTVSPropertyOp9
 70
     1
102
RTVSPropertyOp10
 70
     1
102
RTVSPropertyOp11
 70
     1
102
RTVSPropertyOp12
 70
     1
102
RTVSPropertyOp13
 70
     1
102
RTVSPropertyOp14
 70
     1
102
RTVSPropertyOp15
 70
     1
102
RTVSPropertyOp16
 70
     1
102
RTVSPropertyOp17
 70
     1
102
RTVSPropertyOp18
 70
     1
102
RTVSPropertyOp19
 70
     1
102
RTVSPropertyOp20
 70
     1
102
RTVSPropertyOp21
 70
     1
102
RTVSPropertyOp22
 70
     1
102
RTVSPropertyOp23
 70
     1
102
RTVSPropertyOp24
 70
     1
102
RTVSPropertyOp25
 70
     1
102
RTVSPropertyOp26
 70
     1
102
RTVSPropertyOp27
 70
     1
  0
XRECORD
  5
183F
102
{ACAD_REACTORS
330
183E
102
}
330
183E
100
AcDbXrecord
280
     1
102
RTVSPropertyOp0
 70
     1
102
RTVSPropertyOp1
 70
     1
102
RTVSPropertyOp2
 70
     1
102
RTVSPropertyOp3
 70
     1
102
RTVSPropertyOp4
 70
     1
102
RTVSPropertyOp5
 70
     1
102
RTVSPropertyOp6
 70
     1
102
RTVSPropertyOp7
 70
     1
102
RTVSPropertyOp8
 70
     1
102
RTVSPropertyOp9
 70
     1
102
RTVSPropertyOp10
 70
     1
102
RTVSPropertyOp11
 70
     1
102
RTVSPropertyOp12
 70
     1
102
RTVSPropertyOp13
 70
     1
102
RTVSPropertyOp14
 70
     1
102
RTVSPropertyOp15
 70
     1
102
RTVSPropertyOp16
 70
     1
102
RTVSPropertyOp17
 70
     1
102
RTVSPropertyOp18
 70
     1
102
RTVSPropertyOp19
 70
     1
102
RTVSPropertyOp20
 70
     1
102
RTVSPropertyOp21
 70
     1
102
RTVSPropertyOp22
 70
     1
102
RTVSPropertyOp23
 70
     1
102
RTVSPropertyOp24
 70
     1
102
RTVSPropertyOp25
 70
     1
102
RTVSPropertyOp26
 70
     1
102
RTVSPropertyOp27
 70
     1
  0
XRECORD
  5
183D
102
{ACAD_REACTORS
330
183C
102
}
330
183C
100
AcDbXrecord
280
     1
102
RTVSPropertyOp0
 70
     1
102
RTVSPropertyOp1
 70
     1
102
RTVSPropertyOp2
 70
     1
102
RTVSPropertyOp3
 70
     1
102
RTVSPropertyOp4
 70
     1
102
RTVSPropertyOp5
 70
     1
102
RTVSPropertyOp6
 70
     1
102
RTVSPropertyOp7
 70
     1
102
RTVSPropertyOp8
 70
     1
102
RTVSPropertyOp9
 70
     1
102
RTVSPropertyOp10
 70
     1
102
RTVSPropertyOp11
 70
     1
102
RTVSPropertyOp12
 70
     1
102
RTVSPropertyOp13
 70
     1
102
RTVSPropertyOp14
 70
     1
102
RTVSPropertyOp15
 70
     1
102
RTVSPropertyOp16
 70
     1
102
RTVSPropertyOp17
 70
     1
102
RTVSPropertyOp18
 70
     1
102
RTVSPropertyOp19
 70
     1
102
RTVSPropertyOp20
 70
     1
102
RTVSPropertyOp21
 70
     1
102
RTVSPropertyOp22
 70
     1
102
RTVSPropertyOp23
 70
     1
102
RTVSPropertyOp24
 70
     1
102
RTVSPropertyOp25
 70
     1
102
RTVSPropertyOp26
 70
     1
102
RTVSPropertyOp27
 70
     1
  0
XRECORD
  5
1839
102
{ACAD_REACTORS
330
1838
102
}
330
1838
100
AcDbXrecord
280
     1
102
RTVSPropertyOp0
 70
     1
102
RTVSPropertyOp1
 70
     1
102
RTVSPropertyOp2
 70
     1
102
RTVSPropertyOp3
 70
     1
102
RTVSPropertyOp4
 70
     1
102
RTVSPropertyOp5
 70
     1
102
RTVSPropertyOp6
 70
     1
102
RTVSPropertyOp7
 70
     1
102
RTVSPropertyOp8
 70
     1
102
RTVSPropertyOp9
 70
     1
102
RTVSPropertyOp10
 70
     1
102
RTVSPropertyOp11
 70
     1
102
RTVSPropertyOp12
 70
     1
102
RTVSPropertyOp13
 70
     1
102
RTVSPropertyOp14
 70
     1
102
RTVSPropertyOp15
 70
     1
102
RTVSPropertyOp16
 70
     1
102
RTVSPropertyOp17
 70
     1
102
RTVSPropertyOp18
 70
     1
102
RTVSPropertyOp19
 70
     1
102
RTVSPropertyOp20
 70
     1
102
RTVSPropertyOp21
 70
     1
102
RTVSPropertyOp22
 70
     1
102
RTVSPropertyOp23
 70
     1
102
RTVSPropertyOp24
 70
     1
102
RTVSPropertyOp25
 70
     1
102
RTVSPropertyOp26
 70
     1
102
RTVSPropertyOp27
 70
     1
  0
XRECORD
  5
1847
102
{ACAD_REACTORS
330
1846
102
}
330
1846
100
AcDbXrecord
280
     1
102
RTVSPropertyOp0
 70
     1
102
RTVSPropertyOp1
 70
     1
102
RTVSPropertyOp2
 70
     1
102
RTVSPropertyOp3
 70
     1
102
RTVSPropertyOp4
 70
     1
102
RTVSPropertyOp5
 70
     1
102
RTVSPropertyOp6
 70
     1
102
RTVSPropertyOp7
 70
     1
102
RTVSPropertyOp8
 70
     1
102
RTVSPropertyOp9
 70
     1
102
RTVSPropertyOp10
 70
     1
102
RTVSPropertyOp11
 70
     1
102
RTVSPropertyOp12
 70
     1
102
RTVSPropertyOp13
 70
     1
102
RTVSPropertyOp14
 70
     1
102
RTVSPropertyOp15
 70
     1
102
RTVSPropertyOp16
 70
     1
102
RTVSPropertyOp17
 70
     1
102
RTVSPropertyOp18
 70
     1
102
RTVSPropertyOp19
 70
     1
102
RTVSPropertyOp20
 70
     1
102
RTVSPropertyOp21
 70
     1
102
RTVSPropertyOp22
 70
     1
102
RTVSPropertyOp23
 70
     1
102
RTVSPropertyOp24
 70
     1
102
RTVSPropertyOp25
 70
     1
102
RTVSPropertyOp26
 70
     1
102
RTVSPropertyOp27
 70
     1
  0
XRECORD
  5
184F
102
{ACAD_REACTORS
330
184E
102
}
330
184E
100
AcDbXrecord
280
     1
102
RTVSPropertyOp0
 70
     1
102
RTVSPropertyOp1
 70
     1
102
RTVSPropertyOp2
 70
     1
102
RTVSPropertyOp3
 70
     1
102
RTVSPropertyOp4
 70
     1
102
RTVSPropertyOp5
 70
     1
102
RTVSPropertyOp6
 70
     1
102
RTVSPropertyOp7
 70
     1
102
RTVSPropertyOp8
 70
     1
102
RTVSPropertyOp9
 70
     1
102
RTVSPropertyOp10
 70
     1
102
RTVSPropertyOp11
 70
     1
102
RTVSPropertyOp12
 70
     1
102
RTVSPropertyOp13
 70
     1
102
RTVSPropertyOp14
 70
     1
102
RTVSPropertyOp15
 70
     1
102
RTVSPropertyOp16
 70
     1
102
RTVSPropertyOp17
 70
     1
102
RTVSPropertyOp18
 70
     1
102
RTVSPropertyOp19
 70
     1
102
RTVSPropertyOp20
 70
     1
102
RTVSPropertyOp21
 70
     1
102
RTVSPropertyOp22
 70
     1
102
RTVSPropertyOp23
 70
     1
102
RTVSPropertyOp24
 70
     1
102
RTVSPropertyOp25
 70
     1
102
RTVSPropertyOp26
 70
     1
102
RTVSPropertyOp27
 70
     1
  0
XRECORD
  5
1841
102
{ACAD_REACTORS
330
1840
102
}
330
1840
100
AcDbXrecord
280
     1
102
RTVSPropertyOp0
 70
     1
102
RTVSPropertyOp1
 70
     1
102
RTVSPropertyOp2
 70
     1
102
RTVSPropertyOp3
 70
     1
102
RTVSPropertyOp4
 70
     1
102
RTVSPropertyOp5
 70
     1
102
RTVSPropertyOp6
 70
     1
102
RTVSPropertyOp7
 70
     1
102
RTVSPropertyOp8
 70
     1
102
RTVSPropertyOp9
 70
     1
102
RTVSPropertyOp10
 70
     1
102
RTVSPropertyOp11
 70
     1
102
RTVSPropertyOp12
 70
     1
102
RTVSPropertyOp13
 70
     1
102
RTVSPropertyOp14
 70
     1
102
RTVSPropertyOp15
 70
     1
102
RTVSPropertyOp16
 70
     1
102
RTVSPropertyOp17
 70
     1
102
RTVSPropertyOp18
 70
     1
102
RTVSPropertyOp19
 70
     1
102
RTVSPropertyOp20
 70
     1
102
RTVSPropertyOp21
 70
     1
102
RTVSPropertyOp22
 70
     1
102
RTVSPropertyOp23
 70
     1
102
RTVSPropertyOp24
 70
     1
102
RTVSPropertyOp25
 70
     1
102
RTVSPropertyOp26
 70
     1
102
RTVSPropertyOp27
 70
     1
  0
XRECORD
  5
1845
102
{ACAD_REACTORS
330
1844
102
}
330
1844
100
AcDbXrecord
280
     1
102
RTVSPropertyOp0
 70
     1
102
RTVSPropertyOp1
 70
     1
102
RTVSPropertyOp2
 70
     1
102
RTVSPropertyOp3
 70
     1
102
RTVSPropertyOp4
 70
     1
102
RTVSPropertyOp5
 70
     1
102
RTVSPropertyOp6
 70
     1
102
RTVSPropertyOp7
 70
     1
102
RTVSPropertyOp8
 70
     1
102
RTVSPropertyOp9
 70
     1
102
RTVSPropertyOp10
 70
     1
102
RTVSPropertyOp11
 70
     1
102
RTVSPropertyOp12
 70
     1
102
RTVSPropertyOp13
 70
     1
102
RTVSPropertyOp14
 70
     1
102
RTVSPropertyOp15
 70
     1
102
RTVSPropertyOp16
 70
     1
102
RTVSPropertyOp17
 70
     1
102
RTVSPropertyOp18
 70
     1
102
RTVSPropertyOp19
 70
     1
102
RTVSPropertyOp20
 70
     1
102
RTVSPropertyOp21
 70
     1
102
RTVSPropertyOp22
 70
     1
102
RTVSPropertyOp23
 70
     1
102
RTVSPropertyOp24
 70
     1
102
RTVSPropertyOp25
 70
     1
102
RTVSPropertyOp26
 70
     1
102
RTVSPropertyOp27
 70
     1
  0
XRECORD
  5
1855
102
{ACAD_REACTORS
330
1854
102
}
330
1854
100
AcDbXrecord
280
     1
102
RTVSPropertyOp0
 70
     0
102
RTVSPropertyOp1
 70
     0
102
RTVSPropertyOp2
 70
     0
102
RTVSPropertyOp3
 70
     0
102
RTVSPropertyOp4
 70
     0
102
RTVSPropertyOp5
 70
     0
102
RTVSPropertyOp6
 70
     0
102
RTVSPropertyOp7
 70
     0
102
RTVSPropertyOp8
 70
     0
102
RTVSPropertyOp9
 70
     0
102
RTVSPropertyOp10
 70
     0
102
RTVSPropertyOp11
 70
     0
102
RTVSPropertyOp12
 70
     0
102
RTVSPropertyOp13
 70
     0
102
RTVSPropertyOp14
 70
     2
102
RTVSPropertyOp15
 70
     0
102
RTVSPropertyOp16
 70
     0
102
RTVSPropertyOp17
 70
     0
102
RTVSPropertyOp18
 70
     0
102
RTVSPropertyOp19
 70
     0
102
RTVSPropertyOp20
 70
     0
102
RTVSPropertyOp21
 70
     0
102
RTVSPropertyOp22
 70
     0
102
RTVSPropertyOp23
 70
     0
102
RTVSPropertyOp24
 70
     0
102
RTVSPropertyOp25
 70
     0
102
RTVSPropertyOp26
 70
     0
102
RTVSPropertyOp27
 70
     0
  0
XRECORD
  5
184D
102
{ACAD_REACTORS
330
184C
102
}
330
184C
100
AcDbXrecord
280
     1
102
RTVSPropertyOp0
 70
     1
102
RTVSPropertyOp1
 70
     1
102
RTVSPropertyOp2
 70
     1
102
RTVSPropertyOp3
 70
     1
102
RTVSPropertyOp4
 70
     1
102
RTVSPropertyOp5
 70
     1
102
RTVSPropertyOp6
 70
     1
102
RTVSPropertyOp7
 70
     1
102
RTVSPropertyOp8
 70
     1
102
RTVSPropertyOp9
 70
     1
102
RTVSPropertyOp10
 70
     1
102
RTVSPropertyOp11
 70
     1
102
RTVSPropertyOp12
 70
     1
102
RTVSPropertyOp13
 70
     1
102
RTVSPropertyOp14
 70
     1
102
RTVSPropertyOp15
 70
     1
102
RTVSPropertyOp16
 70
     1
102
RTVSPropertyOp17
 70
     1
102
RTVSPropertyOp18
 70
     1
102
RTVSPropertyOp19
 70
     1
102
RTVSPropertyOp20
 70
     1
102
RTVSPropertyOp21
 70
     1
102
RTVSPropertyOp22
 70
     1
102
RTVSPropertyOp23
 70
     1
102
RTVSPropertyOp24
 70
     1
102
RTVSPropertyOp25
 70
     1
102
RTVSPropertyOp26
 70
     1
102
RTVSPropertyOp27
 70
     1
  0
XRECORD
  5
1831
102
{ACAD_REACTORS
330
1830
102
}
330
1830
100
AcDbXrecord
280
     1
102
RTVSPropertyOp0
 70
     1
102
RTVSPropertyOp1
 70
     1
102
RTVSPropertyOp2
 70
     1
102
RTVSPropertyOp3
 70
     1
102
RTVSPropertyOp4
 70
     1
102
RTVSPropertyOp5
 70
     1
102
RTVSPropertyOp6
 70
     1
102
RTVSPropertyOp7
 70
     1
102
RTVSPropertyOp8
 70
     1
102
RTVSPropertyOp9
 70
     1
102
RTVSPropertyOp10
 70
     1
102
RTVSPropertyOp11
 70
     1
102
RTVSPropertyOp12
 70
     1
102
RTVSPropertyOp13
 70
     1
102
RTVSPropertyOp14
 70
     1
102
RTVSPropertyOp15
 70
     1
102
RTVSPropertyOp16
 70
     1
102
RTVSPropertyOp17
 70
     1
102
RTVSPropertyOp18
 70
     1
102
RTVSPropertyOp19
 70
     1
102
RTVSPropertyOp20
 70
     1
102
RTVSPropertyOp21
 70
     1
102
RTVSPropertyOp22
 70
     1
102
RTVSPropertyOp23
 70
     1
102
RTVSPropertyOp24
 70
     1
102
RTVSPropertyOp25
 70
     1
102
RTVSPropertyOp26
 70
     1
102
RTVSPropertyOp27
 70
     1
  0
XRECORD
  5
1833
102
{ACAD_REACTORS
330
1832
102
}
330
1832
100
AcDbXrecord
280
     1
102
RTVSPropertyOp0
 70
     1
102
RTVSPropertyOp1
 70
     1
102
RTVSPropertyOp2
 70
     1
102
RTVSPropertyOp3
 70
     1
102
RTVSPropertyOp4
 70
     1
102
RTVSPropertyOp5
 70
     1
102
RTVSPropertyOp6
 70
     1
102
RTVSPropertyOp7
 70
     1
102
RTVSPropertyOp8
 70
     1
102
RTVSPropertyOp9
 70
     1
102
RTVSPropertyOp10
 70
     1
102
RTVSPropertyOp11
 70
     1
102
RTVSPropertyOp12
 70
     1
102
RTVSPropertyOp13
 70
     1
102
RTVSPropertyOp14
 70
     1
102
RTVSPropertyOp15
 70
     1
102
RTVSPropertyOp16
 70
     1
102
RTVSPropertyOp17
 70
     1
102
RTVSPropertyOp18
 70
     1
102
RTVSPropertyOp19
 70
     1
102
RTVSPropertyOp20
 70
     1
102
RTVSPropertyOp21
 70
     1
102
RTVSPropertyOp22
 70
     1
102
RTVSPropertyOp23
 70
     1
102
RTVSPropertyOp24
 70
     1
102
RTVSPropertyOp25
 70
     1
102
RTVSPropertyOp26
 70
     1
102
RTVSPropertyOp27
 70
     1
  0
XRECORD
  5
1835
102
{ACAD_REACTORS
330
1834
102
}
330
1834
100
AcDbXrecord
280
     1
102
RTVSPropertyOp0
 70
     1
102
RTVSPropertyOp1
 70
     1
102
RTVSPropertyOp2
 70
     1
102
RTVSPropertyOp3
 70
     1
102
RTVSPropertyOp4
 70
     1
102
RTVSPropertyOp5
 70
     1
102
RTVSPropertyOp6
 70
     1
102
RTVSPropertyOp7
 70
     1
102
RTVSPropertyOp8
 70
     1
102
RTVSPropertyOp9
 70
     1
102
RTVSPropertyOp10
 70
     1
102
RTVSPropertyOp11
 70
     1
102
RTVSPropertyOp12
 70
     1
102
RTVSPropertyOp13
 70
     1
102
RTVSPropertyOp14
 70
     1
102
RTVSPropertyOp15
 70
     1
102
RTVSPropertyOp16
 70
     1
102
RTVSPropertyOp17
 70
     1
102
RTVSPropertyOp18
 70
     1
102
RTVSPropertyOp19
 70
     1
102
RTVSPropertyOp20
 70
     1
102
RTVSPropertyOp21
 70
     1
102
RTVSPropertyOp22
 70
     1
102
RTVSPropertyOp23
 70
     1
102
RTVSPropertyOp24
 70
     1
102
RTVSPropertyOp25
 70
     1
102
RTVSPropertyOp26
 70
     1
102
RTVSPropertyOp27
 70
     1
  0
XRECORD
  5
1837
102
{ACAD_REACTORS
330
1836
102
}
330
1836
100
AcDbXrecord
280
     1
102
RTVSPropertyOp0
 70
     1
102
RTVSPropertyOp1
 70
     1
102
RTVSPropertyOp2
 70
     1
102
RTVSPropertyOp3
 70
     1
102
RTVSPropertyOp4
 70
     1
102
RTVSPropertyOp5
 70
     1
102
RTVSPropertyOp6
 70
     1
102
RTVSPropertyOp7
 70
     1
102
RTVSPropertyOp8
 70
     1
102
RTVSPropertyOp9
 70
     1
102
RTVSPropertyOp10
 70
     1
102
RTVSPropertyOp11
 70
     1
102
RTVSPropertyOp12
 70
     1
102
RTVSPropertyOp13
 70
     1
102
RTVSPropertyOp14
 70
     1
102
RTVSPropertyOp15
 70
     1
102
RTVSPropertyOp16
 70
     1
102
RTVSPropertyOp17
 70
     1
102
RTVSPropertyOp18
 70
     1
102
RTVSPropertyOp19
 70
     1
102
RTVSPropertyOp20
 70
     1
102
RTVSPropertyOp21
 70
     1
102
RTVSPropertyOp22
 70
     1
102
RTVSPropertyOp23
 70
     1
102
RTVSPropertyOp24
 70
     1
102
RTVSPropertyOp25
 70
     1
102
RTVSPropertyOp26
 70
     1
102
RTVSPropertyOp27
 70
     1
  0
XRECORD
  5
1851
102
{ACAD_REACTORS
330
1850
102
}
330
1850
100
AcDbXrecord
280
     1
102
RTVSPropertyOp0
 70
     0
102
RTVSPropertyOp1
 70
     0
102
RTVSPropertyOp2
 70
     0
102
RTVSPropertyOp3
 70
     0
102
RTVSPropertyOp4
 70
     0
102
RTVSPropertyOp5
 70
     0
102
RTVSPropertyOp6
 70
     0
102
RTVSPropertyOp7
 70
     0
102
RTVSPropertyOp8
 70
     0
102
RTVSPropertyOp9
 70
     0
102
RTVSPropertyOp10
 70
     0
102
RTVSPropertyOp11
 70
     0
102
RTVSPropertyOp12
 70
     0
102
RTVSPropertyOp13
 70
     0
102
RTVSPropertyOp14
 70
     2
102
RTVSPropertyOp15
 70
     0
102
RTVSPropertyOp16
 70
     0
102
RTVSPropertyOp17
 70
     0
102
RTVSPropertyOp18
 70
     0
102
RTVSPropertyOp19
 70
     0
102
RTVSPropertyOp20
 70
     0
102
RTVSPropertyOp21
 70
     0
102
RTVSPropertyOp22
 70
     0
102
RTVSPropertyOp23
 70
     0
102
RTVSPropertyOp24
 70
     0
102
RTVSPropertyOp25
 70
     0
102
RTVSPropertyOp26
 70
     0
102
RTVSPropertyOp27
 70
     0
  0
XRECORD
  5
184B
102
{ACAD_REACTORS
330
184A
102
}
330
184A
100
AcDbXrecord
280
     1
102
RTVSPropertyOp0
 70
     1
102
RTVSPropertyOp1
 70
     1
102
RTVSPropertyOp2
 70
     1
102
RTVSPropertyOp3
 70
     1
102
RTVSPropertyOp4
 70
     1
102
RTVSPropertyOp5
 70
     1
102
RTVSPropertyOp6
 70
     1
102
RTVSPropertyOp7
 70
     1
102
RTVSPropertyOp8
 70
     1
102
RTVSPropertyOp9
 70
     1
102
RTVSPropertyOp10
 70
     1
102
RTVSPropertyOp11
 70
     1
102
RTVSPropertyOp12
 70
     1
102
RTVSPropertyOp13
 70
     1
102
RTVSPropertyOp14
 70
     1
102
RTVSPropertyOp15
 70
     1
102
RTVSPropertyOp16
 70
     1
102
RTVSPropertyOp17
 70
     1
102
RTVSPropertyOp18
 70
     1
102
RTVSPropertyOp19
 70
     1
102
RTVSPropertyOp20
 70
     1
102
RTVSPropertyOp21
 70
     1
102
RTVSPropertyOp22
 70
     1
102
RTVSPropertyOp23
 70
     1
102
RTVSPropertyOp24
 70
     1
102
RTVSPropertyOp25
 70
     1
102
RTVSPropertyOp26
 70
     1
102
RTVSPropertyOp27
 70
     1
  0
XRECORD
  5
1853
102
{ACAD_REACTORS
330
1852
102
}
330
1852
100
AcDbXrecord
280
     1
102
RTVSPropertyOp0
 70
     0
102
RTVSPropertyOp1
 70
     0
102
RTVSPropertyOp2
 70
     0
102
RTVSPropertyOp3
 70
     0
102
RTVSPropertyOp4
 70
     0
102
RTVSPropertyOp5
 70
     0
102
RTVSPropertyOp6
 70
     0
102
RTVSPropertyOp7
 70
     0
102
RTVSPropertyOp8
 70
     0
102
RTVSPropertyOp9
 70
     0
102
RTVSPropertyOp10
 70
     0
102
RTVSPropertyOp11
 70
     0
102
RTVSPropertyOp12
 70
     0
102
RTVSPropertyOp13
 70
     0
102
RTVSPropertyOp14
 70
     2
102
RTVSPropertyOp15
 70
     0
102
RTVSPropertyOp16
 70
     0
102
RTVSPropertyOp17
 70
     0
102
RTVSPropertyOp18
 70
     0
102
RTVSPropertyOp19
 70
     0
102
RTVSPropertyOp20
 70
     0
102
RTVSPropertyOp21
 70
     0
102
RTVSPropertyOp22
 70
     0
102
RTVSPropertyOp23
 70
     0
102
RTVSPropertyOp24
 70
     0
102
RTVSPropertyOp25
 70
     0
102
RTVSPropertyOp26
 70
     0
102
RTVSPropertyOp27
 70
     0
  0
XRECORD
  5
1843
102
{ACAD_REACTORS
330
1842
102
}
330
1842
100
AcDbXrecord
280
     1
102
RTVSPropertyOp0
 70
     1
102
RTVSPropertyOp1
 70
     1
102
RTVSPropertyOp2
 70
     1
102
RTVSPropertyOp3
 70
     1
102
RTVSPropertyOp4
 70
     1
102
RTVSPropertyOp5
 70
     1
102
RTVSPropertyOp6
 70
     1
102
RTVSPropertyOp7
 70
     1
102
RTVSPropertyOp8
 70
     1
102
RTVSPropertyOp9
 70
     1
102
RTVSPropertyOp10
 70
     1
102
RTVSPropertyOp11
 70
     1
102
RTVSPropertyOp12
 70
     1
102
RTVSPropertyOp13
 70
     1
102
RTVSPropertyOp14
 70
     1
102
RTVSPropertyOp15
 70
     1
102
RTVSPropertyOp16
 70
     1
102
RTVSPropertyOp17
 70
     1
102
RTVSPropertyOp18
 70
     1
102
RTVSPropertyOp19
 70
     1
102
RTVSPropertyOp20
 70
     1
102
RTVSPropertyOp21
 70
     1
102
RTVSPropertyOp22
 70
     1
102
RTVSPropertyOp23
 70
     1
102
RTVSPropertyOp24
 70
     1
102
RTVSPropertyOp25
 70
     1
102
RTVSPropertyOp26
 70
     1
102
RTVSPropertyOp27
 70
     1
  0
XRECORD
  5
1849
102
{ACAD_REACTORS
330
1848
102
}
330
1848
100
AcDbXrecord
280
     1
102
RTVSPropertyOp0
 70
     1
102
RTVSPropertyOp1
 70
     1
102
RTVSPropertyOp2
 70
     1
102
RTVSPropertyOp3
 70
     1
102
RTVSPropertyOp4
 70
     1
102
RTVSPropertyOp5
 70
     1
102
RTVSPropertyOp6
 70
     1
102
RTVSPropertyOp7
 70
     1
102
RTVSPropertyOp8
 70
     1
102
RTVSPropertyOp9
 70
     1
102
RTVSPropertyOp10
 70
     1
102
RTVSPropertyOp11
 70
     1
102
RTVSPropertyOp12
 70
     1
102
RTVSPropertyOp13
 70
     1
102
RTVSPropertyOp14
 70
     1
102
RTVSPropertyOp15
 70
     1
102
RTVSPropertyOp16
 70
     1
102
RTVSPropertyOp17
 70
     1
102
RTVSPropertyOp18
 70
     1
102
RTVSPropertyOp19
 70
     1
102
RTVSPropertyOp20
 70
     1
102
RTVSPropertyOp21
 70
     1
102
RTVSPropertyOp22
 70
     1
102
RTVSPropertyOp23
 70
     1
102
RTVSPropertyOp24
 70
     1
102
RTVSPropertyOp25
 70
     1
102
RTVSPropertyOp26
 70
     1
102
RTVSPropertyOp27
 70
     1
  0
ENDSEC
  0
EOF
