  0
SECTION
  2
HEADER
  9
$ACADVER
  1
AC1015
  9
$ACADMAINTVER
 70
    20
  9
$DWGCODEPAGE
  3
ANSI_1252
  9
$INSBASE
 10
0.0
 20
0.0
 30
0.0
  9
$EXTMIN
 10
74.87274276427081
 20
183.3046884049017
 30
-0.0000000349181948
  9
$EXTMAX
 10
82.05047665868244
 20
184.2337194323
 30
0.0000000814935746
  9
$LIMMIN
 10
0.0
 20
0.0
  9
$LIMMAX
 10
420.0
 20
297.0
  9
$ORTHOMODE
 70
     1
  9
$REGENMODE
 70
     1
  9
$FILLMODE
 70
     1
  9
$QTEXTMODE
 70
     0
  9
$MIRRTEXT
 70
     1
  9
$LTSCALE
 40
1.0
  9
$ATTMODE
 70
     1
  9
$TEXTSIZE
 40
2.5
  9
$TRACEWID
 40
1.0
  9
$TEXTSTYLE
  7
SANINDUSA
  9
$CLAYER
  8
cotas
  9
$CELTYPE
  6
ByLayer
  9
$CECOLOR
 62
   256
  9
$CELTSCALE
 40
1.0
  9
$DISPSILH
 70
     0
  9
$DIMSCALE
 40
1.0
  9
$DIMASZ
 40
2.0
  9
$DIMEXO
 40
1.0
  9
$DIMDLI
 40
1.0
  9
$DIMRND
 40
0.0
  9
$DIMDLE
 40
0.0
  9
$DIMEXE
 40
1.0
  9
$DIMTP
 40
0.0
  9
$DIMTM
 40
0.0
  9
$DIMTXT
 40
2.0
  9
$DIMCEN
 40
0.0
  9
$DIMTSZ
 40
0.0
  9
$DIMTOL
 70
     0
  9
$DIMLIM
 70
     0
  9
$DIMTIH
 70
     0
  9
$DIMTOH
 70
     0
  9
$DIMSE1
 70
     0
  9
$DIMSE2
 70
     0
  9
$DIMTAD
 70
     1
  9
$DIMZIN
 70
     8
  9
$DIMBLK
  1

  9
$DIMASO
 70
     1
  9
$DIMSHO
 70
     1
  9
$DIMPOST
  1

  9
$DIMAPOST
  1

  9
$DIMALT
 70
     0
  9
$DIMALTD
 70
     3
  9
$DIMALTF
 40
0.03937007874016
  9
$DIMLFAC
 40
1.0
  9
$DIMTOFL
 70
     1
  9
$DIMTVP
 40
0.0
  9
$DIMTIX
 70
     0
  9
$DIMSOXD
 70
     0
  9
$DIMSAH
 70
     0
  9
$DIMBLK1
  1

  9
$DIMBLK2
  1

  9
$DIMSTYLE
  2
SANINDUSA
  9
$DIMCLRD
 70
   256
  9
$DIMCLRE
 70
   256
  9
$DIMCLRT
 70
   256
  9
$DIMTFAC
 40
1.0
  9
$DIMGAP
 40
1.0
  9
$DIMJUST
 70
     0
  9
$DIMSD1
 70
     0
  9
$DIMSD2
 70
     0
  9
$DIMTOLJ
 70
     0
  9
$DIMTZIN
 70
     8
  9
$DIMALTZ
 70
     0
  9
$DIMALTTZ
 70
     0
  9
$DIMUPT
 70
     0
  9
$DIMDEC
 70
     1
  9
$DIMTDEC
 70
     1
  9
$DIMALTU
 70
     2
  9
$DIMALTTD
 70
     3
  9
$DIMTXSTY
  7
SANINDUSA
  9
$DIMAUNIT
 70
     0
  9
$DIMADEC
 70
     1
  9
$DIMALTRND
 40
0.0
  9
$DIMAZIN
 70
     0
  9
$DIMDSEP
 70
    44
  9
$DIMATFIT
 70
     3
  9
$DIMFRAC
 70
     0
  9
$DIMLDRBLK
  1

  9
$DIMLUNIT
 70
     2
  9
$DIMLWD
 70
    -1
  9
$DIMLWE
 70
    -1
  9
$DIMTMOVE
 70
     0
  9
$LUNITS
 70
     2
  9
$LUPREC
 70
     4
  9
$SKETCHINC
 40
1.0
  9
$FILLETRAD
 40
0.0
  9
$AUNITS
 70
     0
  9
$AUPREC
 70
     0
  9
$MENU
  1
.
  9
$ELEVATION
 40
0.0
  9
$PELEVATION
 40
0.0
  9
$THICKNESS
 40
0.0
  9
$LIMCHECK
 70
     0
  9
$CHAMFERA
 40
10.0
  9
$CHAMFERB
 40
10.0
  9
$CHAMFERC
 40
20.0
  9
$CHAMFERD
 40
0.0
  9
$SKPOLY
 70
     0
  9
$TDCREATE
 40
2453578.459966725
  9
$TDUCREATE
 40
2453578.418300058
  9
$TDUPDATE
 40
2456150.434659097
  9
$TDUUPDATE
 40
2456150.392992431
  9
$TDINDWG
 40
0.0015863657
  9
$TDUSRTIMER
 40
0.0015863657
  9
$USRTIMER
 70
     1
  9
$ANGBASE
 50
0.0
  9
$ANGDIR
 70
     0
  9
$PDMODE
 70
     0
  9
$PDSIZE
 40
0.0
  9
$PLINEWID
 40
0.0
  9
$SPLFRAME
 70
     0
  9
$SPLINETYPE
 70
     6
  9
$SPLINESEGS
 70
     8
  9
$HANDSEED
  5
D5F
  9
$SURFTAB1
 70
     6
  9
$SURFTAB2
 70
     6
  9
$SURFTYPE
 70
     6
  9
$SURFU
 70
     6
  9
$SURFV
 70
     6
  9
$UCSBASE
  2

  9
$UCSNAME
  2

  9
$UCSORG
 10
0.0
 20
0.0
 30
0.0
  9
$UCSXDIR
 10
1.0
 20
0.0
 30
0.0
  9
$UCSYDIR
 10
0.0
 20
1.0
 30
0.0
  9
$UCSORTHOREF
  2

  9
$UCSORTHOVIEW
 70
     0
  9
$UCSORGTOP
 10
0.0
 20
0.0
 30
0.0
  9
$UCSORGBOTTOM
 10
0.0
 20
0.0
 30
0.0
  9
$UCSORGLEFT
 10
0.0
 20
0.0
 30
0.0
  9
$UCSORGRIGHT
 10
0.0
 20
0.0
 30
0.0
  9
$UCSORGFRONT
 10
0.0
 20
0.0
 30
0.0
  9
$UCSORGBACK
 10
0.0
 20
0.0
 30
0.0
  9
$PUCSBASE
  2

  9
$PUCSNAME
  2

  9
$PUCSORG
 10
0.0
 20
0.0
 30
0.0
  9
$PUCSXDIR
 10
1.0
 20
0.0
 30
0.0
  9
$PUCSYDIR
 10
0.0
 20
1.0
 30
0.0
  9
$PUCSORTHOREF
  2

  9
$PUCSORTHOVIEW
 70
     0
  9
$PUCSORGTOP
 10
0.0
 20
0.0
 30
0.0
  9
$PUCSORGBOTTOM
 10
0.0
 20
0.0
 30
0.0
  9
$PUCSORGLEFT
 10
0.0
 20
0.0
 30
0.0
  9
$PUCSORGRIGHT
 10
0.0
 20
0.0
 30
0.0
  9
$PUCSORGFRONT
 10
0.0
 20
0.0
 30
0.0
  9
$PUCSORGBACK
 10
0.0
 20
0.0
 30
0.0
  9
$USERI1
 70
     0
  9
$USERI2
 70
     0
  9
$USERI3
 70
     0
  9
$USERI4
 70
     0
  9
$USERI5
 70
     0
  9
$USERR1
 40
0.0
  9
$USERR2
 40
0.0
  9
$USERR3
 40
0.0
  9
$USERR4
 40
0.0
  9
$USERR5
 40
0.0
  9
$WORLDVIEW
 70
     1
  9
$SHADEDGE
 70
     3
  9
$SHADEDIF
 70
    70
  9
$TILEMODE
 70
     1
  9
$MAXACTVP
 70
    64
  9
$PINSBASE
 10
0.0
 20
0.0
 30
0.0
  9
$PLIMCHECK
 70
     0
  9
$PEXTMIN
 10
1.000000000000000E+20
 20
1.000000000000000E+20
 30
1.000000000000000E+20
  9
$PEXTMAX
 10
-1.000000000000000E+20
 20
-1.000000000000000E+20
 30
-1.000000000000000E+20
  9
$PLIMMIN
 10
0.0
 20
0.0
  9
$PLIMMAX
 10
420.0
 20
297.0
  9
$UNITMODE
 70
     0
  9
$VISRETAIN
 70
     1
  9
$PLINEGEN
 70
     0
  9
$PSLTSCALE
 70
     1
  9
$TREEDEPTH
 70
  3020
  9
$CMLSTYLE
  2
Standard
  9
$CMLJUST
 70
     0
  9
$CMLSCALE
 40
20.0
  9
$PROXYGRAPHICS
 70
     1
  9
$MEASUREMENT
 70
     1
  9
$CELWEIGHT
370
    -1
  9
$ENDCAPS
280
     0
  9
$JOINSTYLE
280
     0
  9
$LWDISPLAY
290
     0
  9
$INSUNITS
 70
     4
  9
$HYPERLINKBASE
  1

  9
$STYLESHEET
  1
monochrome.ctb
  9
$XEDIT
290
     1
  9
$CEPSNTYPE
380
     0
  9
$PSTYLEMODE
290
     1
  9
$FINGERPRINTGUID
  2
{68F75289-4960-4986-B375-514838D2066D}
  9
$VERSIONGUID
  2
{20A4A7FC-B78A-4028-A960-29C56660065B}
  9
$EXTNAMES
290
     1
  9
$PSVPSCALE
 40
0.0
  9
$OLESTARTUP
290
     0
  0
ENDSEC
  0
SECTION
  2
CLASSES
  0
CLASS
  1
ACDBDICTIONARYWDFLT
  2
AcDbDictionaryWithDefault
  3
ObjectDBX Classes
 90
        0
280
     0
281
     0
  0
CLASS
  1
ACDBPLACEHOLDER
  2
AcDbPlaceHolder
  3
ObjectDBX Classes
 90
        0
280
     0
281
     0
  0
CLASS
  1
LAYOUT
  2
AcDbLayout
  3
ObjectDBX Classes
 90
        0
280
     0
281
     0
  0
CLASS
  1
DICTIONARYVAR
  2
AcDbDictionaryVar
  3
ObjectDBX Classes
 90
        0
280
     0
281
     0
  0
CLASS
  1
DIMASSOC
  2
AcDbDimAssoc
  3
"AcDbDimAssoc|Product Desc:     AcDim ARX App For Dimension|Company:          Autodesk, Inc.|WEB Address:      www.autodesk.com"
 90
    32768
280
     0
281
     0
  0
CLASS
  1
TABLESTYLE
  2
AcDbTableStyle
  3
ObjectDBX Classes
 90
     4095
280
     0
281
     0
  0
CLASS
  1
MATERIAL
  2
AcDbMaterial
  3
ObjectDBX Classes
 90
     1153
280
     0
281
     0
  0
CLASS
  1
VISUALSTYLE
  2
AcDbVisualStyle
  3
ObjectDBX Classes
 90
     4095
280
     0
281
     0
  0
CLASS
  1
SCALE
  2
AcDbScale
  3
ObjectDBX Classes
 90
     1153
280
     0
281
     0
  0
CLASS
  1
MLEADERSTYLE
  2
AcDbMLeaderStyle
  3
ACDB_MLEADERSTYLE_CLASS
 90
     4095
280
     0
281
     0
  0
CLASS
  1
CELLSTYLEMAP
  2
AcDbCellStyleMap
  3
ObjectDBX Classes
 90
     1152
280
     0
281
     0
  0
ENDSEC
  0
SECTION
  2
TABLES
  0
TABLE
  2
VPORT
  5
8
330
0
100
AcDbSymbolTable
 70
     1
  0
VPORT
  5
CB6
330
8
100
AcDbSymbolTableRecord
100
AcDbViewportTableRecord
  2
*Active
 70
     0
 10
0.0
 20
0.0
 11
1.0
 21
1.0
 12
78.46160971147662
 22
183.7692039186009
 13
0.0
 23
0.0
 14
10.0
 24
10.0
 15
10.0
 25
10.0
 16
0.0
 26
0.0
 36
1.0
 17
0.0
 27
0.0
 37
0.0
 40
4.378702371954859
 41
1.645464025026068
 42
50.0
 43
0.0
 44
0.0
 50
0.0
 51
0.0
 71
     0
 72
   100
 73
     1
 74
     2
 75
     0
 76
     0
 77
     0
 78
     0
281
     0
 65
     1
110
0.0
120
0.0
130
0.0
111
1.0
121
0.0
131
0.0
112
0.0
122
1.0
132
0.0
 79
     0
146
0.0
  0
ENDTAB
  0
TABLE
  2
LTYPE
  5
5
330
0
100
AcDbSymbolTable
 70
     3
  0
LTYPE
  5
14
330
5
100
AcDbSymbolTableRecord
100
AcDbLinetypeTableRecord
  2
ByBlock
 70
     0
  3

 72
    65
 73
     0
 40
0.0
  0
LTYPE
  5
15
330
5
100
AcDbSymbolTableRecord
100
AcDbLinetypeTableRecord
  2
ByLayer
 70
     0
  3

 72
    65
 73
     0
 40
0.0
  0
LTYPE
  5
16
330
5
100
AcDbSymbolTableRecord
100
AcDbLinetypeTableRecord
  2
Continuous
 70
     0
  3
Solid line
 72
    65
 73
     0
 40
0.0
  0
LTYPE
  5
2D
330
5
100
AcDbSymbolTableRecord
100
AcDbLinetypeTableRecord
  2
DASHDOT
 70
     0
  3
Dash dot __ . __ . __ . __ . __ . __ . __ . __
 72
    65
 73
     4
 40
25.4
 49
12.7
 74
     0
 49
-6.349999999999999
 74
     0
 49
0.0
 74
     0
 49
-6.349999999999999
 74
     0
  0
LTYPE
  5
2E
330
5
100
AcDbSymbolTableRecord
100
AcDbLinetypeTableRecord
  2
HIDDEN
 70
     0
  3
Hidden __ __ __ __ __ __ __ __ __ __ __ __ __ _
 72
    65
 73
     2
 40
9.524999999999998
 49
6.349999999999999
 74
     0
 49
-3.174999999999999
 74
     0
  0
ENDTAB
  0
TABLE
  2
LAYER
  5
2
330
0
100
AcDbSymbolTable
 70
    17
  0
LAYER
  5
10
102
{ACAD_XDICTIONARY
360
D05
102
}
330
2
100
AcDbSymbolTableRecord
100
AcDbLayerTableRecord
  2
0
 70
     0
 62
     7
  6
Continuous
370
    -3
390
F
  0
LAYER
  5
2F
102
{ACAD_XDICTIONARY
360
D07
102
}
330
2
100
AcDbSymbolTableRecord
100
AcDbLayerTableRecord
  2
1
 70
     0
 62
     1
  6
Continuous
370
    -3
390
F
  0
LAYER
  5
30
102
{ACAD_XDICTIONARY
360
D09
102
}
330
2
100
AcDbSymbolTableRecord
100
AcDbLayerTableRecord
  2
2
 70
     0
 62
     2
  6
Continuous
370
    -3
390
F
  0
LAYER
  5
31
102
{ACAD_XDICTIONARY
360
D0B
102
}
330
2
100
AcDbSymbolTableRecord
100
AcDbLayerTableRecord
  2
3
 70
     0
 62
     3
  6
Continuous
370
    -3
390
F
  0
LAYER
  5
32
102
{ACAD_XDICTIONARY
360
D0D
102
}
330
2
100
AcDbSymbolTableRecord
100
AcDbLayerTableRecord
  2
4
 70
     0
 62
     4
  6
Continuous
370
    -3
390
F
  0
LAYER
  5
33
102
{ACAD_XDICTIONARY
360
D0F
102
}
330
2
100
AcDbSymbolTableRecord
100
AcDbLayerTableRecord
  2
5
 70
     0
 62
     5
  6
Continuous
370
    -3
390
F
  0
LAYER
  5
34
102
{ACAD_XDICTIONARY
360
D11
102
}
330
2
100
AcDbSymbolTableRecord
100
AcDbLayerTableRecord
  2
6
 70
     0
 62
     6
  6
Continuous
370
    -3
390
F
  0
LAYER
  5
35
102
{ACAD_XDICTIONARY
360
D13
102
}
330
2
100
AcDbSymbolTableRecord
100
AcDbLayerTableRecord
  2
7
 70
     0
 62
     7
  6
Continuous
370
    -3
390
F
  0
LAYER
  5
36
102
{ACAD_XDICTIONARY
360
D15
102
}
330
2
100
AcDbSymbolTableRecord
100
AcDbLayerTableRecord
  2
cen
 70
     0
 62
     7
  6
DASHDOT
370
    -3
390
F
  0
LAYER
  5
37
102
{ACAD_XDICTIONARY
360
D17
102
}
330
2
100
AcDbSymbolTableRecord
100
AcDbLayerTableRecord
  2
hid
 70
     0
 62
     7
  6
HIDDEN
370
    -3
390
F
  0
LAYER
  5
5D6
102
{ACAD_XDICTIONARY
360
D19
102
}
330
2
100
AcDbSymbolTableRecord
100
AcDbLayerTableRecord
  2
hatch
 70
     0
 62
     9
  6
Continuous
370
    -3
390
F
  0
LAYER
  5
8AF
102
{ACAD_XDICTIONARY
360
D1B
102
}
330
2
100
AcDbSymbolTableRecord
100
AcDbLayerTableRecord
  2
9
 70
     0
 62
     9
  6
Continuous
370
    -3
390
F
  0
LAYER
  5
8F8
102
{ACAD_XDICTIONARY
360
D1D
102
}
330
2
100
AcDbSymbolTableRecord
100
AcDbLayerTableRecord
  2
leg fin
 70
     0
 62
     9
  6
Continuous
370
    -3
390
F
  0
LAYER
  5
91D
102
{ACAD_XDICTIONARY
360
D1F
102
}
330
2
100
AcDbSymbolTableRecord
100
AcDbLayerTableRecord
  2
cotas
 70
     0
 62
     1
  6
Continuous
370
    -3
390
F
  0
LAYER
  5
92F
330
2
100
AcDbSymbolTableRecord
100
AcDbLayerTableRecord
  2
Defpoints
 70
     0
 62
     7
  6
Continuous
290
     0
370
    -3
390
F
  0
LAYER
  5
BA5
102
{ACAD_XDICTIONARY
360
D21
102
}
330
2
100
AcDbSymbolTableRecord
100
AcDbLayerTableRecord
  2
SANINDUSA
 70
     0
 62
     3
  6
Continuous
370
    -3
390
F
  0
LAYER
  5
BB0
102
{ACAD_XDICTIONARY
360
D23
102
}
330
2
100
AcDbSymbolTableRecord
100
AcDbLayerTableRecord
  2
BLOCKS
 70
     0
 62
     3
  6
Continuous
370
    -3
390
F
  0
ENDTAB
  0
TABLE
  2
STYLE
  5
3
330
0
100
AcDbSymbolTable
 70
     3
  0
STYLE
  5
11
330
3
100
AcDbSymbolTableRecord
100
AcDbTextStyleTableRecord
  2
Standard
 70
     0
 40
0.0
 41
1.0
 50
0.0
 71
     0
 42
2.5
  3
Avgardn.ttf
  4

1001
ACAD
1000
AvantGarde Bk BT
1071
       34
  0
STYLE
  5
2C
330
3
100
AcDbSymbolTableRecord
100
AcDbTextStyleTableRecord
  2

 70
     1
 40
0.0
 41
1.0
 50
0.0
 71
     0
 42
2.5
  3
ltypeshp.shx
  4

  0
STYLE
  5
91F
330
3
100
AcDbSymbolTableRecord
100
AcDbTextStyleTableRecord
  2
SANINDUSA
 70
     0
 40
0.0
 41
1.0
 50
0.0
 71
     0
 42
2.5
  3
verdana.TTF
  4

1001
ACAD
1000
Verdana
1071
       34
  0
ENDTAB
  0
TABLE
  2
VIEW
  5
6
330
0
100
AcDbSymbolTable
 70
     0
  0
ENDTAB
  0
TABLE
  2
UCS
  5
7
330
0
100
AcDbSymbolTable
 70
     0
  0
ENDTAB
  0
TABLE
  2
APPID
  5
9
330
0
100
AcDbSymbolTable
 70
     3
  0
APPID
  5
12
330
9
100
AcDbSymbolTableRecord
100
AcDbRegAppTableRecord
  2
ACAD
 70
     0
  0
APPID
  5
3A
330
9
100
AcDbSymbolTableRecord
100
AcDbRegAppTableRecord
  2
DCO15
 70
     0
  0
APPID
  5
D5E
330
9
100
AcDbSymbolTableRecord
100
AcDbRegAppTableRecord
  2
ACAD_MLEADERVER
 70
     0
  0
ENDTAB
  0
TABLE
  2
DIMSTYLE
  5
A
330
0
100
AcDbSymbolTable
 70
     2
100
AcDbDimStyleTable
 71
     1
340
921
  0
DIMSTYLE
105
45
330
A
100
AcDbSymbolTableRecord
100
AcDbDimStyleTableRecord
  2
STANDARD
 70
     0
289
     0
340
11
  0
DIMSTYLE
105
921
330
A
100
AcDbSymbolTableRecord
100
AcDbDimStyleTableRecord
  2
SANINDUSA
 70
     0
 41
2.0
 42
1.0
 43
1.0
 44
1.0
 73
     0
 74
     0
 77
     1
 78
     8
140
2.0
141
0.0
143
0.03937007874016
147
1.0
171
     3
172
     1
176
   256
177
   256
178
   256
179
     1
271
     1
272
     1
274
     3
278
    44
283
     0
284
     8
340
91F
371
    -1
372
    -1
  0
ENDTAB
  0
TABLE
  2
BLOCK_RECORD
  5
1
330
0
100
AcDbSymbolTable
 70
     8
  0
BLOCK_RECORD
  5
1F
330
1
100
AcDbSymbolTableRecord
100
AcDbBlockTableRecord
  2
*Model_Space
340
22
  0
BLOCK_RECORD
  5
1B
330
1
100
AcDbSymbolTableRecord
100
AcDbBlockTableRecord
  2
*Paper_Space
340
1E
  0
BLOCK_RECORD
  5
23
330
1
100
AcDbSymbolTableRecord
100
AcDbBlockTableRecord
  2
*Paper_Space0
340
26
  0
BLOCK_RECORD
  5
919
330
1
100
AcDbSymbolTableRecord
100
AcDbBlockTableRecord
  2
_DotSmall
340
0
  0
BLOCK_RECORD
  5
922
330
1
100
AcDbSymbolTableRecord
100
AcDbBlockTableRecord
  2
base para cotas
340
0
310
2800000020000000200000000100080000000000000400000000000000000000000000000000000000000000000080000080000000808000800000008000800080800000C0C0C000C0DCC000F0CAA6000020400000206000002080000020A0000020C0000020E00000400000004020000040400000406000004080000040A0
310
000040C0000040E00000600000006020000060400000606000006080000060A0000060C0000060E00000800000008020000080400000806000008080000080A0000080C0000080E00000A0000000A0200000A0400000A0600000A0800000A0A00000A0C00000A0E00000C0000000C0200000C0400000C0600000C0800000C0
310
A00000C0C00000C0E00000E0000000E0200000E0400000E0600000E0800000E0A00000E0C00000E0E00040000000400020004000400040006000400080004000A0004000C0004000E00040200000402020004020400040206000402080004020A0004020C0004020E000404000004040200040404000404060004040800040
310
40A0004040C0004040E00040600000406020004060400040606000406080004060A0004060C0004060E00040800000408020004080400040806000408080004080A0004080C0004080E00040A0000040A0200040A0400040A0600040A0800040A0A00040A0C00040A0E00040C0000040C0200040C0400040C0600040C08000
310
40C0A00040C0C00040C0E00040E0000040E0200040E0400040E0600040E0800040E0A00040E0C00040E0E00080000000800020008000400080006000800080008000A0008000C0008000E00080200000802020008020400080206000802080008020A0008020C0008020E00080400000804020008040400080406000804080
310
008040A0008040C0008040E00080600000806020008060400080606000806080008060A0008060C0008060E00080800000808020008080400080806000808080008080A0008080C0008080E00080A0000080A0200080A0400080A0600080A0800080A0A00080A0C00080A0E00080C0000080C0200080C0400080C0600080C0
310
800080C0A00080C0C00080C0E00080E0000080E0200080E0400080E0600080E0800080E0A00080E0C00080E0E000C0000000C0002000C0004000C0006000C0008000C000A000C000C000C000E000C0200000C0202000C0204000C0206000C0208000C020A000C020C000C020E000C0400000C0402000C0404000C0406000C0
310
408000C040A000C040C000C040E000C0600000C0602000C0604000C0606000C0608000C060A000C060C000C060E000C0800000C0802000C0804000C0806000C0808000C080A000C080C000C080E000C0A00000C0A02000C0A04000C0A06000C0A08000C0A0A000C0A0C000C0A0E000C0C00000C0C02000C0C04000C0C06000
310
C0C08000C0C0A000F0FBFF00A4A0A000808080000000FF0000FF000000FFFF00FF000000FF00FF00FFFF0000FFFFFF00A4A4A4A4A4A4A4A4A4A4A4A4A4A4A4A4A4A4A4A4A4A4A4A4A4A4A4A4A4A4A4A4A4A4A4A4A4A4A4A4A4A4A4A4A4A4A4A4A4A4A4A4A4A4A4A4A4A4A4A4A4A4A4A4A4A4A4A4A4A4A4A4A4A4A4A4A4A4A4
310
A4A4A4A4A4A4A4A4A4A4A4A4A4A4A4A4A4A4A4A4A4A4A4A4A4A4A4A4A4A4A4A4A4A4A4A4A4A4A4A4A4A4A4A4A4A4A4A4A4A4A4A4A4A4A4A4A4A4A4A4A4A4A4A4A4A4A4A4A4A4A4A4A4A4A4A4A4A4A4A4A4A4A4A4A4A4A4A4A4A4A4A4A4A4A4A4A4A4A4A4A4A4A4A4A4A4A4A4A4A4A4A4A4A4A4A4A4A4A4A4A4A4A4A4A4A4A4
310
A4A4A4A4A4A4A4A4A4A4A4A4A4A4A4A4A4A4A4A4A4A4A4A4A4A4A4A4A4A4A4A4A4A4A4A4A4A4A4A4A4A4A4A4A4A4A4A4A4A4A4A4A4A4A4A4A4A4A4A4A4A4A4A4A4A4A4A4A4A4A4A4A4A4A4A4A4A4A4A4A4A4A4A4A4A4A4A4A4A4A4A4A4A4A4A4A4A4A4A4A4A4A4A4A4A4A4A4A4A4A4A4A4A4A4A4A4A4A4A4A4A4A4A4A4A4A4
310
A4A4A4A4A4A4A4A4A4A4A4A4A4A4A4A4A4A4A4A4A4A4A4A4A4A4A4A4A4A4A4A4A4A4A4A4A4A4A4A4A4A4A4A4A4A4A4A4A4A4A4A4A4A4A4A4A4A4A4A4A4A4A4A4A4A4A4A4A4A4A4A4A4A4A4A4A4A4A4A4A4A4A4A4A4A4A4A4A4A4A4A4A4A4A4A4A4A4A4A4A4A4A4A4A4A4A4A4A4A4A4A4A4A4A4A4F9F9F9F9F9F9F9F9F9F9F9
310
F9F9F9F9F9F9F9F9F9F9F9F9F9F9F9F9F9F9F9A4A4F9F9F9F9F9F9F9F9F9F9F9F9F9F9F9F9F9F9F9F9F9F9F9F9F9F9F9F9F9F9A4A4F9F9F9F9F9F9F9F9F9F9F9F9F9F9F9F9F9F9F9F9F9F9F9F9F9F9F9F9F9F9A4A4F9A4A4A4A4A4A4A4A4A4A4A4A4A4A4A4A4A4A4A4A4A4A4A4A4A4A4A4A4F9A4A4A4A4A4A4A4A4A4A4A4A4
310
A4A4A4A4A4A4A4A4A4A4A4A4A4A4A4A4A4A4A4A4A4A4A4A4A4A4A4A4A4A4A4A4A4A4A4A4A4A4A4A4A4A4A4A4A4A4A4A4A4A4A4A4A4A4A4A4A4A4A4A4A4A4A4A4A4A4A4A4A4A4A4A4A4A4A4A4A4A4A4A4A4A4A4A4A4A4A4A4A4A4A4A4A4A4A4A4A4A4A4A4A4A4A4A4A4A4A4A4A4A4A4A4A4A4A4A4A4A4A4A4A4A4A4A4A4A4A4
310
A4A4A4A4A4A4A4A4A4A4A4A4A4A4A4A4A4A4A4A4A4A4A4A4A4A4A4A4A4A4A4A4A4A4A4A4A4A4A4A4A4A4A4A4A4A4A4A4A4A4A4A4A4A4A4A4A4A4A4A4A4A4A4A4A4A4A4A4A4A4A4A4A4A4A4A4A4A4A4A4A4A4A4A4A4A4A4A4A4A4A4A4A4A4A4A4A4A4A4A4A4A4A4A4A4A4A4A4A4A4A4A4A4A4A4A4A4A4A4A4A4A4A4A4A4A4A4
310
A4A4A4A4A4A4A4A4A4A4A4A4A4A4A4A4A4A4A4A4A4A4A4A4A4A4A4A4A4A4A4A4A4A4A4A4A4A4A4A4A4A4A4A4A4A4A4A4A4A4A4A4A4A4A4A4A4A4A4A4A4A4A4A4A4A4A4A4A4A4A4A4A4A4A4A4A4A4A4A4A4A4A4A4A4A4A4A4A4A4A4A4A4A4A4A4A4A4A4A4A4A4A4A4A4A4A4A4A4A4A4A4A4A4A4A4A4A4A4A4A4A4A4A4A4A4A4
310
A4A4A4A4A4A4A4A4A4A4A4A4A4A4A4A4A4A4A4A4A4A4A4A4A4A4A4A4A4A4A4A4A4A4A4A4A4A4A4A4A4A4A4A4A4A4A4A4A4A4A4A4A4A4A4A4
1001
ACAD
1000
DesignCenter Data
1002
{
1070
     1
1070
     4
1002
}
  0
BLOCK_RECORD
  5
AA8
330
1
100
AcDbSymbolTableRecord
100
AcDbBlockTableRecord
  2
_CLOSED
340
0
  0
BLOCK_RECORD
  5
BB1
330
1
100
AcDbSymbolTableRecord
100
AcDbBlockTableRecord
  2
802200PL
340
0
102
{BLKREFS
331
C07
102
}
  0
BLOCK_RECORD
  5
C08
330
1
100
AcDbSymbolTableRecord
100
AcDbBlockTableRecord
  2
802200AF
340
0
102
{BLKREFS
331
C39
102
}
  0
BLOCK_RECORD
  5
C3A
330
1
100
AcDbSymbolTableRecord
100
AcDbBlockTableRecord
  2
802200AL
340
0
102
{BLKREFS
331
C6C
102
}
  0
BLOCK_RECORD
  5
C6D
330
1
100
AcDbSymbolTableRecord
100
AcDbBlockTableRecord
  2
802200CT
340
0
102
{BLKREFS
331
CB5
102
}
  0
ENDTAB
  0
ENDSEC
  0
SECTION
  2
BLOCKS
  0
BLOCK
  5
20
330
1F
100
AcDbEntity
  8
0
100
AcDbBlockBegin
  2
*Model_Space
 70
     0
 10
0.0
 20
0.0
 30
0.0
  3
*Model_Space
  1

  0
ENDBLK
  5
21
330
1F
100
AcDbEntity
  8
0
100
AcDbBlockEnd
  0
BLOCK
  5
1C
330
1B
100
AcDbEntity
 67
     1
  8
0
100
AcDbBlockBegin
  2
*Paper_Space
 70
     0
 10
0.0
 20
0.0
 30
0.0
  3
*Paper_Space
  1

  0
ENDBLK
  5
1D
330
1B
100
AcDbEntity
 67
     1
  8
0
100
AcDbBlockEnd
  0
BLOCK
  5
24
330
23
100
AcDbEntity
 67
     1
  8
0
100
AcDbBlockBegin
  2
*Paper_Space0
 70
     0
 10
0.0
 20
0.0
 30
0.0
  3
*Paper_Space0
  1

  0
ENDBLK
  5
25
330
23
100
AcDbEntity
 67
     1
  8
0
100
AcDbBlockEnd
  0
BLOCK
  5
91B
330
919
100
AcDbEntity
  8
0
100
AcDbBlockBegin
  2
_DotSmall
 70
     0
 10
0.0
 20
0.0
 30
0.0
  3
_DotSmall
  1

  0
LWPOLYLINE
  5
91A
330
919
100
AcDbEntity
  8
0
  6
ByBlock
 62
     0
100
AcDbPolyline
 90
        2
 70
     1
 43
0.5
 10
-0.0625
 20
0.0
 42
1.0
 10
0.0625
 20
0.0
 42
1.0
  0
ENDBLK
  5
91C
330
919
100
AcDbEntity
  8
0
100
AcDbBlockEnd
  0
BLOCK
  5
92A
330
922
100
AcDbEntity
  8
0
100
AcDbBlockBegin
  2
base para cotas
 70
     0
 10
0.0
 20
0.0
 30
0.0
  3
base para cotas
  1

  0
LINE
  5
B36
330
922
100
AcDbEntity
  8
cotas
100
AcDbLine
 10
0.0
 20
-30.0
 30
0.0
 11
327.1260136525398
 21
-30.0
 31
0.0
  0
LINE
  5
B37
330
922
100
AcDbEntity
  8
cotas
100
AcDbLine
 10
0.0
 20
-25.0
 30
0.0
 11
327.1260136525398
 21
-25.0
 31
0.0
  0
LINE
  5
B38
330
922
100
AcDbEntity
  8
cotas
100
AcDbLine
 10
0.0
 20
-20.0
 30
0.0
 11
327.1260136525398
 21
-20.0
 31
0.0
  0
LINE
  5
B39
330
922
100
AcDbEntity
  8
cotas
100
AcDbLine
 10
0.0
 20
-15.0
 30
0.0
 11
327.1260136525398
 21
-15.0
 31
0.0
  0
LINE
  5
B3A
330
922
100
AcDbEntity
  8
cotas
100
AcDbLine
 10
0.0
 20
-10.0
 30
0.0
 11
327.1260136525398
 21
-10.0
 31
0.0
  0
LINE
  5
B3B
330
922
100
AcDbEntity
  8
cotas
100
AcDbLine
 10
0.0
 20
0.0
 30
0.0
 11
0.0
 21
-30.0
 31
0.0
  0
LINE
  5
B3C
330
922
100
AcDbEntity
  8
cotas
100
AcDbLine
 10
327.1260136525398
 20
-30.0
 30
0.0
 11
327.1260136525398
 21
0.0
 31
0.0
  0
ENDBLK
  5
92B
330
922
100
AcDbEntity
  8
0
100
AcDbBlockEnd
  0
BLOCK
  5
AAD
330
AA8
100
AcDbEntity
  8
0
100
AcDbBlockBegin
  2
_CLOSED
 70
     0
 10
0.0
 20
0.0
 30
0.0
  3
_CLOSED
  1

  0
LINE
  5
AA9
330
AA8
100
AcDbEntity
  8
0
100
AcDbLine
 10
-1.0
 20
0.166667
 30
0.0
 11
0.0
 21
0.0
 31
0.0
  0
LINE
  5
AAA
330
AA8
100
AcDbEntity
  8
0
100
AcDbLine
 10
0.0
 20
0.0
 30
0.0
 11
-1.0
 21
-0.166667
 31
0.0
  0
LINE
  5
AAB
330
AA8
100
AcDbEntity
  8
0
100
AcDbLine
 10
-1.0
 20
0.166667
 30
0.0
 11
-1.0
 21
-0.166667
 31
0.0
  0
LINE
  5
AAC
330
AA8
100
AcDbEntity
  8
0
100
AcDbLine
 10
0.0
 20
0.0
 30
0.0
 11
-1.0
 21
0.0
 31
0.0
  0
ENDBLK
  5
AAE
330
AA8
100
AcDbEntity
  8
0
100
AcDbBlockEnd
  0
BLOCK
  5
C05
330
BB1
100
AcDbEntity
  8
0
100
AcDbBlockBegin
  2
802200PL
 70
     0
 10
0.0
 20
0.0
 30
0.0
  3
802200PL
  1

  0
ARC
  5
BB2
330
BB1
100
AcDbEntity
  8
BLOCKS
  6
Continuous
100
AcDbCircle
 10
1.585000373451066
 20
-0.0149999999999864
 30
0.0
 40
0.0150000000000001
100
AcDbArc
 50
0.0716537287878788
 51
90.07165372951742
  0
LINE
  5
BB3
330
BB1
100
AcDbEntity
  8
BLOCKS
  6
Continuous
100
AcDbLine
 10
1.524157342053968
 20
-0.3305005133152008
 30
0.0
 11
1.529370245076734
 21
-0.3365012183785438
 31
0.0
  0
LWPOLYLINE
  5
BB4
330
BB1
100
AcDbEntity
  8
BLOCKS
  6
Continuous
100
AcDbPolyline
 90
        3
 70
   128
 43
0.0
 10
1.508449908830248
 20
-0.3141937255859512
 10
1.516444262601457
 20
-0.3222015649080413
 10
1.524157342053972
 20
-0.3305005133152145
  0
ARC
  5
BB5
330
BB1
100
AcDbEntity
  8
BLOCKS
100
AcDbCircle
 10
1.208095322061922
 20
-0.5076887927213534
 30
0.0
 40
0.3802948423160535
100
AcDbArc
 50
353.3409798062731
 51
6.659020193726871
  0
LINE
  5
BB6
330
BB1
100
AcDbEntity
  8
BLOCKS
  6
Continuous
100
AcDbLine
 10
1.536631163693982
 20
-0.4994180351495743
 30
0.0
 11
1.534002956487256
 21
-0.4861755967140198
 31
0.0
  0
LINE
  5
BB7
330
BB1
100
AcDbEntity
  8
BLOCKS
  6
Continuous
100
AcDbLine
 10
1.571747657395917
 20
-0.6197797656059266
 30
0.0
 11
1.566210862733441
 21
-0.6365323811769486
 31
0.0
  0
LWPOLYLINE
  5
BB8
330
BB1
100
AcDbEntity
  8
BLOCKS
  6
Continuous
100
AcDbPolyline
 90
        3
 70
   128
 43
0.0
 10
1.517167147733293
 20
-0.6136339753866333
 10
1.521640416719042
 20
-0.6047945320606369
 10
1.523339625932299
 20
-0.6011007875204223
  0
LWPOLYLINE
  5
BB9
330
BB1
100
AcDbEntity
  8
BLOCKS
  6
Continuous
100
AcDbPolyline
 90
       11
 70
   128
 43
0.0
 10
1.523339625932299
 20
-0.6011007875204223
 10
1.527506050206743
 20
-0.59104917943479
 10
1.531101402379595
 20
-0.5807573795318741
 10
1.534115430451952
 20
-0.5700741708278793
 10
1.536440965272509
 20
-0.5592092797160286
 10
1.537896153070055
 20
-0.5494614318013328
 10
1.538778361417375
 20
-0.5396361127495903
 10
1.539090272523485
 20
-0.5297910347581047
 10
1.538823780156694
 20
-0.519614756107344
 10
1.53799169931563
 20
-0.5094744339585441
 10
1.536631163693987
 20
-0.499418035149588
  0
LWPOLYLINE
  5
BBA
330
BB1
100
AcDbEntity
  8
BLOCKS
  6
Continuous
100
AcDbPolyline
 90
        5
 70
   128
 43
0.0
 10
1.585824635364138
 20
-0.5517879192935789
 10
1.583295878507219
 20
-0.5697188824415344
 10
1.580189522840105
 20
-0.5864944010973114
 10
1.576337811090074
 20
-0.6032137125730652
 10
1.571747657395922
 20
-0.6197797656059402
  0
LWPOLYLINE
  5
BBB
330
BB1
100
AcDbEntity
  8
BLOCKS
  6
Continuous
100
AcDbPolyline
 90
       11
 70
   128
 43
0.0
 10
1.529370245076738
 20
-0.3365012183785575
 10
1.538037773706041
 20
-0.3474808260798591
 10
1.546033140756212
 20
-0.3589605689048904
 10
1.55346405182036
 20
-0.3710370063781875
 10
1.560219701863848
 20
-0.3835042715072768
 10
1.565394815541826
 20
-0.3942987620830673
 10
1.570089217759691
 20
-0.405337184667601
 10
1.575140294171892
 20
-0.4190869014710325
 10
1.579416092969499
 20
-0.4330967580899733
 10
1.582923707105242
 20
-0.4475196022540468
 10
1.585824635364138
 20
-0.4635896661492143
  0
ARC
  5
BBC
330
BB1
100
AcDbEntity
  8
BLOCKS
  6
Continuous
100
AcDbCircle
 10
1.585000361721085
 20
-0.8886220800415003
 30
0.0
 40
0.015
100
AcDbArc
 50
270.0
 51
0.0716537287878788
  0
LINE
  5
BBD
330
BB1
100
AcDbEntity
  8
BLOCKS
100
AcDbLine
 10
1.600000361721185
 20
-0.0149812411025892
 30
0.0
 11
1.600000361721185
 21
-0.8886220800415003
 31
0.0
  0
LINE
  5
BBE
330
BB1
100
AcDbEntity
  8
BLOCKS
  6
Continuous
100
AcDbLine
 10
1.483193811513501
 20
-0.3674531728029251
 30
0.0
 11
1.479755517579633
 21
-0.3619567453861237
 31
0.0
  0
LINE
  5
BBF
330
BB1
100
AcDbEntity
  8
BLOCKS
  6
Continuous
100
AcDbLine
 10
1.479755517579633
 20
-0.3619567453861237
 30
0.0
 11
1.468878146745282
 21
-0.3456637933850288
 31
0.0
  0
LWPOLYLINE
  5
BC0
330
BB1
100
AcDbEntity
  8
BLOCKS
  6
Continuous
100
AcDbPolyline
 90
        5
 70
   128
 43
0.0
 10
1.487598356343828
 20
-0.4136501643806833
 10
1.483888265229784
 20
-0.4044408798217911
 10
1.479604598619066
 20
-0.3954601734876769
 10
1.474724885560594
 20
-0.3866636715829509
 10
1.46932965192946
 20
-0.3781821727752822
  0
LINE
  5
BC1
330
BB1
100
AcDbEntity
  8
BLOCKS
  6
Continuous
100
AcDbLine
 10
1.469329651929456
 20
-0.3781821727752685
 30
0.0
 11
1.458857056237775
 21
-0.3636796474456787
 31
0.0
  0
LWPOLYLINE
  5
BC2
330
BB1
100
AcDbEntity
  8
BLOCKS
  6
Continuous
100
AcDbPolyline
 90
        5
 70
   128
 43
0.0
 10
1.45885705623778
 20
-0.3636796474456924
 10
1.450659867860399
 20
-0.3533006906509536
 10
1.442157563306414
 20
-0.3431249633431571
 10
1.433342513181291
 20
-0.3331406936049598
 10
1.42423402938994
 20
-0.3233712539076942
  0
LINE
  5
BC3
330
BB1
100
AcDbEntity
  8
BLOCKS
  6
Continuous
100
AcDbLine
 10
1.354070959152977
 20
-0.2425236666560409
 30
0.0
 11
1.356356259919721
 21
-0.2257091701030731
 31
0.0
  0
LWPOLYLINE
  5
BC4
330
BB1
100
AcDbEntity
  8
BLOCKS
  6
Continuous
100
AcDbPolyline
 90
       13
 70
   128
 43
0.0
 10
1.468878146745287
 20
-0.3456637933850425
 10
1.456988569833361
 20
-0.3282363563776153
 10
1.444290336705767
 20
-0.3113179951906341
 10
1.430821296311937
 20
-0.2949571162462371
 10
1.425600108243547
 20
-0.2889986783266204
 10
1.413841393329225
 20
-0.276282116770758
 10
1.401591297723375
 20
-0.2639823853969711
 10
1.388869967795931
 20
-0.252140864729895
 10
1.377295222617708
 20
-0.2421267330646652
 10
1.365367766954027
 20
-0.232515990734114
 10
1.356914069987856
 20
-0.226119443774237
 10
1.356474217511736
 20
-0.2257958054542678
 10
1.356356259919725
 20
-0.2257091701030868
  0
LWPOLYLINE
  5
BC5
330
BB1
100
AcDbEntity
  8
BLOCKS
  6
Continuous
100
AcDbPolyline
 90
        8
 70
   128
 43
0.0
 10
1.42423402938994
 20
-0.3233712539076942
 10
1.42413592014464
 20
-0.3232682347297805
 10
1.412714150287233
 20
-0.3116721361875671
 10
1.400865760184847
 20
-0.300422057509436
 10
1.388112273551546
 20
-0.2891281545162338
 10
1.374928769208513
 20
-0.2782810181379455
 10
1.361215767003618
 20
-0.2678376883268493
 10
1.347084101773821
 20
-0.2579271197319167
  0
LWPOLYLINE
  5
BC6
330
BB1
100
AcDbEntity
  8
BLOCKS
  6
Continuous
100
AcDbPolyline
 90
        3
 70
   128
 43
0.0
 10
1.281002160646044
 20
-0.2244154512882369
 10
1.281070109941088
 20
-0.2243804484605926
 10
1.281081583835207
 20
-0.224362105131163
  0
LWPOLYLINE
  5
BC7
330
BB1
100
AcDbEntity
  8
BLOCKS
  6
Continuous
100
AcDbPolyline
 90
        6
 70
   128
 43
0.0
 10
1.347084101773821
 20
-0.2579271197319167
 10
1.331508305408083
 20
-0.248139604926123
 10
1.315308955051027
 20
-0.2392825037241119
 10
1.298413958884798
 20
-0.2313390970230239
 10
1.281002220250688
 20
-0.2244154661893981
 10
1.281002160646044
 20
-0.2244154512882369
  0
LWPOLYLINE
  5
BC8
330
BB1
100
AcDbEntity
  8
BLOCKS
  6
Continuous
100
AcDbPolyline
 90
        5
 70
   128
 43
0.0
 10
1.28756245646628
 20
-0.2078580409288543
 10
1.30546161208304
 20
-0.2152641415596145
 10
1.322943952418886
 20
-0.2237703353166717
 10
1.340065654851519
 20
-0.2334358543157714
 10
1.354070959152982
 20
-0.2425236666561022
  0
LWPOLYLINE
  5
BC9
330
BB1
100
AcDbEntity
  8
BLOCKS
  6
Continuous
100
AcDbPolyline
 90
       14
 70
   128
 43
0.0
 10
1.050726172067247
 20
-0.4852515496313709
 10
1.052236047126375
 20
-0.4757659658789772
 10
1.053159039951883
 20
-0.4662137664854664
 10
1.053256910778604
 20
-0.4566542729735512
 10
1.052568700648867
 20
-0.4470858655404437
 10
1.051092658676229
 20
-0.4376091263257104
 10
1.04882700417193
 20
-0.4283246370032567
 10
1.045165833570085
 20
-0.4177561048418421
 10
1.041296635307394
 20
-0.4092696383595604
 10
1.036690127588831
 20
-0.4011180736124653
 10
1.03138866696509
 20
-0.3934043608605998
 10
1.025434632338606
 20
-0.3862314522266525
 10
1.021030236519895
 20
-0.381727863103165
 10
1.016366836167894
 20
-0.3774903491139549
  0
LWPOLYLINE
  5
BCA
330
BB1
100
AcDbEntity
  8
BLOCKS
  6
Continuous
100
AcDbPolyline
 90
        9
 70
   128
 43
0.0
 10
0.9158619591221441
 20
-0.3161345571279662
 10
0.9088108190521825
 20
-0.3136328756809371
 10
0.9015740123763908
 20
-0.3117337971925872
 10
0.8939829771593441
 20
-0.3104202747345107
 10
0.8863073070720066
 20
-0.3097603172063964
 10
0.87935932774099
 20
-0.3097272366285461
 10
0.8724287343397964
 20
-0.3102216571569579
 10
0.8653924209252227
 20
-0.311268717050566
 10
0.8584566530958046
 20
-0.3128510564565795
  0
LWPOLYLINE
  5
BCB
330
BB1
100
AcDbEntity
  8
BLOCKS
  6
Continuous
100
AcDbPolyline
 90
        9
 70
   128
 43
0.0
 10
0.8756175530329574
 20
-0.6122392863035339
 10
0.890877422429644
 20
-0.6102022677660126
 10
0.9060440999642242
 20
-0.6075603961944717
 10
0.9211909794435133
 20
-0.6042718291282791
 10
0.9361807876453031
 20
-0.600330054759993
 10
0.9496295419708122
 20
-0.5961613208055633
 10
0.9628827166930069
 20
-0.5914084613323349
 10
0.9760048617795337
 20
-0.5859828591346878
 10
0.9888522406295169
 20
-0.5799334198236603
  0
LWPOLYLINE
  5
BCC
330
BB1
100
AcDbEntity
  8
BLOCKS
  6
Continuous
100
AcDbPolyline
 90
       13
 70
   128
 43
0.0
 10
0.9888522406295169
 20
-0.5799334198236603
 10
0.9988301587477554
 20
-0.5745331346988815
 10
1.008203845955454
 20
-0.5680849999189514
 10
1.016788129247747
 20
-0.5606727376580376
 10
1.022279818095289
 20
-0.5549479275941986
 10
1.027337182797514
 20
-0.5488356128335136
 10
1.032683063782774
 20
-0.5412149503827232
 10
1.037386920787416
 20
-0.5331442430615562
 10
1.041413460411154
 20
-0.5247131809592384
 10
1.044727374352537
 20
-0.5160114541649956
 10
1.04753390375527
 20
-0.50594445317985
 10
1.049464386440836
 20
-0.4956465102732319
 10
1.050726172067247
 20
-0.4852515496313709
  0
LWPOLYLINE
  5
BCD
330
BB1
100
AcDbEntity
  8
BLOCKS
  6
Continuous
100
AcDbPolyline
 90
       10
 70
   128
 43
0.0
 10
1.016366836167894
 20
-0.3774903491139549
 10
1.005797151960455
 20
-0.3683739304542678
 10
0.9956804705038894
 20
-0.3604519516229766
 10
0.9852341120317806
 20
-0.3529694676399368
 10
0.9744203505292762
 20
-0.3458680883050102
 10
0.9633401767537225
 20
-0.3391895964741844
 10
0.9518136182055105
 20
-0.3328144997358459
 10
0.9400642933510471
 20
-0.3268596380949157
 10
0.9280543923564483
 20
-0.321291238069548
 10
0.9158619591221441
 20
-0.3161345571279662
  0
LWPOLYLINE
  5
BCE
330
BB1
100
AcDbEntity
  8
BLOCKS
  6
Continuous
100
AcDbPolyline
 90
       10
 70
   128
 43
0.0
 10
0.9509904445335497
 20
-0.1062332391739028
 10
0.9884857875481475
 20
-0.1141902208328383
 10
1.025807951129995
 20
-0.1229236125946181
 10
1.063005146123491
 20
-0.1324440240860122
 10
1.0999980536476
 20
-0.1427297592163222
 10
1.136708584167086
 20
-0.1537536382675307
 10
1.17318644795569
 20
-0.165524601936354
 10
1.209477510787569
 20
-0.1780558228492873
 10
1.245507326461397
 20
-0.1913195550441878
 10
1.28756245646628
 20
-0.2078580409288543
  0
LWPOLYLINE
  5
BCF
330
BB1
100
AcDbEntity
  8
BLOCKS
  6
Continuous
100
AcDbPolyline
 90
       10
 70
   128
 43
0.0
 10
1.281081583835207
 20
-0.224362105131163
 10
1.239139047004305
 20
-0.2080940157175201
 10
1.203462061025225
 20
-0.1951242834329742
 10
1.167536836601816
 20
-0.1828579306602614
 10
1.131318685151659
 20
-0.1712871491909164
 10
1.094876569248758
 20
-0.1604411900043624
 10
1.058295969404303
 20
-0.1503488421440261
 10
1.021518815793119
 20
-0.1409968137741225
 10
0.9844975997880329
 20
-0.1323800981044906
 10
0.9473076495528449
 20
-0.124522358179106
  0
LWPOLYLINE
  5
BD0
330
BB1
100
AcDbEntity
  8
BLOCKS
  6
Continuous
100
AcDbPolyline
 90
       14
 70
   128
 43
0.0
 10
0.5839590099826683
 20
-0.1096334457397597
 10
0.6068903175369133
 20
-0.1161829233169692
 10
0.6301667061820854
 20
-0.1214579641819137
 10
0.653681125976168
 20
-0.1254344284534591
 10
0.6719558802619804
 20
-0.1276059746742385
 10
0.6903235730901588
 20
-0.1289957463741439
 10
0.7087338087335457
 20
-0.129601031541838
 10
0.7271362361684669
 20
-0.1294190287590163
 10
0.745583545900904
 20
-0.1284431219101089
 10
0.7639805195108284
 20
-0.1266763508319991
 10
0.7822763887420524
 20
-0.1241234838962691
 10
0.8007546630874504
 20
-0.1207225918769973
 10
0.819075752533995
 20
-0.1165169179439681
 10
0.8371872869506706
 20
-0.1115184128284591
  0
LWPOLYLINE
  5
BD1
330
BB1
100
AcDbEntity
  8
BLOCKS
  6
Continuous
100
AcDbPolyline
 90
       15
 70
   128
 43
0.0
 10
0.8425505575910438
 20
-0.1294153630733626
 10
0.8239699271694053
 20
-0.134539425373091
 10
0.8051781770959724
 20
-0.1388647556305068
 10
0.7862271038070549
 20
-0.1423795521259444
 10
0.7668163892999519
 20
-0.1451162695884841
 10
0.7472956148162712
 20
-0.1470059156417983
 10
0.7277203616872657
 20
-0.148043185472502
 10
0.7031991747394432
 20
-0.1481373608112472
 10
0.6786362198367942
 20
-0.1468893289566176
 10
0.6617652443424095
 20
-0.1452480554580825
 10
0.6449620691314567
 20
-0.1429718434810775
 10
0.6282624569908012
 20
-0.1400655210018294
 10
0.6114684906974662
 20
-0.1364807784557479
 10
0.5948174563423027
 20
-0.132256448268904
 10
0.5783457425609459
 20
-0.1274017095565932
  0
LWPOLYLINE
  5
BD2
330
BB1
100
AcDbEntity
  8
BLOCKS
  6
Continuous
100
AcDbPolyline
 90
       11
 70
   128
 43
0.0
 10
0.3905718890205253
 20
-0.489944905042662
 10
0.4011181560531486
 20
-0.4957461506128448
 10
0.4119770494476188
 20
-0.5009597539901871
 10
0.4230989781394828
 20
-0.5055612437427181
 10
0.4347926643863548
 20
-0.5096433386206764
 10
0.4467095700279106
 20
-0.5130553469061989
 10
0.4587916699424614
 20
-0.5157804787159103
 10
0.470650908090197
 20
-0.5177609398961204
 10
0.482601579763018
 20
-0.5190822035074371
 10
0.4947576788440574
 20
-0.5197435468435425
 10
0.5069318381324638
 20
-0.5197237730026382
  0
LWPOLYLINE
  5
BD3
330
BB1
100
AcDbEntity
  8
BLOCKS
  6
Continuous
100
AcDbPolyline
 90
       16
 70
   128
 43
0.0
 10
0.4157713023200859
 20
-0.3045363575220245
 10
0.3972021308914054
 20
-0.3098093718290466
 10
0.3788210717216361
 20
-0.3157580196857589
 10
0.3607165781036246
 20
-0.3224759548902648
 10
0.3429771629348624
 20
-0.3300568386912483
 10
0.3286763993278373
 20
-0.3370589762926238
 10
0.3148089614883292
 20
-0.3448773249983924
 10
0.3056833711639274
 20
-0.3507572561502593
 10
0.2969341245666374
 20
-0.3571791276335853
 10
0.2914204565063346
 20
-0.361776806414141
 10
0.2862155405059684
 20
-0.3667179122567314
 10
0.2829188672080863
 20
-0.370256386697306
 10
0.2799116936698783
 20
-0.3740458264947074
 10
0.2774359551444877
 20
-0.3781659826636451
 10
0.2769907084480155
 20
-0.3790849968791145
 10
0.2767013875022758
 20
-0.3800517171621459
  0
LWPOLYLINE
  5
BD4
330
BB1
100
AcDbEntity
  8
BLOCKS
  6
Continuous
100
AcDbPolyline
 90
       15
 70
   128
 43
0.0
 10
0.2767013875022758
 20
-0.3800517171621459
 10
0.2767335740104545
 20
-0.3809334039688247
 10
0.2774681416526664
 20
-0.3843521513044971
 10
0.2799838748947013
 20
-0.3909145593643325
 10
0.2832750049606193
 20
-0.3971442691981929
 10
0.2896850672736991
 20
-0.4070099815726417
 10
0.2969659534469474
 20
-0.4162984918803114
 10
0.3048971262946952
 20
-0.4250750858336824
 10
0.3132578698173392
 20
-0.4334050454199451
 10
0.316873070336901
 20
-0.4367992333136636
 10
0.3318859306350578
 20
-0.4497769884765285
 10
0.3459387389198173
 20
-0.4606771096587318
 10
0.3604581919685233
 20
-0.4709718488156933
 10
0.3753629890457023
 20
-0.4807111360132831
 10
0.3905718890205253
 20
-0.489944905042662
  0
CIRCLE
  5
BD5
330
BB1
100
AcDbEntity
  8
BLOCKS
100
AcDbCircle
 10
0.3272013735368091
 20
-0.3866153177729643
 30
0.0
 40
0.026
  0
CIRCLE
  5
BD6
330
BB1
100
AcDbEntity
  8
BLOCKS
100
AcDbCircle
 10
0.3272013735368091
 20
-0.3866153177729643
 30
0.0
 40
0.04
  0
LWPOLYLINE
  5
BD7
330
BB1
100
AcDbEntity
  8
BLOCKS
  6
Continuous
100
AcDbPolyline
 90
       15
 70
   128
 43
0.0
 10
0.5069318381324638
 20
-0.5197237730026382
 10
0.5310670403018821
 20
-0.5195125788450378
 10
0.5552110043540825
 20
-0.5203060060739654
 10
0.5793012646213401
 20
-0.5221002250909942
 10
0.6032754150405754
 20
-0.5248913913965362
 10
0.6278019515052665
 20
-0.5288045704364914
 10
0.6521612075343956
 20
-0.5337664559483665
 10
0.6762870219722618
 20
-0.5397617444396156
 10
0.7001131740585197
 20
-0.5467751175165314
 10
0.7206509676948417
 20
-0.5537264719605583
 10
0.740922805406176
 20
-0.5614404156804222
 10
0.7608865765109886
 20
-0.5699007809162277
 10
0.7807694343105186
 20
-0.5792220085859436
 10
0.8002938595786918
 20
-0.5892897248268265
 10
0.8194182408228744
 20
-0.6000824719667572
  0
LWPOLYLINE
  5
BD8
330
BB1
100
AcDbEntity
  8
BLOCKS
  6
Continuous
100
AcDbPolyline
 90
       11
 70
   128
 43
0.0
 10
0.3869431582465995
 20
-0.1035300493240493
 10
0.4057196346298088
 20
-0.0994018018245834
 10
0.4246865478530754
 20
-0.0962630808353561
 10
0.4440081683174003
 20
-0.0941079258918899
 10
0.4634170499816764
 20
-0.0929841995239394
 10
0.483495351411425
 20
-0.0929147601127761
 10
0.5035622087493766
 20
-0.0939534902572768
 10
0.5235257414356102
 20
-0.0960973203182357
 10
0.543911006785952
 20
-0.0994573235511916
 10
0.56408828172835
 20
-0.1039765179157393
 10
0.5839590099826683
 20
-0.1096334457397597
  0
LWPOLYLINE
  5
BD9
330
BB1
100
AcDbEntity
  8
BLOCKS
  6
Continuous
100
AcDbPolyline
 90
       11
 70
   128
 43
0.0
 10
0.5783457425609459
 20
-0.1274017095565932
 10
0.5600331393257011
 20
-0.1221734583377974
 10
0.5414442089572776
 20
-0.1179663240909713
 10
0.5226650801673759
 20
-0.1147991120815413
 10
0.5031852391734947
 20
-0.1126361191272872
 10
0.4835978714004387
 20
-0.1115849316120284
 10
0.4639983442798484
 20
-0.1116487085819381
 10
0.4450476435199608
 20
-0.1127734482288497
 10
0.4261302319541801
 20
-0.11494475603105
 10
0.4087231722846855
 20
-0.11788305640222
 10
0.3914433685317863
 20
-0.1217126548290389
  0
LWPOLYLINE
  5
BDA
330
BB1
100
AcDbEntity
  8
BLOCKS
  6
Continuous
100
AcDbPolyline
 90
       11
 70
   128
 43
0.0
 10
0.5358581510558952
 20
-0.3068936169147628
 10
0.524264839030825
 20
-0.3036594986915725
 10
0.5125014451518882
 20
-0.3010693341493743
 10
0.500621941424929
 20
-0.2991355508566039
 10
0.4883044031635154
 20
-0.2978384047746795
 10
0.4759228197112907
 20
-0.2972448021173614
 10
0.4635376301780571
 20
-0.2973576337099212
 10
0.4515396622196067
 20
-0.2981442660093444
 10
0.4396034744754661
 20
-0.2995933145284789
 10
0.4276182619109977
 20
-0.3017314523458618
 10
0.4157713023200859
 20
-0.3045363575220245
  0
LWPOLYLINE
  5
BDB
330
BB1
100
AcDbEntity
  8
BLOCKS
  6
Continuous
100
AcDbPolyline
 90
       15
 70
   128
 43
0.0
 10
0.8584566530958046
 20
-0.3128510564565795
 10
0.834973026551329
 20
-0.318639054894461
 10
0.8112489250675071
 20
-0.3234507665038246
 10
0.7873459127918113
 20
-0.3272749409079688
 10
0.7633255836740364
 20
-0.3301003649830955
 10
0.7385068652406562
 20
-0.331959210336222
 10
0.7136086342111457
 20
-0.3327557519078391
 10
0.6886992124095787
 20
-0.3324889838695663
 10
0.6638468471542228
 20
-0.3311578929424423
 10
0.6423258749023307
 20
-0.3291371986270088
 10
0.6208874550834526
 20
-0.3263170197606223
 10
0.5995760825649131
 20
-0.3227029144764083
 10
0.5781456497684349
 20
-0.3182358741760391
 10
0.5568912294879783
 20
-0.3129624724388259
 10
0.5358581510558952
 20
-0.3068936169147628
  0
LWPOLYLINE
  5
BDC
330
BB1
100
AcDbEntity
  8
BLOCKS
  6
Continuous
100
AcDbPolyline
 90
        9
 70
   128
 43
0.0
 10
0.9473076495528449
 20
-0.124522358179106
 10
0.9355174264824245
 20
-0.1224819719791549
 10
0.9236229905113805
 20
-0.1210974752903121
 10
0.9116793056205143
 20
-0.1203756928444045
 10
0.8993640658632148
 20
-0.120329380035414
 10
0.8870561947301258
 20
-0.1209870278835433
 10
0.8748159711435665
 20
-0.1223449707031386
 10
0.8585953009501327
 20
-0.1252523660659927
 10
0.8425505575910438
 20
-0.1294153630733626
  0
LWPOLYLINE
  5
BDD
330
BB1
100
AcDbEntity
  8
BLOCKS
  6
Continuous
100
AcDbPolyline
 90
        9
 70
   128
 43
0.0
 10
0.8371872869506706
 20
-0.1115184128284591
 10
0.8545156610384811
 20
-0.107034862041487
 10
0.8722381671145786
 20
-0.1038664579391616
 10
0.8851581481471885
 20
-0.1024284660816329
 10
0.8981478442624439
 20
-0.1017064750194686
 10
0.9111475763097633
 20
-0.1017041802406447
 10
0.9245037208497752
 20
-0.1024561226368087
 10
0.9378062463551987
 20
-0.1039683818817275
 10
0.9509904445335497
 20
-0.1062332391739028
  0
LWPOLYLINE
  5
BDE
330
BB1
100
AcDbEntity
  8
BLOCKS
  6
Continuous
100
AcDbPolyline
 90
        9
 70
   128
 43
0.0
 10
0.8194182408228744
 20
-0.6000824719667572
 10
0.826097254194342
 20
-0.6036618649959701
 10
0.8330455837026466
 20
-0.6066848486662048
 10
0.8404263002053131
 20
-0.6091850697994369
 10
0.8479930875078071
 20
-0.6110469251871246
 10
0.8547599953785766
 20
-0.6121396422386307
 10
0.8615904194489349
 20
-0.6127133965492386
 10
0.8686133963242401
 20
-0.6127541512251037
 10
0.8756175530329574
 20
-0.6122392863035339
  0
LINE
  5
BDF
330
BB1
100
AcDbEntity
  8
BLOCKS
  6
Continuous
100
AcDbLine
 10
1.4735240307823
 20
-0.7573079466819764
 30
0.0
 11
1.465418395139295
 21
-0.7627238929271698
 31
0.0
  0
LINE
  5
BE0
330
BB1
100
AcDbEntity
  8
BLOCKS
  6
Continuous
100
AcDbLine
 10
1.431016441918927
 20
-0.7205621004104615
 30
0.0
 11
1.436866041757184
 21
-0.715177059173584
 31
0.0
  0
LWPOLYLINE
  5
BE1
330
BB1
100
AcDbEntity
  8
BLOCKS
  6
Continuous
100
AcDbPolyline
 90
        3
 70
   128
 43
0.0
 10
1.465418395139299
 20
-0.7627238929271835
 10
1.45578258905562
 20
-0.7686579525470871
 10
1.445928451158129
 20
-0.7742511630058426
  0
LWPOLYLINE
  5
BE2
330
BB1
100
AcDbEntity
  8
BLOCKS
  6
Continuous
100
AcDbPolyline
 90
        5
 70
   128
 43
0.0
 10
1.367480155564867
 20
-0.740947216749205
 10
1.378818776942812
 20
-0.7339928150177139
 10
1.389952417947374
 20
-0.7267429232597488
 10
1.400890674926363
 20
-0.7191882133484024
 10
1.411605325080477
 20
-0.711341708898558
  0
LINE
  5
BE3
330
BB1
100
AcDbEntity
  8
BLOCKS
  6
Continuous
100
AcDbLine
 10
1.416184600926953
 20
-0.7333647906780243
 30
0.0
 11
1.431016441918927
 21
-0.7205621004104615
 31
0.0
  0
LINE
  5
BE4
330
BB1
100
AcDbEntity
  8
BLOCKS
  6
Continuous
100
AcDbLine
 10
1.411605325080472
 20
-0.7113417088985444
 30
0.0
 11
1.425568726398068
 21
-0.7001603543758393
 31
0.0
  0
LINE
  5
BE5
330
BB1
100
AcDbEntity
  8
BLOCKS
  6
Continuous
100
AcDbLine
 10
1.27572369251402
 20
-0.8189762532711029
 30
0.0
 11
1.278284072194082
 21
-0.8001378483372718
 31
0.0
  0
LWPOLYLINE
  5
BE6
330
BB1
100
AcDbEntity
  8
BLOCKS
  6
Continuous
100
AcDbPolyline
 90
        3
 70
   128
 43
0.0
 10
1.203095373250566
 20
-0.7981581687927383
 10
1.203058507777773
 20
-0.7981023788452286
 10
1.203033086396776
 20
-0.7980855405330795
  0
LWPOLYLINE
  5
BE7
330
BB1
100
AcDbEntity
  8
BLOCKS
  6
Continuous
100
AcDbPolyline
 90
        6
 70
   128
 43
0.0
 10
1.203033086396776
 20
-0.7980855405330795
 10
1.203033146001421
 20
-0.7980855405330795
 10
1.221918549872957
 20
-0.7960241138935226
 10
1.240713056661211
 20
-0.7927817404270309
 10
1.258295443393312
 20
-0.7886333465576309
 10
1.275662061311327
 20
-0.7834264636039871
  0
LWPOLYLINE
  5
BE8
330
BB1
100
AcDbEntity
  8
BLOCKS
  6
Continuous
100
AcDbPolyline
 90
        5
 70
   128
 43
0.0
 10
1.278284072194096
 20
-0.8001378483372672
 10
1.262714203931414
 20
-0.8050566017627852
 10
1.243853983022295
 20
-0.8097769021988051
 10
1.22452437553557
 20
-0.8133772909641402
 10
1.204936292506777
 20
-0.8157932460308211
  0
LWPOLYLINE
  5
BE9
330
BB1
100
AcDbEntity
  8
BLOCKS
  6
Continuous
100
AcDbPolyline
 90
       13
 70
   128
 43
0.0
 10
1.275723692514025
 20
-0.8189762532711165
 10
1.275860485173784
 20
-0.8189241886139052
 10
1.279555675126635
 20
-0.8174972534179824
 10
1.281616505719744
 20
-0.8166837692260878
 10
1.292853858806215
 20
-0.8120249807834762
 10
1.303949978686891
 20
-0.8070529699325698
 10
1.324433472491823
 20
-0.7968856990337509
 10
1.344342705346666
 20
-0.7857277691364425
 10
1.355262455083452
 20
-0.7790474593639511
 10
1.365981545783602
 20
-0.7720835208892959
 10
1.383326288796984
 20
-0.7599076330661911
 10
1.400077101327501
 20
-0.7469892203807968
 10
1.416184600926958
 20
-0.733364790678038
  0
LWPOLYLINE
  5
BEA
330
BB1
100
AcDbEntity
  8
BLOCKS
  6
Continuous
100
AcDbPolyline
 90
       12
 70
   128
 43
0.0
 10
1.445928451158129
 20
-0.7742511630058426
 10
1.42782985839995
 20
-0.7834510803222793
 10
1.409233507253252
 20
-0.7916376888752121
 10
1.390228178836428
 20
-0.7987803220749039
 10
1.370297696925722
 20
-0.8050256669521468
 10
1.350031849481188
 20
-0.8101460635662215
 10
1.329526927806459
 20
-0.8141185939312117
 10
1.316226091720186
 20
-0.8160617947578566
 10
1.302863505221926
 20
-0.8175210058689254
 10
1.289384630061708
 20
-0.8184963762760299
 10
1.275879022218309
 20
-0.8189736902713912
 10
1.275723692514025
 20
-0.8189762532711165
  0
LWPOLYLINE
  5
BEB
330
BB1
100
AcDbEntity
  8
BLOCKS
  6
Continuous
100
AcDbPolyline
 90
        9
 70
   128
 43
0.0
 10
1.275662061311327
 20
-0.7834264636039871
 10
1.276706573106371
 20
-0.7830773591995376
 10
1.280876871682726
 20
-0.7816534042358536
 10
1.29742881331595
 20
-0.7755253314972061
 10
1.313740220405184
 20
-0.7687394917011398
 10
1.329784330464922
 20
-0.7613322138786453
 10
1.346553441621386
 20
-0.7527941763401169
 10
1.367358085252367
 20
-0.741020321846022
 10
1.367480155564867
 20
-0.740947216749205
  0
LWPOLYLINE
  5
BEC
330
BB1
100
AcDbEntity
  8
BLOCKS
  6
Continuous
100
AcDbPolyline
 90
       10
 70
   128
 43
0.0
 10
1.204936292506777
 20
-0.8157932460308211
 10
1.161444750167452
 20
-0.8203719854354995
 10
1.123066273070894
 20
-0.8235764205455916
 10
1.084630650021158
 20
-0.8260005712509292
 10
1.046089340485655
 20
-0.8276416063308852
 10
1.007522468008123
 20
-0.8284905850887435
 10
0.9690101784840454
 20
-0.8285439610481398
 10
0.9305050543230255
 20
-0.827800482511534
 10
0.8919572052732338
 20
-0.8262537121772902
 10
0.8534500864520897
 20
-0.8239021897316115
  0
LWPOLYLINE
  5
BED
330
BB1
100
AcDbEntity
  8
BLOCKS
  6
Continuous
100
AcDbPolyline
 90
       10
 70
   128
 43
0.0
 10
0.8547821683064331
 20
-0.8052935600280898
 10
0.8928371486440529
 20
-0.8076527118682998
 10
0.9309322820231546
 20
-0.8092306256294387
 10
0.9691154551878799
 20
-0.8100313842296737
 10
1.007306691743456
 20
-0.8100564181804793
 10
1.045441803075396
 20
-0.8093121051788466
 10
1.083554041124903
 20
-0.8078047931194442
 10
1.121689018346392
 20
-0.8055360615253585
 10
1.159771379567705
 20
-0.8025139272213118
 10
1.203095373250566
 20
-0.7981581687927383
  0
LWPOLYLINE
  5
BEE
330
BB1
100
AcDbEntity
  8
BLOCKS
  6
Continuous
100
AcDbPolyline
 90
       11
 70
   128
 43
0.0
 10
0.5006400314346183
 20
-0.7226663231849808
 10
0.4816558924690117
 20
-0.7228480577469009
 10
0.4626883235946525
 20
-0.7220348417759079
 10
0.4435781506076683
 20
-0.7202021181583542
 10
0.4245917168632377
 20
-0.7173607647419113
 10
0.4047720399871696
 20
-0.7132810950279373
 10
0.3851946559921134
 20
-0.7081016600132126
 10
0.3659498063102592
 20
-0.7018483877182144
 10
0.346538540460192
 20
-0.6943049132824081
 10
0.327572282888018
 20
-0.6856624931097168
 10
0.3091418710723746
 20
-0.6759657114744324
  0
LWPOLYLINE
  5
BEF
330
BB1
100
AcDbEntity
  8
BLOCKS
  6
Continuous
100
AcDbPolyline
 90
       14
 70
   128
 43
0.0
 10
0.7451856699958671
 20
-0.7884351611137527
 10
0.7246537176147331
 20
-0.7763076126575607
 10
0.7034658757224907
 20
-0.7653262615203995
 10
0.6817196873203148
 20
-0.7555415034294266
 10
0.6645868686214317
 20
-0.7488261163234848
 10
0.6471667853370536
 20
-0.742843687534346
 10
0.6295073894039024
 20
-0.7376095354557175
 10
0.6116568115726341
 20
-0.7331390082836288
 10
0.5935589042678703
 20
-0.7294245064258713
 10
0.5753099587932457
 20
-0.7264880239963669
 10
0.5569603410735954
 20
-0.7243376970291275
 10
0.5382201639190544
 20
-0.7229617834091324
 10
0.5194288459792961
 20
-0.7224041223526138
 10
0.5006400314346183
 20
-0.7226663231849808
  0
LWPOLYLINE
  5
BF0
330
BB1
100
AcDbEntity
  8
BLOCKS
  6
Continuous
100
AcDbPolyline
 90
       15
 70
   128
 43
0.0
 10
0.4999726382270683
 20
-0.7040444612503189
 10
0.5192457405105461
 20
-0.7037727236747879
 10
0.5385217038169731
 20
-0.7043266892433304
 10
0.5577474204078544
 20
-0.7057047784328598
 10
0.5772214499488701
 20
-0.7079513967037338
 10
0.5965883997455467
 20
-0.7110452353954452
 10
0.6157931355014671
 20
-0.7149775028228897
 10
0.6395546761527885
 20
-0.7210718989372391
 10
0.6630179253593315
 20
-0.728476673364653
 10
0.6789261666313041
 20
-0.7343183457851547
 10
0.6946086702123512
 20
-0.7407572567463058
 10
0.7100320724025596
 20
-0.7477797269821304
 10
0.7253756937757362
 20
-0.7554824948310989
 10
0.7404196527973045
 20
-0.7637682259082931
 10
0.7551310029998649
 20
-0.7726188600063461
  0
ARC
  5
BF1
330
BB1
100
AcDbEntity
  8
BLOCKS
  6
Continuous
100
AcDbCircle
 10
0.9988210320968846
 20
1.119751376740452
 30
0.0
 40
2.023390859686937
100
AcDbArc
 50
262.1012361927166
 51
270.0
  0
LWPOLYLINE
  5
BF2
330
BB1
100
AcDbEntity
  8
BLOCKS
  6
Continuous
100
AcDbPolyline
 90
        9
 70
   128
 43
0.0
 10
0.8534500864520897
 20
-0.8239021897316115
 10
0.8357457560673584
 20
-0.8219576179981368
 10
0.8181387824192871
 20
-0.8186529278755324
 10
0.8055205759778846
 20
-0.8154096305370467
 10
0.7930920091644157
 20
-0.8114686012268203
 10
0.7809103843942512
 20
-0.8068483471870559
 10
0.7686623898521293
 20
-0.8013936579227584
 10
0.7567349937930931
 20
-0.7952456176281113
 10
0.7451856699958671
 20
-0.7884351611137527
  0
LWPOLYLINE
  5
BF3
330
BB1
100
AcDbEntity
  8
BLOCKS
  6
Continuous
100
AcDbPolyline
 90
        9
 70
   128
 43
0.0
 10
0.7551310029998649
 20
-0.7726188600063461
 10
0.7654510406032432
 20
-0.7787287235260147
 10
0.7761018243804802
 20
-0.7842619717121261
 10
0.787034716941439
 20
-0.7891920804977554
 10
0.7985568014160026
 20
-0.7936212718486923
 10
0.8103231457248558
 20
-0.7973870038986343
 10
0.8222759184614051
 20
-0.8004704415798324
 10
0.8383894008770813
 20
-0.8034958541393416
 10
0.8547821683064331
 20
-0.8052935600280898
  0
LWPOLYLINE
  5
BF4
330
BB1
100
AcDbEntity
  8
BLOCKS
  6
Continuous
100
AcDbPolyline
 90
       11
 70
   128
 43
0.0
 10
0.3183316555991996
 20
-0.6596437692642349
 10
0.3353075352683891
 20
-0.6686119586229462
 10
0.352765735723101
 20
-0.676635921001448
 10
0.3706274000182975
 20
-0.6836762428283829
 10
0.3893899289146293
 20
-0.6898712068796295
 10
0.4084917870536674
 20
-0.6949868798256058
 10
0.427839514352404
 20
-0.6989958882331985
 10
0.4465931025520195
 20
-0.7017891407013077
 10
0.4655304518714775
 20
-0.7035458981990951
 10
0.4827234712615837
 20
-0.7042280137539047
 10
0.4999726382270683
 20
-0.7040444612503189
  0
LWPOLYLINE
  5
BF5
330
BB1
100
AcDbEntity
  8
BLOCKS
  6
Continuous
100
AcDbPolyline
 90
        5
 70
   128
 43
0.0
 10
1.425568726398073
 20
-0.700160354375853
 10
1.432854261733614
 20
-0.6935963481664795
 10
1.439810809232317
 20
-0.6865445673465866
 10
1.446447607614122
 20
-0.6789355874061722
 10
1.452641007043444
 20
-0.6708547770977157
  0
ARC
  5
BF6
330
BB1
100
AcDbEntity
  8
BLOCKS
  6
Continuous
100
AcDbCircle
 10
0.0149999882701195
 20
-0.0149999882701195
 30
0.0
 40
0.0150000000000001
100
AcDbArc
 50
90.07165372878786
 51
180.0716537287878
  0
LINE
  5
BF7
330
BB1
100
AcDbEntity
  8
BLOCKS
100
AcDbLine
 10
0.0
 20
-0.0150187471675736
 30
0.0
 11
0.0
 21
-0.37633216381073
 31
0.0
  0
LWPOLYLINE
  5
BF8
330
BB1
100
AcDbEntity
  8
BLOCKS
  6
Continuous
100
AcDbPolyline
 90
       38
 70
   128
 43
0.0
 10
0.7207602356162397
 20
-0.8844424174135337
 10
0.6885182112455596
 20
-0.8796231150627273
 10
0.6513155400753249
 20
-0.8730423748493331
 10
0.6143040955066909
 20
-0.8654620349407332
 10
0.577526122331642
 20
-0.8568803369999068
 10
0.5407179892063369
 20
-0.8472074568271773
 10
0.5042007863521804
 20
-0.836489230394377
 10
0.4685318171978225
 20
-0.8248839676380294
 10
0.4332250356674422
 20
-0.8122204840183394
 10
0.4035015702247847
 20
-0.8005931973457473
 10
0.3740870356559981
 20
-0.7881509065628189
 10
0.3450363874435652
 20
-0.7748720943927902
 10
0.3164048194885481
 20
-0.7607353031635422
 10
0.2882472872734297
 20
-0.7457190155983108
 10
0.2647931575775374
 20
-0.7322855591774124
 10
0.2417152523994673
 20
-0.7181514501571792
 10
0.219082176685356
 20
-0.7032969295978683
 10
0.1969624161720503
 20
-0.6877021640539306
 10
0.1754244565963972
 20
-0.6713473200798172
 10
0.1545368432998885
 20
-0.6542126089334625
 10
0.1391971707344282
 20
-0.6407020688057083
 10
0.1242946386337508
 20
-0.6266936957836288
 10
0.109885513782524
 20
-0.6121820956468719
 10
0.0960262417793502
 20
-0.5971618592739242
 10
0.0824462771415938
 20
-0.5812238752842087
 10
0.0695493221283187
 20
-0.5647010356187958
 10
0.0574309229850997
 20
-0.5476061552763122
 10
0.0461866855621565
 20
-0.5299520790577072
 10
0.0378426909446944
 20
-0.5153433904051918
 10
0.0301530361175765
 20
-0.500325761735453
 10
0.0231867432594527
 20
-0.4849419109523434
 10
0.0170129537582625
 20
-0.4692345466464895
 10
0.0117006897926558
 20
-0.4532463792711634
 10
0.0073189139366377
 20
-0.4370201234705883
 10
0.0038149356842268
 20
-0.4199511036276954
 10
0.0014134645462264
 20
-0.4026749804616112
 10
0.0001716017723311
 20
-0.3852975554764407
 10
0.0000000000000227
 20
-0.3763321638107437
  0
LWPOLYLINE
  5
BF9
330
BB1
100
AcDbEntity
  8
BLOCKS
  6
Continuous
100
AcDbPolyline
 90
       22
 70
   128
 43
0.0
 10
0.3914433685317863
 20
-0.1217126548290389
 10
0.3625636664405692
 20
-0.1294296979904311
 10
0.3339980808273185
 20
-0.138272404670729
 10
0.3058522907272208
 20
-0.1483263075351852
 10
0.2846521106735099
 20
-0.1568993330001968
 10
0.263787623979174
 20
-0.1663101315498489
 10
0.2433583107963432
 20
-0.1766148507595199
 10
0.2234634128585685
 20
-0.1878696680069106
 10
0.2088137236610282
 20
-0.1970655471086639
 10
0.1945311990753044
 20
-0.2069195508957046
 10
0.1807223526016105
 20
-0.2174485474825042
 10
0.1674936381355155
 20
-0.228669464588179
 10
0.1549515095725883
 20
-0.2405992001295226
 10
0.1432025996223319
 20
-0.2532546520233291
 10
0.1335694757476676
 20
-0.2650671303272384
 10
0.1247032848373283
 20
-0.2775098830461639
 10
0.1167284813896049
 20
-0.2905305474996703
 10
0.1097693410888542
 20
-0.3040767461061614
 10
0.1045722332969535
 20
-0.3164122104644912
 10
0.1002763477340568
 20
-0.329128950834288
 10
0.0969380107894767
 20
-0.3421263173222679
 10
0.0946136680618156
 20
-0.3553036674857276
  0
LWPOLYLINE
  5
BFA
330
BB1
100
AcDbEntity
  8
BLOCKS
  6
Continuous
100
AcDbPolyline
 90
       23
 70
   128
 43
0.0
 10
0.0760315028205741
 20
-0.352778114378466
 10
0.0785973039642204
 20
-0.3382179439067977
 10
0.0822803941741813
 20
-0.3238557800650733
 10
0.0870212880149711
 20
-0.3098035454750198
 10
0.0927603212371696
 20
-0.2961731851101058
 10
0.1003133026138175
 20
-0.2814562022686141
 10
0.1089642015472282
 20
-0.2673063874244827
 10
0.1185833183303703
 20
-0.2537842988968032
 10
0.1290412512794364
 20
-0.2409505099058288
 10
0.1414546338096488
 20
-0.2275696247816223
 10
0.154700812436663
 20
-0.2149488627910751
 10
0.1686701146140922
 20
-0.2030739933252471
 10
0.1832528081909049
 20
-0.1919307410717147
 10
0.1983392206207145
 20
-0.1815048754215377
 10
0.2138196793571342
 20
-0.1717821061611312
 10
0.2338765231147636
 20
-0.1604185402393478
 10
0.254458781816088
 20
-0.149987310171141
 10
0.2754719224944938
 20
-0.1404372155666488
 10
0.2968213525787223
 20
-0.1317172050476211
 10
0.3189886775985587
 20
-0.1235803663730758
 10
0.3414311972633231
 20
-0.1161963045597213
 10
0.3640992012992728
 20
-0.1095258891582625
 10
0.3869431582465995
 20
-0.1035300493240493
  0
LWPOLYLINE
  5
BFB
330
BB1
100
AcDbEntity
  8
BLOCKS
  6
Continuous
100
AcDbPolyline
 90
       23
 70
   128
 43
0.0
 10
0.0946136680618156
 20
-0.3553036674857276
 10
0.0932456222549308
 20
-0.370288364589228
 10
0.093167301751696
 20
-0.3853641189634937
 10
0.0943483081832756
 20
-0.4003678523004192
 10
0.0965215531364311
 20
-0.4140351321548361
 10
0.0996764269843925
 20
-0.427560359239592
 10
0.1037341919914115
 20
-0.4408829312306035
 10
0.1086162892356742
 20
-0.4539422523230451
 10
0.1142439213767875
 20
-0.4666777234524626
 10
0.1205385294929374
 20
-0.4790287464857239
 10
0.1290561524406303
 20
-0.4936313480138916
 10
0.1384028163925041
 20
-0.5077543854713577
 10
0.1484818426147331
 20
-0.5213899239897865
 10
0.1591963735595573
 20
-0.5345300287008423
 10
0.1704497900977958
 20
-0.5471667498350281
 10
0.1843732563033927
 20
-0.5614995360374588
 10
0.1989102331176628
 20
-0.5752248466014999
 10
0.2139735189452995
 20
-0.5883598327636856
 10
0.2336913910880912
 20
-0.6041913628578323
 10
0.2540733781829703
 20
-0.6192007511854309
 10
0.2750322190299857
 20
-0.6334227621555466
 10
0.296480712033831
 20
-0.6468921899795669
 10
0.3183316555991996
 20
-0.6596437692642349
  0
LWPOLYLINE
  5
BFC
330
BB1
100
AcDbEntity
  8
BLOCKS
  6
Continuous
100
AcDbPolyline
 90
       24
 70
   128
 43
0.0
 10
0.3091418710723746
 20
-0.6759657114744324
 10
0.2885913816467155
 20
-0.6640090346336502
 10
0.2683953610435355
 20
-0.6514408290386337
 10
0.2486133543029655
 20
-0.6382361799478668
 10
0.2293049660697807
 20
-0.624370142817511
 10
0.2101120320335258
 20
-0.6094760745763916
 10
0.1915301648155082
 20
-0.5937892347574371
 10
0.1736848321929801
 20
-0.5772820562124389
 10
0.1567017403617729
 20
-0.5599269121885437
 10
0.1448275414481986
 20
-0.5465885847807068
 10
0.1335272160545219
 20
-0.5327150821685928
 10
0.1228995290771354
 20
-0.518317215144648
 10
0.1130434242263664
 20
-0.5034058131277698
 10
0.1040577260032524
 20
-0.4879917055368561
 10
0.0972344842925895
 20
-0.4745884276926655
 10
0.0911443201080192
 20
-0.4607648849487442
 10
0.0858678785339225
 20
-0.4465883953962612
 10
0.0814859238639701
 20
-0.432126276195063
 10
0.0780791607871879
 20
-0.4174458459019798
 10
0.0757284132018913
 20
-0.4026144184172291
 10
0.0746216741577018
 20
-0.3901844359934467
 10
0.0742947426811088
 20
-0.3776843696832794
 10
0.0747604337707389
 20
-0.3651902526617187
 10
0.0760315028205741
 20
-0.352778114378466
  0
LINE
  5
BFD
330
BB1
100
AcDbEntity
  8
BLOCKS
100
AcDbLine
 10
1.585000361721085
 20
-0.9036220800415435
 30
0.0
 11
0.9988210320968846
 21
-0.9036394829465166
 31
0.0
  0
LINE
  5
BFE
330
BB1
100
AcDbEntity
  8
BLOCKS
100
AcDbLine
 10
1.584982511140424
 20
0.0
 30
0.0
 11
0.0149812293722107
 21
0.0
 31
0.0
  0
LWPOLYLINE
  5
BFF
330
BB1
100
AcDbEntity
  8
BLOCKS
  6
Continuous
100
AcDbPolyline
 90
       12
 70
   128
 43
0.0
 10
1.566210862733446
 20
-0.6365323811769623
 10
1.565088090039812
 20
-0.6395719796419281
 10
1.55843585405501
 20
-0.6554058045148987
 10
1.550664064027391
 20
-0.6707471609115738
 10
1.541875299550615
 20
-0.6855074018240112
 10
1.533652361966692
 20
-0.6975761651992935
 10
1.524771329499803
 20
-0.7091832756996292
 10
1.515275773145281
 20
-0.7202789187431473
 10
1.504877802468859
 20
-0.731138080358519
 10
1.493854936696611
 20
-0.7413800656795639
 10
1.482239481546007
 20
-0.7509213984012741
 10
1.473524030782305
 20
-0.75730794668199
  0
LWPOLYLINE
  5
C00
330
BB1
100
AcDbEntity
  8
BLOCKS
  6
Continuous
100
AcDbPolyline
 90
        7
 70
   128
 43
0.0
 10
1.536067784799802
 20
-0.4965794041986146
 10
1.518986162282549
 20
-0.469025461003198
 10
1.508020516969286
 20
-0.4510017251595992
 10
1.502631482221208
 20
-0.4418011675588924
 10
1.497409638501726
 20
-0.4325321083888549
 10
1.492374893762194
 20
-0.4231365285813946
 10
1.487598356343828
 20
-0.4136501643806833
  0
LWPOLYLINE
  5
C01
330
BB1
100
AcDbEntity
  8
BLOCKS
  6
Continuous
100
AcDbPolyline
 90
        9
 70
   128
 43
0.0
 10
1.534002956487261
 20
-0.4861755967140335
 10
1.529946562387072
 20
-0.4712597578764099
 10
1.525279399491869
 20
-0.4564616363495725
 10
1.520030078031145
 20
-0.4418317596428233
 10
1.514069315530382
 20
-0.4270379189402002
 10
1.507551964856707
 20
-0.4124688915908474
 10
1.5005227294937
 20
-0.3981793932616847
 10
1.492140349485002
 20
-0.3826367892325061
 10
1.483193811513506
 20
-0.3674531728029388
  0
LWPOLYLINE
  5
C02
330
BB1
100
AcDbEntity
  8
BLOCKS
  6
Continuous
100
AcDbPolyline
 90
        9
 70
   128
 43
0.0
 10
1.436866041757189
 20
-0.7151770591735977
 10
1.448177274800859
 20
-0.7041882872581619
 10
1.459171589948259
 20
-0.6927593648433822
 10
1.46978610429915
 20
-0.6809195131063598
 10
1.48024046096953
 20
-0.6683525741100448
 10
1.490214761830889
 20
-0.6553795188665527
 10
1.499648329354845
 20
-0.6420460194349426
 10
1.508716818429552
 20
-0.6280262321233887
 10
1.517167147733293
 20
-0.6136339753866333
  0
LWPOLYLINE
  5
C03
330
BB1
100
AcDbEntity
  8
BLOCKS
  6
Continuous
100
AcDbPolyline
 90
        9
 70
   128
 43
0.0
 10
1.452641007043444
 20
-0.6708547770977157
 10
1.459617134667955
 20
-0.6631581187248367
 10
1.466808911897264
 20
-0.6556115150451797
 10
1.474215504266344
 20
-0.6481583714485306
 10
1.48176359806212
 20
-0.6408144384622711
 10
1.489516374208055
 20
-0.6334622502327102
 10
1.497336503602587
 20
-0.6261740326881546
 10
1.505217966176592
 20
-0.61889381706716
 10
1.522493921138106
 20
-0.6029391823701508
  0
LWPOLYLINE
  5
C04
330
BB1
100
AcDbEntity
  8
BLOCKS
  6
Continuous
100
AcDbPolyline
 90
       12
 70
   128
 43
0.0
 10
1.356356259919725
 20
-0.2257091701030868
 10
1.356505390740953
 20
-0.2257530987262863
 10
1.375925597287737
 20
-0.2320725172758239
 10
1.394978549815737
 20
-0.2394702732563156
 10
1.413580444194399
 20
-0.2479012459516662
 10
1.432205763198458
 20
-0.2576294839382308
 10
1.450266894437395
 20
-0.2684017121791976
 10
1.467675026990496
 20
-0.2801697254181045
 10
1.478297170735918
 20
-0.2880941331386703
 10
1.488626774884783
 20
-0.2963962107896941
 10
1.498701271154009
 20
-0.3051135241985458
 10
1.508449908830248
 20
-0.3141937255859512
  0
ENDBLK
  5
C06
330
BB1
100
AcDbEntity
  8
0
100
AcDbBlockEnd
  0
BLOCK
  5
C37
330
C08
100
AcDbEntity
  8
0
100
AcDbBlockBegin
  2
802200AF
 70
     0
 10
0.0
 20
0.0
 30
0.0
  3
802200AF
  1

  0
LINE
  5
C09
330
C08
100
AcDbEntity
  8
BLOCKS
  6
Continuous
100
AcDbLine
 10
0.4337534862024768
 20
0.402137939224483
 30
0.0
 11
0.4521868125868878
 21
0.402137939224483
 31
0.0
  0
LINE
  5
C0A
330
C08
100
AcDbEntity
  8
BLOCKS
  6
Continuous
100
AcDbLine
 10
0.4521868125868878
 20
0.402137939224483
 30
0.0
 11
0.4521868125868878
 21
0.437137939224508
 31
0.0
  0
LINE
  5
C0B
330
C08
100
AcDbEntity
  8
BLOCKS
  6
Continuous
100
AcDbLine
 10
0.4188901379493473
 20
0.4521379392244944
 30
0.0
 11
0.4371868125869014
 21
0.4521379392244944
 31
0.0
  0
ARC
  5
C0C
330
C08
100
AcDbEntity
  8
BLOCKS
  6
Continuous
100
AcDbCircle
 10
0.4371868125869014
 20
0.437137939224508
 30
0.0
 40
0.015
100
AcDbArc
 50
0.000000000000007
 51
90.0
  0
LWPOLYLINE
  5
C0D
330
C08
100
AcDbEntity
  8
BLOCKS
  6
Continuous
100
AcDbPolyline
 90
       17
 70
   128
 43
0.0
 10
0.3638918649863945
 20
0.4522759467673678
 10
0.3622652979102304
 20
0.4523941667616237
 10
0.3596812481546249
 20
0.4526539760993183
 10
0.3567403825281826
 20
0.453024016771924
 10
0.3534404787035555
 20
0.4535147353663706
 10
0.3497808490101625
 20
0.4541344667727754
 10
0.3457622908920484
 20
0.4548894724535058
 10
0.3413870513427492
 20
0.455783997671133
 10
0.336658807543713
 20
0.4568203411499781
 10
0.3315826695281021
 20
0.4579989306318021
 10
0.3261652052685849
 20
0.459318399851909
 10
0.3204144842732376
 20
0.4607756649594376
 10
0.3143401323680109
 20
0.4623660008520165
 10
0.3079514554575826
 20
0.464084257859795
 10
0.3012896487377975
 20
0.4659135721622079
 10
0.2944189500615494
 20
0.4678255094422639
 10
0.2916195573204777
 20
0.468609757344675
  0
LWPOLYLINE
  5
C0E
330
C08
100
AcDbEntity
  8
BLOCKS
  6
Continuous
100
AcDbPolyline
 90
       23
 70
   128
 43
0.0
 10
0.3282543998858773
 20
0.2805065692404241
 10
0.3305784138776971
 20
0.2911720837286339
 10
0.3329742341341216
 20
0.3021139262582437
 10
0.3351087761733607
 20
0.3118199504580116
 10
0.3367594464529202
 20
0.3192982337825378
 10
0.3382053534383113
 20
0.3258290914521058
 10
0.3394446592247141
 20
0.3314120487824766
 10
0.3404757681513684
 20
0.3360466948069734
 10
0.3411498400923984
 20
0.3390713905592929
 10
0.3416892269912159
 20
0.3414887909009485
 10
0.3420934624946267
 20
0.3432987687733839
 10
0.342362187501999
 20
0.3445012211891663
 10
0.3425924337478818
 20
0.345531151659452
 10
0.343151331569311
 20
0.3480291613804002
 10
0.3439308587793448
 20
0.3515072222024537
 10
0.3449328467252371
 20
0.3559668552358562
 10
0.3461596954857987
 20
0.3614100876199155
 10
0.3476144284316206
 20
0.3678394681788996
 10
0.3493007605966295
 20
0.3752580906378353
 10
0.3509339026384214
 20
0.3824070345724613
 10
0.3527438172683424
 20
0.3902881412409625
 10
0.3547343599764235
 20
0.3989044634697711
 10
0.3554863396302562
 20
0.4021379392244126
  0
LWPOLYLINE
  5
C0F
330
C08
100
AcDbEntity
  8
BLOCKS
  6
Continuous
100
AcDbPolyline
 90
        5
 70
   128
 43
0.0
 10
0.2894945552292438
 20
0.4521379392244853
 10
0.2825372016932261
 20
0.4543836528681641
 10
0.2752902516091444
 20
0.456781926063195
 10
0.2677324548349452
 20
0.4593264242394071
 10
0.259889043810067
 20
0.4619933679754468
  0
LWPOLYLINE
  5
C10
330
C08
100
AcDbEntity
  8
BLOCKS
  6
Continuous
100
AcDbPolyline
 90
        3
 70
   128
 43
0.0
 10
0.2781227528531918
 20
0.4721854996710681
 10
0.2734395510293643
 20
0.4733732718137253
 10
0.2723444263663214
 20
0.4736368767953536
  0
LWPOLYLINE
  5
C11
330
C08
100
AcDbEntity
  8
BLOCKS
  6
Continuous
100
AcDbPolyline
 90
        5
 70
   128
 43
0.0
 10
0.2487076841753469
 20
0.465553093775452
 10
0.2421275266640396
 20
0.4672697086869084
 10
0.2350918961007073
 20
0.4686403775639337
 10
0.2274615291908003
 20
0.469672400050622
 10
0.2194021088853651
 20
0.470335743235628
  0
LINE
  5
C12
330
C08
100
AcDbEntity
  8
BLOCKS
  6
Continuous
100
AcDbLine
 10
0.2598890438100625
 20
0.4619933679754331
 30
0.0
 11
0.2487076841754288
 21
0.4655530937755066
 31
0.0
  0
LWPOLYLINE
  5
C13
330
C08
100
AcDbEntity
  8
BLOCKS
  6
Continuous
100
AcDbPolyline
 90
        4
 70
   128
 43
0.0
 10
0.291577265660776
 20
0.4685871096987103
 10
0.2903720553077029
 20
0.4689281031068095
 10
0.2824754099853044
 20
0.4710624648301019
 10
0.2781133999491385
 20
0.4721840204673572
  0
LWPOLYLINE
  5
C14
330
C08
100
AcDbEntity
  8
BLOCKS
  6
Continuous
100
AcDbPolyline
 90
        6
 70
   128
 43
0.0
 10
0.2925979211574986
 20
0.1187298901562826
 10
0.2966829856068535
 20
0.1367577497736056
 10
0.3027459820018658
 20
0.1637761426800353
 10
0.3088276935825661
 20
0.1911462866902002
 10
0.3149061736182875
 20
0.2187793736173989
 10
0.3149973629789702
 20
0.219197131470537
  0
LINE
  5
C15
330
C08
100
AcDbEntity
  8
BLOCKS
  6
Continuous
100
AcDbLine
 10
0.32825439988585
 20
0.2805065692404105
 30
0.0
 11
0.3149973629789429
 21
0.2191971314705461
 31
0.0
  0
LWPOLYLINE
  5
C16
330
C08
100
AcDbEntity
  8
BLOCKS
  6
Continuous
100
AcDbPolyline
 90
        3
 70
   128
 43
0.0
 10
0.1629304495809219
 20
0.4746830645688169
 10
0.1562971214991876
 20
0.473732847522806
 10
0.1503470256059472
 20
0.4729590619659211
  0
LWPOLYLINE
  5
C17
330
C08
100
AcDbEntity
  8
BLOCKS
  6
Continuous
100
AcDbPolyline
 90
       17
 70
   128
 43
0.0
 10
0.1503200457625599
 20
0.4729720557548353
 10
0.1496083067695463
 20
0.4728790088713869
 10
0.1423344817460702
 20
0.4720677919286755
 10
0.1350951061763362
 20
0.4713947883537913
 10
0.1279014391054761
 20
0.4708555317851643
 10
0.1207621457554296
 20
0.4704454204457579
 10
0.1136836147448002
 20
0.4701598700465911
 10
0.1066702570538064
 20
0.4699944338486239
 10
0.099724532884934
 20
0.4699448923796081
 10
0.0928655826571731
 20
0.4700059570237864
 10
0.0859518144059212
 20
0.4701752700718862
 10
0.0789064485660447
 20
0.4704566888493356
 10
0.0717305061349498
 20
0.4708542547288017
 10
0.064425217161911
 20
0.471372314704604
 10
0.0569930778849766
 20
0.4720154672561331
 10
0.049438089288301
 20
0.4727885096140381
 10
0.0475972873116507
 20
0.4730063374745078
  0
LWPOLYLINE
  5
C18
330
C08
100
AcDbEntity
  8
BLOCKS
  6
Continuous
100
AcDbPolyline
 90
       16
 70
   128
 43
0.0
 10
0.2723112057742719
 20
0.4735937166045915
 10
0.2676786889961977
 20
0.4746878914748959
 10
0.2602196511002285
 20
0.4761545929043497
 10
0.252671551805538
 20
0.4773529220510682
 10
0.2450592919760993
 20
0.4782846145224175
 10
0.2374160966865338
 20
0.4789535420284301
 10
0.2295507667056472
 20
0.479381812081665
 10
0.2214551086706296
 20
0.4795674933822011
 10
0.2132203630342292
 20
0.4795101926852295
 10
0.2048634075824839
 20
0.4792164402770141
 10
0.1964054864550007
 20
0.4786945077687415
 10
0.1878620710454152
 20
0.4779537282140519
 10
0.1803149239983713
 20
0.4771323882987418
 10
0.1716345417761431
 20
0.4760012004576493
 10
0.163297028692682
 20
0.4747445842472371
 10
0.1629304495809219
 20
0.4746830645688169
  0
LWPOLYLINE
  5
C19
330
C08
100
AcDbEntity
  8
BLOCKS
  6
Continuous
100
AcDbPolyline
 90
        7
 70
   128
 43
0.0
 10
0.2194021088853651
 20
0.470335743235628
 10
0.2091517327802603
 20
0.4723091149277389
 10
0.199151288855096
 20
0.4737819231855975
 10
0.1893617713176673
 20
0.4747169180768834
 10
0.1795555584951899
 20
0.4750829767918913
 10
0.1698435005004239
 20
0.4748431013215305
 10
0.1601734953046571
 20
0.4739863359502124
  0
LWPOLYLINE
  5
C1A
330
C08
100
AcDbEntity
  8
BLOCKS
  6
Continuous
100
AcDbPolyline
 90
       13
 70
   128
 43
0.0
 10
0.1047576098550371
 20
0.0100573286470171
 10
0.1059633698662537
 20
0.0101467849159599
 10
0.1090796959373574
 20
0.0103637756627723
 10
0.112573617662415
 20
0.0105925127890078
 10
0.1164394768352531
 20
0.0108308983735333
 10
0.1206697898652737
 20
0.011077043796613
 10
0.125255786336088
 20
0.0113292684334374
 10
0.1301878273003558
 20
0.0115860876778243
 10
0.1354557100273769
 20
0.0118461949321136
 10
0.1410488797946482
 20
0.0121084412288838
 10
0.146956572157028
 20
0.0123718149357592
 10
0.153167906875783
 20
0.0126354229670324
 10
0.1538078090990484
 20
0.012661303337045
  0
LWPOLYLINE
  5
C1B
330
C08
100
AcDbEntity
  8
BLOCKS
  6
Continuous
100
AcDbPolyline
 90
       40
 70
   128
 43
0.0
 10
0.1537846676981235
 20
0.0126614889148914
 10
0.153957297071679
 20
0.012668173992497
 10
0.1579281623778616
 20
0.0128457086507842
 10
0.1622486731878553
 20
0.0130755978688103
 10
0.1656689460455846
 20
0.0132948396940265
 10
0.1684673752625122
 20
0.013506565688549
 10
0.1708318240889957
 20
0.0137131989806221
 10
0.1730161232269484
 20
0.0139300823133454
 10
0.1752630312362408
 20
0.0141820430004737
 10
0.177639034596391
 20
0.0144828866021999
 10
0.1801513374113301
 20
0.0148417713492381
 10
0.1828596143930145
 20
0.0152778036056407
 10
0.1858441243432708
 20
0.0158196058800968
 10
0.189182592372631
 20
0.0165042931434437
 10
0.1929442308253374
 20
0.0173782545984068
 10
0.1971674380399736
 20
0.0184928033902543
 10
0.2018276107919837
 20
0.0198918087187485
 10
0.2068255178069331
 20
0.0215968756898656
 10
0.2120268062587956
 20
0.0236061434747171
 10
0.2173153945730109
 20
0.0259072164081954
 10
0.22261024857336
 20
0.0284869877126766
 10
0.2278571329128636
 20
0.0313339480250215
 10
0.2330184805405179
 20
0.0344379252141153
 10
0.2380668104168535
 20
0.0377895784884095
 10
0.2429808275210553
 20
0.0413799902950632
 10
0.2477431353555903
 20
0.0452003705953757
 10
0.2523388958626629
 20
0.0492418574323165
 10
0.2567550414055541
 20
0.0534953906736337
 10
0.2609798073159573
 20
0.0579516368670738
 10
0.265002451451469
 20
0.0626009481371875
 10
0.2688130841338671
 20
0.0674333432890489
 10
0.2724025642916195
 20
0.07243850336381
 10
0.2757624360104046
 20
0.077605776684577
 10
0.2788848901681149
 20
0.0829241902462673
 10
0.2817627386961203
 20
0.0883824590885343
 10
0.2846632160708714
 20
0.0945919405375025
 10
0.2872363593842192
 20
0.1009177704259491
 10
0.2894736247490392
 20
0.1073256429259709
 10
0.2913758543104587
 20
0.1137992928884341
 10
0.2925631653318078
 20
0.1187371657852054
  0
LWPOLYLINE
  5
C1C
330
C08
100
AcDbEntity
  8
BLOCKS
  6
Continuous
100
AcDbPolyline
 90
        9
 70
   128
 43
0.0
 10
0.0353812378280009
 20
0.4739981890068885
 10
0.0353849006360133
 20
0.4739967246715606
 10
0.0353885626675719
 20
0.4739952553935655
 10
0.0353922239221674
 20
0.4739937811732671
 10
0.0353958843985629
 20
0.4739923020111019
 10
0.0353995440959943
 20
0.4739908179072882
 10
0.0354032030135159
 20
0.4739893288622989
 10
0.0354068611502544
 20
0.4739878348764251
 10
0.0354105185051913
 20
0.4739863359502124
  0
LWPOLYLINE
  5
C1D
330
C08
100
AcDbEntity
  8
BLOCKS
  6
Continuous
100
AcDbPolyline
 90
        3
 70
   128
 43
0.0
 10
0.0353812378280009
 20
0.4739981890068885
 10
0.0357845392518675
 20
0.473951709744506
 10
0.0358877504646762
 20
0.4739397585399275
  0
LWPOLYLINE
  5
C1E
330
C08
100
AcDbEntity
  8
BLOCKS
  6
Continuous
100
AcDbPolyline
 90
        3
 70
   128
 43
0.0
 10
0.0358877504646762
 20
0.4739397585399275
 10
0.0357943253645817
 20
0.4739489526116449
 10
0.0354105185051913
 20
0.4739863359502124
  0
LWPOLYLINE
  5
C1F
330
C08
100
AcDbEntity
  8
BLOCKS
  6
Continuous
100
AcDbPolyline
 90
        7
 70
   128
 43
0.0
 10
0.0354105185051913
 20
0.4739863359502124
 10
0.0235030071806932
 20
0.4748337862512927
 10
0.011556309358889
 20
0.4750850405165693
 10
-0.0004509449846637
 20
0.4747502523165532
 10
-0.0127619257071683
 20
0.4738234788279807
 10
-0.0252086242242922
 20
0.4723389779942591
 10
-0.0378025061516792
 20
0.470335743235628
  0
LWPOLYLINE
  5
C20
330
C08
100
AcDbEntity
  8
BLOCKS
  6
Continuous
100
AcDbPolyline
 90
        3
 70
   128
 43
0.0
 10
-0.0890294544328617
 20
0.4736891241315244
 10
-0.0910834420967558
 20
0.4732933095983391
 10
-0.0947440006111401
 20
0.4725466621658416
  0
LWPOLYLINE
  5
C21
330
C08
100
AcDbEntity
  8
BLOCKS
  6
Continuous
100
AcDbPolyline
 90
        3
 70
   128
 43
0.0
 10
-0.0947564193283734
 20
0.4725502594211503
 10
-0.1045468105785085
 20
0.4705182741236058
 10
-0.1114481696383564
 20
0.4690296854050394
  0
LINE
  5
C22
330
C08
100
AcDbEntity
  8
BLOCKS
  6
Continuous
100
AcDbLine
 10
-0.0732704994957203
 20
0.4655530937755066
 30
0.0
 11
-0.0877730220187232
 21
0.4619933679754331
 31
0.0
  0
LWPOLYLINE
  5
C23
330
C08
100
AcDbEntity
  8
BLOCKS
  6
Continuous
100
AcDbPolyline
 90
       16
 70
   128
 43
0.0
 10
0.0341241854148712
 20
0.4746716451133035
 10
0.0329558152898562
 20
0.4748475633140333
 10
0.0232156404553052
 20
0.4761437839703649
 10
0.0145388991959362
 20
0.4771285041822557
 10
0.0055335334571964
 20
0.4779713263033773
 10
-0.0038347250308334
 20
0.478651382508615
 10
-0.0131412923204744
 20
0.4791176117692158
 10
-0.0223863418683368
 20
0.4793632683172473
 10
-0.0315686076305474
 20
0.4793817770713577
 10
-0.0406867426276995
 20
0.4791668756856962
 10
-0.0497403218946465
 20
0.4787125774715241
 10
-0.058729569257016
 20
0.4780126780449427
 10
-0.0675761050774645
 20
0.4770697295612263
 10
-0.0762456349002287
 20
0.4758933120793882
 10
-0.084890905826328
 20
0.4744632835439916
 10
-0.0890191174857728
 20
0.4736536197432361
  0
LWPOLYLINE
  5
C24
330
C08
100
AcDbEntity
  8
BLOCKS
  6
Continuous
100
AcDbPolyline
 90
        5
 70
   128
 43
0.0
 10
-0.0378025061516792
 20
0.470335743235628
 10
-0.0470346926022148
 20
0.4696891152138051
 10
-0.0559924973522402
 20
0.4686882349719963
 10
-0.0648094461382471
 20
0.4673007679380317
 10
-0.0732704994957067
 20
0.465553093775452
  0
LWPOLYLINE
  5
C25
330
C08
100
AcDbEntity
  8
BLOCKS
  6
Continuous
100
AcDbPolyline
 90
       16
 70
   128
 43
0.0
 10
-0.1114884660739744
 20
0.4690571855816234
 10
-0.1180376204683534
 20
0.4676327512502394
 10
-0.127150322204875
 20
0.4656964774012522
 10
-0.1360826399211191
 20
0.4638572259705325
 10
-0.1449801148971574
 20
0.4620932603794063
 10
-0.1535514730386467
 20
0.4604686137942191
 10
-0.1618473958212462
 20
0.4589773319521555
 10
-0.1698522792348786
 20
0.4576259159835172
 10
-0.1775522097568728
 20
0.4564195253888829
 10
-0.1849351287256695
 20
0.4553619141701347
 10
-0.1919907548625315
 20
0.4544554212705043
 10
-0.1987104843151292
 20
0.4537009697694521
 10
-0.2050872798845057
 20
0.4530980700232249
 10
-0.2111155596615981
 20
0.4526448228707523
 10
-0.2167910942906428
 20
0.4523379201026546
 10
-0.2212139172167781
 20
0.4522005093151165
  0
LWPOLYLINE
  5
C26
330
C08
100
AcDbEntity
  8
BLOCKS
  6
Continuous
100
AcDbPolyline
 90
        5
 70
   128
 43
0.0
 10
-0.0877730220188141
 20
0.4619933679754468
 10
-0.0981562373962925
 20
0.459335067403481
 10
-0.108327707512658
 20
0.4567983497816022
 10
-0.1183162094602858
 20
0.4543913819470255
 10
-0.1280814153578512
 20
0.4521379392244853
  0
LINE
  5
C27
330
C08
100
AcDbEntity
  8
BLOCKS
  6
Continuous
100
AcDbLine
 10
-0.1118954798370169
 20
0.4521379392244944
 30
0.0
 11
-0.128081415357542
 21
0.4521379392236986
 31
0.0
  0
LWPOLYLINE
  5
C28
330
C08
100
AcDbEntity
  8
BLOCKS
  6
Continuous
100
AcDbPolyline
 90
       25
 70
   128
 43
0.0
 10
-0.0717836195553946
 20
-0.0003274875094576
 10
-0.070464693205945
 20
-0.0003241962365428
 10
-0.0685743076162226
 20
-0.0003133539739792
 10
-0.06711811113983
 20
-0.0003016738474253
 10
-0.0637778471564207
 20
-0.0002696105188807
 10
-0.0604288418229453
 20
-0.0002304339807961
 10
-0.0569768038510347
 20
-0.0001832918538639
 10
-0.0533735555857175
 20
-0.0001276927834988
 10
-0.0495378185246273
 20
-0.0000628009499269
 10
-0.0452779840900303
 20
0.0000137440578328
 10
-0.0396049197085859
 20
0.0001228456639001
 10
-0.0341636930747745
 20
0.0002360078877973
 10
-0.0286680930032571
 20
0.0003587542960304
 10
-0.0230897537817191
 20
0.0004918685715529
 10
-0.0173823473196217
 20
0.0006365597251352
 10
-0.0114803680307932
 20
0.0007945170658786
 10
-0.0052691962523431
 20
0.0009691562787702
 10
0.001536379210188
 20
0.0011707765886604
 10
0.0082059476335735
 20
0.0013792612369434
 10
0.0148403520878446
 20
0.0015977762033799
 10
0.0214585241219493
 20
0.00182716708925
 10
0.0280845006621121
 20
0.0020684858749519
 10
0.0347475133654689
 20
0.0023230010974658
 10
0.0414846895795518
 20
0.0025922968391387
 10
0.0436550185481929
 20
0.0026828517616377
  0
LWPOLYLINE
  5
C29
330
C08
100
AcDbEntity
  8
BLOCKS
  6
Continuous
100
AcDbPolyline
 90
       25
 70
   128
 43
0.0
 10
-0.1582414768169883
 20
0.0030139365789
 10
-0.1564869870528537
 20
0.0028696708248754
 10
-0.152007616038868
 20
0.0025325404818796
 10
-0.1469575142675649
 20
0.0021865604511549
 10
-0.1418144221631564
 20
0.0018677068581019
 10
-0.1366152226181339
 20
0.0015758427559922
 10
-0.1313652267115003
 20
0.0013084836868438
 10
-0.1260554534580706
 20
0.0010626084863543
 10
-0.1206741503086641
 20
0.0008354738870912
 10
-0.1164285071064341
 20
0.0006703461953293
 10
-0.1121603460117012
 20
0.0005169630961973
 10
-0.1078889621328244
 20
0.0003761401209704
 10
-0.103603864875372
 20
0.0002472372338161
 10
-0.0988076784276245
 20
0.0001169222244062
 10
-0.0939947526039441
 20
0.0
 10
-0.0907665239551398
 20
-0.0000722183959806
 10
-0.0876033363423312
 20
-0.0001371039656806
 10
-0.0845005488313154
 20
-0.0001932217555805
 10
-0.0814288437586629
 20
-0.0002405440127404
 10
-0.0783669671288635
 20
-0.0002792989712179
 10
-0.0766683807467825
 20
-0.0002972093765129
 10
-0.0753634996905066
 20
-0.0003092691791244
 10
-0.0739068584552706
 20
-0.0003199570090874
 10
-0.0724761218441245
 20
-0.0003260031643367
 10
-0.0717918387031068
 20
-0.0003269516732689
  0
LINE
  5
C2A
330
C08
100
AcDbEntity
  8
BLOCKS
  6
Continuous
100
AcDbLine
 10
-0.4371868243167683
 20
0.4521379392244944
 30
0.0
 11
-0.4352233930510466
 21
0.4521379392244944
 31
0.0
  0
LWPOLYLINE
  5
C2B
330
C08
100
AcDbEntity
  8
BLOCKS
  6
Continuous
100
AcDbPolyline
 90
       10
 70
   128
 43
0.0
 10
-0.3385586915915018
 20
0.4021379392244126
 10
-0.3366658029028668
 20
0.3920701381888648
 10
-0.33028899429803
 20
0.3577410210913513
 10
-0.3239291761096728
 20
0.3230697530570978
 10
-0.3175886500884781
 20
0.2880474280604176
 10
-0.3112698856660836
 20
0.2526648606524395
 10
-0.3049755346187203
 20
0.2169125862916553
 10
-0.298709890537325
 20
0.1807883164465966
 10
-0.2924631244970851
 20
0.1442020967824646
 10
-0.2878040604060561
 20
0.1164771039602783
  0
LINE
  5
C2C
330
C08
100
AcDbEntity
  8
BLOCKS
  6
Continuous
100
AcDbLine
 10
-0.4521868125868878
 20
0.402137939224483
 30
0.0
 11
-0.4502233813211661
 21
0.402137939224483
 31
0.0
  0
LINE
  5
C2D
330
C08
100
AcDbEntity
  8
BLOCKS
  6
Continuous
100
AcDbLine
 10
-0.4521868125868878
 20
0.437137939224508
 30
0.0
 11
-0.4521868125868878
 21
0.402137939224483
 31
0.0
  0
LWPOLYLINE
  5
C2E
330
C08
100
AcDbEntity
  8
BLOCKS
  6
Continuous
100
AcDbPolyline
 90
       11
 70
   128
 43
0.0
 10
-0.4521868125868833
 20
0.437137939224449
 10
-0.4520021378402862
 20
0.4394844562000435
 10
-0.4514526609054565
 20
0.441773194140078
 10
-0.4505519117282939
 20
0.4439477967205312
 10
-0.4493220697427068
 20
0.4459547180087976
 10
-0.4477934177402904
 20
0.4477445409422945
 10
-0.4460035962065422
 20
0.449273194140078
 10
-0.4439966764875545
 20
0.4505030370872919
 10
-0.441822075607638
 20
0.4514037869688764
 10
-0.4395333394574891
 20
0.4519532643333878
 10
-0.4371868243167456
 20
0.4521379392244853
  0
LINE
  5
C2F
330
C08
100
AcDbEntity
  8
BLOCKS
  6
Continuous
100
AcDbLine
 10
-0.4352046341535925
 20
0.402137939224483
 30
0.0
 11
-0.4502233813211661
 21
0.402137939224483
 31
0.0
  0
LWPOLYLINE
  5
C30
330
C08
100
AcDbEntity
  8
BLOCKS
  6
Continuous
100
AcDbPolyline
 90
       40
 70
   128
 43
0.0
 10
-0.2877795129824927
 20
0.1164795784469607
 10
-0.2866730623842204
 20
0.1106119492975631
 10
-0.2851887499975828
 20
0.1043819776522287
 10
-0.2834198247325958
 20
0.0982576844557116
 10
-0.2813743474525518
 20
0.092251736327853
 10
-0.2790609724427168
 20
0.0863763515887331
 10
-0.2764842698795519
 20
0.0806334752752446
 10
-0.2736432696167367
 20
0.0750173803031066
 10
-0.2705840354068323
 20
0.0696069117672232
 10
-0.2672973294511439
 20
0.0643700882761914
 10
-0.2637953054173749
 20
0.0593174623837331
 10
-0.2600902724855087
 20
0.054458100986958
 10
-0.2561952690857697
 20
0.049800532683621
 10
-0.2521241441076972
 20
0.0453527325652249
 10
-0.2478917088019489
 20
0.041122144475703
 10
-0.2435139763963207
 20
0.037115722736271
 10
-0.2390085389083515
 20
0.0333400015320513
 10
-0.2343951552038606
 20
0.0298011998632137
 10
-0.2296966543137796
 20
0.026505365181547
 10
-0.2249402760586281
 20
0.0234585392523877
 10
-0.2201595206830507
 20
0.0206668750657991
 10
-0.2153963217730098
 20
0.0181365125784214
 10
-0.2107026679752789
 20
0.0158728255643291
 10
-0.2061396453970929
 20
0.0138785235706018
 10
-0.2017712626092952
 20
0.0121504861102949
 10
-0.1976527254630537
 20
0.0106765139730851
 10
-0.1938182349068711
 20
0.0094343857769491
 10
-0.1902756814545182
 20
0.0083945130814027
 10
-0.1870102096363234
 20
0.0075246529888682
 10
-0.183992181869803
 20
0.0067940458194425
 10
-0.181184516501603
 20
0.0061756967546899
 10
-0.1785473090692221
 20
0.0056470211981286
 10
-0.1760433919855541
 20
0.0051901764210925
 10
-0.1736450057533193
 20
0.0047921576058434
 10
-0.1713068659514511
 20
0.0044396802866322
 10
-0.1689799058070684
 20
0.0041217867343585
 10
-0.1666048806040317
 20
0.0038288606559217
 10
-0.1641015205916528
 20
0.0035516652761362
 10
-0.1613449710776013
 20
0.0032798984504916
 10
-0.1588059687752366
 20
0.0030599196039839
  0
LINE
  5
C31
330
C08
100
AcDbEntity
  8
BLOCKS
  6
Continuous
100
AcDbLine
 10
-0.4352046341535925
 20
0.402137939224483
 30
0.0
 11
-0.0751205075425787
 21
0.402137939224483
 31
0.0
  0
LINE
  5
C32
330
C08
100
AcDbEntity
  8
BLOCKS
  6
Continuous
100
AcDbLine
 10
-0.4352233930510466
 20
0.4521379392244944
 30
0.0
 11
-0.0751392664400328
 21
0.4521379392244944
 31
0.0
  0
LINE
  5
C33
330
C08
100
AcDbEntity
  8
BLOCKS
  6
Continuous
100
AcDbLine
 10
-0.0751205075425787
 20
0.402137939224483
 30
0.0
 11
0.4337534862024768
 21
0.402137939224483
 31
0.0
  0
LINE
  5
C34
330
C08
100
AcDbEntity
  8
BLOCKS
  6
Continuous
100
AcDbLine
 10
-0.0751392664400328
 20
0.4521379392244944
 30
0.0
 11
0.4188901379493473
 21
0.4521379392244944
 31
0.0
  0
LWPOLYLINE
  5
C35
330
C08
100
AcDbEntity
  8
BLOCKS
  6
Continuous
100
AcDbPolyline
 90
       20
 70
   128
 43
0.0
 10
0.043639683693068
 20
0.0026832164504594
 10
0.0449918630158891
 20
0.0027380986522257
 10
0.0498232223640253
 20
0.0029521688902605
 10
0.0545333576725489
 20
0.0031817202128877
 10
0.0591886799371741
 20
0.0034339129423461
 10
0.0639262339258448
 20
0.003723775358194
 10
0.0690994814419855
 20
0.0040914063973833
 10
0.0733094076781663
 20
0.0044435917687952
 10
0.0765298817957546
 20
0.0047547232051147
 10
0.0793553511890741
 20
0.0050639693970516
 10
0.0819634961531074
 20
0.0053841329859279
 10
0.0844595273433834
 20
0.0057252433105168
 10
0.086921701860224
 20
0.0060978540974975
 10
0.08941126640118
 20
0.0065135546832607
 10
0.0919802897815271
 20
0.0069858063434367
 10
0.0946768365440903
 20
0.0075309203886718
 10
0.0975298015744147
 20
0.008164895779264
 10
0.1005752669232197
 20
0.0089088496421391
 10
0.1038574339636716
 20
0.0097908624856063
 10
0.1047576098550371
 20
0.0100573286470171
  0
LWPOLYLINE
  5
C36
330
C08
100
AcDbEntity
  8
BLOCKS
  6
Continuous
100
AcDbPolyline
 90
        3
 70
   128
 43
0.0
 10
0.0475960288081433
 20
0.4730361849884867
 10
0.0402667264613729
 20
0.473933770654403
 10
0.0341241854148712
 20
0.4746716451133035
  0
ENDBLK
  5
C38
330
C08
100
AcDbEntity
  8
0
100
AcDbBlockEnd
  0
BLOCK
  5
C6A
330
C3A
100
AcDbEntity
  8
0
100
AcDbBlockBegin
  2
802200AL
 70
     0
 10
0.0
 20
0.0
 30
0.0
  3
802200AL
  1

  0
LINE
  5
C3B
330
C3A
100
AcDbEntity
  8
BLOCKS
  6
Continuous
100
AcDbLine
 10
1.601092235360169
 20
0.4374591614466278
 30
0.0
 11
1.601092235360169
 21
0.4024591614466028
 31
0.0
  0
LWPOLYLINE
  5
C3C
330
C3A
100
AcDbEntity
  8
BLOCKS
  6
Continuous
100
AcDbPolyline
 90
        9
 70
   128
 43
0.0
 10
1.563546227472816
 20
0.4628686854710765
 10
1.565904302179788
 20
0.4606899344880373
 10
1.568452100995982
 20
0.4587364271291887
 10
1.571168186042432
 20
0.4570246007416069
 10
1.574029703434116
 20
0.4555688591024961
 10
1.577012575578137
 20
0.4543814512216711
 10
1.580091703769449
 20
0.4534723682748523
 10
1.583241179378219
 20
0.4528492595357245
 10
1.586434501852072
 20
0.4525173680120503
  0
LWPOLYLINE
  5
C3D
330
C3A
100
AcDbEntity
  8
BLOCKS
  6
Continuous
100
AcDbPolyline
 90
        9
 70
   128
 43
0.0
 10
1.547352634399121
 20
0.4634582301530105
 10
1.552355234108745
 20
0.4626785781366931
 10
1.55650172031701
 20
0.4621321575386543
 10
1.559783262501605
 20
0.4618254078167235
 10
1.562103781541645
 20
0.4617720503134848
 10
1.563300549448995
 20
0.4619255279079158
 10
1.563808482900876
 20
0.4622579968856014
 10
1.563634982993589
 20
0.462771869443314
 10
1.563530425890039
 20
0.4628573428436363
  0
LWPOLYLINE
  5
C3E
330
C3A
100
AcDbEntity
  8
BLOCKS
  6
Continuous
100
AcDbPolyline
 90
        4
 70
   128
 43
0.0
 10
1.559777439881054
 20
0.4662824182485207
 10
1.55900426941027
 20
0.4669183184454966
 10
1.557119586226126
 20
0.4683502187494384
 10
1.555156566894202
 20
0.4696557029448746
  0
LWPOLYLINE
  5
C3F
330
C3A
100
AcDbEntity
  8
BLOCKS
  6
Continuous
100
AcDbPolyline
 90
        5
 70
   128
 43
0.0
 10
1.563473453389979
 20
0.4628700606639546
 10
1.562899254746644
 20
0.4634528184656671
 10
1.561684919542149
 20
0.4645946069338976
 10
1.560378106611224
 20
0.4657394979905808
 10
1.559849183180067
 20
0.4661732875340027
  0
LWPOLYLINE
  5
C40
330
C3A
100
AcDbEntity
  8
BLOCKS
  6
Continuous
100
AcDbPolyline
 90
        3
 70
   128
 43
0.0
 10
1.586032751285438
 20
0.4524787055057101
 10
1.586302833856625
 20
0.452493350445621
 10
1.586370399375391
 20
0.4525028496664897
  0
LWPOLYLINE
  5
C41
330
C3A
100
AcDbEntity
  8
BLOCKS
  6
Continuous
100
AcDbPolyline
 90
        7
 70
   128
 43
0.0
 10
1.541397833670216
 20
0.4644584642176421
 10
1.539391711375883
 20
0.466885808905318
 10
1.537145750916261
 20
0.4690410954435725
 10
1.534686001806239
 20
0.4708993259883579
 10
1.532040993164319
 20
0.472438948065647
 10
1.529241402820062
 20
0.4736421045450704
 10
1.528294798368642
 20
0.4739610243441354
  0
LINE
  5
C42
330
C3A
100
AcDbEntity
  8
BLOCKS
  6
Continuous
100
AcDbLine
 10
1.541397833670202
 20
0.4644584642176307
 30
0.0
 11
1.547352634399089
 21
0.4634582301529969
 31
0.0
  0
LWPOLYLINE
  5
C43
330
C3A
100
AcDbEntity
  8
BLOCKS
  6
Continuous
100
AcDbPolyline
 90
       13
 70
   128
 43
0.0
 10
1.555156566894202
 20
0.4696557029448746
 10
1.55275772186078
 20
0.4712438443045909
 10
1.549299156382203
 20
0.4731721694004961
 10
1.545638569277489
 20
0.4748648072666408
 10
1.542319631255759
 20
0.4761285424794556
 10
1.538891617482386
 20
0.4771986782900063
 10
1.534801038329769
 20
0.4781970678073419
 10
1.530511380348125
 20
0.4789524795458789
 10
1.525990548829559
 20
0.4794589078737778
 10
1.521226913375485
 20
0.479702674657529
 10
1.516216664023104
 20
0.47966875000926
 10
1.510967696561365
 20
0.4793434089196678
 10
1.505588088242711
 20
0.4787272726269663
  0
LWPOLYLINE
  5
C44
330
C3A
100
AcDbEntity
  8
BLOCKS
  6
Continuous
100
AcDbPolyline
 90
       11
 70
   128
 43
0.0
 10
1.601092235360174
 20
0.4374591614465686
 10
1.600907560613577
 20
0.4398056784221632
 10
1.600358083678675
 20
0.4420944163621977
 10
1.599457334501403
 20
0.4442690189426509
 10
1.598227492515998
 20
0.4462759402309172
 10
1.596698840513581
 20
0.4480657631644142
 10
1.594909018979833
 20
0.4495944163621977
 10
1.592902099260882
 20
0.4508242593094116
 10
1.590727498380965
 20
0.4517250091909961
 10
1.588438762230707
 20
0.4522744865555075
 10
1.586092247090073
 20
0.452459161446605
  0
LINE
  5
C45
330
C3A
100
AcDbEntity
  8
BLOCKS
  6
Continuous
100
AcDbLine
 10
1.601092235360169
 20
0.4024591614466028
 30
0.0
 11
1.58609224709005
 21
0.4024591614466028
 31
0.0
  0
LINE
  5
C46
330
C3A
100
AcDbEntity
  8
BLOCKS
  6
Continuous
100
AcDbLine
 10
1.451674483534247
 20
0.4634582365644798
 30
0.0
 11
1.458601583129052
 21
0.4641577312439319
 31
0.0
  0
LINE
  5
C47
330
C3A
100
AcDbEntity
  8
BLOCKS
  6
Continuous
100
AcDbLine
 10
1.43461789575781
 20
0.4616688258998517
 30
0.0
 11
1.451674483534247
 21
0.4634582365644798
 31
0.0
  0
LWPOLYLINE
  5
C48
330
C3A
100
AcDbEntity
  8
BLOCKS
  6
Continuous
100
AcDbPolyline
 90
        3
 70
   128
 43
0.0
 10
1.437842310620126
 20
0.4740519024856627
 10
1.436043864429975
 20
0.4736417255082421
 10
1.431924262086922
 20
0.4726956966605582
  0
LWPOLYLINE
  5
C49
330
C3A
100
AcDbEntity
  8
BLOCKS
  6
Continuous
100
AcDbPolyline
 90
        3
 70
   128
 43
0.0
 10
1.431935473805988
 20
0.4726991618304243
 10
1.422909861291718
 20
0.4706186109611742
 10
1.417015805700666
 20
0.4692518621453206
  0
LWPOLYLINE
  5
C4A
330
C3A
100
AcDbEntity
  8
BLOCKS
  6
Continuous
100
AcDbPolyline
 90
       12
 70
   128
 43
0.0
 10
1.458601583129075
 20
0.464157731243941
 10
1.46594418637529
 20
0.464838663371666
 10
1.475641002340253
 20
0.465606264124254
 10
1.484937951195661
 20
0.4661842022190473
 10
1.49381284401139
 20
0.4665714088892862
 10
1.502427074553361
 20
0.4667703302460001
 10
1.510575120265111
 20
0.4667755024210789
 10
1.518222465645431
 20
0.4665921090823037
 10
1.524709830308911
 20
0.4662675414548727
 10
1.530739194198195
 20
0.4658002405586382
 10
1.53633008703242
 20
0.4651924386641628
 10
1.541397833670216
 20
0.4644584642176421
  0
LWPOLYLINE
  5
C4B
330
C3A
100
AcDbEntity
  8
BLOCKS
  6
Continuous
100
AcDbPolyline
 90
       16
 70
   128
 43
0.0
 10
1.528277390238272
 20
0.4739083343627869
 10
1.525010414912376
 20
0.4749157232022851
 10
1.519607856036036
 20
0.4763082023491376
 10
1.514109652508177
 20
0.4774561866200389
 10
1.508146127680574
 20
0.4784253864223144
 10
1.501940192116435
 20
0.4791577779194273
 10
1.495558438784992
 20
0.4796412890916332
 10
1.489017822903315
 20
0.4798741409184374
 10
1.48233596323791
 20
0.4798554647725911
 10
1.475526967586356
 20
0.4795850716027422
 10
1.468603402582757
 20
0.4790629450160128
 10
1.461574945297452
 20
0.4782889205810358
 10
1.454416201633994
 20
0.4772617614635971
 10
1.446924781818688
 20
0.4759457556724743
 10
1.43929760470417
 20
0.4743669433142356
 10
1.43783230485862
 20
0.4740191502776367
  0
LWPOLYLINE
  5
C4C
330
C3A
100
AcDbEntity
  8
BLOCKS
  6
Continuous
100
AcDbPolyline
 90
        4
 70
   128
 43
0.0
 10
1.282660328542206
 20
0.4525108395634749
 10
1.292852233017929
 20
0.4527164658407862
 10
1.303948360925806
 20
0.4531546724261723
 10
1.308123493539042
 20
0.4534319211287226
  0
LWPOLYLINE
  5
C4D
330
C3A
100
AcDbEntity
  8
BLOCKS
  6
Continuous
100
AcDbPolyline
 90
        7
 70
   128
 43
0.0
 10
1.217615828355756
 20
0.164460259299704
 10
1.221030147951878
 20
0.1697065889454467
 10
1.225400925215017
 20
0.1758796425598126
 10
1.229988035645419
 20
0.1818501503256272
 10
1.234779800225969
 20
0.1876095653747331
 10
1.239763709074086
 20
0.1931496384235658
 10
1.241987413901497
 20
0.1954380396765925
  0
LINE
  5
C4E
330
C3A
100
AcDbEntity
  8
BLOCKS
  6
Continuous
100
AcDbLine
 10
1.164476724444739
 20
0.0805292725288092
 30
0.0
 11
1.217535831121494
 21
0.1643767100728888
 31
0.0
  0
LWPOLYLINE
  5
C4F
330
C3A
100
AcDbEntity
  8
BLOCKS
  6
Continuous
100
AcDbPolyline
 90
       12
 70
   128
 43
0.0
 10
1.275722083582095
 20
0.452459161446605
 10
1.275879419372813
 20
0.4524591722093471
 10
1.293473893551545
 20
0.4525932338675199
 10
1.31089783401012
 20
0.4529746555509343
 10
1.328103521829234
 20
0.4535795415174295
 10
1.345364646329489
 20
0.4544012593267695
 10
1.362354908746183
 20
0.4554087860445367
 10
1.379027956104782
 20
0.4565790358775127
 10
1.393333518692434
 20
0.4577194617127686
 10
1.407356021657415
 20
0.4589542776055538
 10
1.421153066677016
 20
0.4602777930026793
 10
1.43461789575771
 20
0.4616688258998335
  0
LWPOLYLINE
  5
C50
330
C3A
100
AcDbEntity
  8
BLOCKS
  6
Continuous
100
AcDbPolyline
 90
        9
 70
   128
 43
0.0
 10
1.241949016809831
 20
0.1954607126532215
 10
1.261425122975324
 20
0.2155989431599306
 10
1.292260009954498
 20
0.2475300626320683
 10
1.322365507916529
 20
0.278734637650669
 10
1.35176629515683
 20
0.3092191494358491
 10
1.380482377841781
 20
0.3389872565666889
 10
1.40803501221364
 20
0.3675281650817129
 10
1.434954247823607
 20
0.3953794864254456
 10
1.441807904320649
 20
0.4024591614465323
  0
LWPOLYLINE
  5
C51
330
C3A
100
AcDbEntity
  8
BLOCKS
  6
Continuous
100
AcDbPolyline
 90
       13
 70
   128
 43
0.0
 10
1.417031699311246
 20
0.4692808655462074
 10
1.40996114417705
 20
0.4676629503478768
 10
1.400664528259421
 20
0.4656662502138358
 10
1.391148277742449
 20
0.4637636824589578
 10
1.381404106810496
 20
0.461966964848071
 10
1.371716994199359
 20
0.4603323200724123
 10
1.361898238203957
 20
0.4588295415416729
 10
1.351985622376359
 20
0.4574700952220525
 10
1.342002458308907
 20
0.4562618996058888
 10
1.331970589346292
 20
0.4552116868212039
 10
1.321910284362875
 20
0.4543250613794231
 10
1.311840149438594
 20
0.4536065732567664
 10
1.308279886184336
 20
0.4534131294519472
  0
LINE
  5
C52
330
C3A
100
AcDbEntity
  8
BLOCKS
  6
Continuous
100
AcDbLine
 10
1.016477624266599
 20
0.0166512019568069
 30
0.0
 11
1.016799706293227
 21
0.0166582633240347
 31
0.0
  0
LWPOLYLINE
  5
C53
330
C3A
100
AcDbEntity
  8
BLOCKS
  6
Continuous
100
AcDbPolyline
 90
       45
 70
   128
 43
0.0
 10
1.016799701380277
 20
0.0166584700528625
 10
1.018969515169719
 20
0.0167131620915467
 10
1.023315523527035
 20
0.0168235673488386
 10
1.027016857558937
 20
0.0169186470405117
 10
1.030215242428002
 20
0.0170020198492063
 10
1.033233847455357
 20
0.0170819663682784
 10
1.036570505440886
 20
0.0171718587450602
 10
1.039668506156103
 20
0.0172571061345667
 10
1.042539307880051
 20
0.0173380729215211
 10
1.045192427475867
 20
0.0174151282691679
 10
1.047630319742111
 20
0.0174885875839033
 10
1.049837087298674
 20
0.0175582944996501
 10
1.05190517490746
 20
0.0176279503409757
 10
1.054024765641788
 20
0.0177068273772608
 10
1.055520017989601
 20
0.0177703323890097
 10
1.056526180763194
 20
0.0178185536168172
 10
1.057473204113539
 20
0.0178689790869254
 10
1.058472713205901
 20
0.0179281783874473
 10
1.059573781244707
 20
0.018001051389511
 10
1.060838781409893
 20
0.0180951650313006
 10
1.062294396240195
 20
0.0182176310323854
 10
1.064038966846874
 20
0.0183847926225286
 10
1.066199388447912
 20
0.0186230545402583
 10
1.06894345907347
 20
0.0189761497258229
 10
1.07245975070773
 20
0.0195121688937803
 10
1.076816566273246
 20
0.0203084418405712
 10
1.081748355967083
 20
0.0213896647346343
 10
1.086937182513011
 20
0.0227386371957988
 10
1.0922729464236
 20
0.0243590479023629
 10
1.097688479983535
 20
0.0262548239489485
 10
1.10312329519651
 20
0.0284233358579519
 10
1.108530475362295
 20
0.0308593442357238
 10
1.113874832312958
 20
0.0335567497351809
 10
1.11912926883464
 20
0.0365090621367568
 10
1.124271981962138
 20
0.0397094647991622
 10
1.129284667930278
 20
0.0431507873150264
 10
1.134151421549741
 20
0.0468254721094496
 10
1.138858063003226
 20
0.0507255526728483
 10
1.143391721054085
 20
0.054842643866578
 10
1.147740571026133
 20
0.0591679415162804
 10
1.151893667870954
 20
0.0636922286659689
 10
1.155840838889289
 20
0.068405886574256
 10
1.159572614651897
 20
0.0732989091449787
 10
1.163080184826776
 20
0.0783609199204153
 10
1.164441850101556
 20
0.0805312585371945
  0
LINE
  5
C54
330
C3A
100
AcDbEntity
  8
BLOCKS
  6
Continuous
100
AcDbLine
 10
0.7263201334676524
 20
0.4024591614466028
 30
0.0
 11
0.998819419188635
 21
0.4024591614466028
 31
0.0
  0
LINE
  5
C55
330
C3A
100
AcDbEntity
  8
BLOCKS
  6
Continuous
100
AcDbLine
 10
0.7283402519565243
 20
0.4524591614466141
 30
0.0
 11
0.998819419188635
 21
0.4524591614466141
 31
0.0
  0
LINE
  5
C56
330
C3A
100
AcDbEntity
  8
BLOCKS
  6
Continuous
100
AcDbLine
 10
0.0935812027578322
 20
0.4024591614466028
 30
0.0
 11
0.1406176950068811
 21
0.1133499291499498
 31
0.0
  0
LWPOLYLINE
  5
C57
330
C3A
100
AcDbEntity
  8
BLOCKS
  6
Continuous
100
AcDbPolyline
 90
       11
 70
   128
 43
0.0
 10
0.0149999882701195
 20
0.452459161446605
 10
0.0126534731295215
 20
0.4522744865555075
 10
0.010364736979227
 20
0.4517250091909961
 10
0.0081901360993106
 20
0.4508242593094116
 10
0.0061832163804684
 20
0.4495944163621977
 10
0.004393394846611
 20
0.4480657631644142
 10
0.0028647428441946
 20
0.4462759402309172
 10
0.0016349008586803
 20
0.4442690189426509
 10
0.0007341516815177
 20
0.4420944163621977
 10
0.0001846747467243
 20
0.4398056784221632
 10
0.0000000000000182
 20
0.4374591614465686
  0
LINE
  5
C58
330
C3A
100
AcDbEntity
  8
BLOCKS
  6
Continuous
100
AcDbLine
 10
0.0
 20
0.4024591614466028
 30
0.0
 11
0.0004503190989453
 21
0.4024591614466028
 31
0.0
  0
LINE
  5
C59
330
C3A
100
AcDbEntity
  8
BLOCKS
  6
Continuous
100
AcDbLine
 10
0.0
 20
0.4374591614466278
 30
0.0
 11
0.0
 21
0.4024591614466028
 31
0.0
  0
LINE
  5
C5A
330
C3A
100
AcDbEntity
  8
BLOCKS
  6
Continuous
100
AcDbLine
 10
0.0149999882701195
 20
0.4524591614466141
 30
0.0
 11
0.0154503073690648
 21
0.4524591614466141
 31
0.0
  0
LINE
  5
C5B
330
C3A
100
AcDbEntity
  8
BLOCKS
  6
Continuous
100
AcDbLine
 10
0.0004503190989453
 20
0.4024591614466028
 30
0.0
 11
0.7263201334676524
 21
0.4024591614466028
 31
0.0
  0
LINE
  5
C5C
330
C3A
100
AcDbEntity
  8
BLOCKS
  6
Continuous
100
AcDbLine
 10
0.0154503073690648
 20
0.4524591614466141
 30
0.0
 11
0.7283402519565243
 21
0.4524591614466141
 31
0.0
  0
LINE
  5
C5D
330
C3A
100
AcDbEntity
  8
BLOCKS
  6
Continuous
100
AcDbLine
 10
0.9161498442987294
 20
0.0142071610333852
 30
0.0
 11
0.9159727499364862
 21
0.0142036902380647
 31
0.0
  0
LWPOLYLINE
  5
C5E
330
C3A
100
AcDbEntity
  8
BLOCKS
  6
Continuous
100
AcDbPolyline
 90
       13
 70
   128
 43
0.0
 10
0.8584650259800946
 20
0.0129000223079862
 10
0.8619472248375496
 20
0.0129755695100181
 10
0.8672993111505457
 20
0.0130926906048995
 10
0.8726918380179085
 20
0.0132116908763061
 10
0.8781078878891094
 20
0.013332196146003
 10
0.8835312711665938
 20
0.0134538457279638
 10
0.8889388420233263
 20
0.0135761202690998
 10
0.8942567678410522
 20
0.0136973402243535
 10
0.8995212571209231
 20
0.0138183123966161
 10
0.9047255773431425
 20
0.0139388807139773
 10
0.9098506031486067
 20
0.0140586042407091
 10
0.9148773476873794
 20
0.0141770416964943
 10
0.9161241899419291
 20
0.0142066811946285
  0
LINE
  5
C5F
330
C3A
100
AcDbEntity
  8
BLOCKS
  6
Continuous
100
AcDbLine
 10
0.536100261177694
 20
0.0056329034826086
 30
0.0
 11
0.5359689461157587
 21
0.0056305165026225
 31
0.0
  0
LWPOLYLINE
  5
C60
330
C3A
100
AcDbEntity
  8
BLOCKS
  6
Continuous
100
AcDbPolyline
 90
        3
 70
   128
 43
0.0
 10
0.536100349071403
 20
0.0056328621114523
 10
0.5369996678429198
 20
0.0056539639908448
 10
0.5488646985703781
 20
0.0059314356164765
  0
LINE
  5
C61
330
C3A
100
AcDbEntity
  8
BLOCKS
  6
Continuous
100
AcDbLine
 10
0.4157760011024721
 20
0.0029200133244723
 30
0.0
 11
0.4158820837502617
 21
0.002922986581853
 31
0.0
  0
LWPOLYLINE
  5
C62
330
C3A
100
AcDbEntity
  8
BLOCKS
  6
Continuous
100
AcDbPolyline
 90
       17
 70
   128
 43
0.0
 10
0.4157823630472377
 20
0.0029202752457428
 10
0.4207860345693736
 20
0.0030287974516983
 10
0.428896429016877
 20
0.0032056970520722
 10
0.4370879545348544
 20
0.00338535504292
 10
0.4453379017876614
 20
0.0035672773467019
 10
0.4536204667371022
 20
0.0037508971574067
 10
0.461911373936473
 20
0.0039356765260169
 10
0.4701877111053001
 20
0.004121103510916
 10
0.4784270823780936
 20
0.0043066663144788
 10
0.4866769365331675
 20
0.0044934265144553
 10
0.494914734226677
 20
0.0046808774881362
 10
0.5031287096509369
 20
0.0048687533205526
 10
0.5113068029069292
 20
0.0050567800770665
 10
0.5194367403669276
 20
0.0052446775299183
 10
0.5275061052158527
 20
0.0054321606887248
 10
0.5355024128106197
 20
0.0056189414685292
 10
0.5360891439398802
 20
0.0056327211760441
  0
LWPOLYLINE
  5
C63
330
C3A
100
AcDbEntity
  8
BLOCKS
  6
Continuous
100
AcDbPolyline
 90
       15
 70
   128
 43
0.0
 10
0.8585674421511976
 20
0.0129028144012415
 10
0.8350838158076111
 20
0.0123924405721488
 10
0.8113597138293517
 20
0.0118736755405922
 10
0.7874567099419255
 20
0.0113478695714372
 10
0.7634363778706939
 20
0.0108163729296945
 10
0.7386176488299862
 20
0.0102639691252267
 10
0.7137194293509493
 20
0.0097065312615456
 10
0.6888100008773291
 20
0.0091455916660931
 10
0.6639576448529806
 20
0.008582682666493
 10
0.6424366517202543
 20
0.0080925765727449
 10
0.6209982310360829
 20
0.0076018838634269
 10
0.5996868750086106
 20
0.0071116219925904
 10
0.5782564524237205
 20
0.0066160759822384
 10
0.5570020073433807
 20
0.0061220227335804
 10
0.5359689461157723
 20
0.0056305165026066
  0
LINE
  5
C64
330
C3A
100
AcDbEntity
  8
BLOCKS
  6
Continuous
100
AcDbLine
 10
0.270583267221923
 20
0.0000303303915695
 30
0.0
 11
0.2768121962384384
 21
0.0000265898594472
 31
0.0
  0
LWPOLYLINE
  5
C65
330
C3A
100
AcDbEntity
  8
BLOCKS
  6
Continuous
100
AcDbPolyline
 90
       23
 70
   128
 43
0.0
 10
0.275052434361005
 20
0.0000000000000006
 10
0.2759342692927567
 20
0.0000090221461875
 10
0.2775745890697908
 20
0.0000349492719039
 10
0.2790542677395388
 20
0.0000608211626974
 10
0.2813280105822378
 20
0.0001024086920739
 10
0.2838869272371994
 20
0.0001508646427834
 10
0.2868523528587866
 20
0.0002083413220686
 10
0.290382963558277
 20
0.0002778430248878
 10
0.2948745137809055
 20
0.0003671197854061
 10
0.3002956491930127
 20
0.0004760608640942
 10
0.3058624517858516
 20
0.0005890960028051
 10
0.311881107304198
 20
0.0007123919369411
 10
0.3184063268696446
 20
0.0008471018241841
 10
0.3255270117469081
 20
0.0009950914783991
 10
0.333378780059229
 20
0.0011592093924997
 10
0.3421935737754938
 20
0.001344433353043
 10
0.3514649294222727
 20
0.0015402643873682
 10
0.3611359252676084
 20
0.0017455353548218
 10
0.3712489984118474
 20
0.001961169334391
 10
0.3818542419412734
 20
0.0021882588652812
 10
0.3930150083525769
 20
0.0024281866023017
 10
0.404813851583549
 20
0.0026827547015643
 10
0.4157759288442868
 20
0.0029200567022059
  0
LWPOLYLINE
  5
C66
330
C3A
100
AcDbEntity
  8
BLOCKS
  6
Continuous
100
AcDbPolyline
 90
       36
 70
   128
 43
0.0
 10
0.1405953826444056
 20
0.1133315541739654
 10
0.1417704374372443
 20
0.1070423456244686
 10
0.1432463244201608
 20
0.100803889784948
 10
0.1450078441586265
 20
0.0946708333544308
 10
0.1470469742142995
 20
0.0886558503372368
 10
0.1493551143775221
 20
0.0827711603079303
 10
0.1519230954456907
 20
0.0770285003295072
 10
0.1547411885986912
 20
0.0714390973785345
 10
0.1577991148766705
 20
0.0660136412241997
 10
0.1610860542158662
 20
0.0607622576973887
 10
0.164590653471696
 20
0.0556944821831354
 10
0.1683010327095872
 20
0.0508192332197001
 10
0.1722047889776695
 20
0.0461447859375045
 10
0.1762889965359682
 20
0.0416787451062197
 10
0.1805402023548049
 20
0.0374280173726589
 10
0.1849444152509204
 20
0.0333987823171998
 10
0.189487086818317
 20
0.0295964615935014
 10
0.1941530814461839
 20
0.0260256855353515
 10
0.1989266322038929
 20
0.0226902561178946
 10
0.203791278033259
 20
0.0195931050852238
 10
0.2087297763326023
 20
0.0167362455280824
 10
0.2137239830977887
 20
0.0141207145927916
 10
0.2187546890612611
 20
0.0117465047389129
 10
0.2238013967371626
 20
0.0096124795373549
 10
0.2288420164039962
 20
0.007716269134508
 10
0.2338524496552964
 20
0.0060541388688949
 10
0.2388060140177731
 20
0.0046208227136964
 10
0.2436726363367962
 20
0.0034093113287969
 10
0.248417691643026
 20
0.0024105834823428
 10
0.2530002369875547
 20
0.0016132726044094
 10
0.2573699754874724
 20
0.0010032764184513
 10
0.2614605918144116
 20
0.0005633721277269
 10
0.2651694558249983
 20
0.0002730138810153
 10
0.2682931300925157
 20
0.0001079307243714
 10
0.2705377525916447
 20
0.0000338997130899
 10
0.2705836647468277
 20
0.0000330084429521
  0
LINE
  5
C67
330
C3A
100
AcDbEntity
  8
BLOCKS
  6
Continuous
100
AcDbLine
 10
1.58609224709005
 20
0.4024591614466028
 30
0.0
 11
0.998819419188635
 21
0.4024591614466028
 31
0.0
  0
LINE
  5
C68
330
C3A
100
AcDbEntity
  8
BLOCKS
  6
Continuous
100
AcDbLine
 10
0.998819419188635
 20
0.4524591614466141
 30
0.0
 11
1.58609224709005
 21
0.4524591614466141
 31
0.0
  0
LWPOLYLINE
  5
C69
330
C3A
100
AcDbEntity
  8
BLOCKS
  6
Continuous
100
AcDbPolyline
 90
       14
 70
   128
 43
0.0
 10
0.9161498467777892
 20
0.0142070628561129
 10
0.9178731199929279
 20
0.0142478767240397
 10
0.9281451281812223
 20
0.0144922081898045
 10
0.9381772093303334
 20
0.0147318954875306
 10
0.9479637161715618
 20
0.0149667923882595
 10
0.9574999972005571
 20
0.0151967758293546
 10
0.9667823082482026
 20
0.0154217440833242
 10
0.9758077234964911
 20
0.0156416148974682
 10
0.9845760437639365
 20
0.0158563791885177
 10
0.9929598366751633
 20
0.0160629304320543
 10
1.000920365773836
 20
0.016260284903147
 10
1.008509380139457
 20
0.0164496873859031
 10
1.015688100708412
 20
0.0166300256932669
 10
1.016861354659904
 20
0.0166596278816729
  0
ENDBLK
  5
C6B
330
C3A
100
AcDbEntity
  8
0
100
AcDbBlockEnd
  0
BLOCK
  5
CB3
330
C6D
100
AcDbEntity
  8
0
100
AcDbBlockBegin
  2
802200CT
 70
     0
 10
0.0
 20
0.0
 30
0.0
  3
802200CT
  1

  0
LINE
  5
C6E
330
C6D
100
AcDbEntity
  8
BLOCKS
  6
Continuous
100
AcDbLine
 10
1.659467304848134
 20
0.436449442001956
 30
0.0
 11
1.659467304848134
 21
0.4014494420019878
 31
0.0
  0
LWPOLYLINE
  5
C6F
330
C6D
100
AcDbEntity
  8
BLOCKS
  6
Continuous
100
AcDbPolyline
 90
       10
 70
   128
 43
0.0
 10
1.654420473715166
 20
0.436449442001956
 10
1.654267128305058
 20
0.4381859237786353
 10
1.653811751397282
 20
0.4398696434352109
 10
1.653068179388814
 20
0.441449442001956
 10
1.652059005338763
 20
0.4428773180988515
 10
1.650814892490219
 20
0.4441098864331229
 10
1.649373642582308
 20
0.445109696039815
 10
1.647779047264178
 20
0.4458463682098023
 10
1.646079557507858
 20
0.4462975195321065
 10
1.64432681144934
 20
0.446449442001956
  0
LINE
  5
C70
330
C6D
100
AcDbEntity
  8
BLOCKS
  6
Continuous
100
AcDbLine
 10
1.654420473715162
 20
0.436449442001956
 30
0.0
 11
1.654420473715162
 21
0.4014494420019878
 31
0.0
  0
LWPOLYLINE
  5
C71
330
C6D
100
AcDbEntity
  8
BLOCKS
  6
Continuous
100
AcDbPolyline
 90
        6
 70
   128
 43
0.0
 10
1.616528047617997
 20
0.457080354282823
 10
1.621763287209454
 20
0.4529909345340071
 10
1.627780354244481
 20
0.4497470594694255
 10
1.634074097561664
 20
0.4476210587788023
 10
1.640825713005819
 20
0.4465517226754469
 10
1.643684402594902
 20
0.446449442001956
  0
LINE
  5
C72
330
C6D
100
AcDbEntity
  8
BLOCKS
  6
Continuous
100
AcDbLine
 10
1.644326811449331
 20
0.4464494420019469
 30
0.0
 11
1.643684402594998
 21
0.4464494420019469
 31
0.0
  0
LINE
  5
C73
330
C6D
100
AcDbEntity
  8
BLOCKS
  6
Continuous
100
AcDbLine
 10
1.644326811449331
 20
0.4514494420019992
 30
0.0
 11
1.643684402594998
 21
0.4514494420019992
 31
0.0
  0
LWPOLYLINE
  5
C74
330
C6D
100
AcDbEntity
  8
BLOCKS
  6
Continuous
100
AcDbPolyline
 90
        6
 70
   128
 43
0.0
 10
1.619922590349473
 20
0.4607514932497521
 10
1.624503423416411
 20
0.4571732507423599
 10
1.62976835552878
 20
0.4543348595740258
 10
1.635275379525431
 20
0.452474608253267
 10
1.641183041707466
 20
0.4515389381295404
 10
1.643684402594902
 20
0.451449442001956
  0
LWPOLYLINE
  5
C75
330
C6D
100
AcDbEntity
  8
BLOCKS
  6
Continuous
100
AcDbPolyline
 90
       11
 70
   128
 43
0.0
 10
1.659467304848025
 20
0.436449442001956
 10
1.659280900250218
 20
0.4387959589775506
 10
1.658726276356231
 20
0.441084696917585
 10
1.65781708984707
 20
0.4432592994980383
 10
1.656575727912153
 20
0.4452662207863046
 10
1.655032757002139
 20
0.4470560437197651
 10
1.653226170181609
 20
0.4485846969175851
 10
1.651200451613716
 20
0.449814539864799
 10
1.649005481212719
 20
0.4507152897463835
 10
1.646695306434615
 20
0.4512647671108949
 10
1.64432681144934
 20
0.451449442001956
  0
LINE
  5
C76
330
C6D
100
AcDbEntity
  8
BLOCKS
  6
Continuous
100
AcDbLine
 10
1.659467304848134
 20
0.4014494420019878
 30
0.0
 11
1.654420473715162
 21
0.4014494420019878
 31
0.0
  0
LINE
  5
C77
330
C6D
100
AcDbEntity
  8
BLOCKS
  6
Continuous
100
AcDbLine
 10
1.582252925378042
 20
0.4631592470635133
 30
0.0
 11
1.596222478295088
 21
0.4641838599889047
 31
0.0
  0
LINE
  5
C78
330
C6D
100
AcDbEntity
  8
BLOCKS
  6
Continuous
100
AcDbLine
 10
1.581887177108113
 20
0.4681458519409011
 30
0.0
 11
1.59585673002516
 21
0.4691704648662926
 31
0.0
  0
LWPOLYLINE
  5
C79
330
C6D
100
AcDbEntity
  8
BLOCKS
  6
Continuous
100
AcDbPolyline
 90
        4
 70
   128
 43
0.0
 10
1.602491241530973
 20
0.4700642098727417
 10
1.600944095290964
 20
0.4707141412648502
 10
1.598429366492622
 20
0.4717637640857879
 10
1.597971838487413
 20
0.4719533558981653
  0
LWPOLYLINE
  5
C7A
330
C6D
100
AcDbEntity
  8
BLOCKS
  6
Continuous
100
AcDbPolyline
 90
        8
 70
   128
 43
0.0
 10
1.609081953983171
 20
0.4673412640110632
 10
1.608845705429542
 20
0.4674331893115755
 10
1.608337616514421
 20
0.4676340625567332
 10
1.60751144464952
 20
0.4679652669007714
 10
1.606354931046793
 20
0.4684346080973205
 10
1.604872608678982
 20
0.4690428571371899
 10
1.603089508852702
 20
0.4697827260642385
 10
1.602496200314839
 20
0.470032270352183
  0
LINE
  5
C7B
330
C6D
100
AcDbEntity
  8
BLOCKS
  6
Continuous
100
AcDbLine
 10
1.536977368695487
 20
0.441933959996843
 30
0.0
 11
1.537546088542511
 21
0.4425105353955109
 31
0.0
  0
LWPOLYLINE
  5
C7C
330
C6D
100
AcDbEntity
  8
BLOCKS
  6
Continuous
100
AcDbPolyline
 90
        7
 70
   128
 43
0.0
 10
1.537545195277983
 20
0.4425113154832593
 10
1.543791129522672
 20
0.4481337133714055
 10
1.550617953776403
 20
0.4529291525539679
 10
1.558025668039139
 20
0.4568976330309466
 10
1.56584864116134
 20
0.4599628835356794
 10
1.573924393607652
 20
0.4620500882132343
 10
1.582252925378037
 20
0.4631592470635019
  0
LINE
  5
C7D
330
C6D
100
AcDbEntity
  8
BLOCKS
  6
Continuous
100
AcDbLine
 10
1.58033868321081
 20
0.4014494420019878
 30
0.0
 11
1.569072339747889
 21
0.4014494420019878
 31
0.0
  0
LINE
  5
C7E
330
C6D
100
AcDbEntity
  8
BLOCKS
  6
Continuous
100
AcDbLine
 10
1.654420473715162
 20
0.4014494420019878
 30
0.0
 11
1.58033868321081
 21
0.4014494420019878
 31
0.0
  0
LWPOLYLINE
  5
C7F
330
C6D
100
AcDbEntity
  8
BLOCKS
  6
Continuous
100
AcDbPolyline
 90
        6
 70
   128
 43
0.0
 10
1.619922590349473
 20
0.4607514932497521
 10
1.616087833034056
 20
0.4637881066227943
 10
1.611726792414396
 20
0.4662555459703958
 10
1.60674071984204
 20
0.4680947331992661
 10
1.601365148882017
 20
0.4690990359055809
 10
1.595856730025174
 20
0.4691704648663086
  0
LWPOLYLINE
  5
C80
330
C6D
100
AcDbEntity
  8
BLOCKS
  6
Continuous
100
AcDbPolyline
 90
        6
 70
   128
 43
0.0
 10
1.616528047617997
 20
0.457080354282823
 10
1.613292468419225
 20
0.4596424977704533
 10
1.609612837323096
 20
0.4617244000944425
 10
1.605405836810881
 20
0.4632762135004828
 10
1.600870197118187
 20
0.4641235927047615
 10
1.596222478295115
 20
0.4641838599888957
  0
LINE
  5
C81
330
C6D
100
AcDbEntity
  8
BLOCKS
100
AcDbLine
 10
1.517117725409888
 20
0.4725394553918227
 30
0.0
 11
1.528096046655035
 21
0.4751049377344975
 31
0.0
  0
LINE
  5
C82
330
C6D
100
AcDbEntity
  8
BLOCKS
  6
Continuous
100
AcDbLine
 10
1.512632176319356
 20
0.4713550295872983
 30
0.0
 11
1.517117725409888
 21
0.4725394553918227
 31
0.0
  0
LINE
  5
C83
330
C6D
100
AcDbEntity
  8
BLOCKS
  6
Continuous
100
AcDbLine
 10
1.499997983218803
 20
0.4680189242352503
 30
0.0
 11
1.512632176319356
 21
0.4713550295872983
 31
0.0
  0
LWPOLYLINE
  5
C84
330
C6D
100
AcDbEntity
  8
BLOCKS
  6
Continuous
100
AcDbPolyline
 90
       10
 70
   128
 43
0.0
 10
1.372346369473474
 20
0.451449442001956
 10
1.377432029730028
 20
0.4514753066111894
 10
1.394111221245133
 20
0.4519234976663006
 10
1.410349304550457
 20
0.452895756903215
 10
1.426281197650736
 20
0.4543669972052681
 10
1.441729885730768
 20
0.4562869154798478
 10
1.457072939186131
 20
0.4586804035669207
 10
1.471877577287872
 20
0.4614560352391505
 10
1.486230741402454
 20
0.4645919440611192
 10
1.499997983218803
 20
0.4680189242352367
  0
LWPOLYLINE
  5
C85
330
C6D
100
AcDbEntity
  8
BLOCKS
  6
Continuous
100
AcDbPolyline
 90
       14
 70
   128
 43
0.0
 10
1.598159822695728
 20
0.4717796801852615
 10
1.594946402955887
 20
0.4730834808751184
 10
1.590310418024513
 20
0.4746408585293262
 10
1.585598168418531
 20
0.4759170939282717
 10
1.58065561521735
 20
0.4769642708326297
 10
1.575355171375143
 20
0.4777921009330181
 10
1.569843923365173
 20
0.4783599164965722
 10
1.564131088596353
 20
0.4786618896211598
 10
1.55822893599396
 20
0.4786935652925399
 10
1.552149169808675
 20
0.4784521204014686
 10
1.545901869892753
 20
0.4779359130965327
 10
1.539490951545325
 20
0.4771430449406557
 10
1.533045133871622
 20
0.4760939923752244
 10
1.528096046654922
 20
0.4751049377344475
  0
LINE
  5
C86
330
C6D
100
AcDbEntity
  8
BLOCKS
  6
Continuous
100
AcDbLine
 10
1.569072339747889
 20
0.4014494420019878
 30
0.0
 11
1.49704443202347
 21
0.4014494420019878
 31
0.0
  0
LWPOLYLINE
  5
C87
330
C6D
100
AcDbEntity
  8
BLOCKS
  6
Continuous
100
AcDbPolyline
 90
       10
 70
   128
 43
0.0
 10
1.533986052188323
 20
0.4460230830032538
 10
1.538845300197412
 20
0.4505301620439582
 10
1.544082773415342
 20
0.4545915567566567
 10
1.549848817519799
 20
0.4582837394706235
 10
1.555926949798871
 20
0.4614358476278517
 10
1.561788422815647
 20
0.4638473994499305
 10
1.567832293654886
 20
0.4657563450772955
 10
1.574203879074397
 20
0.4671809374226518
 10
1.580675076090978
 20
0.468047062866624
 10
1.581887177108022
 20
0.4681458519408421
  0
LINE
  5
C88
330
C6D
100
AcDbEntity
  8
BLOCKS
  6
Continuous
100
AcDbLine
 10
1.216266394962643
 20
0.0803535822637378
 30
0.0
 11
1.216389204019491
 21
0.0806690874887272
 31
0.0
  0
LWPOLYLINE
  5
C89
330
C6D
100
AcDbEntity
  8
BLOCKS
  6
Continuous
100
AcDbPolyline
 90
        3
 70
   128
 43
0.0
 10
1.265257644882134
 20
0.159573665643054
 10
1.240813812627951
 20
0.120106068335424
 10
1.216389204019491
 20
0.0806690874887295
  0
LINE
  5
C8A
330
C6D
100
AcDbEntity
  8
BLOCKS
  6
Continuous
100
AcDbLine
 10
1.261041983059043
 20
0.1622772028115355
 30
0.0
 11
1.21213825109089
 21
0.0833065727699113
 31
0.0
  0
LWPOLYLINE
  5
C8B
330
C6D
100
AcDbEntity
  8
BLOCKS
  6
Continuous
100
AcDbPolyline
 90
        5
 70
   128
 43
0.0
 10
1.260979382100798
 20
0.1621761136530563
 10
1.267114017024163
 20
0.1714944267465194
 10
1.273778087159029
 20
0.1804848792459757
 10
1.281003523904713
 20
0.1891694943610651
 10
1.288732185414577
 20
0.1974588856866262
  0
LWPOLYLINE
  5
C8C
330
C6D
100
AcDbEntity
  8
BLOCKS
  6
Continuous
100
AcDbPolyline
 90
        5
 70
   128
 43
0.0
 10
1.265257644882134
 20
0.159573665643054
 10
1.271268181459621
 20
0.1686994311636385
 10
1.277799955629255
 20
0.1775023725602819
 10
1.284807781779367
 20
0.1859172864926745
 10
1.292300370733558
 20
0.1939509816214718
  0
LINE
  5
C8D
330
C6D
100
AcDbEntity
  8
BLOCKS
  6
Continuous
100
AcDbLine
 10
1.104567806709154
 20
0.0167434406814073
 30
0.0
 11
1.104772953687528
 21
0.0167480961176216
 31
0.0
  0
LWPOLYLINE
  5
C8E
330
C6D
100
AcDbEntity
  8
BLOCKS
  6
Continuous
100
AcDbPolyline
 90
       14
 70
   128
 43
0.0
 10
1.10456780670915
 20
0.0167434406814005
 10
1.104829142849906
 20
0.016749623989324
 10
1.116180940530961
 20
0.0175156681276508
 10
1.127468315569116
 20
0.0192396000917302
 10
1.138572727510567
 20
0.021898282134332
 10
1.149375635902091
 20
0.0254685765080444
 10
1.159166592313362
 20
0.029623998820332
 10
1.168601068280389
 20
0.0345353083562236
 10
1.178219015731432
 20
0.0405939117966204
 10
1.187326042622793
 20
0.0474640138093105
 10
1.195828840572634
 20
0.0550691458491724
 10
1.203634101199553
 20
0.0633328393711213
 10
1.210357138802922
 20
0.0717467775355704
 10
1.216389204019491
 20
0.0806690874887295
  0
LWPOLYLINE
  5
C8F
330
C6D
100
AcDbEntity
  8
BLOCKS
  6
Continuous
100
AcDbPolyline
 90
       14
 70
   128
 43
0.0
 10
1.10445437004137
 20
0.0217421537279893
 10
1.104710820856438
 20
0.0217482261723285
 10
1.114989971227027
 20
0.0224150838852234
 10
1.125216388962857
 20
0.0238971526679757
 10
1.135295024192149
 20
0.0261768712255594
 10
1.145130827042761
 20
0.0292366782629847
 10
1.155277829050449
 20
0.0333420899293719
 10
1.165078814623142
 20
0.0383032907026222
 10
1.174432418156924
 20
0.044063709987438
 10
1.183237274047554
 20
0.0505667771883395
 10
1.19145478638837
 20
0.0577983034807562
 10
1.199062169340344
 20
0.0657234742548258
 10
1.205982348907149
 20
0.0742552453906478
 10
1.212138251092022
 20
0.0833065727682129
  0
LWPOLYLINE
  5
C90
330
C6D
100
AcDbEntity
  8
BLOCKS
  6
Continuous
100
AcDbPolyline
 90
        3
 70
   128
 43
0.0
 10
1.53754520748624
 20
0.442511327856389
 10
1.414918836992568
 20
0.3182287385088944
 10
1.292300370733558
 20
0.1939509816214718
  0
LINE
  5
C91
330
C6D
100
AcDbEntity
  8
BLOCKS
  6
Continuous
100
AcDbLine
 10
1.533986052188196
 20
0.4460230830030105
 30
0.0
 11
1.288123167462798
 21
0.1968416474725791
 31
0.0
  0
LINE
  5
C92
330
C6D
100
AcDbEntity
  8
BLOCKS
  6
Continuous
100
AcDbLine
 10
1.301775190371357
 20
0.4514494420019992
 30
0.0
 11
1.375097098535433
 21
0.4514494420019992
 31
0.0
  0
LINE
  5
C93
330
C6D
100
AcDbEntity
  8
BLOCKS
  6
Continuous
100
AcDbLine
 10
0.8425284989443742
 20
0.4514494420019992
 30
0.0
 11
0.9545831195991912
 21
0.4514494420019992
 31
0.0
  0
LINE
  5
C94
330
C6D
100
AcDbEntity
  8
BLOCKS
  6
Continuous
100
AcDbLine
 10
0.3953103059806142
 20
0.4514494420019992
 30
0.0
 11
0.5913533096156688
 21
0.4514494420019992
 31
0.0
  0
LINE
  5
C95
330
C6D
100
AcDbEntity
  8
BLOCKS
  6
Continuous
100
AcDbLine
 10
0.5913533096156688
 20
0.4514494420019992
 30
0.0
 11
0.8425284989443742
 21
0.4514494420019992
 31
0.0
  0
ARC
  5
C96
330
C6D
100
AcDbEntity
  8
BLOCKS
  6
Continuous
100
AcDbCircle
 10
0.1207984719144395
 20
0.4324494420019937
 30
0.0
 40
0.014
100
AcDbArc
 50
9.248950013074452
 51
90.0
  0
LINE
  5
C97
330
C6D
100
AcDbEntity
  8
BLOCKS
  6
Continuous
100
AcDbLine
 10
0.1207984719144395
 20
0.4514494420019992
 30
0.0
 11
0.0596218357109126
 21
0.4514494420019992
 31
0.0
  0
LINE
  5
C98
330
C6D
100
AcDbEntity
  8
BLOCKS
  6
Continuous
100
AcDbLine
 10
0.1207984719144395
 20
0.4464494420019469
 30
0.0
 11
0.0596218357109126
 21
0.4464494420019469
 31
0.0
  0
ARC
  5
C99
330
C6D
100
AcDbEntity
  8
BLOCKS
  6
Continuous
100
AcDbCircle
 10
0.1207984719144395
 20
0.4324494420019937
 30
0.0
 40
0.0190000000000001
100
AcDbArc
 50
9.248950013074452
 51
90.0
  0
LINE
  5
C9A
330
C6D
100
AcDbEntity
  8
BLOCKS
  6
Continuous
100
AcDbLine
 10
0.1395514588448339
 20
0.4355032070868083
 30
0.0
 11
0.1920540541664184
 21
0.1130879405141036
 31
0.0
  0
LINE
  5
C9B
330
C6D
100
AcDbEntity
  8
BLOCKS
  6
Continuous
100
AcDbLine
 10
0.1346164622841559
 20
0.4346995846960317
 30
0.0
 11
0.1871190576058541
 21
0.1122843181233839
 31
0.0
  0
ARC
  5
C9C
330
C6D
100
AcDbEntity
  8
BLOCKS
100
AcDbCircle
 10
0.3814663693309501
 20
-0.0487956722540184
 30
0.0
 40
0.0557736536533423
100
AcDbArc
 50
105.2997346698185
 51
118.9683362453349
  0
ARC
  5
C9D
330
C6D
100
AcDbEntity
  8
BLOCKS
100
AcDbCircle
 10
0.2570977824948375
 20
-0.0649925385014308
 30
0.0
 40
0.0743914363086834
100
AcDbArc
 50
60.88633243659673
 51
66.50994689421927
  0
ARC
  5
C9E
330
C6D
100
AcDbEntity
  8
BLOCKS
100
AcDbCircle
 10
0.2570977824948375
 20
-0.0598233603617496
 30
0.0
 40
0.0743914363086834
100
AcDbArc
 50
53.53017235024562
 51
66.50994689421927
  0
LINE
  5
C9F
330
C6D
100
AcDbEntity
  8
BLOCKS
100
AcDbLine
 10
0.2932924745809931
 20
-0.0000000000000023
 30
0.0
 11
0.366749454361069
 21
-0.0000000000000023
 31
0.0
  0
ARC
  5
CA0
330
C6D
100
AcDbEntity
  8
BLOCKS
  6
Continuous
100
AcDbCircle
 10
0.3203639647419993
 20
0.1339821226733852
 30
0.0
 40
0.1350000000000001
100
AcDbArc
 50
189.2489500130744
 51
255.6575289869796
  0
ARC
  5
CA1
330
C6D
100
AcDbEntity
  8
BLOCKS
  6
Continuous
100
AcDbCircle
 10
0.3203639647419993
 20
0.1339821226733852
 30
0.0
 40
0.1300000000000002
100
AcDbArc
 50
189.2489500130744
 51
255.0145848497862
  0
LINE
  5
CA2
330
C6D
100
AcDbEntity
  8
BLOCKS
  6
Continuous
100
AcDbLine
 10
0.0444813423121093
 20
0.4014494420019878
 30
0.0
 11
0.0444813423121093
 21
0.436449442001956
 31
0.0
  0
LINE
  5
CA3
330
C6D
100
AcDbEntity
  8
BLOCKS
  6
Continuous
100
AcDbLine
 10
0.0495281734450816
 20
0.4014494420019878
 30
0.0
 11
0.0495281734450816
 21
0.436449442001956
 31
0.0
  0
LINE
  5
CA4
330
C6D
100
AcDbEntity
  8
BLOCKS
  6
Continuous
100
AcDbLine
 10
0.0495281734450816
 20
0.4014494420019878
 30
0.0
 11
0.0444813423121093
 21
0.4014494420019878
 31
0.0
  0
LWPOLYLINE
  5
CA5
330
C6D
100
AcDbEntity
  8
BLOCKS
  6
Continuous
100
AcDbPolyline
 90
       11
 70
   128
 43
0.0
 10
0.0149999999999852
 20
0.451449442001956
 10
0.0126752570932001
 20
0.4512647671108949
 10
0.0104077570721563
 20
0.4507152897463835
 10
0.0082533333127356
 20
0.4498145398647262
 10
0.0062650348782188
 20
0.4485846969175851
 10
0.0044918202745464
 20
0.4470560437197288
 10
0.0029773519303342
 20
0.4452662207863046
 10
0.0017589210824588
 20
0.4432592994980383
 10
0.0008665295422395
 20
0.441084696917585
 10
0.0003221509509819
 20
0.4387959589775506
 10
0.0001391897162682
 20
0.436449442001956
  0
LINE
  5
CA6
330
C6D
100
AcDbEntity
  8
BLOCKS
  6
Continuous
100
AcDbLine
 10
0.0001391897163774
 20
0.436449442001956
 30
0.0
 11
0.0001391897163774
 21
0.4014494420019878
 31
0.0
  0
LINE
  5
CA7
330
C6D
100
AcDbEntity
  8
BLOCKS
  6
Continuous
100
AcDbLine
 10
-0.0000000000000011
 20
0.436449442001956
 30
0.0
 11
-0.0000000000000011
 21
0.4014494420019878
 31
0.0
  0
LINE
  5
CA8
330
C6D
100
AcDbEntity
  8
BLOCKS
  6
Continuous
100
AcDbLine
 10
0.0001391897163774
 20
0.4014494420019878
 30
0.0
 11
-0.0000000000000011
 21
0.4014494420019878
 31
0.0
  0
LINE
  5
CA9
330
C6D
100
AcDbEntity
  8
BLOCKS
  6
Continuous
100
AcDbLine
 10
-0.0000000000000011
 20
0.436449442001956
 30
0.0
 11
0.0001391897163774
 21
0.436449442001956
 31
0.0
  0
LINE
  5
CAA
330
C6D
100
AcDbEntity
  8
BLOCKS
  6
Continuous
100
AcDbLine
 10
0.0001391897163774
 20
0.4014494420019878
 30
0.0
 11
0.0444813423121093
 21
0.4014494420019878
 31
0.0
  0
LINE
  5
CAB
330
C6D
100
AcDbEntity
  8
BLOCKS
  6
Continuous
100
AcDbLine
 10
0.1400309663949872
 20
0.4014494420019878
 30
0.0
 11
0.0495281734450816
 21
0.4014494420019878
 31
0.0
  0
LWPOLYLINE
  5
CAC
330
C6D
100
AcDbEntity
  8
BLOCKS
  6
Continuous
100
AcDbPolyline
 90
       11
 70
   128
 43
0.0
 10
0.0596218357109172
 20
0.451449442001956
 10
0.0572533407255685
 20
0.4512647671108949
 10
0.0549431659474283
 20
0.4507152897463835
 10
0.0527481955464316
 20
0.4498145398647262
 10
0.0507224769786478
 20
0.4485846969175851
 10
0.0489158901581539
 20
0.4470560437197288
 10
0.0473729192481403
 20
0.4452662207863046
 10
0.0461315573131867
 20
0.4432592994980383
 10
0.0452223708041709
 20
0.441084696917585
 10
0.0446677469101485
 20
0.4387959589775506
 10
0.0444813423121229
 20
0.436449442001956
  0
LWPOLYLINE
  5
CAD
330
C6D
100
AcDbEntity
  8
BLOCKS
  6
Continuous
100
AcDbPolyline
 90
        9
 70
   128
 43
0.0
 10
0.0596218357109172
 20
0.446449442001956
 10
0.0576526598890848
 20
0.4462572948059984
 10
0.0557591583899773
 20
0.4456882373271015
 10
0.0540140974137683
 20
0.4447641381249719
 10
0.0524845386756931
 20
0.4435205098138045
 10
0.0512292622600069
 20
0.4420051443321223
 10
0.0502965077354236
 20
0.4402762763256192
 10
0.0497221203352308
 20
0.4384003452220873
 10
0.0495281734449816
 20
0.436449442001956
  0
LINE
  5
CAE
330
C6D
100
AcDbEntity
  8
BLOCKS
  6
Continuous
100
AcDbLine
 10
0.0149999999999852
 20
0.4514494420019423
 30
0.0
 11
0.0596218357109126
 21
0.4514494420019992
 31
0.0
  0
LINE
  5
CAF
330
C6D
100
AcDbEntity
  8
BLOCKS
  6
Continuous
100
AcDbLine
 10
0.1207984719144395
 20
0.4514494420019992
 30
0.0
 11
0.3953103059806142
 21
0.4514494420019992
 31
0.0
  0
LINE
  5
CB0
330
C6D
100
AcDbEntity
  8
BLOCKS
  6
Continuous
100
AcDbLine
 10
0.366749454361069
 20
-0.0000000000000023
 30
0.0
 11
1.104567806709154
 21
0.0167434406814073
 31
0.0
  0
LINE
  5
CB1
330
C6D
100
AcDbEntity
  8
BLOCKS
  6
Continuous
100
AcDbLine
 10
0.366749454361069
 20
0.0050012872847537
 30
0.0
 11
1.104454370041365
 21
0.0217421537280393
 31
0.0
  0
LINE
  5
CB2
330
C6D
100
AcDbEntity
  8
BLOCKS
  6
Continuous
100
AcDbLine
 10
0.9545831195991912
 20
0.4514494420019992
 30
0.0
 11
1.301775190371357
 21
0.4514494420019992
 31
0.0
  0
ENDBLK
  5
CB4
330
C6D
100
AcDbEntity
  8
0
100
AcDbBlockEnd
  0
ENDSEC
  0
SECTION
  2
ENTITIES
  0
INSERT
  5
C07
330
1F
100
AcDbEntity
  8
cotas
100
AcDbBlockReference
  2
802200PL
 10
74.90096466776879
 20
184.2139418199032
 30
0.0
  0
INSERT
  5
C39
330
1F
100
AcDbEntity
  8
cotas
100
AcDbBlockReference
  2
802200AF
 10
77.41771433466408
 20
183.4337277568429
 30
0.0
  0
INSERT
  5
C6C
330
1F
100
AcDbEntity
  8
cotas
100
AcDbBlockReference
  2
802200AL
 10
78.32078177501205
 20
183.4336325099762
 30
0.0
  0
INSERT
  5
CB5
330
1F
100
AcDbEntity
  8
cotas
100
AcDbBlockReference
  2
802200CT
 10
80.38218175696147
 20
183.4346422294209
 30
0.0
  0
ENDSEC
  0
SECTION
  2
OBJECTS
  0
DICTIONARY
  5
C
330
0
100
AcDbDictionary
281
     1
  3
ACAD_COLOR
350
BA9
  3
ACAD_GROUP
350
D
  3
ACAD_LAYOUT
350
1A
  3
ACAD_MATERIAL
350
BA8
  3
ACAD_MLEADERSTYLE
350
CFF
  3
ACAD_MLINESTYLE
350
17
  3
ACAD_PLOTSETTINGS
350
19
  3
ACAD_PLOTSTYLENAME
350
E
  3
ACAD_SCALELIST
350
CED
  3
ACAD_TABLESTYLE
350
BAA
  3
ACAD_VISUALSTYLE
350
CD9
  3
ACDB_RECOMPOSE_DATA
350
D2C
  3
AcDbVariableDictionary
350
3D
  3
ASE_INDEX_DICTIONARY
350
B91
  3
DWGPROPS
350
D2D
  0
DICTIONARY
  5
D05
330
10
100
AcDbDictionary
280
     1
281
     1
  3
ADSK_XREC_LAYER_RECONCILED
360
D06
  0
DICTIONARY
  5
D07
330
2F
100
AcDbDictionary
280
     1
281
     1
  3
ADSK_XREC_LAYER_RECONCILED
360
D08
  0
DICTIONARY
  5
D09
330
30
100
AcDbDictionary
280
     1
281
     1
  3
ADSK_XREC_LAYER_RECONCILED
360
D0A
  0
DICTIONARY
  5
D0B
330
31
100
AcDbDictionary
280
     1
281
     1
  3
ADSK_XREC_LAYER_RECONCILED
360
D0C
  0
DICTIONARY
  5
D0D
330
32
100
AcDbDictionary
280
     1
281
     1
  3
ADSK_XREC_LAYER_RECONCILED
360
D0E
  0
DICTIONARY
  5
D0F
330
33
100
AcDbDictionary
280
     1
281
     1
  3
ADSK_XREC_LAYER_RECONCILED
360
D10
  0
DICTIONARY
  5
D11
330
34
100
AcDbDictionary
280
     1
281
     1
  3
ADSK_XREC_LAYER_RECONCILED
360
D12
  0
DICTIONARY
  5
D13
330
35
100
AcDbDictionary
280
     1
281
     1
  3
ADSK_XREC_LAYER_RECONCILED
360
D14
  0
DICTIONARY
  5
D15
330
36
100
AcDbDictionary
280
     1
281
     1
  3
ADSK_XREC_LAYER_RECONCILED
360
D16
  0
DICTIONARY
  5
D17
330
37
100
AcDbDictionary
280
     1
281
     1
  3
ADSK_XREC_LAYER_RECONCILED
360
D18
  0
DICTIONARY
  5
D19
330
5D6
100
AcDbDictionary
280
     1
281
     1
  3
ADSK_XREC_LAYER_RECONCILED
360
D1A
  0
DICTIONARY
  5
D1B
330
8AF
100
AcDbDictionary
280
     1
281
     1
  3
ADSK_XREC_LAYER_RECONCILED
360
D1C
  0
DICTIONARY
  5
D1D
330
8F8
100
AcDbDictionary
280
     1
281
     1
  3
ADSK_XREC_LAYER_RECONCILED
360
D1E
  0
DICTIONARY
  5
D1F
330
91D
100
AcDbDictionary
280
     1
281
     1
  3
ADSK_XREC_LAYER_RECONCILED
360
D20
  0
DICTIONARY
  5
D21
330
BA5
100
AcDbDictionary
280
     1
281
     1
  3
ADSK_XREC_LAYER_RECONCILED
360
D22
  0
DICTIONARY
  5
D23
330
BB0
100
AcDbDictionary
280
     1
281
     1
  3
ADSK_XREC_LAYER_RECONCILED
360
D24
  0
DICTIONARY
  5
BA9
102
{ACAD_REACTORS
330
C
102
}
330
C
100
AcDbDictionary
281
     1
  0
DICTIONARY
  5
D
102
{ACAD_REACTORS
330
C
102
}
330
C
100
AcDbDictionary
281
     1
  0
DICTIONARY
  5
1A
102
{ACAD_REACTORS
330
C
102
}
330
C
100
AcDbDictionary
281
     1
  3
Layout1
350
1E
  3
Layout2
350
26
  3
Model
350
22
  0
DICTIONARY
  5
BA8
102
{ACAD_REACTORS
330
C
102
}
330
C
100
AcDbDictionary
281
     1
  3
ByBlock
350
CC9
  3
ByLayer
350
CC1
  3
Global
350
CD1
  0
DICTIONARY
  5
CFF
102
{ACAD_REACTORS
330
C
102
}
330
C
100
AcDbDictionary
281
     1
  3
Standard
350
D00
  0
DICTIONARY
  5
17
102
{ACAD_REACTORS
330
C
102
}
330
C
100
AcDbDictionary
281
     1
  3
Standard
350
18
  0
DICTIONARY
  5
19
102
{ACAD_REACTORS
330
C
102
}
330
C
100
AcDbDictionary
281
     1
  0
ACDBDICTIONARYWDFLT
  5
E
102
{ACAD_REACTORS
330
C
102
}
330
C
100
AcDbDictionary
281
     1
  3
Normal
350
F
100
AcDbDictionaryWithDefault
340
F
  0
DICTIONARY
  5
CED
102
{ACAD_REACTORS
330
C
102
}
330
C
100
AcDbDictionary
281
     1
  3
A0
350
CEE
  3
A1
350
CEF
  3
A2
350
CF0
  3
A3
350
CF1
  3
A4
350
CF2
  3
A5
350
CF3
  3
A6
350
CF4
  3
A7
350
CF5
  3
A8
350
CF6
  3
A9
350
CF7
  3
B0
350
CF8
  3
B1
350
CF9
  3
B2
350
CFA
  3
B3
350
CFB
  3
B4
350
CFC
  3
B5
350
CFD
  3
B6
350
CFE
  0
DICTIONARY
  5
BAA
102
{ACAD_REACTORS
330
C
102
}
330
C
100
AcDbDictionary
281
     1
  3
Standard
350
BAB
  0
DICTIONARY
  5
CD9
102
{ACAD_REACTORS
330
C
102
}
330
C
100
AcDbDictionary
281
     1
  3
2dWireframe
350
CDF
  3
3D Hidden
350
CE1
  3
3dWireframe
350
CE0
  3
Basic
350
CDE
  3
Brighten
350
CE5
  3
ColorChange
350
CE9
  3
Conceptual
350
CE2
  3
Dim
350
CE4
  3
EdgeColorOff
350
CEC
  3
Facepattern
350
CE8
  3
Flat
350
CDA
  3
FlatWithEdges
350
CDB
  3
Gouraud
350
CDC
  3
GouraudWithEdges
350
CDD
  3
JitterOff
350
CEA
  3
Linepattern
350
CE7
  3
OverhangOff
350
CEB
  3
Realistic
350
CE3
  3
Thicken
350
CE6
  0
XRECORD
  5
D2C
102
{ACAD_REACTORS
330
C
102
}
330
C
100
AcDbXrecord
280
     1
 90
        1
330
BAB
  0
DICTIONARY
  5
3D
102
{ACAD_REACTORS
330
C
102
}
330
C
100
AcDbDictionary
281
     1
  3
CANNOSCALE
350
D26
  3
CMLEADERSTYLE
350
D25
  3
CTABLESTYLE
350
CBE
  3
DIMASSOC
350
3F
  3
HIDETEXT
350
3E
  3
INDEXCTL
350
D28
  3
PROJECTNAME
350
CBF
  3
SORTENTS
350
D27
  3
XCLIPFRAME
350
D29
  0
DICTIONARY
  5
B91
102
{ACAD_REACTORS
330
C
102
}
330
C
100
AcDbDictionary
281
     1
  3
ASEBlockHierarchyIndexRecord
350
B92
1001
DCO15
1040
1485069952.593
  0
XRECORD
  5
D2D
102
{ACAD_REACTORS
330
C
102
}
330
C
100
AcDbXrecord
280
     1
  1
DWGPROPS COOKIE
  2

  3

  4

  6

  7

  8
Julio
  9

300
=
301
=
302
=
303
=
304
=
305
=
306
=
307
=
308
=
309
=
 40
0.0015861921296296
 41
2453578.459966725
 42
2456150.434659097
  1

 90
        0
  0
XRECORD
  5
D06
102
{ACAD_REACTORS
330
D05
102
}
330
D05
100
AcDbXrecord
280
     1
290
     1
  0
XRECORD
  5
D08
102
{ACAD_REACTORS
330
D07
102
}
330
D07
100
AcDbXrecord
280
     1
290
     1
  0
XRECORD
  5
D0A
102
{ACAD_REACTORS
330
D09
102
}
330
D09
100
AcDbXrecord
280
     1
290
     1
  0
XRECORD
  5
D0C
102
{ACAD_REACTORS
330
D0B
102
}
330
D0B
100
AcDbXrecord
280
     1
290
     1
  0
XRECORD
  5
D0E
102
{ACAD_REACTORS
330
D0D
102
}
330
D0D
100
AcDbXrecord
280
     1
290
     1
  0
XRECORD
  5
D10
102
{ACAD_REACTORS
330
D0F
102
}
330
D0F
100
AcDbXrecord
280
     1
290
     1
  0
XRECORD
  5
D12
102
{ACAD_REACTORS
330
D11
102
}
330
D11
100
AcDbXrecord
280
     1
290
     1
  0
XRECORD
  5
D14
102
{ACAD_REACTORS
330
D13
102
}
330
D13
100
AcDbXrecord
280
     1
290
     1
  0
XRECORD
  5
D16
102
{ACAD_REACTORS
330
D15
102
}
330
D15
100
AcDbXrecord
280
     1
290
     1
  0
XRECORD
  5
D18
102
{ACAD_REACTORS
330
D17
102
}
330
D17
100
AcDbXrecord
280
     1
290
     1
  0
XRECORD
  5
D1A
102
{ACAD_REACTORS
330
D19
102
}
330
D19
100
AcDbXrecord
280
     1
290
     1
  0
XRECORD
  5
D1C
102
{ACAD_REACTORS
330
D1B
102
}
330
D1B
100
AcDbXrecord
280
     1
290
     1
  0
XRECORD
  5
D1E
102
{ACAD_REACTORS
330
D1D
102
}
330
D1D
100
AcDbXrecord
280
     1
290
     1
  0
XRECORD
  5
D20
102
{ACAD_REACTORS
330
D1F
102
}
330
D1F
100
AcDbXrecord
280
     1
290
     1
  0
XRECORD
  5
D22
102
{ACAD_REACTORS
330
D21
102
}
330
D21
100
AcDbXrecord
280
     1
290
     1
  0
XRECORD
  5
D24
102
{ACAD_REACTORS
330
D23
102
}
330
D23
100
AcDbXrecord
280
     1
290
     1
  0
LAYOUT
  5
1E
102
{ACAD_XDICTIONARY
360
D2E
102
}
102
{ACAD_REACTORS
330
1A
102
}
330
1A
100
AcDbPlotSettings
  1

  2
Ploter HP500
  4

  6

 40
0.0
 41
0.0
 42
0.0
 43
0.0
 44
0.0
 45
0.0
 46
0.0
 47
0.0
 48
0.0
 49
0.0
140
0.0
141
0.0
142
1.0
143
1.0
 70
   688
 72
     0
 73
     0
 74
     5
  7
monochrome.ctb
 75
    16
147
1.0
148
0.0
149
0.0
100
AcDbLayout
  1
Layout1
 70
     1
 71
     1
 10
0.0
 20
0.0
 11
420.0
 21
297.0
 12
0.0
 22
0.0
 32
0.0
 14
1.000000000000000E+20
 24
1.000000000000000E+20
 34
1.000000000000000E+20
 15
-1.000000000000000E+20
 25
-1.000000000000000E+20
 35
-1.000000000000000E+20
146
0.0
 13
0.0
 23
0.0
 33
0.0
 16
1.0
 26
0.0
 36
0.0
 17
0.0
 27
1.0
 37
0.0
 76
     0
330
1B
  0
LAYOUT
  5
26
102
{ACAD_XDICTIONARY
360
D32
102
}
102
{ACAD_REACTORS
330
1A
102
}
330
1A
100
AcDbPlotSettings
  1

  2
Ploter HP500
  4

  6

 40
0.0
 41
0.0
 42
0.0
 43
0.0
 44
0.0
 45
0.0
 46
0.0
 47
0.0
 48
0.0
 49
0.0
140
0.0
141
0.0
142
1.0
143
1.0
 70
   688
 72
     0
 73
     0
 74
     5
  7
monochrome.ctb
 75
    16
147
1.0
148
0.0
149
0.0
100
AcDbLayout
  1
Layout2
 70
     1
 71
     2
 10
0.0
 20
0.0
 11
12.0
 21
9.0
 12
0.0
 22
0.0
 32
0.0
 14
0.0
 24
0.0
 34
0.0
 15
0.0
 25
0.0
 35
0.0
146
0.0
 13
0.0
 23
0.0
 33
0.0
 16
1.0
 26
0.0
 36
0.0
 17
0.0
 27
1.0
 37
0.0
 76
     0
330
23
  0
LAYOUT
  5
22
102
{ACAD_XDICTIONARY
360
D30
102
}
102
{ACAD_REACTORS
330
1A
102
}
330
1A
100
AcDbPlotSettings
  1

  2
Ploter HP500
  4
User268
  6

 40
4.995333194732666
 41
16.97565841674804
 42
4.995330810546875
 43
16.97567749023437
 44
209.9733276367187
 45
296.9259948730469
 46
0.0
 47
0.0
 48
0.0
 49
0.0
140
0.0
141
0.0
142
1.0
143
1.0
 70
 11952
 72
     1
 73
     1
 74
     0
  7

 75
     0
147
1.0
148
-427.5957866592534
149
7.362384574453926
100
AcDbLayout
  1
Model
 70
     1
 71
     0
 10
0.0
 20
0.0
 11
12.0
 21
9.0
 12
0.0
 22
0.0
 32
0.0
 14
0.0
 24
0.0
 34
0.0
 15
0.0
 25
0.0
 35
0.0
146
0.0
 13
0.0
 23
0.0
 33
0.0
 16
1.0
 26
0.0
 36
0.0
 17
0.0
 27
1.0
 37
0.0
 76
     0
330
1F
331
CB6
  0
MATERIAL
  5
CC9
102
{ACAD_XDICTIONARY
360
CCA
102
}
102
{ACAD_REACTORS
330
BA8
102
}
330
BA8
100
AcDbMaterial
  1
ByBlock
 72
     0
 43
0.0008202099737533
 43
0.0
 43
0.0
 43
0.0
 43
0.0
 43
0.0008202099737533
 43
0.0
 43
0.0
 43
0.0
 43
0.0
 43
1.0
 43
0.0
 43
0.0
 43
0.0
 43
0.0
 43
1.0
 77
     0
 47
0.0008202099737533
 47
0.0
 47
0.0
 47
0.0
 47
0.0
 47
0.0008202099737533
 47
0.0
 47
0.0
 47
0.0
 47
0.0
 47
1.0
 47
0.0
 47
0.0
 47
0.0
 47
0.0
 47
1.0
171
     0
 49
0.0008202099737533
 49
0.0
 49
0.0
 49
0.0
 49
0.0
 49
0.0008202099737533
 49
0.0
 49
0.0
 49
0.0
 49
0.0
 49
1.0
 49
0.0
 49
0.0
 49
0.0
 49
0.0
 49
1.0
175
     0
142
0.0008202099737533
142
0.0
142
0.0
142
0.0
142
0.0
142
0.0008202099737533
142
0.0
142
0.0
142
0.0
142
0.0
142
1.0
142
0.0
142
0.0
142
0.0
142
0.0
142
1.0
179
     0
144
0.0008202099737533
144
0.0
144
0.0
144
0.0
144
0.0
144
0.0008202099737533
144
0.0
144
0.0
144
0.0
144
0.0
144
1.0
144
0.0
144
0.0
144
0.0
144
0.0
144
1.0
147
0.0008202099737533
147
0.0
147
0.0
147
0.0
147
0.0
147
0.0008202099737533
147
0.0
147
0.0
147
0.0
147
0.0
147
1.0
147
0.0
147
0.0
147
0.0
147
0.0
147
1.0
  0
MATERIAL
  5
CC1
102
{ACAD_XDICTIONARY
360
CC2
102
}
102
{ACAD_REACTORS
330
BA8
102
}
330
BA8
100
AcDbMaterial
  1
ByLayer
 72
     0
 43
0.0008202099737533
 43
0.0
 43
0.0
 43
0.0
 43
0.0
 43
0.0008202099737533
 43
0.0
 43
0.0
 43
0.0
 43
0.0
 43
1.0
 43
0.0
 43
0.0
 43
0.0
 43
0.0
 43
1.0
 77
     0
 47
0.0008202099737533
 47
0.0
 47
0.0
 47
0.0
 47
0.0
 47
0.0008202099737533
 47
0.0
 47
0.0
 47
0.0
 47
0.0
 47
1.0
 47
0.0
 47
0.0
 47
0.0
 47
0.0
 47
1.0
171
     0
 49
0.0008202099737533
 49
0.0
 49
0.0
 49
0.0
 49
0.0
 49
0.0008202099737533
 49
0.0
 49
0.0
 49
0.0
 49
0.0
 49
1.0
 49
0.0
 49
0.0
 49
0.0
 49
0.0
 49
1.0
175
     0
142
0.0008202099737533
142
0.0
142
0.0
142
0.0
142
0.0
142
0.0008202099737533
142
0.0
142
0.0
142
0.0
142
0.0
142
1.0
142
0.0
142
0.0
142
0.0
142
0.0
142
1.0
179
     0
144
0.0008202099737533
144
0.0
144
0.0
144
0.0
144
0.0
144
0.0008202099737533
144
0.0
144
0.0
144
0.0
144
0.0
144
1.0
144
0.0
144
0.0
144
0.0
144
0.0
144
1.0
147
0.0008202099737533
147
0.0
147
0.0
147
0.0
147
0.0
147
0.0008202099737533
147
0.0
147
0.0
147
0.0
147
0.0
147
1.0
147
0.0
147
0.0
147
0.0
147
0.0
147
1.0
  0
MATERIAL
  5
CD1
102
{ACAD_XDICTIONARY
360
CD2
102
}
102
{ACAD_REACTORS
330
BA8
102
}
330
BA8
100
AcDbMaterial
  1
Global
 72
     0
 43
0.0008202099737533
 43
0.0
 43
0.0
 43
0.0
 43
0.0
 43
0.0008202099737533
 43
0.0
 43
0.0
 43
0.0
 43
0.0
 43
1.0
 43
0.0
 43
0.0
 43
0.0
 43
0.0
 43
1.0
 77
     0
 47
0.0008202099737533
 47
0.0
 47
0.0
 47
0.0
 47
0.0
 47
0.0008202099737533
 47
0.0
 47
0.0
 47
0.0
 47
0.0
 47
1.0
 47
0.0
 47
0.0
 47
0.0
 47
0.0
 47
1.0
171
     0
 49
0.0008202099737533
 49
0.0
 49
0.0
 49
0.0
 49
0.0
 49
0.0008202099737533
 49
0.0
 49
0.0
 49
0.0
 49
0.0
 49
1.0
 49
0.0
 49
0.0
 49
0.0
 49
0.0
 49
1.0
175
     0
142
0.0008202099737533
142
0.0
142
0.0
142
0.0
142
0.0
142
0.0008202099737533
142
0.0
142
0.0
142
0.0
142
0.0
142
1.0
142
0.0
142
0.0
142
0.0
142
0.0
142
1.0
179
     0
144
0.0008202099737533
144
0.0
144
0.0
144
0.0
144
0.0
144
0.0008202099737533
144
0.0
144
0.0
144
0.0
144
0.0
144
1.0
144
0.0
144
0.0
144
0.0
144
0.0
144
1.0
147
0.0008202099737533
147
0.0
147
0.0
147
0.0
147
0.0
147
0.0008202099737533
147
0.0
147
0.0
147
0.0
147
0.0
147
1.0
147
0.0
147
0.0
147
0.0
147
0.0
147
1.0
  0
MLEADERSTYLE
  5
D00
102
{ACAD_REACTORS
330
CFF
102
}
330
CFF
100
AcDbMLeaderStyle
170
     2
171
     1
172
     0
 90
        2
 40
0.0
 41
0.0
173
     1
 91
-1056964608
340
14
 92
       -2
290
     1
 42
2.0
291
     1
 43
0.36
  3
Standard
 44
4.0
300

342
11
174
     1
178
     6
175
     1
176
     0
 93
-1056964608
 45
4.0
292
     0
297
     0
 46
4.0
 94
-1056964608
 47
1.0
 49
1.0
140
1.0
293
     1
141
0.0
294
     1
177
     0
142
1.0
295
     0
296
     0
143
0.125
1001
ACAD_MLEADERVER
1070
     2
  0
MLINESTYLE
  5
18
102
{ACAD_REACTORS
330
17
102
}
330
17
100
AcDbMlineStyle
  2
STANDARD
 70
     0
  3

 62
   256
 51
90.0
 52
90.0
 71
     2
 49
0.5
 62
   256
  6
BYLAYER
 49
-0.5
 62
   256
  6
BYLAYER
  0
ACDBPLACEHOLDER
  5
F
102
{ACAD_REACTORS
330
E
102
}
330
E
  0
SCALE
  5
CEE
102
{ACAD_REACTORS
330
CED
102
}
330
CED
100
AcDbScale
 70
     0
300
1:1
140
1.0
141
1.0
290
     1
  0
SCALE
  5
CEF
102
{ACAD_REACTORS
330
CED
102
}
330
CED
100
AcDbScale
 70
     0
300
1:2
140
1.0
141
2.0
290
     0
  0
SCALE
  5
CF0
102
{ACAD_REACTORS
330
CED
102
}
330
CED
100
AcDbScale
 70
     0
300
1:4
140
1.0
141
4.0
290
     0
  0
SCALE
  5
CF1
102
{ACAD_REACTORS
330
CED
102
}
330
CED
100
AcDbScale
 70
     0
300
1:5
140
1.0
141
5.0
290
     0
  0
SCALE
  5
CF2
102
{ACAD_REACTORS
330
CED
102
}
330
CED
100
AcDbScale
 70
     0
300
1:8
140
1.0
141
8.0
290
     0
  0
SCALE
  5
CF3
102
{ACAD_REACTORS
330
CED
102
}
330
CED
100
AcDbScale
 70
     0
300
1:10
140
1.0
141
10.0
290
     0
  0
SCALE
  5
CF4
102
{ACAD_REACTORS
330
CED
102
}
330
CED
100
AcDbScale
 70
     0
300
1:16
140
1.0
141
16.0
290
     0
  0
SCALE
  5
CF5
102
{ACAD_REACTORS
330
CED
102
}
330
CED
100
AcDbScale
 70
     0
300
1:20
140
1.0
141
20.0
290
     0
  0
SCALE
  5
CF6
102
{ACAD_REACTORS
330
CED
102
}
330
CED
100
AcDbScale
 70
     0
300
1:30
140
1.0
141
30.0
290
     0
  0
SCALE
  5
CF7
102
{ACAD_REACTORS
330
CED
102
}
330
CED
100
AcDbScale
 70
     0
300
1:40
140
1.0
141
40.0
290
     0
  0
SCALE
  5
CF8
102
{ACAD_REACTORS
330
CED
102
}
330
CED
100
AcDbScale
 70
     0
300
1:50
140
1.0
141
50.0
290
     0
  0
SCALE
  5
CF9
102
{ACAD_REACTORS
330
CED
102
}
330
CED
100
AcDbScale
 70
     0
300
1:100
140
1.0
141
100.0
290
     0
  0
SCALE
  5
CFA
102
{ACAD_REACTORS
330
CED
102
}
330
CED
100
AcDbScale
 70
     0
300
2:1
140
2.0
141
1.0
290
     0
  0
SCALE
  5
CFB
102
{ACAD_REACTORS
330
CED
102
}
330
CED
100
AcDbScale
 70
     0
300
4:1
140
4.0
141
1.0
290
     0
  0
SCALE
  5
CFC
102
{ACAD_REACTORS
330
CED
102
}
330
CED
100
AcDbScale
 70
     0
300
8:1
140
8.0
141
1.0
290
     0
  0
SCALE
  5
CFD
102
{ACAD_REACTORS
330
CED
102
}
330
CED
100
AcDbScale
 70
     0
300
10:1
140
10.0
141
1.0
290
     0
  0
SCALE
  5
CFE
102
{ACAD_REACTORS
330
CED
102
}
330
CED
100
AcDbScale
 70
     0
300
100:1
140
100.0
141
1.0
290
     0
  0
TABLESTYLE
  5
BAB
102
{ACAD_XDICTIONARY
360
D2A
102
}
102
{ACAD_REACTORS
330
BAA
102
}
330
BAA
100
AcDbTableStyle
  3
Standard
 70
     0
 71
     0
 40
1.5
 41
1.5
280
     0
281
     0
  7
Standard
140
4.5
170
     2
 62
     0
 63
     7
283
     0
274
    -2
284
     1
 64
     0
275
    -2
285
     1
 65
     0
276
    -2
286
     1
 66
     0
277
    -2
287
     1
 67
     0
278
    -2
288
     1
 68
     0
279
    -2
289
     1
 69
     0
  7
Standard
140
6.0
170
     5
 62
     0
 63
     7
283
     0
274
    -2
284
     1
 64
     0
275
    -2
285
     1
 65
     0
276
    -2
286
     1
 66
     0
277
    -2
287
     1
 67
     0
278
    -2
288
     1
 68
     0
279
    -2
289
     1
 69
     0
  7
Standard
140
4.5
170
     5
 62
     0
 63
     7
283
     0
274
    -2
284
     1
 64
     0
275
    -2
285
     1
 65
     0
276
    -2
286
     1
 66
     0
277
    -2
287
     1
 67
     0
278
    -2
288
     1
 68
     0
279
    -2
289
     1
 69
     0
  0
VISUALSTYLE
  5
CDF
102
{ACAD_XDICTIONARY
360
D42
102
}
102
{ACAD_REACTORS
330
CD9
102
}
330
CD9
100
AcDbVisualStyle
  2
2dWireframe
 70
     4
 71
     0
 72
     2
 73
     0
 90
        0
 40
-0.6
 41
-30.0
 62
     5
 63
     7
 74
     1
 91
        4
 64
     7
 65
   257
 75
     1
175
     1
 42
1.0
 92
        0
 66
   257
 43
1.0
 76
     1
 77
     6
 78
     2
 67
     7
 79
     5
170
     0
171
     0
290
     0
174
     0
 93
        1
 44
0.0
173
     0
291
     0
 45
0.0
1001
ACAD
1000
AcDbSavedByObjectVersion
1070
     0
  0
VISUALSTYLE
  5
CE1
102
{ACAD_XDICTIONARY
360
D46
102
}
102
{ACAD_REACTORS
330
CD9
102
}
330
CD9
100
AcDbVisualStyle
  2
3D Hidden
 70
     6
 71
     1
 72
     2
 73
     2
 90
        0
 40
-0.6
 41
-30.0
 62
     5
 63
     7
 74
     2
 91
        2
 64
     7
 65
   257
 75
     2
175
     1
 42
179.0
 92
        0
 66
   257
 43
1.0
 76
     1
 77
     6
 78
     2
 67
     7
 79
     3
170
     0
171
     0
290
     0
174
     0
 93
        1
 44
0.0
173
     0
291
     0
 45
0.0
1001
ACAD
1000
AcDbSavedByObjectVersion
1070
     0
  0
VISUALSTYLE
  5
CE0
102
{ACAD_XDICTIONARY
360
D44
102
}
102
{ACAD_REACTORS
330
CD9
102
}
330
CD9
100
AcDbVisualStyle
  2
3dWireframe
 70
     5
 71
     0
 72
     2
 73
     0
 90
        0
 40
-0.6
 41
-30.0
 62
     5
 63
     7
 74
     1
 91
        4
 64
     7
 65
   257
 75
     1
175
     1
 42
1.0
 92
        0
 66
   257
 43
1.0
 76
     1
 77
     6
 78
     2
 67
     7
 79
     5
170
     0
171
     0
290
     0
174
     0
 93
        1
 44
0.0
173
     0
291
     0
 45
0.0
1001
ACAD
1000
AcDbSavedByObjectVersion
1070
     0
  0
VISUALSTYLE
  5
CDE
102
{ACAD_XDICTIONARY
360
D40
102
}
102
{ACAD_REACTORS
330
CD9
102
}
330
CD9
100
AcDbVisualStyle
  2
Basic
 70
     7
 71
     1
 72
     0
 73
     1
 90
        0
 40
-0.6
 41
-30.0
 62
     5
 63
     7
 74
     0
 91
        4
 64
     7
 65
   257
 75
     1
175
     1
 42
1.0
 92
        8
 66
     7
 43
1.0
 76
     1
 77
     6
 78
     2
 67
     7
 79
     5
170
     0
171
     0
290
     0
174
     0
 93
        1
 44
0.0
173
     0
291
     1
 45
0.0
1001
ACAD
1000
AcDbSavedByObjectVersion
1070
     0
  0
VISUALSTYLE
  5
CE5
102
{ACAD_XDICTIONARY
360
D4E
102
}
102
{ACAD_REACTORS
330
CD9
102
}
330
CD9
100
AcDbVisualStyle
  2
Brighten
 70
    12
 71
     2
 72
     2
 73
     0
 90
        0
 40
-0.6
 41
-30.0
 62
     5
 63
     7
 74
     1
 91
        4
 64
     7
 65
   257
 75
     1
175
     1
 42
1.0
 92
        8
 66
     7
 43
1.0
 76
     1
 77
     6
 78
     2
 67
     7
 79
     5
170
     0
171
     0
290
     0
174
     0
 93
        1
 44
50.0
173
     0
291
     1
 45
0.0
1001
ACAD
1000
AcDbSavedByObjectVersion
1070
     0
  0
VISUALSTYLE
  5
CE9
102
{ACAD_XDICTIONARY
360
D56
102
}
102
{ACAD_REACTORS
330
CD9
102
}
330
CD9
100
AcDbVisualStyle
  2
ColorChange
 70
    16
 71
     2
 72
     2
 73
     3
 90
        0
 40
-0.6
 41
-30.0
 62
     5
 63
     8
 74
     1
 91
        4
 64
     7
 65
   257
 75
     1
175
     1
 42
1.0
 92
        8
 66
     8
 43
1.0
 76
     1
 77
     6
 78
     2
 67
     7
 79
     5
170
     0
171
     0
290
     0
174
     0
 93
        1
 44
0.0
173
     0
291
     1
 45
0.0
1001
ACAD
1000
AcDbSavedByObjectVersion
1070
     0
  0
VISUALSTYLE
  5
CE2
102
{ACAD_XDICTIONARY
360
D48
102
}
102
{ACAD_REACTORS
330
CD9
102
}
330
CD9
100
AcDbVisualStyle
  2
Conceptual
 70
     9
 71
     3
 72
     2
 73
     0
 90
        0
 40
-0.6
 41
-30.0
 62
     5
 63
     7
 74
     2
 91
        2
 64
     7
 65
   257
 75
     1
175
     1
 42
179.0
 92
        8
 66
     7
 43
1.0
 76
     1
 77
     6
 78
     2
 67
     7
 79
     3
170
     0
171
     0
290
     0
174
     0
 93
        1
 44
0.0
173
     0
291
     0
 45
0.0
1001
ACAD
1000
AcDbSavedByObjectVersion
1070
     0
  0
VISUALSTYLE
  5
CE4
102
{ACAD_XDICTIONARY
360
D4C
102
}
102
{ACAD_REACTORS
330
CD9
102
}
330
CD9
100
AcDbVisualStyle
  2
Dim
 70
    11
 71
     2
 72
     2
 73
     0
 90
        0
 40
-0.6
 41
-30.0
 62
     5
 63
     7
 74
     1
 91
        4
 64
     7
 65
   257
 75
     1
175
     1
 42
1.0
 92
        8
 66
     7
 43
1.0
 76
     1
 77
     6
 78
     2
 67
     7
 79
     5
170
     0
171
     0
290
     0
174
     0
 93
        1
 44
-50.0
173
     0
291
     1
 45
0.0
1001
ACAD
1000
AcDbSavedByObjectVersion
1070
     0
  0
VISUALSTYLE
  5
CEC
102
{ACAD_XDICTIONARY
360
D5C
102
}
102
{ACAD_REACTORS
330
CD9
102
}
330
CD9
100
AcDbVisualStyle
  2
EdgeColorOff
 70
    22
 71
     2
 72
     2
 73
     0
 90
        0
 40
-0.6
 41
-30.0
 62
     5
 63
     7
 74
     1
 91
        4
 64
     7
 65
   257
 75
     1
175
     1
 42
1.0
 92
        8
 66
     7
 43
1.0
 76
     1
 77
     6
 78
     2
 67
     7
 79
     5
170
     0
171
     0
290
     0
174
     0
 93
        1
 44
0.0
173
     0
291
     1
 45
0.0
1001
ACAD
1000
AcDbSavedByObjectVersion
1070
     0
  0
VISUALSTYLE
  5
CE8
102
{ACAD_XDICTIONARY
360
D54
102
}
102
{ACAD_REACTORS
330
CD9
102
}
330
CD9
100
AcDbVisualStyle
  2
Facepattern
 70
    15
 71
     2
 72
     2
 73
     0
 90
        0
 40
-0.6
 41
-30.0
 62
     5
 63
     7
 74
     1
 91
        4
 64
     7
 65
   257
 75
     1
175
     1
 42
1.0
 92
        8
 66
     7
 43
1.0
 76
     1
 77
     6
 78
     2
 67
     7
 79
     5
170
     0
171
     0
290
     0
174
     0
 93
        1
 44
0.0
173
     0
291
     1
 45
0.0
1001
ACAD
1000
AcDbSavedByObjectVersion
1070
     0
  0
VISUALSTYLE
  5
CDA
102
{ACAD_XDICTIONARY
360
D38
102
}
102
{ACAD_REACTORS
330
CD9
102
}
330
CD9
100
AcDbVisualStyle
  2
Flat
 70
     0
 71
     2
 72
     1
 73
     1
 90
        2
 40
-0.6
 41
30.0
 62
     5
 63
     7
 74
     0
 91
        4
 64
     7
 65
   257
 75
     1
175
     1
 42
1.0
 92
        8
 66
     7
 43
1.0
 76
     1
 77
     6
 78
     2
 67
     7
 79
     5
170
     0
171
     0
290
     0
174
     0
 93
       13
 44
0.0
173
     0
291
     1
 45
0.0
1001
ACAD
1000
AcDbSavedByObjectVersion
1070
     0
  0
VISUALSTYLE
  5
CDB
102
{ACAD_XDICTIONARY
360
D3A
102
}
102
{ACAD_REACTORS
330
CD9
102
}
330
CD9
100
AcDbVisualStyle
  2
FlatWithEdges
 70
     1
 71
     2
 72
     1
 73
     1
 90
        2
 40
-0.6
 41
30.0
 62
     5
 63
     7
 74
     1
 91
        4
 64
     7
 65
   257
 75
     1
175
     1
 42
1.0
 92
        0
 66
   257
 43
1.0
 76
     1
 77
     6
 78
     2
 67
     7
 79
     5
170
     0
171
     0
290
     0
174
     0
 93
       13
 44
0.0
173
     0
291
     1
 45
0.0
1001
ACAD
1000
AcDbSavedByObjectVersion
1070
     0
  0
VISUALSTYLE
  5
CDC
102
{ACAD_XDICTIONARY
360
D3C
102
}
102
{ACAD_REACTORS
330
CD9
102
}
330
CD9
100
AcDbVisualStyle
  2
Gouraud
 70
     2
 71
     2
 72
     2
 73
     1
 90
        2
 40
-0.6
 41
30.0
 62
     5
 63
     7
 74
     0
 91
        4
 64
     7
 65
   257
 75
     1
175
     1
 42
1.0
 92
        0
 66
     7
 43
1.0
 76
     1
 77
     6
 78
     2
 67
     7
 79
     5
170
     0
171
     0
290
     0
174
     0
 93
       13
 44
0.0
173
     0
291
     1
 45
0.0
1001
ACAD
1000
AcDbSavedByObjectVersion
1070
     0
  0
VISUALSTYLE
  5
CDD
102
{ACAD_XDICTIONARY
360
D3E
102
}
102
{ACAD_REACTORS
330
CD9
102
}
330
CD9
100
AcDbVisualStyle
  2
GouraudWithEdges
 70
     3
 71
     2
 72
     2
 73
     1
 90
        2
 40
-0.6
 41
30.0
 62
     5
 63
     7
 74
     1
 91
        4
 64
     7
 65
   257
 75
     1
175
     1
 42
1.0
 92
        0
 66
   257
 43
1.0
 76
     1
 77
     6
 78
     2
 67
     7
 79
     5
170
     0
171
     0
290
     0
174
     0
 93
       13
 44
0.0
173
     0
291
     1
 45
0.0
1001
ACAD
1000
AcDbSavedByObjectVersion
1070
     0
  0
VISUALSTYLE
  5
CEA
102
{ACAD_XDICTIONARY
360
D58
102
}
102
{ACAD_REACTORS
330
CD9
102
}
330
CD9
100
AcDbVisualStyle
  2
JitterOff
 70
    20
 71
     2
 72
     2
 73
     0
 90
        0
 40
-0.6
 41
-30.0
 62
     5
 63
     7
 74
     1
 91
        4
 64
     7
 65
   257
 75
     1
175
     1
 42
1.0
 92
       10
 66
     7
 43
1.0
 76
     1
 77
     6
 78
     2
 67
     7
 79
     5
170
     0
171
     0
290
     0
174
     0
 93
        1
 44
0.0
173
     0
291
     1
 45
0.0
1001
ACAD
1000
AcDbSavedByObjectVersion
1070
     0
  0
VISUALSTYLE
  5
CE7
102
{ACAD_XDICTIONARY
360
D52
102
}
102
{ACAD_REACTORS
330
CD9
102
}
330
CD9
100
AcDbVisualStyle
  2
Linepattern
 70
    14
 71
     2
 72
     2
 73
     0
 90
        0
 40
-0.6
 41
-30.0
 62
     5
 63
     7
 74
     1
 91
        4
 64
     7
 65
   257
 75
     7
175
     7
 42
1.0
 92
        8
 66
     7
 43
1.0
 76
     1
 77
     6
 78
     2
 67
     7
 79
     5
170
     0
171
     0
290
     0
174
     0
 93
        1
 44
0.0
173
     0
291
     1
 45
0.0
1001
ACAD
1000
AcDbSavedByObjectVersion
1070
     0
  0
VISUALSTYLE
  5
CEB
102
{ACAD_XDICTIONARY
360
D5A
102
}
102
{ACAD_REACTORS
330
CD9
102
}
330
CD9
100
AcDbVisualStyle
  2
OverhangOff
 70
    21
 71
     2
 72
     2
 73
     0
 90
        0
 40
-0.6
 41
-30.0
 62
     5
 63
     7
 74
     1
 91
        4
 64
     7
 65
   257
 75
     1
175
     1
 42
1.0
 92
        9
 66
     7
 43
1.0
 76
     1
 77
     6
 78
     2
 67
     7
 79
     5
170
     0
171
     0
290
     0
174
     0
 93
        1
 44
0.0
173
     0
291
     1
 45
0.0
1001
ACAD
1000
AcDbSavedByObjectVersion
1070
     0
  0
VISUALSTYLE
  5
CE3
102
{ACAD_XDICTIONARY
360
D4A
102
}
102
{ACAD_REACTORS
330
CD9
102
}
330
CD9
100
AcDbVisualStyle
  2
Realistic
 70
     8
 71
     2
 72
     2
 73
     0
 90
        0
 40
-0.6
 41
-30.0
 62
     5
 63
     7
 74
     1
 91
        0
 64
     7
 65
   257
 75
     1
175
     1
 42
1.0
 92
        8
 66
     8
 43
1.0
 76
     1
 77
     6
 78
     2
 67
     7
 79
     5
170
     0
171
     0
290
     0
174
     0
 93
       13
 44
0.0
173
     0
291
     0
 45
0.0
1001
ACAD
1000
AcDbSavedByObjectVersion
1070
     0
  0
VISUALSTYLE
  5
CE6
102
{ACAD_XDICTIONARY
360
D50
102
}
102
{ACAD_REACTORS
330
CD9
102
}
330
CD9
100
AcDbVisualStyle
  2
Thicken
 70
    13
 71
     2
 72
     2
 73
     0
 90
        0
 40
-0.6
 41
-30.0
 62
     5
 63
     7
 74
     1
 91
        4
 64
     7
 65
   257
 75
     1
175
     1
 42
1.0
 92
       12
 66
     7
 43
1.0
 76
     1
 77
     6
 78
     2
 67
     7
 79
     5
170
     0
171
     0
290
     0
174
     0
 93
        1
 44
0.0
173
     0
291
     1
 45
0.0
1001
ACAD
1000
AcDbSavedByObjectVersion
1070
     0
  0
DICTIONARYVAR
  5
D26
102
{ACAD_REACTORS
330
3D
102
}
330
3D
100
DictionaryVariables
280
     0
  1
1:1
  0
DICTIONARYVAR
  5
D25
102
{ACAD_REACTORS
330
3D
102
}
330
3D
100
DictionaryVariables
280
     0
  1
STANDARD
  0
DICTIONARYVAR
  5
CBE
102
{ACAD_REACTORS
330
3D
102
}
330
3D
100
DictionaryVariables
280
     0
  1
STANDARD
  0
DICTIONARYVAR
  5
3F
102
{ACAD_REACTORS
330
3D
102
}
330
3D
100
DictionaryVariables
280
     0
  1
2
  0
DICTIONARYVAR
  5
3E
102
{ACAD_REACTORS
330
3D
102
}
330
3D
100
DictionaryVariables
280
     0
  1
1
  0
DICTIONARYVAR
  5
D28
102
{ACAD_REACTORS
330
3D
102
}
330
3D
100
DictionaryVariables
280
     0
  1
0
  0
DICTIONARYVAR
  5
CBF
102
{ACAD_REACTORS
330
3D
102
}
330
3D
100
DictionaryVariables
280
     0
  1

  0
DICTIONARYVAR
  5
D27
102
{ACAD_REACTORS
330
3D
102
}
330
3D
100
DictionaryVariables
280
     0
  1
127
  0
DICTIONARYVAR
  5
D29
102
{ACAD_REACTORS
330
3D
102
}
330
3D
100
DictionaryVariables
280
     0
  1
2
  0
XRECORD
  5
B92
102
{ACAD_REACTORS
330
B91
102
}
330
B91
100
AcDbXrecord
280
     1
  0
DICTIONARY
  5
D2E
330
1E
100
AcDbDictionary
280
     1
281
     1
  3
ACAD_XREC_ROUNDTRIP
360
D2F
  0
DICTIONARY
  5
D32
330
26
100
AcDbDictionary
280
     1
281
     1
  3
ACAD_XREC_ROUNDTRIP
360
D33
  0
DICTIONARY
  5
D30
330
22
100
AcDbDictionary
280
     1
281
     1
  3
ACAD_XREC_ROUNDTRIP
360
D31
  0
DICTIONARY
  5
CCA
330
CC9
100
AcDbDictionary
280
     1
281
     1
  3
ACAD_XREC_ROUNDTRIP
360
D36
  3
BUMPTILE
360
CCC
  3
DIFFUSETILE
360
CCB
  3
OPACITYTILE
360
CCF
  3
REFLECTIONTILE
360
CCE
  3
REFRACTIONTILE
360
CD0
  3
SPECULARTILE
360
CCD
  0
DICTIONARY
  5
CC2
330
CC1
100
AcDbDictionary
280
     1
281
     1
  3
ACAD_XREC_ROUNDTRIP
360
D35
  3
BUMPTILE
360
CC4
  3
DIFFUSETILE
360
CC3
  3
OPACITYTILE
360
CC7
  3
REFLECTIONTILE
360
CC6
  3
REFRACTIONTILE
360
CC8
  3
SPECULARTILE
360
CC5
  0
DICTIONARY
  5
CD2
330
CD1
100
AcDbDictionary
280
     1
281
     1
  3
ACAD_XREC_ROUNDTRIP
360
D37
  3
BUMPTILE
360
CD4
  3
DIFFUSETILE
360
CD3
  3
OPACITYTILE
360
CD7
  3
REFLECTIONTILE
360
CD6
  3
REFRACTIONTILE
360
CD8
  3
SPECULARTILE
360
CD5
  0
DICTIONARY
  5
D2A
330
BAB
100
AcDbDictionary
280
     1
281
     1
  3
ACAD_ROUNDTRIP_2008_TABLESTYLE_CELLSTYLEMAP
360
D2B
  3
ACAD_XREC_ROUNDTRIP
360
D34
  0
DICTIONARY
  5
D42
330
CDF
100
AcDbDictionary
280
     1
281
     1
  3
ACAD_XREC_ROUNDTRIP
360
D43
  0
DICTIONARY
  5
D46
330
CE1
100
AcDbDictionary
280
     1
281
     1
  3
ACAD_XREC_ROUNDTRIP
360
D47
  0
DICTIONARY
  5
D44
330
CE0
100
AcDbDictionary
280
     1
281
     1
  3
ACAD_XREC_ROUNDTRIP
360
D45
  0
DICTIONARY
  5
D40
330
CDE
100
AcDbDictionary
280
     1
281
     1
  3
ACAD_XREC_ROUNDTRIP
360
D41
  0
DICTIONARY
  5
D4E
330
CE5
100
AcDbDictionary
280
     1
281
     1
  3
ACAD_XREC_ROUNDTRIP
360
D4F
  0
DICTIONARY
  5
D56
330
CE9
100
AcDbDictionary
280
     1
281
     1
  3
ACAD_XREC_ROUNDTRIP
360
D57
  0
DICTIONARY
  5
D48
330
CE2
100
AcDbDictionary
280
     1
281
     1
  3
ACAD_XREC_ROUNDTRIP
360
D49
  0
DICTIONARY
  5
D4C
330
CE4
100
AcDbDictionary
280
     1
281
     1
  3
ACAD_XREC_ROUNDTRIP
360
D4D
  0
DICTIONARY
  5
D5C
330
CEC
100
AcDbDictionary
280
     1
281
     1
  3
ACAD_XREC_ROUNDTRIP
360
D5D
  0
DICTIONARY
  5
D54
330
CE8
100
AcDbDictionary
280
     1
281
     1
  3
ACAD_XREC_ROUNDTRIP
360
D55
  0
DICTIONARY
  5
D38
330
CDA
100
AcDbDictionary
280
     1
281
     1
  3
ACAD_XREC_ROUNDTRIP
360
D39
  0
DICTIONARY
  5
D3A
330
CDB
100
AcDbDictionary
280
     1
281
     1
  3
ACAD_XREC_ROUNDTRIP
360
D3B
  0
DICTIONARY
  5
D3C
330
CDC
100
AcDbDictionary
280
     1
281
     1
  3
ACAD_XREC_ROUNDTRIP
360
D3D
  0
DICTIONARY
  5
D3E
330
CDD
100
AcDbDictionary
280
     1
281
     1
  3
ACAD_XREC_ROUNDTRIP
360
D3F
  0
DICTIONARY
  5
D58
330
CEA
100
AcDbDictionary
280
     1
281
     1
  3
ACAD_XREC_ROUNDTRIP
360
D59
  0
DICTIONARY
  5
D52
330
CE7
100
AcDbDictionary
280
     1
281
     1
  3
ACAD_XREC_ROUNDTRIP
360
D53
  0
DICTIONARY
  5
D5A
330
CEB
100
AcDbDictionary
280
     1
281
     1
  3
ACAD_XREC_ROUNDTRIP
360
D5B
  0
DICTIONARY
  5
D4A
330
CE3
100
AcDbDictionary
280
     1
281
     1
  3
ACAD_XREC_ROUNDTRIP
360
D4B
  0
DICTIONARY
  5
D50
330
CE6
100
AcDbDictionary
280
     1
281
     1
  3
ACAD_XREC_ROUNDTRIP
360
D51
  0
XRECORD
  5
D2F
102
{ACAD_REACTORS
330
D2E
102
}
330
D2E
100
AcDbXrecord
280
     1
102
SHADEPLOT
 70
     0
102
SHADEPLOTRESLEVEL
 70
     2
102
SHADEPLOTCUSTOMDPI
 70
   300
  0
XRECORD
  5
D33
102
{ACAD_REACTORS
330
D32
102
}
330
D32
100
AcDbXrecord
280
     1
102
SHADEPLOT
 70
     0
102
SHADEPLOTRESLEVEL
 70
     2
102
SHADEPLOTCUSTOMDPI
 70
   300
  0
XRECORD
  5
D31
102
{ACAD_REACTORS
330
D30
102
}
330
D30
100
AcDbXrecord
280
     1
102
SHADEPLOT
 70
     0
102
SHADEPLOTRESLEVEL
 70
     2
102
SHADEPLOTCUSTOMDPI
 70
   300
  0
XRECORD
  5
D36
102
{ACAD_REACTORS
330
CCA
102
}
330
CCA
100
AcDbXrecord
280
     1
102
MATERIAL
148
0.0
149
0.0
149
0.0
 93
        0
 94
      127
282
     0
 72
     0
 77
     0
171
     0
175
     0
179
     0
273
     0
  0
XRECORD
  5
CCC
102
{ACAD_REACTORS
330
CCA
102
}
330
CCA
100
AcDbXrecord
280
     1
270
     1
271
     1
  0
XRECORD
  5
CCB
102
{ACAD_REACTORS
330
CCA
102
}
330
CCA
100
AcDbXrecord
280
     1
270
     1
271
     1
  0
XRECORD
  5
CCF
102
{ACAD_REACTORS
330
CCA
102
}
330
CCA
100
AcDbXrecord
280
     1
270
     1
271
     1
  0
XRECORD
  5
CCE
102
{ACAD_REACTORS
330
CCA
102
}
330
CCA
100
AcDbXrecord
280
     1
270
     1
271
     1
  0
XRECORD
  5
CD0
102
{ACAD_REACTORS
330
CCA
102
}
330
CCA
100
AcDbXrecord
280
     1
270
     1
271
     1
  0
XRECORD
  5
CCD
102
{ACAD_REACTORS
330
CCA
102
}
330
CCA
100
AcDbXrecord
280
     1
270
     1
271
     1
  0
XRECORD
  5
D35
102
{ACAD_REACTORS
330
CC2
102
}
330
CC2
100
AcDbXrecord
280
     1
102
MATERIAL
148
0.0
149
0.0
149
0.0
 93
        0
 94
      127
282
     0
 72
     0
 77
     0
171
     0
175
     0
179
     0
273
     0
  0
XRECORD
  5
CC4
102
{ACAD_REACTORS
330
CC2
102
}
330
CC2
100
AcDbXrecord
280
     1
270
     1
271
     1
  0
XRECORD
  5
CC3
102
{ACAD_REACTORS
330
CC2
102
}
330
CC2
100
AcDbXrecord
280
     1
270
     1
271
     1
  0
XRECORD
  5
CC7
102
{ACAD_REACTORS
330
CC2
102
}
330
CC2
100
AcDbXrecord
280
     1
270
     1
271
     1
  0
XRECORD
  5
CC6
102
{ACAD_REACTORS
330
CC2
102
}
330
CC2
100
AcDbXrecord
280
     1
270
     1
271
     1
  0
XRECORD
  5
CC8
102
{ACAD_REACTORS
330
CC2
102
}
330
CC2
100
AcDbXrecord
280
     1
270
     1
271
     1
  0
XRECORD
  5
CC5
102
{ACAD_REACTORS
330
CC2
102
}
330
CC2
100
AcDbXrecord
280
     1
270
     1
271
     1
  0
XRECORD
  5
D37
102
{ACAD_REACTORS
330
CD2
102
}
330
CD2
100
AcDbXrecord
280
     1
102
MATERIAL
148
0.0
149
0.0
149
0.0
 93
        0
 94
      127
282
     0
 72
     0
 77
     0
171
     0
175
     0
179
     0
273
     0
  0
XRECORD
  5
CD4
102
{ACAD_REACTORS
330
CD2
102
}
330
CD2
100
AcDbXrecord
280
     1
270
     1
271
     1
  0
XRECORD
  5
CD3
102
{ACAD_REACTORS
330
CD2
102
}
330
CD2
100
AcDbXrecord
280
     1
270
     1
271
     1
  0
XRECORD
  5
CD7
102
{ACAD_REACTORS
330
CD2
102
}
330
CD2
100
AcDbXrecord
280
     1
270
     1
271
     1
  0
XRECORD
  5
CD6
102
{ACAD_REACTORS
330
CD2
102
}
330
CD2
100
AcDbXrecord
280
     1
270
     1
271
     1
  0
XRECORD
  5
CD8
102
{ACAD_REACTORS
330
CD2
102
}
330
CD2
100
AcDbXrecord
280
     1
270
     1
271
     1
  0
XRECORD
  5
CD5
102
{ACAD_REACTORS
330
CD2
102
}
330
CD2
100
AcDbXrecord
280
     1
270
     1
271
     1
  0
CELLSTYLEMAP
  5
D2B
102
{ACAD_REACTORS
330
D2A
102
}
330
D2A
100
AcDbCellStyleMap
 90
        3
300
CELLSTYLE
  1
TABLEFORMAT_BEGIN
 90
        5
170
     1
 91
        0
 92
    32768
 62
   257
 93
        1
300
CONTENTFORMAT
  1
CONTENTFORMAT_BEGIN
 90
        0
 91
        0
 92
        4
 93
        0
300

 40
0.0
140
1.0
 94
        5
 62
     0
340
11
144
6.0
309
CONTENTFORMAT_END
171
     1
301
MARGIN
  1
CELLMARGIN_BEGIN
 40
1.5
 40
1.5
 40
1.5
 40
1.5
 40
0.18
 40
0.18
309
CELLMARGIN_END
 94
        6
 95
        1
302
GRIDFORMAT
  1
GRIDFORMAT_BEGIN
 90
        0
 91
        1
 62
     0
 92
       -2
340
0
 93
        0
 40
0.045
309
GRIDFORMAT_END
 95
        2
302
GRIDFORMAT
  1
GRIDFORMAT_BEGIN
 90
        0
 91
        1
 62
     0
 92
       -2
340
0
 93
        0
 40
0.045
309
GRIDFORMAT_END
 95
        4
302
GRIDFORMAT
  1
GRIDFORMAT_BEGIN
 90
        0
 91
        1
 62
     0
 92
       -2
340
0
 93
        0
 40
0.045
309
GRIDFORMAT_END
 95
        8
302
GRIDFORMAT
  1
GRIDFORMAT_BEGIN
 90
        0
 91
        1
 62
     0
 92
       -2
340
0
 93
        0
 40
0.045
309
GRIDFORMAT_END
 95
       16
302
GRIDFORMAT
  1
GRIDFORMAT_BEGIN
 90
        0
 91
        1
 62
     0
 92
       -2
340
0
 93
        0
 40
0.045
309
GRIDFORMAT_END
 95
       32
302
GRIDFORMAT
  1
GRIDFORMAT_BEGIN
 90
        0
 91
        1
 62
     0
 92
       -2
340
0
 93
        0
 40
0.045
309
GRIDFORMAT_END
309
TABLEFORMAT_END
  1
CELLSTYLE_BEGIN
 90
        1
 91
        1
300
_TITLE
309
CELLSTYLE_END
300
CELLSTYLE
  1
TABLEFORMAT_BEGIN
 90
        5
170
     1
 91
        0
 92
        0
 62
   257
 93
        1
300
CONTENTFORMAT
  1
CONTENTFORMAT_BEGIN
 90
        0
 91
        0
 92
        4
 93
        0
300

 40
0.0
140
1.0
 94
        5
 62
     0
340
11
144
4.5
309
CONTENTFORMAT_END
171
     1
301
MARGIN
  1
CELLMARGIN_BEGIN
 40
1.5
 40
1.5
 40
1.5
 40
1.5
 40
0.18
 40
0.18
309
CELLMARGIN_END
 94
        6
 95
        1
302
GRIDFORMAT
  1
GRIDFORMAT_BEGIN
 90
        0
 91
        1
 62
     0
 92
       -2
340
0
 93
        0
 40
0.045
309
GRIDFORMAT_END
 95
        2
302
GRIDFORMAT
  1
GRIDFORMAT_BEGIN
 90
        0
 91
        1
 62
     0
 92
       -2
340
0
 93
        0
 40
0.045
309
GRIDFORMAT_END
 95
        4
302
GRIDFORMAT
  1
GRIDFORMAT_BEGIN
 90
        0
 91
        1
 62
     0
 92
       -2
340
0
 93
        0
 40
0.045
309
GRIDFORMAT_END
 95
        8
302
GRIDFORMAT
  1
GRIDFORMAT_BEGIN
 90
        0
 91
        1
 62
     0
 92
       -2
340
0
 93
        0
 40
0.045
309
GRIDFORMAT_END
 95
       16
302
GRIDFORMAT
  1
GRIDFORMAT_BEGIN
 90
        0
 91
        1
 62
     0
 92
       -2
340
0
 93
        0
 40
0.045
309
GRIDFORMAT_END
 95
       32
302
GRIDFORMAT
  1
GRIDFORMAT_BEGIN
 90
        0
 91
        1
 62
     0
 92
       -2
340
0
 93
        0
 40
0.045
309
GRIDFORMAT_END
309
TABLEFORMAT_END
  1
CELLSTYLE_BEGIN
 90
        2
 91
        1
300
_HEADER
309
CELLSTYLE_END
300
CELLSTYLE
  1
TABLEFORMAT_BEGIN
 90
        5
170
     1
 91
        0
 92
        0
 62
   257
 93
        1
300
CONTENTFORMAT
  1
CONTENTFORMAT_BEGIN
 90
        0
 91
        0
 92
        4
 93
        0
300

 40
0.0
140
1.0
 94
        2
 62
     0
340
11
144
4.5
309
CONTENTFORMAT_END
171
     1
301
MARGIN
  1
CELLMARGIN_BEGIN
 40
1.5
 40
1.5
 40
1.5
 40
1.5
 40
0.18
 40
0.18
309
CELLMARGIN_END
 94
        6
 95
        1
302
GRIDFORMAT
  1
GRIDFORMAT_BEGIN
 90
        0
 91
        1
 62
     0
 92
       -2
340
0
 93
        0
 40
0.045
309
GRIDFORMAT_END
 95
        2
302
GRIDFORMAT
  1
GRIDFORMAT_BEGIN
 90
        0
 91
        1
 62
     0
 92
       -2
340
0
 93
        0
 40
0.045
309
GRIDFORMAT_END
 95
        4
302
GRIDFORMAT
  1
GRIDFORMAT_BEGIN
 90
        0
 91
        1
 62
     0
 92
       -2
340
0
 93
        0
 40
0.045
309
GRIDFORMAT_END
 95
        8
302
GRIDFORMAT
  1
GRIDFORMAT_BEGIN
 90
        0
 91
        1
 62
     0
 92
       -2
340
0
 93
        0
 40
0.045
309
GRIDFORMAT_END
 95
       16
302
GRIDFORMAT
  1
GRIDFORMAT_BEGIN
 90
        0
 91
        1
 62
     0
 92
       -2
340
0
 93
        0
 40
0.045
309
GRIDFORMAT_END
 95
       32
302
GRIDFORMAT
  1
GRIDFORMAT_BEGIN
 90
        0
 91
        1
 62
     0
 92
       -2
340
0
 93
        0
 40
0.045
309
GRIDFORMAT_END
309
TABLEFORMAT_END
  1
CELLSTYLE_BEGIN
 90
        3
 91
        2
300
_DATA
309
CELLSTYLE_END
  0
XRECORD
  5
D34
102
{ACAD_REACTORS
330
D2A
102
}
330
D2A
100
AcDbXrecord
280
     1
102
ACAD_ROUNDTRIP_PRE2007_TABLESTYLE
 90
        4
 91
        0
  1

 92
        4
 93
        0
  2

 94
        4
 95
        0
  3

  0
XRECORD
  5
D43
102
{ACAD_REACTORS
330
D42
102
}
330
D42
100
AcDbXrecord
280
     1
102
RTVSPropertyOp0
 70
     1
102
RTVSPropertyOp1
 70
     1
102
RTVSPropertyOp2
 70
     1
102
RTVSPropertyOp3
 70
     1
102
RTVSPropertyOp4
 70
     1
102
RTVSPropertyOp5
 70
     1
102
RTVSPropertyOp6
 70
     1
102
RTVSPropertyOp7
 70
     1
102
RTVSPropertyOp8
 70
     1
102
RTVSPropertyOp9
 70
     1
102
RTVSPropertyOp10
 70
     1
102
RTVSPropertyOp11
 70
     1
102
RTVSPropertyOp12
 70
     1
102
RTVSPropertyOp13
 70
     1
102
RTVSPropertyOp14
 70
     1
102
RTVSPropertyOp15
 70
     1
102
RTVSPropertyOp16
 70
     1
102
RTVSPropertyOp17
 70
     1
102
RTVSPropertyOp18
 70
     1
102
RTVSPropertyOp19
 70
     1
102
RTVSPropertyOp20
 70
     1
102
RTVSPropertyOp21
 70
     1
102
RTVSPropertyOp22
 70
     1
102
RTVSPropertyOp23
 70
     1
102
RTVSPropertyOp24
 70
     1
102
RTVSPropertyOp25
 70
     1
102
RTVSPropertyOp26
 70
     1
102
RTVSPropertyOp27
 70
     1
  0
XRECORD
  5
D47
102
{ACAD_REACTORS
330
D46
102
}
330
D46
100
AcDbXrecord
280
     1
102
RTVSPropertyOp0
 70
     1
102
RTVSPropertyOp1
 70
     1
102
RTVSPropertyOp2
 70
     1
102
RTVSPropertyOp3
 70
     1
102
RTVSPropertyOp4
 70
     1
102
RTVSPropertyOp5
 70
     1
102
RTVSPropertyOp6
 70
     1
102
RTVSPropertyOp7
 70
     1
102
RTVSPropertyOp8
 70
     1
102
RTVSPropertyOp9
 70
     1
102
RTVSPropertyOp10
 70
     1
102
RTVSPropertyOp11
 70
     1
102
RTVSPropertyOp12
 70
     1
102
RTVSPropertyOp13
 70
     1
102
RTVSPropertyOp14
 70
     1
102
RTVSPropertyOp15
 70
     1
102
RTVSPropertyOp16
 70
     1
102
RTVSPropertyOp17
 70
     1
102
RTVSPropertyOp18
 70
     1
102
RTVSPropertyOp19
 70
     1
102
RTVSPropertyOp20
 70
     1
102
RTVSPropertyOp21
 70
     1
102
RTVSPropertyOp22
 70
     1
102
RTVSPropertyOp23
 70
     1
102
RTVSPropertyOp24
 70
     1
102
RTVSPropertyOp25
 70
     1
102
RTVSPropertyOp26
 70
     1
102
RTVSPropertyOp27
 70
     1
  0
XRECORD
  5
D45
102
{ACAD_REACTORS
330
D44
102
}
330
D44
100
AcDbXrecord
280
     1
102
RTVSPropertyOp0
 70
     1
102
RTVSPropertyOp1
 70
     1
102
RTVSPropertyOp2
 70
     1
102
RTVSPropertyOp3
 70
     1
102
RTVSPropertyOp4
 70
     1
102
RTVSPropertyOp5
 70
     1
102
RTVSPropertyOp6
 70
     1
102
RTVSPropertyOp7
 70
     1
102
RTVSPropertyOp8
 70
     1
102
RTVSPropertyOp9
 70
     1
102
RTVSPropertyOp10
 70
     1
102
RTVSPropertyOp11
 70
     1
102
RTVSPropertyOp12
 70
     1
102
RTVSPropertyOp13
 70
     1
102
RTVSPropertyOp14
 70
     1
102
RTVSPropertyOp15
 70
     1
102
RTVSPropertyOp16
 70
     1
102
RTVSPropertyOp17
 70
     1
102
RTVSPropertyOp18
 70
     1
102
RTVSPropertyOp19
 70
     1
102
RTVSPropertyOp20
 70
     1
102
RTVSPropertyOp21
 70
     1
102
RTVSPropertyOp22
 70
     1
102
RTVSPropertyOp23
 70
     1
102
RTVSPropertyOp24
 70
     1
102
RTVSPropertyOp25
 70
     1
102
RTVSPropertyOp26
 70
     1
102
RTVSPropertyOp27
 70
     1
  0
XRECORD
  5
D41
102
{ACAD_REACTORS
330
D40
102
}
330
D40
100
AcDbXrecord
280
     1
102
RTVSPropertyOp0
 70
     1
102
RTVSPropertyOp1
 70
     1
102
RTVSPropertyOp2
 70
     1
102
RTVSPropertyOp3
 70
     1
102
RTVSPropertyOp4
 70
     1
102
RTVSPropertyOp5
 70
     1
102
RTVSPropertyOp6
 70
     1
102
RTVSPropertyOp7
 70
     1
102
RTVSPropertyOp8
 70
     1
102
RTVSPropertyOp9
 70
     1
102
RTVSPropertyOp10
 70
     1
102
RTVSPropertyOp11
 70
     1
102
RTVSPropertyOp12
 70
     1
102
RTVSPropertyOp13
 70
     1
102
RTVSPropertyOp14
 70
     1
102
RTVSPropertyOp15
 70
     1
102
RTVSPropertyOp16
 70
     1
102
RTVSPropertyOp17
 70
     1
102
RTVSPropertyOp18
 70
     1
102
RTVSPropertyOp19
 70
     1
102
RTVSPropertyOp20
 70
     1
102
RTVSPropertyOp21
 70
     1
102
RTVSPropertyOp22
 70
     1
102
RTVSPropertyOp23
 70
     1
102
RTVSPropertyOp24
 70
     1
102
RTVSPropertyOp25
 70
     1
102
RTVSPropertyOp26
 70
     1
102
RTVSPropertyOp27
 70
     1
  0
XRECORD
  5
D4F
102
{ACAD_REACTORS
330
D4E
102
}
330
D4E
100
AcDbXrecord
280
     1
102
RTVSPropertyOp0
 70
     1
102
RTVSPropertyOp1
 70
     1
102
RTVSPropertyOp2
 70
     1
102
RTVSPropertyOp3
 70
     1
102
RTVSPropertyOp4
 70
     1
102
RTVSPropertyOp5
 70
     1
102
RTVSPropertyOp6
 70
     1
102
RTVSPropertyOp7
 70
     1
102
RTVSPropertyOp8
 70
     1
102
RTVSPropertyOp9
 70
     1
102
RTVSPropertyOp10
 70
     1
102
RTVSPropertyOp11
 70
     1
102
RTVSPropertyOp12
 70
     1
102
RTVSPropertyOp13
 70
     1
102
RTVSPropertyOp14
 70
     1
102
RTVSPropertyOp15
 70
     1
102
RTVSPropertyOp16
 70
     1
102
RTVSPropertyOp17
 70
     1
102
RTVSPropertyOp18
 70
     1
102
RTVSPropertyOp19
 70
     1
102
RTVSPropertyOp20
 70
     1
102
RTVSPropertyOp21
 70
     1
102
RTVSPropertyOp22
 70
     1
102
RTVSPropertyOp23
 70
     1
102
RTVSPropertyOp24
 70
     1
102
RTVSPropertyOp25
 70
     1
102
RTVSPropertyOp26
 70
     1
102
RTVSPropertyOp27
 70
     1
  0
XRECORD
  5
D57
102
{ACAD_REACTORS
330
D56
102
}
330
D56
100
AcDbXrecord
280
     1
102
RTVSPropertyOp0
 70
     1
102
RTVSPropertyOp1
 70
     1
102
RTVSPropertyOp2
 70
     1
102
RTVSPropertyOp3
 70
     1
102
RTVSPropertyOp4
 70
     1
102
RTVSPropertyOp5
 70
     1
102
RTVSPropertyOp6
 70
     1
102
RTVSPropertyOp7
 70
     1
102
RTVSPropertyOp8
 70
     1
102
RTVSPropertyOp9
 70
     1
102
RTVSPropertyOp10
 70
     1
102
RTVSPropertyOp11
 70
     1
102
RTVSPropertyOp12
 70
     1
102
RTVSPropertyOp13
 70
     1
102
RTVSPropertyOp14
 70
     1
102
RTVSPropertyOp15
 70
     1
102
RTVSPropertyOp16
 70
     1
102
RTVSPropertyOp17
 70
     1
102
RTVSPropertyOp18
 70
     1
102
RTVSPropertyOp19
 70
     1
102
RTVSPropertyOp20
 70
     1
102
RTVSPropertyOp21
 70
     1
102
RTVSPropertyOp22
 70
     1
102
RTVSPropertyOp23
 70
     1
102
RTVSPropertyOp24
 70
     1
102
RTVSPropertyOp25
 70
     1
102
RTVSPropertyOp26
 70
     1
102
RTVSPropertyOp27
 70
     1
  0
XRECORD
  5
D49
102
{ACAD_REACTORS
330
D48
102
}
330
D48
100
AcDbXrecord
280
     1
102
RTVSPropertyOp0
 70
     1
102
RTVSPropertyOp1
 70
     1
102
RTVSPropertyOp2
 70
     1
102
RTVSPropertyOp3
 70
     1
102
RTVSPropertyOp4
 70
     1
102
RTVSPropertyOp5
 70
     1
102
RTVSPropertyOp6
 70
     1
102
RTVSPropertyOp7
 70
     1
102
RTVSPropertyOp8
 70
     1
102
RTVSPropertyOp9
 70
     1
102
RTVSPropertyOp10
 70
     1
102
RTVSPropertyOp11
 70
     1
102
RTVSPropertyOp12
 70
     1
102
RTVSPropertyOp13
 70
     1
102
RTVSPropertyOp14
 70
     1
102
RTVSPropertyOp15
 70
     1
102
RTVSPropertyOp16
 70
     1
102
RTVSPropertyOp17
 70
     1
102
RTVSPropertyOp18
 70
     1
102
RTVSPropertyOp19
 70
     1
102
RTVSPropertyOp20
 70
     1
102
RTVSPropertyOp21
 70
     1
102
RTVSPropertyOp22
 70
     1
102
RTVSPropertyOp23
 70
     1
102
RTVSPropertyOp24
 70
     1
102
RTVSPropertyOp25
 70
     1
102
RTVSPropertyOp26
 70
     1
102
RTVSPropertyOp27
 70
     1
  0
XRECORD
  5
D4D
102
{ACAD_REACTORS
330
D4C
102
}
330
D4C
100
AcDbXrecord
280
     1
102
RTVSPropertyOp0
 70
     1
102
RTVSPropertyOp1
 70
     1
102
RTVSPropertyOp2
 70
     1
102
RTVSPropertyOp3
 70
     1
102
RTVSPropertyOp4
 70
     1
102
RTVSPropertyOp5
 70
     1
102
RTVSPropertyOp6
 70
     1
102
RTVSPropertyOp7
 70
     1
102
RTVSPropertyOp8
 70
     1
102
RTVSPropertyOp9
 70
     1
102
RTVSPropertyOp10
 70
     1
102
RTVSPropertyOp11
 70
     1
102
RTVSPropertyOp12
 70
     1
102
RTVSPropertyOp13
 70
     1
102
RTVSPropertyOp14
 70
     1
102
RTVSPropertyOp15
 70
     1
102
RTVSPropertyOp16
 70
     1
102
RTVSPropertyOp17
 70
     1
102
RTVSPropertyOp18
 70
     1
102
RTVSPropertyOp19
 70
     1
102
RTVSPropertyOp20
 70
     1
102
RTVSPropertyOp21
 70
     1
102
RTVSPropertyOp22
 70
     1
102
RTVSPropertyOp23
 70
     1
102
RTVSPropertyOp24
 70
     1
102
RTVSPropertyOp25
 70
     1
102
RTVSPropertyOp26
 70
     1
102
RTVSPropertyOp27
 70
     1
  0
XRECORD
  5
D5D
102
{ACAD_REACTORS
330
D5C
102
}
330
D5C
100
AcDbXrecord
280
     1
102
RTVSPropertyOp0
 70
     0
102
RTVSPropertyOp1
 70
     0
102
RTVSPropertyOp2
 70
     0
102
RTVSPropertyOp3
 70
     0
102
RTVSPropertyOp4
 70
     0
102
RTVSPropertyOp5
 70
     0
102
RTVSPropertyOp6
 70
     0
102
RTVSPropertyOp7
 70
     0
102
RTVSPropertyOp8
 70
     0
102
RTVSPropertyOp9
 70
     0
102
RTVSPropertyOp10
 70
     0
102
RTVSPropertyOp11
 70
     0
102
RTVSPropertyOp12
 70
     0
102
RTVSPropertyOp13
 70
     0
102
RTVSPropertyOp14
 70
     2
102
RTVSPropertyOp15
 70
     0
102
RTVSPropertyOp16
 70
     0
102
RTVSPropertyOp17
 70
     0
102
RTVSPropertyOp18
 70
     0
102
RTVSPropertyOp19
 70
     0
102
RTVSPropertyOp20
 70
     0
102
RTVSPropertyOp21
 70
     0
102
RTVSPropertyOp22
 70
     0
102
RTVSPropertyOp23
 70
     0
102
RTVSPropertyOp24
 70
     0
102
RTVSPropertyOp25
 70
     0
102
RTVSPropertyOp26
 70
     0
102
RTVSPropertyOp27
 70
     0
  0
XRECORD
  5
D55
102
{ACAD_REACTORS
330
D54
102
}
330
D54
100
AcDbXrecord
280
     1
102
RTVSPropertyOp0
 70
     1
102
RTVSPropertyOp1
 70
     1
102
RTVSPropertyOp2
 70
     1
102
RTVSPropertyOp3
 70
     1
102
RTVSPropertyOp4
 70
     1
102
RTVSPropertyOp5
 70
     1
102
RTVSPropertyOp6
 70
     1
102
RTVSPropertyOp7
 70
     1
102
RTVSPropertyOp8
 70
     1
102
RTVSPropertyOp9
 70
     1
102
RTVSPropertyOp10
 70
     1
102
RTVSPropertyOp11
 70
     1
102
RTVSPropertyOp12
 70
     1
102
RTVSPropertyOp13
 70
     1
102
RTVSPropertyOp14
 70
     1
102
RTVSPropertyOp15
 70
     1
102
RTVSPropertyOp16
 70
     1
102
RTVSPropertyOp17
 70
     1
102
RTVSPropertyOp18
 70
     1
102
RTVSPropertyOp19
 70
     1
102
RTVSPropertyOp20
 70
     1
102
RTVSPropertyOp21
 70
     1
102
RTVSPropertyOp22
 70
     1
102
RTVSPropertyOp23
 70
     1
102
RTVSPropertyOp24
 70
     1
102
RTVSPropertyOp25
 70
     1
102
RTVSPropertyOp26
 70
     1
102
RTVSPropertyOp27
 70
     1
  0
XRECORD
  5
D39
102
{ACAD_REACTORS
330
D38
102
}
330
D38
100
AcDbXrecord
280
     1
102
RTVSPropertyOp0
 70
     1
102
RTVSPropertyOp1
 70
     1
102
RTVSPropertyOp2
 70
     1
102
RTVSPropertyOp3
 70
     1
102
RTVSPropertyOp4
 70
     1
102
RTVSPropertyOp5
 70
     1
102
RTVSPropertyOp6
 70
     1
102
RTVSPropertyOp7
 70
     1
102
RTVSPropertyOp8
 70
     1
102
RTVSPropertyOp9
 70
     1
102
RTVSPropertyOp10
 70
     1
102
RTVSPropertyOp11
 70
     1
102
RTVSPropertyOp12
 70
     1
102
RTVSPropertyOp13
 70
     1
102
RTVSPropertyOp14
 70
     1
102
RTVSPropertyOp15
 70
     1
102
RTVSPropertyOp16
 70
     1
102
RTVSPropertyOp17
 70
     1
102
RTVSPropertyOp18
 70
     1
102
RTVSPropertyOp19
 70
     1
102
RTVSPropertyOp20
 70
     1
102
RTVSPropertyOp21
 70
     1
102
RTVSPropertyOp22
 70
     1
102
RTVSPropertyOp23
 70
     1
102
RTVSPropertyOp24
 70
     1
102
RTVSPropertyOp25
 70
     1
102
RTVSPropertyOp26
 70
     1
102
RTVSPropertyOp27
 70
     1
  0
XRECORD
  5
D3B
102
{ACAD_REACTORS
330
D3A
102
}
330
D3A
100
AcDbXrecord
280
     1
102
RTVSPropertyOp0
 70
     1
102
RTVSPropertyOp1
 70
     1
102
RTVSPropertyOp2
 70
     1
102
RTVSPropertyOp3
 70
     1
102
RTVSPropertyOp4
 70
     1
102
RTVSPropertyOp5
 70
     1
102
RTVSPropertyOp6
 70
     1
102
RTVSPropertyOp7
 70
     1
102
RTVSPropertyOp8
 70
     1
102
RTVSPropertyOp9
 70
     1
102
RTVSPropertyOp10
 70
     1
102
RTVSPropertyOp11
 70
     1
102
RTVSPropertyOp12
 70
     1
102
RTVSPropertyOp13
 70
     1
102
RTVSPropertyOp14
 70
     1
102
RTVSPropertyOp15
 70
     1
102
RTVSPropertyOp16
 70
     1
102
RTVSPropertyOp17
 70
     1
102
RTVSPropertyOp18
 70
     1
102
RTVSPropertyOp19
 70
     1
102
RTVSPropertyOp20
 70
     1
102
RTVSPropertyOp21
 70
     1
102
RTVSPropertyOp22
 70
     1
102
RTVSPropertyOp23
 70
     1
102
RTVSPropertyOp24
 70
     1
102
RTVSPropertyOp25
 70
     1
102
RTVSPropertyOp26
 70
     1
102
RTVSPropertyOp27
 70
     1
  0
XRECORD
  5
D3D
102
{ACAD_REACTORS
330
D3C
102
}
330
D3C
100
AcDbXrecord
280
     1
102
RTVSPropertyOp0
 70
     1
102
RTVSPropertyOp1
 70
     1
102
RTVSPropertyOp2
 70
     1
102
RTVSPropertyOp3
 70
     1
102
RTVSPropertyOp4
 70
     1
102
RTVSPropertyOp5
 70
     1
102
RTVSPropertyOp6
 70
     1
102
RTVSPropertyOp7
 70
     1
102
RTVSPropertyOp8
 70
     1
102
RTVSPropertyOp9
 70
     1
102
RTVSPropertyOp10
 70
     1
102
RTVSPropertyOp11
 70
     1
102
RTVSPropertyOp12
 70
     1
102
RTVSPropertyOp13
 70
     1
102
RTVSPropertyOp14
 70
     1
102
RTVSPropertyOp15
 70
     1
102
RTVSPropertyOp16
 70
     1
102
RTVSPropertyOp17
 70
     1
102
RTVSPropertyOp18
 70
     1
102
RTVSPropertyOp19
 70
     1
102
RTVSPropertyOp20
 70
     1
102
RTVSPropertyOp21
 70
     1
102
RTVSPropertyOp22
 70
     1
102
RTVSPropertyOp23
 70
     1
102
RTVSPropertyOp24
 70
     1
102
RTVSPropertyOp25
 70
     1
102
RTVSPropertyOp26
 70
     1
102
RTVSPropertyOp27
 70
     1
  0
XRECORD
  5
D3F
102
{ACAD_REACTORS
330
D3E
102
}
330
D3E
100
AcDbXrecord
280
     1
102
RTVSPropertyOp0
 70
     1
102
RTVSPropertyOp1
 70
     1
102
RTVSPropertyOp2
 70
     1
102
RTVSPropertyOp3
 70
     1
102
RTVSPropertyOp4
 70
     1
102
RTVSPropertyOp5
 70
     1
102
RTVSPropertyOp6
 70
     1
102
RTVSPropertyOp7
 70
     1
102
RTVSPropertyOp8
 70
     1
102
RTVSPropertyOp9
 70
     1
102
RTVSPropertyOp10
 70
     1
102
RTVSPropertyOp11
 70
     1
102
RTVSPropertyOp12
 70
     1
102
RTVSPropertyOp13
 70
     1
102
RTVSPropertyOp14
 70
     1
102
RTVSPropertyOp15
 70
     1
102
RTVSPropertyOp16
 70
     1
102
RTVSPropertyOp17
 70
     1
102
RTVSPropertyOp18
 70
     1
102
RTVSPropertyOp19
 70
     1
102
RTVSPropertyOp20
 70
     1
102
RTVSPropertyOp21
 70
     1
102
RTVSPropertyOp22
 70
     1
102
RTVSPropertyOp23
 70
     1
102
RTVSPropertyOp24
 70
     1
102
RTVSPropertyOp25
 70
     1
102
RTVSPropertyOp26
 70
     1
102
RTVSPropertyOp27
 70
     1
  0
XRECORD
  5
D59
102
{ACAD_REACTORS
330
D58
102
}
330
D58
100
AcDbXrecord
280
     1
102
RTVSPropertyOp0
 70
     0
102
RTVSPropertyOp1
 70
     0
102
RTVSPropertyOp2
 70
     0
102
RTVSPropertyOp3
 70
     0
102
RTVSPropertyOp4
 70
     0
102
RTVSPropertyOp5
 70
     0
102
RTVSPropertyOp6
 70
     0
102
RTVSPropertyOp7
 70
     0
102
RTVSPropertyOp8
 70
     0
102
RTVSPropertyOp9
 70
     0
102
RTVSPropertyOp10
 70
     0
102
RTVSPropertyOp11
 70
     0
102
RTVSPropertyOp12
 70
     0
102
RTVSPropertyOp13
 70
     0
102
RTVSPropertyOp14
 70
     2
102
RTVSPropertyOp15
 70
     0
102
RTVSPropertyOp16
 70
     0
102
RTVSPropertyOp17
 70
     0
102
RTVSPropertyOp18
 70
     0
102
RTVSPropertyOp19
 70
     0
102
RTVSPropertyOp20
 70
     0
102
RTVSPropertyOp21
 70
     0
102
RTVSPropertyOp22
 70
     0
102
RTVSPropertyOp23
 70
     0
102
RTVSPropertyOp24
 70
     0
102
RTVSPropertyOp25
 70
     0
102
RTVSPropertyOp26
 70
     0
102
RTVSPropertyOp27
 70
     0
  0
XRECORD
  5
D53
102
{ACAD_REACTORS
330
D52
102
}
330
D52
100
AcDbXrecord
280
     1
102
RTVSPropertyOp0
 70
     1
102
RTVSPropertyOp1
 70
     1
102
RTVSPropertyOp2
 70
     1
102
RTVSPropertyOp3
 70
     1
102
RTVSPropertyOp4
 70
     1
102
RTVSPropertyOp5
 70
     1
102
RTVSPropertyOp6
 70
     1
102
RTVSPropertyOp7
 70
     1
102
RTVSPropertyOp8
 70
     1
102
RTVSPropertyOp9
 70
     1
102
RTVSPropertyOp10
 70
     1
102
RTVSPropertyOp11
 70
     1
102
RTVSPropertyOp12
 70
     1
102
RTVSPropertyOp13
 70
     1
102
RTVSPropertyOp14
 70
     1
102
RTVSPropertyOp15
 70
     1
102
RTVSPropertyOp16
 70
     1
102
RTVSPropertyOp17
 70
     1
102
RTVSPropertyOp18
 70
     1
102
RTVSPropertyOp19
 70
     1
102
RTVSPropertyOp20
 70
     1
102
RTVSPropertyOp21
 70
     1
102
RTVSPropertyOp22
 70
     1
102
RTVSPropertyOp23
 70
     1
102
RTVSPropertyOp24
 70
     1
102
RTVSPropertyOp25
 70
     1
102
RTVSPropertyOp26
 70
     1
102
RTVSPropertyOp27
 70
     1
  0
XRECORD
  5
D5B
102
{ACAD_REACTORS
330
D5A
102
}
330
D5A
100
AcDbXrecord
280
     1
102
RTVSPropertyOp0
 70
     0
102
RTVSPropertyOp1
 70
     0
102
RTVSPropertyOp2
 70
     0
102
RTVSPropertyOp3
 70
     0
102
RTVSPropertyOp4
 70
     0
102
RTVSPropertyOp5
 70
     0
102
RTVSPropertyOp6
 70
     0
102
RTVSPropertyOp7
 70
     0
102
RTVSPropertyOp8
 70
     0
102
RTVSPropertyOp9
 70
     0
102
RTVSPropertyOp10
 70
     0
102
RTVSPropertyOp11
 70
     0
102
RTVSPropertyOp12
 70
     0
102
RTVSPropertyOp13
 70
     0
102
RTVSPropertyOp14
 70
     2
102
RTVSPropertyOp15
 70
     0
102
RTVSPropertyOp16
 70
     0
102
RTVSPropertyOp17
 70
     0
102
RTVSPropertyOp18
 70
     0
102
RTVSPropertyOp19
 70
     0
102
RTVSPropertyOp20
 70
     0
102
RTVSPropertyOp21
 70
     0
102
RTVSPropertyOp22
 70
     0
102
RTVSPropertyOp23
 70
     0
102
RTVSPropertyOp24
 70
     0
102
RTVSPropertyOp25
 70
     0
102
RTVSPropertyOp26
 70
     0
102
RTVSPropertyOp27
 70
     0
  0
XRECORD
  5
D4B
102
{ACAD_REACTORS
330
D4A
102
}
330
D4A
100
AcDbXrecord
280
     1
102
RTVSPropertyOp0
 70
     1
102
RTVSPropertyOp1
 70
     1
102
RTVSPropertyOp2
 70
     1
102
RTVSPropertyOp3
 70
     1
102
RTVSPropertyOp4
 70
     1
102
RTVSPropertyOp5
 70
     1
102
RTVSPropertyOp6
 70
     1
102
RTVSPropertyOp7
 70
     1
102
RTVSPropertyOp8
 70
     1
102
RTVSPropertyOp9
 70
     1
102
RTVSPropertyOp10
 70
     1
102
RTVSPropertyOp11
 70
     1
102
RTVSPropertyOp12
 70
     1
102
RTVSPropertyOp13
 70
     1
102
RTVSPropertyOp14
 70
     1
102
RTVSPropertyOp15
 70
     1
102
RTVSPropertyOp16
 70
     1
102
RTVSPropertyOp17
 70
     1
102
RTVSPropertyOp18
 70
     1
102
RTVSPropertyOp19
 70
     1
102
RTVSPropertyOp20
 70
     1
102
RTVSPropertyOp21
 70
     1
102
RTVSPropertyOp22
 70
     1
102
RTVSPropertyOp23
 70
     1
102
RTVSPropertyOp24
 70
     1
102
RTVSPropertyOp25
 70
     1
102
RTVSPropertyOp26
 70
     1
102
RTVSPropertyOp27
 70
     1
  0
XRECORD
  5
D51
102
{ACAD_REACTORS
330
D50
102
}
330
D50
100
AcDbXrecord
280
     1
102
RTVSPropertyOp0
 70
     1
102
RTVSPropertyOp1
 70
     1
102
RTVSPropertyOp2
 70
     1
102
RTVSPropertyOp3
 70
     1
102
RTVSPropertyOp4
 70
     1
102
RTVSPropertyOp5
 70
     1
102
RTVSPropertyOp6
 70
     1
102
RTVSPropertyOp7
 70
     1
102
RTVSPropertyOp8
 70
     1
102
RTVSPropertyOp9
 70
     1
102
RTVSPropertyOp10
 70
     1
102
RTVSPropertyOp11
 70
     1
102
RTVSPropertyOp12
 70
     1
102
RTVSPropertyOp13
 70
     1
102
RTVSPropertyOp14
 70
     1
102
RTVSPropertyOp15
 70
     1
102
RTVSPropertyOp16
 70
     1
102
RTVSPropertyOp17
 70
     1
102
RTVSPropertyOp18
 70
     1
102
RTVSPropertyOp19
 70
     1
102
RTVSPropertyOp20
 70
     1
102
RTVSPropertyOp21
 70
     1
102
RTVSPropertyOp22
 70
     1
102
RTVSPropertyOp23
 70
     1
102
RTVSPropertyOp24
 70
     1
102
RTVSPropertyOp25
 70
     1
102
RTVSPropertyOp26
 70
     1
102
RTVSPropertyOp27
 70
     1
  0
ENDSEC
  0
EOF
