  0
SECTION
  2
HEADER
  9
$ACADVER
  1
AC1015
  9
$ACADMAINTVER
 70
    20
  9
$DWGCODEPAGE
  3
ANSI_1252
  9
$INSBASE
 10
0.0
 20
0.0
 30
0.0
  9
$EXTMIN
 10
-2.461538594338769
 20
-0.1973565446775052
 30
-0.0015258207003583
  9
$EXTMAX
 10
4.060722715413518
 20
0.7063380920461127
 30
0.0000000349246037
  9
$LIMMIN
 10
0.0
 20
0.0
  9
$LIMMAX
 10
0.0
 20
0.0
  9
$ORTHOMODE
 70
     1
  9
$REGENMODE
 70
     1
  9
$FILLMODE
 70
     1
  9
$QTEXTMODE
 70
     0
  9
$MIRRTEXT
 70
     1
  9
$LTSCALE
 40
1.0
  9
$ATTMODE
 70
     1
  9
$TEXTSIZE
 40
0.0
  9
$TRACEWID
 40
0.05
  9
$TEXTSTYLE
  7
STANDARD
  9
$CLAYER
  8
BLOCKS
  9
$CELTYPE
  6
CONTINUOUS
  9
$CECOLOR
 62
   256
  9
$CELTSCALE
 40
1.0
  9
$DISPSILH
 70
     0
  9
$DIMSCALE
 40
1.0
  9
$DIMASZ
 40
5.994399999999999
  9
$DIMEXO
 40
0.9905999999999998
  9
$DIMDLI
 40
0.38
  9
$DIMRND
 40
0.0
  9
$DIMDLE
 40
0.9905999999999998
  9
$DIMEXE
 40
0.18
  9
$DIMTP
 40
0.0
  9
$DIMTM
 40
0.0
  9
$DIMTXT
 40
6.349999999999999
  9
$DIMCEN
 40
0.09
  9
$DIMTSZ
 40
0.0
  9
$DIMTOL
 70
     0
  9
$DIMLIM
 70
     0
  9
$DIMTIH
 70
     1
  9
$DIMTOH
 70
     1
  9
$DIMSE1
 70
     0
  9
$DIMSE2
 70
     0
  9
$DIMTAD
 70
     1
  9
$DIMZIN
 70
     0
  9
$DIMBLK
  1

  9
$DIMASO
 70
     1
  9
$DIMSHO
 70
     1
  9
$DIMPOST
  1

  9
$DIMAPOST
  1

  9
$DIMALT
 70
     0
  9
$DIMALTD
 70
     2
  9
$DIMALTF
 40
0.0394
  9
$DIMLFAC
 40
5.0
  9
$DIMTOFL
 70
     0
  9
$DIMTVP
 40
0.0
  9
$DIMTIX
 70
     0
  9
$DIMSOXD
 70
     0
  9
$DIMSAH
 70
     0
  9
$DIMBLK1
  1

  9
$DIMBLK2
  1

  9
$DIMSTYLE
  2
STANDARD
  9
$DIMCLRD
 70
     0
  9
$DIMCLRE
 70
     0
  9
$DIMCLRT
 70
     0
  9
$DIMTFAC
 40
1.0
  9
$DIMGAP
 40
0.9905999999999998
  9
$DIMJUST
 70
     0
  9
$DIMSD1
 70
     0
  9
$DIMSD2
 70
     0
  9
$DIMTOLJ
 70
     1
  9
$DIMTZIN
 70
     0
  9
$DIMALTZ
 70
     0
  9
$DIMALTTZ
 70
     0
  9
$DIMUPT
 70
     0
  9
$DIMDEC
 70
     4
  9
$DIMTDEC
 70
     4
  9
$DIMALTU
 70
     2
  9
$DIMALTTD
 70
     2
  9
$DIMTXSTY
  7
STANDARD
  9
$DIMAUNIT
 70
     0
  9
$DIMADEC
 70
     0
  9
$DIMALTRND
 40
0.0
  9
$DIMAZIN
 70
     0
  9
$DIMDSEP
 70
    46
  9
$DIMATFIT
 70
     3
  9
$DIMFRAC
 70
     0
  9
$DIMLDRBLK
  1

  9
$DIMLUNIT
 70
     2
  9
$DIMLWD
 70
    -2
  9
$DIMLWE
 70
    -2
  9
$DIMTMOVE
 70
     0
  9
$LUNITS
 70
     2
  9
$LUPREC
 70
     2
  9
$SKETCHINC
 40
0.1
  9
$FILLETRAD
 40
0.0
  9
$AUNITS
 70
     0
  9
$AUPREC
 70
     2
  9
$MENU
  1
acad
  9
$ELEVATION
 40
0.0
  9
$PELEVATION
 40
0.0
  9
$THICKNESS
 40
0.0
  9
$LIMCHECK
 70
     0
  9
$CHAMFERA
 40
0.0
  9
$CHAMFERB
 40
0.0
  9
$CHAMFERC
 40
0.0
  9
$CHAMFERD
 40
0.0
  9
$SKPOLY
 70
     0
  9
$TDCREATE
 40
2444972.041666667
  9
$TDUCREATE
 40
2444972.000000000
  9
$TDUPDATE
 40
2456150.430593889
  9
$TDUUPDATE
 40
2456150.388927222
  9
$TDINDWG
 40
0.1064927778
  9
$TDUSRTIMER
 40
0.1064927778
  9
$USRTIMER
 70
     1
  9
$ANGBASE
 50
0.0
  9
$ANGDIR
 70
     0
  9
$PDMODE
 70
     3
  9
$PDSIZE
 40
0.0
  9
$PLINEWID
 40
0.0
  9
$SPLFRAME
 70
     0
  9
$SPLINETYPE
 70
     6
  9
$SPLINESEGS
 70
     8
  9
$HANDSEED
  5
2E2
  9
$SURFTAB1
 70
     6
  9
$SURFTAB2
 70
     6
  9
$SURFTYPE
 70
     6
  9
$SURFU
 70
     6
  9
$SURFV
 70
     6
  9
$UCSBASE
  2

  9
$UCSNAME
  2

  9
$UCSORG
 10
0.0
 20
0.0
 30
0.0
  9
$UCSXDIR
 10
1.0
 20
0.0
 30
0.0
  9
$UCSYDIR
 10
0.0
 20
1.0
 30
0.0
  9
$UCSORTHOREF
  2

  9
$UCSORTHOVIEW
 70
     0
  9
$UCSORGTOP
 10
0.0
 20
0.0
 30
0.0
  9
$UCSORGBOTTOM
 10
0.0
 20
0.0
 30
0.0
  9
$UCSORGLEFT
 10
0.0
 20
0.0
 30
0.0
  9
$UCSORGRIGHT
 10
0.0
 20
0.0
 30
0.0
  9
$UCSORGFRONT
 10
0.0
 20
0.0
 30
0.0
  9
$UCSORGBACK
 10
0.0
 20
0.0
 30
0.0
  9
$PUCSBASE
  2

  9
$PUCSNAME
  2

  9
$PUCSORG
 10
0.0
 20
0.0
 30
0.0
  9
$PUCSXDIR
 10
1.0
 20
0.0
 30
0.0
  9
$PUCSYDIR
 10
0.0
 20
1.0
 30
0.0
  9
$PUCSORTHOREF
  2

  9
$PUCSORTHOVIEW
 70
     0
  9
$PUCSORGTOP
 10
0.0
 20
0.0
 30
0.0
  9
$PUCSORGBOTTOM
 10
0.0
 20
0.0
 30
0.0
  9
$PUCSORGLEFT
 10
0.0
 20
0.0
 30
0.0
  9
$PUCSORGRIGHT
 10
0.0
 20
0.0
 30
0.0
  9
$PUCSORGFRONT
 10
0.0
 20
0.0
 30
0.0
  9
$PUCSORGBACK
 10
0.0
 20
0.0
 30
0.0
  9
$USERI1
 70
     0
  9
$USERI2
 70
     0
  9
$USERI3
 70
     0
  9
$USERI4
 70
     0
  9
$USERI5
 70
     0
  9
$USERR1
 40
0.0
  9
$USERR2
 40
0.0
  9
$USERR3
 40
0.0
  9
$USERR4
 40
0.0
  9
$USERR5
 40
0.0
  9
$WORLDVIEW
 70
     1
  9
$SHADEDGE
 70
     3
  9
$SHADEDIF
 70
    70
  9
$TILEMODE
 70
     1
  9
$MAXACTVP
 70
    16
  9
$PINSBASE
 10
0.0
 20
0.0
 30
0.0
  9
$PLIMCHECK
 70
     0
  9
$PEXTMIN
 10
1.000000000000000E+20
 20
1.000000000000000E+20
 30
1.000000000000000E+20
  9
$PEXTMAX
 10
-1.000000000000000E+20
 20
-1.000000000000000E+20
 30
-1.000000000000000E+20
  9
$PLIMMIN
 10
0.0
 20
0.0
  9
$PLIMMAX
 10
12.0
 20
9.0
  9
$UNITMODE
 70
     0
  9
$VISRETAIN
 70
     0
  9
$PLINEGEN
 70
     1
  9
$PSLTSCALE
 70
     1
  9
$TREEDEPTH
 70
  3020
  9
$CMLSTYLE
  2
STANDARD
  9
$CMLJUST
 70
     0
  9
$CMLSCALE
 40
1.0
  9
$PROXYGRAPHICS
 70
     1
  9
$MEASUREMENT
 70
     0
  9
$CELWEIGHT
370
    -1
  9
$ENDCAPS
280
     0
  9
$JOINSTYLE
280
     0
  9
$LWDISPLAY
290
     0
  9
$INSUNITS
 70
     6
  9
$HYPERLINKBASE
  1

  9
$STYLESHEET
  1

  9
$XEDIT
290
     1
  9
$CEPSNTYPE
380
     0
  9
$PSTYLEMODE
290
     1
  9
$FINGERPRINTGUID
  2
{8474E463-1CC1-4048-A4B7-CD4074EFBDA3}
  9
$VERSIONGUID
  2
{0B68B06A-F2DF-42BD-9211-0E7F92EF1636}
  9
$EXTNAMES
290
     1
  9
$PSVPSCALE
 40
0.0
  9
$OLESTARTUP
290
     0
  0
ENDSEC
  0
SECTION
  2
CLASSES
  0
CLASS
  1
IMAGE
  2
AcDbRasterImage
  3
ISM
 90
    34943
280
     0
281
     1
  0
CLASS
  1
DICTIONARYVAR
  2
AcDbDictionaryVar
  3
ObjectDBX Classes
 90
        0
280
     0
281
     0
  0
CLASS
  1
RASTERVARIABLES
  2
AcDbRasterVariables
  3
ISM
 90
    32768
280
     0
281
     0
  0
CLASS
  1
IMAGEDEF
  2
AcDbRasterImageDef
  3
ISM
 90
    32768
280
     0
281
     0
  0
CLASS
  1
IMAGEDEF_REACTOR
  2
AcDbRasterImageDefReactor
  3
ISM
 90
    32769
280
     0
281
     0
  0
CLASS
  1
IDBUFFER
  2
AcDbIdBuffer
  3
ObjectDBX Classes
 90
    32768
280
     0
281
     0
  0
CLASS
  1
SPATIAL_FILTER
  2
AcDbSpatialFilter
  3
ObjectDBX Classes
 90
    32768
280
     0
281
     0
  0
CLASS
  1
SORTENTSTABLE
  2
AcDbSortentsTable
  3
ObjectDBX Classes
 90
    32768
280
     0
281
     0
  0
CLASS
  1
LAYER_INDEX
  2
AcDbLayerIndex
  3
ObjectDBX Classes
 90
    32768
280
     0
281
     0
  0
CLASS
  1
SPATIAL_INDEX
  2
AcDbSpatialIndex
  3
ObjectDBX Classes
 90
    32768
280
     0
281
     0
  0
CLASS
  1
OBJECT_PTR
  2
CAseDLPNTableRecord
  3
ASE-LPNTableRecord
 90
    32769
280
     0
281
     0
  0
CLASS
  1
LAYOUT
  2
AcDbLayout
  3
ObjectDBX Classes
 90
        0
280
     0
281
     0
  0
CLASS
  1
PLOTSETTINGS
  2
AcDbPlotSettings
  3
ObjectDBX Classes
 90
    32768
280
     0
281
     0
  0
CLASS
  1
ACDBDICTIONARYWDFLT
  2
AcDbDictionaryWithDefault
  3
ObjectDBX Classes
 90
        0
280
     0
281
     0
  0
CLASS
  1
ACDBPLACEHOLDER
  2
AcDbPlaceHolder
  3
ObjectDBX Classes
 90
        0
280
     0
281
     0
  0
CLASS
  1
VBA_PROJECT
  2
AcDbVbaProject
  3
acad
 90
    32768
280
     0
281
     0
  0
CLASS
  1
WIPEOUT
  2
AcDbWipeout
  3
"WipeOut|Product Desc: Object Enabler for WipeOut entity^I^I^I^I^I^I|Company: Autodesk, Inc.^I^I^I^I^I^I|WEB Address: www.autodesk.com"
 90
    32895
280
     1
281
     1
  0
CLASS
  1
WIPEOUTVARIABLES
  2
AcDbWipeoutVariables
  3
"WipeOut|Product Desc:     WipeOut Dbx Application|Company:          Autodesk, Inc.|WEB Address:      www.autodesk.com"
 90
    32768
280
     1
281
     0
  0
CLASS
  1
RTEXT
  2
RText
  3
RText|AutoCAD Express Tool|expresstools@autodesk.com
 90
    33791
280
     1
281
     1
  0
CLASS
  1
ARCALIGNEDTEXT
  2
AcDbArcAlignedText
  3
ATEXT|AutoCAD Express Tool|expresstools@autodesk.com
 90
    32768
280
     1
281
     1
  0
CLASS
  1
TABLESTYLE
  2
AcDbTableStyle
  3
ObjectDBX Classes
 90
     4095
280
     0
281
     0
  0
CLASS
  1
MATERIAL
  2
AcDbMaterial
  3
ObjectDBX Classes
 90
     1153
280
     0
281
     0
  0
CLASS
  1
VISUALSTYLE
  2
AcDbVisualStyle
  3
ObjectDBX Classes
 90
     4095
280
     0
281
     0
  0
CLASS
  1
SCALE
  2
AcDbScale
  3
ObjectDBX Classes
 90
     1153
280
     0
281
     0
  0
CLASS
  1
MLEADERSTYLE
  2
AcDbMLeaderStyle
  3
ACDB_MLEADERSTYLE_CLASS
 90
     4095
280
     0
281
     0
  0
CLASS
  1
CELLSTYLEMAP
  2
AcDbCellStyleMap
  3
ObjectDBX Classes
 90
     1152
280
     0
281
     0
  0
ENDSEC
  0
SECTION
  2
TABLES
  0
TABLE
  2
VPORT
  5
19
330
0
100
AcDbSymbolTable
 70
     1
  0
VPORT
  5
24B
330
19
100
AcDbSymbolTableRecord
100
AcDbViewportTableRecord
  2
*Active
 70
     0
 10
0.0
 20
0.0
 11
1.0
 21
1.0
 12
0.7995920605373748
 22
0.2544907736843038
 13
0.0
 23
0.0
 14
1.0
 24
1.0
 15
0.0
 25
0.0
 16
0.0
 26
0.0
 36
1.0
 17
0.0
 27
0.0
 37
0.0
 40
3.979330169569089
 41
1.645464025026068
 42
50.0
 43
0.0
 44
0.0
 50
0.0
 51
0.0
 71
     0
 72
  2000
 73
     1
 74
     2
 75
     0
 76
     0
 77
     0
 78
     0
281
     0
 65
     1
110
0.0
120
0.0
130
0.0
111
1.0
121
0.0
131
0.0
112
0.0
122
1.0
132
0.0
 79
     0
146
0.0
  0
ENDTAB
  0
TABLE
  2
LTYPE
  5
14
330
0
100
AcDbSymbolTable
 70
     1
  0
LTYPE
  5
15
330
14
100
AcDbSymbolTableRecord
100
AcDbLinetypeTableRecord
  2
BYBLOCK
 70
     0
  3

 72
    65
 73
     0
 40
0.0
  0
LTYPE
  5
16
330
14
100
AcDbSymbolTableRecord
100
AcDbLinetypeTableRecord
  2
BYLAYER
 70
     0
  3

 72
    65
 73
     0
 40
0.0
  0
LTYPE
  5
8
330
14
100
AcDbSymbolTableRecord
100
AcDbLinetypeTableRecord
  2
CONTINUOUS
 70
     0
  3
Solid line
 72
    65
 73
     0
 40
0.0
  0
ENDTAB
  0
TABLE
  2
LAYER
  5
10
330
0
100
AcDbSymbolTable
 70
     2
  0
LAYER
  5
4
102
{ACAD_XDICTIONARY
360
2A6
102
}
330
10
100
AcDbSymbolTableRecord
100
AcDbLayerTableRecord
  2
0
 70
     0
 62
     7
  6
CONTINUOUS
370
    -3
390
5
  0
LAYER
  5
22
102
{ACAD_XDICTIONARY
360
2A8
102
}
330
10
100
AcDbSymbolTableRecord
100
AcDbLayerTableRecord
  2
BLOCKS
 70
     0
 62
     3
  6
CONTINUOUS
370
    -3
390
5
  0
ENDTAB
  0
TABLE
  2
STYLE
  5
11
330
0
100
AcDbSymbolTable
 70
     1
  0
STYLE
  5
12
330
11
100
AcDbSymbolTableRecord
100
AcDbTextStyleTableRecord
  2
STANDARD
 70
     0
 40
0.0
 41
1.0
 50
0.0
 71
     0
 42
0.0
  3
txt
  4

  0
ENDTAB
  0
TABLE
  2
VIEW
  5
17
330
0
100
AcDbSymbolTable
 70
     0
  0
ENDTAB
  0
TABLE
  2
UCS
  5
18
330
0
100
AcDbSymbolTable
 70
     0
  0
ENDTAB
  0
TABLE
  2
APPID
  5
1B
330
0
100
AcDbSymbolTable
 70
     3
  0
APPID
  5
1C
330
1B
100
AcDbSymbolTableRecord
100
AcDbRegAppTableRecord
  2
ACAD
 70
     0
  0
APPID
  5
5D
330
1B
100
AcDbSymbolTableRecord
100
AcDbRegAppTableRecord
  2
DCO15
 70
     0
  0
APPID
  5
2E1
330
1B
100
AcDbSymbolTableRecord
100
AcDbRegAppTableRecord
  2
ACAD_MLEADERVER
 70
     0
  0
ENDTAB
  0
TABLE
  2
DIMSTYLE
  5
1D
330
0
100
AcDbSymbolTable
 70
     1
100
AcDbDimStyleTable
 71
     0
  0
DIMSTYLE
105
24
330
1D
100
AcDbSymbolTableRecord
100
AcDbDimStyleTableRecord
  2
STANDARD
 70
     0
289
     0
340
12
  0
ENDTAB
  0
TABLE
  2
BLOCK_RECORD
  5
1
330
0
100
AcDbSymbolTable
 70
     1
  0
BLOCK_RECORD
  5
2
330
1
100
AcDbSymbolTableRecord
100
AcDbBlockTableRecord
  2
*MODEL_SPACE
340
A
  0
BLOCK_RECORD
  5
C
330
1
100
AcDbSymbolTableRecord
100
AcDbBlockTableRecord
  2
*PAPER_SPACE
340
F
  0
BLOCK_RECORD
  5
14E
330
1
100
AcDbSymbolTableRecord
100
AcDbBlockTableRecord
  2
A$C717443A5
340
0
1001
ACAD
1000
DesignCenter Data
1002
{
1070
     1
1070
     6
1002
}
  0
ENDTAB
  0
ENDSEC
  0
SECTION
  2
BLOCKS
  0
BLOCK
  5
3
330
2
100
AcDbEntity
  8
0
100
AcDbBlockBegin
  2
*MODEL_SPACE
 70
     0
 10
0.0
 20
0.0
 30
0.0
  3
*MODEL_SPACE
  1

  0
ENDBLK
  5
9
330
2
100
AcDbEntity
  8
0
100
AcDbBlockEnd
  0
BLOCK
  5
D
330
C
100
AcDbEntity
 67
     1
  8
0
100
AcDbBlockBegin
  2
*PAPER_SPACE
 70
     0
 10
0.0
 20
0.0
 30
0.0
  3
*PAPER_SPACE
  1

  0
ENDBLK
  5
E
330
C
100
AcDbEntity
 67
     1
  8
0
100
AcDbBlockEnd
  0
BLOCK
  5
194
330
14E
100
AcDbEntity
  8
0
100
AcDbBlockBegin
  2
A$C717443A5
 70
     0
 10
0.0
 20
0.0
 30
0.0
  3
A$C717443A5
  1

  0
LINE
  5
14F
330
14E
100
AcDbEntity
  8
BLOCKS
  6
Continuous
100
AcDbLine
 10
1.659467306367756
 20
0.4364494410825128
 30
0.0
 11
1.659467306367756
 21
0.4014494410825446
 31
0.0
  0
LWPOLYLINE
  5
150
330
14E
100
AcDbEntity
  8
BLOCKS
  6
Continuous
100
AcDbPolyline
 90
       10
 70
   128
 43
0.0
 10
1.654420475234788
 20
0.4364494410825128
 10
1.65426712982468
 20
0.4381859228591921
 10
1.653811752916904
 20
0.4398696425157678
 10
1.653068180908436
 20
0.4414494410825128
 10
1.652059006858386
 20
0.4428773171794083
 10
1.650814894009841
 20
0.4441098855136798
 10
1.64937364410193
 20
0.4451096951203718
 10
1.647779048783801
 20
0.4458463672903591
 10
1.646079559027481
 20
0.4462975186126633
 10
1.644326812968962
 20
0.4464494410825128
  0
LINE
  5
151
330
14E
100
AcDbEntity
  8
BLOCKS
  6
Continuous
100
AcDbLine
 10
1.654420475234784
 20
0.4364494410825128
 30
0.0
 11
1.654420475234784
 21
0.4014494410825446
 31
0.0
  0
LWPOLYLINE
  5
152
330
14E
100
AcDbEntity
  8
BLOCKS
  6
Continuous
100
AcDbPolyline
 90
        6
 70
   128
 43
0.0
 10
1.616528049137619
 20
0.4570803533633799
 10
1.621763288729076
 20
0.4529909336145639
 10
1.627780355764103
 20
0.4497470585499823
 10
1.634074099081286
 20
0.4476210578593591
 10
1.640825714525441
 20
0.4465517217560037
 10
1.643684404114525
 20
0.4464494410825128
  0
LINE
  5
153
330
14E
100
AcDbEntity
  8
BLOCKS
  6
Continuous
100
AcDbLine
 10
1.644326812968953
 20
0.4464494410825037
 30
0.0
 11
1.64368440411462
 21
0.4464494410825037
 31
0.0
  0
LINE
  5
154
330
14E
100
AcDbEntity
  8
BLOCKS
  6
Continuous
100
AcDbLine
 10
1.644326812968953
 20
0.451449441082556
 30
0.0
 11
1.64368440411462
 21
0.451449441082556
 31
0.0
  0
LWPOLYLINE
  5
155
330
14E
100
AcDbEntity
  8
BLOCKS
  6
Continuous
100
AcDbPolyline
 90
        6
 70
   128
 43
0.0
 10
1.619922591869095
 20
0.4607514923303089
 10
1.624503424936034
 20
0.4571732498229168
 10
1.629768357048402
 20
0.4543348586545826
 10
1.635275381045054
 20
0.4524746073338238
 10
1.641183043227089
 20
0.4515389372100973
 10
1.643684404114525
 20
0.4514494410825128
  0
LWPOLYLINE
  5
156
330
14E
100
AcDbEntity
  8
BLOCKS
  6
Continuous
100
AcDbPolyline
 90
       11
 70
   128
 43
0.0
 10
1.659467306367647
 20
0.4364494410825128
 10
1.65928090176984
 20
0.4387959580581074
 10
1.658726277875854
 20
0.4410846959981419
 10
1.657817091366692
 20
0.4432592985785951
 10
1.656575729431775
 20
0.4452662198668614
 10
1.655032758521761
 20
0.4470560428003219
 10
1.653226171701231
 20
0.4485846959981419
 10
1.651200453133338
 20
0.4498145389453558
 10
1.649005482732342
 20
0.4507152888269403
 10
1.646695307954238
 20
0.4512647661914517
 10
1.644326812968962
 20
0.4514494410825128
  0
LINE
  5
157
330
14E
100
AcDbEntity
  8
BLOCKS
  6
Continuous
100
AcDbLine
 10
1.659467306367756
 20
0.4014494410825446
 30
0.0
 11
1.654420475234784
 21
0.4014494410825446
 31
0.0
  0
LINE
  5
158
330
14E
100
AcDbEntity
  8
BLOCKS
  6
Continuous
100
AcDbLine
 10
1.582252926897664
 20
0.4631592461440701
 30
0.0
 11
1.59622247981471
 21
0.4641838590694615
 31
0.0
  0
LINE
  5
159
330
14E
100
AcDbEntity
  8
BLOCKS
  6
Continuous
100
AcDbLine
 10
1.581887178627735
 20
0.468145851021458
 30
0.0
 11
1.595856731544782
 21
0.4691704639468494
 31
0.0
  0
LWPOLYLINE
  5
15A
330
14E
100
AcDbEntity
  8
BLOCKS
  6
Continuous
100
AcDbPolyline
 90
        4
 70
   128
 43
0.0
 10
1.602491243050595
 20
0.4700642089532985
 10
1.600944096810586
 20
0.4707141403454071
 10
1.598429368012244
 20
0.4717637631663447
 10
1.597971840007036
 20
0.4719533549787221
  0
LWPOLYLINE
  5
15B
330
14E
100
AcDbEntity
  8
BLOCKS
  6
Continuous
100
AcDbPolyline
 90
        8
 70
   128
 43
0.0
 10
1.609081955502793
 20
0.46734126309162
 10
1.608845706949165
 20
0.4674331883921323
 10
1.608337618034043
 20
0.46763406163729
 10
1.607511446169142
 20
0.4679652659813283
 10
1.606354932566415
 20
0.4684346071778773
 10
1.604872610198605
 20
0.4690428562177467
 10
1.603089510372325
 20
0.4697827251447953
 10
1.602496201834461
 20
0.4700322694327398
  0
LINE
  5
15C
330
14E
100
AcDbEntity
  8
BLOCKS
  6
Continuous
100
AcDbLine
 10
1.536977370215109
 20
0.4419339590773998
 30
0.0
 11
1.537546090062133
 21
0.4425105344760678
 31
0.0
  0
LWPOLYLINE
  5
15D
330
14E
100
AcDbEntity
  8
BLOCKS
  6
Continuous
100
AcDbPolyline
 90
        7
 70
   128
 43
0.0
 10
1.537545196797605
 20
0.4425113145638161
 10
1.543791131042295
 20
0.4481337124519623
 10
1.550617955296025
 20
0.4529291516345248
 10
1.558025669558761
 20
0.4568976321115034
 10
1.565848642680963
 20
0.4599628826162362
 10
1.573924395127274
 20
0.4620500872937911
 10
1.582252926897659
 20
0.4631592461440587
  0
LINE
  5
15E
330
14E
100
AcDbEntity
  8
BLOCKS
  6
Continuous
100
AcDbLine
 10
1.580338684730432
 20
0.4014494410825446
 30
0.0
 11
1.569072341267511
 21
0.4014494410825446
 31
0.0
  0
LINE
  5
15F
330
14E
100
AcDbEntity
  8
BLOCKS
  6
Continuous
100
AcDbLine
 10
1.654420475234784
 20
0.4014494410825446
 30
0.0
 11
1.580338684730432
 21
0.4014494410825446
 31
0.0
  0
LWPOLYLINE
  5
160
330
14E
100
AcDbEntity
  8
BLOCKS
  6
Continuous
100
AcDbPolyline
 90
        6
 70
   128
 43
0.0
 10
1.619922591869095
 20
0.4607514923303089
 10
1.616087834553678
 20
0.4637881057033511
 10
1.611726793934018
 20
0.4662555450509526
 10
1.606740721361662
 20
0.4680947322798229
 10
1.601365150401639
 20
0.4690990349861377
 10
1.595856731544796
 20
0.4691704639468654
  0
LWPOLYLINE
  5
161
330
14E
100
AcDbEntity
  8
BLOCKS
  6
Continuous
100
AcDbPolyline
 90
        6
 70
   128
 43
0.0
 10
1.616528049137619
 20
0.4570803533633799
 10
1.613292469938847
 20
0.4596424968510101
 10
1.609612838842718
 20
0.4617243991749993
 10
1.605405838330503
 20
0.4632762125810396
 10
1.600870198637809
 20
0.4641235917853183
 10
1.596222479814738
 20
0.4641838590694525
  0
LINE
  5
162
330
14E
100
AcDbEntity
  8
BLOCKS
100
AcDbLine
 10
1.51711772692951
 20
0.4725394544723795
 30
0.0
 11
1.528096048174657
 21
0.4751049368150543
 31
0.0
  0
LINE
  5
163
330
14E
100
AcDbEntity
  8
BLOCKS
  6
Continuous
100
AcDbLine
 10
1.512632177838978
 20
0.4713550286678551
 30
0.0
 11
1.51711772692951
 21
0.4725394544723795
 31
0.0
  0
LINE
  5
164
330
14E
100
AcDbEntity
  8
BLOCKS
  6
Continuous
100
AcDbLine
 10
1.499997984738425
 20
0.4680189233158071
 30
0.0
 11
1.512632177838978
 21
0.4713550286678551
 31
0.0
  0
LWPOLYLINE
  5
165
330
14E
100
AcDbEntity
  8
BLOCKS
  6
Continuous
100
AcDbPolyline
 90
       10
 70
   128
 43
0.0
 10
1.372346370993096
 20
0.4514494410825128
 10
1.377432031249651
 20
0.4514753056917462
 10
1.394111222764755
 20
0.4519234967468574
 10
1.41034930607008
 20
0.4528957559837718
 10
1.426281199170358
 20
0.4543669962858249
 10
1.44172988725039
 20
0.4562869145604046
 10
1.457072940705753
 20
0.4586804026474775
 10
1.471877578807494
 20
0.4614560343197073
 10
1.486230742922076
 20
0.4645919431416761
 10
1.499997984738425
 20
0.4680189233157936
  0
LWPOLYLINE
  5
166
330
14E
100
AcDbEntity
  8
BLOCKS
  6
Continuous
100
AcDbPolyline
 90
       14
 70
   128
 43
0.0
 10
1.59815982421535
 20
0.4717796792658183
 10
1.594946404475509
 20
0.4730834799556752
 10
1.590310419544135
 20
0.474640857609883
 10
1.585598169938153
 20
0.4759170930088285
 10
1.580655616736972
 20
0.4769642699131865
 10
1.575355172894765
 20
0.4777921000135749
 10
1.569843924884795
 20
0.478359915577129
 10
1.564131090115975
 20
0.4786618887017167
 10
1.558228937513582
 20
0.4786935643730967
 10
1.552149171328297
 20
0.4784521194820254
 10
1.545901871412375
 20
0.4779359121770895
 10
1.539490953064947
 20
0.4771430440212125
 10
1.533045135391244
 20
0.4760939914557813
 10
1.528096048174544
 20
0.4751049368150043
  0
LINE
  5
167
330
14E
100
AcDbEntity
  8
BLOCKS
  6
Continuous
100
AcDbLine
 10
1.569072341267511
 20
0.4014494410825446
 30
0.0
 11
1.497044433543092
 21
0.4014494410825446
 31
0.0
  0
LWPOLYLINE
  5
168
330
14E
100
AcDbEntity
  8
BLOCKS
  6
Continuous
100
AcDbPolyline
 90
       10
 70
   128
 43
0.0
 10
1.533986053707945
 20
0.4460230820838106
 10
1.538845301717034
 20
0.450530161124515
 10
1.544082774934964
 20
0.4545915558372136
 10
1.549848819039421
 20
0.4582837385511803
 10
1.555926951318493
 20
0.4614358467084085
 10
1.561788424335269
 20
0.4638473985304873
 10
1.567832295174508
 20
0.4657563441578523
 10
1.574203880594019
 20
0.4671809365032086
 10
1.5806750776106
 20
0.4680470619471808
 10
1.581887178627644
 20
0.4681458510213989
  0
LINE
  5
169
330
14E
100
AcDbEntity
  8
BLOCKS
  6
Continuous
100
AcDbLine
 10
1.216266396482265
 20
0.0803535813442946
 30
0.0
 11
1.216389205539113
 21
0.080669086569284
 31
0.0
  0
LWPOLYLINE
  5
16A
330
14E
100
AcDbEntity
  8
BLOCKS
  6
Continuous
100
AcDbPolyline
 90
        3
 70
   128
 43
0.0
 10
1.265257646401756
 20
0.1595736647236108
 10
1.240813814147573
 20
0.1201060674159808
 10
1.216389205539113
 20
0.0806690865692863
  0
LINE
  5
16B
330
14E
100
AcDbEntity
  8
BLOCKS
  6
Continuous
100
AcDbLine
 10
1.261041984578665
 20
0.1622772018920923
 30
0.0
 11
1.212138252610512
 21
0.0833065718504682
 31
0.0
  0
LWPOLYLINE
  5
16C
330
14E
100
AcDbEntity
  8
BLOCKS
  6
Continuous
100
AcDbPolyline
 90
        5
 70
   128
 43
0.0
 10
1.26097938362042
 20
0.1621761127336131
 10
1.267114018543785
 20
0.1714944258270762
 10
1.273778088678651
 20
0.1804848783265325
 10
1.281003525424335
 20
0.1891694934416219
 10
1.288732186934199
 20
0.197458884767183
  0
LWPOLYLINE
  5
16D
330
14E
100
AcDbEntity
  8
BLOCKS
  6
Continuous
100
AcDbPolyline
 90
        5
 70
   128
 43
0.0
 10
1.265257646401756
 20
0.1595736647236108
 10
1.271268182979243
 20
0.1686994302441954
 10
1.277799957148878
 20
0.1775023716408387
 10
1.284807783298989
 20
0.1859172855732314
 10
1.292300372253181
 20
0.1939509807020286
  0
LINE
  5
16E
330
14E
100
AcDbEntity
  8
BLOCKS
  6
Continuous
100
AcDbLine
 10
1.104567808228776
 20
0.0167434397619641
 30
0.0
 11
1.10477295520715
 21
0.0167480951981784
 31
0.0
  0
LWPOLYLINE
  5
16F
330
14E
100
AcDbEntity
  8
BLOCKS
  6
Continuous
100
AcDbPolyline
 90
       14
 70
   128
 43
0.0
 10
1.104567808228772
 20
0.0167434397619573
 10
1.104829144369528
 20
0.0167496230698808
 10
1.116180942050583
 20
0.0175156672082076
 10
1.127468317088738
 20
0.019239599172287
 10
1.138572729030189
 20
0.0218982812148888
 10
1.149375637421713
 20
0.0254685755886012
 10
1.159166593832984
 20
0.0296239979008888
 10
1.168601069800011
 20
0.0345353074367804
 10
1.178219017251054
 20
0.0405939108771773
 10
1.187326044142415
 20
0.0474640128898673
 10
1.195828842092256
 20
0.0550691449297292
 10
1.203634102719175
 20
0.0633328384516781
 10
1.210357140322545
 20
0.0717467766161272
 10
1.216389205539113
 20
0.0806690865692863
  0
LWPOLYLINE
  5
170
330
14E
100
AcDbEntity
  8
BLOCKS
  6
Continuous
100
AcDbPolyline
 90
       14
 70
   128
 43
0.0
 10
1.104454371560992
 20
0.0217421528085461
 10
1.10471082237606
 20
0.0217482252528853
 10
1.114989972746649
 20
0.0224150829657802
 10
1.125216390482479
 20
0.0238971517485325
 10
1.135295025711771
 20
0.0261768703061162
 10
1.145130828562383
 20
0.0292366773435415
 10
1.155277830570072
 20
0.0333420890099288
 10
1.165078816142764
 20
0.0383032897831791
 10
1.174432419676546
 20
0.0440637090679948
 10
1.183237275567176
 20
0.0505667762688964
 10
1.191454787907992
 20
0.057798302561313
 10
1.199062170859966
 20
0.0657234733353826
 10
1.205982350426771
 20
0.0742552444712046
 10
1.212138252611645
 20
0.0833065718487697
  0
LWPOLYLINE
  5
171
330
14E
100
AcDbEntity
  8
BLOCKS
  6
Continuous
100
AcDbPolyline
 90
        3
 70
   128
 43
0.0
 10
1.537545209005862
 20
0.4425113269369458
 10
1.41491883851219
 20
0.3182287375894512
 10
1.292300372253181
 20
0.1939509807020286
  0
LINE
  5
172
330
14E
100
AcDbEntity
  8
BLOCKS
  6
Continuous
100
AcDbLine
 10
1.533986053707818
 20
0.4460230820835673
 30
0.0
 11
1.28812316898242
 21
0.1968416465531359
 31
0.0
  0
LINE
  5
173
330
14E
100
AcDbEntity
  8
BLOCKS
  6
Continuous
100
AcDbLine
 10
1.301775191890979
 20
0.451449441082556
 30
0.0
 11
1.375097100055055
 21
0.451449441082556
 31
0.0
  0
LINE
  5
174
330
14E
100
AcDbEntity
  8
BLOCKS
  6
Continuous
100
AcDbLine
 10
0.8425285004639963
 20
0.451449441082556
 30
0.0
 11
0.9545831211188133
 21
0.451449441082556
 31
0.0
  0
LINE
  5
175
330
14E
100
AcDbEntity
  8
BLOCKS
  6
Continuous
100
AcDbLine
 10
0.3953103075002364
 20
0.451449441082556
 30
0.0
 11
0.5913533111352909
 21
0.451449441082556
 31
0.0
  0
LINE
  5
176
330
14E
100
AcDbEntity
  8
BLOCKS
  6
Continuous
100
AcDbLine
 10
0.5913533111352909
 20
0.451449441082556
 30
0.0
 11
0.8425285004639963
 21
0.451449441082556
 31
0.0
  0
ARC
  5
177
330
14E
100
AcDbEntity
  8
BLOCKS
  6
Continuous
100
AcDbCircle
 10
0.1207984734340617
 20
0.4324494410825505
 30
0.0
 40
0.014
100
AcDbArc
 50
9.248950013074452
 51
90.0
  0
LINE
  5
178
330
14E
100
AcDbEntity
  8
BLOCKS
  6
Continuous
100
AcDbLine
 10
0.1207984734340617
 20
0.451449441082556
 30
0.0
 11
0.0596218372305348
 21
0.451449441082556
 31
0.0
  0
LINE
  5
179
330
14E
100
AcDbEntity
  8
BLOCKS
  6
Continuous
100
AcDbLine
 10
0.1207984734340617
 20
0.4464494410825037
 30
0.0
 11
0.0596218372305348
 21
0.4464494410825037
 31
0.0
  0
ARC
  5
17A
330
14E
100
AcDbEntity
  8
BLOCKS
  6
Continuous
100
AcDbCircle
 10
0.1207984734340617
 20
0.4324494410825505
 30
0.0
 40
0.0190000000000001
100
AcDbArc
 50
9.248950013074452
 51
90.0
  0
LINE
  5
17B
330
14E
100
AcDbEntity
  8
BLOCKS
  6
Continuous
100
AcDbLine
 10
0.1395514603644561
 20
0.4355032061673651
 30
0.0
 11
0.1920540556860406
 21
0.1130879395946604
 31
0.0
  0
LINE
  5
17C
330
14E
100
AcDbEntity
  8
BLOCKS
  6
Continuous
100
AcDbLine
 10
0.1346164638037781
 20
0.4346995837765885
 30
0.0
 11
0.1871190591254763
 21
0.1122843172039407
 31
0.0
  0
ARC
  5
17D
330
14E
100
AcDbEntity
  8
BLOCKS
100
AcDbCircle
 10
0.3814663708505723
 20
-0.0487956731734616
 30
0.0
 40
0.0557736536533423
100
AcDbArc
 50
105.2997346698184
 51
118.9683362453349
  0
ARC
  5
17E
330
14E
100
AcDbEntity
  8
BLOCKS
100
AcDbCircle
 10
0.2570977840144597
 20
-0.064992539420874
 30
0.0
 40
0.0743914363086834
100
AcDbArc
 50
60.88633243659673
 51
66.50994689421927
  0
ARC
  5
17F
330
14E
100
AcDbEntity
  8
BLOCKS
100
AcDbCircle
 10
0.2570977840144597
 20
-0.0598233612811928
 30
0.0
 40
0.0743914363086834
100
AcDbArc
 50
53.53017235024562
 51
66.50994689421927
  0
LINE
  5
180
330
14E
100
AcDbEntity
  8
BLOCKS
100
AcDbLine
 10
0.2932924761006153
 20
-0.0000000009194455
 30
0.0
 11
0.3667494558806912
 21
-0.0000000009194455
 31
0.0
  0
ARC
  5
181
330
14E
100
AcDbEntity
  8
BLOCKS
  6
Continuous
100
AcDbCircle
 10
0.3203639662616216
 20
0.133982121753942
 30
0.0
 40
0.1350000000000001
100
AcDbArc
 50
189.2489500130744
 51
255.6575289869796
  0
ARC
  5
182
330
14E
100
AcDbEntity
  8
BLOCKS
  6
Continuous
100
AcDbCircle
 10
0.3203639662616216
 20
0.133982121753942
 30
0.0
 40
0.1300000000000002
100
AcDbArc
 50
189.2489500130744
 51
255.0145848497862
  0
LINE
  5
183
330
14E
100
AcDbEntity
  8
BLOCKS
  6
Continuous
100
AcDbLine
 10
0.0444813438317315
 20
0.4014494410825446
 30
0.0
 11
0.0444813438317315
 21
0.4364494410825128
 31
0.0
  0
LINE
  5
184
330
14E
100
AcDbEntity
  8
BLOCKS
  6
Continuous
100
AcDbLine
 10
0.0495281749647038
 20
0.4014494410825446
 30
0.0
 11
0.0495281749647038
 21
0.4364494410825128
 31
0.0
  0
LINE
  5
185
330
14E
100
AcDbEntity
  8
BLOCKS
  6
Continuous
100
AcDbLine
 10
0.0495281749647038
 20
0.4014494410825446
 30
0.0
 11
0.0444813438317315
 21
0.4014494410825446
 31
0.0
  0
LWPOLYLINE
  5
186
330
14E
100
AcDbEntity
  8
BLOCKS
  6
Continuous
100
AcDbPolyline
 90
       11
 70
   128
 43
0.0
 10
0.0150000015196074
 20
0.4514494410825128
 10
0.0126752586128223
 20
0.4512647661914517
 10
0.0104077585917785
 20
0.4507152888269403
 10
0.0082533348323578
 20
0.449814538945283
 10
0.006265036397841
 20
0.4485846959981419
 10
0.0044918217941686
 20
0.4470560428002856
 10
0.0029773534499564
 20
0.4452662198668614
 10
0.001758922602081
 20
0.4432592985785951
 10
0.0008665310618617
 20
0.4410846959981419
 10
0.0003221524706042
 20
0.4387959580581074
 10
0.0001391912358904
 20
0.4364494410825128
  0
LINE
  5
187
330
14E
100
AcDbEntity
  8
BLOCKS
  6
Continuous
100
AcDbLine
 10
0.0001391912359996
 20
0.4364494410825128
 30
0.0
 11
0.0001391912359996
 21
0.4014494410825446
 31
0.0
  0
LINE
  5
188
330
14E
100
AcDbEntity
  8
BLOCKS
  6
Continuous
100
AcDbLine
 10
0.0000000015196211
 20
0.4364494410825128
 30
0.0
 11
0.0000000015196211
 21
0.4014494410825446
 31
0.0
  0
LINE
  5
189
330
14E
100
AcDbEntity
  8
BLOCKS
  6
Continuous
100
AcDbLine
 10
0.0001391912359996
 20
0.4014494410825446
 30
0.0
 11
0.0000000015196211
 21
0.4014494410825446
 31
0.0
  0
LINE
  5
18A
330
14E
100
AcDbEntity
  8
BLOCKS
  6
Continuous
100
AcDbLine
 10
0.0000000015196211
 20
0.4364494410825128
 30
0.0
 11
0.0001391912359996
 21
0.4364494410825128
 31
0.0
  0
LINE
  5
18B
330
14E
100
AcDbEntity
  8
BLOCKS
  6
Continuous
100
AcDbLine
 10
0.0001391912359996
 20
0.4014494410825446
 30
0.0
 11
0.0444813438317315
 21
0.4014494410825446
 31
0.0
  0
LINE
  5
18C
330
14E
100
AcDbEntity
  8
BLOCKS
  6
Continuous
100
AcDbLine
 10
0.1400309679146094
 20
0.4014494410825446
 30
0.0
 11
0.0495281749647038
 21
0.4014494410825446
 31
0.0
  0
LWPOLYLINE
  5
18D
330
14E
100
AcDbEntity
  8
BLOCKS
  6
Continuous
100
AcDbPolyline
 90
       11
 70
   128
 43
0.0
 10
0.0596218372305394
 20
0.4514494410825128
 10
0.0572533422451907
 20
0.4512647661914517
 10
0.0549431674670505
 20
0.4507152888269403
 10
0.0527481970660538
 20
0.449814538945283
 10
0.05072247849827
 20
0.4485846959981419
 10
0.0489158916777761
 20
0.4470560428002856
 10
0.0473729207677625
 20
0.4452662198668614
 10
0.0461315588328089
 20
0.4432592985785951
 10
0.0452223723237931
 20
0.4410846959981419
 10
0.0446677484297707
 20
0.4387959580581074
 10
0.0444813438317452
 20
0.4364494410825128
  0
LWPOLYLINE
  5
18E
330
14E
100
AcDbEntity
  8
BLOCKS
  6
Continuous
100
AcDbPolyline
 90
        9
 70
   128
 43
0.0
 10
0.0596218372305394
 20
0.4464494410825128
 10
0.057652661408707
 20
0.4462572938865552
 10
0.0557591599095995
 20
0.4456882364076583
 10
0.0540140989333905
 20
0.4447641372055287
 10
0.0524845401953153
 20
0.4435205088943613
 10
0.0512292637796291
 20
0.4420051434126791
 10
0.0502965092550458
 20
0.440276275406176
 10
0.049722121854853
 20
0.4384003443026441
 10
0.0495281749646038
 20
0.4364494410825128
  0
LINE
  5
18F
330
14E
100
AcDbEntity
  8
BLOCKS
  6
Continuous
100
AcDbLine
 10
0.0150000015196074
 20
0.4514494410824991
 30
0.0
 11
0.0596218372305348
 21
0.451449441082556
 31
0.0
  0
LINE
  5
190
330
14E
100
AcDbEntity
  8
BLOCKS
  6
Continuous
100
AcDbLine
 10
0.1207984734340617
 20
0.451449441082556
 30
0.0
 11
0.3953103075002364
 21
0.451449441082556
 31
0.0
  0
LINE
  5
191
330
14E
100
AcDbEntity
  8
BLOCKS
  6
Continuous
100
AcDbLine
 10
0.3667494558806912
 20
-0.0000000009194455
 30
0.0
 11
1.104567808228776
 21
0.0167434397619641
 31
0.0
  0
LINE
  5
192
330
14E
100
AcDbEntity
  8
BLOCKS
  6
Continuous
100
AcDbLine
 10
0.3667494558806912
 20
0.0050012863653106
 30
0.0
 11
1.104454371560988
 21
0.0217421528085961
 31
0.0
  0
LINE
  5
193
330
14E
100
AcDbEntity
  8
BLOCKS
  6
Continuous
100
AcDbLine
 10
0.9545831211188133
 20
0.451449441082556
 30
0.0
 11
1.301775191890979
 21
0.451449441082556
 31
0.0
  0
ENDBLK
  5
195
330
14E
100
AcDbEntity
  8
0
100
AcDbBlockEnd
  0
ENDSEC
  0
SECTION
  2
ENTITIES
  0
LINE
  5
25
330
2
100
AcDbEntity
  8
BLOCKS
  6
Continuous
100
AcDbLine
 10
0.3905516293602691
 20
0.4570015179090831
 30
0.0
 11
0.4089849557446801
 21
0.4570015179090831
 31
0.0
  0
LINE
  5
26
330
2
100
AcDbEntity
  8
BLOCKS
  6
Continuous
100
AcDbLine
 10
0.4089849557446801
 20
0.4570015179090831
 30
0.0
 11
0.4089849557446801
 21
0.4920015179091081
 31
0.0
  0
LINE
  5
27
330
2
100
AcDbEntity
  8
BLOCKS
  6
Continuous
100
AcDbLine
 10
0.3756882811071396
 20
0.5070015179090946
 30
0.0
 11
0.3939849557446937
 21
0.5070015179090946
 31
0.0
  0
ARC
  5
28
330
2
100
AcDbEntity
  8
BLOCKS
  6
Continuous
100
AcDbCircle
 10
0.3939849557446937
 20
0.4920015179091081
 30
0.0
 40
0.015
100
AcDbArc
 50
0.0000000000000072
 51
90.0
  0
LWPOLYLINE
  5
29
330
2
100
AcDbEntity
  8
BLOCKS
  6
Continuous
100
AcDbPolyline
 90
       17
 70
   128
 43
0.0
 10
0.3206900081441868
 20
0.5071395254519678
 10
0.3190634410680228
 20
0.5072577454462238
 10
0.3164793913124172
 20
0.5075175547839184
 10
0.313538525685975
 20
0.5078875954565241
 10
0.3102386218613478
 20
0.5083783140509707
 10
0.3065789921679548
 20
0.5089980454573756
 10
0.3025604340498408
 20
0.509753051138106
 10
0.2981851945005415
 20
0.510647576355733
 10
0.2934569507015054
 20
0.5116839198345782
 10
0.2883808126858944
 20
0.5128625093164021
 10
0.2829633484263773
 20
0.514181978536509
 10
0.2772126274310299
 20
0.5156392436440376
 10
0.2711382755258032
 20
0.5172295795366165
 10
0.2647495986153749
 20
0.518947836544395
 10
0.2580877918955898
 20
0.520777150846808
 10
0.2512170932193417
 20
0.522689088126864
 10
0.24841770047827
 20
0.5234733360292752
  0
LWPOLYLINE
  5
2A
330
2
100
AcDbEntity
  8
BLOCKS
  6
Continuous
100
AcDbPolyline
 90
       23
 70
   128
 43
0.0
 10
0.2850525430436697
 20
0.3353701479250242
 10
0.2873765570354894
 20
0.346035662413234
 10
0.2897723772919139
 20
0.3569775049428438
 10
0.291906919331153
 20
0.3666835291426116
 10
0.2935575896107125
 20
0.3741618124671379
 10
0.2950034965961036
 20
0.3806926701367059
 10
0.2962428023825065
 20
0.3862756274670767
 10
0.2972739113091607
 20
0.3909102734915735
 10
0.2979479832501907
 20
0.393934969243893
 10
0.2984873701490083
 20
0.3963523695855486
 10
0.298891605652419
 20
0.398162347457984
 10
0.2991603306597913
 20
0.3993647998737663
 10
0.2993905769056742
 20
0.4003947303440521
 10
0.2999494747271033
 20
0.4028927400650003
 10
0.3007290019371371
 20
0.4063708008870539
 10
0.3017309898830295
 20
0.4108304339204563
 10
0.3029578386435911
 20
0.4162736663045156
 10
0.3044125715894129
 20
0.4227030468634997
 10
0.3060989037544219
 20
0.4301216693224354
 10
0.3077320457962137
 20
0.4372706132570614
 10
0.3095419604261347
 20
0.4451517199255626
 10
0.3115325031342158
 20
0.4537680421543712
 10
0.3122844827880486
 20
0.4570015179090127
  0
LWPOLYLINE
  5
2B
330
2
100
AcDbEntity
  8
BLOCKS
  6
Continuous
100
AcDbPolyline
 90
        5
 70
   128
 43
0.0
 10
0.2462926983870362
 20
0.5070015179090854
 10
0.2393353448510184
 20
0.5092472315527641
 10
0.2320883947669368
 20
0.5116455047477951
 10
0.2245305979927376
 20
0.5141900029240072
 10
0.2166871869678594
 20
0.5168569466600469
  0
LWPOLYLINE
  5
2C
330
2
100
AcDbEntity
  8
BLOCKS
  6
Continuous
100
AcDbPolyline
 90
        3
 70
   128
 43
0.0
 10
0.2349208960109841
 20
0.5270490783556682
 10
0.2302376941871567
 20
0.5282368504983254
 10
0.2291425695241137
 20
0.5285004554799537
  0
LWPOLYLINE
  5
2D
330
2
100
AcDbEntity
  8
BLOCKS
  6
Continuous
100
AcDbPolyline
 90
        5
 70
   128
 43
0.0
 10
0.2055058273331393
 20
0.5204166724600521
 10
0.1989256698218319
 20
0.5221332873715086
 10
0.1918900392584997
 20
0.5235039562485337
 10
0.1842596723485926
 20
0.524535978735222
 10
0.1762002520431575
 20
0.525199321920228
  0
LINE
  5
2E
330
2
100
AcDbEntity
  8
BLOCKS
  6
Continuous
100
AcDbLine
 10
0.2166871869678548
 20
0.5168569466600333
 30
0.0
 11
0.2055058273332211
 21
0.5204166724601067
 31
0.0
  0
LWPOLYLINE
  5
2F
330
2
100
AcDbEntity
  8
BLOCKS
  6
Continuous
100
AcDbPolyline
 90
        4
 70
   128
 43
0.0
 10
0.2483754088185683
 20
0.5234506883833104
 10
0.2471701984654952
 20
0.5237916817914094
 10
0.2392735531430967
 20
0.525926043514702
 10
0.2349115431069308
 20
0.5270475991519572
  0
LWPOLYLINE
  5
30
330
2
100
AcDbEntity
  8
BLOCKS
  6
Continuous
100
AcDbPolyline
 90
        6
 70
   128
 43
0.0
 10
0.2493960643152909
 20
0.1735934688408827
 10
0.2534811287646458
 20
0.1916213284582057
 10
0.2595441251596581
 20
0.2186397213646353
 10
0.2656258367403584
 20
0.2460098653748003
 10
0.2717043167760798
 20
0.273642952301999
 10
0.2717955061367625
 20
0.2740607101551371
  0
LINE
  5
31
330
2
100
AcDbEntity
  8
BLOCKS
  6
Continuous
100
AcDbLine
 10
0.2850525430436423
 20
0.3353701479250106
 30
0.0
 11
0.2717955061367352
 21
0.2740607101551462
 31
0.0
  0
LWPOLYLINE
  5
32
330
2
100
AcDbEntity
  8
BLOCKS
  6
Continuous
100
AcDbPolyline
 90
        3
 70
   128
 43
0.0
 10
0.1197285927387143
 20
0.5295466432534171
 10
0.1130952646569799
 20
0.5285964262074061
 10
0.1071451687637396
 20
0.5278226406505212
  0
LWPOLYLINE
  5
33
330
2
100
AcDbEntity
  8
BLOCKS
  6
Continuous
100
AcDbPolyline
 90
       17
 70
   128
 43
0.0
 10
0.1071181889203522
 20
0.5278356344394354
 10
0.1064064499273386
 20
0.5277425875559869
 10
0.0991326249038625
 20
0.5269313706132755
 10
0.0918932493341286
 20
0.5262583670383913
 10
0.0846995822632685
 20
0.5257191104697644
 10
0.077560288913222
 20
0.525308999130358
 10
0.0704817579025926
 20
0.5250234487311911
 10
0.0634684002115987
 20
0.524858012533224
 10
0.0565226760427263
 20
0.5248084710642082
 10
0.0496637258149654
 20
0.5248695357083864
 10
0.0427499575637135
 20
0.5250388487564864
 10
0.035704591723837
 20
0.5253202675339356
 10
0.0285286492927421
 20
0.5257178334134017
 10
0.0212233603197033
 20
0.526235893389204
 10
0.013791221042769
 20
0.5268790459407331
 10
0.0062362324460933
 20
0.5276520882986383
 10
0.004395430469443
 20
0.5278699161591078
  0
LWPOLYLINE
  5
34
330
2
100
AcDbEntity
  8
BLOCKS
  6
Continuous
100
AcDbPolyline
 90
       16
 70
   128
 43
0.0
 10
0.2291093489320643
 20
0.5284572952891916
 10
0.2244768321539901
 20
0.5295514701594959
 10
0.2170177942580208
 20
0.5310181715889497
 10
0.2094696949633303
 20
0.5322165007356683
 10
0.2018574351338916
 20
0.5331481932070177
 10
0.1942142398443262
 20
0.5338171207130303
 10
0.1863489098634395
 20
0.534245390766265
 10
0.178253251828422
 20
0.5344310720668011
 10
0.1700185061920215
 20
0.5343737713698296
 10
0.1616615507402762
 20
0.5340800189616142
 10
0.1532036296127931
 20
0.5335580864533416
 10
0.1446602142032075
 20
0.532817306898652
 10
0.1371130671561637
 20
0.5319959669833418
 10
0.1284326849339354
 20
0.5308647791422495
 10
0.1200951718504744
 20
0.5296081629318373
 10
0.1197285927387143
 20
0.5295466432534171
  0
LWPOLYLINE
  5
35
330
2
100
AcDbEntity
  8
BLOCKS
  6
Continuous
100
AcDbPolyline
 90
        7
 70
   128
 43
0.0
 10
0.1762002520431575
 20
0.525199321920228
 10
0.1659498759380527
 20
0.5271726936123389
 10
0.1559494320128884
 20
0.5286455018701975
 10
0.1461599144754596
 20
0.5295804967614835
 10
0.1363537016529822
 20
0.5299465554764913
 10
0.1266416436582163
 20
0.5297066800061306
 10
0.1169716384624494
 20
0.5288499146348125
  0
LWPOLYLINE
  5
36
330
2
100
AcDbEntity
  8
BLOCKS
  6
Continuous
100
AcDbPolyline
 90
       13
 70
   128
 43
0.0
 10
0.0615557530128295
 20
0.0649209073316172
 10
0.0627615130240461
 20
0.06501036360056
 10
0.0658778390951498
 20
0.0652273543473723
 10
0.0693717608202074
 20
0.0654560914736078
 10
0.0732376199930455
 20
0.0656944770581334
 10
0.0774679330230661
 20
0.0659406224812131
 10
0.0820539294938804
 20
0.0661928471180375
 10
0.0869859704581482
 20
0.0664496663624243
 10
0.0922538531851692
 20
0.0667097736167136
 10
0.0978470229524405
 20
0.0669720199134838
 10
0.1037547153148203
 20
0.0672353936203592
 10
0.1099660500335754
 20
0.0674990016516324
 10
0.1106059522568408
 20
0.067524882021645
  0
LWPOLYLINE
  5
37
330
2
100
AcDbEntity
  8
BLOCKS
  6
Continuous
100
AcDbPolyline
 90
       40
 70
   128
 43
0.0
 10
0.1105828108559158
 20
0.0675250675994915
 10
0.1107554402294713
 20
0.0675317526770971
 10
0.1147263055356539
 20
0.0677092873353843
 10
0.1190468163456476
 20
0.0679391765534104
 10
0.1224670892033769
 20
0.0681584183786265
 10
0.1252655184203045
 20
0.0683701443731491
 10
0.1276299672467881
 20
0.0685767776652222
 10
0.1298142663847407
 20
0.0687936609979454
 10
0.1320611743940331
 20
0.0690456216850737
 10
0.1344371777541833
 20
0.0693464652868
 10
0.1369494805691225
 20
0.0697053500338382
 10
0.1396577575508068
 20
0.0701413822902407
 10
0.1426422675010631
 20
0.0706831845646969
 10
0.1459807355304233
 20
0.0713678718280437
 10
0.1497423739831297
 20
0.0722418332830069
 10
0.1539655811977659
 20
0.0733563820748544
 10
0.1586257539497761
 20
0.0747553874033486
 10
0.1636236609647253
 20
0.0764604543744656
 10
0.168824949416588
 20
0.0784697221593172
 10
0.1741135377308033
 20
0.0807707950927955
 10
0.1794083917311523
 20
0.0833505663972767
 10
0.1846552760706559
 20
0.0861975267096216
 10
0.1898166236983102
 20
0.0893015038987153
 10
0.1948649535746458
 20
0.0926531571730096
 10
0.1997789706788476
 20
0.0962435689796633
 10
0.2045412785133827
 20
0.1000639492799758
 10
0.2091370390204552
 20
0.1041054361169165
 10
0.2135531845633464
 20
0.1083589693582337
 10
0.2177779504737496
 20
0.1128152155516739
 10
0.2218005946092613
 20
0.1174645268217876
 10
0.2256112272916594
 20
0.122296921973649
 10
0.2292007074494118
 20
0.1273020820484101
 10
0.2325605791681969
 20
0.132469355369177
 10
0.2356830333259072
 20
0.1377877689308673
 10
0.2385608818539127
 20
0.1432460377731343
 10
0.2414613592286638
 20
0.1494555192221026
 10
0.2440345025420115
 20
0.1557813491105492
 10
0.2462717679068315
 20
0.162189221610571
 10
0.248173997468251
 20
0.1686628715730342
 10
0.2493613084896001
 20
0.1736007444698055
  0
LWPOLYLINE
  5
38
330
2
100
AcDbEntity
  8
BLOCKS
  6
Continuous
100
AcDbPolyline
 90
        9
 70
   128
 43
0.0
 10
-0.0078206190142068
 20
0.5288617676914886
 10
-0.0078169562061944
 20
0.5288603033561606
 10
-0.0078132941746358
 20
0.5288588340781655
 10
-0.0078096329200403
 20
0.5288573598578673
 10
-0.0078059724436448
 20
0.5288558806957021
 10
-0.0078023127462134
 20
0.5288543965918882
 10
-0.0077986538286918
 20
0.528852907546899
 10
-0.0077949956919533
 20
0.5288514135610252
 10
-0.0077913383370164
 20
0.5288499146348125
  0
LWPOLYLINE
  5
39
330
2
100
AcDbEntity
  8
BLOCKS
  6
Continuous
100
AcDbPolyline
 90
        3
 70
   128
 43
0.0
 10
-0.0078206190142068
 20
0.5288617676914886
 10
-0.0074173175903402
 20
0.5288152884291061
 10
-0.0073141063775315
 20
0.5288033372245275
  0
LWPOLYLINE
  5
3A
330
2
100
AcDbEntity
  8
BLOCKS
  6
Continuous
100
AcDbPolyline
 90
        3
 70
   128
 43
0.0
 10
-0.0073141063775315
 20
0.5288033372245275
 10
-0.007407531477626
 20
0.5288125312962451
 10
-0.0077913383370164
 20
0.5288499146348125
  0
LWPOLYLINE
  5
3B
330
2
100
AcDbEntity
  8
BLOCKS
  6
Continuous
100
AcDbPolyline
 90
        7
 70
   128
 43
0.0
 10
-0.0077913383370164
 20
0.5288499146348125
 10
-0.0196988496615145
 20
0.5296973649358927
 10
-0.0316455474833188
 20
0.5299486192011694
 10
-0.0436528018268714
 20
0.5296138310011532
 10
-0.055963782549376
 20
0.5286870575125806
 10
-0.0684104810664999
 20
0.5272025566788593
 10
-0.0810043629938869
 20
0.525199321920228
  0
LWPOLYLINE
  5
3C
330
2
100
AcDbEntity
  8
BLOCKS
  6
Continuous
100
AcDbPolyline
 90
        3
 70
   128
 43
0.0
 10
-0.1322313112750694
 20
0.5285527028161244
 10
-0.1342852989389635
 20
0.528156888282939
 10
-0.1379458574533478
 20
0.5274102408504417
  0
LWPOLYLINE
  5
3D
330
2
100
AcDbEntity
  8
BLOCKS
  6
Continuous
100
AcDbPolyline
 90
        3
 70
   128
 43
0.0
 10
-0.137958276170581
 20
0.5274138381057503
 10
-0.1477486674207161
 20
0.5253818528082059
 10
-0.154650026480564
 20
0.5238932640896394
  0
LINE
  5
3E
330
2
100
AcDbEntity
  8
BLOCKS
  6
Continuous
100
AcDbLine
 10
-0.116472356337928
 20
0.5204166724601067
 30
0.0
 11
-0.1309748788609308
 21
0.5168569466600333
 31
0.0
  0
LWPOLYLINE
  5
3F
330
2
100
AcDbEntity
  8
BLOCKS
  6
Continuous
100
AcDbPolyline
 90
       16
 70
   128
 43
0.0
 10
-0.0090776714273365
 20
0.5295352237979034
 10
-0.0102460415523515
 20
0.5297111419986333
 10
-0.0199862163869025
 20
0.531007362654965
 10
-0.0286629576462715
 20
0.5319920828668559
 10
-0.0376683233850113
 20
0.5328349049879774
 10
-0.0470365818730411
 20
0.5335149611932151
 10
-0.056343149162682
 20
0.533981190453816
 10
-0.0655881987105445
 20
0.5342268470018475
 10
-0.0747704644727551
 20
0.5342453557559577
 10
-0.0838885994699072
 20
0.5340304543702964
 10
-0.0929421787368542
 20
0.5335761561561242
 10
-0.1019314260992237
 20
0.5328762567295429
 10
-0.1107779619196722
 20
0.5319333082458265
 10
-0.1194474917424363
 20
0.5307568907639882
 10
-0.1280927626685356
 20
0.5293268622285917
 10
-0.1322209743279804
 20
0.5285171984278361
  0
LWPOLYLINE
  5
40
330
2
100
AcDbEntity
  8
BLOCKS
  6
Continuous
100
AcDbPolyline
 90
        5
 70
   128
 43
0.0
 10
-0.0810043629938869
 20
0.525199321920228
 10
-0.0902365494444225
 20
0.5245526938984052
 10
-0.0991943541944479
 20
0.5235518136565965
 10
-0.1080113029804547
 20
0.5221643466226319
 10
-0.1164723563379143
 20
0.5204166724600521
  0
LWPOLYLINE
  5
41
330
2
100
AcDbEntity
  8
BLOCKS
  6
Continuous
100
AcDbPolyline
 90
       16
 70
   128
 43
0.0
 10
-0.1546903229161821
 20
0.5239207642662234
 10
-0.1612394773105611
 20
0.5224963299348396
 10
-0.1703521790470827
 20
0.5205600560858523
 10
-0.1792844967633268
 20
0.5187208046551327
 10
-0.188181971739365
 20
0.5169568390640064
 10
-0.1967533298808544
 20
0.515332192478819
 10
-0.2050492526634539
 20
0.5138409106367556
 10
-0.2130541360770862
 20
0.5124894946681174
 10
-0.2207540665990805
 20
0.511283104073483
 10
-0.2281369855678772
 20
0.5102254928547348
 10
-0.2351926117047392
 20
0.5093189999551045
 10
-0.2419123411573369
 20
0.5085645484540522
 10
-0.2482891367267134
 20
0.507961648707825
 10
-0.2543174165038058
 20
0.5075084015553524
 10
-0.2599929511328505
 20
0.5072014987872546
 10
-0.2644157740589858
 20
0.5070640879997166
  0
LWPOLYLINE
  5
42
330
2
100
AcDbEntity
  8
BLOCKS
  6
Continuous
100
AcDbPolyline
 90
        5
 70
   128
 43
0.0
 10
-0.1309748788610218
 20
0.5168569466600469
 10
-0.1413580942385001
 20
0.5141986460880811
 10
-0.1515295643548656
 20
0.5116619284662023
 10
-0.1615180663024935
 20
0.5092549606316254
 10
-0.1712832722000589
 20
0.5070015179090854
  0
LINE
  5
43
330
2
100
AcDbEntity
  8
BLOCKS
  6
Continuous
100
AcDbLine
 10
-0.1550973366792245
 20
0.5070015179090946
 30
0.0
 11
-0.1712832721997497
 21
0.5070015179082988
 31
0.0
  0
LWPOLYLINE
  5
44
330
2
100
AcDbEntity
  8
BLOCKS
  6
Continuous
100
AcDbPolyline
 90
       25
 70
   128
 43
0.0
 10
-0.1149854763976023
 20
0.0545360911751425
 10
-0.1136665500481526
 20
0.0545393824480573
 10
-0.1117761644584302
 20
0.0545502247106208
 10
-0.1103199679820377
 20
0.0545619048371748
 10
-0.1069797039986283
 20
0.0545939681657194
 10
-0.1036306986651529
 20
0.054633144703804
 10
-0.1001786606932423
 20
0.0546802868307362
 10
-0.0965754124279251
 20
0.0547358859011013
 10
-0.092739675366835
 20
0.0548007777346732
 10
-0.088479840932238
 20
0.0548773227424329
 10
-0.0828067765507935
 20
0.0549864243485002
 10
-0.0773655499169822
 20
0.0550995865723974
 10
-0.0718699498454648
 20
0.0552223329806305
 10
-0.0662916106239268
 20
0.055355447256153
 10
-0.0605842041618293
 20
0.0555001384097352
 10
-0.0546822248730009
 20
0.0556580957504787
 10
-0.0484710530945508
 20
0.0558327349633703
 10
-0.0416654776320197
 20
0.0560343552732604
 10
-0.0349959092086342
 20
0.0562428399215435
 10
-0.0283615047543631
 20
0.05646135488798
 10
-0.0217433327202584
 20
0.0566907457738501
 10
-0.0151173561800956
 20
0.056932064559552
 10
-0.0084543434767388
 20
0.0571865797820658
 10
-0.0017171672626559
 20
0.0574558755237388
 10
0.0004531617059852
 20
0.0575464304462378
  0
LWPOLYLINE
  5
45
330
2
100
AcDbEntity
  8
BLOCKS
  6
Continuous
100
AcDbPolyline
 90
       25
 70
   128
 43
0.0
 10
-0.201443333659196
 20
0.0578775152635001
 10
-0.1996888438950614
 20
0.0577332495094754
 10
-0.1952094728810757
 20
0.0573961191664796
 10
-0.1901593711097725
 20
0.057050139135755
 10
-0.1850162790053641
 20
0.056731285542702
 10
-0.1798170794603415
 20
0.0564394214405923
 10
-0.174567083553708
 20
0.0561720623714439
 10
-0.1692573103002783
 20
0.0559261871709544
 10
-0.1638760071508718
 20
0.0556990525716913
 10
-0.1596303639486418
 20
0.0555339248799294
 10
-0.1553622028539089
 20
0.0553805417807974
 10
-0.1510908189750321
 20
0.0552397188055705
 10
-0.1468057217175797
 20
0.0551108159184162
 10
-0.1420095352698322
 20
0.0549805009090062
 10
-0.1371966094461518
 20
0.0548635786846001
 10
-0.1339683807973474
 20
0.0547913602886195
 10
-0.1308051931845389
 20
0.0547264747189195
 10
-0.1277024056735231
 20
0.0546703569290196
 10
-0.1246307006008706
 20
0.0546230346718597
 10
-0.1215688239710712
 20
0.0545842797133821
 10
-0.1198702375889902
 20
0.0545663693080872
 10
-0.1185653565327143
 20
0.0545543095054757
 10
-0.1171087152974783
 20
0.0545436216755127
 10
-0.1156779786863321
 20
0.0545375755202634
 10
-0.1149936955453145
 20
0.0545366270113312
  0
LINE
  5
46
330
2
100
AcDbEntity
  8
BLOCKS
  6
Continuous
100
AcDbLine
 10
-0.480388681158976
 20
0.5070015179090946
 30
0.0
 11
-0.4784252498932542
 21
0.5070015179090946
 31
0.0
  0
LWPOLYLINE
  5
47
330
2
100
AcDbEntity
  8
BLOCKS
  6
Continuous
100
AcDbPolyline
 90
       10
 70
   128
 43
0.0
 10
-0.3817605484337095
 20
0.4570015179090127
 10
-0.3798676597450744
 20
0.4469337168734649
 10
-0.3734908511402377
 20
0.4126045997759514
 10
-0.3671310329518805
 20
0.3779333317416979
 10
-0.3607905069306858
 20
0.3429110067450177
 10
-0.3544717425082913
 20
0.3075284393370396
 10
-0.3481773914609279
 20
0.2717761649762554
 10
-0.3419117473795326
 20
0.2356518951311966
 10
-0.3356649813392928
 20
0.1990656754670647
 10
-0.3310059172482638
 20
0.1713406826448784
  0
LINE
  5
48
330
2
100
AcDbEntity
  8
BLOCKS
  6
Continuous
100
AcDbLine
 10
-0.4953886694290955
 20
0.4570015179090831
 30
0.0
 11
-0.4934252381633737
 21
0.4570015179090831
 31
0.0
  0
LINE
  5
49
330
2
100
AcDbEntity
  8
BLOCKS
  6
Continuous
100
AcDbLine
 10
-0.4953886694290955
 20
0.4920015179091081
 30
0.0
 11
-0.4953886694290955
 21
0.4570015179090831
 31
0.0
  0
LWPOLYLINE
  5
4A
330
2
100
AcDbEntity
  8
BLOCKS
  6
Continuous
100
AcDbPolyline
 90
       11
 70
   128
 43
0.0
 10
-0.4953886694290909
 20
0.4920015179090491
 10
-0.4952039946824939
 20
0.4943480348846436
 10
-0.4946545177476642
 20
0.4966367728246781
 10
-0.4937537685705016
 20
0.4988113754051313
 10
-0.4925239265849145
 20
0.5008182966933977
 10
-0.490995274582498
 20
0.5026081196268946
 10
-0.4892054530487499
 20
0.5041367728246781
 10
-0.4871985333297621
 20
0.5053666157718919
 10
-0.4850239324498457
 20
0.5062673656534765
 10
-0.4827351962996968
 20
0.5068168430179878
 10
-0.4803886811589532
 20
0.5070015179090854
  0
LINE
  5
4B
330
2
100
AcDbEntity
  8
BLOCKS
  6
Continuous
100
AcDbLine
 10
-0.4784064909958002
 20
0.4570015179090831
 30
0.0
 11
-0.4934252381633737
 21
0.4570015179090831
 31
0.0
  0
LWPOLYLINE
  5
4C
330
2
100
AcDbEntity
  8
BLOCKS
  6
Continuous
100
AcDbPolyline
 90
       40
 70
   128
 43
0.0
 10
-0.3309813698247003
 20
0.1713431571315607
 10
-0.3298749192264281
 20
0.1654755279821632
 10
-0.3283906068397905
 20
0.1592455563368287
 10
-0.3266216815748035
 20
0.1531212631403116
 10
-0.3245762042947595
 20
0.1471153150124531
 10
-0.3222628292849245
 20
0.1412399302733331
 10
-0.3196861267217596
 20
0.1354970539598446
 10
-0.3168451264589444
 20
0.1298809589877067
 10
-0.31378589224904
 20
0.1244704904518233
 10
-0.3104991862933516
 20
0.1192336669607914
 10
-0.3069971622595826
 20
0.1141810410683331
 10
-0.3032921293277163
 20
0.1093216796715581
 10
-0.2993971259279774
 20
0.104664111368221
 10
-0.2953260009499049
 20
0.1002163112498249
 10
-0.2910935656441565
 20
0.095985723160303
 10
-0.2867158332385283
 20
0.0919793014208711
 10
-0.2822103957505591
 20
0.0882035802166513
 10
-0.2775970120460683
 20
0.0846647785478138
 10
-0.2728985111559873
 20
0.081368943866147
 10
-0.2681421329008358
 20
0.0783221179369878
 10
-0.2633613775252583
 20
0.0755304537503992
 10
-0.2585981786152174
 20
0.0730000912630215
 10
-0.2539045248174866
 20
0.0707364042489292
 10
-0.2493415022393005
 20
0.0687421022552019
 10
-0.2449731194515029
 20
0.067014064794895
 10
-0.2408545823052614
 20
0.0655400926576852
 10
-0.2370200917490788
 20
0.0642979644615491
 10
-0.2334775382967259
 20
0.0632580917660028
 10
-0.2302120664785311
 20
0.0623882316734683
 10
-0.2271940387120107
 20
0.0616576245040426
 10
-0.2243863733438106
 20
0.0610392754392899
 10
-0.2217491659114298
 20
0.0605105998827287
 10
-0.2192452488277618
 20
0.0600537551056926
 10
-0.216846862595527
 20
0.0596557362904435
 10
-0.2145087227936588
 20
0.0593032589712323
 10
-0.2121817626492761
 20
0.0589853654189585
 10
-0.2098067374462393
 20
0.0586924393405218
 10
-0.2073033774338605
 20
0.0584152439607363
 10
-0.2045468279198089
 20
0.0581434771350917
 10
-0.2020078256174443
 20
0.057923498288584
  0
LINE
  5
4D
330
2
100
AcDbEntity
  8
BLOCKS
  6
Continuous
100
AcDbLine
 10
-0.4784064909958002
 20
0.4570015179090831
 30
0.0
 11
-0.1183223643847864
 21
0.4570015179090831
 31
0.0
  0
LINE
  5
4E
330
2
100
AcDbEntity
  8
BLOCKS
  6
Continuous
100
AcDbLine
 10
-0.4784252498932542
 20
0.5070015179090946
 30
0.0
 11
-0.1183411232822404
 21
0.5070015179090946
 31
0.0
  0
LINE
  5
4F
330
2
100
AcDbEntity
  8
BLOCKS
  6
Continuous
100
AcDbLine
 10
-0.1183223643847864
 20
0.4570015179090831
 30
0.0
 11
0.3905516293602691
 21
0.4570015179090831
 31
0.0
  0
LINE
  5
50
330
2
100
AcDbEntity
  8
BLOCKS
  6
Continuous
100
AcDbLine
 10
-0.1183411232822404
 20
0.5070015179090946
 30
0.0
 11
0.3756882811071396
 21
0.5070015179090946
 31
0.0
  0
LWPOLYLINE
  5
51
330
2
100
AcDbEntity
  8
BLOCKS
  6
Continuous
100
AcDbPolyline
 90
       20
 70
   128
 43
0.0
 10
0.0004378268508604
 20
0.0575467951350595
 10
0.0017900061736814
 20
0.0576016773368258
 10
0.0066213655218176
 20
0.0578157475748606
 10
0.0113315008303412
 20
0.0580452988974878
 10
0.0159868230949665
 20
0.0582974916269461
 10
0.0207243770836372
 20
0.058587354042794
 10
0.0258976245997779
 20
0.0589549850819833
 10
0.0301075508359586
 20
0.0593071704533952
 10
0.0333280249535469
 20
0.0596183018897148
 10
0.0361534943468664
 20
0.0599275480816516
 10
0.0387616393108997
 20
0.060247711670528
 10
0.0412576705011757
 20
0.0605888219951169
 10
0.0437198450180163
 20
0.0609614327820976
 10
0.0462094095589724
 20
0.0613771333678608
 10
0.0487784329393194
 20
0.0618493850280368
 10
0.0514749797018826
 20
0.0623944990732719
 10
0.054327944732207
 20
0.0630284744638641
 10
0.0573734100810121
 20
0.0637724283267392
 10
0.060655577121464
 20
0.0646544411702064
 10
0.0615557530128295
 20
0.0649209073316172
  0
LWPOLYLINE
  5
52
330
2
100
AcDbEntity
  8
BLOCKS
  6
Continuous
100
AcDbPolyline
 90
        3
 70
   128
 43
0.0
 10
0.0043941719659356
 20
0.5278997636730867
 10
-0.0029351303808348
 20
0.5287973493390031
 10
-0.0090776714273365
 20
0.5295352237979034
  0
LINE
  5
91
330
2
100
AcDbEntity
  8
BLOCKS
  6
Continuous
100
AcDbLine
 10
2.229003600556277
 20
0.4920015179091081
 30
0.0
 11
2.229003600556277
 21
0.4570015179090831
 31
0.0
  0
LWPOLYLINE
  5
92
330
2
100
AcDbEntity
  8
BLOCKS
  6
Continuous
100
AcDbPolyline
 90
        9
 70
   128
 43
0.0
 10
2.191457592668923
 20
0.517411041933557
 10
2.193815667375895
 20
0.5152322909505176
 10
2.19636346619209
 20
0.513278783591669
 10
2.199079551238539
 20
0.5115669572040873
 10
2.201941068630223
 20
0.5101112155649766
 10
2.204923940774244
 20
0.5089238076841514
 10
2.208003068965556
 20
0.5080147247373328
 10
2.211152544574326
 20
0.5073916159982048
 10
2.214345867048179
 20
0.5070597244745308
  0
LWPOLYLINE
  5
93
330
2
100
AcDbEntity
  8
BLOCKS
  6
Continuous
100
AcDbPolyline
 90
        9
 70
   128
 43
0.0
 10
2.175263999595228
 20
0.5180005866154909
 10
2.180266599304852
 20
0.5172209345991736
 10
2.184413085513117
 20
0.5166745140011347
 10
2.187694627697712
 20
0.5163677642792039
 10
2.190015146737753
 20
0.5163144067759652
 10
2.191211914645102
 20
0.5164678843703963
 10
2.191719848096983
 20
0.5168003533480818
 10
2.191546348189697
 20
0.5173142259057944
 10
2.191441791086147
 20
0.5173996993061168
  0
LWPOLYLINE
  5
94
330
2
100
AcDbEntity
  8
BLOCKS
  6
Continuous
100
AcDbPolyline
 90
        4
 70
   128
 43
0.0
 10
2.187688805077161
 20
0.5208247747110012
 10
2.186915634606377
 20
0.5214606749079769
 10
2.185030951422233
 20
0.5228925752119187
 10
2.183067932090309
 20
0.524198059407355
  0
LWPOLYLINE
  5
95
330
2
100
AcDbEntity
  8
BLOCKS
  6
Continuous
100
AcDbPolyline
 90
        5
 70
   128
 43
0.0
 10
2.191384818586086
 20
0.5174124171264351
 10
2.190810619942751
 20
0.5179951749281475
 10
2.189596284738256
 20
0.5191369633963781
 10
2.188289471807331
 20
0.5202818544530612
 10
2.187760548376174
 20
0.5207156439964831
  0
LWPOLYLINE
  5
96
330
2
100
AcDbEntity
  8
BLOCKS
  6
Continuous
100
AcDbPolyline
 90
        3
 70
   128
 43
0.0
 10
2.213944116481545
 20
0.5070210619681906
 10
2.214214199052732
 20
0.5070357069081013
 10
2.214281764571499
 20
0.5070452061289701
  0
LWPOLYLINE
  5
97
330
2
100
AcDbEntity
  8
BLOCKS
  6
Continuous
100
AcDbPolyline
 90
        7
 70
   128
 43
0.0
 10
2.169309198866324
 20
0.5190008206801224
 10
2.16730307657199
 20
0.5214281653677984
 10
2.165057116112368
 20
0.523583451906053
 10
2.162597367002347
 20
0.5254416824508384
 10
2.159952358360426
 20
0.5269813045281273
 10
2.157152768016169
 20
0.5281844610075508
 10
2.15620616356475
 20
0.5285033808066158
  0
LINE
  5
98
330
2
100
AcDbEntity
  8
BLOCKS
  6
Continuous
100
AcDbLine
 10
2.16930919886631
 20
0.5190008206801111
 30
0.0
 11
2.175263999595197
 21
0.5180005866154774
 31
0.0
  0
LWPOLYLINE
  5
99
330
2
100
AcDbEntity
  8
BLOCKS
  6
Continuous
100
AcDbPolyline
 90
       13
 70
   128
 43
0.0
 10
2.183067932090309
 20
0.524198059407355
 10
2.180669087056887
 20
0.5257862007670714
 10
2.17721052157831
 20
0.5277145258629766
 10
2.173549934473596
 20
0.5294071637291211
 10
2.170230996451866
 20
0.530670898941936
 10
2.166802982678493
 20
0.5317410347524867
 10
2.162712403525876
 20
0.5327394242698223
 10
2.158422745544232
 20
0.5334948360083594
 10
2.153901914025666
 20
0.5340012643362582
 10
2.149138278571592
 20
0.5342450311200093
 10
2.144128029219211
 20
0.5342111064717403
 10
2.138879061757472
 20
0.5338857653821481
 10
2.133499453438819
 20
0.5332696290894468
  0
LWPOLYLINE
  5
9A
330
2
100
AcDbEntity
  8
BLOCKS
  6
Continuous
100
AcDbPolyline
 90
       11
 70
   128
 43
0.0
 10
2.229003600556281
 20
0.4920015179090491
 10
2.228818925809684
 20
0.4943480348846436
 10
2.228269448874782
 20
0.4966367728246781
 10
2.22736869969751
 20
0.4988113754051313
 10
2.226138857712105
 20
0.5008182966933977
 10
2.224610205709689
 20
0.5026081196268946
 10
2.22282038417594
 20
0.5041367728246781
 10
2.220813464456989
 20
0.5053666157718919
 10
2.218638863577073
 20
0.5062673656534765
 10
2.216350127426815
 20
0.5068168430179878
 10
2.21400361228618
 20
0.5070015179090854
  0
LINE
  5
9B
330
2
100
AcDbEntity
  8
BLOCKS
  6
Continuous
100
AcDbLine
 10
2.229003600556277
 20
0.4570015179090831
 30
0.0
 11
2.214003612286157
 21
0.4570015179090831
 31
0.0
  0
LINE
  5
9C
330
2
100
AcDbEntity
  8
BLOCKS
  6
Continuous
100
AcDbLine
 10
2.079585848730355
 20
0.5180005930269603
 30
0.0
 11
2.086512948325159
 21
0.5187000877064123
 31
0.0
  0
LINE
  5
9D
330
2
100
AcDbEntity
  8
BLOCKS
  6
Continuous
100
AcDbLine
 10
2.062529260953917
 20
0.5162111823623321
 30
0.0
 11
2.079585848730355
 21
0.5180005930269603
 31
0.0
  0
LWPOLYLINE
  5
9E
330
2
100
AcDbEntity
  8
BLOCKS
  6
Continuous
100
AcDbPolyline
 90
        3
 70
   128
 43
0.0
 10
2.065753675816233
 20
0.5285942589481432
 10
2.063955229626083
 20
0.5281840819707224
 10
2.05983562728303
 20
0.5272380531230385
  0
LWPOLYLINE
  5
9F
330
2
100
AcDbEntity
  8
BLOCKS
  6
Continuous
100
AcDbPolyline
 90
        3
 70
   128
 43
0.0
 10
2.059846839002095
 20
0.5272415182929047
 10
2.050821226487825
 20
0.5251609674236546
 10
2.044927170896773
 20
0.5237942186078011
  0
LWPOLYLINE
  5
A0
330
2
100
AcDbEntity
  8
BLOCKS
  6
Continuous
100
AcDbPolyline
 90
       12
 70
   128
 43
0.0
 10
2.086512948325182
 20
0.5187000877064215
 10
2.093855551571397
 20
0.5193810198341465
 10
2.10355236753636
 20
0.5201486205867343
 10
2.112849316391768
 20
0.5207265586815277
 10
2.121724209207497
 20
0.5211137653517666
 10
2.130338439749468
 20
0.5213126867084805
 10
2.138486485461219
 20
0.5213178588835592
 10
2.146133830841538
 20
0.5211344655447841
 10
2.152621195505018
 20
0.5208098979173532
 10
2.158650559394302
 20
0.5203425970211187
 10
2.164241452228527
 20
0.5197347951266432
 10
2.169309198866324
 20
0.5190008206801224
  0
LWPOLYLINE
  5
A1
330
2
100
AcDbEntity
  8
BLOCKS
  6
Continuous
100
AcDbPolyline
 90
       16
 70
   128
 43
0.0
 10
2.156188755434379
 20
0.5284506908252674
 10
2.152921780108483
 20
0.5294580796647655
 10
2.147519221232143
 20
0.530850558811618
 10
2.142021017704284
 20
0.5319985430825194
 10
2.136057492876682
 20
0.5329677428847948
 10
2.129851557312542
 20
0.5337001343819077
 10
2.123469803981099
 20
0.5341836455541137
 10
2.116929188099422
 20
0.5344164973809179
 10
2.110247328434017
 20
0.5343978212350715
 10
2.103438332782463
 20
0.5341274280652227
 10
2.096514767778864
 20
0.5336053014784932
 10
2.089486310493559
 20
0.5328312770435162
 10
2.082327566830101
 20
0.5318041179260776
 10
2.074836147014796
 20
0.5304881121349548
 10
2.067208969900277
 20
0.528909299776716
 10
2.065743670054728
 20
0.5285615067401171
  0
LWPOLYLINE
  5
A2
330
2
100
AcDbEntity
  8
BLOCKS
  6
Continuous
100
AcDbPolyline
 90
        4
 70
   128
 43
0.0
 10
1.910571693738313
 20
0.5070531960259553
 10
1.920763598214036
 20
0.5072588223032666
 10
1.931859726121913
 20
0.5076970288886527
 10
1.936034858735149
 20
0.5079742775912031
  0
LWPOLYLINE
  5
A3
330
2
100
AcDbEntity
  8
BLOCKS
  6
Continuous
100
AcDbPolyline
 90
        7
 70
   128
 43
0.0
 10
1.845527193551863
 20
0.2190026157621844
 10
1.848941513147985
 20
0.2242489454079271
 10
1.853312290411124
 20
0.230421999022293
 10
1.857899400841526
 20
0.2363925067881076
 10
1.862691165422076
 20
0.2421519218372135
 10
1.867675074270193
 20
0.2476919948860462
 10
1.869898779097604
 20
0.2499803961390729
  0
LINE
  5
A4
330
2
100
AcDbEntity
  8
BLOCKS
  6
Continuous
100
AcDbLine
 10
1.792388089640846
 20
0.1350716289912896
 30
0.0
 11
1.845447196317602
 21
0.2189190665353692
 31
0.0
  0
LWPOLYLINE
  5
A5
330
2
100
AcDbEntity
  8
BLOCKS
  6
Continuous
100
AcDbPolyline
 90
       12
 70
   128
 43
0.0
 10
1.903633448778202
 20
0.5070015179090854
 10
1.90379078456892
 20
0.5070015286718275
 10
1.921385258747652
 20
0.5071355903300004
 10
1.938809199206227
 20
0.5075170120134147
 10
1.956014887025341
 20
0.5081218979799099
 10
1.973276011525597
 20
0.50894361578925
 10
1.99026627394229
 20
0.5099511425070171
 10
2.006939321300889
 20
0.5111213923399931
 10
2.021244883888541
 20
0.512261818175249
 10
2.035267386853522
 20
0.5134966340680343
 10
2.049064431873123
 20
0.5148201494651597
 10
2.062529260953817
 20
0.5162111823623139
  0
LWPOLYLINE
  5
A6
330
2
100
AcDbEntity
  8
BLOCKS
  6
Continuous
100
AcDbPolyline
 90
        9
 70
   128
 43
0.0
 10
1.869860382005938
 20
0.2500030691157019
 10
1.889336488171431
 20
0.2701412996224111
 10
1.920171375150605
 20
0.3020724190945487
 10
1.950276873112636
 20
0.3332769941131494
 10
1.979677660352938
 20
0.3637615058983295
 10
2.008393743037888
 20
0.3935296130291693
 10
2.035946377409747
 20
0.4220705215441934
 10
2.062865613019714
 20
0.449921842887926
 10
2.069719269516756
 20
0.4570015179090127
  0
LWPOLYLINE
  5
A7
330
2
100
AcDbEntity
  8
BLOCKS
  6
Continuous
100
AcDbPolyline
 90
       13
 70
   128
 43
0.0
 10
2.044943064507354
 20
0.5238232220086879
 10
2.037872509373157
 20
0.5222053068103572
 10
2.028575893455529
 20
0.5202086066763161
 10
2.019059642938556
 20
0.5183060389214383
 10
2.009315472006603
 20
0.5165093213105515
 10
1.999628359395467
 20
0.5148746765348927
 10
1.989809603400065
 20
0.5133718980041533
 10
1.979896987572467
 20
0.5120124516845328
 10
1.969913823505014
 20
0.5108042560683693
 10
1.959881954542399
 20
0.5097540432836843
 10
1.949821649558982
 20
0.5088674178419036
 10
1.939751514634701
 20
0.5081489297192468
 10
1.936191251380444
 20
0.5079554859144276
  0
LINE
  5
A8
330
2
100
AcDbEntity
  8
BLOCKS
  6
Continuous
100
AcDbLine
 10
1.644388989462706
 20
0.0711935584192873
 30
0.0
 11
1.644711071489334
 21
0.0712006197865151
 31
0.0
  0
LWPOLYLINE
  5
A9
330
2
100
AcDbEntity
  8
BLOCKS
  6
Continuous
100
AcDbPolyline
 90
       45
 70
   128
 43
0.0
 10
1.644711066576385
 20
0.0712008265153429
 10
1.646880880365826
 20
0.0712555185540271
 10
1.651226888723142
 20
0.071365923811319
 10
1.654928222755045
 20
0.0714610035029921
 10
1.65812660762411
 20
0.0715443763116867
 10
1.661145212651465
 20
0.0716243228307588
 10
1.664481870636993
 20
0.0717142152075406
 10
1.667579871352211
 20
0.0717994625970471
 10
1.670450673076158
 20
0.0718804293840015
 10
1.673103792671974
 20
0.0719574847316483
 10
1.675541684938218
 20
0.0720309440463837
 10
1.677748452494781
 20
0.0721006509621305
 10
1.679816540103567
 20
0.0721703068034561
 10
1.681936130837895
 20
0.0722491838397412
 10
1.683431383185709
 20
0.0723126888514901
 10
1.684437545959301
 20
0.0723609100792976
 10
1.685384569309646
 20
0.0724113355494058
 10
1.686384078402008
 20
0.0724705348499277
 10
1.687485146440815
 20
0.0725434078519914
 10
1.688750146606
 20
0.072637521493781
 10
1.690205761436302
 20
0.0727599874948658
 10
1.691950332042981
 20
0.072927149085009
 10
1.694110753644019
 20
0.0731654110027387
 10
1.696854824269578
 20
0.0735185061883033
 10
1.700371115903837
 20
0.0740545253562607
 10
1.704727931469353
 20
0.0748507983030516
 10
1.70965972116319
 20
0.0759320211971147
 10
1.714848547709118
 20
0.0772809936582792
 10
1.720184311619707
 20
0.0789014043648433
 10
1.725599845179642
 20
0.0807971804114289
 10
1.731034660392617
 20
0.0829656923204323
 10
1.736441840558402
 20
0.0854017006982043
 10
1.741786197509065
 20
0.0880991061976613
 10
1.747040634030747
 20
0.0910514185992373
 10
1.752183347158245
 20
0.0942518212616426
 10
1.757196033126385
 20
0.0976931437775068
 10
1.762062786745848
 20
0.10136782857193
 10
1.766769428199333
 20
0.1052679091353287
 10
1.771303086250193
 20
0.1093850003290584
 10
1.77565193622224
 20
0.1137102979787608
 10
1.779805033067061
 20
0.1182345851284492
 10
1.783752204085396
 20
0.1229482430367364
 10
1.787483979848004
 20
0.127841265607459
 10
1.790991550022883
 20
0.1329032763828957
 10
1.792353215297664
 20
0.1350736149996749
  0
LINE
  5
AA
330
2
100
AcDbEntity
  8
BLOCKS
  6
Continuous
100
AcDbLine
 10
1.354231498663759
 20
0.4570015179090831
 30
0.0
 11
1.626730784384742
 21
0.4570015179090831
 31
0.0
  0
LINE
  5
AB
330
2
100
AcDbEntity
  8
BLOCKS
  6
Continuous
100
AcDbLine
 10
1.356251617152631
 20
0.5070015179090946
 30
0.0
 11
1.626730784384742
 21
0.5070015179090946
 31
0.0
  0
LINE
  5
AC
330
2
100
AcDbEntity
  8
BLOCKS
  6
Continuous
100
AcDbLine
 10
0.7214925679539395
 20
0.4570015179090831
 30
0.0
 11
0.7685290602029884
 21
0.1678922856124303
 31
0.0
  0
LWPOLYLINE
  5
AD
330
2
100
AcDbEntity
  8
BLOCKS
  6
Continuous
100
AcDbPolyline
 90
       11
 70
   128
 43
0.0
 10
0.6429113534662268
 20
0.5070015179090854
 10
0.6405648383256289
 20
0.5068168430179878
 10
0.6382761021753343
 20
0.5062673656534765
 10
0.6361015012954177
 20
0.5053666157718919
 10
0.6340945815765755
 20
0.5041367728246781
 10
0.6323047600427181
 20
0.5026081196268946
 10
0.6307761080403016
 20
0.5008182966933977
 10
0.6295462660547875
 20
0.4988113754051313
 10
0.6286455168776249
 20
0.4966367728246781
 10
0.6280960399428315
 20
0.4943480348846436
 10
0.6279113651961255
 20
0.4920015179090491
  0
LINE
  5
AE
330
2
100
AcDbEntity
  8
BLOCKS
  6
Continuous
100
AcDbLine
 10
0.6279113651961073
 20
0.4570015179090831
 30
0.0
 11
0.6283616842950526
 21
0.4570015179090831
 31
0.0
  0
LINE
  5
AF
330
2
100
AcDbEntity
  8
BLOCKS
  6
Continuous
100
AcDbLine
 10
0.6279113651961073
 20
0.4920015179091081
 30
0.0
 11
0.6279113651961073
 21
0.4570015179090831
 31
0.0
  0
LINE
  5
B0
330
2
100
AcDbEntity
  8
BLOCKS
  6
Continuous
100
AcDbLine
 10
0.6429113534662268
 20
0.5070015179090946
 30
0.0
 11
0.6433616725651721
 21
0.5070015179090946
 31
0.0
  0
LINE
  5
B1
330
2
100
AcDbEntity
  8
BLOCKS
  6
Continuous
100
AcDbLine
 10
0.6283616842950526
 20
0.4570015179090831
 30
0.0
 11
1.354231498663759
 21
0.4570015179090831
 31
0.0
  0
LINE
  5
B2
330
2
100
AcDbEntity
  8
BLOCKS
  6
Continuous
100
AcDbLine
 10
0.6433616725651721
 20
0.5070015179090946
 30
0.0
 11
1.356251617152631
 21
0.5070015179090946
 31
0.0
  0
LINE
  5
B3
330
2
100
AcDbEntity
  8
BLOCKS
  6
Continuous
100
AcDbLine
 10
1.544061209494836
 20
0.0687495174958656
 30
0.0
 11
1.543884115132593
 21
0.0687460467005451
 31
0.0
  0
LWPOLYLINE
  5
B4
330
2
100
AcDbEntity
  8
BLOCKS
  6
Continuous
100
AcDbPolyline
 90
       13
 70
   128
 43
0.0
 10
1.486376391176202
 20
0.0674423787704666
 10
1.489858590033656
 20
0.0675179259724985
 10
1.495210676346653
 20
0.0676350470673799
 10
1.500603203214015
 20
0.0677540473387865
 10
1.506019253085216
 20
0.0678745526084834
 10
1.5114426363627
 20
0.0679962021904442
 10
1.516850207219433
 20
0.0681184767315802
 10
1.522168133037159
 20
0.0682396966868339
 10
1.52743262231703
 20
0.0683606688590965
 10
1.532636942539249
 20
0.0684812371764577
 10
1.537761968344713
 20
0.0686009607031895
 10
1.542788712883486
 20
0.0687193981589747
 10
1.544035555138036
 20
0.0687490376571089
  0
LINE
  5
B5
330
2
100
AcDbEntity
  8
BLOCKS
  6
Continuous
100
AcDbLine
 10
1.164011626373801
 20
0.0601752599450891
 30
0.0
 11
1.163880311311865
 21
0.0601728729651029
 31
0.0
  0
LWPOLYLINE
  5
B6
330
2
100
AcDbEntity
  8
BLOCKS
  6
Continuous
100
AcDbPolyline
 90
        3
 70
   128
 43
0.0
 10
1.16401171426751
 20
0.0601752185739327
 10
1.164911033039027
 20
0.0601963204533252
 10
1.176776063766485
 20
0.0604737920789569
  0
LINE
  5
B7
330
2
100
AcDbEntity
  8
BLOCKS
  6
Continuous
100
AcDbLine
 10
1.043687366298579
 20
0.0574623697869527
 30
0.0
 11
1.043793448946368
 21
0.0574653430443334
 31
0.0
  0
LWPOLYLINE
  5
B8
330
2
100
AcDbEntity
  8
BLOCKS
  6
Continuous
100
AcDbPolyline
 90
       17
 70
   128
 43
0.0
 10
1.043693728243344
 20
0.0574626317082232
 10
1.04869739976548
 20
0.0575711539141787
 10
1.056807794212984
 20
0.0577480535145526
 10
1.064999319730961
 20
0.0579277115054004
 10
1.073249266983768
 20
0.0581096338091823
 10
1.081531831933209
 20
0.0582932536198871
 10
1.08982273913258
 20
0.0584780329884973
 10
1.098099076301407
 20
0.0586634599733964
 10
1.1063384475742
 20
0.0588490227769592
 10
1.114588301729274
 20
0.0590357829769357
 10
1.122826099422784
 20
0.0592232339506166
 10
1.131040074847044
 20
0.059411109783033
 10
1.139218168103036
 20
0.0595991365395469
 10
1.147348105563034
 20
0.0597870339923987
 10
1.155417470411959
 20
0.0599745171512052
 10
1.163413778006726
 20
0.0601612979310096
 10
1.164000509135987
 20
0.0601750776385245
  0
LWPOLYLINE
  5
B9
330
2
100
AcDbEntity
  8
BLOCKS
  6
Continuous
100
AcDbPolyline
 90
       15
 70
   128
 43
0.0
 10
1.486478807347304
 20
0.0674451708637219
 10
1.462995181003718
 20
0.0669347970346292
 10
1.439271079025458
 20
0.0664160320030726
 10
1.415368075138032
 20
0.0658902260339176
 10
1.391347743066801
 20
0.0653587293921749
 10
1.366529014026093
 20
0.0648063255877071
 10
1.341630794547056
 20
0.064248887724026
 10
1.316721366073436
 20
0.0636879481285735
 10
1.291869010049087
 20
0.0631250391289735
 10
1.270348016916361
 20
0.0626349330352253
 10
1.24890959623219
 20
0.0621442403259073
 10
1.227598240204717
 20
0.0616539784550708
 10
1.206167817619827
 20
0.0611584324447188
 10
1.184913372539488
 20
0.0606643791960608
 10
1.163880311311879
 20
0.060172872965087
  0
LINE
  5
BA
330
2
100
AcDbEntity
  8
BLOCKS
  6
Continuous
100
AcDbLine
 10
0.8984946324180302
 20
0.0545726868540499
 30
0.0
 11
0.9047235614345456
 21
0.0545689463219276
 31
0.0
  0
LWPOLYLINE
  5
BB
330
2
100
AcDbEntity
  8
BLOCKS
  6
Continuous
100
AcDbPolyline
 90
       23
 70
   128
 43
0.0
 10
0.9029637995571121
 20
0.054542356462481
 10
0.9038456344888638
 20
0.0545513786086679
 10
0.9054859542658979
 20
0.0545773057343843
 10
0.9069656329356462
 20
0.0546031776251778
 10
0.9092393757783449
 20
0.0546447651545544
 10
0.9117982924333066
 20
0.0546932211052638
 10
0.914763718054894
 20
0.054750697784549
 10
0.9182943287543841
 20
0.0548201994873682
 10
0.9227858789770127
 20
0.0549094762478865
 10
0.9282070143891198
 20
0.0550184173265746
 10
0.9337738169819589
 20
0.0551314524652856
 10
0.9397924725003052
 20
0.0552547483994215
 10
0.9463176920657518
 20
0.0553894582866645
 10
0.9534383769430153
 20
0.0555374479408795
 10
0.9612901452553362
 20
0.0557015658549802
 10
0.9701049389716009
 20
0.0558867898155234
 10
0.9793762946183798
 20
0.0560826208498486
 10
0.9890472904637155
 20
0.0562878918173022
 10
0.9991603636079545
 20
0.0565035257968714
 10
1.00976560713738
 20
0.0567306153277616
 10
1.020926373548684
 20
0.0569705430647821
 10
1.032725216779656
 20
0.0572251111640447
 10
1.043687294040394
 20
0.0574624131646863
  0
LWPOLYLINE
  5
BC
330
2
100
AcDbEntity
  8
BLOCKS
  6
Continuous
100
AcDbPolyline
 90
       36
 70
   128
 43
0.0
 10
0.768506747840513
 20
0.1678739106364458
 10
0.7696818026333517
 20
0.161584702086949
 10
0.7711576896162682
 20
0.1553462462474284
 10
0.7729192093547339
 20
0.1492131898169112
 10
0.7749583394104067
 20
0.1431982067997172
 10
0.7772664795736293
 20
0.1373135167704107
 10
0.7798344606417982
 20
0.1315708567919876
 10
0.7826525537947986
 20
0.1259814538410149
 10
0.7857104800727779
 20
0.1205559976866801
 10
0.7889974194119734
 20
0.1153046141598691
 10
0.7925020186678032
 20
0.1102368386456158
 10
0.7962123979056944
 20
0.1053615896821805
 10
0.8001161541737769
 20
0.1006871423999849
 10
0.8042003617320755
 20
0.0962211015687001
 10
0.8084515675509123
 20
0.0919703738351394
 10
0.8128557804470277
 20
0.0879411387796802
 10
0.8173984520144244
 20
0.0841388180559819
 10
0.8220644466422912
 20
0.0805680419978319
 10
0.8268379974000001
 20
0.077232612580375
 10
0.8317026432293662
 20
0.0741354615477042
 10
0.8366411415287092
 20
0.0712786019905628
 10
0.841635348293896
 20
0.068663071055272
 10
0.8466660542573682
 20
0.0662888612013933
 10
0.8517127619332697
 20
0.0641548359998354
 10
0.8567533816001034
 20
0.0622586255969884
 10
0.8617638148514036
 20
0.0605964953313754
 10
0.8667173792138802
 20
0.0591631791761768
 10
0.8715840015329035
 20
0.0579516677912773
 10
0.876329056839133
 20
0.0569529399448232
 10
0.8809116021836619
 20
0.0561556290668898
 10
0.8852813406835796
 20
0.0555456328809317
 10
0.889371957010519
 20
0.0551057285902073
 10
0.8930808210211056
 20
0.0548153703434958
 10
0.896204495288623
 20
0.0546502871868518
 10
0.8984491177877519
 20
0.0545762561755703
 10
0.8984950299429348
 20
0.0545753649054325
  0
LINE
  5
BD
330
2
100
AcDbEntity
  8
BLOCKS
  6
Continuous
100
AcDbLine
 10
2.214003612286157
 20
0.4570015179090831
 30
0.0
 11
1.626730784384742
 21
0.4570015179090831
 31
0.0
  0
LINE
  5
BE
330
2
100
AcDbEntity
  8
BLOCKS
  6
Continuous
100
AcDbLine
 10
1.626730784384742
 20
0.5070015179090946
 30
0.0
 11
2.214003612286157
 21
0.5070015179090946
 31
0.0
  0
LWPOLYLINE
  5
BF
330
2
100
AcDbEntity
  8
BLOCKS
  6
Continuous
100
AcDbPolyline
 90
       14
 70
   128
 43
0.0
 10
1.544061211973896
 20
0.0687494193185933
 10
1.545784485189035
 20
0.0687902331865201
 10
1.556056493377329
 20
0.0690345646522849
 10
1.56608857452644
 20
0.069274251950011
 10
1.575875081367668
 20
0.0695091488507399
 10
1.585411362396664
 20
0.069739132291835
 10
1.59469367344431
 20
0.0699641005458046
 10
1.603719088692598
 20
0.0701839713599486
 10
1.612487408960043
 20
0.0703987356509981
 10
1.62087120187127
 20
0.0706052868945347
 10
1.628831730969943
 20
0.0708026413656274
 10
1.636420745335565
 20
0.0709920438483835
 10
1.643599465904519
 20
0.0711723821557473
 10
1.644772719856011
 20
0.0712019843441533
  0
LINE
  5
109
330
2
100
AcDbEntity
  8
BLOCKS
  6
Continuous
100
AcDbLine
 10
4.060523668757238
 20
0.4920015179090513
 30
0.0
 11
4.060523668757238
 21
0.4570015179090831
 31
0.0
  0
LWPOLYLINE
  5
10A
330
2
100
AcDbEntity
  8
BLOCKS
  6
Continuous
100
AcDbPolyline
 90
       10
 70
   128
 43
0.0
 10
4.05547683762427
 20
0.4920015179090513
 10
4.055323492214163
 20
0.4937379996857306
 10
4.054868115306387
 20
0.4954217193423063
 10
4.054124543297918
 20
0.4970015179090514
 10
4.053115369247868
 20
0.4984293940059468
 10
4.051871256399324
 20
0.4996619623402183
 10
4.050430006491412
 20
0.5006617719469102
 10
4.048835411173283
 20
0.5013984441168975
 10
4.047135921416963
 20
0.5018495954392018
 10
4.045383175358445
 20
0.5020015179090514
  0
LINE
  5
10B
330
2
100
AcDbEntity
  8
BLOCKS
  6
Continuous
100
AcDbLine
 10
4.055476837624266
 20
0.4920015179090513
 30
0.0
 11
4.055476837624266
 21
0.4570015179090831
 31
0.0
  0
LWPOLYLINE
  5
10C
330
2
100
AcDbEntity
  8
BLOCKS
  6
Continuous
100
AcDbPolyline
 90
        6
 70
   128
 43
0.0
 10
4.017584411527102
 20
0.5126324301899184
 10
4.022819651118559
 20
0.5085430104411025
 10
4.028836718153586
 20
0.5052991353765208
 10
4.035130461470768
 20
0.5031731346858976
 10
4.041882076914923
 20
0.5021037985825422
 10
4.044740766504007
 20
0.5020015179090514
  0
LINE
  5
10D
330
2
100
AcDbEntity
  8
BLOCKS
  6
Continuous
100
AcDbLine
 10
4.045383175358435
 20
0.5020015179090423
 30
0.0
 11
4.044740766504102
 21
0.5020015179090423
 31
0.0
  0
LINE
  5
10E
330
2
100
AcDbEntity
  8
BLOCKS
  6
Continuous
100
AcDbLine
 10
4.045383175358435
 20
0.5070015179090946
 30
0.0
 11
4.044740766504102
 21
0.5070015179090946
 31
0.0
  0
LWPOLYLINE
  5
10F
330
2
100
AcDbEntity
  8
BLOCKS
  6
Continuous
100
AcDbPolyline
 90
        6
 70
   128
 43
0.0
 10
4.020978954258577
 20
0.5163035691568475
 10
4.025559787325516
 20
0.5127253266494552
 10
4.030824719437884
 20
0.5098869354811211
 10
4.036331743434536
 20
0.5080266841603623
 10
4.042239405616571
 20
0.5070910140366358
 10
4.044740766504007
 20
0.5070015179090513
  0
LWPOLYLINE
  5
110
330
2
100
AcDbEntity
  8
BLOCKS
  6
Continuous
100
AcDbPolyline
 90
       11
 70
   128
 43
0.0
 10
4.060523668757129
 20
0.4920015179090513
 10
4.060337264159322
 20
0.4943480348846459
 10
4.059782640265336
 20
0.4966367728246804
 10
4.058873453756175
 20
0.4988113754051336
 10
4.057632091821258
 20
0.5008182966933999
 10
4.056089120911244
 20
0.5026081196268604
 10
4.054282534090713
 20
0.5041367728246805
 10
4.05225681552282
 20
0.5053666157718943
 10
4.050061845121824
 20
0.5062673656534788
 10
4.04775167034372
 20
0.5068168430179902
 10
4.045383175358445
 20
0.5070015179090513
  0
LINE
  5
111
330
2
100
AcDbEntity
  8
BLOCKS
  6
Continuous
100
AcDbLine
 10
4.060523668757238
 20
0.4570015179090831
 30
0.0
 11
4.055476837624266
 21
0.4570015179090831
 31
0.0
  0
LINE
  5
112
330
2
100
AcDbEntity
  8
BLOCKS
  6
Continuous
100
AcDbLine
 10
3.983309289287146
 20
0.5187113229706087
 30
0.0
 11
3.997278842204193
 21
0.5197359358960001
 31
0.0
  0
LINE
  5
113
330
2
100
AcDbEntity
  8
BLOCKS
  6
Continuous
100
AcDbLine
 10
3.982943541017218
 20
0.5236979278479966
 30
0.0
 11
3.996913093934264
 21
0.524722540773388
 31
0.0
  0
LWPOLYLINE
  5
114
330
2
100
AcDbEntity
  8
BLOCKS
  6
Continuous
100
AcDbPolyline
 90
        4
 70
   128
 43
0.0
 10
4.003547605440077
 20
0.525616285779837
 10
4.002000459200068
 20
0.5262662171719456
 10
3.999485730401726
 20
0.5273158399928832
 10
3.999028202396518
 20
0.5275054318052606
  0
LWPOLYLINE
  5
115
330
2
100
AcDbEntity
  8
BLOCKS
  6
Continuous
100
AcDbPolyline
 90
        8
 70
   128
 43
0.0
 10
4.010138317892276
 20
0.5228933399181586
 10
4.009902069338647
 20
0.5229852652186709
 10
4.009393980423526
 20
0.5231861384638286
 10
4.008567808558625
 20
0.5235173428078668
 10
4.007411294955897
 20
0.5239866840044158
 10
4.005928972588087
 20
0.5245949330442852
 10
4.004145872761807
 20
0.5253348019713338
 10
4.003552564223944
 20
0.5255843462592783
  0
LINE
  5
116
330
2
100
AcDbEntity
  8
BLOCKS
  6
Continuous
100
AcDbLine
 10
3.938033732604591
 20
0.4974860359039383
 30
0.0
 11
3.938602452451616
 21
0.4980626113026063
 31
0.0
  0
LWPOLYLINE
  5
117
330
2
100
AcDbEntity
  8
BLOCKS
  6
Continuous
100
AcDbPolyline
 90
        7
 70
   128
 43
0.0
 10
3.938601559187088
 20
0.4980633913903546
 10
3.944847493431777
 20
0.5036857892785008
 10
3.951674317685508
 20
0.5084812284610633
 10
3.959082031948243
 20
0.5124497089380418
 10
3.966905005070445
 20
0.5155149594427746
 10
3.974980757516757
 20
0.5176021641203295
 10
3.983309289287142
 20
0.5187113229705972
  0
LINE
  5
118
330
2
100
AcDbEntity
  8
BLOCKS
  6
Continuous
100
AcDbLine
 10
3.981395047119915
 20
0.4570015179090831
 30
0.0
 11
3.970128703656993
 21
0.4570015179090831
 31
0.0
  0
LINE
  5
119
330
2
100
AcDbEntity
  8
BLOCKS
  6
Continuous
100
AcDbLine
 10
4.055476837624266
 20
0.4570015179090831
 30
0.0
 11
3.981395047119915
 21
0.4570015179090831
 31
0.0
  0
LWPOLYLINE
  5
11A
330
2
100
AcDbEntity
  8
BLOCKS
  6
Continuous
100
AcDbPolyline
 90
        6
 70
   128
 43
0.0
 10
4.020978954258577
 20
0.5163035691568475
 10
4.01714419694316
 20
0.5193401825298896
 10
4.0127831563235
 20
0.5218076218774912
 10
4.007797083751144
 20
0.5236468091063614
 10
4.002421512791122
 20
0.5246511118126762
 10
3.996913093934278
 20
0.5247225407734039
  0
LWPOLYLINE
  5
11B
330
2
100
AcDbEntity
  8
BLOCKS
  6
Continuous
100
AcDbPolyline
 90
        6
 70
   128
 43
0.0
 10
4.017584411527102
 20
0.5126324301899184
 10
4.01434883232833
 20
0.5151945736775485
 10
4.0106692012322
 20
0.5172764760015378
 10
4.006462200719986
 20
0.5188282894075781
 10
4.001926561027291
 20
0.5196756686118568
 10
3.99727884220422
 20
0.519735935895991
  0
LINE
  5
11C
330
2
100
AcDbEntity
  8
BLOCKS
100
AcDbLine
 10
3.918174089318992
 20
0.5280915312989181
 30
0.0
 11
3.92915241056414
 21
0.5306570136415929
 31
0.0
  0
LINE
  5
11D
330
2
100
AcDbEntity
  8
BLOCKS
  6
Continuous
100
AcDbLine
 10
3.91368854022846
 20
0.5269071054943937
 30
0.0
 11
3.918174089318992
 21
0.5280915312989181
 31
0.0
  0
LINE
  5
11E
330
2
100
AcDbEntity
  8
BLOCKS
  6
Continuous
100
AcDbLine
 10
3.901054347127907
 20
0.5235710001423457
 30
0.0
 11
3.91368854022846
 21
0.5269071054943937
 31
0.0
  0
LWPOLYLINE
  5
11F
330
2
100
AcDbEntity
  8
BLOCKS
  6
Continuous
100
AcDbPolyline
 90
       10
 70
   128
 43
0.0
 10
3.773402733382579
 20
0.5070015179090513
 10
3.778488393639133
 20
0.5070273825182847
 10
3.795167585154238
 20
0.5074755735733959
 10
3.811405668459562
 20
0.5084478328103104
 10
3.82733756155984
 20
0.5099190731123633
 10
3.842786249639873
 20
0.5118389913869431
 10
3.858129303095235
 20
0.514232479474016
 10
3.872933941196976
 20
0.5170081111462457
 10
3.887287105311559
 20
0.5201440199682147
 10
3.901054347127907
 20
0.523571000142332
  0
LWPOLYLINE
  5
120
330
2
100
AcDbEntity
  8
BLOCKS
  6
Continuous
100
AcDbPolyline
 90
       14
 70
   128
 43
0.0
 10
3.999216186604833
 20
0.5273317560923568
 10
3.996002766864992
 20
0.5286355567822137
 10
3.991366781933617
 20
0.5301929344364215
 10
3.986654532327636
 20
0.5314691698353671
 10
3.981711979126455
 20
0.532516346739725
 10
3.976411535284248
 20
0.5333441768401133
 10
3.970900287274277
 20
0.5339119924036675
 10
3.965187452505458
 20
0.5342139655282552
 10
3.959285299903065
 20
0.5342456411996352
 10
3.95320553371778
 20
0.534004196308564
 10
3.946958233801858
 20
0.533487989003628
 10
3.94054731545443
 20
0.5326951208477511
 10
3.934101497780727
 20
0.5316460682823197
 10
3.929152410564026
 20
0.5306570136415428
  0
LINE
  5
121
330
2
100
AcDbEntity
  8
BLOCKS
  6
Continuous
100
AcDbLine
 10
3.970128703656993
 20
0.4570015179090831
 30
0.0
 11
3.898100795932575
 21
0.4570015179090831
 31
0.0
  0
LWPOLYLINE
  5
122
330
2
100
AcDbEntity
  8
BLOCKS
  6
Continuous
100
AcDbPolyline
 90
       10
 70
   128
 43
0.0
 10
3.935042416097428
 20
0.5015751589103492
 10
3.939901664106516
 20
0.5060822379510535
 10
3.945139137324447
 20
0.5101436326637521
 10
3.950905181428904
 20
0.5138358153777187
 10
3.956983313707976
 20
0.5169879235349471
 10
3.962844786724751
 20
0.5193994753570257
 10
3.96888865756399
 20
0.5213084209843908
 10
3.975260242983501
 20
0.5227330133297472
 10
3.981731440000082
 20
0.5235991387737194
 10
3.982943541017127
 20
0.5236979278479374
  0
LINE
  5
123
330
2
100
AcDbEntity
  8
BLOCKS
  6
Continuous
100
AcDbLine
 10
3.617322758871748
 20
0.1359056581708331
 30
0.0
 11
3.617445567928595
 21
0.1362211633958225
 31
0.0
  0
LWPOLYLINE
  5
124
330
2
100
AcDbEntity
  8
BLOCKS
  6
Continuous
100
AcDbPolyline
 90
        3
 70
   128
 43
0.0
 10
3.666314008791239
 20
0.2151257415501493
 10
3.641870176537056
 20
0.1756581442425193
 10
3.617445567928595
 20
0.1362211633958248
  0
LINE
  5
125
330
2
100
AcDbEntity
  8
BLOCKS
  6
Continuous
100
AcDbLine
 10
3.662098346968147
 20
0.2178292787186308
 30
0.0
 11
3.613194614999994
 21
0.1388586486770067
 31
0.0
  0
LWPOLYLINE
  5
126
330
2
100
AcDbEntity
  8
BLOCKS
  6
Continuous
100
AcDbPolyline
 90
        5
 70
   128
 43
0.0
 10
3.662035746009903
 20
0.2177281895601516
 10
3.668170380933267
 20
0.2270465026536147
 10
3.674834451068133
 20
0.236036955153071
 10
3.682059887813818
 20
0.2447215702681604
 10
3.689788549323681
 20
0.2530109615937215
  0
LWPOLYLINE
  5
127
330
2
100
AcDbEntity
  8
BLOCKS
  6
Continuous
100
AcDbPolyline
 90
        5
 70
   128
 43
0.0
 10
3.666314008791239
 20
0.2151257415501493
 10
3.672324545368725
 20
0.2242515070707339
 10
3.67885631953836
 20
0.2330544484673772
 10
3.685864145688471
 20
0.2414693623997699
 10
3.693356734642663
 20
0.2495030575285671
  0
LINE
  5
128
330
2
100
AcDbEntity
  8
BLOCKS
  6
Continuous
100
AcDbLine
 10
3.505624170618259
 20
0.0722955165885026
 30
0.0
 11
3.505829317596632
 21
0.0723001720247169
 31
0.0
  0
LWPOLYLINE
  5
129
330
2
100
AcDbEntity
  8
BLOCKS
  6
Continuous
100
AcDbPolyline
 90
       14
 70
   128
 43
0.0
 10
3.505624170618254
 20
0.0722955165884958
 10
3.505885506759011
 20
0.0723016998964193
 10
3.517237304440065
 20
0.0730677440347461
 10
3.52852467947822
 20
0.0747916759988255
 10
3.539629091419671
 20
0.0774503580414274
 10
3.550431999811196
 20
0.0810206524151397
 10
3.560222956222466
 20
0.0851760747274273
 10
3.569657432189494
 20
0.0900873842633189
 10
3.579275379640536
 20
0.0961459877037158
 10
3.588382406531898
 20
0.1030160897164058
 10
3.596885204481738
 20
0.1106212217562677
 10
3.604690465108657
 20
0.1188849152782166
 10
3.611413502712027
 20
0.1272988534426657
 10
3.617445567928595
 20
0.1362211633958248
  0
LWPOLYLINE
  5
12A
330
2
100
AcDbEntity
  8
BLOCKS
  6
Continuous
100
AcDbPolyline
 90
       14
 70
   128
 43
0.0
 10
3.505510733950474
 20
0.0772942296350846
 10
3.505767184765542
 20
0.0773003020794238
 10
3.516046335136131
 20
0.0779671597923187
 10
3.526272752871961
 20
0.079449228575071
 10
3.536351388101254
 20
0.0817289471326547
 10
3.546187190951866
 20
0.08478875417008
 10
3.556334192959554
 20
0.0888941658364673
 10
3.566135178532246
 20
0.0938553666097176
 10
3.575488782066028
 20
0.0996157858945333
 10
3.584293637956659
 20
0.1061188530954348
 10
3.592511150297475
 20
0.1133503793878515
 10
3.600118533249449
 20
0.1212755501619211
 10
3.607038712816254
 20
0.1298073212977431
 10
3.613194615001127
 20
0.1388586486753082
  0
LWPOLYLINE
  5
12B
330
2
100
AcDbEntity
  8
BLOCKS
  6
Continuous
100
AcDbPolyline
 90
        3
 70
   128
 43
0.0
 10
3.938601571395345
 20
0.4980634037634843
 10
3.815975200901672
 20
0.3737808144159897
 10
3.693356734642663
 20
0.2495030575285671
  0
LINE
  5
12C
330
2
100
AcDbEntity
  8
BLOCKS
  6
Continuous
100
AcDbLine
 10
3.9350424160973
 20
0.5015751589101059
 30
0.0
 11
3.689179531371903
 21
0.2523937233796744
 31
0.0
  0
LINE
  5
12D
330
2
100
AcDbEntity
  8
BLOCKS
  6
Continuous
100
AcDbLine
 10
3.702831554280462
 20
0.5070015179090946
 30
0.0
 11
3.776153462444537
 21
0.5070015179090946
 31
0.0
  0
LINE
  5
12E
330
2
100
AcDbEntity
  8
BLOCKS
  6
Continuous
100
AcDbLine
 10
3.243584862853478
 20
0.5070015179090946
 30
0.0
 11
3.355639483508295
 21
0.5070015179090946
 31
0.0
  0
LINE
  5
12F
330
2
100
AcDbEntity
  8
BLOCKS
  6
Continuous
100
AcDbLine
 10
2.796366669889718
 20
0.5070015179090946
 30
0.0
 11
2.992409673524773
 21
0.5070015179090946
 31
0.0
  0
LINE
  5
130
330
2
100
AcDbEntity
  8
BLOCKS
  6
Continuous
100
AcDbLine
 10
2.992409673524773
 20
0.5070015179090946
 30
0.0
 11
3.243584862853478
 21
0.5070015179090946
 31
0.0
  0
ARC
  5
131
330
2
100
AcDbEntity
  8
BLOCKS
  6
Continuous
100
AcDbCircle
 10
2.521854835823543
 20
0.488001517909089
 30
0.0
 40
0.014
100
AcDbArc
 50
9.248950013074452
 51
90.0
  0
LINE
  5
132
330
2
100
AcDbEntity
  8
BLOCKS
  6
Continuous
100
AcDbLine
 10
2.521854835823543
 20
0.5070015179090946
 30
0.0
 11
2.460678199620017
 21
0.5070015179090946
 31
0.0
  0
LINE
  5
133
330
2
100
AcDbEntity
  8
BLOCKS
  6
Continuous
100
AcDbLine
 10
2.521854835823543
 20
0.5020015179090423
 30
0.0
 11
2.460678199620017
 21
0.5020015179090423
 31
0.0
  0
ARC
  5
134
330
2
100
AcDbEntity
  8
BLOCKS
  6
Continuous
100
AcDbCircle
 10
2.521854835823543
 20
0.488001517909089
 30
0.0
 40
0.0190000000000001
100
AcDbArc
 50
9.248950013074452
 51
90.0
  0
LINE
  5
135
330
2
100
AcDbEntity
  8
BLOCKS
  6
Continuous
100
AcDbLine
 10
2.540607822753938
 20
0.4910552829939036
 30
0.0
 11
2.593110418075522
 21
0.1686400164211989
 31
0.0
  0
LINE
  5
136
330
2
100
AcDbEntity
  8
BLOCKS
  6
Continuous
100
AcDbLine
 10
2.53567282619326
 20
0.490251660603127
 30
0.0
 11
2.588175421514958
 21
0.1678363940304792
 31
0.0
  0
ARC
  5
137
330
2
100
AcDbEntity
  8
BLOCKS
100
AcDbCircle
 10
2.782522733240054
 20
0.0067564036530769
 30
0.0
 40
0.0557736536533423
100
AcDbArc
 50
105.2997346698184
 51
118.9683362453349
  0
ARC
  5
138
330
2
100
AcDbEntity
  8
BLOCKS
100
AcDbCircle
 10
2.658154146403941
 20
-0.0094404625943355
 30
0.0
 40
0.0743914363086834
100
AcDbArc
 50
60.88633243659675
 51
66.50994689421927
  0
ARC
  5
139
330
2
100
AcDbEntity
  8
BLOCKS
100
AcDbCircle
 10
2.658154146403941
 20
-0.0042712844546542
 30
0.0
 40
0.0743914363086834
100
AcDbArc
 50
53.53017235024562
 51
66.50994689421927
  0
LINE
  5
13A
330
2
100
AcDbEntity
  8
BLOCKS
100
AcDbLine
 10
2.694348838490097
 20
0.0555520759070931
 30
0.0
 11
2.767805818270173
 21
0.0555520759070931
 31
0.0
  0
ARC
  5
13B
330
2
100
AcDbEntity
  8
BLOCKS
  6
Continuous
100
AcDbCircle
 10
2.721420328651103
 20
0.1895341985804805
 30
0.0
 40
0.1350000000000001
100
AcDbArc
 50
189.2489500130744
 51
255.6575289869796
  0
ARC
  5
13C
330
2
100
AcDbEntity
  8
BLOCKS
  6
Continuous
100
AcDbCircle
 10
2.721420328651103
 20
0.1895341985804805
 30
0.0
 40
0.1300000000000002
100
AcDbArc
 50
189.2489500130744
 51
255.0145848497862
  0
LINE
  5
13D
330
2
100
AcDbEntity
  8
BLOCKS
  6
Continuous
100
AcDbLine
 10
2.445537706221213
 20
0.4570015179090831
 30
0.0
 11
2.445537706221213
 21
0.4920015179090513
 31
0.0
  0
LINE
  5
13E
330
2
100
AcDbEntity
  8
BLOCKS
  6
Continuous
100
AcDbLine
 10
2.450584537354186
 20
0.4570015179090831
 30
0.0
 11
2.450584537354186
 21
0.4920015179090513
 31
0.0
  0
LINE
  5
13F
330
2
100
AcDbEntity
  8
BLOCKS
  6
Continuous
100
AcDbLine
 10
2.450584537354186
 20
0.4570015179090831
 30
0.0
 11
2.445537706221213
 21
0.4570015179090831
 31
0.0
  0
LWPOLYLINE
  5
140
330
2
100
AcDbEntity
  8
BLOCKS
  6
Continuous
100
AcDbPolyline
 90
       11
 70
   128
 43
0.0
 10
2.416056363909089
 20
0.5070015179090513
 10
2.413731621002304
 20
0.5068168430179902
 10
2.411464120981261
 20
0.5062673656534788
 10
2.40930969722184
 20
0.5053666157718216
 10
2.407321398787323
 20
0.5041367728246805
 10
2.405548184183651
 20
0.502608119626824
 10
2.404033715839438
 20
0.5008182966933999
 10
2.402815284991563
 20
0.4988113754051336
 10
2.401922893451344
 20
0.4966367728246804
 10
2.401378514860086
 20
0.4943480348846459
 10
2.401195553625373
 20
0.4920015179090513
  0
LINE
  5
141
330
2
100
AcDbEntity
  8
BLOCKS
  6
Continuous
100
AcDbLine
 10
2.401195553625481
 20
0.4920015179090513
 30
0.0
 11
2.401195553625481
 21
0.4570015179090831
 31
0.0
  0
LINE
  5
142
330
2
100
AcDbEntity
  8
BLOCKS
  6
Continuous
100
AcDbLine
 10
2.401056363909103
 20
0.4920015179090513
 30
0.0
 11
2.401056363909103
 21
0.4570015179090831
 31
0.0
  0
LINE
  5
143
330
2
100
AcDbEntity
  8
BLOCKS
  6
Continuous
100
AcDbLine
 10
2.401195553625481
 20
0.4570015179090831
 30
0.0
 11
2.401056363909103
 21
0.4570015179090831
 31
0.0
  0
LINE
  5
144
330
2
100
AcDbEntity
  8
BLOCKS
  6
Continuous
100
AcDbLine
 10
2.401056363909103
 20
0.4920015179090513
 30
0.0
 11
2.401195553625481
 21
0.4920015179090513
 31
0.0
  0
LINE
  5
145
330
2
100
AcDbEntity
  8
BLOCKS
  6
Continuous
100
AcDbLine
 10
2.401195553625481
 20
0.4570015179090831
 30
0.0
 11
2.445537706221213
 21
0.4570015179090831
 31
0.0
  0
LINE
  5
146
330
2
100
AcDbEntity
  8
BLOCKS
  6
Continuous
100
AcDbLine
 10
2.541087330304091
 20
0.4570015179090831
 30
0.0
 11
2.450584537354186
 21
0.4570015179090831
 31
0.0
  0
LWPOLYLINE
  5
147
330
2
100
AcDbEntity
  8
BLOCKS
  6
Continuous
100
AcDbPolyline
 90
       11
 70
   128
 43
0.0
 10
2.460678199620021
 20
0.5070015179090513
 10
2.458309704634673
 20
0.5068168430179902
 10
2.455999529856533
 20
0.5062673656534788
 10
2.453804559455536
 20
0.5053666157718216
 10
2.451778840887752
 20
0.5041367728246805
 10
2.449972254067258
 20
0.502608119626824
 10
2.448429283157245
 20
0.5008182966933999
 10
2.447187921222291
 20
0.4988113754051336
 10
2.446278734713275
 20
0.4966367728246804
 10
2.445724110819253
 20
0.4943480348846459
 10
2.445537706221227
 20
0.4920015179090513
  0
LWPOLYLINE
  5
148
330
2
100
AcDbEntity
  8
BLOCKS
  6
Continuous
100
AcDbPolyline
 90
        9
 70
   128
 43
0.0
 10
2.460678199620021
 20
0.5020015179090514
 10
2.458709023798189
 20
0.5018093707130937
 10
2.456815522299081
 20
0.5012403132341968
 10
2.455070461322872
 20
0.5003162140320672
 10
2.453540902584797
 20
0.4990725857208998
 10
2.452285626169111
 20
0.4975572202392176
 10
2.451352871644528
 20
0.4958283522327145
 10
2.450778484244335
 20
0.4939524211291826
 10
2.450584537354086
 20
0.4920015179090513
  0
LINE
  5
149
330
2
100
AcDbEntity
  8
BLOCKS
  6
Continuous
100
AcDbLine
 10
2.416056363909089
 20
0.5070015179090377
 30
0.0
 11
2.460678199620017
 21
0.5070015179090946
 31
0.0
  0
LINE
  5
14A
330
2
100
AcDbEntity
  8
BLOCKS
  6
Continuous
100
AcDbLine
 10
2.521854835823543
 20
0.5070015179090946
 30
0.0
 11
2.796366669889718
 21
0.5070015179090946
 31
0.0
  0
LINE
  5
14B
330
2
100
AcDbEntity
  8
BLOCKS
  6
Continuous
100
AcDbLine
 10
2.767805818270173
 20
0.0555520759070931
 30
0.0
 11
3.505624170618259
 21
0.0722955165885026
 31
0.0
  0
LINE
  5
14C
330
2
100
AcDbEntity
  8
BLOCKS
  6
Continuous
100
AcDbLine
 10
2.767805818270173
 20
0.0605533631918491
 30
0.0
 11
3.50551073395047
 21
0.0772942296351346
 31
0.0
  0
LINE
  5
14D
330
2
100
AcDbEntity
  8
BLOCKS
  6
Continuous
100
AcDbLine
 10
3.355639483508295
 20
0.5070015179090946
 30
0.0
 11
3.702831554280462
 21
0.5070015179090946
 31
0.0
  0
ARC
  5
1ED
330
2
100
AcDbEntity
  8
BLOCKS
  6
Continuous
100
AcDbCircle
 10
-0.8763392046012095
 20
0.691310513053625
 30
0.0
 40
0.0150000000000001
100
AcDbArc
 50
0.0716537287878779
 51
90.07165372951741
  0
LINE
  5
1EE
330
2
100
AcDbEntity
  8
BLOCKS
  6
Continuous
100
AcDbLine
 10
-0.9371822359983079
 20
0.3758099997384106
 30
0.0
 11
-0.9319693329755418
 21
0.3698092946750675
 31
0.0
  0
LWPOLYLINE
  5
1EF
330
2
100
AcDbEntity
  8
BLOCKS
  6
Continuous
100
AcDbPolyline
 90
        3
 70
   128
 43
0.0
 10
-0.9528896692220277
 20
0.3921167874676602
 10
-0.9448953154508179
 20
0.38410894814557
 10
-0.9371822359983033
 20
0.3758099997383969
  0
ARC
  5
1F0
330
2
100
AcDbEntity
  8
BLOCKS
100
AcDbCircle
 10
-1.253244255990353
 20
0.198621720332258
 30
0.0
 40
0.3802948423160535
100
AcDbArc
 50
353.3409798062731
 51
6.659020193726869
  0
LINE
  5
1F1
330
2
100
AcDbEntity
  8
BLOCKS
  6
Continuous
100
AcDbLine
 10
-0.9247084143582933
 20
0.2068924779040371
 30
0.0
 11
-0.9273366215650193
 21
0.2201349163395916
 31
0.0
  0
LINE
  5
1F2
330
2
100
AcDbEntity
  8
BLOCKS
  6
Continuous
100
AcDbLine
 10
-0.8895919206563585
 20
0.0865307474476849
 30
0.0
 11
-0.895128715318834
 21
0.0697781318766628
 31
0.0
  0
LWPOLYLINE
  5
1F3
330
2
100
AcDbEntity
  8
BLOCKS
  6
Continuous
100
AcDbPolyline
 90
        3
 70
   128
 43
0.0
 10
-0.944172430318982
 20
0.0926765376669782
 10
-0.9396991613332337
 20
0.1015159809929745
 10
-0.9379999521199769
 20
0.1052097255331891
  0
LWPOLYLINE
  5
1F4
330
2
100
AcDbEntity
  8
BLOCKS
  6
Continuous
100
AcDbPolyline
 90
       11
 70
   128
 43
0.0
 10
-0.9379999521199769
 20
0.1052097255331891
 10
-0.9338335278455323
 20
0.1152613336188214
 10
-0.9302381756726807
 20
0.1255531335217374
 10
-0.9272241476003236
 20
0.1362363422257321
 10
-0.9248986127797669
 20
0.1471012333375828
 10
-0.9234434249822205
 20
0.1568490812522786
 10
-0.9225612166349
 20
0.1666744003040211
 10
-0.9222493055287904
 20
0.1765194782955067
 10
-0.9225157978955811
 20
0.1866957569462674
 10
-0.9233478787366456
 20
0.1968360790950673
 10
-0.9247084143582886
 20
0.2068924779040234
  0
LWPOLYLINE
  5
1F5
330
2
100
AcDbEntity
  8
BLOCKS
  6
Continuous
100
AcDbPolyline
 90
        5
 70
   128
 43
0.0
 10
-0.8755149426881379
 20
0.1545225937600325
 10
-0.8780436995450562
 20
0.136591630612077
 10
-0.8811500552121705
 20
0.1198161119563
 10
-0.885001766962201
 20
0.1030968004805463
 10
-0.8895919206563538
 20
0.0865307474476712
  0
LWPOLYLINE
  5
1F6
330
2
100
AcDbEntity
  8
BLOCKS
  6
Continuous
100
AcDbPolyline
 90
       11
 70
   128
 43
0.0
 10
-0.9319693329755372
 20
0.3698092946750538
 10
-0.9233018043462342
 20
0.3588296869737523
 10
-0.9153064372960633
 20
0.347349944148721
 10
-0.9078755262319154
 20
0.3352735066754239
 10
-0.9011198761884278
 20
0.3228062415463345
 10
-0.8959447625104493
 20
0.3120117509705441
 10
-0.8912503602925843
 20
0.3009733283860104
 10
-0.8861992838803834
 20
0.2872236115825789
 10
-0.881923485082776
 20
0.2732137549636381
 10
-0.8784158709470338
 20
0.2587909107995646
 10
-0.8755149426881379
 20
0.2427208469043971
  0
ARC
  5
1F7
330
2
100
AcDbEntity
  8
BLOCKS
  6
Continuous
100
AcDbCircle
 10
-0.87633921633119
 20
-0.182311566987889
 30
0.0
 40
0.015
100
AcDbArc
 50
270.0
 51
0.0716537287878779
  0
LINE
  5
1F8
330
2
100
AcDbEntity
  8
BLOCKS
100
AcDbLine
 10
-0.86133921633109
 20
0.6913292719510223
 30
0.0
 11
-0.86133921633109
 21
-0.182311566987889
 31
0.0
  0
LINE
  5
1F9
330
2
100
AcDbEntity
  8
BLOCKS
  6
Continuous
100
AcDbLine
 10
-0.9781457665387742
 20
0.3388573402506863
 30
0.0
 11
-0.9815840604726426
 21
0.3443537676674877
 31
0.0
  0
LINE
  5
1FA
330
2
100
AcDbEntity
  8
BLOCKS
  6
Continuous
100
AcDbLine
 10
-0.9815840604726426
 20
0.3443537676674877
 30
0.0
 11
-0.9924614313069932
 21
0.3606467196685825
 31
0.0
  0
LWPOLYLINE
  5
1FB
330
2
100
AcDbEntity
  8
BLOCKS
  6
Continuous
100
AcDbPolyline
 90
        5
 70
   128
 43
0.0
 10
-0.9737412217084473
 20
0.2926603486729281
 10
-0.9774513128224915
 20
0.3018696332318203
 10
-0.9817349794332093
 20
0.3108503395659344
 10
-0.986614692491681
 20
0.3196468414706604
 10
-0.992009926122815
 20
0.3281283402783291
  0
LINE
  5
1FC
330
2
100
AcDbEntity
  8
BLOCKS
  6
Continuous
100
AcDbLine
 10
-0.9920099261228196
 20
0.3281283402783428
 30
0.0
 11
-1.0024825218145
 21
0.3426308656079326
 31
0.0
  0
LWPOLYLINE
  5
1FD
330
2
100
AcDbEntity
  8
BLOCKS
  6
Continuous
100
AcDbPolyline
 90
        5
 70
   128
 43
0.0
 10
-1.002482521814495
 20
0.342630865607919
 10
-1.010679710191876
 20
0.3530098224026577
 10
-1.019182014745861
 20
0.3631855497104542
 10
-1.027997064870983
 20
0.3731698194486515
 10
-1.037105548662335
 20
0.3829392591459172
  0
LINE
  5
1FE
330
2
100
AcDbEntity
  8
BLOCKS
  6
Continuous
100
AcDbLine
 10
-1.107268618899298
 20
0.4637868463975705
 30
0.0
 11
-1.104983318132554
 21
0.4806013429505383
 31
0.0
  0
LWPOLYLINE
  5
1FF
330
2
100
AcDbEntity
  8
BLOCKS
  6
Continuous
100
AcDbPolyline
 90
       13
 70
   128
 43
0.0
 10
-0.9924614313069886
 20
0.3606467196685688
 10
-1.004351008218914
 20
0.3780741566759961
 10
-1.017049241346508
 20
0.3949925178629773
 10
-1.030518281740338
 20
0.4113533968073743
 10
-1.035739469808728
 20
0.417311834726991
 10
-1.04749818472305
 20
0.4300283962828534
 10
-1.0597482803289
 20
0.4423281276566403
 10
-1.072469610256344
 20
0.4541696483237164
 10
-1.084044355434567
 20
0.4641837799889462
 10
-1.095971811098248
 20
0.4737945223194974
 10
-1.104425508064419
 20
0.4801910692793744
 10
-1.104865360540539
 20
0.4805147075993436
 10
-1.10498331813255
 20
0.4806013429505246
  0
LWPOLYLINE
  5
200
330
2
100
AcDbEntity
  8
BLOCKS
  6
Continuous
100
AcDbPolyline
 90
        8
 70
   128
 43
0.0
 10
-1.037105548662335
 20
0.3829392591459172
 10
-1.037203657907635
 20
0.3830422783238308
 10
-1.048625427765042
 20
0.3946383768660443
 10
-1.060473817867428
 20
0.4058884555441754
 10
-1.073227304500729
 20
0.4171823585373776
 10
-1.086410808843762
 20
0.4280294949156659
 10
-1.100123811048657
 20
0.4384728247267621
 10
-1.114255476278454
 20
0.4483833933216947
  0
LWPOLYLINE
  5
201
330
2
100
AcDbEntity
  8
BLOCKS
  6
Continuous
100
AcDbPolyline
 90
        3
 70
   128
 43
0.0
 10
-1.180337417406231
 20
0.4818950617653745
 10
-1.180269468111187
 20
0.4819300645930188
 10
-1.180257994217068
 20
0.4819484079224484
  0
LWPOLYLINE
  5
202
330
2
100
AcDbEntity
  8
BLOCKS
  6
Continuous
100
AcDbPolyline
 90
        6
 70
   128
 43
0.0
 10
-1.114255476278454
 20
0.4483833933216947
 10
-1.129831272644192
 20
0.4581709081274884
 10
-1.146030623001248
 20
0.4670280093294995
 10
-1.162925619167477
 20
0.4749714160305875
 10
-1.180337357801587
 20
0.4818950468642133
 10
-1.180337417406231
 20
0.4818950617653745
  0
LWPOLYLINE
  5
203
330
2
100
AcDbEntity
  8
BLOCKS
  6
Continuous
100
AcDbPolyline
 90
        5
 70
   128
 43
0.0
 10
-1.173777121585995
 20
0.4984524721247571
 10
-1.155877965969235
 20
0.4910463714939969
 10
-1.138395625633389
 20
0.4825401777369397
 10
-1.121273923200756
 20
0.47287465873784
 10
-1.107268618899293
 20
0.4637868463975092
  0
LWPOLYLINE
  5
204
330
2
100
AcDbEntity
  8
BLOCKS
  6
Continuous
100
AcDbPolyline
 90
       14
 70
   128
 43
0.0
 10
-1.410613405985028
 20
0.2210589634222405
 10
-1.4091035309259
 20
0.2305445471746342
 10
-1.408180538100392
 20
0.240096746568145
 10
-1.408082667273671
 20
0.2496562400800602
 10
-1.408770877403408
 20
0.2592246475131677
 10
-1.410246919376046
 20
0.268701386727901
 10
-1.412512573880345
 20
0.2779858760503547
 10
-1.41617374448219
 20
0.2885544082117693
 10
-1.420042942744881
 20
0.297040874694051
 10
-1.424649450463444
 20
0.3051924394411461
 10
-1.429950911087185
 20
0.3129061521930115
 10
-1.435904945713669
 20
0.3200790608269589
 10
-1.44030934153238
 20
0.3245826499504464
 10
-1.444972741884381
 20
0.3288201639396565
  0
LWPOLYLINE
  5
205
330
2
100
AcDbEntity
  8
BLOCKS
  6
Continuous
100
AcDbPolyline
 90
        9
 70
   128
 43
0.0
 10
-1.545477618930132
 20
0.3901759559256451
 10
-1.552528759000093
 20
0.3926776373726742
 10
-1.559765565675885
 20
0.3945767158610241
 10
-1.567356600892932
 20
0.3958902383191006
 10
-1.575032270980269
 20
0.3965501958472149
 10
-1.581980250311286
 20
0.3965832764250653
 10
-1.588910843712479
 20
0.3960888558966534
 10
-1.595947157127053
 20
0.3950417960030453
 10
-1.602882924956471
 20
0.3934594565970318
  0
LWPOLYLINE
  5
206
330
2
100
AcDbEntity
  8
BLOCKS
  6
Continuous
100
AcDbPolyline
 90
        9
 70
   128
 43
0.0
 10
-1.585722025019318
 20
0.0940712267500775
 10
-1.570462155622632
 20
0.0961082452875989
 10
-1.555295478088051
 20
0.0987501168591397
 10
-1.540148598608762
 20
0.1020386839253323
 10
-1.525158790406972
 20
0.1059804582936185
 10
-1.511710036081463
 20
0.1101491922480481
 10
-1.498456861359269
 20
0.1149020517212765
 10
-1.485334716272742
 20
0.1203276539189236
 10
-1.472487337422759
 20
0.1263770932299512
  0
LWPOLYLINE
  5
207
330
2
100
AcDbEntity
  8
BLOCKS
  6
Continuous
100
AcDbPolyline
 90
       13
 70
   128
 43
0.0
 10
-1.472487337422759
 20
0.1263770932299512
 10
-1.46250941930452
 20
0.1317773783547299
 10
-1.453135732096821
 20
0.13822551313466
 10
-1.444551448804528
 20
0.1456377753955739
 10
-1.439059759956986
 20
0.1513625854594128
 10
-1.434002395254761
 20
0.1574749002200978
 10
-1.428656514269501
 20
0.1650955626708882
 10
-1.423952657264859
 20
0.1731662699920552
 10
-1.419926117641121
 20
0.181597332094373
 10
-1.416612203699738
 20
0.1902990588886159
 10
-1.413805674297005
 20
0.2003660598737614
 10
-1.411875191611439
 20
0.2106640027803795
 10
-1.410613405985028
 20
0.2210589634222405
  0
LWPOLYLINE
  5
208
330
2
100
AcDbEntity
  8
BLOCKS
  6
Continuous
100
AcDbPolyline
 90
       10
 70
   128
 43
0.0
 10
-1.444972741884381
 20
0.3288201639396565
 10
-1.45554242609182
 20
0.3379365825993435
 10
-1.465659107548386
 20
0.3458585614306347
 10
-1.476105466020495
 20
0.3533410454136746
 10
-1.486919227522999
 20
0.3604424247486012
 10
-1.497999401298553
 20
0.367120916579427
 10
-1.509525959846765
 20
0.3734960133177655
 10
-1.521275284701228
 20
0.3794508749586956
 10
-1.533285185695827
 20
0.3850192749840634
 10
-1.545477618930132
 20
0.3901759559256451
  0
LWPOLYLINE
  5
209
330
2
100
AcDbEntity
  8
BLOCKS
  6
Continuous
100
AcDbPolyline
 90
       10
 70
   128
 43
0.0
 10
-1.510349133518726
 20
0.6000772738797086
 10
-1.472853790504128
 20
0.592120292220773
 10
-1.43553162692228
 20
0.5833869004589932
 10
-1.398334431928784
 20
0.5738664889675992
 10
-1.361341524404675
 20
0.5635807538372891
 10
-1.324630993885189
 20
0.5525568747860806
 10
-1.288153130096585
 20
0.5407859111172574
 10
-1.251862067264706
 20
0.528254690204324
 10
-1.215832251590878
 20
0.5149909580094235
 10
-1.173777121585995
 20
0.4984524721247571
  0
LWPOLYLINE
  5
20A
330
2
100
AcDbEntity
  8
BLOCKS
  6
Continuous
100
AcDbPolyline
 90
       10
 70
   128
 43
0.0
 10
-1.180257994217068
 20
0.4819484079224484
 10
-1.22220053104797
 20
0.4982164973360913
 10
-1.25787751702705
 20
0.5111862296206372
 10
-1.293802741450459
 20
0.5234525823933499
 10
-1.330020892900616
 20
0.535023363862695
 10
-1.366463008803517
 20
0.545869323049249
 10
-1.403043608647972
 20
0.5559616709095853
 10
-1.439820762259156
 20
0.5653136992794888
 10
-1.476841978264243
 20
0.5739304149491208
 10
-1.514031928499431
 20
0.5817881548745053
  0
LWPOLYLINE
  5
20B
330
2
100
AcDbEntity
  8
BLOCKS
  6
Continuous
100
AcDbPolyline
 90
       14
 70
   128
 43
0.0
 10
-1.877380568069607
 20
0.5966770673138516
 10
-1.854449260515362
 20
0.5901275897366422
 10
-1.83117287187019
 20
0.5848525488716977
 10
-1.807658452076108
 20
0.5808760846001523
 10
-1.789383697790295
 20
0.5787045383793729
 10
-1.771016004962117
 20
0.5773147666794675
 10
-1.75260576931873
 20
0.5767094815117734
 10
-1.734203341883809
 20
0.576891484294595
 10
-1.715756032151372
 20
0.5778673911435025
 10
-1.697359058541447
 20
0.5796341622216123
 10
-1.679063189310223
 20
0.5821870291573422
 10
-1.660584914964825
 20
0.5855879211766141
 10
-1.642263825518281
 20
0.5897935951096433
 10
-1.624152291101605
 20
0.5947921002251523
  0
LWPOLYLINE
  5
20C
330
2
100
AcDbEntity
  8
BLOCKS
  6
Continuous
100
AcDbPolyline
 90
       15
 70
   128
 43
0.0
 10
-1.618789020461232
 20
0.5768951499802487
 10
-1.63736965088287
 20
0.5717710876805203
 10
-1.656161400956303
 20
0.5674457574231046
 10
-1.675112474245221
 20
0.5639309609276669
 10
-1.694523188752324
 20
0.5611942434651273
 10
-1.714043963236004
 20
0.5593045974118131
 10
-1.73361921636501
 20
0.5582673275811093
 10
-1.758140403312832
 20
0.5581731522423642
 10
-1.782703358215481
 20
0.5594211840969937
 10
-1.799574333709866
 20
0.5610624575955289
 10
-1.816377508920819
 20
0.5633386695725339
 10
-1.833077121061474
 20
0.5662449920517819
 10
-1.849871087354809
 20
0.5698297345978635
 10
-1.866522121709973
 20
0.5740540647847073
 10
-1.88299383549133
 20
0.5789088034970181
  0
LWPOLYLINE
  5
20D
330
2
100
AcDbEntity
  8
BLOCKS
  6
Continuous
100
AcDbPolyline
 90
       11
 70
   128
 43
0.0
 10
-2.07076768903175
 20
0.2163656080109494
 10
-2.060221421999127
 20
0.2105643624407666
 10
-2.049362528604657
 20
0.2053507590634243
 10
-2.038240599912793
 20
0.2007492693108933
 10
-2.026546913665921
 20
0.196667174432935
 10
-2.014630008024365
 20
0.1932551661474126
 10
-2.002547908109814
 20
0.1905300343377011
 10
-1.990688669962079
 20
0.188549573157491
 10
-1.978737998289258
 20
0.1872283095461743
 10
-1.966581899208218
 20
0.186566966210069
 10
-1.954407739919812
 20
0.1865867400509732
  0
LWPOLYLINE
  5
20E
330
2
100
AcDbEntity
  8
BLOCKS
  6
Continuous
100
AcDbPolyline
 90
       16
 70
   128
 43
0.0
 10
-2.04556827573219
 20
0.4017741555315869
 10
-2.06413744716087
 20
0.3965011412245648
 10
-2.082518506330639
 20
0.3905524933678524
 10
-2.100622999948651
 20
0.3838345581633465
 10
-2.118362415117413
 20
0.3762536743623631
 10
-2.132663178724438
 20
0.3692515367609875
 10
-2.146530616563946
 20
0.3614331880552189
 10
-2.155656206888348
 20
0.355553256903352
 10
-2.164405453485638
 20
0.3491313854200261
 10
-2.169919121545941
 20
0.3445337066394703
 10
-2.175124037546307
 20
0.33959260079688
 10
-2.178420710844189
 20
0.3360541263563054
 10
-2.181427884382397
 20
0.3322646865589039
 10
-2.183903622907788
 20
0.3281445303899662
 10
-2.18434886960426
 20
0.3272255161744969
 10
-2.18463819055
 20
0.3262587958914654
  0
LWPOLYLINE
  5
20F
330
2
100
AcDbEntity
  8
BLOCKS
  6
Continuous
100
AcDbPolyline
 90
       15
 70
   128
 43
0.0
 10
-2.18463819055
 20
0.3262587958914654
 10
-2.184606004041821
 20
0.3253771090847866
 10
-2.183871436399609
 20
0.3219583617491143
 10
-2.181355703157574
 20
0.3153959536892788
 10
-2.178064573091656
 20
0.3091662438554184
 10
-2.171654510778576
 20
0.2993005314809697
 10
-2.164373624605328
 20
0.2900120211733
 10
-2.15644245175758
 20
0.281235427219929
 10
-2.148081708234936
 20
0.2729054676336663
 10
-2.144466507715375
 20
0.2695112797399478
 10
-2.129453647417218
 20
0.2565335245770829
 10
-2.115400839132458
 20
0.2456334033948796
 10
-2.100881386083752
 20
0.2353386642379181
 10
-2.085976589006573
 20
0.2255993770403283
 10
-2.07076768903175
 20
0.2163656080109494
  0
CIRCLE
  5
210
330
2
100
AcDbEntity
  8
BLOCKS
100
AcDbCircle
 10
-2.134138204515466
 20
0.319695195280647
 30
0.0
 40
0.026
  0
CIRCLE
  5
211
330
2
100
AcDbEntity
  8
BLOCKS
100
AcDbCircle
 10
-2.134138204515466
 20
0.319695195280647
 30
0.0
 40
0.04
  0
LWPOLYLINE
  5
212
330
2
100
AcDbEntity
  8
BLOCKS
  6
Continuous
100
AcDbPolyline
 90
       15
 70
   128
 43
0.0
 10
-1.954407739919812
 20
0.1865867400509732
 10
-1.930272537750393
 20
0.1867979342085736
 10
-1.906128573698193
 20
0.186004506979646
 10
-1.882038313430935
 20
0.1842102879626172
 10
-1.8580641630117
 20
0.1814191216570752
 10
-1.833537626547009
 20
0.17750594261712
 10
-1.80917837051788
 20
0.1725440571052449
 10
-1.785052556080014
 20
0.1665487686139958
 10
-1.761226403993756
 20
0.1595353955370801
 10
-1.740688610357434
 20
0.1525840410930531
 10
-1.7204167726461
 20
0.1448700973731892
 10
-1.700453001541287
 20
0.1364097321373837
 10
-1.680570143741757
 20
0.1270885044676678
 10
-1.661045718473584
 20
0.117020788226785
 10
-1.641921337229401
 20
0.1062280410868542
  0
LWPOLYLINE
  5
213
330
2
100
AcDbEntity
  8
BLOCKS
  6
Continuous
100
AcDbPolyline
 90
       11
 70
   128
 43
0.0
 10
-2.074396419805676
 20
0.6027804637295621
 10
-2.055619943422467
 20
0.606908711229028
 10
-2.0366530301992
 20
0.6100474322182553
 10
-2.017331409734875
 20
0.6122025871617215
 10
-1.997922528070599
 20
0.6133263135296719
 10
-1.977844226640851
 20
0.6133957529408353
 10
-1.957777369302899
 20
0.6123570227963345
 10
-1.937813836616665
 20
0.6102131927353757
 10
-1.917428571266324
 20
0.6068531895024197
 10
-1.897251296323926
 20
0.602333995137872
 10
-1.877380568069607
 20
0.5966770673138516
  0
LWPOLYLINE
  5
214
330
2
100
AcDbEntity
  8
BLOCKS
  6
Continuous
100
AcDbPolyline
 90
       11
 70
   128
 43
0.0
 10
-1.88299383549133
 20
0.5789088034970181
 10
-1.901306438726575
 20
0.5841370547158139
 10
-1.919895369094998
 20
0.5883441889626401
 10
-1.9386744978849
 20
0.59151140097207
 10
-1.958154338878781
 20
0.5936743939263242
 10
-1.977741706651837
 20
0.594725581441583
 10
-1.997341233772427
 20
0.5946618044716733
 10
-2.016291934532315
 20
0.5935370648247617
 10
-2.035209346098096
 20
0.5913657570225614
 10
-2.05261640576759
 20
0.5884274566513913
 10
-2.069896209520489
 20
0.5845978582245725
  0
LWPOLYLINE
  5
215
330
2
100
AcDbEntity
  8
BLOCKS
  6
Continuous
100
AcDbPolyline
 90
       11
 70
   128
 43
0.0
 10
-1.92548142699638
 20
0.3994168961388485
 10
-1.937074739021451
 20
0.4026510143620389
 10
-1.948838132900387
 20
0.4052411789042371
 10
-1.960717636627347
 20
0.4071749621970075
 10
-1.97303517488876
 20
0.4084721082789319
 10
-1.985416758340985
 20
0.40906571093625
 10
-1.997801947874219
 20
0.4089528793436902
 10
-2.009799915832669
 20
0.408166247044267
 10
-2.021736103576809
 20
0.4067171985251325
 10
-2.033721316141278
 20
0.4045790607077496
 10
-2.04556827573219
 20
0.4017741555315869
  0
LWPOLYLINE
  5
216
330
2
100
AcDbEntity
  8
BLOCKS
  6
Continuous
100
AcDbPolyline
 90
       15
 70
   128
 43
0.0
 10
-1.602882924956471
 20
0.3934594565970318
 10
-1.626366551500947
 20
0.3876714581591503
 10
-1.650090652984768
 20
0.3828597465497868
 10
-1.673993665260464
 20
0.3790355721456425
 10
-1.698013994378239
 20
0.3762101480705159
 10
-1.722832712811619
 20
0.3743513027173893
 10
-1.74773094384113
 20
0.3735547611457722
 10
-1.772640365642697
 20
0.3738215291840451
 10
-1.797492730898053
 20
0.3751526201111691
 10
-1.819013703149945
 20
0.3771733144266026
 10
-1.840452122968823
 20
0.379993493292989
 10
-1.861763495487362
 20
0.383607598577203
 10
-1.883193928283841
 20
0.3880746388775723
 10
-1.904448348564297
 20
0.3933480406147854
 10
-1.92548142699638
 20
0.3994168961388485
  0
LWPOLYLINE
  5
217
330
2
100
AcDbEntity
  8
BLOCKS
  6
Continuous
100
AcDbPolyline
 90
        9
 70
   128
 43
0.0
 10
-1.514031928499431
 20
0.5817881548745053
 10
-1.525822151569851
 20
0.5838285410744565
 10
-1.537716587540895
 20
0.5852130377632993
 10
-1.549660272431761
 20
0.5859348202092069
 10
-1.561975512189061
 20
0.5859811330181973
 10
-1.57428338332215
 20
0.5853234851700681
 10
-1.586523606908709
 20
0.5839655423504727
 10
-1.602744277102143
 20
0.5810581469876187
 10
-1.618789020461232
 20
0.5768951499802487
  0
LWPOLYLINE
  5
218
330
2
100
AcDbEntity
  8
BLOCKS
  6
Continuous
100
AcDbPolyline
 90
        9
 70
   128
 43
0.0
 10
-1.624152291101605
 20
0.5947921002251523
 10
-1.606823917013795
 20
0.5992756510121243
 10
-1.589101410937697
 20
0.6024440551144498
 10
-1.576181429905087
 20
0.6038820469719785
 10
-1.563191733789832
 20
0.6046040380341428
 10
-1.550192001742512
 20
0.6046063328129666
 10
-1.5368358572025
 20
0.6038543904168027
 10
-1.523533331697077
 20
0.6023421311718839
 10
-1.510349133518726
 20
0.6000772738797086
  0
LWPOLYLINE
  5
219
330
2
100
AcDbEntity
  8
BLOCKS
  6
Continuous
100
AcDbPolyline
 90
        9
 70
   128
 43
0.0
 10
-1.641921337229401
 20
0.1062280410868542
 10
-1.635242323857934
 20
0.1026486480576413
 10
-1.628293994349629
 20
0.0996256643874066
 10
-1.620913277846963
 20
0.0971254432541745
 10
-1.613346490544468
 20
0.0952635878664868
 10
-1.606579582673699
 20
0.0941708708149808
 10
-1.599749158603341
 20
0.0935971165043729
 10
-1.592726181728036
 20
0.0935563618285077
 10
-1.585722025019318
 20
0.0940712267500775
  0
LINE
  5
21A
330
2
100
AcDbEntity
  8
BLOCKS
  6
Continuous
100
AcDbLine
 10
-0.9878155472699754
 20
-0.050997433628365
 30
0.0
 11
-0.9959211829129808
 21
-0.0564133798735584
 31
0.0
  0
LINE
  5
21B
330
2
100
AcDbEntity
  8
BLOCKS
  6
Continuous
100
AcDbLine
 10
-1.030323136133348
 20
-0.0142515873568501
 30
0.0
 11
-1.024473536295091
 21
-0.0088665461199726
 31
0.0
  0
LWPOLYLINE
  5
21C
330
2
100
AcDbEntity
  8
BLOCKS
  6
Continuous
100
AcDbPolyline
 90
        3
 70
   128
 43
0.0
 10
-0.9959211829129761
 20
-0.0564133798735721
 10
-1.005556988996655
 20
-0.0623474394934757
 10
-1.015411126894146
 20
-0.0679406499522312
  0
LWPOLYLINE
  5
21D
330
2
100
AcDbEntity
  8
BLOCKS
  6
Continuous
100
AcDbPolyline
 90
        5
 70
   128
 43
0.0
 10
-1.093859422487408
 20
-0.0346367036955936
 10
-1.082520801109463
 20
-0.0276823019641025
 10
-1.071387160104901
 20
-0.0204324102061374
 10
-1.060448903125912
 20
-0.012877700294791
 10
-1.049734252971798
 20
-0.0050311958449466
  0
LINE
  5
21E
330
2
100
AcDbEntity
  8
BLOCKS
  6
Continuous
100
AcDbLine
 10
-1.045154977125322
 20
-0.0270542776244129
 30
0.0
 11
-1.030323136133348
 21
-0.0142515873568501
 31
0.0
  0
LINE
  5
21F
330
2
100
AcDbEntity
  8
BLOCKS
  6
Continuous
100
AcDbLine
 10
-1.049734252971803
 20
-0.0050311958449329
 30
0.0
 11
-1.035770851654207
 21
0.0061501586777721
 31
0.0
  0
LINE
  5
220
330
2
100
AcDbEntity
  8
BLOCKS
  6
Continuous
100
AcDbLine
 10
-1.185615885538255
 20
-0.1126657402174915
 30
0.0
 11
-1.183055505858193
 21
-0.0938273352836605
 31
0.0
  0
LWPOLYLINE
  5
221
330
2
100
AcDbEntity
  8
BLOCKS
  6
Continuous
100
AcDbPolyline
 90
        3
 70
   128
 43
0.0
 10
-1.258244204801709
 20
-0.0918476557391269
 10
-1.258281070274502
 20
-0.0917918657916172
 10
-1.258306491655499
 20
-0.0917750274794681
  0
LWPOLYLINE
  5
222
330
2
100
AcDbEntity
  8
BLOCKS
  6
Continuous
100
AcDbPolyline
 90
        6
 70
   128
 43
0.0
 10
-1.258306491655499
 20
-0.0917750274794681
 10
-1.258306432050854
 20
-0.0917750274794681
 10
-1.239421028179318
 20
-0.0897136008399112
 10
-1.220626521391064
 20
-0.0864712273734195
 10
-1.203044134658963
 20
-0.0823228335040195
 10
-1.185677516740948
 20
-0.0771159505503757
  0
LWPOLYLINE
  5
223
330
2
100
AcDbEntity
  8
BLOCKS
  6
Continuous
100
AcDbPolyline
 90
        5
 70
   128
 43
0.0
 10
-1.183055505858179
 20
-0.093827335283656
 10
-1.198625374120861
 20
-0.0987460887091739
 10
-1.21748559502998
 20
-0.1034663891451938
 10
-1.236815202516705
 20
-0.1070667779105289
 10
-1.256403285545498
 20
-0.1094827329772098
  0
LWPOLYLINE
  5
224
330
2
100
AcDbEntity
  8
BLOCKS
  6
Continuous
100
AcDbPolyline
 90
       13
 70
   128
 43
0.0
 10
-1.18561588553825
 20
-0.1126657402175052
 10
-1.185479092878491
 20
-0.1126136755602939
 10
-1.18178390292564
 20
-0.111186740364371
 10
-1.179723072332531
 20
-0.1103732561724765
 10
-1.16848571924606
 20
-0.1057144677298648
 10
-1.157389599365383
 20
-0.1007424568789584
 10
-1.136906105560452
 20
-0.0905751859801395
 10
-1.116996872705609
 20
-0.0794172560828311
 10
-1.106077122968823
 20
-0.0727369463103397
 10
-1.095358032268673
 20
-0.0657730078356845
 10
-1.078013289255291
 20
-0.0535971200125797
 10
-1.061262476724774
 20
-0.0406787073271854
 10
-1.045154977125317
 20
-0.0270542776244266
  0
LWPOLYLINE
  5
225
330
2
100
AcDbEntity
  8
BLOCKS
  6
Continuous
100
AcDbPolyline
 90
       12
 70
   128
 43
0.0
 10
-1.015411126894146
 20
-0.0679406499522312
 10
-1.033509719652325
 20
-0.0771405672686679
 10
-1.052106070799023
 20
-0.0853271758216007
 10
-1.071111399215847
 20
-0.0924698090212925
 10
-1.091041881126553
 20
-0.0987151538985355
 10
-1.111307728571087
 20
-0.1038355505126102
 10
-1.131812650245816
 20
-0.1078080808776004
 10
-1.145113486332089
 20
-0.1097512817042453
 10
-1.158476072830349
 20
-0.111210492815314
 10
-1.171954947990567
 20
-0.1121858632224185
 10
-1.185460555833966
 20
-0.1126631772177798
 10
-1.18561588553825
 20
-0.1126657402175052
  0
LWPOLYLINE
  5
226
330
2
100
AcDbEntity
  8
BLOCKS
  6
Continuous
100
AcDbPolyline
 90
        9
 70
   128
 43
0.0
 10
-1.185677516740948
 20
-0.0771159505503757
 10
-1.184633004945904
 20
-0.0767668461459262
 10
-1.180462706369549
 20
-0.0753428911822421
 10
-1.163910764736325
 20
-0.0692148184435947
 10
-1.147599357647091
 20
-0.0624289786475284
 10
-1.131555247587353
 20
-0.0550217008250339
 10
-1.114786136430889
 20
-0.0464836632865055
 10
-1.093981492799908
 20
-0.0347098087924106
 10
-1.093859422487408
 20
-0.0346367036955936
  0
LWPOLYLINE
  5
227
330
2
100
AcDbEntity
  8
BLOCKS
  6
Continuous
100
AcDbPolyline
 90
       10
 70
   128
 43
0.0
 10
-1.256403285545498
 20
-0.1094827329772098
 10
-1.299894827884823
 20
-0.1140614723818881
 10
-1.338273304981381
 20
-0.1172659074919803
 10
-1.376708928031117
 20
-0.1196900581973178
 10
-1.41525023756662
 20
-0.1213310932772739
 10
-1.453817110044152
 20
-0.1221800720351321
 10
-1.49232939956823
 20
-0.1222334479945285
 10
-1.53083452372925
 20
-0.1214899694579227
 10
-1.569382372779042
 20
-0.1199431991236789
 10
-1.607889491600186
 20
-0.1175916766780002
  0
LWPOLYLINE
  5
228
330
2
100
AcDbEntity
  8
BLOCKS
  6
Continuous
100
AcDbPolyline
 90
       10
 70
   128
 43
0.0
 10
-1.606557409745843
 20
-0.0989830469744785
 10
-1.568502429408223
 20
-0.1013421988146884
 10
-1.530407296029121
 20
-0.1029201125758273
 10
-1.492224122864396
 20
-0.1037208711760623
 10
-1.454032886308819
 20
-0.103745905126868
 10
-1.41589777497688
 20
-0.1030015921252353
 10
-1.377785536927372
 20
-0.1014942800658328
 10
-1.339650559705883
 20
-0.0992255484717472
 10
-1.30156819848457
 20
-0.0962034141677005
 10
-1.258244204801709
 20
-0.0918476557391269
  0
LWPOLYLINE
  5
229
330
2
100
AcDbEntity
  8
BLOCKS
  6
Continuous
100
AcDbPolyline
 90
       11
 70
   128
 43
0.0
 10
-1.960699546617657
 20
-0.0163558101313693
 10
-1.979683685583264
 20
-0.0165375446932895
 10
-1.998651254457623
 20
-0.0157243287222965
 10
-2.017761427444607
 20
-0.0138916051047428
 10
-2.036747861189038
 20
-0.0110502516882999
 10
-2.056567538065106
 20
-0.0069705819743259
 10
-2.076144922060162
 20
-0.0017911469596011
 10
-2.095389771742016
 20
0.004462125335397
 10
-2.114801037592084
 20
0.0120055997712033
 10
-2.133767295164258
 20
0.0206480199438947
 10
-2.152197706979901
 20
0.0303448015791791
  0
LWPOLYLINE
  5
22A
330
2
100
AcDbEntity
  8
BLOCKS
  6
Continuous
100
AcDbPolyline
 90
       14
 70
   128
 43
0.0
 10
-1.716153908056408
 20
-0.0821246480601413
 10
-1.736685860437543
 20
-0.0699970996039493
 10
-1.757873702329785
 20
-0.059015748466788
 10
-1.779619890731961
 20
-0.0492309903758151
 10
-1.796752709430844
 20
-0.0425156032698734
 10
-1.814172792715222
 20
-0.0365331744807346
 10
-1.831832188648373
 20
-0.031299022402106
 10
-1.849682766479642
 20
-0.0268284952300174
 10
-1.867780673784405
 20
-0.0231139933722598
 10
-1.88602961925903
 20
-0.0201775109427555
 10
-1.90437923697868
 20
-0.0180271839755161
 10
-1.923119414133221
 20
-0.016651270355521
 10
-1.94191073207298
 20
-0.0160936092990024
 10
-1.960699546617657
 20
-0.0163558101313693
  0
LWPOLYLINE
  5
22B
330
2
100
AcDbEntity
  8
BLOCKS
  6
Continuous
100
AcDbPolyline
 90
       15
 70
   128
 43
0.0
 10
-1.961366939825207
 20
0.0022660518032925
 10
-1.94209383754173
 20
0.0025377893788235
 10
-1.922817874235303
 20
0.0019838238102811
 10
-1.903592157644421
 20
0.0006057346207516
 10
-1.884118128103406
 20
-0.0016408836501224
 10
-1.864751178306729
 20
-0.0047347223418338
 10
-1.845546442550809
 20
-0.0086669897692783
 10
-1.821784901899487
 20
-0.0147613858836276
 10
-1.798321652692944
 20
-0.0221661603110416
 10
-1.782413411420971
 20
-0.0280078327315433
 10
-1.766730907839924
 20
-0.0344467436926944
 10
-1.751307505649716
 20
-0.041469213928519
 10
-1.735963884276539
 20
-0.0491719817774875
 10
-1.720919925254971
 20
-0.0574577128546817
 10
-1.706208575052411
 20
-0.0663083469527347
  0
ARC
  5
22C
330
2
100
AcDbEntity
  8
BLOCKS
  6
Continuous
100
AcDbCircle
 10
-1.462518545955391
 20
1.826061889794064
 30
0.0
 40
2.023390859686937
100
AcDbArc
 50
262.1012361927166
 51
270.0
  0
LWPOLYLINE
  5
22D
330
2
100
AcDbEntity
  8
BLOCKS
  6
Continuous
100
AcDbPolyline
 90
        9
 70
   128
 43
0.0
 10
-1.607889491600186
 20
-0.1175916766780002
 10
-1.625593821984917
 20
-0.1156471049445255
 10
-1.643200795632989
 20
-0.1123424148219211
 10
-1.655819002074391
 20
-0.1090991174834354
 10
-1.66824756888786
 20
-0.1051580881732089
 10
-1.680429193658024
 20
-0.1005378341334445
 10
-1.692677188200146
 20
-0.0950831448691471
 10
-1.704604584259183
 20
-0.0889351045744998
 10
-1.716153908056408
 20
-0.0821246480601413
  0
LWPOLYLINE
  5
22E
330
2
100
AcDbEntity
  8
BLOCKS
  6
Continuous
100
AcDbPolyline
 90
        9
 70
   128
 43
0.0
 10
-1.706208575052411
 20
-0.0663083469527347
 10
-1.695888537449032
 20
-0.0724182104724033
 10
-1.685237753671795
 20
-0.0779514586585147
 10
-1.674304861110837
 20
-0.082881567444144
 10
-1.662782776636273
 20
-0.0873107587950809
 10
-1.65101643232742
 20
-0.0910764908450229
 10
-1.63906365959087
 20
-0.094159928526221
 10
-1.622950177175194
 20
-0.0971853410857303
 10
-1.606557409745843
 20
-0.0989830469744785
  0
LWPOLYLINE
  5
22F
330
2
100
AcDbEntity
  8
BLOCKS
  6
Continuous
100
AcDbPolyline
 90
       11
 70
   128
 43
0.0
 10
-2.143007922453076
 20
0.0466667437893765
 10
-2.126032042783887
 20
0.0376985544306653
 10
-2.108573842329175
 20
0.0296745920521634
 10
-2.090712178033978
 20
0.0226342702252286
 10
-2.071949649137646
 20
0.0164393061739819
 10
-2.052847790998608
 20
0.0113236332280057
 10
-2.033500063699872
 20
0.0073146248204129
 10
-2.014746475500256
 20
0.0045213723523038
 10
-1.995809126180798
 20
0.0027646148545163
 10
-1.978616106790692
 20
0.0020824992997067
 10
-1.961366939825207
 20
0.0022660518032925
  0
LWPOLYLINE
  5
230
330
2
100
AcDbEntity
  8
BLOCKS
  6
Continuous
100
AcDbPolyline
 90
        5
 70
   128
 43
0.0
 10
-1.035770851654202
 20
0.0061501586777585
 10
-1.028485316318661
 20
0.012714164887132
 10
-1.021528768819958
 20
0.0197659457070248
 10
-1.014891970438153
 20
0.0273749256474393
 10
-1.008698571008831
 20
0.0354557359558957
  0
ARC
  5
231
330
2
100
AcDbEntity
  8
BLOCKS
  6
Continuous
100
AcDbCircle
 10
-2.446339589782156
 20
0.6913105247834919
 30
0.0
 40
0.0150000000000001
100
AcDbArc
 50
90.07165372878786
 51
180.0716537287878
  0
LINE
  5
232
330
2
100
AcDbEntity
  8
BLOCKS
100
AcDbLine
 10
-2.461339578052275
 20
0.6912917658860378
 30
0.0
 11
-2.461339578052275
 21
0.3299783492428814
 31
0.0
  0
LWPOLYLINE
  5
233
330
2
100
AcDbEntity
  8
BLOCKS
  6
Continuous
100
AcDbPolyline
 90
       38
 70
   128
 43
0.0
 10
-1.740579342436036
 20
-0.1781319043599224
 10
-1.772821366806716
 20
-0.1733126020091159
 10
-1.810024037976951
 20
-0.1667318617957217
 10
-1.847035482545585
 20
-0.1591515218871219
 10
-1.883813455720634
 20
-0.1505698239462955
 10
-1.920621588845939
 20
-0.140896943773566
 10
-1.957138791700095
 20
-0.1301787173407657
 10
-1.992807760854453
 20
-0.118573454584418
 10
-2.028114542384833
 20
-0.1059099709647281
 10
-2.057838007827491
 20
-0.094282684292136
 10
-2.087252542396277
 20
-0.0818403935092075
 10
-2.11630319060871
 20
-0.0685615813391788
 10
-2.144934758563727
 20
-0.0544247901099307
 10
-2.173092290778846
 20
-0.0394085025446994
 10
-2.196546420474738
 20
-0.025975046123801
 10
-2.219624325652808
 20
-0.0118409371035678
 10
-2.24225740136692
 20
0.0030135834557431
 10
-2.264377161880225
 20
0.0186083489996808
 10
-2.285915121455878
 20
0.0349631929737943
 10
-2.306802734752387
 20
0.0520979041201489
 10
-2.322142407317847
 20
0.0656084442479031
 10
-2.337044939418525
 20
0.0796168172699826
 10
-2.351454064269752
 20
0.0941284174067395
 10
-2.365313336272925
 20
0.1091486537796872
 10
-2.378893300910682
 20
0.1250866377694028
 10
-2.391790255923957
 20
0.1416094774348157
 10
-2.403908655067176
 20
0.1587043577772992
 10
-2.415152892490119
 20
0.1763584339959042
 10
-2.423496887107581
 20
0.1909671226484196
 10
-2.431186541934699
 20
0.2059847513181584
 10
-2.438152834792823
 20
0.221368602101268
 10
-2.444326624294013
 20
0.2370759664071219
 10
-2.44963888825962
 20
0.253064133782448
 10
-2.454020664115638
 20
0.2692903895830231
 10
-2.457524642368049
 20
0.2863594094259159
 10
-2.459926113506049
 20
0.3036355325920002
 10
-2.461167976279944
 20
0.3210129575771706
 10
-2.461339578052253
 20
0.3299783492428677
  0
LWPOLYLINE
  5
234
330
2
100
AcDbEntity
  8
BLOCKS
  6
Continuous
100
AcDbPolyline
 90
       22
 70
   128
 43
0.0
 10
-2.069896209520489
 20
0.5845978582245725
 10
-2.098775911611706
 20
0.5768808150631802
 10
-2.127341497224957
 20
0.5680381083828824
 10
-2.155487287325055
 20
0.5579842055184262
 10
-2.176687467378766
 20
0.5494111800534146
 10
-2.197551954073102
 20
0.5400003815037625
 10
-2.217981267255932
 20
0.5296956622940915
 10
-2.237876165193707
 20
0.5184408450467008
 10
-2.252525854391247
 20
0.5092449659449475
 10
-2.266808378976971
 20
0.4993909621579068
 10
-2.280617225450665
 20
0.4888619655711072
 10
-2.29384593991676
 20
0.4776410484654324
 10
-2.306388068479687
 20
0.4657113129240888
 10
-2.318136978429944
 20
0.4530558610302823
 10
-2.327770102304608
 20
0.441243382726373
 10
-2.336636293214947
 20
0.4288006300074475
 10
-2.344611096662671
 20
0.415779965553941
 10
-2.351570236963421
 20
0.40223376694745
 10
-2.356767344755322
 20
0.3898983025891201
 10
-2.361063230318219
 20
0.3771815622193234
 10
-2.364401567262799
 20
0.3641841957313435
 10
-2.36672590999046
 20
0.3510068455678837
  0
LWPOLYLINE
  5
235
330
2
100
AcDbEntity
  8
BLOCKS
  6
Continuous
100
AcDbPolyline
 90
       23
 70
   128
 43
0.0
 10
-2.385308075231701
 20
0.3535323986751454
 10
-2.382742274088055
 20
0.3680925691468136
 10
-2.379059183878094
 20
0.382454732988538
 10
-2.374318290037304
 20
0.3965069675785916
 10
-2.368579256815106
 20
0.4101373279435056
 10
-2.361026275438458
 20
0.4248543107849973
 10
-2.352375376505047
 20
0.4390041256291287
 10
-2.342756259721905
 20
0.4525262141568082
 10
-2.332298326772839
 20
0.4653600031477826
 10
-2.319884944242627
 20
0.4787408882719891
 10
-2.306638765615613
 20
0.4913616502625363
 10
-2.292669463438183
 20
0.5032365197283643
 10
-2.278086769861371
 20
0.5143797719818967
 10
-2.263000357431561
 20
0.5248056376320737
 10
-2.247519898695141
 20
0.5345284068924802
 10
-2.227463054937512
 20
0.5458919728142636
 10
-2.206880796236188
 20
0.5563232028824704
 10
-2.185867655557782
 20
0.5658732974869626
 10
-2.164518225473553
 20
0.5745933080059903
 10
-2.142350900453717
 20
0.5827301466805356
 10
-2.119908380788952
 20
0.5901142084938901
 10
-2.097240376753003
 20
0.5967846238953488
 10
-2.074396419805676
 20
0.6027804637295621
  0
LWPOLYLINE
  5
236
330
2
100
AcDbEntity
  8
BLOCKS
  6
Continuous
100
AcDbPolyline
 90
       23
 70
   128
 43
0.0
 10
-2.36672590999046
 20
0.3510068455678837
 10
-2.368093955797345
 20
0.3360221484643834
 10
-2.36817227630058
 20
0.3209463940901177
 10
-2.366991269869
 20
0.3059426607531922
 10
-2.364818024915845
 20
0.2922753808987753
 10
-2.361663151067883
 20
0.2787501538140194
 10
-2.357605386060864
 20
0.2654275818230079
 10
-2.352723288816601
 20
0.2523682607305663
 10
-2.347095656675488
 20
0.2396327896011488
 10
-2.340801048559338
 20
0.2272817665678875
 10
-2.332283425611645
 20
0.2126791650397198
 10
-2.322936761659772
 20
0.1985561275822537
 10
-2.312857735437543
 20
0.1849205890638249
 10
-2.302143204492718
 20
0.1717804843527692
 10
-2.29088978795448
 20
0.1591437632185834
 10
-2.276966321748883
 20
0.1448109770161526
 10
-2.262429344934613
 20
0.1310856664521115
 10
-2.247366059106976
 20
0.1179506802899258
 10
-2.227648186964184
 20
0.1021191501957791
 10
-2.207266199869305
 20
0.0871097618681806
 10
-2.18630735902229
 20
0.0728877508980649
 10
-2.164858866018445
 20
0.0594183230740445
 10
-2.143007922453076
 20
0.0466667437893765
  0
LWPOLYLINE
  5
237
330
2
100
AcDbEntity
  8
BLOCKS
  6
Continuous
100
AcDbPolyline
 90
       24
 70
   128
 43
0.0
 10
-2.152197706979901
 20
0.0303448015791791
 10
-2.17274819640556
 20
0.0423014784199612
 10
-2.19294421700874
 20
0.0548696840149777
 10
-2.21272622374931
 20
0.0680743331057446
 10
-2.232034611982495
 20
0.0819403702361005
 10
-2.25122754601875
 20
0.0968344384772199
 10
-2.269809413236767
 20
0.1125212782961743
 10
-2.287654745859295
 20
0.1290284568411725
 10
-2.304637837690503
 20
0.1463836008650677
 10
-2.316512036604077
 20
0.1597219282729047
 10
-2.327812361997754
 20
0.1735954308850186
 10
-2.33844004897514
 20
0.1879932979089635
 10
-2.348296153825909
 20
0.2029046999258416
 10
-2.357281852049023
 20
0.2183188075167553
 10
-2.364105093759686
 20
0.2317220853609459
 10
-2.370195257944256
 20
0.2455456281048672
 10
-2.375471699518353
 20
0.2597221176573502
 10
-2.379853654188305
 20
0.2741842368585484
 10
-2.383260417265088
 20
0.2888646671516316
 10
-2.385611164850384
 20
0.3036960946363823
 10
-2.386717903894574
 20
0.3161260770601647
 10
-2.387044835371167
 20
0.328626143370332
 10
-2.386579144281537
 20
0.3411202603918927
 10
-2.385308075231701
 20
0.3535323986751454
  0
LINE
  5
238
330
2
100
AcDbEntity
  8
BLOCKS
100
AcDbLine
 10
-0.87633921633119
 20
-0.1973115669879322
 30
0.0
 11
-1.462518545955391
 21
-0.1973289698929053
 31
0.0
  0
LINE
  5
239
330
2
100
AcDbEntity
  8
BLOCKS
100
AcDbLine
 10
-0.8763570669118516
 20
0.7063105130536114
 30
0.0
 11
-2.446358348680065
 21
0.7063105130536114
 31
0.0
  0
LWPOLYLINE
  5
23A
330
2
100
AcDbEntity
  8
BLOCKS
  6
Continuous
100
AcDbPolyline
 90
       12
 70
   128
 43
0.0
 10
-0.8951287153188294
 20
0.0697781318766492
 10
-0.8962514880124635
 20
0.0667385334116834
 10
-0.9029037239972657
 20
0.0509047085387128
 10
-0.9106755140248841
 20
0.0355633521420377
 10
-0.9194642785016602
 20
0.0208031112296002
 10
-0.9276872160855836
 20
0.0087343478543179
 10
-0.936568248552472
 20
-0.0028727626460178
 10
-0.9460638049069947
 20
-0.0139684056895358
 10
-0.9564617755834168
 20
-0.0248275673049076
 10
-0.9674846413556641
 20
-0.0350695526259525
 10
-0.9791000965062684
 20
-0.0446108853476627
 10
-0.9878155472699708
 20
-0.0509974336283786
  0
LWPOLYLINE
  5
23B
330
2
100
AcDbEntity
  8
BLOCKS
  6
Continuous
100
AcDbPolyline
 90
        7
 70
   128
 43
0.0
 10
-0.9252717932524737
 20
0.2097311088549967
 10
-0.9423534157697266
 20
0.2372850520504134
 10
-0.9533190610829896
 20
0.2553087878940122
 10
-0.958708095831067
 20
0.264509345494719
 10
-0.9639299395505494
 20
0.2737784046647565
 10
-0.9689646842900819
 20
0.2831739844722168
 10
-0.9737412217084473
 20
0.2926603486729281
  0
LWPOLYLINE
  5
23C
330
2
100
AcDbEntity
  8
BLOCKS
  6
Continuous
100
AcDbPolyline
 90
        9
 70
   128
 43
0.0
 10
-0.9273366215650147
 20
0.2201349163395779
 10
-0.9313930156652039
 20
0.2350507551772015
 10
-0.9360601785604066
 20
0.2498488767040389
 10
-0.9413095000211304
 20
0.2644787534107881
 10
-0.9472702625218934
 20
0.2792725941134112
 10
-0.9537876131955689
 20
0.293841621462764
 10
-0.9608168485585755
 20
0.3081311197919266
 10
-0.969199228567273
 20
0.3236737238211052
 10
-0.9781457665387696
 20
0.3388573402506726
  0
LWPOLYLINE
  5
23D
330
2
100
AcDbEntity
  8
BLOCKS
  6
Continuous
100
AcDbPolyline
 90
        9
 70
   128
 43
0.0
 10
-1.024473536295086
 20
-0.0088665461199863
 10
-1.013162303251416
 20
0.0021222257954495
 10
-1.002167988104016
 20
0.0135511482102292
 10
-0.9915534737531251
 20
0.0253909999472516
 10
-0.9810991170827454
 20
0.0379579389435666
 10
-0.9711248162213868
 20
0.0509309941870587
 10
-0.9616912486974305
 20
0.0642644936186688
 10
-0.9526227596227235
 20
0.0782842809302228
 10
-0.944172430318982
 20
0.0926765376669782
  0
LWPOLYLINE
  5
23E
330
2
100
AcDbEntity
  8
BLOCKS
  6
Continuous
100
AcDbPolyline
 90
        9
 70
   128
 43
0.0
 10
-1.008698571008831
 20
0.0354557359558957
 10
-1.00172244338432
 20
0.0431523943287747
 10
-0.9945306661550111
 20
0.0506989980084317
 10
-0.9871240737859315
 20
0.0581521416050809
 10
-0.9795759799901551
 20
0.0654960745913403
 10
-0.97182320384422
 20
0.0728482628209012
 10
-0.9640030744496888
 20
0.0801364803654569
 10
-0.9561216118756837
 20
0.0874166959864514
 10
-0.9388456569141689
 20
0.1033713306834606
  0
LWPOLYLINE
  5
23F
330
2
100
AcDbEntity
  8
BLOCKS
  6
Continuous
100
AcDbPolyline
 90
       12
 70
   128
 43
0.0
 10
-1.10498331813255
 20
0.4806013429505246
 10
-1.104834187311322
 20
0.4805574143273251
 10
-1.085413980764538
 20
0.4742379957777875
 10
-1.066361028236538
 20
0.4668402397972958
 10
-1.047759133857876
 20
0.4584092671019452
 10
-1.029133814853817
 20
0.4486810291153806
 10
-1.01107268361488
 20
0.4379088008744138
 10
-0.9936645510617799
 20
0.4261407876355069
 10
-0.9830424073163575
 20
0.4182163799149411
 10
-0.9727128031674928
 20
0.4099143022639172
 10
-0.9626383068982667
 20
0.4011969888550656
 10
-0.9528896692220277
 20
0.3921167874676602
  0
ENDSEC
  0
SECTION
  2
OBJECTS
  0
DICTIONARY
  5
7
330
0
100
AcDbDictionary
281
     1
  3
ACAD_COLOR
350
58
  3
ACAD_GROUP
350
1F
  3
ACAD_LAYOUT
350
B
  3
ACAD_MATERIAL
350
57
  3
ACAD_MLEADERSTYLE
350
2A2
  3
ACAD_MLINESTYLE
350
20
  3
ACAD_PLOTSETTINGS
350
21
  3
ACAD_PLOTSTYLENAME
350
6
  3
ACAD_SCALELIST
350
280
  3
ACAD_TABLESTYLE
350
59
  3
ACAD_VISUALSTYLE
350
26C
  3
ACDB_RECOMPOSE_DATA
350
2B1
  3
AcDbVariableDictionary
350
53
  3
ASE_INDEX_DICTIONARY
350
241
  3
DWGPROPS
350
2B2
  0
DICTIONARY
  5
2A6
330
4
100
AcDbDictionary
280
     1
281
     1
  3
ADSK_XREC_LAYER_RECONCILED
360
2A7
  0
DICTIONARY
  5
2A8
330
22
100
AcDbDictionary
280
     1
281
     1
  3
ADSK_XREC_LAYER_RECONCILED
360
2A9
  0
DICTIONARY
  5
58
102
{ACAD_REACTORS
330
7
102
}
330
7
100
AcDbDictionary
281
     1
  0
DICTIONARY
  5
1F
102
{ACAD_REACTORS
330
7
102
}
330
7
100
AcDbDictionary
281
     1
  0
DICTIONARY
  5
B
102
{ACAD_REACTORS
330
7
102
}
330
7
100
AcDbDictionary
281
     1
  3
Layout1
350
F
  3
Model
350
A
  0
DICTIONARY
  5
57
102
{ACAD_REACTORS
330
7
102
}
330
7
100
AcDbDictionary
281
     1
  3
ByBlock
350
25C
  3
ByLayer
350
254
  3
Global
350
264
  0
DICTIONARY
  5
2A2
102
{ACAD_REACTORS
330
7
102
}
330
7
100
AcDbDictionary
281
     1
  3
Standard
350
2A3
  0
DICTIONARY
  5
20
102
{ACAD_REACTORS
330
7
102
}
330
7
100
AcDbDictionary
281
     1
  3
STANDARD
350
23
  0
DICTIONARY
  5
21
102
{ACAD_REACTORS
330
7
102
}
330
7
100
AcDbDictionary
281
     1
  0
ACDBDICTIONARYWDFLT
  5
6
102
{ACAD_REACTORS
330
7
102
}
330
7
100
AcDbDictionary
281
     1
  3
Normal
350
5
100
AcDbDictionaryWithDefault
340
5
  0
DICTIONARY
  5
280
102
{ACAD_REACTORS
330
7
102
}
330
7
100
AcDbDictionary
281
     1
  3
A0
350
281
  3
A1
350
282
  3
A2
350
283
  3
A3
350
284
  3
A4
350
285
  3
A5
350
286
  3
A6
350
287
  3
A7
350
288
  3
A8
350
289
  3
A9
350
28A
  3
B0
350
28B
  3
B1
350
28C
  3
B2
350
28D
  3
B3
350
28E
  3
B4
350
28F
  3
B5
350
290
  3
B6
350
291
  3
B7
350
292
  3
B8
350
293
  3
B9
350
294
  3
C0
350
295
  3
C1
350
296
  3
C2
350
297
  3
C3
350
298
  3
C4
350
299
  3
C5
350
29A
  3
C6
350
29B
  3
C7
350
29C
  3
C8
350
29D
  3
C9
350
29E
  3
D0
350
29F
  3
D1
350
2A0
  3
D2
350
2A1
  0
DICTIONARY
  5
59
102
{ACAD_REACTORS
330
7
102
}
330
7
100
AcDbDictionary
281
     1
  3
Standard
350
5A
  0
DICTIONARY
  5
26C
102
{ACAD_REACTORS
330
7
102
}
330
7
100
AcDbDictionary
281
     1
  3
2dWireframe
350
272
  3
3D Hidden
350
274
  3
3dWireframe
350
273
  3
Basic
350
271
  3
Brighten
350
278
  3
ColorChange
350
27C
  3
Conceptual
350
275
  3
Dim
350
277
  3
EdgeColorOff
350
27F
  3
Facepattern
350
27B
  3
Flat
350
26D
  3
FlatWithEdges
350
26E
  3
Gouraud
350
26F
  3
GouraudWithEdges
350
270
  3
JitterOff
350
27D
  3
Linepattern
350
27A
  3
OverhangOff
350
27E
  3
Realistic
350
276
  3
Thicken
350
279
  0
XRECORD
  5
2B1
102
{ACAD_REACTORS
330
7
102
}
330
7
100
AcDbXrecord
280
     1
 90
        1
330
5A
  0
DICTIONARY
  5
53
102
{ACAD_REACTORS
330
7
102
}
330
7
100
AcDbDictionary
281
     1
  3
CANNOSCALE
350
2AB
  3
CMLEADERSTYLE
350
2AA
  3
CTABLESTYLE
350
251
  3
DIMASSOC
350
55
  3
HIDETEXT
350
54
  3
INDEXCTL
350
2AD
  3
PROJECTNAME
350
252
  3
SORTENTS
350
2AC
  3
XCLIPFRAME
350
2AE
  0
DICTIONARY
  5
241
102
{ACAD_REACTORS
330
7
102
}
330
7
100
AcDbDictionary
281
     1
  3
ASEBlockHierarchyIndexRecord
350
242
1001
DCO15
1040
1570942357.406
  0
XRECORD
  5
2B2
102
{ACAD_REACTORS
330
7
102
}
330
7
100
AcDbXrecord
280
     1
  1
DWGPROPS COOKIE
  2

  3

  4

  6

  7

  8
Julio
  9

300
=
301
=
302
=
303
=
304
=
305
=
306
=
307
=
308
=
309
=
 40
0.1064926041666667
 41
2444972.041666667
 42
2456150.430593889
  1

 90
        0
  0
XRECORD
  5
2A7
102
{ACAD_REACTORS
330
2A6
102
}
330
2A6
100
AcDbXrecord
280
     1
290
     1
  0
XRECORD
  5
2A9
102
{ACAD_REACTORS
330
2A8
102
}
330
2A8
100
AcDbXrecord
280
     1
290
     1
  0
LAYOUT
  5
F
102
{ACAD_XDICTIONARY
360
2B5
102
}
102
{ACAD_REACTORS
330
B
102
}
330
B
100
AcDbPlotSettings
  1

  2
PLOTER 500
  4

  6

 40
0.0
 41
0.0
 42
0.0
 43
0.0
 44
0.0
 45
0.0
 46
0.0
 47
0.0
 48
0.0
 49
0.0
140
0.0
141
0.0
142
1.0
143
1.0
 70
   688
 72
     0
 73
     0
 74
     5
  7

 75
    16
147
1.0
148
0.0
149
0.0
100
AcDbLayout
  1
Layout1
 70
     1
 71
     1
 10
0.0
 20
0.0
 11
12.0
 21
9.0
 12
0.0
 22
0.0
 32
0.0
 14
1.000000000000000E+20
 24
1.000000000000000E+20
 34
1.000000000000000E+20
 15
-1.000000000000000E+20
 25
-1.000000000000000E+20
 35
-1.000000000000000E+20
146
0.0
 13
0.0
 23
0.0
 33
0.0
 16
1.0
 26
0.0
 36
0.0
 17
0.0
 27
1.0
 37
0.0
 76
     0
330
C
  0
LAYOUT
  5
A
102
{ACAD_XDICTIONARY
360
2B3
102
}
102
{ACAD_REACTORS
330
B
102
}
330
B
100
AcDbPlotSettings
  1

  2
BANHEIRAS_MARCIA.pc3
  4
A4
  6

 40
6.805083274841308
 41
5.069413185119628
 42
6.805084228515625
 43
5.027069091796875
 44
209.9733276367187
 45
296.9683227539062
 46
0.0000000000000026
 47
4.579114144189048
 48
0.0
 49
0.0
140
0.0
141
0.0
142
1.0
143
1.069577589835715
 70
 11956
 72
     1
 73
     0
 74
     1
  7
Monochrome.ctb
 75
     0
147
0.9349485343588746
148
0.0128167960643317
149
0.0181266115767211
100
AcDbLayout
  1
Model
 70
     1
 71
     0
 10
0.0
 20
0.0
 11
12.0
 21
9.0
 12
0.0
 22
0.0
 32
0.0
 14
0.0
 24
0.0
 34
0.0
 15
0.0
 25
0.0
 35
0.0
146
0.0
 13
0.0
 23
0.0
 33
0.0
 16
1.0
 26
0.0
 36
0.0
 17
0.0
 27
1.0
 37
0.0
 76
     0
330
2
331
24B
  0
MATERIAL
  5
25C
102
{ACAD_XDICTIONARY
360
25D
102
}
102
{ACAD_REACTORS
330
57
102
}
330
57
100
AcDbMaterial
  1
ByBlock
 72
     0
 43
0.820209973753281
 43
0.0
 43
0.0
 43
0.0
 43
0.0
 43
0.820209973753281
 43
0.0
 43
0.0
 43
0.0
 43
0.0
 43
1.0
 43
0.0
 43
0.0
 43
0.0
 43
0.0
 43
1.0
 77
     0
 47
0.820209973753281
 47
0.0
 47
0.0
 47
0.0
 47
0.0
 47
0.820209973753281
 47
0.0
 47
0.0
 47
0.0
 47
0.0
 47
1.0
 47
0.0
 47
0.0
 47
0.0
 47
0.0
 47
1.0
171
     0
 49
0.820209973753281
 49
0.0
 49
0.0
 49
0.0
 49
0.0
 49
0.820209973753281
 49
0.0
 49
0.0
 49
0.0
 49
0.0
 49
1.0
 49
0.0
 49
0.0
 49
0.0
 49
0.0
 49
1.0
175
     0
142
0.820209973753281
142
0.0
142
0.0
142
0.0
142
0.0
142
0.820209973753281
142
0.0
142
0.0
142
0.0
142
0.0
142
1.0
142
0.0
142
0.0
142
0.0
142
0.0
142
1.0
179
     0
144
0.820209973753281
144
0.0
144
0.0
144
0.0
144
0.0
144
0.820209973753281
144
0.0
144
0.0
144
0.0
144
0.0
144
1.0
144
0.0
144
0.0
144
0.0
144
0.0
144
1.0
147
0.820209973753281
147
0.0
147
0.0
147
0.0
147
0.0
147
0.820209973753281
147
0.0
147
0.0
147
0.0
147
0.0
147
1.0
147
0.0
147
0.0
147
0.0
147
0.0
147
1.0
  0
MATERIAL
  5
254
102
{ACAD_XDICTIONARY
360
255
102
}
102
{ACAD_REACTORS
330
57
102
}
330
57
100
AcDbMaterial
  1
ByLayer
 72
     0
 43
0.820209973753281
 43
0.0
 43
0.0
 43
0.0
 43
0.0
 43
0.820209973753281
 43
0.0
 43
0.0
 43
0.0
 43
0.0
 43
1.0
 43
0.0
 43
0.0
 43
0.0
 43
0.0
 43
1.0
 77
     0
 47
0.820209973753281
 47
0.0
 47
0.0
 47
0.0
 47
0.0
 47
0.820209973753281
 47
0.0
 47
0.0
 47
0.0
 47
0.0
 47
1.0
 47
0.0
 47
0.0
 47
0.0
 47
0.0
 47
1.0
171
     0
 49
0.820209973753281
 49
0.0
 49
0.0
 49
0.0
 49
0.0
 49
0.820209973753281
 49
0.0
 49
0.0
 49
0.0
 49
0.0
 49
1.0
 49
0.0
 49
0.0
 49
0.0
 49
0.0
 49
1.0
175
     0
142
0.820209973753281
142
0.0
142
0.0
142
0.0
142
0.0
142
0.820209973753281
142
0.0
142
0.0
142
0.0
142
0.0
142
1.0
142
0.0
142
0.0
142
0.0
142
0.0
142
1.0
179
     0
144
0.820209973753281
144
0.0
144
0.0
144
0.0
144
0.0
144
0.820209973753281
144
0.0
144
0.0
144
0.0
144
0.0
144
1.0
144
0.0
144
0.0
144
0.0
144
0.0
144
1.0
147
0.820209973753281
147
0.0
147
0.0
147
0.0
147
0.0
147
0.820209973753281
147
0.0
147
0.0
147
0.0
147
0.0
147
1.0
147
0.0
147
0.0
147
0.0
147
0.0
147
1.0
  0
MATERIAL
  5
264
102
{ACAD_XDICTIONARY
360
265
102
}
102
{ACAD_REACTORS
330
57
102
}
330
57
100
AcDbMaterial
  1
Global
 72
     0
 43
0.820209973753281
 43
0.0
 43
0.0
 43
0.0
 43
0.0
 43
0.820209973753281
 43
0.0
 43
0.0
 43
0.0
 43
0.0
 43
1.0
 43
0.0
 43
0.0
 43
0.0
 43
0.0
 43
1.0
 77
     0
 47
0.820209973753281
 47
0.0
 47
0.0
 47
0.0
 47
0.0
 47
0.820209973753281
 47
0.0
 47
0.0
 47
0.0
 47
0.0
 47
1.0
 47
0.0
 47
0.0
 47
0.0
 47
0.0
 47
1.0
171
     0
 49
0.820209973753281
 49
0.0
 49
0.0
 49
0.0
 49
0.0
 49
0.820209973753281
 49
0.0
 49
0.0
 49
0.0
 49
0.0
 49
1.0
 49
0.0
 49
0.0
 49
0.0
 49
0.0
 49
1.0
175
     0
142
0.820209973753281
142
0.0
142
0.0
142
0.0
142
0.0
142
0.820209973753281
142
0.0
142
0.0
142
0.0
142
0.0
142
1.0
142
0.0
142
0.0
142
0.0
142
0.0
142
1.0
179
     0
144
0.820209973753281
144
0.0
144
0.0
144
0.0
144
0.0
144
0.820209973753281
144
0.0
144
0.0
144
0.0
144
0.0
144
1.0
144
0.0
144
0.0
144
0.0
144
0.0
144
1.0
147
0.820209973753281
147
0.0
147
0.0
147
0.0
147
0.0
147
0.820209973753281
147
0.0
147
0.0
147
0.0
147
0.0
147
1.0
147
0.0
147
0.0
147
0.0
147
0.0
147
1.0
  0
MLEADERSTYLE
  5
2A3
102
{ACAD_REACTORS
330
2A2
102
}
330
2A2
100
AcDbMLeaderStyle
170
     2
171
     1
172
     0
 90
        2
 40
0.0
 41
0.0
173
     1
 91
-1056964608
340
15
 92
       -2
290
     1
 42
0.09
291
     1
 43
0.36
  3
Standard
 44
0.18
300

342
12
174
     1
178
     6
175
     1
176
     0
 93
-1056964608
 45
0.18
292
     0
297
     0
 46
0.18
 94
-1056964608
 47
1.0
 49
1.0
140
1.0
293
     1
141
0.0
294
     1
177
     0
142
1.0
295
     0
296
     0
143
0.125
1001
ACAD_MLEADERVER
1070
     2
  0
MLINESTYLE
  5
23
102
{ACAD_REACTORS
330
20
102
}
330
20
100
AcDbMlineStyle
  2
STANDARD
 70
     0
  3

 62
     0
 51
90.0
 52
90.0
 71
     2
 49
0.5
 62
   256
  6
BYLAYER
 49
-0.5
 62
   256
  6
BYLAYER
  0
ACDBPLACEHOLDER
  5
5
102
{ACAD_REACTORS
330
6
102
}
330
6
  0
SCALE
  5
281
102
{ACAD_REACTORS
330
280
102
}
330
280
100
AcDbScale
 70
     0
300
1:1
140
1.0
141
1.0
290
     1
  0
SCALE
  5
282
102
{ACAD_REACTORS
330
280
102
}
330
280
100
AcDbScale
 70
     0
300
1:2
140
1.0
141
2.0
290
     0
  0
SCALE
  5
283
102
{ACAD_REACTORS
330
280
102
}
330
280
100
AcDbScale
 70
     0
300
1:4
140
1.0
141
4.0
290
     0
  0
SCALE
  5
284
102
{ACAD_REACTORS
330
280
102
}
330
280
100
AcDbScale
 70
     0
300
1:5
140
1.0
141
5.0
290
     0
  0
SCALE
  5
285
102
{ACAD_REACTORS
330
280
102
}
330
280
100
AcDbScale
 70
     0
300
1:8
140
1.0
141
8.0
290
     0
  0
SCALE
  5
286
102
{ACAD_REACTORS
330
280
102
}
330
280
100
AcDbScale
 70
     0
300
1:10
140
1.0
141
10.0
290
     0
  0
SCALE
  5
287
102
{ACAD_REACTORS
330
280
102
}
330
280
100
AcDbScale
 70
     0
300
1:16
140
1.0
141
16.0
290
     0
  0
SCALE
  5
288
102
{ACAD_REACTORS
330
280
102
}
330
280
100
AcDbScale
 70
     0
300
1:20
140
1.0
141
20.0
290
     0
  0
SCALE
  5
289
102
{ACAD_REACTORS
330
280
102
}
330
280
100
AcDbScale
 70
     0
300
1:30
140
1.0
141
30.0
290
     0
  0
SCALE
  5
28A
102
{ACAD_REACTORS
330
280
102
}
330
280
100
AcDbScale
 70
     0
300
1:40
140
1.0
141
40.0
290
     0
  0
SCALE
  5
28B
102
{ACAD_REACTORS
330
280
102
}
330
280
100
AcDbScale
 70
     0
300
1:50
140
1.0
141
50.0
290
     0
  0
SCALE
  5
28C
102
{ACAD_REACTORS
330
280
102
}
330
280
100
AcDbScale
 70
     0
300
1:100
140
1.0
141
100.0
290
     0
  0
SCALE
  5
28D
102
{ACAD_REACTORS
330
280
102
}
330
280
100
AcDbScale
 70
     0
300
2:1
140
2.0
141
1.0
290
     0
  0
SCALE
  5
28E
102
{ACAD_REACTORS
330
280
102
}
330
280
100
AcDbScale
 70
     0
300
4:1
140
4.0
141
1.0
290
     0
  0
SCALE
  5
28F
102
{ACAD_REACTORS
330
280
102
}
330
280
100
AcDbScale
 70
     0
300
8:1
140
8.0
141
1.0
290
     0
  0
SCALE
  5
290
102
{ACAD_REACTORS
330
280
102
}
330
280
100
AcDbScale
 70
     0
300
10:1
140
10.0
141
1.0
290
     0
  0
SCALE
  5
291
102
{ACAD_REACTORS
330
280
102
}
330
280
100
AcDbScale
 70
     0
300
100:1
140
100.0
141
1.0
290
     0
  0
SCALE
  5
292
102
{ACAD_REACTORS
330
280
102
}
330
280
100
AcDbScale
 70
     0
300
1/128" = 1'-0"
140
0.0078125
141
12.0
290
     0
  0
SCALE
  5
293
102
{ACAD_REACTORS
330
280
102
}
330
280
100
AcDbScale
 70
     0
300
1/64" = 1'-0"
140
0.015625
141
12.0
290
     0
  0
SCALE
  5
294
102
{ACAD_REACTORS
330
280
102
}
330
280
100
AcDbScale
 70
     0
300
1/32" = 1'-0"
140
0.03125
141
12.0
290
     0
  0
SCALE
  5
295
102
{ACAD_REACTORS
330
280
102
}
330
280
100
AcDbScale
 70
     0
300
1/16" = 1'-0"
140
0.0625
141
12.0
290
     0
  0
SCALE
  5
296
102
{ACAD_REACTORS
330
280
102
}
330
280
100
AcDbScale
 70
     0
300
3/32" = 1'-0"
140
0.09375
141
12.0
290
     0
  0
SCALE
  5
297
102
{ACAD_REACTORS
330
280
102
}
330
280
100
AcDbScale
 70
     0
300
1/8" = 1'-0"
140
0.125
141
12.0
290
     0
  0
SCALE
  5
298
102
{ACAD_REACTORS
330
280
102
}
330
280
100
AcDbScale
 70
     0
300
3/16" = 1'-0"
140
0.1875
141
12.0
290
     0
  0
SCALE
  5
299
102
{ACAD_REACTORS
330
280
102
}
330
280
100
AcDbScale
 70
     0
300
1/4" = 1'-0"
140
0.25
141
12.0
290
     0
  0
SCALE
  5
29A
102
{ACAD_REACTORS
330
280
102
}
330
280
100
AcDbScale
 70
     0
300
3/8" = 1'-0"
140
0.375
141
12.0
290
     0
  0
SCALE
  5
29B
102
{ACAD_REACTORS
330
280
102
}
330
280
100
AcDbScale
 70
     0
300
1/2" = 1'-0"
140
0.5
141
12.0
290
     0
  0
SCALE
  5
29C
102
{ACAD_REACTORS
330
280
102
}
330
280
100
AcDbScale
 70
     0
300
3/4" = 1'-0"
140
0.75
141
12.0
290
     0
  0
SCALE
  5
29D
102
{ACAD_REACTORS
330
280
102
}
330
280
100
AcDbScale
 70
     0
300
1" = 1'-0"
140
1.0
141
12.0
290
     0
  0
SCALE
  5
29E
102
{ACAD_REACTORS
330
280
102
}
330
280
100
AcDbScale
 70
     0
300
1-1/2" = 1'-0"
140
1.5
141
12.0
290
     0
  0
SCALE
  5
29F
102
{ACAD_REACTORS
330
280
102
}
330
280
100
AcDbScale
 70
     0
300
3" = 1'-0"
140
3.0
141
12.0
290
     0
  0
SCALE
  5
2A0
102
{ACAD_REACTORS
330
280
102
}
330
280
100
AcDbScale
 70
     0
300
6" = 1'-0"
140
6.0
141
12.0
290
     0
  0
SCALE
  5
2A1
102
{ACAD_REACTORS
330
280
102
}
330
280
100
AcDbScale
 70
     0
300
1'-0" = 1'-0"
140
12.0
141
12.0
290
     0
  0
TABLESTYLE
  5
5A
102
{ACAD_XDICTIONARY
360
2AF
102
}
102
{ACAD_REACTORS
330
59
102
}
330
59
100
AcDbTableStyle
  3
Standard
 70
     0
 71
     0
 40
0.06
 41
0.06
280
     0
281
     0
  7
STANDARD
140
0.18
170
     2
 62
     0
 63
     7
283
     0
274
    -2
284
     1
 64
     0
275
    -2
285
     1
 65
     0
276
    -2
286
     1
 66
     0
277
    -2
287
     1
 67
     0
278
    -2
288
     1
 68
     0
279
    -2
289
     1
 69
     0
  7
STANDARD
140
0.25
170
     5
 62
     0
 63
     7
283
     0
274
    -2
284
     1
 64
     0
275
    -2
285
     1
 65
     0
276
    -2
286
     1
 66
     0
277
    -2
287
     1
 67
     0
278
    -2
288
     1
 68
     0
279
    -2
289
     1
 69
     0
  7
STANDARD
140
0.18
170
     5
 62
     0
 63
     7
283
     0
274
    -2
284
     1
 64
     0
275
    -2
285
     1
 65
     0
276
    -2
286
     1
 66
     0
277
    -2
287
     1
 67
     0
278
    -2
288
     1
 68
     0
279
    -2
289
     1
 69
     0
  0
VISUALSTYLE
  5
272
102
{ACAD_XDICTIONARY
360
2C5
102
}
102
{ACAD_REACTORS
330
26C
102
}
330
26C
100
AcDbVisualStyle
  2
2dWireframe
 70
     4
 71
     0
 72
     2
 73
     0
 90
        0
 40
-0.6
 41
-30.0
 62
     5
 63
     7
 74
     1
 91
        4
 64
     7
 65
   257
 75
     1
175
     1
 42
1.0
 92
        0
 66
   257
 43
1.0
 76
     1
 77
     6
 78
     2
 67
     7
 79
     5
170
     0
171
     0
290
     0
174
     0
 93
        1
 44
0.0
173
     0
291
     0
 45
0.0
1001
ACAD
1000
AcDbSavedByObjectVersion
1070
     0
  0
VISUALSTYLE
  5
274
102
{ACAD_XDICTIONARY
360
2C9
102
}
102
{ACAD_REACTORS
330
26C
102
}
330
26C
100
AcDbVisualStyle
  2
3D Hidden
 70
     6
 71
     1
 72
     2
 73
     2
 90
        0
 40
-0.6
 41
-30.0
 62
     5
 63
     7
 74
     2
 91
        2
 64
     7
 65
   257
 75
     2
175
     1
 42
179.0
 92
        0
 66
   257
 43
1.0
 76
     1
 77
     6
 78
     2
 67
     7
 79
     3
170
     0
171
     0
290
     0
174
     0
 93
        1
 44
0.0
173
     0
291
     0
 45
0.0
1001
ACAD
1000
AcDbSavedByObjectVersion
1070
     0
  0
VISUALSTYLE
  5
273
102
{ACAD_XDICTIONARY
360
2C7
102
}
102
{ACAD_REACTORS
330
26C
102
}
330
26C
100
AcDbVisualStyle
  2
3dWireframe
 70
     5
 71
     0
 72
     2
 73
     0
 90
        0
 40
-0.6
 41
-30.0
 62
     5
 63
     7
 74
     1
 91
        4
 64
     7
 65
   257
 75
     1
175
     1
 42
1.0
 92
        0
 66
   257
 43
1.0
 76
     1
 77
     6
 78
     2
 67
     7
 79
     5
170
     0
171
     0
290
     0
174
     0
 93
        1
 44
0.0
173
     0
291
     0
 45
0.0
1001
ACAD
1000
AcDbSavedByObjectVersion
1070
     0
  0
VISUALSTYLE
  5
271
102
{ACAD_XDICTIONARY
360
2C3
102
}
102
{ACAD_REACTORS
330
26C
102
}
330
26C
100
AcDbVisualStyle
  2
Basic
 70
     7
 71
     1
 72
     0
 73
     1
 90
        0
 40
-0.6
 41
-30.0
 62
     5
 63
     7
 74
     0
 91
        4
 64
     7
 65
   257
 75
     1
175
     1
 42
1.0
 92
        8
 66
     7
 43
1.0
 76
     1
 77
     6
 78
     2
 67
     7
 79
     5
170
     0
171
     0
290
     0
174
     0
 93
        1
 44
0.0
173
     0
291
     1
 45
0.0
1001
ACAD
1000
AcDbSavedByObjectVersion
1070
     0
  0
VISUALSTYLE
  5
278
102
{ACAD_XDICTIONARY
360
2D1
102
}
102
{ACAD_REACTORS
330
26C
102
}
330
26C
100
AcDbVisualStyle
  2
Brighten
 70
    12
 71
     2
 72
     2
 73
     0
 90
        0
 40
-0.6
 41
-30.0
 62
     5
 63
     7
 74
     1
 91
        4
 64
     7
 65
   257
 75
     1
175
     1
 42
1.0
 92
        8
 66
     7
 43
1.0
 76
     1
 77
     6
 78
     2
 67
     7
 79
     5
170
     0
171
     0
290
     0
174
     0
 93
        1
 44
50.0
173
     0
291
     1
 45
0.0
1001
ACAD
1000
AcDbSavedByObjectVersion
1070
     0
  0
VISUALSTYLE
  5
27C
102
{ACAD_XDICTIONARY
360
2D9
102
}
102
{ACAD_REACTORS
330
26C
102
}
330
26C
100
AcDbVisualStyle
  2
ColorChange
 70
    16
 71
     2
 72
     2
 73
     3
 90
        0
 40
-0.6
 41
-30.0
 62
     5
 63
     8
 74
     1
 91
        4
 64
     7
 65
   257
 75
     1
175
     1
 42
1.0
 92
        8
 66
     8
 43
1.0
 76
     1
 77
     6
 78
     2
 67
     7
 79
     5
170
     0
171
     0
290
     0
174
     0
 93
        1
 44
0.0
173
     0
291
     1
 45
0.0
1001
ACAD
1000
AcDbSavedByObjectVersion
1070
     0
  0
VISUALSTYLE
  5
275
102
{ACAD_XDICTIONARY
360
2CB
102
}
102
{ACAD_REACTORS
330
26C
102
}
330
26C
100
AcDbVisualStyle
  2
Conceptual
 70
     9
 71
     3
 72
     2
 73
     0
 90
        0
 40
-0.6
 41
-30.0
 62
     5
 63
     7
 74
     2
 91
        2
 64
     7
 65
   257
 75
     1
175
     1
 42
179.0
 92
        8
 66
     7
 43
1.0
 76
     1
 77
     6
 78
     2
 67
     7
 79
     3
170
     0
171
     0
290
     0
174
     0
 93
        1
 44
0.0
173
     0
291
     0
 45
0.0
1001
ACAD
1000
AcDbSavedByObjectVersion
1070
     0
  0
VISUALSTYLE
  5
277
102
{ACAD_XDICTIONARY
360
2CF
102
}
102
{ACAD_REACTORS
330
26C
102
}
330
26C
100
AcDbVisualStyle
  2
Dim
 70
    11
 71
     2
 72
     2
 73
     0
 90
        0
 40
-0.6
 41
-30.0
 62
     5
 63
     7
 74
     1
 91
        4
 64
     7
 65
   257
 75
     1
175
     1
 42
1.0
 92
        8
 66
     7
 43
1.0
 76
     1
 77
     6
 78
     2
 67
     7
 79
     5
170
     0
171
     0
290
     0
174
     0
 93
        1
 44
-50.0
173
     0
291
     1
 45
0.0
1001
ACAD
1000
AcDbSavedByObjectVersion
1070
     0
  0
VISUALSTYLE
  5
27F
102
{ACAD_XDICTIONARY
360
2DF
102
}
102
{ACAD_REACTORS
330
26C
102
}
330
26C
100
AcDbVisualStyle
  2
EdgeColorOff
 70
    22
 71
     2
 72
     2
 73
     0
 90
        0
 40
-0.6
 41
-30.0
 62
     5
 63
     7
 74
     1
 91
        4
 64
     7
 65
   257
 75
     1
175
     1
 42
1.0
 92
        8
 66
     7
 43
1.0
 76
     1
 77
     6
 78
     2
 67
     7
 79
     5
170
     0
171
     0
290
     0
174
     0
 93
        1
 44
0.0
173
     0
291
     1
 45
0.0
1001
ACAD
1000
AcDbSavedByObjectVersion
1070
     0
  0
VISUALSTYLE
  5
27B
102
{ACAD_XDICTIONARY
360
2D7
102
}
102
{ACAD_REACTORS
330
26C
102
}
330
26C
100
AcDbVisualStyle
  2
Facepattern
 70
    15
 71
     2
 72
     2
 73
     0
 90
        0
 40
-0.6
 41
-30.0
 62
     5
 63
     7
 74
     1
 91
        4
 64
     7
 65
   257
 75
     1
175
     1
 42
1.0
 92
        8
 66
     7
 43
1.0
 76
     1
 77
     6
 78
     2
 67
     7
 79
     5
170
     0
171
     0
290
     0
174
     0
 93
        1
 44
0.0
173
     0
291
     1
 45
0.0
1001
ACAD
1000
AcDbSavedByObjectVersion
1070
     0
  0
VISUALSTYLE
  5
26D
102
{ACAD_XDICTIONARY
360
2BB
102
}
102
{ACAD_REACTORS
330
26C
102
}
330
26C
100
AcDbVisualStyle
  2
Flat
 70
     0
 71
     2
 72
     1
 73
     1
 90
        2
 40
-0.6
 41
30.0
 62
     5
 63
     7
 74
     0
 91
        4
 64
     7
 65
   257
 75
     1
175
     1
 42
1.0
 92
        8
 66
     7
 43
1.0
 76
     1
 77
     6
 78
     2
 67
     7
 79
     5
170
     0
171
     0
290
     0
174
     0
 93
       13
 44
0.0
173
     0
291
     1
 45
0.0
1001
ACAD
1000
AcDbSavedByObjectVersion
1070
     0
  0
VISUALSTYLE
  5
26E
102
{ACAD_XDICTIONARY
360
2BD
102
}
102
{ACAD_REACTORS
330
26C
102
}
330
26C
100
AcDbVisualStyle
  2
FlatWithEdges
 70
     1
 71
     2
 72
     1
 73
     1
 90
        2
 40
-0.6
 41
30.0
 62
     5
 63
     7
 74
     1
 91
        4
 64
     7
 65
   257
 75
     1
175
     1
 42
1.0
 92
        0
 66
   257
 43
1.0
 76
     1
 77
     6
 78
     2
 67
     7
 79
     5
170
     0
171
     0
290
     0
174
     0
 93
       13
 44
0.0
173
     0
291
     1
 45
0.0
1001
ACAD
1000
AcDbSavedByObjectVersion
1070
     0
  0
VISUALSTYLE
  5
26F
102
{ACAD_XDICTIONARY
360
2BF
102
}
102
{ACAD_REACTORS
330
26C
102
}
330
26C
100
AcDbVisualStyle
  2
Gouraud
 70
     2
 71
     2
 72
     2
 73
     1
 90
        2
 40
-0.6
 41
30.0
 62
     5
 63
     7
 74
     0
 91
        4
 64
     7
 65
   257
 75
     1
175
     1
 42
1.0
 92
        0
 66
     7
 43
1.0
 76
     1
 77
     6
 78
     2
 67
     7
 79
     5
170
     0
171
     0
290
     0
174
     0
 93
       13
 44
0.0
173
     0
291
     1
 45
0.0
1001
ACAD
1000
AcDbSavedByObjectVersion
1070
     0
  0
VISUALSTYLE
  5
270
102
{ACAD_XDICTIONARY
360
2C1
102
}
102
{ACAD_REACTORS
330
26C
102
}
330
26C
100
AcDbVisualStyle
  2
GouraudWithEdges
 70
     3
 71
     2
 72
     2
 73
     1
 90
        2
 40
-0.6
 41
30.0
 62
     5
 63
     7
 74
     1
 91
        4
 64
     7
 65
   257
 75
     1
175
     1
 42
1.0
 92
        0
 66
   257
 43
1.0
 76
     1
 77
     6
 78
     2
 67
     7
 79
     5
170
     0
171
     0
290
     0
174
     0
 93
       13
 44
0.0
173
     0
291
     1
 45
0.0
1001
ACAD
1000
AcDbSavedByObjectVersion
1070
     0
  0
VISUALSTYLE
  5
27D
102
{ACAD_XDICTIONARY
360
2DB
102
}
102
{ACAD_REACTORS
330
26C
102
}
330
26C
100
AcDbVisualStyle
  2
JitterOff
 70
    20
 71
     2
 72
     2
 73
     0
 90
        0
 40
-0.6
 41
-30.0
 62
     5
 63
     7
 74
     1
 91
        4
 64
     7
 65
   257
 75
     1
175
     1
 42
1.0
 92
       10
 66
     7
 43
1.0
 76
     1
 77
     6
 78
     2
 67
     7
 79
     5
170
     0
171
     0
290
     0
174
     0
 93
        1
 44
0.0
173
     0
291
     1
 45
0.0
1001
ACAD
1000
AcDbSavedByObjectVersion
1070
     0
  0
VISUALSTYLE
  5
27A
102
{ACAD_XDICTIONARY
360
2D5
102
}
102
{ACAD_REACTORS
330
26C
102
}
330
26C
100
AcDbVisualStyle
  2
Linepattern
 70
    14
 71
     2
 72
     2
 73
     0
 90
        0
 40
-0.6
 41
-30.0
 62
     5
 63
     7
 74
     1
 91
        4
 64
     7
 65
   257
 75
     7
175
     7
 42
1.0
 92
        8
 66
     7
 43
1.0
 76
     1
 77
     6
 78
     2
 67
     7
 79
     5
170
     0
171
     0
290
     0
174
     0
 93
        1
 44
0.0
173
     0
291
     1
 45
0.0
1001
ACAD
1000
AcDbSavedByObjectVersion
1070
     0
  0
VISUALSTYLE
  5
27E
102
{ACAD_XDICTIONARY
360
2DD
102
}
102
{ACAD_REACTORS
330
26C
102
}
330
26C
100
AcDbVisualStyle
  2
OverhangOff
 70
    21
 71
     2
 72
     2
 73
     0
 90
        0
 40
-0.6
 41
-30.0
 62
     5
 63
     7
 74
     1
 91
        4
 64
     7
 65
   257
 75
     1
175
     1
 42
1.0
 92
        9
 66
     7
 43
1.0
 76
     1
 77
     6
 78
     2
 67
     7
 79
     5
170
     0
171
     0
290
     0
174
     0
 93
        1
 44
0.0
173
     0
291
     1
 45
0.0
1001
ACAD
1000
AcDbSavedByObjectVersion
1070
     0
  0
VISUALSTYLE
  5
276
102
{ACAD_XDICTIONARY
360
2CD
102
}
102
{ACAD_REACTORS
330
26C
102
}
330
26C
100
AcDbVisualStyle
  2
Realistic
 70
     8
 71
     2
 72
     2
 73
     0
 90
        0
 40
-0.6
 41
-30.0
 62
     5
 63
     7
 74
     1
 91
        0
 64
     7
 65
   257
 75
     1
175
     1
 42
1.0
 92
        8
 66
     8
 43
1.0
 76
     1
 77
     6
 78
     2
 67
     7
 79
     5
170
     0
171
     0
290
     0
174
     0
 93
       13
 44
0.0
173
     0
291
     0
 45
0.0
1001
ACAD
1000
AcDbSavedByObjectVersion
1070
     0
  0
VISUALSTYLE
  5
279
102
{ACAD_XDICTIONARY
360
2D3
102
}
102
{ACAD_REACTORS
330
26C
102
}
330
26C
100
AcDbVisualStyle
  2
Thicken
 70
    13
 71
     2
 72
     2
 73
     0
 90
        0
 40
-0.6
 41
-30.0
 62
     5
 63
     7
 74
     1
 91
        4
 64
     7
 65
   257
 75
     1
175
     1
 42
1.0
 92
       12
 66
     7
 43
1.0
 76
     1
 77
     6
 78
     2
 67
     7
 79
     5
170
     0
171
     0
290
     0
174
     0
 93
        1
 44
0.0
173
     0
291
     1
 45
0.0
1001
ACAD
1000
AcDbSavedByObjectVersion
1070
     0
  0
DICTIONARYVAR
  5
2AB
102
{ACAD_REACTORS
330
53
102
}
330
53
100
DictionaryVariables
280
     0
  1
1:1
  0
DICTIONARYVAR
  5
2AA
102
{ACAD_REACTORS
330
53
102
}
330
53
100
DictionaryVariables
280
     0
  1
STANDARD
  0
DICTIONARYVAR
  5
251
102
{ACAD_REACTORS
330
53
102
}
330
53
100
DictionaryVariables
280
     0
  1
STANDARD
  0
DICTIONARYVAR
  5
55
102
{ACAD_REACTORS
330
53
102
}
330
53
100
DictionaryVariables
280
     0
  1
1
  0
DICTIONARYVAR
  5
54
102
{ACAD_REACTORS
330
53
102
}
330
53
100
DictionaryVariables
280
     0
  1
1
  0
DICTIONARYVAR
  5
2AD
102
{ACAD_REACTORS
330
53
102
}
330
53
100
DictionaryVariables
280
     0
  1
0
  0
DICTIONARYVAR
  5
252
102
{ACAD_REACTORS
330
53
102
}
330
53
100
DictionaryVariables
280
     0
  1

  0
DICTIONARYVAR
  5
2AC
102
{ACAD_REACTORS
330
53
102
}
330
53
100
DictionaryVariables
280
     0
  1
127
  0
DICTIONARYVAR
  5
2AE
102
{ACAD_REACTORS
330
53
102
}
330
53
100
DictionaryVariables
280
     0
  1
2
  0
XRECORD
  5
242
102
{ACAD_REACTORS
330
241
102
}
330
241
100
AcDbXrecord
280
     1
  0
DICTIONARY
  5
2B5
330
F
100
AcDbDictionary
280
     1
281
     1
  3
ACAD_XREC_ROUNDTRIP
360
2B6
  0
DICTIONARY
  5
2B3
330
A
100
AcDbDictionary
280
     1
281
     1
  3
ACAD_XREC_ROUNDTRIP
360
2B4
  0
DICTIONARY
  5
25D
330
25C
100
AcDbDictionary
280
     1
281
     1
  3
ACAD_XREC_ROUNDTRIP
360
2B9
  3
BUMPTILE
360
25F
  3
DIFFUSETILE
360
25E
  3
OPACITYTILE
360
262
  3
REFLECTIONTILE
360
261
  3
REFRACTIONTILE
360
263
  3
SPECULARTILE
360
260
  0
DICTIONARY
  5
255
330
254
100
AcDbDictionary
280
     1
281
     1
  3
ACAD_XREC_ROUNDTRIP
360
2B8
  3
BUMPTILE
360
257
  3
DIFFUSETILE
360
256
  3
OPACITYTILE
360
25A
  3
REFLECTIONTILE
360
259
  3
REFRACTIONTILE
360
25B
  3
SPECULARTILE
360
258
  0
DICTIONARY
  5
265
330
264
100
AcDbDictionary
280
     1
281
     1
  3
ACAD_XREC_ROUNDTRIP
360
2BA
  3
BUMPTILE
360
267
  3
DIFFUSETILE
360
266
  3
OPACITYTILE
360
26A
  3
REFLECTIONTILE
360
269
  3
REFRACTIONTILE
360
26B
  3
SPECULARTILE
360
268
  0
DICTIONARY
  5
2AF
330
5A
100
AcDbDictionary
280
     1
281
     1
  3
ACAD_ROUNDTRIP_2008_TABLESTYLE_CELLSTYLEMAP
360
2B0
  3
ACAD_XREC_ROUNDTRIP
360
2B7
  0
DICTIONARY
  5
2C5
330
272
100
AcDbDictionary
280
     1
281
     1
  3
ACAD_XREC_ROUNDTRIP
360
2C6
  0
DICTIONARY
  5
2C9
330
274
100
AcDbDictionary
280
     1
281
     1
  3
ACAD_XREC_ROUNDTRIP
360
2CA
  0
DICTIONARY
  5
2C7
330
273
100
AcDbDictionary
280
     1
281
     1
  3
ACAD_XREC_ROUNDTRIP
360
2C8
  0
DICTIONARY
  5
2C3
330
271
100
AcDbDictionary
280
     1
281
     1
  3
ACAD_XREC_ROUNDTRIP
360
2C4
  0
DICTIONARY
  5
2D1
330
278
100
AcDbDictionary
280
     1
281
     1
  3
ACAD_XREC_ROUNDTRIP
360
2D2
  0
DICTIONARY
  5
2D9
330
27C
100
AcDbDictionary
280
     1
281
     1
  3
ACAD_XREC_ROUNDTRIP
360
2DA
  0
DICTIONARY
  5
2CB
330
275
100
AcDbDictionary
280
     1
281
     1
  3
ACAD_XREC_ROUNDTRIP
360
2CC
  0
DICTIONARY
  5
2CF
330
277
100
AcDbDictionary
280
     1
281
     1
  3
ACAD_XREC_ROUNDTRIP
360
2D0
  0
DICTIONARY
  5
2DF
330
27F
100
AcDbDictionary
280
     1
281
     1
  3
ACAD_XREC_ROUNDTRIP
360
2E0
  0
DICTIONARY
  5
2D7
330
27B
100
AcDbDictionary
280
     1
281
     1
  3
ACAD_XREC_ROUNDTRIP
360
2D8
  0
DICTIONARY
  5
2BB
330
26D
100
AcDbDictionary
280
     1
281
     1
  3
ACAD_XREC_ROUNDTRIP
360
2BC
  0
DICTIONARY
  5
2BD
330
26E
100
AcDbDictionary
280
     1
281
     1
  3
ACAD_XREC_ROUNDTRIP
360
2BE
  0
DICTIONARY
  5
2BF
330
26F
100
AcDbDictionary
280
     1
281
     1
  3
ACAD_XREC_ROUNDTRIP
360
2C0
  0
DICTIONARY
  5
2C1
330
270
100
AcDbDictionary
280
     1
281
     1
  3
ACAD_XREC_ROUNDTRIP
360
2C2
  0
DICTIONARY
  5
2DB
330
27D
100
AcDbDictionary
280
     1
281
     1
  3
ACAD_XREC_ROUNDTRIP
360
2DC
  0
DICTIONARY
  5
2D5
330
27A
100
AcDbDictionary
280
     1
281
     1
  3
ACAD_XREC_ROUNDTRIP
360
2D6
  0
DICTIONARY
  5
2DD
330
27E
100
AcDbDictionary
280
     1
281
     1
  3
ACAD_XREC_ROUNDTRIP
360
2DE
  0
DICTIONARY
  5
2CD
330
276
100
AcDbDictionary
280
     1
281
     1
  3
ACAD_XREC_ROUNDTRIP
360
2CE
  0
DICTIONARY
  5
2D3
330
279
100
AcDbDictionary
280
     1
281
     1
  3
ACAD_XREC_ROUNDTRIP
360
2D4
  0
XRECORD
  5
2B6
102
{ACAD_REACTORS
330
2B5
102
}
330
2B5
100
AcDbXrecord
280
     1
102
SHADEPLOT
 70
     0
102
SHADEPLOTRESLEVEL
 70
     2
102
SHADEPLOTCUSTOMDPI
 70
   300
  0
XRECORD
  5
2B4
102
{ACAD_REACTORS
330
2B3
102
}
330
2B3
100
AcDbXrecord
280
     1
102
SHADEPLOT
 70
     0
102
SHADEPLOTRESLEVEL
 70
     2
102
SHADEPLOTCUSTOMDPI
 70
   300
  0
XRECORD
  5
2B9
102
{ACAD_REACTORS
330
25D
102
}
330
25D
100
AcDbXrecord
280
     1
102
MATERIAL
148
0.0
149
0.0
149
0.0
 93
        0
 94
      127
282
     0
 72
     0
 77
     0
171
     0
175
     0
179
     0
273
     0
  0
XRECORD
  5
25F
102
{ACAD_REACTORS
330
25D
102
}
330
25D
100
AcDbXrecord
280
     1
270
     1
271
     1
  0
XRECORD
  5
25E
102
{ACAD_REACTORS
330
25D
102
}
330
25D
100
AcDbXrecord
280
     1
270
     1
271
     1
  0
XRECORD
  5
262
102
{ACAD_REACTORS
330
25D
102
}
330
25D
100
AcDbXrecord
280
     1
270
     1
271
     1
  0
XRECORD
  5
261
102
{ACAD_REACTORS
330
25D
102
}
330
25D
100
AcDbXrecord
280
     1
270
     1
271
     1
  0
XRECORD
  5
263
102
{ACAD_REACTORS
330
25D
102
}
330
25D
100
AcDbXrecord
280
     1
270
     1
271
     1
  0
XRECORD
  5
260
102
{ACAD_REACTORS
330
25D
102
}
330
25D
100
AcDbXrecord
280
     1
270
     1
271
     1
  0
XRECORD
  5
2B8
102
{ACAD_REACTORS
330
255
102
}
330
255
100
AcDbXrecord
280
     1
102
MATERIAL
148
0.0
149
0.0
149
0.0
 93
        0
 94
      127
282
     0
 72
     0
 77
     0
171
     0
175
     0
179
     0
273
     0
  0
XRECORD
  5
257
102
{ACAD_REACTORS
330
255
102
}
330
255
100
AcDbXrecord
280
     1
270
     1
271
     1
  0
XRECORD
  5
256
102
{ACAD_REACTORS
330
255
102
}
330
255
100
AcDbXrecord
280
     1
270
     1
271
     1
  0
XRECORD
  5
25A
102
{ACAD_REACTORS
330
255
102
}
330
255
100
AcDbXrecord
280
     1
270
     1
271
     1
  0
XRECORD
  5
259
102
{ACAD_REACTORS
330
255
102
}
330
255
100
AcDbXrecord
280
     1
270
     1
271
     1
  0
XRECORD
  5
25B
102
{ACAD_REACTORS
330
255
102
}
330
255
100
AcDbXrecord
280
     1
270
     1
271
     1
  0
XRECORD
  5
258
102
{ACAD_REACTORS
330
255
102
}
330
255
100
AcDbXrecord
280
     1
270
     1
271
     1
  0
XRECORD
  5
2BA
102
{ACAD_REACTORS
330
265
102
}
330
265
100
AcDbXrecord
280
     1
102
MATERIAL
148
0.0
149
0.0
149
0.0
 93
        0
 94
      127
282
     0
 72
     0
 77
     0
171
     0
175
     0
179
     0
273
     0
  0
XRECORD
  5
267
102
{ACAD_REACTORS
330
265
102
}
330
265
100
AcDbXrecord
280
     1
270
     1
271
     1
  0
XRECORD
  5
266
102
{ACAD_REACTORS
330
265
102
}
330
265
100
AcDbXrecord
280
     1
270
     1
271
     1
  0
XRECORD
  5
26A
102
{ACAD_REACTORS
330
265
102
}
330
265
100
AcDbXrecord
280
     1
270
     1
271
     1
  0
XRECORD
  5
269
102
{ACAD_REACTORS
330
265
102
}
330
265
100
AcDbXrecord
280
     1
270
     1
271
     1
  0
XRECORD
  5
26B
102
{ACAD_REACTORS
330
265
102
}
330
265
100
AcDbXrecord
280
     1
270
     1
271
     1
  0
XRECORD
  5
268
102
{ACAD_REACTORS
330
265
102
}
330
265
100
AcDbXrecord
280
     1
270
     1
271
     1
  0
CELLSTYLEMAP
  5
2B0
102
{ACAD_REACTORS
330
2AF
102
}
330
2AF
100
AcDbCellStyleMap
 90
        3
300
CELLSTYLE
  1
TABLEFORMAT_BEGIN
 90
        5
170
     1
 91
        0
 92
    32768
 62
   257
 93
        1
300
CONTENTFORMAT
  1
CONTENTFORMAT_BEGIN
 90
        0
 91
        0
 92
        4
 93
        0
300

 40
0.0
140
1.0
 94
        5
 62
     0
340
12
144
0.25
309
CONTENTFORMAT_END
171
     0
 94
        6
 95
        1
302
GRIDFORMAT
  1
GRIDFORMAT_BEGIN
 90
        0
 91
        1
 62
     0
 92
       -2
340
0
 93
        0
 40
0.045
309
GRIDFORMAT_END
 95
        2
302
GRIDFORMAT
  1
GRIDFORMAT_BEGIN
 90
        0
 91
        1
 62
     0
 92
       -2
340
0
 93
        0
 40
0.045
309
GRIDFORMAT_END
 95
        4
302
GRIDFORMAT
  1
GRIDFORMAT_BEGIN
 90
        0
 91
        1
 62
     0
 92
       -2
340
0
 93
        0
 40
0.045
309
GRIDFORMAT_END
 95
        8
302
GRIDFORMAT
  1
GRIDFORMAT_BEGIN
 90
        0
 91
        1
 62
     0
 92
       -2
340
0
 93
        0
 40
0.045
309
GRIDFORMAT_END
 95
       16
302
GRIDFORMAT
  1
GRIDFORMAT_BEGIN
 90
        0
 91
        1
 62
     0
 92
       -2
340
0
 93
        0
 40
0.045
309
GRIDFORMAT_END
 95
       32
302
GRIDFORMAT
  1
GRIDFORMAT_BEGIN
 90
        0
 91
        1
 62
     0
 92
       -2
340
0
 93
        0
 40
0.045
309
GRIDFORMAT_END
309
TABLEFORMAT_END
  1
CELLSTYLE_BEGIN
 90
        1
 91
        1
300
_TITLE
309
CELLSTYLE_END
300
CELLSTYLE
  1
TABLEFORMAT_BEGIN
 90
        5
170
     1
 91
        0
 92
        0
 62
   257
 93
        1
300
CONTENTFORMAT
  1
CONTENTFORMAT_BEGIN
 90
        0
 91
        0
 92
        4
 93
        0
300

 40
0.0
140
1.0
 94
        5
 62
     0
340
12
144
0.18
309
CONTENTFORMAT_END
171
     0
 94
        6
 95
        1
302
GRIDFORMAT
  1
GRIDFORMAT_BEGIN
 90
        0
 91
        1
 62
     0
 92
       -2
340
0
 93
        0
 40
0.045
309
GRIDFORMAT_END
 95
        2
302
GRIDFORMAT
  1
GRIDFORMAT_BEGIN
 90
        0
 91
        1
 62
     0
 92
       -2
340
0
 93
        0
 40
0.045
309
GRIDFORMAT_END
 95
        4
302
GRIDFORMAT
  1
GRIDFORMAT_BEGIN
 90
        0
 91
        1
 62
     0
 92
       -2
340
0
 93
        0
 40
0.045
309
GRIDFORMAT_END
 95
        8
302
GRIDFORMAT
  1
GRIDFORMAT_BEGIN
 90
        0
 91
        1
 62
     0
 92
       -2
340
0
 93
        0
 40
0.045
309
GRIDFORMAT_END
 95
       16
302
GRIDFORMAT
  1
GRIDFORMAT_BEGIN
 90
        0
 91
        1
 62
     0
 92
       -2
340
0
 93
        0
 40
0.045
309
GRIDFORMAT_END
 95
       32
302
GRIDFORMAT
  1
GRIDFORMAT_BEGIN
 90
        0
 91
        1
 62
     0
 92
       -2
340
0
 93
        0
 40
0.045
309
GRIDFORMAT_END
309
TABLEFORMAT_END
  1
CELLSTYLE_BEGIN
 90
        2
 91
        1
300
_HEADER
309
CELLSTYLE_END
300
CELLSTYLE
  1
TABLEFORMAT_BEGIN
 90
        5
170
     1
 91
        0
 92
        0
 62
   257
 93
        1
300
CONTENTFORMAT
  1
CONTENTFORMAT_BEGIN
 90
        0
 91
        0
 92
        4
 93
        0
300

 40
0.0
140
1.0
 94
        2
 62
     0
340
12
144
0.18
309
CONTENTFORMAT_END
171
     0
 94
        6
 95
        1
302
GRIDFORMAT
  1
GRIDFORMAT_BEGIN
 90
        0
 91
        1
 62
     0
 92
       -2
340
0
 93
        0
 40
0.045
309
GRIDFORMAT_END
 95
        2
302
GRIDFORMAT
  1
GRIDFORMAT_BEGIN
 90
        0
 91
        1
 62
     0
 92
       -2
340
0
 93
        0
 40
0.045
309
GRIDFORMAT_END
 95
        4
302
GRIDFORMAT
  1
GRIDFORMAT_BEGIN
 90
        0
 91
        1
 62
     0
 92
       -2
340
0
 93
        0
 40
0.045
309
GRIDFORMAT_END
 95
        8
302
GRIDFORMAT
  1
GRIDFORMAT_BEGIN
 90
        0
 91
        1
 62
     0
 92
       -2
340
0
 93
        0
 40
0.045
309
GRIDFORMAT_END
 95
       16
302
GRIDFORMAT
  1
GRIDFORMAT_BEGIN
 90
        0
 91
        1
 62
     0
 92
       -2
340
0
 93
        0
 40
0.045
309
GRIDFORMAT_END
 95
       32
302
GRIDFORMAT
  1
GRIDFORMAT_BEGIN
 90
        0
 91
        1
 62
     0
 92
       -2
340
0
 93
        0
 40
0.045
309
GRIDFORMAT_END
309
TABLEFORMAT_END
  1
CELLSTYLE_BEGIN
 90
        3
 91
        2
300
_DATA
309
CELLSTYLE_END
  0
XRECORD
  5
2B7
102
{ACAD_REACTORS
330
2AF
102
}
330
2AF
100
AcDbXrecord
280
     1
102
ACAD_ROUNDTRIP_PRE2007_TABLESTYLE
 90
        4
 91
        0
  1

 92
        4
 93
        0
  2

 94
        4
 95
        0
  3

  0
XRECORD
  5
2C6
102
{ACAD_REACTORS
330
2C5
102
}
330
2C5
100
AcDbXrecord
280
     1
102
RTVSPropertyOp0
 70
     1
102
RTVSPropertyOp1
 70
     1
102
RTVSPropertyOp2
 70
     1
102
RTVSPropertyOp3
 70
     1
102
RTVSPropertyOp4
 70
     1
102
RTVSPropertyOp5
 70
     1
102
RTVSPropertyOp6
 70
     1
102
RTVSPropertyOp7
 70
     1
102
RTVSPropertyOp8
 70
     1
102
RTVSPropertyOp9
 70
     1
102
RTVSPropertyOp10
 70
     1
102
RTVSPropertyOp11
 70
     1
102
RTVSPropertyOp12
 70
     1
102
RTVSPropertyOp13
 70
     1
102
RTVSPropertyOp14
 70
     1
102
RTVSPropertyOp15
 70
     1
102
RTVSPropertyOp16
 70
     1
102
RTVSPropertyOp17
 70
     1
102
RTVSPropertyOp18
 70
     1
102
RTVSPropertyOp19
 70
     1
102
RTVSPropertyOp20
 70
     1
102
RTVSPropertyOp21
 70
     1
102
RTVSPropertyOp22
 70
     1
102
RTVSPropertyOp23
 70
     1
102
RTVSPropertyOp24
 70
     1
102
RTVSPropertyOp25
 70
     1
102
RTVSPropertyOp26
 70
     1
102
RTVSPropertyOp27
 70
     1
  0
XRECORD
  5
2CA
102
{ACAD_REACTORS
330
2C9
102
}
330
2C9
100
AcDbXrecord
280
     1
102
RTVSPropertyOp0
 70
     1
102
RTVSPropertyOp1
 70
     1
102
RTVSPropertyOp2
 70
     1
102
RTVSPropertyOp3
 70
     1
102
RTVSPropertyOp4
 70
     1
102
RTVSPropertyOp5
 70
     1
102
RTVSPropertyOp6
 70
     1
102
RTVSPropertyOp7
 70
     1
102
RTVSPropertyOp8
 70
     1
102
RTVSPropertyOp9
 70
     1
102
RTVSPropertyOp10
 70
     1
102
RTVSPropertyOp11
 70
     1
102
RTVSPropertyOp12
 70
     1
102
RTVSPropertyOp13
 70
     1
102
RTVSPropertyOp14
 70
     1
102
RTVSPropertyOp15
 70
     1
102
RTVSPropertyOp16
 70
     1
102
RTVSPropertyOp17
 70
     1
102
RTVSPropertyOp18
 70
     1
102
RTVSPropertyOp19
 70
     1
102
RTVSPropertyOp20
 70
     1
102
RTVSPropertyOp21
 70
     1
102
RTVSPropertyOp22
 70
     1
102
RTVSPropertyOp23
 70
     1
102
RTVSPropertyOp24
 70
     1
102
RTVSPropertyOp25
 70
     1
102
RTVSPropertyOp26
 70
     1
102
RTVSPropertyOp27
 70
     1
  0
XRECORD
  5
2C8
102
{ACAD_REACTORS
330
2C7
102
}
330
2C7
100
AcDbXrecord
280
     1
102
RTVSPropertyOp0
 70
     1
102
RTVSPropertyOp1
 70
     1
102
RTVSPropertyOp2
 70
     1
102
RTVSPropertyOp3
 70
     1
102
RTVSPropertyOp4
 70
     1
102
RTVSPropertyOp5
 70
     1
102
RTVSPropertyOp6
 70
     1
102
RTVSPropertyOp7
 70
     1
102
RTVSPropertyOp8
 70
     1
102
RTVSPropertyOp9
 70
     1
102
RTVSPropertyOp10
 70
     1
102
RTVSPropertyOp11
 70
     1
102
RTVSPropertyOp12
 70
     1
102
RTVSPropertyOp13
 70
     1
102
RTVSPropertyOp14
 70
     1
102
RTVSPropertyOp15
 70
     1
102
RTVSPropertyOp16
 70
     1
102
RTVSPropertyOp17
 70
     1
102
RTVSPropertyOp18
 70
     1
102
RTVSPropertyOp19
 70
     1
102
RTVSPropertyOp20
 70
     1
102
RTVSPropertyOp21
 70
     1
102
RTVSPropertyOp22
 70
     1
102
RTVSPropertyOp23
 70
     1
102
RTVSPropertyOp24
 70
     1
102
RTVSPropertyOp25
 70
     1
102
RTVSPropertyOp26
 70
     1
102
RTVSPropertyOp27
 70
     1
  0
XRECORD
  5
2C4
102
{ACAD_REACTORS
330
2C3
102
}
330
2C3
100
AcDbXrecord
280
     1
102
RTVSPropertyOp0
 70
     1
102
RTVSPropertyOp1
 70
     1
102
RTVSPropertyOp2
 70
     1
102
RTVSPropertyOp3
 70
     1
102
RTVSPropertyOp4
 70
     1
102
RTVSPropertyOp5
 70
     1
102
RTVSPropertyOp6
 70
     1
102
RTVSPropertyOp7
 70
     1
102
RTVSPropertyOp8
 70
     1
102
RTVSPropertyOp9
 70
     1
102
RTVSPropertyOp10
 70
     1
102
RTVSPropertyOp11
 70
     1
102
RTVSPropertyOp12
 70
     1
102
RTVSPropertyOp13
 70
     1
102
RTVSPropertyOp14
 70
     1
102
RTVSPropertyOp15
 70
     1
102
RTVSPropertyOp16
 70
     1
102
RTVSPropertyOp17
 70
     1
102
RTVSPropertyOp18
 70
     1
102
RTVSPropertyOp19
 70
     1
102
RTVSPropertyOp20
 70
     1
102
RTVSPropertyOp21
 70
     1
102
RTVSPropertyOp22
 70
     1
102
RTVSPropertyOp23
 70
     1
102
RTVSPropertyOp24
 70
     1
102
RTVSPropertyOp25
 70
     1
102
RTVSPropertyOp26
 70
     1
102
RTVSPropertyOp27
 70
     1
  0
XRECORD
  5
2D2
102
{ACAD_REACTORS
330
2D1
102
}
330
2D1
100
AcDbXrecord
280
     1
102
RTVSPropertyOp0
 70
     1
102
RTVSPropertyOp1
 70
     1
102
RTVSPropertyOp2
 70
     1
102
RTVSPropertyOp3
 70
     1
102
RTVSPropertyOp4
 70
     1
102
RTVSPropertyOp5
 70
     1
102
RTVSPropertyOp6
 70
     1
102
RTVSPropertyOp7
 70
     1
102
RTVSPropertyOp8
 70
     1
102
RTVSPropertyOp9
 70
     1
102
RTVSPropertyOp10
 70
     1
102
RTVSPropertyOp11
 70
     1
102
RTVSPropertyOp12
 70
     1
102
RTVSPropertyOp13
 70
     1
102
RTVSPropertyOp14
 70
     1
102
RTVSPropertyOp15
 70
     1
102
RTVSPropertyOp16
 70
     1
102
RTVSPropertyOp17
 70
     1
102
RTVSPropertyOp18
 70
     1
102
RTVSPropertyOp19
 70
     1
102
RTVSPropertyOp20
 70
     1
102
RTVSPropertyOp21
 70
     1
102
RTVSPropertyOp22
 70
     1
102
RTVSPropertyOp23
 70
     1
102
RTVSPropertyOp24
 70
     1
102
RTVSPropertyOp25
 70
     1
102
RTVSPropertyOp26
 70
     1
102
RTVSPropertyOp27
 70
     1
  0
XRECORD
  5
2DA
102
{ACAD_REACTORS
330
2D9
102
}
330
2D9
100
AcDbXrecord
280
     1
102
RTVSPropertyOp0
 70
     1
102
RTVSPropertyOp1
 70
     1
102
RTVSPropertyOp2
 70
     1
102
RTVSPropertyOp3
 70
     1
102
RTVSPropertyOp4
 70
     1
102
RTVSPropertyOp5
 70
     1
102
RTVSPropertyOp6
 70
     1
102
RTVSPropertyOp7
 70
     1
102
RTVSPropertyOp8
 70
     1
102
RTVSPropertyOp9
 70
     1
102
RTVSPropertyOp10
 70
     1
102
RTVSPropertyOp11
 70
     1
102
RTVSPropertyOp12
 70
     1
102
RTVSPropertyOp13
 70
     1
102
RTVSPropertyOp14
 70
     1
102
RTVSPropertyOp15
 70
     1
102
RTVSPropertyOp16
 70
     1
102
RTVSPropertyOp17
 70
     1
102
RTVSPropertyOp18
 70
     1
102
RTVSPropertyOp19
 70
     1
102
RTVSPropertyOp20
 70
     1
102
RTVSPropertyOp21
 70
     1
102
RTVSPropertyOp22
 70
     1
102
RTVSPropertyOp23
 70
     1
102
RTVSPropertyOp24
 70
     1
102
RTVSPropertyOp25
 70
     1
102
RTVSPropertyOp26
 70
     1
102
RTVSPropertyOp27
 70
     1
  0
XRECORD
  5
2CC
102
{ACAD_REACTORS
330
2CB
102
}
330
2CB
100
AcDbXrecord
280
     1
102
RTVSPropertyOp0
 70
     1
102
RTVSPropertyOp1
 70
     1
102
RTVSPropertyOp2
 70
     1
102
RTVSPropertyOp3
 70
     1
102
RTVSPropertyOp4
 70
     1
102
RTVSPropertyOp5
 70
     1
102
RTVSPropertyOp6
 70
     1
102
RTVSPropertyOp7
 70
     1
102
RTVSPropertyOp8
 70
     1
102
RTVSPropertyOp9
 70
     1
102
RTVSPropertyOp10
 70
     1
102
RTVSPropertyOp11
 70
     1
102
RTVSPropertyOp12
 70
     1
102
RTVSPropertyOp13
 70
     1
102
RTVSPropertyOp14
 70
     1
102
RTVSPropertyOp15
 70
     1
102
RTVSPropertyOp16
 70
     1
102
RTVSPropertyOp17
 70
     1
102
RTVSPropertyOp18
 70
     1
102
RTVSPropertyOp19
 70
     1
102
RTVSPropertyOp20
 70
     1
102
RTVSPropertyOp21
 70
     1
102
RTVSPropertyOp22
 70
     1
102
RTVSPropertyOp23
 70
     1
102
RTVSPropertyOp24
 70
     1
102
RTVSPropertyOp25
 70
     1
102
RTVSPropertyOp26
 70
     1
102
RTVSPropertyOp27
 70
     1
  0
XRECORD
  5
2D0
102
{ACAD_REACTORS
330
2CF
102
}
330
2CF
100
AcDbXrecord
280
     1
102
RTVSPropertyOp0
 70
     1
102
RTVSPropertyOp1
 70
     1
102
RTVSPropertyOp2
 70
     1
102
RTVSPropertyOp3
 70
     1
102
RTVSPropertyOp4
 70
     1
102
RTVSPropertyOp5
 70
     1
102
RTVSPropertyOp6
 70
     1
102
RTVSPropertyOp7
 70
     1
102
RTVSPropertyOp8
 70
     1
102
RTVSPropertyOp9
 70
     1
102
RTVSPropertyOp10
 70
     1
102
RTVSPropertyOp11
 70
     1
102
RTVSPropertyOp12
 70
     1
102
RTVSPropertyOp13
 70
     1
102
RTVSPropertyOp14
 70
     1
102
RTVSPropertyOp15
 70
     1
102
RTVSPropertyOp16
 70
     1
102
RTVSPropertyOp17
 70
     1
102
RTVSPropertyOp18
 70
     1
102
RTVSPropertyOp19
 70
     1
102
RTVSPropertyOp20
 70
     1
102
RTVSPropertyOp21
 70
     1
102
RTVSPropertyOp22
 70
     1
102
RTVSPropertyOp23
 70
     1
102
RTVSPropertyOp24
 70
     1
102
RTVSPropertyOp25
 70
     1
102
RTVSPropertyOp26
 70
     1
102
RTVSPropertyOp27
 70
     1
  0
XRECORD
  5
2E0
102
{ACAD_REACTORS
330
2DF
102
}
330
2DF
100
AcDbXrecord
280
     1
102
RTVSPropertyOp0
 70
     0
102
RTVSPropertyOp1
 70
     0
102
RTVSPropertyOp2
 70
     0
102
RTVSPropertyOp3
 70
     0
102
RTVSPropertyOp4
 70
     0
102
RTVSPropertyOp5
 70
     0
102
RTVSPropertyOp6
 70
     0
102
RTVSPropertyOp7
 70
     0
102
RTVSPropertyOp8
 70
     0
102
RTVSPropertyOp9
 70
     0
102
RTVSPropertyOp10
 70
     0
102
RTVSPropertyOp11
 70
     0
102
RTVSPropertyOp12
 70
     0
102
RTVSPropertyOp13
 70
     0
102
RTVSPropertyOp14
 70
     2
102
RTVSPropertyOp15
 70
     0
102
RTVSPropertyOp16
 70
     0
102
RTVSPropertyOp17
 70
     0
102
RTVSPropertyOp18
 70
     0
102
RTVSPropertyOp19
 70
     0
102
RTVSPropertyOp20
 70
     0
102
RTVSPropertyOp21
 70
     0
102
RTVSPropertyOp22
 70
     0
102
RTVSPropertyOp23
 70
     0
102
RTVSPropertyOp24
 70
     0
102
RTVSPropertyOp25
 70
     0
102
RTVSPropertyOp26
 70
     0
102
RTVSPropertyOp27
 70
     0
  0
XRECORD
  5
2D8
102
{ACAD_REACTORS
330
2D7
102
}
330
2D7
100
AcDbXrecord
280
     1
102
RTVSPropertyOp0
 70
     1
102
RTVSPropertyOp1
 70
     1
102
RTVSPropertyOp2
 70
     1
102
RTVSPropertyOp3
 70
     1
102
RTVSPropertyOp4
 70
     1
102
RTVSPropertyOp5
 70
     1
102
RTVSPropertyOp6
 70
     1
102
RTVSPropertyOp7
 70
     1
102
RTVSPropertyOp8
 70
     1
102
RTVSPropertyOp9
 70
     1
102
RTVSPropertyOp10
 70
     1
102
RTVSPropertyOp11
 70
     1
102
RTVSPropertyOp12
 70
     1
102
RTVSPropertyOp13
 70
     1
102
RTVSPropertyOp14
 70
     1
102
RTVSPropertyOp15
 70
     1
102
RTVSPropertyOp16
 70
     1
102
RTVSPropertyOp17
 70
     1
102
RTVSPropertyOp18
 70
     1
102
RTVSPropertyOp19
 70
     1
102
RTVSPropertyOp20
 70
     1
102
RTVSPropertyOp21
 70
     1
102
RTVSPropertyOp22
 70
     1
102
RTVSPropertyOp23
 70
     1
102
RTVSPropertyOp24
 70
     1
102
RTVSPropertyOp25
 70
     1
102
RTVSPropertyOp26
 70
     1
102
RTVSPropertyOp27
 70
     1
  0
XRECORD
  5
2BC
102
{ACAD_REACTORS
330
2BB
102
}
330
2BB
100
AcDbXrecord
280
     1
102
RTVSPropertyOp0
 70
     1
102
RTVSPropertyOp1
 70
     1
102
RTVSPropertyOp2
 70
     1
102
RTVSPropertyOp3
 70
     1
102
RTVSPropertyOp4
 70
     1
102
RTVSPropertyOp5
 70
     1
102
RTVSPropertyOp6
 70
     1
102
RTVSPropertyOp7
 70
     1
102
RTVSPropertyOp8
 70
     1
102
RTVSPropertyOp9
 70
     1
102
RTVSPropertyOp10
 70
     1
102
RTVSPropertyOp11
 70
     1
102
RTVSPropertyOp12
 70
     1
102
RTVSPropertyOp13
 70
     1
102
RTVSPropertyOp14
 70
     1
102
RTVSPropertyOp15
 70
     1
102
RTVSPropertyOp16
 70
     1
102
RTVSPropertyOp17
 70
     1
102
RTVSPropertyOp18
 70
     1
102
RTVSPropertyOp19
 70
     1
102
RTVSPropertyOp20
 70
     1
102
RTVSPropertyOp21
 70
     1
102
RTVSPropertyOp22
 70
     1
102
RTVSPropertyOp23
 70
     1
102
RTVSPropertyOp24
 70
     1
102
RTVSPropertyOp25
 70
     1
102
RTVSPropertyOp26
 70
     1
102
RTVSPropertyOp27
 70
     1
  0
XRECORD
  5
2BE
102
{ACAD_REACTORS
330
2BD
102
}
330
2BD
100
AcDbXrecord
280
     1
102
RTVSPropertyOp0
 70
     1
102
RTVSPropertyOp1
 70
     1
102
RTVSPropertyOp2
 70
     1
102
RTVSPropertyOp3
 70
     1
102
RTVSPropertyOp4
 70
     1
102
RTVSPropertyOp5
 70
     1
102
RTVSPropertyOp6
 70
     1
102
RTVSPropertyOp7
 70
     1
102
RTVSPropertyOp8
 70
     1
102
RTVSPropertyOp9
 70
     1
102
RTVSPropertyOp10
 70
     1
102
RTVSPropertyOp11
 70
     1
102
RTVSPropertyOp12
 70
     1
102
RTVSPropertyOp13
 70
     1
102
RTVSPropertyOp14
 70
     1
102
RTVSPropertyOp15
 70
     1
102
RTVSPropertyOp16
 70
     1
102
RTVSPropertyOp17
 70
     1
102
RTVSPropertyOp18
 70
     1
102
RTVSPropertyOp19
 70
     1
102
RTVSPropertyOp20
 70
     1
102
RTVSPropertyOp21
 70
     1
102
RTVSPropertyOp22
 70
     1
102
RTVSPropertyOp23
 70
     1
102
RTVSPropertyOp24
 70
     1
102
RTVSPropertyOp25
 70
     1
102
RTVSPropertyOp26
 70
     1
102
RTVSPropertyOp27
 70
     1
  0
XRECORD
  5
2C0
102
{ACAD_REACTORS
330
2BF
102
}
330
2BF
100
AcDbXrecord
280
     1
102
RTVSPropertyOp0
 70
     1
102
RTVSPropertyOp1
 70
     1
102
RTVSPropertyOp2
 70
     1
102
RTVSPropertyOp3
 70
     1
102
RTVSPropertyOp4
 70
     1
102
RTVSPropertyOp5
 70
     1
102
RTVSPropertyOp6
 70
     1
102
RTVSPropertyOp7
 70
     1
102
RTVSPropertyOp8
 70
     1
102
RTVSPropertyOp9
 70
     1
102
RTVSPropertyOp10
 70
     1
102
RTVSPropertyOp11
 70
     1
102
RTVSPropertyOp12
 70
     1
102
RTVSPropertyOp13
 70
     1
102
RTVSPropertyOp14
 70
     1
102
RTVSPropertyOp15
 70
     1
102
RTVSPropertyOp16
 70
     1
102
RTVSPropertyOp17
 70
     1
102
RTVSPropertyOp18
 70
     1
102
RTVSPropertyOp19
 70
     1
102
RTVSPropertyOp20
 70
     1
102
RTVSPropertyOp21
 70
     1
102
RTVSPropertyOp22
 70
     1
102
RTVSPropertyOp23
 70
     1
102
RTVSPropertyOp24
 70
     1
102
RTVSPropertyOp25
 70
     1
102
RTVSPropertyOp26
 70
     1
102
RTVSPropertyOp27
 70
     1
  0
XRECORD
  5
2C2
102
{ACAD_REACTORS
330
2C1
102
}
330
2C1
100
AcDbXrecord
280
     1
102
RTVSPropertyOp0
 70
     1
102
RTVSPropertyOp1
 70
     1
102
RTVSPropertyOp2
 70
     1
102
RTVSPropertyOp3
 70
     1
102
RTVSPropertyOp4
 70
     1
102
RTVSPropertyOp5
 70
     1
102
RTVSPropertyOp6
 70
     1
102
RTVSPropertyOp7
 70
     1
102
RTVSPropertyOp8
 70
     1
102
RTVSPropertyOp9
 70
     1
102
RTVSPropertyOp10
 70
     1
102
RTVSPropertyOp11
 70
     1
102
RTVSPropertyOp12
 70
     1
102
RTVSPropertyOp13
 70
     1
102
RTVSPropertyOp14
 70
     1
102
RTVSPropertyOp15
 70
     1
102
RTVSPropertyOp16
 70
     1
102
RTVSPropertyOp17
 70
     1
102
RTVSPropertyOp18
 70
     1
102
RTVSPropertyOp19
 70
     1
102
RTVSPropertyOp20
 70
     1
102
RTVSPropertyOp21
 70
     1
102
RTVSPropertyOp22
 70
     1
102
RTVSPropertyOp23
 70
     1
102
RTVSPropertyOp24
 70
     1
102
RTVSPropertyOp25
 70
     1
102
RTVSPropertyOp26
 70
     1
102
RTVSPropertyOp27
 70
     1
  0
XRECORD
  5
2DC
102
{ACAD_REACTORS
330
2DB
102
}
330
2DB
100
AcDbXrecord
280
     1
102
RTVSPropertyOp0
 70
     0
102
RTVSPropertyOp1
 70
     0
102
RTVSPropertyOp2
 70
     0
102
RTVSPropertyOp3
 70
     0
102
RTVSPropertyOp4
 70
     0
102
RTVSPropertyOp5
 70
     0
102
RTVSPropertyOp6
 70
     0
102
RTVSPropertyOp7
 70
     0
102
RTVSPropertyOp8
 70
     0
102
RTVSPropertyOp9
 70
     0
102
RTVSPropertyOp10
 70
     0
102
RTVSPropertyOp11
 70
     0
102
RTVSPropertyOp12
 70
     0
102
RTVSPropertyOp13
 70
     0
102
RTVSPropertyOp14
 70
     2
102
RTVSPropertyOp15
 70
     0
102
RTVSPropertyOp16
 70
     0
102
RTVSPropertyOp17
 70
     0
102
RTVSPropertyOp18
 70
     0
102
RTVSPropertyOp19
 70
     0
102
RTVSPropertyOp20
 70
     0
102
RTVSPropertyOp21
 70
     0
102
RTVSPropertyOp22
 70
     0
102
RTVSPropertyOp23
 70
     0
102
RTVSPropertyOp24
 70
     0
102
RTVSPropertyOp25
 70
     0
102
RTVSPropertyOp26
 70
     0
102
RTVSPropertyOp27
 70
     0
  0
XRECORD
  5
2D6
102
{ACAD_REACTORS
330
2D5
102
}
330
2D5
100
AcDbXrecord
280
     1
102
RTVSPropertyOp0
 70
     1
102
RTVSPropertyOp1
 70
     1
102
RTVSPropertyOp2
 70
     1
102
RTVSPropertyOp3
 70
     1
102
RTVSPropertyOp4
 70
     1
102
RTVSPropertyOp5
 70
     1
102
RTVSPropertyOp6
 70
     1
102
RTVSPropertyOp7
 70
     1
102
RTVSPropertyOp8
 70
     1
102
RTVSPropertyOp9
 70
     1
102
RTVSPropertyOp10
 70
     1
102
RTVSPropertyOp11
 70
     1
102
RTVSPropertyOp12
 70
     1
102
RTVSPropertyOp13
 70
     1
102
RTVSPropertyOp14
 70
     1
102
RTVSPropertyOp15
 70
     1
102
RTVSPropertyOp16
 70
     1
102
RTVSPropertyOp17
 70
     1
102
RTVSPropertyOp18
 70
     1
102
RTVSPropertyOp19
 70
     1
102
RTVSPropertyOp20
 70
     1
102
RTVSPropertyOp21
 70
     1
102
RTVSPropertyOp22
 70
     1
102
RTVSPropertyOp23
 70
     1
102
RTVSPropertyOp24
 70
     1
102
RTVSPropertyOp25
 70
     1
102
RTVSPropertyOp26
 70
     1
102
RTVSPropertyOp27
 70
     1
  0
XRECORD
  5
2DE
102
{ACAD_REACTORS
330
2DD
102
}
330
2DD
100
AcDbXrecord
280
     1
102
RTVSPropertyOp0
 70
     0
102
RTVSPropertyOp1
 70
     0
102
RTVSPropertyOp2
 70
     0
102
RTVSPropertyOp3
 70
     0
102
RTVSPropertyOp4
 70
     0
102
RTVSPropertyOp5
 70
     0
102
RTVSPropertyOp6
 70
     0
102
RTVSPropertyOp7
 70
     0
102
RTVSPropertyOp8
 70
     0
102
RTVSPropertyOp9
 70
     0
102
RTVSPropertyOp10
 70
     0
102
RTVSPropertyOp11
 70
     0
102
RTVSPropertyOp12
 70
     0
102
RTVSPropertyOp13
 70
     0
102
RTVSPropertyOp14
 70
     2
102
RTVSPropertyOp15
 70
     0
102
RTVSPropertyOp16
 70
     0
102
RTVSPropertyOp17
 70
     0
102
RTVSPropertyOp18
 70
     0
102
RTVSPropertyOp19
 70
     0
102
RTVSPropertyOp20
 70
     0
102
RTVSPropertyOp21
 70
     0
102
RTVSPropertyOp22
 70
     0
102
RTVSPropertyOp23
 70
     0
102
RTVSPropertyOp24
 70
     0
102
RTVSPropertyOp25
 70
     0
102
RTVSPropertyOp26
 70
     0
102
RTVSPropertyOp27
 70
     0
  0
XRECORD
  5
2CE
102
{ACAD_REACTORS
330
2CD
102
}
330
2CD
100
AcDbXrecord
280
     1
102
RTVSPropertyOp0
 70
     1
102
RTVSPropertyOp1
 70
     1
102
RTVSPropertyOp2
 70
     1
102
RTVSPropertyOp3
 70
     1
102
RTVSPropertyOp4
 70
     1
102
RTVSPropertyOp5
 70
     1
102
RTVSPropertyOp6
 70
     1
102
RTVSPropertyOp7
 70
     1
102
RTVSPropertyOp8
 70
     1
102
RTVSPropertyOp9
 70
     1
102
RTVSPropertyOp10
 70
     1
102
RTVSPropertyOp11
 70
     1
102
RTVSPropertyOp12
 70
     1
102
RTVSPropertyOp13
 70
     1
102
RTVSPropertyOp14
 70
     1
102
RTVSPropertyOp15
 70
     1
102
RTVSPropertyOp16
 70
     1
102
RTVSPropertyOp17
 70
     1
102
RTVSPropertyOp18
 70
     1
102
RTVSPropertyOp19
 70
     1
102
RTVSPropertyOp20
 70
     1
102
RTVSPropertyOp21
 70
     1
102
RTVSPropertyOp22
 70
     1
102
RTVSPropertyOp23
 70
     1
102
RTVSPropertyOp24
 70
     1
102
RTVSPropertyOp25
 70
     1
102
RTVSPropertyOp26
 70
     1
102
RTVSPropertyOp27
 70
     1
  0
XRECORD
  5
2D4
102
{ACAD_REACTORS
330
2D3
102
}
330
2D3
100
AcDbXrecord
280
     1
102
RTVSPropertyOp0
 70
     1
102
RTVSPropertyOp1
 70
     1
102
RTVSPropertyOp2
 70
     1
102
RTVSPropertyOp3
 70
     1
102
RTVSPropertyOp4
 70
     1
102
RTVSPropertyOp5
 70
     1
102
RTVSPropertyOp6
 70
     1
102
RTVSPropertyOp7
 70
     1
102
RTVSPropertyOp8
 70
     1
102
RTVSPropertyOp9
 70
     1
102
RTVSPropertyOp10
 70
     1
102
RTVSPropertyOp11
 70
     1
102
RTVSPropertyOp12
 70
     1
102
RTVSPropertyOp13
 70
     1
102
RTVSPropertyOp14
 70
     1
102
RTVSPropertyOp15
 70
     1
102
RTVSPropertyOp16
 70
     1
102
RTVSPropertyOp17
 70
     1
102
RTVSPropertyOp18
 70
     1
102
RTVSPropertyOp19
 70
     1
102
RTVSPropertyOp20
 70
     1
102
RTVSPropertyOp21
 70
     1
102
RTVSPropertyOp22
 70
     1
102
RTVSPropertyOp23
 70
     1
102
RTVSPropertyOp24
 70
     1
102
RTVSPropertyOp25
 70
     1
102
RTVSPropertyOp26
 70
     1
102
RTVSPropertyOp27
 70
     1
  0
ENDSEC
  0
EOF
