  0
SECTION
  2
HEADER
  9
$ACADVER
  1
AC1015
  9
$ACADMAINTVER
 70
    20
  9
$DWGCODEPAGE
  3
ANSI_1252
  9
$INSBASE
 10
0.0
 20
0.0
 30
0.0
  9
$EXTMIN
 10
2024.830118691349
 20
1741.972648365675
 30
0.0
  9
$EXTMAX
 10
2031.458371511918
 20
1742.872888471724
 30
0.0
  9
$LIMMIN
 10
0.0
 20
0.0
  9
$LIMMAX
 10
420.0
 20
297.0
  9
$ORTHOMODE
 70
     0
  9
$REGENMODE
 70
     1
  9
$FILLMODE
 70
     1
  9
$QTEXTMODE
 70
     0
  9
$MIRRTEXT
 70
     0
  9
$LTSCALE
 40
1.0
  9
$ATTMODE
 70
     1
  9
$TEXTSIZE
 40
2.5
  9
$TRACEWID
 40
1.0
  9
$TEXTSTYLE
  7
Standard
  9
$CLAYER
  8
0
  9
$CELTYPE
  6
ByLayer
  9
$CECOLOR
 62
   256
  9
$CELTSCALE
 40
1.0
  9
$DISPSILH
 70
     0
  9
$DIMSCALE
 40
1.0
  9
$DIMASZ
 40
2.5
  9
$DIMEXO
 40
0.625
  9
$DIMDLI
 40
3.75
  9
$DIMRND
 40
0.0
  9
$DIMDLE
 40
0.0
  9
$DIMEXE
 40
1.25
  9
$DIMTP
 40
0.0
  9
$DIMTM
 40
0.0
  9
$DIMTXT
 40
2.5
  9
$DIMCEN
 40
2.5
  9
$DIMTSZ
 40
0.0
  9
$DIMTOL
 70
     0
  9
$DIMLIM
 70
     0
  9
$DIMTIH
 70
     0
  9
$DIMTOH
 70
     0
  9
$DIMSE1
 70
     0
  9
$DIMSE2
 70
     0
  9
$DIMTAD
 70
     1
  9
$DIMZIN
 70
     8
  9
$DIMBLK
  1

  9
$DIMASO
 70
     1
  9
$DIMSHO
 70
     1
  9
$DIMPOST
  1

  9
$DIMAPOST
  1

  9
$DIMALT
 70
     0
  9
$DIMALTD
 70
     3
  9
$DIMALTF
 40
0.03937007874016
  9
$DIMLFAC
 40
1.0
  9
$DIMTOFL
 70
     1
  9
$DIMTVP
 40
0.0
  9
$DIMTIX
 70
     0
  9
$DIMSOXD
 70
     0
  9
$DIMSAH
 70
     0
  9
$DIMBLK1
  1

  9
$DIMBLK2
  1

  9
$DIMSTYLE
  2
ISO-25
  9
$DIMCLRD
 70
     0
  9
$DIMCLRE
 70
     0
  9
$DIMCLRT
 70
     0
  9
$DIMTFAC
 40
1.0
  9
$DIMGAP
 40
0.625
  9
$DIMJUST
 70
     0
  9
$DIMSD1
 70
     0
  9
$DIMSD2
 70
     0
  9
$DIMTOLJ
 70
     0
  9
$DIMTZIN
 70
     8
  9
$DIMALTZ
 70
     0
  9
$DIMALTTZ
 70
     0
  9
$DIMUPT
 70
     0
  9
$DIMDEC
 70
     2
  9
$DIMTDEC
 70
     2
  9
$DIMALTU
 70
     2
  9
$DIMALTTD
 70
     3
  9
$DIMTXSTY
  7
Standard
  9
$DIMAUNIT
 70
     0
  9
$DIMADEC
 70
     0
  9
$DIMALTRND
 40
0.0
  9
$DIMAZIN
 70
     0
  9
$DIMDSEP
 70
    44
  9
$DIMATFIT
 70
     3
  9
$DIMFRAC
 70
     0
  9
$DIMLDRBLK
  1

  9
$DIMLUNIT
 70
     2
  9
$DIMLWD
 70
    -2
  9
$DIMLWE
 70
    -2
  9
$DIMTMOVE
 70
     0
  9
$LUNITS
 70
     2
  9
$LUPREC
 70
     4
  9
$SKETCHINC
 40
1.0
  9
$FILLETRAD
 40
0.0
  9
$AUNITS
 70
     0
  9
$AUPREC
 70
     0
  9
$MENU
  1
.
  9
$ELEVATION
 40
0.0
  9
$PELEVATION
 40
0.0
  9
$THICKNESS
 40
0.0
  9
$LIMCHECK
 70
     0
  9
$CHAMFERA
 40
0.0
  9
$CHAMFERB
 40
0.0
  9
$CHAMFERC
 40
0.0
  9
$CHAMFERD
 40
0.0
  9
$SKPOLY
 70
     0
  9
$TDCREATE
 40
2454930.740611250
  9
$TDUCREATE
 40
2454930.698944584
  9
$TDUPDATE
 40
2454930.743234039
  9
$TDUUPDATE
 40
2454930.701567373
  9
$TDINDWG
 40
0.0026233333
  9
$TDUSRTIMER
 40
0.0026233333
  9
$USRTIMER
 70
     1
  9
$ANGBASE
 50
0.0
  9
$ANGDIR
 70
     0
  9
$PDMODE
 70
     0
  9
$PDSIZE
 40
0.0
  9
$PLINEWID
 40
0.0
  9
$SPLFRAME
 70
     0
  9
$SPLINETYPE
 70
     6
  9
$SPLINESEGS
 70
     8
  9
$HANDSEED
  5
9317
  9
$SURFTAB1
 70
     6
  9
$SURFTAB2
 70
     6
  9
$SURFTYPE
 70
     6
  9
$SURFU
 70
     6
  9
$SURFV
 70
     6
  9
$UCSBASE
  2

  9
$UCSNAME
  2

  9
$UCSORG
 10
0.0
 20
0.0
 30
0.0
  9
$UCSXDIR
 10
1.0
 20
0.0
 30
0.0
  9
$UCSYDIR
 10
0.0
 20
1.0
 30
0.0
  9
$UCSORTHOREF
  2

  9
$UCSORTHOVIEW
 70
     0
  9
$UCSORGTOP
 10
0.0
 20
0.0
 30
0.0
  9
$UCSORGBOTTOM
 10
0.0
 20
0.0
 30
0.0
  9
$UCSORGLEFT
 10
0.0
 20
0.0
 30
0.0
  9
$UCSORGRIGHT
 10
0.0
 20
0.0
 30
0.0
  9
$UCSORGFRONT
 10
0.0
 20
0.0
 30
0.0
  9
$UCSORGBACK
 10
0.0
 20
0.0
 30
0.0
  9
$PUCSBASE
  2

  9
$PUCSNAME
  2

  9
$PUCSORG
 10
0.0
 20
0.0
 30
0.0
  9
$PUCSXDIR
 10
1.0
 20
0.0
 30
0.0
  9
$PUCSYDIR
 10
0.0
 20
1.0
 30
0.0
  9
$PUCSORTHOREF
  2

  9
$PUCSORTHOVIEW
 70
     0
  9
$PUCSORGTOP
 10
0.0
 20
0.0
 30
0.0
  9
$PUCSORGBOTTOM
 10
0.0
 20
0.0
 30
0.0
  9
$PUCSORGLEFT
 10
0.0
 20
0.0
 30
0.0
  9
$PUCSORGRIGHT
 10
0.0
 20
0.0
 30
0.0
  9
$PUCSORGFRONT
 10
0.0
 20
0.0
 30
0.0
  9
$PUCSORGBACK
 10
0.0
 20
0.0
 30
0.0
  9
$USERI1
 70
     0
  9
$USERI2
 70
     0
  9
$USERI3
 70
     0
  9
$USERI4
 70
     0
  9
$USERI5
 70
     0
  9
$USERR1
 40
0.0
  9
$USERR2
 40
0.0
  9
$USERR3
 40
0.0
  9
$USERR4
 40
0.0
  9
$USERR5
 40
0.0
  9
$WORLDVIEW
 70
     1
  9
$SHADEDGE
 70
     3
  9
$SHADEDIF
 70
    70
  9
$TILEMODE
 70
     1
  9
$MAXACTVP
 70
    64
  9
$PINSBASE
 10
0.0
 20
0.0
 30
0.0
  9
$PLIMCHECK
 70
     0
  9
$PEXTMIN
 10
1.000000000000000E+20
 20
1.000000000000000E+20
 30
1.000000000000000E+20
  9
$PEXTMAX
 10
-1.000000000000000E+20
 20
-1.000000000000000E+20
 30
-1.000000000000000E+20
  9
$PLIMMIN
 10
0.0
 20
0.0
  9
$PLIMMAX
 10
420.0
 20
297.0
  9
$UNITMODE
 70
     0
  9
$VISRETAIN
 70
     1
  9
$PLINEGEN
 70
     0
  9
$PSLTSCALE
 70
     1
  9
$TREEDEPTH
 70
  3020
  9
$CMLSTYLE
  2
Standard
  9
$CMLJUST
 70
     0
  9
$CMLSCALE
 40
20.0
  9
$PROXYGRAPHICS
 70
     1
  9
$MEASUREMENT
 70
     1
  9
$CELWEIGHT
370
    -1
  9
$ENDCAPS
280
     0
  9
$JOINSTYLE
280
     0
  9
$LWDISPLAY
290
     0
  9
$INSUNITS
 70
     4
  9
$HYPERLINKBASE
  1

  9
$STYLESHEET
  1

  9
$XEDIT
290
     1
  9
$CEPSNTYPE
380
     0
  9
$PSTYLEMODE
290
     1
  9
$FINGERPRINTGUID
  2
{9713D200-C28B-4D61-B448-5503C55943BF}
  9
$VERSIONGUID
  2
{F485DA34-FAC6-4C8E-9C67-2F0E24B220F9}
  9
$EXTNAMES
290
     1
  9
$PSVPSCALE
 40
0.0
  9
$OLESTARTUP
290
     0
  0
ENDSEC
  0
SECTION
  2
CLASSES
  0
CLASS
  1
ACDBDICTIONARYWDFLT
  2
AcDbDictionaryWithDefault
  3
ObjectDBX Classes
 90
        0
280
     0
281
     0
  0
CLASS
  1
TABLESTYLE
  2
AcDbTableStyle
  3
ObjectDBX Classes
 90
     2047
280
     0
281
     0
  0
CLASS
  1
DIMASSOC
  2
AcDbDimAssoc
  3
"AcDbDimAssoc|Product Desc:     AcDim ARX App For Dimension|Company:          Autodesk, Inc.|WEB Address:      www.autodesk.com"
 90
        0
280
     0
281
     0
  0
CLASS
  1
SORTENTSTABLE
  2
AcDbSortentsTable
  3
ObjectDBX Classes
 90
        0
280
     0
281
     0
  0
CLASS
  1
DICTIONARYVAR
  2
AcDbDictionaryVar
  3
ObjectDBX Classes
 90
        0
280
     0
281
     0
  0
CLASS
  1
ACDBPLACEHOLDER
  2
AcDbPlaceHolder
  3
ObjectDBX Classes
 90
        0
280
     0
281
     0
  0
CLASS
  1
LAYOUT
  2
AcDbLayout
  3
ObjectDBX Classes
 90
        0
280
     0
281
     0
  0
ENDSEC
  0
SECTION
  2
TABLES
  0
TABLE
  2
VPORT
  5
8
330
0
100
AcDbSymbolTable
 70
     9
  0
VPORT
  5
930F
330
8
100
AcDbSymbolTableRecord
100
AcDbViewportTableRecord
  2
*Active
 70
     0
 10
0.0
 20
0.0
 11
1.0
 21
1.0
 12
2028.144245101634
 22
1742.4227684187
 13
0.0
 23
0.0
 14
10.0
 24
10.0
 15
10.0
 25
10.0
 16
0.0
 26
0.0
 36
1.0
 17
0.0
 27
0.0
 37
0.0
 40
4.153123128208394
 41
1.602030456852791
 42
50.0
 43
0.0
 44
0.0
 50
0.0
 51
0.0
 71
     0
 72
  1000
 73
     1
 74
     3
 75
     0
 76
     0
 77
     0
 78
     0
281
     0
 65
     1
110
0.0
120
0.0
130
0.0
111
1.0
121
0.0
131
0.0
112
0.0
122
1.0
132
0.0
 79
     0
146
0.0
  0
ENDTAB
  0
TABLE
  2
LTYPE
  5
5
330
0
100
AcDbSymbolTable
 70
     3
  0
LTYPE
  5
14
330
5
100
AcDbSymbolTableRecord
100
AcDbLinetypeTableRecord
  2
ByBlock
 70
     0
  3

 72
    65
 73
     0
 40
0.0
  0
LTYPE
  5
15
330
5
100
AcDbSymbolTableRecord
100
AcDbLinetypeTableRecord
  2
ByLayer
 70
     0
  3

 72
    65
 73
     0
 40
0.0
  0
LTYPE
  5
16
330
5
100
AcDbSymbolTableRecord
100
AcDbLinetypeTableRecord
  2
Continuous
 70
     0
  3
Solid line
 72
    65
 73
     0
 40
0.0
  0
LTYPE
  5
2DD
330
5
100
AcDbSymbolTableRecord
100
AcDbLinetypeTableRecord
  2
DASHDOT
 70
     0
  3
Dash dot __ . __ . __ . __ . __ . __ . __ . __
 72
    65
 73
     4
 40
25.4
 49
12.7
 74
     0
 49
-6.349999999999999
 74
     0
 49
0.0
 74
     0
 49
-6.349999999999999
 74
     0
  0
LTYPE
  5
2DE
330
5
100
AcDbSymbolTableRecord
100
AcDbLinetypeTableRecord
  2
HIDDEN
 70
     0
  3
Hidden __ __ __ __ __ __ __ __ __ __ __ __ __ _
 72
    65
 73
     2
 40
9.524999999999998
 49
6.349999999999999
 74
     0
 49
-3.174999999999999
 74
     0
  0
ENDTAB
  0
TABLE
  2
LAYER
  5
2
102
{ACAD_XDICTIONARY
360
2EE
102
}
330
0
100
AcDbSymbolTable
 70
     9
  0
LAYER
  5
10
330
2
100
AcDbSymbolTableRecord
100
AcDbLayerTableRecord
  2
0
 70
     0
 62
     7
  6
Continuous
370
    -3
390
F
  0
LAYER
  5
2DF
330
2
100
AcDbSymbolTableRecord
100
AcDbLayerTableRecord
  2
1
 70
     0
 62
     1
  6
Continuous
370
    -3
390
F
  0
LAYER
  5
2E0
330
2
100
AcDbSymbolTableRecord
100
AcDbLayerTableRecord
  2
4
 70
     0
 62
     4
  6
Continuous
370
    -3
390
F
  0
LAYER
  5
2E1
330
2
100
AcDbSymbolTableRecord
100
AcDbLayerTableRecord
  2
cen
 70
     0
 62
     7
  6
DASHDOT
370
    -3
390
F
  0
LAYER
  5
2E2
330
2
100
AcDbSymbolTableRecord
100
AcDbLayerTableRecord
  2
9
 70
     0
 62
     9
  6
Continuous
370
    -3
390
F
  0
LAYER
  5
2E3
330
2
100
AcDbSymbolTableRecord
100
AcDbLayerTableRecord
  2
cotas
 70
     0
 62
     1
  6
Continuous
370
    -3
390
F
  0
LAYER
  5
2E4
330
2
100
AcDbSymbolTableRecord
100
AcDbLayerTableRecord
  2
Defpoints
 70
     0
 62
     7
  6
Continuous
290
     0
370
    -3
390
F
  0
LAYER
  5
2E5
330
2
100
AcDbSymbolTableRecord
100
AcDbLayerTableRecord
  2
SANINDUSA
 70
     0
 62
     3
  6
Continuous
370
    -3
390
F
  0
LAYER
  5
2E6
330
2
100
AcDbSymbolTableRecord
100
AcDbLayerTableRecord
  2
hid1
 70
     0
 62
     9
  6
HIDDEN
370
    -3
390
F
1001
AcAecLayerStandard
1000

1000

  0
ENDTAB
  0
TABLE
  2
STYLE
  5
3
330
0
100
AcDbSymbolTable
 70
     2
  0
STYLE
  5
11
330
3
100
AcDbSymbolTableRecord
100
AcDbTextStyleTableRecord
  2
Standard
 70
     0
 40
0.0
 41
1.0
 50
0.0
 71
     0
 42
2.5
  3
txt
  4

  0
STYLE
  5
2E7
330
3
100
AcDbSymbolTableRecord
100
AcDbTextStyleTableRecord
  2
SANINDUSA
 70
     0
 40
0.0
 41
1.0
 50
0.0
 71
     0
 42
2.5
  3
verdana.TTF
  4

1001
ACAD
1000
Verdana
1071
       34
  0
ENDTAB
  0
TABLE
  2
VIEW
  5
6
330
0
100
AcDbSymbolTable
 70
     0
  0
ENDTAB
  0
TABLE
  2
UCS
  5
7
330
0
100
AcDbSymbolTable
 70
     0
  0
ENDTAB
  0
TABLE
  2
APPID
  5
9
330
0
100
AcDbSymbolTable
 70
     6
  0
APPID
  5
12
330
9
100
AcDbSymbolTableRecord
100
AcDbRegAppTableRecord
  2
ACAD
 70
     0
  0
APPID
  5
2E9
330
9
100
AcDbSymbolTableRecord
100
AcDbRegAppTableRecord
  2
ACAD_DSTYLE_DIMEXT_LENGTH
 70
     0
  0
APPID
  5
2EA
330
9
100
AcDbSymbolTableRecord
100
AcDbRegAppTableRecord
  2
ACAD_DSTYLE_DIMEXT_ENABLED
 70
     0
  0
APPID
  5
2EB
330
9
100
AcDbSymbolTableRecord
100
AcDbRegAppTableRecord
  2
ACAD_DSTYLE_DIMJOGGED_JOGANGLE_SYMBOL
 70
     0
  0
APPID
  5
2EC
330
9
100
AcDbSymbolTableRecord
100
AcDbRegAppTableRecord
  2
ACAD_DSTYLE_DIMARC_LENGTH_SYMBOL
 70
     0
  0
APPID
  5
2ED
330
9
100
AcDbSymbolTableRecord
100
AcDbRegAppTableRecord
  2
AcAecLayerStandard
 70
     0
  0
ENDTAB
  0
TABLE
  2
DIMSTYLE
  5
A
330
0
100
AcDbSymbolTable
 70
     2
100
AcDbDimStyleTable
 71
     0
  0
DIMSTYLE
105
2B
330
A
100
AcDbSymbolTableRecord
100
AcDbDimStyleTableRecord
  2
ISO-25
 70
     0
 41
2.5
 42
0.625
 43
3.75
 44
1.25
 73
     0
 74
     0
 77
     1
 78
     8
140
2.5
141
2.5
143
0.03937007874016
147
0.625
171
     3
172
     1
271
     2
272
     2
274
     3
278
    44
283
     0
284
     8
340
11
  0
DIMSTYLE
105
2E8
102
{ACAD_REACTORS
330
788
330
78B
330
6E2
330
6E5
330
6E6
330
6E7
330
6E8
330
6F9
330
6FC
330
6FF
330
702
330
703
330
706
330
709
330
70A
330
70B
330
70C
330
70D
330
70E
330
70F
330
711
330
713
330
716
330
719
330
71A
330
71B
330
720
330
723
330
724
330
725
330
726
330
727
330
728
330
736
330
73F
330
742
330
745
330
748
330
749
330
74A
330
74D
330
74E
330
74F
330
750
330
751
330
752
330
753
330
754
330
755
330
756
330
757
330
758
330
759
330
75A
330
75B
330
75C
330
75D
330
75E
330
75F
330
760
330
784
330
7A1
102
}
330
A
100
AcDbSymbolTableRecord
100
AcDbDimStyleTableRecord
  2
SANINDUSA
 70
     0
 40
5.0
 41
2.0
 42
1.0
 43
1.0
 44
1.0
 73
     0
 74
     0
 77
     1
 78
     8
140
2.0
141
0.0
143
0.03937007874016
147
1.0
171
     3
172
     1
176
   256
177
   256
178
   256
179
     1
271
     1
272
     1
274
     3
278
    44
283
     0
284
     8
340
2E7
371
    -1
372
    -1
1001
ACAD_DSTYLE_DIMEXT_LENGTH
1070
   378
1040
1.0
1001
ACAD_DSTYLE_DIMEXT_ENABLED
1070
   383
1070
     0
1001
ACAD_DSTYLE_DIMARC_LENGTH_SYMBOL
1070
   379
1070
     0
1001
ACAD_DSTYLE_DIMJOGGED_JOGANGLE_SYMBOL
1070
   384
1040
1.570796326794896
  0
ENDTAB
  0
TABLE
  2
BLOCK_RECORD
  5
1
330
0
100
AcDbSymbolTable
 70
   126
  0
BLOCK_RECORD
  5
23
330
1
100
AcDbSymbolTableRecord
100
AcDbBlockTableRecord
  2
*Model_Space
340
26
  0
BLOCK_RECORD
  5
1F
330
1
100
AcDbSymbolTableRecord
100
AcDbBlockTableRecord
  2
*Paper_Space
340
22
  0
BLOCK_RECORD
  5
27
330
1
100
AcDbSymbolTableRecord
100
AcDbBlockTableRecord
  2
*Paper_Space0
340
2A
  0
BLOCK_RECORD
  5
2F
330
1
100
AcDbSymbolTableRecord
100
AcDbBlockTableRecord
  2
*D1
340
0
  0
BLOCK_RECORD
  5
37
330
1
100
AcDbSymbolTableRecord
100
AcDbBlockTableRecord
  2
*D2
340
0
  0
BLOCK_RECORD
  5
3F
330
1
100
AcDbSymbolTableRecord
100
AcDbBlockTableRecord
  2
*D3
340
0
  0
BLOCK_RECORD
  5
4C
330
1
100
AcDbSymbolTableRecord
100
AcDbBlockTableRecord
  2
*D4
340
0
  0
BLOCK_RECORD
  5
59
330
1
100
AcDbSymbolTableRecord
100
AcDbBlockTableRecord
  2
*D5
340
0
  0
BLOCK_RECORD
  5
65
330
1
100
AcDbSymbolTableRecord
100
AcDbBlockTableRecord
  2
*D6
340
0
  0
BLOCK_RECORD
  5
71
330
1
100
AcDbSymbolTableRecord
100
AcDbBlockTableRecord
  2
*D7
340
0
  0
BLOCK_RECORD
  5
7D
330
1
100
AcDbSymbolTableRecord
100
AcDbBlockTableRecord
  2
*D8
340
0
  0
BLOCK_RECORD
  5
86
330
1
100
AcDbSymbolTableRecord
100
AcDbBlockTableRecord
  2
*D9
340
0
  0
BLOCK_RECORD
  5
8F
330
1
100
AcDbSymbolTableRecord
100
AcDbBlockTableRecord
  2
*D10
340
0
  0
BLOCK_RECORD
  5
97
330
1
100
AcDbSymbolTableRecord
100
AcDbBlockTableRecord
  2
*D11
340
0
  0
BLOCK_RECORD
  5
A0
330
1
100
AcDbSymbolTableRecord
100
AcDbBlockTableRecord
  2
*D12
340
0
  0
BLOCK_RECORD
  5
A8
330
1
100
AcDbSymbolTableRecord
100
AcDbBlockTableRecord
  2
*D13
340
0
  0
BLOCK_RECORD
  5
B4
330
1
100
AcDbSymbolTableRecord
100
AcDbBlockTableRecord
  2
*D14
340
0
  0
BLOCK_RECORD
  5
C0
330
1
100
AcDbSymbolTableRecord
100
AcDbBlockTableRecord
  2
*D15
340
0
  0
BLOCK_RECORD
  5
C9
330
1
100
AcDbSymbolTableRecord
100
AcDbBlockTableRecord
  2
*D16
340
0
  0
BLOCK_RECORD
  5
D5
330
1
100
AcDbSymbolTableRecord
100
AcDbBlockTableRecord
  2
*D17
340
0
  0
BLOCK_RECORD
  5
E1
330
1
100
AcDbSymbolTableRecord
100
AcDbBlockTableRecord
  2
*D18
340
0
  0
BLOCK_RECORD
  5
E9
330
1
100
AcDbSymbolTableRecord
100
AcDbBlockTableRecord
  2
*D19
340
0
  0
BLOCK_RECORD
  5
F1
330
1
100
AcDbSymbolTableRecord
100
AcDbBlockTableRecord
  2
*D20
340
0
  0
BLOCK_RECORD
  5
FE
330
1
100
AcDbSymbolTableRecord
100
AcDbBlockTableRecord
  2
*D21
340
0
  0
BLOCK_RECORD
  5
10B
330
1
100
AcDbSymbolTableRecord
100
AcDbBlockTableRecord
  2
*D22
340
0
  0
BLOCK_RECORD
  5
117
330
1
100
AcDbSymbolTableRecord
100
AcDbBlockTableRecord
  2
*D23
340
0
  0
BLOCK_RECORD
  5
123
330
1
100
AcDbSymbolTableRecord
100
AcDbBlockTableRecord
  2
*D24
340
0
  0
BLOCK_RECORD
  5
12F
330
1
100
AcDbSymbolTableRecord
100
AcDbBlockTableRecord
  2
*D25
340
0
  0
BLOCK_RECORD
  5
13B
330
1
100
AcDbSymbolTableRecord
100
AcDbBlockTableRecord
  2
*D26
340
0
  0
BLOCK_RECORD
  5
147
330
1
100
AcDbSymbolTableRecord
100
AcDbBlockTableRecord
  2
*D27
340
0
  0
BLOCK_RECORD
  5
153
330
1
100
AcDbSymbolTableRecord
100
AcDbBlockTableRecord
  2
*D28
340
0
  0
BLOCK_RECORD
  5
15F
330
1
100
AcDbSymbolTableRecord
100
AcDbBlockTableRecord
  2
*D29
340
0
  0
BLOCK_RECORD
  5
16B
330
1
100
AcDbSymbolTableRecord
100
AcDbBlockTableRecord
  2
*D30
340
0
  0
BLOCK_RECORD
  5
177
330
1
100
AcDbSymbolTableRecord
100
AcDbBlockTableRecord
  2
*D31
340
0
  0
BLOCK_RECORD
  5
183
330
1
100
AcDbSymbolTableRecord
100
AcDbBlockTableRecord
  2
*D32
340
0
  0
BLOCK_RECORD
  5
18F
330
1
100
AcDbSymbolTableRecord
100
AcDbBlockTableRecord
  2
*D33
340
0
  0
BLOCK_RECORD
  5
19B
330
1
100
AcDbSymbolTableRecord
100
AcDbBlockTableRecord
  2
*D34
340
0
  0
BLOCK_RECORD
  5
1A7
330
1
100
AcDbSymbolTableRecord
100
AcDbBlockTableRecord
  2
*D35
340
0
  0
BLOCK_RECORD
  5
1B3
330
1
100
AcDbSymbolTableRecord
100
AcDbBlockTableRecord
  2
*D36
340
0
  0
BLOCK_RECORD
  5
1BC
330
1
100
AcDbSymbolTableRecord
100
AcDbBlockTableRecord
  2
*D37
340
0
  0
BLOCK_RECORD
  5
1C4
330
1
100
AcDbSymbolTableRecord
100
AcDbBlockTableRecord
  2
*D38
340
0
  0
BLOCK_RECORD
  5
1CC
330
1
100
AcDbSymbolTableRecord
100
AcDbBlockTableRecord
  2
*D39
340
0
  0
BLOCK_RECORD
  5
1D5
330
1
100
AcDbSymbolTableRecord
100
AcDbBlockTableRecord
  2
*D40
340
0
  0
BLOCK_RECORD
  5
1DD
330
1
100
AcDbSymbolTableRecord
100
AcDbBlockTableRecord
  2
*D41
340
0
  0
BLOCK_RECORD
  5
1E6
330
1
100
AcDbSymbolTableRecord
100
AcDbBlockTableRecord
  2
*D42
340
0
  0
BLOCK_RECORD
  5
1EF
330
1
100
AcDbSymbolTableRecord
100
AcDbBlockTableRecord
  2
*D43
340
0
  0
BLOCK_RECORD
  5
1F8
330
1
100
AcDbSymbolTableRecord
100
AcDbBlockTableRecord
  2
*D44
340
0
  0
BLOCK_RECORD
  5
203
330
1
100
AcDbSymbolTableRecord
100
AcDbBlockTableRecord
  2
*D45
340
0
  0
BLOCK_RECORD
  5
20F
330
1
100
AcDbSymbolTableRecord
100
AcDbBlockTableRecord
  2
*D46
340
0
  0
BLOCK_RECORD
  5
21B
330
1
100
AcDbSymbolTableRecord
100
AcDbBlockTableRecord
  2
*D47
340
0
  0
BLOCK_RECORD
  5
227
330
1
100
AcDbSymbolTableRecord
100
AcDbBlockTableRecord
  2
*D48
340
0
  0
BLOCK_RECORD
  5
233
330
1
100
AcDbSymbolTableRecord
100
AcDbBlockTableRecord
  2
*D49
340
0
  0
BLOCK_RECORD
  5
240
330
1
100
AcDbSymbolTableRecord
100
AcDbBlockTableRecord
  2
*D50
340
0
  0
BLOCK_RECORD
  5
24C
330
1
100
AcDbSymbolTableRecord
100
AcDbBlockTableRecord
  2
*D51
340
0
  0
BLOCK_RECORD
  5
25A
330
1
100
AcDbSymbolTableRecord
100
AcDbBlockTableRecord
  2
*D52
340
0
  0
BLOCK_RECORD
  5
268
330
1
100
AcDbSymbolTableRecord
100
AcDbBlockTableRecord
  2
*D53
340
0
  0
BLOCK_RECORD
  5
274
330
1
100
AcDbSymbolTableRecord
100
AcDbBlockTableRecord
  2
*D54
340
0
  0
BLOCK_RECORD
  5
280
330
1
100
AcDbSymbolTableRecord
100
AcDbBlockTableRecord
  2
*D55
340
0
  0
BLOCK_RECORD
  5
28C
330
1
100
AcDbSymbolTableRecord
100
AcDbBlockTableRecord
  2
*D56
340
0
  0
BLOCK_RECORD
  5
298
330
1
100
AcDbSymbolTableRecord
100
AcDbBlockTableRecord
  2
*D57
340
0
  0
BLOCK_RECORD
  5
2A4
330
1
100
AcDbSymbolTableRecord
100
AcDbBlockTableRecord
  2
*D58
340
0
  0
BLOCK_RECORD
  5
2B0
330
1
100
AcDbSymbolTableRecord
100
AcDbBlockTableRecord
  2
*D59
340
0
  0
BLOCK_RECORD
  5
2BC
330
1
100
AcDbSymbolTableRecord
100
AcDbBlockTableRecord
  2
*D60
340
0
  0
BLOCK_RECORD
  5
2C8
330
1
100
AcDbSymbolTableRecord
100
AcDbBlockTableRecord
  2
*D61
340
0
  0
BLOCK_RECORD
  5
2D1
330
1
100
AcDbSymbolTableRecord
100
AcDbBlockTableRecord
  2
*D62
340
0
  0
BLOCK_RECORD
  5
C5D
330
1
100
AcDbSymbolTableRecord
100
AcDbBlockTableRecord
  2
*D64
340
0
  0
BLOCK_RECORD
  5
C65
330
1
100
AcDbSymbolTableRecord
100
AcDbBlockTableRecord
  2
*D65
340
0
  0
BLOCK_RECORD
  5
C6D
330
1
100
AcDbSymbolTableRecord
100
AcDbBlockTableRecord
  2
*D66
340
0
  0
BLOCK_RECORD
  5
C7A
330
1
100
AcDbSymbolTableRecord
100
AcDbBlockTableRecord
  2
*D67
340
0
  0
BLOCK_RECORD
  5
C87
330
1
100
AcDbSymbolTableRecord
100
AcDbBlockTableRecord
  2
*D68
340
0
  0
BLOCK_RECORD
  5
C93
330
1
100
AcDbSymbolTableRecord
100
AcDbBlockTableRecord
  2
*D69
340
0
  0
BLOCK_RECORD
  5
C9F
330
1
100
AcDbSymbolTableRecord
100
AcDbBlockTableRecord
  2
*D70
340
0
  0
BLOCK_RECORD
  5
CAB
330
1
100
AcDbSymbolTableRecord
100
AcDbBlockTableRecord
  2
*D71
340
0
  0
BLOCK_RECORD
  5
CB4
330
1
100
AcDbSymbolTableRecord
100
AcDbBlockTableRecord
  2
*D72
340
0
  0
BLOCK_RECORD
  5
CBD
330
1
100
AcDbSymbolTableRecord
100
AcDbBlockTableRecord
  2
*D73
340
0
  0
BLOCK_RECORD
  5
CC5
330
1
100
AcDbSymbolTableRecord
100
AcDbBlockTableRecord
  2
*D74
340
0
  0
BLOCK_RECORD
  5
CCE
330
1
100
AcDbSymbolTableRecord
100
AcDbBlockTableRecord
  2
*D75
340
0
  0
BLOCK_RECORD
  5
CD6
330
1
100
AcDbSymbolTableRecord
100
AcDbBlockTableRecord
  2
*D76
340
0
  0
BLOCK_RECORD
  5
CE2
330
1
100
AcDbSymbolTableRecord
100
AcDbBlockTableRecord
  2
*D77
340
0
  0
BLOCK_RECORD
  5
CEE
330
1
100
AcDbSymbolTableRecord
100
AcDbBlockTableRecord
  2
*D78
340
0
  0
BLOCK_RECORD
  5
CF7
330
1
100
AcDbSymbolTableRecord
100
AcDbBlockTableRecord
  2
*D79
340
0
  0
BLOCK_RECORD
  5
D03
330
1
100
AcDbSymbolTableRecord
100
AcDbBlockTableRecord
  2
*D80
340
0
  0
BLOCK_RECORD
  5
D0F
330
1
100
AcDbSymbolTableRecord
100
AcDbBlockTableRecord
  2
*D81
340
0
  0
BLOCK_RECORD
  5
D17
330
1
100
AcDbSymbolTableRecord
100
AcDbBlockTableRecord
  2
*D82
340
0
  0
BLOCK_RECORD
  5
D1F
330
1
100
AcDbSymbolTableRecord
100
AcDbBlockTableRecord
  2
*D83
340
0
  0
BLOCK_RECORD
  5
D2C
330
1
100
AcDbSymbolTableRecord
100
AcDbBlockTableRecord
  2
*D84
340
0
  0
BLOCK_RECORD
  5
D39
330
1
100
AcDbSymbolTableRecord
100
AcDbBlockTableRecord
  2
*D85
340
0
  0
BLOCK_RECORD
  5
D45
330
1
100
AcDbSymbolTableRecord
100
AcDbBlockTableRecord
  2
*D86
340
0
  0
BLOCK_RECORD
  5
D51
330
1
100
AcDbSymbolTableRecord
100
AcDbBlockTableRecord
  2
*D87
340
0
  0
BLOCK_RECORD
  5
D5D
330
1
100
AcDbSymbolTableRecord
100
AcDbBlockTableRecord
  2
*D88
340
0
  0
BLOCK_RECORD
  5
D69
330
1
100
AcDbSymbolTableRecord
100
AcDbBlockTableRecord
  2
*D89
340
0
  0
BLOCK_RECORD
  5
D75
330
1
100
AcDbSymbolTableRecord
100
AcDbBlockTableRecord
  2
*D90
340
0
  0
BLOCK_RECORD
  5
D81
330
1
100
AcDbSymbolTableRecord
100
AcDbBlockTableRecord
  2
*D91
340
0
  0
BLOCK_RECORD
  5
D8D
330
1
100
AcDbSymbolTableRecord
100
AcDbBlockTableRecord
  2
*D92
340
0
  0
BLOCK_RECORD
  5
D99
330
1
100
AcDbSymbolTableRecord
100
AcDbBlockTableRecord
  2
*D93
340
0
  0
BLOCK_RECORD
  5
DA5
330
1
100
AcDbSymbolTableRecord
100
AcDbBlockTableRecord
  2
*D94
340
0
  0
BLOCK_RECORD
  5
DB1
330
1
100
AcDbSymbolTableRecord
100
AcDbBlockTableRecord
  2
*D95
340
0
  0
BLOCK_RECORD
  5
DBD
330
1
100
AcDbSymbolTableRecord
100
AcDbBlockTableRecord
  2
*D96
340
0
  0
BLOCK_RECORD
  5
DC9
330
1
100
AcDbSymbolTableRecord
100
AcDbBlockTableRecord
  2
*D97
340
0
  0
BLOCK_RECORD
  5
DD5
330
1
100
AcDbSymbolTableRecord
100
AcDbBlockTableRecord
  2
*D98
340
0
  0
BLOCK_RECORD
  5
DE1
330
1
100
AcDbSymbolTableRecord
100
AcDbBlockTableRecord
  2
*D99
340
0
  0
BLOCK_RECORD
  5
DED
330
1
100
AcDbSymbolTableRecord
100
AcDbBlockTableRecord
  2
*D100
340
0
  0
BLOCK_RECORD
  5
DF6
330
1
100
AcDbSymbolTableRecord
100
AcDbBlockTableRecord
  2
*D101
340
0
  0
BLOCK_RECORD
  5
DFE
330
1
100
AcDbSymbolTableRecord
100
AcDbBlockTableRecord
  2
*D102
340
0
  0
BLOCK_RECORD
  5
E06
330
1
100
AcDbSymbolTableRecord
100
AcDbBlockTableRecord
  2
*D103
340
0
  0
BLOCK_RECORD
  5
E0F
330
1
100
AcDbSymbolTableRecord
100
AcDbBlockTableRecord
  2
*D104
340
0
  0
BLOCK_RECORD
  5
E17
330
1
100
AcDbSymbolTableRecord
100
AcDbBlockTableRecord
  2
*D105
340
0
  0
BLOCK_RECORD
  5
E20
330
1
100
AcDbSymbolTableRecord
100
AcDbBlockTableRecord
  2
*D106
340
0
  0
BLOCK_RECORD
  5
E29
330
1
100
AcDbSymbolTableRecord
100
AcDbBlockTableRecord
  2
*D107
340
0
  0
BLOCK_RECORD
  5
E32
330
1
100
AcDbSymbolTableRecord
100
AcDbBlockTableRecord
  2
*D108
340
0
  0
BLOCK_RECORD
  5
E3D
330
1
100
AcDbSymbolTableRecord
100
AcDbBlockTableRecord
  2
*D109
340
0
  0
BLOCK_RECORD
  5
E67
330
1
100
AcDbSymbolTableRecord
100
AcDbBlockTableRecord
  2
*D110
340
0
  0
BLOCK_RECORD
  5
E73
330
1
100
AcDbSymbolTableRecord
100
AcDbBlockTableRecord
  2
*D111
340
0
  0
BLOCK_RECORD
  5
E80
330
1
100
AcDbSymbolTableRecord
100
AcDbBlockTableRecord
  2
*D112
340
0
  0
BLOCK_RECORD
  5
E95
330
1
100
AcDbSymbolTableRecord
100
AcDbBlockTableRecord
  2
*D113
340
0
  0
BLOCK_RECORD
  5
EA3
330
1
100
AcDbSymbolTableRecord
100
AcDbBlockTableRecord
  2
*D114
340
0
  0
BLOCK_RECORD
  5
EE8
330
1
100
AcDbSymbolTableRecord
100
AcDbBlockTableRecord
  2
*D115
340
0
  0
BLOCK_RECORD
  5
EF4
330
1
100
AcDbSymbolTableRecord
100
AcDbBlockTableRecord
  2
*D116
340
0
  0
BLOCK_RECORD
  5
F18
330
1
100
AcDbSymbolTableRecord
100
AcDbBlockTableRecord
  2
*D117
340
0
  0
BLOCK_RECORD
  5
F5D
330
1
100
AcDbSymbolTableRecord
100
AcDbBlockTableRecord
  2
*D118
340
0
  0
BLOCK_RECORD
  5
F69
330
1
100
AcDbSymbolTableRecord
100
AcDbBlockTableRecord
  2
*D119
340
0
  0
BLOCK_RECORD
  5
F75
330
1
100
AcDbSymbolTableRecord
100
AcDbBlockTableRecord
  2
*D120
340
0
  0
BLOCK_RECORD
  5
F93
330
1
100
AcDbSymbolTableRecord
100
AcDbBlockTableRecord
  2
*D121
340
0
  0
BLOCK_RECORD
  5
102F
330
1
100
AcDbSymbolTableRecord
100
AcDbBlockTableRecord
  2
*D122
340
0
  0
BLOCK_RECORD
  5
1040
330
1
100
AcDbSymbolTableRecord
100
AcDbBlockTableRecord
  2
*D123
340
0
  0
BLOCK_RECORD
  5
104C
330
1
100
AcDbSymbolTableRecord
100
AcDbBlockTableRecord
  2
*D124
340
0
  0
BLOCK_RECORD
  5
1058
330
1
100
AcDbSymbolTableRecord
100
AcDbBlockTableRecord
  2
*D125
340
0
  0
ENDTAB
  0
ENDSEC
  0
SECTION
  2
BLOCKS
  0
BLOCK
  5
24
330
23
100
AcDbEntity
  8
0
100
AcDbBlockBegin
  2
*Model_Space
 70
     0
 10
0.0
 20
0.0
 30
0.0
  3
*Model_Space
  1

  0
ENDBLK
  5
25
330
23
100
AcDbEntity
  8
0
100
AcDbBlockEnd
  0
BLOCK
  5
20
330
1F
100
AcDbEntity
 67
     1
  8
0
100
AcDbBlockBegin
  2
*Paper_Space
 70
     0
 10
0.0
 20
0.0
 30
0.0
  3
*Paper_Space
  1

  0
ENDBLK
  5
21
330
1F
100
AcDbEntity
 67
     1
  8
0
100
AcDbBlockEnd
  0
BLOCK
  5
28
330
27
100
AcDbEntity
 67
     1
  8
0
100
AcDbBlockBegin
  2
*Paper_Space0
 70
     0
 10
0.0
 20
0.0
 30
0.0
  3
*Paper_Space0
  1

  0
ENDBLK
  5
29
330
27
100
AcDbEntity
 67
     1
  8
0
100
AcDbBlockEnd
  0
BLOCK
  5
30
330
2F
100
AcDbEntity
  8
0
100
AcDbBlockBegin
  2
*D1
 70
     1
 10
0.0
 20
0.0
 30
0.0
  3
*D1
  1

  0
LINE
  5
31
330
2F
100
AcDbEntity
  8
cotas
100
AcDbLine
 10
3811.628967877844
 20
3660.259838638836
 30
0.0
 11
3787.612319987341
 21
3687.209235849766
 31
0.0
  0
MTEXT
  5
32
330
2F
100
AcDbEntity
  8
cotas
100
AcDbMText
 10
3810.412838686369
 20
3676.654902357868
 30
0.0
 40
10.0
 41
0.0
 71
     5
 72
     1
  1
R7
  7
SANINDUSA
 11
0.6653169992364418
 21
-0.7465609757595268
 31
0.0
 73
     1
 44
1.0
1001
ACAD
1000
MTEXTBEGIN
1070
    73
1070
     1
1070
    44
1040
1.0
1070
    74
1070
     0
1000
MTEXTEND
  0
SOLID
  5
33
330
2F
100
AcDbEntity
  8
cotas
100
AcDbTrace
 10
3788.856588280273
 20
3688.318097515161
 30
0.0
 11
3786.368051694408
 21
3686.100374184372
 31
0.0
 12
3780.959149994976
 22
3694.674845607361
 32
0.0
 13
3780.959149994976
 23
3694.674845607361
 33
0.0
  0
POINT
  5
34
330
2F
100
AcDbEntity
  8
Defpoints
 62
     0
100
AcDbPoint
 10
3780.959149994976
 20
3694.674845607361
 30
0.0
  0
POINT
  5
35
330
2F
100
AcDbEntity
  8
Defpoints
 62
     0
100
AcDbPoint
 10
3785.616368989629
 20
3689.448918777047
 30
0.0
  0
ENDBLK
  5
36
330
2F
100
AcDbEntity
  8
0
100
AcDbBlockEnd
  0
BLOCK
  5
38
330
37
100
AcDbEntity
  8
0
100
AcDbBlockBegin
  2
*D2
 70
     1
 10
0.0
 20
0.0
 30
0.0
  3
*D2
  1

  0
LINE
  5
39
330
37
100
AcDbEntity
  8
cotas
100
AcDbLine
 10
4641.827732444839
 20
3664.412859676059
 30
0.0
 11
4669.554333330963
 21
3687.527897838069
 31
0.0
  0
MTEXT
  5
3A
330
37
100
AcDbEntity
  8
cotas
100
AcDbMText
 10
4645.447173132933
 20
3680.449590442235
 30
0.0
 40
10.0
 41
0.0
 71
     5
 72
     1
  1
R7
  7
SANINDUSA
 11
0.7680913250125986
 21
0.6403403129902029
 31
0.0
 73
     1
 44
1.0
1001
ACAD
1000
MTEXTBEGIN
1070
    73
1070
     1
1070
    44
1040
1.0
1070
    74
1070
     0
1000
MTEXTEND
  0
SOLID
  5
3B
330
37
100
AcDbEntity
  8
cotas
100
AcDbTrace
 10
4668.48709947598
 20
3688.808050046424
 30
0.0
 11
4670.621567185947
 21
3686.247745629715
 31
0.0
 12
4677.23524658109
 22
3693.931300967971
 32
0.0
 13
4677.23524658109
 23
3693.931300967971
 33
0.0
  0
POINT
  5
3C
330
37
100
AcDbEntity
  8
Defpoints
 62
     0
100
AcDbPoint
 10
4677.23524658109
 20
3693.931300967971
 30
0.0
  0
POINT
  5
3D
330
37
100
AcDbEntity
  8
Defpoints
 62
     0
100
AcDbPoint
 10
4671.858607306002
 20
3689.44891877704
 30
0.0
  0
ENDBLK
  5
3E
330
37
100
AcDbEntity
  8
0
100
AcDbBlockEnd
  0
BLOCK
  5
40
330
3F
100
AcDbEntity
  8
0
100
AcDbBlockBegin
  2
*D3
 70
     1
 10
0.0
 20
0.0
 30
0.0
  3
*D3
  1

  0
LINE
  5
41
330
3F
100
AcDbEntity
  8
cotas
100
AcDbLine
 10
4679.522932489235
 20
3651.449681148937
 30
0.0
 11
4680.049659041368
 21
3621.272617783126
 31
0.0
  0
ARC
  5
42
330
3F
100
AcDbEntity
  8
cotas
100
AcDbCircle
 10
4678.737491805457
 20
3696.44891877704
 30
0.0
 40
70.18775175507371
100
AcDbArc
 50
188.17013648039
 51
262.8298330588087
  0
SOLID
  5
43
330
3F
100
AcDbEntity
  8
cotas
100
AcDbTrace
 10
4607.599682752123
 20
3686.35559579064
 30
0.0
 11
4610.924547358431
 21
3686.593054125605
 31
0.0
 12
4608.549740050384
 22
3696.448918777041
 32
0.0
 13
4608.549740050384
 23
3696.448918777041
 33
0.0
  0
SOLID
  5
44
330
3F
100
AcDbEntity
  8
cotas
100
AcDbTrace
 10
4670.066591180028
 20
3628.474298624023
 30
0.0
 11
4669.887194130008
 21
3625.145796286702
 31
0.0
 12
4679.962399666983
 22
3626.2718563053
 32
0.0
 13
4679.962399666983
 23
3626.2718563053
 33
0.0
  0
MTEXT
  5
45
330
3F
100
AcDbEntity
  8
cotas
100
AcDbMText
 10
4637.492777496044
 20
3654.478014891629
 30
0.0
 40
10.0
 41
0.0
 71
     5
 72
     1
  1
91,0°
  7
SANINDUSA
 11
0.7132502628380123
 21
-0.7009094538965118
 31
0.0
 73
     1
 44
1.0
1001
ACAD
1000
MTEXTBEGIN
1070
    73
1070
     1
1070
    44
1040
1.0
1070
    74
1070
     0
1000
MTEXTEND
  0
POINT
  5
46
330
3F
100
AcDbEntity
  8
Defpoints
 62
     0
100
AcDbPoint
 10
4618.158304874071
 20
3661.002020363156
 30
0.0
  0
POINT
  5
47
330
3F
100
AcDbEntity
  8
Defpoints
 62
     0
100
AcDbPoint
 10
3785.616368931725
 20
3696.448918777041
 30
0.0
  0
POINT
  5
48
330
3F
100
AcDbEntity
  8
Defpoints
 62
     0
100
AcDbPoint
 10
4678.85754115404
 20
3689.571086656043
 30
0.0
  0
POINT
  5
49
330
3F
100
AcDbEntity
  8
Defpoints
 62
     0
100
AcDbPoint
 10
4679.43567311485
 20
3656.44891967111
 30
0.0
  0
POINT
  5
4A
330
3F
100
AcDbEntity
  8
Defpoints
 62
     0
100
AcDbPoint
 10
4671.858611461713
 20
3696.44891877704
 30
0.0
  0
ENDBLK
  5
4B
330
3F
100
AcDbEntity
  8
0
100
AcDbBlockEnd
  0
BLOCK
  5
4D
330
4C
100
AcDbEntity
  8
0
100
AcDbBlockBegin
  2
*D4
 70
     1
 10
0.0
 20
0.0
 30
0.0
  3
*D4
  1

  0
LINE
  5
4E
330
4C
100
AcDbEntity
  8
cotas
100
AcDbLine
 10
3777.95202353507
 20
3651.449681195326
 30
0.0
 11
3777.326339684157
 21
3615.604277331638
 31
0.0
  0
ARC
  5
4F
330
4C
100
AcDbEntity
  8
cotas
100
AcDbCircle
 10
3778.737488147642
 20
3696.44891877704
 30
0.0
 40
75.85695635145945
100
AcDbArc
 50
276.5586144526251
 51
352.4413855488219
  0
SOLID
  5
50
330
4C
100
AcDbEntity
  8
cotas
100
AcDbTrace
 10
3787.482653930556
 20
3619.423700024056
 30
0.0
 11
3787.321023794657
 21
3622.753112406186
 31
0.0
 12
3777.413601716216
 22
3620.603515807423
 32
0.0
 13
3777.413601716216
 23
3620.603515807423
 33
0.0
  0
SOLID
  5
51
330
4C
100
AcDbEntity
  8
cotas
100
AcDbTrace
 10
3852.272266937701
 20
3686.58052128043
 30
0.0
 11
3855.598351399381
 21
3686.360809503577
 31
0.0
 12
3854.594444499101
 22
3696.44891877704
 32
0.0
 13
3854.594444499101
 23
3696.44891877704
 33
0.0
  0
MTEXT
  5
52
330
4C
100
AcDbEntity
  8
cotas
100
AcDbMText
 10
3823.955789323721
 20
3650.434441203787
 30
0.0
 40
10.0
 41
0.0
 71
     5
 72
     1
  1
91,0°
  7
SANINDUSA
 11
0.7132504491453286
 21
0.70090926430886
 31
0.0
 73
     1
 44
1.0
1001
ACAD
1000
MTEXTBEGIN
1070
    73
1070
     1
1070
    44
1040
1.0
1070
    74
1070
     0
1000
MTEXTEND
  0
POINT
  5
53
330
4C
100
AcDbEntity
  8
Defpoints
 62
     0
100
AcDbPoint
 10
3815.899031122171
 20
3630.318006559988
 30
0.0
  0
POINT
  5
54
330
4C
100
AcDbEntity
  8
Defpoints
 62
     0
100
AcDbPoint
 10
3778.03928556713
 20
3656.44891967111
 30
0.0
  0
POINT
  5
55
330
4C
100
AcDbEntity
  8
Defpoints
 62
     0
100
AcDbPoint
 10
3785.616368931725
 20
3696.44891877704
 30
0.0
  0
POINT
  5
56
330
4C
100
AcDbEntity
  8
Defpoints
 62
     0
100
AcDbPoint
 10
4671.858611461713
 20
3696.44891877704
 30
0.0
  0
POINT
  5
57
330
4C
100
AcDbEntity
  8
Defpoints
 62
     0
100
AcDbPoint
 10
3778.617435125433
 20
3689.571085731085
 30
0.0
  0
ENDBLK
  5
58
330
4C
100
AcDbEntity
  8
0
100
AcDbBlockEnd
  0
BLOCK
  5
5A
330
59
100
AcDbEntity
  8
0
100
AcDbBlockBegin
  2
*D5
 70
     1
 10
0.0
 20
0.0
 30
0.0
  3
*D5
  1

  0
LINE
  5
5B
330
59
100
AcDbEntity
  8
cotas
100
AcDbLine
 10
5475.510924657454
 20
4516.041580029843
 30
0.0
 11
5524.99669033191
 21
4516.041580029843
 31
0.0
  0
LINE
  5
5C
330
59
100
AcDbEntity
  8
cotas
100
AcDbLine
 10
5713.172667593672
 20
4583.469817181431
 30
0.0
 11
5514.99669033191
 21
4583.469817181431
 31
0.0
  0
LINE
  5
5D
330
59
100
AcDbEntity
  8
cotas
100
AcDbLine
 10
5519.99669033191
 20
4526.041580029843
 30
0.0
 11
5519.99669033191
 21
4573.469817181432
 31
0.0
  0
SOLID
  5
5E
330
59
100
AcDbEntity
  8
cotas
100
AcDbTrace
 10
5518.330023665242
 20
4526.041580029843
 30
0.0
 11
5521.663356998577
 21
4526.041580029843
 31
0.0
 12
5519.99669033191
 22
4516.041580029843
 32
0.0
 13
5519.99669033191
 23
4516.041580029843
 33
0.0
  0
SOLID
  5
5F
330
59
100
AcDbEntity
  8
cotas
100
AcDbTrace
 10
5518.330023665242
 20
4573.469817181432
 30
0.0
 11
5521.663356998577
 21
4573.469817181432
 31
0.0
 12
5519.99669033191
 22
4583.469817181431
 32
0.0
 13
5519.99669033191
 23
4583.469817181431
 33
0.0
  0
MTEXT
  5
60
330
59
100
AcDbEntity
  8
cotas
100
AcDbMText
 10
5508.660222904105
 20
4549.755698605639
 30
0.0
 40
10.0
 41
0.0
 71
     5
 72
     1
  1
67,4
  7
SANINDUSA
 11
0.0000000000000001
 21
1.0
 31
0.0
 73
     1
 44
1.0
1001
ACAD
1000
MTEXTBEGIN
1070
    73
1070
     1
1070
    44
1040
1.0
1070
    74
1070
     0
1000
MTEXTEND
  0
POINT
  5
61
330
59
100
AcDbEntity
  8
Defpoints
 62
     0
100
AcDbPoint
 10
5470.510924657453
 20
4516.041580029843
 30
0.0
  0
POINT
  5
62
330
59
100
AcDbEntity
  8
Defpoints
 62
     0
100
AcDbPoint
 10
5718.172667593672
 20
4583.469817181431
 30
0.0
  0
POINT
  5
63
330
59
100
AcDbEntity
  8
Defpoints
 62
     0
100
AcDbPoint
 10
5519.99669033191
 20
4583.469817181431
 30
0.0
  0
ENDBLK
  5
64
330
59
100
AcDbEntity
  8
0
100
AcDbBlockEnd
  0
BLOCK
  5
66
330
65
100
AcDbEntity
  8
0
100
AcDbBlockBegin
  2
*D6
 70
     1
 10
0.0
 20
0.0
 30
0.0
  3
*D6
  1

  0
LINE
  5
67
330
65
100
AcDbEntity
  8
cotas
100
AcDbLine
 10
4915.594692322902
 20
4525.64040365417
 30
0.0
 11
4782.489688640238
 21
4525.64040365417
 31
0.0
  0
LINE
  5
68
330
65
100
AcDbEntity
  8
cotas
100
AcDbLine
 10
4813.187891220747
 20
4585.215053742233
 30
0.0
 11
4782.489688640238
 21
4585.215053742233
 31
0.0
  0
LINE
  5
69
330
65
100
AcDbEntity
  8
cotas
100
AcDbLine
 10
4787.489688640238
 20
4535.640403654169
 30
0.0
 11
4787.489688640238
 21
4575.215053742232
 31
0.0
  0
SOLID
  5
6A
330
65
100
AcDbEntity
  8
cotas
100
AcDbTrace
 10
4785.823021973571
 20
4535.640403654169
 30
0.0
 11
4789.156355306904
 21
4535.640403654169
 31
0.0
 12
4787.489688640238
 22
4525.64040365417
 32
0.0
 13
4787.489688640238
 23
4525.64040365417
 33
0.0
  0
SOLID
  5
6B
330
65
100
AcDbEntity
  8
cotas
100
AcDbTrace
 10
4785.823021973571
 20
4575.215053742232
 30
0.0
 11
4789.156355306904
 21
4575.215053742232
 31
0.0
 12
4787.489688640238
 22
4585.215053742233
 32
0.0
 13
4787.489688640238
 23
4585.215053742233
 33
0.0
  0
MTEXT
  5
6C
330
65
100
AcDbEntity
  8
cotas
100
AcDbMText
 10
4776.146505295709
 20
4555.427728698202
 30
0.0
 40
10.0
 41
0.0
 71
     5
 72
     1
  1
59,6
  7
SANINDUSA
 11
0.0000000000000001
 21
1.0
 31
0.0
 73
     1
 44
1.0
1001
ACAD
1000
MTEXTBEGIN
1070
    73
1070
     1
1070
    44
1040
1.0
1070
    74
1070
     0
1000
MTEXTEND
  0
POINT
  5
6D
330
65
100
AcDbEntity
  8
Defpoints
 62
     0
100
AcDbPoint
 10
4920.594692322902
 20
4525.64040365417
 30
0.0
  0
POINT
  5
6E
330
65
100
AcDbEntity
  8
Defpoints
 62
     0
100
AcDbPoint
 10
4818.187891220746
 20
4585.215053742233
 30
0.0
  0
POINT
  5
6F
330
65
100
AcDbEntity
  8
Defpoints
 62
     0
100
AcDbPoint
 10
4787.489688640238
 20
4585.215053742233
 30
0.0
  0
ENDBLK
  5
70
330
65
100
AcDbEntity
  8
0
100
AcDbBlockEnd
  0
BLOCK
  5
72
330
71
100
AcDbEntity
  8
0
100
AcDbBlockBegin
  2
*D7
 70
     1
 10
0.0
 20
0.0
 30
0.0
  3
*D7
  1

  0
ARC
  5
73
330
71
100
AcDbEntity
  8
cotas
100
AcDbCircle
 10
4884.421705275332
 20
4581.315053742232
 30
0.0
 40
47.0142815802028
100
AcDbArc
 50
192.2099791823504
 51
259.7900208176404
  0
SOLID
  5
74
330
71
100
AcDbEntity
  8
cotas
100
AcDbTrace
 10
4836.813715844319
 20
4571.194515774039
 30
0.0
 11
4840.128144798911
 21
4571.549017982866
 31
0.0
 12
4837.407423695129
 22
4581.315053742233
 32
0.0
 13
4837.407423695129
 23
4581.315053742233
 33
0.0
  0
SOLID
  5
75
330
71
100
AcDbEntity
  8
cotas
100
AcDbTrace
 10
4876.207441688863
 20
4536.707645973304
 30
0.0
 11
4875.968827335573
 21
4533.382864130609
 31
0.0
 12
4886.062480040303
 22
4534.329411992085
 32
0.0
 13
4886.062480040303
 23
4534.329411992085
 33
0.0
  0
MTEXT
  5
76
330
71
100
AcDbEntity
  8
cotas
100
AcDbMText
 10
4859.644810936336
 20
4555.65782857262
 30
0.0
 40
10.0
 41
0.0
 71
     5
 72
     1
  1
92,0°
  7
SANINDUSA
 11
0.719339800338595
 21
-0.6946583704590556
 31
0.0
 73
     1
 44
1.0
1001
ACAD
1000
MTEXTBEGIN
1070
    73
1070
     1
1070
    44
1040
1.0
1070
    74
1070
     0
1000
MTEXTEND
  0
POINT
  5
77
330
71
100
AcDbEntity
  8
Defpoints
 62
     0
100
AcDbPoint
 10
4843.982411035206
 20
4557.335767809095
 30
0.0
  0
POINT
  5
78
330
71
100
AcDbEntity
  8
Defpoints
 62
     0
100
AcDbPoint
 10
4825.066772062735
 20
4581.315053742232
 30
0.0
  0
POINT
  5
79
330
71
100
AcDbEntity
  8
Defpoints
 62
     0
100
AcDbPoint
 10
4886.138624684807
 20
4532.148914665899
 30
0.0
  0
POINT
  5
7A
330
71
100
AcDbEntity
  8
Defpoints
 62
     0
100
AcDbPoint
 10
4884.526181637188
 20
4578.323242182013
 30
0.0
  0
POINT
  5
7B
330
71
100
AcDbEntity
  8
Defpoints
 62
     0
100
AcDbPoint
 10
4881.428070073433
 20
4581.315053742233
 30
0.0
  0
ENDBLK
  5
7C
330
71
100
AcDbEntity
  8
0
100
AcDbBlockEnd
  0
BLOCK
  5
7E
330
7D
100
AcDbEntity
  8
0
100
AcDbBlockBegin
  2
*D8
 70
     1
 10
0.0
 20
0.0
 30
0.0
  3
*D8
  1

  0
LINE
  5
7F
330
7D
100
AcDbEntity
  8
cotas
100
AcDbLine
 10
4854.074695964468
 20
4484.324540020058
 30
0.0
 11
4887.125572578458
 21
4514.630649958599
 31
0.0
  0
MTEXT
  5
80
330
7D
100
AcDbEntity
  8
cotas
100
AcDbMText
 10
4860.145148407685
 20
4503.481261848775
 30
0.0
 40
10.0
 41
0.0
 71
     5
 72
     1
  1
R17
  7
SANINDUSA
 11
0.7370489033732697
 21
0.6758394143850007
 31
0.0
 73
     1
 44
1.0
1001
ACAD
1000
MTEXTBEGIN
1070
    73
1070
     1
1070
    44
1040
1.0
1070
    74
1070
     0
1000
MTEXTEND
  0
LINE
  5
81
330
7D
100
AcDbEntity
  8
cotas
100
AcDbLine
 10
4907.025892969535
 20
4532.878314146993
 30
0.0
 11
4894.496061612191
 21
4521.389044102448
 31
0.0
  0
SOLID
  5
82
330
7D
100
AcDbEntity
  8
cotas
100
AcDbTrace
 10
4885.999173554484
 20
4515.859064797554
 30
0.0
 11
4888.251971602433
 21
4513.402235119643
 31
0.0
 12
4894.496061612191
 22
4521.389044102448
 32
0.0
 13
4894.496061612191
 23
4521.389044102448
 33
0.0
  0
POINT
  5
83
330
7D
100
AcDbEntity
  8
Defpoints
 62
     0
100
AcDbPoint
 10
4894.496061612191
 20
4521.389044102448
 30
0.0
  0
POINT
  5
84
330
7D
100
AcDbEntity
  8
Defpoints
 62
     0
100
AcDbPoint
 10
4907.025892969535
 20
4532.878314146993
 30
0.0
  0
ENDBLK
  5
85
330
7D
100
AcDbEntity
  8
0
100
AcDbBlockEnd
  0
BLOCK
  5
87
330
86
100
AcDbEntity
  8
0
100
AcDbBlockBegin
  2
*D9
 70
     1
 10
0.0
 20
0.0
 30
0.0
  3
*D9
  1

  0
LINE
  5
88
330
86
100
AcDbEntity
  8
cotas
100
AcDbLine
 10
4930.421282671773
 20
4463.870931917309
 30
0.0
 11
4917.233606575629
 21
4506.687910928422
 31
0.0
  0
MTEXT
  5
89
330
86
100
AcDbEntity
  8
cotas
100
AcDbMText
 10
4935.051942369309
 20
4483.504789876518
 30
0.0
 40
10.0
 41
0.0
 71
     5
 72
     1
  1
R10
  7
SANINDUSA
 11
0.294355414587867
 21
-0.9556960237977371
 31
0.0
 73
     1
 44
1.0
1001
ACAD
1000
MTEXTBEGIN
1070
    73
1070
     1
1070
    44
1040
1.0
1070
    74
1070
     0
1000
MTEXTEND
  0
LINE
  5
8A
330
86
100
AcDbEntity
  8
cotas
100
AcDbLine
 10
4911.346498283873
 20
4525.801831404372
 30
0.0
 11
4914.29005242975
 21
4516.2448711664
 31
0.0
  0
SOLID
  5
8B
330
86
100
AcDbEntity
  8
cotas
100
AcDbTrace
 10
4918.826433281958
 20
4507.178503286069
 30
0.0
 11
4915.640779869299
 21
4506.197318570776
 31
0.0
 12
4914.29005242975
 22
4516.2448711664
 32
0.0
 13
4914.29005242975
 23
4516.2448711664
 33
0.0
  0
POINT
  5
8C
330
86
100
AcDbEntity
  8
Defpoints
 62
     0
100
AcDbPoint
 10
4914.29005242975
 20
4516.2448711664
 30
0.0
  0
POINT
  5
8D
330
86
100
AcDbEntity
  8
Defpoints
 62
     0
100
AcDbPoint
 10
4911.346498283873
 20
4525.801831404372
 30
0.0
  0
ENDBLK
  5
8E
330
86
100
AcDbEntity
  8
0
100
AcDbBlockEnd
  0
BLOCK
  5
90
330
8F
100
AcDbEntity
  8
0
100
AcDbBlockBegin
  2
*D10
 70
     1
 10
0.0
 20
0.0
 30
0.0
  3
*D10
  1

  0
LINE
  5
91
330
8F
100
AcDbEntity
  8
cotas
100
AcDbLine
 10
4958.167188532089
 20
4485.158361560325
 30
0.0
 11
4928.771466462165
 21
4516.349307713416
 31
0.0
  0
MTEXT
  5
92
330
8F
100
AcDbEntity
  8
cotas
100
AcDbMText
 10
4956.49485984105
 20
4501.513189633729
 30
0.0
 40
10.0
 41
0.0
 71
     5
 72
     1
  1
R7
  7
SANINDUSA
 11
0.6858537116675882
 21
-0.7277394356442373
 31
0.0
 73
     1
 44
1.0
1001
ACAD
1000
MTEXTBEGIN
1070
    73
1070
     1
1070
    44
1040
1.0
1070
    74
1070
     0
1000
MTEXTEND
  0
SOLID
  5
93
330
8F
100
AcDbEntity
  8
cotas
100
AcDbTrace
 10
4929.984365521572
 20
4517.492397232863
 30
0.0
 11
4927.558567402757
 21
4515.206218193969
 31
0.0
 12
4921.912929345489
 22
4523.626702069859
 32
0.0
 13
4921.912929345489
 23
4523.626702069859
 33
0.0
  0
POINT
  5
94
330
8F
100
AcDbEntity
  8
Defpoints
 62
     0
100
AcDbPoint
 10
4921.912929345489
 20
4523.626702069859
 30
0.0
  0
POINT
  5
95
330
8F
100
AcDbEntity
  8
Defpoints
 62
     0
100
AcDbPoint
 10
4926.713905327162
 20
4518.532526020349
 30
0.0
  0
ENDBLK
  5
96
330
8F
100
AcDbEntity
  8
0
100
AcDbBlockEnd
  0
BLOCK
  5
98
330
97
100
AcDbEntity
  8
0
100
AcDbBlockBegin
  2
*D11
 70
     1
 10
0.0
 20
0.0
 30
0.0
  3
*D11
  1

  0
LINE
  5
99
330
97
100
AcDbEntity
  8
cotas
100
AcDbLine
 10
5454.481635004565
 20
4447.204146570614
 30
0.0
 11
5475.510332885626
 21
4486.809886179756
 31
0.0
  0
MTEXT
  5
9A
330
97
100
AcDbEntity
  8
cotas
100
AcDbMText
 10
5453.804157346401
 20
4467.288254918034
 30
0.0
 40
10.0
 41
0.0
 71
     5
 72
     1
  1
R17
  7
SANINDUSA
 11
0.4689490960746011
 21
0.8832251951177655
 31
0.0
 73
     1
 44
1.0
1001
ACAD
1000
MTEXTBEGIN
1070
    73
1070
     1
1070
    44
1040
1.0
1070
    74
1070
     0
1000
MTEXTEND
  0
LINE
  5
9B
330
97
100
AcDbEntity
  8
cotas
100
AcDbLine
 10
5488.173866113463
 20
4510.660559311784
 30
0.0
 11
5480.199823846373
 21
4495.642138130934
 31
0.0
  0
SOLID
  5
9C
330
97
100
AcDbEntity
  8
cotas
100
AcDbTrace
 10
5474.038290893765
 20
4487.591468006547
 30
0.0
 11
5476.98237487749
 21
4486.028304352966
 31
0.0
 12
5480.199823846373
 22
4495.642138130934
 32
0.0
 13
5480.199823846373
 23
4495.642138130934
 33
0.0
  0
POINT
  5
9D
330
97
100
AcDbEntity
  8
Defpoints
 62
     0
100
AcDbPoint
 10
5480.199823846373
 20
4495.642138130934
 30
0.0
  0
POINT
  5
9E
330
97
100
AcDbEntity
  8
Defpoints
 62
     0
100
AcDbPoint
 10
5488.173866113463
 20
4510.660559311784
 30
0.0
  0
ENDBLK
  5
9F
330
97
100
AcDbEntity
  8
0
100
AcDbBlockEnd
  0
BLOCK
  5
A1
330
A0
100
AcDbEntity
  8
0
100
AcDbBlockBegin
  2
*D12
 70
     1
 10
0.0
 20
0.0
 30
0.0
  3
*D12
  1

  0
LINE
  5
A2
330
A0
100
AcDbEntity
  8
cotas
100
AcDbLine
 10
5431.479931497256
 20
4476.833283415943
 30
0.0
 11
5462.082371783328
 21
4507.042801662591
 31
0.0
  0
MTEXT
  5
A3
330
A0
100
AcDbEntity
  8
cotas
100
AcDbMText
 10
5433.741177845441
 20
4493.117135832193
 30
0.0
 40
10.0
 41
0.0
 71
     5
 72
     1
  1
R7
  7
SANINDUSA
 11
0.7116607288362113
 21
0.702523314226875
 31
0.0
 73
     1
 44
1.0
1001
ACAD
1000
MTEXTBEGIN
1070
    73
1070
     1
1070
    44
1040
1.0
1070
    74
1070
     0
1000
MTEXTEND
  0
SOLID
  5
A4
330
A0
100
AcDbEntity
  8
cotas
100
AcDbTrace
 10
5460.911499592949
 20
4508.228902877318
 30
0.0
 11
5463.253243973706
 21
4505.856700447864
 31
0.0
 12
5469.198979071691
 22
4514.068034804861
 32
0.0
 13
5469.198979071691
 23
4514.068034804861
 33
0.0
  0
POINT
  5
A5
330
A0
100
AcDbEntity
  8
Defpoints
 62
     0
100
AcDbPoint
 10
5469.198979071691
 20
4514.068034804861
 30
0.0
  0
POINT
  5
A6
330
A0
100
AcDbEntity
  8
Defpoints
 62
     0
100
AcDbPoint
 10
5464.21736173101
 20
4509.150379266795
 30
0.0
  0
ENDBLK
  5
A7
330
A0
100
AcDbEntity
  8
0
100
AcDbBlockEnd
  0
BLOCK
  5
A9
330
A8
100
AcDbEntity
  8
0
100
AcDbBlockBegin
  2
*D13
 70
     1
 10
0.0
 20
0.0
 30
0.0
  3
*D13
  1

  0
ARC
  5
AA
330
A8
100
AcDbEntity
  8
cotas
100
AcDbCircle
 10
1507.567693441116
 20
4585.215053742233
 30
0.0
 40
3592.358038712393
100
AcDbArc
 50
359.1594928535918
 51
359.8405064378471
  0
SOLID
  5
AB
330
A8
100
AcDbEntity
  8
cotas
100
AcDbTrace
 10
5101.205657249089
 20
4532.491658987805
 30
0.0
 11
5097.872753857394
 21
4532.545194889251
 31
0.0
 12
5099.378597848901
 22
4522.519716763445
 32
0.0
 13
5099.378597848901
 23
4522.519716763445
 33
0.0
  0
SOLID
  5
AC
330
A8
100
AcDbEntity
  8
cotas
100
AcDbTrace
 10
5098.245148666718
 20
4575.217383167458
 30
0.0
 11
5101.578478771337
 21
4575.212743689298
 31
0.0
 12
5099.92573215351
 22
4585.215053742233
 32
0.0
 13
5099.92573215351
 23
4585.215053742233
 33
0.0
  0
MTEXT
  5
AD
330
A8
100
AcDbEntity
  8
cotas
100
AcDbMText
 10
5088.446194542905
 20
4553.96517834479
 30
0.0
 40
10.0
 41
0.0
 71
     5
 72
     1
  1
1,0°
  7
SANINDUSA
 11
0.0087265416814994
 21
0.9999619230102121
 31
0.0
 73
     1
 44
1.0
1001
ACAD
1000
MTEXTBEGIN
1070
    73
1070
     1
1070
    44
1040
1.0
1070
    74
1070
     0
1000
MTEXTEND
  0
POINT
  5
AE
330
A8
100
AcDbEntity
  8
Defpoints
 62
     0
100
AcDbPoint
 10
5099.682557922064
 20
4543.416983492898
 30
0.0
  0
POINT
  5
AF
330
A8
100
AcDbEntity
  8
Defpoints
 62
     0
100
AcDbPoint
 10
4908.411622280468
 20
4585.215053742233
 30
0.0
  0
POINT
  5
B0
330
A8
100
AcDbEntity
  8
Defpoints
 62
     0
100
AcDbPoint
 10
5176.383392212173
 20
4521.175592125465
 30
0.0
  0
POINT
  5
B1
330
A8
100
AcDbEntity
  8
Defpoints
 62
     0
100
AcDbPoint
 10
4926.836072258778
 20
4525.531459884938
 30
0.0
  0
POINT
  5
B2
330
A8
100
AcDbEntity
  8
Defpoints
 62
     0
100
AcDbPoint
 10
5927.964169053793
 20
4585.215053742233
 30
0.0
  0
ENDBLK
  5
B3
330
A8
100
AcDbEntity
  8
0
100
AcDbBlockEnd
  0
BLOCK
  5
B5
330
B4
100
AcDbEntity
  8
0
100
AcDbBlockBegin
  2
*D14
 70
     1
 10
0.0
 20
0.0
 30
0.0
  3
*D14
  1

  0
LINE
  5
B6
330
B4
100
AcDbEntity
  8
cotas
100
AcDbLine
 10
6338.187901949732
 20
4514.109732889624
 30
0.0
 11
6338.187901949732
 21
4650.210053697993
 31
0.0
  0
LINE
  5
B7
330
B4
100
AcDbEntity
  8
cotas
100
AcDbLine
 10
4818.187891220746
 20
4590.215053742233
 30
0.0
 11
4818.187891220746
 21
4650.210053697993
 31
0.0
  0
LINE
  5
B8
330
B4
100
AcDbEntity
  8
cotas
100
AcDbLine
 10
6328.187901949732
 20
4645.210053697993
 30
0.0
 11
4828.187891220746
 21
4645.210053697993
 31
0.0
  0
SOLID
  5
B9
330
B4
100
AcDbEntity
  8
cotas
100
AcDbTrace
 10
6328.187901949732
 20
4646.876720364661
 30
0.0
 11
6328.187901949732
 21
4643.543387031326
 31
0.0
 12
6338.187901949732
 22
4645.210053697993
 32
0.0
 13
6338.187901949732
 23
4645.210053697993
 33
0.0
  0
SOLID
  5
BA
330
B4
100
AcDbEntity
  8
cotas
100
AcDbTrace
 10
4828.187891220746
 20
4646.876720364661
 30
0.0
 11
4828.187891220746
 21
4643.543387031326
 31
0.0
 12
4818.187891220746
 22
4645.210053697993
 32
0.0
 13
4818.187891220746
 23
4645.210053697993
 33
0.0
  0
MTEXT
  5
BB
330
B4
100
AcDbEntity
  8
cotas
100
AcDbMText
 10
5578.187896585239
 20
4655.418247116394
 30
0.0
 40
10.0
 41
0.0
 71
     5
 72
     1
  1
1520
  7
SANINDUSA
 73
     1
 44
1.0
1001
ACAD
1000
MTEXTBEGIN
1070
    73
1070
     1
1070
    44
1040
1.0
1070
    74
1070
     0
1000
MTEXTEND
  0
POINT
  5
BC
330
B4
100
AcDbEntity
  8
Defpoints
 62
     0
100
AcDbPoint
 10
6338.187901949732
 20
4509.109732889624
 30
0.0
  0
POINT
  5
BD
330
B4
100
AcDbEntity
  8
Defpoints
 62
     0
100
AcDbPoint
 10
4818.187891220746
 20
4585.215053742233
 30
0.0
  0
POINT
  5
BE
330
B4
100
AcDbEntity
  8
Defpoints
 62
     0
100
AcDbPoint
 10
4818.187891220746
 20
4645.210053697993
 30
0.0
  0
ENDBLK
  5
BF
330
B4
100
AcDbEntity
  8
0
100
AcDbBlockEnd
  0
BLOCK
  5
C1
330
C0
100
AcDbEntity
  8
0
100
AcDbBlockBegin
  2
*D15
 70
     1
 10
0.0
 20
0.0
 30
0.0
  3
*D15
  1

  0
LINE
  5
C2
330
C0
100
AcDbEntity
  8
cotas
100
AcDbLine
 10
6477.992605492976
 20
4453.428483774938
 30
0.0
 11
6447.032031267449
 21
4485.867096386852
 31
0.0
  0
MTEXT
  5
C3
330
C0
100
AcDbEntity
  8
cotas
100
AcDbMText
 10
6473.210586797401
 20
4472.946749099588
 30
0.0
 40
10.0
 41
0.0
 71
     5
 72
     1
  1
R17
  7
SANINDUSA
 11
0.6904342522361932
 21
-0.7233951502042635
 31
0.0
 73
     1
 44
1.0
1001
ACAD
1000
MTEXTBEGIN
1070
    73
1070
     1
1070
    44
1040
1.0
1070
    74
1070
     0
1000
MTEXTEND
  0
LINE
  5
C4
330
C0
100
AcDbEntity
  8
cotas
100
AcDbLine
 10
6428.390401998196
 20
4505.39866534017
 30
0.0
 11
6440.127688745086
 21
4493.101047888894
 31
0.0
  0
SOLID
  5
C5
330
C0
100
AcDbEntity
  8
cotas
100
AcDbTrace
 10
6448.237689851122
 20
4487.017820140578
 30
0.0
 11
6445.826372683774
 21
4484.716372633124
 31
0.0
 12
6440.127688745086
 22
4493.101047888894
 32
0.0
 13
6440.127688745086
 23
4493.101047888894
 33
0.0
  0
POINT
  5
C6
330
C0
100
AcDbEntity
  8
Defpoints
 62
     0
100
AcDbPoint
 10
6440.127688745086
 20
4493.101047888894
 30
0.0
  0
POINT
  5
C7
330
C0
100
AcDbEntity
  8
Defpoints
 62
     0
100
AcDbPoint
 10
6428.390401998196
 20
4505.39866534017
 30
0.0
  0
ENDBLK
  5
C8
330
C0
100
AcDbEntity
  8
0
100
AcDbBlockEnd
  0
BLOCK
  5
CA
330
C9
100
AcDbEntity
  8
0
100
AcDbBlockBegin
  2
*D16
 70
     1
 10
0.0
 20
0.0
 30
0.0
  3
*D16
  1

  0
ARC
  5
CB
330
C9
100
AcDbEntity
  8
cotas
100
AcDbCircle
 10
6448.187902204151
 20
4585.215053742234
 30
0.0
 40
60.17204840949496
100
AcDbArc
 50
189.5329846044823
 51
258.466996383044
  0
SOLID
  5
CC
330
C9
100
AcDbEntity
  8
cotas
100
AcDbTrace
 10
6387.185901690346
 20
4575.11114572195
 30
0.0
 11
6390.507707107969
 21
4575.388129256785
 31
0.0
 12
6388.015853794655
 22
4585.215053742233
 32
0.0
 13
6388.015853794655
 23
4585.215053742233
 33
0.0
  0
SOLID
  5
CD
330
C9
100
AcDbEntity
  8
cotas
100
AcDbTrace
 10
6436.353935222455
 20
4527.912954507979
 30
0.0
 11
6435.961189982889
 21
4524.60283936075
 31
0.0
 12
6446.087908044358
 22
4525.079661215674
 32
0.0
 13
6446.087908044358
 23
4525.079661215674
 33
0.0
  0
MTEXT
  5
CE
330
C9
100
AcDbEntity
  8
cotas
100
AcDbMText
 10
6413.073012583751
 20
4551.305010266466
 30
0.0
 40
10.0
 41
0.0
 71
     5
 72
     1
  1
88,0°
  7
SANINDUSA
 11
0.694658251109633
 21
-0.7193399155929735
 31
0.0
 73
     1
 44
1.0
1001
ACAD
1000
MTEXTBEGIN
1070
    73
1070
     1
1070
    44
1040
1.0
1070
    74
1070
     0
1000
MTEXTEND
  0
POINT
  5
CF
330
C9
100
AcDbEntity
  8
Defpoints
 62
     0
100
AcDbPoint
 10
6395.730845000018
 20
4555.737391703376
 30
0.0
  0
POINT
  5
D0
330
C9
100
AcDbEntity
  8
Defpoints
 62
     0
100
AcDbPoint
 10
5408.411622280483
 20
4585.215053742234
 30
0.0
  0
POINT
  5
D1
330
C9
100
AcDbEntity
  8
Defpoints
 62
     0
100
AcDbPoint
 10
6445.379911637191
 20
4504.805489664379
 30
0.0
  0
POINT
  5
D2
330
C9
100
AcDbEntity
  8
Defpoints
 62
     0
100
AcDbPoint
 10
6447.95198567525
 20
4578.45935254055
 30
0.0
  0
POINT
  5
D3
330
C9
100
AcDbEntity
  8
Defpoints
 62
     0
100
AcDbPoint
 10
6427.964169053807
 20
4585.215053742233
 30
0.0
  0
ENDBLK
  5
D4
330
C9
100
AcDbEntity
  8
0
100
AcDbBlockEnd
  0
BLOCK
  5
D6
330
D5
100
AcDbEntity
  8
0
100
AcDbBlockBegin
  2
*D17
 70
     1
 10
0.0
 20
0.0
 30
0.0
  3
*D17
  1

  0
LINE
  5
D7
330
D5
100
AcDbEntity
  8
cotas
100
AcDbLine
 10
4813.187891220748
 20
3696.44891877704
 30
0.0
 11
4782.489688640238
 21
3696.44891877704
 31
0.0
  0
LINE
  5
D8
330
D5
100
AcDbEntity
  8
cotas
100
AcDbLine
 10
4811.000950803148
 20
3576.441457832048
 30
0.0
 11
4782.489688640238
 21
3576.441457832048
 31
0.0
  0
LINE
  5
D9
330
D5
100
AcDbEntity
  8
cotas
100
AcDbLine
 10
4787.489688640238
 20
3686.448918777041
 30
0.0
 11
4787.489688640238
 21
3586.441457832048
 31
0.0
  0
SOLID
  5
DA
330
D5
100
AcDbEntity
  8
cotas
100
AcDbTrace
 10
4785.823021973571
 20
3686.448918777041
 30
0.0
 11
4789.156355306904
 21
3686.448918777041
 31
0.0
 12
4787.489688640238
 22
3696.44891877704
 32
0.0
 13
4787.489688640238
 23
3696.44891877704
 33
0.0
  0
SOLID
  5
DB
330
D5
100
AcDbEntity
  8
cotas
100
AcDbTrace
 10
4785.823021973571
 20
3586.441457832048
 30
0.0
 11
4789.156355306904
 21
3586.441457832048
 31
0.0
 12
4787.489688640238
 22
3576.441457832048
 32
0.0
 13
4787.489688640238
 23
3576.441457832048
 33
0.0
  0
MTEXT
  5
DC
330
D5
100
AcDbEntity
  8
cotas
100
AcDbMText
 10
4777.281495221835
 20
3636.445188304545
 30
0.0
 40
10.0
 41
0.0
 71
     5
 72
     1
  1
120
  7
SANINDUSA
 11
0.0000000000000001
 21
1.0
 31
0.0
 73
     1
 44
1.0
1001
ACAD
1000
MTEXTBEGIN
1070
    73
1070
     1
1070
    44
1040
1.0
1070
    74
1070
     0
1000
MTEXTEND
  0
POINT
  5
DD
330
D5
100
AcDbEntity
  8
Defpoints
 62
     0
100
AcDbPoint
 10
4818.187891220748
 20
3696.44891877704
 30
0.0
  0
POINT
  5
DE
330
D5
100
AcDbEntity
  8
Defpoints
 62
     0
100
AcDbPoint
 10
4816.000950803147
 20
3576.441457832048
 30
0.0
  0
POINT
  5
DF
330
D5
100
AcDbEntity
  8
Defpoints
 62
     0
100
AcDbPoint
 10
4787.489688640238
 20
3576.441457832048
 30
0.0
  0
ENDBLK
  5
E0
330
D5
100
AcDbEntity
  8
0
100
AcDbBlockEnd
  0
BLOCK
  5
E2
330
E1
100
AcDbEntity
  8
0
100
AcDbBlockBegin
  2
*D18
 70
     1
 10
0.0
 20
0.0
 30
0.0
  3
*D18
  1

  0
LINE
  5
E3
330
E1
100
AcDbEntity
  8
cotas
100
AcDbLine
 10
4855.400977790912
 20
3664.781254455612
 30
0.0
 11
4827.394320665169
 21
3687.556164830186
 31
0.0
  0
MTEXT
  5
E4
330
E1
100
AcDbEntity
  8
cotas
100
AcDbMText
 10
4851.586076721596
 20
3680.772615072919
 30
0.0
 40
10.0
 41
0.0
 71
     5
 72
     1
  1
R7
  7
SANINDUSA
 11
0.7758495341438462
 21
-0.6309179822835746
 31
0.0
 73
     1
 44
1.0
1001
ACAD
1000
MTEXTBEGIN
1070
    73
1070
     1
1070
    44
1040
1.0
1070
    74
1070
     0
1000
MTEXTEND
  0
SOLID
  5
E5
330
E1
100
AcDbEntity
  8
cotas
100
AcDbTrace
 10
4828.445850635642
 20
3688.849247387093
 30
0.0
 11
4826.342790694696
 21
3686.26308227328
 31
0.0
 12
4819.635825323731
 22
3693.865344653023
 32
0.0
 13
4819.635825323731
 23
3693.865344653023
 33
0.0
  0
POINT
  5
E6
330
E1
100
AcDbEntity
  8
Defpoints
 62
     0
100
AcDbPoint
 10
4819.635825323731
 20
3693.865344653023
 30
0.0
  0
POINT
  5
E7
330
E1
100
AcDbEntity
  8
Defpoints
 62
     0
100
AcDbPoint
 10
4825.066772062736
 20
3689.448918777039
 30
0.0
  0
ENDBLK
  5
E8
330
E1
100
AcDbEntity
  8
0
100
AcDbBlockEnd
  0
BLOCK
  5
EA
330
E9
100
AcDbEntity
  8
0
100
AcDbBlockBegin
  2
*D19
 70
     1
 10
0.0
 20
0.0
 30
0.0
  3
*D19
  1

  0
LINE
  5
EB
330
E9
100
AcDbEntity
  8
cotas
100
AcDbLine
 10
6481.827551531373
 20
3663.768211662484
 30
0.0
 11
6509.046933373395
 21
3687.47843388979
 31
0.0
  0
MTEXT
  5
EC
330
E9
100
AcDbEntity
  8
cotas
100
AcDbMText
 10
6485.098758605342
 20
3679.87958307651
 30
0.0
 40
10.0
 41
0.0
 71
     5
 72
     1
  1
R7
  7
SANINDUSA
 11
0.7540401779116614
 21
0.656828295747793
 31
0.0
 73
     1
 44
1.0
1001
ACAD
1000
MTEXTBEGIN
1070
    73
1070
     1
1070
    44
1040
1.0
1070
    74
1070
     0
1000
MTEXTEND
  0
SOLID
  5
ED
330
E9
100
AcDbEntity
  8
cotas
100
AcDbTrace
 10
6507.952219547149
 20
3688.735167519643
 30
0.0
 11
6510.141647199642
 21
3686.221700259937
 31
0.0
 12
6516.587335152512
 22
3694.046716847268
 32
0.0
 13
6516.587335152512
 23
3694.046716847268
 33
0.0
  0
POINT
  5
EE
330
E9
100
AcDbEntity
  8
Defpoints
 62
     0
100
AcDbPoint
 10
6516.587335152512
 20
3694.046716847268
 30
0.0
  0
POINT
  5
EF
330
E9
100
AcDbEntity
  8
Defpoints
 62
     0
100
AcDbPoint
 10
6511.30905390713
 20
3689.448918777034
 30
0.0
  0
ENDBLK
  5
F0
330
E9
100
AcDbEntity
  8
0
100
AcDbBlockEnd
  0
BLOCK
  5
F2
330
F1
100
AcDbEntity
  8
0
100
AcDbBlockBegin
  2
*D20
 70
     1
 10
0.0
 20
0.0
 30
0.0
  3
*D20
  1

  0
LINE
  5
F3
330
F1
100
AcDbEntity
  8
cotas
100
AcDbLine
 10
6518.973461408241
 20
3651.449681337322
 30
0.0
 11
6519.522484508773
 21
3619.999101665859
 31
0.0
  0
ARC
  5
F4
330
F1
100
AcDbEntity
  8
cotas
100
AcDbCircle
 10
6518.187923554285
 20
3696.44891877704
 30
0.0
 40
71.46146473403546
100
AcDbArc
 50
188.0242731520483
 51
262.9758200766574
  0
SOLID
  5
F5
330
F1
100
AcDbEntity
  8
cotas
100
AcDbTrace
 10
6445.763554527835
 20
3686.356813292978
 30
0.0
 11
6449.088718700635
 21
3686.590039224306
 31
0.0
 12
6446.726458820251
 22
3696.448918777039
 32
0.0
 13
6446.726458820251
 23
3696.448918777039
 33
0.0
  0
SOLID
  5
F6
330
F1
100
AcDbEntity
  8
cotas
100
AcDbTrace
 10
6509.53660566174
 20
3627.188162816941
 30
0.0
 11
6509.361452784798
 21
3623.859434444002
 31
0.0
 12
6519.435214342087
 22
3624.998339999647
 32
0.0
 13
6519.435214342087
 23
3624.998339999647
 33
0.0
  0
MTEXT
  5
F7
330
F1
100
AcDbEntity
  8
cotas
100
AcDbMText
 10
6476.050498060162
 20
3653.569493291671
 30
0.0
 40
10.0
 41
0.0
 71
     5
 72
     1
  1
91,0°
  7
SANINDUSA
 11
0.7132510193954568
 21
-0.7009086840176413
 31
0.0
 73
     1
 44
1.0
1001
ACAD
1000
MTEXTBEGIN
1070
    73
1070
     1
1070
    44
1040
1.0
1070
    74
1070
     0
1000
MTEXTEND
  0
POINT
  5
F8
330
F1
100
AcDbEntity
  8
Defpoints
 62
     0
100
AcDbPoint
 10
6456.509418409702
 20
3660.35871311036
 30
0.0
  0
POINT
  5
F9
330
F1
100
AcDbEntity
  8
Defpoints
 62
     0
100
AcDbPoint
 10
5325.066815532856
 20
3696.44891877704
 30
0.0
  0
POINT
  5
FA
330
F1
100
AcDbEntity
  8
Defpoints
 62
     0
100
AcDbPoint
 10
6518.307987747919
 20
3689.57108707222
 30
0.0
  0
POINT
  5
FB
330
F1
100
AcDbEntity
  8
Defpoints
 62
     0
100
AcDbPoint
 10
6518.886191241555
 20
3656.44891967111
 30
0.0
  0
POINT
  5
FC
330
F1
100
AcDbEntity
  8
Defpoints
 62
     0
100
AcDbPoint
 10
6511.309010379128
 20
3696.44891877704
 30
0.0
  0
ENDBLK
  5
FD
330
F1
100
AcDbEntity
  8
0
100
AcDbBlockEnd
  0
BLOCK
  5
FF
330
FE
100
AcDbEntity
  8
0
100
AcDbBlockBegin
  2
*D21
 70
     1
 10
0.0
 20
0.0
 30
0.0
  3
*D21
  1

  0
LINE
  5
100
330
FE
100
AcDbEntity
  8
cotas
100
AcDbLine
 10
4817.402426608177
 20
3651.449681195326
 30
0.0
 11
4816.599685476872
 21
3605.460672516799
 31
0.0
  0
ARC
  5
101
330
FE
100
AcDbEntity
  8
cotas
100
AcDbCircle
 10
4818.187891220748
 20
3696.44891877704
 30
0.0
 40
86.00210632177383
100
AcDbArc
 50
275.6658955430542
 51
353.3341044583944
  0
SOLID
  5
102
330
FE
100
AcDbEntity
  8
cotas
100
AcDbTrace
 10
4826.746502980832
 20
3609.20168943597
 30
0.0
 11
4826.610815081793
 21
3612.53225994343
 31
0.0
 12
4816.686947508933
 22
3610.459910992582
 32
0.0
 13
4816.686947508933
 23
3610.459910992582
 33
0.0
  0
SOLID
  5
103
330
FE
100
AcDbEntity
  8
cotas
100
AcDbTrace
 10
4901.944768850396
 20
3686.562730133391
 30
0.0
 11
4905.272464015478
 21
3686.368936430195
 31
0.0
 12
4904.189997542522
 22
3696.44891877704
 32
0.0
 13
4904.189997542522
 23
3696.44891877704
 33
0.0
  0
MTEXT
  5
104
330
FE
100
AcDbEntity
  8
cotas
100
AcDbMText
 10
4870.517021998824
 20
3643.198408430813
 30
0.0
 40
10.0
 41
0.0
 71
     5
 72
     1
  1
91,0°
  7
SANINDUSA
 11
0.7132504491453208
 21
0.7009092643088679
 31
0.0
 73
     1
 44
1.0
1001
ACAD
1000
MTEXTBEGIN
1070
    73
1070
     1
1070
    44
1040
1.0
1070
    74
1070
     0
1000
MTEXTEND
  0
POINT
  5
105
330
FE
100
AcDbEntity
  8
Defpoints
 62
     0
100
AcDbPoint
 10
4860.319438855867
 20
3621.473622941337
 30
0.0
  0
POINT
  5
106
330
FE
100
AcDbEntity
  8
Defpoints
 62
     0
100
AcDbPoint
 10
4817.489688640238
 20
3656.44891967111
 30
0.0
  0
POINT
  5
107
330
FE
100
AcDbEntity
  8
Defpoints
 62
     0
100
AcDbPoint
 10
4825.066772004833
 20
3696.44891877704
 30
0.0
  0
POINT
  5
108
330
FE
100
AcDbEntity
  8
Defpoints
 62
     0
100
AcDbPoint
 10
6011.308966851103
 20
3696.44891877704
 30
0.0
  0
POINT
  5
109
330
FE
100
AcDbEntity
  8
Defpoints
 62
     0
100
AcDbPoint
 10
4818.06783819854
 20
3689.571085731083
 30
0.0
  0
ENDBLK
  5
10A
330
FE
100
AcDbEntity
  8
0
100
AcDbBlockEnd
  0
BLOCK
  5
10C
330
10B
100
AcDbEntity
  8
0
100
AcDbBlockBegin
  2
*D22
 70
     1
 10
0.0
 20
0.0
 30
0.0
  3
*D22
  1

  0
LINE
  5
10D
330
10B
100
AcDbEntity
  8
cotas
100
AcDbLine
 10
6523.187923554288
 20
3696.44891877704
 30
0.0
 11
6553.886191241556
 21
3696.44891877704
 31
0.0
  0
LINE
  5
10E
330
10B
100
AcDbEntity
  8
cotas
100
AcDbLine
 10
6394.883659483278
 20
3562.409239685828
 30
0.0
 11
6553.886191241556
 21
3562.409239685828
 31
0.0
  0
LINE
  5
10F
330
10B
100
AcDbEntity
  8
cotas
100
AcDbLine
 10
6548.886191241556
 20
3686.448918777041
 30
0.0
 11
6548.886191241556
 21
3572.409239685828
 31
0.0
  0
SOLID
  5
110
330
10B
100
AcDbEntity
  8
cotas
100
AcDbTrace
 10
6547.219524574888
 20
3686.448918777041
 30
0.0
 11
6550.552857908222
 21
3686.448918777041
 31
0.0
 12
6548.886191241556
 22
3696.44891877704
 32
0.0
 13
6548.886191241556
 23
3696.44891877704
 33
0.0
  0
SOLID
  5
111
330
10B
100
AcDbEntity
  8
cotas
100
AcDbTrace
 10
6547.219524574888
 20
3572.409239685828
 30
0.0
 11
6550.552857908222
 21
3572.409239685828
 31
0.0
 12
6548.886191241556
 22
3562.409239685828
 32
0.0
 13
6548.886191241556
 23
3562.409239685828
 33
0.0
  0
MTEXT
  5
112
330
10B
100
AcDbEntity
  8
cotas
100
AcDbMText
 10
6538.677997823153
 20
3629.429079231435
 30
0.0
 40
10.0
 41
0.0
 71
     5
 72
     1
  1
134
  7
SANINDUSA
 11
0.0000000000000001
 21
1.0
 31
0.0
 73
     1
 44
1.0
1001
ACAD
1000
MTEXTBEGIN
1070
    73
1070
     1
1070
    44
1040
1.0
1070
    74
1070
     0
1000
MTEXTEND
  0
POINT
  5
113
330
10B
100
AcDbEntity
  8
Defpoints
 62
     0
100
AcDbPoint
 10
6518.187923554288
 20
3696.44891877704
 30
0.0
  0
POINT
  5
114
330
10B
100
AcDbEntity
  8
Defpoints
 62
     0
100
AcDbPoint
 10
6389.883659483278
 20
3562.409239685828
 30
0.0
  0
POINT
  5
115
330
10B
100
AcDbEntity
  8
Defpoints
 62
     0
100
AcDbPoint
 10
6548.886191241556
 20
3562.409239685828
 30
0.0
  0
ENDBLK
  5
116
330
10B
100
AcDbEntity
  8
0
100
AcDbBlockEnd
  0
BLOCK
  5
118
330
117
100
AcDbEntity
  8
0
100
AcDbBlockBegin
  2
*D23
 70
     1
 10
0.0
 20
0.0
 30
0.0
  3
*D23
  1

  0
LINE
  5
119
330
117
100
AcDbEntity
  8
cotas
100
AcDbLine
 10
6338.168828813886
 20
3095.005307681287
 30
-0.0000000000000225
 11
6338.168828813886
 21
3125.005307681288
 31
-0.0000000000000225
  0
LINE
  5
11A
330
117
100
AcDbEntity
  8
cotas
100
AcDbLine
 10
6157.69754996511
 20
2959.755887272016
 30
-0.0000000000000225
 11
6157.69754996511
 21
3125.005307681288
 31
-0.0000000000000225
  0
LINE
  5
11B
330
117
100
AcDbEntity
  8
cotas
100
AcDbLine
 10
6328.168828813886
 20
3120.005307681288
 30
-0.0000000000000225
 11
6167.69754996511
 21
3120.005307681288
 31
-0.0000000000000225
  0
SOLID
  5
11C
330
117
100
AcDbEntity
  8
cotas
100
AcDbTrace
 10
6328.168828813886
 20
3121.671974347954
 30
-0.0000000000000225
 11
6328.168828813886
 21
3118.338641014621
 31
-0.0000000000000225
 12
6338.168828813886
 22
3120.005307681288
 32
-0.0000000000000225
 13
6338.168828813886
 23
3120.005307681288
 33
-0.0000000000000225
  0
SOLID
  5
11D
330
117
100
AcDbEntity
  8
cotas
100
AcDbTrace
 10
6167.69754996511
 20
3121.671974347954
 30
-0.0000000000000225
 11
6167.69754996511
 21
3118.338641014621
 31
-0.0000000000000225
 12
6157.69754996511
 22
3120.005307681288
 32
-0.0000000000000225
 13
6157.69754996511
 23
3120.005307681288
 33
-0.0000000000000225
  0
MTEXT
  5
11E
330
117
100
AcDbEntity
  8
cotas
100
AcDbMText
 10
6247.933189389498
 20
3131.36192285926
 30
-0.0000000000000225
 40
10.0
 41
0.0
 71
     5
 72
     1
  1
180,5
  7
SANINDUSA
 73
     1
 44
1.0
1001
ACAD
1000
MTEXTBEGIN
1070
    73
1070
     1
1070
    44
1040
1.0
1070
    74
1070
     0
1000
MTEXTEND
  0
POINT
  5
11F
330
117
100
AcDbEntity
  8
Defpoints
 62
     0
100
AcDbPoint
 10
6338.168828813886
 20
3090.005307681287
 30
-0.0000000000000423
  0
POINT
  5
120
330
117
100
AcDbEntity
  8
Defpoints
 62
     0
100
AcDbPoint
 10
6157.69754996511
 20
2954.755887272016
 30
-0.0000000000000225
  0
POINT
  5
121
330
117
100
AcDbEntity
  8
Defpoints
 62
     0
100
AcDbPoint
 10
6157.69754996511
 20
3120.005307681288
 30
-0.0000000000000225
  0
ENDBLK
  5
122
330
117
100
AcDbEntity
  8
0
100
AcDbBlockEnd
  0
BLOCK
  5
124
330
123
100
AcDbEntity
  8
0
100
AcDbBlockBegin
  2
*D24
 70
     1
 10
0.0
 20
0.0
 30
0.0
  3
*D24
  1

  0
LINE
  5
125
330
123
100
AcDbEntity
  8
cotas
100
AcDbLine
 10
5837.866365145304
 20
2959.738526287436
 30
-0.0000000000000225
 11
5837.866365145304
 21
3125.005109561322
 31
-0.0000000000000225
  0
LINE
  5
126
330
123
100
AcDbEntity
  8
cotas
100
AcDbLine
 10
5757.879067402895
 20
2959.738526287436
 30
-0.0000000000000225
 11
5757.879067402895
 21
3125.005109561322
 31
-0.0000000000000225
  0
LINE
  5
127
330
123
100
AcDbEntity
  8
cotas
100
AcDbLine
 10
5827.866365145304
 20
3120.005109561321
 30
-0.0000000000000225
 11
5767.879067402895
 21
3120.005109561321
 31
-0.0000000000000225
  0
SOLID
  5
128
330
123
100
AcDbEntity
  8
cotas
100
AcDbTrace
 10
5827.866365145304
 20
3121.671776227988
 30
-0.0000000000000225
 11
5827.866365145304
 21
3118.338442894655
 31
-0.0000000000000225
 12
5837.866365145304
 22
3120.005109561321
 32
-0.0000000000000225
 13
5837.866365145304
 23
3120.005109561321
 33
-0.0000000000000225
  0
SOLID
  5
129
330
123
100
AcDbEntity
  8
cotas
100
AcDbTrace
 10
5767.879067402895
 20
3121.671776227988
 30
-0.0000000000000225
 11
5767.879067402895
 21
3118.338442894655
 31
-0.0000000000000225
 12
5757.879067402895
 22
3120.005109561321
 32
-0.0000000000000225
 13
5757.879067402895
 23
3120.005109561321
 33
-0.0000000000000225
  0
MTEXT
  5
12A
330
123
100
AcDbEntity
  8
cotas
100
AcDbMText
 10
5797.872716274099
 20
3130.233450729891
 30
-0.0000000000000225
 40
10.0
 41
0.0
 71
     5
 72
     1
  1
80
  7
SANINDUSA
 73
     1
 44
1.0
1001
ACAD
1000
MTEXTBEGIN
1070
    73
1070
     1
1070
    44
1040
1.0
1070
    74
1070
     0
1000
MTEXTEND
  0
POINT
  5
12B
330
123
100
AcDbEntity
  8
Defpoints
 62
     0
100
AcDbPoint
 10
5837.866365145304
 20
2954.738526287436
 30
-0.0000000000000225
  0
POINT
  5
12C
330
123
100
AcDbEntity
  8
Defpoints
 62
     0
100
AcDbPoint
 10
5757.879067402895
 20
2954.738526287436
 30
-0.0000000000000225
  0
POINT
  5
12D
330
123
100
AcDbEntity
  8
Defpoints
 62
     0
100
AcDbPoint
 10
5757.879067402895
 20
3120.005109561321
 30
-0.0000000000000225
  0
ENDBLK
  5
12E
330
123
100
AcDbEntity
  8
0
100
AcDbBlockEnd
  0
BLOCK
  5
130
330
12F
100
AcDbEntity
  8
0
100
AcDbBlockBegin
  2
*D25
 70
     1
 10
0.0
 20
0.0
 30
0.0
  3
*D25
  1

  0
LINE
  5
131
330
12F
100
AcDbEntity
  8
cotas
100
AcDbLine
 10
5757.879067402895
 20
2959.738526287436
 30
-0.0000000000000225
 11
5757.879067402895
 21
3125.005109561322
 31
-0.0000000000000225
  0
LINE
  5
132
330
12F
100
AcDbEntity
  8
cotas
100
AcDbLine
 10
5677.88023912263
 20
3095.00510956132
 30
-0.0000000000000225
 11
5677.88023912263
 21
3125.005109561322
 31
-0.0000000000000225
  0
LINE
  5
133
330
12F
100
AcDbEntity
  8
cotas
100
AcDbLine
 10
5747.879067402895
 20
3120.005109561321
 30
-0.0000000000000225
 11
5687.88023912263
 21
3120.005109561321
 31
-0.0000000000000225
  0
SOLID
  5
134
330
12F
100
AcDbEntity
  8
cotas
100
AcDbTrace
 10
5747.879067402895
 20
3121.671776227988
 30
-0.0000000000000225
 11
5747.879067402895
 21
3118.338442894655
 31
-0.0000000000000225
 12
5757.879067402895
 22
3120.005109561321
 32
-0.0000000000000225
 13
5757.879067402895
 23
3120.005109561321
 33
-0.0000000000000225
  0
SOLID
  5
135
330
12F
100
AcDbEntity
  8
cotas
100
AcDbTrace
 10
5687.88023912263
 20
3121.671776227988
 30
-0.0000000000000225
 11
5687.88023912263
 21
3118.338442894655
 31
-0.0000000000000225
 12
5677.88023912263
 22
3120.005109561321
 32
-0.0000000000000225
 13
5677.88023912263
 23
3120.005109561321
 33
-0.0000000000000225
  0
MTEXT
  5
136
330
12F
100
AcDbEntity
  8
cotas
100
AcDbMText
 10
5717.879653262762
 20
3130.233450729891
 30
-0.0000000000000225
 40
10.0
 41
0.0
 71
     5
 72
     1
  1
80
  7
SANINDUSA
 73
     1
 44
1.0
1001
ACAD
1000
MTEXTBEGIN
1070
    73
1070
     1
1070
    44
1040
1.0
1070
    74
1070
     0
1000
MTEXTEND
  0
POINT
  5
137
330
12F
100
AcDbEntity
  8
Defpoints
 62
     0
100
AcDbPoint
 10
5757.879067402895
 20
2954.738526287436
 30
-0.0000000000000225
  0
POINT
  5
138
330
12F
100
AcDbEntity
  8
Defpoints
 62
     0
100
AcDbPoint
 10
5677.88023912263
 20
3090.005109561321
 30
-0.0000000000000423
  0
POINT
  5
139
330
12F
100
AcDbEntity
  8
Defpoints
 62
     0
100
AcDbPoint
 10
5677.88023912263
 20
3120.005109561321
 30
-0.0000000000000225
  0
ENDBLK
  5
13A
330
12F
100
AcDbEntity
  8
0
100
AcDbBlockEnd
  0
BLOCK
  5
13C
330
13B
100
AcDbEntity
  8
0
100
AcDbBlockBegin
  2
*D26
 70
     1
 10
0.0
 20
0.0
 30
0.0
  3
*D26
  1

  0
LINE
  5
13D
330
13B
100
AcDbEntity
  8
cotas
100
AcDbLine
 10
6242.350873233839
 20
2919.313325444651
 30
0.0000000000003952
 11
6553.870476271054
 21
2919.313325444651
 31
0.0000000000003952
  0
LINE
  5
13E
330
13B
100
AcDbEntity
  8
cotas
100
AcDbLine
 10
6239.290166726187
 20
2839.335728941077
 30
0.0000000000003952
 11
6553.870476271054
 21
2839.335728941077
 31
0.0000000000003952
  0
LINE
  5
13F
330
13B
100
AcDbEntity
  8
cotas
100
AcDbLine
 10
6548.870476271054
 20
2909.313325444652
 30
0.0000000000003952
 11
6548.870476271054
 21
2849.335728941077
 31
0.0000000000003952
  0
SOLID
  5
140
330
13B
100
AcDbEntity
  8
cotas
100
AcDbTrace
 10
6547.203809604387
 20
2909.313325444652
 30
0.0000000000003952
 11
6550.53714293772
 21
2909.313325444652
 31
0.0000000000003952
 12
6548.870476271054
 22
2919.313325444651
 32
0.0000000000003952
 13
6548.870476271054
 23
2919.313325444651
 33
0.0000000000003952
  0
SOLID
  5
141
330
13B
100
AcDbEntity
  8
cotas
100
AcDbTrace
 10
6547.203809604387
 20
2849.335728941077
 30
0.0000000000003952
 11
6550.53714293772
 21
2849.335728941077
 31
0.0000000000003952
 12
6548.870476271054
 22
2839.335728941077
 32
0.0000000000003952
 13
6548.870476271054
 23
2839.335728941077
 33
0.0000000000003952
  0
MTEXT
  5
142
330
13B
100
AcDbEntity
  8
cotas
100
AcDbMText
 10
6538.642135102484
 20
2879.324527192865
 30
0.0000000000003952
 40
10.0
 41
0.0
 71
     5
 72
     1
  1
80
  7
SANINDUSA
 11
0.0000000000000001
 21
1.0
 31
0.0
 73
     1
 44
1.0
1001
ACAD
1000
MTEXTBEGIN
1070
    73
1070
     1
1070
    44
1040
1.0
1070
    74
1070
     0
1000
MTEXTEND
  0
POINT
  5
143
330
13B
100
AcDbEntity
  8
Defpoints
 62
     0
100
AcDbPoint
 10
6237.35087323384
 20
2919.313325444651
 30
0.0000000000003952
  0
POINT
  5
144
330
13B
100
AcDbEntity
  8
Defpoints
 62
     0
100
AcDbPoint
 10
6234.290166726187
 20
2839.335728941077
 30
0.0000000000003952
  0
POINT
  5
145
330
13B
100
AcDbEntity
  8
Defpoints
 62
     0
100
AcDbPoint
 10
6548.870476271054
 20
2839.335728941077
 30
0.0000000000003952
  0
ENDBLK
  5
146
330
13B
100
AcDbEntity
  8
0
100
AcDbBlockEnd
  0
BLOCK
  5
148
330
147
100
AcDbEntity
  8
0
100
AcDbBlockBegin
  2
*D27
 70
     1
 10
0.0
 20
0.0
 30
0.0
  3
*D27
  1

  0
LINE
  5
149
330
147
100
AcDbEntity
  8
cotas
100
AcDbLine
 10
6239.290166726187
 20
2839.335728941077
 30
0.0000000000003952
 11
6553.870476271054
 21
2839.335728941077
 31
0.0000000000003952
  0
LINE
  5
14A
330
147
100
AcDbEntity
  8
cotas
100
AcDbLine
 10
6234.270306771851
 20
2759.340849873813
 30
0.0000000000003952
 11
6553.870476271054
 21
2759.340849873813
 31
0.0000000000003952
  0
LINE
  5
14B
330
147
100
AcDbEntity
  8
cotas
100
AcDbLine
 10
6548.870476271054
 20
2829.335728941077
 30
0.0000000000003952
 11
6548.870476271054
 21
2769.340849873813
 31
0.0000000000003952
  0
SOLID
  5
14C
330
147
100
AcDbEntity
  8
cotas
100
AcDbTrace
 10
6547.203809604387
 20
2829.335728941077
 30
0.0000000000003952
 11
6550.53714293772
 21
2829.335728941077
 31
0.0000000000003952
 12
6548.870476271054
 22
2839.335728941077
 32
0.0000000000003952
 13
6548.870476271054
 23
2839.335728941077
 33
0.0000000000003952
  0
SOLID
  5
14D
330
147
100
AcDbEntity
  8
cotas
100
AcDbTrace
 10
6547.203809604387
 20
2769.340849873813
 30
0.0000000000003952
 11
6550.53714293772
 21
2769.340849873813
 31
0.0000000000003952
 12
6548.870476271054
 22
2759.340849873813
 32
0.0000000000003952
 13
6548.870476271054
 23
2759.340849873813
 33
0.0000000000003952
  0
MTEXT
  5
14E
330
147
100
AcDbEntity
  8
cotas
100
AcDbMText
 10
6538.642135102484
 20
2799.338289407446
 30
0.0000000000003952
 40
10.0
 41
0.0
 71
     5
 72
     1
  1
80
  7
SANINDUSA
 11
0.0000000000000001
 21
1.0
 31
0.0
 73
     1
 44
1.0
1001
ACAD
1000
MTEXTBEGIN
1070
    73
1070
     1
1070
    44
1040
1.0
1070
    74
1070
     0
1000
MTEXTEND
  0
POINT
  5
14F
330
147
100
AcDbEntity
  8
Defpoints
 62
     0
100
AcDbPoint
 10
6234.290166726187
 20
2839.335728941077
 30
0.0000000000003952
  0
POINT
  5
150
330
147
100
AcDbEntity
  8
Defpoints
 62
     0
100
AcDbPoint
 10
6229.270306771851
 20
2759.340849873813
 30
0.0000000000003952
  0
POINT
  5
151
330
147
100
AcDbEntity
  8
Defpoints
 62
     0
100
AcDbPoint
 10
6548.870476271054
 20
2759.340849873813
 30
0.0000000000003952
  0
ENDBLK
  5
152
330
147
100
AcDbEntity
  8
0
100
AcDbBlockEnd
  0
BLOCK
  5
154
330
153
100
AcDbEntity
  8
0
100
AcDbBlockBegin
  2
*D28
 70
     1
 10
0.0
 20
0.0
 30
0.0
  3
*D28
  1

  0
LINE
  5
155
330
153
100
AcDbEntity
  8
cotas
100
AcDbLine
 10
6242.305014988657
 20
2679.319678307227
 30
0.0000000000003952
 11
6553.870476271054
 21
2679.319678307227
 31
0.0000000000003952
  0
LINE
  5
156
330
153
100
AcDbEntity
  8
cotas
100
AcDbLine
 10
6234.270306771851
 20
2759.340849873813
 30
0.0000000000003952
 11
6553.870476271054
 21
2759.340849873813
 31
0.0000000000003952
  0
LINE
  5
157
330
153
100
AcDbEntity
  8
cotas
100
AcDbLine
 10
6548.870476271054
 20
2689.319678307227
 30
0.0000000000003952
 11
6548.870476271054
 21
2749.340849873813
 31
0.0000000000003952
  0
SOLID
  5
158
330
153
100
AcDbEntity
  8
cotas
100
AcDbTrace
 10
6547.203809604387
 20
2689.319678307227
 30
0.0000000000003952
 11
6550.53714293772
 21
2689.319678307227
 31
0.0000000000003952
 12
6548.870476271054
 22
2679.319678307227
 32
0.0000000000003952
 13
6548.870476271054
 23
2679.319678307227
 33
0.0000000000003952
  0
SOLID
  5
159
330
153
100
AcDbEntity
  8
cotas
100
AcDbTrace
 10
6547.203809604387
 20
2749.340849873813
 30
0.0000000000003952
 11
6550.53714293772
 21
2749.340849873813
 31
0.0000000000003952
 12
6548.870476271054
 22
2759.340849873813
 32
0.0000000000003952
 13
6548.870476271054
 23
2759.340849873813
 33
0.0000000000003952
  0
MTEXT
  5
15A
330
153
100
AcDbEntity
  8
cotas
100
AcDbMText
 10
6538.642135102484
 20
2719.330264090521
 30
0.0000000000003952
 40
10.0
 41
0.0
 71
     5
 72
     1
  1
80
  7
SANINDUSA
 11
0.0000000000000001
 21
1.0
 31
0.0
 73
     1
 44
1.0
1001
ACAD
1000
MTEXTBEGIN
1070
    73
1070
     1
1070
    44
1040
1.0
1070
    74
1070
     0
1000
MTEXTEND
  0
POINT
  5
15B
330
153
100
AcDbEntity
  8
Defpoints
 62
     0
100
AcDbPoint
 10
6237.305014988656
 20
2679.319678307227
 30
0.0000000000003952
  0
POINT
  5
15C
330
153
100
AcDbEntity
  8
Defpoints
 62
     0
100
AcDbPoint
 10
6229.270306771851
 20
2759.340849873813
 30
0.0000000000003952
  0
POINT
  5
15D
330
153
100
AcDbEntity
  8
Defpoints
 62
     0
100
AcDbPoint
 10
6548.870476271054
 20
2759.340849873813
 30
0.0000000000003952
  0
ENDBLK
  5
15E
330
153
100
AcDbEntity
  8
0
100
AcDbBlockEnd
  0
BLOCK
  5
160
330
15F
100
AcDbEntity
  8
0
100
AcDbBlockBegin
  2
*D29
 70
     1
 10
0.0
 20
0.0
 30
0.0
  3
*D29
  1

  0
LINE
  5
161
330
15F
100
AcDbEntity
  8
cotas
100
AcDbLine
 10
6234.25310923425
 20
2679.323925146709
 30
0.0000000000003952
 11
6553.870476271054
 21
2679.323925146709
 31
0.0000000000003952
  0
LINE
  5
162
330
15F
100
AcDbEntity
  8
cotas
100
AcDbLine
 10
6523.886093834483
 20
2639.309269906118
 30
0.0000000000003952
 11
6553.870476271054
 21
2639.309269906118
 31
0.0000000000003952
  0
LINE
  5
163
330
15F
100
AcDbEntity
  8
cotas
100
AcDbLine
 10
6548.870476271054
 20
2669.323925146708
 30
0.0000000000003952
 11
6548.870476271054
 21
2649.309269906118
 31
0.0000000000003952
  0
SOLID
  5
164
330
15F
100
AcDbEntity
  8
cotas
100
AcDbTrace
 10
6547.203809604387
 20
2669.323925146708
 30
0.0000000000003952
 11
6550.53714293772
 21
2669.323925146708
 31
0.0000000000003952
 12
6548.870476271054
 22
2679.323925146709
 32
0.0000000000003952
 13
6548.870476271054
 23
2679.323925146709
 33
0.0000000000003952
  0
SOLID
  5
165
330
15F
100
AcDbEntity
  8
cotas
100
AcDbTrace
 10
6547.203809604387
 20
2649.309269906118
 30
0.0000000000003952
 11
6550.53714293772
 21
2649.309269906118
 31
0.0000000000003952
 12
6548.870476271054
 22
2639.309269906118
 32
0.0000000000003952
 13
6548.870476271054
 23
2639.309269906118
 33
0.0000000000003952
  0
MTEXT
  5
166
330
15F
100
AcDbEntity
  8
cotas
100
AcDbMText
 10
6538.665640811013
 20
2659.316597526415
 30
0.0000000000003952
 40
10.0
 41
0.0
 71
     5
 72
     1
  1
40
  7
SANINDUSA
 11
0.0000000000000001
 21
1.0
 31
0.0
 73
     1
 44
1.0
1001
ACAD
1000
MTEXTBEGIN
1070
    73
1070
     1
1070
    44
1040
1.0
1070
    74
1070
     0
1000
MTEXTEND
  0
POINT
  5
167
330
15F
100
AcDbEntity
  8
Defpoints
 62
     0
100
AcDbPoint
 10
6229.25310923425
 20
2679.323925146709
 30
0.0000000000003952
  0
POINT
  5
168
330
15F
100
AcDbEntity
  8
Defpoints
 62
     0
100
AcDbPoint
 10
6518.886093834483
 20
2639.309269906118
 30
0.0000000000000109
  0
POINT
  5
169
330
15F
100
AcDbEntity
  8
Defpoints
 62
     0
100
AcDbPoint
 10
6548.870476271054
 20
2639.309269906118
 30
0.0000000000003952
  0
ENDBLK
  5
16A
330
15F
100
AcDbEntity
  8
0
100
AcDbBlockEnd
  0
BLOCK
  5
16C
330
16B
100
AcDbEntity
  8
0
100
AcDbBlockBegin
  2
*D30
 70
     1
 10
0.0
 20
0.0
 30
0.0
  3
*D30
  1

  0
LINE
  5
16D
330
16B
100
AcDbEntity
  8
cotas
100
AcDbLine
 10
6518.307944261653
 20
2639.295054613584
 30
-0.0000000000000012
 11
6553.870476271054
 21
2639.295054613584
 31
-0.0000000000000012
  0
LINE
  5
16E
330
16B
100
AcDbEntity
  8
cotas
100
AcDbLine
 10
6228.647903932841
 20
2599.272620912153
 30
-0.0000000000000012
 11
6553.870476271054
 21
2599.272620912153
 31
-0.0000000000000012
  0
LINE
  5
16F
330
16B
100
AcDbEntity
  8
cotas
100
AcDbLine
 10
6548.870476271054
 20
2629.295054613585
 30
-0.0000000000000012
 11
6548.870476271054
 21
2609.272620912153
 31
-0.0000000000000012
  0
SOLID
  5
170
330
16B
100
AcDbEntity
  8
cotas
100
AcDbTrace
 10
6547.203809604387
 20
2629.295054613585
 30
-0.0000000000000012
 11
6550.53714293772
 21
2629.295054613585
 31
-0.0000000000000012
 12
6548.870476271054
 22
2639.295054613584
 32
-0.0000000000000012
 13
6548.870476271054
 23
2639.295054613584
 33
-0.0000000000000012
  0
SOLID
  5
171
330
16B
100
AcDbEntity
  8
cotas
100
AcDbTrace
 10
6547.203809604387
 20
2609.272620912153
 30
-0.0000000000000012
 11
6550.53714293772
 21
2609.272620912153
 31
-0.0000000000000012
 12
6548.870476271054
 22
2599.272620912153
 32
-0.0000000000000012
 13
6548.870476271054
 23
2599.272620912153
 33
-0.0000000000000012
  0
MTEXT
  5
172
330
16B
100
AcDbEntity
  8
cotas
100
AcDbMText
 10
6538.665640811013
 20
2619.28383776287
 30
-0.0000000000000012
 40
10.0
 41
0.0
 71
     5
 72
     1
  1
40
  7
SANINDUSA
 11
0.0000000000000001
 21
1.0
 31
0.0
 73
     1
 44
1.0
1001
ACAD
1000
MTEXTBEGIN
1070
    73
1070
     1
1070
    44
1040
1.0
1070
    74
1070
     0
1000
MTEXTEND
  0
POINT
  5
173
330
16B
100
AcDbEntity
  8
Defpoints
 62
     0
100
AcDbPoint
 10
6513.307944261653
 20
2639.295054613584
 30
-0.0000000000000012
  0
POINT
  5
174
330
16B
100
AcDbEntity
  8
Defpoints
 62
     0
100
AcDbPoint
 10
6223.647903932842
 20
2599.272620912153
 30
-0.0000000000000012
  0
POINT
  5
175
330
16B
100
AcDbEntity
  8
Defpoints
 62
     0
100
AcDbPoint
 10
6548.870476271054
 20
2599.272620912153
 30
-0.0000000000000012
  0
ENDBLK
  5
176
330
16B
100
AcDbEntity
  8
0
100
AcDbBlockEnd
  0
BLOCK
  5
178
330
177
100
AcDbEntity
  8
0
100
AcDbBlockBegin
  2
*D31
 70
     1
 10
0.0
 20
0.0
 30
0.0
  3
*D31
  1

  0
LINE
  5
179
330
177
100
AcDbEntity
  8
cotas
100
AcDbLine
 10
6234.255194972193
 20
2599.294961742354
 30
0.0000000000003952
 11
6553.870476271054
 21
2599.294961742354
 31
0.0000000000003952
  0
LINE
  5
17A
330
177
100
AcDbEntity
  8
cotas
100
AcDbLine
 10
6234.255194972192
 20
2519.309431085493
 30
0.0000000000003952
 11
6553.870476271054
 21
2519.309431085493
 31
0.0000000000003952
  0
LINE
  5
17B
330
177
100
AcDbEntity
  8
cotas
100
AcDbLine
 10
6548.870476271054
 20
2589.294961742354
 30
0.0000000000003952
 11
6548.870476271054
 21
2529.309431085493
 31
0.0000000000003952
  0
SOLID
  5
17C
330
177
100
AcDbEntity
  8
cotas
100
AcDbTrace
 10
6547.203809604387
 20
2589.294961742354
 30
0.0000000000003952
 11
6550.53714293772
 21
2589.294961742354
 31
0.0000000000003952
 12
6548.870476271054
 22
2599.294961742354
 32
0.0000000000003952
 13
6548.870476271054
 23
2599.294961742354
 33
0.0000000000003952
  0
SOLID
  5
17D
330
177
100
AcDbEntity
  8
cotas
100
AcDbTrace
 10
6547.203809604387
 20
2529.309431085493
 30
0.0000000000003952
 11
6550.53714293772
 21
2529.309431085493
 31
0.0000000000003952
 12
6548.870476271054
 22
2519.309431085493
 32
0.0000000000003952
 13
6548.870476271054
 23
2519.309431085493
 33
0.0000000000003952
  0
MTEXT
  5
17E
330
177
100
AcDbEntity
  8
cotas
100
AcDbMText
 10
6538.642135102484
 20
2559.302196413924
 30
0.0000000000003952
 40
10.0
 41
0.0
 71
     5
 72
     1
  1
80
  7
SANINDUSA
 11
0.0000000000000001
 21
1.0
 31
0.0
 73
     1
 44
1.0
1001
ACAD
1000
MTEXTBEGIN
1070
    73
1070
     1
1070
    44
1040
1.0
1070
    74
1070
     0
1000
MTEXTEND
  0
POINT
  5
17F
330
177
100
AcDbEntity
  8
Defpoints
 62
     0
100
AcDbPoint
 10
6229.255194972193
 20
2599.294961742354
 30
0.0000000000003952
  0
POINT
  5
180
330
177
100
AcDbEntity
  8
Defpoints
 62
     0
100
AcDbPoint
 10
6229.255194972192
 20
2519.309431085493
 30
0.0000000000003952
  0
POINT
  5
181
330
177
100
AcDbEntity
  8
Defpoints
 62
     0
100
AcDbPoint
 10
6548.870476271054
 20
2519.309431085493
 30
0.0000000000003952
  0
ENDBLK
  5
182
330
177
100
AcDbEntity
  8
0
100
AcDbBlockEnd
  0
BLOCK
  5
184
330
183
100
AcDbEntity
  8
0
100
AcDbBlockBegin
  2
*D32
 70
     1
 10
0.0
 20
0.0
 30
0.0
  3
*D32
  1

  0
LINE
  5
185
330
183
100
AcDbEntity
  8
cotas
100
AcDbLine
 10
6234.255194972192
 20
2519.309431085493
 30
0.0000000000003952
 11
6553.870476271054
 21
2519.309431085493
 31
0.0000000000003952
  0
LINE
  5
186
330
183
100
AcDbEntity
  8
cotas
100
AcDbLine
 10
6242.395285640554
 20
2439.305885722941
 30
0.0000000000003952
 11
6553.870476271054
 21
2439.305885722941
 31
0.0000000000003952
  0
LINE
  5
187
330
183
100
AcDbEntity
  8
cotas
100
AcDbLine
 10
6548.870476271054
 20
2509.309431085493
 30
0.0000000000003952
 11
6548.870476271054
 21
2449.305885722941
 31
0.0000000000003952
  0
SOLID
  5
188
330
183
100
AcDbEntity
  8
cotas
100
AcDbTrace
 10
6547.203809604387
 20
2509.309431085493
 30
0.0000000000003952
 11
6550.53714293772
 21
2509.309431085493
 31
0.0000000000003952
 12
6548.870476271054
 22
2519.309431085493
 32
0.0000000000003952
 13
6548.870476271054
 23
2519.309431085493
 33
0.0000000000003952
  0
SOLID
  5
189
330
183
100
AcDbEntity
  8
cotas
100
AcDbTrace
 10
6547.203809604387
 20
2449.305885722941
 30
0.0000000000003952
 11
6550.53714293772
 21
2449.305885722941
 31
0.0000000000003952
 12
6548.870476271054
 22
2439.305885722941
 32
0.0000000000003952
 13
6548.870476271054
 23
2439.305885722941
 33
0.0000000000003952
  0
MTEXT
  5
18A
330
183
100
AcDbEntity
  8
cotas
100
AcDbMText
 10
6538.642135102484
 20
2479.307658404218
 30
0.0000000000003952
 40
10.0
 41
0.0
 71
     5
 72
     1
  1
80
  7
SANINDUSA
 11
0.0000000000000001
 21
1.0
 31
0.0
 73
     1
 44
1.0
1001
ACAD
1000
MTEXTBEGIN
1070
    73
1070
     1
1070
    44
1040
1.0
1070
    74
1070
     0
1000
MTEXTEND
  0
POINT
  5
18B
330
183
100
AcDbEntity
  8
Defpoints
 62
     0
100
AcDbPoint
 10
6229.255194972192
 20
2519.309431085493
 30
0.0000000000003952
  0
POINT
  5
18C
330
183
100
AcDbEntity
  8
Defpoints
 62
     0
100
AcDbPoint
 10
6237.395285640555
 20
2439.305885722941
 30
0.0000000000003952
  0
POINT
  5
18D
330
183
100
AcDbEntity
  8
Defpoints
 62
     0
100
AcDbPoint
 10
6548.870476271054
 20
2439.305885722941
 30
0.0000000000003952
  0
ENDBLK
  5
18E
330
183
100
AcDbEntity
  8
0
100
AcDbBlockEnd
  0
BLOCK
  5
190
330
18F
100
AcDbEntity
  8
0
100
AcDbBlockBegin
  2
*D33
 70
     1
 10
0.0
 20
0.0
 30
0.0
  3
*D33
  1

  0
LINE
  5
191
330
18F
100
AcDbEntity
  8
cotas
100
AcDbLine
 10
6234.343379886148
 20
2439.310132562422
 30
0.0000000000003952
 11
6553.870476271054
 21
2439.310132562422
 31
0.0000000000003952
  0
LINE
  5
192
330
18F
100
AcDbEntity
  8
cotas
100
AcDbLine
 10
6242.355380622003
 20
2359.30482428263
 30
0.0000000000003952
 11
6553.870476271054
 21
2359.30482428263
 31
0.0000000000003952
  0
LINE
  5
193
330
18F
100
AcDbEntity
  8
cotas
100
AcDbLine
 10
6548.870476271054
 20
2429.310132562422
 30
0.0000000000003952
 11
6548.870476271054
 21
2369.30482428263
 31
0.0000000000003952
  0
SOLID
  5
194
330
18F
100
AcDbEntity
  8
cotas
100
AcDbTrace
 10
6547.203809604387
 20
2429.310132562422
 30
0.0000000000003952
 11
6550.53714293772
 21
2429.310132562422
 31
0.0000000000003952
 12
6548.870476271054
 22
2439.310132562422
 32
0.0000000000003952
 13
6548.870476271054
 23
2439.310132562422
 33
0.0000000000003952
  0
SOLID
  5
195
330
18F
100
AcDbEntity
  8
cotas
100
AcDbTrace
 10
6547.203809604387
 20
2369.30482428263
 30
0.0000000000003952
 11
6550.53714293772
 21
2369.30482428263
 31
0.0000000000003952
 12
6548.870476271054
 22
2359.30482428263
 32
0.0000000000003952
 13
6548.870476271054
 23
2359.30482428263
 33
0.0000000000003952
  0
MTEXT
  5
196
330
18F
100
AcDbEntity
  8
cotas
100
AcDbMText
 10
6538.642135102484
 20
2399.307478422527
 30
0.0000000000003952
 40
10.0
 41
0.0
 71
     5
 72
     1
  1
80
  7
SANINDUSA
 11
0.0000000000000001
 21
1.0
 31
0.0
 73
     1
 44
1.0
1001
ACAD
1000
MTEXTBEGIN
1070
    73
1070
     1
1070
    44
1040
1.0
1070
    74
1070
     0
1000
MTEXTEND
  0
POINT
  5
197
330
18F
100
AcDbEntity
  8
Defpoints
 62
     0
100
AcDbPoint
 10
6229.343379886148
 20
2439.310132562422
 30
0.0000000000003952
  0
POINT
  5
198
330
18F
100
AcDbEntity
  8
Defpoints
 62
     0
100
AcDbPoint
 10
6237.355380622002
 20
2359.30482428263
 30
0.0000000000003952
  0
POINT
  5
199
330
18F
100
AcDbEntity
  8
Defpoints
 62
     0
100
AcDbPoint
 10
6548.870476271054
 20
2359.30482428263
 30
0.0000000000003952
  0
ENDBLK
  5
19A
330
18F
100
AcDbEntity
  8
0
100
AcDbBlockEnd
  0
BLOCK
  5
19C
330
19B
100
AcDbEntity
  8
0
100
AcDbBlockBegin
  2
*D34
 70
     1
 10
0.0
 20
0.0
 30
0.0
  3
*D34
  1

  0
LINE
  5
19D
330
19B
100
AcDbEntity
  8
cotas
100
AcDbLine
 10
6234.303474867597
 20
2359.309071122111
 30
0.0000000000003952
 11
6553.869768464474
 21
2359.309071122111
 31
0.0000000000003952
  0
LINE
  5
19E
330
19B
100
AcDbEntity
  8
cotas
100
AcDbLine
 10
6518.795171082058
 20
2189.317395443787
 30
0.0000000000003952
 11
6553.869768464474
 21
2189.317395443787
 31
0.0000000000003952
  0
LINE
  5
19F
330
19B
100
AcDbEntity
  8
cotas
100
AcDbLine
 10
6548.869768464474
 20
2349.309071122111
 30
0.0000000000003952
 11
6548.869768464474
 21
2199.317395443787
 31
0.0000000000003952
  0
SOLID
  5
1A0
330
19B
100
AcDbEntity
  8
cotas
100
AcDbTrace
 10
6547.203101797807
 20
2349.309071122111
 30
0.0000000000003952
 11
6550.536435131141
 21
2349.309071122111
 31
0.0000000000003952
 12
6548.869768464474
 22
2359.309071122111
 32
0.0000000000003952
 13
6548.869768464474
 23
2359.309071122111
 33
0.0000000000003952
  0
SOLID
  5
1A1
330
19B
100
AcDbEntity
  8
cotas
100
AcDbTrace
 10
6547.203101797807
 20
2199.317395443787
 30
0.0000000000003952
 11
6550.536435131141
 21
2199.317395443787
 31
0.0000000000003952
 12
6548.869768464474
 22
2189.317395443787
 32
0.0000000000003952
 13
6548.869768464474
 23
2189.317395443787
 33
0.0000000000003952
  0
MTEXT
  5
1A2
330
19B
100
AcDbEntity
  8
cotas
100
AcDbMText
 10
6538.664933004433
 20
2274.31323328295
 30
0.0000000000003952
 40
10.0
 41
0.0
 71
     5
 72
     1
  1
170
  7
SANINDUSA
 11
0.0000000000000001
 21
1.0
 31
0.0
 73
     1
 44
1.0
1001
ACAD
1000
MTEXTBEGIN
1070
    73
1070
     1
1070
    44
1040
1.0
1070
    74
1070
     0
1000
MTEXTEND
  0
POINT
  5
1A3
330
19B
100
AcDbEntity
  8
Defpoints
 62
     0
100
AcDbPoint
 10
6229.303474867596
 20
2359.309071122111
 30
0.0000000000003952
  0
POINT
  5
1A4
330
19B
100
AcDbEntity
  8
Defpoints
 62
     0
100
AcDbPoint
 10
6513.795171082058
 20
2189.317395443787
 30
0.0000000000003952
  0
POINT
  5
1A5
330
19B
100
AcDbEntity
  8
Defpoints
 62
     0
100
AcDbPoint
 10
6548.869768464474
 20
2189.317395443787
 30
0.0000000000003952
  0
ENDBLK
  5
1A6
330
19B
100
AcDbEntity
  8
0
100
AcDbBlockEnd
  0
BLOCK
  5
1A8
330
1A7
100
AcDbEntity
  8
0
100
AcDbBlockBegin
  2
*D35
 70
     1
 10
0.0
 20
0.0
 30
0.0
  3
*D35
  1

  0
LINE
  5
1A9
330
1A7
100
AcDbEntity
  8
cotas
100
AcDbLine
 10
6234.298967479434
 20
2919.317572284132
 30
0.0000000000003952
 11
6553.850255397539
 21
2919.317572284132
 31
0.0000000000003952
  0
LINE
  5
1AA
330
1A7
100
AcDbEntity
  8
cotas
100
AcDbLine
 10
6518.151987710272
 20
3089.330138651951
 30
0.0000000000003952
 11
6553.850255397539
 21
3089.330138651951
 31
0.0000000000003952
  0
LINE
  5
1AB
330
1A7
100
AcDbEntity
  8
cotas
100
AcDbLine
 10
6548.850255397539
 20
2929.317572284133
 30
0.0000000000003952
 11
6548.850255397539
 21
3079.330138651951
 31
0.0000000000003952
  0
SOLID
  5
1AC
330
1A7
100
AcDbEntity
  8
cotas
100
AcDbTrace
 10
6547.183588730871
 20
2929.317572284133
 30
0.0000000000003952
 11
6550.516922064206
 21
2929.317572284133
 31
0.0000000000003952
 12
6548.850255397539
 22
2919.317572284132
 32
0.0000000000003952
 13
6548.850255397539
 23
2919.317572284132
 33
0.0000000000003952
  0
SOLID
  5
1AD
330
1A7
100
AcDbEntity
  8
cotas
100
AcDbTrace
 10
6547.183588730871
 20
3079.330138651951
 30
0.0000000000003952
 11
6550.516922064206
 21
3079.330138651951
 31
0.0000000000003952
 12
6548.850255397539
 22
3089.330138651951
 32
0.0000000000003952
 13
6548.850255397539
 23
3089.330138651951
 33
0.0000000000003952
  0
MTEXT
  5
1AE
330
1A7
100
AcDbEntity
  8
cotas
100
AcDbMText
 10
6538.645419937498
 20
3004.323855468042
 30
0.0000000000003952
 40
10.0
 41
0.0
 71
     5
 72
     1
  1
170
  7
SANINDUSA
 11
0.0000000000000001
 21
1.0
 31
0.0
 73
     1
 44
1.0
1001
ACAD
1000
MTEXTBEGIN
1070
    73
1070
     1
1070
    44
1040
1.0
1070
    74
1070
     0
1000
MTEXTEND
  0
POINT
  5
1AF
330
1A7
100
AcDbEntity
  8
Defpoints
 62
     0
100
AcDbPoint
 10
6229.298967479433
 20
2919.317572284132
 30
0.0000000000003952
  0
POINT
  5
1B0
330
1A7
100
AcDbEntity
  8
Defpoints
 62
     0
100
AcDbPoint
 10
6513.15198771027
 20
3089.330138651951
 30
0.0000000000002031
  0
POINT
  5
1B1
330
1A7
100
AcDbEntity
  8
Defpoints
 62
     0
100
AcDbPoint
 10
6548.850255397539
 20
3089.330138651951
 30
0.0000000000003952
  0
ENDBLK
  5
1B2
330
1A7
100
AcDbEntity
  8
0
100
AcDbBlockEnd
  0
BLOCK
  5
1B4
330
1B3
100
AcDbEntity
  8
0
100
AcDbBlockBegin
  2
*D36
 70
     1
 10
0.0
 20
0.0
 30
0.0
  3
*D36
  1

  0
LINE
  5
1B5
330
1B3
100
AcDbEntity
  8
cotas
100
AcDbLine
 10
4856.769246177739
 20
2225.44310397607
 30
0.0
 11
4887.707255132123
 21
2257.847549572211
 31
0.0
  0
MTEXT
  5
1B6
330
1B3
100
AcDbEntity
  8
cotas
100
AcDbMText
 10
4861.402078420981
 20
2245.078194989451
 30
0.0
 40
10.0
 41
0.0
 71
     5
 72
     1
  1
R20
  7
SANINDUSA
 11
0.6905515714747068
 21
0.7232831583369083
 31
0.0
 73
     1
 44
1.0
1001
ACAD
1000
MTEXTBEGIN
1070
    73
1070
     1
1070
    44
1040
1.0
1070
    74
1070
     0
1000
MTEXTEND
  0
LINE
  5
1B7
330
1B3
100
AcDbEntity
  8
cotas
100
AcDbLine
 10
4908.423802276364
 20
2279.546044322318
 30
0.0
 11
4894.61277084687
 21
2265.080381155581
 31
0.0
  0
SOLID
  5
1B8
330
1B3
100
AcDbEntity
  8
cotas
100
AcDbTrace
 10
4886.501783201561
 20
2258.998468858003
 30
0.0
 11
4888.912727062685
 21
2256.69663028642
 31
0.0
 12
4894.61277084687
 22
2265.080381155581
 32
0.0
 13
4894.61277084687
 23
2265.080381155581
 33
0.0
  0
POINT
  5
1B9
330
1B3
100
AcDbEntity
  8
Defpoints
 62
     0
100
AcDbPoint
 10
4894.61277084687
 20
2265.080381155581
 30
0.0
  0
POINT
  5
1BA
330
1B3
100
AcDbEntity
  8
Defpoints
 62
     0
100
AcDbPoint
 10
4908.423802276364
 20
2279.546044322318
 30
0.0
  0
ENDBLK
  5
1BB
330
1B3
100
AcDbEntity
  8
0
100
AcDbBlockEnd
  0
BLOCK
  5
1BD
330
1BC
100
AcDbEntity
  8
0
100
AcDbBlockBegin
  2
*D37
 70
     1
 10
0.0
 20
0.0
 30
0.0
  3
*D37
  1

  0
LINE
  5
1BE
330
1BC
100
AcDbEntity
  8
cotas
100
AcDbLine
 10
4962.845207280889
 20
2337.008373764789
 30
0.0
 11
4930.342491887532
 21
2306.173620895448
 31
0.0
  0
MTEXT
  5
1BF
330
1BC
100
AcDbEntity
  8
cotas
100
AcDbMText
 10
4943.19778671888
 20
2332.435600770597
 30
0.0
 40
10.0
 41
0.0
 71
     5
 72
     1
  1
R10
  7
SANINDUSA
 11
0.7254765885280605
 21
0.6882468448875646
 31
0.0
 73
     1
 44
1.0
1001
ACAD
1000
MTEXTBEGIN
1070
    73
1070
     1
1070
    44
1040
1.0
1070
    74
1070
     0
1000
MTEXTEND
  0
SOLID
  5
1C0
330
1BC
100
AcDbEntity
  8
cotas
100
AcDbTrace
 10
4929.19541381272
 20
2307.382748542995
 30
0.0
 11
4931.489569962344
 21
2304.964493247902
 31
0.0
 12
4923.087726002251
 22
2299.291152446572
 32
0.0
 13
4923.087726002251
 23
2299.291152446572
 33
0.0
  0
POINT
  5
1C1
330
1BC
100
AcDbEntity
  8
Defpoints
 62
     0
100
AcDbPoint
 10
4923.087726002251
 20
2299.291152446572
 30
0.0
  0
POINT
  5
1C2
330
1BC
100
AcDbEntity
  8
Defpoints
 62
     0
100
AcDbPoint
 10
4930.342491887524
 20
2306.173620895441
 30
0.0
  0
ENDBLK
  5
1C3
330
1BC
100
AcDbEntity
  8
0
100
AcDbBlockEnd
  0
BLOCK
  5
1C5
330
1C4
100
AcDbEntity
  8
0
100
AcDbBlockBegin
  2
*D38
 70
     1
 10
0.0
 20
0.0
 30
0.0
  3
*D38
  1

  0
LINE
  5
1C6
330
1C4
100
AcDbEntity
  8
cotas
100
AcDbLine
 10
5338.215644557346
 20
2335.005196093477
 30
0.0
 11
5373.131220246509
 21
2306.931880173381
 31
0.0
  0
MTEXT
  5
1C7
330
1C4
100
AcDbEntity
  8
cotas
100
AcDbMText
 10
5358.171222454393
 20
2332.054552368505
 30
0.0
 40
10.0
 41
0.0
 71
     5
 72
     1
  1
R10
  7
SANINDUSA
 11
0.7793328166865369
 21
-0.6266102144359193
 31
0.0
 73
     1
 44
1.0
1001
ACAD
1000
MTEXTBEGIN
1070
    73
1070
     1
1070
    44
1040
1.0
1070
    74
1070
     0
1000
MTEXTEND
  0
SOLID
  5
1C8
330
1C4
100
AcDbEntity
  8
cotas
100
AcDbTrace
 10
5374.175570603902
 20
2308.230768201191
 30
0.0
 11
5372.086869889115
 21
2305.632992145569
 31
0.0
 12
5380.924548413373
 22
2300.665778029021
 32
0.0
 13
5380.924548413373
 23
2300.665778029021
 33
0.0
  0
POINT
  5
1C9
330
1C4
100
AcDbEntity
  8
Defpoints
 62
     0
100
AcDbPoint
 10
5380.924548413373
 20
2300.665778029021
 30
0.0
  0
POINT
  5
1CA
330
1C4
100
AcDbEntity
  8
Defpoints
 62
     0
100
AcDbPoint
 10
5373.131220246509
 20
2306.93188017338
 30
0.0
  0
ENDBLK
  5
1CB
330
1C4
100
AcDbEntity
  8
0
100
AcDbBlockEnd
  0
BLOCK
  5
1CD
330
1CC
100
AcDbEntity
  8
0
100
AcDbBlockBegin
  2
*D39
 70
     1
 10
0.0
 20
0.0
 30
0.0
  3
*D39
  1

  0
LINE
  5
1CE
330
1CC
100
AcDbEntity
  8
cotas
100
AcDbLine
 10
4855.143941307609
 20
3051.601718807101
 30
0.0
 11
4887.055411125192
 21
3020.155469642275
 31
0.0
  0
MTEXT
  5
1CF
330
1CC
100
AcDbEntity
  8
cotas
100
AcDbMText
 10
4874.703365236239
 20
3046.659161849623
 30
0.0
 40
10.0
 41
0.0
 71
     5
 72
     1
  1
R20
  7
SANINDUSA
 11
0.7122796965729518
 21
-0.701895742863528
 31
0.0
 73
     1
 44
1.0
1001
ACAD
1000
MTEXTBEGIN
1070
    73
1070
     1
1070
    44
1040
1.0
1070
    74
1070
     0
1000
MTEXTEND
  0
LINE
  5
1D0
330
1CC
100
AcDbEntity
  8
cotas
100
AcDbLine
 10
4908.423802022382
 20
2999.098597356369
 30
0.0
 11
4894.178208090923
 21
3013.13651221364
 31
0.0
  0
SOLID
  5
1D1
330
1CC
100
AcDbEntity
  8
cotas
100
AcDbTrace
 10
4888.225237363298
 20
3021.342602469896
 30
0.0
 11
4885.885584887086
 21
3018.968336814653
 31
0.0
 12
4894.178208090923
 22
3013.13651221364
 32
0.0
 13
4894.178208090923
 23
3013.13651221364
 33
0.0
  0
POINT
  5
1D2
330
1CC
100
AcDbEntity
  8
Defpoints
 62
     0
100
AcDbPoint
 10
4894.178208090923
 20
3013.13651221364
 30
0.0
  0
POINT
  5
1D3
330
1CC
100
AcDbEntity
  8
Defpoints
 62
     0
100
AcDbPoint
 10
4908.423802022382
 20
2999.098597356369
 30
0.0
  0
ENDBLK
  5
1D4
330
1CC
100
AcDbEntity
  8
0
100
AcDbBlockEnd
  0
BLOCK
  5
1D6
330
1D5
100
AcDbEntity
  8
0
100
AcDbBlockBegin
  2
*D40
 70
     1
 10
0.0
 20
0.0
 30
0.0
  3
*D40
  1

  0
LINE
  5
1D7
330
1D5
100
AcDbEntity
  8
cotas
100
AcDbLine
 10
4959.512256711238
 20
2938.441550079885
 30
0.0
 11
4930.342703234271
 21
2972.4466326766
 31
0.0
  0
MTEXT
  5
1D8
330
1D5
100
AcDbEntity
  8
cotas
100
AcDbMText
 10
4955.928447679141
 20
2958.293192339866
 30
0.0
 40
10.0
 41
0.0
 71
     5
 72
     1
  1
R10
  7
SANINDUSA
 11
0.6510787757038134
 21
-0.7590101631915239
 31
0.0
 73
     1
 44
1.0
1001
ACAD
1000
MTEXTBEGIN
1070
    73
1070
     1
1070
    44
1040
1.0
1070
    74
1070
     0
1000
MTEXTEND
  0
SOLID
  5
1D9
330
1D5
100
AcDbEntity
  8
cotas
100
AcDbTrace
 10
4931.607720172924
 20
2973.53176396944
 30
0.0
 11
4929.077686295618
 21
2971.36150138376
 31
0.0
 12
4923.831915477233
 22
2980.036734308515
 32
0.0
 13
4923.831915477233
 23
2980.036734308515
 33
0.0
  0
POINT
  5
1DA
330
1D5
100
AcDbEntity
  8
Defpoints
 62
     0
100
AcDbPoint
 10
4923.831915477233
 20
2980.036734308515
 30
0.0
  0
POINT
  5
1DB
330
1D5
100
AcDbEntity
  8
Defpoints
 62
     0
100
AcDbPoint
 10
4930.342703234272
 20
2972.446632676599
 30
0.0
  0
ENDBLK
  5
1DC
330
1D5
100
AcDbEntity
  8
0
100
AcDbBlockEnd
  0
BLOCK
  5
1DE
330
1DD
100
AcDbEntity
  8
0
100
AcDbBlockBegin
  2
*D41
 70
     1
 10
0.0
 20
0.0
 30
0.0
  3
*D41
  1

  0
LINE
  5
1DF
330
1DD
100
AcDbEntity
  8
cotas
100
AcDbLine
 10
6478.686728981195
 20
2224.02150679805
 30
0.0000000000003952
 11
6448.670661586479
 21
2257.281756204974
 31
0.0000000000003952
  0
MTEXT
  5
1E0
330
1DD
100
AcDbEntity
  8
cotas
100
AcDbMText
 10
6474.606973094343
 20
2243.77892377501
 30
0.0000000000003952
 40
10.0
 41
0.0
 71
     5
 72
     1
  1
R20
  7
SANINDUSA
 11
0.6699733825622948
 21
-0.7423851201755306
 31
0.0
 73
     1
 44
1.0
1001
ACAD
1000
MTEXTBEGIN
1070
    73
1070
     1
1070
    44
1040
1.0
1070
    74
1070
     0
1000
MTEXTEND
  0
LINE
  5
1E1
330
1DD
100
AcDbEntity
  8
cotas
100
AcDbLine
 10
6428.571460109613
 20
2279.553309810237
 30
0.0000000000003952
 11
6441.970927760856
 21
2264.70560740673
 31
0.0000000000003952
  0
SOLID
  5
1E2
330
1DD
100
AcDbEntity
  8
cotas
100
AcDbTrace
 10
6449.907970120105
 20
2258.398378509244
 30
0.0000000000003952
 11
6447.433353052852
 21
2256.165133900703
 31
0.0000000000003952
 12
6441.970927760856
 22
2264.70560740673
 32
0.0000000000003952
 13
6441.970927760856
 23
2264.70560740673
 33
0.0000000000003952
  0
POINT
  5
1E3
330
1DD
100
AcDbEntity
  8
Defpoints
 62
     0
100
AcDbPoint
 10
6441.970927760856
 20
2264.70560740673
 30
0.0000000000003952
  0
POINT
  5
1E4
330
1DD
100
AcDbEntity
  8
Defpoints
 62
     0
100
AcDbPoint
 10
6428.571460109613
 20
2279.553309810237
 30
0.0000000000003952
  0
ENDBLK
  5
1E5
330
1DD
100
AcDbEntity
  8
0
100
AcDbBlockEnd
  0
BLOCK
  5
1E7
330
1E6
100
AcDbEntity
  8
0
100
AcDbBlockBegin
  2
*D42
 70
     1
 10
0.0
 20
0.0
 30
0.0
  3
*D42
  1

  0
LINE
  5
1E8
330
1E6
100
AcDbEntity
  8
cotas
100
AcDbLine
 10
6481.992313584432
 20
3051.453087159081
 30
0.0000000000003952
 11
6449.989102542149
 21
3020.10020889507
 31
0.0000000000003952
  0
MTEXT
  5
1E9
330
1E6
100
AcDbEntity
  8
cotas
100
AcDbMText
 10
6462.418532326473
 20
3046.56769864195
 30
0.0000000000003952
 40
10.0
 41
0.0
 71
     5
 72
     1
  1
R20
  7
SANINDUSA
 11
0.7143274058156264
 21
0.6998116584486983
 31
0.0
 73
     1
 44
1.0
1001
ACAD
1000
MTEXTBEGIN
1070
    73
1070
     1
1070
    44
1040
1.0
1070
    74
1070
     0
1000
MTEXTEND
  0
LINE
  5
1EA
330
1E6
100
AcDbEntity
  8
cotas
100
AcDbLine
 10
6428.559280367678
 20
2999.105859141607
 30
0.0000000000003952
 11
6442.845828483993
 21
3013.102092310584
 31
0.0000000000003952
  0
SOLID
  5
1EB
330
1E6
100
AcDbEntity
  8
cotas
100
AcDbTrace
 10
6448.822749778067
 20
3021.29075457143
 30
0.0000000000003952
 11
6451.15545530623
 21
3018.909663218711
 31
0.0000000000003952
 12
6442.845828483993
 22
3013.102092310584
 32
0.0000000000003952
 13
6442.845828483993
 23
3013.102092310584
 33
0.0000000000003952
  0
POINT
  5
1EC
330
1E6
100
AcDbEntity
  8
Defpoints
 62
     0
100
AcDbPoint
 10
6442.845828483993
 20
3013.102092310584
 30
0.0000000000003952
  0
POINT
  5
1ED
330
1E6
100
AcDbEntity
  8
Defpoints
 62
     0
100
AcDbPoint
 10
6428.559280367678
 20
2999.105859141607
 30
0.0000000000003952
  0
ENDBLK
  5
1EE
330
1E6
100
AcDbEntity
  8
0
100
AcDbBlockEnd
  0
BLOCK
  5
1F0
330
1EF
100
AcDbEntity
  8
0
100
AcDbBlockBegin
  2
*D43
 70
     1
 10
0.0
 20
0.0
 30
0.0
  3
*D43
  1

  0
LINE
  5
1F1
330
1EF
100
AcDbEntity
  8
cotas
100
AcDbLine
 10
6543.663058487988
 20
2153.475327240175
 30
0.0000000000002031
 11
6522.127486766184
 21
2182.311801965985
 31
0.0000000000002031
  0
MTEXT
  5
1F2
330
1EF
100
AcDbEntity
  8
cotas
100
AcDbMText
 10
6543.982734722975
 20
2169.933406406045
 30
0.0000000000002031
 40
10.0
 41
0.0
 71
     5
 72
     1
  1
R5
  7
SANINDUSA
 11
0.598366603727679
 21
-0.8012224457311482
 31
0.0
 73
     1
 44
1.0
1001
ACAD
1000
MTEXTBEGIN
1070
    73
1070
     1
1070
    44
1040
1.0
1070
    74
1070
     0
1000
MTEXTEND
  0
LINE
  5
1F3
330
1EF
100
AcDbEntity
  8
cotas
100
AcDbLine
 10
6513.151987710269
 20
2194.330138651952
 30
0.0000000000002031
 11
6516.143820728906
 21
2190.324026423297
 31
0.0000000000002031
  0
SOLID
  5
1F4
330
1EF
100
AcDbEntity
  8
cotas
100
AcDbTrace
 10
6523.46285750907
 20
2183.309079638865
 30
0.0000000000002031
 11
6520.792116023298
 21
2181.314524293105
 31
0.0000000000002031
 12
6516.143820728906
 22
2190.324026423297
 32
0.0000000000002031
 13
6516.143820728906
 23
2190.324026423297
 33
0.0000000000002031
  0
POINT
  5
1F5
330
1EF
100
AcDbEntity
  8
Defpoints
 62
     0
100
AcDbPoint
 10
6516.143820728906
 20
2190.324026423297
 30
0.0000000000002031
  0
POINT
  5
1F6
330
1EF
100
AcDbEntity
  8
Defpoints
 62
     0
100
AcDbPoint
 10
6513.151987710269
 20
2194.330138651952
 30
0.0000000000002031
  0
ENDBLK
  5
1F7
330
1EF
100
AcDbEntity
  8
0
100
AcDbBlockEnd
  0
BLOCK
  5
1F9
330
1F8
100
AcDbEntity
  8
0
100
AcDbBlockBegin
  2
*D44
 70
     1
 10
0.0
 20
0.0
 30
0.0
  3
*D44
  1

  0
LINE
  5
1FA
330
1F8
100
AcDbEntity
  8
cotas
100
AcDbLine
 10
6229.992927594667
 20
2727.372812651152
 30
0.000000000000107
 11
6273.008775830597
 21
2692.355704757301
 31
0.000000000000107
  0
LINE
  5
1FB
330
1F8
100
AcDbEntity
  8
cotas
100
AcDbLine
 10
6403.274185193691
 20
2586.312976749584
 30
0.000000000000107
 11
6411.029433773821
 21
2579.999806431877
 31
0.000000000000107
  0
MTEXT
  5
1FC
330
1F8
100
AcDbEntity
  8
cotas
100
AcDbMText
 10
6254.504540670141
 20
2721.474012731819
 30
0.000000000000107
 40
10.0
 41
0.0
 71
     5
 72
     1
  1
\U+2205148
  7
SANINDUSA
 11
0.7755248580130822
 21
-0.6313170317707173
 31
0.0
 73
     1
 44
1.0
1001
ACAD
1000
MTEXTBEGIN
1070
    73
1070
     1
1070
    44
1040
1.0
1070
    74
1070
     0
1000
MTEXTEND
  0
LINE
  5
1FD
330
1F8
100
AcDbEntity
  8
cotas
100
AcDbLine
 10
6395.518936613559
 20
2592.626147067291
 30
0.000000000000107
 11
6280.764024410729
 21
2686.042534439594
 31
0.000000000000107
  0
SOLID
  5
1FE
330
1F8
100
AcDbEntity
  8
cotas
100
AcDbTrace
 10
6404.326380246641
 20
2587.605518179607
 30
0.000000000000107
 11
6402.22199014074
 21
2585.020435319562
 31
0.000000000000107
 12
6395.518936613559
 22
2592.626147067291
 32
0.000000000000107
 13
6395.518936613559
 23
2592.626147067291
 33
0.000000000000107
  0
SOLID
  5
1FF
330
1F8
100
AcDbEntity
  8
cotas
100
AcDbTrace
 10
6274.060970883549
 20
2693.648246187323
 30
0.000000000000107
 11
6271.956580777645
 21
2691.063163327279
 31
0.000000000000107
 12
6280.764024410729
 22
2686.042534439594
 32
0.000000000000107
 13
6280.764024410729
 23
2686.042534439594
 33
0.000000000000107
  0
POINT
  5
200
330
1F8
100
AcDbEntity
  8
Defpoints
 62
     0
100
AcDbPoint
 10
6280.764024410729
 20
2686.042534439594
 30
0.000000000000107
  0
POINT
  5
201
330
1F8
100
AcDbEntity
  8
Defpoints
 62
     0
100
AcDbPoint
 10
6395.518936613559
 20
2592.626147067291
 30
0.000000000000107
  0
ENDBLK
  5
202
330
1F8
100
AcDbEntity
  8
0
100
AcDbBlockEnd
  0
BLOCK
  5
204
330
203
100
AcDbEntity
  8
0
100
AcDbBlockBegin
  2
*D45
 70
     1
 10
0.0
 20
0.0
 30
0.0
  3
*D45
  1

  0
LINE
  5
205
330
203
100
AcDbEntity
  8
cotas
100
AcDbLine
 10
6077.724213792208
 20
2959.756024271164
 30
-0.0000000000000225
 11
6077.724213792208
 21
3125.005109561322
 31
-0.0000000000000225
  0
LINE
  5
206
330
203
100
AcDbEntity
  8
cotas
100
AcDbLine
 10
6157.69754996511
 20
2959.755887272016
 30
-0.0000000000000225
 11
6157.69754996511
 21
3125.005109561322
 31
-0.0000000000000225
  0
LINE
  5
207
330
203
100
AcDbEntity
  8
cotas
100
AcDbLine
 10
6087.724213792209
 20
3120.005109561321
 30
-0.0000000000000225
 11
6147.697549965109
 21
3120.005109561321
 31
-0.0000000000000225
  0
SOLID
  5
208
330
203
100
AcDbEntity
  8
cotas
100
AcDbTrace
 10
6087.724213792209
 20
3121.671776227988
 30
-0.0000000000000225
 11
6087.724213792209
 21
3118.338442894655
 31
-0.0000000000000225
 12
6077.724213792208
 22
3120.005109561321
 32
-0.0000000000000225
 13
6077.724213792208
 23
3120.005109561321
 33
-0.0000000000000225
  0
SOLID
  5
209
330
203
100
AcDbEntity
  8
cotas
100
AcDbTrace
 10
6147.697549965109
 20
3121.671776227988
 30
-0.0000000000000225
 11
6147.697549965109
 21
3118.338442894655
 31
-0.0000000000000225
 12
6157.69754996511
 22
3120.005109561321
 32
-0.0000000000000225
 13
6157.69754996511
 23
3120.005109561321
 33
-0.0000000000000225
  0
MTEXT
  5
20A
330
203
100
AcDbEntity
  8
cotas
100
AcDbMText
 10
6117.710881878659
 20
3130.233450729891
 30
-0.0000000000000225
 40
10.0
 41
0.0
 71
     5
 72
     1
  1
80
  7
SANINDUSA
 73
     1
 44
1.0
1001
ACAD
1000
MTEXTBEGIN
1070
    73
1070
     1
1070
    44
1040
1.0
1070
    74
1070
     0
1000
MTEXTEND
  0
POINT
  5
20B
330
203
100
AcDbEntity
  8
Defpoints
 62
     0
100
AcDbPoint
 10
6077.724213792208
 20
2954.756024271164
 30
-0.0000000000000225
  0
POINT
  5
20C
330
203
100
AcDbEntity
  8
Defpoints
 62
     0
100
AcDbPoint
 10
6157.69754996511
 20
2954.755887272016
 30
-0.0000000000000225
  0
POINT
  5
20D
330
203
100
AcDbEntity
  8
Defpoints
 62
     0
100
AcDbPoint
 10
6157.69754996511
 20
3120.005109561321
 30
-0.0000000000000225
  0
ENDBLK
  5
20E
330
203
100
AcDbEntity
  8
0
100
AcDbBlockEnd
  0
BLOCK
  5
210
330
20F
100
AcDbEntity
  8
0
100
AcDbBlockBegin
  2
*D46
 70
     1
 10
0.0
 20
0.0
 30
0.0
  3
*D46
  1

  0
LINE
  5
211
330
20F
100
AcDbEntity
  8
cotas
100
AcDbLine
 10
6338.168828813886
 20
3095.005307681287
 30
0.0
 11
6338.168828813886
 21
3125.008318632402
 31
0.0
  0
LINE
  5
212
330
20F
100
AcDbEntity
  8
cotas
100
AcDbLine
 10
6518.187923554288
 20
3089.33097431256
 30
0.0
 11
6518.187923554288
 21
3125.008318632402
 31
0.0
  0
LINE
  5
213
330
20F
100
AcDbEntity
  8
cotas
100
AcDbLine
 10
6348.168828813886
 20
3120.008318632402
 30
0.0
 11
6508.187923554287
 21
3120.008318632402
 31
0.0
  0
SOLID
  5
214
330
20F
100
AcDbEntity
  8
cotas
100
AcDbTrace
 10
6348.168828813886
 20
3121.674985299069
 30
0.0
 11
6348.168828813886
 21
3118.341651965736
 31
0.0
 12
6338.168828813886
 22
3120.008318632402
 32
0.0
 13
6338.168828813886
 23
3120.008318632402
 33
0.0
  0
SOLID
  5
215
330
20F
100
AcDbEntity
  8
cotas
100
AcDbTrace
 10
6508.187923554287
 20
3121.674985299069
 30
0.0
 11
6508.187923554287
 21
3118.341651965736
 31
0.0
 12
6518.187923554288
 22
3120.008318632402
 32
0.0
 13
6518.187923554288
 23
3120.008318632402
 33
0.0
  0
MTEXT
  5
216
330
20F
100
AcDbEntity
  8
cotas
100
AcDbMText
 10
6428.178376184087
 20
3130.236659800971
 30
0.0
 40
10.0
 41
0.0
 71
     5
 72
     1
  1
180
  7
SANINDUSA
 73
     1
 44
1.0
1001
ACAD
1000
MTEXTBEGIN
1070
    73
1070
     1
1070
    44
1040
1.0
1070
    74
1070
     0
1000
MTEXTEND
  0
POINT
  5
217
330
20F
100
AcDbEntity
  8
Defpoints
 62
     0
100
AcDbPoint
 10
6338.168828813886
 20
3090.005307681287
 30
-0.0000000000000423
  0
POINT
  5
218
330
20F
100
AcDbEntity
  8
Defpoints
 62
     0
100
AcDbPoint
 10
6518.187923554288
 20
3084.33097431256
 30
0.0
  0
POINT
  5
219
330
20F
100
AcDbEntity
  8
Defpoints
 62
     0
100
AcDbPoint
 10
6518.187923554288
 20
3120.008318632402
 30
0.0
  0
ENDBLK
  5
21A
330
20F
100
AcDbEntity
  8
0
100
AcDbBlockEnd
  0
BLOCK
  5
21C
330
21B
100
AcDbEntity
  8
0
100
AcDbBlockBegin
  2
*D47
 70
     1
 10
0.0
 20
0.0
 30
0.0
  3
*D47
  1

  0
LINE
  5
21D
330
21B
100
AcDbEntity
  8
cotas
100
AcDbLine
 10
3778.737488147643
 20
3701.448918777041
 30
0.0
 11
3778.737488147643
 21
3731.44891877704
 31
0.0
  0
LINE
  5
21E
330
21B
100
AcDbEntity
  8
cotas
100
AcDbLine
 10
4678.737491805456
 20
3701.448918777041
 30
0.0
 11
4678.737491805456
 21
3731.44891877704
 31
0.0
  0
LINE
  5
21F
330
21B
100
AcDbEntity
  8
cotas
100
AcDbLine
 10
3788.737488147642
 20
3726.448918777041
 30
0.0
 11
4668.737491805456
 21
3726.448918777041
 31
0.0
  0
SOLID
  5
220
330
21B
100
AcDbEntity
  8
cotas
100
AcDbTrace
 10
3788.737488147642
 20
3728.115585443708
 30
0.0
 11
3788.737488147642
 21
3724.782252110375
 31
0.0
 12
3778.737488147643
 22
3726.448918777041
 32
0.0
 13
3778.737488147643
 23
3726.448918777041
 33
0.0
  0
SOLID
  5
221
330
21B
100
AcDbEntity
  8
cotas
100
AcDbTrace
 10
4668.737491805456
 20
3728.115585443708
 30
0.0
 11
4668.737491805456
 21
3724.782252110375
 31
0.0
 12
4678.737491805456
 22
3726.448918777041
 32
0.0
 13
4678.737491805456
 23
3726.448918777041
 33
0.0
  0
MTEXT
  5
222
330
21B
100
AcDbEntity
  8
cotas
100
AcDbMText
 10
4228.737489976548
 20
3736.653754237081
 30
0.0
 40
10.0
 41
0.0
 71
     5
 72
     1
  1
900
  7
SANINDUSA
 73
     1
 44
1.0
1001
ACAD
1000
MTEXTBEGIN
1070
    73
1070
     1
1070
    44
1040
1.0
1070
    74
1070
     0
1000
MTEXTEND
  0
POINT
  5
223
330
21B
100
AcDbEntity
  8
Defpoints
 62
     0
100
AcDbPoint
 10
3778.737488147643
 20
3696.44891877704
 30
0.0
  0
POINT
  5
224
330
21B
100
AcDbEntity
  8
Defpoints
 62
     0
100
AcDbPoint
 10
4678.737491805456
 20
3696.44891877704
 30
0.0
  0
POINT
  5
225
330
21B
100
AcDbEntity
  8
Defpoints
 62
     0
100
AcDbPoint
 10
4678.737491805456
 20
3726.448918777041
 30
0.0
  0
ENDBLK
  5
226
330
21B
100
AcDbEntity
  8
0
100
AcDbBlockEnd
  0
BLOCK
  5
228
330
227
100
AcDbEntity
  8
0
100
AcDbBlockBegin
  2
*D48
 70
     1
 10
0.0
 20
0.0
 30
0.0
  3
*D48
  1

  0
LINE
  5
229
330
227
100
AcDbEntity
  8
cotas
100
AcDbLine
 10
4888.187891497075
 20
4590.215053742234
 30
0.0
 11
4888.187891497075
 21
4620.215053742234
 31
0.0
  0
LINE
  5
22A
330
227
100
AcDbEntity
  8
cotas
100
AcDbLine
 10
4818.187891220746
 20
4590.215053742233
 30
0.0
 11
4818.187891220746
 21
4620.215053742234
 31
0.0
  0
LINE
  5
22B
330
227
100
AcDbEntity
  8
cotas
100
AcDbLine
 10
4878.187891497074
 20
4615.215053742234
 30
0.0
 11
4828.187891220746
 21
4615.215053742234
 31
0.0
  0
SOLID
  5
22C
330
227
100
AcDbEntity
  8
cotas
100
AcDbTrace
 10
4878.187891497074
 20
4616.8817204089
 30
0.0
 11
4878.187891497074
 21
4613.548387075566
 31
0.0
 12
4888.187891497075
 22
4615.215053742234
 32
0.0
 13
4888.187891497075
 23
4615.215053742234
 33
0.0
  0
SOLID
  5
22D
330
227
100
AcDbEntity
  8
cotas
100
AcDbTrace
 10
4828.187891220746
 20
4616.8817204089
 30
0.0
 11
4828.187891220746
 21
4613.548387075566
 31
0.0
 12
4818.187891220746
 22
4615.215053742234
 32
0.0
 13
4818.187891220746
 23
4615.215053742234
 33
0.0
  0
MTEXT
  5
22E
330
227
100
AcDbEntity
  8
cotas
100
AcDbMText
 10
4853.187891358911
 20
4625.419889202274
 30
0.0
 40
10.0
 41
0.0
 71
     5
 72
     1
  1
70
  7
SANINDUSA
 73
     1
 44
1.0
1001
ACAD
1000
MTEXTBEGIN
1070
    73
1070
     1
1070
    44
1040
1.0
1070
    74
1070
     0
1000
MTEXTEND
  0
POINT
  5
22F
330
227
100
AcDbEntity
  8
Defpoints
 62
     0
100
AcDbPoint
 10
4888.187891497075
 20
4585.215053742234
 30
0.0
  0
POINT
  5
230
330
227
100
AcDbEntity
  8
Defpoints
 62
     0
100
AcDbPoint
 10
4818.187891220746
 20
4585.215053742233
 30
0.0
  0
POINT
  5
231
330
227
100
AcDbEntity
  8
Defpoints
 62
     0
100
AcDbPoint
 10
4818.187891220746
 20
4615.215053742234
 30
0.0
  0
ENDBLK
  5
232
330
227
100
AcDbEntity
  8
0
100
AcDbBlockEnd
  0
BLOCK
  5
234
330
233
100
AcDbEntity
  8
0
100
AcDbBlockBegin
  2
*D49
 70
     1
 10
0.0
 20
0.0
 30
0.0
  3
*D49
  1

  0
LINE
  5
235
330
233
100
AcDbEntity
  8
cotas
100
AcDbLine
 10
4888.187891497075
 20
4590.215053742234
 30
0.0
 11
4888.187891497075
 21
4620.215053742234
 31
0.0
  0
LINE
  5
236
330
233
100
AcDbEntity
  8
cotas
100
AcDbLine
 10
4920.594692322902
 20
4530.64040365417
 30
0.0
 11
4920.594692322902
 21
4620.215053742234
 31
0.0
  0
LINE
  5
237
330
233
100
AcDbEntity
  8
cotas
100
AcDbLine
 10
4898.187891497075
 20
4615.215053742234
 30
0.0
 11
4910.594692322902
 21
4615.215053742234
 31
0.0
  0
LINE
  5
238
330
233
100
AcDbEntity
  8
cotas
100
AcDbLine
 10
4920.594692322902
 20
4615.215053742234
 30
0.0
 11
4970.043987151647
 21
4615.215053742234
 31
0.0
  0
SOLID
  5
239
330
233
100
AcDbEntity
  8
cotas
100
AcDbTrace
 10
4898.187891497075
 20
4616.8817204089
 30
0.0
 11
4898.187891497075
 21
4613.548387075566
 31
0.0
 12
4888.187891497075
 22
4615.215053742234
 32
0.0
 13
4888.187891497075
 23
4615.215053742234
 33
0.0
  0
SOLID
  5
23A
330
233
100
AcDbEntity
  8
cotas
100
AcDbTrace
 10
4910.594692322902
 20
4616.8817204089
 30
0.0
 11
4910.594692322902
 21
4613.548387075566
 31
0.0
 12
4920.594692322902
 22
4615.215053742234
 32
0.0
 13
4920.594692322902
 23
4615.215053742234
 33
0.0
  0
MTEXT
  5
23B
330
233
100
AcDbEntity
  8
cotas
100
AcDbMText
 10
4950.319339737274
 20
4626.561595045122
 30
0.0
 40
10.0
 41
0.0
 71
     5
 72
     1
  1
32,4
  7
SANINDUSA
 73
     1
 44
1.0
1001
ACAD
1000
MTEXTBEGIN
1070
    73
1070
     1
1070
    44
1040
1.0
1070
    74
1070
     0
1000
MTEXTEND
  0
POINT
  5
23C
330
233
100
AcDbEntity
  8
Defpoints
 62
     0
100
AcDbPoint
 10
4888.187891497075
 20
4585.215053742234
 30
0.0
  0
POINT
  5
23D
330
233
100
AcDbEntity
  8
Defpoints
 62
     0
100
AcDbPoint
 10
4920.594692322902
 20
4525.64040365417
 30
0.0
  0
POINT
  5
23E
330
233
100
AcDbEntity
  8
Defpoints
 62
     0
100
AcDbPoint
 10
4920.594692322902
 20
4615.215053742234
 30
0.0
  0
ENDBLK
  5
23F
330
233
100
AcDbEntity
  8
0
100
AcDbBlockEnd
  0
BLOCK
  5
241
330
240
100
AcDbEntity
  8
0
100
AcDbBlockBegin
  2
*D50
 70
     1
 10
0.0
 20
0.0
 30
0.0
  3
*D50
  1

  0
LINE
  5
242
330
240
100
AcDbEntity
  8
cotas
100
AcDbLine
 10
4920.68195435585
 20
4530.639642129939
 30
0.0
 11
4921.094029555228
 21
4554.247414285039
 31
0.0
  0
LINE
  5
243
330
240
100
AcDbEntity
  8
cotas
100
AcDbLine
 10
5470.598186690402
 20
4521.040818505613
 30
0.0
 11
5471.01026188978
 21
4544.648590660712
 31
0.0
  0
LINE
  5
244
330
240
100
AcDbEntity
  8
cotas
100
AcDbLine
 10
4931.005244473816
 20
4549.073651743372
 30
0.0
 11
5460.924522905293
 21
4539.82387625084
 31
0.0
  0
SOLID
  5
245
330
240
100
AcDbEntity
  8
cotas
100
AcDbTrace
 10
4931.034331818132
 20
4550.740064568629
 30
0.0
 11
4930.9761571295
 21
4547.407238918117
 31
0.0
 12
4921.006767522278
 22
4549.24817580927
 32
0.0
 13
4921.006767522278
 23
4549.24817580927
 33
0.0
  0
SOLID
  5
246
330
240
100
AcDbEntity
  8
cotas
100
AcDbTrace
 10
5460.953610249609
 20
4541.490289076096
 30
0.0
 11
5460.895435560978
 21
4538.157463425584
 31
0.0
 12
5470.922999856831
 22
4539.649352184944
 32
0.0
 13
5470.922999856831
 23
4539.649352184944
 33
0.0
  0
MTEXT
  5
247
330
240
100
AcDbEntity
  8
cotas
100
AcDbMText
 10
5196.142982627185
 20
4554.652045211251
 30
0.0
 40
10.0
 41
0.0
 71
     5
 72
     1
  1
550
  7
SANINDUSA
 11
0.9998476951537311
 21
-0.0174524065896849
 31
0.0
 73
     1
 44
1.0
1001
ACAD
1000
MTEXTBEGIN
1070
    73
1070
     1
1070
    44
1040
1.0
1070
    74
1070
     0
1000
MTEXTEND
  0
POINT
  5
248
330
240
100
AcDbEntity
  8
Defpoints
 62
     0
100
AcDbPoint
 10
4920.594692322902
 20
4525.64040365417
 30
0.0
  0
POINT
  5
249
330
240
100
AcDbEntity
  8
Defpoints
 62
     0
100
AcDbPoint
 10
5470.510924657453
 20
4516.041580029845
 30
0.0
  0
POINT
  5
24A
330
240
100
AcDbEntity
  8
Defpoints
 62
     0
100
AcDbPoint
 10
5470.922999856831
 20
4539.649352184944
 30
0.0
  0
ENDBLK
  5
24B
330
240
100
AcDbEntity
  8
0
100
AcDbBlockEnd
  0
BLOCK
  5
24D
330
24C
100
AcDbEntity
  8
0
100
AcDbBlockBegin
  2
*D51
 70
     1
 10
0.0
 20
0.0
 30
0.0
  3
*D51
  1

  0
LINE
  5
24E
330
24C
100
AcDbEntity
  8
cotas
100
AcDbLine
 10
5475.510924657454
 20
4516.041580029843
 30
0.0
 11
5524.99669033191
 21
4516.041580029843
 31
0.0
  0
LINE
  5
24F
330
24C
100
AcDbEntity
  8
cotas
100
AcDbLine
 10
5475.493293808501
 20
4493.017533579209
 30
0.0
 11
5524.99669033191
 21
4493.017533579209
 31
0.0
  0
LINE
  5
250
330
24C
100
AcDbEntity
  8
cotas
100
AcDbLine
 10
5519.99669033191
 20
4526.041580029843
 30
0.0
 11
5519.99669033191
 21
4536.041580029843
 31
0.0
  0
LINE
  5
251
330
24C
100
AcDbEntity
  8
cotas
100
AcDbLine
 10
5519.99669033191
 20
4483.017533579209
 30
0.0
 11
5519.99669033191
 21
4447.644800201103
 31
0.0
  0
LINE
  5
252
330
24C
100
AcDbEntity
  8
cotas
100
AcDbLine
 10
5519.99669033191
 20
4516.041580029843
 30
0.0
 11
5519.99669033191
 21
4493.017533579209
 31
0.0
  0
SOLID
  5
253
330
24C
100
AcDbEntity
  8
cotas
100
AcDbTrace
 10
5518.330023665242
 20
4526.041580029843
 30
0.0
 11
5521.663356998577
 21
4526.041580029843
 31
0.0
 12
5519.99669033191
 22
4516.041580029843
 32
0.0
 13
5519.99669033191
 23
4516.041580029843
 33
0.0
  0
SOLID
  5
254
330
24C
100
AcDbEntity
  8
cotas
100
AcDbTrace
 10
5518.330023665242
 20
4483.017533579209
 30
0.0
 11
5521.663356998577
 21
4483.017533579209
 31
0.0
 12
5519.99669033191
 22
4493.017533579209
 32
0.0
 13
5519.99669033191
 23
4493.017533579209
 33
0.0
  0
MTEXT
  5
255
330
24C
100
AcDbEntity
  8
cotas
100
AcDbMText
 10
5509.788496913508
 20
4460.331166890156
 30
0.0
 40
10.0
 41
0.0
 71
     5
 72
     1
  1
23
  7
SANINDUSA
 11
0.0000000000000001
 21
1.0
 31
0.0
 73
     1
 44
1.0
1001
ACAD
1000
MTEXTBEGIN
1070
    73
1070
     1
1070
    44
1040
1.0
1070
    74
1070
     0
1000
MTEXTEND
  0
POINT
  5
256
330
24C
100
AcDbEntity
  8
Defpoints
 62
     0
100
AcDbPoint
 10
5470.510924657453
 20
4516.041580029843
 30
0.0
  0
POINT
  5
257
330
24C
100
AcDbEntity
  8
Defpoints
 62
     0
100
AcDbPoint
 10
5470.493293808502
 20
4493.017533579209
 30
0.0
  0
POINT
  5
258
330
24C
100
AcDbEntity
  8
Defpoints
 62
     0
100
AcDbPoint
 10
5519.99669033191
 20
4493.017533579209
 30
0.0
  0
ENDBLK
  5
259
330
24C
100
AcDbEntity
  8
0
100
AcDbBlockEnd
  0
BLOCK
  5
25B
330
25A
100
AcDbEntity
  8
0
100
AcDbBlockBegin
  2
*D52
 70
     1
 10
0.0
 20
0.0
 30
0.0
  3
*D52
  1

  0
LINE
  5
25C
330
25A
100
AcDbEntity
  8
cotas
100
AcDbLine
 10
4915.594692322902
 20
4525.64040365417
 30
0.0
 11
4782.489688640238
 21
4525.64040365417
 31
0.0
  0
LINE
  5
25D
330
25A
100
AcDbEntity
  8
cotas
100
AcDbLine
 10
4915.594692322902
 20
4515.638880296513
 30
0.0
 11
4782.489688640238
 21
4515.638880296513
 31
0.0
  0
LINE
  5
25E
330
25A
100
AcDbEntity
  8
cotas
100
AcDbLine
 10
4787.489688640238
 20
4535.640403654169
 30
0.0
 11
4787.489688640238
 21
4545.64040365417
 31
0.0
  0
LINE
  5
25F
330
25A
100
AcDbEntity
  8
cotas
100
AcDbLine
 10
4787.489688640238
 20
4505.638880296514
 30
0.0
 11
4787.489688640238
 21
4470.924306757225
 31
0.0
  0
LINE
  5
260
330
25A
100
AcDbEntity
  8
cotas
100
AcDbLine
 10
4787.489688640238
 20
4525.64040365417
 30
0.0
 11
4787.489688640238
 21
4515.638880296513
 31
0.0
  0
SOLID
  5
261
330
25A
100
AcDbEntity
  8
cotas
100
AcDbTrace
 10
4785.823021973571
 20
4535.640403654169
 30
0.0
 11
4789.156355306904
 21
4535.640403654169
 31
0.0
 12
4787.489688640238
 22
4525.64040365417
 32
0.0
 13
4787.489688640238
 23
4525.64040365417
 33
0.0
  0
SOLID
  5
262
330
25A
100
AcDbEntity
  8
cotas
100
AcDbTrace
 10
4785.823021973571
 20
4505.638880296514
 30
0.0
 11
4789.156355306904
 21
4505.638880296514
 31
0.0
 12
4787.489688640238
 22
4515.638880296513
 32
0.0
 13
4787.489688640238
 23
4515.638880296513
 33
0.0
  0
MTEXT
  5
263
330
25A
100
AcDbEntity
  8
cotas
100
AcDbMText
 10
4777.284853180196
 20
4483.281593526871
 30
0.0
 40
10.0
 41
0.0
 71
     5
 72
     1
  1
10
  7
SANINDUSA
 11
0.0000000000000001
 21
1.0
 31
0.0
 73
     1
 44
1.0
1001
ACAD
1000
MTEXTBEGIN
1070
    73
1070
     1
1070
    44
1040
1.0
1070
    74
1070
     0
1000
MTEXTEND
  0
POINT
  5
264
330
25A
100
AcDbEntity
  8
Defpoints
 62
     0
100
AcDbPoint
 10
4920.594692322902
 20
4525.64040365417
 30
0.0
  0
POINT
  5
265
330
25A
100
AcDbEntity
  8
Defpoints
 62
     0
100
AcDbPoint
 10
4920.594692322902
 20
4515.638880296513
 30
0.0
  0
POINT
  5
266
330
25A
100
AcDbEntity
  8
Defpoints
 62
     0
100
AcDbPoint
 10
4787.489688640238
 20
4515.638880296513
 30
0.0
  0
ENDBLK
  5
267
330
25A
100
AcDbEntity
  8
0
100
AcDbBlockEnd
  0
BLOCK
  5
269
330
268
100
AcDbEntity
  8
0
100
AcDbBlockBegin
  2
*D53
 70
     1
 10
0.0
 20
0.0
 30
0.0
  3
*D53
  1

  0
LINE
  5
26A
330
268
100
AcDbEntity
  8
cotas
100
AcDbLine
 10
6518.187880026278
 20
4590.215053742234
 30
0.0
 11
6518.187880026278
 21
4620.215053742234
 31
0.0
  0
LINE
  5
26B
330
268
100
AcDbEntity
  8
cotas
100
AcDbLine
 10
6448.187902204151
 20
4590.215053742234
 30
0.0
 11
6448.187902204151
 21
4620.215053742234
 31
0.0
  0
LINE
  5
26C
330
268
100
AcDbEntity
  8
cotas
100
AcDbLine
 10
6508.187880026277
 20
4615.215053742234
 30
0.0
 11
6458.187902204151
 21
4615.215053742234
 31
0.0
  0
SOLID
  5
26D
330
268
100
AcDbEntity
  8
cotas
100
AcDbTrace
 10
6508.187880026277
 20
4616.8817204089
 30
0.0
 11
6508.187880026277
 21
4613.548387075566
 31
0.0
 12
6518.187880026278
 22
4615.215053742234
 32
0.0
 13
6518.187880026278
 23
4615.215053742234
 33
0.0
  0
SOLID
  5
26E
330
268
100
AcDbEntity
  8
cotas
100
AcDbTrace
 10
6458.187902204151
 20
4616.8817204089
 30
0.0
 11
6458.187902204151
 21
4613.548387075566
 31
0.0
 12
6448.187902204151
 22
4615.215053742234
 32
0.0
 13
6448.187902204151
 23
4615.215053742234
 33
0.0
  0
MTEXT
  5
26F
330
268
100
AcDbEntity
  8
cotas
100
AcDbMText
 10
6483.187891115214
 20
4625.419889202274
 30
0.0
 40
10.0
 41
0.0
 71
     5
 72
     1
  1
70
  7
SANINDUSA
 73
     1
 44
1.0
1001
ACAD
1000
MTEXTBEGIN
1070
    73
1070
     1
1070
    44
1040
1.0
1070
    74
1070
     0
1000
MTEXTEND
  0
POINT
  5
270
330
268
100
AcDbEntity
  8
Defpoints
 62
     0
100
AcDbPoint
 10
6518.187880026278
 20
4585.215053742234
 30
0.0
  0
POINT
  5
271
330
268
100
AcDbEntity
  8
Defpoints
 62
     0
100
AcDbPoint
 10
6448.187902204151
 20
4585.215053742234
 30
0.0
  0
POINT
  5
272
330
268
100
AcDbEntity
  8
Defpoints
 62
     0
100
AcDbPoint
 10
6448.187902204151
 20
4615.215053742234
 30
0.0
  0
ENDBLK
  5
273
330
268
100
AcDbEntity
  8
0
100
AcDbBlockEnd
  0
BLOCK
  5
275
330
274
100
AcDbEntity
  8
0
100
AcDbBlockBegin
  2
*D54
 70
     1
 10
0.0
 20
0.0
 30
0.0
  3
*D54
  1

  0
LINE
  5
276
330
274
100
AcDbEntity
  8
cotas
100
AcDbLine
 10
6518.187880026278
 20
4590.215053742234
 30
0.0
 11
6518.187880026278
 21
4650.210053697992
 31
0.0
  0
LINE
  5
277
330
274
100
AcDbEntity
  8
cotas
100
AcDbLine
 10
6338.187901949732
 20
4514.109732889624
 30
0.0
 11
6338.187901949732
 21
4650.210053697992
 31
0.0
  0
LINE
  5
278
330
274
100
AcDbEntity
  8
cotas
100
AcDbLine
 10
6508.187880026277
 20
4645.210053697993
 30
0.0
 11
6348.187901949732
 21
4645.210053697993
 31
0.0
  0
SOLID
  5
279
330
274
100
AcDbEntity
  8
cotas
100
AcDbTrace
 10
6508.187880026277
 20
4646.876720364659
 30
0.0
 11
6508.187880026277
 21
4643.543387031325
 31
0.0
 12
6518.187880026278
 22
4645.210053697993
 32
0.0
 13
6518.187880026278
 23
4645.210053697993
 33
0.0
  0
SOLID
  5
27A
330
274
100
AcDbEntity
  8
cotas
100
AcDbTrace
 10
6348.187901949732
 20
4646.876720364659
 30
0.0
 11
6348.187901949732
 21
4643.543387031325
 31
0.0
 12
6338.187901949732
 22
4645.210053697993
 32
0.0
 13
6338.187901949732
 23
4645.210053697993
 33
0.0
  0
MTEXT
  5
27B
330
274
100
AcDbEntity
  8
cotas
100
AcDbMText
 10
6428.187890988005
 20
4655.438394866561
 30
0.0
 40
10.0
 41
0.0
 71
     5
 72
     1
  1
180
  7
SANINDUSA
 73
     1
 44
1.0
1001
ACAD
1000
MTEXTBEGIN
1070
    73
1070
     1
1070
    44
1040
1.0
1070
    74
1070
     0
1000
MTEXTEND
  0
POINT
  5
27C
330
274
100
AcDbEntity
  8
Defpoints
 62
     0
100
AcDbPoint
 10
6518.187880026278
 20
4585.215053742234
 30
0.0
  0
POINT
  5
27D
330
274
100
AcDbEntity
  8
Defpoints
 62
     0
100
AcDbPoint
 10
6338.187901949732
 20
4509.109732889624
 30
0.0
  0
POINT
  5
27E
330
274
100
AcDbEntity
  8
Defpoints
 62
     0
100
AcDbPoint
 10
6338.187901949732
 20
4645.210053697993
 30
0.0
  0
ENDBLK
  5
27F
330
274
100
AcDbEntity
  8
0
100
AcDbBlockEnd
  0
BLOCK
  5
281
330
280
100
AcDbEntity
  8
0
100
AcDbBlockBegin
  2
*D55
 70
     1
 10
0.0
 20
0.0
 30
0.0
  3
*D55
  1

  0
LINE
  5
282
330
280
100
AcDbEntity
  8
cotas
100
AcDbLine
 10
4818.187891220748
 20
3701.448918777041
 30
0.0
 11
4818.187891220748
 21
3731.448918777039
 31
0.0
  0
LINE
  5
283
330
280
100
AcDbEntity
  8
cotas
100
AcDbLine
 10
6518.187923554288
 20
3701.448918777041
 30
0.0
 11
6518.187923554288
 21
3731.448918777039
 31
0.0
  0
LINE
  5
284
330
280
100
AcDbEntity
  8
cotas
100
AcDbLine
 10
4828.187891220749
 20
3726.448918777039
 30
0.0
 11
6508.187923554287
 21
3726.448918777039
 31
0.0
  0
SOLID
  5
285
330
280
100
AcDbEntity
  8
cotas
100
AcDbTrace
 10
4828.187891220749
 20
3728.115585443705
 30
0.0
 11
4828.187891220749
 21
3724.782252110372
 31
0.0
 12
4818.187891220748
 22
3726.448918777039
 32
0.0
 13
4818.187891220748
 23
3726.448918777039
 33
0.0
  0
SOLID
  5
286
330
280
100
AcDbEntity
  8
cotas
100
AcDbTrace
 10
6508.187923554287
 20
3728.115585443705
 30
0.0
 11
6508.187923554287
 21
3724.782252110372
 31
0.0
 12
6518.187923554288
 22
3726.448918777039
 32
0.0
 13
6518.187923554288
 23
3726.448918777039
 33
0.0
  0
MTEXT
  5
287
330
280
100
AcDbEntity
  8
cotas
100
AcDbMText
 10
5668.187907387518
 20
3736.653754237079
 30
0.0
 40
10.0
 41
0.0
 71
     5
 72
     1
  1
1700
  7
SANINDUSA
 73
     1
 44
1.0
1001
ACAD
1000
MTEXTBEGIN
1070
    73
1070
     1
1070
    44
1040
1.0
1070
    74
1070
     0
1000
MTEXTEND
  0
POINT
  5
288
330
280
100
AcDbEntity
  8
Defpoints
 62
     0
100
AcDbPoint
 10
4818.187891220748
 20
3696.44891877704
 30
0.0
  0
POINT
  5
289
330
280
100
AcDbEntity
  8
Defpoints
 62
     0
100
AcDbPoint
 10
6518.187923554288
 20
3696.44891877704
 30
0.0
  0
POINT
  5
28A
330
280
100
AcDbEntity
  8
Defpoints
 62
     0
100
AcDbPoint
 10
6518.187923554288
 20
3726.448918777039
 30
0.0
  0
ENDBLK
  5
28B
330
280
100
AcDbEntity
  8
0
100
AcDbBlockEnd
  0
BLOCK
  5
28D
330
28C
100
AcDbEntity
  8
0
100
AcDbBlockBegin
  2
*D56
 70
     1
 10
0.0
 20
0.0
 30
0.0
  3
*D56
  1

  0
LINE
  5
28E
330
28C
100
AcDbEntity
  8
cotas
100
AcDbLine
 10
6077.724213792208
 20
2959.756024271164
 30
-0.0000000000000225
 11
6077.724213792208
 21
3125.005109561322
 31
-0.0000000000000225
  0
LINE
  5
28F
330
28C
100
AcDbEntity
  8
cotas
100
AcDbLine
 10
5997.747937657166
 20
2959.757082870246
 30
-0.0000000000000225
 11
5997.747937657166
 21
3125.005109561322
 31
-0.0000000000000225
  0
LINE
  5
290
330
28C
100
AcDbEntity
  8
cotas
100
AcDbLine
 10
6067.724213792208
 20
3120.005109561321
 30
-0.0000000000000225
 11
6007.747937657166
 21
3120.005109561321
 31
-0.0000000000000225
  0
SOLID
  5
291
330
28C
100
AcDbEntity
  8
cotas
100
AcDbTrace
 10
6067.724213792208
 20
3121.671776227988
 30
-0.0000000000000225
 11
6067.724213792208
 21
3118.338442894655
 31
-0.0000000000000225
 12
6077.724213792208
 22
3120.005109561321
 32
-0.0000000000000225
 13
6077.724213792208
 23
3120.005109561321
 33
-0.0000000000000225
  0
SOLID
  5
292
330
28C
100
AcDbEntity
  8
cotas
100
AcDbTrace
 10
6007.747937657166
 20
3121.671776227988
 30
-0.0000000000000225
 11
6007.747937657166
 21
3118.338442894655
 31
-0.0000000000000225
 12
5997.747937657166
 22
3120.005109561321
 32
-0.0000000000000225
 13
5997.747937657166
 23
3120.005109561321
 33
-0.0000000000000225
  0
MTEXT
  5
293
330
28C
100
AcDbEntity
  8
cotas
100
AcDbMText
 10
6037.736075724687
 20
3130.233450729891
 30
-0.0000000000000225
 40
10.0
 41
0.0
 71
     5
 72
     1
  1
80
  7
SANINDUSA
 73
     1
 44
1.0
1001
ACAD
1000
MTEXTBEGIN
1070
    73
1070
     1
1070
    44
1040
1.0
1070
    74
1070
     0
1000
MTEXTEND
  0
POINT
  5
294
330
28C
100
AcDbEntity
  8
Defpoints
 62
     0
100
AcDbPoint
 10
6077.724213792208
 20
2954.756024271164
 30
-0.0000000000000225
  0
POINT
  5
295
330
28C
100
AcDbEntity
  8
Defpoints
 62
     0
100
AcDbPoint
 10
5997.747937657166
 20
2954.757082870246
 30
-0.0000000000000225
  0
POINT
  5
296
330
28C
100
AcDbEntity
  8
Defpoints
 62
     0
100
AcDbPoint
 10
5997.747937657166
 20
3120.005109561321
 30
-0.0000000000000225
  0
ENDBLK
  5
297
330
28C
100
AcDbEntity
  8
0
100
AcDbBlockEnd
  0
BLOCK
  5
299
330
298
100
AcDbEntity
  8
0
100
AcDbBlockBegin
  2
*D57
 70
     1
 10
0.0
 20
0.0
 30
0.0
  3
*D57
  1

  0
LINE
  5
29A
330
298
100
AcDbEntity
  8
cotas
100
AcDbLine
 10
5997.747937657166
 20
2959.757082870246
 30
-0.0000000000000225
 11
5997.747937657166
 21
3125.005109561322
 31
-0.0000000000000225
  0
LINE
  5
29B
330
298
100
AcDbEntity
  8
cotas
100
AcDbLine
 10
5917.780948363922
 20
2959.745460617059
 30
-0.0000000000000225
 11
5917.780948363922
 21
3125.005109561322
 31
-0.0000000000000225
  0
LINE
  5
29C
330
298
100
AcDbEntity
  8
cotas
100
AcDbLine
 10
5987.747937657165
 20
3120.005109561321
 30
-0.0000000000000225
 11
5927.780948363922
 21
3120.005109561321
 31
-0.0000000000000225
  0
SOLID
  5
29D
330
298
100
AcDbEntity
  8
cotas
100
AcDbTrace
 10
5987.747937657165
 20
3121.671776227988
 30
-0.0000000000000225
 11
5987.747937657165
 21
3118.338442894655
 31
-0.0000000000000225
 12
5997.747937657166
 22
3120.005109561321
 32
-0.0000000000000225
 13
5997.747937657166
 23
3120.005109561321
 33
-0.0000000000000225
  0
SOLID
  5
29E
330
298
100
AcDbEntity
  8
cotas
100
AcDbTrace
 10
5927.780948363922
 20
3121.671776227988
 30
-0.0000000000000225
 11
5927.780948363922
 21
3118.338442894655
 31
-0.0000000000000225
 12
5917.780948363922
 22
3120.005109561321
 32
-0.0000000000000225
 13
5917.780948363922
 23
3120.005109561321
 33
-0.0000000000000225
  0
MTEXT
  5
29F
330
298
100
AcDbEntity
  8
cotas
100
AcDbMText
 10
5957.764443010543
 20
3130.233450729891
 30
-0.0000000000000225
 40
10.0
 41
0.0
 71
     5
 72
     1
  1
80
  7
SANINDUSA
 73
     1
 44
1.0
1001
ACAD
1000
MTEXTBEGIN
1070
    73
1070
     1
1070
    44
1040
1.0
1070
    74
1070
     0
1000
MTEXTEND
  0
POINT
  5
2A0
330
298
100
AcDbEntity
  8
Defpoints
 62
     0
100
AcDbPoint
 10
5997.747937657166
 20
2954.757082870246
 30
-0.0000000000000225
  0
POINT
  5
2A1
330
298
100
AcDbEntity
  8
Defpoints
 62
     0
100
AcDbPoint
 10
5917.780948363922
 20
2954.745460617059
 30
-0.0000000000000225
  0
POINT
  5
2A2
330
298
100
AcDbEntity
  8
Defpoints
 62
     0
100
AcDbPoint
 10
5917.780948363922
 20
3120.005109561321
 30
-0.0000000000000225
  0
ENDBLK
  5
2A3
330
298
100
AcDbEntity
  8
0
100
AcDbBlockEnd
  0
BLOCK
  5
2A5
330
2A4
100
AcDbEntity
  8
0
100
AcDbBlockBegin
  2
*D58
 70
     1
 10
0.0
 20
0.0
 30
0.0
  3
*D58
  1

  0
LINE
  5
2A6
330
2A4
100
AcDbEntity
  8
cotas
100
AcDbLine
 10
5917.780948363922
 20
2959.745460617059
 30
-0.0000000000000225
 11
5917.780948363922
 21
3125.005109561322
 31
-0.0000000000000225
  0
LINE
  5
2A7
330
2A4
100
AcDbEntity
  8
cotas
100
AcDbLine
 10
5837.866365145304
 20
2959.738526287436
 30
-0.0000000000000225
 11
5837.866365145304
 21
3125.005109561322
 31
-0.0000000000000225
  0
LINE
  5
2A8
330
2A4
100
AcDbEntity
  8
cotas
100
AcDbLine
 10
5907.780948363922
 20
3120.005109561321
 30
-0.0000000000000225
 11
5847.866365145304
 21
3120.005109561321
 31
-0.0000000000000225
  0
SOLID
  5
2A9
330
2A4
100
AcDbEntity
  8
cotas
100
AcDbTrace
 10
5907.780948363922
 20
3121.671776227988
 30
-0.0000000000000225
 11
5907.780948363922
 21
3118.338442894655
 31
-0.0000000000000225
 12
5917.780948363922
 22
3120.005109561321
 32
-0.0000000000000225
 13
5917.780948363922
 23
3120.005109561321
 33
-0.0000000000000225
  0
SOLID
  5
2AA
330
2A4
100
AcDbEntity
  8
cotas
100
AcDbTrace
 10
5847.866365145304
 20
3121.671776227988
 30
-0.0000000000000225
 11
5847.866365145304
 21
3118.338442894655
 31
-0.0000000000000225
 12
5837.866365145304
 22
3120.005109561321
 32
-0.0000000000000225
 13
5837.866365145304
 23
3120.005109561321
 33
-0.0000000000000225
  0
MTEXT
  5
2AB
330
2A4
100
AcDbEntity
  8
cotas
100
AcDbMText
 10
5877.823656754613
 20
3130.233450729891
 30
-0.0000000000000225
 40
10.0
 41
0.0
 71
     5
 72
     1
  1
80
  7
SANINDUSA
 73
     1
 44
1.0
1001
ACAD
1000
MTEXTBEGIN
1070
    73
1070
     1
1070
    44
1040
1.0
1070
    74
1070
     0
1000
MTEXTEND
  0
POINT
  5
2AC
330
2A4
100
AcDbEntity
  8
Defpoints
 62
     0
100
AcDbPoint
 10
5917.780948363922
 20
2954.745460617059
 30
-0.0000000000000225
  0
POINT
  5
2AD
330
2A4
100
AcDbEntity
  8
Defpoints
 62
     0
100
AcDbPoint
 10
5837.866365145304
 20
2954.738526287436
 30
-0.0000000000000225
  0
POINT
  5
2AE
330
2A4
100
AcDbEntity
  8
Defpoints
 62
     0
100
AcDbPoint
 10
5837.866365145304
 20
3120.005109561321
 30
-0.0000000000000225
  0
ENDBLK
  5
2AF
330
2A4
100
AcDbEntity
  8
0
100
AcDbBlockEnd
  0
BLOCK
  5
2B1
330
2B0
100
AcDbEntity
  8
0
100
AcDbBlockBegin
  2
*D59
 70
     1
 10
0.0
 20
0.0
 30
0.0
  3
*D59
  1

  0
LINE
  5
2B2
330
2B0
100
AcDbEntity
  8
cotas
100
AcDbLine
 10
5677.889496848184
 20
3095.00510956132
 30
-0.0000000000000225
 11
5677.889496848184
 21
3125.005109561321
 31
-0.0000000000000225
  0
LINE
  5
2B3
330
2B0
100
AcDbEntity
  8
cotas
100
AcDbLine
 10
5597.899537449507
 20
2959.738657290474
 30
-0.0000000000000225
 11
5597.899537449507
 21
3125.005109561321
 31
-0.0000000000000225
  0
LINE
  5
2B4
330
2B0
100
AcDbEntity
  8
cotas
100
AcDbLine
 10
5667.889496848185
 20
3120.005109561321
 30
-0.0000000000000225
 11
5607.899537449507
 21
3120.005109561321
 31
-0.0000000000000225
  0
SOLID
  5
2B5
330
2B0
100
AcDbEntity
  8
cotas
100
AcDbTrace
 10
5667.889496848185
 20
3121.671776227987
 30
-0.0000000000000225
 11
5667.889496848185
 21
3118.338442894654
 31
-0.0000000000000225
 12
5677.889496848184
 22
3120.005109561321
 32
-0.0000000000000225
 13
5677.889496848184
 23
3120.005109561321
 33
-0.0000000000000225
  0
SOLID
  5
2B6
330
2B0
100
AcDbEntity
  8
cotas
100
AcDbTrace
 10
5607.899537449507
 20
3121.671776227987
 30
-0.0000000000000225
 11
5607.899537449507
 21
3118.338442894654
 31
-0.0000000000000225
 12
5597.899537449507
 22
3120.005109561321
 32
-0.0000000000000225
 13
5597.899537449507
 23
3120.005109561321
 33
-0.0000000000000225
  0
MTEXT
  5
2B7
330
2B0
100
AcDbEntity
  8
cotas
100
AcDbMText
 10
5637.894517148846
 20
3130.23345072989
 30
-0.0000000000000225
 40
10.0
 41
0.0
 71
     5
 72
     1
  1
80
  7
SANINDUSA
 73
     1
 44
1.0
1001
ACAD
1000
MTEXTBEGIN
1070
    73
1070
     1
1070
    44
1040
1.0
1070
    74
1070
     0
1000
MTEXTEND
  0
POINT
  5
2B8
330
2B0
100
AcDbEntity
  8
Defpoints
 62
     0
100
AcDbPoint
 10
5677.889496848184
 20
3090.005109561321
 30
-0.0000000000000225
  0
POINT
  5
2B9
330
2B0
100
AcDbEntity
  8
Defpoints
 62
     0
100
AcDbPoint
 10
5597.899537449507
 20
2954.738657290474
 30
-0.0000000000000225
  0
POINT
  5
2BA
330
2B0
100
AcDbEntity
  8
Defpoints
 62
     0
100
AcDbPoint
 10
5597.899537449507
 20
3120.005109561321
 30
-0.0000000000000225
  0
ENDBLK
  5
2BB
330
2B0
100
AcDbEntity
  8
0
100
AcDbBlockEnd
  0
BLOCK
  5
2BD
330
2BC
100
AcDbEntity
  8
0
100
AcDbBlockBegin
  2
*D60
 70
     1
 10
0.0
 20
0.0
 30
0.0
  3
*D60
  1

  0
LINE
  5
2BE
330
2BC
100
AcDbEntity
  8
cotas
100
AcDbLine
 10
4816.092429207817
 20
3091.392637639922
 30
0.0
 11
4816.092429207817
 21
3125.008318632402
 31
0.0
  0
LINE
  5
2BF
330
2BC
100
AcDbEntity
  8
cotas
100
AcDbLine
 10
5189.848573792009
 20
3095.007472503237
 30
0.0
 11
5189.848573792009
 21
3125.008318632402
 31
0.0
  0
LINE
  5
2C0
330
2BC
100
AcDbEntity
  8
cotas
100
AcDbLine
 10
4826.092429207818
 20
3120.008318632402
 30
0.0
 11
5179.848573792008
 21
3120.008318632402
 31
0.0
  0
SOLID
  5
2C1
330
2BC
100
AcDbEntity
  8
cotas
100
AcDbTrace
 10
4826.092429207818
 20
3121.674985299069
 30
0.0
 11
4826.092429207818
 21
3118.341651965736
 31
0.0
 12
4816.092429207817
 22
3120.008318632402
 32
0.0
 13
4816.092429207817
 23
3120.008318632402
 33
0.0
  0
SOLID
  5
2C2
330
2BC
100
AcDbEntity
  8
cotas
100
AcDbTrace
 10
5179.848573792008
 20
3121.674985299069
 30
0.0
 11
5179.848573792008
 21
3118.341651965736
 31
0.0
 12
5189.848573792009
 22
3120.008318632402
 32
0.0
 13
5189.848573792009
 23
3120.008318632402
 33
0.0
  0
MTEXT
  5
2C3
330
2BC
100
AcDbEntity
  8
cotas
100
AcDbMText
 10
5002.970501499913
 20
3131.364933810374
 30
0.0
 40
10.0
 41
0.0
 71
     5
 72
     1
  1
373,8
  7
SANINDUSA
 73
     1
 44
1.0
1001
ACAD
1000
MTEXTBEGIN
1070
    73
1070
     1
1070
    44
1040
1.0
1070
    74
1070
     0
1000
MTEXTEND
  0
POINT
  5
2C4
330
2BC
100
AcDbEntity
  8
Defpoints
 62
     0
100
AcDbPoint
 10
4816.092429207817
 20
3086.392637639922
 30
0.0000000000002141
  0
POINT
  5
2C5
330
2BC
100
AcDbEntity
  8
Defpoints
 62
     0
100
AcDbPoint
 10
5189.848573792009
 20
3090.007472503237
 30
0.0000000000000109
  0
POINT
  5
2C6
330
2BC
100
AcDbEntity
  8
Defpoints
 62
     0
100
AcDbPoint
 10
5189.848573792009
 20
3120.008318632402
 30
0.0
  0
ENDBLK
  5
2C7
330
2BC
100
AcDbEntity
  8
0
100
AcDbBlockEnd
  0
BLOCK
  5
2C9
330
2C8
100
AcDbEntity
  8
0
100
AcDbBlockBegin
  2
*D61
 70
     1
 10
0.0
 20
0.0
 30
0.0
  3
*D61
  1

  0
LINE
  5
2CA
330
2C8
100
AcDbEntity
  8
cotas
100
AcDbLine
 10
4787.352977455934
 20
2158.034797540616
 30
0.0
 11
4812.646267263724
 21
2183.638949834658
 31
0.0
  0
MTEXT
  5
2CB
330
2C8
100
AcDbEntity
  8
cotas
100
AcDbMText
 10
4789.297569479015
 20
2174.380718272989
 30
0.0
 40
10.0
 41
0.0
 71
     5
 72
     1
  1
R5
  7
SANINDUSA
 11
0.7027749304683516
 21
0.7114122553802428
 31
0.0
 73
     1
 44
1.0
1001
ACAD
1000
MTEXTBEGIN
1070
    73
1070
     1
1070
    44
1040
1.0
1070
    74
1070
     0
1000
MTEXTEND
  0
LINE
  5
2CC
330
2C8
100
AcDbEntity
  8
cotas
100
AcDbLine
 10
4823.187891220748
 20
2194.31013366536
 30
0.0
 11
4819.674016568407
 21
2190.75307238846
 31
0.0
  0
SOLID
  5
2CD
330
2C8
100
AcDbEntity
  8
cotas
100
AcDbTrace
 10
4811.460580171424
 20
2184.810241385438
 30
0.0
 11
4813.831954356025
 21
2182.467658283877
 31
0.0
 12
4819.674016568407
 22
2190.75307238846
 32
0.0
 13
4819.674016568407
 23
2190.75307238846
 33
0.0
  0
POINT
  5
2CE
330
2C8
100
AcDbEntity
  8
Defpoints
 62
     0
100
AcDbPoint
 10
4819.674016568407
 20
2190.75307238846
 30
0.0
  0
POINT
  5
2CF
330
2C8
100
AcDbEntity
  8
Defpoints
 62
     0
100
AcDbPoint
 10
4823.187891220748
 20
2194.31013366536
 30
0.0
  0
ENDBLK
  5
2D0
330
2C8
100
AcDbEntity
  8
0
100
AcDbBlockEnd
  0
BLOCK
  5
2D2
330
2D1
100
AcDbEntity
  8
0
100
AcDbBlockBegin
  2
*D62
 70
     1
 10
0.0
 20
0.0
 30
0.0
  3
*D62
  1

  0
LINE
  5
2D3
330
2D1
100
AcDbEntity
  8
1
100
AcDbLine
 10
4816.091667730981
 20
3091.391858020042
 30
0.0
 11
4782.476748215338
 21
3091.391858020042
 31
0.0
  0
LINE
  5
2D4
330
2D1
100
AcDbEntity
  8
1
100
AcDbLine
 10
4811.092429198945
 20
2995.987034327421
 30
0.0
 11
4782.476748215338
 21
2995.987034327421
 31
0.0
  0
LINE
  5
2D5
330
2D1
100
AcDbEntity
  8
1
100
AcDbLine
 10
4787.476748215339
 20
3081.391858020042
 30
0.0
 11
4787.476748215339
 21
3005.987034327421
 31
0.0
  0
SOLID
  5
2D6
330
2D1
100
AcDbEntity
  8
1
100
AcDbTrace
 10
4785.810081548671
 20
3081.391858020042
 30
0.0
 11
4789.143414882005
 21
3081.391858020042
 31
0.0
 12
4787.476748215339
 22
3091.391858020042
 32
0.0
 13
4787.476748215339
 23
3091.391858020042
 33
0.0
  0
SOLID
  5
2D7
330
2D1
100
AcDbEntity
  8
1
100
AcDbTrace
 10
4785.810081548671
 20
3005.987034327421
 30
0.0
 11
4789.143414882005
 21
3005.987034327421
 31
0.0
 12
4787.476748215339
 22
2995.987034327421
 32
0.0
 13
4787.476748215339
 23
2995.987034327421
 33
0.0
  0
MTEXT
  5
2D8
330
2D1
100
AcDbEntity
  8
1
100
AcDbMText
 10
4776.133564870811
 20
3043.689446173732
 30
0.0
 40
10.0
 41
0.0
 71
     5
 72
     1
  1
95,4
  7
SANINDUSA
 11
0.0000000000000001
 21
1.0
 31
0.0
 73
     1
 44
1.0
1001
ACAD
1000
MTEXTBEGIN
1070
    73
1070
     1
1070
    44
1040
1.0
1070
    74
1070
     0
1000
MTEXTEND
  0
POINT
  5
2D9
330
2D1
100
AcDbEntity
  8
Defpoints
 62
     0
100
AcDbPoint
 10
4821.091667730982
 20
3091.391858020042
 30
0.000000000000214
  0
POINT
  5
2DA
330
2D1
100
AcDbEntity
  8
Defpoints
 62
     0
100
AcDbPoint
 10
4816.092429198945
 20
2995.987034327421
 30
-0.000000000007776
  0
POINT
  5
2DB
330
2D1
100
AcDbEntity
  8
Defpoints
 62
     0
100
AcDbPoint
 10
4787.476748215339
 20
2995.987034327421
 30
0.0
  0
ENDBLK
  5
2DC
330
2D1
100
AcDbEntity
  8
0
100
AcDbBlockEnd
  0
BLOCK
  5
C63
330
C5D
100
AcDbEntity
  8
0
100
AcDbBlockBegin
  2
*D64
 70
     1
 10
0.0
 20
0.0
 30
0.0
  3
*D64
  1

  0
LINE
  5
92DE
330
C5D
100
AcDbEntity
  8
cotas
100
AcDbLine
 10
172.2427653607526
 20
1706.301341545961
 30
0.0
 11
148.2261174702507
 21
1733.250738756892
 31
0.0
  0
MTEXT
  5
92DF
330
C5D
100
AcDbEntity
  8
cotas
100
AcDbMText
 10
171.0266361692792
 20
1722.696405264993
 30
0.0
 40
10.0
 41
0.0
 71
     5
 72
     1
  1
R7
  7
SANINDUSA
 11
0.6653169992364145
 21
-0.746560975759551
 31
0.0
 73
     1
 44
1.0
1001
ACAD
1000
MTEXTBEGIN
1070
    73
1070
     1
1070
    44
1040
1.0
1070
    74
1070
     0
1000
MTEXTEND
  0
SOLID
  5
92E0
330
C5D
100
AcDbEntity
  8
cotas
100
AcDbTrace
 10
149.4703857631833
 20
1734.359600422286
 30
0.0
 11
146.981849177318
 21
1732.141877091498
 31
0.0
 12
141.5729474778866
 22
1740.716348514487
 32
0.0
 13
141.5729474778866
 23
1740.716348514487
 33
0.0
  0
POINT
  5
92E1
330
C5D
100
AcDbEntity
  8
Defpoints
 62
     0
100
AcDbPoint
 10
141.5729474778866
 20
1740.716348514487
 30
0.0
  0
POINT
  5
92E2
330
C5D
100
AcDbEntity
  8
Defpoints
 62
     0
100
AcDbPoint
 10
146.2301664725395
 20
1735.490421684173
 30
0.0
  0
ENDBLK
  5
C64
330
C5D
100
AcDbEntity
  8
0
100
AcDbBlockEnd
  0
BLOCK
  5
C6B
330
C65
100
AcDbEntity
  8
0
100
AcDbBlockBegin
  2
*D65
 70
     1
 10
0.0
 20
0.0
 30
0.0
  3
*D65
  1

  0
LINE
  5
92D9
330
C65
100
AcDbEntity
  8
cotas
100
AcDbLine
 10
1002.441529927747
 20
1710.454362583186
 30
0.0
 11
1030.168130813874
 21
1733.569400745196
 31
0.0
  0
MTEXT
  5
92DA
330
C65
100
AcDbEntity
  8
cotas
100
AcDbMText
 10
1006.060970615841
 20
1726.491093349363
 30
0.0
 40
10.0
 41
0.0
 71
     5
 72
     1
  1
R7
  7
SANINDUSA
 11
0.7680913250126468
 21
0.6403403129901449
 31
0.0
 73
     1
 44
1.0
1001
ACAD
1000
MTEXTBEGIN
1070
    73
1070
     1
1070
    44
1040
1.0
1070
    74
1070
     0
1000
MTEXTEND
  0
SOLID
  5
92DB
330
C65
100
AcDbEntity
  8
cotas
100
AcDbTrace
 10
1029.100896958891
 20
1734.84955295355
 30
0.0
 11
1031.235364668858
 21
1732.289248536841
 31
0.0
 12
1037.849044064001
 22
1739.972803875097
 32
0.0
 13
1037.849044064001
 23
1739.972803875097
 33
0.0
  0
POINT
  5
92DC
330
C65
100
AcDbEntity
  8
Defpoints
 62
     0
100
AcDbPoint
 10
1037.849044064001
 20
1739.972803875097
 30
0.0
  0
POINT
  5
92DD
330
C65
100
AcDbEntity
  8
Defpoints
 62
     0
100
AcDbPoint
 10
1032.472404788911
 20
1735.490421684165
 30
0.0
  0
ENDBLK
  5
C6C
330
C65
100
AcDbEntity
  8
0
100
AcDbBlockEnd
  0
BLOCK
  5
C78
330
C6D
100
AcDbEntity
  8
0
100
AcDbBlockBegin
  2
*D66
 70
     1
 10
0.0
 20
0.0
 30
0.0
  3
*D66
  1

  0
LINE
  5
92CF
330
C6D
100
AcDbEntity
  8
cotas
100
AcDbLine
 10
1040.136729972145
 20
1697.491184056063
 30
0.0
 11
1040.663456524278
 21
1667.314120690253
 31
0.0
  0
ARC
  5
92D0
330
C6D
100
AcDbEntity
  8
cotas
100
AcDbCircle
 10
1039.351289288367
 20
1742.490421684166
 30
0.0
 40
70.18775175507309
100
AcDbArc
 50
188.1701364803901
 51
262.8298330588089
  0
SOLID
  5
92D1
330
C6D
100
AcDbEntity
  8
cotas
100
AcDbTrace
 10
968.2134802350345
 20
1732.397098697766
 30
0.0
 11
971.5383448413406
 21
1732.63455703273
 31
0.0
 12
969.1635375332939
 22
1742.490421684166
 32
0.0
 13
969.1635375332939
 23
1742.490421684166
 33
0.0
  0
SOLID
  5
92D2
330
C6D
100
AcDbEntity
  8
cotas
100
AcDbTrace
 10
1030.680388662939
 20
1674.51580153115
 30
0.0
 11
1030.500991612918
 21
1671.187299193828
 31
0.0
 12
1040.576197149893
 22
1672.313359212426
 32
0.0
 13
1040.576197149893
 23
1672.313359212426
 33
0.0
  0
MTEXT
  5
92D3
330
C6D
100
AcDbEntity
  8
cotas
100
AcDbMText
 10
998.1065749789548
 20
1700.519517798755
 30
0.0
 40
10.0
 41
0.0
 71
     5
 72
     1
  1
91,0°
  7
SANINDUSA
 11
0.7132502628380123
 21
-0.7009094538965118
 31
0.0
 73
     1
 44
1.0
1001
ACAD
1000
MTEXTBEGIN
1070
    73
1070
     1
1070
    44
1040
1.0
1070
    74
1070
     0
1000
MTEXTEND
  0
POINT
  5
92D4
330
C6D
100
AcDbEntity
  8
Defpoints
 62
     0
100
AcDbPoint
 10
978.7721023569828
 20
1707.043523270283
 30
0.0
  0
POINT
  5
92D5
330
C6D
100
AcDbEntity
  8
Defpoints
 62
     0
100
AcDbPoint
 10
146.2301664146349
 20
1742.490421684166
 30
0.0
  0
POINT
  5
92D6
330
C6D
100
AcDbEntity
  8
Defpoints
 62
     0
100
AcDbPoint
 10
1039.471338636951
 20
1735.612589563168
 30
0.0
  0
POINT
  5
92D7
330
C6D
100
AcDbEntity
  8
Defpoints
 62
     0
100
AcDbPoint
 10
1040.04947059776
 20
1702.490422578236
 30
0.0
  0
POINT
  5
92D8
330
C6D
100
AcDbEntity
  8
Defpoints
 62
     0
100
AcDbPoint
 10
1032.472408944623
 20
1742.490421684166
 30
0.0
  0
ENDBLK
  5
C79
330
C6D
100
AcDbEntity
  8
0
100
AcDbBlockEnd
  0
BLOCK
  5
C85
330
C7A
100
AcDbEntity
  8
0
100
AcDbBlockBegin
  2
*D67
 70
     1
 10
0.0
 20
0.0
 30
0.0
  3
*D67
  1

  0
LINE
  5
92C5
330
C7A
100
AcDbEntity
  8
cotas
100
AcDbLine
 10
138.5658210179799
 20
1697.491184102451
 30
0.0
 11
137.9401371670666
 21
1661.645780238763
 31
0.0
  0
ARC
  5
92C6
330
C7A
100
AcDbEntity
  8
cotas
100
AcDbCircle
 10
139.3512856305522
 20
1742.490421684166
 30
0.0
 40
75.85695635145953
100
AcDbArc
 50
276.5586144526253
 51
352.4413855488219
  0
SOLID
  5
92C7
330
C7A
100
AcDbEntity
  8
cotas
100
AcDbTrace
 10
148.0964514134664
 20
1665.465202931181
 30
0.0
 11
147.9348212775667
 21
1668.794615313311
 31
0.0
 12
138.0273991991267
 22
1666.645018714547
 32
0.0
 13
138.0273991991267
 23
1666.645018714547
 33
0.0
  0
SOLID
  5
92C8
330
C7A
100
AcDbEntity
  8
cotas
100
AcDbTrace
 10
212.886064420612
 20
1732.622024187556
 30
0.0
 11
216.2121488822912
 21
1732.402312410702
 31
0.0
 12
215.2082419820117
 22
1742.490421684166
 32
0.0
 13
215.2082419820117
 23
1742.490421684166
 33
0.0
  0
MTEXT
  5
92C9
330
C7A
100
AcDbEntity
  8
cotas
100
AcDbMText
 10
184.5695868066303
 20
1696.475944110911
 30
0.0
 40
10.0
 41
0.0
 71
     5
 72
     1
  1
91,0°
  7
SANINDUSA
 11
0.713250449145331
 21
0.7009092643088574
 31
0.0
 73
     1
 44
1.0
1001
ACAD
1000
MTEXTBEGIN
1070
    73
1070
     1
1070
    44
1040
1.0
1070
    74
1070
     0
1000
MTEXTEND
  0
POINT
  5
92CA
330
C7A
100
AcDbEntity
  8
Defpoints
 62
     0
100
AcDbPoint
 10
176.512828605081
 20
1676.359509467114
 30
0.0
  0
POINT
  5
92CB
330
C7A
100
AcDbEntity
  8
Defpoints
 62
     0
100
AcDbPoint
 10
138.6530830500402
 20
1702.490422578236
 30
0.0
  0
POINT
  5
92CC
330
C7A
100
AcDbEntity
  8
Defpoints
 62
     0
100
AcDbPoint
 10
146.2301664146349
 20
1742.490421684166
 30
0.0
  0
POINT
  5
92CD
330
C7A
100
AcDbEntity
  8
Defpoints
 62
     0
100
AcDbPoint
 10
1032.472408944623
 20
1742.490421684166
 30
0.0
  0
POINT
  5
92CE
330
C7A
100
AcDbEntity
  8
Defpoints
 62
     0
100
AcDbPoint
 10
139.2312326083433
 20
1735.612588638212
 30
0.0
  0
ENDBLK
  5
C86
330
C7A
100
AcDbEntity
  8
0
100
AcDbBlockEnd
  0
BLOCK
  5
C91
330
C87
100
AcDbEntity
  8
0
100
AcDbBlockBegin
  2
*D68
 70
     1
 10
0.0
 20
0.0
 30
0.0
  3
*D68
  1

  0
LINE
  5
92A0
330
C87
100
AcDbEntity
  8
cotas
100
AcDbLine
 10
3732.975031406912
 20
1673.309484344574
 30
0.0
 11
3782.460797081369
 21
1673.309484344574
 31
0.0
  0
LINE
  5
92A1
330
C87
100
AcDbEntity
  8
cotas
100
AcDbLine
 10
3970.636774343131
 20
1740.737721496162
 30
0.0
 11
3772.460797081369
 21
1740.737721496162
 31
0.0
  0
LINE
  5
92A2
330
C87
100
AcDbEntity
  8
cotas
100
AcDbLine
 10
3777.460797081368
 20
1683.309484344574
 30
0.0
 11
3777.460797081368
 21
1730.737721496162
 31
0.0
  0
SOLID
  5
92A3
330
C87
100
AcDbEntity
  8
cotas
100
AcDbTrace
 10
3775.794130414702
 20
1683.309484344574
 30
0.0
 11
3779.127463748035
 21
1683.309484344574
 31
0.0
 12
3777.460797081368
 22
1673.309484344574
 32
0.0
 13
3777.460797081368
 23
1673.309484344574
 33
0.0
  0
SOLID
  5
92A4
330
C87
100
AcDbEntity
  8
cotas
100
AcDbTrace
 10
3775.794130414702
 20
1730.737721496162
 30
0.0
 11
3779.127463748035
 21
1730.737721496162
 31
0.0
 12
3777.460797081368
 22
1740.737721496162
 32
0.0
 13
3777.460797081368
 23
1740.737721496162
 33
0.0
  0
MTEXT
  5
92A5
330
C87
100
AcDbEntity
  8
cotas
100
AcDbMText
 10
3766.124329653564
 20
1707.023602920369
 30
0.0
 40
10.0
 41
0.0
 71
     5
 72
     1
  1
67,4
  7
SANINDUSA
 11
0.0000000000000001
 21
1.0
 31
0.0
 73
     1
 44
1.0
1001
ACAD
1000
MTEXTBEGIN
1070
    73
1070
     1
1070
    44
1040
1.0
1070
    74
1070
     0
1000
MTEXTEND
  0
POINT
  5
92A6
330
C87
100
AcDbEntity
  8
Defpoints
 62
     0
100
AcDbPoint
 10
3727.975031406913
 20
1673.309484344574
 30
0.0
  0
POINT
  5
92A7
330
C87
100
AcDbEntity
  8
Defpoints
 62
     0
100
AcDbPoint
 10
3975.636774343131
 20
1740.737721496162
 30
0.0
  0
POINT
  5
92A8
330
C87
100
AcDbEntity
  8
Defpoints
 62
     0
100
AcDbPoint
 10
3777.460797081368
 20
1740.737721496162
 30
0.0
  0
ENDBLK
  5
C92
330
C87
100
AcDbEntity
  8
0
100
AcDbBlockEnd
  0
BLOCK
  5
C9D
330
C93
100
AcDbEntity
  8
0
100
AcDbBlockBegin
  2
*D69
 70
     1
 10
0.0
 20
0.0
 30
0.0
  3
*D69
  1

  0
LINE
  5
9281
330
C93
100
AcDbEntity
  8
cotas
100
AcDbLine
 10
3173.058799072361
 20
1682.9083079689
 30
0.0
 11
3039.953795389696
 21
1682.9083079689
 31
0.0
  0
LINE
  5
9282
330
C93
100
AcDbEntity
  8
cotas
100
AcDbLine
 10
3070.651997970205
 20
1742.482958056963
 30
0.0
 11
3039.953795389696
 21
1742.482958056963
 31
0.0
  0
LINE
  5
9283
330
C93
100
AcDbEntity
  8
cotas
100
AcDbLine
 10
3044.953795389696
 20
1692.9083079689
 30
0.0
 11
3044.953795389696
 21
1732.482958056963
 31
0.0
  0
SOLID
  5
9284
330
C93
100
AcDbEntity
  8
cotas
100
AcDbTrace
 10
3043.28712872303
 20
1692.9083079689
 30
0.0
 11
3046.620462056363
 21
1692.9083079689
 31
0.0
 12
3044.953795389696
 22
1682.9083079689
 32
0.0
 13
3044.953795389696
 23
1682.9083079689
 33
0.0
  0
SOLID
  5
9285
330
C93
100
AcDbEntity
  8
cotas
100
AcDbTrace
 10
3043.28712872303
 20
1732.482958056963
 30
0.0
 11
3046.620462056363
 21
1732.482958056963
 31
0.0
 12
3044.953795389696
 22
1742.482958056963
 32
0.0
 13
3044.953795389696
 23
1742.482958056963
 33
0.0
  0
MTEXT
  5
9286
330
C93
100
AcDbEntity
  8
cotas
100
AcDbMText
 10
3033.61061204517
 20
1712.695633012932
 30
0.0
 40
10.0
 41
0.0
 71
     5
 72
     1
  1
59,6
  7
SANINDUSA
 11
0.0000000000000001
 21
1.0
 31
0.0
 73
     1
 44
1.0
1001
ACAD
1000
MTEXTBEGIN
1070
    73
1070
     1
1070
    44
1040
1.0
1070
    74
1070
     0
1000
MTEXTEND
  0
POINT
  5
9287
330
C93
100
AcDbEntity
  8
Defpoints
 62
     0
100
AcDbPoint
 10
3178.058799072361
 20
1682.9083079689
 30
0.0
  0
POINT
  5
9288
330
C93
100
AcDbEntity
  8
Defpoints
 62
     0
100
AcDbPoint
 10
3075.651997970205
 20
1742.482958056963
 30
0.0
  0
POINT
  5
9289
330
C93
100
AcDbEntity
  8
Defpoints
 62
     0
100
AcDbPoint
 10
3044.953795389696
 20
1742.482958056963
 30
0.0
  0
ENDBLK
  5
C9E
330
C93
100
AcDbEntity
  8
0
100
AcDbBlockEnd
  0
BLOCK
  5
CA9
330
C9F
100
AcDbEntity
  8
0
100
AcDbBlockBegin
  2
*D70
 70
     1
 10
0.0
 20
0.0
 30
0.0
  3
*D70
  1

  0
ARC
  5
9278
330
C9F
100
AcDbEntity
  8
cotas
100
AcDbCircle
 10
3141.885812024791
 20
1738.582958056963
 30
0.0
 40
47.01428158020292
100
AcDbArc
 50
192.2099791823506
 51
259.7900208176399
  0
SOLID
  5
9279
330
C9F
100
AcDbEntity
  8
cotas
100
AcDbTrace
 10
3094.277822593777
 20
1728.462420088768
 30
0.0
 11
3097.59225154837
 21
1728.816922297597
 31
0.0
 12
3094.871530444588
 22
1738.582958056963
 32
0.0
 13
3094.871530444588
 23
1738.582958056963
 33
0.0
  0
SOLID
  5
927A
330
C9F
100
AcDbEntity
  8
cotas
100
AcDbTrace
 10
3133.671548438321
 20
1693.975550288033
 30
0.0
 11
3133.432934085031
 21
1690.650768445339
 31
0.0
 12
3143.526586789762
 22
1691.597316306815
 32
0.0
 13
3143.526586789762
 23
1691.597316306815
 33
0.0
  0
MTEXT
  5
927B
330
C9F
100
AcDbEntity
  8
cotas
100
AcDbMText
 10
3117.108917685795
 20
1712.92573288735
 30
0.0
 40
10.0
 41
0.0
 71
     5
 72
     1
  1
92,0°
  7
SANINDUSA
 11
0.719339800338595
 21
-0.6946583704590556
 31
0.0
 73
     1
 44
1.0
1001
ACAD
1000
MTEXTBEGIN
1070
    73
1070
     1
1070
    44
1040
1.0
1070
    74
1070
     0
1000
MTEXTEND
  0
POINT
  5
927C
330
C9F
100
AcDbEntity
  8
Defpoints
 62
     0
100
AcDbPoint
 10
3101.446517784665
 20
1714.603672123826
 30
0.0
  0
POINT
  5
927D
330
C9F
100
AcDbEntity
  8
Defpoints
 62
     0
100
AcDbPoint
 10
3082.530878812193
 20
1738.582958056963
 30
0.0
  0
POINT
  5
927E
330
C9F
100
AcDbEntity
  8
Defpoints
 62
     0
100
AcDbPoint
 10
3143.602731434266
 20
1689.41681898063
 30
0.0
  0
POINT
  5
927F
330
C9F
100
AcDbEntity
  8
Defpoints
 62
     0
100
AcDbPoint
 10
3141.990288386647
 20
1735.591146496744
 30
0.0
  0
POINT
  5
9280
330
C9F
100
AcDbEntity
  8
Defpoints
 62
     0
100
AcDbPoint
 10
3138.892176822893
 20
1738.582958056962
 30
0.0
  0
ENDBLK
  5
CAA
330
C9F
100
AcDbEntity
  8
0
100
AcDbBlockEnd
  0
BLOCK
  5
CB2
330
CAB
100
AcDbEntity
  8
0
100
AcDbBlockBegin
  2
*D71
 70
     1
 10
0.0
 20
0.0
 30
0.0
  3
*D71
  1

  0
LINE
  5
9272
330
CAB
100
AcDbEntity
  8
cotas
100
AcDbLine
 10
3111.538802713925
 20
1641.59244433479
 30
0.0
 11
3144.589679327917
 21
1671.898554273329
 31
0.0
  0
MTEXT
  5
9273
330
CAB
100
AcDbEntity
  8
cotas
100
AcDbMText
 10
3117.609255157143
 20
1660.749166163506
 30
0.0
 40
10.0
 41
0.0
 71
     5
 72
     1
  1
R17
  7
SANINDUSA
 11
0.7370489033732932
 21
0.675839414384975
 31
0.0
 73
     1
 44
1.0
1001
ACAD
1000
MTEXTBEGIN
1070
    73
1070
     1
1070
    44
1040
1.0
1070
    74
1070
     0
1000
MTEXTEND
  0
LINE
  5
9274
330
CAB
100
AcDbEntity
  8
cotas
100
AcDbLine
 10
3164.489999718995
 20
1690.146218461723
 30
0.0
 11
3151.96016836165
 21
1678.656948417179
 31
0.0
  0
SOLID
  5
9275
330
CAB
100
AcDbEntity
  8
cotas
100
AcDbTrace
 10
3143.463280303942
 20
1673.126969112284
 30
0.0
 11
3145.716078351892
 21
1670.670139434374
 31
0.0
 12
3151.96016836165
 22
1678.656948417179
 32
0.0
 13
3151.96016836165
 23
1678.656948417179
 33
0.0
  0
POINT
  5
9276
330
CAB
100
AcDbEntity
  8
Defpoints
 62
     0
100
AcDbPoint
 10
3151.96016836165
 20
1678.656948417179
 30
0.0
  0
POINT
  5
9277
330
CAB
100
AcDbEntity
  8
Defpoints
 62
     0
100
AcDbPoint
 10
3164.489999718995
 20
1690.146218461723
 30
0.0
  0
ENDBLK
  5
CB3
330
CAB
100
AcDbEntity
  8
0
100
AcDbBlockEnd
  0
BLOCK
  5
CBB
330
CB4
100
AcDbEntity
  8
0
100
AcDbBlockBegin
  2
*D72
 70
     1
 10
0.0
 20
0.0
 30
0.0
  3
*D72
  1

  0
LINE
  5
926C
330
CB4
100
AcDbEntity
  8
cotas
100
AcDbLine
 10
3187.88538942123
 20
1621.13883623204
 30
0.0
 11
3174.697713325087
 21
1663.955815243153
 31
0.0
  0
MTEXT
  5
926D
330
CB4
100
AcDbEntity
  8
cotas
100
AcDbMText
 10
3192.516049118769
 20
1640.772694191248
 30
0.0
 40
10.0
 41
0.0
 71
     5
 72
     1
  1
R10
  7
SANINDUSA
 11
0.2943554145878543
 21
-0.955696023797741
 31
0.0
 73
     1
 44
1.0
1001
ACAD
1000
MTEXTBEGIN
1070
    73
1070
     1
1070
    44
1040
1.0
1070
    74
1070
     0
1000
MTEXTEND
  0
LINE
  5
926E
330
CB4
100
AcDbEntity
  8
cotas
100
AcDbLine
 10
3168.810605033332
 20
1683.069735719103
 30
0.0
 11
3171.754159179209
 21
1673.51277548113
 31
0.0
  0
SOLID
  5
926F
330
CB4
100
AcDbEntity
  8
cotas
100
AcDbTrace
 10
3176.290540031417
 20
1664.446407600799
 30
0.0
 11
3173.104886618757
 21
1663.465222885507
 31
0.0
 12
3171.754159179209
 22
1673.51277548113
 32
0.0
 13
3171.754159179209
 23
1673.51277548113
 33
0.0
  0
POINT
  5
9270
330
CB4
100
AcDbEntity
  8
Defpoints
 62
     0
100
AcDbPoint
 10
3171.754159179209
 20
1673.51277548113
 30
0.0
  0
POINT
  5
9271
330
CB4
100
AcDbEntity
  8
Defpoints
 62
     0
100
AcDbPoint
 10
3168.810605033332
 20
1683.069735719103
 30
0.0
  0
ENDBLK
  5
CBC
330
CB4
100
AcDbEntity
  8
0
100
AcDbBlockEnd
  0
BLOCK
  5
CC3
330
CBD
100
AcDbEntity
  8
0
100
AcDbBlockBegin
  2
*D73
 70
     1
 10
0.0
 20
0.0
 30
0.0
  3
*D73
  1

  0
LINE
  5
9267
330
CBD
100
AcDbEntity
  8
cotas
100
AcDbLine
 10
3215.631295281548
 20
1642.426265875055
 30
0.0
 11
3186.235573211624
 21
1673.617212028147
 31
0.0
  0
MTEXT
  5
9268
330
CBD
100
AcDbEntity
  8
cotas
100
AcDbMText
 10
3213.958966590508
 20
1658.781093948459
 30
0.0
 40
10.0
 41
0.0
 71
     5
 72
     1
  1
R7
  7
SANINDUSA
 11
0.6858537116675882
 21
-0.7277394356442373
 31
0.0
 73
     1
 44
1.0
1001
ACAD
1000
MTEXTBEGIN
1070
    73
1070
     1
1070
    44
1040
1.0
1070
    74
1070
     0
1000
MTEXTEND
  0
SOLID
  5
9269
330
CBD
100
AcDbEntity
  8
cotas
100
AcDbTrace
 10
3187.448472271031
 20
1674.760301547593
 30
0.0
 11
3185.022674152217
 21
1672.474122508701
 31
0.0
 12
3179.377036094948
 22
1680.894606384589
 32
0.0
 13
3179.377036094948
 23
1680.894606384589
 33
0.0
  0
POINT
  5
926A
330
CBD
100
AcDbEntity
  8
Defpoints
 62
     0
100
AcDbPoint
 10
3179.377036094948
 20
1680.894606384589
 30
0.0
  0
POINT
  5
926B
330
CBD
100
AcDbEntity
  8
Defpoints
 62
     0
100
AcDbPoint
 10
3184.178012076621
 20
1675.800430335079
 30
0.0
  0
ENDBLK
  5
CC4
330
CBD
100
AcDbEntity
  8
0
100
AcDbBlockEnd
  0
BLOCK
  5
CCC
330
CC5
100
AcDbEntity
  8
0
100
AcDbBlockBegin
  2
*D74
 70
     1
 10
0.0
 20
0.0
 30
0.0
  3
*D74
  1

  0
LINE
  5
9261
330
CC5
100
AcDbEntity
  8
cotas
100
AcDbLine
 10
3711.945741754021
 20
1604.472050885345
 30
0.0
 11
3732.974439635085
 21
1644.077790494486
 31
0.0
  0
MTEXT
  5
9262
330
CC5
100
AcDbEntity
  8
cotas
100
AcDbMText
 10
3711.268264095858
 20
1624.556159232764
 30
0.0
 40
10.0
 41
0.0
 71
     5
 72
     1
  1
R17
  7
SANINDUSA
 11
0.468949096074654
 21
0.8832251951177372
 31
0.0
 73
     1
 44
1.0
1001
ACAD
1000
MTEXTBEGIN
1070
    73
1070
     1
1070
    44
1040
1.0
1070
    74
1070
     0
1000
MTEXTEND
  0
LINE
  5
9263
330
CC5
100
AcDbEntity
  8
cotas
100
AcDbLine
 10
3745.637972862922
 20
1667.928463626513
 30
0.0
 11
3737.663930595831
 21
1652.910042445664
 31
0.0
  0
SOLID
  5
9264
330
CC5
100
AcDbEntity
  8
cotas
100
AcDbTrace
 10
3731.502397643222
 20
1644.859372321277
 30
0.0
 11
3734.446481626947
 21
1643.296208667695
 31
0.0
 12
3737.663930595831
 22
1652.910042445664
 32
0.0
 13
3737.663930595831
 23
1652.910042445664
 33
0.0
  0
POINT
  5
9265
330
CC5
100
AcDbEntity
  8
Defpoints
 62
     0
100
AcDbPoint
 10
3737.663930595831
 20
1652.910042445664
 30
0.0
  0
POINT
  5
9266
330
CC5
100
AcDbEntity
  8
Defpoints
 62
     0
100
AcDbPoint
 10
3745.637972862922
 20
1667.928463626513
 30
0.0
  0
ENDBLK
  5
CCD
330
CC5
100
AcDbEntity
  8
0
100
AcDbBlockEnd
  0
BLOCK
  5
CD4
330
CCE
100
AcDbEntity
  8
0
100
AcDbBlockBegin
  2
*D75
 70
     1
 10
0.0
 20
0.0
 30
0.0
  3
*D75
  1

  0
LINE
  5
925C
330
CCE
100
AcDbEntity
  8
cotas
100
AcDbLine
 10
3688.944038246722
 20
1634.101187730664
 30
0.0
 11
3719.546478532786
 21
1664.310705977322
 31
0.0
  0
MTEXT
  5
925D
330
CCE
100
AcDbEntity
  8
cotas
100
AcDbMText
 10
3691.205284594904
 20
1650.385040146917
 30
0.0
 40
10.0
 41
0.0
 71
     5
 72
     1
  1
R7
  7
SANINDUSA
 11
0.7116607288360189
 21
0.70252331422707
 31
0.0
 73
     1
 44
1.0
1001
ACAD
1000
MTEXTBEGIN
1070
    73
1070
     1
1070
    44
1040
1.0
1070
    74
1070
     0
1000
MTEXTEND
  0
SOLID
  5
925E
330
CCE
100
AcDbEntity
  8
cotas
100
AcDbTrace
 10
3718.375606342408
 20
1665.496807192049
 30
0.0
 11
3720.717350723165
 21
1663.124604762596
 31
0.0
 12
3726.663085821146
 22
1671.335939119593
 32
0.0
 13
3726.663085821146
 23
1671.335939119593
 33
0.0
  0
POINT
  5
925F
330
CCE
100
AcDbEntity
  8
Defpoints
 62
     0
100
AcDbPoint
 10
3726.663085821146
 20
1671.335939119593
 30
0.0
  0
POINT
  5
9260
330
CCE
100
AcDbEntity
  8
Defpoints
 62
     0
100
AcDbPoint
 10
3721.681468480468
 20
1666.418283581527
 30
0.0
  0
ENDBLK
  5
CD5
330
CCE
100
AcDbEntity
  8
0
100
AcDbBlockEnd
  0
BLOCK
  5
CE0
330
CD6
100
AcDbEntity
  8
0
100
AcDbBlockBegin
  2
*D76
 70
     1
 10
0.0
 20
0.0
 30
0.0
  3
*D76
  1

  0
ARC
  5
9253
330
CD6
100
AcDbEntity
  8
cotas
100
AcDbCircle
 10
-234.9681998097991
 20
1742.482958056964
 30
0.0
 40
3592.358038712736
100
AcDbArc
 50
359.1594928535919
 51
359.8405064378472
  0
SOLID
  5
9254
330
CD6
100
AcDbEntity
  8
cotas
100
AcDbTrace
 10
3358.669763998515
 20
1689.75956330254
 30
0.0
 11
3355.336860606821
 21
1689.813099203987
 31
0.0
 12
3356.842704598328
 22
1679.78762107818
 32
0.0
 13
3356.842704598328
 23
1679.78762107818
 33
0.0
  0
SOLID
  5
9255
330
CD6
100
AcDbEntity
  8
cotas
100
AcDbTrace
 10
3355.709255416145
 20
1732.48528748219
 30
0.0
 11
3359.042585520763
 21
1732.480648004029
 31
0.0
 12
3357.389838902937
 22
1742.482958056964
 32
0.0
 13
3357.389838902937
 23
1742.482958056964
 33
0.0
  0
MTEXT
  5
9256
330
CD6
100
AcDbEntity
  8
cotas
100
AcDbMText
 10
3345.910301292331
 20
1711.233082659524
 30
0.0
 40
10.0
 41
0.0
 71
     5
 72
     1
  1
1,0°
  7
SANINDUSA
 11
0.0087265416814994
 21
0.9999619230102121
 31
0.0
 73
     1
 44
1.0
1001
ACAD
1000
MTEXTBEGIN
1070
    73
1070
     1
1070
    44
1040
1.0
1070
    74
1070
     0
1000
MTEXTEND
  0
POINT
  5
9257
330
CD6
100
AcDbEntity
  8
Defpoints
 62
     0
100
AcDbPoint
 10
3357.146664671493
 20
1700.684887807631
 30
0.0
  0
POINT
  5
9258
330
CD6
100
AcDbEntity
  8
Defpoints
 62
     0
100
AcDbPoint
 10
3165.875729029927
 20
1742.482958056964
 30
0.0
  0
POINT
  5
9259
330
CD6
100
AcDbEntity
  8
Defpoints
 62
     0
100
AcDbPoint
 10
3433.847498961632
 20
1678.443496440196
 30
0.0
  0
POINT
  5
925A
330
CD6
100
AcDbEntity
  8
Defpoints
 62
     0
100
AcDbPoint
 10
3184.300179008237
 20
1682.799364199668
 30
0.0
  0
POINT
  5
925B
330
CD6
100
AcDbEntity
  8
Defpoints
 62
     0
100
AcDbPoint
 10
4185.428275803252
 20
1742.482958056965
 30
0.0
  0
ENDBLK
  5
CE1
330
CD6
100
AcDbEntity
  8
0
100
AcDbBlockEnd
  0
BLOCK
  5
CEC
330
CE2
100
AcDbEntity
  8
0
100
AcDbBlockBegin
  2
*D77
 70
     1
 10
0.0
 20
0.0
 30
0.0
  3
*D77
  1

  0
LINE
  5
9238
330
CE2
100
AcDbEntity
  8
cotas
100
AcDbLine
 10
4595.65200869919
 20
1671.377637204354
 30
0.0
 11
4595.65200869919
 21
1807.477958012723
 31
0.0
  0
LINE
  5
9239
330
CE2
100
AcDbEntity
  8
cotas
100
AcDbLine
 10
3075.651997970205
 20
1747.482958056964
 30
0.0
 11
3075.651997970205
 21
1807.477958012723
 31
0.0
  0
LINE
  5
923A
330
CE2
100
AcDbEntity
  8
cotas
100
AcDbLine
 10
4585.652008699191
 20
1802.477958012724
 30
0.0
 11
3085.651997970205
 21
1802.477958012724
 31
0.0
  0
SOLID
  5
923B
330
CE2
100
AcDbEntity
  8
cotas
100
AcDbTrace
 10
4585.652008699191
 20
1804.144624679391
 30
0.0
 11
4585.652008699191
 21
1800.811291346057
 31
0.0
 12
4595.65200869919
 22
1802.477958012724
 32
0.0
 13
4595.65200869919
 23
1802.477958012724
 33
0.0
  0
SOLID
  5
923C
330
CE2
100
AcDbEntity
  8
cotas
100
AcDbTrace
 10
3085.651997970205
 20
1804.144624679391
 30
0.0
 11
3085.651997970205
 21
1800.811291346057
 31
0.0
 12
3075.651997970205
 22
1802.477958012724
 32
0.0
 13
3075.651997970205
 23
1802.477958012724
 33
0.0
  0
MTEXT
  5
923D
330
CE2
100
AcDbEntity
  8
cotas
100
AcDbMText
 10
3835.652003334698
 20
1812.686151431125
 30
0.0
 40
10.0
 41
0.0
 71
     5
 72
     1
  1
1520
  7
SANINDUSA
 73
     1
 44
1.0
1001
ACAD
1000
MTEXTBEGIN
1070
    73
1070
     1
1070
    44
1040
1.0
1070
    74
1070
     0
1000
MTEXTEND
  0
POINT
  5
923E
330
CE2
100
AcDbEntity
  8
Defpoints
 62
     0
100
AcDbPoint
 10
4595.65200869919
 20
1666.377637204354
 30
0.0
  0
POINT
  5
923F
330
CE2
100
AcDbEntity
  8
Defpoints
 62
     0
100
AcDbPoint
 10
3075.651997970205
 20
1742.482958056963
 30
0.0
  0
POINT
  5
9240
330
CE2
100
AcDbEntity
  8
Defpoints
 62
     0
100
AcDbPoint
 10
3075.651997970205
 20
1802.477958012724
 30
0.0
  0
ENDBLK
  5
CED
330
CE2
100
AcDbEntity
  8
0
100
AcDbBlockEnd
  0
BLOCK
  5
CF5
330
CEE
100
AcDbEntity
  8
0
100
AcDbBlockBegin
  2
*D78
 70
     1
 10
0.0
 20
0.0
 30
0.0
  3
*D78
  1

  0
LINE
  5
9232
330
CEE
100
AcDbEntity
  8
cotas
100
AcDbLine
 10
4735.456712242434
 20
1610.696388089669
 30
0.0
 11
4704.496138016907
 21
1643.135000701582
 31
0.0
  0
MTEXT
  5
9233
330
CEE
100
AcDbEntity
  8
cotas
100
AcDbMText
 10
4730.67469354686
 20
1630.214653414318
 30
0.0
 40
10.0
 41
0.0
 71
     5
 72
     1
  1
R17
  7
SANINDUSA
 11
0.6904342522361932
 21
-0.7233951502042635
 31
0.0
 73
     1
 44
1.0
1001
ACAD
1000
MTEXTBEGIN
1070
    73
1070
     1
1070
    44
1040
1.0
1070
    74
1070
     0
1000
MTEXTEND
  0
LINE
  5
9234
330
CEE
100
AcDbEntity
  8
cotas
100
AcDbLine
 10
4685.854508747654
 20
1662.6665696549
 30
0.0
 11
4697.591795494544
 21
1650.368952203625
 31
0.0
  0
SOLID
  5
9235
330
CEE
100
AcDbEntity
  8
cotas
100
AcDbTrace
 10
4705.701796600581
 20
1644.285724455309
 30
0.0
 11
4703.290479433232
 21
1641.984276947855
 31
0.0
 12
4697.591795494544
 22
1650.368952203625
 32
0.0
 13
4697.591795494544
 23
1650.368952203625
 33
0.0
  0
POINT
  5
9236
330
CEE
100
AcDbEntity
  8
Defpoints
 62
     0
100
AcDbPoint
 10
4697.591795494544
 20
1650.368952203625
 30
0.0
  0
POINT
  5
9237
330
CEE
100
AcDbEntity
  8
Defpoints
 62
     0
100
AcDbPoint
 10
4685.854508747654
 20
1662.6665696549
 30
0.0
  0
ENDBLK
  5
CF6
330
CEE
100
AcDbEntity
  8
0
100
AcDbBlockEnd
  0
BLOCK
  5
D01
330
CF7
100
AcDbEntity
  8
0
100
AcDbBlockBegin
  2
*D79
 70
     1
 10
0.0
 20
0.0
 30
0.0
  3
*D79
  1

  0
ARC
  5
9229
330
CF7
100
AcDbEntity
  8
cotas
100
AcDbCircle
 10
4705.652008953609
 20
1742.482958056964
 30
0.0
 40
60.17204840949608
100
AcDbArc
 50
189.5329846044821
 51
258.4669963830442
  0
SOLID
  5
922A
330
CF7
100
AcDbEntity
  8
cotas
100
AcDbTrace
 10
4644.650008439803
 20
1732.379050036682
 30
0.0
 11
4647.971813857426
 21
1732.656033571516
 31
0.0
 12
4645.479960544113
 22
1742.482958056965
 32
0.0
 13
4645.479960544113
 23
1742.482958056965
 33
0.0
  0
SOLID
  5
922B
330
CF7
100
AcDbEntity
  8
cotas
100
AcDbTrace
 10
4693.818041971911
 20
1685.180858822708
 30
0.0
 11
4693.425296732348
 21
1681.870743675479
 31
0.0
 12
4703.552014793815
 22
1682.347565530403
 32
0.0
 13
4703.552014793815
 23
1682.347565530403
 33
0.0
  0
MTEXT
  5
922C
330
CF7
100
AcDbEntity
  8
cotas
100
AcDbMText
 10
4670.537119333209
 20
1708.572914581195
 30
0.0
 40
10.0
 41
0.0
 71
     5
 72
     1
  1
88,0°
  7
SANINDUSA
 11
0.694658251109633
 21
-0.7193399155929735
 31
0.0
 73
     1
 44
1.0
1001
ACAD
1000
MTEXTBEGIN
1070
    73
1070
     1
1070
    44
1040
1.0
1070
    74
1070
     0
1000
MTEXTEND
  0
POINT
  5
922D
330
CF7
100
AcDbEntity
  8
Defpoints
 62
     0
100
AcDbPoint
 10
4653.194951749475
 20
1713.005296018107
 30
0.0
  0
POINT
  5
922E
330
CF7
100
AcDbEntity
  8
Defpoints
 62
     0
100
AcDbPoint
 10
3665.875729029941
 20
1742.482958056965
 30
0.0
  0
POINT
  5
922F
330
CF7
100
AcDbEntity
  8
Defpoints
 62
     0
100
AcDbPoint
 10
4702.844018386648
 20
1662.07339397911
 30
0.0
  0
POINT
  5
9230
330
CF7
100
AcDbEntity
  8
Defpoints
 62
     0
100
AcDbPoint
 10
4705.41609242471
 20
1735.72725685528
 30
0.0
  0
POINT
  5
9231
330
CF7
100
AcDbEntity
  8
Defpoints
 62
     0
100
AcDbPoint
 10
4685.428275803266
 20
1742.482958056964
 30
0.0
  0
ENDBLK
  5
D02
330
CF7
100
AcDbEntity
  8
0
100
AcDbBlockEnd
  0
BLOCK
  5
D0D
330
D03
100
AcDbEntity
  8
0
100
AcDbBlockBegin
  2
*D80
 70
     1
 10
0.0
 20
0.0
 30
0.0
  3
*D80
  1

  0
LINE
  5
9217
330
D03
100
AcDbEntity
  8
cotas
100
AcDbLine
 10
1173.801688703659
 20
1742.490421684166
 30
0.0
 11
1143.103486123148
 21
1742.490421684166
 31
0.0
  0
LINE
  5
9218
330
D03
100
AcDbEntity
  8
cotas
100
AcDbLine
 10
1171.614748286057
 20
1622.482960739173
 30
0.0
 11
1143.103486123148
 21
1622.482960739173
 31
0.0
  0
LINE
  5
9219
330
D03
100
AcDbEntity
  8
cotas
100
AcDbLine
 10
1148.103486123148
 20
1732.490421684167
 30
0.0
 11
1148.103486123148
 21
1632.482960739173
 31
0.0
  0
SOLID
  5
921A
330
D03
100
AcDbEntity
  8
cotas
100
AcDbTrace
 10
1146.436819456481
 20
1732.490421684167
 30
0.0
 11
1149.770152789814
 21
1732.490421684167
 31
0.0
 12
1148.103486123148
 22
1742.490421684166
 32
0.0
 13
1148.103486123148
 23
1742.490421684166
 33
0.0
  0
SOLID
  5
921B
330
D03
100
AcDbEntity
  8
cotas
100
AcDbTrace
 10
1146.436819456481
 20
1632.482960739173
 30
0.0
 11
1149.770152789814
 21
1632.482960739173
 31
0.0
 12
1148.103486123148
 22
1622.482960739173
 32
0.0
 13
1148.103486123148
 23
1622.482960739173
 33
0.0
  0
MTEXT
  5
921C
330
D03
100
AcDbEntity
  8
cotas
100
AcDbMText
 10
1137.895292704746
 20
1682.48669121167
 30
0.0
 40
10.0
 41
0.0
 71
     5
 72
     1
  1
120
  7
SANINDUSA
 11
0.0000000000000001
 21
1.0
 31
0.0
 73
     1
 44
1.0
1001
ACAD
1000
MTEXTBEGIN
1070
    73
1070
     1
1070
    44
1040
1.0
1070
    74
1070
     0
1000
MTEXTEND
  0
POINT
  5
921D
330
D03
100
AcDbEntity
  8
Defpoints
 62
     0
100
AcDbPoint
 10
1178.801688703659
 20
1742.490421684166
 30
0.0
  0
POINT
  5
921E
330
D03
100
AcDbEntity
  8
Defpoints
 62
     0
100
AcDbPoint
 10
1176.614748286057
 20
1622.482960739173
 30
0.0
  0
POINT
  5
921F
330
D03
100
AcDbEntity
  8
Defpoints
 62
     0
100
AcDbPoint
 10
1148.103486123148
 20
1622.482960739173
 30
0.0
  0
ENDBLK
  5
D0E
330
D03
100
AcDbEntity
  8
0
100
AcDbBlockEnd
  0
BLOCK
  5
D15
330
D0F
100
AcDbEntity
  8
0
100
AcDbBlockBegin
  2
*D81
 70
     1
 10
0.0
 20
0.0
 30
0.0
  3
*D81
  1

  0
LINE
  5
9212
330
D0F
100
AcDbEntity
  8
cotas
100
AcDbLine
 10
1216.014775273824
 20
1710.822757362737
 30
0.0
 11
1188.008118148079
 21
1733.597667737313
 31
0.0
  0
MTEXT
  5
9213
330
D0F
100
AcDbEntity
  8
cotas
100
AcDbMText
 10
1212.199874204507
 20
1726.814117980045
 30
0.0
 40
10.0
 41
0.0
 71
     5
 72
     1
  1
R7
  7
SANINDUSA
 11
0.7758495341438462
 21
-0.6309179822835746
 31
0.0
 73
     1
 44
1.0
1001
ACAD
1000
MTEXTBEGIN
1070
    73
1070
     1
1070
    44
1040
1.0
1070
    74
1070
     0
1000
MTEXTEND
  0
SOLID
  5
9214
330
D0F
100
AcDbEntity
  8
cotas
100
AcDbTrace
 10
1189.059648118552
 20
1734.890750294219
 30
0.0
 11
1186.956588177607
 21
1732.304585180406
 31
0.0
 12
1180.249622806641
 22
1739.906847560148
 32
0.0
 13
1180.249622806641
 23
1739.906847560148
 33
0.0
  0
POINT
  5
9215
330
D0F
100
AcDbEntity
  8
Defpoints
 62
     0
100
AcDbPoint
 10
1180.249622806641
 20
1739.906847560148
 30
0.0
  0
POINT
  5
9216
330
D0F
100
AcDbEntity
  8
Defpoints
 62
     0
100
AcDbPoint
 10
1185.680569545646
 20
1735.490421684165
 30
0.0
  0
ENDBLK
  5
D16
330
D0F
100
AcDbEntity
  8
0
100
AcDbBlockEnd
  0
BLOCK
  5
D1D
330
D17
100
AcDbEntity
  8
0
100
AcDbBlockBegin
  2
*D82
 70
     1
 10
0.0
 20
0.0
 30
0.0
  3
*D82
  1

  0
LINE
  5
920D
330
D17
100
AcDbEntity
  8
cotas
100
AcDbLine
 10
2842.441349014287
 20
1709.809714569613
 30
0.0
 11
2869.660730856306
 21
1733.519936796916
 31
0.0
  0
MTEXT
  5
920E
330
D17
100
AcDbEntity
  8
cotas
100
AcDbMText
 10
2845.712556088256
 20
1725.921085983638
 30
0.0
 40
10.0
 41
0.0
 71
     5
 72
     1
  1
R7
  7
SANINDUSA
 11
0.7540401779116934
 21
0.6568282957477562
 31
0.0
 73
     1
 44
1.0
1001
ACAD
1000
MTEXTBEGIN
1070
    73
1070
     1
1070
    44
1040
1.0
1070
    74
1070
     0
1000
MTEXTEND
  0
SOLID
  5
920F
330
D17
100
AcDbEntity
  8
cotas
100
AcDbTrace
 10
2868.56601703006
 20
1734.776670426768
 30
0.0
 11
2870.755444682552
 21
1732.263203167063
 31
0.0
 12
2877.201132635423
 22
1740.088219754393
 32
0.0
 13
2877.201132635423
 23
1740.088219754393
 33
0.0
  0
POINT
  5
9210
330
D17
100
AcDbEntity
  8
Defpoints
 62
     0
100
AcDbPoint
 10
2877.201132635423
 20
1740.088219754393
 30
0.0
  0
POINT
  5
9211
330
D17
100
AcDbEntity
  8
Defpoints
 62
     0
100
AcDbPoint
 10
2871.922851390042
 20
1735.49042168416
 30
0.0
  0
ENDBLK
  5
D1E
330
D17
100
AcDbEntity
  8
0
100
AcDbBlockEnd
  0
BLOCK
  5
D2A
330
D1F
100
AcDbEntity
  8
0
100
AcDbBlockBegin
  2
*D83
 70
     1
 10
0.0
 20
0.0
 30
0.0
  3
*D83
  1

  0
LINE
  5
9203
330
D1F
100
AcDbEntity
  8
cotas
100
AcDbLine
 10
2879.587258891152
 20
1697.491184244449
 30
0.0
 11
2880.136281991685
 21
1666.040604572985
 31
0.0
  0
ARC
  5
9204
330
D1F
100
AcDbEntity
  8
cotas
100
AcDbCircle
 10
2878.801721037197
 20
1742.490421684166
 30
0.0
 40
71.46146473403629
100
AcDbArc
 50
188.0242731520482
 51
262.9758200766581
  0
SOLID
  5
9205
330
D1F
100
AcDbEntity
  8
cotas
100
AcDbTrace
 10
2806.377352010746
 20
1732.398316200105
 30
0.0
 11
2809.702516183545
 21
1732.631542131433
 31
0.0
 12
2807.340256303161
 22
1742.490421684166
 32
0.0
 13
2807.340256303161
 23
1742.490421684166
 33
0.0
  0
SOLID
  5
9206
330
D1F
100
AcDbEntity
  8
cotas
100
AcDbTrace
 10
2870.150403144652
 20
1673.229665724067
 30
0.0
 11
2869.975250267711
 21
1669.900937351127
 31
0.0
 12
2880.049011824999
 22
1671.039842906773
 32
0.0
 13
2880.049011824999
 23
1671.039842906773
 33
0.0
  0
MTEXT
  5
9207
330
D1F
100
AcDbEntity
  8
cotas
100
AcDbMText
 10
2836.664295543073
 20
1699.610996198795
 30
0.0
 40
10.0
 41
0.0
 71
     5
 72
     1
  1
91,0°
  7
SANINDUSA
 11
0.7132510193954606
 21
-0.7009086840176377
 31
0.0
 73
     1
 44
1.0
1001
ACAD
1000
MTEXTBEGIN
1070
    73
1070
     1
1070
    44
1040
1.0
1070
    74
1070
     0
1000
MTEXTEND
  0
POINT
  5
9208
330
D1F
100
AcDbEntity
  8
Defpoints
 62
     0
100
AcDbPoint
 10
2817.123215892612
 20
1706.400216017485
 30
0.0
  0
POINT
  5
9209
330
D1F
100
AcDbEntity
  8
Defpoints
 62
     0
100
AcDbPoint
 10
1685.680613015766
 20
1742.490421684166
 30
0.0
  0
POINT
  5
920A
330
D1F
100
AcDbEntity
  8
Defpoints
 62
     0
100
AcDbPoint
 10
2878.92178523083
 20
1735.612589979346
 30
0.0
  0
POINT
  5
920B
330
D1F
100
AcDbEntity
  8
Defpoints
 62
     0
100
AcDbPoint
 10
2879.499988724466
 20
1702.490422578236
 30
0.0
  0
POINT
  5
920C
330
D1F
100
AcDbEntity
  8
Defpoints
 62
     0
100
AcDbPoint
 10
2871.922807862039
 20
1742.490421684166
 30
0.0
  0
ENDBLK
  5
D2B
330
D1F
100
AcDbEntity
  8
0
100
AcDbBlockEnd
  0
BLOCK
  5
D37
330
D2C
100
AcDbEntity
  8
0
100
AcDbBlockBegin
  2
*D84
 70
     1
 10
0.0
 20
0.0
 30
0.0
  3
*D84
  1

  0
LINE
  5
91F9
330
D2C
100
AcDbEntity
  8
cotas
100
AcDbLine
 10
1178.016224091088
 20
1697.491184102452
 30
0.0
 11
1177.213482959783
 21
1651.502175423924
 31
0.0
  0
ARC
  5
91FA
330
D2C
100
AcDbEntity
  8
cotas
100
AcDbCircle
 10
1178.801688703659
 20
1742.490421684166
 30
0.0
 40
86.00210632177343
100
AcDbArc
 50
275.6658955430544
 51
353.3341044583944
  0
SOLID
  5
91FB
330
D2C
100
AcDbEntity
  8
cotas
100
AcDbTrace
 10
1187.360300463744
 20
1655.243192343095
 30
0.0
 11
1187.224612564705
 21
1658.573762850556
 31
0.0
 12
1177.300744991843
 22
1656.501413899708
 32
0.0
 13
1177.300744991843
 23
1656.501413899708
 33
0.0
  0
SOLID
  5
91FC
330
D2C
100
AcDbEntity
  8
cotas
100
AcDbTrace
 10
1262.558566333306
 20
1732.604233040516
 30
0.0
 11
1265.886261498388
 21
1732.410439337321
 31
0.0
 12
1264.803795025432
 22
1742.490421684166
 32
0.0
 13
1264.803795025432
 23
1742.490421684166
 33
0.0
  0
MTEXT
  5
91FD
330
D2C
100
AcDbEntity
  8
cotas
100
AcDbMText
 10
1231.130819481733
 20
1689.239911337939
 30
0.0
 40
10.0
 41
0.0
 71
     5
 72
     1
  1
91,0°
  7
SANINDUSA
 11
0.7132504491453208
 21
0.7009092643088679
 31
0.0
 73
     1
 44
1.0
1001
ACAD
1000
MTEXTBEGIN
1070
    73
1070
     1
1070
    44
1040
1.0
1070
    74
1070
     0
1000
MTEXTEND
  0
POINT
  5
91FE
330
D2C
100
AcDbEntity
  8
Defpoints
 62
     0
100
AcDbPoint
 10
1220.933236338778
 20
1667.515125848463
 30
0.0
  0
POINT
  5
91FF
330
D2C
100
AcDbEntity
  8
Defpoints
 62
     0
100
AcDbPoint
 10
1178.103486123148
 20
1702.490422578236
 30
0.0
  0
POINT
  5
9200
330
D2C
100
AcDbEntity
  8
Defpoints
 62
     0
100
AcDbPoint
 10
1185.680569487742
 20
1742.490421684166
 30
0.0
  0
POINT
  5
9201
330
D2C
100
AcDbEntity
  8
Defpoints
 62
     0
100
AcDbPoint
 10
2371.922764334015
 20
1742.490421684166
 30
0.0
  0
POINT
  5
9202
330
D2C
100
AcDbEntity
  8
Defpoints
 62
     0
100
AcDbPoint
 10
1178.68163568145
 20
1735.612588638208
 30
0.0
  0
ENDBLK
  5
D38
330
D2C
100
AcDbEntity
  8
0
100
AcDbBlockEnd
  0
BLOCK
  5
D43
330
D39
100
AcDbEntity
  8
0
100
AcDbBlockBegin
  2
*D85
 70
     1
 10
0.0
 20
0.0
 30
0.0
  3
*D85
  1

  0
LINE
  5
91F0
330
D39
100
AcDbEntity
  8
cotas
100
AcDbLine
 10
2883.801721037198
 20
1742.490421684166
 30
0.0
 11
2914.499988724466
 21
1742.490421684166
 31
0.0
  0
LINE
  5
91F1
330
D39
100
AcDbEntity
  8
cotas
100
AcDbLine
 10
2755.497456966189
 20
1608.450742592953
 30
0.0
 11
2914.499988724466
 21
1608.450742592953
 31
0.0
  0
LINE
  5
91F2
330
D39
100
AcDbEntity
  8
cotas
100
AcDbLine
 10
2909.499988724466
 20
1732.490421684167
 30
0.0
 11
2909.499988724466
 21
1618.450742592954
 31
0.0
  0
SOLID
  5
91F3
330
D39
100
AcDbEntity
  8
cotas
100
AcDbTrace
 10
2907.833322057799
 20
1732.490421684167
 30
0.0
 11
2911.166655391132
 21
1732.490421684167
 31
0.0
 12
2909.499988724466
 22
1742.490421684166
 32
0.0
 13
2909.499988724466
 23
1742.490421684166
 33
0.0
  0
SOLID
  5
91F4
330
D39
100
AcDbEntity
  8
cotas
100
AcDbTrace
 10
2907.833322057799
 20
1618.450742592954
 30
0.0
 11
2911.166655391132
 21
1618.450742592954
 31
0.0
 12
2909.499988724466
 22
1608.450742592953
 32
0.0
 13
2909.499988724466
 23
1608.450742592953
 33
0.0
  0
MTEXT
  5
91F5
330
D39
100
AcDbEntity
  8
cotas
100
AcDbMText
 10
2899.291795306064
 20
1675.47058213856
 30
0.0
 40
10.0
 41
0.0
 71
     5
 72
     1
  1
134
  7
SANINDUSA
 11
0.0000000000000001
 21
1.0
 31
0.0
 73
     1
 44
1.0
1001
ACAD
1000
MTEXTBEGIN
1070
    73
1070
     1
1070
    44
1040
1.0
1070
    74
1070
     0
1000
MTEXTEND
  0
POINT
  5
91F6
330
D39
100
AcDbEntity
  8
Defpoints
 62
     0
100
AcDbPoint
 10
2878.801721037198
 20
1742.490421684166
 30
0.0
  0
POINT
  5
91F7
330
D39
100
AcDbEntity
  8
Defpoints
 62
     0
100
AcDbPoint
 10
2750.497456966189
 20
1608.450742592953
 30
0.0
  0
POINT
  5
91F8
330
D39
100
AcDbEntity
  8
Defpoints
 62
     0
100
AcDbPoint
 10
2909.499988724466
 20
1608.450742592953
 30
0.0
  0
ENDBLK
  5
D44
330
D39
100
AcDbEntity
  8
0
100
AcDbBlockEnd
  0
BLOCK
  5
D4F
330
D45
100
AcDbEntity
  8
0
100
AcDbBlockBegin
  2
*D86
 70
     1
 10
0.0
 20
0.0
 30
0.0
  3
*D86
  1

  0
LINE
  5
91E7
330
D45
100
AcDbEntity
  8
cotas
100
AcDbLine
 10
-330.4052770964463
 20
2137.989357567929
 30
-0.0000000000000335
 11
-330.4052770964463
 21
2167.98935756793
 31
-0.0000000000000335
  0
LINE
  5
91E8
330
D45
100
AcDbEntity
  8
cotas
100
AcDbLine
 10
-510.8765559452222
 20
2002.739937158658
 30
-0.0000000000000335
 11
-510.8765559452222
 21
2167.98935756793
 31
-0.0000000000000335
  0
LINE
  5
91E9
330
D45
100
AcDbEntity
  8
cotas
100
AcDbLine
 10
-340.4052770964463
 20
2162.98935756793
 30
-0.0000000000000335
 11
-500.8765559452221
 21
2162.98935756793
 31
-0.0000000000000335
  0
SOLID
  5
91EA
330
D45
100
AcDbEntity
  8
cotas
100
AcDbTrace
 10
-340.4052770964463
 20
2164.656024234596
 30
-0.0000000000000335
 11
-340.4052770964463
 21
2161.322690901263
 31
-0.0000000000000335
 12
-330.4052770964463
 22
2162.98935756793
 32
-0.0000000000000335
 13
-330.4052770964463
 23
2162.98935756793
 33
-0.0000000000000335
  0
SOLID
  5
91EB
330
D45
100
AcDbEntity
  8
cotas
100
AcDbTrace
 10
-500.8765559452221
 20
2164.656024234596
 30
-0.0000000000000335
 11
-500.8765559452221
 21
2161.322690901263
 31
-0.0000000000000335
 12
-510.8765559452222
 22
2162.98935756793
 32
-0.0000000000000335
 13
-510.8765559452222
 23
2162.98935756793
 33
-0.0000000000000335
  0
MTEXT
  5
91EC
330
D45
100
AcDbEntity
  8
cotas
100
AcDbMText
 10
-420.6409165208342
 20
2174.345972745902
 30
-0.0000000000000335
 40
10.0
 41
0.0
 71
     5
 72
     1
  1
180,5
  7
SANINDUSA
 73
     1
 44
1.0
1001
ACAD
1000
MTEXTBEGIN
1070
    73
1070
     1
1070
    44
1040
1.0
1070
    74
1070
     0
1000
MTEXTEND
  0
POINT
  5
91ED
330
D45
100
AcDbEntity
  8
Defpoints
 62
     0
100
AcDbPoint
 10
-330.4052770964463
 20
2132.989357567929
 30
-0.0000000000000532
  0
POINT
  5
91EE
330
D45
100
AcDbEntity
  8
Defpoints
 62
     0
100
AcDbPoint
 10
-510.8765559452222
 20
1997.739937158658
 30
-0.0000000000000335
  0
POINT
  5
91EF
330
D45
100
AcDbEntity
  8
Defpoints
 62
     0
100
AcDbPoint
 10
-510.8765559452222
 20
2162.98935756793
 30
-0.0000000000000335
  0
ENDBLK
  5
D50
330
D45
100
AcDbEntity
  8
0
100
AcDbBlockEnd
  0
BLOCK
  5
D5B
330
D51
100
AcDbEntity
  8
0
100
AcDbBlockBegin
  2
*D87
 70
     1
 10
0.0
 20
0.0
 30
0.0
  3
*D87
  1

  0
LINE
  5
91C3
330
D51
100
AcDbEntity
  8
cotas
100
AcDbLine
 10
-830.7077407650286
 20
2002.722576174077
 30
-0.0000000000000335
 11
-830.7077407650286
 21
2167.989159447963
 31
-0.0000000000000335
  0
LINE
  5
91C4
330
D51
100
AcDbEntity
  8
cotas
100
AcDbLine
 10
-910.695038507437
 20
2002.722576174077
 30
-0.0000000000000335
 11
-910.695038507437
 21
2167.989159447963
 31
-0.0000000000000335
  0
LINE
  5
91C5
330
D51
100
AcDbEntity
  8
cotas
100
AcDbLine
 10
-840.7077407650286
 20
2162.989159447963
 30
-0.0000000000000335
 11
-900.695038507437
 21
2162.989159447963
 31
-0.0000000000000335
  0
SOLID
  5
91C6
330
D51
100
AcDbEntity
  8
cotas
100
AcDbTrace
 10
-840.7077407650286
 20
2164.65582611463
 30
-0.0000000000000335
 11
-840.7077407650286
 21
2161.322492781297
 31
-0.0000000000000335
 12
-830.7077407650286
 22
2162.989159447963
 32
-0.0000000000000335
 13
-830.7077407650286
 23
2162.989159447963
 33
-0.0000000000000335
  0
SOLID
  5
91C7
330
D51
100
AcDbEntity
  8
cotas
100
AcDbTrace
 10
-900.695038507437
 20
2164.65582611463
 30
-0.0000000000000335
 11
-900.695038507437
 21
2161.322492781297
 31
-0.0000000000000335
 12
-910.695038507437
 22
2162.989159447963
 32
-0.0000000000000335
 13
-910.695038507437
 23
2162.989159447963
 33
-0.0000000000000335
  0
MTEXT
  5
91C8
330
D51
100
AcDbEntity
  8
cotas
100
AcDbMText
 10
-870.7013896362328
 20
2173.217500616533
 30
-0.0000000000000335
 40
10.0
 41
0.0
 71
     5
 72
     1
  1
80
  7
SANINDUSA
 73
     1
 44
1.0
1001
ACAD
1000
MTEXTBEGIN
1070
    73
1070
     1
1070
    44
1040
1.0
1070
    74
1070
     0
1000
MTEXTEND
  0
POINT
  5
91C9
330
D51
100
AcDbEntity
  8
Defpoints
 62
     0
100
AcDbPoint
 10
-830.7077407650286
 20
1997.722576174077
 30
-0.0000000000000335
  0
POINT
  5
91CA
330
D51
100
AcDbEntity
  8
Defpoints
 62
     0
100
AcDbPoint
 10
-910.695038507437
 20
1997.722576174077
 30
-0.0000000000000335
  0
POINT
  5
91CB
330
D51
100
AcDbEntity
  8
Defpoints
 62
     0
100
AcDbPoint
 10
-910.695038507437
 20
2162.989159447963
 30
-0.0000000000000335
  0
ENDBLK
  5
D5C
330
D51
100
AcDbEntity
  8
0
100
AcDbBlockEnd
  0
BLOCK
  5
D67
330
D5D
100
AcDbEntity
  8
0
100
AcDbBlockBegin
  2
*D88
 70
     1
 10
0.0
 20
0.0
 30
0.0
  3
*D88
  1

  0
LINE
  5
91BA
330
D5D
100
AcDbEntity
  8
cotas
100
AcDbLine
 10
-910.695038507437
 20
2002.722576174077
 30
-0.0000000000000335
 11
-910.695038507437
 21
2167.989159447963
 31
-0.0000000000000335
  0
LINE
  5
91BB
330
D5D
100
AcDbEntity
  8
cotas
100
AcDbLine
 10
-990.6938667877021
 20
2137.989159447962
 30
-0.0000000000000335
 11
-990.6938667877021
 21
2167.989159447963
 31
-0.0000000000000335
  0
LINE
  5
91BC
330
D5D
100
AcDbEntity
  8
cotas
100
AcDbLine
 10
-920.6950385074369
 20
2162.989159447963
 30
-0.0000000000000335
 11
-980.693866787702
 21
2162.989159447963
 31
-0.0000000000000335
  0
SOLID
  5
91BD
330
D5D
100
AcDbEntity
  8
cotas
100
AcDbTrace
 10
-920.6950385074369
 20
2164.65582611463
 30
-0.0000000000000335
 11
-920.6950385074369
 21
2161.322492781297
 31
-0.0000000000000335
 12
-910.695038507437
 22
2162.989159447963
 32
-0.0000000000000335
 13
-910.695038507437
 23
2162.989159447963
 33
-0.0000000000000335
  0
SOLID
  5
91BE
330
D5D
100
AcDbEntity
  8
cotas
100
AcDbTrace
 10
-980.693866787702
 20
2164.65582611463
 30
-0.0000000000000335
 11
-980.693866787702
 21
2161.322492781297
 31
-0.0000000000000335
 12
-990.6938667877021
 22
2162.989159447963
 32
-0.0000000000000335
 13
-990.6938667877021
 23
2162.989159447963
 33
-0.0000000000000335
  0
MTEXT
  5
91BF
330
D5D
100
AcDbEntity
  8
cotas
100
AcDbMText
 10
-950.6944526475695
 20
2173.217500616533
 30
-0.0000000000000335
 40
10.0
 41
0.0
 71
     5
 72
     1
  1
80
  7
SANINDUSA
 73
     1
 44
1.0
1001
ACAD
1000
MTEXTBEGIN
1070
    73
1070
     1
1070
    44
1040
1.0
1070
    74
1070
     0
1000
MTEXTEND
  0
POINT
  5
91C0
330
D5D
100
AcDbEntity
  8
Defpoints
 62
     0
100
AcDbPoint
 10
-910.695038507437
 20
1997.722576174077
 30
-0.0000000000000335
  0
POINT
  5
91C1
330
D5D
100
AcDbEntity
  8
Defpoints
 62
     0
100
AcDbPoint
 10
-990.6938667877021
 20
2132.989159447962
 30
-0.0000000000000532
  0
POINT
  5
91C2
330
D5D
100
AcDbEntity
  8
Defpoints
 62
     0
100
AcDbPoint
 10
-990.6938667877021
 20
2162.989159447963
 30
-0.0000000000000335
  0
ENDBLK
  5
D68
330
D5D
100
AcDbEntity
  8
0
100
AcDbBlockEnd
  0
BLOCK
  5
D73
330
D69
100
AcDbEntity
  8
0
100
AcDbBlockBegin
  2
*D89
 70
     1
 10
0.0
 20
0.0
 30
0.0
  3
*D89
  1

  0
LINE
  5
91A8
330
D69
100
AcDbEntity
  8
cotas
100
AcDbLine
 10
-426.2232326764924
 20
1962.297375331293
 30
0.0000000000003843
 11
-114.7036296392779
 21
1962.297375331293
 31
0.0000000000003843
  0
LINE
  5
91A9
330
D69
100
AcDbEntity
  8
cotas
100
AcDbLine
 10
-429.2839391841453
 20
1882.319778827719
 30
0.0000000000003843
 11
-114.703629639278
 21
1882.319778827719
 31
0.0000000000003843
  0
LINE
  5
91AA
330
D69
100
AcDbEntity
  8
cotas
100
AcDbLine
 10
-119.703629639278
 20
1952.297375331293
 30
0.0000000000003843
 11
-119.703629639278
 21
1892.319778827719
 31
0.0000000000003843
  0
SOLID
  5
91AB
330
D69
100
AcDbEntity
  8
cotas
100
AcDbTrace
 10
-121.3702963059446
 20
1952.297375331293
 30
0.0000000000003843
 11
-118.0369629726113
 21
1952.297375331293
 31
0.0000000000003843
 12
-119.703629639278
 22
1962.297375331293
 32
0.0000000000003843
 13
-119.703629639278
 23
1962.297375331293
 33
0.0000000000003843
  0
SOLID
  5
91AC
330
D69
100
AcDbEntity
  8
cotas
100
AcDbTrace
 10
-121.3702963059446
 20
1892.319778827719
 30
0.0000000000003843
 11
-118.0369629726113
 21
1892.319778827719
 31
0.0000000000003843
 12
-119.703629639278
 22
1882.319778827719
 32
0.0000000000003843
 13
-119.703629639278
 23
1882.319778827719
 33
0.0000000000003843
  0
MTEXT
  5
91AD
330
D69
100
AcDbEntity
  8
cotas
100
AcDbMText
 10
-129.9319708078478
 20
1922.308577079506
 30
0.0000000000003843
 40
10.0
 41
0.0
 71
     5
 72
     1
  1
80
  7
SANINDUSA
 11
0.0000000000000001
 21
1.0
 31
0.0
 73
     1
 44
1.0
1001
ACAD
1000
MTEXTBEGIN
1070
    73
1070
     1
1070
    44
1040
1.0
1070
    74
1070
     0
1000
MTEXTEND
  0
POINT
  5
91AE
330
D69
100
AcDbEntity
  8
Defpoints
 62
     0
100
AcDbPoint
 10
-431.2232326764924
 20
1962.297375331293
 30
0.0000000000003843
  0
POINT
  5
91AF
330
D69
100
AcDbEntity
  8
Defpoints
 62
     0
100
AcDbPoint
 10
-434.2839391841453
 20
1882.319778827719
 30
0.0000000000003843
  0
POINT
  5
91B0
330
D69
100
AcDbEntity
  8
Defpoints
 62
     0
100
AcDbPoint
 10
-119.703629639278
 20
1882.319778827719
 30
0.0000000000003843
  0
ENDBLK
  5
D74
330
D69
100
AcDbEntity
  8
0
100
AcDbBlockEnd
  0
BLOCK
  5
D7F
330
D75
100
AcDbEntity
  8
0
100
AcDbBlockBegin
  2
*D90
 70
     1
 10
0.0
 20
0.0
 30
0.0
  3
*D90
  1

  0
LINE
  5
919F
330
D75
100
AcDbEntity
  8
cotas
100
AcDbLine
 10
-429.2839391841453
 20
1882.319778827719
 30
0.0000000000003843
 11
-114.703629639278
 21
1882.319778827719
 31
0.0000000000003843
  0
LINE
  5
91A0
330
D75
100
AcDbEntity
  8
cotas
100
AcDbLine
 10
-434.3037991384817
 20
1802.324899760455
 30
0.0000000000003843
 11
-114.703629639278
 21
1802.324899760455
 31
0.0000000000003843
  0
LINE
  5
91A1
330
D75
100
AcDbEntity
  8
cotas
100
AcDbLine
 10
-119.703629639278
 20
1872.319778827719
 30
0.0000000000003843
 11
-119.703629639278
 21
1812.324899760454
 31
0.0000000000003843
  0
SOLID
  5
91A2
330
D75
100
AcDbEntity
  8
cotas
100
AcDbTrace
 10
-121.3702963059446
 20
1872.319778827719
 30
0.0000000000003843
 11
-118.0369629726113
 21
1872.319778827719
 31
0.0000000000003843
 12
-119.703629639278
 22
1882.319778827719
 32
0.0000000000003843
 13
-119.703629639278
 23
1882.319778827719
 33
0.0000000000003843
  0
SOLID
  5
91A3
330
D75
100
AcDbEntity
  8
cotas
100
AcDbTrace
 10
-121.3702963059446
 20
1812.324899760454
 30
0.0000000000003843
 11
-118.0369629726113
 21
1812.324899760454
 31
0.0000000000003843
 12
-119.703629639278
 22
1802.324899760455
 32
0.0000000000003843
 13
-119.703629639278
 23
1802.324899760455
 33
0.0000000000003843
  0
MTEXT
  5
91A4
330
D75
100
AcDbEntity
  8
cotas
100
AcDbMText
 10
-129.9319708078478
 20
1842.322339294087
 30
0.0000000000003843
 40
10.0
 41
0.0
 71
     5
 72
     1
  1
80
  7
SANINDUSA
 11
0.0000000000000001
 21
1.0
 31
0.0
 73
     1
 44
1.0
1001
ACAD
1000
MTEXTBEGIN
1070
    73
1070
     1
1070
    44
1040
1.0
1070
    74
1070
     0
1000
MTEXTEND
  0
POINT
  5
91A5
330
D75
100
AcDbEntity
  8
Defpoints
 62
     0
100
AcDbPoint
 10
-434.2839391841453
 20
1882.319778827719
 30
0.0000000000003843
  0
POINT
  5
91A6
330
D75
100
AcDbEntity
  8
Defpoints
 62
     0
100
AcDbPoint
 10
-439.3037991384817
 20
1802.324899760455
 30
0.0000000000003843
  0
POINT
  5
91A7
330
D75
100
AcDbEntity
  8
Defpoints
 62
     0
100
AcDbPoint
 10
-119.703629639278
 20
1802.324899760455
 30
0.0000000000003843
  0
ENDBLK
  5
D80
330
D75
100
AcDbEntity
  8
0
100
AcDbBlockEnd
  0
BLOCK
  5
D8B
330
D81
100
AcDbEntity
  8
0
100
AcDbBlockBegin
  2
*D91
 70
     1
 10
0.0
 20
0.0
 30
0.0
  3
*D91
  1

  0
LINE
  5
9196
330
D81
100
AcDbEntity
  8
cotas
100
AcDbLine
 10
-426.2690909216753
 20
1722.303728193869
 30
0.0000000000003843
 11
-114.703629639278
 21
1722.303728193869
 31
0.0000000000003843
  0
LINE
  5
9197
330
D81
100
AcDbEntity
  8
cotas
100
AcDbLine
 10
-434.3037991384817
 20
1802.324899760455
 30
0.0000000000003843
 11
-114.703629639278
 21
1802.324899760455
 31
0.0000000000003843
  0
LINE
  5
9198
330
D81
100
AcDbEntity
  8
cotas
100
AcDbLine
 10
-119.703629639278
 20
1732.303728193869
 30
0.0000000000003843
 11
-119.703629639278
 21
1792.324899760454
 31
0.0000000000003843
  0
SOLID
  5
9199
330
D81
100
AcDbEntity
  8
cotas
100
AcDbTrace
 10
-121.3702963059447
 20
1732.303728193869
 30
0.0000000000003843
 11
-118.0369629726113
 21
1732.303728193869
 31
0.0000000000003843
 12
-119.703629639278
 22
1722.303728193869
 32
0.0000000000003843
 13
-119.703629639278
 23
1722.303728193869
 33
0.0000000000003843
  0
SOLID
  5
919A
330
D81
100
AcDbEntity
  8
cotas
100
AcDbTrace
 10
-121.3702963059446
 20
1792.324899760454
 30
0.0000000000003843
 11
-118.0369629726113
 21
1792.324899760454
 31
0.0000000000003843
 12
-119.703629639278
 22
1802.324899760455
 32
0.0000000000003843
 13
-119.703629639278
 23
1802.324899760455
 33
0.0000000000003843
  0
MTEXT
  5
919B
330
D81
100
AcDbEntity
  8
cotas
100
AcDbMText
 10
-129.9319708078478
 20
1762.314313977162
 30
0.0000000000003843
 40
10.0
 41
0.0
 71
     5
 72
     1
  1
80
  7
SANINDUSA
 11
0.0000000000000001
 21
1.0
 31
0.0
 73
     1
 44
1.0
1001
ACAD
1000
MTEXTBEGIN
1070
    73
1070
     1
1070
    44
1040
1.0
1070
    74
1070
     0
1000
MTEXTEND
  0
POINT
  5
919C
330
D81
100
AcDbEntity
  8
Defpoints
 62
     0
100
AcDbPoint
 10
-431.2690909216753
 20
1722.303728193869
 30
0.0000000000003843
  0
POINT
  5
919D
330
D81
100
AcDbEntity
  8
Defpoints
 62
     0
100
AcDbPoint
 10
-439.3037991384817
 20
1802.324899760455
 30
0.0000000000003843
  0
POINT
  5
919E
330
D81
100
AcDbEntity
  8
Defpoints
 62
     0
100
AcDbPoint
 10
-119.703629639278
 20
1802.324899760455
 30
0.0000000000003843
  0
ENDBLK
  5
D8C
330
D81
100
AcDbEntity
  8
0
100
AcDbBlockEnd
  0
BLOCK
  5
D97
330
D8D
100
AcDbEntity
  8
0
100
AcDbBlockBegin
  2
*D92
 70
     1
 10
0.0
 20
0.0
 30
0.0
  3
*D92
  1

  0
LINE
  5
918D
330
D8D
100
AcDbEntity
  8
cotas
100
AcDbLine
 10
-434.3209966760814
 20
1722.30797503335
 30
0.0000000000003843
 11
-114.703629639278
 21
1722.30797503335
 31
0.0000000000003843
  0
LINE
  5
918E
330
D8D
100
AcDbEntity
  8
cotas
100
AcDbLine
 10
-144.6880120758487
 20
1682.29331979276
 30
0.0000000000003843
 11
-114.703629639278
 21
1682.29331979276
 31
0.0000000000003843
  0
LINE
  5
918F
330
D8D
100
AcDbEntity
  8
cotas
100
AcDbLine
 10
-119.703629639278
 20
1712.30797503335
 30
0.0000000000003843
 11
-119.703629639278
 21
1692.293319792759
 31
0.0000000000003843
  0
SOLID
  5
9190
330
D8D
100
AcDbEntity
  8
cotas
100
AcDbTrace
 10
-121.3702963059446
 20
1712.30797503335
 30
0.0000000000003843
 11
-118.0369629726113
 21
1712.30797503335
 31
0.0000000000003843
 12
-119.703629639278
 22
1722.30797503335
 32
0.0000000000003843
 13
-119.703629639278
 23
1722.30797503335
 33
0.0000000000003843
  0
SOLID
  5
9191
330
D8D
100
AcDbEntity
  8
cotas
100
AcDbTrace
 10
-121.3702963059446
 20
1692.293319792759
 30
0.0000000000003843
 11
-118.0369629726113
 21
1692.293319792759
 31
0.0000000000003843
 12
-119.703629639278
 22
1682.29331979276
 32
0.0000000000003843
 13
-119.703629639278
 23
1682.29331979276
 33
0.0000000000003843
  0
MTEXT
  5
9192
330
D8D
100
AcDbEntity
  8
cotas
100
AcDbMText
 10
-129.9084650993185
 20
1702.300647413055
 30
0.0000000000003843
 40
10.0
 41
0.0
 71
     5
 72
     1
  1
40
  7
SANINDUSA
 11
0.0000000000000001
 21
1.0
 31
0.0
 73
     1
 44
1.0
1001
ACAD
1000
MTEXTBEGIN
1070
    73
1070
     1
1070
    44
1040
1.0
1070
    74
1070
     0
1000
MTEXTEND
  0
POINT
  5
9193
330
D8D
100
AcDbEntity
  8
Defpoints
 62
     0
100
AcDbPoint
 10
-439.3209966760814
 20
1722.30797503335
 30
0.0000000000003843
  0
POINT
  5
9194
330
D8D
100
AcDbEntity
  8
Defpoints
 62
     0
100
AcDbPoint
 10
-149.6880120758487
 20
1682.29331979276
 30
0.0
  0
POINT
  5
9195
330
D8D
100
AcDbEntity
  8
Defpoints
 62
     0
100
AcDbPoint
 10
-119.703629639278
 20
1682.29331979276
 30
0.0000000000003843
  0
ENDBLK
  5
D98
330
D8D
100
AcDbEntity
  8
0
100
AcDbBlockEnd
  0
BLOCK
  5
DA3
330
D99
100
AcDbEntity
  8
0
100
AcDbBlockBegin
  2
*D93
 70
     1
 10
0.0
 20
0.0
 30
0.0
  3
*D93
  1

  0
LINE
  5
9184
330
D99
100
AcDbEntity
  8
cotas
100
AcDbLine
 10
-150.2661616486784
 20
1682.279104500226
 30
-0.0000000000000121
 11
-114.703629639278
 21
1682.279104500226
 31
-0.0000000000000121
  0
LINE
  5
9185
330
D99
100
AcDbEntity
  8
cotas
100
AcDbLine
 10
-439.9262019774905
 20
1642.256670798795
 30
-0.0000000000000121
 11
-114.703629639278
 21
1642.256670798795
 31
-0.0000000000000121
  0
LINE
  5
9186
330
D99
100
AcDbEntity
  8
cotas
100
AcDbLine
 10
-119.703629639278
 20
1672.279104500226
 30
-0.0000000000000121
 11
-119.703629639278
 21
1652.256670798795
 31
-0.0000000000000121
  0
SOLID
  5
9187
330
D99
100
AcDbEntity
  8
cotas
100
AcDbTrace
 10
-121.3702963059446
 20
1672.279104500226
 30
-0.0000000000000121
 11
-118.0369629726113
 21
1672.279104500226
 31
-0.0000000000000121
 12
-119.703629639278
 22
1682.279104500226
 32
-0.0000000000000121
 13
-119.703629639278
 23
1682.279104500226
 33
-0.0000000000000121
  0
SOLID
  5
9188
330
D99
100
AcDbEntity
  8
cotas
100
AcDbTrace
 10
-121.3702963059446
 20
1652.256670798795
 30
-0.0000000000000121
 11
-118.0369629726113
 21
1652.256670798795
 31
-0.0000000000000121
 12
-119.703629639278
 22
1642.256670798795
 32
-0.0000000000000121
 13
-119.703629639278
 23
1642.256670798795
 33
-0.0000000000000121
  0
MTEXT
  5
9189
330
D99
100
AcDbEntity
  8
cotas
100
AcDbMText
 10
-129.9084650993185
 20
1662.267887649511
 30
-0.0000000000000121
 40
10.0
 41
0.0
 71
     5
 72
     1
  1
40
  7
SANINDUSA
 11
0.0000000000000001
 21
1.0
 31
0.0
 73
     1
 44
1.0
1001
ACAD
1000
MTEXTBEGIN
1070
    73
1070
     1
1070
    44
1040
1.0
1070
    74
1070
     0
1000
MTEXTEND
  0
POINT
  5
918A
330
D99
100
AcDbEntity
  8
Defpoints
 62
     0
100
AcDbPoint
 10
-155.2661616486784
 20
1682.279104500226
 30
-0.0000000000000121
  0
POINT
  5
918B
330
D99
100
AcDbEntity
  8
Defpoints
 62
     0
100
AcDbPoint
 10
-444.9262019774905
 20
1642.256670798795
 30
-0.0000000000000121
  0
POINT
  5
918C
330
D99
100
AcDbEntity
  8
Defpoints
 62
     0
100
AcDbPoint
 10
-119.703629639278
 20
1642.256670798795
 30
-0.0000000000000121
  0
ENDBLK
  5
DA4
330
D99
100
AcDbEntity
  8
0
100
AcDbBlockEnd
  0
BLOCK
  5
DAF
330
DA5
100
AcDbEntity
  8
0
100
AcDbBlockBegin
  2
*D94
 70
     1
 10
0.0
 20
0.0
 30
0.0
  3
*D94
  1

  0
LINE
  5
917B
330
DA5
100
AcDbEntity
  8
cotas
100
AcDbLine
 10
-434.3189109381391
 20
1642.279011628995
 30
0.0000000000003843
 11
-114.703629639278
 21
1642.279011628995
 31
0.0000000000003843
  0
LINE
  5
917C
330
DA5
100
AcDbEntity
  8
cotas
100
AcDbLine
 10
-434.3189109381401
 20
1562.293480972135
 30
0.0000000000003843
 11
-114.703629639278
 21
1562.293480972135
 31
0.0000000000003843
  0
LINE
  5
917D
330
DA5
100
AcDbEntity
  8
cotas
100
AcDbLine
 10
-119.703629639278
 20
1632.279011628996
 30
0.0000000000003843
 11
-119.703629639278
 21
1572.293480972135
 31
0.0000000000003843
  0
SOLID
  5
917E
330
DA5
100
AcDbEntity
  8
cotas
100
AcDbTrace
 10
-121.3702963059446
 20
1632.279011628996
 30
0.0000000000003843
 11
-118.0369629726113
 21
1632.279011628996
 31
0.0000000000003843
 12
-119.703629639278
 22
1642.279011628995
 32
0.0000000000003843
 13
-119.703629639278
 23
1642.279011628995
 33
0.0000000000003843
  0
SOLID
  5
917F
330
DA5
100
AcDbEntity
  8
cotas
100
AcDbTrace
 10
-121.3702963059446
 20
1572.293480972135
 30
0.0000000000003843
 11
-118.0369629726113
 21
1572.293480972135
 31
0.0000000000003843
 12
-119.703629639278
 22
1562.293480972135
 32
0.0000000000003843
 13
-119.703629639278
 23
1562.293480972135
 33
0.0000000000003843
  0
MTEXT
  5
9180
330
DA5
100
AcDbEntity
  8
cotas
100
AcDbMText
 10
-129.9319708078477
 20
1602.286246300565
 30
0.0000000000003843
 40
10.0
 41
0.0
 71
     5
 72
     1
  1
80
  7
SANINDUSA
 11
0.0000000000000001
 21
1.0
 31
0.0
 73
     1
 44
1.0
1001
ACAD
1000
MTEXTBEGIN
1070
    73
1070
     1
1070
    44
1040
1.0
1070
    74
1070
     0
1000
MTEXTEND
  0
POINT
  5
9181
330
DA5
100
AcDbEntity
  8
Defpoints
 62
     0
100
AcDbPoint
 10
-439.3189109381392
 20
1642.279011628995
 30
0.0000000000003843
  0
POINT
  5
9182
330
DA5
100
AcDbEntity
  8
Defpoints
 62
     0
100
AcDbPoint
 10
-439.3189109381401
 20
1562.293480972135
 30
0.0000000000003843
  0
POINT
  5
9183
330
DA5
100
AcDbEntity
  8
Defpoints
 62
     0
100
AcDbPoint
 10
-119.703629639278
 20
1562.293480972135
 30
0.0000000000003843
  0
ENDBLK
  5
DB0
330
DA5
100
AcDbEntity
  8
0
100
AcDbBlockEnd
  0
BLOCK
  5
DBB
330
DB1
100
AcDbEntity
  8
0
100
AcDbBlockBegin
  2
*D95
 70
     1
 10
0.0
 20
0.0
 30
0.0
  3
*D95
  1

  0
LINE
  5
9172
330
DB1
100
AcDbEntity
  8
cotas
100
AcDbLine
 10
-434.3189109381401
 20
1562.293480972135
 30
0.0000000000003843
 11
-114.703629639278
 21
1562.293480972135
 31
0.0000000000003843
  0
LINE
  5
9173
330
DB1
100
AcDbEntity
  8
cotas
100
AcDbLine
 10
-426.178820269778
 20
1482.289935609583
 30
0.0000000000003843
 11
-114.703629639278
 21
1482.289935609583
 31
0.0000000000003843
  0
LINE
  5
9174
330
DB1
100
AcDbEntity
  8
cotas
100
AcDbLine
 10
-119.703629639278
 20
1552.293480972135
 30
0.0000000000003843
 11
-119.703629639278
 21
1492.289935609583
 31
0.0000000000003843
  0
SOLID
  5
9175
330
DB1
100
AcDbEntity
  8
cotas
100
AcDbTrace
 10
-121.3702963059446
 20
1552.293480972135
 30
0.0000000000003843
 11
-118.0369629726113
 21
1552.293480972135
 31
0.0000000000003843
 12
-119.703629639278
 22
1562.293480972135
 32
0.0000000000003843
 13
-119.703629639278
 23
1562.293480972135
 33
0.0000000000003843
  0
SOLID
  5
9176
330
DB1
100
AcDbEntity
  8
cotas
100
AcDbTrace
 10
-121.3702963059446
 20
1492.289935609583
 30
0.0000000000003843
 11
-118.0369629726113
 21
1492.289935609583
 31
0.0000000000003843
 12
-119.703629639278
 22
1482.289935609583
 32
0.0000000000003843
 13
-119.703629639278
 23
1482.289935609583
 33
0.0000000000003843
  0
MTEXT
  5
9177
330
DB1
100
AcDbEntity
  8
cotas
100
AcDbMText
 10
-129.9319708078477
 20
1522.291708290859
 30
0.0000000000003843
 40
10.0
 41
0.0
 71
     5
 72
     1
  1
80
  7
SANINDUSA
 11
0.0000000000000001
 21
1.0
 31
0.0
 73
     1
 44
1.0
1001
ACAD
1000
MTEXTBEGIN
1070
    73
1070
     1
1070
    44
1040
1.0
1070
    74
1070
     0
1000
MTEXTEND
  0
POINT
  5
9178
330
DB1
100
AcDbEntity
  8
Defpoints
 62
     0
100
AcDbPoint
 10
-439.3189109381401
 20
1562.293480972135
 30
0.0000000000003843
  0
POINT
  5
9179
330
DB1
100
AcDbEntity
  8
Defpoints
 62
     0
100
AcDbPoint
 10
-431.178820269778
 20
1482.289935609583
 30
0.0000000000003843
  0
POINT
  5
917A
330
DB1
100
AcDbEntity
  8
Defpoints
 62
     0
100
AcDbPoint
 10
-119.703629639278
 20
1482.289935609583
 30
0.0000000000003843
  0
ENDBLK
  5
DBC
330
DB1
100
AcDbEntity
  8
0
100
AcDbBlockEnd
  0
BLOCK
  5
DC7
330
DBD
100
AcDbEntity
  8
0
100
AcDbBlockBegin
  2
*D96
 70
     1
 10
0.0
 20
0.0
 30
0.0
  3
*D96
  1

  0
LINE
  5
9169
330
DBD
100
AcDbEntity
  8
cotas
100
AcDbLine
 10
-434.2307260241841
 20
1482.294182449064
 30
0.0000000000003843
 11
-114.703629639278
 21
1482.294182449064
 31
0.0000000000003843
  0
LINE
  5
916A
330
DBD
100
AcDbEntity
  8
cotas
100
AcDbLine
 10
-426.2187252883295
 20
1402.288874169272
 30
0.0000000000003843
 11
-114.703629639278
 21
1402.288874169272
 31
0.0000000000003843
  0
LINE
  5
916B
330
DBD
100
AcDbEntity
  8
cotas
100
AcDbLine
 10
-119.703629639278
 20
1472.294182449064
 30
0.0000000000003843
 11
-119.703629639278
 21
1412.288874169272
 31
0.0000000000003843
  0
SOLID
  5
916C
330
DBD
100
AcDbEntity
  8
cotas
100
AcDbTrace
 10
-121.3702963059446
 20
1472.294182449064
 30
0.0000000000003843
 11
-118.0369629726113
 21
1472.294182449064
 31
0.0000000000003843
 12
-119.703629639278
 22
1482.294182449064
 32
0.0000000000003843
 13
-119.703629639278
 23
1482.294182449064
 33
0.0000000000003843
  0
SOLID
  5
916D
330
DBD
100
AcDbEntity
  8
cotas
100
AcDbTrace
 10
-121.3702963059446
 20
1412.288874169272
 30
0.0000000000003843
 11
-118.0369629726113
 21
1412.288874169272
 31
0.0000000000003843
 12
-119.703629639278
 22
1402.288874169272
 32
0.0000000000003843
 13
-119.703629639278
 23
1402.288874169272
 33
0.0000000000003843
  0
MTEXT
  5
916E
330
DBD
100
AcDbEntity
  8
cotas
100
AcDbMText
 10
-129.9319708078477
 20
1442.291528309168
 30
0.0000000000003843
 40
10.0
 41
0.0
 71
     5
 72
     1
  1
80
  7
SANINDUSA
 11
0.0000000000000001
 21
1.0
 31
0.0
 73
     1
 44
1.0
1001
ACAD
1000
MTEXTBEGIN
1070
    73
1070
     1
1070
    44
1040
1.0
1070
    74
1070
     0
1000
MTEXTEND
  0
POINT
  5
916F
330
DBD
100
AcDbEntity
  8
Defpoints
 62
     0
100
AcDbPoint
 10
-439.2307260241842
 20
1482.294182449064
 30
0.0000000000003843
  0
POINT
  5
9170
330
DBD
100
AcDbEntity
  8
Defpoints
 62
     0
100
AcDbPoint
 10
-431.2187252883295
 20
1402.288874169272
 30
0.0000000000003843
  0
POINT
  5
9171
330
DBD
100
AcDbEntity
  8
Defpoints
 62
     0
100
AcDbPoint
 10
-119.703629639278
 20
1402.288874169272
 30
0.0000000000003843
  0
ENDBLK
  5
DC8
330
DBD
100
AcDbEntity
  8
0
100
AcDbBlockEnd
  0
BLOCK
  5
DD3
330
DC9
100
AcDbEntity
  8
0
100
AcDbBlockBegin
  2
*D97
 70
     1
 10
0.0
 20
0.0
 30
0.0
  3
*D97
  1

  0
LINE
  5
9160
330
DC9
100
AcDbEntity
  8
cotas
100
AcDbLine
 10
-434.2706310427356
 20
1402.293121008753
 30
0.0000000000003843
 11
-114.704337445858
 21
1402.293121008753
 31
0.0000000000003843
  0
LINE
  5
9161
330
DC9
100
AcDbEntity
  8
cotas
100
AcDbLine
 10
-149.7789348282731
 20
1232.301445330429
 30
0.0000000000003843
 11
-114.7043374458581
 21
1232.301445330429
 31
0.0000000000003843
  0
LINE
  5
9162
330
DC9
100
AcDbEntity
  8
cotas
100
AcDbLine
 10
-119.704337445858
 20
1392.293121008753
 30
0.0000000000003843
 11
-119.704337445858
 21
1242.301445330429
 31
0.0000000000003843
  0
SOLID
  5
9163
330
DC9
100
AcDbEntity
  8
cotas
100
AcDbTrace
 10
-121.3710041125247
 20
1392.293121008753
 30
0.0000000000003843
 11
-118.0376707791913
 21
1392.293121008753
 31
0.0000000000003843
 12
-119.704337445858
 22
1402.293121008753
 32
0.0000000000003843
 13
-119.704337445858
 23
1402.293121008753
 33
0.0000000000003843
  0
SOLID
  5
9164
330
DC9
100
AcDbEntity
  8
cotas
100
AcDbTrace
 10
-121.3710041125247
 20
1242.301445330429
 30
0.0000000000003843
 11
-118.0376707791914
 21
1242.301445330429
 31
0.0000000000003843
 12
-119.704337445858
 22
1232.301445330429
 32
0.0000000000003843
 13
-119.704337445858
 23
1232.301445330429
 33
0.0000000000003843
  0
MTEXT
  5
9165
330
DC9
100
AcDbEntity
  8
cotas
100
AcDbMText
 10
-129.9091729058985
 20
1317.297283169591
 30
0.0000000000003843
 40
10.0
 41
0.0
 71
     5
 72
     1
  1
170
  7
SANINDUSA
 11
0.0000000000000001
 21
1.0
 31
0.0
 73
     1
 44
1.0
1001
ACAD
1000
MTEXTBEGIN
1070
    73
1070
     1
1070
    44
1040
1.0
1070
    74
1070
     0
1000
MTEXTEND
  0
POINT
  5
9166
330
DC9
100
AcDbEntity
  8
Defpoints
 62
     0
100
AcDbPoint
 10
-439.2706310427356
 20
1402.293121008753
 30
0.0000000000003843
  0
POINT
  5
9167
330
DC9
100
AcDbEntity
  8
Defpoints
 62
     0
100
AcDbPoint
 10
-154.7789348282731
 20
1232.301445330429
 30
0.0000000000003843
  0
POINT
  5
9168
330
DC9
100
AcDbEntity
  8
Defpoints
 62
     0
100
AcDbPoint
 10
-119.704337445858
 20
1232.301445330429
 30
0.0000000000003843
  0
ENDBLK
  5
DD4
330
DC9
100
AcDbEntity
  8
0
100
AcDbBlockEnd
  0
BLOCK
  5
DDF
330
DD5
100
AcDbEntity
  8
0
100
AcDbBlockBegin
  2
*D98
 70
     1
 10
0.0
 20
0.0
 30
0.0
  3
*D98
  1

  0
LINE
  5
9157
330
DD5
100
AcDbEntity
  8
cotas
100
AcDbLine
 10
-434.2751384308985
 20
1962.301622170774
 30
0.0000000000003843
 11
-114.7238505127934
 21
1962.301622170774
 31
0.0000000000003843
  0
LINE
  5
9158
330
DD5
100
AcDbEntity
  8
cotas
100
AcDbLine
 10
-150.422118200061
 20
2132.314188538593
 30
0.0000000000003843
 11
-114.7238505127934
 21
2132.314188538593
 31
0.0000000000003843
  0
LINE
  5
9159
330
DD5
100
AcDbEntity
  8
cotas
100
AcDbLine
 10
-119.7238505127934
 20
1972.301622170774
 30
0.0000000000003843
 11
-119.7238505127934
 21
2122.314188538593
 31
0.0000000000003843
  0
SOLID
  5
915A
330
DD5
100
AcDbEntity
  8
cotas
100
AcDbTrace
 10
-121.3905171794601
 20
1972.301622170774
 30
0.0000000000003843
 11
-118.0571838461268
 21
1972.301622170774
 31
0.0000000000003843
 12
-119.7238505127934
 22
1962.301622170774
 32
0.0000000000003843
 13
-119.7238505127934
 23
1962.301622170774
 33
0.0000000000003843
  0
SOLID
  5
915B
330
DD5
100
AcDbEntity
  8
cotas
100
AcDbTrace
 10
-121.3905171794601
 20
2122.314188538593
 30
0.0000000000003843
 11
-118.0571838461267
 21
2122.314188538593
 31
0.0000000000003843
 12
-119.7238505127934
 22
2132.314188538593
 32
0.0000000000003843
 13
-119.7238505127934
 23
2132.314188538593
 33
0.0000000000003843
  0
MTEXT
  5
915C
330
DD5
100
AcDbEntity
  8
cotas
100
AcDbMText
 10
-129.928685972834
 20
2047.307905354684
 30
0.0000000000003843
 40
10.0
 41
0.0
 71
     5
 72
     1
  1
170
  7
SANINDUSA
 11
0.0000000000000001
 21
1.0
 31
0.0
 73
     1
 44
1.0
1001
ACAD
1000
MTEXTBEGIN
1070
    73
1070
     1
1070
    44
1040
1.0
1070
    74
1070
     0
1000
MTEXTEND
  0
POINT
  5
915D
330
DD5
100
AcDbEntity
  8
Defpoints
 62
     0
100
AcDbPoint
 10
-439.2751384308986
 20
1962.301622170774
 30
0.0000000000003843
  0
POINT
  5
915E
330
DD5
100
AcDbEntity
  8
Defpoints
 62
     0
100
AcDbPoint
 10
-155.422118200061
 20
2132.314188538593
 30
0.0000000000001922
  0
POINT
  5
915F
330
DD5
100
AcDbEntity
  8
Defpoints
 62
     0
100
AcDbPoint
 10
-119.7238505127934
 20
2132.314188538593
 30
0.0000000000003843
  0
ENDBLK
  5
DE0
330
DD5
100
AcDbEntity
  8
0
100
AcDbBlockEnd
  0
BLOCK
  5
DEB
330
DE1
100
AcDbEntity
  8
0
100
AcDbBlockBegin
  2
*D99
 70
     1
 10
0.0
 20
0.0
 30
0.0
  3
*D99
  1

  0
LINE
  5
914E
330
DE1
100
AcDbEntity
  8
cotas
100
AcDbLine
 10
-1852.481676702514
 20
2134.376687526564
 30
-0.0000000000000109
 11
-1852.481676702514
 21
2167.992368519044
 31
-0.0000000000000109
  0
LINE
  5
914F
330
DE1
100
AcDbEntity
  8
cotas
100
AcDbLine
 10
-1478.725532118324
 20
2137.991522389879
 30
-0.0000000000000109
 11
-1478.725532118324
 21
2167.992368519044
 31
-0.0000000000000109
  0
LINE
  5
9150
330
DE1
100
AcDbEntity
  8
cotas
100
AcDbLine
 10
-1842.481676702514
 20
2162.992368519044
 30
-0.0000000000000109
 11
-1488.725532118324
 21
2162.992368519044
 31
-0.0000000000000109
  0
SOLID
  5
9151
330
DE1
100
AcDbEntity
  8
cotas
100
AcDbTrace
 10
-1842.481676702514
 20
2164.65903518571
 30
-0.0000000000000109
 11
-1842.481676702514
 21
2161.325701852377
 31
-0.0000000000000109
 12
-1852.481676702514
 22
2162.992368519044
 32
-0.0000000000000109
 13
-1852.481676702514
 23
2162.992368519044
 33
-0.0000000000000109
  0
SOLID
  5
9152
330
DE1
100
AcDbEntity
  8
cotas
100
AcDbTrace
 10
-1488.725532118324
 20
2164.65903518571
 30
-0.0000000000000109
 11
-1488.725532118324
 21
2161.325701852377
 31
-0.0000000000000109
 12
-1478.725532118324
 22
2162.992368519044
 32
-0.0000000000000109
 13
-1478.725532118324
 23
2162.992368519044
 33
-0.0000000000000109
  0
MTEXT
  5
9153
330
DE1
100
AcDbEntity
  8
cotas
100
AcDbMText
 10
-1665.603604410419
 20
2174.348983697016
 30
-0.0000000000000109
 40
10.0
 41
0.0
 71
     5
 72
     1
  1
373,8
  7
SANINDUSA
 73
     1
 44
1.0
1001
ACAD
1000
MTEXTBEGIN
1070
    73
1070
     1
1070
    44
1040
1.0
1070
    74
1070
     0
1000
MTEXTEND
  0
POINT
  5
9154
330
DE1
100
AcDbEntity
  8
Defpoints
 62
     0
100
AcDbPoint
 10
-1852.481676702514
 20
2129.376687526564
 30
0.0000000000002032
  0
POINT
  5
9155
330
DE1
100
AcDbEntity
  8
Defpoints
 62
     0
100
AcDbPoint
 10
-1478.725532118324
 20
2132.991522389879
 30
0.0
  0
POINT
  5
9156
330
DE1
100
AcDbEntity
  8
Defpoints
 62
     0
100
AcDbPoint
 10
-1478.725532118324
 20
2162.992368519044
 30
-0.0000000000000109
  0
ENDBLK
  5
DEC
330
DE1
100
AcDbEntity
  8
0
100
AcDbBlockEnd
  0
BLOCK
  5
DF4
330
DED
100
AcDbEntity
  8
0
100
AcDbBlockBegin
  2
*D100
 70
     1
 10
0.0
 20
0.0
 30
0.0
  3
*D100
  1

  0
LINE
  5
9148
330
DED
100
AcDbEntity
  8
cotas
100
AcDbLine
 10
-1811.804859732593
 20
1268.427153862712
 30
-0.0000000000000109
 11
-1780.866850778209
 21
1300.831599458854
 31
-0.0000000000000109
  0
MTEXT
  5
9149
330
DED
100
AcDbEntity
  8
cotas
100
AcDbMText
 10
-1807.17202748935
 20
1288.062244876094
 30
-0.0000000000000109
 40
10.0
 41
0.0
 71
     5
 72
     1
  1
R20
  7
SANINDUSA
 11
0.6905515714747179
 21
0.7232831583368977
 31
0.0
 73
     1
 44
1.0
1001
ACAD
1000
MTEXTBEGIN
1070
    73
1070
     1
1070
    44
1040
1.0
1070
    74
1070
     0
1000
MTEXTEND
  0
LINE
  5
914A
330
DED
100
AcDbEntity
  8
cotas
100
AcDbLine
 10
-1760.150303633968
 20
1322.53009420896
 30
-0.0000000000000109
 11
-1773.961335063462
 21
1308.064431042223
 31
-0.0000000000000109
  0
SOLID
  5
914B
330
DED
100
AcDbEntity
  8
cotas
100
AcDbTrace
 10
-1782.07232270877
 20
1301.982518744645
 30
-0.0000000000000109
 11
-1779.661378847647
 21
1299.680680173063
 31
-0.0000000000000109
 12
-1773.961335063462
 22
1308.064431042223
 32
-0.0000000000000109
 13
-1773.961335063462
 23
1308.064431042223
 33
-0.0000000000000109
  0
POINT
  5
914C
330
DED
100
AcDbEntity
  8
Defpoints
 62
     0
100
AcDbPoint
 10
-1773.961335063462
 20
1308.064431042223
 30
-0.0000000000000109
  0
POINT
  5
914D
330
DED
100
AcDbEntity
  8
Defpoints
 62
     0
100
AcDbPoint
 10
-1760.150303633968
 20
1322.53009420896
 30
-0.0000000000000109
  0
ENDBLK
  5
DF5
330
DED
100
AcDbEntity
  8
0
100
AcDbBlockEnd
  0
BLOCK
  5
DFC
330
DF6
100
AcDbEntity
  8
0
100
AcDbBlockBegin
  2
*D101
 70
     1
 10
0.0
 20
0.0
 30
0.0
  3
*D101
  1

  0
LINE
  5
9143
330
DF6
100
AcDbEntity
  8
cotas
100
AcDbLine
 10
-1705.728898629444
 20
1379.992423651433
 30
-0.0000000000000109
 11
-1738.231614022801
 21
1349.157670782091
 31
-0.0000000000000109
  0
MTEXT
  5
9144
330
DF6
100
AcDbEntity
  8
cotas
100
AcDbMText
 10
-1725.376319191451
 20
1375.41965065724
 30
-0.0000000000000109
 40
10.0
 41
0.0
 71
     5
 72
     1
  1
R10
  7
SANINDUSA
 11
0.7254765885280605
 21
0.6882468448875646
 31
0.0
 73
     1
 44
1.0
1001
ACAD
1000
MTEXTBEGIN
1070
    73
1070
     1
1070
    44
1040
1.0
1070
    74
1070
     0
1000
MTEXTEND
  0
SOLID
  5
9145
330
DF6
100
AcDbEntity
  8
cotas
100
AcDbTrace
 10
-1739.378692097613
 20
1350.366798429637
 30
-0.0000000000000109
 11
-1737.084535947988
 21
1347.948543134544
 31
-0.0000000000000109
 12
-1745.486379908081
 22
1342.275202333215
 32
-0.0000000000000109
 13
-1745.486379908081
 23
1342.275202333215
 33
-0.0000000000000109
  0
POINT
  5
9146
330
DF6
100
AcDbEntity
  8
Defpoints
 62
     0
100
AcDbPoint
 10
-1745.486379908081
 20
1342.275202333215
 30
-0.0000000000000109
  0
POINT
  5
9147
330
DF6
100
AcDbEntity
  8
Defpoints
 62
     0
100
AcDbPoint
 10
-1738.231614022808
 20
1349.157670782083
 30
-0.0000000000000109
  0
ENDBLK
  5
DFD
330
DF6
100
AcDbEntity
  8
0
100
AcDbBlockEnd
  0
BLOCK
  5
E04
330
DFE
100
AcDbEntity
  8
0
100
AcDbBlockBegin
  2
*D102
 70
     1
 10
0.0
 20
0.0
 30
0.0
  3
*D102
  1

  0
LINE
  5
913E
330
DFE
100
AcDbEntity
  8
cotas
100
AcDbLine
 10
-1330.358461352987
 20
1377.989245980116
 30
-0.0000000000000109
 11
-1295.442885663824
 21
1349.915930060022
 31
-0.0000000000000109
  0
MTEXT
  5
913F
330
DFE
100
AcDbEntity
  8
cotas
100
AcDbMText
 10
-1310.40288345594
 20
1375.038602255145
 30
-0.0000000000000109
 40
10.0
 41
0.0
 71
     5
 72
     1
  1
R10
  7
SANINDUSA
 11
0.7793328166865637
 21
-0.6266102144358861
 31
0.0
 73
     1
 44
1.0
1001
ACAD
1000
MTEXTBEGIN
1070
    73
1070
     1
1070
    44
1040
1.0
1070
    74
1070
     0
1000
MTEXTEND
  0
SOLID
  5
9140
330
DFE
100
AcDbEntity
  8
cotas
100
AcDbTrace
 10
-1294.398535306431
 20
1351.214818087833
 30
-0.0000000000000109
 11
-1296.487236021217
 21
1348.617042032211
 31
-0.0000000000000109
 12
-1287.649557496958
 22
1343.649827915663
 32
-0.0000000000000109
 13
-1287.649557496958
 23
1343.649827915663
 33
-0.0000000000000109
  0
POINT
  5
9141
330
DFE
100
AcDbEntity
  8
Defpoints
 62
     0
100
AcDbPoint
 10
-1287.649557496958
 20
1343.649827915663
 30
-0.0000000000000109
  0
POINT
  5
9142
330
DFE
100
AcDbEntity
  8
Defpoints
 62
     0
100
AcDbPoint
 10
-1295.442885663824
 20
1349.915930060022
 30
-0.0000000000000109
  0
ENDBLK
  5
E05
330
DFE
100
AcDbEntity
  8
0
100
AcDbBlockEnd
  0
BLOCK
  5
E0D
330
E06
100
AcDbEntity
  8
0
100
AcDbBlockBegin
  2
*D103
 70
     1
 10
0.0
 20
0.0
 30
0.0
  3
*D103
  1

  0
LINE
  5
9138
330
E06
100
AcDbEntity
  8
cotas
100
AcDbLine
 10
-1813.430164602723
 20
2094.585768693743
 30
-0.0000000000000109
 11
-1781.518694785139
 21
2063.139519528917
 31
-0.0000000000000109
  0
MTEXT
  5
9139
330
E06
100
AcDbEntity
  8
cotas
100
AcDbMText
 10
-1793.870740674092
 20
2089.643211736264
 30
-0.0000000000000109
 40
10.0
 41
0.0
 71
     5
 72
     1
  1
R20
  7
SANINDUSA
 11
0.7122796965729573
 21
-0.7018957428635223
 31
0.0
 73
     1
 44
1.0
1001
ACAD
1000
MTEXTBEGIN
1070
    73
1070
     1
1070
    44
1040
1.0
1070
    74
1070
     0
1000
MTEXTEND
  0
LINE
  5
913A
330
E06
100
AcDbEntity
  8
cotas
100
AcDbLine
 10
-1760.150303887949
 20
2042.08264724301
 30
-0.0000000000000109
 11
-1774.39589781941
 21
2056.120562100281
 31
-0.0000000000000109
  0
SOLID
  5
913B
330
E06
100
AcDbEntity
  8
cotas
100
AcDbTrace
 10
-1780.348868547033
 20
2064.326652356538
 30
-0.0000000000000109
 11
-1782.688521023245
 21
2061.952386701295
 31
-0.0000000000000109
 12
-1774.39589781941
 22
2056.120562100281
 32
-0.0000000000000109
 13
-1774.39589781941
 23
2056.120562100281
 33
-0.0000000000000109
  0
POINT
  5
913C
330
E06
100
AcDbEntity
  8
Defpoints
 62
     0
100
AcDbPoint
 10
-1774.39589781941
 20
2056.120562100281
 30
-0.0000000000000109
  0
POINT
  5
913D
330
E06
100
AcDbEntity
  8
Defpoints
 62
     0
100
AcDbPoint
 10
-1760.150303887949
 20
2042.08264724301
 30
-0.0000000000000109
  0
ENDBLK
  5
E0E
330
E06
100
AcDbEntity
  8
0
100
AcDbBlockEnd
  0
BLOCK
  5
E15
330
E0F
100
AcDbEntity
  8
0
100
AcDbBlockBegin
  2
*D104
 70
     1
 10
0.0
 20
0.0
 30
0.0
  3
*D104
  1

  0
LINE
  5
9133
330
E0F
100
AcDbEntity
  8
cotas
100
AcDbLine
 10
-1709.061849199094
 20
1981.425599966527
 30
-0.0000000000000109
 11
-1738.231402676062
 21
2015.430682563242
 31
-0.0000000000000109
  0
MTEXT
  5
9134
330
E0F
100
AcDbEntity
  8
cotas
100
AcDbMText
 10
-1712.64565823119
 20
2001.277242226508
 30
-0.0000000000000109
 40
10.0
 41
0.0
 71
     5
 72
     1
  1
R10
  7
SANINDUSA
 11
0.6510787757038229
 21
-0.7590101631915156
 31
0.0
 73
     1
 44
1.0
1001
ACAD
1000
MTEXTBEGIN
1070
    73
1070
     1
1070
    44
1040
1.0
1070
    74
1070
     0
1000
MTEXTEND
  0
SOLID
  5
9135
330
E0F
100
AcDbEntity
  8
cotas
100
AcDbTrace
 10
-1736.966385737409
 20
2016.515813856082
 30
-0.0000000000000109
 11
-1739.496419614714
 21
2014.345551270402
 31
-0.0000000000000109
 12
-1744.7421904331
 22
2023.020784195157
 32
-0.0000000000000109
 13
-1744.7421904331
 23
2023.020784195157
 33
-0.0000000000000109
  0
POINT
  5
9136
330
E0F
100
AcDbEntity
  8
Defpoints
 62
     0
100
AcDbPoint
 10
-1744.7421904331
 20
2023.020784195157
 30
-0.0000000000000109
  0
POINT
  5
9137
330
E0F
100
AcDbEntity
  8
Defpoints
 62
     0
100
AcDbPoint
 10
-1738.231402676061
 20
2015.430682563241
 30
-0.0000000000000109
  0
ENDBLK
  5
E16
330
E0F
100
AcDbEntity
  8
0
100
AcDbBlockEnd
  0
BLOCK
  5
E1E
330
E17
100
AcDbEntity
  8
0
100
AcDbBlockBegin
  2
*D105
 70
     1
 10
0.0
 20
0.0
 30
0.0
  3
*D105
  1

  0
LINE
  5
912D
330
E17
100
AcDbEntity
  8
cotas
100
AcDbLine
 10
-189.8873769291386
 20
1267.005556684692
 30
0.0000000000003843
 11
-219.903444323853
 21
1300.265806091616
 31
0.0000000000003843
  0
MTEXT
  5
912E
330
E17
100
AcDbEntity
  8
cotas
100
AcDbMText
 10
-193.9671328159892
 20
1286.762973661653
 30
0.0000000000003843
 40
10.0
 41
0.0
 71
     5
 72
     1
  1
R20
  7
SANINDUSA
 11
0.6699733825622822
 21
-0.742385120175542
 31
0.0
 73
     1
 44
1.0
1001
ACAD
1000
MTEXTBEGIN
1070
    73
1070
     1
1070
    44
1040
1.0
1070
    74
1070
     0
1000
MTEXTEND
  0
LINE
  5
912F
330
E17
100
AcDbEntity
  8
cotas
100
AcDbLine
 10
-240.0026458007185
 20
1322.537359696879
 30
0.0000000000003843
 11
-226.6031781494759
 21
1307.689657293371
 31
0.0000000000003843
  0
SOLID
  5
9130
330
E17
100
AcDbEntity
  8
cotas
100
AcDbTrace
 10
-218.6661357902273
 20
1301.382428395887
 30
0.0000000000003843
 11
-221.1407528574789
 21
1299.149183787346
 31
0.0000000000003843
 12
-226.6031781494759
 22
1307.689657293371
 32
0.0000000000003843
 13
-226.6031781494759
 23
1307.689657293371
 33
0.0000000000003843
  0
POINT
  5
9131
330
E17
100
AcDbEntity
  8
Defpoints
 62
     0
100
AcDbPoint
 10
-226.6031781494759
 20
1307.689657293371
 30
0.0000000000003843
  0
POINT
  5
9132
330
E17
100
AcDbEntity
  8
Defpoints
 62
     0
100
AcDbPoint
 10
-240.0026458007185
 20
1322.537359696879
 30
0.0000000000003843
  0
ENDBLK
  5
E1F
330
E17
100
AcDbEntity
  8
0
100
AcDbBlockEnd
  0
BLOCK
  5
E27
330
E20
100
AcDbEntity
  8
0
100
AcDbBlockBegin
  2
*D106
 70
     1
 10
0.0
 20
0.0
 30
0.0
  3
*D106
  1

  0
LINE
  5
9127
330
E20
100
AcDbEntity
  8
cotas
100
AcDbLine
 10
-186.5817923259001
 20
2094.437137045724
 30
0.0000000000003843
 11
-218.5850033681835
 21
2063.084258781712
 31
0.0000000000003843
  0
MTEXT
  5
9128
330
E20
100
AcDbEntity
  8
cotas
100
AcDbMText
 10
-206.1555735838604
 20
2089.551748528592
 30
0.0000000000003843
 40
10.0
 41
0.0
 71
     5
 72
     1
  1
R20
  7
SANINDUSA
 11
0.7143274058156211
 21
0.6998116584487036
 31
0.0
 73
     1
 44
1.0
1001
ACAD
1000
MTEXTBEGIN
1070
    73
1070
     1
1070
    44
1040
1.0
1070
    74
1070
     0
1000
MTEXTEND
  0
LINE
  5
9129
330
E20
100
AcDbEntity
  8
cotas
100
AcDbLine
 10
-240.0148255426548
 20
2042.089909028248
 30
0.0000000000003843
 11
-225.7282774263397
 21
2056.086142197226
 31
0.0000000000003843
  0
SOLID
  5
912A
330
E20
100
AcDbEntity
  8
cotas
100
AcDbTrace
 10
-219.7513561322647
 20
2064.274804458072
 30
0.0000000000003843
 11
-217.4186506041023
 21
2061.893713105353
 31
0.0000000000003843
 12
-225.7282774263397
 22
2056.086142197226
 32
0.0000000000003843
 13
-225.7282774263397
 23
2056.086142197226
 33
0.0000000000003843
  0
POINT
  5
912B
330
E20
100
AcDbEntity
  8
Defpoints
 62
     0
100
AcDbPoint
 10
-225.7282774263397
 20
2056.086142197226
 30
0.0000000000003843
  0
POINT
  5
912C
330
E20
100
AcDbEntity
  8
Defpoints
 62
     0
100
AcDbPoint
 10
-240.0148255426548
 20
2042.089909028248
 30
0.0000000000003843
  0
ENDBLK
  5
E28
330
E20
100
AcDbEntity
  8
0
100
AcDbBlockEnd
  0
BLOCK
  5
E30
330
E29
100
AcDbEntity
  8
0
100
AcDbBlockBegin
  2
*D107
 70
     1
 10
0.0
 20
0.0
 30
0.0
  3
*D107
  1

  0
LINE
  5
9121
330
E29
100
AcDbEntity
  8
cotas
100
AcDbLine
 10
-124.9110474223551
 20
1196.459377126808
 30
0.0000000000001922
 11
-146.4466191441512
 21
1225.295851852625
 31
0.0000000000001922
  0
MTEXT
  5
9122
330
E29
100
AcDbEntity
  8
cotas
100
AcDbMText
 10
-124.5913711873642
 20
1212.917456292678
 30
0.0000000000001922
 40
10.0
 41
0.0
 71
     5
 72
     1
  1
R5
  7
SANINDUSA
 11
0.5983666037274605
 21
-0.8012224457313113
 31
0.0
 73
     1
 44
1.0
1001
ACAD
1000
MTEXTBEGIN
1070
    73
1070
     1
1070
    44
1040
1.0
1070
    74
1070
     0
1000
MTEXTEND
  0
LINE
  5
9123
330
E29
100
AcDbEntity
  8
cotas
100
AcDbLine
 10
-155.4221182000631
 20
1237.314188538595
 30
0.0000000000001922
 11
-152.4302851814258
 21
1233.308076309938
 31
0.0000000000001922
  0
SOLID
  5
9124
330
E29
100
AcDbEntity
  8
cotas
100
AcDbTrace
 10
-145.1112484012657
 20
1226.293129525504
 30
0.0000000000001922
 11
-147.7819898870367
 21
1224.298574179746
 31
0.0000000000001922
 12
-152.4302851814258
 22
1233.308076309938
 32
0.0000000000001922
 13
-152.4302851814258
 23
1233.308076309938
 33
0.0000000000001922
  0
POINT
  5
9125
330
E29
100
AcDbEntity
  8
Defpoints
 62
     0
100
AcDbPoint
 10
-152.4302851814258
 20
1233.308076309938
 30
0.0000000000001922
  0
POINT
  5
9126
330
E29
100
AcDbEntity
  8
Defpoints
 62
     0
100
AcDbPoint
 10
-155.4221182000631
 20
1237.314188538595
 30
0.0000000000001922
  0
ENDBLK
  5
E31
330
E29
100
AcDbEntity
  8
0
100
AcDbBlockEnd
  0
BLOCK
  5
E3B
330
E32
100
AcDbEntity
  8
0
100
AcDbBlockBegin
  2
*D108
 70
     1
 10
0.0
 20
0.0
 30
0.0
  3
*D108
  1

  0
LINE
  5
9113
330
E32
100
AcDbEntity
  8
cotas
100
AcDbLine
 10
-438.5811783156649
 20
1770.356862537794
 30
0.0000000000000961
 11
-395.5653300797345
 21
1735.339754643943
 31
0.0000000000000961
  0
LINE
  5
9114
330
E32
100
AcDbEntity
  8
cotas
100
AcDbLine
 10
-265.2999207166435
 20
1629.297026636225
 30
0.0000000000000961
 11
-257.5446721365127
 21
1622.983856318518
 31
0.0000000000000961
  0
MTEXT
  5
9115
330
E32
100
AcDbEntity
  8
cotas
100
AcDbMText
 10
-414.0695652401904
 20
1764.458062618461
 30
0.0000000000000961
 40
10.0
 41
0.0
 71
     5
 72
     1
  1
\U+2205148
  7
SANINDUSA
 11
0.7755248580130784
 21
-0.6313170317707222
 31
0.0
 73
     1
 44
1.0
1001
ACAD
1000
MTEXTBEGIN
1070
    73
1070
     1
1070
    44
1040
1.0
1070
    74
1070
     0
1000
MTEXTEND
  0
LINE
  5
9116
330
E32
100
AcDbEntity
  8
cotas
100
AcDbLine
 10
-273.0551692967743
 20
1635.610196953933
 30
0.0000000000000961
 11
-387.8100814996038
 21
1729.026584326236
 31
0.0000000000000961
  0
SOLID
  5
9117
330
E32
100
AcDbEntity
  8
cotas
100
AcDbTrace
 10
-264.2477256636923
 20
1630.589568066247
 30
0.0000000000000961
 11
-266.3521157695948
 21
1628.004485206204
 31
0.0000000000000961
 12
-273.0551692967743
 22
1635.610196953933
 32
0.0000000000000961
 13
-273.0551692967743
 23
1635.610196953933
 33
0.0000000000000961
  0
SOLID
  5
9118
330
E32
100
AcDbEntity
  8
cotas
100
AcDbTrace
 10
-394.5131350267833
 20
1736.632296073965
 30
0.0000000000000961
 11
-396.6175251326857
 21
1734.047213213921
 31
0.0000000000000961
 12
-387.8100814996038
 22
1729.026584326236
 32
0.0000000000000961
 13
-387.8100814996038
 23
1729.026584326236
 33
0.0000000000000961
  0
POINT
  5
9119
330
E32
100
AcDbEntity
  8
Defpoints
 62
     0
100
AcDbPoint
 10
-387.8100814996038
 20
1729.026584326236
 30
0.0000000000000961
  0
POINT
  5
911A
330
E32
100
AcDbEntity
  8
Defpoints
 62
     0
100
AcDbPoint
 10
-273.0551692967743
 20
1635.610196953933
 30
0.0000000000000961
  0
ENDBLK
  5
E3C
330
E32
100
AcDbEntity
  8
0
100
AcDbBlockEnd
  0
BLOCK
  5
E47
330
E3D
100
AcDbEntity
  8
0
100
AcDbBlockBegin
  2
*D109
 70
     1
 10
0.0
 20
0.0
 30
0.0
  3
*D109
  1

  0
LINE
  5
92E3
330
E3D
100
AcDbEntity
  8
cotas
100
AcDbLine
 10
139.3512856305529
 20
1747.490421684166
 30
0.0
 11
139.3512856305529
 21
1777.490421684166
 31
0.0
  0
LINE
  5
92E4
330
E3D
100
AcDbEntity
  8
cotas
100
AcDbLine
 10
1039.351289288367
 20
1747.490421684166
 30
0.0
 11
1039.351289288367
 21
1777.490421684166
 31
0.0
  0
LINE
  5
92E5
330
E3D
100
AcDbEntity
  8
cotas
100
AcDbLine
 10
149.3512856305528
 20
1772.490421684166
 30
0.0
 11
1029.351289288367
 21
1772.490421684166
 31
0.0
  0
SOLID
  5
92E6
330
E3D
100
AcDbEntity
  8
cotas
100
AcDbTrace
 10
149.3512856305528
 20
1774.157088350833
 30
0.0
 11
149.3512856305528
 21
1770.823755017499
 31
0.0
 12
139.3512856305529
 22
1772.490421684166
 32
0.0
 13
139.3512856305529
 23
1772.490421684166
 33
0.0
  0
SOLID
  5
92E7
330
E3D
100
AcDbEntity
  8
cotas
100
AcDbTrace
 10
1029.351289288367
 20
1774.157088350833
 30
0.0
 11
1029.351289288367
 21
1770.823755017499
 31
0.0
 12
1039.351289288367
 22
1772.490421684166
 32
0.0
 13
1039.351289288367
 23
1772.490421684166
 33
0.0
  0
MTEXT
  5
92E8
330
E3D
100
AcDbEntity
  8
cotas
100
AcDbMText
 10
589.3512874594598
 20
1782.695257144206
 30
0.0
 40
10.0
 41
0.0
 71
     5
 72
     1
  1
900
  7
SANINDUSA
 73
     1
 44
1.0
1001
ACAD
1000
MTEXTBEGIN
1070
    73
1070
     1
1070
    44
1040
1.0
1070
    74
1070
     0
1000
MTEXTEND
  0
POINT
  5
92E9
330
E3D
100
AcDbEntity
  8
Defpoints
 62
     0
100
AcDbPoint
 10
139.3512856305529
 20
1742.490421684166
 30
0.0
  0
POINT
  5
92EA
330
E3D
100
AcDbEntity
  8
Defpoints
 62
     0
100
AcDbPoint
 10
1039.351289288367
 20
1742.490421684166
 30
0.0
  0
POINT
  5
92EB
330
E3D
100
AcDbEntity
  8
Defpoints
 62
     0
100
AcDbPoint
 10
1039.351289288367
 20
1772.490421684166
 30
0.0
  0
ENDBLK
  5
E48
330
E3D
100
AcDbEntity
  8
0
100
AcDbBlockEnd
  0
BLOCK
  5
E71
330
E67
100
AcDbEntity
  8
0
100
AcDbBlockBegin
  2
*D110
 70
     1
 10
0.0
 20
0.0
 30
0.0
  3
*D110
  1

  0
LINE
  5
92BC
330
E67
100
AcDbEntity
  8
cotas
100
AcDbLine
 10
3145.651998246533
 20
1747.482958056964
 30
0.0
 11
3145.651998246533
 21
1777.482958056964
 31
0.0
  0
LINE
  5
92BD
330
E67
100
AcDbEntity
  8
cotas
100
AcDbLine
 10
3075.651997970205
 20
1747.482958056964
 30
0.0
 11
3075.651997970205
 21
1777.482958056964
 31
0.0
  0
LINE
  5
92BE
330
E67
100
AcDbEntity
  8
cotas
100
AcDbLine
 10
3135.651998246534
 20
1772.482958056964
 30
0.0
 11
3085.651997970205
 21
1772.482958056964
 31
0.0
  0
SOLID
  5
92BF
330
E67
100
AcDbEntity
  8
cotas
100
AcDbTrace
 10
3135.651998246534
 20
1774.149624723631
 30
0.0
 11
3135.651998246534
 21
1770.816291390298
 31
0.0
 12
3145.651998246533
 22
1772.482958056964
 32
0.0
 13
3145.651998246533
 23
1772.482958056964
 33
0.0
  0
SOLID
  5
92C0
330
E67
100
AcDbEntity
  8
cotas
100
AcDbTrace
 10
3085.651997970205
 20
1774.149624723631
 30
0.0
 11
3085.651997970205
 21
1770.816291390298
 31
0.0
 12
3075.651997970205
 22
1772.482958056964
 32
0.0
 13
3075.651997970205
 23
1772.482958056964
 33
0.0
  0
MTEXT
  5
92C1
330
E67
100
AcDbEntity
  8
cotas
100
AcDbMText
 10
3110.65199810837
 20
1782.687793517005
 30
0.0
 40
10.0
 41
0.0
 71
     5
 72
     1
  1
70
  7
SANINDUSA
 73
     1
 44
1.0
1001
ACAD
1000
MTEXTBEGIN
1070
    73
1070
     1
1070
    44
1040
1.0
1070
    74
1070
     0
1000
MTEXTEND
  0
POINT
  5
92C2
330
E67
100
AcDbEntity
  8
Defpoints
 62
     0
100
AcDbPoint
 10
3145.651998246533
 20
1742.482958056965
 30
0.0
  0
POINT
  5
92C3
330
E67
100
AcDbEntity
  8
Defpoints
 62
     0
100
AcDbPoint
 10
3075.651997970205
 20
1742.482958056963
 30
0.0
  0
POINT
  5
92C4
330
E67
100
AcDbEntity
  8
Defpoints
 62
     0
100
AcDbPoint
 10
3075.651997970205
 20
1772.482958056964
 30
0.0
  0
ENDBLK
  5
E72
330
E67
100
AcDbEntity
  8
0
100
AcDbBlockEnd
  0
BLOCK
  5
E7E
330
E73
100
AcDbEntity
  8
0
100
AcDbBlockBegin
  2
*D111
 70
     1
 10
0.0
 20
0.0
 30
0.0
  3
*D111
  1

  0
LINE
  5
92B2
330
E73
100
AcDbEntity
  8
cotas
100
AcDbLine
 10
3145.651998246533
 20
1747.482958056964
 30
0.0
 11
3145.651998246533
 21
1777.482958056964
 31
0.0
  0
LINE
  5
92B3
330
E73
100
AcDbEntity
  8
cotas
100
AcDbLine
 10
3178.058799072361
 20
1687.9083079689
 30
0.0
 11
3178.058799072361
 21
1777.482958056964
 31
0.0
  0
LINE
  5
92B4
330
E73
100
AcDbEntity
  8
cotas
100
AcDbLine
 10
3155.651998246534
 20
1772.482958056964
 30
0.0
 11
3168.058799072361
 21
1772.482958056964
 31
0.0
  0
LINE
  5
92B5
330
E73
100
AcDbEntity
  8
cotas
100
AcDbLine
 10
3178.058799072361
 20
1772.482958056964
 30
0.0
 11
3227.508093901105
 21
1772.482958056964
 31
0.0
  0
SOLID
  5
92B6
330
E73
100
AcDbEntity
  8
cotas
100
AcDbTrace
 10
3155.651998246534
 20
1774.149624723631
 30
0.0
 11
3155.651998246534
 21
1770.816291390298
 31
0.0
 12
3145.651998246533
 22
1772.482958056964
 32
0.0
 13
3145.651998246533
 23
1772.482958056964
 33
0.0
  0
SOLID
  5
92B7
330
E73
100
AcDbEntity
  8
cotas
100
AcDbTrace
 10
3168.058799072361
 20
1774.149624723631
 30
0.0
 11
3168.058799072361
 21
1770.816291390298
 31
0.0
 12
3178.058799072361
 22
1772.482958056964
 32
0.0
 13
3178.058799072361
 23
1772.482958056964
 33
0.0
  0
MTEXT
  5
92B8
330
E73
100
AcDbEntity
  8
cotas
100
AcDbMText
 10
3207.783446486733
 20
1783.829499359852
 30
0.0
 40
10.0
 41
0.0
 71
     5
 72
     1
  1
32,4
  7
SANINDUSA
 73
     1
 44
1.0
1001
ACAD
1000
MTEXTBEGIN
1070
    73
1070
     1
1070
    44
1040
1.0
1070
    74
1070
     0
1000
MTEXTEND
  0
POINT
  5
92B9
330
E73
100
AcDbEntity
  8
Defpoints
 62
     0
100
AcDbPoint
 10
3145.651998246533
 20
1742.482958056965
 30
0.0
  0
POINT
  5
92BA
330
E73
100
AcDbEntity
  8
Defpoints
 62
     0
100
AcDbPoint
 10
3178.058799072361
 20
1682.9083079689
 30
0.0
  0
POINT
  5
92BB
330
E73
100
AcDbEntity
  8
Defpoints
 62
     0
100
AcDbPoint
 10
3178.058799072361
 20
1772.482958056964
 30
0.0
  0
ENDBLK
  5
E7F
330
E73
100
AcDbEntity
  8
0
100
AcDbBlockEnd
  0
BLOCK
  5
E8A
330
E80
100
AcDbEntity
  8
0
100
AcDbBlockBegin
  2
*D112
 70
     1
 10
0.0
 20
0.0
 30
0.0
  3
*D112
  1

  0
LINE
  5
92A9
330
E80
100
AcDbEntity
  8
cotas
100
AcDbLine
 10
3178.14606110531
 20
1687.907546444669
 30
0.0
 11
3178.558136304687
 21
1711.515318599768
 31
0.0
  0
LINE
  5
92AA
330
E80
100
AcDbEntity
  8
cotas
100
AcDbLine
 10
3728.062293439862
 20
1678.308722820342
 30
0.0
 11
3728.474368639239
 21
1701.916494975442
 31
0.0
  0
LINE
  5
92AB
330
E80
100
AcDbEntity
  8
cotas
100
AcDbLine
 10
3188.469351223276
 20
1706.341556058103
 30
0.0
 11
3718.388629654752
 21
1697.09178056557
 31
0.0
  0
SOLID
  5
92AC
330
E80
100
AcDbEntity
  8
cotas
100
AcDbTrace
 10
3188.498438567592
 20
1708.007968883359
 30
0.0
 11
3188.440263878959
 21
1704.675143232847
 31
0.0
 12
3178.470874271738
 22
1706.516080124
 32
0.0
 13
3178.470874271738
 23
1706.516080124
 33
0.0
  0
SOLID
  5
92AD
330
E80
100
AcDbEntity
  8
cotas
100
AcDbTrace
 10
3718.417716999069
 20
1698.758193390826
 30
0.0
 11
3718.359542310436
 21
1695.425367740314
 31
0.0
 12
3728.38710660629
 22
1696.917256499673
 32
0.0
 13
3728.38710660629
 23
1696.917256499673
 33
0.0
  0
MTEXT
  5
92AE
330
E80
100
AcDbEntity
  8
cotas
100
AcDbMText
 10
3453.607089376644
 20
1711.919949525981
 30
0.0
 40
10.0
 41
0.0
 71
     5
 72
     1
  1
550
  7
SANINDUSA
 11
0.9998476951537311
 21
-0.0174524065896849
 31
0.0
 73
     1
 44
1.0
1001
ACAD
1000
MTEXTBEGIN
1070
    73
1070
     1
1070
    44
1040
1.0
1070
    74
1070
     0
1000
MTEXTEND
  0
POINT
  5
92AF
330
E80
100
AcDbEntity
  8
Defpoints
 62
     0
100
AcDbPoint
 10
3178.058799072361
 20
1682.9083079689
 30
0.0
  0
POINT
  5
92B0
330
E80
100
AcDbEntity
  8
Defpoints
 62
     0
100
AcDbPoint
 10
3727.975031406913
 20
1673.309484344574
 30
0.0
  0
POINT
  5
92B1
330
E80
100
AcDbEntity
  8
Defpoints
 62
     0
100
AcDbPoint
 10
3728.38710660629
 20
1696.917256499673
 30
0.0
  0
ENDBLK
  5
E8B
330
E80
100
AcDbEntity
  8
0
100
AcDbBlockEnd
  0
BLOCK
  5
EA1
330
E95
100
AcDbEntity
  8
0
100
AcDbBlockBegin
  2
*D113
 70
     1
 10
0.0
 20
0.0
 30
0.0
  3
*D113
  1

  0
LINE
  5
9295
330
E95
100
AcDbEntity
  8
cotas
100
AcDbLine
 10
3732.975031406912
 20
1673.309484344574
 30
0.0
 11
3782.460797081369
 21
1673.309484344574
 31
0.0
  0
LINE
  5
9296
330
E95
100
AcDbEntity
  8
cotas
100
AcDbLine
 10
3732.95740055796
 20
1650.285437893939
 30
0.0
 11
3782.460797081369
 21
1650.285437893939
 31
0.0
  0
LINE
  5
9297
330
E95
100
AcDbEntity
  8
cotas
100
AcDbLine
 10
3777.460797081368
 20
1683.309484344574
 30
0.0
 11
3777.460797081368
 21
1693.309484344573
 31
0.0
  0
LINE
  5
9298
330
E95
100
AcDbEntity
  8
cotas
100
AcDbLine
 10
3777.460797081368
 20
1640.285437893939
 30
0.0
 11
3777.460797081368
 21
1604.912704515833
 31
0.0
  0
LINE
  5
9299
330
E95
100
AcDbEntity
  8
cotas
100
AcDbLine
 10
3777.460797081368
 20
1673.309484344574
 30
0.0
 11
3777.460797081368
 21
1650.285437893939
 31
0.0
  0
SOLID
  5
929A
330
E95
100
AcDbEntity
  8
cotas
100
AcDbTrace
 10
3775.794130414702
 20
1683.309484344574
 30
0.0
 11
3779.127463748035
 21
1683.309484344574
 31
0.0
 12
3777.460797081368
 22
1673.309484344574
 32
0.0
 13
3777.460797081368
 23
1673.309484344574
 33
0.0
  0
SOLID
  5
929B
330
E95
100
AcDbEntity
  8
cotas
100
AcDbTrace
 10
3775.794130414702
 20
1640.285437893939
 30
0.0
 11
3779.127463748035
 21
1640.285437893939
 31
0.0
 12
3777.460797081368
 22
1650.285437893939
 32
0.0
 13
3777.460797081368
 23
1650.285437893939
 33
0.0
  0
MTEXT
  5
929C
330
E95
100
AcDbEntity
  8
cotas
100
AcDbMText
 10
3767.252603662967
 20
1617.599071204887
 30
0.0
 40
10.0
 41
0.0
 71
     5
 72
     1
  1
23
  7
SANINDUSA
 11
0.0000000000000001
 21
1.0
 31
0.0
 73
     1
 44
1.0
1001
ACAD
1000
MTEXTBEGIN
1070
    73
1070
     1
1070
    44
1040
1.0
1070
    74
1070
     0
1000
MTEXTEND
  0
POINT
  5
929D
330
E95
100
AcDbEntity
  8
Defpoints
 62
     0
100
AcDbPoint
 10
3727.975031406913
 20
1673.309484344574
 30
0.0
  0
POINT
  5
929E
330
E95
100
AcDbEntity
  8
Defpoints
 62
     0
100
AcDbPoint
 10
3727.95740055796
 20
1650.285437893939
 30
0.0
  0
POINT
  5
929F
330
E95
100
AcDbEntity
  8
Defpoints
 62
     0
100
AcDbPoint
 10
3777.460797081368
 20
1650.285437893939
 30
0.0
  0
ENDBLK
  5
EA2
330
E95
100
AcDbEntity
  8
0
100
AcDbBlockEnd
  0
BLOCK
  5
EAF
330
EA3
100
AcDbEntity
  8
0
100
AcDbBlockBegin
  2
*D114
 70
     1
 10
0.0
 20
0.0
 30
0.0
  3
*D114
  1

  0
LINE
  5
928A
330
EA3
100
AcDbEntity
  8
cotas
100
AcDbLine
 10
3173.058799072361
 20
1682.9083079689
 30
0.0
 11
3039.953795389696
 21
1682.9083079689
 31
0.0
  0
LINE
  5
928B
330
EA3
100
AcDbEntity
  8
cotas
100
AcDbLine
 10
3173.058799072361
 20
1672.906784611244
 30
0.0
 11
3039.953795389696
 21
1672.906784611244
 31
0.0
  0
LINE
  5
928C
330
EA3
100
AcDbEntity
  8
cotas
100
AcDbLine
 10
3044.953795389696
 20
1692.9083079689
 30
0.0
 11
3044.953795389696
 21
1702.9083079689
 31
0.0
  0
LINE
  5
928D
330
EA3
100
AcDbEntity
  8
cotas
100
AcDbLine
 10
3044.953795389696
 20
1662.906784611244
 30
0.0
 11
3044.953795389696
 21
1628.192211071956
 31
0.0
  0
LINE
  5
928E
330
EA3
100
AcDbEntity
  8
cotas
100
AcDbLine
 10
3044.953795389696
 20
1682.9083079689
 30
0.0
 11
3044.953795389696
 21
1672.906784611244
 31
0.0
  0
SOLID
  5
928F
330
EA3
100
AcDbEntity
  8
cotas
100
AcDbTrace
 10
3043.28712872303
 20
1692.9083079689
 30
0.0
 11
3046.620462056363
 21
1692.9083079689
 31
0.0
 12
3044.953795389696
 22
1682.9083079689
 32
0.0
 13
3044.953795389696
 23
1682.9083079689
 33
0.0
  0
SOLID
  5
9290
330
EA3
100
AcDbEntity
  8
cotas
100
AcDbTrace
 10
3043.28712872303
 20
1662.906784611244
 30
0.0
 11
3046.620462056363
 21
1662.906784611244
 31
0.0
 12
3044.953795389696
 22
1672.906784611244
 32
0.0
 13
3044.953795389696
 23
1672.906784611244
 33
0.0
  0
MTEXT
  5
9291
330
EA3
100
AcDbEntity
  8
cotas
100
AcDbMText
 10
3034.748959929656
 20
1640.549497841601
 30
0.0
 40
10.0
 41
0.0
 71
     5
 72
     1
  1
10
  7
SANINDUSA
 11
0.0000000000000001
 21
1.0
 31
0.0
 73
     1
 44
1.0
1001
ACAD
1000
MTEXTBEGIN
1070
    73
1070
     1
1070
    44
1040
1.0
1070
    74
1070
     0
1000
MTEXTEND
  0
POINT
  5
9292
330
EA3
100
AcDbEntity
  8
Defpoints
 62
     0
100
AcDbPoint
 10
3178.058799072361
 20
1682.9083079689
 30
0.0
  0
POINT
  5
9293
330
EA3
100
AcDbEntity
  8
Defpoints
 62
     0
100
AcDbPoint
 10
3178.058799072361
 20
1672.906784611244
 30
0.0
  0
POINT
  5
9294
330
EA3
100
AcDbEntity
  8
Defpoints
 62
     0
100
AcDbPoint
 10
3044.953795389696
 20
1672.906784611244
 30
0.0
  0
ENDBLK
  5
EB0
330
EA3
100
AcDbEntity
  8
0
100
AcDbBlockEnd
  0
BLOCK
  5
EF2
330
EE8
100
AcDbEntity
  8
0
100
AcDbBlockBegin
  2
*D115
 70
     1
 10
0.0
 20
0.0
 30
0.0
  3
*D115
  1

  0
LINE
  5
924A
330
EE8
100
AcDbEntity
  8
cotas
100
AcDbLine
 10
4775.651986775736
 20
1747.482958056964
 30
0.0
 11
4775.651986775736
 21
1777.482958056964
 31
0.0
  0
LINE
  5
924B
330
EE8
100
AcDbEntity
  8
cotas
100
AcDbLine
 10
4705.652008953609
 20
1747.482958056964
 30
0.0
 11
4705.652008953609
 21
1777.482958056964
 31
0.0
  0
LINE
  5
924C
330
EE8
100
AcDbEntity
  8
cotas
100
AcDbLine
 10
4765.651986775735
 20
1772.482958056964
 30
0.0
 11
4715.652008953608
 21
1772.482958056964
 31
0.0
  0
SOLID
  5
924D
330
EE8
100
AcDbEntity
  8
cotas
100
AcDbTrace
 10
4765.651986775735
 20
1774.149624723631
 30
0.0
 11
4765.651986775735
 21
1770.816291390298
 31
0.0
 12
4775.651986775736
 22
1772.482958056964
 32
0.0
 13
4775.651986775736
 23
1772.482958056964
 33
0.0
  0
SOLID
  5
924E
330
EE8
100
AcDbEntity
  8
cotas
100
AcDbTrace
 10
4715.652008953608
 20
1774.149624723631
 30
0.0
 11
4715.652008953608
 21
1770.816291390298
 31
0.0
 12
4705.652008953609
 22
1772.482958056964
 32
0.0
 13
4705.652008953609
 23
1772.482958056964
 33
0.0
  0
MTEXT
  5
924F
330
EE8
100
AcDbEntity
  8
cotas
100
AcDbMText
 10
4740.651997864672
 20
1782.687793517005
 30
0.0
 40
10.0
 41
0.0
 71
     5
 72
     1
  1
70
  7
SANINDUSA
 73
     1
 44
1.0
1001
ACAD
1000
MTEXTBEGIN
1070
    73
1070
     1
1070
    44
1040
1.0
1070
    74
1070
     0
1000
MTEXTEND
  0
POINT
  5
9250
330
EE8
100
AcDbEntity
  8
Defpoints
 62
     0
100
AcDbPoint
 10
4775.651986775736
 20
1742.482958056965
 30
0.0
  0
POINT
  5
9251
330
EE8
100
AcDbEntity
  8
Defpoints
 62
     0
100
AcDbPoint
 10
4705.652008953609
 20
1742.482958056965
 30
0.0
  0
POINT
  5
9252
330
EE8
100
AcDbEntity
  8
Defpoints
 62
     0
100
AcDbPoint
 10
4705.652008953609
 20
1772.482958056964
 30
0.0
  0
ENDBLK
  5
EF3
330
EE8
100
AcDbEntity
  8
0
100
AcDbBlockEnd
  0
BLOCK
  5
EFE
330
EF4
100
AcDbEntity
  8
0
100
AcDbBlockBegin
  2
*D116
 70
     1
 10
0.0
 20
0.0
 30
0.0
  3
*D116
  1

  0
LINE
  5
9241
330
EF4
100
AcDbEntity
  8
cotas
100
AcDbLine
 10
4775.651986775736
 20
1747.482958056964
 30
0.0
 11
4775.651986775736
 21
1807.477958012723
 31
0.0
  0
LINE
  5
9242
330
EF4
100
AcDbEntity
  8
cotas
100
AcDbLine
 10
4595.65200869919
 20
1671.377637204354
 30
0.0
 11
4595.65200869919
 21
1807.477958012723
 31
0.0
  0
LINE
  5
9243
330
EF4
100
AcDbEntity
  8
cotas
100
AcDbLine
 10
4765.651986775735
 20
1802.477958012723
 30
0.0
 11
4605.65200869919
 21
1802.477958012723
 31
0.0
  0
SOLID
  5
9244
330
EF4
100
AcDbEntity
  8
cotas
100
AcDbTrace
 10
4765.651986775735
 20
1804.144624679389
 30
0.0
 11
4765.651986775735
 21
1800.811291346056
 31
0.0
 12
4775.651986775736
 22
1802.477958012723
 32
0.0
 13
4775.651986775736
 23
1802.477958012723
 33
0.0
  0
SOLID
  5
9245
330
EF4
100
AcDbEntity
  8
cotas
100
AcDbTrace
 10
4605.65200869919
 20
1804.144624679389
 30
0.0
 11
4605.65200869919
 21
1800.811291346056
 31
0.0
 12
4595.65200869919
 22
1802.477958012723
 32
0.0
 13
4595.65200869919
 23
1802.477958012723
 33
0.0
  0
MTEXT
  5
9246
330
EF4
100
AcDbEntity
  8
cotas
100
AcDbMText
 10
4685.651997737463
 20
1812.706299181292
 30
0.0
 40
10.0
 41
0.0
 71
     5
 72
     1
  1
180
  7
SANINDUSA
 73
     1
 44
1.0
1001
ACAD
1000
MTEXTBEGIN
1070
    73
1070
     1
1070
    44
1040
1.0
1070
    74
1070
     0
1000
MTEXTEND
  0
POINT
  5
9247
330
EF4
100
AcDbEntity
  8
Defpoints
 62
     0
100
AcDbPoint
 10
4775.651986775736
 20
1742.482958056965
 30
0.0
  0
POINT
  5
9248
330
EF4
100
AcDbEntity
  8
Defpoints
 62
     0
100
AcDbPoint
 10
4595.65200869919
 20
1666.377637204354
 30
0.0
  0
POINT
  5
9249
330
EF4
100
AcDbEntity
  8
Defpoints
 62
     0
100
AcDbPoint
 10
4595.65200869919
 20
1802.477958012723
 30
0.0
  0
ENDBLK
  5
EFF
330
EF4
100
AcDbEntity
  8
0
100
AcDbBlockEnd
  0
BLOCK
  5
F22
330
F18
100
AcDbEntity
  8
0
100
AcDbBlockBegin
  2
*D117
 70
     1
 10
0.0
 20
0.0
 30
0.0
  3
*D117
  1

  0
LINE
  5
9220
330
F18
100
AcDbEntity
  8
cotas
100
AcDbLine
 10
1178.801688703659
 20
1747.490421684166
 30
0.0
 11
1178.801688703659
 21
1777.490421684165
 31
0.0
  0
LINE
  5
9221
330
F18
100
AcDbEntity
  8
cotas
100
AcDbLine
 10
2878.801721037198
 20
1747.490421684166
 30
0.0
 11
2878.801721037198
 21
1777.490421684165
 31
0.0
  0
LINE
  5
9222
330
F18
100
AcDbEntity
  8
cotas
100
AcDbLine
 10
1188.801688703659
 20
1772.490421684165
 30
0.0
 11
2868.801721037198
 21
1772.490421684165
 31
0.0
  0
SOLID
  5
9223
330
F18
100
AcDbEntity
  8
cotas
100
AcDbTrace
 10
1188.801688703659
 20
1774.157088350831
 30
0.0
 11
1188.801688703659
 21
1770.823755017498
 31
0.0
 12
1178.801688703659
 22
1772.490421684165
 32
0.0
 13
1178.801688703659
 23
1772.490421684165
 33
0.0
  0
SOLID
  5
9224
330
F18
100
AcDbEntity
  8
cotas
100
AcDbTrace
 10
2868.801721037198
 20
1774.157088350831
 30
0.0
 11
2868.801721037198
 21
1770.823755017498
 31
0.0
 12
2878.801721037198
 22
1772.490421684165
 32
0.0
 13
2878.801721037198
 23
1772.490421684165
 33
0.0
  0
MTEXT
  5
9225
330
F18
100
AcDbEntity
  8
cotas
100
AcDbMText
 10
2028.801704870428
 20
1782.695257144205
 30
0.0
 40
10.0
 41
0.0
 71
     5
 72
     1
  1
1700
  7
SANINDUSA
 73
     1
 44
1.0
1001
ACAD
1000
MTEXTBEGIN
1070
    73
1070
     1
1070
    44
1040
1.0
1070
    74
1070
     0
1000
MTEXTEND
  0
POINT
  5
9226
330
F18
100
AcDbEntity
  8
Defpoints
 62
     0
100
AcDbPoint
 10
1178.801688703659
 20
1742.490421684166
 30
0.0
  0
POINT
  5
9227
330
F18
100
AcDbEntity
  8
Defpoints
 62
     0
100
AcDbPoint
 10
2878.801721037198
 20
1742.490421684166
 30
0.0
  0
POINT
  5
9228
330
F18
100
AcDbEntity
  8
Defpoints
 62
     0
100
AcDbPoint
 10
2878.801721037198
 20
1772.490421684165
 30
0.0
  0
ENDBLK
  5
F23
330
F18
100
AcDbEntity
  8
0
100
AcDbBlockEnd
  0
BLOCK
  5
F67
330
F5D
100
AcDbEntity
  8
0
100
AcDbBlockBegin
  2
*D118
 70
     1
 10
0.0
 20
0.0
 30
0.0
  3
*D118
  1

  0
LINE
  5
91DE
330
F5D
100
AcDbEntity
  8
cotas
100
AcDbLine
 10
-590.8498921181235
 20
2002.740074157806
 30
-0.0000000000000335
 11
-590.8498921181235
 21
2167.989159447963
 31
-0.0000000000000335
  0
LINE
  5
91DF
330
F5D
100
AcDbEntity
  8
cotas
100
AcDbLine
 10
-670.8261682531665
 20
2002.741132756888
 30
-0.0000000000000335
 11
-670.8261682531665
 21
2167.989159447963
 31
-0.0000000000000335
  0
LINE
  5
91E0
330
F5D
100
AcDbEntity
  8
cotas
100
AcDbLine
 10
-600.8498921181235
 20
2162.989159447963
 30
-0.0000000000000335
 11
-660.8261682531665
 21
2162.989159447963
 31
-0.0000000000000335
  0
SOLID
  5
91E1
330
F5D
100
AcDbEntity
  8
cotas
100
AcDbTrace
 10
-600.8498921181235
 20
2164.65582611463
 30
-0.0000000000000335
 11
-600.8498921181235
 21
2161.322492781297
 31
-0.0000000000000335
 12
-590.8498921181235
 22
2162.989159447963
 32
-0.0000000000000335
 13
-590.8498921181235
 23
2162.989159447963
 33
-0.0000000000000335
  0
SOLID
  5
91E2
330
F5D
100
AcDbEntity
  8
cotas
100
AcDbTrace
 10
-660.8261682531665
 20
2164.65582611463
 30
-0.0000000000000335
 11
-660.8261682531665
 21
2161.322492781297
 31
-0.0000000000000335
 12
-670.8261682531665
 22
2162.989159447963
 32
-0.0000000000000335
 13
-670.8261682531665
 23
2162.989159447963
 33
-0.0000000000000335
  0
MTEXT
  5
91E3
330
F5D
100
AcDbEntity
  8
cotas
100
AcDbMText
 10
-630.838030185645
 20
2173.217500616533
 30
-0.0000000000000335
 40
10.0
 41
0.0
 71
     5
 72
     1
  1
80
  7
SANINDUSA
 73
     1
 44
1.0
1001
ACAD
1000
MTEXTBEGIN
1070
    73
1070
     1
1070
    44
1040
1.0
1070
    74
1070
     0
1000
MTEXTEND
  0
POINT
  5
91E4
330
F5D
100
AcDbEntity
  8
Defpoints
 62
     0
100
AcDbPoint
 10
-590.8498921181235
 20
1997.740074157806
 30
-0.0000000000000335
  0
POINT
  5
91E5
330
F5D
100
AcDbEntity
  8
Defpoints
 62
     0
100
AcDbPoint
 10
-670.8261682531665
 20
1997.741132756888
 30
-0.0000000000000335
  0
POINT
  5
91E6
330
F5D
100
AcDbEntity
  8
Defpoints
 62
     0
100
AcDbPoint
 10
-670.8261682531665
 20
2162.989159447963
 30
-0.0000000000000335
  0
ENDBLK
  5
F68
330
F5D
100
AcDbEntity
  8
0
100
AcDbBlockEnd
  0
BLOCK
  5
F73
330
F69
100
AcDbEntity
  8
0
100
AcDbBlockBegin
  2
*D119
 70
     1
 10
0.0
 20
0.0
 30
0.0
  3
*D119
  1

  0
LINE
  5
91D5
330
F69
100
AcDbEntity
  8
cotas
100
AcDbLine
 10
-670.8261682531665
 20
2002.741132756888
 30
-0.0000000000000335
 11
-670.8261682531665
 21
2167.989159447963
 31
-0.0000000000000335
  0
LINE
  5
91D6
330
F69
100
AcDbEntity
  8
cotas
100
AcDbLine
 10
-750.7931575464099
 20
2002.729510503701
 30
-0.0000000000000335
 11
-750.7931575464099
 21
2167.989159447963
 31
-0.0000000000000335
  0
LINE
  5
91D7
330
F69
100
AcDbEntity
  8
cotas
100
AcDbLine
 10
-680.8261682531665
 20
2162.989159447963
 30
-0.0000000000000335
 11
-740.7931575464099
 21
2162.989159447963
 31
-0.0000000000000335
  0
SOLID
  5
91D8
330
F69
100
AcDbEntity
  8
cotas
100
AcDbTrace
 10
-680.8261682531665
 20
2164.65582611463
 30
-0.0000000000000335
 11
-680.8261682531665
 21
2161.322492781297
 31
-0.0000000000000335
 12
-670.8261682531665
 22
2162.989159447963
 32
-0.0000000000000335
 13
-670.8261682531665
 23
2162.989159447963
 33
-0.0000000000000335
  0
SOLID
  5
91D9
330
F69
100
AcDbEntity
  8
cotas
100
AcDbTrace
 10
-740.7931575464099
 20
2164.65582611463
 30
-0.0000000000000335
 11
-740.7931575464099
 21
2161.322492781297
 31
-0.0000000000000335
 12
-750.7931575464099
 22
2162.989159447963
 32
-0.0000000000000335
 13
-750.7931575464099
 23
2162.989159447963
 33
-0.0000000000000335
  0
MTEXT
  5
91DA
330
F69
100
AcDbEntity
  8
cotas
100
AcDbMText
 10
-710.8096628997882
 20
2173.217500616533
 30
-0.0000000000000335
 40
10.0
 41
0.0
 71
     5
 72
     1
  1
80
  7
SANINDUSA
 73
     1
 44
1.0
1001
ACAD
1000
MTEXTBEGIN
1070
    73
1070
     1
1070
    44
1040
1.0
1070
    74
1070
     0
1000
MTEXTEND
  0
POINT
  5
91DB
330
F69
100
AcDbEntity
  8
Defpoints
 62
     0
100
AcDbPoint
 10
-670.8261682531665
 20
1997.741132756888
 30
-0.0000000000000335
  0
POINT
  5
91DC
330
F69
100
AcDbEntity
  8
Defpoints
 62
     0
100
AcDbPoint
 10
-750.7931575464099
 20
1997.729510503701
 30
-0.0000000000000335
  0
POINT
  5
91DD
330
F69
100
AcDbEntity
  8
Defpoints
 62
     0
100
AcDbPoint
 10
-750.7931575464099
 20
2162.989159447963
 30
-0.0000000000000335
  0
ENDBLK
  5
F74
330
F69
100
AcDbEntity
  8
0
100
AcDbBlockEnd
  0
BLOCK
  5
F7F
330
F75
100
AcDbEntity
  8
0
100
AcDbBlockBegin
  2
*D120
 70
     1
 10
0.0
 20
0.0
 30
0.0
  3
*D120
  1

  0
LINE
  5
91CC
330
F75
100
AcDbEntity
  8
cotas
100
AcDbLine
 10
-750.7931575464099
 20
2002.729510503701
 30
-0.0000000000000335
 11
-750.7931575464099
 21
2167.989159447963
 31
-0.0000000000000335
  0
LINE
  5
91CD
330
F75
100
AcDbEntity
  8
cotas
100
AcDbLine
 10
-830.7077407650286
 20
2002.722576174077
 30
-0.0000000000000335
 11
-830.7077407650286
 21
2167.989159447963
 31
-0.0000000000000335
  0
LINE
  5
91CE
330
F75
100
AcDbEntity
  8
cotas
100
AcDbLine
 10
-760.7931575464099
 20
2162.989159447963
 30
-0.0000000000000335
 11
-820.7077407650285
 21
2162.989159447963
 31
-0.0000000000000335
  0
SOLID
  5
91CF
330
F75
100
AcDbEntity
  8
cotas
100
AcDbTrace
 10
-760.7931575464099
 20
2164.65582611463
 30
-0.0000000000000335
 11
-760.7931575464099
 21
2161.322492781297
 31
-0.0000000000000335
 12
-750.7931575464099
 22
2162.989159447963
 32
-0.0000000000000335
 13
-750.7931575464099
 23
2162.989159447963
 33
-0.0000000000000335
  0
SOLID
  5
91D0
330
F75
100
AcDbEntity
  8
cotas
100
AcDbTrace
 10
-820.7077407650285
 20
2164.65582611463
 30
-0.0000000000000335
 11
-820.7077407650285
 21
2161.322492781297
 31
-0.0000000000000335
 12
-830.7077407650286
 22
2162.989159447963
 32
-0.0000000000000335
 13
-830.7077407650286
 23
2162.989159447963
 33
-0.0000000000000335
  0
MTEXT
  5
91D1
330
F75
100
AcDbEntity
  8
cotas
100
AcDbMText
 10
-790.7504491557192
 20
2173.217500616533
 30
-0.0000000000000335
 40
10.0
 41
0.0
 71
     5
 72
     1
  1
80
  7
SANINDUSA
 73
     1
 44
1.0
1001
ACAD
1000
MTEXTBEGIN
1070
    73
1070
     1
1070
    44
1040
1.0
1070
    74
1070
     0
1000
MTEXTEND
  0
POINT
  5
91D2
330
F75
100
AcDbEntity
  8
Defpoints
 62
     0
100
AcDbPoint
 10
-750.7931575464099
 20
1997.729510503701
 30
-0.0000000000000335
  0
POINT
  5
91D3
330
F75
100
AcDbEntity
  8
Defpoints
 62
     0
100
AcDbPoint
 10
-830.7077407650286
 20
1997.722576174077
 30
-0.0000000000000335
  0
POINT
  5
91D4
330
F75
100
AcDbEntity
  8
Defpoints
 62
     0
100
AcDbPoint
 10
-830.7077407650286
 20
2162.989159447963
 30
-0.0000000000000335
  0
ENDBLK
  5
F80
330
F75
100
AcDbEntity
  8
0
100
AcDbBlockEnd
  0
BLOCK
  5
F9D
330
F93
100
AcDbEntity
  8
0
100
AcDbBlockBegin
  2
*D121
 70
     1
 10
0.0
 20
0.0
 30
0.0
  3
*D121
  1

  0
LINE
  5
91B1
330
F93
100
AcDbEntity
  8
cotas
100
AcDbLine
 10
-990.6846090621474
 20
2137.989159447962
 30
-0.0000000000000335
 11
-990.6846090621474
 21
2167.989159447962
 31
-0.0000000000000335
  0
LINE
  5
91B2
330
F93
100
AcDbEntity
  8
cotas
100
AcDbLine
 10
-1070.674568460825
 20
2002.722707177116
 30
-0.0000000000000335
 11
-1070.674568460825
 21
2167.989159447962
 31
-0.0000000000000335
  0
LINE
  5
91B3
330
F93
100
AcDbEntity
  8
cotas
100
AcDbLine
 10
-1000.684609062147
 20
2162.989159447962
 30
-0.0000000000000335
 11
-1060.674568460825
 21
2162.989159447962
 31
-0.0000000000000335
  0
SOLID
  5
91B4
330
F93
100
AcDbEntity
  8
cotas
100
AcDbTrace
 10
-1000.684609062147
 20
2164.655826114629
 30
-0.0000000000000335
 11
-1000.684609062147
 21
2161.322492781296
 31
-0.0000000000000335
 12
-990.6846090621474
 22
2162.989159447962
 32
-0.0000000000000335
 13
-990.6846090621474
 23
2162.989159447962
 33
-0.0000000000000335
  0
SOLID
  5
91B5
330
F93
100
AcDbEntity
  8
cotas
100
AcDbTrace
 10
-1060.674568460825
 20
2164.655826114629
 30
-0.0000000000000335
 11
-1060.674568460825
 21
2161.322492781296
 31
-0.0000000000000335
 12
-1070.674568460825
 22
2162.989159447962
 32
-0.0000000000000335
 13
-1070.674568460825
 23
2162.989159447962
 33
-0.0000000000000335
  0
MTEXT
  5
91B6
330
F93
100
AcDbEntity
  8
cotas
100
AcDbMText
 10
-1030.679588761486
 20
2173.217500616532
 30
-0.0000000000000335
 40
10.0
 41
0.0
 71
     5
 72
     1
  1
80
  7
SANINDUSA
 73
     1
 44
1.0
1001
ACAD
1000
MTEXTBEGIN
1070
    73
1070
     1
1070
    44
1040
1.0
1070
    74
1070
     0
1000
MTEXTEND
  0
POINT
  5
91B7
330
F93
100
AcDbEntity
  8
Defpoints
 62
     0
100
AcDbPoint
 10
-990.6846090621474
 20
2132.989159447962
 30
-0.0000000000000335
  0
POINT
  5
91B8
330
F93
100
AcDbEntity
  8
Defpoints
 62
     0
100
AcDbPoint
 10
-1070.674568460825
 20
1997.722707177116
 30
-0.0000000000000335
  0
POINT
  5
91B9
330
F93
100
AcDbEntity
  8
Defpoints
 62
     0
100
AcDbPoint
 10
-1070.674568460825
 20
2162.989159447962
 30
-0.0000000000000335
  0
ENDBLK
  5
F9E
330
F93
100
AcDbEntity
  8
0
100
AcDbBlockEnd
  0
BLOCK
  5
1036
330
102F
100
AcDbEntity
  8
0
100
AcDbBlockBegin
  2
*D122
 70
     1
 10
0.0
 20
0.0
 30
0.0
  3
*D122
  1

  0
LINE
  5
911B
330
102F
100
AcDbEntity
  8
cotas
100
AcDbLine
 10
-1881.221128454391
 20
1201.018847427254
 30
-0.0000000000000109
 11
-1855.927838646605
 21
1226.622999721298
 31
-0.0000000000000109
  0
MTEXT
  5
911C
330
102F
100
AcDbEntity
  8
cotas
100
AcDbMText
 10
-1879.276536431314
 20
1217.364768159627
 30
-0.0000000000000109
 40
10.0
 41
0.0
 71
     5
 72
     1
  1
R5
  7
SANINDUSA
 11
0.7027749304682374
 21
0.7114122553803555
 31
0.0
 73
     1
 44
1.0
1001
ACAD
1000
MTEXTBEGIN
1070
    73
1070
     1
1070
    44
1040
1.0
1070
    74
1070
     0
1000
MTEXTEND
  0
LINE
  5
911D
330
102F
100
AcDbEntity
  8
cotas
100
AcDbLine
 10
-1845.386214689583
 20
1237.294183552003
 30
-0.0000000000000109
 11
-1848.900089341923
 21
1233.737122275102
 31
-0.0000000000000109
  0
SOLID
  5
911E
330
102F
100
AcDbEntity
  8
cotas
100
AcDbTrace
 10
-1857.113525738906
 20
1227.794291272079
 30
-0.0000000000000109
 11
-1854.742151554305
 21
1225.451708170518
 31
-0.0000000000000109
 12
-1848.900089341923
 22
1233.737122275102
 32
-0.0000000000000109
 13
-1848.900089341923
 23
1233.737122275102
 33
-0.0000000000000109
  0
POINT
  5
911F
330
102F
100
AcDbEntity
  8
Defpoints
 62
     0
100
AcDbPoint
 10
-1848.900089341923
 20
1233.737122275102
 30
-0.0000000000000109
  0
POINT
  5
9120
330
102F
100
AcDbEntity
  8
Defpoints
 62
     0
100
AcDbPoint
 10
-1845.386214689583
 20
1237.294183552003
 30
-0.0000000000000109
  0
ENDBLK
  5
1037
330
102F
100
AcDbEntity
  8
0
100
AcDbBlockEnd
  0
BLOCK
  5
104A
330
1040
100
AcDbEntity
  8
0
100
AcDbBlockBegin
  2
*D123
 70
     1
 10
0.0
 20
0.0
 30
0.0
  3
*D123
  1

  0
LINE
  5
910A
330
1040
100
AcDbEntity
  8
cotas
100
AcDbLine
 10
-590.8498921181235
 20
2002.740074157806
 30
-0.0000000000000335
 11
-590.8498921181235
 21
2167.989159447963
 31
-0.0000000000000335
  0
LINE
  5
910B
330
1040
100
AcDbEntity
  8
cotas
100
AcDbLine
 10
-510.8765559452222
 20
2002.739937158658
 30
-0.0000000000000335
 11
-510.8765559452222
 21
2167.989159447963
 31
-0.0000000000000335
  0
LINE
  5
910C
330
1040
100
AcDbEntity
  8
cotas
100
AcDbLine
 10
-580.8498921181235
 20
2162.989159447963
 30
-0.0000000000000335
 11
-520.8765559452221
 21
2162.989159447963
 31
-0.0000000000000335
  0
SOLID
  5
910D
330
1040
100
AcDbEntity
  8
cotas
100
AcDbTrace
 10
-580.8498921181235
 20
2164.65582611463
 30
-0.0000000000000335
 11
-580.8498921181235
 21
2161.322492781297
 31
-0.0000000000000335
 12
-590.8498921181235
 22
2162.989159447963
 32
-0.0000000000000335
 13
-590.8498921181235
 23
2162.989159447963
 33
-0.0000000000000335
  0
SOLID
  5
910E
330
1040
100
AcDbEntity
  8
cotas
100
AcDbTrace
 10
-520.8765559452221
 20
2164.65582611463
 30
-0.0000000000000335
 11
-520.8765559452221
 21
2161.322492781297
 31
-0.0000000000000335
 12
-510.8765559452222
 22
2162.989159447963
 32
-0.0000000000000335
 13
-510.8765559452222
 23
2162.989159447963
 33
-0.0000000000000335
  0
MTEXT
  5
910F
330
1040
100
AcDbEntity
  8
cotas
100
AcDbMText
 10
-550.8632240316728
 20
2173.217500616533
 30
-0.0000000000000335
 40
10.0
 41
0.0
 71
     5
 72
     1
  1
80
  7
SANINDUSA
 73
     1
 44
1.0
1001
ACAD
1000
MTEXTBEGIN
1070
    73
1070
     1
1070
    44
1040
1.0
1070
    74
1070
     0
1000
MTEXTEND
  0
POINT
  5
9110
330
1040
100
AcDbEntity
  8
Defpoints
 62
     0
100
AcDbPoint
 10
-590.8498921181235
 20
1997.740074157806
 30
-0.0000000000000335
  0
POINT
  5
9111
330
1040
100
AcDbEntity
  8
Defpoints
 62
     0
100
AcDbPoint
 10
-510.8765559452222
 20
1997.739937158658
 30
-0.0000000000000335
  0
POINT
  5
9112
330
1040
100
AcDbEntity
  8
Defpoints
 62
     0
100
AcDbPoint
 10
-510.8765559452222
 20
2162.989159447963
 30
-0.0000000000000335
  0
ENDBLK
  5
104B
330
1040
100
AcDbEntity
  8
0
100
AcDbBlockEnd
  0
BLOCK
  5
1056
330
104C
100
AcDbEntity
  8
0
100
AcDbBlockBegin
  2
*D124
 70
     1
 10
0.0
 20
0.0
 30
0.0
  3
*D124
  1

  0
LINE
  5
9101
330
104C
100
AcDbEntity
  8
cotas
100
AcDbLine
 10
-330.4052770964463
 20
2137.989357567929
 30
-0.0000000000000109
 11
-330.4052770964463
 21
2167.992368519044
 31
-0.0000000000000109
  0
LINE
  5
9102
330
104C
100
AcDbEntity
  8
cotas
100
AcDbLine
 10
-150.3861823560446
 20
2132.315024199202
 30
-0.0000000000000109
 11
-150.3861823560446
 21
2167.992368519044
 31
-0.0000000000000109
  0
LINE
  5
9103
330
104C
100
AcDbEntity
  8
cotas
100
AcDbLine
 10
-320.4052770964463
 20
2162.992368519044
 30
-0.0000000000000109
 11
-160.3861823560446
 21
2162.992368519044
 31
-0.0000000000000109
  0
SOLID
  5
9104
330
104C
100
AcDbEntity
  8
cotas
100
AcDbTrace
 10
-320.4052770964463
 20
2164.65903518571
 30
-0.0000000000000109
 11
-320.4052770964463
 21
2161.325701852377
 31
-0.0000000000000109
 12
-330.4052770964463
 22
2162.992368519044
 32
-0.0000000000000109
 13
-330.4052770964463
 23
2162.992368519044
 33
-0.0000000000000109
  0
SOLID
  5
9105
330
104C
100
AcDbEntity
  8
cotas
100
AcDbTrace
 10
-160.3861823560446
 20
2164.65903518571
 30
-0.0000000000000109
 11
-160.3861823560446
 21
2161.325701852377
 31
-0.0000000000000109
 12
-150.3861823560446
 22
2162.992368519044
 32
-0.0000000000000109
 13
-150.3861823560446
 23
2162.992368519044
 33
-0.0000000000000109
  0
MTEXT
  5
9106
330
104C
100
AcDbEntity
  8
cotas
100
AcDbMText
 10
-240.3957297262455
 20
2173.220709687613
 30
-0.0000000000000109
 40
10.0
 41
0.0
 71
     5
 72
     1
  1
180
  7
SANINDUSA
 73
     1
 44
1.0
1001
ACAD
1000
MTEXTBEGIN
1070
    73
1070
     1
1070
    44
1040
1.0
1070
    74
1070
     0
1000
MTEXTEND
  0
POINT
  5
9107
330
104C
100
AcDbEntity
  8
Defpoints
 62
     0
100
AcDbPoint
 10
-330.4052770964463
 20
2132.989357567929
 30
-0.0000000000000532
  0
POINT
  5
9108
330
104C
100
AcDbEntity
  8
Defpoints
 62
     0
100
AcDbPoint
 10
-150.3861823560446
 20
2127.315024199202
 30
-0.0000000000000109
  0
POINT
  5
9109
330
104C
100
AcDbEntity
  8
Defpoints
 62
     0
100
AcDbPoint
 10
-150.3861823560446
 20
2162.992368519044
 30
-0.0000000000000109
  0
ENDBLK
  5
1057
330
104C
100
AcDbEntity
  8
0
100
AcDbBlockEnd
  0
BLOCK
  5
1062
330
1058
100
AcDbEntity
  8
0
100
AcDbBlockBegin
  2
*D125
 70
     1
 10
0.0
 20
0.0
 30
0.0
  3
*D125
  1

  0
LINE
  5
90F8
330
1058
100
AcDbEntity
  8
1
100
AcDbLine
 10
-1852.48243817935
 20
2134.375907906683
 30
-0.0000000000000109
 11
-1886.097357694994
 21
2134.375907906683
 31
-0.0000000000000109
  0
LINE
  5
90F9
330
1058
100
AcDbEntity
  8
1
100
AcDbLine
 10
-1857.481676711387
 20
2038.971084214063
 30
-0.0000000000000109
 11
-1886.097357694994
 21
2038.971084214063
 31
-0.0000000000000109
  0
LINE
  5
90FA
330
1058
100
AcDbEntity
  8
1
100
AcDbLine
 10
-1881.097357694994
 20
2124.375907906684
 30
-0.0000000000000109
 11
-1881.097357694994
 21
2048.971084214063
 31
-0.0000000000000109
  0
SOLID
  5
90FB
330
1058
100
AcDbEntity
  8
1
100
AcDbTrace
 10
-1882.76402436166
 20
2124.375907906684
 30
-0.0000000000000109
 11
-1879.430691028327
 21
2124.375907906684
 31
-0.0000000000000109
 12
-1881.097357694994
 22
2134.375907906683
 32
-0.0000000000000109
 13
-1881.097357694994
 23
2134.375907906683
 33
-0.0000000000000109
  0
SOLID
  5
90FC
330
1058
100
AcDbEntity
  8
1
100
AcDbTrace
 10
-1882.76402436166
 20
2048.971084214063
 30
-0.0000000000000109
 11
-1879.430691028327
 21
2048.971084214063
 31
-0.0000000000000109
 12
-1881.097357694994
 22
2038.971084214063
 32
-0.0000000000000109
 13
-1881.097357694994
 23
2038.971084214063
 33
-0.0000000000000109
  0
MTEXT
  5
90FD
330
1058
100
AcDbEntity
  8
1
100
AcDbMText
 10
-1892.44054103952
 20
2086.673496060373
 30
-0.0000000000000109
 40
10.0
 41
0.0
 71
     5
 72
     1
  1
95,4
  7
SANINDUSA
 11
0.0000000000000001
 21
1.0
 31
0.0
 73
     1
 44
1.0
1001
ACAD
1000
MTEXTBEGIN
1070
    73
1070
     1
1070
    44
1040
1.0
1070
    74
1070
     0
1000
MTEXTEND
  0
POINT
  5
90FE
330
1058
100
AcDbEntity
  8
Defpoints
 62
     0
100
AcDbPoint
 10
-1847.482438179351
 20
2134.375907906683
 30
0.0000000000002031
  0
POINT
  5
90FF
330
1058
100
AcDbEntity
  8
Defpoints
 62
     0
100
AcDbPoint
 10
-1852.481676711387
 20
2038.971084214063
 30
-0.0000000000077869
  0
POINT
  5
9100
330
1058
100
AcDbEntity
  8
Defpoints
 62
     0
100
AcDbPoint
 10
-1881.097357694994
 20
2038.971084214063
 30
-0.0000000000000109
  0
ENDBLK
  5
1063
330
1058
100
AcDbEntity
  8
0
100
AcDbBlockEnd
  0
ENDSEC
  0
SECTION
  2
ENTITIES
  0
LINE
  5
7AA
330
23
100
AcDbEntity
  8
SANINDUSA
100
AcDbLine
 10
2029.313527072739
 20
1742.362958059646
 30
0.0
 11
2029.316464046011
 21
1742.360901562945
 31
0.0
  0
LINE
  5
7AB
330
23
100
AcDbEntity
  8
SANINDUSA
100
AcDbLine
 10
2029.442204584255
 20
1742.360901562945
 30
0.0
 11
2029.44514151938
 21
1742.362958059646
 31
0.0
  0
LINE
  5
7AC
330
23
100
AcDbEntity
  8
SANINDUSA
100
AcDbLine
 10
2029.316464046011
 20
1742.360901562945
 30
0.0
 11
2029.32763854687
 21
1742.348918377873
 31
0.0
  0
LINE
  5
7AD
330
23
100
AcDbEntity
  8
SANINDUSA
100
AcDbLine
 10
2029.431030083395
 20
1742.348918377873
 30
0.0
 11
2029.442204584255
 21
1742.360901562945
 31
0.0
  0
LINE
  5
7B0
330
23
100
AcDbEntity
  8
SANINDUSA
100
AcDbLine
 10
2027.862238945865
 20
1742.362958059646
 30
0.0
 11
2029.556429709268
 21
1742.362958059646
 31
0.0
  0
LINE
  5
7B3
330
23
100
AcDbEntity
  8
SANINDUSA
100
AcDbLine
 10
2027.857239707333
 20
1742.362958059646
 30
0.0
 11
2027.859214262109
 21
1742.476080223809
 31
0.0
  0
LINE
  5
7B4
330
23
100
AcDbEntity
  8
SANINDUSA
100
AcDbLine
 10
2027.857239707333
 20
1742.362958059646
 30
0.0
 11
2027.862238945865
 21
1742.362958059646
 31
0.0
  0
LINE
  5
7B6
330
23
100
AcDbEntity
  8
SANINDUSA
100
AcDbLine
 10
2029.559454368157
 20
1742.476080223809
 30
0.0
 11
2029.561428870034
 21
1742.362958059646
 31
0.0
  0
LINE
  5
7B7
330
23
100
AcDbEntity
  8
SANINDUSA
100
AcDbLine
 10
2029.556429709268
 20
1742.362958059646
 30
0.0
 11
2029.561428870034
 21
1742.362958059646
 31
0.0
  0
LINE
  5
7B8
330
23
100
AcDbEntity
  8
SANINDUSA
100
AcDbLine
 10
2027.866213195917
 20
1742.482958056965
 30
0.0
 11
2029.552455390763
 21
1742.482958056965
 31
0.0
  0
ARC
  5
7BB
330
23
100
AcDbEntity
  8
SANINDUSA
100
AcDbCircle
 10
2027.866213195975
 20
1742.475958056964
 30
0.0
 40
0.0070000000000002
100
AcDbArc
 50
90.0
 51
179.0000000030781
  0
ARC
  5
7BC
330
23
100
AcDbEntity
  8
SANINDUSA
100
AcDbCircle
 10
2029.552455434291
 20
1742.475958056964
 30
0.0
 40
0.0070000000000002
100
AcDbArc
 50
0.9999999969218754
 51
90.0
  0
LINE
  5
7BE
330
23
100
AcDbEntity
  8
SANINDUSA
100
AcDbLine
 10
2029.32763854687
 20
1742.348918377873
 30
0.0
 11
2029.431030083395
 21
1742.348918377873
 31
0.0
  0
LINE
  5
7BF
330
23
100
AcDbEntity
  8
SANINDUSA
100
AcDbLine
 10
2027.204169009436
 20
1742.362965523273
 30
0.0
 11
2027.207105975556
 21
1742.360909026572
 31
0.0
  0
LINE
  5
7C0
330
23
100
AcDbEntity
  8
SANINDUSA
100
AcDbLine
 10
2027.332846513799
 20
1742.360909026572
 30
0.0
 11
2027.335783515681
 21
1742.362965523273
 31
0.0
  0
LINE
  5
7C1
330
23
100
AcDbEntity
  8
SANINDUSA
100
AcDbLine
 10
2027.207105975556
 20
1742.360909026572
 30
0.0
 11
2027.218280476415
 21
1742.3489258415
 31
0.0
  0
LINE
  5
7C2
330
23
100
AcDbEntity
  8
SANINDUSA
100
AcDbLine
 10
2027.32167201294
 20
1742.3489258415
 30
0.0
 11
2027.332846513799
 21
1742.360909026572
 31
0.0
  0
LINE
  5
7C5
330
23
100
AcDbEntity
  8
SANINDUSA
100
AcDbLine
 10
2026.817881636877
 20
1742.362965523273
 30
0.0
 11
2026.819856191653
 21
1742.476087687436
 31
0.0
  0
LINE
  5
7C6
330
23
100
AcDbEntity
  8
SANINDUSA
100
AcDbLine
 10
2026.817881636877
 20
1742.362965523273
 30
0.0
 11
2026.822880875409
 21
1742.362965523273
 31
0.0
  0
LINE
  5
7C8
330
23
100
AcDbEntity
  8
SANINDUSA
100
AcDbLine
 10
2027.720096297702
 20
1742.476087687436
 30
0.0
 11
2027.722070847262
 21
1742.362965523273
 31
0.0
  0
LINE
  5
7CA
330
23
100
AcDbEntity
  8
SANINDUSA
100
AcDbLine
 10
2027.717071626891
 20
1742.362965523273
 30
0.0
 11
2027.722070847262
 21
1742.362965523273
 31
0.0
  0
LINE
  5
7CC
330
23
100
AcDbEntity
  8
SANINDUSA
100
AcDbLine
 10
2026.822880875409
 20
1742.362965523273
 30
0.0
 11
2027.717071626891
 21
1742.362965523273
 31
0.0
  0
LINE
  5
7CE
330
23
100
AcDbEntity
  8
SANINDUSA
100
AcDbLine
 10
2026.826855125461
 20
1742.482965520591
 30
0.0
 11
2027.713097367991
 21
1742.482965520591
 31
0.0
  0
ARC
  5
7D0
330
23
100
AcDbEntity
  8
SANINDUSA
100
AcDbCircle
 10
2027.713097363835
 20
1742.475965520591
 30
0.0
 40
0.0070000000000002
100
AcDbArc
 50
0.9999999969218754
 51
90.0
  0
ARC
  5
7D1
330
23
100
AcDbEntity
  8
SANINDUSA
100
AcDbCircle
 10
2026.826855125519
 20
1742.475965520591
 30
0.0
 40
0.0070000000000002
100
AcDbArc
 50
90.0
 51
179.0000000030781
  0
LINE
  5
7D4
330
23
100
AcDbEntity
  8
SANINDUSA
100
AcDbLine
 10
2027.269976244677
 20
1742.3489258415
 30
0.0
 11
2027.32167201294
 21
1742.3489258415
 31
0.0
  0
LINE
  5
7D5
330
23
100
AcDbEntity
  8
SANINDUSA
100
AcDbLine
 10
2027.218280476415
 20
1742.3489258415
 30
0.0
 11
2027.269976244677
 21
1742.3489258415
 31
0.0
  0
LINE
  5
865
330
23
100
AcDbEntity
  8
SANINDUSA
100
AcDbLine
 10
2031.20003564051
 20
1742.370264071118
 30
0.0
 11
2031.21340667389
 21
1742.360901565291
 31
0.0
  0
LINE
  5
866
330
23
100
AcDbEntity
  8
SANINDUSA
100
AcDbLine
 10
2031.339147201997
 20
1742.360901565291
 30
0.0
 11
2031.35249594263
 21
1742.370248434857
 31
0.0
  0
ARC
  5
867
330
23
100
AcDbEntity
  8
SANINDUSA
100
AcDbCircle
 10
2031.199978282867
 20
1742.370182155913
 30
0.0
 40
0.0001000000031255
100
AcDbArc
 50
54.99999999392633
 51
88.82131576157398
  0
ARC
  5
868
330
23
100
AcDbEntity
  8
SANINDUSA
100
AcDbCircle
 10
2031.352553300273
 20
1742.370166519653
 30
0.0
 40
0.0001000000000029
100
AcDbArc
 50
90.9391883796526
 51
125.0000000060736
  0
LWPOLYLINE
  5
869
330
23
100
AcDbEntity
  8
SANINDUSA
100
AcDbPolyline
 90
        3
 70
   128
 43
0.0
 10
2031.200060597878
 20
1742.374181308784
 10
2031.201262108308
 20
1742.373970531859
 10
2031.202272645455
 20
1742.373458766379
  0
LWPOLYLINE
  5
86A
330
23
100
AcDbEntity
  8
SANINDUSA
100
AcDbPolyline
 90
       38
 70
   128
 43
0.0
 10
2031.200060597878
 20
1742.374181308784
 10
2031.200240365487
 20
1742.374179766514
 10
2031.20077680729
 20
1742.374175579287
 10
2031.201689950448
 20
1742.374169589021
 10
2031.202971092683
 20
1742.374163486995
 10
2031.204944125634
 20
1742.374157988467
 10
2031.207407585603
 20
1742.374154769816
 10
2031.210437766534
 20
1742.37415380124
 10
2031.213945499879
 20
1742.374154494144
 10
2031.217833034021
 20
1742.374156185426
 10
2031.222128502351
 20
1742.374158577063
 10
2031.226945749742
 20
1742.374161430635
 10
2031.232126823884
 20
1742.3741641948
 10
2031.237447849733
 20
1742.374166459777
 10
2031.243036262017
 20
1742.37416816596
 10
2031.24902605198
 20
1742.374169238843
 10
2031.255214563829
 20
1742.374169618823
 10
2031.261360279542
 20
1742.374169521966
 10
2031.267608515245
 20
1742.374169410207
 10
2031.274100057107
 20
1742.37416970823
 10
2031.280607453805
 20
1742.374170520343
 10
2031.286914102059
 20
1742.374171995558
 10
2031.293146840555
 20
1742.374174215831
 10
2031.299438468439
 20
1742.374177084305
 10
2031.305560103875
 20
1742.374180250801
 10
2031.311305634003
 20
1742.374183290638
 10
2031.316808573228
 20
1742.374186092057
 10
2031.322177521211
 20
1742.374188595452
 10
2031.327210537416
 20
1742.37419037614
 10
2031.331732264978
 20
1742.37419114355
 10
2031.335873595697
 20
1742.374190912582
 10
2031.339706055146
 20
1742.374189519324
 10
2031.343078962785
 20
1742.374186583795
 10
2031.345887533646
 20
1742.374181875028
 10
2031.348222486001
 20
1742.374175385572
 10
2031.350111237985
 20
1742.374166854657
 10
2031.351462356072
 20
1742.374160395004
 10
2031.352236978036
 20
1742.3741609836
  0
LWPOLYLINE
  5
86C
330
23
100
AcDbEntity
  8
SANINDUSA
100
AcDbPolyline
 90
        3
 70
   128
 43
0.0
 10
2031.350258938295
 20
1742.37344312761
 10
2031.351353398782
 20
1742.373982318677
 10
2031.352487794381
 20
1742.37416598294
  0
LWPOLYLINE
  5
86E
330
23
100
AcDbEntity
  8
SANINDUSA
100
AcDbPolyline
 90
        4
 70
   128
 43
0.0
 10
2031.199980370027
 20
1742.370282136835
 10
2031.077645293695
 20
1742.372844629921
 10
2030.878441564065
 20
1742.377017491497
 10
2030.425803832036
 20
1742.386498921551
  0
LWPOLYLINE
  5
86F
330
23
100
AcDbEntity
  8
SANINDUSA
100
AcDbPolyline
 90
        3
 70
   128
 43
0.0
 10
2031.371358863336
 20
1742.372808755376
 10
2031.362097493631
 20
1742.370987826027
 10
2031.35255169056
 20
1742.370266505517
  0
LINE
  5
870
330
23
100
AcDbEntity
  8
SANINDUSA
100
AcDbLine
 10
2031.202272645455
 20
1742.373458766379
 30
0.0
 11
2031.215979411759
 21
1742.363861143198
 31
0.0
  0
LINE
  5
871
330
23
100
AcDbEntity
  8
SANINDUSA
100
AcDbLine
 10
2031.336574502276
 20
1742.363861143198
 30
0.0
 11
2031.350258938295
 21
1742.37344312761
 31
0.0
  0
LWPOLYLINE
  5
873
330
23
100
AcDbEntity
  8
SANINDUSA
100
AcDbPolyline
 90
        3
 70
   128
 43
0.0
 10
2031.200060597878
 20
1742.374181308784
 10
2031.096334568482
 20
1742.376353980042
 10
2030.4258854904
 20
1742.390398071148
  0
LWPOLYLINE
  5
877
330
23
100
AcDbEntity
  8
SANINDUSA
100
AcDbPolyline
 90
        3
 70
   128
 43
0.0
 10
2031.370382539254
 20
1742.376584568061
 10
2031.361570469361
 20
1742.374852054753
 10
2031.352487794381
 20
1742.37416598294
  0
ARC
  5
8D4
330
23
100
AcDbEntity
  8
SANINDUSA
100
AcDbCircle
 10
2030.426245106284
 20
1742.407397891841
 30
0.0
 40
0.0170036239426727
100
AcDbArc
 50
181.2052928180115
 51
268.7881401733786
  0
LINE
  5
8D5
330
23
100
AcDbEntity
  8
SANINDUSA
100
AcDbLine
 10
2031.456397010041
 20
1742.476080223809
 30
0.0
 11
2031.458371511918
 21
1742.362958059646
 31
0.0
  0
LINE
  5
8D6
330
23
100
AcDbEntity
  8
SANINDUSA
100
AcDbLine
 10
2031.458371511918
 20
1742.362958059646
 30
0.0
 11
2031.454470983964
 21
1742.362958059646
 31
0.0
  0
LINE
  5
8D7
330
23
100
AcDbEntity
  8
SANINDUSA
100
AcDbLine
 10
2031.45249760403
 20
1742.476012159424
 30
0.0
 11
2031.454470983964
 21
1742.362958059646
 31
0.0
  0
ARC
  5
8D8
330
23
100
AcDbEntity
  8
SANINDUSA
100
AcDbCircle
 10
2031.449398076175
 20
1742.475958056964
 30
0.0
 40
0.0031000000000004
100
AcDbArc
 50
0.9999999969218754
 51
90.0
  0
LINE
  5
8D9
330
23
100
AcDbEntity
  8
SANINDUSA
100
AcDbLine
 10
2031.39303677363
 20
1742.479058056964
 30
0.0
 11
2031.449398076175
 21
1742.479058056964
 31
0.0
  0
ARC
  5
8DA
330
23
100
AcDbEntity
  8
SANINDUSA
100
AcDbCircle
 10
2031.39303677363
 20
1742.475958056964
 30
0.0
 40
0.0031000000000001
100
AcDbArc
 50
90.0
 51
177.9999999962464
  0
LINE
  5
8DB
330
23
100
AcDbEntity
  8
SANINDUSA
100
AcDbLine
 10
2031.387013904077
 20
1742.392313838937
 30
0.0
 11
2031.389938662067
 21
1742.476066245404
 31
0.0
  0
ARC
  5
8DC
330
23
100
AcDbEntity
  8
SANINDUSA
100
AcDbCircle
 10
2031.366126716086
 20
1742.393043160923
 30
0.0
 40
0.0208999170499516
100
AcDbArc
 50
284.4978081452402
 51
358.000204640348
  0
LINE
  5
8DD
330
23
100
AcDbEntity
  8
SANINDUSA
100
AcDbLine
 10
2031.327972761613
 20
1742.348918371834
 30
0.0
 11
2031.339147201997
 21
1742.360901565291
 31
0.0
  0
LINE
  5
8DE
330
23
100
AcDbEntity
  8
SANINDUSA
100
AcDbLine
 10
2031.224581233483
 20
1742.348918371834
 30
0.0
 11
2031.327972761613
 21
1742.348918371834
 31
0.0
  0
LINE
  5
8DF
330
23
100
AcDbEntity
  8
SANINDUSA
100
AcDbLine
 10
2031.21340667389
 20
1742.360901565291
 30
0.0
 11
2031.224581233483
 21
1742.348918371834
 31
0.0
  0
ARC
  5
8E0
330
23
100
AcDbEntity
  8
SANINDUSA
100
AcDbCircle
 10
2030.426245945246
 20
1742.407398729261
 30
0.0
 40
0.0209044834042725
100
AcDbArc
 50
181.2053404963779
 51
268.7881494510538
  0
ARC
  5
8E1
330
23
100
AcDbEntity
  8
SANINDUSA
100
AcDbCircle
 10
2030.402246741708
 20
1742.406894393027
 30
0.0
 40
0.0031000188406256
100
AcDbArc
 50
1.194006829855153
 51
89.00033209992677
  0
LINE
  5
8E2
330
23
100
AcDbEntity
  8
SANINDUSA
100
AcDbLine
 10
2030.402300826532
 20
1742.409993940033
 30
0.0
 11
2029.864857068832
 21
1742.419375057174
 31
0.0
  0
ARC
  5
8E3
330
23
100
AcDbEntity
  8
SANINDUSA
100
AcDbCircle
 10
2029.864802966372
 20
1742.416275529319
 30
0.0
 40
0.0030999999999999
100
AcDbArc
 50
89.00000000307812
 51
154.6842608275599
  0
ARC
  5
8E4
330
23
100
AcDbEntity
  8
SANINDUSA
100
AcDbCircle
 10
2029.849435559329
 20
1742.423544834703
 30
0.0
 40
0.0139000000000001
100
AcDbArc
 50
269.0000000030781
 51
334.6842608275599
  0
LINE
  5
8E5
330
23
100
AcDbEntity
  8
SANINDUSA
100
AcDbLine
 10
2029.84919297088
 20
1742.40964695174
 30
0.0
 11
2029.844750203197
 21
1742.409724500538
 31
0.0
  0
ARC
  5
8E6
330
23
100
AcDbEntity
  8
SANINDUSA
100
AcDbCircle
 10
2029.845114958491
 20
1742.430621317367
 30
0.0
 40
0.0208999999999999
100
AcDbArc
 50
182.0000000037536
 51
269.0000000030781
  0
LINE
  5
8E7
330
23
100
AcDbEntity
  8
SANINDUSA
100
AcDbLine
 10
2029.822615247159
 20
1742.476066245404
 30
0.0
 11
2029.824227690207
 21
1742.429891917886
 31
0.0
  0
ARC
  5
8E8
330
23
100
AcDbEntity
  8
SANINDUSA
100
AcDbCircle
 10
2029.819517135595
 20
1742.475958056964
 30
0.0
 40
0.0031000000000001
100
AcDbArc
 50
2.000000003753602
 51
90.0
  0
LINE
  5
8E9
330
23
100
AcDbEntity
  8
SANINDUSA
100
AcDbLine
 10
2029.763155837859
 20
1742.479058056964
 30
0.0
 11
2029.819517135595
 21
1742.479058056964
 31
0.0
  0
ARC
  5
8EA
330
23
100
AcDbEntity
  8
SANINDUSA
100
AcDbCircle
 10
2029.763155837859
 20
1742.475958056964
 30
0.0
 40
0.0030999999999999
100
AcDbArc
 50
90.0
 51
179.0000000030781
  0
LINE
  5
8EB
330
23
100
AcDbEntity
  8
SANINDUSA
100
AcDbLine
 10
2029.758082943295
 20
1742.362958059646
 30
0.0
 11
2029.760056310004
 21
1742.476012159424
 31
0.0
  0
LINE
  5
8EC
330
23
100
AcDbEntity
  8
SANINDUSA
100
AcDbLine
 10
2029.758082943295
 20
1742.362958059646
 30
0.0
 11
2029.754182349217
 21
1742.362958059646
 31
0.0
  0
LINE
  5
8ED
330
23
100
AcDbEntity
  8
SANINDUSA
100
AcDbLine
 10
2029.754182349217
 20
1742.362958059646
 30
0.0
 11
2029.756156903993
 21
1742.476080223809
 31
0.0
  0
ARC
  5
8EE
330
23
100
AcDbEntity
  8
SANINDUSA
100
AcDbCircle
 10
2029.763155837859
 20
1742.475958056964
 30
0.0
 40
0.0069999999999999
100
AcDbArc
 50
90.0
 51
179.0000000030781
  0
LINE
  5
8EF
330
23
100
AcDbEntity
  8
SANINDUSA
100
AcDbLine
 10
2029.763155837859
 20
1742.482958056965
 30
0.0
 11
2029.819517135595
 21
1742.482958056965
 31
0.0
  0
ARC
  5
8F0
330
23
100
AcDbEntity
  8
SANINDUSA
100
AcDbCircle
 10
2029.819517135595
 20
1742.475958056964
 30
0.0
 40
0.0069999999999999
100
AcDbArc
 50
2.000000003753602
 51
90.0
  0
LINE
  5
8F1
330
23
100
AcDbEntity
  8
SANINDUSA
100
AcDbLine
 10
2029.826512871384
 20
1742.476202353441
 30
0.0
 11
2029.828125314432
 21
1742.430028025923
 31
0.0
  0
ARC
  5
8F2
330
23
100
AcDbEntity
  8
SANINDUSA
100
AcDbCircle
 10
2029.845114958491
 20
1742.430621317367
 30
0.0
 40
0.017
100
AcDbArc
 50
182.0000000037536
 51
269.0000000030781
  0
LINE
  5
8F3
330
23
100
AcDbEntity
  8
SANINDUSA
100
AcDbLine
 10
2029.849261035264
 20
1742.413546357751
 30
0.0
 11
2029.844818267582
 21
1742.413623906549
 31
0.0
  0
ARC
  5
8F4
330
23
100
AcDbEntity
  8
SANINDUSA
100
AcDbCircle
 10
2029.849435559329
 20
1742.423544834703
 30
0.0
 40
0.0100000000000001
100
AcDbArc
 50
269.0000000030781
 51
334.6842608275599
  0
ARC
  5
8F5
330
23
100
AcDbEntity
  8
SANINDUSA
100
AcDbCircle
 10
2029.864802966372
 20
1742.416275529319
 30
0.0
 40
0.007
100
AcDbArc
 50
89.00000000307812
 51
154.6842608275599
  0
LINE
  5
8F6
330
23
100
AcDbEntity
  8
SANINDUSA
100
AcDbLine
 10
2030.402368895036
 20
1742.4138933504
 30
0.0
 11
2029.864925133217
 21
1742.423274463185
 31
0.0
  0
ARC
  5
8F7
330
23
100
AcDbEntity
  8
SANINDUSA
100
AcDbCircle
 10
2030.402246690219
 20
1742.406894342664
 30
0.0
 40
0.0070000745209657
100
AcDbArc
 50
1.194132077788571
 51
88.99969980259605
  0
LINE
  5
8F8
330
23
100
AcDbEntity
  8
SANINDUSA
100
AcDbLine
 10
2031.215979411759
 20
1742.363861143198
 30
0.0
 11
2031.226276985627
 21
1742.352818378248
 31
0.0
  0
LINE
  5
8F9
330
23
100
AcDbEntity
  8
SANINDUSA
100
AcDbLine
 10
2031.226276985627
 20
1742.352818378248
 30
0.0
 11
2031.326277009469
 21
1742.352818378248
 31
0.0
  0
LINE
  5
8FA
330
23
100
AcDbEntity
  8
SANINDUSA
100
AcDbLine
 10
2031.326277009469
 20
1742.352818378248
 30
0.0
 11
2031.336574502276
 21
1742.363861143198
 31
0.0
  0
ARC
  5
8FB
330
23
100
AcDbEntity
  8
SANINDUSA
100
AcDbCircle
 10
2031.366126582443
 20
1742.393043346042
 30
0.0
 40
0.0170001335585087
100
AcDbArc
 50
284.4981316560682
 51
357.9996499670527
  0
LINE
  5
8FC
330
23
100
AcDbEntity
  8
SANINDUSA
100
AcDbLine
 10
2031.383116356355
 20
1742.392449946143
 30
0.0
 11
2031.386041037841
 21
1742.476202353441
 31
0.0
  0
ARC
  5
8FD
330
23
100
AcDbEntity
  8
SANINDUSA
100
AcDbCircle
 10
2031.39303677363
 20
1742.475958056964
 30
0.0
 40
0.007
100
AcDbArc
 50
90.0
 51
177.9999999962464
  0
LINE
  5
8FE
330
23
100
AcDbEntity
  8
SANINDUSA
100
AcDbLine
 10
2031.39303677363
 20
1742.482958056965
 30
0.0
 11
2031.449398076175
 21
1742.482958056965
 31
0.0
  0
ARC
  5
8FF
330
23
100
AcDbEntity
  8
SANINDUSA
100
AcDbCircle
 10
2031.449398076175
 20
1742.475958056964
 30
0.0
 40
0.0069999999999999
100
AcDbArc
 50
0.9999999969218754
 51
90.0
  0
LINE
  5
95E
330
23
100
AcDbEntity
  8
SANINDUSA
100
AcDbLine
 10
2031.366053221301
 20
1742.482958056965
 30
0.0
 11
2031.39303677363
 21
1742.482958056965
 31
0.0
  0
LINE
  5
960
330
23
100
AcDbEntity
  8
SANINDUSA
100
AcDbLine
 10
2029.819517135595
 20
1742.482958056965
 30
0.0
 11
2029.846500687925
 21
1742.482958056965
 31
0.0
  0
LINE
  5
961
330
23
100
AcDbEntity
  8
SANINDUSA
100
AcDbLine
 10
2029.846500687925
 20
1742.482958056965
 30
0.0
 11
2031.366053221301
 21
1742.482958056965
 31
0.0
  0
LINE
  5
967
330
23
100
AcDbEntity
  8
SANINDUSA
100
AcDbLine
 10
2029.759182775884
 20
1742.362958059646
 30
0.0
 11
2029.758082943295
 21
1742.362958059646
 31
0.0
  0
LINE
  5
969
330
23
100
AcDbEntity
  8
SANINDUSA
100
AcDbLine
 10
2031.454470983964
 20
1742.362958059646
 30
0.0
 11
2031.453371159059
 21
1742.362958059646
 31
0.0
  0
LINE
  5
96A
330
23
100
AcDbEntity
  8
SANINDUSA
100
AcDbLine
 10
2031.453371159059
 20
1742.362958059646
 30
0.0
 11
2031.342084161264
 21
1742.362958059646
 31
0.0
  0
LINE
  5
96B
330
23
100
AcDbEntity
  8
SANINDUSA
100
AcDbLine
 10
2031.210469714624
 20
1742.362958059646
 30
0.0
 11
2029.759182775884
 21
1742.362958059646
 31
0.0
  0
LINE
  5
A27
330
23
100
AcDbEntity
  8
SANINDUSA
100
AcDbLine
 10
2024.835117929825
 20
1742.872888471724
 30
0.0
 11
2026.525359558922
 21
1742.872888471724
 31
0.0
  0
ARC
  5
A2C
330
23
100
AcDbEntity
  8
SANINDUSA
100
AcDbCircle
 10
2026.525357775091
 20
1742.867887449418
 30
0.0
 40
0.0050010226247745
100
AcDbArc
 50
0.0204370116787323
 51
89.97956298832127
  0
ARC
  5
A2E
330
23
100
AcDbEntity
  8
SANINDUSA
100
AcDbCircle
 10
2024.835119713656
 20
1742.867887449418
 30
0.0
 40
0.0050010226247748
100
AcDbArc
 50
90.02043701167874
 51
179.9795629883212
  0
LINE
  5
A2F
330
23
100
AcDbEntity
  8
SANINDUSA
100
AcDbLine
 10
2026.530358797398
 20
1742.867889233249
 30
0.0
 11
2026.530358797398
 21
1741.977647604151
 31
0.0
  0
LINE
  5
A34
330
23
100
AcDbEntity
  8
SANINDUSA
100
AcDbLine
 10
2024.830118691349
 20
1741.977647604151
 30
0.0
 11
2024.830118691349
 21
1742.867889233249
 31
0.0
  0
ELLIPSE
  5
A3F
330
23
100
AcDbEntity
  8
SANINDUSA
100
AcDbEllipse
 10
2026.439982103291
 20
1742.782511782428
 30
0.0
 11
0.0141714282369867
 21
0.0141714282369864
 31
0.0
210
0.0
220
0.0
230
1.0
 40
0.9979329808706911
 41
5.498396131367774
 42
7.067974482991453
  0
ELLIPSE
  5
A42
330
23
100
AcDbEntity
  8
SANINDUSA
100
AcDbEllipse
 10
2024.920495380648
 20
1742.782511782428
 30
0.0
 11
0.0141714282369864
 21
-0.0141714282369866
 31
0.0
210
0.0
220
0.0
230
1.0
 40
0.9979329808706758
 41
2.356803477777961
 42
3.926381829401641
  0
LINE
  5
A44
330
23
100
AcDbEntity
  8
SANINDUSA
100
AcDbLine
 10
2026.440015008657
 20
1742.802532504335
 30
0.0
 11
2024.920462475281
 21
1742.802532504335
 31
0.0
  0
LINE
  5
A45
330
23
100
AcDbEntity
  8
SANINDUSA
100
AcDbLine
 10
2024.900474658741
 20
1742.782544687794
 30
0.0
 11
2024.900474658741
 21
1742.062992149606
 31
0.0
  0
LINE
  5
A48
330
23
100
AcDbEntity
  8
SANINDUSA
100
AcDbLine
 10
2026.460002825198
 20
1742.062992149608
 30
0.0
 11
2026.460002825198
 21
1742.782544687794
 31
0.0
  0
ELLIPSE
  5
A49
330
23
100
AcDbEntity
  8
SANINDUSA
100
AcDbEllipse
 10
2024.920495380648
 20
1742.063025054972
 30
0.0
 11
0.0141714282369748
 21
0.0141714282369981
 31
0.0
210
0.0
220
0.0
230
1.0
 40
0.9979329808706985
 41
2.356803477777122
 42
3.926381829402354
  0
ELLIPSE
  5
A4C
330
23
100
AcDbEntity
  8
SANINDUSA
100
AcDbEllipse
 10
2026.439982103291
 20
1742.063025054975
 30
0.0
 11
0.0141714282369975
 21
-0.0141714282369756
 31
0.0
210
0.0
220
0.0
230
1.0
 40
0.9979329808706888
 41
5.498396131368544
 42
7.067974482990662
  0
LINE
  5
A4D
330
23
100
AcDbEntity
  8
SANINDUSA
100
AcDbLine
 10
2024.920462475281
 20
1742.043004333066
 30
0.0
 11
2026.440015008657
 21
1742.043004333068
 31
0.0
  0
ARC
  5
A4F
330
23
100
AcDbEntity
  8
SANINDUSA
100
AcDbCircle
 10
2026.525357775091
 20
1741.977649387982
 30
0.0
 40
0.0050010226247753
100
AcDbArc
 50
270.0204370116787
 51
359.9795629883213
  0
LINE
  5
A50
330
23
100
AcDbEntity
  8
SANINDUSA
100
AcDbLine
 10
2026.525359558922
 20
1741.972648365676
 30
0.0
 11
2024.835117929825
 21
1741.972648365676
 31
0.0
  0
ARC
  5
A52
330
23
100
AcDbEntity
  8
SANINDUSA
100
AcDbCircle
 10
2024.835119713656
 20
1741.977649387982
 30
0.0
 40
0.0050010226247746
100
AcDbArc
 50
180.0204370116787
 51
269.9795629883212
  0
ARC
  5
A88
330
23
100
AcDbEntity
  8
SANINDUSA
100
AcDbCircle
 10
2024.943324767768
 20
1742.090562929465
 30
0.0
 40
0.0108877701390786
100
AcDbArc
 50
179.9875034900254
 51
269.9877384549587
  0
ARC
  5
A8B
330
23
100
AcDbEntity
  8
SANINDUSA
100
AcDbCircle
 10
2024.943324813351
 20
1742.754973862371
 30
0.0
 40
0.0108878157128447
100
AcDbArc
 50
90.01250136925134
 51
180.0122566857646
  0
LINE
  5
A8E
330
23
100
AcDbEntity
  8
SANINDUSA
100
AcDbLine
 10
2024.932436997888
 20
1742.090565304144
 30
0.0
 11
2024.932436997888
 21
1742.754971533256
 31
0.0
  0
LINE
  5
A93
330
23
100
AcDbEntity
  8
SANINDUSA
100
AcDbLine
 10
2024.943322437739
 20
1742.765861677825
 30
0.0
 11
2025.460332690418
 21
1742.765861677825
 31
0.0
  0
LINE
  5
A95
330
23
100
AcDbEntity
  8
SANINDUSA
100
AcDbLine
 10
2025.460320736909
 20
1742.079675159575
 30
0.0
 11
2024.943322437739
 21
1742.079675159575
 31
0.0
  0
LWPOLYLINE
  5
AA4
330
23
100
AcDbEntity
  8
SANINDUSA
100
AcDbPolyline
 90
        3
 70
   128
 43
0.0
 10
2025.472308340854
 20
1742.080064261009
 10
2025.466352916903
 20
1742.079786132682
 10
2025.460320736909
 20
1742.079675159575
  0
LWPOLYLINE
  5
AA5
330
23
100
AcDbEntity
  8
SANINDUSA
100
AcDbPolyline
 90
        9
 70
   128
 43
0.0
 10
2025.483398660515
 20
1742.755010185919
 10
2025.483422198625
 20
1742.714535442482
 10
2025.483362033847
 20
1742.618536523242
 10
2025.483246484605
 20
1742.522537456496
 10
2025.483207097559
 20
1742.426539657777
 10
2025.483237814722
 20
1742.33053978288
 10
2025.483346419902
 20
1742.234536765019
 10
2025.483418120039
 20
1742.138532794464
 10
2025.483395949477
 20
1742.090524934576
  0
LWPOLYLINE
  5
AA8
330
23
100
AcDbEntity
  8
SANINDUSA
100
AcDbPolyline
 90
        3
 70
   128
 43
0.0
 10
2025.460332690418
 20
1742.765861677825
 10
2025.46939846043
 20
1742.765622969937
 10
2025.472308497469
 20
1742.765473213415
  0
ARC
  5
AAA
330
23
100
AcDbEntity
  8
SANINDUSA
100
AcDbCircle
 10
2025.473203546587
 20
1742.755006299151
 30
0.0
 40
0.0101951146686321
100
AcDbArc
 50
0.0218433490387231
 51
73.08829094273548
  0
ARC
  5
AAB
330
23
100
AcDbEntity
  8
SANINDUSA
100
AcDbCircle
 10
2025.473203855654
 20
1742.090528464966
 30
0.0
 40
0.0101920944339797
100
AcDbArc
 50
286.9201664111229
 51
359.9801535924269
  0
LINE
  5
AAD
330
23
100
AcDbEntity
  8
SANINDUSA
100
AcDbLine
 10
2025.474579730571
 20
1742.080351081993
 30
0.0
 11
2025.472308340854
 21
1742.080064261009
 31
0.0
  0
LINE
  5
AAE
330
23
100
AcDbEntity
  8
SANINDUSA
100
AcDbLine
 10
2025.472308497469
 20
1742.765473213415
 30
0.0
 11
2025.474572627252
 21
1742.76518803874
 31
0.0
  0
LINE
  5
AAF
330
23
100
AcDbEntity
  8
SANINDUSA
100
AcDbLine
 10
2025.474572627252
 20
1742.76518803874
 30
0.0
 11
2025.476169282235
 21
1742.764760517478
 31
0.0
  0
LINE
  5
AB0
330
23
100
AcDbEntity
  8
SANINDUSA
100
AcDbLine
 10
2025.476170152071
 20
1742.080777574006
 30
0.0
 11
2025.474579730571
 21
1742.080351081993
 31
0.0
  0
CIRCLE
  5
AD0
330
23
100
AcDbEntity
  8
SANINDUSA
100
AcDbCircle
 10
2025.609919195579
 20
1742.702764557815
 30
0.0
 40
0.010748078335469
  0
CIRCLE
  5
AD2
330
23
100
AcDbEntity
  8
SANINDUSA
100
AcDbCircle
 10
2025.609918405417
 20
1742.142770939177
 30
0.0
 40
0.0107478442412297
  0
CIRCLE
  5
AD4
330
23
100
AcDbEntity
  8
SANINDUSA
100
AcDbCircle
 10
2025.609910815381
 20
1742.622792326824
 30
0.0
 40
0.0107479098696029
  0
CIRCLE
  5
AD6
330
23
100
AcDbEntity
  8
SANINDUSA
100
AcDbCircle
 10
2025.60990839844
 20
1742.222743799876
 30
0.0
 40
0.010748857067711
  0
CIRCLE
  5
AD8
330
23
100
AcDbEntity
  8
SANINDUSA
100
AcDbCircle
 10
2025.689910995618
 20
1742.70276157912
 30
0.0
 40
0.0107478117118693
  0
CIRCLE
  5
ADA
330
23
100
AcDbEntity
  8
SANINDUSA
100
AcDbCircle
 10
2025.689910282261
 20
1742.142773786623
 30
0.0
 40
0.0107474645197332
  0
CIRCLE
  5
ADE
330
23
100
AcDbEntity
  8
SANINDUSA
100
AcDbCircle
 10
2025.689904122123
 20
1742.622793969339
 30
0.0
 40
0.0107474173452161
  0
CIRCLE
  5
AE0
330
23
100
AcDbEntity
  8
SANINDUSA
100
AcDbCircle
 10
2025.689901599996
 20
1742.22274192593
 30
0.0
 40
0.0107483627442878
  0
CIRCLE
  5
B21
330
23
100
AcDbEntity
  8
SANINDUSA
100
AcDbCircle
 10
2025.609878729407
 20
1742.542805250372
 30
0.0
 40
0.010749327233111
  0
CIRCLE
  5
B23
330
23
100
AcDbEntity
  8
SANINDUSA
100
AcDbCircle
 10
2025.609875727127
 20
1742.302732480803
 30
0.0
 40
0.010750977270129
  0
CIRCLE
  5
B25
330
23
100
AcDbEntity
  8
SANINDUSA
100
AcDbCircle
 10
2025.769900276529
 20
1742.702758730647
 30
0.0
 40
0.0107475947840562
  0
CIRCLE
  5
B27
330
23
100
AcDbEntity
  8
SANINDUSA
100
AcDbCircle
 10
2025.769899658357
 20
1742.142776648591
 30
0.0
 40
0.0107471726816886
  0
CIRCLE
  5
B29
330
23
100
AcDbEntity
  8
SANINDUSA
100
AcDbCircle
 10
2025.769895522381
 20
1742.622794416
 30
0.0
 40
0.0107469170664786
  0
CIRCLE
  5
B2B
330
23
100
AcDbEntity
  8
SANINDUSA
100
AcDbCircle
 10
2025.769893038894
 20
1742.222741312921
 30
0.0
 40
0.010747784041664
  0
CIRCLE
  5
B2D
330
23
100
AcDbEntity
  8
SANINDUSA
100
AcDbCircle
 10
2025.689868709282
 20
1742.542811694617
 30
0.0
 40
0.0107489909333018
  0
CIRCLE
  5
B2F
330
23
100
AcDbEntity
  8
SANINDUSA
100
AcDbCircle
 10
2025.689865321905
 20
1742.302725952521
 30
0.0
 40
0.0107508708130146
  0
CIRCLE
  5
B31
330
23
100
AcDbEntity
  8
SANINDUSA
100
AcDbCircle
 10
2025.609845995143
 20
1742.462788079561
 30
0.0
 40
0.0107519864243563
  0
CIRCLE
  5
B33
330
23
100
AcDbEntity
  8
SANINDUSA
100
AcDbCircle
 10
2025.609844523001
 20
1742.382751495247
 30
0.0
 40
0.0107528998923702
  0
CIRCLE
  5
B35
330
23
100
AcDbEntity
  8
SANINDUSA
100
AcDbCircle
 10
2025.849885038194
 20
1742.702756995402
 30
0.0
 40
0.0107474945161695
  0
CIRCLE
  5
B37
330
23
100
AcDbEntity
  8
SANINDUSA
100
AcDbCircle
 10
2025.849884491453
 20
1742.142778608942
 30
0.0
 40
0.0107470928370665
  0
CIRCLE
  5
B39
330
23
100
AcDbEntity
  8
SANINDUSA
100
AcDbCircle
 10
2025.849882632215
 20
1742.622793127415
 30
0.0
 40
0.0107464984621073
  0
CIRCLE
  5
B3B
330
23
100
AcDbEntity
  8
SANINDUSA
100
AcDbCircle
 10
2025.84988038272
 20
1742.222742569659
 30
0.0
 40
0.010747191223274
  0
CIRCLE
  5
B3D
330
23
100
AcDbEntity
  8
SANINDUSA
100
AcDbCircle
 10
2025.76985847185
 20
1742.542817609893
 30
0.0
 40
0.0107485354315965
  0
CIRCLE
  5
B3F
330
23
100
AcDbEntity
  8
SANINDUSA
100
AcDbCircle
 10
2025.769854808872
 20
1742.302719900863
 30
0.0
 40
0.0107505709649175
  0
CIRCLE
  5
B41
330
23
100
AcDbEntity
  8
SANINDUSA
100
AcDbCircle
 10
2025.689829580095
 20
1742.462792621854
 30
0.0
 40
0.0107524439951968
  0
CIRCLE
  5
B43
330
23
100
AcDbEntity
  8
SANINDUSA
100
AcDbCircle
 10
2025.689827817545
 20
1742.382747347638
 30
0.0
 40
0.0107535663564286
  0
CIRCLE
  5
B45
330
23
100
AcDbEntity
  8
SANINDUSA
100
AcDbCircle
 10
2025.929863238905
 20
1742.702757739949
 30
0.0
 40
0.0107475822072366
  0
CIRCLE
  5
B47
330
23
100
AcDbEntity
  8
SANINDUSA
100
AcDbCircle
 10
2025.929862680032
 20
1742.142778357609
 30
0.0
 40
0.010747361116989
  0
CIRCLE
  5
B49
330
23
100
AcDbEntity
  8
SANINDUSA
100
AcDbCircle
 10
2025.929862554793
 20
1742.622789707416
 30
0.0
 40
0.0107462939841581
  0
CIRCLE
  5
B4B
330
23
100
AcDbEntity
  8
SANINDUSA
100
AcDbCircle
 10
2025.929860766479
 20
1742.222746190374
 30
0.0
 40
0.0107467124647265
  0
CIRCLE
  5
B4D
330
23
100
AcDbEntity
  8
SANINDUSA
100
AcDbCircle
 10
2025.84984673407
 20
1742.542821783923
 30
0.0
 40
0.0107479746548437
  0
CIRCLE
  5
B4F
330
23
100
AcDbEntity
  8
SANINDUSA
100
AcDbCircle
 10
2025.849843001572
 20
1742.302715541571
 30
0.0
 40
0.0107500270021192
  0
CIRCLE
  5
B51
330
23
100
AcDbEntity
  8
SANINDUSA
100
AcDbCircle
 10
2025.769813224107
 20
1742.462797565956
 30
0.0
 40
0.0107529176094266
  0
CIRCLE
  5
B53
330
23
100
AcDbEntity
  8
SANINDUSA
100
AcDbCircle
 10
2025.769811162528
 20
1742.382742799389
 30
0.0
 40
0.0107542598261025
  0
CIRCLE
  5
B55
330
23
100
AcDbEntity
  8
SANINDUSA
100
AcDbCircle
 10
2026.009833564704
 20
1742.702762659821
 30
0.0
 40
0.0107479310558731
  0
CIRCLE
  5
B57
330
23
100
AcDbEntity
  8
SANINDUSA
100
AcDbCircle
 10
2026.009832812598
 20
1742.142774189971
 30
0.0
 40
0.0107481402218671
  0
CIRCLE
  5
B59
330
23
100
AcDbEntity
  8
SANINDUSA
100
AcDbCircle
 10
2025.929831631434
 20
1742.542822782723
 30
0.0
 40
0.01074733483324
  0
CIRCLE
  5
B5B
330
23
100
AcDbEntity
  8
SANINDUSA
100
AcDbCircle
 10
2026.009832786266
 20
1742.622784324421
 30
0.0
 40
0.0107464637281192
  0
CIRCLE
  5
B5D
330
23
100
AcDbEntity
  8
SANINDUSA
100
AcDbCircle
 10
2026.009831652793
 20
1742.222752068331
 30
0.0
 40
0.0107465589974131
  0
CIRCLE
  5
B5F
330
23
100
AcDbEntity
  8
SANINDUSA
100
AcDbCircle
 10
2025.929828141137
 20
1742.302714316275
 30
0.0
 40
0.0107492070533009
  0
CIRCLE
  5
B61
330
23
100
AcDbEntity
  8
SANINDUSA
100
AcDbCircle
 10
2025.849796832601
 20
1742.462802586395
 30
0.0
 40
0.0107533459205027
  0
CIRCLE
  5
B63
330
23
100
AcDbEntity
  8
SANINDUSA
100
AcDbCircle
 10
2025.849794485094
 20
1742.382738139973
 30
0.0
 40
0.0107549045620849
  0
CIRCLE
  5
B65
330
23
100
AcDbEntity
  8
SANINDUSA
100
AcDbCircle
 10
2026.009810716339
 20
1742.542818967447
 30
0.0
 40
0.0107467253427318
  0
CIRCLE
  5
B67
330
23
100
AcDbEntity
  8
SANINDUSA
100
AcDbCircle
 10
2026.00980789172
 20
1742.302717938735
 30
0.0
 40
0.0107481622027032
  0
CIRCLE
  5
B69
330
23
100
AcDbEntity
  8
SANINDUSA
100
AcDbCircle
 10
2026.089797458393
 20
1742.702772846009
 30
0.0
 40
0.0107486119585709
  0
CIRCLE
  5
B6B
330
23
100
AcDbEntity
  8
SANINDUSA
100
AcDbCircle
 10
2026.089796332066
 20
1742.142764808181
 30
0.0
 40
0.0107494603536865
  0
CIRCLE
  5
B6D
330
23
100
AcDbEntity
  8
SANINDUSA
100
AcDbCircle
 10
2026.089793283993
 20
1742.622777785944
 30
0.0
 40
0.0107471810843719
  0
CIRCLE
  5
B6F
330
23
100
AcDbEntity
  8
SANINDUSA
100
AcDbCircle
 10
2026.089792894055
 20
1742.222759347778
 30
0.0
 40
0.0107469536821836
  0
CIRCLE
  5
B71
330
23
100
AcDbEntity
  8
SANINDUSA
100
AcDbCircle
 10
2025.929780066658
 20
1742.462806565831
 30
0.0
 40
0.0107536670718806
  0
CIRCLE
  5
B73
330
23
100
AcDbEntity
  8
SANINDUSA
100
AcDbCircle
 10
2025.929777570974
 20
1742.382734414582
 30
0.0
 40
0.0107553261253563
  0
CIRCLE
  5
B75
330
23
100
AcDbEntity
  8
SANINDUSA
100
AcDbCircle
 10
2026.089781878962
 20
1742.542811128338
 30
0.0
 40
0.0107461842241709
  0
CIRCLE
  5
B77
330
23
100
AcDbEntity
  8
SANINDUSA
100
AcDbCircle
 10
2026.089779948532
 20
1742.302725577198
 30
0.0
 40
0.0107472055123122
  0
CIRCLE
  5
B79
330
23
100
AcDbEntity
  8
SANINDUSA
100
AcDbCircle
 10
2026.009762853791
 20
1742.462808239222
 30
0.0
 40
0.0107537184135978
  0
CIRCLE
  5
B7B
330
23
100
AcDbEntity
  8
SANINDUSA
100
AcDbCircle
 10
2026.009760393576
 20
1742.382732779491
 30
0.0
 40
0.0107553401548992
  0
CIRCLE
  5
B7D
330
23
100
AcDbEntity
  8
SANINDUSA
100
AcDbCircle
 10
2026.169763033475
 20
1742.702785806706
 30
0.0
 40
0.0107496975693849
  0
CIRCLE
  5
B7F
330
23
100
AcDbEntity
  8
SANINDUSA
100
AcDbCircle
 10
2026.169761707302
 20
1742.142752209344
 30
0.0
 40
0.0107509736148211
  0
CIRCLE
  5
B81
330
23
100
AcDbEntity
  8
SANINDUSA
100
AcDbCircle
 10
2026.169751924161
 20
1742.622772449682
 30
0.0
 40
0.0107486858708079
  0
CIRCLE
  5
B83
330
23
100
AcDbEntity
  8
SANINDUSA
100
AcDbCircle
 10
2026.169751972535
 20
1742.222765301242
 30
0.0
 40
0.0107484154945319
  0
CIRCLE
  5
B85
330
23
100
AcDbEntity
  8
SANINDUSA
100
AcDbCircle
 10
2026.169749609014
 20
1742.542801985692
 30
0.0
 40
0.0107458028084509
  0
CIRCLE
  5
B87
330
23
100
AcDbEntity
  8
SANINDUSA
100
AcDbCircle
 10
2026.089742796191
 20
1742.462803569274
 30
0.0
 40
0.0107535187557567
  0
CIRCLE
  5
B89
330
23
100
AcDbEntity
  8
SANINDUSA
100
AcDbCircle
 10
2026.169748745526
 20
1742.302734238099
 30
0.0
 40
0.0107464354756585
  0
CIRCLE
  5
B8B
330
23
100
AcDbEntity
  8
SANINDUSA
100
AcDbCircle
 10
2026.089741139084
 20
1742.382737276518
 30
0.0
 40
0.0107544409171237
  0
CIRCLE
  5
B8D
330
23
100
AcDbEntity
  8
SANINDUSA
100
AcDbCircle
 10
2026.169716582773
 20
1742.462788848524
 30
0.0
 40
0.010754367960456
  0
CIRCLE
  5
B8F
330
23
100
AcDbEntity
  8
SANINDUSA
100
AcDbCircle
 10
2026.169716670062
 20
1742.382752328974
 30
0.0
 40
0.0107538967763078
  0
LWPOLYLINE
  5
B90
330
23
100
AcDbEntity
  8
SANINDUSA
100
AcDbPolyline
 90
       75
 70
   128
 43
0.0
 10
2026.424220781885
 20
1742.422768417653
 10
2026.423962269165
 20
1742.428857723216
 10
2026.423202963231
 20
1742.434947033454
 10
2026.421944491382
 20
1742.440981167012
 10
2026.420192074292
 20
1742.446890533495
 10
2026.417915865831
 20
1742.452712889145
 10
2026.415110067707
 20
1742.458401079538
 10
2026.411929023968
 20
1742.46366919843
 10
2026.408320193577
 20
1742.468654042916
 10
2026.404247838384
 20
1742.473384729824
 10
2026.399722473694
 20
1742.477815271288
 10
2026.394990028038
 20
1742.481723551652
 10
2026.389913171709
 20
1742.485248440326
 10
2026.384439677356
 20
1742.488399542796
 10
2026.37867417778
 20
1742.491090102774
 10
2026.37287694414
 20
1742.493218206845
 10
2026.366922801314
 20
1742.494856825787
 10
2026.360765586817
 20
1742.496006173224
 10
2026.354442323809
 20
1742.496637069121
 10
2026.348282140498
 20
1742.496729069177
 10
2026.342135549785
 20
1742.496309856
 10
2026.335959218304
 20
1742.495364038063
 10
2026.32979750613
 20
1742.493875446296
 10
2026.323979636749
 20
1742.491938048343
 10
2026.3183039329
 20
1742.489506138326
 10
2026.312734734166
 20
1742.486540115425
 10
2026.307400931476
 20
1742.483082570921
 10
2026.302534779702
 20
1742.47930717551
 10
2026.297969009585
 20
1742.475109384773
 10
2026.293682645021
 20
1742.470440004273
 10
2026.289783836553
 20
1742.4653830248
 10
2026.286460560151
 20
1742.460224185032
 10
2026.283573633832
 20
1742.45480904168
 10
2026.281112334062
 20
1742.449094171723
 10
2026.279112115128
 20
1742.443108612595
 10
2026.277868557954
 20
1742.438148580315
 10
2026.276970160459
 20
1742.433114629724
 10
2026.276418953434
 20
1742.427954552806
 10
2026.276234375968
 20
1742.422768432017
 10
2026.276903433414
 20
1742.412903603561
 10
2026.27894022726
 20
1742.403038800912
 10
2026.280827791943
 20
1742.397203339332
 10
2026.283206942452
 20
1742.391504782545
 10
2026.286116299152
 20
1742.385907638945
 10
2026.289516155619
 20
1742.380539593371
 10
2026.293239825665
 20
1742.375631397763
 10
2026.297357536877
 20
1742.371048774312
 10
2026.301908325148
 20
1742.36676727882
 10
2026.306877612542
 20
1742.362831817444
 10
2026.312025365417
 20
1742.359421808114
 10
2026.317439477727
 20
1742.356452826525
 10
2026.323165376877
 20
1742.353914410481
 10
2026.329173835632
 20
1742.351844179793
 10
2026.335124298748
 20
1742.350342271187
 10
2026.341221294015
 20
1742.349333607003
 10
2026.347515893917
 20
1742.348831673952
 10
2026.353876834387
 20
1742.34886990982
 10
2026.360017864884
 20
1742.349427910774
 10
2026.366091440822
 20
1742.350493387006
 10
2026.372139075035
 20
1742.352086320225
 10
2026.378114938855
 20
1742.35421784415
 10
2026.383714321688
 20
1742.356766527011
 10
2026.389082968426
 20
1742.359770930661
 10
2026.394253421886
 20
1742.363263510312
 10
2026.399178784609
 20
1742.36723975272
 10
2026.403635685669
 20
1742.371509496503
 10
2026.407720890816
 20
1742.376136130853
 10
2026.411454607301
 20
1742.381161715769
 10
2026.414793329271
 20
1742.386566299437
 10
2026.417572282134
 20
1742.392058812423
 10
2026.419897257427
 20
1742.397805396774
 10
2026.421765912607
 20
1742.403859741489
 10
2026.423119206199
 20
1742.410097758255
 10
2026.423937009385
 20
1742.416386918987
 10
2026.424220781885
 20
1742.422768417653
  0
CIRCLE
  5
B92
330
23
100
AcDbEntity
  8
SANINDUSA
100
AcDbCircle
 10
2026.350238744374
 20
1742.4227684187
 30
0.0
 40
0.05
  0
ENDSEC
  0
SECTION
  2
OBJECTS
  0
DICTIONARY
  5
C
330
0
100
AcDbDictionary
281
     1
  3
ACAD_COLOR
350
1C
  3
ACAD_GROUP
350
D
  3
ACAD_LAYOUT
350
1A
  3
ACAD_MATERIAL
350
1B
  3
ACAD_MLINESTYLE
350
17
  3
ACAD_PLOTSETTINGS
350
19
  3
ACAD_PLOTSTYLENAME
350
E
  3
ACAD_TABLESTYLE
350
1D
  3
ACDBHEADERROUNDTRIPXREC
350
9310
  3
AcDbVariableDictionary
350
930A
  0
DICTIONARY
  5
2EE
330
2
100
AcDbDictionary
280
     1
281
     1
  3
ACAD_LAYERSTATES
360
2EF
  0
DICTIONARY
  5
1C
102
{ACAD_REACTORS
330
C
102
}
330
C
100
AcDbDictionary
281
     1
  0
DICTIONARY
  5
D
102
{ACAD_REACTORS
330
C
102
}
330
C
100
AcDbDictionary
281
     1
  0
DICTIONARY
  5
1A
102
{ACAD_REACTORS
330
C
102
}
330
C
100
AcDbDictionary
281
     1
  3
Layout1
350
22
  3
Layout2
350
2A
  3
Model
350
26
  0
DICTIONARY
  5
1B
102
{ACAD_REACTORS
330
C
102
}
330
C
100
AcDbDictionary
281
     1
  0
DICTIONARY
  5
17
102
{ACAD_REACTORS
330
C
102
}
330
C
100
AcDbDictionary
281
     1
  3
Standard
350
18
  0
DICTIONARY
  5
19
102
{ACAD_REACTORS
330
C
102
}
330
C
100
AcDbDictionary
281
     1
  0
ACDBDICTIONARYWDFLT
  5
E
102
{ACAD_REACTORS
330
C
102
}
330
C
100
AcDbDictionary
281
     1
  3
Normal
350
F
100
AcDbDictionaryWithDefault
340
F
  0
DICTIONARY
  5
1D
102
{ACAD_REACTORS
330
C
102
}
330
C
100
AcDbDictionary
281
     1
  3
Standard
350
1E
  0
DICTIONARY
  5
9310
102
{ACAD_REACTORS
330
C
102
}
330
C
100
AcDbDictionary
281
     1
  0
DICTIONARY
  5
930A
102
{ACAD_REACTORS
330
C
102
}
330
C
100
AcDbDictionary
281
     1
  3
CTABLESTYLE
350
930B
  3
DIMASSOC
350
930D
  3
HIDETEXT
350
930C
  3
PROJECTNAME
350
930E
  0
DICTIONARY
  5
2EF
102
{ACAD_REACTORS
330
2EE
102
}
330
2EE
100
AcDbDictionary
281
     1
  0
LAYOUT
  5
22
102
{ACAD_XDICTIONARY
360
9311
102
}
102
{ACAD_REACTORS
330
1A
102
}
330
1A
100
AcDbPlotSettings
  1

  2
C:\Documents and Settings\Julio\Application Data\Autodesk\AutoCAD 2006\R16.2\enu\plotters\Default Windows System Printer.pc3
  4

  6

 40
0.0
 41
0.0
 42
0.0
 43
0.0
 44
0.0
 45
0.0
 46
0.0
 47
0.0
 48
0.0
 49
0.0
140
0.0
141
0.0
142
1.0
143
1.0
 70
   688
 72
     0
 73
     0
 74
     5
  7

 75
    16
147
1.0
148
0.0
149
0.0
100
AcDbLayout
  1
Layout1
 70
     1
 71
     1
 10
0.0
 20
0.0
 11
420.0
 21
297.0
 12
0.0
 22
0.0
 32
0.0
 14
1.000000000000000E+20
 24
1.000000000000000E+20
 34
1.000000000000000E+20
 15
-1.000000000000000E+20
 25
-1.000000000000000E+20
 35
-1.000000000000000E+20
146
0.0
 13
0.0
 23
0.0
 33
0.0
 16
1.0
 26
0.0
 36
0.0
 17
0.0
 27
1.0
 37
0.0
 76
     0
330
1F
  0
LAYOUT
  5
2A
102
{ACAD_XDICTIONARY
360
9315
102
}
102
{ACAD_REACTORS
330
1A
102
}
330
1A
100
AcDbPlotSettings
  1

  2
C:\Documents and Settings\Julio\Application Data\Autodesk\AutoCAD 2006\R16.2\enu\plotters\Default Windows System Printer.pc3
  4

  6

 40
0.0
 41
0.0
 42
0.0
 43
0.0
 44
0.0
 45
0.0
 46
0.0
 47
0.0
 48
0.0
 49
0.0
140
0.0
141
0.0
142
1.0
143
1.0
 70
   688
 72
     0
 73
     0
 74
     5
  7

 75
    16
147
1.0
148
0.0
149
0.0
100
AcDbLayout
  1
Layout2
 70
     1
 71
     2
 10
0.0
 20
0.0
 11
12.0
 21
9.0
 12
0.0
 22
0.0
 32
0.0
 14
0.0
 24
0.0
 34
0.0
 15
0.0
 25
0.0
 35
0.0
146
0.0
 13
0.0
 23
0.0
 33
0.0
 16
1.0
 26
0.0
 36
0.0
 17
0.0
 27
1.0
 37
0.0
 76
     0
330
27
  0
LAYOUT
  5
26
102
{ACAD_XDICTIONARY
360
9313
102
}
102
{ACAD_REACTORS
330
1A
102
}
330
1A
100
AcDbPlotSettings
  1

  2
C:\Documents and Settings\Julio\Application Data\Autodesk\AutoCAD 2006\R16.2\enu\plotters\Default Windows System Printer.pc3
  4

  6

 40
0.0
 41
0.0
 42
0.0
 43
0.0
 44
0.0
 45
0.0
 46
0.0
 47
0.0
 48
0.0
 49
0.0
140
0.0
141
0.0
142
1.0
143
1.0
 70
  1712
 72
     0
 73
     0
 74
     0
  7

 75
     0
147
1.0
148
0.0
149
0.0
100
AcDbLayout
  1
Model
 70
     1
 71
     0
 10
0.0
 20
0.0
 11
12.0
 21
9.0
 12
0.0
 22
0.0
 32
0.0
 14
0.0
 24
0.0
 34
0.0
 15
0.0
 25
0.0
 35
0.0
146
0.0
 13
0.0
 23
0.0
 33
0.0
 16
1.0
 26
0.0
 36
0.0
 17
0.0
 27
1.0
 37
0.0
 76
     0
330
23
  0
MLINESTYLE
  5
18
102
{ACAD_REACTORS
330
17
102
}
330
17
100
AcDbMlineStyle
  2
STANDARD
 70
     0
  3

 62
   256
 51
90.0
 52
90.0
 71
     2
 49
0.5
 62
   256
  6
BYLAYER
 49
-0.5
 62
   256
  6
BYLAYER
  0
ACDBPLACEHOLDER
  5
F
102
{ACAD_REACTORS
330
E
102
}
330
E
  0
TABLESTYLE
  5
1E
102
{ACAD_REACTORS
330
1D
102
}
330
1D
100
AcDbTableStyle
  3
Standard
 70
     0
 71
     0
 40
1.5
 41
1.5
280
     0
281
     0
  7
Standard
140
4.5
170
     2
 62
     0
 63
     7
283
     0
274
    -2
284
     1
 64
     0
275
    -2
285
     1
 65
     0
276
    -2
286
     1
 66
     0
277
    -2
287
     1
 67
     0
278
    -2
288
     1
 68
     0
279
    -2
289
     1
 69
     0
  7
Standard
140
6.0
170
     5
 62
     0
 63
     7
283
     0
274
    -2
284
     1
 64
     0
275
    -2
285
     1
 65
     0
276
    -2
286
     1
 66
     0
277
    -2
287
     1
 67
     0
278
    -2
288
     1
 68
     0
279
    -2
289
     1
 69
     0
  7
Standard
140
4.5
170
     5
 62
     0
 63
     7
283
     0
274
    -2
284
     1
 64
     0
275
    -2
285
     1
 65
     0
276
    -2
286
     1
 66
     0
277
    -2
287
     1
 67
     0
278
    -2
288
     1
 68
     0
279
    -2
289
     1
 69
     0
  0
DICTIONARYVAR
  5
930B
102
{ACAD_REACTORS
330
930A
102
}
330
930A
100
DictionaryVariables
280
     0
  1
STANDARD
  0
DICTIONARYVAR
  5
930D
102
{ACAD_REACTORS
330
930A
102
}
330
930A
100
DictionaryVariables
280
     0
  1
2
  0
DICTIONARYVAR
  5
930C
102
{ACAD_REACTORS
330
930A
102
}
330
930A
100
DictionaryVariables
280
     0
  1
1
  0
DICTIONARYVAR
  5
930E
102
{ACAD_REACTORS
330
930A
102
}
330
930A
100
DictionaryVariables
280
     0
  1

  0
DICTIONARY
  5
9311
330
22
100
AcDbDictionary
280
     1
281
     1
  3
ACAD_XREC_ROUNDTRIP
360
9312
  0
DICTIONARY
  5
9315
330
2A
100
AcDbDictionary
280
     1
281
     1
  3
ACAD_XREC_ROUNDTRIP
360
9316
  0
DICTIONARY
  5
9313
330
26
100
AcDbDictionary
280
     1
281
     1
  3
ACAD_XREC_ROUNDTRIP
360
9314
  0
XRECORD
  5
9312
102
{ACAD_REACTORS
330
9311
102
}
330
9311
100
AcDbXrecord
280
     1
102
SHADEPLOT
 70
     0
102
SHADEPLOTRESLEVEL
 70
     2
102
SHADEPLOTCUSTOMDPI
 70
   300
  0
XRECORD
  5
9316
102
{ACAD_REACTORS
330
9315
102
}
330
9315
100
AcDbXrecord
280
     1
102
SHADEPLOT
 70
     0
102
SHADEPLOTRESLEVEL
 70
     2
102
SHADEPLOTCUSTOMDPI
 70
   300
  0
XRECORD
  5
9314
102
{ACAD_REACTORS
330
9313
102
}
330
9313
100
AcDbXrecord
280
     1
102
SHADEPLOT
 70
     0
102
SHADEPLOTRESLEVEL
 70
     2
102
SHADEPLOTCUSTOMDPI
 70
   300
  0
ENDSEC
  0
EOF
