  0
SECTION
  2
HEADER
  9
$ACADVER
  1
AC1015
  9
$ACADMAINTVER
 70
    20
  9
$DWGCODEPAGE
  3
ANSI_1252
  9
$INSBASE
 10
0.0
 20
0.0
 30
0.0
  9
$EXTMIN
 10
2026.045515935845
 20
1635.649810130036
 30
0.0
  9
$EXTMAX
 10
2031.960218803854
 20
1636.550050262577
 30
0.0
  9
$LIMMIN
 10
0.0
 20
0.0
  9
$LIMMAX
 10
420.0
 20
297.0
  9
$ORTHOMODE
 70
     0
  9
$REGENMODE
 70
     1
  9
$FILLMODE
 70
     1
  9
$QTEXTMODE
 70
     0
  9
$MIRRTEXT
 70
     0
  9
$LTSCALE
 40
1.0
  9
$ATTMODE
 70
     1
  9
$TEXTSIZE
 40
2.5
  9
$TRACEWID
 40
1.0
  9
$TEXTSTYLE
  7
Standard
  9
$CLAYER
  8
0
  9
$CELTYPE
  6
ByLayer
  9
$CECOLOR
 62
   256
  9
$CELTSCALE
 40
1.0
  9
$DISPSILH
 70
     0
  9
$DIMSCALE
 40
1.0
  9
$DIMASZ
 40
2.5
  9
$DIMEXO
 40
0.625
  9
$DIMDLI
 40
3.75
  9
$DIMRND
 40
0.0
  9
$DIMDLE
 40
0.0
  9
$DIMEXE
 40
1.25
  9
$DIMTP
 40
0.0
  9
$DIMTM
 40
0.0
  9
$DIMTXT
 40
2.5
  9
$DIMCEN
 40
2.5
  9
$DIMTSZ
 40
0.0
  9
$DIMTOL
 70
     0
  9
$DIMLIM
 70
     0
  9
$DIMTIH
 70
     0
  9
$DIMTOH
 70
     0
  9
$DIMSE1
 70
     0
  9
$DIMSE2
 70
     0
  9
$DIMTAD
 70
     1
  9
$DIMZIN
 70
     8
  9
$DIMBLK
  1

  9
$DIMASO
 70
     1
  9
$DIMSHO
 70
     1
  9
$DIMPOST
  1

  9
$DIMAPOST
  1

  9
$DIMALT
 70
     0
  9
$DIMALTD
 70
     3
  9
$DIMALTF
 40
0.03937007874016
  9
$DIMLFAC
 40
1.0
  9
$DIMTOFL
 70
     1
  9
$DIMTVP
 40
0.0
  9
$DIMTIX
 70
     0
  9
$DIMSOXD
 70
     0
  9
$DIMSAH
 70
     0
  9
$DIMBLK1
  1

  9
$DIMBLK2
  1

  9
$DIMSTYLE
  2
ISO-25
  9
$DIMCLRD
 70
     0
  9
$DIMCLRE
 70
     0
  9
$DIMCLRT
 70
     0
  9
$DIMTFAC
 40
1.0
  9
$DIMGAP
 40
0.625
  9
$DIMJUST
 70
     0
  9
$DIMSD1
 70
     0
  9
$DIMSD2
 70
     0
  9
$DIMTOLJ
 70
     0
  9
$DIMTZIN
 70
     8
  9
$DIMALTZ
 70
     0
  9
$DIMALTTZ
 70
     0
  9
$DIMUPT
 70
     0
  9
$DIMDEC
 70
     2
  9
$DIMTDEC
 70
     2
  9
$DIMALTU
 70
     2
  9
$DIMALTTD
 70
     3
  9
$DIMTXSTY
  7
Standard
  9
$DIMAUNIT
 70
     0
  9
$DIMADEC
 70
     0
  9
$DIMALTRND
 40
0.0
  9
$DIMAZIN
 70
     0
  9
$DIMDSEP
 70
    44
  9
$DIMATFIT
 70
     3
  9
$DIMFRAC
 70
     0
  9
$DIMLDRBLK
  1

  9
$DIMLUNIT
 70
     2
  9
$DIMLWD
 70
    -2
  9
$DIMLWE
 70
    -2
  9
$DIMTMOVE
 70
     0
  9
$LUNITS
 70
     2
  9
$LUPREC
 70
     4
  9
$SKETCHINC
 40
1.0
  9
$FILLETRAD
 40
0.0
  9
$AUNITS
 70
     0
  9
$AUPREC
 70
     0
  9
$MENU
  1
.
  9
$ELEVATION
 40
0.0
  9
$PELEVATION
 40
0.0
  9
$THICKNESS
 40
0.0
  9
$LIMCHECK
 70
     0
  9
$CHAMFERA
 40
0.0
  9
$CHAMFERB
 40
0.0
  9
$CHAMFERC
 40
0.0
  9
$CHAMFERD
 40
0.0
  9
$SKPOLY
 70
     0
  9
$TDCREATE
 40
2454930.732905996
  9
$TDUCREATE
 40
2454930.691239329
  9
$TDUPDATE
 40
2454930.736378577
  9
$TDUUPDATE
 40
2454930.694711910
  9
$TDINDWG
 40
0.0034731250
  9
$TDUSRTIMER
 40
0.0034731250
  9
$USRTIMER
 70
     1
  9
$ANGBASE
 50
0.0
  9
$ANGDIR
 70
     0
  9
$PDMODE
 70
     0
  9
$PDSIZE
 40
0.0
  9
$PLINEWID
 40
0.0
  9
$SPLFRAME
 70
     0
  9
$SPLINETYPE
 70
     6
  9
$SPLINESEGS
 70
     8
  9
$HANDSEED
  5
765A
  9
$SURFTAB1
 70
     6
  9
$SURFTAB2
 70
     6
  9
$SURFTYPE
 70
     6
  9
$SURFU
 70
     6
  9
$SURFV
 70
     6
  9
$UCSBASE
  2

  9
$UCSNAME
  2

  9
$UCSORG
 10
0.0
 20
0.0
 30
0.0
  9
$UCSXDIR
 10
1.0
 20
0.0
 30
0.0
  9
$UCSYDIR
 10
0.0
 20
1.0
 30
0.0
  9
$UCSORTHOREF
  2

  9
$UCSORTHOVIEW
 70
     0
  9
$UCSORGTOP
 10
0.0
 20
0.0
 30
0.0
  9
$UCSORGBOTTOM
 10
0.0
 20
0.0
 30
0.0
  9
$UCSORGLEFT
 10
0.0
 20
0.0
 30
0.0
  9
$UCSORGRIGHT
 10
0.0
 20
0.0
 30
0.0
  9
$UCSORGFRONT
 10
0.0
 20
0.0
 30
0.0
  9
$UCSORGBACK
 10
0.0
 20
0.0
 30
0.0
  9
$PUCSBASE
  2

  9
$PUCSNAME
  2

  9
$PUCSORG
 10
0.0
 20
0.0
 30
0.0
  9
$PUCSXDIR
 10
1.0
 20
0.0
 30
0.0
  9
$PUCSYDIR
 10
0.0
 20
1.0
 30
0.0
  9
$PUCSORTHOREF
  2

  9
$PUCSORTHOVIEW
 70
     0
  9
$PUCSORGTOP
 10
0.0
 20
0.0
 30
0.0
  9
$PUCSORGBOTTOM
 10
0.0
 20
0.0
 30
0.0
  9
$PUCSORGLEFT
 10
0.0
 20
0.0
 30
0.0
  9
$PUCSORGRIGHT
 10
0.0
 20
0.0
 30
0.0
  9
$PUCSORGFRONT
 10
0.0
 20
0.0
 30
0.0
  9
$PUCSORGBACK
 10
0.0
 20
0.0
 30
0.0
  9
$USERI1
 70
     0
  9
$USERI2
 70
     0
  9
$USERI3
 70
     0
  9
$USERI4
 70
     0
  9
$USERI5
 70
     0
  9
$USERR1
 40
0.0
  9
$USERR2
 40
0.0
  9
$USERR3
 40
0.0
  9
$USERR4
 40
0.0
  9
$USERR5
 40
0.0
  9
$WORLDVIEW
 70
     1
  9
$SHADEDGE
 70
     3
  9
$SHADEDIF
 70
    70
  9
$TILEMODE
 70
     1
  9
$MAXACTVP
 70
    64
  9
$PINSBASE
 10
0.0
 20
0.0
 30
0.0
  9
$PLIMCHECK
 70
     0
  9
$PEXTMIN
 10
1.000000000000000E+20
 20
1.000000000000000E+20
 30
1.000000000000000E+20
  9
$PEXTMAX
 10
-1.000000000000000E+20
 20
-1.000000000000000E+20
 30
-1.000000000000000E+20
  9
$PLIMMIN
 10
0.0
 20
0.0
  9
$PLIMMAX
 10
420.0
 20
297.0
  9
$UNITMODE
 70
     0
  9
$VISRETAIN
 70
     1
  9
$PLINEGEN
 70
     0
  9
$PSLTSCALE
 70
     1
  9
$TREEDEPTH
 70
  3020
  9
$CMLSTYLE
  2
Standard
  9
$CMLJUST
 70
     0
  9
$CMLSCALE
 40
20.0
  9
$PROXYGRAPHICS
 70
     1
  9
$MEASUREMENT
 70
     1
  9
$CELWEIGHT
370
    -1
  9
$ENDCAPS
280
     0
  9
$JOINSTYLE
280
     0
  9
$LWDISPLAY
290
     0
  9
$INSUNITS
 70
     4
  9
$HYPERLINKBASE
  1

  9
$STYLESHEET
  1

  9
$XEDIT
290
     1
  9
$CEPSNTYPE
380
     0
  9
$PSTYLEMODE
290
     1
  9
$FINGERPRINTGUID
  2
{22D8851F-5438-4166-8ED0-1E75AEEB7ADF}
  9
$VERSIONGUID
  2
{1757235D-4AA4-46C8-AE73-579DD79A1332}
  9
$EXTNAMES
290
     1
  9
$PSVPSCALE
 40
0.0
  9
$OLESTARTUP
290
     0
  0
ENDSEC
  0
SECTION
  2
CLASSES
  0
CLASS
  1
ACDBDICTIONARYWDFLT
  2
AcDbDictionaryWithDefault
  3
ObjectDBX Classes
 90
        0
280
     0
281
     0
  0
CLASS
  1
TABLESTYLE
  2
AcDbTableStyle
  3
ObjectDBX Classes
 90
     2047
280
     0
281
     0
  0
CLASS
  1
DIMASSOC
  2
AcDbDimAssoc
  3
"AcDbDimAssoc|Product Desc:     AcDim ARX App For Dimension|Company:          Autodesk, Inc.|WEB Address:      www.autodesk.com"
 90
        0
280
     0
281
     0
  0
CLASS
  1
SORTENTSTABLE
  2
AcDbSortentsTable
  3
ObjectDBX Classes
 90
        0
280
     0
281
     0
  0
CLASS
  1
DICTIONARYVAR
  2
AcDbDictionaryVar
  3
ObjectDBX Classes
 90
        0
280
     0
281
     0
  0
CLASS
  1
ACDBPLACEHOLDER
  2
AcDbPlaceHolder
  3
ObjectDBX Classes
 90
        0
280
     0
281
     0
  0
CLASS
  1
LAYOUT
  2
AcDbLayout
  3
ObjectDBX Classes
 90
        0
280
     0
281
     0
  0
ENDSEC
  0
SECTION
  2
TABLES
  0
TABLE
  2
VPORT
  5
8
330
0
100
AcDbSymbolTable
 70
     9
  0
VPORT
  5
7652
330
8
100
AcDbSymbolTableRecord
100
AcDbViewportTableRecord
  2
*Active
 70
     0
 10
0.0
 20
0.0
 11
1.0
 21
1.0
 12
2029.002867369849
 22
1636.099930196307
 13
0.0
 23
0.0
 14
10.0
 24
10.0
 15
10.0
 25
10.0
 16
0.0
 26
0.0
 36
1.0
 17
0.0
 27
0.0
 37
0.0
 40
3.706027808925079
 41
1.602030456852791
 42
50.0
 43
0.0
 44
0.0
 50
0.0
 51
0.0
 71
     0
 72
  1000
 73
     1
 74
     3
 75
     0
 76
     0
 77
     0
 78
     0
281
     0
 65
     1
110
0.0
120
0.0
130
0.0
111
1.0
121
0.0
131
0.0
112
0.0
122
1.0
132
0.0
 79
     0
146
0.0
  0
ENDTAB
  0
TABLE
  2
LTYPE
  5
5
330
0
100
AcDbSymbolTable
 70
     3
  0
LTYPE
  5
14
330
5
100
AcDbSymbolTableRecord
100
AcDbLinetypeTableRecord
  2
ByBlock
 70
     0
  3

 72
    65
 73
     0
 40
0.0
  0
LTYPE
  5
15
330
5
100
AcDbSymbolTableRecord
100
AcDbLinetypeTableRecord
  2
ByLayer
 70
     0
  3

 72
    65
 73
     0
 40
0.0
  0
LTYPE
  5
16
330
5
100
AcDbSymbolTableRecord
100
AcDbLinetypeTableRecord
  2
Continuous
 70
     0
  3
Solid line
 72
    65
 73
     0
 40
0.0
  0
LTYPE
  5
2D1
330
5
100
AcDbSymbolTableRecord
100
AcDbLinetypeTableRecord
  2
DASHDOT
 70
     0
  3
Dash dot __ . __ . __ . __ . __ . __ . __ . __
 72
    65
 73
     4
 40
25.4
 49
12.7
 74
     0
 49
-6.349999999999999
 74
     0
 49
0.0
 74
     0
 49
-6.349999999999999
 74
     0
  0
LTYPE
  5
2D2
330
5
100
AcDbSymbolTableRecord
100
AcDbLinetypeTableRecord
  2
HIDDEN
 70
     0
  3
Hidden __ __ __ __ __ __ __ __ __ __ __ __ __ _
 72
    65
 73
     2
 40
9.524999999999998
 49
6.349999999999999
 74
     0
 49
-3.174999999999999
 74
     0
  0
ENDTAB
  0
TABLE
  2
LAYER
  5
2
102
{ACAD_XDICTIONARY
360
2E2
102
}
330
0
100
AcDbSymbolTable
 70
     9
  0
LAYER
  5
10
330
2
100
AcDbSymbolTableRecord
100
AcDbLayerTableRecord
  2
0
 70
     0
 62
     7
  6
Continuous
370
    -3
390
F
  0
LAYER
  5
2D3
330
2
100
AcDbSymbolTableRecord
100
AcDbLayerTableRecord
  2
1
 70
     0
 62
     1
  6
Continuous
370
    -3
390
F
  0
LAYER
  5
2D4
330
2
100
AcDbSymbolTableRecord
100
AcDbLayerTableRecord
  2
4
 70
     0
 62
     4
  6
Continuous
370
    -3
390
F
  0
LAYER
  5
2D5
330
2
100
AcDbSymbolTableRecord
100
AcDbLayerTableRecord
  2
cen
 70
     0
 62
     7
  6
DASHDOT
370
    -3
390
F
  0
LAYER
  5
2D6
330
2
100
AcDbSymbolTableRecord
100
AcDbLayerTableRecord
  2
9
 70
     0
 62
     9
  6
Continuous
370
    -3
390
F
  0
LAYER
  5
2D7
330
2
100
AcDbSymbolTableRecord
100
AcDbLayerTableRecord
  2
cotas
 70
     0
 62
     1
  6
Continuous
370
    -3
390
F
  0
LAYER
  5
2D8
330
2
100
AcDbSymbolTableRecord
100
AcDbLayerTableRecord
  2
Defpoints
 70
     0
 62
     7
  6
Continuous
290
     0
370
    -3
390
F
  0
LAYER
  5
2D9
330
2
100
AcDbSymbolTableRecord
100
AcDbLayerTableRecord
  2
SANINDUSA
 70
     0
 62
     3
  6
Continuous
370
    -3
390
F
  0
LAYER
  5
2DA
330
2
100
AcDbSymbolTableRecord
100
AcDbLayerTableRecord
  2
hid1
 70
     0
 62
     9
  6
HIDDEN
370
    -3
390
F
1001
AcAecLayerStandard
1000

1000

  0
ENDTAB
  0
TABLE
  2
STYLE
  5
3
330
0
100
AcDbSymbolTable
 70
     2
  0
STYLE
  5
11
330
3
100
AcDbSymbolTableRecord
100
AcDbTextStyleTableRecord
  2
Standard
 70
     0
 40
0.0
 41
1.0
 50
0.0
 71
     0
 42
2.5
  3
txt
  4

  0
STYLE
  5
2DB
330
3
100
AcDbSymbolTableRecord
100
AcDbTextStyleTableRecord
  2
SANINDUSA
 70
     0
 40
0.0
 41
1.0
 50
0.0
 71
     0
 42
2.5
  3
verdana.TTF
  4

1001
ACAD
1000
Verdana
1071
       34
  0
ENDTAB
  0
TABLE
  2
VIEW
  5
6
330
0
100
AcDbSymbolTable
 70
     0
  0
ENDTAB
  0
TABLE
  2
UCS
  5
7
330
0
100
AcDbSymbolTable
 70
     0
  0
ENDTAB
  0
TABLE
  2
APPID
  5
9
330
0
100
AcDbSymbolTable
 70
     6
  0
APPID
  5
12
330
9
100
AcDbSymbolTableRecord
100
AcDbRegAppTableRecord
  2
ACAD
 70
     0
  0
APPID
  5
2DD
330
9
100
AcDbSymbolTableRecord
100
AcDbRegAppTableRecord
  2
ACAD_DSTYLE_DIMEXT_LENGTH
 70
     0
  0
APPID
  5
2DE
330
9
100
AcDbSymbolTableRecord
100
AcDbRegAppTableRecord
  2
ACAD_DSTYLE_DIMEXT_ENABLED
 70
     0
  0
APPID
  5
2DF
330
9
100
AcDbSymbolTableRecord
100
AcDbRegAppTableRecord
  2
ACAD_DSTYLE_DIMJOGGED_JOGANGLE_SYMBOL
 70
     0
  0
APPID
  5
2E0
330
9
100
AcDbSymbolTableRecord
100
AcDbRegAppTableRecord
  2
ACAD_DSTYLE_DIMARC_LENGTH_SYMBOL
 70
     0
  0
APPID
  5
2E1
330
9
100
AcDbSymbolTableRecord
100
AcDbRegAppTableRecord
  2
AcAecLayerStandard
 70
     0
  0
ENDTAB
  0
TABLE
  2
DIMSTYLE
  5
A
330
0
100
AcDbSymbolTable
 70
     2
100
AcDbDimStyleTable
 71
     1
340
2B
  0
DIMSTYLE
105
2B
330
A
100
AcDbSymbolTableRecord
100
AcDbDimStyleTableRecord
  2
ISO-25
 70
     0
 41
2.5
 42
0.625
 43
3.75
 44
1.25
 73
     0
 74
     0
 77
     1
 78
     8
140
2.5
141
2.5
143
0.03937007874016
147
0.625
171
     3
172
     1
271
     2
272
     2
274
     3
278
    44
283
     0
284
     8
340
11
  0
DIMSTYLE
105
2DC
102
{ACAD_REACTORS
330
2ED
330
2F0
330
2F1
330
2F2
330
2F3
330
303
330
306
330
309
330
30C
330
30D
330
310
330
313
330
314
330
315
330
316
330
317
330
318
330
319
330
31B
330
31D
330
320
330
323
330
324
330
329
330
32C
330
32D
330
32E
330
32F
330
330
330
331
330
33F
330
348
330
34B
330
34E
330
351
330
352
330
353
330
356
330
359
330
35C
330
35F
330
360
330
361
330
362
330
365
330
368
330
369
330
36C
330
36D
330
36E
330
36F
330
370
330
371
330
372
330
373
330
374
330
377
330
39E
330
6F9
330
6FE
330
702
102
}
330
A
100
AcDbSymbolTableRecord
100
AcDbDimStyleTableRecord
  2
SANINDUSA
 70
     0
 40
5.0
 41
2.0
 42
1.0
 43
1.0
 44
1.0
 73
     0
 74
     0
 77
     1
 78
     8
140
2.0
141
0.0
143
0.03937007874016
147
1.0
171
     3
172
     1
176
   256
177
   256
178
   256
179
     1
271
     1
272
     1
274
     3
278
    44
283
     0
284
     8
340
2DB
371
    -1
372
    -1
1001
ACAD_DSTYLE_DIMEXT_LENGTH
1070
   378
1040
1.0
1001
ACAD_DSTYLE_DIMEXT_ENABLED
1070
   383
1070
     0
1001
ACAD_DSTYLE_DIMARC_LENGTH_SYMBOL
1070
   379
1070
     0
1001
ACAD_DSTYLE_DIMJOGGED_JOGANGLE_SYMBOL
1070
   384
1040
1.570796326794896
  0
ENDTAB
  0
TABLE
  2
BLOCK_RECORD
  5
1
330
0
100
AcDbSymbolTable
 70
   124
  0
BLOCK_RECORD
  5
23
330
1
100
AcDbSymbolTableRecord
100
AcDbBlockTableRecord
  2
*Model_Space
340
26
  0
BLOCK_RECORD
  5
1F
330
1
100
AcDbSymbolTableRecord
100
AcDbBlockTableRecord
  2
*Paper_Space
340
22
  0
BLOCK_RECORD
  5
27
330
1
100
AcDbSymbolTableRecord
100
AcDbBlockTableRecord
  2
*Paper_Space0
340
2A
  0
BLOCK_RECORD
  5
2F
330
1
100
AcDbSymbolTableRecord
100
AcDbBlockTableRecord
  2
*D1
340
0
  0
BLOCK_RECORD
  5
37
330
1
100
AcDbSymbolTableRecord
100
AcDbBlockTableRecord
  2
*D2
340
0
  0
BLOCK_RECORD
  5
3F
330
1
100
AcDbSymbolTableRecord
100
AcDbBlockTableRecord
  2
*D3
340
0
  0
BLOCK_RECORD
  5
4C
330
1
100
AcDbSymbolTableRecord
100
AcDbBlockTableRecord
  2
*D4
340
0
  0
BLOCK_RECORD
  5
59
330
1
100
AcDbSymbolTableRecord
100
AcDbBlockTableRecord
  2
*D5
340
0
  0
BLOCK_RECORD
  5
65
330
1
100
AcDbSymbolTableRecord
100
AcDbBlockTableRecord
  2
*D6
340
0
  0
BLOCK_RECORD
  5
71
330
1
100
AcDbSymbolTableRecord
100
AcDbBlockTableRecord
  2
*D7
340
0
  0
BLOCK_RECORD
  5
7D
330
1
100
AcDbSymbolTableRecord
100
AcDbBlockTableRecord
  2
*D8
340
0
  0
BLOCK_RECORD
  5
86
330
1
100
AcDbSymbolTableRecord
100
AcDbBlockTableRecord
  2
*D9
340
0
  0
BLOCK_RECORD
  5
8F
330
1
100
AcDbSymbolTableRecord
100
AcDbBlockTableRecord
  2
*D10
340
0
  0
BLOCK_RECORD
  5
97
330
1
100
AcDbSymbolTableRecord
100
AcDbBlockTableRecord
  2
*D11
340
0
  0
BLOCK_RECORD
  5
A0
330
1
100
AcDbSymbolTableRecord
100
AcDbBlockTableRecord
  2
*D12
340
0
  0
BLOCK_RECORD
  5
A8
330
1
100
AcDbSymbolTableRecord
100
AcDbBlockTableRecord
  2
*D13
340
0
  0
BLOCK_RECORD
  5
B4
330
1
100
AcDbSymbolTableRecord
100
AcDbBlockTableRecord
  2
*D14
340
0
  0
BLOCK_RECORD
  5
C0
330
1
100
AcDbSymbolTableRecord
100
AcDbBlockTableRecord
  2
*D15
340
0
  0
BLOCK_RECORD
  5
CC
330
1
100
AcDbSymbolTableRecord
100
AcDbBlockTableRecord
  2
*D16
340
0
  0
BLOCK_RECORD
  5
D8
330
1
100
AcDbSymbolTableRecord
100
AcDbBlockTableRecord
  2
*D17
340
0
  0
BLOCK_RECORD
  5
E0
330
1
100
AcDbSymbolTableRecord
100
AcDbBlockTableRecord
  2
*D18
340
0
  0
BLOCK_RECORD
  5
E8
330
1
100
AcDbSymbolTableRecord
100
AcDbBlockTableRecord
  2
*D19
340
0
  0
BLOCK_RECORD
  5
F5
330
1
100
AcDbSymbolTableRecord
100
AcDbBlockTableRecord
  2
*D20
340
0
  0
BLOCK_RECORD
  5
102
330
1
100
AcDbSymbolTableRecord
100
AcDbBlockTableRecord
  2
*D21
340
0
  0
BLOCK_RECORD
  5
10E
330
1
100
AcDbSymbolTableRecord
100
AcDbBlockTableRecord
  2
*D22
340
0
  0
BLOCK_RECORD
  5
11A
330
1
100
AcDbSymbolTableRecord
100
AcDbBlockTableRecord
  2
*D23
340
0
  0
BLOCK_RECORD
  5
126
330
1
100
AcDbSymbolTableRecord
100
AcDbBlockTableRecord
  2
*D24
340
0
  0
BLOCK_RECORD
  5
132
330
1
100
AcDbSymbolTableRecord
100
AcDbBlockTableRecord
  2
*D25
340
0
  0
BLOCK_RECORD
  5
13E
330
1
100
AcDbSymbolTableRecord
100
AcDbBlockTableRecord
  2
*D26
340
0
  0
BLOCK_RECORD
  5
14A
330
1
100
AcDbSymbolTableRecord
100
AcDbBlockTableRecord
  2
*D27
340
0
  0
BLOCK_RECORD
  5
156
330
1
100
AcDbSymbolTableRecord
100
AcDbBlockTableRecord
  2
*D28
340
0
  0
BLOCK_RECORD
  5
162
330
1
100
AcDbSymbolTableRecord
100
AcDbBlockTableRecord
  2
*D29
340
0
  0
BLOCK_RECORD
  5
16B
330
1
100
AcDbSymbolTableRecord
100
AcDbBlockTableRecord
  2
*D30
340
0
  0
BLOCK_RECORD
  5
173
330
1
100
AcDbSymbolTableRecord
100
AcDbBlockTableRecord
  2
*D31
340
0
  0
BLOCK_RECORD
  5
17B
330
1
100
AcDbSymbolTableRecord
100
AcDbBlockTableRecord
  2
*D32
340
0
  0
BLOCK_RECORD
  5
184
330
1
100
AcDbSymbolTableRecord
100
AcDbBlockTableRecord
  2
*D33
340
0
  0
BLOCK_RECORD
  5
18C
330
1
100
AcDbSymbolTableRecord
100
AcDbBlockTableRecord
  2
*D34
340
0
  0
BLOCK_RECORD
  5
195
330
1
100
AcDbSymbolTableRecord
100
AcDbBlockTableRecord
  2
*D35
340
0
  0
BLOCK_RECORD
  5
19E
330
1
100
AcDbSymbolTableRecord
100
AcDbBlockTableRecord
  2
*D36
340
0
  0
BLOCK_RECORD
  5
1A9
330
1
100
AcDbSymbolTableRecord
100
AcDbBlockTableRecord
  2
*D37
340
0
  0
BLOCK_RECORD
  5
1B5
330
1
100
AcDbSymbolTableRecord
100
AcDbBlockTableRecord
  2
*D38
340
0
  0
BLOCK_RECORD
  5
1C1
330
1
100
AcDbSymbolTableRecord
100
AcDbBlockTableRecord
  2
*D39
340
0
  0
BLOCK_RECORD
  5
1CE
330
1
100
AcDbSymbolTableRecord
100
AcDbBlockTableRecord
  2
*D40
340
0
  0
BLOCK_RECORD
  5
1DA
330
1
100
AcDbSymbolTableRecord
100
AcDbBlockTableRecord
  2
*D41
340
0
  0
BLOCK_RECORD
  5
1E8
330
1
100
AcDbSymbolTableRecord
100
AcDbBlockTableRecord
  2
*D42
340
0
  0
BLOCK_RECORD
  5
1F6
330
1
100
AcDbSymbolTableRecord
100
AcDbBlockTableRecord
  2
*D43
340
0
  0
BLOCK_RECORD
  5
202
330
1
100
AcDbSymbolTableRecord
100
AcDbBlockTableRecord
  2
*D44
340
0
  0
BLOCK_RECORD
  5
20E
330
1
100
AcDbSymbolTableRecord
100
AcDbBlockTableRecord
  2
*D45
340
0
  0
BLOCK_RECORD
  5
21A
330
1
100
AcDbSymbolTableRecord
100
AcDbBlockTableRecord
  2
*D46
340
0
  0
BLOCK_RECORD
  5
226
330
1
100
AcDbSymbolTableRecord
100
AcDbBlockTableRecord
  2
*D47
340
0
  0
BLOCK_RECORD
  5
232
330
1
100
AcDbSymbolTableRecord
100
AcDbBlockTableRecord
  2
*D48
340
0
  0
BLOCK_RECORD
  5
23E
330
1
100
AcDbSymbolTableRecord
100
AcDbBlockTableRecord
  2
*D49
340
0
  0
BLOCK_RECORD
  5
24A
330
1
100
AcDbSymbolTableRecord
100
AcDbBlockTableRecord
  2
*D50
340
0
  0
BLOCK_RECORD
  5
256
330
1
100
AcDbSymbolTableRecord
100
AcDbBlockTableRecord
  2
*D51
340
0
  0
BLOCK_RECORD
  5
262
330
1
100
AcDbSymbolTableRecord
100
AcDbBlockTableRecord
  2
*D52
340
0
  0
BLOCK_RECORD
  5
26E
330
1
100
AcDbSymbolTableRecord
100
AcDbBlockTableRecord
  2
*D53
340
0
  0
BLOCK_RECORD
  5
27A
330
1
100
AcDbSymbolTableRecord
100
AcDbBlockTableRecord
  2
*D54
340
0
  0
BLOCK_RECORD
  5
286
330
1
100
AcDbSymbolTableRecord
100
AcDbBlockTableRecord
  2
*D55
340
0
  0
BLOCK_RECORD
  5
292
330
1
100
AcDbSymbolTableRecord
100
AcDbBlockTableRecord
  2
*D56
340
0
  0
BLOCK_RECORD
  5
29E
330
1
100
AcDbSymbolTableRecord
100
AcDbBlockTableRecord
  2
*D57
340
0
  0
BLOCK_RECORD
  5
2A7
330
1
100
AcDbSymbolTableRecord
100
AcDbBlockTableRecord
  2
*D58
340
0
  0
BLOCK_RECORD
  5
2B0
330
1
100
AcDbSymbolTableRecord
100
AcDbBlockTableRecord
  2
*D59
340
0
  0
BLOCK_RECORD
  5
2B9
330
1
100
AcDbSymbolTableRecord
100
AcDbBlockTableRecord
  2
*D60
340
0
  0
BLOCK_RECORD
  5
2C5
330
1
100
AcDbSymbolTableRecord
100
AcDbBlockTableRecord
  2
*D61
340
0
  0
BLOCK_RECORD
  5
B2F
330
1
100
AcDbSymbolTableRecord
100
AcDbBlockTableRecord
  2
*D63
340
0
  0
BLOCK_RECORD
  5
B37
330
1
100
AcDbSymbolTableRecord
100
AcDbBlockTableRecord
  2
*D64
340
0
  0
BLOCK_RECORD
  5
B3F
330
1
100
AcDbSymbolTableRecord
100
AcDbBlockTableRecord
  2
*D65
340
0
  0
BLOCK_RECORD
  5
B4C
330
1
100
AcDbSymbolTableRecord
100
AcDbBlockTableRecord
  2
*D66
340
0
  0
BLOCK_RECORD
  5
B59
330
1
100
AcDbSymbolTableRecord
100
AcDbBlockTableRecord
  2
*D67
340
0
  0
BLOCK_RECORD
  5
B65
330
1
100
AcDbSymbolTableRecord
100
AcDbBlockTableRecord
  2
*D68
340
0
  0
BLOCK_RECORD
  5
B71
330
1
100
AcDbSymbolTableRecord
100
AcDbBlockTableRecord
  2
*D69
340
0
  0
BLOCK_RECORD
  5
B7D
330
1
100
AcDbSymbolTableRecord
100
AcDbBlockTableRecord
  2
*D70
340
0
  0
BLOCK_RECORD
  5
B86
330
1
100
AcDbSymbolTableRecord
100
AcDbBlockTableRecord
  2
*D71
340
0
  0
BLOCK_RECORD
  5
B8F
330
1
100
AcDbSymbolTableRecord
100
AcDbBlockTableRecord
  2
*D72
340
0
  0
BLOCK_RECORD
  5
B97
330
1
100
AcDbSymbolTableRecord
100
AcDbBlockTableRecord
  2
*D73
340
0
  0
BLOCK_RECORD
  5
BA0
330
1
100
AcDbSymbolTableRecord
100
AcDbBlockTableRecord
  2
*D74
340
0
  0
BLOCK_RECORD
  5
BA8
330
1
100
AcDbSymbolTableRecord
100
AcDbBlockTableRecord
  2
*D75
340
0
  0
BLOCK_RECORD
  5
BB4
330
1
100
AcDbSymbolTableRecord
100
AcDbBlockTableRecord
  2
*D76
340
0
  0
BLOCK_RECORD
  5
BC0
330
1
100
AcDbSymbolTableRecord
100
AcDbBlockTableRecord
  2
*D77
340
0
  0
BLOCK_RECORD
  5
BCC
330
1
100
AcDbSymbolTableRecord
100
AcDbBlockTableRecord
  2
*D78
340
0
  0
BLOCK_RECORD
  5
BD8
330
1
100
AcDbSymbolTableRecord
100
AcDbBlockTableRecord
  2
*D79
340
0
  0
BLOCK_RECORD
  5
BE0
330
1
100
AcDbSymbolTableRecord
100
AcDbBlockTableRecord
  2
*D80
340
0
  0
BLOCK_RECORD
  5
BE8
330
1
100
AcDbSymbolTableRecord
100
AcDbBlockTableRecord
  2
*D81
340
0
  0
BLOCK_RECORD
  5
BF5
330
1
100
AcDbSymbolTableRecord
100
AcDbBlockTableRecord
  2
*D82
340
0
  0
BLOCK_RECORD
  5
C02
330
1
100
AcDbSymbolTableRecord
100
AcDbBlockTableRecord
  2
*D83
340
0
  0
BLOCK_RECORD
  5
C0E
330
1
100
AcDbSymbolTableRecord
100
AcDbBlockTableRecord
  2
*D84
340
0
  0
BLOCK_RECORD
  5
C1A
330
1
100
AcDbSymbolTableRecord
100
AcDbBlockTableRecord
  2
*D85
340
0
  0
BLOCK_RECORD
  5
C26
330
1
100
AcDbSymbolTableRecord
100
AcDbBlockTableRecord
  2
*D86
340
0
  0
BLOCK_RECORD
  5
C32
330
1
100
AcDbSymbolTableRecord
100
AcDbBlockTableRecord
  2
*D87
340
0
  0
BLOCK_RECORD
  5
C3E
330
1
100
AcDbSymbolTableRecord
100
AcDbBlockTableRecord
  2
*D88
340
0
  0
BLOCK_RECORD
  5
C4A
330
1
100
AcDbSymbolTableRecord
100
AcDbBlockTableRecord
  2
*D89
340
0
  0
BLOCK_RECORD
  5
C56
330
1
100
AcDbSymbolTableRecord
100
AcDbBlockTableRecord
  2
*D90
340
0
  0
BLOCK_RECORD
  5
C62
330
1
100
AcDbSymbolTableRecord
100
AcDbBlockTableRecord
  2
*D91
340
0
  0
BLOCK_RECORD
  5
C6E
330
1
100
AcDbSymbolTableRecord
100
AcDbBlockTableRecord
  2
*D92
340
0
  0
BLOCK_RECORD
  5
C77
330
1
100
AcDbSymbolTableRecord
100
AcDbBlockTableRecord
  2
*D93
340
0
  0
BLOCK_RECORD
  5
C7F
330
1
100
AcDbSymbolTableRecord
100
AcDbBlockTableRecord
  2
*D94
340
0
  0
BLOCK_RECORD
  5
C87
330
1
100
AcDbSymbolTableRecord
100
AcDbBlockTableRecord
  2
*D95
340
0
  0
BLOCK_RECORD
  5
C90
330
1
100
AcDbSymbolTableRecord
100
AcDbBlockTableRecord
  2
*D96
340
0
  0
BLOCK_RECORD
  5
C98
330
1
100
AcDbSymbolTableRecord
100
AcDbBlockTableRecord
  2
*D97
340
0
  0
BLOCK_RECORD
  5
CA1
330
1
100
AcDbSymbolTableRecord
100
AcDbBlockTableRecord
  2
*D98
340
0
  0
BLOCK_RECORD
  5
CAA
330
1
100
AcDbSymbolTableRecord
100
AcDbBlockTableRecord
  2
*D99
340
0
  0
BLOCK_RECORD
  5
CB5
330
1
100
AcDbSymbolTableRecord
100
AcDbBlockTableRecord
  2
*D100
340
0
  0
BLOCK_RECORD
  5
CDF
330
1
100
AcDbSymbolTableRecord
100
AcDbBlockTableRecord
  2
*D101
340
0
  0
BLOCK_RECORD
  5
CEB
330
1
100
AcDbSymbolTableRecord
100
AcDbBlockTableRecord
  2
*D102
340
0
  0
BLOCK_RECORD
  5
CF8
330
1
100
AcDbSymbolTableRecord
100
AcDbBlockTableRecord
  2
*D103
340
0
  0
BLOCK_RECORD
  5
D0D
330
1
100
AcDbSymbolTableRecord
100
AcDbBlockTableRecord
  2
*D104
340
0
  0
BLOCK_RECORD
  5
D1B
330
1
100
AcDbSymbolTableRecord
100
AcDbBlockTableRecord
  2
*D105
340
0
  0
BLOCK_RECORD
  5
D60
330
1
100
AcDbSymbolTableRecord
100
AcDbBlockTableRecord
  2
*D106
340
0
  0
BLOCK_RECORD
  5
D6C
330
1
100
AcDbSymbolTableRecord
100
AcDbBlockTableRecord
  2
*D107
340
0
  0
BLOCK_RECORD
  5
D8A
330
1
100
AcDbSymbolTableRecord
100
AcDbBlockTableRecord
  2
*D108
340
0
  0
BLOCK_RECORD
  5
DCF
330
1
100
AcDbSymbolTableRecord
100
AcDbBlockTableRecord
  2
*D109
340
0
  0
BLOCK_RECORD
  5
DDB
330
1
100
AcDbSymbolTableRecord
100
AcDbBlockTableRecord
  2
*D110
340
0
  0
BLOCK_RECORD
  5
DE7
330
1
100
AcDbSymbolTableRecord
100
AcDbBlockTableRecord
  2
*D111
340
0
  0
BLOCK_RECORD
  5
E05
330
1
100
AcDbSymbolTableRecord
100
AcDbBlockTableRecord
  2
*D112
340
0
  0
BLOCK_RECORD
  5
E11
330
1
100
AcDbSymbolTableRecord
100
AcDbBlockTableRecord
  2
*D113
340
0
  0
BLOCK_RECORD
  5
E1D
330
1
100
AcDbSymbolTableRecord
100
AcDbBlockTableRecord
  2
*D114
340
0
  0
BLOCK_RECORD
  5
E29
330
1
100
AcDbSymbolTableRecord
100
AcDbBlockTableRecord
  2
*D115
340
0
  0
BLOCK_RECORD
  5
E50
330
1
100
AcDbSymbolTableRecord
100
AcDbBlockTableRecord
  2
*D116
340
0
  0
BLOCK_RECORD
  5
E5C
330
1
100
AcDbSymbolTableRecord
100
AcDbBlockTableRecord
  2
*D117
340
0
  0
BLOCK_RECORD
  5
E71
330
1
100
AcDbSymbolTableRecord
100
AcDbBlockTableRecord
  2
*D118
340
0
  0
BLOCK_RECORD
  5
EAD
330
1
100
AcDbSymbolTableRecord
100
AcDbBlockTableRecord
  2
*D119
340
0
  0
BLOCK_RECORD
  5
EB6
330
1
100
AcDbSymbolTableRecord
100
AcDbBlockTableRecord
  2
*D120
340
0
  0
BLOCK_RECORD
  5
EC7
330
1
100
AcDbSymbolTableRecord
100
AcDbBlockTableRecord
  2
*D121
340
0
  0
BLOCK_RECORD
  5
ED0
330
1
100
AcDbSymbolTableRecord
100
AcDbBlockTableRecord
  2
*D122
340
0
  0
BLOCK_RECORD
  5
EDC
330
1
100
AcDbSymbolTableRecord
100
AcDbBlockTableRecord
  2
*D123
340
0
  0
ENDTAB
  0
ENDSEC
  0
SECTION
  2
BLOCKS
  0
BLOCK
  5
24
330
23
100
AcDbEntity
  8
0
100
AcDbBlockBegin
  2
*Model_Space
 70
     0
 10
0.0
 20
0.0
 30
0.0
  3
*Model_Space
  1

  0
ENDBLK
  5
25
330
23
100
AcDbEntity
  8
0
100
AcDbBlockEnd
  0
BLOCK
  5
20
330
1F
100
AcDbEntity
 67
     1
  8
0
100
AcDbBlockBegin
  2
*Paper_Space
 70
     0
 10
0.0
 20
0.0
 30
0.0
  3
*Paper_Space
  1

  0
ENDBLK
  5
21
330
1F
100
AcDbEntity
 67
     1
  8
0
100
AcDbBlockEnd
  0
BLOCK
  5
28
330
27
100
AcDbEntity
 67
     1
  8
0
100
AcDbBlockBegin
  2
*Paper_Space0
 70
     0
 10
0.0
 20
0.0
 30
0.0
  3
*Paper_Space0
  1

  0
ENDBLK
  5
29
330
27
100
AcDbEntity
 67
     1
  8
0
100
AcDbBlockEnd
  0
BLOCK
  5
30
330
2F
100
AcDbEntity
  8
0
100
AcDbBlockBegin
  2
*D1
 70
     1
 10
0.0
 20
0.0
 30
0.0
  3
*D1
  1

  0
LINE
  5
31
330
2F
100
AcDbEntity
  8
cotas
100
AcDbLine
 10
4049.048373329668
 20
3381.892922995001
 30
0.0
 11
4025.031725439179
 21
3408.842320205944
 31
0.0
  0
MTEXT
  5
32
330
2F
100
AcDbEntity
  8
cotas
100
AcDbMText
 10
4047.832244138202
 20
3398.287986714034
 30
0.0
 40
10.0
 41
0.0
 71
     5
 72
     1
  1
R7
  7
SANINDUSA
 11
0.6653169992360671
 21
-0.7465609757598606
 31
0.0
 73
     1
 44
1.0
1001
ACAD
1000
MTEXTBEGIN
1070
    73
1070
     1
1070
    44
1040
1.0
1070
    74
1070
     0
1000
MTEXTEND
  0
SOLID
  5
33
330
2F
100
AcDbEntity
  8
cotas
100
AcDbTrace
 10
4026.275993732111
 20
3409.951181871337
 30
0.0
 11
4023.787457146244
 21
3407.73345854055
 31
0.0
 12
4018.378555446818
 22
3416.307929963543
 32
0.0
 13
4018.378555446818
 23
3416.307929963543
 33
0.0
  0
POINT
  5
34
330
2F
100
AcDbEntity
  8
Defpoints
 62
     0
100
AcDbPoint
 10
4018.378555446818
 20
3416.307929963543
 30
0.0
  0
POINT
  5
35
330
2F
100
AcDbEntity
  8
Defpoints
 62
     0
100
AcDbPoint
 10
4023.035774441469
 20
3411.082003133226
 30
0.0
  0
ENDBLK
  5
36
330
2F
100
AcDbEntity
  8
0
100
AcDbBlockEnd
  0
BLOCK
  5
38
330
37
100
AcDbEntity
  8
0
100
AcDbBlockBegin
  2
*D2
 70
     1
 10
0.0
 20
0.0
 30
0.0
  3
*D2
  1

  0
LINE
  5
39
330
37
100
AcDbEntity
  8
cotas
100
AcDbLine
 10
4879.247137896708
 20
3386.045944032226
 30
0.0
 11
4906.973738782812
 21
3409.160982194249
 31
0.0
  0
MTEXT
  5
3A
330
37
100
AcDbEntity
  8
cotas
100
AcDbMText
 10
4882.866578584792
 20
3402.082674798406
 30
0.0
 40
10.0
 41
0.0
 71
     5
 72
     1
  1
R7
  7
SANINDUSA
 11
0.7680913250121833
 21
0.6403403129907009
 31
0.0
 73
     1
 44
1.0
1001
ACAD
1000
MTEXTBEGIN
1070
    73
1070
     1
1070
    44
1040
1.0
1070
    74
1070
     0
1000
MTEXTEND
  0
SOLID
  5
3B
330
37
100
AcDbEntity
  8
cotas
100
AcDbTrace
 10
4905.906504927828
 20
3410.441134402603
 30
0.0
 11
4908.040972637796
 21
3407.880829985896
 31
0.0
 12
4914.654652032933
 22
3415.564385324156
 32
0.0
 13
4914.654652032933
 23
3415.564385324156
 33
0.0
  0
POINT
  5
3C
330
37
100
AcDbEntity
  8
Defpoints
 62
     0
100
AcDbPoint
 10
4914.654652032933
 20
3415.564385324156
 30
0.0
  0
POINT
  5
3D
330
37
100
AcDbEntity
  8
Defpoints
 62
     0
100
AcDbPoint
 10
4909.278012757856
 20
3411.082003133228
 30
0.0
  0
ENDBLK
  5
3E
330
37
100
AcDbEntity
  8
0
100
AcDbBlockEnd
  0
BLOCK
  5
40
330
3F
100
AcDbEntity
  8
0
100
AcDbBlockBegin
  2
*D3
 70
     1
 10
0.0
 20
0.0
 30
0.0
  3
*D3
  1

  0
LINE
  5
41
330
3F
100
AcDbEntity
  8
cotas
100
AcDbLine
 10
4916.942337941078
 20
3373.082765505123
 30
0.0
 11
4917.469064493212
 21
3342.905702139311
 31
0.0
  0
ARC
  5
42
330
3F
100
AcDbEntity
  8
cotas
100
AcDbCircle
 10
4916.156897257299
 20
3418.082003133227
 30
0.0
 40
70.18775175507531
100
AcDbArc
 50
188.1701364803898
 51
262.8298330588094
  0
SOLID
  5
43
330
3F
100
AcDbEntity
  8
cotas
100
AcDbTrace
 10
4845.019088203965
 20
3407.988680146826
 30
0.0
 11
4848.343952810272
 21
3408.22613848179
 31
0.0
 12
4845.969145502223
 22
3418.082003133227
 32
0.0
 13
4845.969145502223
 23
3418.082003133227
 33
0.0
  0
SOLID
  5
44
330
3F
100
AcDbEntity
  8
cotas
100
AcDbTrace
 10
4907.485996631873
 20
3350.107382980208
 30
0.0
 11
4907.306599581851
 21
3346.778880642887
 31
0.0
 12
4917.381805118826
 22
3347.904940661484
 32
0.0
 13
4917.381805118826
 23
3347.904940661484
 33
0.0
  0
MTEXT
  5
45
330
3F
100
AcDbEntity
  8
cotas
100
AcDbMText
 10
4874.912182947887
 20
3376.111099247814
 30
0.0
 40
10.0
 41
0.0
 71
     5
 72
     1
  1
91,0°
  7
SANINDUSA
 11
0.7132502628380123
 21
-0.7009094538965118
 31
0.0
 73
     1
 44
1.0
1001
ACAD
1000
MTEXTBEGIN
1070
    73
1070
     1
1070
    44
1040
1.0
1070
    74
1070
     0
1000
MTEXTEND
  0
POINT
  5
46
330
3F
100
AcDbEntity
  8
Defpoints
 62
     0
100
AcDbPoint
 10
4855.577710325913
 20
3382.635104719342
 30
0.0
  0
POINT
  5
47
330
3F
100
AcDbEntity
  8
Defpoints
 62
     0
100
AcDbPoint
 10
4023.035774383568
 20
3418.082003133227
 30
0.0
  0
POINT
  5
48
330
3F
100
AcDbEntity
  8
Defpoints
 62
     0
100
AcDbPoint
 10
4916.276946605885
 20
3411.204171012229
 30
0.0
  0
POINT
  5
49
330
3F
100
AcDbEntity
  8
Defpoints
 62
     0
100
AcDbPoint
 10
4916.855078566694
 20
3378.082004027297
 30
0.0
  0
POINT
  5
4A
330
3F
100
AcDbEntity
  8
Defpoints
 62
     0
100
AcDbPoint
 10
4909.278016913556
 20
3418.082003133227
 30
0.0
  0
ENDBLK
  5
4B
330
3F
100
AcDbEntity
  8
0
100
AcDbBlockEnd
  0
BLOCK
  5
4D
330
4C
100
AcDbEntity
  8
0
100
AcDbBlockBegin
  2
*D4
 70
     1
 10
0.0
 20
0.0
 30
0.0
  3
*D4
  1

  0
LINE
  5
4E
330
4C
100
AcDbEntity
  8
cotas
100
AcDbLine
 10
4015.371428986912
 20
3373.082765551512
 30
0.0
 11
4014.745745135999
 21
3337.237361687825
 31
0.0
  0
ARC
  5
4F
330
4C
100
AcDbEntity
  8
cotas
100
AcDbCircle
 10
4016.156893599485
 20
3418.082003133228
 30
0.0
 40
75.85695635145947
100
AcDbArc
 50
276.5586144526251
 51
352.4413855488219
  0
SOLID
  5
50
330
4C
100
AcDbEntity
  8
cotas
100
AcDbTrace
 10
4024.902059382399
 20
3341.056784380243
 30
0.0
 11
4024.740429246499
 21
3344.386196762373
 31
0.0
 12
4014.83300716806
 22
3342.236600163609
 32
0.0
 13
4014.83300716806
 23
3342.236600163609
 33
0.0
  0
SOLID
  5
51
330
4C
100
AcDbEntity
  8
cotas
100
AcDbTrace
 10
4089.691672389545
 20
3408.213605636617
 30
0.0
 11
4093.017756851224
 21
3407.993893859764
 31
0.0
 12
4092.013849950944
 22
3418.082003133227
 32
0.0
 13
4092.013849950944
 23
3418.082003133227
 33
0.0
  0
MTEXT
  5
52
330
4C
100
AcDbEntity
  8
cotas
100
AcDbMText
 10
4061.375194775563
 20
3372.067525559974
 30
0.0
 40
10.0
 41
0.0
 71
     5
 72
     1
  1
91,0°
  7
SANINDUSA
 11
0.7132504491453286
 21
0.70090926430886
 31
0.0
 73
     1
 44
1.0
1001
ACAD
1000
MTEXTBEGIN
1070
    73
1070
     1
1070
    44
1040
1.0
1070
    74
1070
     0
1000
MTEXTEND
  0
POINT
  5
53
330
4C
100
AcDbEntity
  8
Defpoints
 62
     0
100
AcDbPoint
 10
4053.318436574014
 20
3351.951090916176
 30
0.0
  0
POINT
  5
54
330
4C
100
AcDbEntity
  8
Defpoints
 62
     0
100
AcDbPoint
 10
4015.458691018973
 20
3378.082004027297
 30
0.0
  0
POINT
  5
55
330
4C
100
AcDbEntity
  8
Defpoints
 62
     0
100
AcDbPoint
 10
4023.035774383568
 20
3418.082003133228
 30
0.0
  0
POINT
  5
56
330
4C
100
AcDbEntity
  8
Defpoints
 62
     0
100
AcDbPoint
 10
4909.278016913557
 20
3418.082003133227
 30
0.0
  0
POINT
  5
57
330
4C
100
AcDbEntity
  8
Defpoints
 62
     0
100
AcDbPoint
 10
4016.036840577276
 20
3411.204170087272
 30
0.0
  0
ENDBLK
  5
58
330
4C
100
AcDbEntity
  8
0
100
AcDbBlockEnd
  0
BLOCK
  5
5A
330
59
100
AcDbEntity
  8
0
100
AcDbBlockBegin
  2
*D5
 70
     1
 10
0.0
 20
0.0
 30
0.0
  3
*D5
  1

  0
LINE
  5
5B
330
59
100
AcDbEntity
  8
cotas
100
AcDbLine
 10
5767.967425899012
 20
4174.867894020136
 30
0.0
 11
5817.453191573468
 21
4174.867894020136
 31
0.0
  0
LINE
  5
5C
330
59
100
AcDbEntity
  8
cotas
100
AcDbLine
 10
5893.630997955089
 20
4242.50555211127
 30
0.0
 11
5807.453191573468
 21
4242.50555211127
 31
0.0
  0
LINE
  5
5D
330
59
100
AcDbEntity
  8
cotas
100
AcDbLine
 10
5812.453191573467
 20
4184.867894020135
 30
0.0
 11
5812.453191573467
 21
4232.50555211127
 31
0.0
  0
SOLID
  5
5E
330
59
100
AcDbEntity
  8
cotas
100
AcDbTrace
 10
5810.786524906801
 20
4184.867894020135
 30
0.0
 11
5814.119858240135
 21
4184.867894020135
 31
0.0
 12
5812.453191573467
 22
4174.867894020136
 32
0.0
 13
5812.453191573467
 23
4174.867894020136
 33
0.0
  0
SOLID
  5
5F
330
59
100
AcDbEntity
  8
cotas
100
AcDbTrace
 10
5810.786524906801
 20
4232.50555211127
 30
0.0
 11
5814.119858240135
 21
4232.50555211127
 31
0.0
 12
5812.453191573467
 22
4242.50555211127
 32
0.0
 13
5812.453191573467
 23
4242.50555211127
 33
0.0
  0
MTEXT
  5
60
330
59
100
AcDbEntity
  8
cotas
100
AcDbMText
 10
5801.116724145663
 20
4208.686723065704
 30
0.0
 40
10.0
 41
0.0
 71
     5
 72
     1
  1
67,6
  7
SANINDUSA
 11
0.0000000000000001
 21
1.0
 31
0.0
 73
     1
 44
1.0
1001
ACAD
1000
MTEXTBEGIN
1070
    73
1070
     1
1070
    44
1040
1.0
1070
    74
1070
     0
1000
MTEXTEND
  0
POINT
  5
61
330
59
100
AcDbEntity
  8
Defpoints
 62
     0
100
AcDbPoint
 10
5762.967425899012
 20
4174.867894020136
 30
0.0
  0
POINT
  5
62
330
59
100
AcDbEntity
  8
Defpoints
 62
     0
100
AcDbPoint
 10
5898.630997955089
 20
4242.50555211127
 30
0.0
  0
POINT
  5
63
330
59
100
AcDbEntity
  8
Defpoints
 62
     0
100
AcDbPoint
 10
5812.453191573467
 20
4242.50555211127
 30
0.0
  0
ENDBLK
  5
64
330
59
100
AcDbEntity
  8
0
100
AcDbBlockEnd
  0
BLOCK
  5
66
330
65
100
AcDbEntity
  8
0
100
AcDbBlockBegin
  2
*D6
 70
     1
 10
0.0
 20
0.0
 30
0.0
  3
*D6
  1

  0
LINE
  5
67
330
65
100
AcDbEntity
  8
cotas
100
AcDbLine
 10
5296.037790670936
 20
4182.930902023206
 30
0.0
 11
5162.932786988272
 21
4182.930902023206
 31
0.0
  0
LINE
  5
68
330
65
100
AcDbEntity
  8
cotas
100
AcDbLine
 10
5193.630989568781
 20
4242.505552111269
 30
0.0
 11
5162.932786988272
 21
4242.505552111269
 31
0.0
  0
LINE
  5
69
330
65
100
AcDbEntity
  8
cotas
100
AcDbLine
 10
5167.932786988272
 20
4192.930902023205
 30
0.0
 11
5167.932786988272
 21
4232.505552111269
 31
0.0
  0
SOLID
  5
6A
330
65
100
AcDbEntity
  8
cotas
100
AcDbTrace
 10
5166.266120321605
 20
4192.930902023205
 30
0.0
 11
5169.599453654939
 21
4192.930902023205
 31
0.0
 12
5167.932786988272
 22
4182.930902023206
 32
0.0
 13
5167.932786988272
 23
4182.930902023206
 33
0.0
  0
SOLID
  5
6B
330
65
100
AcDbEntity
  8
cotas
100
AcDbTrace
 10
5166.266120321605
 20
4232.505552111269
 30
0.0
 11
5169.599453654939
 21
4232.505552111269
 31
0.0
 12
5167.932786988272
 22
4242.505552111269
 32
0.0
 13
5167.932786988272
 23
4242.505552111269
 33
0.0
  0
MTEXT
  5
6C
330
65
100
AcDbEntity
  8
cotas
100
AcDbMText
 10
5156.589603643745
 20
4212.718227067238
 30
0.0
 40
10.0
 41
0.0
 71
     5
 72
     1
  1
59,6
  7
SANINDUSA
 11
0.0000000000000001
 21
1.0
 31
0.0
 73
     1
 44
1.0
1001
ACAD
1000
MTEXTBEGIN
1070
    73
1070
     1
1070
    44
1040
1.0
1070
    74
1070
     0
1000
MTEXTEND
  0
POINT
  5
6D
330
65
100
AcDbEntity
  8
Defpoints
 62
     0
100
AcDbPoint
 10
5301.037790670936
 20
4182.930902023206
 30
0.0
  0
POINT
  5
6E
330
65
100
AcDbEntity
  8
Defpoints
 62
     0
100
AcDbPoint
 10
5198.630989568781
 20
4242.505552111269
 30
0.0
  0
POINT
  5
6F
330
65
100
AcDbEntity
  8
Defpoints
 62
     0
100
AcDbPoint
 10
5167.932786988272
 20
4242.505552111269
 30
0.0
  0
ENDBLK
  5
70
330
65
100
AcDbEntity
  8
0
100
AcDbBlockEnd
  0
BLOCK
  5
72
330
71
100
AcDbEntity
  8
0
100
AcDbBlockBegin
  2
*D7
 70
     1
 10
0.0
 20
0.0
 30
0.0
  3
*D7
  1

  0
ARC
  5
73
330
71
100
AcDbEntity
  8
cotas
100
AcDbCircle
 10
5264.864803623367
 20
4238.605552111267
 30
0.0
 40
47.01428158020574
100
AcDbArc
 50
192.2099791823495
 51
259.7900208176421
  0
SOLID
  5
74
330
71
100
AcDbEntity
  8
cotas
100
AcDbTrace
 10
5217.256814192349
 20
4228.485014143074
 30
0.0
 11
5220.571243146943
 21
4228.839516351903
 31
0.0
 12
5217.85052204316
 22
4238.605552111267
 32
0.0
 13
5217.85052204316
 23
4238.605552111267
 33
0.0
  0
SOLID
  5
75
330
71
100
AcDbEntity
  8
cotas
100
AcDbTrace
 10
5256.650540036898
 20
4193.998144342335
 30
0.0
 11
5256.411925683607
 21
4190.67336249964
 31
0.0
 12
5266.505578388339
 22
4191.619910361118
 32
0.0
 13
5266.505578388339
 23
4191.619910361118
 33
0.0
  0
MTEXT
  5
76
330
71
100
AcDbEntity
  8
cotas
100
AcDbMText
 10
5240.087909284368
 20
4212.948326941653
 30
0.0
 40
10.0
 41
0.0
 71
     5
 72
     1
  1
92,0°
  7
SANINDUSA
 11
0.719339800338595
 21
-0.6946583704590556
 31
0.0
 73
     1
 44
1.0
1001
ACAD
1000
MTEXTBEGIN
1070
    73
1070
     1
1070
    44
1040
1.0
1070
    74
1070
     0
1000
MTEXTEND
  0
POINT
  5
77
330
71
100
AcDbEntity
  8
Defpoints
 62
     0
100
AcDbPoint
 10
5224.425509383237
 20
4214.626266178129
 30
0.0
  0
POINT
  5
78
330
71
100
AcDbEntity
  8
Defpoints
 62
     0
100
AcDbPoint
 10
5205.509870410768
 20
4238.605552111269
 30
0.0
  0
POINT
  5
79
330
71
100
AcDbEntity
  8
Defpoints
 62
     0
100
AcDbPoint
 10
5266.581723032842
 20
4189.439413034937
 30
0.0
  0
POINT
  5
7A
330
71
100
AcDbEntity
  8
Defpoints
 62
     0
100
AcDbPoint
 10
5264.969279985223
 20
4235.613740551048
 30
0.0
  0
POINT
  5
7B
330
71
100
AcDbEntity
  8
Defpoints
 62
     0
100
AcDbPoint
 10
5261.871168421468
 20
4238.605552111269
 30
0.0
  0
ENDBLK
  5
7C
330
71
100
AcDbEntity
  8
0
100
AcDbBlockEnd
  0
BLOCK
  5
7E
330
7D
100
AcDbEntity
  8
0
100
AcDbBlockBegin
  2
*D8
 70
     1
 10
0.0
 20
0.0
 30
0.0
  3
*D8
  1

  0
LINE
  5
7F
330
7D
100
AcDbEntity
  8
cotas
100
AcDbLine
 10
5234.517794312503
 20
4141.615038389086
 30
0.0
 11
5267.56867092649
 21
4171.92114832763
 31
0.0
  0
MTEXT
  5
80
330
7D
100
AcDbEntity
  8
cotas
100
AcDbMText
 10
5240.588246755717
 20
4160.771760217804
 30
0.0
 40
10.0
 41
0.0
 71
     5
 72
     1
  1
R17
  7
SANINDUSA
 11
0.7370489033731849
 21
0.6758394143850932
 31
0.0
 73
     1
 44
1.0
1001
ACAD
1000
MTEXTBEGIN
1070
    73
1070
     1
1070
    44
1040
1.0
1070
    74
1070
     0
1000
MTEXTEND
  0
LINE
  5
81
330
7D
100
AcDbEntity
  8
cotas
100
AcDbLine
 10
5287.468991317557
 20
4190.168812516019
 30
0.0
 11
5274.939159960221
 21
4178.67954247148
 31
0.0
  0
SOLID
  5
82
330
7D
100
AcDbEntity
  8
cotas
100
AcDbTrace
 10
5266.442271902514
 20
4173.149563166585
 30
0.0
 11
5268.695069950465
 21
4170.692733488674
 31
0.0
 12
5274.939159960221
 22
4178.67954247148
 32
0.0
 13
5274.939159960221
 23
4178.67954247148
 33
0.0
  0
POINT
  5
83
330
7D
100
AcDbEntity
  8
Defpoints
 62
     0
100
AcDbPoint
 10
5274.939159960221
 20
4178.67954247148
 30
0.0
  0
POINT
  5
84
330
7D
100
AcDbEntity
  8
Defpoints
 62
     0
100
AcDbPoint
 10
5287.468991317557
 20
4190.168812516019
 30
0.0
  0
ENDBLK
  5
85
330
7D
100
AcDbEntity
  8
0
100
AcDbBlockEnd
  0
BLOCK
  5
87
330
86
100
AcDbEntity
  8
0
100
AcDbBlockBegin
  2
*D9
 70
     1
 10
0.0
 20
0.0
 30
0.0
  3
*D9
  1

  0
LINE
  5
88
330
86
100
AcDbEntity
  8
cotas
100
AcDbLine
 10
5310.864381019808
 20
4121.161430286345
 30
0.0
 11
5297.676704923674
 21
4163.97840929746
 31
0.0
  0
MTEXT
  5
89
330
86
100
AcDbEntity
  8
cotas
100
AcDbMText
 10
5315.495040717351
 20
4140.795288245553
 30
0.0
 40
10.0
 41
0.0
 71
     5
 72
     1
  1
R10
  7
SANINDUSA
 11
0.2943554145876557
 21
-0.9556960237978023
 31
0.0
 73
     1
 44
1.0
1001
ACAD
1000
MTEXTBEGIN
1070
    73
1070
     1
1070
    44
1040
1.0
1070
    74
1070
     0
1000
MTEXTEND
  0
LINE
  5
8A
330
86
100
AcDbEntity
  8
cotas
100
AcDbLine
 10
5291.789596631922
 20
4183.092329773415
 30
0.0
 11
5294.733150777798
 21
4173.535369535438
 31
0.0
  0
SOLID
  5
8B
330
86
100
AcDbEntity
  8
cotas
100
AcDbTrace
 10
5299.269531630003
 20
4164.469001655106
 30
0.0
 11
5296.083878217343
 21
4163.487816939814
 31
0.0
 12
5294.733150777798
 22
4173.535369535438
 32
0.0
 13
5294.733150777798
 23
4173.535369535438
 33
0.0
  0
POINT
  5
8C
330
86
100
AcDbEntity
  8
Defpoints
 62
     0
100
AcDbPoint
 10
5294.733150777798
 20
4173.535369535438
 30
0.0
  0
POINT
  5
8D
330
86
100
AcDbEntity
  8
Defpoints
 62
     0
100
AcDbPoint
 10
5291.789596631922
 20
4183.092329773415
 30
0.0
  0
ENDBLK
  5
8E
330
86
100
AcDbEntity
  8
0
100
AcDbBlockEnd
  0
BLOCK
  5
90
330
8F
100
AcDbEntity
  8
0
100
AcDbBlockBegin
  2
*D10
 70
     1
 10
0.0
 20
0.0
 30
0.0
  3
*D10
  1

  0
LINE
  5
91
330
8F
100
AcDbEntity
  8
cotas
100
AcDbLine
 10
5338.610286880104
 20
4142.448859929344
 30
0.0
 11
5309.2145648102
 21
4173.639806082451
 31
0.0
  0
MTEXT
  5
92
330
8F
100
AcDbEntity
  8
cotas
100
AcDbMText
 10
5336.937958189073
 20
4158.803688002749
 30
0.0
 40
10.0
 41
0.0
 71
     5
 72
     1
  1
R7
  7
SANINDUSA
 11
0.6858537116671829
 21
-0.7277394356446193
 31
0.0
 73
     1
 44
1.0
1001
ACAD
1000
MTEXTBEGIN
1070
    73
1070
     1
1070
    44
1040
1.0
1070
    74
1070
     0
1000
MTEXTEND
  0
SOLID
  5
93
330
8F
100
AcDbEntity
  8
cotas
100
AcDbTrace
 10
5310.427463869608
 20
4174.782895601896
 30
0.0
 11
5308.001665750791
 21
4172.496716563006
 31
0.0
 12
5302.356027693527
 22
4180.917200438897
 32
0.0
 13
5302.356027693527
 23
4180.917200438897
 33
0.0
  0
POINT
  5
94
330
8F
100
AcDbEntity
  8
Defpoints
 62
     0
100
AcDbPoint
 10
5302.356027693527
 20
4180.917200438897
 30
0.0
  0
POINT
  5
95
330
8F
100
AcDbEntity
  8
Defpoints
 62
     0
100
AcDbPoint
 10
5307.157003675197
 20
4175.823024389385
 30
0.0
  0
ENDBLK
  5
96
330
8F
100
AcDbEntity
  8
0
100
AcDbBlockEnd
  0
BLOCK
  5
98
330
97
100
AcDbEntity
  8
0
100
AcDbBlockBegin
  2
*D11
 70
     1
 10
0.0
 20
0.0
 30
0.0
  3
*D11
  1

  0
LINE
  5
99
330
97
100
AcDbEntity
  8
cotas
100
AcDbLine
 10
5746.938136246122
 20
4106.030460560886
 30
0.0
 11
5767.966834127176
 21
4145.636200170033
 31
0.0
  0
MTEXT
  5
9A
330
97
100
AcDbEntity
  8
cotas
100
AcDbMText
 10
5746.260658587954
 20
4126.114568908308
 30
0.0
 40
10.0
 41
0.0
 71
     5
 72
     1
  1
R17
  7
SANINDUSA
 11
0.4689490960744286
 21
0.8832251951178569
 31
0.0
 73
     1
 44
1.0
1001
ACAD
1000
MTEXTBEGIN
1070
    73
1070
     1
1070
    44
1040
1.0
1070
    74
1070
     0
1000
MTEXTEND
  0
LINE
  5
9B
330
97
100
AcDbEntity
  8
cotas
100
AcDbLine
 10
5780.630367355009
 20
4169.486873302065
 30
0.0
 11
5772.656325087921
 21
4154.468452121211
 31
0.0
  0
SOLID
  5
9C
330
97
100
AcDbEntity
  8
cotas
100
AcDbTrace
 10
5766.494792135313
 20
4146.417781996823
 30
0.0
 11
5769.438876119039
 21
4144.854618343242
 31
0.0
 12
5772.656325087921
 22
4154.468452121211
 32
0.0
 13
5772.656325087921
 23
4154.468452121211
 33
0.0
  0
POINT
  5
9D
330
97
100
AcDbEntity
  8
Defpoints
 62
     0
100
AcDbPoint
 10
5772.656325087921
 20
4154.468452121211
 30
0.0
  0
POINT
  5
9E
330
97
100
AcDbEntity
  8
Defpoints
 62
     0
100
AcDbPoint
 10
5780.630367355009
 20
4169.486873302065
 30
0.0
  0
ENDBLK
  5
9F
330
97
100
AcDbEntity
  8
0
100
AcDbBlockEnd
  0
BLOCK
  5
A1
330
A0
100
AcDbEntity
  8
0
100
AcDbBlockBegin
  2
*D12
 70
     1
 10
0.0
 20
0.0
 30
0.0
  3
*D12
  1

  0
LINE
  5
A2
330
A0
100
AcDbEntity
  8
cotas
100
AcDbLine
 10
5723.936432738825
 20
4135.659597406223
 30
0.0
 11
5754.538873024888
 21
4165.869115652878
 31
0.0
  0
MTEXT
  5
A3
330
A0
100
AcDbEntity
  8
cotas
100
AcDbMText
 10
5726.197679087006
 20
4151.943449822474
 30
0.0
 40
10.0
 41
0.0
 71
     5
 72
     1
  1
R7
  7
SANINDUSA
 11
0.7116607288360213
 21
0.7025233142270676
 31
0.0
 73
     1
 44
1.0
1001
ACAD
1000
MTEXTBEGIN
1070
    73
1070
     1
1070
    44
1040
1.0
1070
    74
1070
     0
1000
MTEXTEND
  0
SOLID
  5
A4
330
A0
100
AcDbEntity
  8
cotas
100
AcDbTrace
 10
5753.368000834508
 20
4167.055216867605
 30
0.0
 11
5755.709745215265
 21
4164.683014438151
 31
0.0
 12
5761.655480313247
 22
4172.894348795149
 32
0.0
 13
5761.655480313247
 23
4172.894348795149
 33
0.0
  0
POINT
  5
A5
330
A0
100
AcDbEntity
  8
Defpoints
 62
     0
100
AcDbPoint
 10
5761.655480313247
 20
4172.894348795149
 30
0.0
  0
POINT
  5
A6
330
A0
100
AcDbEntity
  8
Defpoints
 62
     0
100
AcDbPoint
 10
5756.673862972571
 20
4167.976693257086
 30
0.0
  0
ENDBLK
  5
A7
330
A0
100
AcDbEntity
  8
0
100
AcDbBlockEnd
  0
BLOCK
  5
A9
330
A8
100
AcDbEntity
  8
0
100
AcDbBlockBegin
  2
*D13
 70
     1
 10
0.0
 20
0.0
 30
0.0
  3
*D13
  1

  0
ARC
  5
AA
330
A8
100
AcDbEntity
  8
cotas
100
AcDbCircle
 10
1888.010791789266
 20
4242.505552111271
 30
0.0
 40
3592.358038711878
100
AcDbArc
 50
359.1594928535916
 51
359.8405064378471
  0
SOLID
  5
AB
330
A8
100
AcDbEntity
  8
cotas
100
AcDbTrace
 10
5481.648755596722
 20
4189.782157356847
 30
0.0
 11
5478.315852205028
 21
4189.835693258293
 31
0.0
 12
5479.821696196535
 22
4179.810215132488
 32
0.0
 13
5479.821696196535
 23
4179.810215132488
 33
0.0
  0
SOLID
  5
AC
330
A8
100
AcDbEntity
  8
cotas
100
AcDbTrace
 10
5478.688247014352
 20
4232.507881536496
 30
0.0
 11
5482.02157711897
 21
4232.503242058334
 31
0.0
 12
5480.368830501144
 22
4242.505552111269
 32
0.0
 13
5480.368830501144
 23
4242.505552111269
 33
0.0
  0
MTEXT
  5
AD
330
A8
100
AcDbEntity
  8
cotas
100
AcDbMText
 10
5468.889292890539
 20
4211.255676713832
 30
0.0
 40
10.0
 41
0.0
 71
     5
 72
     1
  1
1,0°
  7
SANINDUSA
 11
0.0087265416815007
 21
0.9999619230102121
 31
0.0
 73
     1
 44
1.0
1001
ACAD
1000
MTEXTBEGIN
1070
    73
1070
     1
1070
    44
1040
1.0
1070
    74
1070
     0
1000
MTEXTEND
  0
POINT
  5
AE
330
A8
100
AcDbEntity
  8
Defpoints
 62
     0
100
AcDbPoint
 10
5480.1256562697
 20
4200.70748186194
 30
0.0
  0
POINT
  5
AF
330
A8
100
AcDbEntity
  8
Defpoints
 62
     0
100
AcDbPoint
 10
5288.854720628504
 20
4242.50555211127
 30
0.0
  0
POINT
  5
B0
330
A8
100
AcDbEntity
  8
Defpoints
 62
     0
100
AcDbPoint
 10
5556.826490560208
 20
4178.466090494501
 30
0.0
  0
POINT
  5
B1
330
A8
100
AcDbEntity
  8
Defpoints
 62
     0
100
AcDbPoint
 10
5307.279170606813
 20
4182.821958253973
 30
0.0
  0
POINT
  5
B2
330
A8
100
AcDbEntity
  8
Defpoints
 62
     0
100
AcDbPoint
 10
6308.407267401827
 20
4242.50555211127
 30
0.0
  0
ENDBLK
  5
B3
330
A8
100
AcDbEntity
  8
0
100
AcDbBlockEnd
  0
BLOCK
  5
B5
330
B4
100
AcDbEntity
  8
0
100
AcDbBlockBegin
  2
*D14
 70
     1
 10
0.0
 20
0.0
 30
0.0
  3
*D14
  1

  0
LINE
  5
B6
330
B4
100
AcDbEntity
  8
cotas
100
AcDbLine
 10
6418.631000297766
 20
4171.400231258657
 30
0.0
 11
6418.631000297766
 21
4307.500552067028
 31
0.0
  0
LINE
  5
B7
330
B4
100
AcDbEntity
  8
cotas
100
AcDbLine
 10
5198.630989568781
 20
4247.505552111269
 30
0.0
 11
5198.630989568781
 21
4307.500552067028
 31
0.0
  0
LINE
  5
B8
330
B4
100
AcDbEntity
  8
cotas
100
AcDbLine
 10
6408.631000297766
 20
4302.500552067028
 30
0.0
 11
5208.630989568781
 21
4302.500552067028
 31
0.0
  0
SOLID
  5
B9
330
B4
100
AcDbEntity
  8
cotas
100
AcDbTrace
 10
6408.631000297766
 20
4304.167218733695
 30
0.0
 11
6408.631000297766
 21
4300.833885400361
 31
0.0
 12
6418.631000297766
 22
4302.500552067028
 32
0.0
 13
6418.631000297766
 23
4302.500552067028
 33
0.0
  0
SOLID
  5
BA
330
B4
100
AcDbEntity
  8
cotas
100
AcDbTrace
 10
5208.630989568781
 20
4304.167218733695
 30
0.0
 11
5208.630989568781
 21
4300.833885400361
 31
0.0
 12
5198.630989568781
 22
4302.500552067028
 32
0.0
 13
5198.630989568781
 23
4302.500552067028
 33
0.0
  0
MTEXT
  5
BB
330
B4
100
AcDbEntity
  8
cotas
100
AcDbMText
 10
5808.630994933274
 20
4312.708745485429
 30
0.0
 40
10.0
 41
0.0
 71
     5
 72
     1
  1
1220
  7
SANINDUSA
 73
     1
 44
1.0
1001
ACAD
1000
MTEXTBEGIN
1070
    73
1070
     1
1070
    44
1040
1.0
1070
    74
1070
     0
1000
MTEXTEND
  0
POINT
  5
BC
330
B4
100
AcDbEntity
  8
Defpoints
 62
     0
100
AcDbPoint
 10
6418.631000297766
 20
4166.400231258658
 30
0.0
  0
POINT
  5
BD
330
B4
100
AcDbEntity
  8
Defpoints
 62
     0
100
AcDbPoint
 10
5198.630989568781
 20
4242.505552111269
 30
0.0
  0
POINT
  5
BE
330
B4
100
AcDbEntity
  8
Defpoints
 62
     0
100
AcDbPoint
 10
5198.630989568781
 20
4302.500552067028
 30
0.0
  0
ENDBLK
  5
BF
330
B4
100
AcDbEntity
  8
0
100
AcDbBlockEnd
  0
BLOCK
  5
C1
330
C0
100
AcDbEntity
  8
0
100
AcDbBlockBegin
  2
*D15
 70
     1
 10
0.0
 20
0.0
 30
0.0
  3
*D15
  1

  0
ARC
  5
C2
330
C0
100
AcDbEntity
  8
cotas
100
AcDbCircle
 10
6528.631000552185
 20
4242.505552111269
 30
0.0
 40
60.17204840949585
100
AcDbArc
 50
189.5329846044822
 51
258.4669963830446
  0
SOLID
  5
C3
330
C0
100
AcDbEntity
  8
cotas
100
AcDbTrace
 10
6467.62900003838
 20
4232.401644090987
 30
0.0
 11
6470.950805456003
 21
4232.678627625822
 31
0.0
 12
6468.458952142689
 22
4242.50555211127
 32
0.0
 13
6468.458952142689
 23
4242.50555211127
 33
0.0
  0
SOLID
  5
C4
330
C0
100
AcDbEntity
  8
cotas
100
AcDbTrace
 10
6516.797033570489
 20
4185.203452877014
 30
0.0
 11
6516.404288330924
 21
4181.893337729785
 31
0.0
 12
6526.531006392392
 22
4182.370159584709
 32
0.0
 13
6526.531006392392
 23
4182.370159584709
 33
0.0
  0
MTEXT
  5
C5
330
C0
100
AcDbEntity
  8
cotas
100
AcDbMText
 10
6493.516110931786
 20
4208.595508635499
 30
0.0
 40
10.0
 41
0.0
 71
     5
 72
     1
  1
88,0°
  7
SANINDUSA
 11
0.6946582511096323
 21
-0.7193399155929741
 31
0.0
 73
     1
 44
1.0
1001
ACAD
1000
MTEXTBEGIN
1070
    73
1070
     1
1070
    44
1040
1.0
1070
    74
1070
     0
1000
MTEXTEND
  0
POINT
  5
C6
330
C0
100
AcDbEntity
  8
Defpoints
 62
     0
100
AcDbPoint
 10
6476.173943348053
 20
4213.027890072413
 30
0.0
  0
POINT
  5
C7
330
C0
100
AcDbEntity
  8
Defpoints
 62
     0
100
AcDbPoint
 10
5488.854720628517
 20
4242.505552111269
 30
0.0
  0
POINT
  5
C8
330
C0
100
AcDbEntity
  8
Defpoints
 62
     0
100
AcDbPoint
 10
6525.823009985227
 20
4162.095988033416
 30
0.0
  0
POINT
  5
C9
330
C0
100
AcDbEntity
  8
Defpoints
 62
     0
100
AcDbPoint
 10
6528.395084023286
 20
4235.749850909584
 30
0.0
  0
POINT
  5
CA
330
C0
100
AcDbEntity
  8
Defpoints
 62
     0
100
AcDbPoint
 10
6508.407267401842
 20
4242.505552111269
 30
0.0
  0
ENDBLK
  5
CB
330
C0
100
AcDbEntity
  8
0
100
AcDbBlockEnd
  0
BLOCK
  5
CD
330
CC
100
AcDbEntity
  8
0
100
AcDbBlockBegin
  2
*D16
 70
     1
 10
0.0
 20
0.0
 30
0.0
  3
*D16
  1

  0
LINE
  5
CE
330
CC
100
AcDbEntity
  8
cotas
100
AcDbLine
 10
5193.630989568783
 20
3418.082003133227
 30
0.0
 11
5162.932786988272
 21
3418.082003133227
 31
0.0
  0
LINE
  5
CF
330
CC
100
AcDbEntity
  8
cotas
100
AcDbLine
 10
5191.536381768706
 20
3298.082005815444
 30
0.0
 11
5162.932786988272
 21
3298.082005815444
 31
0.0
  0
LINE
  5
D0
330
CC
100
AcDbEntity
  8
cotas
100
AcDbLine
 10
5167.932786988272
 20
3408.082003133227
 30
0.0
 11
5167.932786988272
 21
3308.082005815443
 31
0.0
  0
SOLID
  5
D1
330
CC
100
AcDbEntity
  8
cotas
100
AcDbTrace
 10
5166.266120321605
 20
3408.082003133227
 30
0.0
 11
5169.599453654939
 21
3408.082003133227
 31
0.0
 12
5167.932786988272
 22
3418.082003133227
 32
0.0
 13
5167.932786988272
 23
3418.082003133227
 33
0.0
  0
SOLID
  5
D2
330
CC
100
AcDbEntity
  8
cotas
100
AcDbTrace
 10
5166.266120321605
 20
3308.082005815443
 30
0.0
 11
5169.599453654939
 21
3308.082005815443
 31
0.0
 12
5167.932786988272
 22
3298.082005815444
 32
0.0
 13
5167.932786988272
 23
3298.082005815444
 33
0.0
  0
MTEXT
  5
D3
330
CC
100
AcDbEntity
  8
cotas
100
AcDbMText
 10
5157.724593569869
 20
3358.082004474336
 30
0.0
 40
10.0
 41
0.0
 71
     5
 72
     1
  1
120
  7
SANINDUSA
 11
0.0000000000000001
 21
1.0
 31
0.0
 73
     1
 44
1.0
1001
ACAD
1000
MTEXTBEGIN
1070
    73
1070
     1
1070
    44
1040
1.0
1070
    74
1070
     0
1000
MTEXTEND
  0
POINT
  5
D4
330
CC
100
AcDbEntity
  8
Defpoints
 62
     0
100
AcDbPoint
 10
5198.630989568783
 20
3418.082003133227
 30
0.0
  0
POINT
  5
D5
330
CC
100
AcDbEntity
  8
Defpoints
 62
     0
100
AcDbPoint
 10
5196.536381768705
 20
3298.082005815444
 30
0.0
  0
POINT
  5
D6
330
CC
100
AcDbEntity
  8
Defpoints
 62
     0
100
AcDbPoint
 10
5167.932786988272
 20
3298.082005815444
 30
0.0
  0
ENDBLK
  5
D7
330
CC
100
AcDbEntity
  8
0
100
AcDbBlockEnd
  0
BLOCK
  5
D9
330
D8
100
AcDbEntity
  8
0
100
AcDbBlockBegin
  2
*D17
 70
     1
 10
0.0
 20
0.0
 30
0.0
  3
*D17
  1

  0
LINE
  5
DA
330
D8
100
AcDbEntity
  8
cotas
100
AcDbLine
 10
5235.844076138945
 20
3386.414338811798
 30
0.0
 11
5207.837419013202
 21
3409.189249186375
 31
0.0
  0
MTEXT
  5
DB
330
D8
100
AcDbEntity
  8
cotas
100
AcDbMText
 10
5232.02917506963
 20
3402.405699429106
 30
0.0
 40
10.0
 41
0.0
 71
     5
 72
     1
  1
R7
  7
SANINDUSA
 11
0.7758495341438144
 21
-0.6309179822836138
 31
0.0
 73
     1
 44
1.0
1001
ACAD
1000
MTEXTBEGIN
1070
    73
1070
     1
1070
    44
1040
1.0
1070
    74
1070
     0
1000
MTEXTEND
  0
SOLID
  5
DC
330
D8
100
AcDbEntity
  8
cotas
100
AcDbTrace
 10
5208.888948983676
 20
3410.482331743281
 30
0.0
 11
5206.78588904273
 21
3407.896166629468
 31
0.0
 12
5200.078923671765
 22
3415.498429009211
 32
0.0
 13
5200.078923671765
 23
3415.498429009211
 33
0.0
  0
POINT
  5
DD
330
D8
100
AcDbEntity
  8
Defpoints
 62
     0
100
AcDbPoint
 10
5200.078923671765
 20
3415.498429009211
 30
0.0
  0
POINT
  5
DE
330
D8
100
AcDbEntity
  8
Defpoints
 62
     0
100
AcDbPoint
 10
5205.50987041077
 20
3411.082003133227
 30
0.0
  0
ENDBLK
  5
DF
330
D8
100
AcDbEntity
  8
0
100
AcDbBlockEnd
  0
BLOCK
  5
E1
330
E0
100
AcDbEntity
  8
0
100
AcDbBlockBegin
  2
*D18
 70
     1
 10
0.0
 20
0.0
 30
0.0
  3
*D18
  1

  0
LINE
  5
E2
330
E0
100
AcDbEntity
  8
cotas
100
AcDbLine
 10
6562.270649879386
 20
3385.401296018718
 30
0.0
 11
6589.490031721417
 21
3409.111518245995
 31
0.0
  0
MTEXT
  5
E3
330
E0
100
AcDbEntity
  8
cotas
100
AcDbMText
 10
6565.541856953366
 20
3401.51266743274
 30
0.0
 40
10.0
 41
0.0
 71
     5
 72
     1
  1
R7
  7
SANINDUSA
 11
0.7540401779121738
 21
0.6568282957472046
 31
0.0
 73
     1
 44
1.0
1001
ACAD
1000
MTEXTBEGIN
1070
    73
1070
     1
1070
    44
1040
1.0
1070
    74
1070
     0
1000
MTEXTEND
  0
SOLID
  5
E4
330
E0
100
AcDbEntity
  8
cotas
100
AcDbTrace
 10
6588.395317895171
 20
3410.368251875848
 30
0.0
 11
6590.584745547662
 21
3407.854784616141
 31
0.0
 12
6597.030433500538
 22
3415.679801203467
 32
0.0
 13
6597.030433500538
 23
3415.679801203467
 33
0.0
  0
POINT
  5
E5
330
E0
100
AcDbEntity
  8
Defpoints
 62
     0
100
AcDbPoint
 10
6597.030433500538
 20
3415.679801203467
 30
0.0
  0
POINT
  5
E6
330
E0
100
AcDbEntity
  8
Defpoints
 62
     0
100
AcDbPoint
 10
6591.752152255151
 20
3411.082003133234
 30
0.0
  0
ENDBLK
  5
E7
330
E0
100
AcDbEntity
  8
0
100
AcDbBlockEnd
  0
BLOCK
  5
E9
330
E8
100
AcDbEntity
  8
0
100
AcDbBlockBegin
  2
*D19
 70
     1
 10
0.0
 20
0.0
 30
0.0
  3
*D19
  1

  0
LINE
  5
EA
330
E8
100
AcDbEntity
  8
cotas
100
AcDbLine
 10
6599.416559756261
 20
3373.082765693516
 30
0.0
 11
6599.965582856795
 21
3341.632186022054
 31
0.0
  0
ARC
  5
EB
330
E8
100
AcDbEntity
  8
cotas
100
AcDbCircle
 10
6598.631021902304
 20
3418.082003133235
 30
0.0
 40
71.46146473403522
100
AcDbArc
 50
188.0242731520483
 51
262.9758200766601
  0
SOLID
  5
EC
330
E8
100
AcDbEntity
  8
cotas
100
AcDbTrace
 10
6526.206652875853
 20
3407.989897649173
 30
0.0
 11
6529.531817048653
 21
3408.2231235805
 31
0.0
 12
6527.169557168268
 22
3418.082003133235
 32
0.0
 13
6527.169557168268
 23
3418.082003133235
 33
0.0
  0
SOLID
  5
ED
330
E8
100
AcDbEntity
  8
cotas
100
AcDbTrace
 10
6589.979704009762
 20
3348.821247173135
 30
0.0
 11
6589.804551132821
 21
3345.492518800197
 31
0.0
 12
6599.878312690108
 22
3346.631424355841
 32
0.0
 13
6599.878312690108
 23
3346.631424355841
 33
0.0
  0
MTEXT
  5
EE
330
E8
100
AcDbEntity
  8
cotas
100
AcDbMText
 10
6556.493596408181
 20
3375.202577647864
 30
0.0
 40
10.0
 41
0.0
 71
     5
 72
     1
  1
91,0°
  7
SANINDUSA
 11
0.7132510193954568
 21
-0.7009086840176413
 31
0.0
 73
     1
 44
1.0
1001
ACAD
1000
MTEXTBEGIN
1070
    73
1070
     1
1070
    44
1040
1.0
1070
    74
1070
     0
1000
MTEXTEND
  0
POINT
  5
EF
330
E8
100
AcDbEntity
  8
Defpoints
 62
     0
100
AcDbPoint
 10
6536.952516757721
 20
3381.991797466554
 30
0.0
  0
POINT
  5
F0
330
E8
100
AcDbEntity
  8
Defpoints
 62
     0
100
AcDbPoint
 10
5405.509913880876
 20
3418.082003133235
 30
0.0
  0
POINT
  5
F1
330
E8
100
AcDbEntity
  8
Defpoints
 62
     0
100
AcDbPoint
 10
6598.751086095937
 20
3411.204171428414
 30
0.0
  0
POINT
  5
F2
330
E8
100
AcDbEntity
  8
Defpoints
 62
     0
100
AcDbPoint
 10
6599.329289589575
 20
3378.082004027304
 30
0.0
  0
POINT
  5
F3
330
E8
100
AcDbEntity
  8
Defpoints
 62
     0
100
AcDbPoint
 10
6591.752108727148
 20
3418.082003133235
 30
0.0
  0
ENDBLK
  5
F4
330
E8
100
AcDbEntity
  8
0
100
AcDbBlockEnd
  0
BLOCK
  5
F6
330
F5
100
AcDbEntity
  8
0
100
AcDbBlockBegin
  2
*D20
 70
     1
 10
0.0
 20
0.0
 30
0.0
  3
*D20
  1

  0
LINE
  5
F7
330
F5
100
AcDbEntity
  8
cotas
100
AcDbLine
 10
5197.84552495621
 20
3373.082765551512
 30
0.0
 11
5197.042783824908
 21
3327.093756872984
 31
0.0
  0
ARC
  5
F8
330
F5
100
AcDbEntity
  8
cotas
100
AcDbCircle
 10
5198.630989568783
 20
3418.082003133227
 30
0.0
 40
86.00210632177283
100
AcDbArc
 50
275.6658955430553
 51
353.3341044583943
  0
SOLID
  5
F9
330
F5
100
AcDbEntity
  8
cotas
100
AcDbTrace
 10
5207.189601328868
 20
3330.834773792157
 30
0.0
 11
5207.053913429828
 21
3334.165344299616
 31
0.0
 12
5197.130045856968
 22
3332.092995348769
 32
0.0
 13
5197.130045856968
 23
3332.092995348769
 33
0.0
  0
SOLID
  5
FA
330
F5
100
AcDbEntity
  8
cotas
100
AcDbTrace
 10
5282.387867198429
 20
3408.195814489577
 30
0.0
 11
5285.715562363511
 21
3408.002020786381
 31
0.0
 12
5284.633095890555
 22
3418.082003133226
 32
0.0
 13
5284.633095890555
 23
3418.082003133226
 33
0.0
  0
MTEXT
  5
FB
330
F5
100
AcDbEntity
  8
cotas
100
AcDbMText
 10
5250.960120346857
 20
3364.831492787
 30
0.0
 40
10.0
 41
0.0
 71
     5
 72
     1
  1
91,0°
  7
SANINDUSA
 11
0.7132504491453208
 21
0.7009092643088679
 31
0.0
 73
     1
 44
1.0
1001
ACAD
1000
MTEXTBEGIN
1070
    73
1070
     1
1070
    44
1040
1.0
1070
    74
1070
     0
1000
MTEXTEND
  0
POINT
  5
FC
330
F5
100
AcDbEntity
  8
Defpoints
 62
     0
100
AcDbPoint
 10
5240.762537203902
 20
3343.106707297524
 30
0.0
  0
POINT
  5
FD
330
F5
100
AcDbEntity
  8
Defpoints
 62
     0
100
AcDbPoint
 10
5197.932786988271
 20
3378.082004027297
 30
0.0
  0
POINT
  5
FE
330
F5
100
AcDbEntity
  8
Defpoints
 62
     0
100
AcDbPoint
 10
5205.509870352866
 20
3418.082003133226
 30
0.0
  0
POINT
  5
FF
330
F5
100
AcDbEntity
  8
Defpoints
 62
     0
100
AcDbPoint
 10
6391.752065199138
 20
3418.082003133227
 30
0.0
  0
POINT
  5
100
330
F5
100
AcDbEntity
  8
Defpoints
 62
     0
100
AcDbPoint
 10
5198.510936546575
 20
3411.204170087268
 30
0.0
  0
ENDBLK
  5
101
330
F5
100
AcDbEntity
  8
0
100
AcDbBlockEnd
  0
BLOCK
  5
103
330
102
100
AcDbEntity
  8
0
100
AcDbBlockBegin
  2
*D21
 70
     1
 10
0.0
 20
0.0
 30
0.0
  3
*D21
  1

  0
LINE
  5
104
330
102
100
AcDbEntity
  8
cotas
100
AcDbLine
 10
6603.631021902308
 20
3418.082003133235
 30
0.0
 11
6634.329289589574
 21
3418.082003133235
 31
0.0
  0
LINE
  5
105
330
102
100
AcDbEntity
  8
cotas
100
AcDbLine
 10
6475.326757831298
 20
3290.326428214919
 30
0.0
 11
6634.329289589574
 21
3290.326428214919
 31
0.0
  0
LINE
  5
106
330
102
100
AcDbEntity
  8
cotas
100
AcDbLine
 10
6629.329289589574
 20
3408.082003133234
 30
0.0
 11
6629.329289589574
 21
3300.326428214918
 31
0.0
  0
SOLID
  5
107
330
102
100
AcDbEntity
  8
cotas
100
AcDbTrace
 10
6627.662622922908
 20
3408.082003133234
 30
0.0
 11
6630.995956256241
 21
3408.082003133234
 31
0.0
 12
6629.329289589574
 22
3418.082003133235
 32
0.0
 13
6629.329289589574
 23
3418.082003133235
 33
0.0
  0
SOLID
  5
108
330
102
100
AcDbEntity
  8
cotas
100
AcDbTrace
 10
6627.662622922908
 20
3300.326428214918
 30
0.0
 11
6630.995956256241
 21
3300.326428214918
 31
0.0
 12
6629.329289589574
 22
3290.326428214919
 32
0.0
 13
6629.329289589574
 23
3290.326428214919
 33
0.0
  0
MTEXT
  5
109
330
102
100
AcDbEntity
  8
cotas
100
AcDbMText
 10
6617.972674411602
 20
3354.204215674078
 30
0.0
 40
10.0
 41
0.0
 71
     5
 72
     1
  1
127,8
  7
SANINDUSA
 11
0.0000000000000001
 21
1.0
 31
0.0
 73
     1
 44
1.0
1001
ACAD
1000
MTEXTBEGIN
1070
    73
1070
     1
1070
    44
1040
1.0
1070
    74
1070
     0
1000
MTEXTEND
  0
POINT
  5
10A
330
102
100
AcDbEntity
  8
Defpoints
 62
     0
100
AcDbPoint
 10
6598.631021902306
 20
3418.082003133235
 30
0.0
  0
POINT
  5
10B
330
102
100
AcDbEntity
  8
Defpoints
 62
     0
100
AcDbPoint
 10
6470.326757831298
 20
3290.326428214919
 30
0.0
  0
POINT
  5
10C
330
102
100
AcDbEntity
  8
Defpoints
 62
     0
100
AcDbPoint
 10
6629.329289589574
 20
3290.326428214919
 30
0.0
  0
ENDBLK
  5
10D
330
102
100
AcDbEntity
  8
0
100
AcDbBlockEnd
  0
BLOCK
  5
10F
330
10E
100
AcDbEntity
  8
0
100
AcDbBlockBegin
  2
*D22
 70
     1
 10
0.0
 20
0.0
 30
0.0
  3
*D22
  1

  0
LINE
  5
110
330
10E
100
AcDbEntity
  8
cotas
100
AcDbLine
 10
6598.555277650106
 20
2810.947266741062
 30
0.0
 11
6598.555277650106
 21
2846.64140298859
 31
0.0
  0
LINE
  5
111
330
10E
100
AcDbEntity
  8
cotas
100
AcDbLine
 10
6418.550981074912
 20
2816.641402802324
 30
0.0
 11
6418.550981074912
 21
2846.64140298859
 31
0.0
  0
LINE
  5
112
330
10E
100
AcDbEntity
  8
cotas
100
AcDbLine
 10
6588.555277650105
 20
2841.641402988589
 30
0.0
 11
6428.550981074913
 21
2841.641402988589
 31
0.0
  0
SOLID
  5
113
330
10E
100
AcDbEntity
  8
cotas
100
AcDbTrace
 10
6588.555277650105
 20
2843.308069655256
 30
0.0
 11
6588.555277650105
 21
2839.974736321923
 31
0.0
 12
6598.555277650106
 22
2841.641402988589
 32
0.0
 13
6598.555277650106
 23
2841.641402988589
 33
0.0
  0
SOLID
  5
114
330
10E
100
AcDbEntity
  8
cotas
100
AcDbTrace
 10
6428.550981074913
 20
2843.308069655256
 30
0.0
 11
6428.550981074913
 21
2839.974736321923
 31
0.0
 12
6418.550981074912
 22
2841.641402988589
 32
0.0
 13
6418.550981074912
 23
2841.641402988589
 33
0.0
  0
MTEXT
  5
115
330
10E
100
AcDbEntity
  8
cotas
100
AcDbMText
 10
6508.55312936251
 20
2851.869744157159
 30
0.0
 40
10.0
 41
0.0
 71
     5
 72
     1
  1
180
  7
SANINDUSA
 73
     1
 44
1.0
1001
ACAD
1000
MTEXTBEGIN
1070
    73
1070
     1
1070
    44
1040
1.0
1070
    74
1070
     0
1000
MTEXTEND
  0
POINT
  5
116
330
10E
100
AcDbEntity
  8
Defpoints
 62
     0
100
AcDbPoint
 10
6598.555277650106
 20
2805.947266741062
 30
0.0
  0
POINT
  5
117
330
10E
100
AcDbEntity
  8
Defpoints
 62
     0
100
AcDbPoint
 10
6418.550981074912
 20
2811.641402802324
 30
0.0
  0
POINT
  5
118
330
10E
100
AcDbEntity
  8
Defpoints
 62
     0
100
AcDbPoint
 10
6418.550981074912
 20
2841.641402988589
 30
0.0
  0
ENDBLK
  5
119
330
10E
100
AcDbEntity
  8
0
100
AcDbBlockEnd
  0
BLOCK
  5
11B
330
11A
100
AcDbEntity
  8
0
100
AcDbBlockBegin
  2
*D23
 70
     1
 10
0.0
 20
0.0
 30
0.0
  3
*D23
  1

  0
LINE
  5
11C
330
11A
100
AcDbEntity
  8
cotas
100
AcDbLine
 10
6110.252067806973
 20
2681.378868434218
 30
0.0
 11
6110.252067806973
 21
2846.645451708104
 31
0.0
  0
LINE
  5
11D
330
11A
100
AcDbEntity
  8
cotas
100
AcDbLine
 10
6030.264770064565
 20
2681.378868434218
 30
0.0
 11
6030.264770064565
 21
2846.645451708104
 31
0.0
  0
LINE
  5
11E
330
11A
100
AcDbEntity
  8
cotas
100
AcDbLine
 10
6100.252067806973
 20
2841.645451708104
 30
0.0
 11
6040.264770064565
 21
2841.645451708104
 31
0.0
  0
SOLID
  5
11F
330
11A
100
AcDbEntity
  8
cotas
100
AcDbTrace
 10
6100.252067806973
 20
2843.31211837477
 30
0.0
 11
6100.252067806973
 21
2839.978785041438
 31
0.0
 12
6110.252067806973
 22
2841.645451708104
 32
0.0
 13
6110.252067806973
 23
2841.645451708104
 33
0.0
  0
SOLID
  5
120
330
11A
100
AcDbEntity
  8
cotas
100
AcDbTrace
 10
6040.264770064565
 20
2843.31211837477
 30
0.0
 11
6040.264770064565
 21
2839.978785041438
 31
0.0
 12
6030.264770064565
 22
2841.645451708104
 32
0.0
 13
6030.264770064565
 23
2841.645451708104
 33
0.0
  0
MTEXT
  5
121
330
11A
100
AcDbEntity
  8
cotas
100
AcDbMText
 10
6070.258418935769
 20
2851.873792876673
 30
0.0
 40
10.0
 41
0.0
 71
     5
 72
     1
  1
80
  7
SANINDUSA
 73
     1
 44
1.0
1001
ACAD
1000
MTEXTBEGIN
1070
    73
1070
     1
1070
    44
1040
1.0
1070
    74
1070
     0
1000
MTEXTEND
  0
POINT
  5
122
330
11A
100
AcDbEntity
  8
Defpoints
 62
     0
100
AcDbPoint
 10
6110.252067806973
 20
2676.378868434218
 30
0.0
  0
POINT
  5
123
330
11A
100
AcDbEntity
  8
Defpoints
 62
     0
100
AcDbPoint
 10
6030.264770064565
 20
2676.378868434218
 30
0.0
  0
POINT
  5
124
330
11A
100
AcDbEntity
  8
Defpoints
 62
     0
100
AcDbPoint
 10
6030.264770064565
 20
2841.645451708104
 30
0.0
  0
ENDBLK
  5
125
330
11A
100
AcDbEntity
  8
0
100
AcDbBlockEnd
  0
BLOCK
  5
127
330
126
100
AcDbEntity
  8
0
100
AcDbBlockBegin
  2
*D24
 70
     1
 10
0.0
 20
0.0
 30
0.0
  3
*D24
  1

  0
LINE
  5
128
330
126
100
AcDbEntity
  8
cotas
100
AcDbLine
 10
6030.264770064565
 20
2681.378868434218
 30
0.0
 11
6030.264770064565
 21
2846.645451708104
 31
0.0
  0
LINE
  5
129
330
126
100
AcDbEntity
  8
cotas
100
AcDbLine
 10
5950.2659417843
 20
2816.645451708103
 30
0.0
 11
5950.2659417843
 21
2846.645451708104
 31
0.0
  0
LINE
  5
12A
330
126
100
AcDbEntity
  8
cotas
100
AcDbLine
 10
6020.264770064565
 20
2841.645451708104
 30
0.0
 11
5960.2659417843
 21
2841.645451708104
 31
0.0
  0
SOLID
  5
12B
330
126
100
AcDbEntity
  8
cotas
100
AcDbTrace
 10
6020.264770064565
 20
2843.31211837477
 30
0.0
 11
6020.264770064565
 21
2839.978785041438
 31
0.0
 12
6030.264770064565
 22
2841.645451708104
 32
0.0
 13
6030.264770064565
 23
2841.645451708104
 33
0.0
  0
SOLID
  5
12C
330
126
100
AcDbEntity
  8
cotas
100
AcDbTrace
 10
5960.2659417843
 20
2843.31211837477
 30
0.0
 11
5960.2659417843
 21
2839.978785041438
 31
0.0
 12
5950.2659417843
 22
2841.645451708104
 32
0.0
 13
5950.2659417843
 23
2841.645451708104
 33
0.0
  0
MTEXT
  5
12D
330
126
100
AcDbEntity
  8
cotas
100
AcDbMText
 10
5990.265355924432
 20
2851.873792876673
 30
0.0
 40
10.0
 41
0.0
 71
     5
 72
     1
  1
80
  7
SANINDUSA
 73
     1
 44
1.0
1001
ACAD
1000
MTEXTBEGIN
1070
    73
1070
     1
1070
    44
1040
1.0
1070
    74
1070
     0
1000
MTEXTEND
  0
POINT
  5
12E
330
126
100
AcDbEntity
  8
Defpoints
 62
     0
100
AcDbPoint
 10
6030.264770064565
 20
2676.378868434218
 30
0.0
  0
POINT
  5
12F
330
126
100
AcDbEntity
  8
Defpoints
 62
     0
100
AcDbPoint
 10
5950.2659417843
 20
2811.645451708103
 30
-0.0000000000000197
  0
POINT
  5
130
330
126
100
AcDbEntity
  8
Defpoints
 62
     0
100
AcDbPoint
 10
5950.2659417843
 20
2841.645451708104
 30
0.0
  0
ENDBLK
  5
131
330
126
100
AcDbEntity
  8
0
100
AcDbBlockEnd
  0
BLOCK
  5
133
330
132
100
AcDbEntity
  8
0
100
AcDbBlockBegin
  2
*D25
 70
     1
 10
0.0
 20
0.0
 30
0.0
  3
*D25
  1

  0
LINE
  5
134
330
132
100
AcDbEntity
  8
cotas
100
AcDbLine
 10
6314.013215802297
 20
2400.953796443983
 30
0.0
 11
6634.253545337374
 21
2400.953796443983
 31
0.0
  0
LINE
  5
135
330
132
100
AcDbEntity
  8
cotas
100
AcDbLine
 10
6604.253545337375
 20
2360.947266741062
 30
0.0
 11
6634.253545337374
 21
2360.947266741062
 31
0.0
  0
LINE
  5
136
330
132
100
AcDbEntity
  8
cotas
100
AcDbLine
 10
6629.253545337374
 20
2390.953796443984
 30
0.0
 11
6629.253545337374
 21
2370.947266741062
 31
0.0
  0
SOLID
  5
137
330
132
100
AcDbEntity
  8
cotas
100
AcDbTrace
 10
6627.586878670706
 20
2390.953796443984
 30
0.0
 11
6630.920212004041
 21
2390.953796443984
 31
0.0
 12
6629.253545337374
 22
2400.953796443983
 32
0.0
 13
6629.253545337374
 23
2400.953796443983
 33
0.0
  0
SOLID
  5
138
330
132
100
AcDbEntity
  8
cotas
100
AcDbTrace
 10
6627.586878670706
 20
2370.947266741062
 30
0.0
 11
6630.920212004041
 21
2370.947266741062
 31
0.0
 12
6629.253545337374
 22
2360.947266741062
 32
0.0
 13
6629.253545337374
 23
2360.947266741062
 33
0.0
  0
MTEXT
  5
139
330
132
100
AcDbEntity
  8
cotas
100
AcDbMText
 10
6619.048709877333
 20
2380.950531592524
 30
0.0
 40
10.0
 41
0.0
 71
     5
 72
     1
  1
40
  7
SANINDUSA
 11
0.0000000000000001
 21
1.0
 31
0.0
 73
     1
 44
1.0
1001
ACAD
1000
MTEXTBEGIN
1070
    73
1070
     1
1070
    44
1040
1.0
1070
    74
1070
     0
1000
MTEXTEND
  0
POINT
  5
13A
330
132
100
AcDbEntity
  8
Defpoints
 62
     0
100
AcDbPoint
 10
6309.013215802298
 20
2400.953796443983
 30
0.0
  0
POINT
  5
13B
330
132
100
AcDbEntity
  8
Defpoints
 62
     0
100
AcDbPoint
 10
6599.253545337373
 20
2360.947266741062
 30
0.0
  0
POINT
  5
13C
330
132
100
AcDbEntity
  8
Defpoints
 62
     0
100
AcDbPoint
 10
6629.253545337374
 20
2360.947266741062
 30
0.0
  0
ENDBLK
  5
13D
330
132
100
AcDbEntity
  8
0
100
AcDbBlockEnd
  0
BLOCK
  5
13F
330
13E
100
AcDbEntity
  8
0
100
AcDbBlockBegin
  2
*D26
 70
     1
 10
0.0
 20
0.0
 30
0.0
  3
*D26
  1

  0
LINE
  5
140
330
13E
100
AcDbEntity
  8
cotas
100
AcDbLine
 10
6603.675341869053
 20
2360.94726674106
 30
0.0
 11
6634.253545337374
 21
2360.94726674106
 31
0.0
  0
LINE
  5
141
330
13E
100
AcDbEntity
  8
cotas
100
AcDbLine
 10
6314.015301540241
 20
2320.924833039629
 30
0.0
 11
6634.253545337374
 21
2320.924833039629
 31
0.0
  0
LINE
  5
142
330
13E
100
AcDbEntity
  8
cotas
100
AcDbLine
 10
6629.253545337374
 20
2350.94726674106
 30
0.0
 11
6629.253545337374
 21
2330.924833039629
 31
0.0
  0
SOLID
  5
143
330
13E
100
AcDbEntity
  8
cotas
100
AcDbTrace
 10
6627.586878670706
 20
2350.94726674106
 30
0.0
 11
6630.920212004041
 21
2350.94726674106
 31
0.0
 12
6629.253545337374
 22
2360.94726674106
 32
0.0
 13
6629.253545337374
 23
2360.94726674106
 33
0.0
  0
SOLID
  5
144
330
13E
100
AcDbEntity
  8
cotas
100
AcDbTrace
 10
6627.586878670706
 20
2330.924833039629
 30
0.0
 11
6630.920212004041
 21
2330.924833039629
 31
0.0
 12
6629.253545337374
 22
2320.924833039629
 32
0.0
 13
6629.253545337374
 23
2320.924833039629
 33
0.0
  0
MTEXT
  5
145
330
13E
100
AcDbEntity
  8
cotas
100
AcDbMText
 10
6619.048709877333
 20
2340.936049890345
 30
0.0
 40
10.0
 41
0.0
 71
     5
 72
     1
  1
40
  7
SANINDUSA
 11
0.0000000000000001
 21
1.0
 31
0.0
 73
     1
 44
1.0
1001
ACAD
1000
MTEXTBEGIN
1070
    73
1070
     1
1070
    44
1040
1.0
1070
    74
1070
     0
1000
MTEXTEND
  0
POINT
  5
146
330
13E
100
AcDbEntity
  8
Defpoints
 62
     0
100
AcDbPoint
 10
6598.675341869053
 20
2360.94726674106
 30
0.0
  0
POINT
  5
147
330
13E
100
AcDbEntity
  8
Defpoints
 62
     0
100
AcDbPoint
 10
6309.01530154024
 20
2320.924833039629
 30
0.0
  0
POINT
  5
148
330
13E
100
AcDbEntity
  8
Defpoints
 62
     0
100
AcDbPoint
 10
6629.253545337374
 20
2320.924833039629
 30
0.0
  0
ENDBLK
  5
149
330
13E
100
AcDbEntity
  8
0
100
AcDbBlockEnd
  0
BLOCK
  5
14B
330
14A
100
AcDbEntity
  8
0
100
AcDbBlockBegin
  2
*D27
 70
     1
 10
0.0
 20
0.0
 30
0.0
  3
*D27
  1

  0
LINE
  5
14C
330
14A
100
AcDbEntity
  8
cotas
100
AcDbLine
 10
6314.015301540241
 20
2320.924833039629
 30
0.0
 11
6634.253545337374
 21
2320.924833039629
 31
0.0
  0
LINE
  5
14D
330
14A
100
AcDbEntity
  8
cotas
100
AcDbLine
 10
6314.01530154024
 20
2240.939302382768
 30
0.0
 11
6634.253545337374
 21
2240.939302382768
 31
0.0
  0
LINE
  5
14E
330
14A
100
AcDbEntity
  8
cotas
100
AcDbLine
 10
6629.253545337374
 20
2310.924833039629
 30
0.0
 11
6629.253545337374
 21
2250.939302382768
 31
0.0
  0
SOLID
  5
14F
330
14A
100
AcDbEntity
  8
cotas
100
AcDbTrace
 10
6627.586878670706
 20
2310.924833039629
 30
0.0
 11
6630.920212004041
 21
2310.924833039629
 31
0.0
 12
6629.253545337374
 22
2320.924833039629
 32
0.0
 13
6629.253545337374
 23
2320.924833039629
 33
0.0
  0
SOLID
  5
150
330
14A
100
AcDbEntity
  8
cotas
100
AcDbTrace
 10
6627.586878670706
 20
2250.939302382768
 30
0.0
 11
6630.920212004041
 21
2250.939302382768
 31
0.0
 12
6629.253545337374
 22
2240.939302382768
 32
0.0
 13
6629.253545337374
 23
2240.939302382768
 33
0.0
  0
MTEXT
  5
151
330
14A
100
AcDbEntity
  8
cotas
100
AcDbMText
 10
6619.025204168804
 20
2280.932067711199
 30
0.0
 40
10.0
 41
0.0
 71
     5
 72
     1
  1
80
  7
SANINDUSA
 11
0.0000000000000001
 21
1.0
 31
0.0
 73
     1
 44
1.0
1001
ACAD
1000
MTEXTBEGIN
1070
    73
1070
     1
1070
    44
1040
1.0
1070
    74
1070
     0
1000
MTEXTEND
  0
POINT
  5
152
330
14A
100
AcDbEntity
  8
Defpoints
 62
     0
100
AcDbPoint
 10
6309.01530154024
 20
2320.924833039629
 30
0.0
  0
POINT
  5
153
330
14A
100
AcDbEntity
  8
Defpoints
 62
     0
100
AcDbPoint
 10
6309.015301540239
 20
2240.939302382768
 30
0.0
  0
POINT
  5
154
330
14A
100
AcDbEntity
  8
Defpoints
 62
     0
100
AcDbPoint
 10
6629.253545337374
 20
2240.939302382768
 30
0.0
  0
ENDBLK
  5
155
330
14A
100
AcDbEntity
  8
0
100
AcDbBlockEnd
  0
BLOCK
  5
157
330
156
100
AcDbEntity
  8
0
100
AcDbBlockBegin
  2
*D28
 70
     1
 10
0.0
 20
0.0
 30
0.0
  3
*D28
  1

  0
LINE
  5
158
330
156
100
AcDbEntity
  8
cotas
100
AcDbLine
 10
6314.063581435643
 20
2080.938942419386
 30
0.0
 11
6634.253545337376
 21
2080.938942419386
 31
0.0
  0
LINE
  5
159
330
156
100
AcDbEntity
  8
cotas
100
AcDbLine
 10
6598.555277650106
 20
1910.947266741062
 30
0.0
 11
6634.253545337374
 21
1910.947266741062
 31
0.0
  0
LINE
  5
15A
330
156
100
AcDbEntity
  8
cotas
100
AcDbLine
 10
6629.253545337374
 20
2070.938942419386
 30
0.0
 11
6629.253545337374
 21
1920.947266741061
 31
0.0
  0
SOLID
  5
15B
330
156
100
AcDbEntity
  8
cotas
100
AcDbTrace
 10
6627.586878670708
 20
2070.938942419386
 30
0.0
 11
6630.920212004042
 21
2070.938942419386
 31
0.0
 12
6629.253545337374
 22
2080.938942419386
 32
0.0
 13
6629.253545337374
 23
2080.938942419386
 33
0.0
  0
SOLID
  5
15C
330
156
100
AcDbEntity
  8
cotas
100
AcDbTrace
 10
6627.586878670706
 20
1920.947266741061
 30
0.0
 11
6630.920212004041
 21
1920.947266741061
 31
0.0
 12
6629.253545337374
 22
1910.947266741062
 32
0.0
 13
6629.253545337374
 23
1910.947266741062
 33
0.0
  0
MTEXT
  5
15D
330
156
100
AcDbEntity
  8
cotas
100
AcDbMText
 10
6619.048709877333
 20
1995.943104580225
 30
0.0
 40
10.0
 41
0.0
 71
     5
 72
     1
  1
170
  7
SANINDUSA
 11
0.0000000000000001
 21
1.0
 31
0.0
 73
     1
 44
1.0
1001
ACAD
1000
MTEXTBEGIN
1070
    73
1070
     1
1070
    44
1040
1.0
1070
    74
1070
     0
1000
MTEXTEND
  0
POINT
  5
15E
330
156
100
AcDbEntity
  8
Defpoints
 62
     0
100
AcDbPoint
 10
6309.063581435644
 20
2080.938942419386
 30
0.0
  0
POINT
  5
15F
330
156
100
AcDbEntity
  8
Defpoints
 62
     0
100
AcDbPoint
 10
6593.555277650107
 20
1910.947266741062
 30
0.0
  0
POINT
  5
160
330
156
100
AcDbEntity
  8
Defpoints
 62
     0
100
AcDbPoint
 10
6629.253545337374
 20
1910.947266741062
 30
0.0
  0
ENDBLK
  5
161
330
156
100
AcDbEntity
  8
0
100
AcDbBlockEnd
  0
BLOCK
  5
163
330
162
100
AcDbEntity
  8
0
100
AcDbBlockBegin
  2
*D29
 70
     1
 10
0.0
 20
0.0
 30
0.0
  3
*D29
  1

  0
LINE
  5
164
330
162
100
AcDbEntity
  8
cotas
100
AcDbLine
 10
5237.212344525772
 20
1947.076188332258
 30
0.0
 11
5268.150353480158
 21
1979.480633928399
 31
0.0
  0
MTEXT
  5
165
330
162
100
AcDbEntity
  8
cotas
100
AcDbMText
 10
5241.845176769015
 20
1966.711279345638
 30
0.0
 40
10.0
 41
0.0
 71
     5
 72
     1
  1
R20
  7
SANINDUSA
 11
0.6905515714747228
 21
0.7232831583368929
 31
0.0
 73
     1
 44
1.0
1001
ACAD
1000
MTEXTBEGIN
1070
    73
1070
     1
1070
    44
1040
1.0
1070
    74
1070
     0
1000
MTEXTEND
  0
LINE
  5
166
330
162
100
AcDbEntity
  8
cotas
100
AcDbLine
 10
5288.866900624398
 20
2001.179128678505
 30
0.0
 11
5275.055869194904
 21
1986.713465511767
 31
0.0
  0
SOLID
  5
167
330
162
100
AcDbEntity
  8
cotas
100
AcDbTrace
 10
5266.944881549596
 20
1980.631553214189
 30
0.0
 11
5269.355825410719
 21
1978.329714642607
 31
0.0
 12
5275.055869194904
 22
1986.713465511767
 32
0.0
 13
5275.055869194904
 23
1986.713465511767
 33
0.0
  0
POINT
  5
168
330
162
100
AcDbEntity
  8
Defpoints
 62
     0
100
AcDbPoint
 10
5275.055869194904
 20
1986.713465511767
 30
0.0
  0
POINT
  5
169
330
162
100
AcDbEntity
  8
Defpoints
 62
     0
100
AcDbPoint
 10
5288.866900624398
 20
2001.179128678505
 30
0.0
  0
ENDBLK
  5
16A
330
162
100
AcDbEntity
  8
0
100
AcDbBlockEnd
  0
BLOCK
  5
16C
330
16B
100
AcDbEntity
  8
0
100
AcDbBlockBegin
  2
*D30
 70
     1
 10
0.0
 20
0.0
 30
0.0
  3
*D30
  1

  0
LINE
  5
16D
330
16B
100
AcDbEntity
  8
cotas
100
AcDbLine
 10
5343.288305628928
 20
2058.641458120966
 30
0.0
 11
5310.785590235562
 21
2027.806705251631
 31
0.0
  0
MTEXT
  5
16E
330
16B
100
AcDbEntity
  8
cotas
100
AcDbMText
 10
5323.640885066921
 20
2054.068685126779
 30
0.0
 40
10.0
 41
0.0
 71
     5
 72
     1
  1
R10
  7
SANINDUSA
 11
0.7254765885282526
 21
0.6882468448873621
 31
0.0
 73
     1
 44
1.0
1001
ACAD
1000
MTEXTBEGIN
1070
    73
1070
     1
1070
    44
1040
1.0
1070
    74
1070
     0
1000
MTEXTEND
  0
SOLID
  5
16F
330
16B
100
AcDbEntity
  8
cotas
100
AcDbTrace
 10
5309.638512160749
 20
2029.015832899178
 30
0.0
 11
5311.932668310373
 21
2026.597577604084
 31
0.0
 12
5303.530824350279
 22
2020.924236802757
 32
0.0
 13
5303.530824350279
 23
2020.924236802757
 33
0.0
  0
POINT
  5
170
330
16B
100
AcDbEntity
  8
Defpoints
 62
     0
100
AcDbPoint
 10
5303.530824350279
 20
2020.924236802757
 30
0.0
  0
POINT
  5
171
330
16B
100
AcDbEntity
  8
Defpoints
 62
     0
100
AcDbPoint
 10
5310.785590235557
 20
2027.806705251626
 30
0.0
  0
ENDBLK
  5
172
330
16B
100
AcDbEntity
  8
0
100
AcDbBlockEnd
  0
BLOCK
  5
174
330
173
100
AcDbEntity
  8
0
100
AcDbBlockBegin
  2
*D31
 70
     1
 10
0.0
 20
0.0
 30
0.0
  3
*D31
  1

  0
LINE
  5
175
330
173
100
AcDbEntity
  8
cotas
100
AcDbLine
 10
5718.658742905385
 20
2056.638280449667
 30
0.0
 11
5753.574318594542
 21
2028.564964529565
 31
0.0
  0
MTEXT
  5
176
330
173
100
AcDbEntity
  8
cotas
100
AcDbMText
 10
5738.614320802432
 20
2053.687636724692
 30
0.0
 40
10.0
 41
0.0
 71
     5
 72
     1
  1
R10
  7
SANINDUSA
 11
0.7793328166864212
 21
-0.6266102144360632
 31
0.0
 73
     1
 44
1.0
1001
ACAD
1000
MTEXTBEGIN
1070
    73
1070
     1
1070
    44
1040
1.0
1070
    74
1070
     0
1000
MTEXTEND
  0
SOLID
  5
177
330
173
100
AcDbEntity
  8
cotas
100
AcDbTrace
 10
5754.618668951937
 20
2029.863852557376
 30
0.0
 11
5752.529968237148
 21
2027.266076501754
 31
0.0
 12
5761.367646761407
 22
2022.298862385204
 32
0.0
 13
5761.367646761407
 23
2022.298862385204
 33
0.0
  0
POINT
  5
178
330
173
100
AcDbEntity
  8
Defpoints
 62
     0
100
AcDbPoint
 10
5761.367646761407
 20
2022.298862385204
 30
0.0
  0
POINT
  5
179
330
173
100
AcDbEntity
  8
Defpoints
 62
     0
100
AcDbPoint
 10
5753.574318594543
 20
2028.564964529564
 30
0.0
  0
ENDBLK
  5
17A
330
173
100
AcDbEntity
  8
0
100
AcDbBlockEnd
  0
BLOCK
  5
17C
330
17B
100
AcDbEntity
  8
0
100
AcDbBlockBegin
  2
*D32
 70
     1
 10
0.0
 20
0.0
 30
0.0
  3
*D32
  1

  0
LINE
  5
17D
330
17B
100
AcDbEntity
  8
cotas
100
AcDbLine
 10
5235.587039655647
 20
2773.234803163289
 30
0.0
 11
5267.498509473229
 21
2741.788553998463
 31
0.0
  0
MTEXT
  5
17E
330
17B
100
AcDbEntity
  8
cotas
100
AcDbMText
 10
5255.146463584276
 20
2768.292246205811
 30
0.0
 40
10.0
 41
0.0
 71
     5
 72
     1
  1
R20
  7
SANINDUSA
 11
0.71227969657294
 21
-0.7018957428635401
 31
0.0
 73
     1
 44
1.0
1001
ACAD
1000
MTEXTBEGIN
1070
    73
1070
     1
1070
    44
1040
1.0
1070
    74
1070
     0
1000
MTEXTEND
  0
LINE
  5
17F
330
17B
100
AcDbEntity
  8
cotas
100
AcDbLine
 10
5288.86690037042
 20
2720.731681712554
 30
0.0
 11
5274.621306438959
 21
2734.769596569827
 31
0.0
  0
SOLID
  5
180
330
17B
100
AcDbEntity
  8
cotas
100
AcDbTrace
 10
5268.668335711335
 20
2742.975686826084
 30
0.0
 11
5266.328683235123
 21
2740.601421170841
 31
0.0
 12
5274.621306438959
 22
2734.769596569827
 32
0.0
 13
5274.621306438959
 23
2734.769596569827
 33
0.0
  0
POINT
  5
181
330
17B
100
AcDbEntity
  8
Defpoints
 62
     0
100
AcDbPoint
 10
5274.621306438959
 20
2734.769596569827
 30
0.0
  0
POINT
  5
182
330
17B
100
AcDbEntity
  8
Defpoints
 62
     0
100
AcDbPoint
 10
5288.86690037042
 20
2720.731681712554
 30
0.0
  0
ENDBLK
  5
183
330
17B
100
AcDbEntity
  8
0
100
AcDbBlockEnd
  0
BLOCK
  5
185
330
184
100
AcDbEntity
  8
0
100
AcDbBlockBegin
  2
*D33
 70
     1
 10
0.0
 20
0.0
 30
0.0
  3
*D33
  1

  0
LINE
  5
186
330
184
100
AcDbEntity
  8
cotas
100
AcDbLine
 10
5339.955355059274
 20
2660.074634436077
 30
0.0
 11
5310.785801582309
 21
2694.079717032791
 31
0.0
  0
MTEXT
  5
187
330
184
100
AcDbEntity
  8
cotas
100
AcDbMText
 10
5336.371546027177
 20
2679.926276696058
 30
0.0
 40
10.0
 41
0.0
 71
     5
 72
     1
  1
R10
  7
SANINDUSA
 11
0.6510787757037912
 21
-0.7590101631915429
 31
0.0
 73
     1
 44
1.0
1001
ACAD
1000
MTEXTBEGIN
1070
    73
1070
     1
1070
    44
1040
1.0
1070
    74
1070
     0
1000
MTEXTEND
  0
SOLID
  5
188
330
184
100
AcDbEntity
  8
cotas
100
AcDbTrace
 10
5312.050818520962
 20
2695.164848325631
 30
0.0
 11
5309.520784643657
 21
2692.994585739951
 31
0.0
 12
5304.275013825272
 22
2701.669818664707
 32
0.0
 13
5304.275013825272
 23
2701.669818664707
 33
0.0
  0
POINT
  5
189
330
184
100
AcDbEntity
  8
Defpoints
 62
     0
100
AcDbPoint
 10
5304.275013825272
 20
2701.669818664707
 30
0.0
  0
POINT
  5
18A
330
184
100
AcDbEntity
  8
Defpoints
 62
     0
100
AcDbPoint
 10
5310.78580158231
 20
2694.07971703279
 30
0.0
  0
ENDBLK
  5
18B
330
184
100
AcDbEntity
  8
0
100
AcDbBlockEnd
  0
BLOCK
  5
18D
330
18C
100
AcDbEntity
  8
0
100
AcDbBlockBegin
  2
*D34
 70
     1
 10
0.0
 20
0.0
 30
0.0
  3
*D34
  1

  0
LINE
  5
18E
330
18C
100
AcDbEntity
  8
cotas
100
AcDbLine
 10
6558.44683554923
 20
1945.651378095314
 30
0.0
 11
6528.430768154521
 21
1978.911627502244
 31
0.0
  0
MTEXT
  5
18F
330
18C
100
AcDbEntity
  8
cotas
100
AcDbMText
 10
6554.367079662383
 20
1965.408795072277
 30
0.0
 40
10.0
 41
0.0
 71
     5
 72
     1
  1
R20
  7
SANINDUSA
 11
0.6699733825621656
 21
-0.7423851201756472
 31
0.0
 73
     1
 44
1.0
1001
ACAD
1000
MTEXTBEGIN
1070
    73
1070
     1
1070
    44
1040
1.0
1070
    74
1070
     0
1000
MTEXTEND
  0
LINE
  5
190
330
18C
100
AcDbEntity
  8
cotas
100
AcDbLine
 10
6508.331566677658
 20
2001.183181107512
 30
0.0
 11
6521.731034328898
 21
1986.335478704
 31
0.0
  0
SOLID
  5
191
330
18C
100
AcDbEntity
  8
cotas
100
AcDbTrace
 10
6529.668076688148
 20
1980.028249806515
 30
0.0
 11
6527.193459620896
 21
1977.795005197974
 31
0.0
 12
6521.731034328898
 22
1986.335478704
 32
0.0
 13
6521.731034328898
 23
1986.335478704
 33
0.0
  0
POINT
  5
192
330
18C
100
AcDbEntity
  8
Defpoints
 62
     0
100
AcDbPoint
 10
6521.731034328898
 20
1986.335478704
 30
0.0
  0
POINT
  5
193
330
18C
100
AcDbEntity
  8
Defpoints
 62
     0
100
AcDbPoint
 10
6508.331566677658
 20
2001.183181107512
 30
0.0
  0
ENDBLK
  5
194
330
18C
100
AcDbEntity
  8
0
100
AcDbBlockEnd
  0
BLOCK
  5
196
330
195
100
AcDbEntity
  8
0
100
AcDbBlockBegin
  2
*D35
 70
     1
 10
0.0
 20
0.0
 30
0.0
  3
*D35
  1

  0
LINE
  5
197
330
195
100
AcDbEntity
  8
cotas
100
AcDbLine
 10
6561.752420152484
 20
2773.08295845636
 30
0.0
 11
6529.749209110203
 21
2741.730080192347
 31
0.0
  0
MTEXT
  5
198
330
195
100
AcDbEntity
  8
cotas
100
AcDbMText
 10
6542.178638894525
 20
2768.197569939229
 30
0.0
 40
10.0
 41
0.0
 71
     5
 72
     1
  1
R20
  7
SANINDUSA
 11
0.7143274058156049
 21
0.6998116584487202
 31
0.0
 73
     1
 44
1.0
1001
ACAD
1000
MTEXTBEGIN
1070
    73
1070
     1
1070
    44
1040
1.0
1070
    74
1070
     0
1000
MTEXTEND
  0
LINE
  5
199
330
195
100
AcDbEntity
  8
cotas
100
AcDbLine
 10
6508.319386935733
 20
2720.735730438886
 30
0.0
 11
6522.605935052046
 21
2734.731963607861
 31
0.0
  0
SOLID
  5
19A
330
195
100
AcDbEntity
  8
cotas
100
AcDbTrace
 10
6528.582856346121
 20
2742.920625868707
 30
0.0
 11
6530.915561874284
 21
2740.539534515989
 31
0.0
 12
6522.605935052046
 22
2734.731963607861
 32
0.0
 13
6522.605935052046
 23
2734.731963607861
 33
0.0
  0
POINT
  5
19B
330
195
100
AcDbEntity
  8
Defpoints
 62
     0
100
AcDbPoint
 10
6522.605935052046
 20
2734.731963607861
 30
0.0
  0
POINT
  5
19C
330
195
100
AcDbEntity
  8
Defpoints
 62
     0
100
AcDbPoint
 10
6508.319386935733
 20
2720.735730438886
 30
0.0
  0
ENDBLK
  5
19D
330
195
100
AcDbEntity
  8
0
100
AcDbBlockEnd
  0
BLOCK
  5
19F
330
19E
100
AcDbEntity
  8
0
100
AcDbBlockBegin
  2
*D36
 70
     1
 10
0.0
 20
0.0
 30
0.0
  3
*D36
  1

  0
LINE
  5
1A0
330
19E
100
AcDbEntity
  8
cotas
100
AcDbLine
 10
6310.39621753451
 20
2448.989940740265
 30
-0.0000000000000961
 11
6353.412065770442
 21
2413.972832846415
 31
-0.0000000000000961
  0
LINE
  5
1A1
330
19E
100
AcDbEntity
  8
cotas
100
AcDbLine
 10
6483.677475133538
 20
2307.930104838701
 30
-0.0000000000000961
 11
6491.432723713669
 21
2301.616934520994
 31
-0.0000000000000961
  0
MTEXT
  5
1A2
330
19E
100
AcDbEntity
  8
cotas
100
AcDbMText
 10
6334.907830609985
 20
2443.091140820931
 30
-0.0000000000000961
 40
10.0
 41
0.0
 71
     5
 72
     1
  1
\U+2205148
  7
SANINDUSA
 11
0.7755248580131008
 21
-0.6313170317706947
 31
0.0
 73
     1
 44
1.0
1001
ACAD
1000
MTEXTBEGIN
1070
    73
1070
     1
1070
    44
1040
1.0
1070
    74
1070
     0
1000
MTEXTEND
  0
LINE
  5
1A3
330
19E
100
AcDbEntity
  8
cotas
100
AcDbLine
 10
6475.922226553406
 20
2314.243275156408
 30
-0.0000000000000961
 11
6361.167314350573
 21
2407.659662528708
 31
-0.0000000000000961
  0
SOLID
  5
1A4
330
19E
100
AcDbEntity
  8
cotas
100
AcDbTrace
 10
6484.729670186489
 20
2309.222646268723
 30
-0.0000000000000961
 11
6482.625280080587
 21
2306.637563408679
 31
-0.0000000000000961
 12
6475.922226553406
 22
2314.243275156408
 32
-0.0000000000000961
 13
6475.922226553406
 23
2314.243275156408
 33
-0.0000000000000961
  0
SOLID
  5
1A5
330
19E
100
AcDbEntity
  8
cotas
100
AcDbTrace
 10
6354.464260823394
 20
2415.265374276438
 30
-0.0000000000000961
 11
6352.359870717489
 21
2412.680291416393
 31
-0.0000000000000961
 12
6361.167314350573
 22
2407.659662528708
 32
-0.0000000000000961
 13
6361.167314350573
 23
2407.659662528708
 33
-0.0000000000000961
  0
POINT
  5
1A6
330
19E
100
AcDbEntity
  8
Defpoints
 62
     0
100
AcDbPoint
 10
6361.167314350573
 20
2407.659662528708
 30
-0.0000000000000961
  0
POINT
  5
1A7
330
19E
100
AcDbEntity
  8
Defpoints
 62
     0
100
AcDbPoint
 10
6475.922226553406
 20
2314.243275156408
 30
-0.0000000000000961
  0
ENDBLK
  5
1A8
330
19E
100
AcDbEntity
  8
0
100
AcDbBlockEnd
  0
BLOCK
  5
1AA
330
1A9
100
AcDbEntity
  8
0
100
AcDbBlockBegin
  2
*D37
 70
     1
 10
0.0
 20
0.0
 30
0.0
  3
*D37
  1

  0
LINE
  5
1AB
330
1A9
100
AcDbEntity
  8
cotas
100
AcDbLine
 10
4016.156893599485
 20
3423.082003133227
 30
0.0
 11
4016.156893599485
 21
3453.082003133227
 31
0.0
  0
LINE
  5
1AC
330
1A9
100
AcDbEntity
  8
cotas
100
AcDbLine
 10
4916.156897257299
 20
3423.082003133227
 30
0.0
 11
4916.156897257299
 21
3453.082003133227
 31
0.0
  0
LINE
  5
1AD
330
1A9
100
AcDbEntity
  8
cotas
100
AcDbLine
 10
4026.156893599486
 20
3448.082003133227
 30
0.0
 11
4906.1568972573
 21
3448.082003133227
 31
0.0
  0
SOLID
  5
1AE
330
1A9
100
AcDbEntity
  8
cotas
100
AcDbTrace
 10
4026.156893599486
 20
3449.748669799894
 30
0.0
 11
4026.156893599486
 21
3446.415336466561
 31
0.0
 12
4016.156893599485
 22
3448.082003133227
 32
0.0
 13
4016.156893599485
 23
3448.082003133227
 33
0.0
  0
SOLID
  5
1AF
330
1A9
100
AcDbEntity
  8
cotas
100
AcDbTrace
 10
4906.1568972573
 20
3449.748669799894
 30
0.0
 11
4906.1568972573
 21
3446.415336466561
 31
0.0
 12
4916.156897257299
 22
3448.082003133227
 32
0.0
 13
4916.156897257299
 23
3448.082003133227
 33
0.0
  0
MTEXT
  5
1B0
330
1A9
100
AcDbEntity
  8
cotas
100
AcDbMText
 10
4466.156895428392
 20
3458.286838593267
 30
0.0
 40
10.0
 41
0.0
 71
     5
 72
     1
  1
900
  7
SANINDUSA
 73
     1
 44
1.0
1001
ACAD
1000
MTEXTBEGIN
1070
    73
1070
     1
1070
    44
1040
1.0
1070
    74
1070
     0
1000
MTEXTEND
  0
POINT
  5
1B1
330
1A9
100
AcDbEntity
  8
Defpoints
 62
     0
100
AcDbPoint
 10
4016.156893599485
 20
3418.082003133227
 30
0.0
  0
POINT
  5
1B2
330
1A9
100
AcDbEntity
  8
Defpoints
 62
     0
100
AcDbPoint
 10
4916.156897257299
 20
3418.082003133227
 30
0.0
  0
POINT
  5
1B3
330
1A9
100
AcDbEntity
  8
Defpoints
 62
     0
100
AcDbPoint
 10
4916.156897257299
 20
3448.082003133227
 30
0.0
  0
ENDBLK
  5
1B4
330
1A9
100
AcDbEntity
  8
0
100
AcDbBlockEnd
  0
BLOCK
  5
1B6
330
1B5
100
AcDbEntity
  8
0
100
AcDbBlockBegin
  2
*D38
 70
     1
 10
0.0
 20
0.0
 30
0.0
  3
*D38
  1

  0
LINE
  5
1B7
330
1B5
100
AcDbEntity
  8
cotas
100
AcDbLine
 10
5268.630989845109
 20
4247.505552111269
 30
0.0
 11
5268.630989845109
 21
4277.50555211127
 31
0.0
  0
LINE
  5
1B8
330
1B5
100
AcDbEntity
  8
cotas
100
AcDbLine
 10
5198.630989568781
 20
4247.505552111269
 30
0.0
 11
5198.630989568781
 21
4277.50555211127
 31
0.0
  0
LINE
  5
1B9
330
1B5
100
AcDbEntity
  8
cotas
100
AcDbLine
 10
5258.630989845109
 20
4272.50555211127
 30
0.0
 11
5208.630989568781
 21
4272.50555211127
 31
0.0
  0
SOLID
  5
1BA
330
1B5
100
AcDbEntity
  8
cotas
100
AcDbTrace
 10
5258.630989845109
 20
4274.172218777937
 30
0.0
 11
5258.630989845109
 21
4270.838885444603
 31
0.0
 12
5268.630989845109
 22
4272.50555211127
 32
0.0
 13
5268.630989845109
 23
4272.50555211127
 33
0.0
  0
SOLID
  5
1BB
330
1B5
100
AcDbEntity
  8
cotas
100
AcDbTrace
 10
5208.630989568781
 20
4274.172218777937
 30
0.0
 11
5208.630989568781
 21
4270.838885444603
 31
0.0
 12
5198.630989568781
 22
4272.50555211127
 32
0.0
 13
5198.630989568781
 23
4272.50555211127
 33
0.0
  0
MTEXT
  5
1BC
330
1B5
100
AcDbEntity
  8
cotas
100
AcDbMText
 10
5233.630989706945
 20
4282.710387571309
 30
0.0
 40
10.0
 41
0.0
 71
     5
 72
     1
  1
70
  7
SANINDUSA
 73
     1
 44
1.0
1001
ACAD
1000
MTEXTBEGIN
1070
    73
1070
     1
1070
    44
1040
1.0
1070
    74
1070
     0
1000
MTEXTEND
  0
POINT
  5
1BD
330
1B5
100
AcDbEntity
  8
Defpoints
 62
     0
100
AcDbPoint
 10
5268.630989845109
 20
4242.50555211127
 30
0.0
  0
POINT
  5
1BE
330
1B5
100
AcDbEntity
  8
Defpoints
 62
     0
100
AcDbPoint
 10
5198.630989568781
 20
4242.505552111269
 30
0.0
  0
POINT
  5
1BF
330
1B5
100
AcDbEntity
  8
Defpoints
 62
     0
100
AcDbPoint
 10
5198.630989568781
 20
4272.50555211127
 30
0.0
  0
ENDBLK
  5
1C0
330
1B5
100
AcDbEntity
  8
0
100
AcDbBlockEnd
  0
BLOCK
  5
1C2
330
1C1
100
AcDbEntity
  8
0
100
AcDbBlockBegin
  2
*D39
 70
     1
 10
0.0
 20
0.0
 30
0.0
  3
*D39
  1

  0
LINE
  5
1C3
330
1C1
100
AcDbEntity
  8
cotas
100
AcDbLine
 10
5268.630989845109
 20
4247.505552111269
 30
0.0
 11
5268.630989845109
 21
4277.50555211127
 31
0.0
  0
LINE
  5
1C4
330
1C1
100
AcDbEntity
  8
cotas
100
AcDbLine
 10
5301.037790670936
 20
4187.930902023206
 30
0.0
 11
5301.037790670936
 21
4277.50555211127
 31
0.0
  0
LINE
  5
1C5
330
1C1
100
AcDbEntity
  8
cotas
100
AcDbLine
 10
5278.630989845109
 20
4272.50555211127
 30
0.0
 11
5291.037790670936
 21
4272.50555211127
 31
0.0
  0
LINE
  5
1C6
330
1C1
100
AcDbEntity
  8
cotas
100
AcDbLine
 10
5301.037790670936
 20
4272.50555211127
 30
0.0
 11
5350.487085499681
 21
4272.50555211127
 31
0.0
  0
SOLID
  5
1C7
330
1C1
100
AcDbEntity
  8
cotas
100
AcDbTrace
 10
5278.630989845109
 20
4274.172218777937
 30
0.0
 11
5278.630989845109
 21
4270.838885444603
 31
0.0
 12
5268.630989845109
 22
4272.50555211127
 32
0.0
 13
5268.630989845109
 23
4272.50555211127
 33
0.0
  0
SOLID
  5
1C8
330
1C1
100
AcDbEntity
  8
cotas
100
AcDbTrace
 10
5291.037790670936
 20
4274.172218777937
 30
0.0
 11
5291.037790670936
 21
4270.838885444603
 31
0.0
 12
5301.037790670936
 22
4272.50555211127
 32
0.0
 13
5301.037790670936
 23
4272.50555211127
 33
0.0
  0
MTEXT
  5
1C9
330
1C1
100
AcDbEntity
  8
cotas
100
AcDbMText
 10
5330.762438085308
 20
4283.852093414157
 30
0.0
 40
10.0
 41
0.0
 71
     5
 72
     1
  1
32,4
  7
SANINDUSA
 73
     1
 44
1.0
1001
ACAD
1000
MTEXTBEGIN
1070
    73
1070
     1
1070
    44
1040
1.0
1070
    74
1070
     0
1000
MTEXTEND
  0
POINT
  5
1CA
330
1C1
100
AcDbEntity
  8
Defpoints
 62
     0
100
AcDbPoint
 10
5268.630989845109
 20
4242.50555211127
 30
0.0
  0
POINT
  5
1CB
330
1C1
100
AcDbEntity
  8
Defpoints
 62
     0
100
AcDbPoint
 10
5301.037790670936
 20
4182.930902023206
 30
0.0
  0
POINT
  5
1CC
330
1C1
100
AcDbEntity
  8
Defpoints
 62
     0
100
AcDbPoint
 10
5301.037790670936
 20
4272.50555211127
 30
0.0
  0
ENDBLK
  5
1CD
330
1C1
100
AcDbEntity
  8
0
100
AcDbBlockEnd
  0
BLOCK
  5
1CF
330
1CE
100
AcDbEntity
  8
0
100
AcDbBlockBegin
  2
*D40
 70
     1
 10
0.0
 20
0.0
 30
0.0
  3
*D40
  1

  0
LINE
  5
1D0
330
1CE
100
AcDbEntity
  8
cotas
100
AcDbLine
 10
5301.12505266231
 20
4187.930140499701
 30
0.0
 11
5301.537127665368
 21
4211.537912658179
 31
0.0
  0
LINE
  5
1D1
330
1CE
100
AcDbEntity
  8
cotas
100
AcDbLine
 10
5763.054687890386
 20
4179.867132496631
 30
0.0
 11
5763.466762893443
 21
4203.474904655108
 31
0.0
  0
LINE
  5
1D2
330
1CE
100
AcDbEntity
  8
cotas
100
AcDbLine
 10
5311.448342626982
 20
4206.364150198933
 30
0.0
 11
5753.38102394908
 21
4198.650190161365
 31
0.0
  0
SOLID
  5
1D3
330
1CE
100
AcDbEntity
  8
cotas
100
AcDbTrace
 10
5311.47742995744
 20
4208.030563024431
 30
0.0
 11
5311.419255296524
 21
4204.697737373434
 31
0.0
 12
5301.449865673992
 22
4206.538674181683
 32
0.0
 13
5301.449865673992
 23
4206.538674181683
 33
0.0
  0
SOLID
  5
1D4
330
1CE
100
AcDbEntity
  8
cotas
100
AcDbTrace
 10
5753.410111279539
 20
4200.316602986862
 30
0.0
 11
5753.351936618621
 21
4196.983777335866
 31
0.0
 12
5763.379500902068
 22
4198.475666178614
 32
0.0
 13
5763.379500902068
 23
4198.475666178614
 33
0.0
  0
MTEXT
  5
1D5
330
1CE
100
AcDbEntity
  8
cotas
100
AcDbMText
 10
5532.592840745238
 20
4212.713808842702
 30
0.0
 40
10.0
 41
0.0
 71
     5
 72
     1
  1
462
  7
SANINDUSA
 11
0.9998476952988635
 21
-0.0174523982750426
 31
0.0
 73
     1
 44
1.0
1001
ACAD
1000
MTEXTBEGIN
1070
    73
1070
     1
1070
    44
1040
1.0
1070
    74
1070
     0
1000
MTEXTEND
  0
POINT
  5
1D6
330
1CE
100
AcDbEntity
  8
Defpoints
 62
     0
100
AcDbPoint
 10
5301.037790670935
 20
4182.930902023206
 30
0.0
  0
POINT
  5
1D7
330
1CE
100
AcDbEntity
  8
Defpoints
 62
     0
100
AcDbPoint
 10
5762.96742589901
 20
4174.867894020136
 30
0.0
  0
POINT
  5
1D8
330
1CE
100
AcDbEntity
  8
Defpoints
 62
     0
100
AcDbPoint
 10
5763.379500902068
 20
4198.475666178614
 30
0.0
  0
ENDBLK
  5
1D9
330
1CE
100
AcDbEntity
  8
0
100
AcDbBlockEnd
  0
BLOCK
  5
1DB
330
1DA
100
AcDbEntity
  8
0
100
AcDbBlockBegin
  2
*D41
 70
     1
 10
0.0
 20
0.0
 30
0.0
  3
*D41
  1

  0
LINE
  5
1DC
330
1DA
100
AcDbEntity
  8
cotas
100
AcDbLine
 10
5767.967425899012
 20
4174.867894020136
 30
0.0
 11
5817.453191573468
 21
4174.867894020136
 31
0.0
  0
LINE
  5
1DD
330
1DA
100
AcDbEntity
  8
cotas
100
AcDbLine
 10
5767.967425899012
 20
4152.849078336023
 30
0.0
 11
5817.453191573468
 21
4152.849078336023
 31
0.0
  0
LINE
  5
1DE
330
1DA
100
AcDbEntity
  8
cotas
100
AcDbLine
 10
5812.453191573467
 20
4184.867894020135
 30
0.0
 11
5812.453191573467
 21
4194.867894020136
 31
0.0
  0
LINE
  5
1DF
330
1DA
100
AcDbEntity
  8
cotas
100
AcDbLine
 10
5812.453191573467
 20
4142.849078336023
 30
0.0
 11
5812.453191573467
 21
4107.335310706741
 31
0.0
  0
LINE
  5
1E0
330
1DA
100
AcDbEntity
  8
cotas
100
AcDbLine
 10
5812.453191573467
 20
4174.867894020136
 30
0.0
 11
5812.453191573467
 21
4152.849078336023
 31
0.0
  0
SOLID
  5
1E1
330
1DA
100
AcDbEntity
  8
cotas
100
AcDbTrace
 10
5810.786524906801
 20
4184.867894020135
 30
0.0
 11
5814.119858240135
 21
4184.867894020135
 31
0.0
 12
5812.453191573467
 22
4174.867894020136
 32
0.0
 13
5812.453191573467
 23
4174.867894020136
 33
0.0
  0
SOLID
  5
1E2
330
1DA
100
AcDbEntity
  8
cotas
100
AcDbTrace
 10
5810.786524906801
 20
4142.849078336023
 30
0.0
 11
5814.119858240135
 21
4142.849078336023
 31
0.0
 12
5812.453191573467
 22
4152.849078336023
 32
0.0
 13
5812.453191573467
 23
4152.849078336023
 33
0.0
  0
MTEXT
  5
1E3
330
1DA
100
AcDbEntity
  8
cotas
100
AcDbMText
 10
5802.349094864266
 20
4120.092194521383
 30
0.0
 40
10.0
 41
0.0
 71
     5
 72
     1
  1
22
  7
SANINDUSA
 11
0.0000000000000001
 21
1.0
 31
0.0
 73
     1
 44
1.0
1001
ACAD
1000
MTEXTBEGIN
1070
    73
1070
     1
1070
    44
1040
1.0
1070
    74
1070
     0
1000
MTEXTEND
  0
POINT
  5
1E4
330
1DA
100
AcDbEntity
  8
Defpoints
 62
     0
100
AcDbPoint
 10
5762.967425899012
 20
4174.867894020136
 30
0.0
  0
POINT
  5
1E5
330
1DA
100
AcDbEntity
  8
Defpoints
 62
     0
100
AcDbPoint
 10
5762.967425899012
 20
4152.849078336023
 30
0.0
  0
POINT
  5
1E6
330
1DA
100
AcDbEntity
  8
Defpoints
 62
     0
100
AcDbPoint
 10
5812.453191573467
 20
4152.849078336023
 30
0.0
  0
ENDBLK
  5
1E7
330
1DA
100
AcDbEntity
  8
0
100
AcDbBlockEnd
  0
BLOCK
  5
1E9
330
1E8
100
AcDbEntity
  8
0
100
AcDbBlockBegin
  2
*D42
 70
     1
 10
0.0
 20
0.0
 30
0.0
  3
*D42
  1

  0
LINE
  5
1EA
330
1E8
100
AcDbEntity
  8
cotas
100
AcDbLine
 10
5296.037790670936
 20
4182.930902023206
 30
0.0
 11
5162.932786988272
 21
4182.930902023206
 31
0.0
  0
LINE
  5
1EB
330
1E8
100
AcDbEntity
  8
cotas
100
AcDbLine
 10
5296.037790670936
 20
4172.929378665549
 30
0.0
 11
5162.932786988272
 21
4172.929378665549
 31
0.0
  0
LINE
  5
1EC
330
1E8
100
AcDbEntity
  8
cotas
100
AcDbLine
 10
5167.932786988272
 20
4192.930902023205
 30
0.0
 11
5167.932786988272
 21
4202.930902023205
 31
0.0
  0
LINE
  5
1ED
330
1E8
100
AcDbEntity
  8
cotas
100
AcDbLine
 10
5167.932786988272
 20
4162.92937866555
 30
0.0
 11
5167.932786988272
 21
4128.214805126262
 31
0.0
  0
LINE
  5
1EE
330
1E8
100
AcDbEntity
  8
cotas
100
AcDbLine
 10
5167.932786988272
 20
4182.930902023206
 30
0.0
 11
5167.932786988272
 21
4172.929378665549
 31
0.0
  0
SOLID
  5
1EF
330
1E8
100
AcDbEntity
  8
cotas
100
AcDbTrace
 10
5166.266120321605
 20
4192.930902023205
 30
0.0
 11
5169.599453654939
 21
4192.930902023205
 31
0.0
 12
5167.932786988272
 22
4182.930902023206
 32
0.0
 13
5167.932786988272
 23
4182.930902023206
 33
0.0
  0
SOLID
  5
1F0
330
1E8
100
AcDbEntity
  8
cotas
100
AcDbTrace
 10
5166.266120321605
 20
4162.92937866555
 30
0.0
 11
5169.599453654939
 21
4162.92937866555
 31
0.0
 12
5167.932786988272
 22
4172.929378665549
 32
0.0
 13
5167.932786988272
 23
4172.929378665549
 33
0.0
  0
MTEXT
  5
1F1
330
1E8
100
AcDbEntity
  8
cotas
100
AcDbMText
 10
5157.72795152823
 20
4140.572091895907
 30
0.0
 40
10.0
 41
0.0
 71
     5
 72
     1
  1
10
  7
SANINDUSA
 11
0.0000000000000001
 21
1.0
 31
0.0
 73
     1
 44
1.0
1001
ACAD
1000
MTEXTBEGIN
1070
    73
1070
     1
1070
    44
1040
1.0
1070
    74
1070
     0
1000
MTEXTEND
  0
POINT
  5
1F2
330
1E8
100
AcDbEntity
  8
Defpoints
 62
     0
100
AcDbPoint
 10
5301.037790670936
 20
4182.930902023206
 30
0.0
  0
POINT
  5
1F3
330
1E8
100
AcDbEntity
  8
Defpoints
 62
     0
100
AcDbPoint
 10
5301.037790670936
 20
4172.929378665549
 30
0.0
  0
POINT
  5
1F4
330
1E8
100
AcDbEntity
  8
Defpoints
 62
     0
100
AcDbPoint
 10
5167.932786988272
 20
4172.929378665549
 30
0.0
  0
ENDBLK
  5
1F5
330
1E8
100
AcDbEntity
  8
0
100
AcDbBlockEnd
  0
BLOCK
  5
1F7
330
1F6
100
AcDbEntity
  8
0
100
AcDbBlockBegin
  2
*D43
 70
     1
 10
0.0
 20
0.0
 30
0.0
  3
*D43
  1

  0
LINE
  5
1F8
330
1F6
100
AcDbEntity
  8
cotas
100
AcDbLine
 10
6598.630978374313
 20
4247.505552111269
 30
0.0
 11
6598.630978374313
 21
4277.505552111269
 31
0.0
  0
LINE
  5
1F9
330
1F6
100
AcDbEntity
  8
cotas
100
AcDbLine
 10
6528.631000552184
 20
4247.505552111269
 30
0.0
 11
6528.631000552184
 21
4277.505552111269
 31
0.0
  0
LINE
  5
1FA
330
1F6
100
AcDbEntity
  8
cotas
100
AcDbLine
 10
6588.630978374311
 20
4272.505552111269
 30
0.0
 11
6538.631000552185
 21
4272.505552111269
 31
0.0
  0
SOLID
  5
1FB
330
1F6
100
AcDbEntity
  8
cotas
100
AcDbTrace
 10
6588.630978374311
 20
4274.172218777936
 30
0.0
 11
6588.630978374311
 21
4270.838885444602
 31
0.0
 12
6598.630978374313
 22
4272.505552111269
 32
0.0
 13
6598.630978374313
 23
4272.505552111269
 33
0.0
  0
SOLID
  5
1FC
330
1F6
100
AcDbEntity
  8
cotas
100
AcDbTrace
 10
6538.631000552185
 20
4274.172218777936
 30
0.0
 11
6538.631000552185
 21
4270.838885444602
 31
0.0
 12
6528.631000552184
 22
4272.505552111269
 32
0.0
 13
6528.631000552184
 23
4272.505552111269
 33
0.0
  0
MTEXT
  5
1FD
330
1F6
100
AcDbEntity
  8
cotas
100
AcDbMText
 10
6563.630989463248
 20
4282.710387571309
 30
0.0
 40
10.0
 41
0.0
 71
     5
 72
     1
  1
70
  7
SANINDUSA
 73
     1
 44
1.0
1001
ACAD
1000
MTEXTBEGIN
1070
    73
1070
     1
1070
    44
1040
1.0
1070
    74
1070
     0
1000
MTEXTEND
  0
POINT
  5
1FE
330
1F6
100
AcDbEntity
  8
Defpoints
 62
     0
100
AcDbPoint
 10
6598.630978374313
 20
4242.505552111269
 30
0.0
  0
POINT
  5
1FF
330
1F6
100
AcDbEntity
  8
Defpoints
 62
     0
100
AcDbPoint
 10
6528.631000552184
 20
4242.505552111269
 30
0.0
  0
POINT
  5
200
330
1F6
100
AcDbEntity
  8
Defpoints
 62
     0
100
AcDbPoint
 10
6528.631000552184
 20
4272.505552111269
 30
0.0
  0
ENDBLK
  5
201
330
1F6
100
AcDbEntity
  8
0
100
AcDbBlockEnd
  0
BLOCK
  5
203
330
202
100
AcDbEntity
  8
0
100
AcDbBlockBegin
  2
*D44
 70
     1
 10
0.0
 20
0.0
 30
0.0
  3
*D44
  1

  0
LINE
  5
204
330
202
100
AcDbEntity
  8
cotas
100
AcDbLine
 10
6598.630978374313
 20
4247.505552111269
 30
0.0
 11
6598.630978374313
 21
4307.500552067027
 31
0.0
  0
LINE
  5
205
330
202
100
AcDbEntity
  8
cotas
100
AcDbLine
 10
6418.631000297766
 20
4171.400231258657
 30
0.0
 11
6418.631000297766
 21
4307.500552067027
 31
0.0
  0
LINE
  5
206
330
202
100
AcDbEntity
  8
cotas
100
AcDbLine
 10
6588.630978374311
 20
4302.500552067027
 30
0.0
 11
6428.631000297766
 21
4302.500552067027
 31
0.0
  0
SOLID
  5
207
330
202
100
AcDbEntity
  8
cotas
100
AcDbTrace
 10
6588.630978374311
 20
4304.167218733694
 30
0.0
 11
6588.630978374311
 21
4300.83388540036
 31
0.0
 12
6598.630978374313
 22
4302.500552067027
 32
0.0
 13
6598.630978374313
 23
4302.500552067027
 33
0.0
  0
SOLID
  5
208
330
202
100
AcDbEntity
  8
cotas
100
AcDbTrace
 10
6428.631000297766
 20
4304.167218733694
 30
0.0
 11
6428.631000297766
 21
4300.83388540036
 31
0.0
 12
6418.631000297766
 22
4302.500552067027
 32
0.0
 13
6418.631000297766
 23
4302.500552067027
 33
0.0
  0
MTEXT
  5
209
330
202
100
AcDbEntity
  8
cotas
100
AcDbMText
 10
6508.630989336039
 20
4312.728893235596
 30
0.0
 40
10.0
 41
0.0
 71
     5
 72
     1
  1
180
  7
SANINDUSA
 73
     1
 44
1.0
1001
ACAD
1000
MTEXTBEGIN
1070
    73
1070
     1
1070
    44
1040
1.0
1070
    74
1070
     0
1000
MTEXTEND
  0
POINT
  5
20A
330
202
100
AcDbEntity
  8
Defpoints
 62
     0
100
AcDbPoint
 10
6598.630978374313
 20
4242.505552111269
 30
0.0
  0
POINT
  5
20B
330
202
100
AcDbEntity
  8
Defpoints
 62
     0
100
AcDbPoint
 10
6418.631000297766
 20
4166.400231258658
 30
0.0
  0
POINT
  5
20C
330
202
100
AcDbEntity
  8
Defpoints
 62
     0
100
AcDbPoint
 10
6418.631000297766
 20
4302.500552067027
 30
0.0
  0
ENDBLK
  5
20D
330
202
100
AcDbEntity
  8
0
100
AcDbBlockEnd
  0
BLOCK
  5
20F
330
20E
100
AcDbEntity
  8
0
100
AcDbBlockBegin
  2
*D45
 70
     1
 10
0.0
 20
0.0
 30
0.0
  3
*D45
  1

  0
LINE
  5
210
330
20E
100
AcDbEntity
  8
cotas
100
AcDbLine
 10
5198.630989568783
 20
3423.082003133227
 30
0.0
 11
5198.630989568783
 21
3453.082003133234
 31
0.0
  0
LINE
  5
211
330
20E
100
AcDbEntity
  8
cotas
100
AcDbLine
 10
6598.631021902306
 20
3423.082003133235
 30
0.0
 11
6598.631021902306
 21
3453.082003133234
 31
0.0
  0
LINE
  5
212
330
20E
100
AcDbEntity
  8
cotas
100
AcDbLine
 10
5208.630989568782
 20
3448.082003133234
 30
0.0
 11
6588.631021902307
 21
3448.082003133234
 31
0.0
  0
SOLID
  5
213
330
20E
100
AcDbEntity
  8
cotas
100
AcDbTrace
 10
5208.630989568782
 20
3449.748669799901
 30
0.0
 11
5208.630989568782
 21
3446.415336466568
 31
0.0
 12
5198.630989568783
 22
3448.082003133234
 32
0.0
 13
5198.630989568783
 23
3448.082003133234
 33
0.0
  0
SOLID
  5
214
330
20E
100
AcDbEntity
  8
cotas
100
AcDbTrace
 10
6588.631021902307
 20
3449.748669799901
 30
0.0
 11
6588.631021902307
 21
3446.415336466568
 31
0.0
 12
6598.631021902306
 22
3448.082003133234
 32
0.0
 13
6598.631021902306
 23
3448.082003133234
 33
0.0
  0
MTEXT
  5
215
330
20E
100
AcDbEntity
  8
cotas
100
AcDbMText
 10
5898.631005735545
 20
3458.286838593274
 30
0.0
 40
10.0
 41
0.0
 71
     5
 72
     1
  1
1400
  7
SANINDUSA
 73
     1
 44
1.0
1001
ACAD
1000
MTEXTBEGIN
1070
    73
1070
     1
1070
    44
1040
1.0
1070
    74
1070
     0
1000
MTEXTEND
  0
POINT
  5
216
330
20E
100
AcDbEntity
  8
Defpoints
 62
     0
100
AcDbPoint
 10
5198.630989568783
 20
3418.082003133227
 30
0.0
  0
POINT
  5
217
330
20E
100
AcDbEntity
  8
Defpoints
 62
     0
100
AcDbPoint
 10
6598.631021902306
 20
3418.082003133235
 30
0.0
  0
POINT
  5
218
330
20E
100
AcDbEntity
  8
Defpoints
 62
     0
100
AcDbPoint
 10
6598.631021902306
 20
3448.082003133234
 30
0.0
  0
ENDBLK
  5
219
330
20E
100
AcDbEntity
  8
0
100
AcDbBlockEnd
  0
BLOCK
  5
21B
330
21A
100
AcDbEntity
  8
0
100
AcDbBlockBegin
  2
*D46
 70
     1
 10
0.0
 20
0.0
 30
0.0
  3
*D46
  1

  0
LINE
  5
21C
330
21A
100
AcDbEntity
  8
cotas
100
AcDbLine
 10
6418.555288844759
 20
2816.645451708103
 30
0.0
 11
6418.555288844759
 21
2846.645451708104
 31
0.0
  0
LINE
  5
21D
330
21A
100
AcDbEntity
  8
cotas
100
AcDbLine
 10
6270.133640318835
 20
2681.397425017029
 30
0.0
 11
6270.133640318835
 21
2846.645451708104
 31
0.0
  0
LINE
  5
21E
330
21A
100
AcDbEntity
  8
cotas
100
AcDbLine
 10
6408.555288844759
 20
2841.645451708104
 30
0.0
 11
6280.133640318835
 21
2841.645451708104
 31
0.0
  0
SOLID
  5
21F
330
21A
100
AcDbEntity
  8
cotas
100
AcDbTrace
 10
6408.555288844759
 20
2843.31211837477
 30
0.0
 11
6408.555288844759
 21
2839.978785041438
 31
0.0
 12
6418.555288844759
 22
2841.645451708104
 32
0.0
 13
6418.555288844759
 23
2841.645451708104
 33
0.0
  0
SOLID
  5
220
330
21A
100
AcDbEntity
  8
cotas
100
AcDbTrace
 10
6280.133640318835
 20
2843.31211837477
 30
0.0
 11
6280.133640318835
 21
2839.978785041438
 31
0.0
 12
6270.133640318835
 22
2841.645451708104
 32
0.0
 13
6270.133640318835
 23
2841.645451708104
 33
0.0
  0
MTEXT
  5
221
330
21A
100
AcDbEntity
  8
cotas
100
AcDbMText
 10
6344.344464581798
 20
2853.002066886076
 30
0.0
 40
10.0
 41
0.0
 71
     5
 72
     1
  1
148,4
  7
SANINDUSA
 73
     1
 44
1.0
1001
ACAD
1000
MTEXTBEGIN
1070
    73
1070
     1
1070
    44
1040
1.0
1070
    74
1070
     0
1000
MTEXTEND
  0
POINT
  5
222
330
21A
100
AcDbEntity
  8
Defpoints
 62
     0
100
AcDbPoint
 10
6418.555288844759
 20
2811.645451708103
 30
0.0
  0
POINT
  5
223
330
21A
100
AcDbEntity
  8
Defpoints
 62
     0
100
AcDbPoint
 10
6270.133640318835
 20
2676.397425017029
 30
0.0
  0
POINT
  5
224
330
21A
100
AcDbEntity
  8
Defpoints
 62
     0
100
AcDbPoint
 10
6270.133640318835
 20
2841.645451708104
 30
0.0
  0
ENDBLK
  5
225
330
21A
100
AcDbEntity
  8
0
100
AcDbBlockEnd
  0
BLOCK
  5
227
330
226
100
AcDbEntity
  8
0
100
AcDbBlockBegin
  2
*D47
 70
     1
 10
0.0
 20
0.0
 30
0.0
  3
*D47
  1

  0
LINE
  5
228
330
226
100
AcDbEntity
  8
cotas
100
AcDbLine
 10
6270.133640318835
 20
2681.397425017029
 30
0.0
 11
6270.133640318835
 21
2846.645451708104
 31
0.0
  0
LINE
  5
229
330
226
100
AcDbEntity
  8
cotas
100
AcDbLine
 10
6190.166651025592
 20
2681.385802763842
 30
0.0
 11
6190.166651025592
 21
2846.645451708104
 31
0.0
  0
LINE
  5
22A
330
226
100
AcDbEntity
  8
cotas
100
AcDbLine
 10
6260.133640318835
 20
2841.645451708104
 30
0.0
 11
6200.166651025592
 21
2841.645451708104
 31
0.0
  0
SOLID
  5
22B
330
226
100
AcDbEntity
  8
cotas
100
AcDbTrace
 10
6260.133640318835
 20
2843.31211837477
 30
0.0
 11
6260.133640318835
 21
2839.978785041438
 31
0.0
 12
6270.133640318835
 22
2841.645451708104
 32
0.0
 13
6270.133640318835
 23
2841.645451708104
 33
0.0
  0
SOLID
  5
22C
330
226
100
AcDbEntity
  8
cotas
100
AcDbTrace
 10
6200.166651025592
 20
2843.31211837477
 30
0.0
 11
6200.166651025592
 21
2839.978785041438
 31
0.0
 12
6190.166651025592
 22
2841.645451708104
 32
0.0
 13
6190.166651025592
 23
2841.645451708104
 33
0.0
  0
MTEXT
  5
22D
330
226
100
AcDbEntity
  8
cotas
100
AcDbMText
 10
6230.150145672213
 20
2851.873792876673
 30
0.0
 40
10.0
 41
0.0
 71
     5
 72
     1
  1
80
  7
SANINDUSA
 73
     1
 44
1.0
1001
ACAD
1000
MTEXTBEGIN
1070
    73
1070
     1
1070
    44
1040
1.0
1070
    74
1070
     0
1000
MTEXTEND
  0
POINT
  5
22E
330
226
100
AcDbEntity
  8
Defpoints
 62
     0
100
AcDbPoint
 10
6270.133640318835
 20
2676.397425017029
 30
0.0
  0
POINT
  5
22F
330
226
100
AcDbEntity
  8
Defpoints
 62
     0
100
AcDbPoint
 10
6190.166651025592
 20
2676.385802763842
 30
0.0
  0
POINT
  5
230
330
226
100
AcDbEntity
  8
Defpoints
 62
     0
100
AcDbPoint
 10
6190.166651025592
 20
2841.645451708104
 30
0.0
  0
ENDBLK
  5
231
330
226
100
AcDbEntity
  8
0
100
AcDbBlockEnd
  0
BLOCK
  5
233
330
232
100
AcDbEntity
  8
0
100
AcDbBlockBegin
  2
*D48
 70
     1
 10
0.0
 20
0.0
 30
0.0
  3
*D48
  1

  0
LINE
  5
234
330
232
100
AcDbEntity
  8
cotas
100
AcDbLine
 10
6190.166651025592
 20
2681.385802763842
 30
0.0
 11
6190.166651025592
 21
2846.645451708104
 31
0.0
  0
LINE
  5
235
330
232
100
AcDbEntity
  8
cotas
100
AcDbLine
 10
6110.252067806973
 20
2681.378868434218
 30
0.0
 11
6110.252067806973
 21
2846.645451708104
 31
0.0
  0
LINE
  5
236
330
232
100
AcDbEntity
  8
cotas
100
AcDbLine
 10
6180.166651025592
 20
2841.645451708104
 30
0.0
 11
6120.252067806973
 21
2841.645451708104
 31
0.0
  0
SOLID
  5
237
330
232
100
AcDbEntity
  8
cotas
100
AcDbTrace
 10
6180.166651025592
 20
2843.31211837477
 30
0.0
 11
6180.166651025592
 21
2839.978785041438
 31
0.0
 12
6190.166651025592
 22
2841.645451708104
 32
0.0
 13
6190.166651025592
 23
2841.645451708104
 33
0.0
  0
SOLID
  5
238
330
232
100
AcDbEntity
  8
cotas
100
AcDbTrace
 10
6120.252067806973
 20
2843.31211837477
 30
0.0
 11
6120.252067806973
 21
2839.978785041438
 31
0.0
 12
6110.252067806973
 22
2841.645451708104
 32
0.0
 13
6110.252067806973
 23
2841.645451708104
 33
0.0
  0
MTEXT
  5
239
330
232
100
AcDbEntity
  8
cotas
100
AcDbMText
 10
6150.209359416283
 20
2851.873792876673
 30
0.0
 40
10.0
 41
0.0
 71
     5
 72
     1
  1
80
  7
SANINDUSA
 73
     1
 44
1.0
1001
ACAD
1000
MTEXTBEGIN
1070
    73
1070
     1
1070
    44
1040
1.0
1070
    74
1070
     0
1000
MTEXTEND
  0
POINT
  5
23A
330
232
100
AcDbEntity
  8
Defpoints
 62
     0
100
AcDbPoint
 10
6190.166651025592
 20
2676.385802763842
 30
0.0
  0
POINT
  5
23B
330
232
100
AcDbEntity
  8
Defpoints
 62
     0
100
AcDbPoint
 10
6110.252067806973
 20
2676.378868434218
 30
0.0
  0
POINT
  5
23C
330
232
100
AcDbEntity
  8
Defpoints
 62
     0
100
AcDbPoint
 10
6110.252067806973
 20
2841.645451708104
 30
0.0
  0
ENDBLK
  5
23D
330
232
100
AcDbEntity
  8
0
100
AcDbBlockEnd
  0
BLOCK
  5
23F
330
23E
100
AcDbEntity
  8
0
100
AcDbBlockBegin
  2
*D49
 70
     1
 10
0.0
 20
0.0
 30
0.0
  3
*D49
  1

  0
LINE
  5
240
330
23E
100
AcDbEntity
  8
cotas
100
AcDbLine
 10
5950.275199509854
 20
2816.645451708103
 30
0.0
 11
5950.275199509854
 21
2846.645451708103
 31
0.0
  0
LINE
  5
241
330
23E
100
AcDbEntity
  8
cotas
100
AcDbLine
 10
5870.285240111177
 20
2681.378999437257
 30
0.0
 11
5870.285240111177
 21
2846.645451708103
 31
0.0
  0
LINE
  5
242
330
23E
100
AcDbEntity
  8
cotas
100
AcDbLine
 10
5940.275199509854
 20
2841.645451708103
 30
0.0
 11
5880.285240111177
 21
2841.645451708103
 31
0.0
  0
SOLID
  5
243
330
23E
100
AcDbEntity
  8
cotas
100
AcDbTrace
 10
5940.275199509854
 20
2843.31211837477
 30
0.0
 11
5940.275199509854
 21
2839.978785041436
 31
0.0
 12
5950.275199509854
 22
2841.645451708103
 32
0.0
 13
5950.275199509854
 23
2841.645451708103
 33
0.0
  0
SOLID
  5
244
330
23E
100
AcDbEntity
  8
cotas
100
AcDbTrace
 10
5880.285240111177
 20
2843.31211837477
 30
0.0
 11
5880.285240111177
 21
2839.978785041436
 31
0.0
 12
5870.285240111177
 22
2841.645451708103
 32
0.0
 13
5870.285240111177
 23
2841.645451708103
 33
0.0
  0
MTEXT
  5
245
330
23E
100
AcDbEntity
  8
cotas
100
AcDbMText
 10
5910.280219810516
 20
2851.873792876672
 30
0.0
 40
10.0
 41
0.0
 71
     5
 72
     1
  1
80
  7
SANINDUSA
 73
     1
 44
1.0
1001
ACAD
1000
MTEXTBEGIN
1070
    73
1070
     1
1070
    44
1040
1.0
1070
    74
1070
     0
1000
MTEXTEND
  0
POINT
  5
246
330
23E
100
AcDbEntity
  8
Defpoints
 62
     0
100
AcDbPoint
 10
5950.275199509854
 20
2811.645451708103
 30
0.0
  0
POINT
  5
247
330
23E
100
AcDbEntity
  8
Defpoints
 62
     0
100
AcDbPoint
 10
5870.285240111177
 20
2676.378999437257
 30
0.0
  0
POINT
  5
248
330
23E
100
AcDbEntity
  8
Defpoints
 62
     0
100
AcDbPoint
 10
5870.285240111177
 20
2841.645451708103
 30
0.0
  0
ENDBLK
  5
249
330
23E
100
AcDbEntity
  8
0
100
AcDbBlockEnd
  0
BLOCK
  5
24B
330
24A
100
AcDbEntity
  8
0
100
AcDbBlockBegin
  2
*D50
 70
     1
 10
0.0
 20
0.0
 30
0.0
  3
*D50
  1

  0
LINE
  5
24C
330
24A
100
AcDbEntity
  8
cotas
100
AcDbLine
 10
6314.059074047481
 20
2640.947443581407
 30
0.0
 11
6634.253545337374
 21
2640.947443581407
 31
0.0
  0
LINE
  5
24D
330
24A
100
AcDbEntity
  8
cotas
100
AcDbLine
 10
6314.050273294235
 20
2560.965600238352
 30
0.0
 11
6634.253545337374
 21
2560.965600238352
 31
0.0
  0
LINE
  5
24E
330
24A
100
AcDbEntity
  8
cotas
100
AcDbLine
 10
6629.253545337374
 20
2630.947443581407
 30
0.0
 11
6629.253545337374
 21
2570.965600238352
 31
0.0
  0
SOLID
  5
24F
330
24A
100
AcDbEntity
  8
cotas
100
AcDbTrace
 10
6627.586878670706
 20
2630.947443581407
 30
0.0
 11
6630.920212004041
 21
2630.947443581407
 31
0.0
 12
6629.253545337374
 22
2640.947443581407
 32
0.0
 13
6629.253545337374
 23
2640.947443581407
 33
0.0
  0
SOLID
  5
250
330
24A
100
AcDbEntity
  8
cotas
100
AcDbTrace
 10
6627.586878670706
 20
2570.965600238352
 30
0.0
 11
6630.920212004041
 21
2570.965600238352
 31
0.0
 12
6629.253545337374
 22
2560.965600238352
 32
0.0
 13
6629.253545337374
 23
2560.965600238352
 33
0.0
  0
MTEXT
  5
251
330
24A
100
AcDbEntity
  8
cotas
100
AcDbMText
 10
6619.025204168804
 20
2600.956521909881
 30
0.0
 40
10.0
 41
0.0
 71
     5
 72
     1
  1
80
  7
SANINDUSA
 11
0.0000000000000001
 21
1.0
 31
0.0
 73
     1
 44
1.0
1001
ACAD
1000
MTEXTBEGIN
1070
    73
1070
     1
1070
    44
1040
1.0
1070
    74
1070
     0
1000
MTEXTEND
  0
POINT
  5
252
330
24A
100
AcDbEntity
  8
Defpoints
 62
     0
100
AcDbPoint
 10
6309.059074047481
 20
2640.947443581407
 30
0.0
  0
POINT
  5
253
330
24A
100
AcDbEntity
  8
Defpoints
 62
     0
100
AcDbPoint
 10
6309.050273294234
 20
2560.965600238352
 30
0.0
  0
POINT
  5
254
330
24A
100
AcDbEntity
  8
Defpoints
 62
     0
100
AcDbPoint
 10
6629.253545337374
 20
2560.965600238352
 30
0.0
  0
ENDBLK
  5
255
330
24A
100
AcDbEntity
  8
0
100
AcDbBlockEnd
  0
BLOCK
  5
257
330
256
100
AcDbEntity
  8
0
100
AcDbBlockBegin
  2
*D51
 70
     1
 10
0.0
 20
0.0
 30
0.0
  3
*D51
  1

  0
LINE
  5
258
330
256
100
AcDbEntity
  8
cotas
100
AcDbLine
 10
6319.050273294234
 20
2560.965600238352
 30
0.0
 11
6634.253545337374
 21
2560.965600238352
 31
0.0
  0
LINE
  5
259
330
256
100
AcDbEntity
  8
cotas
100
AcDbLine
 10
6314.030413339898
 20
2480.970721171088
 30
0.0
 11
6634.253545337374
 21
2480.970721171088
 31
0.0
  0
LINE
  5
25A
330
256
100
AcDbEntity
  8
cotas
100
AcDbLine
 10
6629.253545337374
 20
2550.965600238352
 30
0.0
 11
6629.253545337374
 21
2490.970721171088
 31
0.0
  0
SOLID
  5
25B
330
256
100
AcDbEntity
  8
cotas
100
AcDbTrace
 10
6627.586878670706
 20
2550.965600238352
 30
0.0
 11
6630.920212004041
 21
2550.965600238352
 31
0.0
 12
6629.253545337374
 22
2560.965600238352
 32
0.0
 13
6629.253545337374
 23
2560.965600238352
 33
0.0
  0
SOLID
  5
25C
330
256
100
AcDbEntity
  8
cotas
100
AcDbTrace
 10
6627.586878670706
 20
2490.970721171088
 30
0.0
 11
6630.920212004041
 21
2490.970721171088
 31
0.0
 12
6629.253545337374
 22
2480.970721171088
 32
0.0
 13
6629.253545337374
 23
2480.970721171088
 33
0.0
  0
MTEXT
  5
25D
330
256
100
AcDbEntity
  8
cotas
100
AcDbMText
 10
6619.025204168804
 20
2520.96816070472
 30
0.0
 40
10.0
 41
0.0
 71
     5
 72
     1
  1
80
  7
SANINDUSA
 11
0.0000000000000001
 21
1.0
 31
0.0
 73
     1
 44
1.0
1001
ACAD
1000
MTEXTBEGIN
1070
    73
1070
     1
1070
    44
1040
1.0
1070
    74
1070
     0
1000
MTEXTEND
  0
POINT
  5
25E
330
256
100
AcDbEntity
  8
Defpoints
 62
     0
100
AcDbPoint
 10
6314.050273294235
 20
2560.965600238352
 30
0.0
  0
POINT
  5
25F
330
256
100
AcDbEntity
  8
Defpoints
 62
     0
100
AcDbPoint
 10
6309.030413339898
 20
2480.970721171088
 30
0.0
  0
POINT
  5
260
330
256
100
AcDbEntity
  8
Defpoints
 62
     0
100
AcDbPoint
 10
6629.253545337374
 20
2480.970721171088
 30
0.0
  0
ENDBLK
  5
261
330
256
100
AcDbEntity
  8
0
100
AcDbBlockEnd
  0
BLOCK
  5
263
330
262
100
AcDbEntity
  8
0
100
AcDbBlockBegin
  2
*D52
 70
     1
 10
0.0
 20
0.0
 30
0.0
  3
*D52
  1

  0
LINE
  5
264
330
262
100
AcDbEntity
  8
cotas
100
AcDbLine
 10
6314.013215802297
 20
2400.953796443983
 30
0.0
 11
6634.253545337374
 21
2400.953796443983
 31
0.0
  0
LINE
  5
265
330
262
100
AcDbEntity
  8
cotas
100
AcDbLine
 10
6314.030413339898
 20
2480.970721171088
 30
0.0
 11
6634.253545337374
 21
2480.970721171088
 31
0.0
  0
LINE
  5
266
330
262
100
AcDbEntity
  8
cotas
100
AcDbLine
 10
6629.253545337374
 20
2410.953796443984
 30
0.0
 11
6629.253545337374
 21
2470.970721171088
 31
0.0
  0
SOLID
  5
267
330
262
100
AcDbEntity
  8
cotas
100
AcDbTrace
 10
6627.586878670706
 20
2410.953796443984
 30
0.0
 11
6630.920212004041
 21
2410.953796443984
 31
0.0
 12
6629.253545337374
 22
2400.953796443983
 32
0.0
 13
6629.253545337374
 23
2400.953796443983
 33
0.0
  0
SOLID
  5
268
330
262
100
AcDbEntity
  8
cotas
100
AcDbTrace
 10
6627.586878670706
 20
2470.970721171088
 30
0.0
 11
6630.920212004041
 21
2470.970721171088
 31
0.0
 12
6629.253545337374
 22
2480.970721171088
 32
0.0
 13
6629.253545337374
 23
2480.970721171088
 33
0.0
  0
MTEXT
  5
269
330
262
100
AcDbEntity
  8
cotas
100
AcDbMText
 10
6619.025204168804
 20
2440.962258807537
 30
0.0
 40
10.0
 41
0.0
 71
     5
 72
     1
  1
80
  7
SANINDUSA
 11
0.0000000000000001
 21
1.0
 31
0.0
 73
     1
 44
1.0
1001
ACAD
1000
MTEXTBEGIN
1070
    73
1070
     1
1070
    44
1040
1.0
1070
    74
1070
     0
1000
MTEXTEND
  0
POINT
  5
26A
330
262
100
AcDbEntity
  8
Defpoints
 62
     0
100
AcDbPoint
 10
6309.013215802298
 20
2400.953796443983
 30
0.0
  0
POINT
  5
26B
330
262
100
AcDbEntity
  8
Defpoints
 62
     0
100
AcDbPoint
 10
6309.030413339898
 20
2480.970721171088
 30
0.0
  0
POINT
  5
26C
330
262
100
AcDbEntity
  8
Defpoints
 62
     0
100
AcDbPoint
 10
6629.253545337374
 20
2480.970721171088
 30
0.0
  0
ENDBLK
  5
26D
330
262
100
AcDbEntity
  8
0
100
AcDbBlockEnd
  0
BLOCK
  5
26F
330
26E
100
AcDbEntity
  8
0
100
AcDbBlockBegin
  2
*D53
 70
     1
 10
0.0
 20
0.0
 30
0.0
  3
*D53
  1

  0
LINE
  5
270
330
26E
100
AcDbEntity
  8
cotas
100
AcDbLine
 10
6314.01530154024
 20
2240.939302382768
 30
0.0
 11
6634.253545337374
 21
2240.939302382768
 31
0.0
  0
LINE
  5
271
330
26E
100
AcDbEntity
  8
cotas
100
AcDbLine
 10
6314.103486454196
 20
2160.940003859697
 30
0.0
 11
6634.253545337374
 21
2160.940003859697
 31
0.0
  0
LINE
  5
272
330
26E
100
AcDbEntity
  8
cotas
100
AcDbLine
 10
6629.253545337374
 20
2230.939302382768
 30
0.0
 11
6629.253545337374
 21
2170.940003859697
 31
0.0
  0
SOLID
  5
273
330
26E
100
AcDbEntity
  8
cotas
100
AcDbTrace
 10
6627.586878670706
 20
2230.939302382768
 30
0.0
 11
6630.920212004041
 21
2230.939302382768
 31
0.0
 12
6629.253545337374
 22
2240.939302382768
 32
0.0
 13
6629.253545337374
 23
2240.939302382768
 33
0.0
  0
SOLID
  5
274
330
26E
100
AcDbEntity
  8
cotas
100
AcDbTrace
 10
6627.586878670706
 20
2170.940003859697
 30
0.0
 11
6630.920212004041
 21
2170.940003859697
 31
0.0
 12
6629.253545337374
 22
2160.940003859697
 32
0.0
 13
6629.253545337374
 23
2160.940003859697
 33
0.0
  0
MTEXT
  5
275
330
26E
100
AcDbEntity
  8
cotas
100
AcDbMText
 10
6619.025204168804
 20
2200.939653121233
 30
0.0
 40
10.0
 41
0.0
 71
     5
 72
     1
  1
80
  7
SANINDUSA
 11
0.0000000000000001
 21
1.0
 31
0.0
 73
     1
 44
1.0
1001
ACAD
1000
MTEXTBEGIN
1070
    73
1070
     1
1070
    44
1040
1.0
1070
    74
1070
     0
1000
MTEXTEND
  0
POINT
  5
276
330
26E
100
AcDbEntity
  8
Defpoints
 62
     0
100
AcDbPoint
 10
6309.015301540239
 20
2240.939302382768
 30
0.0
  0
POINT
  5
277
330
26E
100
AcDbEntity
  8
Defpoints
 62
     0
100
AcDbPoint
 10
6309.103486454195
 20
2160.940003859697
 30
0.0
  0
POINT
  5
278
330
26E
100
AcDbEntity
  8
Defpoints
 62
     0
100
AcDbPoint
 10
6629.253545337374
 20
2160.940003859697
 30
0.0
  0
ENDBLK
  5
279
330
26E
100
AcDbEntity
  8
0
100
AcDbBlockEnd
  0
BLOCK
  5
27B
330
27A
100
AcDbEntity
  8
0
100
AcDbBlockBegin
  2
*D54
 70
     1
 10
0.0
 20
0.0
 30
0.0
  3
*D54
  1

  0
LINE
  5
27C
330
27A
100
AcDbEntity
  8
cotas
100
AcDbLine
 10
6314.103486454196
 20
2160.940003859697
 30
0.0
 11
6634.253545337374
 21
2160.940003859697
 31
0.0
  0
LINE
  5
27D
330
27A
100
AcDbEntity
  8
cotas
100
AcDbLine
 10
6314.063581435643
 20
2080.938942419386
 30
0.0
 11
6634.253545337374
 21
2080.938942419386
 31
0.0
  0
LINE
  5
27E
330
27A
100
AcDbEntity
  8
cotas
100
AcDbLine
 10
6629.253545337374
 20
2150.940003859697
 30
0.0
 11
6629.253545337374
 21
2090.938942419386
 31
0.0
  0
SOLID
  5
27F
330
27A
100
AcDbEntity
  8
cotas
100
AcDbTrace
 10
6627.586878670706
 20
2150.940003859697
 30
0.0
 11
6630.920212004041
 21
2150.940003859697
 31
0.0
 12
6629.253545337374
 22
2160.940003859697
 32
0.0
 13
6629.253545337374
 23
2160.940003859697
 33
0.0
  0
SOLID
  5
280
330
27A
100
AcDbEntity
  8
cotas
100
AcDbTrace
 10
6627.586878670706
 20
2090.938942419386
 30
0.0
 11
6630.920212004041
 21
2090.938942419386
 31
0.0
 12
6629.253545337374
 22
2080.938942419386
 32
0.0
 13
6629.253545337374
 23
2080.938942419386
 33
0.0
  0
MTEXT
  5
281
330
27A
100
AcDbEntity
  8
cotas
100
AcDbMText
 10
6619.025204168804
 20
2120.939473139543
 30
0.0
 40
10.0
 41
0.0
 71
     5
 72
     1
  1
80
  7
SANINDUSA
 11
0.0000000000000001
 21
1.0
 31
0.0
 73
     1
 44
1.0
1001
ACAD
1000
MTEXTBEGIN
1070
    73
1070
     1
1070
    44
1040
1.0
1070
    74
1070
     0
1000
MTEXTEND
  0
POINT
  5
282
330
27A
100
AcDbEntity
  8
Defpoints
 62
     0
100
AcDbPoint
 10
6309.103486454195
 20
2160.940003859697
 30
0.0
  0
POINT
  5
283
330
27A
100
AcDbEntity
  8
Defpoints
 62
     0
100
AcDbPoint
 10
6309.063581435644
 20
2080.938942419386
 30
0.0
  0
POINT
  5
284
330
27A
100
AcDbEntity
  8
Defpoints
 62
     0
100
AcDbPoint
 10
6629.253545337374
 20
2080.938942419386
 30
0.0
  0
ENDBLK
  5
285
330
27A
100
AcDbEntity
  8
0
100
AcDbBlockEnd
  0
BLOCK
  5
287
330
286
100
AcDbEntity
  8
0
100
AcDbBlockBegin
  2
*D55
 70
     1
 10
0.0
 20
0.0
 30
0.0
  3
*D55
  1

  0
LINE
  5
288
330
286
100
AcDbEntity
  8
cotas
100
AcDbLine
 10
6314.059074047481
 20
2640.947443581407
 30
0.0
 11
6634.253545337374
 21
2640.947443581407
 31
0.0
  0
LINE
  5
289
330
286
100
AcDbEntity
  8
cotas
100
AcDbLine
 10
6598.555277650106
 20
2810.947266741062
 30
0.0
 11
6634.253545337374
 21
2810.947266741062
 31
0.0
  0
LINE
  5
28A
330
286
100
AcDbEntity
  8
cotas
100
AcDbLine
 10
6629.253545337374
 20
2650.947443581407
 30
0.0
 11
6629.253545337374
 21
2800.947266741062
 31
0.0
  0
SOLID
  5
28B
330
286
100
AcDbEntity
  8
cotas
100
AcDbTrace
 10
6627.586878670706
 20
2650.947443581407
 30
0.0
 11
6630.920212004041
 21
2650.947443581407
 31
0.0
 12
6629.253545337374
 22
2640.947443581407
 32
0.0
 13
6629.253545337374
 23
2640.947443581407
 33
0.0
  0
SOLID
  5
28C
330
286
100
AcDbEntity
  8
cotas
100
AcDbTrace
 10
6627.586878670706
 20
2800.947266741062
 30
0.0
 11
6630.920212004041
 21
2800.947266741062
 31
0.0
 12
6629.253545337374
 22
2810.947266741062
 32
0.0
 13
6629.253545337374
 23
2810.947266741062
 33
0.0
  0
MTEXT
  5
28D
330
286
100
AcDbEntity
  8
cotas
100
AcDbMText
 10
6619.048709877333
 20
2725.947355161236
 30
0.0
 40
10.0
 41
0.0
 71
     5
 72
     1
  1
170
  7
SANINDUSA
 11
0.0000000000000001
 21
1.0
 31
0.0
 73
     1
 44
1.0
1001
ACAD
1000
MTEXTBEGIN
1070
    73
1070
     1
1070
    44
1040
1.0
1070
    74
1070
     0
1000
MTEXTEND
  0
POINT
  5
28E
330
286
100
AcDbEntity
  8
Defpoints
 62
     0
100
AcDbPoint
 10
6309.059074047481
 20
2640.947443581407
 30
0.0
  0
POINT
  5
28F
330
286
100
AcDbEntity
  8
Defpoints
 62
     0
100
AcDbPoint
 10
6593.555277650107
 20
2810.947266741062
 30
0.0
  0
POINT
  5
290
330
286
100
AcDbEntity
  8
Defpoints
 62
     0
100
AcDbPoint
 10
6629.253545337374
 20
2810.947266741062
 30
0.0
  0
ENDBLK
  5
291
330
286
100
AcDbEntity
  8
0
100
AcDbBlockEnd
  0
BLOCK
  5
293
330
292
100
AcDbEntity
  8
0
100
AcDbBlockBegin
  2
*D56
 70
     1
 10
0.0
 20
0.0
 30
0.0
  3
*D56
  1

  0
LINE
  5
294
330
292
100
AcDbEntity
  8
cotas
100
AcDbLine
 10
5196.460298165408
 20
2813.038587337154
 30
0.0
 11
5196.460298165408
 21
2846.641402988588
 31
0.0
  0
LINE
  5
295
330
292
100
AcDbEntity
  8
cotas
100
AcDbLine
 10
5526.201768835311
 20
2815.943218021547
 30
0.0
 11
5526.201768835311
 21
2846.641402988588
 31
0.0
  0
LINE
  5
296
330
292
100
AcDbEntity
  8
cotas
100
AcDbLine
 10
5206.460298165408
 20
2841.641402988588
 30
0.0
 11
5516.201768835311
 21
2841.641402988588
 31
0.0
  0
SOLID
  5
297
330
292
100
AcDbEntity
  8
cotas
100
AcDbTrace
 10
5206.460298165408
 20
2843.308069655255
 30
0.0
 11
5206.460298165408
 21
2839.974736321922
 31
0.0
 12
5196.460298165408
 22
2841.641402988588
 32
0.0
 13
5196.460298165408
 23
2841.641402988588
 33
0.0
  0
SOLID
  5
298
330
292
100
AcDbEntity
  8
cotas
100
AcDbTrace
 10
5516.201768835311
 20
2843.308069655255
 30
0.0
 11
5516.201768835311
 21
2839.974736321922
 31
0.0
 12
5526.201768835311
 22
2841.641402988588
 32
0.0
 13
5526.201768835311
 23
2841.641402988588
 33
0.0
  0
MTEXT
  5
299
330
292
100
AcDbEntity
  8
cotas
100
AcDbMText
 10
5361.331033500359
 20
2852.987944291476
 30
0.0
 40
10.0
 41
0.0
 71
     5
 72
     1
  1
329,7
  7
SANINDUSA
 73
     1
 44
1.0
1001
ACAD
1000
MTEXTBEGIN
1070
    73
1070
     1
1070
    44
1040
1.0
1070
    74
1070
     0
1000
MTEXTEND
  0
POINT
  5
29A
330
292
100
AcDbEntity
  8
Defpoints
 62
     0
100
AcDbPoint
 10
5196.460298165408
 20
2808.038587337154
 30
-0.000000000000096
  0
POINT
  5
29B
330
292
100
AcDbEntity
  8
Defpoints
 62
     0
100
AcDbPoint
 10
5526.201768835311
 20
2810.943218021547
 30
0.0
  0
POINT
  5
29C
330
292
100
AcDbEntity
  8
Defpoints
 62
     0
100
AcDbPoint
 10
5526.201768835311
 20
2841.641402988588
 30
0.0
  0
ENDBLK
  5
29D
330
292
100
AcDbEntity
  8
0
100
AcDbBlockEnd
  0
BLOCK
  5
29F
330
29E
100
AcDbEntity
  8
0
100
AcDbBlockBegin
  2
*D57
 70
     1
 10
0.0
 20
0.0
 30
0.0
  3
*D57
  1

  0
LINE
  5
2A0
330
29E
100
AcDbEntity
  8
cotas
100
AcDbLine
 10
6624.066348427779
 20
1875.092455329251
 30
0.0
 11
6602.530776706007
 21
1903.928930055085
 31
0.0
  0
MTEXT
  5
2A1
330
29E
100
AcDbEntity
  8
cotas
100
AcDbMText
 10
6624.386024662783
 20
1891.550534495121
 30
0.0
 40
10.0
 41
0.0
 71
     5
 72
     1
  1
R5
  7
SANINDUSA
 11
0.5983666037267817
 21
-0.8012224457318183
 31
0.0
 73
     1
 44
1.0
1001
ACAD
1000
MTEXTBEGIN
1070
    73
1070
     1
1070
    44
1040
1.0
1070
    74
1070
     0
1000
MTEXTEND
  0
LINE
  5
2A2
330
29E
100
AcDbEntity
  8
cotas
100
AcDbLine
 10
6593.555277650107
 20
1915.947266741061
 30
0.0
 11
6596.547110668739
 21
1911.941154512404
 31
0.0
  0
SOLID
  5
2A3
330
29E
100
AcDbEntity
  8
cotas
100
AcDbTrace
 10
6603.866147448894
 20
1904.926207727963
 30
0.0
 11
6601.195405963121
 21
1902.931652382207
 31
0.0
 12
6596.547110668739
 22
1911.941154512404
 32
0.0
 13
6596.547110668739
 23
1911.941154512404
 33
0.0
  0
POINT
  5
2A4
330
29E
100
AcDbEntity
  8
Defpoints
 62
     0
100
AcDbPoint
 10
6596.547110668739
 20
1911.941154512404
 30
0.0
  0
POINT
  5
2A5
330
29E
100
AcDbEntity
  8
Defpoints
 62
     0
100
AcDbPoint
 10
6593.555277650107
 20
1915.947266741061
 30
0.0
  0
ENDBLK
  5
2A6
330
29E
100
AcDbEntity
  8
0
100
AcDbBlockEnd
  0
BLOCK
  5
2A8
330
2A7
100
AcDbEntity
  8
0
100
AcDbBlockBegin
  2
*D58
 70
     1
 10
0.0
 20
0.0
 30
0.0
  3
*D58
  1

  0
LINE
  5
2A9
330
2A7
100
AcDbEntity
  8
cotas
100
AcDbLine
 10
5167.79607580397
 20
1879.6678818968
 30
0.0
 11
5193.089365611758
 21
1905.272034190843
 31
0.0
  0
MTEXT
  5
2AA
330
2A7
100
AcDbEntity
  8
cotas
100
AcDbMText
 10
5169.740667827049
 20
1896.013802629173
 30
0.0
 40
10.0
 41
0.0
 71
     5
 72
     1
  1
R5
  7
SANINDUSA
 11
0.7027749304683079
 21
0.7114122553802859
 31
0.0
 73
     1
 44
1.0
1001
ACAD
1000
MTEXTBEGIN
1070
    73
1070
     1
1070
    44
1040
1.0
1070
    74
1070
     0
1000
MTEXTEND
  0
LINE
  5
2AB
330
2A7
100
AcDbEntity
  8
cotas
100
AcDbLine
 10
5203.630989568782
 20
1915.943218021547
 30
0.0
 11
5200.117114916441
 21
1912.386156744645
 31
0.0
  0
SOLID
  5
2AC
330
2A7
100
AcDbEntity
  8
cotas
100
AcDbTrace
 10
5191.903678519458
 20
1906.443325741623
 30
0.0
 11
5194.275052704059
 21
1904.100742640062
 31
0.0
 12
5200.117114916441
 22
1912.386156744645
 32
0.0
 13
5200.117114916441
 23
1912.386156744645
 33
0.0
  0
POINT
  5
2AD
330
2A7
100
AcDbEntity
  8
Defpoints
 62
     0
100
AcDbPoint
 10
5200.117114916441
 20
1912.386156744645
 30
0.0
  0
POINT
  5
2AE
330
2A7
100
AcDbEntity
  8
Defpoints
 62
     0
100
AcDbPoint
 10
5203.630989568782
 20
1915.943218021547
 30
0.0
  0
ENDBLK
  5
2AF
330
2A7
100
AcDbEntity
  8
0
100
AcDbBlockEnd
  0
BLOCK
  5
2B1
330
2B0
100
AcDbEntity
  8
0
100
AcDbBlockBegin
  2
*D59
 70
     1
 10
0.0
 20
0.0
 30
0.0
  3
*D59
  1

  0
LINE
  5
2B2
330
2B0
100
AcDbEntity
  8
1
100
AcDbLine
 10
6550.063132972461
 20
4089.620560984801
 30
0.0
 11
6522.571836299668
 21
4135.493244312153
 31
0.0
  0
MTEXT
  5
2B3
330
2B0
100
AcDbEntity
  8
1
100
AcDbMText
 10
6549.69979351916
 20
4109.71280746273
 30
0.0
 40
10.0
 41
0.0
 71
     5
 72
     1
  1
R17
  7
SANINDUSA
 11
0.5140514091463039
 21
-0.8577593769552736
 31
0.0
 73
     1
 44
1.0
1001
ACAD
1000
MTEXTBEGIN
1070
    73
1070
     1
1070
    44
1040
1.0
1070
    74
1070
     0
1000
MTEXTEND
  0
LINE
  5
2B4
330
2B0
100
AcDbEntity
  8
1
100
AcDbLine
 10
6508.692515274685
 20
4158.652635655368
 30
0.0
 11
6517.431322208206
 21
4144.070838081705
 31
0.0
  0
SOLID
  5
2B5
330
2B0
100
AcDbEntity
  8
1
100
AcDbTrace
 10
6524.001435261261
 20
4136.349996660729
 30
0.0
 11
6521.142237338077
 21
4134.636491963575
 31
0.0
 12
6517.431322208206
 22
4144.070838081705
 32
0.0
 13
6517.431322208206
 23
4144.070838081705
 33
0.0
  0
POINT
  5
2B6
330
2B0
100
AcDbEntity
  8
Defpoints
 62
     0
100
AcDbPoint
 10
6517.431322208206
 20
4144.070838081705
 30
0.0
  0
POINT
  5
2B7
330
2B0
100
AcDbEntity
  8
Defpoints
 62
     0
100
AcDbPoint
 10
6508.692515274685
 20
4158.652635655368
 30
0.0
  0
ENDBLK
  5
2B8
330
2B0
100
AcDbEntity
  8
0
100
AcDbBlockEnd
  0
BLOCK
  5
2BA
330
2B9
100
AcDbEntity
  8
0
100
AcDbBlockBegin
  2
*D60
 70
     1
 10
0.0
 20
0.0
 30
0.0
  3
*D60
  1

  0
LINE
  5
2BB
330
2B9
100
AcDbEntity
  8
1
100
AcDbLine
 10
6603.630978374312
 20
4242.505552111269
 30
0.0
 11
6635.346116719809
 21
4242.505552111269
 31
0.0
  0
LINE
  5
2BC
330
2B9
100
AcDbEntity
  8
1
100
AcDbLine
 10
6530.199638370681
 20
4144.245744656543
 30
0.0
 11
6635.346116719809
 21
4144.245744656543
 31
0.0
  0
LINE
  5
2BD
330
2B9
100
AcDbEntity
  8
1
100
AcDbLine
 10
6630.346116719808
 20
4232.505552111269
 30
0.0
 11
6630.346116719808
 21
4154.245744656543
 31
0.0
  0
SOLID
  5
2BE
330
2B9
100
AcDbEntity
  8
1
100
AcDbTrace
 10
6628.679450053141
 20
4232.505552111269
 30
0.0
 11
6632.012783386476
 21
4232.505552111269
 31
0.0
 12
6630.346116719808
 22
4242.505552111269
 32
0.0
 13
6630.346116719808
 23
4242.505552111269
 33
0.0
  0
SOLID
  5
2BF
330
2B9
100
AcDbEntity
  8
1
100
AcDbTrace
 10
6628.679450053141
 20
4154.245744656543
 30
0.0
 11
6632.012783386476
 21
4154.245744656543
 31
0.0
 12
6630.346116719808
 22
4144.245744656543
 32
0.0
 13
6630.346116719808
 23
4144.245744656543
 33
0.0
  0
MTEXT
  5
2C0
330
2B9
100
AcDbEntity
  8
1
100
AcDbMText
 10
6618.989501541836
 20
4193.375648383908
 30
0.0
 40
10.0
 41
0.0
 71
     5
 72
     1
  1
98,3
  7
SANINDUSA
 11
0.0000000000000001
 21
1.0
 31
0.0
 73
     1
 44
1.0
1001
ACAD
1000
MTEXTBEGIN
1070
    73
1070
     1
1070
    44
1040
1.0
1070
    74
1070
     0
1000
MTEXTEND
  0
POINT
  5
2C1
330
2B9
100
AcDbEntity
  8
Defpoints
 62
     0
100
AcDbPoint
 10
6598.630978374313
 20
4242.505552111269
 30
0.0
  0
POINT
  5
2C2
330
2B9
100
AcDbEntity
  8
Defpoints
 62
     0
100
AcDbPoint
 10
6525.199638370679
 20
4144.245744656543
 30
0.0
  0
POINT
  5
2C3
330
2B9
100
AcDbEntity
  8
Defpoints
 62
     0
100
AcDbPoint
 10
6630.346116719808
 20
4144.245744656543
 30
0.0
  0
ENDBLK
  5
2C4
330
2B9
100
AcDbEntity
  8
0
100
AcDbBlockEnd
  0
BLOCK
  5
2C6
330
2C5
100
AcDbEntity
  8
0
100
AcDbBlockBegin
  2
*D61
 70
     1
 10
0.0
 20
0.0
 30
0.0
  3
*D61
  1

  0
LINE
  5
2C7
330
2C5
100
AcDbEntity
  8
1
100
AcDbLine
 10
5196.45953664119
 20
2813.037825812936
 30
0.0
 11
5162.857482524112
 21
2813.037825812936
 31
0.0
  0
LINE
  5
2C8
330
2C5
100
AcDbEntity
  8
1
100
AcDbLine
 10
5191.460298156522
 20
2717.534979700755
 30
0.0
 11
5162.857482524112
 21
2717.534979700755
 31
0.0
  0
LINE
  5
2C9
330
2C5
100
AcDbEntity
  8
1
100
AcDbLine
 10
5167.857482524111
 20
2803.037825812936
 30
0.0
 11
5167.857482524111
 21
2727.534979700755
 31
0.0
  0
SOLID
  5
2CA
330
2C5
100
AcDbEntity
  8
1
100
AcDbTrace
 10
5166.190815857444
 20
2803.037825812936
 30
0.0
 11
5169.524149190777
 21
2803.037825812936
 31
0.0
 12
5167.857482524111
 22
2813.037825812936
 32
0.0
 13
5167.857482524111
 23
2813.037825812936
 33
0.0
  0
SOLID
  5
2CB
330
2C5
100
AcDbEntity
  8
1
100
AcDbTrace
 10
5166.190815857444
 20
2727.534979700755
 30
0.0
 11
5169.524149190777
 21
2727.534979700755
 31
0.0
 12
5167.857482524111
 22
2717.534979700755
 32
0.0
 13
5167.857482524111
 23
2717.534979700755
 33
0.0
  0
MTEXT
  5
2CC
330
2C5
100
AcDbEntity
  8
1
100
AcDbMText
 10
5156.514299179583
 20
2765.286402756846
 30
0.0
 40
10.0
 41
0.0
 71
     5
 72
     1
  1
95,5
  7
SANINDUSA
 11
0.0000000000000001
 21
1.0
 31
0.0
 73
     1
 44
1.0
1001
ACAD
1000
MTEXTBEGIN
1070
    73
1070
     1
1070
    44
1040
1.0
1070
    74
1070
     0
1000
MTEXTEND
  0
POINT
  5
2CD
330
2C5
100
AcDbEntity
  8
Defpoints
 62
     0
100
AcDbPoint
 10
5201.45953664119
 20
2813.037825812936
 30
0.0000000000003059
  0
POINT
  5
2CE
330
2C5
100
AcDbEntity
  8
Defpoints
 62
     0
100
AcDbPoint
 10
5196.460298156522
 20
2717.534979700755
 30
-0.000000000000102
  0
POINT
  5
2CF
330
2C5
100
AcDbEntity
  8
Defpoints
 62
     0
100
AcDbPoint
 10
5167.857482524111
 20
2717.534979700755
 30
0.0
  0
ENDBLK
  5
2D0
330
2C5
100
AcDbEntity
  8
0
100
AcDbBlockEnd
  0
BLOCK
  5
B35
330
B2F
100
AcDbEntity
  8
0
100
AcDbBlockBegin
  2
*D63
 70
     1
 10
0.0
 20
0.0
 30
0.0
  3
*D63
  1

  0
LINE
  5
762D
330
B2F
100
AcDbEntity
  8
cotas
100
AcDbLine
 10
180.0773937027011
 20
1719.855264399374
 30
0.0
 11
156.0607458122127
 21
1746.804661610319
 31
0.0
  0
MTEXT
  5
762E
330
B2F
100
AcDbEntity
  8
cotas
100
AcDbMText
 10
178.8612645112367
 20
1736.250328118407
 30
0.0
 40
10.0
 41
0.0
 71
     5
 72
     1
  1
R7
  7
SANINDUSA
 11
0.6653169992360147
 21
-0.7465609757599073
 31
0.0
 73
     1
 44
1.0
1001
ACAD
1000
MTEXTBEGIN
1070
    73
1070
     1
1070
    44
1040
1.0
1070
    74
1070
     0
1000
MTEXTEND
  0
SOLID
  5
762F
330
B2F
100
AcDbEntity
  8
cotas
100
AcDbTrace
 10
157.3050141051459
 20
1747.913523275713
 30
0.0
 11
154.8164775192795
 21
1745.695799944925
 31
0.0
 12
149.4075758198525
 22
1754.270271367918
 32
0.0
 13
149.4075758198525
 23
1754.270271367918
 33
0.0
  0
POINT
  5
7630
330
B2F
100
AcDbEntity
  8
Defpoints
 62
     0
100
AcDbPoint
 10
149.4075758198525
 20
1754.270271367918
 30
0.0
  0
POINT
  5
7631
330
B2F
100
AcDbEntity
  8
Defpoints
 62
     0
100
AcDbPoint
 10
154.0647948145031
 20
1749.0443445376
 30
0.0
  0
ENDBLK
  5
B36
330
B2F
100
AcDbEntity
  8
0
100
AcDbBlockEnd
  0
BLOCK
  5
B3D
330
B37
100
AcDbEntity
  8
0
100
AcDbBlockBegin
  2
*D64
 70
     1
 10
0.0
 20
0.0
 30
0.0
  3
*D64
  1

  0
LINE
  5
7628
330
B37
100
AcDbEntity
  8
cotas
100
AcDbLine
 10
1010.276158269744
 20
1724.0082854366
 30
0.0
 11
1038.002759155846
 21
1747.123323598624
 31
0.0
  0
MTEXT
  5
7629
330
B37
100
AcDbEntity
  8
cotas
100
AcDbMText
 10
1013.895598957826
 20
1740.045016202779
 30
0.0
 40
10.0
 41
0.0
 71
     5
 72
     1
  1
R7
  7
SANINDUSA
 11
0.768091325012156
 21
0.6403403129907336
 31
0.0
 73
     1
 44
1.0
1001
ACAD
1000
MTEXTBEGIN
1070
    73
1070
     1
1070
    44
1040
1.0
1070
    74
1070
     0
1000
MTEXTEND
  0
SOLID
  5
762A
330
B37
100
AcDbEntity
  8
cotas
100
AcDbTrace
 10
1036.935525300862
 20
1748.403475806978
 30
0.0
 11
1039.069993010831
 21
1745.843171390271
 31
0.0
 12
1045.683672405968
 22
1753.526726728532
 32
0.0
 13
1045.683672405968
 23
1753.526726728532
 33
0.0
  0
POINT
  5
762B
330
B37
100
AcDbEntity
  8
Defpoints
 62
     0
100
AcDbPoint
 10
1045.683672405968
 20
1753.526726728532
 30
0.0
  0
POINT
  5
762C
330
B37
100
AcDbEntity
  8
Defpoints
 62
     0
100
AcDbPoint
 10
1040.307033130891
 20
1749.044344537604
 30
0.0
  0
ENDBLK
  5
B3E
330
B37
100
AcDbEntity
  8
0
100
AcDbBlockEnd
  0
BLOCK
  5
B4A
330
B3F
100
AcDbEntity
  8
0
100
AcDbBlockBegin
  2
*D65
 70
     1
 10
0.0
 20
0.0
 30
0.0
  3
*D65
  1

  0
LINE
  5
761E
330
B3F
100
AcDbEntity
  8
cotas
100
AcDbLine
 10
1047.971358314113
 20
1711.045106909498
 30
0.0
 11
1048.498084866246
 21
1680.868043543686
 31
0.0
  0
ARC
  5
761F
330
B3F
100
AcDbEntity
  8
cotas
100
AcDbCircle
 10
1047.185917630334
 20
1756.044344537602
 30
0.0
 40
70.1877517550749
100
AcDbArc
 50
188.17013648039
 51
262.8298330588094
  0
SOLID
  5
7620
330
B3F
100
AcDbEntity
  8
cotas
100
AcDbTrace
 10
976.0481085769999
 20
1745.951021551201
 30
0.0
 11
979.3729731833062
 21
1746.188479886166
 31
0.0
 12
976.9981658752593
 22
1756.044344537602
 32
0.0
 13
976.9981658752593
 23
1756.044344537602
 33
0.0
  0
SOLID
  5
7621
330
B3F
100
AcDbEntity
  8
cotas
100
AcDbTrace
 10
1038.515017004907
 20
1688.069724384584
 30
0.0
 11
1038.335619954886
 21
1684.741222047262
 31
0.0
 12
1048.410825491861
 22
1685.86728206586
 32
0.0
 13
1048.410825491861
 23
1685.86728206586
 33
0.0
  0
MTEXT
  5
7622
330
B3F
100
AcDbEntity
  8
cotas
100
AcDbMText
 10
1005.94120332092
 20
1714.073440652188
 30
0.0
 40
10.0
 41
0.0
 71
     5
 72
     1
  1
91,0°
  7
SANINDUSA
 11
0.7132502628380123
 21
-0.7009094538965118
 31
0.0
 73
     1
 44
1.0
1001
ACAD
1000
MTEXTBEGIN
1070
    73
1070
     1
1070
    44
1040
1.0
1070
    74
1070
     0
1000
MTEXTEND
  0
POINT
  5
7623
330
B3F
100
AcDbEntity
  8
Defpoints
 62
     0
100
AcDbPoint
 10
986.6067306989485
 20
1720.597446123717
 30
0.0
  0
POINT
  5
7624
330
B3F
100
AcDbEntity
  8
Defpoints
 62
     0
100
AcDbPoint
 10
154.0647947566023
 20
1756.044344537602
 30
0.0
  0
POINT
  5
7625
330
B3F
100
AcDbEntity
  8
Defpoints
 62
     0
100
AcDbPoint
 10
1047.305966978918
 20
1749.166512416604
 30
0.0
  0
POINT
  5
7626
330
B3F
100
AcDbEntity
  8
Defpoints
 62
     0
100
AcDbPoint
 10
1047.884098939728
 20
1716.044345431672
 30
0.0
  0
POINT
  5
7627
330
B3F
100
AcDbEntity
  8
Defpoints
 62
     0
100
AcDbPoint
 10
1040.30703728659
 20
1756.044344537602
 30
0.0
  0
ENDBLK
  5
B4B
330
B3F
100
AcDbEntity
  8
0
100
AcDbBlockEnd
  0
BLOCK
  5
B57
330
B4C
100
AcDbEntity
  8
0
100
AcDbBlockBegin
  2
*D66
 70
     1
 10
0.0
 20
0.0
 30
0.0
  3
*D66
  1

  0
LINE
  5
7614
330
B4C
100
AcDbEntity
  8
cotas
100
AcDbLine
 10
146.4004493599472
 20
1711.045106955888
 30
0.0
 11
145.774765509034
 21
1675.199703092198
 31
0.0
  0
ARC
  5
7615
330
B4C
100
AcDbEntity
  8
cotas
100
AcDbCircle
 10
147.1859139725194
 20
1756.044344537602
 30
0.0
 40
75.85695635145924
100
AcDbArc
 50
276.5586144526256
 51
352.4413855488218
  0
SOLID
  5
7616
330
B4C
100
AcDbEntity
  8
cotas
100
AcDbTrace
 10
155.9310797554338
 20
1679.019125784617
 30
0.0
 11
155.7694496195341
 21
1682.348538166747
 31
0.0
 12
145.8620275410942
 22
1680.198941567983
 32
0.0
 13
145.8620275410942
 23
1680.198941567983
 33
0.0
  0
SOLID
  5
7617
330
B4C
100
AcDbEntity
  8
cotas
100
AcDbTrace
 10
220.7206927625789
 20
1746.175947040991
 30
0.0
 11
224.046777224258
 21
1745.956235264138
 31
0.0
 12
223.0428703239785
 22
1756.044344537602
 32
0.0
 13
223.0428703239785
 23
1756.044344537602
 33
0.0
  0
MTEXT
  5
7618
330
B4C
100
AcDbEntity
  8
cotas
100
AcDbMText
 10
192.4042151485973
 20
1710.029866964347
 30
0.0
 40
10.0
 41
0.0
 71
     5
 72
     1
  1
91,0°
  7
SANINDUSA
 11
0.713250449145331
 21
0.7009092643088574
 31
0.0
 73
     1
 44
1.0
1001
ACAD
1000
MTEXTBEGIN
1070
    73
1070
     1
1070
    44
1040
1.0
1070
    74
1070
     0
1000
MTEXTEND
  0
POINT
  5
7619
330
B4C
100
AcDbEntity
  8
Defpoints
 62
     0
100
AcDbPoint
 10
184.3474569470483
 20
1689.91343232055
 30
0.0
  0
POINT
  5
761A
330
B4C
100
AcDbEntity
  8
Defpoints
 62
     0
100
AcDbPoint
 10
146.4877113920074
 20
1716.044345431672
 30
0.0
  0
POINT
  5
761B
330
B4C
100
AcDbEntity
  8
Defpoints
 62
     0
100
AcDbPoint
 10
154.0647947566021
 20
1756.044344537602
 30
0.0
  0
POINT
  5
761C
330
B4C
100
AcDbEntity
  8
Defpoints
 62
     0
100
AcDbPoint
 10
1040.30703728659
 20
1756.044344537602
 30
0.0
  0
POINT
  5
761D
330
B4C
100
AcDbEntity
  8
Defpoints
 62
     0
100
AcDbPoint
 10
147.0658609503105
 20
1749.166511491648
 30
0.0
  0
ENDBLK
  5
B58
330
B4C
100
AcDbEntity
  8
0
100
AcDbBlockEnd
  0
BLOCK
  5
B63
330
B59
100
AcDbEntity
  8
0
100
AcDbBlockBegin
  2
*D67
 70
     1
 10
0.0
 20
0.0
 30
0.0
  3
*D67
  1

  0
LINE
  5
75EF
330
B59
100
AcDbEntity
  8
cotas
100
AcDbLine
 10
3497.13401185673
 20
1688.406686446476
 30
0.0
 11
3546.619777531186
 21
1688.406686446476
 31
0.0
  0
LINE
  5
75F0
330
B59
100
AcDbEntity
  8
cotas
100
AcDbLine
 10
3622.797583912807
 20
1756.044344537609
 30
0.0
 11
3536.619777531186
 21
1756.044344537609
 31
0.0
  0
LINE
  5
75F1
330
B59
100
AcDbEntity
  8
cotas
100
AcDbLine
 10
3541.619777531186
 20
1698.406686446475
 30
0.0
 11
3541.619777531186
 21
1746.044344537609
 31
0.0
  0
SOLID
  5
75F2
330
B59
100
AcDbEntity
  8
cotas
100
AcDbTrace
 10
3539.953110864519
 20
1698.406686446475
 30
0.0
 11
3543.286444197852
 21
1698.406686446475
 31
0.0
 12
3541.619777531186
 22
1688.406686446476
 32
0.0
 13
3541.619777531186
 23
1688.406686446476
 33
0.0
  0
SOLID
  5
75F3
330
B59
100
AcDbEntity
  8
cotas
100
AcDbTrace
 10
3539.953110864519
 20
1746.044344537609
 30
0.0
 11
3543.286444197852
 21
1746.044344537609
 31
0.0
 12
3541.619777531186
 22
1756.044344537609
 32
0.0
 13
3541.619777531186
 23
1756.044344537609
 33
0.0
  0
MTEXT
  5
75F4
330
B59
100
AcDbEntity
  8
cotas
100
AcDbMText
 10
3530.283310103381
 20
1722.225515492043
 30
0.0
 40
10.0
 41
0.0
 71
     5
 72
     1
  1
67,6
  7
SANINDUSA
 11
0.0000000000000001
 21
1.0
 31
0.0
 73
     1
 44
1.0
1001
ACAD
1000
MTEXTBEGIN
1070
    73
1070
     1
1070
    44
1040
1.0
1070
    74
1070
     0
1000
MTEXTEND
  0
POINT
  5
75F5
330
B59
100
AcDbEntity
  8
Defpoints
 62
     0
100
AcDbPoint
 10
3492.134011856729
 20
1688.406686446476
 30
0.0
  0
POINT
  5
75F6
330
B59
100
AcDbEntity
  8
Defpoints
 62
     0
100
AcDbPoint
 10
3627.797583912807
 20
1756.044344537609
 30
0.0
  0
POINT
  5
75F7
330
B59
100
AcDbEntity
  8
Defpoints
 62
     0
100
AcDbPoint
 10
3541.619777531186
 20
1756.044344537609
 30
0.0
  0
ENDBLK
  5
B64
330
B59
100
AcDbEntity
  8
0
100
AcDbBlockEnd
  0
BLOCK
  5
B6F
330
B65
100
AcDbEntity
  8
0
100
AcDbBlockBegin
  2
*D68
 70
     1
 10
0.0
 20
0.0
 30
0.0
  3
*D68
  1

  0
LINE
  5
75D0
330
B65
100
AcDbEntity
  8
cotas
100
AcDbLine
 10
3025.204376628654
 20
1696.469694449545
 30
0.0
 11
2892.09937294599
 21
1696.469694449545
 31
0.0
  0
LINE
  5
75D1
330
B65
100
AcDbEntity
  8
cotas
100
AcDbLine
 10
2922.797575526499
 20
1756.044344537608
 30
0.0
 11
2892.09937294599
 21
1756.044344537608
 31
0.0
  0
LINE
  5
75D2
330
B65
100
AcDbEntity
  8
cotas
100
AcDbLine
 10
2897.09937294599
 20
1706.469694449545
 30
0.0
 11
2897.09937294599
 21
1746.044344537608
 31
0.0
  0
SOLID
  5
75D3
330
B65
100
AcDbEntity
  8
cotas
100
AcDbTrace
 10
2895.432706279324
 20
1706.469694449545
 30
0.0
 11
2898.766039612656
 21
1706.469694449545
 31
0.0
 12
2897.09937294599
 22
1696.469694449545
 32
0.0
 13
2897.09937294599
 23
1696.469694449545
 33
0.0
  0
SOLID
  5
75D4
330
B65
100
AcDbEntity
  8
cotas
100
AcDbTrace
 10
2895.432706279324
 20
1746.044344537608
 30
0.0
 11
2898.766039612656
 21
1746.044344537608
 31
0.0
 12
2897.09937294599
 22
1756.044344537608
 32
0.0
 13
2897.09937294599
 23
1756.044344537608
 33
0.0
  0
MTEXT
  5
75D5
330
B65
100
AcDbEntity
  8
cotas
100
AcDbMText
 10
2885.756189601463
 20
1726.257019493577
 30
0.0
 40
10.0
 41
0.0
 71
     5
 72
     1
  1
59,6
  7
SANINDUSA
 11
0.0000000000000001
 21
1.0
 31
0.0
 73
     1
 44
1.0
1001
ACAD
1000
MTEXTBEGIN
1070
    73
1070
     1
1070
    44
1040
1.0
1070
    74
1070
     0
1000
MTEXTEND
  0
POINT
  5
75D6
330
B65
100
AcDbEntity
  8
Defpoints
 62
     0
100
AcDbPoint
 10
3030.204376628655
 20
1696.469694449545
 30
0.0
  0
POINT
  5
75D7
330
B65
100
AcDbEntity
  8
Defpoints
 62
     0
100
AcDbPoint
 10
2927.797575526499
 20
1756.044344537608
 30
0.0
  0
POINT
  5
75D8
330
B65
100
AcDbEntity
  8
Defpoints
 62
     0
100
AcDbPoint
 10
2897.09937294599
 20
1756.044344537608
 30
0.0
  0
ENDBLK
  5
B70
330
B65
100
AcDbEntity
  8
0
100
AcDbBlockEnd
  0
BLOCK
  5
B7B
330
B71
100
AcDbEntity
  8
0
100
AcDbBlockBegin
  2
*D69
 70
     1
 10
0.0
 20
0.0
 30
0.0
  3
*D69
  1

  0
ARC
  5
75C7
330
B71
100
AcDbEntity
  8
cotas
100
AcDbCircle
 10
2994.031389581084
 20
1752.144344537608
 30
0.0
 40
47.01428158020627
100
AcDbArc
 50
192.2099791823497
 51
259.790020817641
  0
SOLID
  5
75C8
330
B71
100
AcDbEntity
  8
cotas
100
AcDbTrace
 10
2946.423400150067
 20
1742.023806569414
 30
0.0
 11
2949.73782910466
 21
1742.378308778242
 31
0.0
 12
2947.017108000878
 22
1752.144344537608
 32
0.0
 13
2947.017108000878
 23
1752.144344537608
 33
0.0
  0
SOLID
  5
75C9
330
B71
100
AcDbEntity
  8
cotas
100
AcDbTrace
 10
2985.817125994615
 20
1707.536936768675
 30
0.0
 11
2985.578511641325
 21
1704.21215492598
 31
0.0
 12
2995.672164346055
 22
1705.158702787457
 32
0.0
 13
2995.672164346055
 23
1705.158702787457
 33
0.0
  0
MTEXT
  5
75CA
330
B71
100
AcDbEntity
  8
cotas
100
AcDbMText
 10
2969.254495242085
 20
1726.487119367993
 30
0.0
 40
10.0
 41
0.0
 71
     5
 72
     1
  1
92,0°
  7
SANINDUSA
 11
0.719339800338595
 21
-0.6946583704590556
 31
0.0
 73
     1
 44
1.0
1001
ACAD
1000
MTEXTBEGIN
1070
    73
1070
     1
1070
    44
1040
1.0
1070
    74
1070
     0
1000
MTEXTEND
  0
POINT
  5
75CB
330
B71
100
AcDbEntity
  8
Defpoints
 62
     0
100
AcDbPoint
 10
2953.592095340956
 20
1728.165058604469
 30
0.0
  0
POINT
  5
75CC
330
B71
100
AcDbEntity
  8
Defpoints
 62
     0
100
AcDbPoint
 10
2934.676456368487
 20
1752.144344537608
 30
0.0
  0
POINT
  5
75CD
330
B71
100
AcDbEntity
  8
Defpoints
 62
     0
100
AcDbPoint
 10
2995.74830899056
 20
1702.978205461274
 30
0.0
  0
POINT
  5
75CE
330
B71
100
AcDbEntity
  8
Defpoints
 62
     0
100
AcDbPoint
 10
2994.135865942941
 20
1749.152532977388
 30
0.0
  0
POINT
  5
75CF
330
B71
100
AcDbEntity
  8
Defpoints
 62
     0
100
AcDbPoint
 10
2991.037754379186
 20
1752.144344537608
 30
0.0
  0
ENDBLK
  5
B7C
330
B71
100
AcDbEntity
  8
0
100
AcDbBlockEnd
  0
BLOCK
  5
B84
330
B7D
100
AcDbEntity
  8
0
100
AcDbBlockBegin
  2
*D70
 70
     1
 10
0.0
 20
0.0
 30
0.0
  3
*D70
  1

  0
LINE
  5
75C1
330
B7D
100
AcDbEntity
  8
cotas
100
AcDbLine
 10
2963.684380270217
 20
1655.153830815428
 30
0.0
 11
2996.735256884207
 21
1685.45994075397
 31
0.0
  0
MTEXT
  5
75C2
330
B7D
100
AcDbEntity
  8
cotas
100
AcDbMText
 10
2969.754832713433
 20
1674.310552644146
 30
0.0
 40
10.0
 41
0.0
 71
     5
 72
     1
  1
R17
  7
SANINDUSA
 11
0.7370489033732386
 21
0.6758394143850346
 31
0.0
 73
     1
 44
1.0
1001
ACAD
1000
MTEXTBEGIN
1070
    73
1070
     1
1070
    44
1040
1.0
1070
    74
1070
     0
1000
MTEXTEND
  0
LINE
  5
75C3
330
B7D
100
AcDbEntity
  8
cotas
100
AcDbLine
 10
3016.635577275275
 20
1703.707604942358
 30
0.0
 11
3004.105745917939
 21
1692.218334897821
 31
0.0
  0
SOLID
  5
75C4
330
B7D
100
AcDbEntity
  8
cotas
100
AcDbTrace
 10
2995.608857860231
 20
1686.688355592926
 30
0.0
 11
2997.861655908181
 21
1684.231525915015
 31
0.0
 12
3004.105745917939
 22
1692.218334897821
 32
0.0
 13
3004.105745917939
 23
1692.218334897821
 33
0.0
  0
POINT
  5
75C5
330
B7D
100
AcDbEntity
  8
Defpoints
 62
     0
100
AcDbPoint
 10
3004.105745917939
 20
1692.218334897821
 30
0.0
  0
POINT
  5
75C6
330
B7D
100
AcDbEntity
  8
Defpoints
 62
     0
100
AcDbPoint
 10
3016.635577275275
 20
1703.707604942358
 30
0.0
  0
ENDBLK
  5
B85
330
B7D
100
AcDbEntity
  8
0
100
AcDbBlockEnd
  0
BLOCK
  5
B8D
330
B86
100
AcDbEntity
  8
0
100
AcDbBlockBegin
  2
*D71
 70
     1
 10
0.0
 20
0.0
 30
0.0
  3
*D71
  1

  0
LINE
  5
75BB
330
B86
100
AcDbEntity
  8
cotas
100
AcDbLine
 10
3040.03096697751
 20
1634.70022271268
 30
0.0
 11
3026.843290881384
 21
1677.517201723798
 31
0.0
  0
MTEXT
  5
75BC
330
B86
100
AcDbEntity
  8
cotas
100
AcDbMText
 10
3044.661626675056
 20
1654.334080671887
 30
0.0
 40
10.0
 41
0.0
 71
     5
 72
     1
  1
R10
  7
SANINDUSA
 11
0.2943554145875062
 21
-0.9556960237978483
 31
0.0
 73
     1
 44
1.0
1001
ACAD
1000
MTEXTBEGIN
1070
    73
1070
     1
1070
    44
1040
1.0
1070
    74
1070
     0
1000
MTEXTEND
  0
LINE
  5
75BD
330
B86
100
AcDbEntity
  8
cotas
100
AcDbLine
 10
3020.956182589634
 20
1696.631122199754
 30
0.0
 11
3023.899736735509
 21
1687.074161961777
 31
0.0
  0
SOLID
  5
75BE
330
B86
100
AcDbEntity
  8
cotas
100
AcDbTrace
 10
3028.436117587713
 20
1678.007794081444
 30
0.0
 11
3025.250464175054
 21
1677.026609366152
 31
0.0
 12
3023.899736735509
 22
1687.074161961777
 32
0.0
 13
3023.899736735509
 23
1687.074161961777
 33
0.0
  0
POINT
  5
75BF
330
B86
100
AcDbEntity
  8
Defpoints
 62
     0
100
AcDbPoint
 10
3023.899736735509
 20
1687.074161961777
 30
0.0
  0
POINT
  5
75C0
330
B86
100
AcDbEntity
  8
Defpoints
 62
     0
100
AcDbPoint
 10
3020.956182589634
 20
1696.631122199754
 30
0.0
  0
ENDBLK
  5
B8E
330
B86
100
AcDbEntity
  8
0
100
AcDbBlockEnd
  0
BLOCK
  5
B95
330
B8F
100
AcDbEntity
  8
0
100
AcDbBlockBegin
  2
*D72
 70
     1
 10
0.0
 20
0.0
 30
0.0
  3
*D72
  1

  0
LINE
  5
75B6
330
B8F
100
AcDbEntity
  8
cotas
100
AcDbLine
 10
3067.77687283782
 20
1655.98765235568
 30
0.0
 11
3038.381150767918
 21
1687.178598508788
 31
0.0
  0
MTEXT
  5
75B7
330
B8F
100
AcDbEntity
  8
cotas
100
AcDbMText
 10
3066.104544146791
 20
1672.342480429084
 30
0.0
 40
10.0
 41
0.0
 71
     5
 72
     1
  1
R7
  7
SANINDUSA
 11
0.6858537116671163
 21
-0.7277394356446819
 31
0.0
 73
     1
 44
1.0
1001
ACAD
1000
MTEXTBEGIN
1070
    73
1070
     1
1070
    44
1040
1.0
1070
    74
1070
     0
1000
MTEXTEND
  0
SOLID
  5
75B8
330
B8F
100
AcDbEntity
  8
cotas
100
AcDbTrace
 10
3039.594049827325
 20
1688.321688028233
 30
0.0
 11
3037.16825170851
 21
1686.035508989343
 31
0.0
 12
3031.522613651246
 22
1694.455992865236
 32
0.0
 13
3031.522613651246
 23
1694.455992865236
 33
0.0
  0
POINT
  5
75B9
330
B8F
100
AcDbEntity
  8
Defpoints
 62
     0
100
AcDbPoint
 10
3031.522613651246
 20
1694.455992865236
 30
0.0
  0
POINT
  5
75BA
330
B8F
100
AcDbEntity
  8
Defpoints
 62
     0
100
AcDbPoint
 10
3036.323589632915
 20
1689.361816815723
 30
0.0
  0
ENDBLK
  5
B96
330
B8F
100
AcDbEntity
  8
0
100
AcDbBlockEnd
  0
BLOCK
  5
B9E
330
B97
100
AcDbEntity
  8
0
100
AcDbBlockBegin
  2
*D73
 70
     1
 10
0.0
 20
0.0
 30
0.0
  3
*D73
  1

  0
LINE
  5
75B0
330
B97
100
AcDbEntity
  8
cotas
100
AcDbLine
 10
3476.104722203841
 20
1619.569252987225
 30
0.0
 11
3497.133420084895
 21
1659.174992596372
 31
0.0
  0
MTEXT
  5
75B1
330
B97
100
AcDbEntity
  8
cotas
100
AcDbMText
 10
3475.427244545672
 20
1639.653361334644
 30
0.0
 40
10.0
 41
0.0
 71
     5
 72
     1
  1
R17
  7
SANINDUSA
 11
0.4689490960744273
 21
0.8832251951178575
 31
0.0
 73
     1
 44
1.0
1001
ACAD
1000
MTEXTBEGIN
1070
    73
1070
     1
1070
    44
1040
1.0
1070
    74
1070
     0
1000
MTEXTEND
  0
LINE
  5
75B2
330
B97
100
AcDbEntity
  8
cotas
100
AcDbLine
 10
3509.796953312727
 20
1683.025665728405
 30
0.0
 11
3501.822911045639
 21
1668.00724454755
 31
0.0
  0
SOLID
  5
75B3
330
B97
100
AcDbEntity
  8
cotas
100
AcDbTrace
 10
3495.661378093031
 20
1659.956574423162
 30
0.0
 11
3498.605462076758
 21
1658.393410769581
 31
0.0
 12
3501.822911045639
 22
1668.00724454755
 32
0.0
 13
3501.822911045639
 23
1668.00724454755
 33
0.0
  0
POINT
  5
75B4
330
B97
100
AcDbEntity
  8
Defpoints
 62
     0
100
AcDbPoint
 10
3501.822911045639
 20
1668.00724454755
 30
0.0
  0
POINT
  5
75B5
330
B97
100
AcDbEntity
  8
Defpoints
 62
     0
100
AcDbPoint
 10
3509.796953312727
 20
1683.025665728405
 30
0.0
  0
ENDBLK
  5
B9F
330
B97
100
AcDbEntity
  8
0
100
AcDbBlockEnd
  0
BLOCK
  5
BA6
330
BA0
100
AcDbEntity
  8
0
100
AcDbBlockBegin
  2
*D74
 70
     1
 10
0.0
 20
0.0
 30
0.0
  3
*D74
  1

  0
LINE
  5
75AB
330
BA0
100
AcDbEntity
  8
cotas
100
AcDbLine
 10
3453.103018696538
 20
1649.198389832562
 30
0.0
 11
3483.705458982603
 21
1679.407908079219
 31
0.0
  0
MTEXT
  5
75AC
330
BA0
100
AcDbEntity
  8
cotas
100
AcDbMText
 10
3455.36426504472
 20
1665.482242248815
 30
0.0
 40
10.0
 41
0.0
 71
     5
 72
     1
  1
R7
  7
SANINDUSA
 11
0.7116607288360511
 21
0.7025233142270375
 31
0.0
 73
     1
 44
1.0
1001
ACAD
1000
MTEXTBEGIN
1070
    73
1070
     1
1070
    44
1040
1.0
1070
    74
1070
     0
1000
MTEXTEND
  0
SOLID
  5
75AD
330
BA0
100
AcDbEntity
  8
cotas
100
AcDbTrace
 10
3482.534586792225
 20
1680.594009293946
 30
0.0
 11
3484.876331172981
 21
1678.221806864493
 31
0.0
 12
3490.822066270963
 22
1686.433141221489
 32
0.0
 13
3490.822066270963
 23
1686.433141221489
 33
0.0
  0
POINT
  5
75AE
330
BA0
100
AcDbEntity
  8
Defpoints
 62
     0
100
AcDbPoint
 10
3490.822066270963
 20
1686.433141221489
 30
0.0
  0
POINT
  5
75AF
330
BA0
100
AcDbEntity
  8
Defpoints
 62
     0
100
AcDbPoint
 10
3485.840448930285
 20
1681.515485683424
 30
0.0
  0
ENDBLK
  5
BA7
330
BA0
100
AcDbEntity
  8
0
100
AcDbBlockEnd
  0
BLOCK
  5
BB2
330
BA8
100
AcDbEntity
  8
0
100
AcDbBlockBegin
  2
*D75
 70
     1
 10
0.0
 20
0.0
 30
0.0
  3
*D75
  1

  0
ARC
  5
75A2
330
BA8
100
AcDbEntity
  8
cotas
100
AcDbCircle
 10
-382.8226222526992
 20
1756.044344537609
 30
0.0
 40
3592.358038711562
100
AcDbArc
 50
359.1594928535916
 51
359.8405064378472
  0
SOLID
  5
75A3
330
BA8
100
AcDbEntity
  8
cotas
100
AcDbTrace
 10
3210.815341554442
 20
1703.320949783188
 30
0.0
 11
3207.482438162747
 21
1703.374485684634
 31
0.0
 12
3208.988282154255
 22
1693.349007558828
 32
0.0
 13
3208.988282154255
 23
1693.349007558828
 33
0.0
  0
SOLID
  5
75A4
330
BA8
100
AcDbEntity
  8
cotas
100
AcDbTrace
 10
3207.854832972071
 20
1746.046673962836
 30
0.0
 11
3211.188163076689
 21
1746.042034484675
 31
0.0
 12
3209.535416458863
 22
1756.04434453761
 32
0.0
 13
3209.535416458863
 23
1756.04434453761
 33
0.0
  0
MTEXT
  5
75A5
330
BA8
100
AcDbEntity
  8
cotas
100
AcDbMText
 10
3198.055878848257
 20
1724.794469140172
 30
0.0
 40
10.0
 41
0.0
 71
     5
 72
     1
  1
1,0°
  7
SANINDUSA
 11
0.0087265416815007
 21
0.9999619230102121
 31
0.0
 73
     1
 44
1.0
1001
ACAD
1000
MTEXTBEGIN
1070
    73
1070
     1
1070
    44
1040
1.0
1070
    74
1070
     0
1000
MTEXTEND
  0
POINT
  5
75A6
330
BA8
100
AcDbEntity
  8
Defpoints
 62
     0
100
AcDbPoint
 10
3209.292242227418
 20
1714.246274288279
 30
0.0
  0
POINT
  5
75A7
330
BA8
100
AcDbEntity
  8
Defpoints
 62
     0
100
AcDbPoint
 10
3018.02130658622
 20
1756.044344537609
 30
0.0
  0
POINT
  5
75A8
330
BA8
100
AcDbEntity
  8
Defpoints
 62
     0
100
AcDbPoint
 10
3285.993076517927
 20
1692.00488292084
 30
0.0
  0
POINT
  5
75A9
330
BA8
100
AcDbEntity
  8
Defpoints
 62
     0
100
AcDbPoint
 10
3036.445756564531
 20
1696.360750680313
 30
0.0
  0
POINT
  5
75AA
330
BA8
100
AcDbEntity
  8
Defpoints
 62
     0
100
AcDbPoint
 10
4037.573853359544
 20
1756.044344537609
 30
0.0
  0
ENDBLK
  5
BB3
330
BA8
100
AcDbEntity
  8
0
100
AcDbBlockEnd
  0
BLOCK
  5
BBE
330
BB4
100
AcDbEntity
  8
0
100
AcDbBlockBegin
  2
*D76
 70
     1
 10
0.0
 20
0.0
 30
0.0
  3
*D76
  1

  0
LINE
  5
7587
330
BB4
100
AcDbEntity
  8
cotas
100
AcDbLine
 10
4147.797586255484
 20
1684.939023684997
 30
0.0
 11
4147.797586255484
 21
1821.039344493368
 31
0.0
  0
LINE
  5
7588
330
BB4
100
AcDbEntity
  8
cotas
100
AcDbLine
 10
2927.797575526499
 20
1761.044344537608
 30
0.0
 11
2927.797575526499
 21
1821.039344493368
 31
0.0
  0
LINE
  5
7589
330
BB4
100
AcDbEntity
  8
cotas
100
AcDbLine
 10
4137.797586255484
 20
1816.039344493368
 30
0.0
 11
2937.797575526499
 21
1816.039344493368
 31
0.0
  0
SOLID
  5
758A
330
BB4
100
AcDbEntity
  8
cotas
100
AcDbTrace
 10
4137.797586255484
 20
1817.706011160034
 30
0.0
 11
4137.797586255484
 21
1814.372677826701
 31
0.0
 12
4147.797586255484
 22
1816.039344493368
 32
0.0
 13
4147.797586255484
 23
1816.039344493368
 33
0.0
  0
SOLID
  5
758B
330
BB4
100
AcDbEntity
  8
cotas
100
AcDbTrace
 10
2937.797575526499
 20
1817.706011160034
 30
0.0
 11
2937.797575526499
 21
1814.372677826701
 31
0.0
 12
2927.797575526499
 22
1816.039344493368
 32
0.0
 13
2927.797575526499
 23
1816.039344493368
 33
0.0
  0
MTEXT
  5
758C
330
BB4
100
AcDbEntity
  8
cotas
100
AcDbMText
 10
3537.797580890992
 20
1826.247537911769
 30
0.0
 40
10.0
 41
0.0
 71
     5
 72
     1
  1
1220
  7
SANINDUSA
 73
     1
 44
1.0
1001
ACAD
1000
MTEXTBEGIN
1070
    73
1070
     1
1070
    44
1040
1.0
1070
    74
1070
     0
1000
MTEXTEND
  0
POINT
  5
758D
330
BB4
100
AcDbEntity
  8
Defpoints
 62
     0
100
AcDbPoint
 10
4147.797586255484
 20
1679.939023684997
 30
0.0
  0
POINT
  5
758E
330
BB4
100
AcDbEntity
  8
Defpoints
 62
     0
100
AcDbPoint
 10
2927.797575526499
 20
1756.044344537608
 30
0.0
  0
POINT
  5
758F
330
BB4
100
AcDbEntity
  8
Defpoints
 62
     0
100
AcDbPoint
 10
2927.797575526499
 20
1816.039344493368
 30
0.0
  0
ENDBLK
  5
BBF
330
BB4
100
AcDbEntity
  8
0
100
AcDbBlockEnd
  0
BLOCK
  5
BCA
330
BC0
100
AcDbEntity
  8
0
100
AcDbBlockBegin
  2
*D77
 70
     1
 10
0.0
 20
0.0
 30
0.0
  3
*D77
  1

  0
ARC
  5
757E
330
BC0
100
AcDbEntity
  8
cotas
100
AcDbCircle
 10
4257.797586509902
 20
1756.044344537609
 30
0.0
 40
60.17204840949414
100
AcDbArc
 50
189.5329846044825
 51
258.4669963830442
  0
SOLID
  5
757F
330
BC0
100
AcDbEntity
  8
cotas
100
AcDbTrace
 10
4196.795585996099
 20
1745.940436517326
 30
0.0
 11
4200.117391413722
 21
1746.21742005216
 31
0.0
 12
4197.625538100409
 22
1756.044344537609
 32
0.0
 13
4197.625538100409
 23
1756.044344537609
 33
0.0
  0
SOLID
  5
7580
330
BC0
100
AcDbEntity
  8
cotas
100
AcDbTrace
 10
4245.963619528207
 20
1698.742245303354
 30
0.0
 11
4245.570874288643
 21
1695.432130156126
 31
0.0
 12
4255.697592350109
 22
1695.908952011049
 32
0.0
 13
4255.697592350109
 23
1695.908952011049
 33
0.0
  0
MTEXT
  5
7581
330
BC0
100
AcDbEntity
  8
cotas
100
AcDbMText
 10
4222.682696889505
 20
1722.13430106184
 30
0.0
 40
10.0
 41
0.0
 71
     5
 72
     1
  1
88,0°
  7
SANINDUSA
 11
0.6946582511096323
 21
-0.7193399155929741
 31
0.0
 73
     1
 44
1.0
1001
ACAD
1000
MTEXTBEGIN
1070
    73
1070
     1
1070
    44
1040
1.0
1070
    74
1070
     0
1000
MTEXTEND
  0
POINT
  5
7582
330
BC0
100
AcDbEntity
  8
Defpoints
 62
     0
100
AcDbPoint
 10
4205.340529305771
 20
1726.566682498752
 30
0.0
  0
POINT
  5
7583
330
BC0
100
AcDbEntity
  8
Defpoints
 62
     0
100
AcDbPoint
 10
3218.021306586236
 20
1756.044344537609
 30
0.0
  0
POINT
  5
7584
330
BC0
100
AcDbEntity
  8
Defpoints
 62
     0
100
AcDbPoint
 10
4254.989595942944
 20
1675.634780459755
 30
0.0
  0
POINT
  5
7585
330
BC0
100
AcDbEntity
  8
Defpoints
 62
     0
100
AcDbPoint
 10
4257.561669981003
 20
1749.288643335923
 30
0.0
  0
POINT
  5
7586
330
BC0
100
AcDbEntity
  8
Defpoints
 62
     0
100
AcDbPoint
 10
4237.573853359559
 20
1756.044344537609
 30
0.0
  0
ENDBLK
  5
BCB
330
BC0
100
AcDbEntity
  8
0
100
AcDbBlockEnd
  0
BLOCK
  5
BD6
330
BCC
100
AcDbEntity
  8
0
100
AcDbBlockBegin
  2
*D78
 70
     1
 10
0.0
 20
0.0
 30
0.0
  3
*D78
  1

  0
LINE
  5
756C
330
BCC
100
AcDbEntity
  8
cotas
100
AcDbLine
 10
1324.660009941817
 20
1756.044344537602
 30
0.0
 11
1293.961807361306
 21
1756.044344537602
 31
0.0
  0
LINE
  5
756D
330
BCC
100
AcDbEntity
  8
cotas
100
AcDbLine
 10
1322.56540214174
 20
1636.044347219818
 30
0.0
 11
1293.961807361306
 21
1636.044347219818
 31
0.0
  0
LINE
  5
756E
330
BCC
100
AcDbEntity
  8
cotas
100
AcDbLine
 10
1298.961807361306
 20
1746.044344537602
 30
0.0
 11
1298.961807361306
 21
1646.044347219818
 31
0.0
  0
SOLID
  5
756F
330
BCC
100
AcDbEntity
  8
cotas
100
AcDbTrace
 10
1297.29514069464
 20
1746.044344537602
 30
0.0
 11
1300.628474027973
 21
1746.044344537602
 31
0.0
 12
1298.961807361306
 22
1756.044344537602
 32
0.0
 13
1298.961807361306
 23
1756.044344537602
 33
0.0
  0
SOLID
  5
7570
330
BCC
100
AcDbEntity
  8
cotas
100
AcDbTrace
 10
1297.29514069464
 20
1646.044347219818
 30
0.0
 11
1300.628474027973
 21
1646.044347219818
 31
0.0
 12
1298.961807361306
 22
1636.044347219818
 32
0.0
 13
1298.961807361306
 23
1636.044347219818
 33
0.0
  0
MTEXT
  5
7571
330
BCC
100
AcDbEntity
  8
cotas
100
AcDbMText
 10
1288.753613942904
 20
1696.04434587871
 30
0.0
 40
10.0
 41
0.0
 71
     5
 72
     1
  1
120
  7
SANINDUSA
 11
0.0000000000000001
 21
1.0
 31
0.0
 73
     1
 44
1.0
1001
ACAD
1000
MTEXTBEGIN
1070
    73
1070
     1
1070
    44
1040
1.0
1070
    74
1070
     0
1000
MTEXTEND
  0
POINT
  5
7572
330
BCC
100
AcDbEntity
  8
Defpoints
 62
     0
100
AcDbPoint
 10
1329.660009941817
 20
1756.044344537602
 30
0.0
  0
POINT
  5
7573
330
BCC
100
AcDbEntity
  8
Defpoints
 62
     0
100
AcDbPoint
 10
1327.56540214174
 20
1636.044347219818
 30
0.0
  0
POINT
  5
7574
330
BCC
100
AcDbEntity
  8
Defpoints
 62
     0
100
AcDbPoint
 10
1298.961807361306
 20
1636.044347219818
 30
0.0
  0
ENDBLK
  5
BD7
330
BCC
100
AcDbEntity
  8
0
100
AcDbBlockEnd
  0
BLOCK
  5
BDE
330
BD8
100
AcDbEntity
  8
0
100
AcDbBlockBegin
  2
*D79
 70
     1
 10
0.0
 20
0.0
 30
0.0
  3
*D79
  1

  0
LINE
  5
7567
330
BD8
100
AcDbEntity
  8
cotas
100
AcDbLine
 10
1366.873096511978
 20
1724.37668021617
 30
0.0
 11
1338.866439386236
 21
1747.151590590749
 31
0.0
  0
MTEXT
  5
7568
330
BD8
100
AcDbEntity
  8
cotas
100
AcDbMText
 10
1363.058195442663
 20
1740.368040833479
 30
0.0
 40
10.0
 41
0.0
 71
     5
 72
     1
  1
R7
  7
SANINDUSA
 11
0.7758495341437884
 21
-0.6309179822836456
 31
0.0
 73
     1
 44
1.0
1001
ACAD
1000
MTEXTBEGIN
1070
    73
1070
     1
1070
    44
1040
1.0
1070
    74
1070
     0
1000
MTEXTEND
  0
SOLID
  5
7569
330
BD8
100
AcDbEntity
  8
cotas
100
AcDbTrace
 10
1339.917969356709
 20
1748.444673147655
 30
0.0
 11
1337.814909415764
 21
1745.858508033842
 31
0.0
 12
1331.107944044799
 22
1753.460770413585
 32
0.0
 13
1331.107944044799
 23
1753.460770413585
 33
0.0
  0
POINT
  5
756A
330
BD8
100
AcDbEntity
  8
Defpoints
 62
     0
100
AcDbPoint
 10
1331.107944044799
 20
1753.460770413585
 30
0.0
  0
POINT
  5
756B
330
BD8
100
AcDbEntity
  8
Defpoints
 62
     0
100
AcDbPoint
 10
1336.538890783803
 20
1749.044344537601
 30
0.0
  0
ENDBLK
  5
BDF
330
BD8
100
AcDbEntity
  8
0
100
AcDbBlockEnd
  0
BLOCK
  5
BE6
330
BE0
100
AcDbEntity
  8
0
100
AcDbBlockBegin
  2
*D80
 70
     1
 10
0.0
 20
0.0
 30
0.0
  3
*D80
  1

  0
LINE
  5
7562
330
BE0
100
AcDbEntity
  8
cotas
100
AcDbLine
 10
2693.299670252419
 20
1723.363637423094
 30
0.0
 11
2720.519052094451
 21
1747.07385965037
 31
0.0
  0
MTEXT
  5
7563
330
BE0
100
AcDbEntity
  8
cotas
100
AcDbMText
 10
2696.570877326402
 20
1739.475008837117
 30
0.0
 40
10.0
 41
0.0
 71
     5
 72
     1
  1
R7
  7
SANINDUSA
 11
0.7540401779122059
 21
0.6568282957471677
 31
0.0
 73
     1
 44
1.0
1001
ACAD
1000
MTEXTBEGIN
1070
    73
1070
     1
1070
    44
1040
1.0
1070
    74
1070
     0
1000
MTEXTEND
  0
SOLID
  5
7564
330
BE0
100
AcDbEntity
  8
cotas
100
AcDbTrace
 10
2719.424338268206
 20
1748.330593280224
 30
0.0
 11
2721.613765920697
 21
1745.817126020517
 31
0.0
 12
2728.059453873573
 22
1753.642142607842
 32
0.0
 13
2728.059453873573
 23
1753.642142607842
 33
0.0
  0
POINT
  5
7565
330
BE0
100
AcDbEntity
  8
Defpoints
 62
     0
100
AcDbPoint
 10
2728.059453873573
 20
1753.642142607842
 30
0.0
  0
POINT
  5
7566
330
BE0
100
AcDbEntity
  8
Defpoints
 62
     0
100
AcDbPoint
 10
2722.781172628185
 20
1749.044344537609
 30
0.0
  0
ENDBLK
  5
BE7
330
BE0
100
AcDbEntity
  8
0
100
AcDbBlockEnd
  0
BLOCK
  5
BF3
330
BE8
100
AcDbEntity
  8
0
100
AcDbBlockBegin
  2
*D81
 70
     1
 10
0.0
 20
0.0
 30
0.0
  3
*D81
  1

  0
LINE
  5
7558
330
BE8
100
AcDbEntity
  8
cotas
100
AcDbLine
 10
2730.445580129296
 20
1711.045107097892
 30
0.0
 11
2730.994603229829
 21
1679.594527426429
 31
0.0
  0
ARC
  5
7559
330
BE8
100
AcDbEntity
  8
cotas
100
AcDbCircle
 10
2729.66004227534
 20
1756.044344537609
 30
0.0
 40
71.46146473403582
100
AcDbArc
 50
188.0242731520483
 51
262.9758200766586
  0
SOLID
  5
755A
330
BE8
100
AcDbEntity
  8
cotas
100
AcDbTrace
 10
2657.235673248889
 20
1745.952239053548
 30
0.0
 11
2660.560837421689
 21
1746.185464984876
 31
0.0
 12
2658.198577541305
 22
1756.044344537609
 32
0.0
 13
2658.198577541305
 23
1756.044344537609
 33
0.0
  0
SOLID
  5
755B
330
BE8
100
AcDbEntity
  8
cotas
100
AcDbTrace
 10
2721.008724382796
 20
1686.78358857751
 30
0.0
 11
2720.833571505854
 21
1683.454860204571
 31
0.0
 12
2730.907333063143
 22
1684.593765760216
 32
0.0
 13
2730.907333063143
 23
1684.593765760216
 33
0.0
  0
MTEXT
  5
755C
330
BE8
100
AcDbEntity
  8
cotas
100
AcDbMText
 10
2687.522616781218
 20
1713.164919052239
 30
0.0
 40
10.0
 41
0.0
 71
     5
 72
     1
  1
91,0°
  7
SANINDUSA
 11
0.7132510193954568
 21
-0.7009086840176413
 31
0.0
 73
     1
 44
1.0
1001
ACAD
1000
MTEXTBEGIN
1070
    73
1070
     1
1070
    44
1040
1.0
1070
    74
1070
     0
1000
MTEXTEND
  0
POINT
  5
755D
330
BE8
100
AcDbEntity
  8
Defpoints
 62
     0
100
AcDbPoint
 10
2667.981537130756
 20
1719.954138870929
 30
0.0
  0
POINT
  5
755E
330
BE8
100
AcDbEntity
  8
Defpoints
 62
     0
100
AcDbPoint
 10
1536.53893425391
 20
1756.044344537609
 30
0.0
  0
POINT
  5
755F
330
BE8
100
AcDbEntity
  8
Defpoints
 62
     0
100
AcDbPoint
 10
2729.780106468973
 20
1749.166512832789
 30
0.0
  0
POINT
  5
7560
330
BE8
100
AcDbEntity
  8
Defpoints
 62
     0
100
AcDbPoint
 10
2730.35830996261
 20
1716.04434543168
 30
0.0
  0
POINT
  5
7561
330
BE8
100
AcDbEntity
  8
Defpoints
 62
     0
100
AcDbPoint
 10
2722.781129100183
 20
1756.044344537609
 30
0.0
  0
ENDBLK
  5
BF4
330
BE8
100
AcDbEntity
  8
0
100
AcDbBlockEnd
  0
BLOCK
  5
C00
330
BF5
100
AcDbEntity
  8
0
100
AcDbBlockBegin
  2
*D82
 70
     1
 10
0.0
 20
0.0
 30
0.0
  3
*D82
  1

  0
LINE
  5
754E
330
BF5
100
AcDbEntity
  8
cotas
100
AcDbLine
 10
1328.874545329246
 20
1711.045106955888
 30
0.0
 11
1328.071804197942
 21
1665.05609827736
 31
0.0
  0
ARC
  5
754F
330
BF5
100
AcDbEntity
  8
cotas
100
AcDbCircle
 10
1329.660009941817
 20
1756.044344537602
 30
0.0
 40
86.00210632177336
100
AcDbArc
 50
275.6658955430548
 51
353.3341044583944
  0
SOLID
  5
7550
330
BF5
100
AcDbEntity
  8
cotas
100
AcDbTrace
 10
1338.218621701902
 20
1668.797115196531
 30
0.0
 11
1338.082933802864
 21
1672.127685703992
 31
0.0
 12
1328.159066230002
 22
1670.055336753144
 32
0.0
 13
1328.159066230002
 23
1670.055336753144
 33
0.0
  0
SOLID
  5
7551
330
BF5
100
AcDbEntity
  8
cotas
100
AcDbTrace
 10
1413.416887571464
 20
1746.158155893952
 30
0.0
 11
1416.744582736547
 21
1745.964362190757
 31
0.0
 12
1415.66211626359
 22
1756.044344537602
 32
0.0
 13
1415.66211626359
 23
1756.044344537602
 33
0.0
  0
MTEXT
  5
7552
330
BF5
100
AcDbEntity
  8
cotas
100
AcDbMText
 10
1381.989140719892
 20
1702.793834191375
 30
0.0
 40
10.0
 41
0.0
 71
     5
 72
     1
  1
91,0°
  7
SANINDUSA
 11
0.7132504491453208
 21
0.7009092643088679
 31
0.0
 73
     1
 44
1.0
1001
ACAD
1000
MTEXTBEGIN
1070
    73
1070
     1
1070
    44
1040
1.0
1070
    74
1070
     0
1000
MTEXTEND
  0
POINT
  5
7553
330
BF5
100
AcDbEntity
  8
Defpoints
 62
     0
100
AcDbPoint
 10
1371.791557576937
 20
1681.069048701898
 30
0.0
  0
POINT
  5
7554
330
BF5
100
AcDbEntity
  8
Defpoints
 62
     0
100
AcDbPoint
 10
1328.961807361306
 20
1716.044345431672
 30
0.0
  0
POINT
  5
7555
330
BF5
100
AcDbEntity
  8
Defpoints
 62
     0
100
AcDbPoint
 10
1336.538890725901
 20
1756.044344537602
 30
0.0
  0
POINT
  5
7556
330
BF5
100
AcDbEntity
  8
Defpoints
 62
     0
100
AcDbPoint
 10
2522.781085572173
 20
1756.044344537602
 30
0.0
  0
POINT
  5
7557
330
BF5
100
AcDbEntity
  8
Defpoints
 62
     0
100
AcDbPoint
 10
1329.539956919608
 20
1749.166511491643
 30
0.0
  0
ENDBLK
  5
C01
330
BF5
100
AcDbEntity
  8
0
100
AcDbBlockEnd
  0
BLOCK
  5
C0C
330
C02
100
AcDbEntity
  8
0
100
AcDbBlockBegin
  2
*D83
 70
     1
 10
0.0
 20
0.0
 30
0.0
  3
*D83
  1

  0
LINE
  5
7545
330
C02
100
AcDbEntity
  8
cotas
100
AcDbLine
 10
2734.660042275342
 20
1756.04434453761
 30
0.0
 11
2765.358309962609
 21
1756.04434453761
 31
0.0
  0
LINE
  5
7546
330
C02
100
AcDbEntity
  8
cotas
100
AcDbLine
 10
2606.355778204333
 20
1628.288769619294
 30
0.0
 11
2765.358309962609
 21
1628.288769619294
 31
0.0
  0
LINE
  5
7547
330
C02
100
AcDbEntity
  8
cotas
100
AcDbLine
 10
2760.358309962609
 20
1746.044344537609
 30
0.0
 11
2760.358309962609
 21
1638.288769619293
 31
0.0
  0
SOLID
  5
7548
330
C02
100
AcDbEntity
  8
cotas
100
AcDbTrace
 10
2758.691643295943
 20
1746.044344537609
 30
0.0
 11
2762.024976629276
 21
1746.044344537609
 31
0.0
 12
2760.358309962609
 22
1756.04434453761
 32
0.0
 13
2760.358309962609
 23
1756.04434453761
 33
0.0
  0
SOLID
  5
7549
330
C02
100
AcDbEntity
  8
cotas
100
AcDbTrace
 10
2758.691643295943
 20
1638.288769619293
 30
0.0
 11
2762.024976629276
 21
1638.288769619293
 31
0.0
 12
2760.358309962609
 22
1628.288769619294
 32
0.0
 13
2760.358309962609
 23
1628.288769619294
 33
0.0
  0
MTEXT
  5
754A
330
C02
100
AcDbEntity
  8
cotas
100
AcDbMText
 10
2749.001694784637
 20
1692.166557078452
 30
0.0
 40
10.0
 41
0.0
 71
     5
 72
     1
  1
127,8
  7
SANINDUSA
 11
0.0000000000000001
 21
1.0
 31
0.0
 73
     1
 44
1.0
1001
ACAD
1000
MTEXTBEGIN
1070
    73
1070
     1
1070
    44
1040
1.0
1070
    74
1070
     0
1000
MTEXTEND
  0
POINT
  5
754B
330
C02
100
AcDbEntity
  8
Defpoints
 62
     0
100
AcDbPoint
 10
2729.660042275342
 20
1756.04434453761
 30
0.0
  0
POINT
  5
754C
330
C02
100
AcDbEntity
  8
Defpoints
 62
     0
100
AcDbPoint
 10
2601.355778204333
 20
1628.288769619294
 30
0.0
  0
POINT
  5
754D
330
C02
100
AcDbEntity
  8
Defpoints
 62
     0
100
AcDbPoint
 10
2760.358309962609
 20
1628.288769619294
 30
0.0
  0
ENDBLK
  5
C0D
330
C02
100
AcDbEntity
  8
0
100
AcDbBlockEnd
  0
BLOCK
  5
C18
330
C0E
100
AcDbEntity
  8
0
100
AcDbBlockBegin
  2
*D84
 70
     1
 10
0.0
 20
0.0
 30
0.0
  3
*D84
  1

  0
LINE
  5
753C
330
C0E
100
AcDbEntity
  8
cotas
100
AcDbLine
 10
-184.7663487932773
 20
2141.631359367519
 30
0.0
 11
-184.7663487932773
 21
2177.325495615046
 31
0.0
  0
LINE
  5
753D
330
C0E
100
AcDbEntity
  8
cotas
100
AcDbLine
 10
-364.7706453684709
 20
2147.325495428781
 30
0.0
 11
-364.7706453684709
 21
2177.325495615046
 31
0.0
  0
LINE
  5
753E
330
C0E
100
AcDbEntity
  8
cotas
100
AcDbLine
 10
-194.7663487932773
 20
2172.325495615046
 30
0.0
 11
-354.7706453684709
 21
2172.325495615046
 31
0.0
  0
SOLID
  5
753F
330
C0E
100
AcDbEntity
  8
cotas
100
AcDbTrace
 10
-194.7663487932773
 20
2173.992162281713
 30
0.0
 11
-194.7663487932773
 21
2170.65882894838
 31
0.0
 12
-184.7663487932773
 22
2172.325495615046
 32
0.0
 13
-184.7663487932773
 23
2172.325495615046
 33
0.0
  0
SOLID
  5
7540
330
C0E
100
AcDbEntity
  8
cotas
100
AcDbTrace
 10
-354.7706453684709
 20
2173.992162281713
 30
0.0
 11
-354.7706453684709
 21
2170.65882894838
 31
0.0
 12
-364.7706453684709
 22
2172.325495615046
 32
0.0
 13
-364.7706453684709
 23
2172.325495615046
 33
0.0
  0
MTEXT
  5
7541
330
C0E
100
AcDbEntity
  8
cotas
100
AcDbMText
 10
-274.7684970808741
 20
2182.553836783616
 30
0.0
 40
10.0
 41
0.0
 71
     5
 72
     1
  1
180
  7
SANINDUSA
 73
     1
 44
1.0
1001
ACAD
1000
MTEXTBEGIN
1070
    73
1070
     1
1070
    44
1040
1.0
1070
    74
1070
     0
1000
MTEXTEND
  0
POINT
  5
7542
330
C0E
100
AcDbEntity
  8
Defpoints
 62
     0
100
AcDbPoint
 10
-184.7663487932773
 20
2136.631359367519
 30
0.0
  0
POINT
  5
7543
330
C0E
100
AcDbEntity
  8
Defpoints
 62
     0
100
AcDbPoint
 10
-364.7706453684709
 20
2142.325495428781
 30
0.0
  0
POINT
  5
7544
330
C0E
100
AcDbEntity
  8
Defpoints
 62
     0
100
AcDbPoint
 10
-364.7706453684709
 20
2172.325495615046
 30
0.0
  0
ENDBLK
  5
C19
330
C0E
100
AcDbEntity
  8
0
100
AcDbBlockEnd
  0
BLOCK
  5
C24
330
C1A
100
AcDbEntity
  8
0
100
AcDbBlockBegin
  2
*D85
 70
     1
 10
0.0
 20
0.0
 30
0.0
  3
*D85
  1

  0
LINE
  5
7518
330
C1A
100
AcDbEntity
  8
cotas
100
AcDbLine
 10
-673.0695586364104
 20
2012.062961060675
 30
0.0
 11
-673.0695586364104
 21
2177.329544334561
 31
0.0
  0
LINE
  5
7519
330
C1A
100
AcDbEntity
  8
cotas
100
AcDbLine
 10
-753.0568563788188
 20
2012.062961060675
 30
0.0
 11
-753.0568563788188
 21
2177.329544334561
 31
0.0
  0
LINE
  5
751A
330
C1A
100
AcDbEntity
  8
cotas
100
AcDbLine
 10
-683.0695586364104
 20
2172.329544334561
 30
0.0
 11
-743.0568563788187
 21
2172.329544334561
 31
0.0
  0
SOLID
  5
751B
330
C1A
100
AcDbEntity
  8
cotas
100
AcDbTrace
 10
-683.0695586364104
 20
2173.996211001227
 30
0.0
 11
-683.0695586364104
 21
2170.662877667894
 31
0.0
 12
-673.0695586364104
 22
2172.329544334561
 32
0.0
 13
-673.0695586364104
 23
2172.329544334561
 33
0.0
  0
SOLID
  5
751C
330
C1A
100
AcDbEntity
  8
cotas
100
AcDbTrace
 10
-743.0568563788187
 20
2173.996211001227
 30
0.0
 11
-743.0568563788187
 21
2170.662877667894
 31
0.0
 12
-753.0568563788188
 22
2172.329544334561
 32
0.0
 13
-753.0568563788188
 23
2172.329544334561
 33
0.0
  0
MTEXT
  5
751D
330
C1A
100
AcDbEntity
  8
cotas
100
AcDbMText
 10
-713.0632075076146
 20
2182.55788550313
 30
0.0
 40
10.0
 41
0.0
 71
     5
 72
     1
  1
80
  7
SANINDUSA
 73
     1
 44
1.0
1001
ACAD
1000
MTEXTBEGIN
1070
    73
1070
     1
1070
    44
1040
1.0
1070
    74
1070
     0
1000
MTEXTEND
  0
POINT
  5
751E
330
C1A
100
AcDbEntity
  8
Defpoints
 62
     0
100
AcDbPoint
 10
-673.0695586364104
 20
2007.062961060675
 30
0.0
  0
POINT
  5
751F
330
C1A
100
AcDbEntity
  8
Defpoints
 62
     0
100
AcDbPoint
 10
-753.0568563788188
 20
2007.062961060675
 30
0.0
  0
POINT
  5
7520
330
C1A
100
AcDbEntity
  8
Defpoints
 62
     0
100
AcDbPoint
 10
-753.0568563788188
 20
2172.329544334561
 30
0.0
  0
ENDBLK
  5
C25
330
C1A
100
AcDbEntity
  8
0
100
AcDbBlockEnd
  0
BLOCK
  5
C30
330
C26
100
AcDbEntity
  8
0
100
AcDbBlockBegin
  2
*D86
 70
     1
 10
0.0
 20
0.0
 30
0.0
  3
*D86
  1

  0
LINE
  5
750F
330
C26
100
AcDbEntity
  8
cotas
100
AcDbLine
 10
-753.0568563788188
 20
2012.062961060675
 30
0.0
 11
-753.0568563788188
 21
2177.329544334561
 31
0.0
  0
LINE
  5
7510
330
C26
100
AcDbEntity
  8
cotas
100
AcDbLine
 10
-833.0556846590839
 20
2147.32954433456
 30
0.0
 11
-833.0556846590839
 21
2177.329544334561
 31
0.0
  0
LINE
  5
7511
330
C26
100
AcDbEntity
  8
cotas
100
AcDbLine
 10
-763.0568563788187
 20
2172.329544334561
 30
0.0
 11
-823.055684659084
 21
2172.329544334561
 31
0.0
  0
SOLID
  5
7512
330
C26
100
AcDbEntity
  8
cotas
100
AcDbTrace
 10
-763.0568563788187
 20
2173.996211001227
 30
0.0
 11
-763.0568563788187
 21
2170.662877667894
 31
0.0
 12
-753.0568563788188
 22
2172.329544334561
 32
0.0
 13
-753.0568563788188
 23
2172.329544334561
 33
0.0
  0
SOLID
  5
7513
330
C26
100
AcDbEntity
  8
cotas
100
AcDbTrace
 10
-823.055684659084
 20
2173.996211001227
 30
0.0
 11
-823.055684659084
 21
2170.662877667894
 31
0.0
 12
-833.0556846590839
 22
2172.329544334561
 32
0.0
 13
-833.0556846590839
 23
2172.329544334561
 33
0.0
  0
MTEXT
  5
7514
330
C26
100
AcDbEntity
  8
cotas
100
AcDbMText
 10
-793.0562705189514
 20
2182.55788550313
 30
0.0
 40
10.0
 41
0.0
 71
     5
 72
     1
  1
80
  7
SANINDUSA
 73
     1
 44
1.0
1001
ACAD
1000
MTEXTBEGIN
1070
    73
1070
     1
1070
    44
1040
1.0
1070
    74
1070
     0
1000
MTEXTEND
  0
POINT
  5
7515
330
C26
100
AcDbEntity
  8
Defpoints
 62
     0
100
AcDbPoint
 10
-753.0568563788188
 20
2007.062961060675
 30
0.0
  0
POINT
  5
7516
330
C26
100
AcDbEntity
  8
Defpoints
 62
     0
100
AcDbPoint
 10
-833.0556846590839
 20
2142.32954433456
 30
-0.0000000000000197
  0
POINT
  5
7517
330
C26
100
AcDbEntity
  8
Defpoints
 62
     0
100
AcDbPoint
 10
-833.0556846590839
 20
2172.329544334561
 30
0.0
  0
ENDBLK
  5
C31
330
C26
100
AcDbEntity
  8
0
100
AcDbBlockEnd
  0
BLOCK
  5
C3C
330
C32
100
AcDbEntity
  8
0
100
AcDbBlockBegin
  2
*D87
 70
     1
 10
0.0
 20
0.0
 30
0.0
  3
*D87
  1

  0
LINE
  5
74E2
330
C32
100
AcDbEntity
  8
cotas
100
AcDbLine
 10
-469.3084106410856
 20
1731.63788907044
 30
0.0
 11
-149.0680811060097
 21
1731.63788907044
 31
0.0
  0
LINE
  5
74E3
330
C32
100
AcDbEntity
  8
cotas
100
AcDbLine
 10
-179.0680811060097
 20
1691.631359367519
 30
0.0
 11
-149.0680811060097
 21
1691.631359367519
 31
0.0
  0
LINE
  5
74E4
330
C32
100
AcDbEntity
  8
cotas
100
AcDbLine
 10
-154.0680811060097
 20
1721.63788907044
 30
0.0
 11
-154.0680811060097
 21
1701.631359367519
 31
0.0
  0
SOLID
  5
74E5
330
C32
100
AcDbEntity
  8
cotas
100
AcDbTrace
 10
-155.7347477726763
 20
1721.63788907044
 30
0.0
 11
-152.401414439343
 21
1721.63788907044
 31
0.0
 12
-154.0680811060096
 22
1731.63788907044
 32
0.0
 13
-154.0680811060096
 23
1731.63788907044
 33
0.0
  0
SOLID
  5
74E6
330
C32
100
AcDbEntity
  8
cotas
100
AcDbTrace
 10
-155.7347477726763
 20
1701.631359367519
 30
0.0
 11
-152.401414439343
 21
1701.631359367519
 31
0.0
 12
-154.0680811060097
 22
1691.631359367519
 32
0.0
 13
-154.0680811060097
 23
1691.631359367519
 33
0.0
  0
MTEXT
  5
74E7
330
C32
100
AcDbEntity
  8
cotas
100
AcDbMText
 10
-164.2729165660502
 20
1711.63462421898
 30
0.0
 40
10.0
 41
0.0
 71
     5
 72
     1
  1
40
  7
SANINDUSA
 11
0.0000000000000001
 21
1.0
 31
0.0
 73
     1
 44
1.0
1001
ACAD
1000
MTEXTBEGIN
1070
    73
1070
     1
1070
    44
1040
1.0
1070
    74
1070
     0
1000
MTEXTEND
  0
POINT
  5
74E8
330
C32
100
AcDbEntity
  8
Defpoints
 62
     0
100
AcDbPoint
 10
-474.3084106410856
 20
1731.63788907044
 30
0.0
  0
POINT
  5
74E9
330
C32
100
AcDbEntity
  8
Defpoints
 62
     0
100
AcDbPoint
 10
-184.0680811060097
 20
1691.631359367519
 30
0.0
  0
POINT
  5
74EA
330
C32
100
AcDbEntity
  8
Defpoints
 62
     0
100
AcDbPoint
 10
-154.0680811060097
 20
1691.631359367519
 30
0.0
  0
ENDBLK
  5
C3D
330
C32
100
AcDbEntity
  8
0
100
AcDbBlockEnd
  0
BLOCK
  5
C48
330
C3E
100
AcDbEntity
  8
0
100
AcDbBlockBegin
  2
*D88
 70
     1
 10
0.0
 20
0.0
 30
0.0
  3
*D88
  1

  0
LINE
  5
74D9
330
C3E
100
AcDbEntity
  8
cotas
100
AcDbLine
 10
-179.6462845743312
 20
1691.631359367517
 30
0.0
 11
-149.0680811060097
 21
1691.631359367517
 31
0.0
  0
LINE
  5
74DA
330
C3E
100
AcDbEntity
  8
cotas
100
AcDbLine
 10
-469.3063249031434
 20
1651.608925666086
 30
0.0
 11
-149.0680811060096
 21
1651.608925666086
 31
0.0
  0
LINE
  5
74DB
330
C3E
100
AcDbEntity
  8
cotas
100
AcDbLine
 10
-154.0680811060097
 20
1681.631359367517
 30
0.0
 11
-154.0680811060097
 21
1661.608925666086
 31
0.0
  0
SOLID
  5
74DC
330
C3E
100
AcDbEntity
  8
cotas
100
AcDbTrace
 10
-155.7347477726763
 20
1681.631359367517
 30
0.0
 11
-152.401414439343
 21
1681.631359367517
 31
0.0
 12
-154.0680811060097
 22
1691.631359367517
 32
0.0
 13
-154.0680811060097
 23
1691.631359367517
 33
0.0
  0
SOLID
  5
74DD
330
C3E
100
AcDbEntity
  8
cotas
100
AcDbTrace
 10
-155.7347477726763
 20
1661.608925666086
 30
0.0
 11
-152.401414439343
 21
1661.608925666086
 31
0.0
 12
-154.0680811060097
 22
1651.608925666086
 32
0.0
 13
-154.0680811060097
 23
1651.608925666086
 33
0.0
  0
MTEXT
  5
74DE
330
C3E
100
AcDbEntity
  8
cotas
100
AcDbMText
 10
-164.2729165660502
 20
1671.620142516801
 30
0.0
 40
10.0
 41
0.0
 71
     5
 72
     1
  1
40
  7
SANINDUSA
 11
0.0000000000000001
 21
1.0
 31
0.0
 73
     1
 44
1.0
1001
ACAD
1000
MTEXTBEGIN
1070
    73
1070
     1
1070
    44
1040
1.0
1070
    74
1070
     0
1000
MTEXTEND
  0
POINT
  5
74DF
330
C3E
100
AcDbEntity
  8
Defpoints
 62
     0
100
AcDbPoint
 10
-184.6462845743312
 20
1691.631359367517
 30
0.0
  0
POINT
  5
74E0
330
C3E
100
AcDbEntity
  8
Defpoints
 62
     0
100
AcDbPoint
 10
-474.3063249031433
 20
1651.608925666086
 30
0.0
  0
POINT
  5
74E1
330
C3E
100
AcDbEntity
  8
Defpoints
 62
     0
100
AcDbPoint
 10
-154.0680811060097
 20
1651.608925666086
 30
0.0
  0
ENDBLK
  5
C49
330
C3E
100
AcDbEntity
  8
0
100
AcDbBlockEnd
  0
BLOCK
  5
C54
330
C4A
100
AcDbEntity
  8
0
100
AcDbBlockBegin
  2
*D89
 70
     1
 10
0.0
 20
0.0
 30
0.0
  3
*D89
  1

  0
LINE
  5
74D0
330
C4A
100
AcDbEntity
  8
cotas
100
AcDbLine
 10
-469.3063249031434
 20
1651.608925666086
 30
0.0
 11
-149.0680811060096
 21
1651.608925666086
 31
0.0
  0
LINE
  5
74D1
330
C4A
100
AcDbEntity
  8
cotas
100
AcDbLine
 10
-469.3063249031443
 20
1571.623395009225
 30
0.0
 11
-149.0680811060097
 21
1571.623395009225
 31
0.0
  0
LINE
  5
74D2
330
C4A
100
AcDbEntity
  8
cotas
100
AcDbLine
 10
-154.0680811060096
 20
1641.608925666085
 30
0.0
 11
-154.0680811060097
 21
1581.623395009225
 31
0.0
  0
SOLID
  5
74D3
330
C4A
100
AcDbEntity
  8
cotas
100
AcDbTrace
 10
-155.7347477726763
 20
1641.608925666085
 30
0.0
 11
-152.401414439343
 21
1641.608925666085
 31
0.0
 12
-154.0680811060096
 22
1651.608925666086
 32
0.0
 13
-154.0680811060096
 23
1651.608925666086
 33
0.0
  0
SOLID
  5
74D4
330
C4A
100
AcDbEntity
  8
cotas
100
AcDbTrace
 10
-155.7347477726763
 20
1581.623395009225
 30
0.0
 11
-152.401414439343
 21
1581.623395009225
 31
0.0
 12
-154.0680811060097
 22
1571.623395009225
 32
0.0
 13
-154.0680811060097
 23
1571.623395009225
 33
0.0
  0
MTEXT
  5
74D5
330
C4A
100
AcDbEntity
  8
cotas
100
AcDbMText
 10
-164.2964222745794
 20
1611.616160337655
 30
0.0
 40
10.0
 41
0.0
 71
     5
 72
     1
  1
80
  7
SANINDUSA
 11
0.0000000000000001
 21
1.0
 31
0.0
 73
     1
 44
1.0
1001
ACAD
1000
MTEXTBEGIN
1070
    73
1070
     1
1070
    44
1040
1.0
1070
    74
1070
     0
1000
MTEXTEND
  0
POINT
  5
74D6
330
C4A
100
AcDbEntity
  8
Defpoints
 62
     0
100
AcDbPoint
 10
-474.3063249031433
 20
1651.608925666086
 30
0.0
  0
POINT
  5
74D7
330
C4A
100
AcDbEntity
  8
Defpoints
 62
     0
100
AcDbPoint
 10
-474.3063249031442
 20
1571.623395009225
 30
0.0
  0
POINT
  5
74D8
330
C4A
100
AcDbEntity
  8
Defpoints
 62
     0
100
AcDbPoint
 10
-154.0680811060097
 20
1571.623395009225
 30
0.0
  0
ENDBLK
  5
C55
330
C4A
100
AcDbEntity
  8
0
100
AcDbBlockEnd
  0
BLOCK
  5
C60
330
C56
100
AcDbEntity
  8
0
100
AcDbBlockBegin
  2
*D90
 70
     1
 10
0.0
 20
0.0
 30
0.0
  3
*D90
  1

  0
LINE
  5
74B5
330
C56
100
AcDbEntity
  8
cotas
100
AcDbLine
 10
-469.2580450077398
 20
1411.623035045843
 30
0.0
 11
-149.0680811060096
 21
1411.623035045843
 31
0.0
  0
LINE
  5
74B6
330
C56
100
AcDbEntity
  8
cotas
100
AcDbLine
 10
-184.7663487932773
 20
1241.631359367519
 30
0.0
 11
-149.0680811060097
 21
1241.631359367519
 31
0.0
  0
LINE
  5
74B7
330
C56
100
AcDbEntity
  8
cotas
100
AcDbLine
 10
-154.0680811060096
 20
1401.623035045843
 30
0.0
 11
-154.0680811060097
 21
1251.631359367519
 31
0.0
  0
SOLID
  5
74B8
330
C56
100
AcDbEntity
  8
cotas
100
AcDbTrace
 10
-155.7347477726763
 20
1401.623035045843
 30
0.0
 11
-152.401414439343
 21
1401.623035045843
 31
0.0
 12
-154.0680811060096
 22
1411.623035045843
 32
0.0
 13
-154.0680811060096
 23
1411.623035045843
 33
0.0
  0
SOLID
  5
74B9
330
C56
100
AcDbEntity
  8
cotas
100
AcDbTrace
 10
-155.7347477726763
 20
1251.631359367519
 30
0.0
 11
-152.401414439343
 21
1251.631359367519
 31
0.0
 12
-154.0680811060097
 22
1241.631359367519
 32
0.0
 13
-154.0680811060097
 23
1241.631359367519
 33
0.0
  0
MTEXT
  5
74BA
330
C56
100
AcDbEntity
  8
cotas
100
AcDbMText
 10
-164.2729165660502
 20
1326.627197206681
 30
0.0
 40
10.0
 41
0.0
 71
     5
 72
     1
  1
170
  7
SANINDUSA
 11
0.0000000000000001
 21
1.0
 31
0.0
 73
     1
 44
1.0
1001
ACAD
1000
MTEXTBEGIN
1070
    73
1070
     1
1070
    44
1040
1.0
1070
    74
1070
     0
1000
MTEXTEND
  0
POINT
  5
74BB
330
C56
100
AcDbEntity
  8
Defpoints
 62
     0
100
AcDbPoint
 10
-474.2580450077398
 20
1411.623035045843
 30
0.0
  0
POINT
  5
74BC
330
C56
100
AcDbEntity
  8
Defpoints
 62
     0
100
AcDbPoint
 10
-189.7663487932773
 20
1241.631359367519
 30
0.0
  0
POINT
  5
74BD
330
C56
100
AcDbEntity
  8
Defpoints
 62
     0
100
AcDbPoint
 10
-154.0680811060097
 20
1241.631359367519
 30
0.0
  0
ENDBLK
  5
C61
330
C56
100
AcDbEntity
  8
0
100
AcDbBlockEnd
  0
BLOCK
  5
C6C
330
C62
100
AcDbEntity
  8
0
100
AcDbBlockBegin
  2
*D91
 70
     1
 10
0.0
 20
0.0
 30
0.0
  3
*D91
  1

  0
LINE
  5
74A3
330
C62
100
AcDbEntity
  8
cotas
100
AcDbLine
 10
-1586.861328277976
 20
2143.722679963611
 30
0.0
 11
-1586.861328277976
 21
2177.325495615045
 31
0.0
  0
LINE
  5
74A4
330
C62
100
AcDbEntity
  8
cotas
100
AcDbLine
 10
-1257.119857608073
 20
2146.627310648005
 30
0.0
 11
-1257.119857608073
 21
2177.325495615045
 31
0.0
  0
LINE
  5
74A5
330
C62
100
AcDbEntity
  8
cotas
100
AcDbLine
 10
-1576.861328277975
 20
2172.325495615046
 30
0.0
 11
-1267.119857608073
 21
2172.325495615046
 31
0.0
  0
SOLID
  5
74A6
330
C62
100
AcDbEntity
  8
cotas
100
AcDbTrace
 10
-1576.861328277975
 20
2173.992162281712
 30
0.0
 11
-1576.861328277975
 21
2170.658828948379
 31
0.0
 12
-1586.861328277976
 22
2172.325495615046
 32
0.0
 13
-1586.861328277976
 23
2172.325495615046
 33
0.0
  0
SOLID
  5
74A7
330
C62
100
AcDbEntity
  8
cotas
100
AcDbTrace
 10
-1267.119857608073
 20
2173.992162281712
 30
0.0
 11
-1267.119857608073
 21
2170.658828948379
 31
0.0
 12
-1257.119857608073
 22
2172.325495615046
 32
0.0
 13
-1257.119857608073
 23
2172.325495615046
 33
0.0
  0
MTEXT
  5
74A8
330
C62
100
AcDbEntity
  8
cotas
100
AcDbMText
 10
-1421.990592943024
 20
2183.672036917934
 30
0.0
 40
10.0
 41
0.0
 71
     5
 72
     1
  1
329,7
  7
SANINDUSA
 73
     1
 44
1.0
1001
ACAD
1000
MTEXTBEGIN
1070
    73
1070
     1
1070
    44
1040
1.0
1070
    74
1070
     0
1000
MTEXTEND
  0
POINT
  5
74A9
330
C62
100
AcDbEntity
  8
Defpoints
 62
     0
100
AcDbPoint
 10
-1586.861328277976
 20
2138.722679963611
 30
-0.000000000000096
  0
POINT
  5
74AA
330
C62
100
AcDbEntity
  8
Defpoints
 62
     0
100
AcDbPoint
 10
-1257.119857608073
 20
2141.627310648004
 30
0.0
  0
POINT
  5
74AB
330
C62
100
AcDbEntity
  8
Defpoints
 62
     0
100
AcDbPoint
 10
-1257.119857608073
 20
2172.325495615046
 30
0.0
  0
ENDBLK
  5
C6D
330
C62
100
AcDbEntity
  8
0
100
AcDbBlockEnd
  0
BLOCK
  5
C75
330
C6E
100
AcDbEntity
  8
0
100
AcDbBlockBegin
  2
*D92
 70
     1
 10
0.0
 20
0.0
 30
0.0
  3
*D92
  1

  0
LINE
  5
749D
330
C6E
100
AcDbEntity
  8
cotas
100
AcDbLine
 10
-1546.10928191761
 20
1277.760280958714
 30
0.0
 11
-1515.171272963226
 21
1310.164726554855
 31
0.0
  0
MTEXT
  5
749E
330
C6E
100
AcDbEntity
  8
cotas
100
AcDbMText
 10
-1541.476449674367
 20
1297.395371972096
 30
0.0
 40
10.0
 41
0.0
 71
     5
 72
     1
  1
R20
  7
SANINDUSA
 11
0.6905515714747179
 21
0.7232831583368977
 31
0.0
 73
     1
 44
1.0
1001
ACAD
1000
MTEXTBEGIN
1070
    73
1070
     1
1070
    44
1040
1.0
1070
    74
1070
     0
1000
MTEXTEND
  0
LINE
  5
749F
330
C6E
100
AcDbEntity
  8
cotas
100
AcDbLine
 10
-1494.454725818985
 20
1331.863221304962
 30
0.0
 11
-1508.265757248479
 21
1317.397558138225
 31
0.0
  0
SOLID
  5
74A0
330
C6E
100
AcDbEntity
  8
cotas
100
AcDbTrace
 10
-1516.376744893787
 20
1311.315645840647
 30
0.0
 11
-1513.965801032664
 21
1309.013807269064
 31
0.0
 12
-1508.265757248479
 22
1317.397558138225
 32
0.0
 13
-1508.265757248479
 23
1317.397558138225
 33
0.0
  0
POINT
  5
74A1
330
C6E
100
AcDbEntity
  8
Defpoints
 62
     0
100
AcDbPoint
 10
-1508.265757248479
 20
1317.397558138225
 30
0.0
  0
POINT
  5
74A2
330
C6E
100
AcDbEntity
  8
Defpoints
 62
     0
100
AcDbPoint
 10
-1494.454725818985
 20
1331.863221304962
 30
0.0
  0
ENDBLK
  5
C76
330
C6E
100
AcDbEntity
  8
0
100
AcDbBlockEnd
  0
BLOCK
  5
C7D
330
C77
100
AcDbEntity
  8
0
100
AcDbBlockBegin
  2
*D93
 70
     1
 10
0.0
 20
0.0
 30
0.0
  3
*D93
  1

  0
LINE
  5
7498
330
C77
100
AcDbEntity
  8
cotas
100
AcDbLine
 10
-1440.033320814456
 20
1389.325550747424
 30
0.0
 11
-1472.536036207822
 21
1358.490797878088
 31
0.0
  0
MTEXT
  5
7499
330
C77
100
AcDbEntity
  8
cotas
100
AcDbMText
 10
-1459.680741376464
 20
1384.752777753236
 30
0.0
 40
10.0
 41
0.0
 71
     5
 72
     1
  1
R10
  7
SANINDUSA
 11
0.7254765885282199
 21
0.6882468448873965
 31
0.0
 73
     1
 44
1.0
1001
ACAD
1000
MTEXTBEGIN
1070
    73
1070
     1
1070
    44
1040
1.0
1070
    74
1070
     0
1000
MTEXTEND
  0
SOLID
  5
749A
330
C77
100
AcDbEntity
  8
cotas
100
AcDbTrace
 10
-1473.683114282634
 20
1359.699925525635
 30
0.0
 11
-1471.388958133009
 21
1357.281670230541
 31
0.0
 12
-1479.790802093104
 22
1351.608329429214
 32
0.0
 13
-1479.790802093104
 23
1351.608329429214
 33
0.0
  0
POINT
  5
749B
330
C77
100
AcDbEntity
  8
Defpoints
 62
     0
100
AcDbPoint
 10
-1479.790802093104
 20
1351.608329429214
 30
0.0
  0
POINT
  5
749C
330
C77
100
AcDbEntity
  8
Defpoints
 62
     0
100
AcDbPoint
 10
-1472.536036207827
 20
1358.490797878083
 30
0.0
  0
ENDBLK
  5
C7E
330
C77
100
AcDbEntity
  8
0
100
AcDbBlockEnd
  0
BLOCK
  5
C85
330
C7F
100
AcDbEntity
  8
0
100
AcDbBlockBegin
  2
*D94
 70
     1
 10
0.0
 20
0.0
 30
0.0
  3
*D94
  1

  0
LINE
  5
7493
330
C7F
100
AcDbEntity
  8
cotas
100
AcDbLine
 10
-1064.662883537998
 20
1387.322373076124
 30
0.0
 11
-1029.747307848842
 21
1359.249057156022
 31
0.0
  0
MTEXT
  5
7494
330
C7F
100
AcDbEntity
  8
cotas
100
AcDbMText
 10
-1044.707305640952
 20
1384.371729351149
 30
0.0
 40
10.0
 41
0.0
 71
     5
 72
     1
  1
R10
  7
SANINDUSA
 11
0.7793328166864235
 21
-0.6266102144360605
 31
0.0
 73
     1
 44
1.0
1001
ACAD
1000
MTEXTBEGIN
1070
    73
1070
     1
1070
    44
1040
1.0
1070
    74
1070
     0
1000
MTEXTEND
  0
SOLID
  5
7495
330
C7F
100
AcDbEntity
  8
cotas
100
AcDbTrace
 10
-1028.702957491448
 20
1360.547945183833
 30
0.0
 11
-1030.791658206235
 21
1357.950169128212
 31
0.0
 12
-1021.953979681978
 22
1352.982955011662
 32
0.0
 13
-1021.953979681978
 23
1352.982955011662
 33
0.0
  0
POINT
  5
7496
330
C7F
100
AcDbEntity
  8
Defpoints
 62
     0
100
AcDbPoint
 10
-1021.953979681978
 20
1352.982955011662
 30
0.0
  0
POINT
  5
7497
330
C7F
100
AcDbEntity
  8
Defpoints
 62
     0
100
AcDbPoint
 10
-1029.747307848841
 20
1359.249057156021
 30
0.0
  0
ENDBLK
  5
C86
330
C7F
100
AcDbEntity
  8
0
100
AcDbBlockEnd
  0
BLOCK
  5
C8E
330
C87
100
AcDbEntity
  8
0
100
AcDbBlockBegin
  2
*D95
 70
     1
 10
0.0
 20
0.0
 30
0.0
  3
*D95
  1

  0
LINE
  5
748D
330
C87
100
AcDbEntity
  8
cotas
100
AcDbLine
 10
-1547.734586787739
 20
2103.918895789745
 30
0.0
 11
-1515.823116970154
 21
2072.47264662492
 31
0.0
  0
MTEXT
  5
748E
330
C87
100
AcDbEntity
  8
cotas
100
AcDbMText
 10
-1528.175162859108
 20
2098.976338832267
 30
0.0
 40
10.0
 41
0.0
 71
     5
 72
     1
  1
R20
  7
SANINDUSA
 11
0.7122796965729625
 21
-0.7018957428635173
 31
0.0
 73
     1
 44
1.0
1001
ACAD
1000
MTEXTBEGIN
1070
    73
1070
     1
1070
    44
1040
1.0
1070
    74
1070
     0
1000
MTEXTEND
  0
LINE
  5
748F
330
C87
100
AcDbEntity
  8
cotas
100
AcDbLine
 10
-1494.454726072963
 20
2051.415774339012
 30
0.0
 11
-1508.700320004425
 21
2065.453689196285
 31
0.0
  0
SOLID
  5
7490
330
C87
100
AcDbEntity
  8
cotas
100
AcDbTrace
 10
-1514.653290732049
 20
2073.659779452541
 30
0.0
 11
-1516.99294320826
 21
2071.285513797298
 31
0.0
 12
-1508.700320004425
 22
2065.453689196285
 32
0.0
 13
-1508.700320004425
 23
2065.453689196285
 33
0.0
  0
POINT
  5
7491
330
C87
100
AcDbEntity
  8
Defpoints
 62
     0
100
AcDbPoint
 10
-1508.700320004425
 20
2065.453689196285
 30
0.0
  0
POINT
  5
7492
330
C87
100
AcDbEntity
  8
Defpoints
 62
     0
100
AcDbPoint
 10
-1494.454726072963
 20
2051.415774339012
 30
0.0
  0
ENDBLK
  5
C8F
330
C87
100
AcDbEntity
  8
0
100
AcDbBlockEnd
  0
BLOCK
  5
C96
330
C90
100
AcDbEntity
  8
0
100
AcDbBlockBegin
  2
*D96
 70
     1
 10
0.0
 20
0.0
 30
0.0
  3
*D96
  1

  0
LINE
  5
7488
330
C90
100
AcDbEntity
  8
cotas
100
AcDbLine
 10
-1443.36627138411
 20
1990.758727062533
 30
0.0
 11
-1472.535824861074
 21
2024.763809659248
 31
0.0
  0
MTEXT
  5
7489
330
C90
100
AcDbEntity
  8
cotas
100
AcDbMText
 10
-1446.950080416205
 20
2010.610369322515
 30
0.0
 40
10.0
 41
0.0
 71
     5
 72
     1
  1
R10
  7
SANINDUSA
 11
0.6510787757037912
 21
-0.7590101631915429
 31
0.0
 73
     1
 44
1.0
1001
ACAD
1000
MTEXTBEGIN
1070
    73
1070
     1
1070
    44
1040
1.0
1070
    74
1070
     0
1000
MTEXTEND
  0
SOLID
  5
748A
330
C90
100
AcDbEntity
  8
cotas
100
AcDbTrace
 10
-1471.270807922422
 20
2025.848940952088
 30
0.0
 11
-1473.800841799727
 21
2023.678678366409
 31
0.0
 12
-1479.046612618112
 22
2032.353911291163
 32
0.0
 13
-1479.046612618112
 23
2032.353911291163
 33
0.0
  0
POINT
  5
748B
330
C90
100
AcDbEntity
  8
Defpoints
 62
     0
100
AcDbPoint
 10
-1479.046612618112
 20
2032.353911291163
 30
0.0
  0
POINT
  5
748C
330
C90
100
AcDbEntity
  8
Defpoints
 62
     0
100
AcDbPoint
 10
-1472.535824861073
 20
2024.763809659247
 30
0.0
  0
ENDBLK
  5
C97
330
C90
100
AcDbEntity
  8
0
100
AcDbBlockEnd
  0
BLOCK
  5
C9F
330
C98
100
AcDbEntity
  8
0
100
AcDbBlockBegin
  2
*D97
 70
     1
 10
0.0
 20
0.0
 30
0.0
  3
*D97
  1

  0
LINE
  5
7482
330
C98
100
AcDbEntity
  8
cotas
100
AcDbLine
 10
-224.8747908941565
 20
1276.33547072177
 30
0.0
 11
-254.8908582888643
 21
1309.5957201287
 31
0.0
  0
MTEXT
  5
7483
330
C98
100
AcDbEntity
  8
cotas
100
AcDbMText
 10
-228.9545467810029
 20
1296.092887698732
 30
0.0
 40
10.0
 41
0.0
 71
     5
 72
     1
  1
R20
  7
SANINDUSA
 11
0.6699733825621327
 21
-0.742385120175677
 31
0.0
 73
     1
 44
1.0
1001
ACAD
1000
MTEXTBEGIN
1070
    73
1070
     1
1070
    44
1040
1.0
1070
    74
1070
     0
1000
MTEXTEND
  0
LINE
  5
7484
330
C98
100
AcDbEntity
  8
cotas
100
AcDbLine
 10
-274.9900597657259
 20
1331.867273733968
 30
0.0
 11
-261.5905921144855
 21
1317.019571330457
 31
0.0
  0
SOLID
  5
7485
330
C98
100
AcDbEntity
  8
cotas
100
AcDbTrace
 10
-253.6535497552382
 20
1310.712342432971
 30
0.0
 11
-256.1281668224903
 21
1308.47909782443
 31
0.0
 12
-261.5905921144855
 22
1317.019571330457
 32
0.0
 13
-261.5905921144855
 23
1317.019571330457
 33
0.0
  0
POINT
  5
7486
330
C98
100
AcDbEntity
  8
Defpoints
 62
     0
100
AcDbPoint
 10
-261.5905921144855
 20
1317.019571330457
 30
0.0
  0
POINT
  5
7487
330
C98
100
AcDbEntity
  8
Defpoints
 62
     0
100
AcDbPoint
 10
-274.9900597657259
 20
1331.867273733968
 30
0.0
  0
ENDBLK
  5
CA0
330
C98
100
AcDbEntity
  8
0
100
AcDbBlockEnd
  0
BLOCK
  5
CA8
330
CA1
100
AcDbEntity
  8
0
100
AcDbBlockBegin
  2
*D98
 70
     1
 10
0.0
 20
0.0
 30
0.0
  3
*D98
  1

  0
LINE
  5
747C
330
CA1
100
AcDbEntity
  8
cotas
100
AcDbLine
 10
-221.5692062908987
 20
2103.767051082817
 30
0.0
 11
-253.5724173331812
 21
2072.414172818805
 31
0.0
  0
MTEXT
  5
747D
330
CA1
100
AcDbEntity
  8
cotas
100
AcDbMText
 10
-241.142987548859
 20
2098.881662565686
 30
0.0
 40
10.0
 41
0.0
 71
     5
 72
     1
  1
R20
  7
SANINDUSA
 11
0.7143274058156023
 21
0.6998116584487231
 31
0.0
 73
     1
 44
1.0
1001
ACAD
1000
MTEXTBEGIN
1070
    73
1070
     1
1070
    44
1040
1.0
1070
    74
1070
     0
1000
MTEXTEND
  0
LINE
  5
747E
330
CA1
100
AcDbEntity
  8
cotas
100
AcDbLine
 10
-275.0022395076507
 20
2051.419823065343
 30
0.0
 11
-260.7156913913373
 21
2065.416056234318
 31
0.0
  0
SOLID
  5
747F
330
CA1
100
AcDbEntity
  8
cotas
100
AcDbTrace
 10
-254.7387700972624
 20
2073.604718495165
 30
0.0
 11
-252.4060645691
 21
2071.223627142446
 31
0.0
 12
-260.7156913913373
 22
2065.416056234318
 32
0.0
 13
-260.7156913913373
 23
2065.416056234318
 33
0.0
  0
POINT
  5
7480
330
CA1
100
AcDbEntity
  8
Defpoints
 62
     0
100
AcDbPoint
 10
-260.7156913913373
 20
2065.416056234318
 30
0.0
  0
POINT
  5
7481
330
CA1
100
AcDbEntity
  8
Defpoints
 62
     0
100
AcDbPoint
 10
-275.0022395076507
 20
2051.419823065343
 30
0.0
  0
ENDBLK
  5
CA9
330
CA1
100
AcDbEntity
  8
0
100
AcDbBlockEnd
  0
BLOCK
  5
CB3
330
CAA
100
AcDbEntity
  8
0
100
AcDbBlockBegin
  2
*D99
 70
     1
 10
0.0
 20
0.0
 30
0.0
  3
*D99
  1

  0
LINE
  5
7468
330
CAA
100
AcDbEntity
  8
cotas
100
AcDbLine
 10
-472.9254089088741
 20
1779.674033366721
 30
-0.0000000000000961
 11
-429.9095606729423
 21
1744.656925472872
 31
-0.0000000000000961
  0
LINE
  5
7469
330
CAA
100
AcDbEntity
  8
cotas
100
AcDbLine
 10
-299.6441513098466
 20
1638.614197465158
 30
-0.0000000000000961
 11
-291.8889027297156
 21
1632.301027147452
 31
-0.0000000000000961
  0
MTEXT
  5
746A
330
CAA
100
AcDbEntity
  8
cotas
100
AcDbMText
 10
-448.4137958333991
 20
1773.775233447389
 30
-0.0000000000000961
 40
10.0
 41
0.0
 71
     5
 72
     1
  1
\U+2205148
  7
SANINDUSA
 11
0.7755248580131018
 21
-0.6313170317706933
 31
0.0
 73
     1
 44
1.0
1001
ACAD
1000
MTEXTBEGIN
1070
    73
1070
     1
1070
    44
1040
1.0
1070
    74
1070
     0
1000
MTEXTEND
  0
LINE
  5
746B
330
CAA
100
AcDbEntity
  8
cotas
100
AcDbLine
 10
-307.3993998899776
 20
1644.927367782865
 30
-0.0000000000000961
 11
-422.1543120928114
 21
1738.343755155165
 31
-0.0000000000000961
  0
SOLID
  5
746C
330
CAA
100
AcDbEntity
  8
cotas
100
AcDbTrace
 10
-298.5919562568954
 20
1639.90673889518
 30
-0.0000000000000961
 11
-300.6963463627978
 21
1637.321656035137
 31
-0.0000000000000961
 12
-307.3993998899776
 22
1644.927367782865
 32
-0.0000000000000961
 13
-307.3993998899776
 23
1644.927367782865
 33
-0.0000000000000961
  0
SOLID
  5
746D
330
CAA
100
AcDbEntity
  8
cotas
100
AcDbTrace
 10
-428.8573656199911
 20
1745.949466902894
 30
-0.0000000000000961
 11
-430.9617557258936
 21
1743.36438404285
 31
-0.0000000000000961
 12
-422.1543120928114
 22
1738.343755155165
 32
-0.0000000000000961
 13
-422.1543120928114
 23
1738.343755155165
 33
-0.0000000000000961
  0
POINT
  5
746E
330
CAA
100
AcDbEntity
  8
Defpoints
 62
     0
100
AcDbPoint
 10
-422.1543120928114
 20
1738.343755155165
 30
-0.0000000000000961
  0
POINT
  5
746F
330
CAA
100
AcDbEntity
  8
Defpoints
 62
     0
100
AcDbPoint
 10
-307.3993998899776
 20
1644.927367782865
 30
-0.0000000000000961
  0
ENDBLK
  5
CB4
330
CAA
100
AcDbEntity
  8
0
100
AcDbBlockEnd
  0
BLOCK
  5
CBF
330
CB5
100
AcDbEntity
  8
0
100
AcDbBlockBegin
  2
*D100
 70
     1
 10
0.0
 20
0.0
 30
0.0
  3
*D100
  1

  0
LINE
  5
7632
330
CB5
100
AcDbEntity
  8
cotas
100
AcDbLine
 10
147.1859139725202
 20
1761.044344537602
 30
0.0
 11
147.1859139725202
 21
1791.044344537602
 31
0.0
  0
LINE
  5
7633
330
CB5
100
AcDbEntity
  8
cotas
100
AcDbLine
 10
1047.185917630334
 20
1761.044344537602
 30
0.0
 11
1047.185917630334
 21
1791.044344537602
 31
0.0
  0
LINE
  5
7634
330
CB5
100
AcDbEntity
  8
cotas
100
AcDbLine
 10
157.1859139725202
 20
1786.044344537602
 30
0.0
 11
1037.185917630334
 21
1786.044344537602
 31
0.0
  0
SOLID
  5
7635
330
CB5
100
AcDbEntity
  8
cotas
100
AcDbTrace
 10
157.1859139725202
 20
1787.711011204268
 30
0.0
 11
157.1859139725202
 21
1784.377677870935
 31
0.0
 12
147.1859139725202
 22
1786.044344537602
 32
0.0
 13
147.1859139725202
 23
1786.044344537602
 33
0.0
  0
SOLID
  5
7636
330
CB5
100
AcDbEntity
  8
cotas
100
AcDbTrace
 10
1037.185917630334
 20
1787.711011204268
 30
0.0
 11
1037.185917630334
 21
1784.377677870935
 31
0.0
 12
1047.185917630334
 22
1786.044344537602
 32
0.0
 13
1047.185917630334
 23
1786.044344537602
 33
0.0
  0
MTEXT
  5
7637
330
CB5
100
AcDbEntity
  8
cotas
100
AcDbMText
 10
597.1859158014272
 20
1796.249179997642
 30
0.0
 40
10.0
 41
0.0
 71
     5
 72
     1
  1
900
  7
SANINDUSA
 73
     1
 44
1.0
1001
ACAD
1000
MTEXTBEGIN
1070
    73
1070
     1
1070
    44
1040
1.0
1070
    74
1070
     0
1000
MTEXTEND
  0
POINT
  5
7638
330
CB5
100
AcDbEntity
  8
Defpoints
 62
     0
100
AcDbPoint
 10
147.1859139725202
 20
1756.044344537602
 30
0.0
  0
POINT
  5
7639
330
CB5
100
AcDbEntity
  8
Defpoints
 62
     0
100
AcDbPoint
 10
1047.185917630334
 20
1756.044344537602
 30
0.0
  0
POINT
  5
763A
330
CB5
100
AcDbEntity
  8
Defpoints
 62
     0
100
AcDbPoint
 10
1047.185917630334
 20
1786.044344537602
 30
0.0
  0
ENDBLK
  5
CC0
330
CB5
100
AcDbEntity
  8
0
100
AcDbBlockEnd
  0
BLOCK
  5
CE9
330
CDF
100
AcDbEntity
  8
0
100
AcDbBlockBegin
  2
*D101
 70
     1
 10
0.0
 20
0.0
 30
0.0
  3
*D101
  1

  0
LINE
  5
760B
330
CDF
100
AcDbEntity
  8
cotas
100
AcDbLine
 10
2997.797575802827
 20
1761.044344537609
 30
0.0
 11
2997.797575802827
 21
1791.044344537609
 31
0.0
  0
LINE
  5
760C
330
CDF
100
AcDbEntity
  8
cotas
100
AcDbLine
 10
2927.797575526499
 20
1761.044344537608
 30
0.0
 11
2927.797575526499
 21
1791.044344537609
 31
0.0
  0
LINE
  5
760D
330
CDF
100
AcDbEntity
  8
cotas
100
AcDbLine
 10
2987.797575802827
 20
1786.044344537609
 30
0.0
 11
2937.797575526499
 21
1786.044344537609
 31
0.0
  0
SOLID
  5
760E
330
CDF
100
AcDbEntity
  8
cotas
100
AcDbTrace
 10
2987.797575802827
 20
1787.711011204276
 30
0.0
 11
2987.797575802827
 21
1784.377677870942
 31
0.0
 12
2997.797575802827
 22
1786.044344537609
 32
0.0
 13
2997.797575802827
 23
1786.044344537609
 33
0.0
  0
SOLID
  5
760F
330
CDF
100
AcDbEntity
  8
cotas
100
AcDbTrace
 10
2937.797575526499
 20
1787.711011204276
 30
0.0
 11
2937.797575526499
 21
1784.377677870942
 31
0.0
 12
2927.797575526499
 22
1786.044344537609
 32
0.0
 13
2927.797575526499
 23
1786.044344537609
 33
0.0
  0
MTEXT
  5
7610
330
CDF
100
AcDbEntity
  8
cotas
100
AcDbMText
 10
2962.797575664663
 20
1796.24917999765
 30
0.0
 40
10.0
 41
0.0
 71
     5
 72
     1
  1
70
  7
SANINDUSA
 73
     1
 44
1.0
1001
ACAD
1000
MTEXTBEGIN
1070
    73
1070
     1
1070
    44
1040
1.0
1070
    74
1070
     0
1000
MTEXTEND
  0
POINT
  5
7611
330
CDF
100
AcDbEntity
  8
Defpoints
 62
     0
100
AcDbPoint
 10
2997.797575802827
 20
1756.044344537609
 30
0.0
  0
POINT
  5
7612
330
CDF
100
AcDbEntity
  8
Defpoints
 62
     0
100
AcDbPoint
 10
2927.797575526499
 20
1756.044344537608
 30
0.0
  0
POINT
  5
7613
330
CDF
100
AcDbEntity
  8
Defpoints
 62
     0
100
AcDbPoint
 10
2927.797575526499
 20
1786.044344537609
 30
0.0
  0
ENDBLK
  5
CEA
330
CDF
100
AcDbEntity
  8
0
100
AcDbBlockEnd
  0
BLOCK
  5
CF6
330
CEB
100
AcDbEntity
  8
0
100
AcDbBlockBegin
  2
*D102
 70
     1
 10
0.0
 20
0.0
 30
0.0
  3
*D102
  1

  0
LINE
  5
7601
330
CEB
100
AcDbEntity
  8
cotas
100
AcDbLine
 10
2997.797575802827
 20
1761.044344537609
 30
0.0
 11
2997.797575802827
 21
1791.044344537609
 31
0.0
  0
LINE
  5
7602
330
CEB
100
AcDbEntity
  8
cotas
100
AcDbLine
 10
3030.204376628655
 20
1701.469694449545
 30
0.0
 11
3030.204376628655
 21
1791.044344537609
 31
0.0
  0
LINE
  5
7603
330
CEB
100
AcDbEntity
  8
cotas
100
AcDbLine
 10
3007.797575802827
 20
1786.044344537609
 30
0.0
 11
3020.204376628655
 21
1786.044344537609
 31
0.0
  0
LINE
  5
7604
330
CEB
100
AcDbEntity
  8
cotas
100
AcDbLine
 10
3030.204376628655
 20
1786.044344537609
 30
0.0
 11
3079.653671457398
 21
1786.044344537609
 31
0.0
  0
SOLID
  5
7605
330
CEB
100
AcDbEntity
  8
cotas
100
AcDbTrace
 10
3007.797575802827
 20
1787.711011204276
 30
0.0
 11
3007.797575802827
 21
1784.377677870942
 31
0.0
 12
2997.797575802827
 22
1786.044344537609
 32
0.0
 13
2997.797575802827
 23
1786.044344537609
 33
0.0
  0
SOLID
  5
7606
330
CEB
100
AcDbEntity
  8
cotas
100
AcDbTrace
 10
3020.204376628655
 20
1787.711011204276
 30
0.0
 11
3020.204376628655
 21
1784.377677870942
 31
0.0
 12
3030.204376628655
 22
1786.044344537609
 32
0.0
 13
3030.204376628655
 23
1786.044344537609
 33
0.0
  0
MTEXT
  5
7607
330
CEB
100
AcDbEntity
  8
cotas
100
AcDbMText
 10
3059.929024043027
 20
1797.390885840497
 30
0.0
 40
10.0
 41
0.0
 71
     5
 72
     1
  1
32,4
  7
SANINDUSA
 73
     1
 44
1.0
1001
ACAD
1000
MTEXTBEGIN
1070
    73
1070
     1
1070
    44
1040
1.0
1070
    74
1070
     0
1000
MTEXTEND
  0
POINT
  5
7608
330
CEB
100
AcDbEntity
  8
Defpoints
 62
     0
100
AcDbPoint
 10
2997.797575802827
 20
1756.044344537609
 30
0.0
  0
POINT
  5
7609
330
CEB
100
AcDbEntity
  8
Defpoints
 62
     0
100
AcDbPoint
 10
3030.204376628655
 20
1696.469694449545
 30
0.0
  0
POINT
  5
760A
330
CEB
100
AcDbEntity
  8
Defpoints
 62
     0
100
AcDbPoint
 10
3030.204376628655
 20
1786.044344537609
 30
0.0
  0
ENDBLK
  5
CF7
330
CEB
100
AcDbEntity
  8
0
100
AcDbBlockEnd
  0
BLOCK
  5
D02
330
CF8
100
AcDbEntity
  8
0
100
AcDbBlockBegin
  2
*D103
 70
     1
 10
0.0
 20
0.0
 30
0.0
  3
*D103
  1

  0
LINE
  5
75F8
330
CF8
100
AcDbEntity
  8
cotas
100
AcDbLine
 10
3030.29163862003
 20
1701.468932926039
 30
0.0
 11
3030.703713623086
 21
1725.076705084505
 31
0.0
  0
LINE
  5
75F9
330
CF8
100
AcDbEntity
  8
cotas
100
AcDbLine
 10
3492.221273848104
 20
1693.405924922969
 30
0.0
 11
3492.633348851161
 21
1717.013697081435
 31
0.0
  0
LINE
  5
75FA
330
CF8
100
AcDbEntity
  8
cotas
100
AcDbLine
 10
3040.6149285847
 20
1719.90294262526
 30
0.0
 11
3482.547609906797
 21
1712.188982587691
 31
0.0
  0
SOLID
  5
75FB
330
CF8
100
AcDbEntity
  8
cotas
100
AcDbTrace
 10
3040.644015915158
 20
1721.569355450758
 30
0.0
 11
3040.585841254241
 21
1718.236529799762
 31
0.0
 12
3030.616451631711
 22
1720.07746660801
 32
0.0
 13
3030.616451631711
 23
1720.07746660801
 33
0.0
  0
SOLID
  5
75FC
330
CF8
100
AcDbEntity
  8
cotas
100
AcDbTrace
 10
3482.576697237256
 20
1713.85539541319
 30
0.0
 11
3482.518522576338
 21
1710.522569762193
 31
0.0
 12
3492.546086859786
 22
1712.01445860494
 32
0.0
 13
3492.546086859786
 23
1712.01445860494
 33
0.0
  0
MTEXT
  5
75FD
330
CF8
100
AcDbEntity
  8
cotas
100
AcDbMText
 10
3261.759426702955
 20
1726.252601269029
 30
0.0
 40
10.0
 41
0.0
 71
     5
 72
     1
  1
462
  7
SANINDUSA
 11
0.9998476952988635
 21
-0.0174523982750426
 31
0.0
 73
     1
 44
1.0
1001
ACAD
1000
MTEXTBEGIN
1070
    73
1070
     1
1070
    44
1040
1.0
1070
    74
1070
     0
1000
MTEXTEND
  0
POINT
  5
75FE
330
CF8
100
AcDbEntity
  8
Defpoints
 62
     0
100
AcDbPoint
 10
3030.204376628655
 20
1696.469694449545
 30
0.0
  0
POINT
  5
75FF
330
CF8
100
AcDbEntity
  8
Defpoints
 62
     0
100
AcDbPoint
 10
3492.134011856729
 20
1688.406686446475
 30
0.0
  0
POINT
  5
7600
330
CF8
100
AcDbEntity
  8
Defpoints
 62
     0
100
AcDbPoint
 10
3492.546086859786
 20
1712.01445860494
 30
0.0
  0
ENDBLK
  5
D03
330
CF8
100
AcDbEntity
  8
0
100
AcDbBlockEnd
  0
BLOCK
  5
D19
330
D0D
100
AcDbEntity
  8
0
100
AcDbBlockBegin
  2
*D104
 70
     1
 10
0.0
 20
0.0
 30
0.0
  3
*D104
  1

  0
LINE
  5
75E4
330
D0D
100
AcDbEntity
  8
cotas
100
AcDbLine
 10
3497.13401185673
 20
1688.406686446476
 30
0.0
 11
3546.619777531186
 21
1688.406686446476
 31
0.0
  0
LINE
  5
75E5
330
D0D
100
AcDbEntity
  8
cotas
100
AcDbLine
 10
3497.13401185673
 20
1666.387870762362
 30
0.0
 11
3546.619777531186
 21
1666.387870762362
 31
0.0
  0
LINE
  5
75E6
330
D0D
100
AcDbEntity
  8
cotas
100
AcDbLine
 10
3541.619777531186
 20
1698.406686446475
 30
0.0
 11
3541.619777531186
 21
1708.406686446475
 31
0.0
  0
LINE
  5
75E7
330
D0D
100
AcDbEntity
  8
cotas
100
AcDbLine
 10
3541.619777531186
 20
1656.387870762362
 30
0.0
 11
3541.619777531186
 21
1620.874103133081
 31
0.0
  0
LINE
  5
75E8
330
D0D
100
AcDbEntity
  8
cotas
100
AcDbLine
 10
3541.619777531186
 20
1688.406686446476
 30
0.0
 11
3541.619777531186
 21
1666.387870762362
 31
0.0
  0
SOLID
  5
75E9
330
D0D
100
AcDbEntity
  8
cotas
100
AcDbTrace
 10
3539.953110864519
 20
1698.406686446475
 30
0.0
 11
3543.286444197852
 21
1698.406686446475
 31
0.0
 12
3541.619777531186
 22
1688.406686446476
 32
0.0
 13
3541.619777531186
 23
1688.406686446476
 33
0.0
  0
SOLID
  5
75EA
330
D0D
100
AcDbEntity
  8
cotas
100
AcDbTrace
 10
3539.953110864519
 20
1656.387870762362
 30
0.0
 11
3543.286444197852
 21
1656.387870762362
 31
0.0
 12
3541.619777531186
 22
1666.387870762362
 32
0.0
 13
3541.619777531186
 23
1666.387870762362
 33
0.0
  0
MTEXT
  5
75EB
330
D0D
100
AcDbEntity
  8
cotas
100
AcDbMText
 10
3531.515680821985
 20
1633.630986947722
 30
0.0
 40
10.0
 41
0.0
 71
     5
 72
     1
  1
22
  7
SANINDUSA
 11
0.0000000000000001
 21
1.0
 31
0.0
 73
     1
 44
1.0
1001
ACAD
1000
MTEXTBEGIN
1070
    73
1070
     1
1070
    44
1040
1.0
1070
    74
1070
     0
1000
MTEXTEND
  0
POINT
  5
75EC
330
D0D
100
AcDbEntity
  8
Defpoints
 62
     0
100
AcDbPoint
 10
3492.134011856729
 20
1688.406686446476
 30
0.0
  0
POINT
  5
75ED
330
D0D
100
AcDbEntity
  8
Defpoints
 62
     0
100
AcDbPoint
 10
3492.134011856729
 20
1666.387870762362
 30
0.0
  0
POINT
  5
75EE
330
D0D
100
AcDbEntity
  8
Defpoints
 62
     0
100
AcDbPoint
 10
3541.619777531186
 20
1666.387870762362
 30
0.0
  0
ENDBLK
  5
D1A
330
D0D
100
AcDbEntity
  8
0
100
AcDbBlockEnd
  0
BLOCK
  5
D27
330
D1B
100
AcDbEntity
  8
0
100
AcDbBlockBegin
  2
*D105
 70
     1
 10
0.0
 20
0.0
 30
0.0
  3
*D105
  1

  0
LINE
  5
75D9
330
D1B
100
AcDbEntity
  8
cotas
100
AcDbLine
 10
3025.204376628654
 20
1696.469694449545
 30
0.0
 11
2892.09937294599
 21
1696.469694449545
 31
0.0
  0
LINE
  5
75DA
330
D1B
100
AcDbEntity
  8
cotas
100
AcDbLine
 10
3025.204376628654
 20
1686.468171091889
 30
0.0
 11
2892.09937294599
 21
1686.468171091889
 31
0.0
  0
LINE
  5
75DB
330
D1B
100
AcDbEntity
  8
cotas
100
AcDbLine
 10
2897.09937294599
 20
1706.469694449545
 30
0.0
 11
2897.09937294599
 21
1716.469694449545
 31
0.0
  0
LINE
  5
75DC
330
D1B
100
AcDbEntity
  8
cotas
100
AcDbLine
 10
2897.09937294599
 20
1676.468171091889
 30
0.0
 11
2897.09937294599
 21
1641.753597552601
 31
0.0
  0
LINE
  5
75DD
330
D1B
100
AcDbEntity
  8
cotas
100
AcDbLine
 10
2897.09937294599
 20
1696.469694449545
 30
0.0
 11
2897.09937294599
 21
1686.468171091889
 31
0.0
  0
SOLID
  5
75DE
330
D1B
100
AcDbEntity
  8
cotas
100
AcDbTrace
 10
2895.432706279324
 20
1706.469694449545
 30
0.0
 11
2898.766039612656
 21
1706.469694449545
 31
0.0
 12
2897.09937294599
 22
1696.469694449545
 32
0.0
 13
2897.09937294599
 23
1696.469694449545
 33
0.0
  0
SOLID
  5
75DF
330
D1B
100
AcDbEntity
  8
cotas
100
AcDbTrace
 10
2895.432706279324
 20
1676.468171091889
 30
0.0
 11
2898.766039612656
 21
1676.468171091889
 31
0.0
 12
2897.09937294599
 22
1686.468171091889
 32
0.0
 13
2897.09937294599
 23
1686.468171091889
 33
0.0
  0
MTEXT
  5
75E0
330
D1B
100
AcDbEntity
  8
cotas
100
AcDbMText
 10
2886.894537485949
 20
1654.110884322246
 30
0.0
 40
10.0
 41
0.0
 71
     5
 72
     1
  1
10
  7
SANINDUSA
 11
0.0000000000000001
 21
1.0
 31
0.0
 73
     1
 44
1.0
1001
ACAD
1000
MTEXTBEGIN
1070
    73
1070
     1
1070
    44
1040
1.0
1070
    74
1070
     0
1000
MTEXTEND
  0
POINT
  5
75E1
330
D1B
100
AcDbEntity
  8
Defpoints
 62
     0
100
AcDbPoint
 10
3030.204376628655
 20
1696.469694449545
 30
0.0
  0
POINT
  5
75E2
330
D1B
100
AcDbEntity
  8
Defpoints
 62
     0
100
AcDbPoint
 10
3030.204376628655
 20
1686.468171091889
 30
0.0
  0
POINT
  5
75E3
330
D1B
100
AcDbEntity
  8
Defpoints
 62
     0
100
AcDbPoint
 10
2897.09937294599
 20
1686.468171091889
 30
0.0
  0
ENDBLK
  5
D28
330
D1B
100
AcDbEntity
  8
0
100
AcDbBlockEnd
  0
BLOCK
  5
D6A
330
D60
100
AcDbEntity
  8
0
100
AcDbBlockBegin
  2
*D106
 70
     1
 10
0.0
 20
0.0
 30
0.0
  3
*D106
  1

  0
LINE
  5
7599
330
D60
100
AcDbEntity
  8
cotas
100
AcDbLine
 10
4327.797564332029
 20
1761.044344537608
 30
0.0
 11
4327.797564332029
 21
1791.044344537608
 31
0.0
  0
LINE
  5
759A
330
D60
100
AcDbEntity
  8
cotas
100
AcDbLine
 10
4257.797586509902
 20
1761.044344537608
 30
0.0
 11
4257.797586509902
 21
1791.044344537608
 31
0.0
  0
LINE
  5
759B
330
D60
100
AcDbEntity
  8
cotas
100
AcDbLine
 10
4317.797564332029
 20
1786.044344537608
 30
0.0
 11
4267.797586509902
 21
1786.044344537608
 31
0.0
  0
SOLID
  5
759C
330
D60
100
AcDbEntity
  8
cotas
100
AcDbTrace
 10
4317.797564332029
 20
1787.711011204275
 30
0.0
 11
4317.797564332029
 21
1784.377677870941
 31
0.0
 12
4327.797564332029
 22
1786.044344537608
 32
0.0
 13
4327.797564332029
 23
1786.044344537608
 33
0.0
  0
SOLID
  5
759D
330
D60
100
AcDbEntity
  8
cotas
100
AcDbTrace
 10
4267.797586509902
 20
1787.711011204275
 30
0.0
 11
4267.797586509902
 21
1784.377677870941
 31
0.0
 12
4257.797586509902
 22
1786.044344537608
 32
0.0
 13
4257.797586509902
 23
1786.044344537608
 33
0.0
  0
MTEXT
  5
759E
330
D60
100
AcDbEntity
  8
cotas
100
AcDbMText
 10
4292.797575420965
 20
1796.249179997649
 30
0.0
 40
10.0
 41
0.0
 71
     5
 72
     1
  1
70
  7
SANINDUSA
 73
     1
 44
1.0
1001
ACAD
1000
MTEXTBEGIN
1070
    73
1070
     1
1070
    44
1040
1.0
1070
    74
1070
     0
1000
MTEXTEND
  0
POINT
  5
759F
330
D60
100
AcDbEntity
  8
Defpoints
 62
     0
100
AcDbPoint
 10
4327.797564332029
 20
1756.044344537608
 30
0.0
  0
POINT
  5
75A0
330
D60
100
AcDbEntity
  8
Defpoints
 62
     0
100
AcDbPoint
 10
4257.797586509902
 20
1756.044344537608
 30
0.0
  0
POINT
  5
75A1
330
D60
100
AcDbEntity
  8
Defpoints
 62
     0
100
AcDbPoint
 10
4257.797586509902
 20
1786.044344537608
 30
0.0
  0
ENDBLK
  5
D6B
330
D60
100
AcDbEntity
  8
0
100
AcDbBlockEnd
  0
BLOCK
  5
D76
330
D6C
100
AcDbEntity
  8
0
100
AcDbBlockBegin
  2
*D107
 70
     1
 10
0.0
 20
0.0
 30
0.0
  3
*D107
  1

  0
LINE
  5
7590
330
D6C
100
AcDbEntity
  8
cotas
100
AcDbLine
 10
4327.797564332029
 20
1761.044344537608
 30
0.0
 11
4327.797564332029
 21
1821.039344493367
 31
0.0
  0
LINE
  5
7591
330
D6C
100
AcDbEntity
  8
cotas
100
AcDbLine
 10
4147.797586255484
 20
1684.939023684997
 30
0.0
 11
4147.797586255484
 21
1821.039344493367
 31
0.0
  0
LINE
  5
7592
330
D6C
100
AcDbEntity
  8
cotas
100
AcDbLine
 10
4317.797564332029
 20
1816.039344493367
 30
0.0
 11
4157.797586255484
 21
1816.039344493367
 31
0.0
  0
SOLID
  5
7593
330
D6C
100
AcDbEntity
  8
cotas
100
AcDbTrace
 10
4317.797564332029
 20
1817.706011160034
 30
0.0
 11
4317.797564332029
 21
1814.3726778267
 31
0.0
 12
4327.797564332029
 22
1816.039344493367
 32
0.0
 13
4327.797564332029
 23
1816.039344493367
 33
0.0
  0
SOLID
  5
7594
330
D6C
100
AcDbEntity
  8
cotas
100
AcDbTrace
 10
4157.797586255484
 20
1817.706011160034
 30
0.0
 11
4157.797586255484
 21
1814.3726778267
 31
0.0
 12
4147.797586255484
 22
1816.039344493367
 32
0.0
 13
4147.797586255484
 23
1816.039344493367
 33
0.0
  0
MTEXT
  5
7595
330
D6C
100
AcDbEntity
  8
cotas
100
AcDbMText
 10
4237.797575293757
 20
1826.267685661936
 30
0.0
 40
10.0
 41
0.0
 71
     5
 72
     1
  1
180
  7
SANINDUSA
 73
     1
 44
1.0
1001
ACAD
1000
MTEXTBEGIN
1070
    73
1070
     1
1070
    44
1040
1.0
1070
    74
1070
     0
1000
MTEXTEND
  0
POINT
  5
7596
330
D6C
100
AcDbEntity
  8
Defpoints
 62
     0
100
AcDbPoint
 10
4327.797564332029
 20
1756.044344537608
 30
0.0
  0
POINT
  5
7597
330
D6C
100
AcDbEntity
  8
Defpoints
 62
     0
100
AcDbPoint
 10
4147.797586255484
 20
1679.939023684997
 30
0.0
  0
POINT
  5
7598
330
D6C
100
AcDbEntity
  8
Defpoints
 62
     0
100
AcDbPoint
 10
4147.797586255484
 20
1816.039344493367
 30
0.0
  0
ENDBLK
  5
D77
330
D6C
100
AcDbEntity
  8
0
100
AcDbBlockEnd
  0
BLOCK
  5
D94
330
D8A
100
AcDbEntity
  8
0
100
AcDbBlockBegin
  2
*D108
 70
     1
 10
0.0
 20
0.0
 30
0.0
  3
*D108
  1

  0
LINE
  5
7575
330
D8A
100
AcDbEntity
  8
cotas
100
AcDbLine
 10
1329.660009941817
 20
1761.044344537602
 30
0.0
 11
1329.660009941817
 21
1791.044344537609
 31
0.0
  0
LINE
  5
7576
330
D8A
100
AcDbEntity
  8
cotas
100
AcDbLine
 10
2729.660042275342
 20
1761.04434453761
 30
0.0
 11
2729.660042275342
 21
1791.044344537609
 31
0.0
  0
LINE
  5
7577
330
D8A
100
AcDbEntity
  8
cotas
100
AcDbLine
 10
1339.660009941817
 20
1786.044344537609
 30
0.0
 11
2719.660042275342
 21
1786.044344537609
 31
0.0
  0
SOLID
  5
7578
330
D8A
100
AcDbEntity
  8
cotas
100
AcDbTrace
 10
1339.660009941817
 20
1787.711011204276
 30
0.0
 11
1339.660009941817
 21
1784.377677870942
 31
0.0
 12
1329.660009941817
 22
1786.044344537609
 32
0.0
 13
1329.660009941817
 23
1786.044344537609
 33
0.0
  0
SOLID
  5
7579
330
D8A
100
AcDbEntity
  8
cotas
100
AcDbTrace
 10
2719.660042275342
 20
1787.711011204276
 30
0.0
 11
2719.660042275342
 21
1784.377677870942
 31
0.0
 12
2729.660042275342
 22
1786.044344537609
 32
0.0
 13
2729.660042275342
 23
1786.044344537609
 33
0.0
  0
MTEXT
  5
757A
330
D8A
100
AcDbEntity
  8
cotas
100
AcDbMText
 10
2029.660026108579
 20
1796.24917999765
 30
0.0
 40
10.0
 41
0.0
 71
     5
 72
     1
  1
1400
  7
SANINDUSA
 73
     1
 44
1.0
1001
ACAD
1000
MTEXTBEGIN
1070
    73
1070
     1
1070
    44
1040
1.0
1070
    74
1070
     0
1000
MTEXTEND
  0
POINT
  5
757B
330
D8A
100
AcDbEntity
  8
Defpoints
 62
     0
100
AcDbPoint
 10
1329.660009941817
 20
1756.044344537602
 30
0.0
  0
POINT
  5
757C
330
D8A
100
AcDbEntity
  8
Defpoints
 62
     0
100
AcDbPoint
 10
2729.660042275342
 20
1756.04434453761
 30
0.0
  0
POINT
  5
757D
330
D8A
100
AcDbEntity
  8
Defpoints
 62
     0
100
AcDbPoint
 10
2729.660042275342
 20
1786.044344537609
 30
0.0
  0
ENDBLK
  5
D95
330
D8A
100
AcDbEntity
  8
0
100
AcDbBlockEnd
  0
BLOCK
  5
DD9
330
DCF
100
AcDbEntity
  8
0
100
AcDbBlockBegin
  2
*D109
 70
     1
 10
0.0
 20
0.0
 30
0.0
  3
*D109
  1

  0
LINE
  5
7533
330
DCF
100
AcDbEntity
  8
cotas
100
AcDbLine
 10
-364.7663375986244
 20
2147.32954433456
 30
0.0
 11
-364.7663375986244
 21
2177.329544334561
 31
0.0
  0
LINE
  5
7534
330
DCF
100
AcDbEntity
  8
cotas
100
AcDbLine
 10
-513.1879861245484
 20
2012.081517643486
 30
0.0
 11
-513.1879861245484
 21
2177.329544334561
 31
0.0
  0
LINE
  5
7535
330
DCF
100
AcDbEntity
  8
cotas
100
AcDbLine
 10
-374.7663375986244
 20
2172.329544334561
 30
0.0
 11
-503.1879861245483
 21
2172.329544334561
 31
0.0
  0
SOLID
  5
7536
330
DCF
100
AcDbEntity
  8
cotas
100
AcDbTrace
 10
-374.7663375986244
 20
2173.996211001227
 30
0.0
 11
-374.7663375986244
 21
2170.662877667894
 31
0.0
 12
-364.7663375986244
 22
2172.329544334561
 32
0.0
 13
-364.7663375986244
 23
2172.329544334561
 33
0.0
  0
SOLID
  5
7537
330
DCF
100
AcDbEntity
  8
cotas
100
AcDbTrace
 10
-503.1879861245483
 20
2173.996211001227
 30
0.0
 11
-503.1879861245483
 21
2170.662877667894
 31
0.0
 12
-513.1879861245484
 22
2172.329544334561
 32
0.0
 13
-513.1879861245484
 23
2172.329544334561
 33
0.0
  0
MTEXT
  5
7538
330
DCF
100
AcDbEntity
  8
cotas
100
AcDbMText
 10
-438.9771618615863
 20
2183.686159512533
 30
0.0
 40
10.0
 41
0.0
 71
     5
 72
     1
  1
148,4
  7
SANINDUSA
 73
     1
 44
1.0
1001
ACAD
1000
MTEXTBEGIN
1070
    73
1070
     1
1070
    44
1040
1.0
1070
    74
1070
     0
1000
MTEXTEND
  0
POINT
  5
7539
330
DCF
100
AcDbEntity
  8
Defpoints
 62
     0
100
AcDbPoint
 10
-364.7663375986244
 20
2142.32954433456
 30
0.0
  0
POINT
  5
753A
330
DCF
100
AcDbEntity
  8
Defpoints
 62
     0
100
AcDbPoint
 10
-513.1879861245484
 20
2007.081517643486
 30
0.0
  0
POINT
  5
753B
330
DCF
100
AcDbEntity
  8
Defpoints
 62
     0
100
AcDbPoint
 10
-513.1879861245484
 20
2172.329544334561
 30
0.0
  0
ENDBLK
  5
DDA
330
DCF
100
AcDbEntity
  8
0
100
AcDbBlockEnd
  0
BLOCK
  5
DE5
330
DDB
100
AcDbEntity
  8
0
100
AcDbBlockBegin
  2
*D110
 70
     1
 10
0.0
 20
0.0
 30
0.0
  3
*D110
  1

  0
LINE
  5
752A
330
DDB
100
AcDbEntity
  8
cotas
100
AcDbLine
 10
-513.1879861245484
 20
2012.081517643486
 30
0.0
 11
-513.1879861245484
 21
2177.329544334561
 31
0.0
  0
LINE
  5
752B
330
DDB
100
AcDbEntity
  8
cotas
100
AcDbLine
 10
-593.1549754177917
 20
2012.069895390299
 30
0.0
 11
-593.1549754177917
 21
2177.329544334561
 31
0.0
  0
LINE
  5
752C
330
DDB
100
AcDbEntity
  8
cotas
100
AcDbLine
 10
-523.1879861245483
 20
2172.329544334561
 30
0.0
 11
-583.1549754177918
 21
2172.329544334561
 31
0.0
  0
SOLID
  5
752D
330
DDB
100
AcDbEntity
  8
cotas
100
AcDbTrace
 10
-523.1879861245483
 20
2173.996211001227
 30
0.0
 11
-523.1879861245483
 21
2170.662877667894
 31
0.0
 12
-513.1879861245484
 22
2172.329544334561
 32
0.0
 13
-513.1879861245484
 23
2172.329544334561
 33
0.0
  0
SOLID
  5
752E
330
DDB
100
AcDbEntity
  8
cotas
100
AcDbTrace
 10
-583.1549754177918
 20
2173.996211001227
 30
0.0
 11
-583.1549754177918
 21
2170.662877667894
 31
0.0
 12
-593.1549754177917
 22
2172.329544334561
 32
0.0
 13
-593.1549754177917
 23
2172.329544334561
 33
0.0
  0
MTEXT
  5
752F
330
DDB
100
AcDbEntity
  8
cotas
100
AcDbMText
 10
-553.1714807711701
 20
2182.55788550313
 30
0.0
 40
10.0
 41
0.0
 71
     5
 72
     1
  1
80
  7
SANINDUSA
 73
     1
 44
1.0
1001
ACAD
1000
MTEXTBEGIN
1070
    73
1070
     1
1070
    44
1040
1.0
1070
    74
1070
     0
1000
MTEXTEND
  0
POINT
  5
7530
330
DDB
100
AcDbEntity
  8
Defpoints
 62
     0
100
AcDbPoint
 10
-513.1879861245484
 20
2007.081517643486
 30
0.0
  0
POINT
  5
7531
330
DDB
100
AcDbEntity
  8
Defpoints
 62
     0
100
AcDbPoint
 10
-593.1549754177917
 20
2007.069895390299
 30
0.0
  0
POINT
  5
7532
330
DDB
100
AcDbEntity
  8
Defpoints
 62
     0
100
AcDbPoint
 10
-593.1549754177917
 20
2172.329544334561
 30
0.0
  0
ENDBLK
  5
DE6
330
DDB
100
AcDbEntity
  8
0
100
AcDbBlockEnd
  0
BLOCK
  5
DF1
330
DE7
100
AcDbEntity
  8
0
100
AcDbBlockBegin
  2
*D111
 70
     1
 10
0.0
 20
0.0
 30
0.0
  3
*D111
  1

  0
LINE
  5
7521
330
DE7
100
AcDbEntity
  8
cotas
100
AcDbLine
 10
-593.1549754177917
 20
2012.069895390299
 30
0.0
 11
-593.1549754177917
 21
2177.329544334561
 31
0.0
  0
LINE
  5
7522
330
DE7
100
AcDbEntity
  8
cotas
100
AcDbLine
 10
-673.0695586364104
 20
2012.062961060675
 30
0.0
 11
-673.0695586364104
 21
2177.329544334561
 31
0.0
  0
LINE
  5
7523
330
DE7
100
AcDbEntity
  8
cotas
100
AcDbLine
 10
-603.1549754177917
 20
2172.329544334561
 30
0.0
 11
-663.0695586364104
 21
2172.329544334561
 31
0.0
  0
SOLID
  5
7524
330
DE7
100
AcDbEntity
  8
cotas
100
AcDbTrace
 10
-603.1549754177917
 20
2173.996211001227
 30
0.0
 11
-603.1549754177917
 21
2170.662877667894
 31
0.0
 12
-593.1549754177917
 22
2172.329544334561
 32
0.0
 13
-593.1549754177917
 23
2172.329544334561
 33
0.0
  0
SOLID
  5
7525
330
DE7
100
AcDbEntity
  8
cotas
100
AcDbTrace
 10
-663.0695586364104
 20
2173.996211001227
 30
0.0
 11
-663.0695586364104
 21
2170.662877667894
 31
0.0
 12
-673.0695586364104
 22
2172.329544334561
 32
0.0
 13
-673.0695586364104
 23
2172.329544334561
 33
0.0
  0
MTEXT
  5
7526
330
DE7
100
AcDbEntity
  8
cotas
100
AcDbMText
 10
-633.112267027101
 20
2182.55788550313
 30
0.0
 40
10.0
 41
0.0
 71
     5
 72
     1
  1
80
  7
SANINDUSA
 73
     1
 44
1.0
1001
ACAD
1000
MTEXTBEGIN
1070
    73
1070
     1
1070
    44
1040
1.0
1070
    74
1070
     0
1000
MTEXTEND
  0
POINT
  5
7527
330
DE7
100
AcDbEntity
  8
Defpoints
 62
     0
100
AcDbPoint
 10
-593.1549754177917
 20
2007.069895390299
 30
0.0
  0
POINT
  5
7528
330
DE7
100
AcDbEntity
  8
Defpoints
 62
     0
100
AcDbPoint
 10
-673.0695586364104
 20
2007.062961060675
 30
0.0
  0
POINT
  5
7529
330
DE7
100
AcDbEntity
  8
Defpoints
 62
     0
100
AcDbPoint
 10
-673.0695586364104
 20
2172.329544334561
 30
0.0
  0
ENDBLK
  5
DF2
330
DE7
100
AcDbEntity
  8
0
100
AcDbBlockEnd
  0
BLOCK
  5
E0F
330
E05
100
AcDbEntity
  8
0
100
AcDbBlockBegin
  2
*D112
 70
     1
 10
0.0
 20
0.0
 30
0.0
  3
*D112
  1

  0
LINE
  5
7506
330
E05
100
AcDbEntity
  8
cotas
100
AcDbLine
 10
-833.0464269335292
 20
2147.32954433456
 30
0.0
 11
-833.0464269335292
 21
2177.32954433456
 31
0.0
  0
LINE
  5
7507
330
E05
100
AcDbEntity
  8
cotas
100
AcDbLine
 10
-913.0363863322068
 20
2012.063092063714
 30
0.0
 11
-913.0363863322068
 21
2177.32954433456
 31
0.0
  0
LINE
  5
7508
330
E05
100
AcDbEntity
  8
cotas
100
AcDbLine
 10
-843.0464269335294
 20
2172.32954433456
 30
0.0
 11
-903.0363863322067
 21
2172.32954433456
 31
0.0
  0
SOLID
  5
7509
330
E05
100
AcDbEntity
  8
cotas
100
AcDbTrace
 10
-843.0464269335294
 20
2173.996211001227
 30
0.0
 11
-843.0464269335294
 21
2170.662877667894
 31
0.0
 12
-833.0464269335292
 22
2172.32954433456
 32
0.0
 13
-833.0464269335292
 23
2172.32954433456
 33
0.0
  0
SOLID
  5
750A
330
E05
100
AcDbEntity
  8
cotas
100
AcDbTrace
 10
-903.0363863322067
 20
2173.996211001227
 30
0.0
 11
-903.0363863322067
 21
2170.662877667894
 31
0.0
 12
-913.0363863322068
 22
2172.32954433456
 32
0.0
 13
-913.0363863322068
 23
2172.32954433456
 33
0.0
  0
MTEXT
  5
750B
330
E05
100
AcDbEntity
  8
cotas
100
AcDbMText
 10
-873.041406632868
 20
2182.55788550313
 30
0.0
 40
10.0
 41
0.0
 71
     5
 72
     1
  1
80
  7
SANINDUSA
 73
     1
 44
1.0
1001
ACAD
1000
MTEXTBEGIN
1070
    73
1070
     1
1070
    44
1040
1.0
1070
    74
1070
     0
1000
MTEXTEND
  0
POINT
  5
750C
330
E05
100
AcDbEntity
  8
Defpoints
 62
     0
100
AcDbPoint
 10
-833.0464269335292
 20
2142.32954433456
 30
0.0
  0
POINT
  5
750D
330
E05
100
AcDbEntity
  8
Defpoints
 62
     0
100
AcDbPoint
 10
-913.0363863322068
 20
2007.063092063714
 30
0.0
  0
POINT
  5
750E
330
E05
100
AcDbEntity
  8
Defpoints
 62
     0
100
AcDbPoint
 10
-913.0363863322068
 20
2172.32954433456
 30
0.0
  0
ENDBLK
  5
E10
330
E05
100
AcDbEntity
  8
0
100
AcDbBlockEnd
  0
BLOCK
  5
E1B
330
E11
100
AcDbEntity
  8
0
100
AcDbBlockBegin
  2
*D113
 70
     1
 10
0.0
 20
0.0
 30
0.0
  3
*D113
  1

  0
LINE
  5
74FD
330
E11
100
AcDbEntity
  8
cotas
100
AcDbLine
 10
-469.2625523959027
 20
1971.631536207864
 30
0.0
 11
-149.0680811060097
 21
1971.631536207864
 31
0.0
  0
LINE
  5
74FE
330
E11
100
AcDbEntity
  8
cotas
100
AcDbLine
 10
-469.2713531491494
 20
1891.649692864809
 30
0.0
 11
-149.0680811060096
 21
1891.649692864809
 31
0.0
  0
LINE
  5
74FF
330
E11
100
AcDbEntity
  8
cotas
100
AcDbLine
 10
-154.0680811060097
 20
1961.631536207864
 30
0.0
 11
-154.0680811060097
 21
1901.649692864809
 31
0.0
  0
SOLID
  5
7500
330
E11
100
AcDbEntity
  8
cotas
100
AcDbTrace
 10
-155.7347477726763
 20
1961.631536207864
 30
0.0
 11
-152.401414439343
 21
1961.631536207864
 31
0.0
 12
-154.0680811060097
 22
1971.631536207864
 32
0.0
 13
-154.0680811060097
 23
1971.631536207864
 33
0.0
  0
SOLID
  5
7501
330
E11
100
AcDbEntity
  8
cotas
100
AcDbTrace
 10
-155.7347477726763
 20
1901.649692864809
 30
0.0
 11
-152.401414439343
 21
1901.649692864809
 31
0.0
 12
-154.0680811060097
 22
1891.649692864809
 32
0.0
 13
-154.0680811060097
 23
1891.649692864809
 33
0.0
  0
MTEXT
  5
7502
330
E11
100
AcDbEntity
  8
cotas
100
AcDbMText
 10
-164.2964222745795
 20
1931.640614536336
 30
0.0
 40
10.0
 41
0.0
 71
     5
 72
     1
  1
80
  7
SANINDUSA
 11
0.0000000000000001
 21
1.0
 31
0.0
 73
     1
 44
1.0
1001
ACAD
1000
MTEXTBEGIN
1070
    73
1070
     1
1070
    44
1040
1.0
1070
    74
1070
     0
1000
MTEXTEND
  0
POINT
  5
7503
330
E11
100
AcDbEntity
  8
Defpoints
 62
     0
100
AcDbPoint
 10
-474.2625523959027
 20
1971.631536207864
 30
0.0
  0
POINT
  5
7504
330
E11
100
AcDbEntity
  8
Defpoints
 62
     0
100
AcDbPoint
 10
-474.2713531491495
 20
1891.649692864809
 30
0.0
  0
POINT
  5
7505
330
E11
100
AcDbEntity
  8
Defpoints
 62
     0
100
AcDbPoint
 10
-154.0680811060097
 20
1891.649692864809
 30
0.0
  0
ENDBLK
  5
E1C
330
E11
100
AcDbEntity
  8
0
100
AcDbBlockEnd
  0
BLOCK
  5
E27
330
E1D
100
AcDbEntity
  8
0
100
AcDbBlockBegin
  2
*D114
 70
     1
 10
0.0
 20
0.0
 30
0.0
  3
*D114
  1

  0
LINE
  5
74F4
330
E1D
100
AcDbEntity
  8
cotas
100
AcDbLine
 10
-464.2713531491494
 20
1891.649692864809
 30
0.0
 11
-149.0680811060096
 21
1891.649692864809
 31
0.0
  0
LINE
  5
74F5
330
E1D
100
AcDbEntity
  8
cotas
100
AcDbLine
 10
-469.2912131034859
 20
1811.654813797544
 30
0.0
 11
-149.0680811060097
 21
1811.654813797544
 31
0.0
  0
LINE
  5
74F6
330
E1D
100
AcDbEntity
  8
cotas
100
AcDbLine
 10
-154.0680811060096
 20
1881.649692864809
 30
0.0
 11
-154.0680811060097
 21
1821.654813797545
 31
0.0
  0
SOLID
  5
74F7
330
E1D
100
AcDbEntity
  8
cotas
100
AcDbTrace
 10
-155.7347477726763
 20
1881.649692864809
 30
0.0
 11
-152.401414439343
 21
1881.649692864809
 31
0.0
 12
-154.0680811060096
 22
1891.649692864809
 32
0.0
 13
-154.0680811060096
 23
1891.649692864809
 33
0.0
  0
SOLID
  5
74F8
330
E1D
100
AcDbEntity
  8
cotas
100
AcDbTrace
 10
-155.7347477726763
 20
1821.654813797545
 30
0.0
 11
-152.401414439343
 21
1821.654813797545
 31
0.0
 12
-154.0680811060097
 22
1811.654813797544
 32
0.0
 13
-154.0680811060097
 23
1811.654813797544
 33
0.0
  0
MTEXT
  5
74F9
330
E1D
100
AcDbEntity
  8
cotas
100
AcDbMText
 10
-164.2964222745795
 20
1851.652253331177
 30
0.0
 40
10.0
 41
0.0
 71
     5
 72
     1
  1
80
  7
SANINDUSA
 11
0.0000000000000001
 21
1.0
 31
0.0
 73
     1
 44
1.0
1001
ACAD
1000
MTEXTBEGIN
1070
    73
1070
     1
1070
    44
1040
1.0
1070
    74
1070
     0
1000
MTEXTEND
  0
POINT
  5
74FA
330
E1D
100
AcDbEntity
  8
Defpoints
 62
     0
100
AcDbPoint
 10
-469.2713531491494
 20
1891.649692864809
 30
0.0
  0
POINT
  5
74FB
330
E1D
100
AcDbEntity
  8
Defpoints
 62
     0
100
AcDbPoint
 10
-474.2912131034858
 20
1811.654813797544
 30
0.0
  0
POINT
  5
74FC
330
E1D
100
AcDbEntity
  8
Defpoints
 62
     0
100
AcDbPoint
 10
-154.0680811060097
 20
1811.654813797544
 30
0.0
  0
ENDBLK
  5
E28
330
E1D
100
AcDbEntity
  8
0
100
AcDbBlockEnd
  0
BLOCK
  5
E33
330
E29
100
AcDbEntity
  8
0
100
AcDbBlockBegin
  2
*D115
 70
     1
 10
0.0
 20
0.0
 30
0.0
  3
*D115
  1

  0
LINE
  5
74EB
330
E29
100
AcDbEntity
  8
cotas
100
AcDbLine
 10
-469.3084106410856
 20
1731.63788907044
 30
0.0
 11
-149.0680811060097
 21
1731.63788907044
 31
0.0
  0
LINE
  5
74EC
330
E29
100
AcDbEntity
  8
cotas
100
AcDbLine
 10
-469.2912131034859
 20
1811.654813797544
 30
0.0
 11
-149.0680811060097
 21
1811.654813797544
 31
0.0
  0
LINE
  5
74ED
330
E29
100
AcDbEntity
  8
cotas
100
AcDbLine
 10
-154.0680811060097
 20
1741.63788907044
 30
0.0
 11
-154.0680811060097
 21
1801.654813797545
 31
0.0
  0
SOLID
  5
74EE
330
E29
100
AcDbEntity
  8
cotas
100
AcDbTrace
 10
-155.7347477726763
 20
1741.63788907044
 30
0.0
 11
-152.401414439343
 21
1741.63788907044
 31
0.0
 12
-154.0680811060097
 22
1731.63788907044
 32
0.0
 13
-154.0680811060097
 23
1731.63788907044
 33
0.0
  0
SOLID
  5
74EF
330
E29
100
AcDbEntity
  8
cotas
100
AcDbTrace
 10
-155.7347477726763
 20
1801.654813797545
 30
0.0
 11
-152.401414439343
 21
1801.654813797545
 31
0.0
 12
-154.0680811060097
 22
1811.654813797544
 32
0.0
 13
-154.0680811060097
 23
1811.654813797544
 33
0.0
  0
MTEXT
  5
74F0
330
E29
100
AcDbEntity
  8
cotas
100
AcDbMText
 10
-164.2964222745795
 20
1771.646351433992
 30
0.0
 40
10.0
 41
0.0
 71
     5
 72
     1
  1
80
  7
SANINDUSA
 11
0.0000000000000001
 21
1.0
 31
0.0
 73
     1
 44
1.0
1001
ACAD
1000
MTEXTBEGIN
1070
    73
1070
     1
1070
    44
1040
1.0
1070
    74
1070
     0
1000
MTEXTEND
  0
POINT
  5
74F1
330
E29
100
AcDbEntity
  8
Defpoints
 62
     0
100
AcDbPoint
 10
-474.3084106410856
 20
1731.63788907044
 30
0.0
  0
POINT
  5
74F2
330
E29
100
AcDbEntity
  8
Defpoints
 62
     0
100
AcDbPoint
 10
-474.2912131034858
 20
1811.654813797544
 30
0.0
  0
POINT
  5
74F3
330
E29
100
AcDbEntity
  8
Defpoints
 62
     0
100
AcDbPoint
 10
-154.0680811060097
 20
1811.654813797544
 30
0.0
  0
ENDBLK
  5
E34
330
E29
100
AcDbEntity
  8
0
100
AcDbBlockEnd
  0
BLOCK
  5
E5A
330
E50
100
AcDbEntity
  8
0
100
AcDbBlockBegin
  2
*D116
 70
     1
 10
0.0
 20
0.0
 30
0.0
  3
*D116
  1

  0
LINE
  5
74C7
330
E50
100
AcDbEntity
  8
cotas
100
AcDbLine
 10
-469.3063249031443
 20
1571.623395009225
 30
0.0
 11
-149.0680811060097
 21
1571.623395009225
 31
0.0
  0
LINE
  5
74C8
330
E50
100
AcDbEntity
  8
cotas
100
AcDbLine
 10
-469.2181399891883
 20
1491.624096486154
 30
0.0
 11
-149.0680811060097
 21
1491.624096486154
 31
0.0
  0
LINE
  5
74C9
330
E50
100
AcDbEntity
  8
cotas
100
AcDbLine
 10
-154.0680811060097
 20
1561.623395009225
 30
0.0
 11
-154.0680811060097
 21
1501.624096486154
 31
0.0
  0
SOLID
  5
74CA
330
E50
100
AcDbEntity
  8
cotas
100
AcDbTrace
 10
-155.7347477726763
 20
1561.623395009225
 30
0.0
 11
-152.401414439343
 21
1561.623395009225
 31
0.0
 12
-154.0680811060097
 22
1571.623395009225
 32
0.0
 13
-154.0680811060097
 23
1571.623395009225
 33
0.0
  0
SOLID
  5
74CB
330
E50
100
AcDbEntity
  8
cotas
100
AcDbTrace
 10
-155.7347477726763
 20
1501.624096486154
 30
0.0
 11
-152.401414439343
 21
1501.624096486154
 31
0.0
 12
-154.0680811060097
 22
1491.624096486154
 32
0.0
 13
-154.0680811060097
 23
1491.624096486154
 33
0.0
  0
MTEXT
  5
74CC
330
E50
100
AcDbEntity
  8
cotas
100
AcDbMText
 10
-164.2964222745794
 20
1531.62374574769
 30
0.0
 40
10.0
 41
0.0
 71
     5
 72
     1
  1
80
  7
SANINDUSA
 11
0.0000000000000001
 21
1.0
 31
0.0
 73
     1
 44
1.0
1001
ACAD
1000
MTEXTBEGIN
1070
    73
1070
     1
1070
    44
1040
1.0
1070
    74
1070
     0
1000
MTEXTEND
  0
POINT
  5
74CD
330
E50
100
AcDbEntity
  8
Defpoints
 62
     0
100
AcDbPoint
 10
-474.3063249031442
 20
1571.623395009225
 30
0.0
  0
POINT
  5
74CE
330
E50
100
AcDbEntity
  8
Defpoints
 62
     0
100
AcDbPoint
 10
-474.2181399891883
 20
1491.624096486154
 30
0.0
  0
POINT
  5
74CF
330
E50
100
AcDbEntity
  8
Defpoints
 62
     0
100
AcDbPoint
 10
-154.0680811060097
 20
1491.624096486154
 30
0.0
  0
ENDBLK
  5
E5B
330
E50
100
AcDbEntity
  8
0
100
AcDbBlockEnd
  0
BLOCK
  5
E66
330
E5C
100
AcDbEntity
  8
0
100
AcDbBlockBegin
  2
*D117
 70
     1
 10
0.0
 20
0.0
 30
0.0
  3
*D117
  1

  0
LINE
  5
74BE
330
E5C
100
AcDbEntity
  8
cotas
100
AcDbLine
 10
-469.2181399891883
 20
1491.624096486154
 30
0.0
 11
-149.0680811060097
 21
1491.624096486154
 31
0.0
  0
LINE
  5
74BF
330
E5C
100
AcDbEntity
  8
cotas
100
AcDbLine
 10
-469.2580450077398
 20
1411.623035045843
 30
0.0
 11
-149.0680811060097
 21
1411.623035045843
 31
0.0
  0
LINE
  5
74C0
330
E5C
100
AcDbEntity
  8
cotas
100
AcDbLine
 10
-154.0680811060096
 20
1481.624096486154
 30
0.0
 11
-154.0680811060097
 21
1421.623035045843
 31
0.0
  0
SOLID
  5
74C1
330
E5C
100
AcDbEntity
  8
cotas
100
AcDbTrace
 10
-155.7347477726763
 20
1481.624096486154
 30
0.0
 11
-152.401414439343
 21
1481.624096486154
 31
0.0
 12
-154.0680811060096
 22
1491.624096486154
 32
0.0
 13
-154.0680811060096
 23
1491.624096486154
 33
0.0
  0
SOLID
  5
74C2
330
E5C
100
AcDbEntity
  8
cotas
100
AcDbTrace
 10
-155.7347477726763
 20
1421.623035045843
 30
0.0
 11
-152.401414439343
 21
1421.623035045843
 31
0.0
 12
-154.0680811060097
 22
1411.623035045843
 32
0.0
 13
-154.0680811060097
 23
1411.623035045843
 33
0.0
  0
MTEXT
  5
74C3
330
E5C
100
AcDbEntity
  8
cotas
100
AcDbMText
 10
-164.2964222745794
 20
1451.623565765999
 30
0.0
 40
10.0
 41
0.0
 71
     5
 72
     1
  1
80
  7
SANINDUSA
 11
0.0000000000000001
 21
1.0
 31
0.0
 73
     1
 44
1.0
1001
ACAD
1000
MTEXTBEGIN
1070
    73
1070
     1
1070
    44
1040
1.0
1070
    74
1070
     0
1000
MTEXTEND
  0
POINT
  5
74C4
330
E5C
100
AcDbEntity
  8
Defpoints
 62
     0
100
AcDbPoint
 10
-474.2181399891883
 20
1491.624096486154
 30
0.0
  0
POINT
  5
74C5
330
E5C
100
AcDbEntity
  8
Defpoints
 62
     0
100
AcDbPoint
 10
-474.2580450077398
 20
1411.623035045843
 30
0.0
  0
POINT
  5
74C6
330
E5C
100
AcDbEntity
  8
Defpoints
 62
     0
100
AcDbPoint
 10
-154.0680811060097
 20
1411.623035045843
 30
0.0
  0
ENDBLK
  5
E67
330
E5C
100
AcDbEntity
  8
0
100
AcDbBlockEnd
  0
BLOCK
  5
E7B
330
E71
100
AcDbEntity
  8
0
100
AcDbBlockBegin
  2
*D118
 70
     1
 10
0.0
 20
0.0
 30
0.0
  3
*D118
  1

  0
LINE
  5
74AC
330
E71
100
AcDbEntity
  8
cotas
100
AcDbLine
 10
-469.2625523959027
 20
1971.631536207864
 30
0.0
 11
-149.0680811060097
 21
1971.631536207864
 31
0.0
  0
LINE
  5
74AD
330
E71
100
AcDbEntity
  8
cotas
100
AcDbLine
 10
-184.7663487932773
 20
2141.631359367519
 30
0.0
 11
-149.0680811060097
 21
2141.631359367519
 31
0.0
  0
LINE
  5
74AE
330
E71
100
AcDbEntity
  8
cotas
100
AcDbLine
 10
-154.0680811060097
 20
1981.631536207864
 30
0.0
 11
-154.0680811060097
 21
2131.631359367519
 31
0.0
  0
SOLID
  5
74AF
330
E71
100
AcDbEntity
  8
cotas
100
AcDbTrace
 10
-155.7347477726764
 20
1981.631536207864
 30
0.0
 11
-152.4014144393431
 21
1981.631536207864
 31
0.0
 12
-154.0680811060097
 22
1971.631536207864
 32
0.0
 13
-154.0680811060097
 23
1971.631536207864
 33
0.0
  0
SOLID
  5
74B0
330
E71
100
AcDbEntity
  8
cotas
100
AcDbTrace
 10
-155.7347477726763
 20
2131.631359367519
 30
0.0
 11
-152.401414439343
 21
2131.631359367519
 31
0.0
 12
-154.0680811060097
 22
2141.631359367519
 32
0.0
 13
-154.0680811060097
 23
2141.631359367519
 33
0.0
  0
MTEXT
  5
74B1
330
E71
100
AcDbEntity
  8
cotas
100
AcDbMText
 10
-164.2729165660503
 20
2056.631447787692
 30
0.0
 40
10.0
 41
0.0
 71
     5
 72
     1
  1
170
  7
SANINDUSA
 11
0.0000000000000001
 21
1.0
 31
0.0
 73
     1
 44
1.0
1001
ACAD
1000
MTEXTBEGIN
1070
    73
1070
     1
1070
    44
1040
1.0
1070
    74
1070
     0
1000
MTEXTEND
  0
POINT
  5
74B2
330
E71
100
AcDbEntity
  8
Defpoints
 62
     0
100
AcDbPoint
 10
-474.2625523959027
 20
1971.631536207864
 30
0.0
  0
POINT
  5
74B3
330
E71
100
AcDbEntity
  8
Defpoints
 62
     0
100
AcDbPoint
 10
-189.7663487932773
 20
2141.631359367519
 30
0.0
  0
POINT
  5
74B4
330
E71
100
AcDbEntity
  8
Defpoints
 62
     0
100
AcDbPoint
 10
-154.0680811060097
 20
2141.631359367519
 30
0.0
  0
ENDBLK
  5
E7C
330
E71
100
AcDbEntity
  8
0
100
AcDbBlockEnd
  0
BLOCK
  5
EB4
330
EAD
100
AcDbEntity
  8
0
100
AcDbBlockBegin
  2
*D119
 70
     1
 10
0.0
 20
0.0
 30
0.0
  3
*D119
  1

  0
LINE
  5
7476
330
EAD
100
AcDbEntity
  8
cotas
100
AcDbLine
 10
-159.2552780156055
 20
1205.776547955707
 30
0.0
 11
-180.7908497373768
 21
1234.613022681543
 31
0.0
  0
MTEXT
  5
7477
330
EAD
100
AcDbEntity
  8
cotas
100
AcDbMText
 10
-158.9356017806005
 20
1222.234627121577
 30
0.0
 40
10.0
 41
0.0
 71
     5
 72
     1
  1
R5
  7
SANINDUSA
 11
0.5983666037267675
 21
-0.8012224457318289
 31
0.0
 73
     1
 44
1.0
1001
ACAD
1000
MTEXTBEGIN
1070
    73
1070
     1
1070
    44
1040
1.0
1070
    74
1070
     0
1000
MTEXTEND
  0
LINE
  5
7478
330
EAD
100
AcDbEntity
  8
cotas
100
AcDbLine
 10
-189.7663487932775
 20
1246.631359367519
 30
0.0
 11
-186.7745157746444
 21
1242.625247138861
 31
0.0
  0
SOLID
  5
7479
330
EAD
100
AcDbEntity
  8
cotas
100
AcDbTrace
 10
-179.4554789944904
 20
1235.61030035442
 30
0.0
 11
-182.1262204802631
 21
1233.615745008665
 31
0.0
 12
-186.7745157746444
 22
1242.625247138861
 32
0.0
 13
-186.7745157746444
 23
1242.625247138861
 33
0.0
  0
POINT
  5
747A
330
EAD
100
AcDbEntity
  8
Defpoints
 62
     0
100
AcDbPoint
 10
-186.7745157746444
 20
1242.625247138861
 30
0.0
  0
POINT
  5
747B
330
EAD
100
AcDbEntity
  8
Defpoints
 62
     0
100
AcDbPoint
 10
-189.7663487932775
 20
1246.631359367519
 30
0.0
  0
ENDBLK
  5
EB5
330
EAD
100
AcDbEntity
  8
0
100
AcDbBlockEnd
  0
BLOCK
  5
EBD
330
EB6
100
AcDbEntity
  8
0
100
AcDbBlockBegin
  2
*D120
 70
     1
 10
0.0
 20
0.0
 30
0.0
  3
*D120
  1

  0
LINE
  5
7470
330
EB6
100
AcDbEntity
  8
cotas
100
AcDbLine
 10
-1615.525550639415
 20
1210.351974523259
 30
0.0
 11
-1590.232260831625
 21
1235.9561268173
 31
0.0
  0
MTEXT
  5
7471
330
EB6
100
AcDbEntity
  8
cotas
100
AcDbMText
 10
-1613.580958616335
 20
1226.697895255632
 30
0.0
 40
10.0
 41
0.0
 71
     5
 72
     1
  1
R5
  7
SANINDUSA
 11
0.7027749304683536
 21
0.7114122553802408
 31
0.0
 73
     1
 44
1.0
1001
ACAD
1000
MTEXTBEGIN
1070
    73
1070
     1
1070
    44
1040
1.0
1070
    74
1070
     0
1000
MTEXTEND
  0
LINE
  5
7472
330
EB6
100
AcDbEntity
  8
cotas
100
AcDbLine
 10
-1579.6906368746
 20
1246.627310648004
 30
0.0
 11
-1583.204511526942
 21
1243.070249371102
 31
0.0
  0
SOLID
  5
7473
330
EB6
100
AcDbEntity
  8
cotas
100
AcDbTrace
 10
-1591.417947923926
 20
1237.12741836808
 30
0.0
 11
-1589.046573739325
 21
1234.784835266519
 31
0.0
 12
-1583.204511526942
 22
1243.070249371102
 32
0.0
 13
-1583.204511526942
 23
1243.070249371102
 33
0.0
  0
POINT
  5
7474
330
EB6
100
AcDbEntity
  8
Defpoints
 62
     0
100
AcDbPoint
 10
-1583.204511526942
 20
1243.070249371102
 30
0.0
  0
POINT
  5
7475
330
EB6
100
AcDbEntity
  8
Defpoints
 62
     0
100
AcDbPoint
 10
-1579.6906368746
 20
1246.627310648004
 30
0.0
  0
ENDBLK
  5
EBE
330
EB6
100
AcDbEntity
  8
0
100
AcDbBlockEnd
  0
BLOCK
  5
ECE
330
EC7
100
AcDbEntity
  8
0
100
AcDbBlockBegin
  2
*D121
 70
     1
 10
0.0
 20
0.0
 30
0.0
  3
*D121
  1

  0
LINE
  5
7462
330
EC7
100
AcDbEntity
  8
1
100
AcDbLine
 10
4279.229718930167
 20
1603.159353411133
 30
0.0
 11
4251.738422257371
 21
1649.032036738486
 31
0.0
  0
MTEXT
  5
7463
330
EC7
100
AcDbEntity
  8
1
100
AcDbMText
 10
4278.866379476864
 20
1623.251599889062
 30
0.0
 40
10.0
 41
0.0
 71
     5
 72
     1
  1
R17
  7
SANINDUSA
 11
0.5140514091463283
 21
-0.857759376955259
 31
0.0
 73
     1
 44
1.0
1001
ACAD
1000
MTEXTBEGIN
1070
    73
1070
     1
1070
    44
1040
1.0
1070
    74
1070
     0
1000
MTEXTEND
  0
LINE
  5
7464
330
EC7
100
AcDbEntity
  8
1
100
AcDbLine
 10
4237.859101232389
 20
1672.191428081701
 30
0.0
 11
4246.597908165909
 21
1657.609630508039
 31
0.0
  0
SOLID
  5
7465
330
EC7
100
AcDbEntity
  8
1
100
AcDbTrace
 10
4253.168021218964
 20
1649.888789087064
 30
0.0
 11
4250.30882329578
 21
1648.175284389909
 31
0.0
 12
4246.597908165909
 22
1657.609630508039
 32
0.0
 13
4246.597908165909
 23
1657.609630508039
 33
0.0
  0
POINT
  5
7466
330
EC7
100
AcDbEntity
  8
Defpoints
 62
     0
100
AcDbPoint
 10
4246.597908165909
 20
1657.609630508039
 30
0.0
  0
POINT
  5
7467
330
EC7
100
AcDbEntity
  8
Defpoints
 62
     0
100
AcDbPoint
 10
4237.859101232389
 20
1672.191428081701
 30
0.0
  0
ENDBLK
  5
ECF
330
EC7
100
AcDbEntity
  8
0
100
AcDbBlockEnd
  0
BLOCK
  5
EDA
330
ED0
100
AcDbEntity
  8
0
100
AcDbBlockBegin
  2
*D122
 70
     1
 10
0.0
 20
0.0
 30
0.0
  3
*D122
  1

  0
LINE
  5
7459
330
ED0
100
AcDbEntity
  8
1
100
AcDbLine
 10
4332.79756433203
 20
1756.044344537608
 30
0.0
 11
4364.512702677526
 21
1756.044344537608
 31
0.0
  0
LINE
  5
745A
330
ED0
100
AcDbEntity
  8
1
100
AcDbLine
 10
4259.366224328398
 20
1657.784537082882
 30
0.0
 11
4364.512702677526
 21
1657.784537082882
 31
0.0
  0
LINE
  5
745B
330
ED0
100
AcDbEntity
  8
1
100
AcDbLine
 10
4359.512702677526
 20
1746.044344537608
 30
0.0
 11
4359.512702677526
 21
1667.784537082883
 31
0.0
  0
SOLID
  5
745C
330
ED0
100
AcDbEntity
  8
1
100
AcDbTrace
 10
4357.846036010859
 20
1746.044344537608
 30
0.0
 11
4361.179369344193
 21
1746.044344537608
 31
0.0
 12
4359.512702677526
 22
1756.044344537608
 32
0.0
 13
4359.512702677526
 23
1756.044344537608
 33
0.0
  0
SOLID
  5
745D
330
ED0
100
AcDbEntity
  8
1
100
AcDbTrace
 10
4357.846036010859
 20
1667.784537082883
 30
0.0
 11
4361.179369344193
 21
1667.784537082883
 31
0.0
 12
4359.512702677526
 22
1657.784537082882
 32
0.0
 13
4359.512702677526
 23
1657.784537082882
 33
0.0
  0
MTEXT
  5
745E
330
ED0
100
AcDbEntity
  8
1
100
AcDbMText
 10
4348.156087499555
 20
1706.914440810246
 30
0.0
 40
10.0
 41
0.0
 71
     5
 72
     1
  1
98,3
  7
SANINDUSA
 11
0.0000000000000001
 21
1.0
 31
0.0
 73
     1
 44
1.0
1001
ACAD
1000
MTEXTBEGIN
1070
    73
1070
     1
1070
    44
1040
1.0
1070
    74
1070
     0
1000
MTEXTEND
  0
POINT
  5
745F
330
ED0
100
AcDbEntity
  8
Defpoints
 62
     0
100
AcDbPoint
 10
4327.797564332029
 20
1756.044344537608
 30
0.0
  0
POINT
  5
7460
330
ED0
100
AcDbEntity
  8
Defpoints
 62
     0
100
AcDbPoint
 10
4254.366224328398
 20
1657.784537082882
 30
0.0
  0
POINT
  5
7461
330
ED0
100
AcDbEntity
  8
Defpoints
 62
     0
100
AcDbPoint
 10
4359.512702677526
 20
1657.784537082882
 30
0.0
  0
ENDBLK
  5
EDB
330
ED0
100
AcDbEntity
  8
0
100
AcDbBlockEnd
  0
BLOCK
  5
EE6
330
EDC
100
AcDbEntity
  8
0
100
AcDbBlockBegin
  2
*D123
 70
     1
 10
0.0
 20
0.0
 30
0.0
  3
*D123
  1

  0
LINE
  5
7450
330
EDC
100
AcDbEntity
  8
1
100
AcDbLine
 10
-1586.862089802193
 20
2143.721918439393
 30
0.0
 11
-1620.464143919272
 21
2143.721918439393
 31
0.0
  0
LINE
  5
7451
330
EDC
100
AcDbEntity
  8
1
100
AcDbLine
 10
-1591.861328286861
 20
2048.219072327213
 30
0.0
 11
-1620.464143919272
 21
2048.219072327213
 31
0.0
  0
LINE
  5
7452
330
EDC
100
AcDbEntity
  8
1
100
AcDbLine
 10
-1615.464143919272
 20
2133.721918439393
 30
0.0
 11
-1615.464143919272
 21
2058.219072327212
 31
0.0
  0
SOLID
  5
7453
330
EDC
100
AcDbEntity
  8
1
100
AcDbTrace
 10
-1617.130810585939
 20
2133.721918439393
 30
0.0
 11
-1613.797477252605
 21
2133.721918439393
 31
0.0
 12
-1615.464143919272
 22
2143.721918439393
 32
0.0
 13
-1615.464143919272
 23
2143.721918439393
 33
0.0
  0
SOLID
  5
7454
330
EDC
100
AcDbEntity
  8
1
100
AcDbTrace
 10
-1617.130810585939
 20
2058.219072327212
 30
0.0
 11
-1613.797477252605
 21
2058.219072327212
 31
0.0
 12
-1615.464143919272
 22
2048.219072327213
 32
0.0
 13
-1615.464143919272
 23
2048.219072327213
 33
0.0
  0
MTEXT
  5
7455
330
EDC
100
AcDbEntity
  8
1
100
AcDbMText
 10
-1626.807327263799
 20
2095.970495383302
 30
0.0
 40
10.0
 41
0.0
 71
     5
 72
     1
  1
95,5
  7
SANINDUSA
 11
0.0000000000000001
 21
1.0
 31
0.0
 73
     1
 44
1.0
1001
ACAD
1000
MTEXTBEGIN
1070
    73
1070
     1
1070
    44
1040
1.0
1070
    74
1070
     0
1000
MTEXTEND
  0
POINT
  5
7456
330
EDC
100
AcDbEntity
  8
Defpoints
 62
     0
100
AcDbPoint
 10
-1581.862089802193
 20
2143.721918439393
 30
0.0000000000003059
  0
POINT
  5
7457
330
EDC
100
AcDbEntity
  8
Defpoints
 62
     0
100
AcDbPoint
 10
-1586.861328286861
 20
2048.219072327213
 30
-0.000000000000102
  0
POINT
  5
7458
330
EDC
100
AcDbEntity
  8
Defpoints
 62
     0
100
AcDbPoint
 10
-1615.464143919272
 20
2048.219072327213
 30
0.0
  0
ENDBLK
  5
EE7
330
EDC
100
AcDbEntity
  8
0
100
AcDbBlockEnd
  0
ENDSEC
  0
SECTION
  2
ENTITIES
  0
LINE
  5
7CB
330
23
100
AcDbEntity
  8
SANINDUSA
100
AcDbLine
 10
2026.05051517432
 20
1636.550050236084
 30
0.0
 11
2027.440756803417
 21
1636.550050236084
 31
0.0
  0
ARC
  5
7D0
330
23
100
AcDbEntity
  8
SANINDUSA
100
AcDbCircle
 10
2026.050516989371
 20
1636.545049209066
 30
0.0
 40
0.0050010538408705
100
AcDbArc
 50
90.02079442259093
 51
179.9796810570359
  0
ARC
  5
7D2
330
23
100
AcDbEntity
  8
SANINDUSA
100
AcDbCircle
 10
2027.440754982864
 20
1636.545049236703
 30
0.0
 40
0.0050010262220429
100
AcDbArc
 50
0.0200024125167086
 51
89.97863133590767
  0
LINE
  5
7D3
330
23
100
AcDbEntity
  8
SANINDUSA
100
AcDbLine
 10
2027.445756041893
 20
1636.545050997608
 30
0.0
 11
2027.445756041893
 21
1635.654809368511
 31
0.0
  0
LINE
  5
7D8
330
23
100
AcDbEntity
  8
SANINDUSA
100
AcDbLine
 10
2026.045515935845
 20
1635.654809368511
 30
0.0
 11
2026.045515935845
 21
1636.545050997608
 31
0.0
  0
ELLIPSE
  5
7E3
330
23
100
AcDbEntity
  8
SANINDUSA
100
AcDbEllipse
 10
2026.135892625556
 20
1636.459673546788
 30
0.0
 11
-0.0141714282337242
 21
0.0141714282402219
 31
0.0
210
0.0
220
0.0
230
1.0
 40
0.9979329808716316
 41
5.498396131596733
 42
7.067974482762344
  0
ELLIPSE
  5
7E6
330
23
100
AcDbEntity
  8
SANINDUSA
100
AcDbEllipse
 10
2027.355379368954
 20
1636.459673546788
 30
0.0
 11
0.0141714282369861
 21
0.0141714282369861
 31
0.0
210
0.0
220
0.0
230
1.0
 40
0.9979329808707113
 41
5.498396131367766
 42
7.067974482991433
  0
LINE
  5
7E8
330
23
100
AcDbEntity
  8
SANINDUSA
100
AcDbLine
 10
2027.35541227432
 20
1636.479694268695
 30
0.0
 11
2026.135859720189
 21
1636.479694268695
 31
0.0
  0
LINE
  5
7E9
330
23
100
AcDbEntity
  8
SANINDUSA
100
AcDbLine
 10
2026.115871903649
 20
1636.459706452164
 30
0.0
 11
2026.115871903319
 21
1635.740153913975
 31
0.0
  0
LINE
  5
7EC
330
23
100
AcDbEntity
  8
SANINDUSA
100
AcDbLine
 10
2027.375400090861
 20
1635.740153913974
 30
0.0
 11
2027.375400090861
 21
1636.459706452155
 31
0.0
  0
ELLIPSE
  5
7EE
330
23
100
AcDbEntity
  8
SANINDUSA
100
AcDbEllipse
 10
2027.355379368954
 20
1635.740186819341
 30
0.0
 11
0.0141714282370339
 21
-0.0141714282369388
 31
0.0
210
0.0
220
0.0
230
1.0
 40
0.9979329808706911
 41
5.49839613137116
 42
7.067974482988092
  0
ELLIPSE
  5
7EF
330
23
100
AcDbEntity
  8
SANINDUSA
100
AcDbEllipse
 10
2026.135892625226
 20
1635.740186819333
 30
0.0
 11
0.0141714282402015
 21
0.0141714282337986
 31
0.0
210
0.0
220
0.0
230
1.0
 40
0.997932980869738
 41
2.356803477545526
 42
3.926381829634028
  0
LINE
  5
7F1
330
23
100
AcDbEntity
  8
SANINDUSA
100
AcDbLine
 10
2026.135859719859
 20
1635.720166097425
 30
0.0
 11
2027.35541227432
 21
1635.720166097434
 31
0.0
  0
ARC
  5
7F3
330
23
100
AcDbEntity
  8
SANINDUSA
100
AcDbCircle
 10
2027.440755013964
 20
1635.654811124825
 30
0.0
 40
0.0050009951254231
100
AcDbArc
 50
270.0210124907975
 51
359.9798782811559
  0
LINE
  5
7F4
330
23
100
AcDbEntity
  8
SANINDUSA
100
AcDbLine
 10
2027.440756803417
 20
1635.649810130036
 30
0.0
 11
2026.05051517432
 21
1635.649810130036
 31
0.0
  0
ARC
  5
7F6
330
23
100
AcDbEntity
  8
SANINDUSA
100
AcDbCircle
 10
2026.050516958271
 20
1635.654811152463
 30
0.0
 40
0.0050010227454459
100
AcDbArc
 50
180.0204382492961
 51
269.9795617507039
  0
ARC
  5
831
330
23
100
AcDbEntity
  8
SANINDUSA
100
AcDbCircle
 10
2026.158721862699
 20
1635.767724540781
 30
0.0
 40
0.0108876160809712
100
AcDbArc
 50
179.9867108546625
 51
269.9885489901776
  0
ARC
  5
834
330
23
100
AcDbEntity
  8
SANINDUSA
100
AcDbCircle
 10
2026.158722203377
 20
1636.432135490771
 30
0.0
 40
0.0108879566823751
100
AcDbArc
 50
90.01324340560072
 51
180.0114183497476
  0
LINE
  5
836
330
23
100
AcDbEntity
  8
SANINDUSA
100
AcDbLine
 10
2026.147834244668
 20
1635.767727069747
 30
0.0
 11
2026.147834244668
 21
1636.432133296372
 31
0.0
  0
LINE
  5
838
330
23
100
AcDbEntity
  8
SANINDUSA
100
AcDbLine
 10
2026.587523957388
 20
1635.756836925178
 30
0.0
 11
2026.158719684519
 21
1635.756836925178
 31
0.0
  0
LINE
  5
839
330
23
100
AcDbEntity
  8
SANINDUSA
100
AcDbLine
 10
2026.158719684519
 20
1636.443023440942
 30
0.0
 11
2026.58755012605
 21
1636.443023440942
 31
0.0
  0
LWPOLYLINE
  5
848
330
23
100
AcDbEntity
  8
SANINDUSA
100
AcDbPolyline
 90
        3
 70
   128
 43
0.0
 10
2026.587550153888
 20
1636.443023447163
 10
2026.593637397445
 20
1636.442910496361
 10
2026.599716892398
 20
1636.442624692089
  0
LWPOLYLINE
  5
849
330
23
100
AcDbEntity
  8
SANINDUSA
100
AcDbPolyline
 90
        3
 70
   128
 43
0.0
 10
2026.59971665398
 20
1635.757237095601
 10
2026.59658973471
 20
1635.75707564152
 10
2026.587523927845
 20
1635.756836924917
  0
LWPOLYLINE
  5
84B
330
23
100
AcDbEntity
  8
SANINDUSA
100
AcDbPolyline
 90
        5
 70
   128
 43
0.0
 10
2026.610768904842
 20
1636.432194594509
 10
2026.610770275749
 20
1636.384190920956
 10
2026.610654165901
 20
1636.192187790043
 10
2026.610662272132
 20
1635.979925606616
 10
2026.610763540424
 20
1635.767662454612
  0
ARC
  5
84E
330
23
100
AcDbEntity
  8
SANINDUSA
100
AcDbCircle
 10
2026.600614237552
 20
1636.4321945584
 30
0.0
 40
0.0101546672901776
100
AcDbArc
 50
0.0002037378853453
 51
72.92629468695271
  0
ARC
  5
850
330
23
100
AcDbEntity
  8
SANINDUSA
100
AcDbCircle
 10
2026.600614267445
 20
1635.767662182733
 30
0.0
 40
0.0101492729818724
100
AcDbArc
 50
287.0944990640019
 51
0.0015348410359851
  0
LINE
  5
851
330
23
100
AcDbEntity
  8
SANINDUSA
100
AcDbLine
 10
2026.602116905884
 20
1635.757553732405
 30
0.0
 11
2026.599716657771
 21
1635.757237099162
 31
0.0
  0
LWPOLYLINE
  5
852
330
23
100
AcDbEntity
  8
SANINDUSA
100
AcDbPolyline
 90
        3
 70
   128
 43
0.0
 10
2026.599716892398
 20
1636.442624692089
 10
2026.600156893886
 20
1636.442608479626
 10
2026.602101197399
 20
1636.442311767704
  0
LINE
  5
853
330
23
100
AcDbEntity
  8
SANINDUSA
100
AcDbLine
 10
2026.60210122549
 20
1636.442311774924
 30
0.0
 11
2026.603595683499
 21
1636.441901707258
 31
0.0
  0
LINE
  5
854
330
23
100
AcDbEntity
  8
SANINDUSA
100
AcDbLine
 10
2026.603597628897
 20
1635.75796129319
 30
0.0
 11
2026.602116905884
 21
1635.757553732405
 31
0.0
  0
CIRCLE
  5
874
330
23
100
AcDbEntity
  8
SANINDUSA
100
AcDbCircle
 10
2026.717313414123
 20
1636.37993273067
 30
0.0
 40
0.0107489677776259
  0
CIRCLE
  5
876
330
23
100
AcDbEntity
  8
SANINDUSA
100
AcDbCircle
 10
2026.717311301631
 20
1635.819926002987
 30
0.0
 40
0.0107490537155165
  0
CIRCLE
  5
878
330
23
100
AcDbEntity
  8
SANINDUSA
100
AcDbCircle
 10
2026.71730536114
 20
1636.299946256054
 30
0.0
 40
0.0107488551267432
  0
CIRCLE
  5
87A
330
23
100
AcDbEntity
  8
SANINDUSA
100
AcDbCircle
 10
2026.717301411308
 20
1635.899913227839
 30
0.0
 40
0.0107495863793257
  0
CIRCLE
  5
87D
330
23
100
AcDbEntity
  8
SANINDUSA
100
AcDbCircle
 10
2026.71728551252
 20
1636.219952996791
 30
0.0
 40
0.0107495711481791
  0
CIRCLE
  5
87F
330
23
100
AcDbEntity
  8
SANINDUSA
100
AcDbCircle
 10
2026.797300482252
 20
1636.379932208833
 30
0.0
 40
0.0107488295417754
  0
CIRCLE
  5
882
330
23
100
AcDbEntity
  8
SANINDUSA
100
AcDbCircle
 10
2026.797298534413
 20
1635.819926424729
 30
0.0
 40
0.0107488700359289
  0
CIRCLE
  5
884
330
23
100
AcDbEntity
  8
SANINDUSA
100
AcDbCircle
 10
2026.717281093117
 20
1635.979909086364
 30
0.0
 40
0.010750712059125
  0
CIRCLE
  5
887
330
23
100
AcDbEntity
  8
SANINDUSA
100
AcDbCircle
 10
2026.797292588818
 20
1636.299947479492
 30
0.0
 40
0.0107485573610358
  0
CIRCLE
  5
8B7
330
23
100
AcDbEntity
  8
SANINDUSA
100
AcDbCircle
 10
2026.797288717754
 20
1635.899911930744
 30
0.0
 40
0.0107492694051215
  0
CIRCLE
  5
8B9
330
23
100
AcDbEntity
  8
SANINDUSA
100
AcDbCircle
 10
2026.717265622869
 20
1636.139943047782
 30
0.0
 40
0.0107510426295834
  0
CIRCLE
  5
8BB
330
23
100
AcDbEntity
  8
SANINDUSA
100
AcDbCircle
 10
2026.717263662943
 20
1636.059921670019
 30
0.0
 40
0.0107515717124271
  0
CIRCLE
  5
8BD
330
23
100
AcDbEntity
  8
SANINDUSA
100
AcDbCircle
 10
2026.877283859896
 20
1636.379933067004
 30
0.0
 40
0.0107486267316527
  0
CIRCLE
  5
8BF
330
23
100
AcDbEntity
  8
SANINDUSA
100
AcDbCircle
 10
2026.797271675164
 20
1636.21995623486
 30
0.0
 40
0.0107493847748225
  0
CIRCLE
  5
8C1
330
23
100
AcDbEntity
  8
SANINDUSA
100
AcDbCircle
 10
2026.877282249806
 20
1635.81992591209
 30
0.0
 40
0.0107488659065334
  0
CIRCLE
  5
8C3
330
23
100
AcDbEntity
  8
SANINDUSA
100
AcDbCircle
 10
2026.797266767976
 20
1635.979905760659
 30
0.0
 40
0.0107505962094335
  0
CIRCLE
  5
8C5
330
23
100
AcDbEntity
  8
SANINDUSA
100
AcDbCircle
 10
2026.877275922227
 20
1636.29994754052
 30
0.0
 40
0.0107483390920891
  0
CIRCLE
  5
8C7
330
23
100
AcDbEntity
  8
SANINDUSA
100
AcDbCircle
 10
2026.877272603549
 20
1635.89991162533
 30
0.0
 40
0.0107489755739952
  0
CIRCLE
  5
8C9
330
23
100
AcDbEntity
  8
SANINDUSA
100
AcDbCircle
 10
2026.797249028641
 20
1636.139945340014
 30
0.0
 40
0.0107513481229396
  0
CIRCLE
  5
8CB
330
23
100
AcDbEntity
  8
SANINDUSA
100
AcDbCircle
 10
2026.797246393165
 20
1636.059919270942
 30
0.0
 40
0.0107520759435071
  0
CIRCLE
  5
8CD
330
23
100
AcDbEntity
  8
SANINDUSA
100
AcDbCircle
 10
2026.877255854234
 20
1636.219957680593
 30
0.0
 40
0.0107492147696327
  0
CIRCLE
  5
8CF
330
23
100
AcDbEntity
  8
SANINDUSA
100
AcDbCircle
 10
2026.957261887964
 20
1636.379936009246
 30
0.0
 40
0.0107486476388394
  0
CIRCLE
  5
8D1
330
23
100
AcDbEntity
  8
SANINDUSA
100
AcDbCircle
 10
2026.957260691387
 20
1635.819923621529
 30
0.0
 40
0.0107491288709762
  0
CIRCLE
  5
8D3
330
23
100
AcDbEntity
  8
SANINDUSA
100
AcDbCircle
 10
2026.877250866331
 20
1635.97990337267
 30
0.0
 40
0.0107504475081384
  0
CIRCLE
  5
8D5
330
23
100
AcDbEntity
  8
SANINDUSA
100
AcDbCircle
 10
2026.957253175009
 20
1636.299946284234
 30
0.0
 40
0.0107483601693954
  0
CIRCLE
  5
8D7
330
23
100
AcDbEntity
  8
SANINDUSA
100
AcDbCircle
 10
2026.957251049037
 20
1635.899912972464
 30
0.0
 40
0.0107487575860444
  0
CIRCLE
  5
8D9
330
23
100
AcDbEntity
  8
SANINDUSA
100
AcDbCircle
 10
2026.877232285902
 20
1636.139947773414
 30
0.0
 40
0.010751444522122
  0
CIRCLE
  5
8DB
330
23
100
AcDbEntity
  8
SANINDUSA
100
AcDbCircle
 10
2026.877229270781
 20
1636.059918130272
 30
0.0
 40
0.0107522538826042
  0
CIRCLE
  5
8DD
330
23
100
AcDbEntity
  8
SANINDUSA
100
AcDbCircle
 10
2026.957236469879
 20
1636.219956603028
 30
0.0
 40
0.0107490318495023
  0
CIRCLE
  5
8DF
330
23
100
AcDbEntity
  8
SANINDUSA
100
AcDbCircle
 10
2026.957232349731
 20
1635.979903795101
 30
0.0
 40
0.0107500524980374
  0
CIRCLE
  5
8E1
330
23
100
AcDbEntity
  8
SANINDUSA
100
AcDbCircle
 10
2027.037234817378
 20
1636.379941307232
 30
0.0
 40
0.0107491181626621
  0
CIRCLE
  5
8E3
330
23
100
AcDbEntity
  8
SANINDUSA
100
AcDbCircle
 10
2027.03723420468
 20
1635.819919411259
 30
0.0
 40
0.0107496113574816
  0
CIRCLE
  5
8E5
330
23
100
AcDbEntity
  8
SANINDUSA
100
AcDbCircle
 10
2027.037224828894
 20
1636.299943990051
 30
0.0
 40
0.0107486157614528
  0
CIRCLE
  5
8E7
330
23
100
AcDbEntity
  8
SANINDUSA
100
AcDbCircle
 10
2027.03722407081
 20
1635.899916183037
 30
0.0
 40
0.0107487777617694
  0
CIRCLE
  5
8E9
330
23
100
AcDbEntity
  8
SANINDUSA
100
AcDbCircle
 10
2026.957215239671
 20
1636.139948588267
 30
0.0
 40
0.0107514270283799
  0
CIRCLE
  5
8EB
330
23
100
AcDbEntity
  8
SANINDUSA
100
AcDbCircle
 10
2026.957211762259
 20
1636.059917688888
 30
0.0
 40
0.0107524007358432
  0
CIRCLE
  5
8ED
330
23
100
AcDbEntity
  8
SANINDUSA
100
AcDbCircle
 10
2027.037212995765
 20
1636.219952297609
 30
0.0
 40
0.010749124024471
  0
CIRCLE
  5
8EF
330
23
100
AcDbEntity
  8
SANINDUSA
100
AcDbCircle
 10
2027.037210837359
 20
1635.979907094388
 30
0.0
 40
0.0107496134843853
  0
CIRCLE
  5
8F1
330
23
100
AcDbEntity
  8
SANINDUSA
100
AcDbCircle
 10
2027.117209274846
 20
1636.379948444158
 30
0.0
 40
0.0107500276394824
  0
CIRCLE
  5
8F3
330
23
100
AcDbEntity
  8
SANINDUSA
100
AcDbCircle
 10
2027.117208681249
 20
1635.819912548296
 30
0.0
 40
0.0107509785322807
  0
CIRCLE
  5
8F5
330
23
100
AcDbEntity
  8
SANINDUSA
100
AcDbCircle
 10
2027.037197585547
 20
1636.13994682565
 30
0.0
 40
0.0107510636832573
  0
CIRCLE
  5
8F7
330
23
100
AcDbEntity
  8
SANINDUSA
100
AcDbCircle
 10
2027.037194055162
 20
1636.059919414013
 30
0.0
 40
0.0107520905446663
  0
CIRCLE
  5
8F9
330
23
100
AcDbEntity
  8
SANINDUSA
100
AcDbCircle
 10
2027.117198240805
 20
1636.299941167648
 30
0.0
 40
0.0107493783535286
  0
CIRCLE
  5
8FB
330
23
100
AcDbEntity
  8
SANINDUSA
100
AcDbCircle
 10
2027.117198238959
 20
1635.899919700301
 30
0.0
 40
0.0107496185771035
  0
CIRCLE
  5
8FD
330
23
100
AcDbEntity
  8
SANINDUSA
100
AcDbCircle
 10
2027.11719145236
 20
1636.219947826387
 30
0.0
 40
0.0107491334380451
  0
CIRCLE
  5
8FF
330
23
100
AcDbEntity
  8
SANINDUSA
100
AcDbCircle
 10
2027.117191647476
 20
1635.979911309123
 30
0.0
 40
0.0107494151424929
  0
CIRCLE
  5
901
330
23
100
AcDbEntity
  8
SANINDUSA
100
AcDbCircle
 10
2027.117178836909
 20
1636.139940946883
 30
0.0
 40
0.0107509008179449
  0
CIRCLE
  5
903
330
23
100
AcDbEntity
  8
SANINDUSA
100
AcDbCircle
 10
2027.117176292625
 20
1636.059922823751
 30
0.0
 40
0.0107518954113993
  0
CIRCLE
  5
904
330
23
100
AcDbEntity
  8
SANINDUSA
100
AcDbCircle
 10
2027.265693940822
 20
1636.099941396865
 30
0.0
 40
0.0739926825045326
  0
CIRCLE
  5
906
330
23
100
AcDbEntity
  8
SANINDUSA
100
AcDbCircle
 10
2027.265635988868
 20
1636.09993018306
 30
0.0
 40
0.05
  0
LINE
  5
907
330
23
100
AcDbEntity
  8
SANINDUSA
100
AcDbLine
 10
2030.121058651447
 20
1636.044347219818
 30
0.0
 11
2030.128290867422
 21
1636.036591642217
 31
0.0
  0
LINE
  5
908
330
23
100
AcDbEntity
  8
SANINDUSA
100
AcDbLine
 10
2030.231682403947
 20
1636.036591642217
 30
0.0
 11
2030.238914557934
 21
1636.044347219818
 31
0.0
  0
LINE
  5
90B
330
23
100
AcDbEntity
  8
SANINDUSA
100
AcDbLine
 10
2028.962891266417
 20
1636.044347219818
 30
0.0
 11
2030.357081958294
 21
1636.044347219818
 31
0.0
  0
LINE
  5
90E
330
23
100
AcDbEntity
  8
SANINDUSA
100
AcDbLine
 10
2028.957892027885
 20
1636.044347219818
 30
0.0
 11
2028.959866582661
 21
1636.157469383981
 31
0.0
  0
LINE
  5
90F
330
23
100
AcDbEntity
  8
SANINDUSA
100
AcDbLine
 10
2028.957892027885
 20
1636.044347219818
 30
0.0
 11
2028.962891266417
 21
1636.044347219818
 31
0.0
  0
LINE
  5
911
330
23
100
AcDbEntity
  8
SANINDUSA
100
AcDbLine
 10
2030.360106688709
 20
1636.157469383981
 30
0.0
 11
2030.36208123827
 21
1636.044347219818
 31
0.0
  0
LINE
  5
912
330
23
100
AcDbEntity
  8
SANINDUSA
100
AcDbLine
 10
2030.357081958294
 20
1636.044347219818
 30
0.0
 11
2030.36208123827
 21
1636.044347219818
 31
0.0
  0
LINE
  5
913
330
23
100
AcDbEntity
  8
SANINDUSA
100
AcDbLine
 10
2028.966865516469
 20
1636.164347217136
 30
0.0
 11
2030.353107758999
 21
1636.164347217136
 31
0.0
  0
ARC
  5
916
330
23
100
AcDbEntity
  8
SANINDUSA
100
AcDbCircle
 10
2028.966865516526
 20
1636.157347217136
 30
0.0
 40
0.0070000000000002
100
AcDbArc
 50
90.0
 51
179.0000000030781
  0
ARC
  5
917
330
23
100
AcDbEntity
  8
SANINDUSA
100
AcDbCircle
 10
2030.353107754843
 20
1636.157347217136
 30
0.0
 40
0.0069999999999999
100
AcDbArc
 50
0.9999999969218754
 51
90.0
  0
LINE
  5
918
330
23
100
AcDbEntity
  8
SANINDUSA
100
AcDbLine
 10
2030.179986635685
 20
1636.036591642217
 30
0.0
 11
2030.231682403947
 21
1636.036591642217
 31
0.0
  0
LINE
  5
919
330
23
100
AcDbEntity
  8
SANINDUSA
100
AcDbLine
 10
2030.128290867422
 20
1636.036591642217
 30
0.0
 11
2030.179986635685
 21
1636.036591642217
 31
0.0
  0
LINE
  5
91A
330
23
100
AcDbEntity
  8
SANINDUSA
100
AcDbLine
 10
2028.168584574551
 20
1636.044347219818
 30
0.0
 11
2028.175816771453
 21
1636.036591642217
 31
0.0
  0
LINE
  5
91B
330
23
100
AcDbEntity
  8
SANINDUSA
100
AcDbLine
 10
2028.279208307978
 20
1636.036591642217
 30
0.0
 11
2028.286440481038
 21
1636.044347219818
 31
0.0
  0
LINE
  5
91D
330
23
100
AcDbEntity
  8
SANINDUSA
100
AcDbLine
 10
2028.67763259274
 20
1636.157469383981
 30
0.0
 11
2028.6796071423
 21
1636.044347219818
 31
0.0
  0
LINE
  5
91F
330
23
100
AcDbEntity
  8
SANINDUSA
100
AcDbLine
 10
2028.674607921929
 20
1636.044347219818
 30
0.0
 11
2028.6796071423
 21
1636.044347219818
 31
0.0
  0
LINE
  5
922
330
23
100
AcDbEntity
  8
SANINDUSA
100
AcDbLine
 10
2027.775417931915
 20
1636.044347219818
 30
0.0
 11
2027.777392486691
 21
1636.157469383981
 31
0.0
  0
LINE
  5
923
330
23
100
AcDbEntity
  8
SANINDUSA
100
AcDbLine
 10
2027.775417931915
 20
1636.044347219818
 30
0.0
 11
2027.780417170447
 21
1636.044347219818
 31
0.0
  0
LINE
  5
925
330
23
100
AcDbEntity
  8
SANINDUSA
100
AcDbLine
 10
2027.780417170447
 20
1636.044347219818
 30
0.0
 11
2028.674607921929
 21
1636.044347219818
 31
0.0
  0
ARC
  5
926
330
23
100
AcDbEntity
  8
SANINDUSA
100
AcDbCircle
 10
2027.784391420557
 20
1636.157347217136
 30
0.0
 40
0.007
100
AcDbArc
 50
90.0
 51
179.0000000030781
  0
ARC
  5
929
330
23
100
AcDbEntity
  8
SANINDUSA
100
AcDbCircle
 10
2028.670633658874
 20
1636.157347217136
 30
0.0
 40
0.0070000000000001
100
AcDbArc
 50
0.9999999969218754
 51
90.0
  0
LINE
  5
92A
330
23
100
AcDbEntity
  8
SANINDUSA
100
AcDbLine
 10
2027.7843914205
 20
1636.164347217136
 30
0.0
 11
2028.670633663029
 21
1636.164347217136
 31
0.0
  0
LINE
  5
92B
330
23
100
AcDbEntity
  8
SANINDUSA
100
AcDbLine
 10
2028.175816771453
 20
1636.036591642217
 30
0.0
 11
2028.279208307978
 21
1636.036591642217
 31
0.0
  0
LWPOLYLINE
  5
996
330
23
100
AcDbEntity
  8
SANINDUSA
100
AcDbPolyline
 90
        3
 70
   128
 43
0.0
 10
2031.701827185126
 20
1636.057955682927
 10
2031.660648839446
 20
1636.058817163759
 10
2031.139669792624
 20
1636.069731049889
  0
LWPOLYLINE
  5
997
330
23
100
AcDbEntity
  8
SANINDUSA
100
AcDbPolyline
 90
        3
 70
   128
 43
0.0
 10
2031.87274171588
 20
1636.060097046845
 10
2031.863674299689
 20
1636.058550120049
 10
2031.854397909613
 20
1636.057938926571
  0
LWPOLYLINE
  5
998
330
23
100
AcDbEntity
  8
SANINDUSA
100
AcDbPolyline
 90
        3
 70
   128
 43
0.0
 10
2031.701827185126
 20
1636.057955682927
 10
2031.701856152983
 20
1636.057950758093
 10
2031.701882498236
 20
1636.05793762272
  0
LWPOLYLINE
  5
999
330
23
100
AcDbEntity
  8
SANINDUSA
100
AcDbPolyline
 90
        3
 70
   128
 43
0.0
 10
2031.854342000456
 20
1636.057920851462
 10
2031.854368345709
 20
1636.057934001737
 10
2031.854397909613
 20
1636.057938926571
  0
LINE
  5
99A
330
23
100
AcDbEntity
  8
SANINDUSA
100
AcDbLine
 10
2031.701882498236
 20
1636.05793762272
 30
0.0
 11
2031.715253965826
 21
1636.04857482826
 31
0.0
  0
LINE
  5
99B
330
23
100
AcDbEntity
  8
SANINDUSA
100
AcDbLine
 10
2031.840994493933
 20
1636.04857482826
 30
0.0
 11
2031.854342000456
 21
1636.057920851462
 31
0.0
  0
LWPOLYLINE
  5
99C
330
23
100
AcDbEntity
  8
SANINDUSA
100
AcDbPolyline
 90
        3
 70
   128
 43
0.0
 10
2031.701906816931
 20
1636.061854869776
 10
2031.703068869086
 20
1636.061657407038
 10
2031.704119460554
 20
1636.06113231247
  0
LWPOLYLINE
  5
99D
330
23
100
AcDbEntity
  8
SANINDUSA
100
AcDbPolyline
 90
       38
 70
   128
 43
0.0
 10
2031.701906816931
 20
1636.061854869776
 10
2031.702422993155
 20
1636.061853878849
 10
2031.703416244956
 20
1636.061853141242
 10
2031.704921381445
 20
1636.06185248559
 10
2031.706996815176
 20
1636.061851241344
 10
2031.709589855643
 20
1636.061849818283
 10
2031.712595360251
 20
1636.061848805004
 10
2031.716052668066
 20
1636.061847925835
 10
2031.720058696242
 20
1636.061846927457
 10
2031.72448875186
 20
1636.061845780068
 10
2031.729172008009
 20
1636.061844558173
 10
2031.734192864867
 20
1636.06184337353
 10
2031.739676730605
 20
1636.061842300647
 10
2031.745441453429
 20
1636.061841287368
 10
2031.751274363966
 20
1636.061840229385
 10
2031.757292764158
 20
1636.061839193755
 10
2031.76363684413
 20
1636.061838433796
 10
2031.770086901159
 20
1636.061838322037
 10
2031.780261652441
 20
1636.061839447074
 10
2031.78543998477
 20
1636.061840266638
 10
2031.790584342452
 20
1636.061841525787
 10
2031.795732753248
 20
1636.061843358629
 10
2031.800797240706
 20
1636.061845616155
 10
2031.805850045653
 20
1636.061848223858
 10
2031.810765402289
 20
1636.06185106998
 10
2031.816372768851
 20
1636.061854698413
 10
2031.821715013953
 20
1636.06185864722
 10
2031.826896326514
 20
1636.061863095217
 10
2031.831719772787
 20
1636.061867692226
 10
2031.836025612326
 20
1636.061871872001
 10
2031.839931266279
 20
1636.06187531417
 10
2031.843503134223
 20
1636.061877854817
 10
2031.846600310774
 20
1636.061879419439
 10
2031.849129455062
 20
1636.061878458314
 10
2031.851173775168
 20
1636.061873377019
 10
2031.852757589789
 20
1636.061865583711
 10
2031.853807108374
 20
1636.061854206675
 10
2031.854342596503
 20
1636.061838530653
  0
LWPOLYLINE
  5
99E
330
23
100
AcDbEntity
  8
SANINDUSA
100
AcDbPolyline
 90
        3
 70
   128
 43
0.0
 10
2031.852105038138
 20
1636.061115541213
 10
2031.853159444304
 20
1636.06164190238
 10
2031.854342596503
 20
1636.061838530653
  0
LINE
  5
9A0
330
23
100
AcDbEntity
  8
SANINDUSA
100
AcDbLine
 10
2031.704119460554
 20
1636.06113231247
 30
0.0
 11
2031.717826656011
 21
1636.051534407543
 31
0.0
  0
LINE
  5
9A1
330
23
100
AcDbEntity
  8
SANINDUSA
100
AcDbLine
 10
2031.838421746528
 20
1636.051534407543
 30
0.0
 11
2031.852105038138
 21
1636.061115541213
 31
0.0
  0
LWPOLYLINE
  5
9A3
330
23
100
AcDbEntity
  8
SANINDUSA
100
AcDbPolyline
 90
        4
 70
   128
 43
0.0
 10
2031.701906816931
 20
1636.061854869776
 10
2031.594913141699
 20
1636.064095676594
 10
2031.40543808219
 20
1636.068064794593
 10
2031.139751450988
 20
1636.073630192035
  0
LWPOLYLINE
  5
9A9
330
23
100
AcDbEntity
  8
SANINDUSA
100
AcDbPolyline
 90
        3
 70
   128
 43
0.0
 10
2031.871891515227
 20
1636.0639032579
 10
2031.863217012854
 20
1636.062423222416
 10
2031.854342596503
 20
1636.061838530653
  0
ARC
  5
9F1
330
23
100
AcDbEntity
  8
SANINDUSA
100
AcDbCircle
 10
2031.868185726975
 20
1636.08049430068
 30
0.0
 40
0.0169998696201064
100
AcDbArc
 50
282.5909573765259
 51
358.0003907612973
  0
LINE
  5
9F2
330
23
100
AcDbEntity
  8
SANINDUSA
100
AcDbLine
 10
2031.958244254294
 20
1636.157469383981
 30
0.0
 11
2031.960218803854
 21
1636.044347219818
 31
0.0
  0
LINE
  5
9F3
330
23
100
AcDbEntity
  8
SANINDUSA
100
AcDbLine
 10
2031.960218803854
 20
1636.044347219818
 30
0.0
 11
2031.956318156691
 21
1636.044347219818
 31
0.0
  0
LINE
  5
9F4
330
23
100
AcDbEntity
  8
SANINDUSA
100
AcDbLine
 10
2031.954344848283
 20
1636.157401319596
 30
0.0
 11
2031.956318156691
 21
1636.044347219818
 31
0.0
  0
ARC
  5
9F5
330
23
100
AcDbEntity
  8
SANINDUSA
100
AcDbCircle
 10
2031.951245320428
 20
1636.157347217136
 30
0.0
 40
0.0031000000000006
100
AcDbArc
 50
0.9999999969218754
 51
90.0
  0
LINE
  5
9F6
330
23
100
AcDbEntity
  8
SANINDUSA
100
AcDbLine
 10
2031.894884039051
 20
1636.160447217136
 30
0.0
 11
2031.951245320428
 21
1636.160447217136
 31
0.0
  0
ARC
  5
9F7
330
23
100
AcDbEntity
  8
SANINDUSA
100
AcDbCircle
 10
2031.894884039051
 20
1636.157347217136
 30
0.0
 40
0.0031000000000006
100
AcDbArc
 50
90.0
 51
177.9999999962464
  0
LINE
  5
9F8
330
23
100
AcDbEntity
  8
SANINDUSA
100
AcDbLine
 10
2031.889072911711
 20
1636.07976502245
 30
0.0
 11
2031.891785927487
 21
1636.157455405576
 31
0.0
  0
ARC
  5
9F9
330
23
100
AcDbEntity
  8
SANINDUSA
100
AcDbCircle
 10
2031.868185727177
 20
1636.080494334426
 30
0.0
 40
0.0208999132467416
100
AcDbArc
 50
282.5910500689425
 51
358.0002317282998
  0
LINE
  5
9FA
330
23
100
AcDbEntity
  8
SANINDUSA
100
AcDbLine
 10
2031.82981993434
 20
1636.036591634803
 30
0.0
 11
2031.840994493933
 21
1636.04857482826
 31
0.0
  0
LINE
  5
9FB
330
23
100
AcDbEntity
  8
SANINDUSA
100
AcDbLine
 10
2031.72642840621
 20
1636.036591634803
 30
0.0
 11
2031.82981993434
 21
1636.036591634803
 31
0.0
  0
LINE
  5
9FC
330
23
100
AcDbEntity
  8
SANINDUSA
100
AcDbLine
 10
2031.715253965826
 20
1636.04857482826
 30
0.0
 11
2031.72642840621
 21
1636.036591634803
 31
0.0
  0
ARC
  5
9FD
330
23
100
AcDbEntity
  8
SANINDUSA
100
AcDbCircle
 10
2031.140112005356
 20
1636.090630975537
 30
0.0
 40
0.0209046034210948
100
AcDbArc
 50
181.9396340354332
 51
268.787883564563
  0
ARC
  5
9FE
330
23
100
AcDbEntity
  8
SANINDUSA
100
AcDbCircle
 10
2031.116121081673
 20
1636.08981909164
 30
0.0
 40
0.003100053980797
100
AcDbArc
 50
1.928712861255299
 51
88.99878176725593
  0
LINE
  5
9FF
330
23
100
AcDbEntity
  8
SANINDUSA
100
AcDbLine
 10
2031.116175250979
 20
1636.092918672317
 30
0.0
 11
2030.66670431537
 21
1636.100764217305
 31
0.0
  0
ARC
  5
A00
330
23
100
AcDbEntity
  8
SANINDUSA
100
AcDbCircle
 10
2030.666650212911
 20
1636.09766468945
 30
0.0
 40
0.0030999999999999
100
AcDbArc
 50
89.00000000307812
 51
154.6842608275599
  0
ARC
  5
A01
330
23
100
AcDbEntity
  8
SANINDUSA
100
AcDbCircle
 10
2030.651282805867
 20
1636.104933994834
 30
0.0
 40
0.0139000000000001
100
AcDbArc
 50
269.0000000030781
 51
334.6842608275599
  0
LINE
  5
A02
330
23
100
AcDbEntity
  8
SANINDUSA
100
AcDbLine
 10
2030.651040217418
 20
1636.091036111872
 30
0.0
 11
2030.646597447697
 21
1636.091113660706
 31
0.0
  0
ARC
  5
A03
330
23
100
AcDbEntity
  8
SANINDUSA
100
AcDbCircle
 10
2030.646962202992
 20
1636.112010477534
 30
0.0
 40
0.0209000000000006
100
AcDbArc
 50
182.0000000037536
 51
269.0000000030781
  0
LINE
  5
A04
330
23
100
AcDbEntity
  8
SANINDUSA
100
AcDbLine
 10
2030.62446249166
 20
1636.157455405576
 30
0.0
 11
2030.626074934707
 21
1636.111281078053
 31
0.0
  0
ARC
  5
A05
330
23
100
AcDbEntity
  8
SANINDUSA
100
AcDbCircle
 10
2030.621364380095
 20
1636.157347217136
 30
0.0
 40
0.0031000000000006
100
AcDbArc
 50
2.000000003753602
 51
90.0
  0
LINE
  5
A06
330
23
100
AcDbEntity
  8
SANINDUSA
100
AcDbLine
 10
2030.565003082111
 20
1636.160447217136
 30
0.0
 11
2030.621364380095
 21
1636.160447217136
 31
0.0
  0
ARC
  5
A07
330
23
100
AcDbEntity
  8
SANINDUSA
100
AcDbCircle
 10
2030.565003082111
 20
1636.157347217136
 30
0.0
 40
0.0031000000000006
100
AcDbArc
 50
90.0
 51
179.0000000030781
  0
LINE
  5
A08
330
23
100
AcDbEntity
  8
SANINDUSA
100
AcDbLine
 10
2030.559930187547
 20
1636.044347219818
 30
0.0
 11
2030.561903554256
 21
1636.157401319596
 31
0.0
  0
LINE
  5
A09
330
23
100
AcDbEntity
  8
SANINDUSA
100
AcDbLine
 10
2030.559930187547
 20
1636.044347219818
 30
0.0
 11
2030.556029593469
 21
1636.044347219818
 31
0.0
  0
LINE
  5
A0A
330
23
100
AcDbEntity
  8
SANINDUSA
100
AcDbLine
 10
2030.556029593469
 20
1636.044347219818
 30
0.0
 11
2030.558004148245
 21
1636.157469383981
 31
0.0
  0
ARC
  5
A0B
330
23
100
AcDbEntity
  8
SANINDUSA
100
AcDbCircle
 10
2030.565003082111
 20
1636.157347217136
 30
0.0
 40
0.0070000000000005
100
AcDbArc
 50
90.0
 51
179.0000000030781
  0
LINE
  5
A0C
330
23
100
AcDbEntity
  8
SANINDUSA
100
AcDbLine
 10
2030.565003082111
 20
1636.164347217136
 30
0.0
 11
2030.621364380095
 21
1636.164347217136
 31
0.0
  0
ARC
  5
A0D
330
23
100
AcDbEntity
  8
SANINDUSA
100
AcDbCircle
 10
2030.621364380095
 20
1636.157347217136
 30
0.0
 40
0.0070000000000005
100
AcDbArc
 50
2.000000003753602
 51
90.0
  0
ARC
  5
A0F
330
23
100
AcDbEntity
  8
SANINDUSA
100
AcDbCircle
 10
2030.646962202992
 20
1636.112010477534
 30
0.0
 40
0.0170000000000006
100
AcDbArc
 50
182.0000000037536
 51
269.0000000030781
  0
LINE
  5
A10
330
23
100
AcDbEntity
  8
SANINDUSA
100
AcDbLine
 10
2030.651108281803
 20
1636.094935517883
 30
0.0
 11
2030.646665512083
 21
1636.095013066716
 31
0.0
  0
ARC
  5
A11
330
23
100
AcDbEntity
  8
SANINDUSA
100
AcDbCircle
 10
2030.651282805867
 20
1636.104933994834
 30
0.0
 40
0.0100000000000001
100
AcDbArc
 50
269.0000000030781
 51
334.6842608275599
  0
ARC
  5
A12
330
23
100
AcDbEntity
  8
SANINDUSA
100
AcDbCircle
 10
2030.666650212911
 20
1636.09766468945
 30
0.0
 40
0.0070000000000003
100
AcDbArc
 50
89.00000000307812
 51
154.6842608275599
  0
LINE
  5
A13
330
23
100
AcDbEntity
  8
SANINDUSA
100
AcDbLine
 10
2031.116243319483
 20
1636.096818082684
 30
0.0
 11
2030.666772379756
 21
1636.104663623316
 31
0.0
  0
ARC
  5
A14
330
23
100
AcDbEntity
  8
SANINDUSA
100
AcDbCircle
 10
2031.116121206116
 20
1636.089819229653
 30
0.0
 40
0.0069999182433052
100
AcDbArc
 50
1.927057294868923
 51
89.00042612107176
  0
ARC
  5
A15
330
23
100
AcDbEntity
  8
SANINDUSA
100
AcDbCircle
 10
2031.140111255004
 20
1636.090630219571
 30
0.0
 40
0.0170038347192523
100
AcDbArc
 50
181.9399095306987
 51
268.7875211219712
  0
LINE
  5
A16
330
23
100
AcDbEntity
  8
SANINDUSA
100
AcDbLine
 10
2031.717826656011
 20
1636.051534407543
 30
0.0
 11
2031.728124158354
 21
1636.040491641217
 31
0.0
  0
LINE
  5
A17
330
23
100
AcDbEntity
  8
SANINDUSA
100
AcDbLine
 10
2031.728124158354
 20
1636.040491641217
 30
0.0
 11
2031.828124182196
 21
1636.040491641217
 31
0.0
  0
LINE
  5
A18
330
23
100
AcDbEntity
  8
SANINDUSA
100
AcDbLine
 10
2031.828124182196
 20
1636.040491641217
 30
0.0
 11
2031.838421746528
 21
1636.051534407543
 31
0.0
  0
ARC
  5
A19
330
23
100
AcDbEntity
  8
SANINDUSA
100
AcDbCircle
 10
2031.894884039051
 20
1636.157347217136
 30
0.0
 40
0.0070000000000005
100
AcDbArc
 50
90.0
 51
177.9999999962464
  0
LINE
  5
A1A
330
23
100
AcDbEntity
  8
SANINDUSA
100
AcDbLine
 10
2031.894884039051
 20
1636.164347217136
 30
0.0
 11
2031.951245320428
 21
1636.164347217136
 31
0.0
  0
ARC
  5
A1B
330
23
100
AcDbEntity
  8
SANINDUSA
100
AcDbCircle
 10
2031.951245320428
 20
1636.157347217136
 30
0.0
 40
0.0070000000000005
100
AcDbArc
 50
0.9999999969218754
 51
90.0
  0
LINE
  5
A1C
330
23
100
AcDbEntity
  8
SANINDUSA
100
AcDbLine
 10
2031.885175235907
 20
1636.079900875566
 30
0.0
 11
2031.887888303261
 21
1636.157591513613
 31
0.0
  0
LINE
  5
A1D
330
23
100
AcDbEntity
  8
SANINDUSA
100
AcDbLine
 10
2030.629972558933
 20
1636.11141718609
 30
0.0
 11
2030.628360115885
 21
1636.157591513613
 31
0.0
  0
LINE
  5
A70
330
23
100
AcDbEntity
  8
SANINDUSA
100
AcDbLine
 10
2031.867900486721
 20
1636.164347217136
 30
0.0
 11
2031.894884039051
 21
1636.164347217136
 31
0.0
  0
LINE
  5
A72
330
23
100
AcDbEntity
  8
SANINDUSA
100
AcDbLine
 10
2030.621364380095
 20
1636.164347217136
 30
0.0
 11
2030.64834793259
 21
1636.164347217136
 31
0.0
  0
LINE
  5
A73
330
23
100
AcDbEntity
  8
SANINDUSA
100
AcDbLine
 10
2030.64834793259
 20
1636.164347217136
 30
0.0
 11
2031.867900486721
 21
1636.164347217136
 31
0.0
  0
LINE
  5
A79
330
23
100
AcDbEntity
  8
SANINDUSA
100
AcDbLine
 10
2030.561030020136
 20
1636.044347219818
 30
0.0
 11
2030.559930187547
 21
1636.044347219818
 31
0.0
  0
LINE
  5
A7B
330
23
100
AcDbEntity
  8
SANINDUSA
100
AcDbLine
 10
2031.956318156691
 20
1636.044347219818
 30
0.0
 11
2031.955218331786
 21
1636.044347219818
 31
0.0
  0
LINE
  5
A7C
330
23
100
AcDbEntity
  8
SANINDUSA
100
AcDbLine
 10
2031.955218331786
 20
1636.044347219818
 30
0.0
 11
2031.837052123519
 21
1636.044347219818
 31
0.0
  0
LINE
  5
A7D
330
23
100
AcDbEntity
  8
SANINDUSA
100
AcDbLine
 10
2031.719196217032
 20
1636.044347219818
 30
0.0
 11
2030.561030020136
 21
1636.044347219818
 31
0.0
  0
ENDSEC
  0
SECTION
  2
OBJECTS
  0
DICTIONARY
  5
C
330
0
100
AcDbDictionary
281
     1
  3
ACAD_COLOR
350
1C
  3
ACAD_GROUP
350
D
  3
ACAD_LAYOUT
350
1A
  3
ACAD_MATERIAL
350
1B
  3
ACAD_MLINESTYLE
350
17
  3
ACAD_PLOTSETTINGS
350
19
  3
ACAD_PLOTSTYLENAME
350
E
  3
ACAD_TABLESTYLE
350
1D
  3
ACDBHEADERROUNDTRIPXREC
350
7653
  3
AcDbVariableDictionary
350
764D
  0
DICTIONARY
  5
2E2
330
2
100
AcDbDictionary
280
     1
281
     1
  3
ACAD_LAYERSTATES
360
2E3
  0
DICTIONARY
  5
1C
102
{ACAD_REACTORS
330
C
102
}
330
C
100
AcDbDictionary
281
     1
  0
DICTIONARY
  5
D
102
{ACAD_REACTORS
330
C
102
}
330
C
100
AcDbDictionary
281
     1
  0
DICTIONARY
  5
1A
102
{ACAD_REACTORS
330
C
102
}
330
C
100
AcDbDictionary
281
     1
  3
Layout1
350
22
  3
Layout2
350
2A
  3
Model
350
26
  0
DICTIONARY
  5
1B
102
{ACAD_REACTORS
330
C
102
}
330
C
100
AcDbDictionary
281
     1
  0
DICTIONARY
  5
17
102
{ACAD_REACTORS
330
C
102
}
330
C
100
AcDbDictionary
281
     1
  3
Standard
350
18
  0
DICTIONARY
  5
19
102
{ACAD_REACTORS
330
C
102
}
330
C
100
AcDbDictionary
281
     1
  0
ACDBDICTIONARYWDFLT
  5
E
102
{ACAD_REACTORS
330
C
102
}
330
C
100
AcDbDictionary
281
     1
  3
Normal
350
F
100
AcDbDictionaryWithDefault
340
F
  0
DICTIONARY
  5
1D
102
{ACAD_REACTORS
330
C
102
}
330
C
100
AcDbDictionary
281
     1
  3
Standard
350
1E
  0
DICTIONARY
  5
7653
102
{ACAD_REACTORS
330
C
102
}
330
C
100
AcDbDictionary
281
     1
  0
DICTIONARY
  5
764D
102
{ACAD_REACTORS
330
C
102
}
330
C
100
AcDbDictionary
281
     1
  3
CTABLESTYLE
350
764E
  3
DIMASSOC
350
7650
  3
HIDETEXT
350
764F
  3
PROJECTNAME
350
7651
  0
DICTIONARY
  5
2E3
102
{ACAD_REACTORS
330
2E2
102
}
330
2E2
100
AcDbDictionary
281
     1
  0
LAYOUT
  5
22
102
{ACAD_XDICTIONARY
360
7654
102
}
102
{ACAD_REACTORS
330
1A
102
}
330
1A
100
AcDbPlotSettings
  1

  2
C:\Documents and Settings\Julio\Application Data\Autodesk\AutoCAD 2006\R16.2\enu\plotters\Default Windows System Printer.pc3
  4

  6

 40
0.0
 41
0.0
 42
0.0
 43
0.0
 44
0.0
 45
0.0
 46
0.0
 47
0.0
 48
0.0
 49
0.0
140
0.0
141
0.0
142
1.0
143
1.0
 70
   688
 72
     0
 73
     0
 74
     5
  7

 75
    16
147
1.0
148
0.0
149
0.0
100
AcDbLayout
  1
Layout1
 70
     1
 71
     1
 10
0.0
 20
0.0
 11
420.0
 21
297.0
 12
0.0
 22
0.0
 32
0.0
 14
1.000000000000000E+20
 24
1.000000000000000E+20
 34
1.000000000000000E+20
 15
-1.000000000000000E+20
 25
-1.000000000000000E+20
 35
-1.000000000000000E+20
146
0.0
 13
0.0
 23
0.0
 33
0.0
 16
1.0
 26
0.0
 36
0.0
 17
0.0
 27
1.0
 37
0.0
 76
     0
330
1F
  0
LAYOUT
  5
2A
102
{ACAD_XDICTIONARY
360
7658
102
}
102
{ACAD_REACTORS
330
1A
102
}
330
1A
100
AcDbPlotSettings
  1

  2
C:\Documents and Settings\Julio\Application Data\Autodesk\AutoCAD 2006\R16.2\enu\plotters\Default Windows System Printer.pc3
  4

  6

 40
0.0
 41
0.0
 42
0.0
 43
0.0
 44
0.0
 45
0.0
 46
0.0
 47
0.0
 48
0.0
 49
0.0
140
0.0
141
0.0
142
1.0
143
1.0
 70
   688
 72
     0
 73
     0
 74
     5
  7

 75
    16
147
1.0
148
0.0
149
0.0
100
AcDbLayout
  1
Layout2
 70
     1
 71
     2
 10
0.0
 20
0.0
 11
12.0
 21
9.0
 12
0.0
 22
0.0
 32
0.0
 14
0.0
 24
0.0
 34
0.0
 15
0.0
 25
0.0
 35
0.0
146
0.0
 13
0.0
 23
0.0
 33
0.0
 16
1.0
 26
0.0
 36
0.0
 17
0.0
 27
1.0
 37
0.0
 76
     0
330
27
  0
LAYOUT
  5
26
102
{ACAD_XDICTIONARY
360
7656
102
}
102
{ACAD_REACTORS
330
1A
102
}
330
1A
100
AcDbPlotSettings
  1

  2
C:\Documents and Settings\Julio\Application Data\Autodesk\AutoCAD 2006\R16.2\enu\plotters\Default Windows System Printer.pc3
  4

  6

 40
0.0
 41
0.0
 42
0.0
 43
0.0
 44
0.0
 45
0.0
 46
0.0
 47
0.0
 48
0.0
 49
0.0
140
0.0
141
0.0
142
1.0
143
1.0
 70
  1712
 72
     0
 73
     0
 74
     0
  7

 75
     0
147
1.0
148
0.0
149
0.0
100
AcDbLayout
  1
Model
 70
     1
 71
     0
 10
0.0
 20
0.0
 11
12.0
 21
9.0
 12
0.0
 22
0.0
 32
0.0
 14
0.0
 24
0.0
 34
0.0
 15
0.0
 25
0.0
 35
0.0
146
0.0
 13
0.0
 23
0.0
 33
0.0
 16
1.0
 26
0.0
 36
0.0
 17
0.0
 27
1.0
 37
0.0
 76
     0
330
23
  0
MLINESTYLE
  5
18
102
{ACAD_REACTORS
330
17
102
}
330
17
100
AcDbMlineStyle
  2
STANDARD
 70
     0
  3

 62
   256
 51
90.0
 52
90.0
 71
     2
 49
0.5
 62
   256
  6
BYLAYER
 49
-0.5
 62
   256
  6
BYLAYER
  0
ACDBPLACEHOLDER
  5
F
102
{ACAD_REACTORS
330
E
102
}
330
E
  0
TABLESTYLE
  5
1E
102
{ACAD_REACTORS
330
1D
102
}
330
1D
100
AcDbTableStyle
  3
Standard
 70
     0
 71
     0
 40
1.5
 41
1.5
280
     0
281
     0
  7
Standard
140
4.5
170
     2
 62
     0
 63
     7
283
     0
274
    -2
284
     1
 64
     0
275
    -2
285
     1
 65
     0
276
    -2
286
     1
 66
     0
277
    -2
287
     1
 67
     0
278
    -2
288
     1
 68
     0
279
    -2
289
     1
 69
     0
  7
Standard
140
6.0
170
     5
 62
     0
 63
     7
283
     0
274
    -2
284
     1
 64
     0
275
    -2
285
     1
 65
     0
276
    -2
286
     1
 66
     0
277
    -2
287
     1
 67
     0
278
    -2
288
     1
 68
     0
279
    -2
289
     1
 69
     0
  7
Standard
140
4.5
170
     5
 62
     0
 63
     7
283
     0
274
    -2
284
     1
 64
     0
275
    -2
285
     1
 65
     0
276
    -2
286
     1
 66
     0
277
    -2
287
     1
 67
     0
278
    -2
288
     1
 68
     0
279
    -2
289
     1
 69
     0
  0
DICTIONARYVAR
  5
764E
102
{ACAD_REACTORS
330
764D
102
}
330
764D
100
DictionaryVariables
280
     0
  1
STANDARD
  0
DICTIONARYVAR
  5
7650
102
{ACAD_REACTORS
330
764D
102
}
330
764D
100
DictionaryVariables
280
     0
  1
2
  0
DICTIONARYVAR
  5
764F
102
{ACAD_REACTORS
330
764D
102
}
330
764D
100
DictionaryVariables
280
     0
  1
1
  0
DICTIONARYVAR
  5
7651
102
{ACAD_REACTORS
330
764D
102
}
330
764D
100
DictionaryVariables
280
     0
  1

  0
DICTIONARY
  5
7654
330
22
100
AcDbDictionary
280
     1
281
     1
  3
ACAD_XREC_ROUNDTRIP
360
7655
  0
DICTIONARY
  5
7658
330
2A
100
AcDbDictionary
280
     1
281
     1
  3
ACAD_XREC_ROUNDTRIP
360
7659
  0
DICTIONARY
  5
7656
330
26
100
AcDbDictionary
280
     1
281
     1
  3
ACAD_XREC_ROUNDTRIP
360
7657
  0
XRECORD
  5
7655
102
{ACAD_REACTORS
330
7654
102
}
330
7654
100
AcDbXrecord
280
     1
102
SHADEPLOT
 70
     0
102
SHADEPLOTRESLEVEL
 70
     2
102
SHADEPLOTCUSTOMDPI
 70
   300
  0
XRECORD
  5
7659
102
{ACAD_REACTORS
330
7658
102
}
330
7658
100
AcDbXrecord
280
     1
102
SHADEPLOT
 70
     0
102
SHADEPLOTRESLEVEL
 70
     2
102
SHADEPLOTCUSTOMDPI
 70
   300
  0
XRECORD
  5
7657
102
{ACAD_REACTORS
330
7656
102
}
330
7656
100
AcDbXrecord
280
     1
102
SHADEPLOT
 70
     0
102
SHADEPLOTRESLEVEL
 70
     2
102
SHADEPLOTCUSTOMDPI
 70
   300
  0
ENDSEC
  0
EOF
