  0
SECTION
  2
HEADER
  9
$ACADVER
  1
AC1015
  9
$ACADMAINTVER
 70
    20
  9
$DWGCODEPAGE
  3
ANSI_1252
  9
$INSBASE
 10
0.0
 20
0.0
 30
0.0
  9
$EXTMIN
 10
1922.931484891365
 20
1657.206168546354
 30
0.0
  9
$EXTMAX
 10
1928.370849846207
 20
1658.106408678896
 30
0.0
  9
$LIMMIN
 10
0.0
 20
0.0
  9
$LIMMAX
 10
420.0
 20
297.0
  9
$ORTHOMODE
 70
     0
  9
$REGENMODE
 70
     1
  9
$FILLMODE
 70
     1
  9
$QTEXTMODE
 70
     0
  9
$MIRRTEXT
 70
     0
  9
$LTSCALE
 40
1.0
  9
$ATTMODE
 70
     1
  9
$TEXTSIZE
 40
2.5
  9
$TRACEWID
 40
1.0
  9
$TEXTSTYLE
  7
Standard
  9
$CLAYER
  8
0
  9
$CELTYPE
  6
ByLayer
  9
$CECOLOR
 62
   256
  9
$CELTSCALE
 40
1.0
  9
$DISPSILH
 70
     0
  9
$DIMSCALE
 40
1.0
  9
$DIMASZ
 40
2.5
  9
$DIMEXO
 40
0.625
  9
$DIMDLI
 40
3.75
  9
$DIMRND
 40
0.0
  9
$DIMDLE
 40
0.0
  9
$DIMEXE
 40
1.25
  9
$DIMTP
 40
0.0
  9
$DIMTM
 40
0.0
  9
$DIMTXT
 40
2.5
  9
$DIMCEN
 40
2.5
  9
$DIMTSZ
 40
0.0
  9
$DIMTOL
 70
     0
  9
$DIMLIM
 70
     0
  9
$DIMTIH
 70
     0
  9
$DIMTOH
 70
     0
  9
$DIMSE1
 70
     0
  9
$DIMSE2
 70
     0
  9
$DIMTAD
 70
     1
  9
$DIMZIN
 70
     8
  9
$DIMBLK
  1

  9
$DIMASO
 70
     1
  9
$DIMSHO
 70
     1
  9
$DIMPOST
  1

  9
$DIMAPOST
  1

  9
$DIMALT
 70
     0
  9
$DIMALTD
 70
     3
  9
$DIMALTF
 40
0.03937007874016
  9
$DIMLFAC
 40
1.0
  9
$DIMTOFL
 70
     1
  9
$DIMTVP
 40
0.0
  9
$DIMTIX
 70
     0
  9
$DIMSOXD
 70
     0
  9
$DIMSAH
 70
     0
  9
$DIMBLK1
  1

  9
$DIMBLK2
  1

  9
$DIMSTYLE
  2
ISO-25
  9
$DIMCLRD
 70
     0
  9
$DIMCLRE
 70
     0
  9
$DIMCLRT
 70
     0
  9
$DIMTFAC
 40
1.0
  9
$DIMGAP
 40
0.625
  9
$DIMJUST
 70
     0
  9
$DIMSD1
 70
     0
  9
$DIMSD2
 70
     0
  9
$DIMTOLJ
 70
     0
  9
$DIMTZIN
 70
     8
  9
$DIMALTZ
 70
     0
  9
$DIMALTTZ
 70
     0
  9
$DIMUPT
 70
     0
  9
$DIMDEC
 70
     2
  9
$DIMTDEC
 70
     2
  9
$DIMALTU
 70
     2
  9
$DIMALTTD
 70
     3
  9
$DIMTXSTY
  7
Standard
  9
$DIMAUNIT
 70
     0
  9
$DIMADEC
 70
     0
  9
$DIMALTRND
 40
0.0
  9
$DIMAZIN
 70
     0
  9
$DIMDSEP
 70
    44
  9
$DIMATFIT
 70
     3
  9
$DIMFRAC
 70
     0
  9
$DIMLDRBLK
  1

  9
$DIMLUNIT
 70
     2
  9
$DIMLWD
 70
    -2
  9
$DIMLWE
 70
    -2
  9
$DIMTMOVE
 70
     0
  9
$LUNITS
 70
     2
  9
$LUPREC
 70
     4
  9
$SKETCHINC
 40
1.0
  9
$FILLETRAD
 40
0.0
  9
$AUNITS
 70
     0
  9
$AUPREC
 70
     0
  9
$MENU
  1
.
  9
$ELEVATION
 40
0.0
  9
$PELEVATION
 40
0.0
  9
$THICKNESS
 40
0.0
  9
$LIMCHECK
 70
     0
  9
$CHAMFERA
 40
0.0
  9
$CHAMFERB
 40
0.0
  9
$CHAMFERC
 40
0.0
  9
$CHAMFERD
 40
0.0
  9
$SKPOLY
 70
     0
  9
$TDCREATE
 40
2454930.730357709
  9
$TDUCREATE
 40
2454930.688691042
  9
$TDUPDATE
 40
2454930.732654618
  9
$TDUUPDATE
 40
2454930.690987952
  9
$TDINDWG
 40
0.0022976273
  9
$TDUSRTIMER
 40
0.0022976273
  9
$USRTIMER
 70
     1
  9
$ANGBASE
 50
0.0
  9
$ANGDIR
 70
     0
  9
$PDMODE
 70
     0
  9
$PDSIZE
 40
0.0
  9
$PLINEWID
 40
0.0
  9
$SPLFRAME
 70
     0
  9
$SPLINETYPE
 70
     6
  9
$SPLINESEGS
 70
     8
  9
$HANDSEED
  5
7490
  9
$SURFTAB1
 70
     6
  9
$SURFTAB2
 70
     6
  9
$SURFTYPE
 70
     6
  9
$SURFU
 70
     6
  9
$SURFV
 70
     6
  9
$UCSBASE
  2

  9
$UCSNAME
  2

  9
$UCSORG
 10
0.0
 20
0.0
 30
0.0
  9
$UCSXDIR
 10
1.0
 20
0.0
 30
0.0
  9
$UCSYDIR
 10
0.0
 20
1.0
 30
0.0
  9
$UCSORTHOREF
  2

  9
$UCSORTHOVIEW
 70
     0
  9
$UCSORGTOP
 10
0.0
 20
0.0
 30
0.0
  9
$UCSORGBOTTOM
 10
0.0
 20
0.0
 30
0.0
  9
$UCSORGLEFT
 10
0.0
 20
0.0
 30
0.0
  9
$UCSORGRIGHT
 10
0.0
 20
0.0
 30
0.0
  9
$UCSORGFRONT
 10
0.0
 20
0.0
 30
0.0
  9
$UCSORGBACK
 10
0.0
 20
0.0
 30
0.0
  9
$PUCSBASE
  2

  9
$PUCSNAME
  2

  9
$PUCSORG
 10
0.0
 20
0.0
 30
0.0
  9
$PUCSXDIR
 10
1.0
 20
0.0
 30
0.0
  9
$PUCSYDIR
 10
0.0
 20
1.0
 30
0.0
  9
$PUCSORTHOREF
  2

  9
$PUCSORTHOVIEW
 70
     0
  9
$PUCSORGTOP
 10
0.0
 20
0.0
 30
0.0
  9
$PUCSORGBOTTOM
 10
0.0
 20
0.0
 30
0.0
  9
$PUCSORGLEFT
 10
0.0
 20
0.0
 30
0.0
  9
$PUCSORGRIGHT
 10
0.0
 20
0.0
 30
0.0
  9
$PUCSORGFRONT
 10
0.0
 20
0.0
 30
0.0
  9
$PUCSORGBACK
 10
0.0
 20
0.0
 30
0.0
  9
$USERI1
 70
     0
  9
$USERI2
 70
     0
  9
$USERI3
 70
     0
  9
$USERI4
 70
     0
  9
$USERI5
 70
     0
  9
$USERR1
 40
0.0
  9
$USERR2
 40
0.0
  9
$USERR3
 40
0.0
  9
$USERR4
 40
0.0
  9
$USERR5
 40
0.0
  9
$WORLDVIEW
 70
     1
  9
$SHADEDGE
 70
     3
  9
$SHADEDIF
 70
    70
  9
$TILEMODE
 70
     1
  9
$MAXACTVP
 70
    64
  9
$PINSBASE
 10
0.0
 20
0.0
 30
0.0
  9
$PLIMCHECK
 70
     0
  9
$PEXTMIN
 10
1.000000000000000E+20
 20
1.000000000000000E+20
 30
1.000000000000000E+20
  9
$PEXTMAX
 10
-1.000000000000000E+20
 20
-1.000000000000000E+20
 30
-1.000000000000000E+20
  9
$PLIMMIN
 10
0.0
 20
0.0
  9
$PLIMMAX
 10
420.0
 20
297.0
  9
$UNITMODE
 70
     0
  9
$VISRETAIN
 70
     1
  9
$PLINEGEN
 70
     0
  9
$PSLTSCALE
 70
     1
  9
$TREEDEPTH
 70
  3020
  9
$CMLSTYLE
  2
Standard
  9
$CMLJUST
 70
     0
  9
$CMLSCALE
 40
20.0
  9
$PROXYGRAPHICS
 70
     1
  9
$MEASUREMENT
 70
     1
  9
$CELWEIGHT
370
    -1
  9
$ENDCAPS
280
     0
  9
$JOINSTYLE
280
     0
  9
$LWDISPLAY
290
     0
  9
$INSUNITS
 70
     4
  9
$HYPERLINKBASE
  1

  9
$STYLESHEET
  1

  9
$XEDIT
290
     1
  9
$CEPSNTYPE
380
     0
  9
$PSTYLEMODE
290
     1
  9
$FINGERPRINTGUID
  2
{3C93A423-FFEC-4CD2-9BFC-8CD47DD00CC3}
  9
$VERSIONGUID
  2
{E6CEFDDE-2F10-4534-8711-3D09963DE5B9}
  9
$EXTNAMES
290
     1
  9
$PSVPSCALE
 40
0.0
  9
$OLESTARTUP
290
     0
  0
ENDSEC
  0
SECTION
  2
CLASSES
  0
CLASS
  1
ACDBDICTIONARYWDFLT
  2
AcDbDictionaryWithDefault
  3
ObjectDBX Classes
 90
        0
280
     0
281
     0
  0
CLASS
  1
TABLESTYLE
  2
AcDbTableStyle
  3
ObjectDBX Classes
 90
     2047
280
     0
281
     0
  0
CLASS
  1
DIMASSOC
  2
AcDbDimAssoc
  3
"AcDbDimAssoc|Product Desc:     AcDim ARX App For Dimension|Company:          Autodesk, Inc.|WEB Address:      www.autodesk.com"
 90
        0
280
     0
281
     0
  0
CLASS
  1
SORTENTSTABLE
  2
AcDbSortentsTable
  3
ObjectDBX Classes
 90
        0
280
     0
281
     0
  0
CLASS
  1
DICTIONARYVAR
  2
AcDbDictionaryVar
  3
ObjectDBX Classes
 90
        0
280
     0
281
     0
  0
CLASS
  1
ACDBPLACEHOLDER
  2
AcDbPlaceHolder
  3
ObjectDBX Classes
 90
        0
280
     0
281
     0
  0
CLASS
  1
LAYOUT
  2
AcDbLayout
  3
ObjectDBX Classes
 90
        0
280
     0
281
     0
  0
ENDSEC
  0
SECTION
  2
TABLES
  0
TABLE
  2
VPORT
  5
8
330
0
100
AcDbSymbolTable
 70
     8
  0
VPORT
  5
7488
330
8
100
AcDbSymbolTableRecord
100
AcDbViewportTableRecord
  2
*Active
 70
     0
 10
0.0
 20
0.0
 11
1.0
 21
1.0
 12
1925.651167368786
 22
1657.656288612625
 13
0.0
 23
0.0
 14
10.0
 24
10.0
 15
10.0
 25
10.0
 16
0.0
 26
0.0
 36
1.0
 17
0.0
 27
0.0
 37
0.0
 40
3.408191118874786
 41
1.602030456852791
 42
50.0
 43
0.0
 44
0.0
 50
0.0
 51
0.0
 71
     0
 72
  1000
 73
     1
 74
     3
 75
     0
 76
     0
 77
     0
 78
     0
281
     0
 65
     1
110
0.0
120
0.0
130
0.0
111
1.0
121
0.0
131
0.0
112
0.0
122
1.0
132
0.0
 79
     0
146
0.0
  0
ENDTAB
  0
TABLE
  2
LTYPE
  5
5
330
0
100
AcDbSymbolTable
 70
     3
  0
LTYPE
  5
14
330
5
100
AcDbSymbolTableRecord
100
AcDbLinetypeTableRecord
  2
ByBlock
 70
     0
  3

 72
    65
 73
     0
 40
0.0
  0
LTYPE
  5
15
330
5
100
AcDbSymbolTableRecord
100
AcDbLinetypeTableRecord
  2
ByLayer
 70
     0
  3

 72
    65
 73
     0
 40
0.0
  0
LTYPE
  5
16
330
5
100
AcDbSymbolTableRecord
100
AcDbLinetypeTableRecord
  2
Continuous
 70
     0
  3
Solid line
 72
    65
 73
     0
 40
0.0
  0
LTYPE
  5
2DC
330
5
100
AcDbSymbolTableRecord
100
AcDbLinetypeTableRecord
  2
DASHDOT
 70
     0
  3
Dash dot __ . __ . __ . __ . __ . __ . __ . __
 72
    65
 73
     4
 40
25.4
 49
12.7
 74
     0
 49
-6.349999999999999
 74
     0
 49
0.0
 74
     0
 49
-6.349999999999999
 74
     0
  0
LTYPE
  5
2DD
330
5
100
AcDbSymbolTableRecord
100
AcDbLinetypeTableRecord
  2
HIDDEN
 70
     0
  3
Hidden __ __ __ __ __ __ __ __ __ __ __ __ __ _
 72
    65
 73
     2
 40
9.524999999999998
 49
6.349999999999999
 74
     0
 49
-3.174999999999999
 74
     0
  0
ENDTAB
  0
TABLE
  2
LAYER
  5
2
102
{ACAD_XDICTIONARY
360
2ED
102
}
330
0
100
AcDbSymbolTable
 70
     9
  0
LAYER
  5
10
330
2
100
AcDbSymbolTableRecord
100
AcDbLayerTableRecord
  2
0
 70
     0
 62
     7
  6
Continuous
370
    -3
390
F
  0
LAYER
  5
2DE
330
2
100
AcDbSymbolTableRecord
100
AcDbLayerTableRecord
  2
1
 70
     0
 62
     1
  6
Continuous
370
    -3
390
F
  0
LAYER
  5
2DF
330
2
100
AcDbSymbolTableRecord
100
AcDbLayerTableRecord
  2
4
 70
     0
 62
     4
  6
Continuous
370
    -3
390
F
  0
LAYER
  5
2E0
330
2
100
AcDbSymbolTableRecord
100
AcDbLayerTableRecord
  2
cen
 70
     0
 62
     7
  6
DASHDOT
370
    -3
390
F
  0
LAYER
  5
2E1
330
2
100
AcDbSymbolTableRecord
100
AcDbLayerTableRecord
  2
9
 70
     0
 62
     9
  6
Continuous
370
    -3
390
F
  0
LAYER
  5
2E2
330
2
100
AcDbSymbolTableRecord
100
AcDbLayerTableRecord
  2
cotas
 70
     0
 62
     1
  6
Continuous
370
    -3
390
F
  0
LAYER
  5
2E3
330
2
100
AcDbSymbolTableRecord
100
AcDbLayerTableRecord
  2
Defpoints
 70
     0
 62
     7
  6
Continuous
290
     0
370
    -3
390
F
  0
LAYER
  5
2E4
330
2
100
AcDbSymbolTableRecord
100
AcDbLayerTableRecord
  2
SANINDUSA
 70
     0
 62
     3
  6
Continuous
370
    -3
390
F
  0
LAYER
  5
2E5
330
2
100
AcDbSymbolTableRecord
100
AcDbLayerTableRecord
  2
hid1
 70
     0
 62
     9
  6
HIDDEN
370
    -3
390
F
1001
AcAecLayerStandard
1000

1000

  0
ENDTAB
  0
TABLE
  2
STYLE
  5
3
330
0
100
AcDbSymbolTable
 70
     2
  0
STYLE
  5
11
330
3
100
AcDbSymbolTableRecord
100
AcDbTextStyleTableRecord
  2
Standard
 70
     0
 40
0.0
 41
1.0
 50
0.0
 71
     0
 42
2.5
  3
txt
  4

  0
STYLE
  5
2E6
330
3
100
AcDbSymbolTableRecord
100
AcDbTextStyleTableRecord
  2
SANINDUSA
 70
     0
 40
0.0
 41
1.0
 50
0.0
 71
     0
 42
2.5
  3
verdana.TTF
  4

1001
ACAD
1000
Verdana
1071
       34
  0
ENDTAB
  0
TABLE
  2
VIEW
  5
6
330
0
100
AcDbSymbolTable
 70
     0
  0
ENDTAB
  0
TABLE
  2
UCS
  5
7
330
0
100
AcDbSymbolTable
 70
     0
  0
ENDTAB
  0
TABLE
  2
APPID
  5
9
330
0
100
AcDbSymbolTable
 70
     6
  0
APPID
  5
12
330
9
100
AcDbSymbolTableRecord
100
AcDbRegAppTableRecord
  2
ACAD
 70
     0
  0
APPID
  5
2E8
330
9
100
AcDbSymbolTableRecord
100
AcDbRegAppTableRecord
  2
ACAD_DSTYLE_DIMEXT_LENGTH
 70
     0
  0
APPID
  5
2E9
330
9
100
AcDbSymbolTableRecord
100
AcDbRegAppTableRecord
  2
ACAD_DSTYLE_DIMEXT_ENABLED
 70
     0
  0
APPID
  5
2EA
330
9
100
AcDbSymbolTableRecord
100
AcDbRegAppTableRecord
  2
ACAD_DSTYLE_DIMJOGGED_JOGANGLE_SYMBOL
 70
     0
  0
APPID
  5
2EB
330
9
100
AcDbSymbolTableRecord
100
AcDbRegAppTableRecord
  2
ACAD_DSTYLE_DIMARC_LENGTH_SYMBOL
 70
     0
  0
APPID
  5
2EC
330
9
100
AcDbSymbolTableRecord
100
AcDbRegAppTableRecord
  2
AcAecLayerStandard
 70
     0
  0
ENDTAB
  0
TABLE
  2
DIMSTYLE
  5
A
330
0
100
AcDbSymbolTable
 70
     2
100
AcDbDimStyleTable
 71
     1
340
2B
  0
DIMSTYLE
105
2B
330
A
100
AcDbSymbolTableRecord
100
AcDbDimStyleTableRecord
  2
ISO-25
 70
     0
 41
2.5
 42
0.625
 43
3.75
 44
1.25
 73
     0
 74
     0
 77
     1
 78
     8
140
2.5
141
2.5
143
0.03937007874016
147
0.625
171
     3
172
     1
271
     2
272
     2
274
     3
278
    44
283
     0
284
     8
340
11
  0
DIMSTYLE
105
2E7
102
{ACAD_REACTORS
330
435
330
438
330
439
330
43A
330
43B
330
44A
330
44D
330
450
330
453
330
454
330
457
330
45A
330
45B
330
45C
330
45D
330
45E
330
45F
330
460
330
462
330
464
330
467
330
46A
330
46B
330
46C
330
471
330
474
330
475
330
476
330
477
330
478
330
479
330
487
330
492
330
495
330
498
330
49B
330
49C
330
49D
330
4A0
330
4A3
330
4A6
330
4A9
330
4AA
330
4AD
330
4AE
330
4B1
330
4B4
330
4B7
330
4BA
330
4BB
330
4BC
330
4BD
330
4BE
330
4BF
330
4C0
330
4C1
330
4C2
330
4C5
330
4EC
330
712
330
723
102
}
330
A
100
AcDbSymbolTableRecord
100
AcDbDimStyleTableRecord
  2
SANINDUSA
 70
     0
 40
5.0
 41
2.0
 42
1.0
 43
1.0
 44
1.0
 73
     0
 74
     0
 77
     1
 78
     8
140
2.0
141
0.0
143
0.03937007874016
147
1.0
171
     3
172
     1
176
   256
177
   256
178
   256
179
     1
271
     1
272
     1
274
     3
278
    44
283
     0
284
     8
340
2E6
371
    -1
372
    -1
1001
ACAD_DSTYLE_DIMEXT_LENGTH
1070
   378
1040
1.0
1001
ACAD_DSTYLE_DIMEXT_ENABLED
1070
   383
1070
     0
1001
ACAD_DSTYLE_DIMARC_LENGTH_SYMBOL
1070
   379
1070
     0
1001
ACAD_DSTYLE_DIMJOGGED_JOGANGLE_SYMBOL
1070
   384
1040
1.570796326794896
  0
ENDTAB
  0
TABLE
  2
BLOCK_RECORD
  5
1
330
0
100
AcDbSymbolTable
 70
   125
  0
BLOCK_RECORD
  5
23
330
1
100
AcDbSymbolTableRecord
100
AcDbBlockTableRecord
  2
*Model_Space
340
26
  0
BLOCK_RECORD
  5
1F
330
1
100
AcDbSymbolTableRecord
100
AcDbBlockTableRecord
  2
*Paper_Space
340
22
  0
BLOCK_RECORD
  5
27
330
1
100
AcDbSymbolTableRecord
100
AcDbBlockTableRecord
  2
*Paper_Space0
340
2A
  0
BLOCK_RECORD
  5
2F
330
1
100
AcDbSymbolTableRecord
100
AcDbBlockTableRecord
  2
SW_CENTERMARKSYMBOL_0
340
0
102
{BLKREFS
331
42B
102
}
  0
BLOCK_RECORD
  5
3A
330
1
100
AcDbSymbolTableRecord
100
AcDbBlockTableRecord
  2
*D2
340
0
  0
BLOCK_RECORD
  5
46
330
1
100
AcDbSymbolTableRecord
100
AcDbBlockTableRecord
  2
*D3
340
0
  0
BLOCK_RECORD
  5
52
330
1
100
AcDbSymbolTableRecord
100
AcDbBlockTableRecord
  2
*D4
340
0
  0
BLOCK_RECORD
  5
5E
330
1
100
AcDbSymbolTableRecord
100
AcDbBlockTableRecord
  2
*D5
340
0
  0
BLOCK_RECORD
  5
6A
330
1
100
AcDbSymbolTableRecord
100
AcDbBlockTableRecord
  2
*D6
340
0
  0
BLOCK_RECORD
  5
73
330
1
100
AcDbSymbolTableRecord
100
AcDbBlockTableRecord
  2
*D7
340
0
  0
BLOCK_RECORD
  5
7B
330
1
100
AcDbSymbolTableRecord
100
AcDbBlockTableRecord
  2
*D8
340
0
  0
BLOCK_RECORD
  5
83
330
1
100
AcDbSymbolTableRecord
100
AcDbBlockTableRecord
  2
*D9
340
0
  0
BLOCK_RECORD
  5
8C
330
1
100
AcDbSymbolTableRecord
100
AcDbBlockTableRecord
  2
*D10
340
0
  0
BLOCK_RECORD
  5
94
330
1
100
AcDbSymbolTableRecord
100
AcDbBlockTableRecord
  2
*D11
340
0
  0
BLOCK_RECORD
  5
9D
330
1
100
AcDbSymbolTableRecord
100
AcDbBlockTableRecord
  2
*D12
340
0
  0
BLOCK_RECORD
  5
A6
330
1
100
AcDbSymbolTableRecord
100
AcDbBlockTableRecord
  2
*D13
340
0
  0
BLOCK_RECORD
  5
B2
330
1
100
AcDbSymbolTableRecord
100
AcDbBlockTableRecord
  2
*D14
340
0
  0
BLOCK_RECORD
  5
BA
330
1
100
AcDbSymbolTableRecord
100
AcDbBlockTableRecord
  2
*D15
340
0
  0
BLOCK_RECORD
  5
C2
330
1
100
AcDbSymbolTableRecord
100
AcDbBlockTableRecord
  2
*D16
340
0
  0
BLOCK_RECORD
  5
CF
330
1
100
AcDbSymbolTableRecord
100
AcDbBlockTableRecord
  2
*D17
340
0
  0
BLOCK_RECORD
  5
DC
330
1
100
AcDbSymbolTableRecord
100
AcDbBlockTableRecord
  2
*D18
340
0
  0
BLOCK_RECORD
  5
E8
330
1
100
AcDbSymbolTableRecord
100
AcDbBlockTableRecord
  2
*D19
340
0
  0
BLOCK_RECORD
  5
F5
330
1
100
AcDbSymbolTableRecord
100
AcDbBlockTableRecord
  2
*D20
340
0
  0
BLOCK_RECORD
  5
101
330
1
100
AcDbSymbolTableRecord
100
AcDbBlockTableRecord
  2
*D21
340
0
  0
BLOCK_RECORD
  5
10D
330
1
100
AcDbSymbolTableRecord
100
AcDbBlockTableRecord
  2
*D22
340
0
  0
BLOCK_RECORD
  5
11B
330
1
100
AcDbSymbolTableRecord
100
AcDbBlockTableRecord
  2
*D23
340
0
  0
BLOCK_RECORD
  5
129
330
1
100
AcDbSymbolTableRecord
100
AcDbBlockTableRecord
  2
*D24
340
0
  0
BLOCK_RECORD
  5
135
330
1
100
AcDbSymbolTableRecord
100
AcDbBlockTableRecord
  2
*D25
340
0
  0
BLOCK_RECORD
  5
13E
330
1
100
AcDbSymbolTableRecord
100
AcDbBlockTableRecord
  2
*D26
340
0
  0
BLOCK_RECORD
  5
147
330
1
100
AcDbSymbolTableRecord
100
AcDbBlockTableRecord
  2
*D27
340
0
  0
BLOCK_RECORD
  5
14F
330
1
100
AcDbSymbolTableRecord
100
AcDbBlockTableRecord
  2
*D28
340
0
  0
BLOCK_RECORD
  5
158
330
1
100
AcDbSymbolTableRecord
100
AcDbBlockTableRecord
  2
*D29
340
0
  0
BLOCK_RECORD
  5
160
330
1
100
AcDbSymbolTableRecord
100
AcDbBlockTableRecord
  2
*D30
340
0
  0
BLOCK_RECORD
  5
16C
330
1
100
AcDbSymbolTableRecord
100
AcDbBlockTableRecord
  2
*D31
340
0
  0
BLOCK_RECORD
  5
178
330
1
100
AcDbSymbolTableRecord
100
AcDbBlockTableRecord
  2
*D32
340
0
  0
BLOCK_RECORD
  5
184
330
1
100
AcDbSymbolTableRecord
100
AcDbBlockTableRecord
  2
*D33
340
0
  0
BLOCK_RECORD
  5
18D
330
1
100
AcDbSymbolTableRecord
100
AcDbBlockTableRecord
  2
*D34
340
0
  0
BLOCK_RECORD
  5
199
330
1
100
AcDbSymbolTableRecord
100
AcDbBlockTableRecord
  2
*D35
340
0
  0
BLOCK_RECORD
  5
1A5
330
1
100
AcDbSymbolTableRecord
100
AcDbBlockTableRecord
  2
*D36
340
0
  0
BLOCK_RECORD
  5
1B1
330
1
100
AcDbSymbolTableRecord
100
AcDbBlockTableRecord
  2
*D37
340
0
  0
BLOCK_RECORD
  5
1B9
330
1
100
AcDbSymbolTableRecord
100
AcDbBlockTableRecord
  2
*D38
340
0
  0
BLOCK_RECORD
  5
1C1
330
1
100
AcDbSymbolTableRecord
100
AcDbBlockTableRecord
  2
*D39
340
0
  0
BLOCK_RECORD
  5
1CE
330
1
100
AcDbSymbolTableRecord
100
AcDbBlockTableRecord
  2
*D40
340
0
  0
BLOCK_RECORD
  5
1DB
330
1
100
AcDbSymbolTableRecord
100
AcDbBlockTableRecord
  2
*D41
340
0
  0
BLOCK_RECORD
  5
1E7
330
1
100
AcDbSymbolTableRecord
100
AcDbBlockTableRecord
  2
*D42
340
0
  0
BLOCK_RECORD
  5
1F3
330
1
100
AcDbSymbolTableRecord
100
AcDbBlockTableRecord
  2
*D43
340
0
  0
BLOCK_RECORD
  5
1FF
330
1
100
AcDbSymbolTableRecord
100
AcDbBlockTableRecord
  2
*D44
340
0
  0
BLOCK_RECORD
  5
20B
330
1
100
AcDbSymbolTableRecord
100
AcDbBlockTableRecord
  2
*D45
340
0
  0
BLOCK_RECORD
  5
217
330
1
100
AcDbSymbolTableRecord
100
AcDbBlockTableRecord
  2
*D46
340
0
  0
BLOCK_RECORD
  5
223
330
1
100
AcDbSymbolTableRecord
100
AcDbBlockTableRecord
  2
*D47
340
0
  0
BLOCK_RECORD
  5
22F
330
1
100
AcDbSymbolTableRecord
100
AcDbBlockTableRecord
  2
*D48
340
0
  0
BLOCK_RECORD
  5
23B
330
1
100
AcDbSymbolTableRecord
100
AcDbBlockTableRecord
  2
*D49
340
0
  0
BLOCK_RECORD
  5
247
330
1
100
AcDbSymbolTableRecord
100
AcDbBlockTableRecord
  2
*D50
340
0
  0
BLOCK_RECORD
  5
253
330
1
100
AcDbSymbolTableRecord
100
AcDbBlockTableRecord
  2
*D51
340
0
  0
BLOCK_RECORD
  5
25F
330
1
100
AcDbSymbolTableRecord
100
AcDbBlockTableRecord
  2
*D52
340
0
  0
BLOCK_RECORD
  5
26B
330
1
100
AcDbSymbolTableRecord
100
AcDbBlockTableRecord
  2
*D53
340
0
  0
BLOCK_RECORD
  5
277
330
1
100
AcDbSymbolTableRecord
100
AcDbBlockTableRecord
  2
*D54
340
0
  0
BLOCK_RECORD
  5
283
330
1
100
AcDbSymbolTableRecord
100
AcDbBlockTableRecord
  2
*D55
340
0
  0
BLOCK_RECORD
  5
28F
330
1
100
AcDbSymbolTableRecord
100
AcDbBlockTableRecord
  2
*D56
340
0
  0
BLOCK_RECORD
  5
29B
330
1
100
AcDbSymbolTableRecord
100
AcDbBlockTableRecord
  2
*D57
340
0
  0
BLOCK_RECORD
  5
2A7
330
1
100
AcDbSymbolTableRecord
100
AcDbBlockTableRecord
  2
*D58
340
0
  0
BLOCK_RECORD
  5
2B0
330
1
100
AcDbSymbolTableRecord
100
AcDbBlockTableRecord
  2
*D59
340
0
  0
BLOCK_RECORD
  5
2B9
330
1
100
AcDbSymbolTableRecord
100
AcDbBlockTableRecord
  2
*D60
340
0
  0
BLOCK_RECORD
  5
2C4
330
1
100
AcDbSymbolTableRecord
100
AcDbBlockTableRecord
  2
*D61
340
0
  0
BLOCK_RECORD
  5
2D0
330
1
100
AcDbSymbolTableRecord
100
AcDbBlockTableRecord
  2
*D62
340
0
  0
BLOCK_RECORD
  5
B64
330
1
100
AcDbSymbolTableRecord
100
AcDbBlockTableRecord
  2
*D64
340
0
  0
BLOCK_RECORD
  5
B6C
330
1
100
AcDbSymbolTableRecord
100
AcDbBlockTableRecord
  2
*D65
340
0
  0
BLOCK_RECORD
  5
B74
330
1
100
AcDbSymbolTableRecord
100
AcDbBlockTableRecord
  2
*D66
340
0
  0
BLOCK_RECORD
  5
B81
330
1
100
AcDbSymbolTableRecord
100
AcDbBlockTableRecord
  2
*D67
340
0
  0
BLOCK_RECORD
  5
B8E
330
1
100
AcDbSymbolTableRecord
100
AcDbBlockTableRecord
  2
*D68
340
0
  0
BLOCK_RECORD
  5
B9A
330
1
100
AcDbSymbolTableRecord
100
AcDbBlockTableRecord
  2
*D69
340
0
  0
BLOCK_RECORD
  5
BA6
330
1
100
AcDbSymbolTableRecord
100
AcDbBlockTableRecord
  2
*D70
340
0
  0
BLOCK_RECORD
  5
BB2
330
1
100
AcDbSymbolTableRecord
100
AcDbBlockTableRecord
  2
*D71
340
0
  0
BLOCK_RECORD
  5
BBB
330
1
100
AcDbSymbolTableRecord
100
AcDbBlockTableRecord
  2
*D72
340
0
  0
BLOCK_RECORD
  5
BC4
330
1
100
AcDbSymbolTableRecord
100
AcDbBlockTableRecord
  2
*D73
340
0
  0
BLOCK_RECORD
  5
BCC
330
1
100
AcDbSymbolTableRecord
100
AcDbBlockTableRecord
  2
*D74
340
0
  0
BLOCK_RECORD
  5
BD5
330
1
100
AcDbSymbolTableRecord
100
AcDbBlockTableRecord
  2
*D75
340
0
  0
BLOCK_RECORD
  5
BDD
330
1
100
AcDbSymbolTableRecord
100
AcDbBlockTableRecord
  2
*D76
340
0
  0
BLOCK_RECORD
  5
BE9
330
1
100
AcDbSymbolTableRecord
100
AcDbBlockTableRecord
  2
*D77
340
0
  0
BLOCK_RECORD
  5
BF5
330
1
100
AcDbSymbolTableRecord
100
AcDbBlockTableRecord
  2
*D78
340
0
  0
BLOCK_RECORD
  5
BFE
330
1
100
AcDbSymbolTableRecord
100
AcDbBlockTableRecord
  2
*D79
340
0
  0
BLOCK_RECORD
  5
C0A
330
1
100
AcDbSymbolTableRecord
100
AcDbBlockTableRecord
  2
*D80
340
0
  0
BLOCK_RECORD
  5
C16
330
1
100
AcDbSymbolTableRecord
100
AcDbBlockTableRecord
  2
*D81
340
0
  0
BLOCK_RECORD
  5
C1E
330
1
100
AcDbSymbolTableRecord
100
AcDbBlockTableRecord
  2
*D82
340
0
  0
BLOCK_RECORD
  5
C26
330
1
100
AcDbSymbolTableRecord
100
AcDbBlockTableRecord
  2
*D83
340
0
  0
BLOCK_RECORD
  5
C33
330
1
100
AcDbSymbolTableRecord
100
AcDbBlockTableRecord
  2
*D84
340
0
  0
BLOCK_RECORD
  5
C40
330
1
100
AcDbSymbolTableRecord
100
AcDbBlockTableRecord
  2
*D85
340
0
  0
BLOCK_RECORD
  5
C4C
330
1
100
AcDbSymbolTableRecord
100
AcDbBlockTableRecord
  2
*D86
340
0
  0
BLOCK_RECORD
  5
C58
330
1
100
AcDbSymbolTableRecord
100
AcDbBlockTableRecord
  2
*D87
340
0
  0
BLOCK_RECORD
  5
C64
330
1
100
AcDbSymbolTableRecord
100
AcDbBlockTableRecord
  2
*D88
340
0
  0
BLOCK_RECORD
  5
C70
330
1
100
AcDbSymbolTableRecord
100
AcDbBlockTableRecord
  2
*D89
340
0
  0
BLOCK_RECORD
  5
C7C
330
1
100
AcDbSymbolTableRecord
100
AcDbBlockTableRecord
  2
*D90
340
0
  0
BLOCK_RECORD
  5
C88
330
1
100
AcDbSymbolTableRecord
100
AcDbBlockTableRecord
  2
*D91
340
0
  0
BLOCK_RECORD
  5
C91
330
1
100
AcDbSymbolTableRecord
100
AcDbBlockTableRecord
  2
*D92
340
0
  0
BLOCK_RECORD
  5
C99
330
1
100
AcDbSymbolTableRecord
100
AcDbBlockTableRecord
  2
*D93
340
0
  0
BLOCK_RECORD
  5
CA1
330
1
100
AcDbSymbolTableRecord
100
AcDbBlockTableRecord
  2
*D94
340
0
  0
BLOCK_RECORD
  5
CAA
330
1
100
AcDbSymbolTableRecord
100
AcDbBlockTableRecord
  2
*D95
340
0
  0
BLOCK_RECORD
  5
CB2
330
1
100
AcDbSymbolTableRecord
100
AcDbBlockTableRecord
  2
*D96
340
0
  0
BLOCK_RECORD
  5
CBB
330
1
100
AcDbSymbolTableRecord
100
AcDbBlockTableRecord
  2
*D97
340
0
  0
BLOCK_RECORD
  5
CC4
330
1
100
AcDbSymbolTableRecord
100
AcDbBlockTableRecord
  2
*D98
340
0
  0
BLOCK_RECORD
  5
CD0
330
1
100
AcDbSymbolTableRecord
100
AcDbBlockTableRecord
  2
*D99
340
0
  0
BLOCK_RECORD
  5
CDC
330
1
100
AcDbSymbolTableRecord
100
AcDbBlockTableRecord
  2
*D100
340
0
  0
BLOCK_RECORD
  5
D06
330
1
100
AcDbSymbolTableRecord
100
AcDbBlockTableRecord
  2
*D101
340
0
  0
BLOCK_RECORD
  5
D12
330
1
100
AcDbSymbolTableRecord
100
AcDbBlockTableRecord
  2
*D102
340
0
  0
BLOCK_RECORD
  5
D1F
330
1
100
AcDbSymbolTableRecord
100
AcDbBlockTableRecord
  2
*D103
340
0
  0
BLOCK_RECORD
  5
D34
330
1
100
AcDbSymbolTableRecord
100
AcDbBlockTableRecord
  2
*D104
340
0
  0
BLOCK_RECORD
  5
D42
330
1
100
AcDbSymbolTableRecord
100
AcDbBlockTableRecord
  2
*D105
340
0
  0
BLOCK_RECORD
  5
D87
330
1
100
AcDbSymbolTableRecord
100
AcDbBlockTableRecord
  2
*D106
340
0
  0
BLOCK_RECORD
  5
D93
330
1
100
AcDbSymbolTableRecord
100
AcDbBlockTableRecord
  2
*D107
340
0
  0
BLOCK_RECORD
  5
DB7
330
1
100
AcDbSymbolTableRecord
100
AcDbBlockTableRecord
  2
*D108
340
0
  0
BLOCK_RECORD
  5
DF3
330
1
100
AcDbSymbolTableRecord
100
AcDbBlockTableRecord
  2
*D109
340
0
  0
BLOCK_RECORD
  5
DFF
330
1
100
AcDbSymbolTableRecord
100
AcDbBlockTableRecord
  2
*D110
340
0
  0
BLOCK_RECORD
  5
E0B
330
1
100
AcDbSymbolTableRecord
100
AcDbBlockTableRecord
  2
*D111
340
0
  0
BLOCK_RECORD
  5
E17
330
1
100
AcDbSymbolTableRecord
100
AcDbBlockTableRecord
  2
*D112
340
0
  0
BLOCK_RECORD
  5
E35
330
1
100
AcDbSymbolTableRecord
100
AcDbBlockTableRecord
  2
*D113
340
0
  0
BLOCK_RECORD
  5
E41
330
1
100
AcDbSymbolTableRecord
100
AcDbBlockTableRecord
  2
*D114
340
0
  0
BLOCK_RECORD
  5
E4D
330
1
100
AcDbSymbolTableRecord
100
AcDbBlockTableRecord
  2
*D115
340
0
  0
BLOCK_RECORD
  5
E59
330
1
100
AcDbSymbolTableRecord
100
AcDbBlockTableRecord
  2
*D116
340
0
  0
BLOCK_RECORD
  5
E6E
330
1
100
AcDbSymbolTableRecord
100
AcDbBlockTableRecord
  2
*D117
340
0
  0
BLOCK_RECORD
  5
E83
330
1
100
AcDbSymbolTableRecord
100
AcDbBlockTableRecord
  2
*D118
340
0
  0
BLOCK_RECORD
  5
E8F
330
1
100
AcDbSymbolTableRecord
100
AcDbBlockTableRecord
  2
*D119
340
0
  0
BLOCK_RECORD
  5
E9B
330
1
100
AcDbSymbolTableRecord
100
AcDbBlockTableRecord
  2
*D120
340
0
  0
BLOCK_RECORD
  5
EA7
330
1
100
AcDbSymbolTableRecord
100
AcDbBlockTableRecord
  2
*D121
340
0
  0
BLOCK_RECORD
  5
EE3
330
1
100
AcDbSymbolTableRecord
100
AcDbBlockTableRecord
  2
*D122
340
0
  0
BLOCK_RECORD
  5
EEC
330
1
100
AcDbSymbolTableRecord
100
AcDbBlockTableRecord
  2
*D123
340
0
  0
BLOCK_RECORD
  5
EF5
330
1
100
AcDbSymbolTableRecord
100
AcDbBlockTableRecord
  2
*D124
340
0
  0
ENDTAB
  0
ENDSEC
  0
SECTION
  2
BLOCKS
  0
BLOCK
  5
24
330
23
100
AcDbEntity
  8
0
100
AcDbBlockBegin
  2
*Model_Space
 70
     0
 10
0.0
 20
0.0
 30
0.0
  3
*Model_Space
  1

  0
ENDBLK
  5
25
330
23
100
AcDbEntity
  8
0
100
AcDbBlockEnd
  0
BLOCK
  5
20
330
1F
100
AcDbEntity
 67
     1
  8
0
100
AcDbBlockBegin
  2
*Paper_Space
 70
     0
 10
0.0
 20
0.0
 30
0.0
  3
*Paper_Space
  1

  0
ENDBLK
  5
21
330
1F
100
AcDbEntity
 67
     1
  8
0
100
AcDbBlockEnd
  0
BLOCK
  5
28
330
27
100
AcDbEntity
 67
     1
  8
0
100
AcDbBlockBegin
  2
*Paper_Space0
 70
     0
 10
0.0
 20
0.0
 30
0.0
  3
*Paper_Space0
  1

  0
ENDBLK
  5
29
330
27
100
AcDbEntity
 67
     1
  8
0
100
AcDbBlockEnd
  0
BLOCK
  5
30
330
2F
100
AcDbEntity
  8
0
100
AcDbBlockBegin
  2
SW_CENTERMARKSYMBOL_0
 70
     0
 10
0.0
 20
0.0
 30
0.0
  3
SW_CENTERMARKSYMBOL_0
  1

  0
LINE
  5
31
330
2F
100
AcDbEntity
  8
0
  6
Continuous
 62
     0
370
     0
100
AcDbLine
 10
0.0
 20
0.0
 30
0.0
 11
0.0
 21
0.1250000000000001
 31
0.0
  0
LINE
  5
32
330
2F
100
AcDbEntity
  8
0
  6
Continuous
 62
     0
370
     0
100
AcDbLine
 10
0.0
 20
0.0
 30
0.0
 11
-0.1249999999999862
 21
0.0
 31
0.0
  0
LINE
  5
33
330
2F
100
AcDbEntity
  8
0
  6
Continuous
 62
     0
370
     0
100
AcDbLine
 10
0.0
 20
0.0
 30
0.0
 11
0.0
 21
-0.1250000000000001
 31
0.0
  0
LINE
  5
34
330
2F
100
AcDbEntity
  8
0
  6
Continuous
 62
     0
370
     0
100
AcDbLine
 10
0.0
 20
0.0
 30
0.0
 11
0.125000000000014
 21
0.0
 31
0.0
  0
LINE
  5
35
330
2F
100
AcDbEntity
  8
0
  6
Continuous
 62
     0
370
     0
100
AcDbLine
 10
0.0
 20
0.2500000000000002
 30
0.0
 11
0.0
 21
3.139877262920649
 31
0.0
  0
LINE
  5
36
330
2F
100
AcDbEntity
  8
0
  6
Continuous
 62
     0
370
     0
100
AcDbLine
 10
-0.2499999999999725
 20
0.0
 30
0.0
 11
-3.139877262920642
 21
0.0
 31
0.0
  0
LINE
  5
37
330
2F
100
AcDbEntity
  8
0
  6
Continuous
 62
     0
370
     0
100
AcDbLine
 10
0.0
 20
-0.2500000000000002
 30
0.0
 11
0.0
 21
-3.139877262920642
 31
0.0
  0
LINE
  5
38
330
2F
100
AcDbEntity
  8
0
  6
Continuous
 62
     0
370
     0
100
AcDbLine
 10
0.250000000000028
 20
0.0
 30
0.0
 11
3.139877262920642
 21
0.0
 31
0.0
  0
ENDBLK
  5
39
330
2F
100
AcDbEntity
  8
0
100
AcDbBlockEnd
  0
BLOCK
  5
3B
330
3A
100
AcDbEntity
  8
0
100
AcDbBlockBegin
  2
*D2
 70
     1
 10
0.0
 20
0.0
 30
0.0
  3
*D2
  1

  0
LINE
  5
3C
330
3A
100
AcDbEntity
  8
cotas
100
AcDbLine
 10
5334.163081641355
 20
4343.939812165828
 30
0.0
 11
5201.058077958689
 21
4343.939812165828
 31
0.0
  0
LINE
  5
3D
330
3A
100
AcDbEntity
  8
cotas
100
AcDbLine
 10
5231.756280539199
 20
4403.514462253893
 30
0.0
 11
5201.058077958689
 21
4403.514462253893
 31
0.0
  0
LINE
  5
3E
330
3A
100
AcDbEntity
  8
cotas
100
AcDbLine
 10
5206.058077958689
 20
4353.939812165829
 30
0.0
 11
5206.058077958689
 21
4393.514462253892
 31
0.0
  0
SOLID
  5
3F
330
3A
100
AcDbEntity
  8
cotas
100
AcDbTrace
 10
5204.391411292021
 20
4353.939812165829
 30
0.0
 11
5207.724744625355
 21
4353.939812165829
 31
0.0
 12
5206.058077958689
 22
4343.939812165828
 32
0.0
 13
5206.058077958689
 23
4343.939812165828
 33
0.0
  0
SOLID
  5
40
330
3A
100
AcDbEntity
  8
cotas
100
AcDbTrace
 10
5204.391411292021
 20
4393.514462253892
 30
0.0
 11
5207.724744625355
 21
4393.514462253892
 31
0.0
 12
5206.058077958689
 22
4403.514462253893
 32
0.0
 13
5206.058077958689
 23
4403.514462253893
 33
0.0
  0
MTEXT
  5
41
330
3A
100
AcDbEntity
  8
cotas
100
AcDbMText
 10
5194.714894614161
 20
4373.727137209862
 30
0.0
 40
10.0
 41
0.0
 71
     5
 72
     1
  1
59,6
  7
SANINDUSA
 11
0.0000000000000001
 21
1.0
 31
0.0
 73
     1
 44
1.0
1001
ACAD
1000
MTEXTBEGIN
1070
    73
1070
     1
1070
    44
1040
1.0
1070
    74
1070
     0
1000
MTEXTEND
  0
POINT
  5
42
330
3A
100
AcDbEntity
  8
Defpoints
 62
     0
100
AcDbPoint
 10
5339.163081641355
 20
4343.939812165828
 30
0.0
  0
POINT
  5
43
330
3A
100
AcDbEntity
  8
Defpoints
 62
     0
100
AcDbPoint
 10
5236.756280539199
 20
4403.514462253893
 30
0.0
  0
POINT
  5
44
330
3A
100
AcDbEntity
  8
Defpoints
 62
     0
100
AcDbPoint
 10
5206.058077958689
 20
4403.514462253893
 30
0.0
  0
ENDBLK
  5
45
330
3A
100
AcDbEntity
  8
0
100
AcDbBlockEnd
  0
BLOCK
  5
47
330
46
100
AcDbEntity
  8
0
100
AcDbBlockBegin
  2
*D3
 70
     1
 10
0.0
 20
0.0
 30
0.0
  3
*D3
  1

  0
LINE
  5
48
330
46
100
AcDbEntity
  8
cotas
100
AcDbLine
 10
6256.756291268168
 20
4332.409141401281
 30
0.0
 11
6256.756291268168
 21
4468.509462209651
 31
0.0
  0
LINE
  5
49
330
46
100
AcDbEntity
  8
cotas
100
AcDbLine
 10
5236.756280539199
 20
4408.514462253893
 30
0.0
 11
5236.756280539199
 21
4468.509462209651
 31
0.0
  0
LINE
  5
4A
330
46
100
AcDbEntity
  8
cotas
100
AcDbLine
 10
6246.756291268169
 20
4463.50946220965
 30
0.0
 11
5246.756280539199
 21
4463.50946220965
 31
0.0
  0
SOLID
  5
4B
330
46
100
AcDbEntity
  8
cotas
100
AcDbTrace
 10
6246.756291268169
 20
4465.176128876318
 30
0.0
 11
6246.756291268169
 21
4461.842795542984
 31
0.0
 12
6256.756291268168
 22
4463.50946220965
 32
0.0
 13
6256.756291268168
 23
4463.50946220965
 33
0.0
  0
SOLID
  5
4C
330
46
100
AcDbEntity
  8
cotas
100
AcDbTrace
 10
5246.756280539199
 20
4465.176128876318
 30
0.0
 11
5246.756280539199
 21
4461.842795542984
 31
0.0
 12
5236.756280539199
 22
4463.50946220965
 32
0.0
 13
5236.756280539199
 23
4463.50946220965
 33
0.0
  0
MTEXT
  5
4D
330
46
100
AcDbEntity
  8
cotas
100
AcDbMText
 10
5746.756285903685
 20
4473.717655628052
 30
0.0
 40
10.0
 41
0.0
 71
     5
 72
     1
  1
1020
  7
SANINDUSA
 73
     1
 44
1.0
1001
ACAD
1000
MTEXTBEGIN
1070
    73
1070
     1
1070
    44
1040
1.0
1070
    74
1070
     0
1000
MTEXTEND
  0
POINT
  5
4E
330
46
100
AcDbEntity
  8
Defpoints
 62
     0
100
AcDbPoint
 10
6256.756291268168
 20
4327.409141401282
 30
0.0
  0
POINT
  5
4F
330
46
100
AcDbEntity
  8
Defpoints
 62
     0
100
AcDbPoint
 10
5236.756280539199
 20
4403.514462253893
 30
0.0
  0
POINT
  5
50
330
46
100
AcDbEntity
  8
Defpoints
 62
     0
100
AcDbPoint
 10
5236.756280539199
 20
4463.50946220965
 30
0.0
  0
ENDBLK
  5
51
330
46
100
AcDbEntity
  8
0
100
AcDbBlockEnd
  0
BLOCK
  5
53
330
52
100
AcDbEntity
  8
0
100
AcDbBlockBegin
  2
*D4
 70
     1
 10
0.0
 20
0.0
 30
0.0
  3
*D4
  1

  0
LINE
  5
54
330
52
100
AcDbEntity
  8
cotas
100
AcDbLine
 10
5948.453059501582
 20
2790.556987537536
 30
0.0
 11
5948.453059501582
 21
2955.823570811422
 31
0.0
  0
LINE
  5
55
330
52
100
AcDbEntity
  8
cotas
100
AcDbLine
 10
5868.465761759173
 20
2790.556987537536
 30
0.0
 11
5868.465761759173
 21
2955.823570811422
 31
0.0
  0
LINE
  5
56
330
52
100
AcDbEntity
  8
cotas
100
AcDbLine
 10
5938.453059501583
 20
2950.823570811422
 30
0.0
 11
5878.465761759173
 21
2950.823570811422
 31
0.0
  0
SOLID
  5
57
330
52
100
AcDbEntity
  8
cotas
100
AcDbTrace
 10
5938.453059501583
 20
2952.490237478088
 30
0.0
 11
5938.453059501583
 21
2949.156904144755
 31
0.0
 12
5948.453059501582
 22
2950.823570811422
 32
0.0
 13
5948.453059501582
 23
2950.823570811422
 33
0.0
  0
SOLID
  5
58
330
52
100
AcDbEntity
  8
cotas
100
AcDbTrace
 10
5878.465761759173
 20
2952.490237478088
 30
0.0
 11
5878.465761759173
 21
2949.156904144755
 31
0.0
 12
5868.465761759173
 22
2950.823570811422
 32
0.0
 13
5868.465761759173
 23
2950.823570811422
 33
0.0
  0
MTEXT
  5
59
330
52
100
AcDbEntity
  8
cotas
100
AcDbMText
 10
5908.459410630378
 20
2961.051911979991
 30
0.0
 40
10.0
 41
0.0
 71
     5
 72
     1
  1
80
  7
SANINDUSA
 73
     1
 44
1.0
1001
ACAD
1000
MTEXTBEGIN
1070
    73
1070
     1
1070
    44
1040
1.0
1070
    74
1070
     0
1000
MTEXTEND
  0
POINT
  5
5A
330
52
100
AcDbEntity
  8
Defpoints
 62
     0
100
AcDbPoint
 10
5948.453059501582
 20
2785.556987537536
 30
0.0
  0
POINT
  5
5B
330
52
100
AcDbEntity
  8
Defpoints
 62
     0
100
AcDbPoint
 10
5868.465761759173
 20
2785.556987537536
 30
0.0
  0
POINT
  5
5C
330
52
100
AcDbEntity
  8
Defpoints
 62
     0
100
AcDbPoint
 10
5868.465761759173
 20
2950.823570811422
 30
0.0
  0
ENDBLK
  5
5D
330
52
100
AcDbEntity
  8
0
100
AcDbBlockEnd
  0
BLOCK
  5
5F
330
5E
100
AcDbEntity
  8
0
100
AcDbBlockBegin
  2
*D5
 70
     1
 10
0.0
 20
0.0
 30
0.0
  3
*D5
  1

  0
LINE
  5
60
330
5E
100
AcDbEntity
  8
cotas
100
AcDbLine
 10
6152.216293234849
 20
2430.102952142946
 30
0.0
 11
6472.454537031983
 21
2430.102952142946
 31
0.0
  0
LINE
  5
61
330
5E
100
AcDbEntity
  8
cotas
100
AcDbLine
 10
6152.216293234848
 20
2350.117421486086
 30
0.0
 11
6472.454537031983
 21
2350.117421486086
 31
0.0
  0
LINE
  5
62
330
5E
100
AcDbEntity
  8
cotas
100
AcDbLine
 10
6467.454537031983
 20
2420.102952142947
 30
0.0
 11
6467.454537031983
 21
2360.117421486086
 31
0.0
  0
SOLID
  5
63
330
5E
100
AcDbEntity
  8
cotas
100
AcDbTrace
 10
6465.787870365315
 20
2420.102952142947
 30
0.0
 11
6469.12120369865
 21
2420.102952142947
 31
0.0
 12
6467.454537031983
 22
2430.102952142946
 32
0.0
 13
6467.454537031983
 23
2430.102952142946
 33
0.0
  0
SOLID
  5
64
330
5E
100
AcDbEntity
  8
cotas
100
AcDbTrace
 10
6465.787870365315
 20
2360.117421486086
 30
0.0
 11
6469.12120369865
 21
2360.117421486086
 31
0.0
 12
6467.454537031983
 22
2350.117421486086
 32
0.0
 13
6467.454537031983
 23
2350.117421486086
 33
0.0
  0
MTEXT
  5
65
330
5E
100
AcDbEntity
  8
cotas
100
AcDbMText
 10
6457.226195863412
 20
2390.110186814517
 30
0.0
 40
10.0
 41
0.0
 71
     5
 72
     1
  1
80
  7
SANINDUSA
 11
0.0000000000000001
 21
1.0
 31
0.0
 73
     1
 44
1.0
1001
ACAD
1000
MTEXTBEGIN
1070
    73
1070
     1
1070
    44
1040
1.0
1070
    74
1070
     0
1000
MTEXTEND
  0
POINT
  5
66
330
5E
100
AcDbEntity
  8
Defpoints
 62
     0
100
AcDbPoint
 10
6147.216293234849
 20
2430.102952142946
 30
0.0
  0
POINT
  5
67
330
5E
100
AcDbEntity
  8
Defpoints
 62
     0
100
AcDbPoint
 10
6147.216293234848
 20
2350.117421486086
 30
0.0
  0
POINT
  5
68
330
5E
100
AcDbEntity
  8
Defpoints
 62
     0
100
AcDbPoint
 10
6467.454537031983
 20
2350.117421486086
 30
0.0
  0
ENDBLK
  5
69
330
5E
100
AcDbEntity
  8
0
100
AcDbBlockEnd
  0
BLOCK
  5
6B
330
6A
100
AcDbEntity
  8
0
100
AcDbBlockBegin
  2
*D6
 70
     1
 10
0.0
 20
0.0
 30
0.0
  3
*D6
  1

  0
LINE
  5
6C
330
6A
100
AcDbEntity
  8
cotas
100
AcDbLine
 10
5275.337635496189
 20
2056.258356155092
 30
0.0
 11
5306.275644450574
 21
2088.662801751231
 31
0.0
  0
MTEXT
  5
6D
330
6A
100
AcDbEntity
  8
cotas
100
AcDbMText
 10
5279.970467739432
 20
2075.893447168474
 30
0.0
 40
10.0
 41
0.0
 71
     5
 72
     1
  1
R20
  7
SANINDUSA
 11
0.6905515714747532
 21
0.723283158336864
 31
0.0
 73
     1
 44
1.0
1001
ACAD
1000
MTEXTBEGIN
1070
    73
1070
     1
1070
    44
1040
1.0
1070
    74
1070
     0
1000
MTEXTEND
  0
LINE
  5
6E
330
6A
100
AcDbEntity
  8
cotas
100
AcDbLine
 10
5326.992191594816
 20
2110.361296501337
 30
0.0
 11
5313.181160165322
 21
2095.8956333346
 31
0.0
  0
SOLID
  5
6F
330
6A
100
AcDbEntity
  8
cotas
100
AcDbTrace
 10
5305.070172520013
 20
2089.813721037022
 30
0.0
 11
5307.481116381135
 21
2087.51188246544
 31
0.0
 12
5313.181160165322
 22
2095.8956333346
 32
0.0
 13
5313.181160165322
 23
2095.8956333346
 33
0.0
  0
POINT
  5
70
330
6A
100
AcDbEntity
  8
Defpoints
 62
     0
100
AcDbPoint
 10
5313.181160165322
 20
2095.8956333346
 30
0.0
  0
POINT
  5
71
330
6A
100
AcDbEntity
  8
Defpoints
 62
     0
100
AcDbPoint
 10
5326.992191594816
 20
2110.361296501337
 30
0.0
  0
ENDBLK
  5
72
330
6A
100
AcDbEntity
  8
0
100
AcDbBlockEnd
  0
BLOCK
  5
74
330
73
100
AcDbEntity
  8
0
100
AcDbBlockBegin
  2
*D7
 70
     1
 10
0.0
 20
0.0
 30
0.0
  3
*D7
  1

  0
LINE
  5
75
330
73
100
AcDbEntity
  8
cotas
100
AcDbLine
 10
5381.413596599353
 20
2167.823625943801
 30
0.0
 11
5348.91088120598
 21
2136.988873074466
 31
0.0
  0
MTEXT
  5
76
330
73
100
AcDbEntity
  8
cotas
100
AcDbMText
 10
5361.766176037344
 20
2163.250852949615
 30
0.0
 40
10.0
 41
0.0
 71
     5
 72
     1
  1
R10
  7
SANINDUSA
 11
0.7254765885283236
 21
0.6882468448872871
 31
0.0
 73
     1
 44
1.0
1001
ACAD
1000
MTEXTBEGIN
1070
    73
1070
     1
1070
    44
1040
1.0
1070
    74
1070
     0
1000
MTEXTEND
  0
SOLID
  5
77
330
73
100
AcDbEntity
  8
cotas
100
AcDbTrace
 10
5347.763803131167
 20
2138.198000722013
 30
0.0
 11
5350.057959280792
 21
2135.779745426919
 31
0.0
 12
5341.656115320697
 22
2130.106404625593
 32
0.0
 13
5341.656115320697
 23
2130.106404625593
 33
0.0
  0
POINT
  5
78
330
73
100
AcDbEntity
  8
Defpoints
 62
     0
100
AcDbPoint
 10
5341.656115320697
 20
2130.106404625593
 30
0.0
  0
POINT
  5
79
330
73
100
AcDbEntity
  8
Defpoints
 62
     0
100
AcDbPoint
 10
5348.910881205974
 20
2136.98887307446
 30
0.0
  0
ENDBLK
  5
7A
330
73
100
AcDbEntity
  8
0
100
AcDbBlockEnd
  0
BLOCK
  5
7C
330
7B
100
AcDbEntity
  8
0
100
AcDbBlockBegin
  2
*D8
 70
     1
 10
0.0
 20
0.0
 30
0.0
  3
*D8
  1

  0
LINE
  5
7D
330
7B
100
AcDbEntity
  8
cotas
100
AcDbLine
 10
5557.000423096064
 20
2165.820448272503
 30
0.0
 11
5591.915998785216
 21
2137.747132352399
 31
0.0
  0
MTEXT
  5
7E
330
7B
100
AcDbEntity
  8
cotas
100
AcDbMText
 10
5576.956000993109
 20
2162.869804547526
 30
0.0
 40
10.0
 41
0.0
 71
     5
 72
     1
  1
R10
  7
SANINDUSA
 11
0.7793328166863544
 21
-0.6266102144361464
 31
0.0
 73
     1
 44
1.0
1001
ACAD
1000
MTEXTBEGIN
1070
    73
1070
     1
1070
    44
1040
1.0
1070
    74
1070
     0
1000
MTEXTEND
  0
SOLID
  5
7F
330
7B
100
AcDbEntity
  8
cotas
100
AcDbTrace
 10
5592.96034914261
 20
2139.046020380209
 30
0.0
 11
5590.871648427823
 21
2136.448244324588
 31
0.0
 12
5599.70932695208
 22
2131.481030208037
 32
0.0
 13
5599.70932695208
 23
2131.481030208037
 33
0.0
  0
POINT
  5
80
330
7B
100
AcDbEntity
  8
Defpoints
 62
     0
100
AcDbPoint
 10
5599.70932695208
 20
2131.481030208037
 30
0.0
  0
POINT
  5
81
330
7B
100
AcDbEntity
  8
Defpoints
 62
     0
100
AcDbPoint
 10
5591.915998785216
 20
2137.747132352398
 30
0.0
  0
ENDBLK
  5
82
330
7B
100
AcDbEntity
  8
0
100
AcDbBlockEnd
  0
BLOCK
  5
84
330
83
100
AcDbEntity
  8
0
100
AcDbBlockBegin
  2
*D9
 70
     1
 10
0.0
 20
0.0
 30
0.0
  3
*D9
  1

  0
LINE
  5
85
330
83
100
AcDbEntity
  8
cotas
100
AcDbLine
 10
5273.712330626062
 20
2882.416970986121
 30
0.0
 11
5305.623800443641
 21
2850.970721821292
 31
0.0
  0
MTEXT
  5
86
330
83
100
AcDbEntity
  8
cotas
100
AcDbMText
 10
5293.271754554691
 20
2877.474414028642
 30
0.0
 40
10.0
 41
0.0
 71
     5
 72
     1
  1
R20
  7
SANINDUSA
 11
0.7122796965728839
 21
-0.7018957428635969
 31
0.0
 73
     1
 44
1.0
1001
ACAD
1000
MTEXTBEGIN
1070
    73
1070
     1
1070
    44
1040
1.0
1070
    74
1070
     0
1000
MTEXTEND
  0
LINE
  5
87
330
83
100
AcDbEntity
  8
cotas
100
AcDbLine
 10
5326.992191340831
 20
2829.913849535382
 30
0.0
 11
5312.746597409371
 21
2843.951764392656
 31
0.0
  0
SOLID
  5
88
330
83
100
AcDbEntity
  8
cotas
100
AcDbTrace
 10
5306.793626681749
 20
2852.157854648914
 30
0.0
 11
5304.453974205536
 21
2849.783588993671
 31
0.0
 12
5312.746597409371
 22
2843.951764392656
 32
0.0
 13
5312.746597409371
 23
2843.951764392656
 33
0.0
  0
POINT
  5
89
330
83
100
AcDbEntity
  8
Defpoints
 62
     0
100
AcDbPoint
 10
5312.746597409371
 20
2843.951764392656
 30
0.0
  0
POINT
  5
8A
330
83
100
AcDbEntity
  8
Defpoints
 62
     0
100
AcDbPoint
 10
5326.992191340831
 20
2829.913849535382
 30
0.0
  0
ENDBLK
  5
8B
330
83
100
AcDbEntity
  8
0
100
AcDbBlockEnd
  0
BLOCK
  5
8D
330
8C
100
AcDbEntity
  8
0
100
AcDbBlockBegin
  2
*D10
 70
     1
 10
0.0
 20
0.0
 30
0.0
  3
*D10
  1

  0
LINE
  5
8E
330
8C
100
AcDbEntity
  8
cotas
100
AcDbLine
 10
5378.080646029689
 20
2769.256802258909
 30
0.0
 11
5348.911092552722
 21
2803.261884855621
 31
0.0
  0
MTEXT
  5
8F
330
8C
100
AcDbEntity
  8
cotas
100
AcDbMText
 10
5374.496836997592
 20
2789.108444518889
 30
0.0
 40
10.0
 41
0.0
 71
     5
 72
     1
  1
R10
  7
SANINDUSA
 11
0.6510787757038356
 21
-0.7590101631915047
 31
0.0
 73
     1
 44
1.0
1001
ACAD
1000
MTEXTBEGIN
1070
    73
1070
     1
1070
    44
1040
1.0
1070
    74
1070
     0
1000
MTEXTEND
  0
SOLID
  5
90
330
8C
100
AcDbEntity
  8
cotas
100
AcDbTrace
 10
5350.176109491375
 20
2804.347016148461
 30
0.0
 11
5347.646075614069
 21
2802.176753562781
 31
0.0
 12
5342.400304795684
 22
2810.851986487536
 32
0.0
 13
5342.400304795684
 23
2810.851986487536
 33
0.0
  0
POINT
  5
91
330
8C
100
AcDbEntity
  8
Defpoints
 62
     0
100
AcDbPoint
 10
5342.400304795684
 20
2810.851986487536
 30
0.0
  0
POINT
  5
92
330
8C
100
AcDbEntity
  8
Defpoints
 62
     0
100
AcDbPoint
 10
5348.911092552723
 20
2803.261884855621
 30
0.0
  0
ENDBLK
  5
93
330
8C
100
AcDbEntity
  8
0
100
AcDbBlockEnd
  0
BLOCK
  5
95
330
94
100
AcDbEntity
  8
0
100
AcDbBlockBegin
  2
*D11
 70
     1
 10
0.0
 20
0.0
 30
0.0
  3
*D11
  1

  0
LINE
  5
96
330
94
100
AcDbEntity
  8
cotas
100
AcDbLine
 10
6396.647827243846
 20
2054.829497198634
 30
0.0
 11
6366.631759849131
 21
2088.089746605561
 31
0.0
  0
MTEXT
  5
97
330
94
100
AcDbEntity
  8
cotas
100
AcDbMText
 10
6392.568071356995
 20
2074.586914175596
 30
0.0
 40
10.0
 41
0.0
 71
     5
 72
     1
  1
R20
  7
SANINDUSA
 11
0.669973382562252
 21
-0.7423851201755694
 31
0.0
 73
     1
 44
1.0
1001
ACAD
1000
MTEXTBEGIN
1070
    73
1070
     1
1070
    44
1040
1.0
1070
    74
1070
     0
1000
MTEXTEND
  0
LINE
  5
98
330
94
100
AcDbEntity
  8
cotas
100
AcDbLine
 10
6346.532558372265
 20
2110.361300210826
 30
0.0
 11
6359.932026023509
 21
2095.513597807316
 31
0.0
  0
SOLID
  5
99
330
94
100
AcDbEntity
  8
cotas
100
AcDbTrace
 10
6367.869068382758
 20
2089.206368909831
 30
0.0
 11
6365.394451315506
 21
2086.973124301291
 31
0.0
 12
6359.932026023509
 22
2095.513597807316
 32
0.0
 13
6359.932026023509
 23
2095.513597807316
 33
0.0
  0
POINT
  5
9A
330
94
100
AcDbEntity
  8
Defpoints
 62
     0
100
AcDbPoint
 10
6359.932026023509
 20
2095.513597807316
 30
0.0
  0
POINT
  5
9B
330
94
100
AcDbEntity
  8
Defpoints
 62
     0
100
AcDbPoint
 10
6346.532558372265
 20
2110.361300210826
 30
0.0
  0
ENDBLK
  5
9C
330
94
100
AcDbEntity
  8
0
100
AcDbBlockEnd
  0
BLOCK
  5
9E
330
9D
100
AcDbEntity
  8
0
100
AcDbBlockBegin
  2
*D12
 70
     1
 10
0.0
 20
0.0
 30
0.0
  3
*D12
  1

  0
LINE
  5
9F
330
9D
100
AcDbEntity
  8
cotas
100
AcDbLine
 10
6399.953411847089
 20
2882.261077559683
 30
0.0
 11
6367.950200804809
 21
2850.908199295668
 31
0.0
  0
MTEXT
  5
A0
330
9D
100
AcDbEntity
  8
cotas
100
AcDbMText
 10
6380.379630589129
 20
2877.37568904255
 30
0.0
 40
10.0
 41
0.0
 71
     5
 72
     1
  1
R20
  7
SANINDUSA
 11
0.7143274058155375
 21
0.6998116584487891
 31
0.0
 73
     1
 44
1.0
1001
ACAD
1000
MTEXTBEGIN
1070
    73
1070
     1
1070
    44
1040
1.0
1070
    74
1070
     0
1000
MTEXTEND
  0
LINE
  5
A1
330
9D
100
AcDbEntity
  8
cotas
100
AcDbLine
 10
6346.520378630343
 20
2829.913849542204
 30
0.0
 11
6360.806926746654
 21
2843.910082711181
 31
0.0
  0
SOLID
  5
A2
330
9D
100
AcDbEntity
  8
cotas
100
AcDbTrace
 10
6366.783848040729
 20
2852.098744972027
 30
0.0
 11
6369.116553568891
 21
2849.717653619309
 31
0.0
 12
6360.806926746654
 22
2843.910082711181
 32
0.0
 13
6360.806926746654
 23
2843.910082711181
 33
0.0
  0
POINT
  5
A3
330
9D
100
AcDbEntity
  8
Defpoints
 62
     0
100
AcDbPoint
 10
6360.806926746654
 20
2843.910082711181
 30
0.0
  0
POINT
  5
A4
330
9D
100
AcDbEntity
  8
Defpoints
 62
     0
100
AcDbPoint
 10
6346.520378630343
 20
2829.913849542204
 30
0.0
  0
ENDBLK
  5
A5
330
9D
100
AcDbEntity
  8
0
100
AcDbBlockEnd
  0
BLOCK
  5
A7
330
A6
100
AcDbEntity
  8
0
100
AcDbBlockBegin
  2
*D13
 70
     1
 10
0.0
 20
0.0
 30
0.0
  3
*D13
  1

  0
LINE
  5
A8
330
A6
100
AcDbEntity
  8
cotas
100
AcDbLine
 10
4054.282184569903
 20
3532.26417095606
 30
0.0
 11
4054.282184569903
 21
3562.26417095606
 31
0.0
  0
LINE
  5
A9
330
A6
100
AcDbEntity
  8
cotas
100
AcDbLine
 10
4954.282188227717
 20
3532.26417095606
 30
0.0
 11
4954.282188227717
 21
3562.26417095606
 31
0.0
  0
LINE
  5
AA
330
A6
100
AcDbEntity
  8
cotas
100
AcDbLine
 10
4064.282184569902
 20
3557.264170956059
 30
0.0
 11
4944.282188227717
 21
3557.264170956059
 31
0.0
  0
SOLID
  5
AB
330
A6
100
AcDbEntity
  8
cotas
100
AcDbTrace
 10
4064.282184569902
 20
3558.930837622726
 30
0.0
 11
4064.282184569902
 21
3555.597504289393
 31
0.0
 12
4054.282184569903
 22
3557.264170956059
 32
0.0
 13
4054.282184569903
 23
3557.264170956059
 33
0.0
  0
SOLID
  5
AC
330
A6
100
AcDbEntity
  8
cotas
100
AcDbTrace
 10
4944.282188227717
 20
3558.930837622726
 30
0.0
 11
4944.282188227717
 21
3555.597504289393
 31
0.0
 12
4954.282188227717
 22
3557.264170956059
 32
0.0
 13
4954.282188227717
 23
3557.264170956059
 33
0.0
  0
MTEXT
  5
AD
330
A6
100
AcDbEntity
  8
cotas
100
AcDbMText
 10
4504.28218639881
 20
3567.4690064161
 30
0.0
 40
10.0
 41
0.0
 71
     5
 72
     1
  1
900
  7
SANINDUSA
 73
     1
 44
1.0
1001
ACAD
1000
MTEXTBEGIN
1070
    73
1070
     1
1070
    44
1040
1.0
1070
    74
1070
     0
1000
MTEXTEND
  0
POINT
  5
AE
330
A6
100
AcDbEntity
  8
Defpoints
 62
     0
100
AcDbPoint
 10
4054.282184569903
 20
3527.26417095606
 30
0.0
  0
POINT
  5
AF
330
A6
100
AcDbEntity
  8
Defpoints
 62
     0
100
AcDbPoint
 10
4954.282188227717
 20
3527.26417095606
 30
0.0
  0
POINT
  5
B0
330
A6
100
AcDbEntity
  8
Defpoints
 62
     0
100
AcDbPoint
 10
4954.282188227717
 20
3557.264170956059
 30
0.0
  0
ENDBLK
  5
B1
330
A6
100
AcDbEntity
  8
0
100
AcDbBlockEnd
  0
BLOCK
  5
B3
330
B2
100
AcDbEntity
  8
0
100
AcDbBlockBegin
  2
*D14
 70
     1
 10
0.0
 20
0.0
 30
0.0
  3
*D14
  1

  0
LINE
  5
B4
330
B2
100
AcDbEntity
  8
cotas
100
AcDbLine
 10
4087.173664300088
 20
3491.075090817837
 30
0.0
 11
4063.157016409599
 21
3518.02448802878
 31
0.0
  0
MTEXT
  5
B5
330
B2
100
AcDbEntity
  8
cotas
100
AcDbMText
 10
4085.957535108622
 20
3507.47015453687
 30
0.0
 40
10.0
 41
0.0
 71
     5
 72
     1
  1
R7
  7
SANINDUSA
 11
0.6653169992360671
 21
-0.7465609757598606
 31
0.0
 73
     1
 44
1.0
1001
ACAD
1000
MTEXTBEGIN
1070
    73
1070
     1
1070
    44
1040
1.0
1070
    74
1070
     0
1000
MTEXTEND
  0
SOLID
  5
B6
330
B2
100
AcDbEntity
  8
cotas
100
AcDbTrace
 10
4064.401284702532
 20
3519.133349694174
 30
0.0
 11
4061.912748116665
 21
3516.915626363386
 31
0.0
 12
4056.503846417238
 22
3525.490097786379
 32
0.0
 13
4056.503846417238
 23
3525.490097786379
 33
0.0
  0
POINT
  5
B7
330
B2
100
AcDbEntity
  8
Defpoints
 62
     0
100
AcDbPoint
 10
4056.503846417238
 20
3525.490097786379
 30
0.0
  0
POINT
  5
B8
330
B2
100
AcDbEntity
  8
Defpoints
 62
     0
100
AcDbPoint
 10
4061.161065411889
 20
3520.264170956061
 30
0.0
  0
ENDBLK
  5
B9
330
B2
100
AcDbEntity
  8
0
100
AcDbBlockEnd
  0
BLOCK
  5
BB
330
BA
100
AcDbEntity
  8
0
100
AcDbBlockBegin
  2
*D15
 70
     1
 10
0.0
 20
0.0
 30
0.0
  3
*D15
  1

  0
LINE
  5
BC
330
BA
100
AcDbEntity
  8
cotas
100
AcDbLine
 10
4917.372428867113
 20
3495.228111855077
 30
0.0
 11
4945.099029753227
 21
3518.343150017088
 31
0.0
  0
MTEXT
  5
BD
330
BA
100
AcDbEntity
  8
cotas
100
AcDbMText
 10
4920.991869555203
 20
3511.264842621255
 30
0.0
 40
10.0
 41
0.0
 71
     5
 72
     1
  1
R7
  7
SANINDUSA
 11
0.7680913250124711
 21
0.6403403129903557
 31
0.0
 73
     1
 44
1.0
1001
ACAD
1000
MTEXTBEGIN
1070
    73
1070
     1
1070
    44
1040
1.0
1070
    74
1070
     0
1000
MTEXTEND
  0
SOLID
  5
BE
330
BA
100
AcDbEntity
  8
cotas
100
AcDbTrace
 10
4944.031795898244
 20
3519.623302225442
 30
0.0
 11
4946.166263608211
 21
3517.062997808733
 31
0.0
 12
4952.779943003351
 22
3524.746553146991
 32
0.0
 13
4952.779943003351
 23
3524.746553146991
 33
0.0
  0
POINT
  5
BF
330
BA
100
AcDbEntity
  8
Defpoints
 62
     0
100
AcDbPoint
 10
4952.779943003351
 20
3524.746553146991
 30
0.0
  0
POINT
  5
C0
330
BA
100
AcDbEntity
  8
Defpoints
 62
     0
100
AcDbPoint
 10
4947.403303728265
 20
3520.26417095606
 30
0.0
  0
ENDBLK
  5
C1
330
BA
100
AcDbEntity
  8
0
100
AcDbBlockEnd
  0
BLOCK
  5
C3
330
C2
100
AcDbEntity
  8
0
100
AcDbBlockBegin
  2
*D16
 70
     1
 10
0.0
 20
0.0
 30
0.0
  3
*D16
  1

  0
LINE
  5
C4
330
C2
100
AcDbEntity
  8
cotas
100
AcDbLine
 10
4955.067628911494
 20
3482.264933327956
 30
0.0
 11
4955.594355463627
 21
3452.087869962142
 31
0.0
  0
ARC
  5
C5
330
C2
100
AcDbEntity
  8
cotas
100
AcDbCircle
 10
4954.282188227717
 20
3527.264170956061
 30
0.0
 40
70.18775175507641
100
AcDbArc
 50
188.1701364803898
 51
262.8298330588092
  0
SOLID
  5
C6
330
C2
100
AcDbEntity
  8
cotas
100
AcDbTrace
 10
4883.144379174382
 20
3517.170847969659
 30
0.0
 11
4886.469243780688
 21
3517.408306304623
 31
0.0
 12
4884.09443647264
 22
3527.26417095606
 32
0.0
 13
4884.09443647264
 23
3527.26417095606
 33
0.0
  0
SOLID
  5
C7
330
C2
100
AcDbEntity
  8
cotas
100
AcDbTrace
 10
4945.611287602289
 20
3459.28955080304
 30
0.0
 11
4945.431890552269
 21
3455.961048465719
 31
0.0
 12
4955.507096089244
 22
3457.087108484316
 32
0.0
 13
4955.507096089244
 23
3457.087108484316
 33
0.0
  0
MTEXT
  5
C8
330
C2
100
AcDbEntity
  8
cotas
100
AcDbMText
 10
4913.037473918302
 20
3485.293267070646
 30
0.0
 40
10.0
 41
0.0
 71
     5
 72
     1
  1
91,0°
  7
SANINDUSA
 11
0.7132502628380123
 21
-0.7009094538965118
 31
0.0
 73
     1
 44
1.0
1001
ACAD
1000
MTEXTBEGIN
1070
    73
1070
     1
1070
    44
1040
1.0
1070
    74
1070
     0
1000
MTEXTEND
  0
POINT
  5
C9
330
C2
100
AcDbEntity
  8
Defpoints
 62
     0
100
AcDbPoint
 10
4893.70300129633
 20
3491.817272542174
 30
0.0
  0
POINT
  5
CA
330
C2
100
AcDbEntity
  8
Defpoints
 62
     0
100
AcDbPoint
 10
4061.161065353985
 20
3527.264170956061
 30
0.0
  0
POINT
  5
CB
330
C2
100
AcDbEntity
  8
Defpoints
 62
     0
100
AcDbPoint
 10
4954.402237576301
 20
3520.386338835062
 30
0.0
  0
POINT
  5
CC
330
C2
100
AcDbEntity
  8
Defpoints
 62
     0
100
AcDbPoint
 10
4954.980369537111
 20
3487.26417185013
 30
0.0
  0
POINT
  5
CD
330
C2
100
AcDbEntity
  8
Defpoints
 62
     0
100
AcDbPoint
 10
4947.403307883973
 20
3527.264170956061
 30
0.0
  0
ENDBLK
  5
CE
330
C2
100
AcDbEntity
  8
0
100
AcDbBlockEnd
  0
BLOCK
  5
D0
330
CF
100
AcDbEntity
  8
0
100
AcDbBlockBegin
  2
*D17
 70
     1
 10
0.0
 20
0.0
 30
0.0
  3
*D17
  1

  0
LINE
  5
D1
330
CF
100
AcDbEntity
  8
cotas
100
AcDbLine
 10
4053.49671995733
 20
3482.264933374346
 30
0.0
 11
4052.871036106416
 21
3446.419529510656
 31
0.0
  0
ARC
  5
D2
330
CF
100
AcDbEntity
  8
cotas
100
AcDbCircle
 10
4054.282184569903
 20
3527.26417095606
 30
0.0
 40
75.85695635145859
100
AcDbArc
 50
276.5586144526253
 51
352.4413855488218
  0
SOLID
  5
D3
330
CF
100
AcDbEntity
  8
cotas
100
AcDbTrace
 10
4063.027350352816
 20
3450.238952203075
 30
0.0
 11
4062.865720216917
 21
3453.568364585205
 31
0.0
 12
4052.958298138476
 22
3451.418767986441
 32
0.0
 13
4052.958298138476
 23
3451.418767986441
 33
0.0
  0
SOLID
  5
D4
330
CF
100
AcDbEntity
  8
cotas
100
AcDbTrace
 10
4127.81696335996
 20
3517.395773459448
 30
0.0
 11
4131.14304782164
 21
3517.176061682596
 31
0.0
 12
4130.139140921361
 22
3527.264170956059
 32
0.0
 13
4130.139140921361
 23
3527.264170956059
 33
0.0
  0
MTEXT
  5
D5
330
CF
100
AcDbEntity
  8
cotas
100
AcDbMText
 10
4099.50048574598
 20
3481.249693382807
 30
0.0
 40
10.0
 41
0.0
 71
     5
 72
     1
  1
91,0°
  7
SANINDUSA
 11
0.7132504491453286
 21
0.70090926430886
 31
0.0
 73
     1
 44
1.0
1001
ACAD
1000
MTEXTBEGIN
1070
    73
1070
     1
1070
    44
1040
1.0
1070
    74
1070
     0
1000
MTEXTEND
  0
POINT
  5
D6
330
CF
100
AcDbEntity
  8
Defpoints
 62
     0
100
AcDbPoint
 10
4091.44372754443
 20
3461.133258739007
 30
0.0
  0
POINT
  5
D7
330
CF
100
AcDbEntity
  8
Defpoints
 62
     0
100
AcDbPoint
 10
4053.583981989389
 20
3487.26417185013
 30
0.0
  0
POINT
  5
D8
330
CF
100
AcDbEntity
  8
Defpoints
 62
     0
100
AcDbPoint
 10
4061.161065353984
 20
3527.26417095606
 30
0.0
  0
POINT
  5
D9
330
CF
100
AcDbEntity
  8
Defpoints
 62
     0
100
AcDbPoint
 10
4947.403307883972
 20
3527.26417095606
 30
0.0
  0
POINT
  5
DA
330
CF
100
AcDbEntity
  8
Defpoints
 62
     0
100
AcDbPoint
 10
4054.162131547694
 20
3520.386337910106
 30
0.0
  0
ENDBLK
  5
DB
330
CF
100
AcDbEntity
  8
0
100
AcDbBlockEnd
  0
BLOCK
  5
DD
330
DC
100
AcDbEntity
  8
0
100
AcDbBlockBegin
  2
*D18
 70
     1
 10
0.0
 20
0.0
 30
0.0
  3
*D18
  1

  0
LINE
  5
DE
330
DC
100
AcDbEntity
  8
cotas
100
AcDbLine
 10
5306.756280815527
 20
4408.514462253893
 30
0.0
 11
5306.756280815527
 21
4438.514462253893
 31
0.0
  0
LINE
  5
DF
330
DC
100
AcDbEntity
  8
cotas
100
AcDbLine
 10
5236.756280539199
 20
4408.514462253893
 30
0.0
 11
5236.756280539199
 21
4438.514462253893
 31
0.0
  0
LINE
  5
E0
330
DC
100
AcDbEntity
  8
cotas
100
AcDbLine
 10
5296.756280815527
 20
4433.514462253892
 30
0.0
 11
5246.756280539199
 21
4433.514462253892
 31
0.0
  0
SOLID
  5
E1
330
DC
100
AcDbEntity
  8
cotas
100
AcDbTrace
 10
5296.756280815527
 20
4435.18112892056
 30
0.0
 11
5296.756280815527
 21
4431.847795587226
 31
0.0
 12
5306.756280815527
 22
4433.514462253892
 32
0.0
 13
5306.756280815527
 23
4433.514462253892
 33
0.0
  0
SOLID
  5
E2
330
DC
100
AcDbEntity
  8
cotas
100
AcDbTrace
 10
5246.756280539199
 20
4435.18112892056
 30
0.0
 11
5246.756280539199
 21
4431.847795587226
 31
0.0
 12
5236.756280539199
 22
4433.514462253892
 32
0.0
 13
5236.756280539199
 23
4433.514462253892
 33
0.0
  0
MTEXT
  5
E3
330
DC
100
AcDbEntity
  8
cotas
100
AcDbMText
 10
5271.756280677363
 20
4443.719297713933
 30
0.0
 40
10.0
 41
0.0
 71
     5
 72
     1
  1
70
  7
SANINDUSA
 73
     1
 44
1.0
1001
ACAD
1000
MTEXTBEGIN
1070
    73
1070
     1
1070
    44
1040
1.0
1070
    74
1070
     0
1000
MTEXTEND
  0
POINT
  5
E4
330
DC
100
AcDbEntity
  8
Defpoints
 62
     0
100
AcDbPoint
 10
5306.756280815527
 20
4403.514462253893
 30
0.0
  0
POINT
  5
E5
330
DC
100
AcDbEntity
  8
Defpoints
 62
     0
100
AcDbPoint
 10
5236.756280539199
 20
4403.514462253893
 30
0.0
  0
POINT
  5
E6
330
DC
100
AcDbEntity
  8
Defpoints
 62
     0
100
AcDbPoint
 10
5236.756280539199
 20
4433.514462253892
 30
0.0
  0
ENDBLK
  5
E7
330
DC
100
AcDbEntity
  8
0
100
AcDbBlockEnd
  0
BLOCK
  5
E9
330
E8
100
AcDbEntity
  8
0
100
AcDbBlockBegin
  2
*D19
 70
     1
 10
0.0
 20
0.0
 30
0.0
  3
*D19
  1

  0
LINE
  5
EA
330
E8
100
AcDbEntity
  8
cotas
100
AcDbLine
 10
5306.756280815527
 20
4408.514462253893
 30
0.0
 11
5306.756280815527
 21
4438.514462253893
 31
0.0
  0
LINE
  5
EB
330
E8
100
AcDbEntity
  8
cotas
100
AcDbLine
 10
5339.163081641355
 20
4348.939812165829
 30
0.0
 11
5339.163081641355
 21
4438.514462253893
 31
0.0
  0
LINE
  5
EC
330
E8
100
AcDbEntity
  8
cotas
100
AcDbLine
 10
5316.756280815527
 20
4433.514462253892
 30
0.0
 11
5329.163081641354
 21
4433.514462253892
 31
0.0
  0
LINE
  5
ED
330
E8
100
AcDbEntity
  8
cotas
100
AcDbLine
 10
5339.163081641355
 20
4433.514462253892
 30
0.0
 11
5388.612376470099
 21
4433.514462253892
 31
0.0
  0
SOLID
  5
EE
330
E8
100
AcDbEntity
  8
cotas
100
AcDbTrace
 10
5316.756280815527
 20
4435.18112892056
 30
0.0
 11
5316.756280815527
 21
4431.847795587226
 31
0.0
 12
5306.756280815527
 22
4433.514462253892
 32
0.0
 13
5306.756280815527
 23
4433.514462253892
 33
0.0
  0
SOLID
  5
EF
330
E8
100
AcDbEntity
  8
cotas
100
AcDbTrace
 10
5329.163081641354
 20
4435.18112892056
 30
0.0
 11
5329.163081641354
 21
4431.847795587226
 31
0.0
 12
5339.163081641355
 22
4433.514462253892
 32
0.0
 13
5339.163081641355
 23
4433.514462253892
 33
0.0
  0
MTEXT
  5
F0
330
E8
100
AcDbEntity
  8
cotas
100
AcDbMText
 10
5368.887729055726
 20
4444.861003556781
 30
0.0
 40
10.0
 41
0.0
 71
     5
 72
     1
  1
32,4
  7
SANINDUSA
 73
     1
 44
1.0
1001
ACAD
1000
MTEXTBEGIN
1070
    73
1070
     1
1070
    44
1040
1.0
1070
    74
1070
     0
1000
MTEXTEND
  0
POINT
  5
F1
330
E8
100
AcDbEntity
  8
Defpoints
 62
     0
100
AcDbPoint
 10
5306.756280815527
 20
4403.514462253893
 30
0.0
  0
POINT
  5
F2
330
E8
100
AcDbEntity
  8
Defpoints
 62
     0
100
AcDbPoint
 10
5339.163081641355
 20
4343.939812165828
 30
0.0
  0
POINT
  5
F3
330
E8
100
AcDbEntity
  8
Defpoints
 62
     0
100
AcDbPoint
 10
5339.163081641355
 20
4433.514462253892
 30
0.0
  0
ENDBLK
  5
F4
330
E8
100
AcDbEntity
  8
0
100
AcDbBlockEnd
  0
BLOCK
  5
F6
330
F5
100
AcDbEntity
  8
0
100
AcDbBlockBegin
  2
*D20
 70
     1
 10
0.0
 20
0.0
 30
0.0
  3
*D20
  1

  0
LINE
  5
F7
330
F5
100
AcDbEntity
  8
cotas
100
AcDbLine
 10
5339.250343735365
 20
4348.93905064053
 30
0.0
 11
5339.662419223089
 21
4372.546822790282
 31
0.0
  0
LINE
  5
F8
330
F5
100
AcDbEntity
  8
cotas
100
AcDbLine
 10
5601.210439809792
 20
4344.366516914374
 30
0.0
 11
5601.622515297516
 21
4367.974289064125
 31
0.0
  0
LINE
  5
F9
330
F5
100
AcDbEntity
  8
cotas
100
AcDbLine
 10
5349.573634078485
 20
4367.373060127559
 30
0.0
 11
5591.536776254099
 21
4363.149574777445
 31
0.0
  0
SOLID
  5
FA
330
F5
100
AcDbEntity
  8
cotas
100
AcDbTrace
 10
5349.602721443154
 20
4369.03947295246
 30
0.0
 11
5349.544546713815
 21
4365.706647302658
 31
0.0
 12
5339.575157129079
 22
4367.547584315579
 32
0.0
 13
5339.575157129079
 23
4367.547584315579
 33
0.0
  0
SOLID
  5
FB
330
F5
100
AcDbEntity
  8
cotas
100
AcDbTrace
 10
5591.56586361877
 20
4364.815987602345
 30
0.0
 11
5591.507688889429
 21
4361.483161952544
 31
0.0
 12
5601.535253203505
 22
4362.975050589423
 32
0.0
 13
5601.535253203505
 23
4362.975050589423
 33
0.0
  0
MTEXT
  5
FC
330
F5
100
AcDbEntity
  8
cotas
100
AcDbMText
 10
5470.733362833041
 20
4375.467956111398
 30
0.0
 40
10.0
 41
0.0
 71
     5
 72
     1
  1
262
  7
SANINDUSA
 11
0.9998476949405622
 21
-0.0174524188021244
 31
0.0
 73
     1
 44
1.0
1001
ACAD
1000
MTEXTBEGIN
1070
    73
1070
     1
1070
    44
1040
1.0
1070
    74
1070
     0
1000
MTEXTEND
  0
POINT
  5
FD
330
F5
100
AcDbEntity
  8
Defpoints
 62
     0
100
AcDbPoint
 10
5339.163081641355
 20
4343.939812165827
 30
0.0
  0
POINT
  5
FE
330
F5
100
AcDbEntity
  8
Defpoints
 62
     0
100
AcDbPoint
 10
5601.123177715781
 20
4339.367278439671
 30
0.0
  0
POINT
  5
FF
330
F5
100
AcDbEntity
  8
Defpoints
 62
     0
100
AcDbPoint
 10
5601.535253203505
 20
4362.975050589423
 30
0.0
  0
ENDBLK
  5
100
330
F5
100
AcDbEntity
  8
0
100
AcDbBlockEnd
  0
BLOCK
  5
102
330
101
100
AcDbEntity
  8
0
100
AcDbBlockBegin
  2
*D21
 70
     1
 10
0.0
 20
0.0
 30
0.0
  3
*D21
  1

  0
LINE
  5
103
330
101
100
AcDbEntity
  8
cotas
100
AcDbLine
 10
5606.12317771578
 20
4339.367278439672
 30
0.0
 11
5655.608943390237
 21
4339.367278439672
 31
0.0
  0
LINE
  5
104
330
101
100
AcDbEntity
  8
cotas
100
AcDbLine
 10
5831.756284985583
 20
4403.514462253893
 30
0.0
 11
5645.608943390238
 21
4403.514462253893
 31
0.0
  0
LINE
  5
105
330
101
100
AcDbEntity
  8
cotas
100
AcDbLine
 10
5650.608943390238
 20
4349.367278439672
 30
0.0
 11
5650.608943390238
 21
4393.514462253892
 31
0.0
  0
SOLID
  5
106
330
101
100
AcDbEntity
  8
cotas
100
AcDbTrace
 10
5648.942276723571
 20
4349.367278439672
 30
0.0
 11
5652.275610056904
 21
4349.367278439672
 31
0.0
 12
5650.608943390238
 22
4339.367278439672
 32
0.0
 13
5650.608943390238
 23
4339.367278439672
 33
0.0
  0
SOLID
  5
107
330
101
100
AcDbEntity
  8
cotas
100
AcDbTrace
 10
5648.942276723571
 20
4393.514462253892
 30
0.0
 11
5652.275610056904
 21
4393.514462253892
 31
0.0
 12
5650.608943390238
 22
4403.514462253893
 32
0.0
 13
5650.608943390238
 23
4403.514462253893
 33
0.0
  0
MTEXT
  5
108
330
101
100
AcDbEntity
  8
cotas
100
AcDbMText
 10
5639.272475962433
 20
4371.440870346783
 30
0.0
 40
10.0
 41
0.0
 71
     5
 72
     1
  1
64,1
  7
SANINDUSA
 11
0.0000000000000001
 21
1.0
 31
0.0
 73
     1
 44
1.0
1001
ACAD
1000
MTEXTBEGIN
1070
    73
1070
     1
1070
    44
1040
1.0
1070
    74
1070
     0
1000
MTEXTEND
  0
POINT
  5
109
330
101
100
AcDbEntity
  8
Defpoints
 62
     0
100
AcDbPoint
 10
5601.123177715781
 20
4339.367278439672
 30
0.0
  0
POINT
  5
10A
330
101
100
AcDbEntity
  8
Defpoints
 62
     0
100
AcDbPoint
 10
5836.756284985582
 20
4403.514462253893
 30
0.0
  0
POINT
  5
10B
330
101
100
AcDbEntity
  8
Defpoints
 62
     0
100
AcDbPoint
 10
5650.608943390238
 20
4403.514462253893
 30
0.0
  0
ENDBLK
  5
10C
330
101
100
AcDbEntity
  8
0
100
AcDbBlockEnd
  0
BLOCK
  5
10E
330
10D
100
AcDbEntity
  8
0
100
AcDbBlockBegin
  2
*D22
 70
     1
 10
0.0
 20
0.0
 30
0.0
  3
*D22
  1

  0
LINE
  5
10F
330
10D
100
AcDbEntity
  8
cotas
100
AcDbLine
 10
5606.12317771578
 20
4339.367278439672
 30
0.0
 11
5655.608943390237
 21
4339.367278439672
 31
0.0
  0
LINE
  5
110
330
10D
100
AcDbEntity
  8
cotas
100
AcDbLine
 10
5606.12317771578
 20
4317.348462755558
 30
0.0
 11
5655.608943390237
 21
4317.348462755558
 31
0.0
  0
LINE
  5
111
330
10D
100
AcDbEntity
  8
cotas
100
AcDbLine
 10
5650.608943390238
 20
4349.367278439672
 30
0.0
 11
5650.608943390238
 21
4359.367278439672
 31
0.0
  0
LINE
  5
112
330
10D
100
AcDbEntity
  8
cotas
100
AcDbLine
 10
5650.608943390238
 20
4307.348462755558
 30
0.0
 11
5650.608943390238
 21
4271.834695126276
 31
0.0
  0
LINE
  5
113
330
10D
100
AcDbEntity
  8
cotas
100
AcDbLine
 10
5650.608943390238
 20
4339.367278439672
 30
0.0
 11
5650.608943390238
 21
4317.348462755558
 31
0.0
  0
SOLID
  5
114
330
10D
100
AcDbEntity
  8
cotas
100
AcDbTrace
 10
5648.942276723571
 20
4349.367278439672
 30
0.0
 11
5652.275610056904
 21
4349.367278439672
 31
0.0
 12
5650.608943390238
 22
4339.367278439672
 32
0.0
 13
5650.608943390238
 23
4339.367278439672
 33
0.0
  0
SOLID
  5
115
330
10D
100
AcDbEntity
  8
cotas
100
AcDbTrace
 10
5648.942276723571
 20
4307.348462755558
 30
0.0
 11
5652.275610056904
 21
4307.348462755558
 31
0.0
 12
5650.608943390238
 22
4317.348462755558
 32
0.0
 13
5650.608943390238
 23
4317.348462755558
 33
0.0
  0
MTEXT
  5
116
330
10D
100
AcDbEntity
  8
cotas
100
AcDbMText
 10
5640.504846681036
 20
4284.591578940918
 30
0.0
 40
10.0
 41
0.0
 71
     5
 72
     1
  1
22
  7
SANINDUSA
 11
0.0000000000000001
 21
1.0
 31
0.0
 73
     1
 44
1.0
1001
ACAD
1000
MTEXTBEGIN
1070
    73
1070
     1
1070
    44
1040
1.0
1070
    74
1070
     0
1000
MTEXTEND
  0
POINT
  5
117
330
10D
100
AcDbEntity
  8
Defpoints
 62
     0
100
AcDbPoint
 10
5601.123177715781
 20
4339.367278439672
 30
0.0
  0
POINT
  5
118
330
10D
100
AcDbEntity
  8
Defpoints
 62
     0
100
AcDbPoint
 10
5601.123177715781
 20
4317.348462755558
 30
0.0
  0
POINT
  5
119
330
10D
100
AcDbEntity
  8
Defpoints
 62
     0
100
AcDbPoint
 10
5650.608943390238
 20
4317.348462755558
 30
0.0
  0
ENDBLK
  5
11A
330
10D
100
AcDbEntity
  8
0
100
AcDbBlockEnd
  0
BLOCK
  5
11C
330
11B
100
AcDbEntity
  8
0
100
AcDbBlockBegin
  2
*D23
 70
     1
 10
0.0
 20
0.0
 30
0.0
  3
*D23
  1

  0
LINE
  5
11D
330
11B
100
AcDbEntity
  8
cotas
100
AcDbLine
 10
5334.163081641355
 20
4343.939812165828
 30
0.0
 11
5201.058077958689
 21
4343.939812165828
 31
0.0
  0
LINE
  5
11E
330
11B
100
AcDbEntity
  8
cotas
100
AcDbLine
 10
5334.163081641353
 20
4333.938288808172
 30
0.0
 11
5201.058077958689
 21
4333.938288808172
 31
0.0
  0
LINE
  5
11F
330
11B
100
AcDbEntity
  8
cotas
100
AcDbLine
 10
5206.058077958689
 20
4353.939812165829
 30
0.0
 11
5206.058077958689
 21
4363.939812165829
 31
0.0
  0
LINE
  5
120
330
11B
100
AcDbEntity
  8
cotas
100
AcDbLine
 10
5206.058077958689
 20
4323.938288808172
 30
0.0
 11
5206.058077958689
 21
4289.223715268884
 31
0.0
  0
LINE
  5
121
330
11B
100
AcDbEntity
  8
cotas
100
AcDbLine
 10
5206.058077958689
 20
4343.939812165828
 30
0.0
 11
5206.058077958689
 21
4333.938288808172
 31
0.0
  0
SOLID
  5
122
330
11B
100
AcDbEntity
  8
cotas
100
AcDbTrace
 10
5204.391411292021
 20
4353.939812165829
 30
0.0
 11
5207.724744625355
 21
4353.939812165829
 31
0.0
 12
5206.058077958689
 22
4343.939812165828
 32
0.0
 13
5206.058077958689
 23
4343.939812165828
 33
0.0
  0
SOLID
  5
123
330
11B
100
AcDbEntity
  8
cotas
100
AcDbTrace
 10
5204.391411292021
 20
4323.938288808172
 30
0.0
 11
5207.724744625355
 21
4323.938288808172
 31
0.0
 12
5206.058077958689
 22
4333.938288808172
 32
0.0
 13
5206.058077958689
 23
4333.938288808172
 33
0.0
  0
MTEXT
  5
124
330
11B
100
AcDbEntity
  8
cotas
100
AcDbMText
 10
5195.853242498648
 20
4301.581002038529
 30
0.0
 40
10.0
 41
0.0
 71
     5
 72
     1
  1
10
  7
SANINDUSA
 11
0.0000000000000001
 21
1.0
 31
0.0
 73
     1
 44
1.0
1001
ACAD
1000
MTEXTBEGIN
1070
    73
1070
     1
1070
    44
1040
1.0
1070
    74
1070
     0
1000
MTEXTEND
  0
POINT
  5
125
330
11B
100
AcDbEntity
  8
Defpoints
 62
     0
100
AcDbPoint
 10
5339.163081641355
 20
4343.939812165828
 30
0.0
  0
POINT
  5
126
330
11B
100
AcDbEntity
  8
Defpoints
 62
     0
100
AcDbPoint
 10
5339.163081641354
 20
4333.938288808172
 30
0.0
  0
POINT
  5
127
330
11B
100
AcDbEntity
  8
Defpoints
 62
     0
100
AcDbPoint
 10
5206.058077958689
 20
4333.938288808172
 30
0.0
  0
ENDBLK
  5
128
330
11B
100
AcDbEntity
  8
0
100
AcDbBlockEnd
  0
BLOCK
  5
12A
330
129
100
AcDbEntity
  8
0
100
AcDbBlockBegin
  2
*D24
 70
     1
 10
0.0
 20
0.0
 30
0.0
  3
*D24
  1

  0
ARC
  5
12B
330
129
100
AcDbEntity
  8
cotas
100
AcDbCircle
 10
5302.990094593784
 20
4399.614462253892
 30
0.0
 40
47.01428158021136
100
AcDbArc
 50
192.2099791823484
 51
259.7900208176413
  0
SOLID
  5
12C
330
129
100
AcDbEntity
  8
cotas
100
AcDbTrace
 10
5255.382105162761
 20
4389.493924285697
 30
0.0
 11
5258.696534117355
 21
4389.848426494525
 31
0.0
 12
5255.975813013573
 22
4399.614462253891
 32
0.0
 13
5255.975813013573
 23
4399.614462253891
 33
0.0
  0
SOLID
  5
12D
330
129
100
AcDbEntity
  8
cotas
100
AcDbTrace
 10
5294.775831007314
 20
4355.007054484953
 30
0.0
 11
5294.537216654024
 21
4351.682272642259
 31
0.0
 12
5304.630869358755
 22
4352.628820503735
 32
0.0
 13
5304.630869358755
 23
4352.628820503735
 33
0.0
  0
MTEXT
  5
12E
330
129
100
AcDbEntity
  8
cotas
100
AcDbMText
 10
5278.213200254782
 20
4373.957237084273
 30
0.0
 40
10.0
 41
0.0
 71
     5
 72
     1
  1
92,0°
  7
SANINDUSA
 11
0.719339800338595
 21
-0.6946583704590556
 31
0.0
 73
     1
 44
1.0
1001
ACAD
1000
MTEXTBEGIN
1070
    73
1070
     1
1070
    44
1040
1.0
1070
    74
1070
     0
1000
MTEXTEND
  0
POINT
  5
12F
330
129
100
AcDbEntity
  8
Defpoints
 62
     0
100
AcDbPoint
 10
5262.550800353651
 20
4375.63517632075
 30
0.0
  0
POINT
  5
130
330
129
100
AcDbEntity
  8
Defpoints
 62
     0
100
AcDbPoint
 10
5243.635161381186
 20
4399.614462253891
 30
0.0
  0
POINT
  5
131
330
129
100
AcDbEntity
  8
Defpoints
 62
     0
100
AcDbPoint
 10
5304.707014003259
 20
4350.448323177558
 30
0.0
  0
POINT
  5
132
330
129
100
AcDbEntity
  8
Defpoints
 62
     0
100
AcDbPoint
 10
5303.094570955641
 20
4396.622650693672
 30
0.0
  0
POINT
  5
133
330
129
100
AcDbEntity
  8
Defpoints
 62
     0
100
AcDbPoint
 10
5299.996459391884
 20
4399.614462253892
 30
0.0
  0
ENDBLK
  5
134
330
129
100
AcDbEntity
  8
0
100
AcDbBlockEnd
  0
BLOCK
  5
136
330
135
100
AcDbEntity
  8
0
100
AcDbBlockBegin
  2
*D25
 70
     1
 10
0.0
 20
0.0
 30
0.0
  3
*D25
  1

  0
LINE
  5
137
330
135
100
AcDbEntity
  8
cotas
100
AcDbLine
 10
5272.643085282919
 20
4302.623948531692
 30
0.0
 11
5305.693961896902
 21
4332.930058470243
 31
0.0
  0
MTEXT
  5
138
330
135
100
AcDbEntity
  8
cotas
100
AcDbMText
 10
5278.713537726131
 20
4321.780670360412
 30
0.0
 40
10.0
 41
0.0
 71
     5
 72
     1
  1
R17
  7
SANINDUSA
 11
0.7370489033730689
 21
0.6758394143852197
 31
0.0
 73
     1
 44
1.0
1001
ACAD
1000
MTEXTBEGIN
1070
    73
1070
     1
1070
    44
1040
1.0
1070
    74
1070
     0
1000
MTEXTEND
  0
LINE
  5
139
330
135
100
AcDbEntity
  8
cotas
100
AcDbLine
 10
5325.594282287972
 20
4351.177722658641
 30
0.0
 11
5313.064450930632
 21
4339.688452614095
 31
0.0
  0
SOLID
  5
13A
330
135
100
AcDbEntity
  8
cotas
100
AcDbTrace
 10
5304.567562872927
 20
4334.158473309198
 30
0.0
 11
5306.820360920878
 21
4331.701643631287
 31
0.0
 12
5313.064450930632
 22
4339.688452614095
 32
0.0
 13
5313.064450930632
 23
4339.688452614095
 33
0.0
  0
POINT
  5
13B
330
135
100
AcDbEntity
  8
Defpoints
 62
     0
100
AcDbPoint
 10
5313.064450930632
 20
4339.688452614095
 30
0.0
  0
POINT
  5
13C
330
135
100
AcDbEntity
  8
Defpoints
 62
     0
100
AcDbPoint
 10
5325.594282287972
 20
4351.177722658641
 30
0.0
  0
ENDBLK
  5
13D
330
135
100
AcDbEntity
  8
0
100
AcDbBlockEnd
  0
BLOCK
  5
13F
330
13E
100
AcDbEntity
  8
0
100
AcDbBlockBegin
  2
*D26
 70
     1
 10
0.0
 20
0.0
 30
0.0
  3
*D26
  1

  0
LINE
  5
140
330
13E
100
AcDbEntity
  8
cotas
100
AcDbLine
 10
5348.989671990193
 20
4282.170340428956
 30
0.0
 11
5335.801995894076
 21
4324.987319440077
 31
0.0
  0
MTEXT
  5
141
330
13E
100
AcDbEntity
  8
cotas
100
AcDbMText
 10
5353.620331687744
 20
4301.804198388162
 30
0.0
 40
10.0
 41
0.0
 71
     5
 72
     1
  1
R10
  7
SANINDUSA
 11
0.2943554145872983
 21
-0.9556960237979122
 31
0.0
 73
     1
 44
1.0
1001
ACAD
1000
MTEXTBEGIN
1070
    73
1070
     1
1070
    44
1040
1.0
1070
    74
1070
     0
1000
MTEXTEND
  0
LINE
  5
142
330
13E
100
AcDbEntity
  8
cotas
100
AcDbLine
 10
5329.914887602331
 20
4344.101239916033
 30
0.0
 11
5332.858441748204
 21
4334.544279678056
 31
0.0
  0
SOLID
  5
143
330
13E
100
AcDbEntity
  8
cotas
100
AcDbTrace
 10
5337.394822600407
 20
4325.477911797722
 30
0.0
 11
5334.209169187746
 21
4324.496727082432
 31
0.0
 12
5332.858441748204
 22
4334.544279678056
 32
0.0
 13
5332.858441748204
 23
4334.544279678056
 33
0.0
  0
POINT
  5
144
330
13E
100
AcDbEntity
  8
Defpoints
 62
     0
100
AcDbPoint
 10
5332.858441748204
 20
4334.544279678056
 30
0.0
  0
POINT
  5
145
330
13E
100
AcDbEntity
  8
Defpoints
 62
     0
100
AcDbPoint
 10
5329.914887602331
 20
4344.101239916033
 30
0.0
  0
ENDBLK
  5
146
330
13E
100
AcDbEntity
  8
0
100
AcDbBlockEnd
  0
BLOCK
  5
148
330
147
100
AcDbEntity
  8
0
100
AcDbBlockBegin
  2
*D27
 70
     1
 10
0.0
 20
0.0
 30
0.0
  3
*D27
  1

  0
LINE
  5
149
330
147
100
AcDbEntity
  8
cotas
100
AcDbLine
 10
5376.735577850546
 20
4303.457770071995
 30
0.0
 11
5347.339855780614
 21
4334.648716225077
 31
0.0
  0
MTEXT
  5
14A
330
147
100
AcDbEntity
  8
cotas
100
AcDbMText
 10
5375.063249159502
 20
4319.812598145398
 30
0.0
 40
10.0
 41
0.0
 71
     5
 72
     1
  1
R7
  7
SANINDUSA
 11
0.6858537116677866
 21
-0.7277394356440503
 31
0.0
 73
     1
 44
1.0
1001
ACAD
1000
MTEXTBEGIN
1070
    73
1070
     1
1070
    44
1040
1.0
1070
    74
1070
     0
1000
MTEXTEND
  0
SOLID
  5
14B
330
147
100
AcDbEntity
  8
cotas
100
AcDbTrace
 10
5348.552754840021
 20
4335.791805744523
 30
0.0
 11
5346.126956721207
 21
4333.505626705631
 31
0.0
 12
5340.481318663936
 22
4341.926110581519
 32
0.0
 13
5340.481318663936
 23
4341.926110581519
 33
0.0
  0
POINT
  5
14C
330
147
100
AcDbEntity
  8
Defpoints
 62
     0
100
AcDbPoint
 10
5340.481318663936
 20
4341.926110581519
 30
0.0
  0
POINT
  5
14D
330
147
100
AcDbEntity
  8
Defpoints
 62
     0
100
AcDbPoint
 10
5345.282294645611
 20
4336.83193453201
 30
0.0
  0
ENDBLK
  5
14E
330
147
100
AcDbEntity
  8
0
100
AcDbBlockEnd
  0
BLOCK
  5
150
330
14F
100
AcDbEntity
  8
0
100
AcDbBlockBegin
  2
*D28
 70
     1
 10
0.0
 20
0.0
 30
0.0
  3
*D28
  1

  0
LINE
  5
151
330
14F
100
AcDbEntity
  8
cotas
100
AcDbLine
 10
5585.093888062909
 20
4270.529844980425
 30
0.0
 11
5606.122585943957
 21
4310.135584589575
 31
0.0
  0
MTEXT
  5
152
330
14F
100
AcDbEntity
  8
cotas
100
AcDbMText
 10
5584.416410404738
 20
4290.613953327844
 30
0.0
 40
10.0
 41
0.0
 71
     5
 72
     1
  1
R17
  7
SANINDUSA
 11
0.4689490960742868
 21
0.8832251951179321
 31
0.0
 73
     1
 44
1.0
1001
ACAD
1000
MTEXTBEGIN
1070
    73
1070
     1
1070
    44
1040
1.0
1070
    74
1070
     0
1000
MTEXTEND
  0
LINE
  5
153
330
14F
100
AcDbEntity
  8
cotas
100
AcDbLine
 10
5618.786119171782
 20
4333.986257721604
 30
0.0
 11
5610.812076904699
 21
4318.967836540753
 31
0.0
  0
SOLID
  5
154
330
14F
100
AcDbEntity
  8
cotas
100
AcDbTrace
 10
5604.650543952093
 20
4310.917166416365
 30
0.0
 11
5607.59462793582
 21
4309.354002762785
 31
0.0
 12
5610.812076904699
 22
4318.967836540753
 32
0.0
 13
5610.812076904699
 23
4318.967836540753
 33
0.0
  0
POINT
  5
155
330
14F
100
AcDbEntity
  8
Defpoints
 62
     0
100
AcDbPoint
 10
5610.812076904699
 20
4318.967836540753
 30
0.0
  0
POINT
  5
156
330
14F
100
AcDbEntity
  8
Defpoints
 62
     0
100
AcDbPoint
 10
5618.786119171782
 20
4333.986257721604
 30
0.0
  0
ENDBLK
  5
157
330
14F
100
AcDbEntity
  8
0
100
AcDbBlockEnd
  0
BLOCK
  5
159
330
158
100
AcDbEntity
  8
0
100
AcDbBlockBegin
  2
*D29
 70
     1
 10
0.0
 20
0.0
 30
0.0
  3
*D29
  1

  0
LINE
  5
15A
330
158
100
AcDbEntity
  8
cotas
100
AcDbLine
 10
5562.092184555584
 20
4300.158981825769
 30
0.0
 11
5592.694624841655
 21
4330.368500072417
 31
0.0
  0
MTEXT
  5
15B
330
158
100
AcDbEntity
  8
cotas
100
AcDbMText
 10
5564.35343090377
 20
4316.44283424202
 30
0.0
 40
10.0
 41
0.0
 71
     5
 72
     1
  1
R7
  7
SANINDUSA
 11
0.7116607288362154
 21
0.7025233142268709
 31
0.0
 73
     1
 44
1.0
1001
ACAD
1000
MTEXTBEGIN
1070
    73
1070
     1
1070
    44
1040
1.0
1070
    74
1070
     0
1000
MTEXTEND
  0
SOLID
  5
15C
330
158
100
AcDbEntity
  8
cotas
100
AcDbTrace
 10
5591.523752651276
 20
4331.554601287144
 30
0.0
 11
5593.865497032033
 21
4329.18239885769
 31
0.0
 12
5599.811232130018
 22
4337.393733214685
 32
0.0
 13
5599.811232130018
 23
4337.393733214685
 33
0.0
  0
POINT
  5
15D
330
158
100
AcDbEntity
  8
Defpoints
 62
     0
100
AcDbPoint
 10
5599.811232130018
 20
4337.393733214685
 30
0.0
  0
POINT
  5
15E
330
158
100
AcDbEntity
  8
Defpoints
 62
     0
100
AcDbPoint
 10
5594.829614789341
 20
4332.476077676625
 30
0.0
  0
ENDBLK
  5
15F
330
158
100
AcDbEntity
  8
0
100
AcDbBlockEnd
  0
BLOCK
  5
161
330
160
100
AcDbEntity
  8
0
100
AcDbBlockBegin
  2
*D30
 70
     1
 10
0.0
 20
0.0
 30
0.0
  3
*D30
  1

  0
ARC
  5
162
330
160
100
AcDbEntity
  8
cotas
100
AcDbCircle
 10
1926.136082759907
 20
4403.51446225389
 30
0.0
 40
3635.944948314367
100
AcDbArc
 50
359.1575808785802
 51
359.8424184128587
  0
SOLID
  5
163
330
160
100
AcDbEntity
  8
cotas
100
AcDbTrace
 10
5563.354484045888
 20
4350.030340012683
 30
0.0
 11
5560.021581547912
 21
4350.083931524047
 31
0.0
 12
5561.527258262808
 22
4340.058428274434
 32
0.0
 13
5561.527258262808
 23
4340.058428274434
 33
0.0
  0
SOLID
  5
164
330
160
100
AcDbEntity
  8
cotas
100
AcDbTrace
 10
5560.400614400146
 20
4393.516763639756
 30
0.0
 11
5563.733944581709
 21
4393.512179778642
 31
0.0
 12
5562.081031074274
 22
4403.514462253892
 32
0.0
 13
5562.081031074274
 23
4403.514462253892
 33
0.0
  0
MTEXT
  5
165
330
160
100
AcDbEntity
  8
cotas
100
AcDbMText
 10
5550.599833805358
 20
4371.88422387304
 30
0.0
 40
10.0
 41
0.0
 71
     5
 72
     1
  1
1,0°
  7
SANINDUSA
 11
0.0087265416815007
 21
0.9999619230102121
 31
0.0
 73
     1
 44
1.0
1001
ACAD
1000
MTEXTBEGIN
1070
    73
1070
     1
1070
    44
1040
1.0
1070
    74
1070
     0
1000
MTEXTEND
  0
POINT
  5
166
330
160
100
AcDbEntity
  8
Defpoints
 62
     0
100
AcDbPoint
 10
5561.834906353728
 20
4361.209246366547
 30
0.0
  0
POINT
  5
167
330
160
100
AcDbEntity
  8
Defpoints
 62
     0
100
AcDbPoint
 10
5326.980011598919
 20
4403.514462253892
 30
0.0
  0
POINT
  5
168
330
160
100
AcDbEntity
  8
Defpoints
 62
     0
100
AcDbPoint
 10
5594.951781530625
 20
4339.475000637124
 30
0.0
  0
POINT
  5
169
330
160
100
AcDbEntity
  8
Defpoints
 62
     0
100
AcDbPoint
 10
5345.404461577229
 20
4343.830868396596
 30
0.0
  0
POINT
  5
16A
330
160
100
AcDbEntity
  8
Defpoints
 62
     0
100
AcDbPoint
 10
6346.532558372245
 20
4403.514462253893
 30
0.0
  0
ENDBLK
  5
16B
330
160
100
AcDbEntity
  8
0
100
AcDbBlockEnd
  0
BLOCK
  5
16D
330
16C
100
AcDbEntity
  8
0
100
AcDbBlockBegin
  2
*D31
 70
     1
 10
0.0
 20
0.0
 30
0.0
  3
*D31
  1

  0
LINE
  5
16E
330
16C
100
AcDbEntity
  8
cotas
100
AcDbLine
 10
6436.756269344714
 20
4408.514462253893
 30
0.0
 11
6436.756269344714
 21
4438.514462253893
 31
0.0
  0
LINE
  5
16F
330
16C
100
AcDbEntity
  8
cotas
100
AcDbLine
 10
6366.756291522587
 20
4408.514462253893
 30
0.0
 11
6366.756291522587
 21
4438.514462253893
 31
0.0
  0
LINE
  5
170
330
16C
100
AcDbEntity
  8
cotas
100
AcDbLine
 10
6426.756269344714
 20
4433.514462253892
 30
0.0
 11
6376.756291522587
 21
4433.514462253892
 31
0.0
  0
SOLID
  5
171
330
16C
100
AcDbEntity
  8
cotas
100
AcDbTrace
 10
6426.756269344714
 20
4435.18112892056
 30
0.0
 11
6426.756269344714
 21
4431.847795587226
 31
0.0
 12
6436.756269344714
 22
4433.514462253892
 32
0.0
 13
6436.756269344714
 23
4433.514462253892
 33
0.0
  0
SOLID
  5
172
330
16C
100
AcDbEntity
  8
cotas
100
AcDbTrace
 10
6376.756291522587
 20
4435.18112892056
 30
0.0
 11
6376.756291522587
 21
4431.847795587226
 31
0.0
 12
6366.756291522587
 22
4433.514462253892
 32
0.0
 13
6366.756291522587
 23
4433.514462253892
 33
0.0
  0
MTEXT
  5
173
330
16C
100
AcDbEntity
  8
cotas
100
AcDbMText
 10
6401.756280433651
 20
4443.719297713933
 30
0.0
 40
10.0
 41
0.0
 71
     5
 72
     1
  1
70
  7
SANINDUSA
 73
     1
 44
1.0
1001
ACAD
1000
MTEXTBEGIN
1070
    73
1070
     1
1070
    44
1040
1.0
1070
    74
1070
     0
1000
MTEXTEND
  0
POINT
  5
174
330
16C
100
AcDbEntity
  8
Defpoints
 62
     0
100
AcDbPoint
 10
6436.756269344714
 20
4403.514462253893
 30
0.0
  0
POINT
  5
175
330
16C
100
AcDbEntity
  8
Defpoints
 62
     0
100
AcDbPoint
 10
6366.756291522587
 20
4403.514462253893
 30
0.0
  0
POINT
  5
176
330
16C
100
AcDbEntity
  8
Defpoints
 62
     0
100
AcDbPoint
 10
6366.756291522587
 20
4433.514462253892
 30
0.0
  0
ENDBLK
  5
177
330
16C
100
AcDbEntity
  8
0
100
AcDbBlockEnd
  0
BLOCK
  5
179
330
178
100
AcDbEntity
  8
0
100
AcDbBlockBegin
  2
*D32
 70
     1
 10
0.0
 20
0.0
 30
0.0
  3
*D32
  1

  0
LINE
  5
17A
330
178
100
AcDbEntity
  8
cotas
100
AcDbLine
 10
6436.756269344714
 20
4408.514462253893
 30
0.0
 11
6436.756269344714
 21
4468.509462209651
 31
0.0
  0
LINE
  5
17B
330
178
100
AcDbEntity
  8
cotas
100
AcDbLine
 10
6256.756291268168
 20
4332.409141401281
 30
0.0
 11
6256.756291268168
 21
4468.509462209651
 31
0.0
  0
LINE
  5
17C
330
178
100
AcDbEntity
  8
cotas
100
AcDbLine
 10
6426.756269344714
 20
4463.50946220965
 30
0.0
 11
6266.756291268169
 21
4463.50946220965
 31
0.0
  0
SOLID
  5
17D
330
178
100
AcDbEntity
  8
cotas
100
AcDbTrace
 10
6426.756269344714
 20
4465.176128876318
 30
0.0
 11
6426.756269344714
 21
4461.842795542984
 31
0.0
 12
6436.756269344714
 22
4463.50946220965
 32
0.0
 13
6436.756269344714
 23
4463.50946220965
 33
0.0
  0
SOLID
  5
17E
330
178
100
AcDbEntity
  8
cotas
100
AcDbTrace
 10
6266.756291268169
 20
4465.176128876318
 30
0.0
 11
6266.756291268169
 21
4461.842795542984
 31
0.0
 12
6256.756291268168
 22
4463.50946220965
 32
0.0
 13
6256.756291268168
 23
4463.50946220965
 33
0.0
  0
MTEXT
  5
17F
330
178
100
AcDbEntity
  8
cotas
100
AcDbMText
 10
6346.756280306441
 20
4473.737803378219
 30
0.0
 40
10.0
 41
0.0
 71
     5
 72
     1
  1
180
  7
SANINDUSA
 73
     1
 44
1.0
1001
ACAD
1000
MTEXTBEGIN
1070
    73
1070
     1
1070
    44
1040
1.0
1070
    74
1070
     0
1000
MTEXTEND
  0
POINT
  5
180
330
178
100
AcDbEntity
  8
Defpoints
 62
     0
100
AcDbPoint
 10
6436.756269344714
 20
4403.514462253893
 30
0.0
  0
POINT
  5
181
330
178
100
AcDbEntity
  8
Defpoints
 62
     0
100
AcDbPoint
 10
6256.756291268168
 20
4327.409141401282
 30
0.0
  0
POINT
  5
182
330
178
100
AcDbEntity
  8
Defpoints
 62
     0
100
AcDbPoint
 10
6256.756291268168
 20
4463.50946220965
 30
0.0
  0
ENDBLK
  5
183
330
178
100
AcDbEntity
  8
0
100
AcDbBlockEnd
  0
BLOCK
  5
185
330
184
100
AcDbEntity
  8
0
100
AcDbBlockBegin
  2
*D33
 70
     1
 10
0.0
 20
0.0
 30
0.0
  3
*D33
  1

  0
LINE
  5
186
330
184
100
AcDbEntity
  8
cotas
100
AcDbLine
 10
6396.560994811403
 20
4271.727892286604
 30
0.0
 11
6365.600420585877
 21
4304.166504898519
 31
0.0
  0
MTEXT
  5
187
330
184
100
AcDbEntity
  8
cotas
100
AcDbMText
 10
6391.77897611583
 20
4291.246157611253
 30
0.0
 40
10.0
 41
0.0
 71
     5
 72
     1
  1
R17
  7
SANINDUSA
 11
0.6904342522361521
 21
-0.7233951502043028
 31
0.0
 73
     1
 44
1.0
1001
ACAD
1000
MTEXTBEGIN
1070
    73
1070
     1
1070
    44
1040
1.0
1070
    74
1070
     0
1000
MTEXTEND
  0
LINE
  5
188
330
184
100
AcDbEntity
  8
cotas
100
AcDbLine
 10
6346.958791316635
 20
4323.698073851828
 30
0.0
 11
6358.696078063515
 21
4311.400456400562
 31
0.0
  0
SOLID
  5
189
330
184
100
AcDbEntity
  8
cotas
100
AcDbTrace
 10
6366.806079169552
 20
4305.317228652246
 30
0.0
 11
6364.394762002204
 21
4303.015781144792
 31
0.0
 12
6358.696078063515
 22
4311.400456400562
 32
0.0
 13
6358.696078063515
 23
4311.400456400562
 33
0.0
  0
POINT
  5
18A
330
184
100
AcDbEntity
  8
Defpoints
 62
     0
100
AcDbPoint
 10
6358.696078063515
 20
4311.400456400562
 30
0.0
  0
POINT
  5
18B
330
184
100
AcDbEntity
  8
Defpoints
 62
     0
100
AcDbPoint
 10
6346.958791316635
 20
4323.698073851828
 30
0.0
  0
ENDBLK
  5
18C
330
184
100
AcDbEntity
  8
0
100
AcDbBlockEnd
  0
BLOCK
  5
18E
330
18D
100
AcDbEntity
  8
0
100
AcDbBlockBegin
  2
*D34
 70
     1
 10
0.0
 20
0.0
 30
0.0
  3
*D34
  1

  0
ARC
  5
18F
330
18D
100
AcDbEntity
  8
cotas
100
AcDbCircle
 10
6366.756291522587
 20
4403.514462253893
 30
0.0
 40
60.17204840949496
100
AcDbArc
 50
189.5329846044823
 51
258.466996383044
  0
SOLID
  5
190
330
18D
100
AcDbEntity
  8
cotas
100
AcDbTrace
 10
6305.754291008783
 20
4393.410554233609
 30
0.0
 11
6309.076096426405
 21
4393.687537768443
 31
0.0
 12
6306.584243113093
 22
4403.514462253892
 32
0.0
 13
6306.584243113093
 23
4403.514462253892
 33
0.0
  0
SOLID
  5
191
330
18D
100
AcDbEntity
  8
cotas
100
AcDbTrace
 10
6354.922324540891
 20
4346.212363019637
 30
0.0
 11
6354.529579301327
 21
4342.902247872409
 31
0.0
 12
6364.656297362794
 22
4343.379069727332
 32
0.0
 13
6364.656297362794
 23
4343.379069727332
 33
0.0
  0
MTEXT
  5
192
330
18D
100
AcDbEntity
  8
cotas
100
AcDbMText
 10
6331.641401902188
 20
4369.604418778124
 30
0.0
 40
10.0
 41
0.0
 71
     5
 72
     1
  1
88,0°
  7
SANINDUSA
 11
0.694658251109633
 21
-0.7193399155929735
 31
0.0
 73
     1
 44
1.0
1001
ACAD
1000
MTEXTBEGIN
1070
    73
1070
     1
1070
    44
1040
1.0
1070
    74
1070
     0
1000
MTEXTEND
  0
POINT
  5
193
330
18D
100
AcDbEntity
  8
Defpoints
 62
     0
100
AcDbPoint
 10
6314.299234318455
 20
4374.036800215035
 30
0.0
  0
POINT
  5
194
330
18D
100
AcDbEntity
  8
Defpoints
 62
     0
100
AcDbPoint
 10
5326.980011598919
 20
4403.514462253893
 30
0.0
  0
POINT
  5
195
330
18D
100
AcDbEntity
  8
Defpoints
 62
     0
100
AcDbPoint
 10
6363.948300955628
 20
4323.104898176038
 30
0.0
  0
POINT
  5
196
330
18D
100
AcDbEntity
  8
Defpoints
 62
     0
100
AcDbPoint
 10
6366.520374993688
 20
4396.758761052207
 30
0.0
  0
POINT
  5
197
330
18D
100
AcDbEntity
  8
Defpoints
 62
     0
100
AcDbPoint
 10
6346.532558372245
 20
4403.514462253892
 30
0.0
  0
ENDBLK
  5
198
330
18D
100
AcDbEntity
  8
0
100
AcDbBlockEnd
  0
BLOCK
  5
19A
330
199
100
AcDbEntity
  8
0
100
AcDbBlockBegin
  2
*D35
 70
     1
 10
0.0
 20
0.0
 30
0.0
  3
*D35
  1

  0
LINE
  5
19B
330
199
100
AcDbEntity
  8
cotas
100
AcDbLine
 10
5236.756280539201
 20
3532.26417095606
 30
0.0
 11
5236.756280539201
 21
3562.26417095606
 31
0.0
  0
LINE
  5
19C
330
199
100
AcDbEntity
  8
cotas
100
AcDbLine
 10
6436.756269344716
 20
3532.26417095606
 30
0.0
 11
6436.756269344716
 21
3562.26417095606
 31
0.0
  0
LINE
  5
19D
330
199
100
AcDbEntity
  8
cotas
100
AcDbLine
 10
5246.756280539201
 20
3557.264170956059
 30
0.0
 11
6426.756269344716
 21
3557.264170956059
 31
0.0
  0
SOLID
  5
19E
330
199
100
AcDbEntity
  8
cotas
100
AcDbTrace
 10
5246.756280539201
 20
3558.930837622726
 30
0.0
 11
5246.756280539201
 21
3555.597504289393
 31
0.0
 12
5236.756280539201
 22
3557.264170956059
 32
0.0
 13
5236.756280539201
 23
3557.264170956059
 33
0.0
  0
SOLID
  5
19F
330
199
100
AcDbEntity
  8
cotas
100
AcDbTrace
 10
6426.756269344716
 20
3558.930837622726
 30
0.0
 11
6426.756269344716
 21
3555.597504289393
 31
0.0
 12
6436.756269344716
 22
3557.264170956059
 32
0.0
 13
6436.756269344716
 23
3557.264170956059
 33
0.0
  0
MTEXT
  5
1A0
330
199
100
AcDbEntity
  8
cotas
100
AcDbMText
 10
5836.756274941958
 20
3567.472364374462
 30
0.0
 40
10.0
 41
0.0
 71
     5
 72
     1
  1
1200
  7
SANINDUSA
 73
     1
 44
1.0
1001
ACAD
1000
MTEXTBEGIN
1070
    73
1070
     1
1070
    44
1040
1.0
1070
    74
1070
     0
1000
MTEXTEND
  0
POINT
  5
1A1
330
199
100
AcDbEntity
  8
Defpoints
 62
     0
100
AcDbPoint
 10
5236.756280539201
 20
3527.26417095606
 30
0.0
  0
POINT
  5
1A2
330
199
100
AcDbEntity
  8
Defpoints
 62
     0
100
AcDbPoint
 10
6436.756269344716
 20
3527.26417095606
 30
0.0
  0
POINT
  5
1A3
330
199
100
AcDbEntity
  8
Defpoints
 62
     0
100
AcDbPoint
 10
6436.756269344716
 20
3557.264170956059
 30
0.0
  0
ENDBLK
  5
1A4
330
199
100
AcDbEntity
  8
0
100
AcDbBlockEnd
  0
BLOCK
  5
1A6
330
1A5
100
AcDbEntity
  8
0
100
AcDbBlockBegin
  2
*D36
 70
     1
 10
0.0
 20
0.0
 30
0.0
  3
*D36
  1

  0
LINE
  5
1A7
330
1A5
100
AcDbEntity
  8
cotas
100
AcDbLine
 10
5231.756280539201
 20
3527.26417095606
 30
0.0
 11
5199.661672739108
 21
3527.26417095606
 31
0.0
  0
LINE
  5
1A8
330
1A5
100
AcDbEntity
  8
cotas
100
AcDbLine
 10
5229.661672739108
 20
3407.264173638269
 30
0.0
 11
5199.661672739108
 21
3407.264173638269
 31
0.0
  0
LINE
  5
1A9
330
1A5
100
AcDbEntity
  8
cotas
100
AcDbLine
 10
5204.661672739108
 20
3517.264170956059
 30
0.0
 11
5204.661672739108
 21
3417.264173638269
 31
0.0
  0
SOLID
  5
1AA
330
1A5
100
AcDbEntity
  8
cotas
100
AcDbTrace
 10
5202.995006072441
 20
3517.264170956059
 30
0.0
 11
5206.328339405775
 21
3517.264170956059
 31
0.0
 12
5204.661672739108
 22
3527.26417095606
 32
0.0
 13
5204.661672739108
 23
3527.26417095606
 33
0.0
  0
SOLID
  5
1AB
330
1A5
100
AcDbEntity
  8
cotas
100
AcDbTrace
 10
5202.995006072441
 20
3417.264173638269
 30
0.0
 11
5206.328339405775
 21
3417.264173638269
 31
0.0
 12
5204.661672739108
 22
3407.264173638269
 32
0.0
 13
5204.661672739108
 23
3407.264173638269
 33
0.0
  0
MTEXT
  5
1AC
330
1A5
100
AcDbEntity
  8
cotas
100
AcDbMText
 10
5194.453479320706
 20
3467.264172297165
 30
0.0
 40
10.0
 41
0.0
 71
     5
 72
     1
  1
120
  7
SANINDUSA
 11
0.0000000000000001
 21
1.0
 31
0.0
 73
     1
 44
1.0
1001
ACAD
1000
MTEXTBEGIN
1070
    73
1070
     1
1070
    44
1040
1.0
1070
    74
1070
     0
1000
MTEXTEND
  0
POINT
  5
1AD
330
1A5
100
AcDbEntity
  8
Defpoints
 62
     0
100
AcDbPoint
 10
5236.756280539201
 20
3527.26417095606
 30
0.0
  0
POINT
  5
1AE
330
1A5
100
AcDbEntity
  8
Defpoints
 62
     0
100
AcDbPoint
 10
5234.661672739108
 20
3407.264173638269
 30
0.0
  0
POINT
  5
1AF
330
1A5
100
AcDbEntity
  8
Defpoints
 62
     0
100
AcDbPoint
 10
5204.661672739108
 20
3407.264173638269
 30
0.0
  0
ENDBLK
  5
1B0
330
1A5
100
AcDbEntity
  8
0
100
AcDbBlockEnd
  0
BLOCK
  5
1B2
330
1B1
100
AcDbEntity
  8
0
100
AcDbBlockBegin
  2
*D37
 70
     1
 10
0.0
 20
0.0
 30
0.0
  3
*D37
  1

  0
LINE
  5
1B3
330
1B1
100
AcDbEntity
  8
cotas
100
AcDbLine
 10
5273.969367109364
 20
3495.596506634634
 30
0.0
 11
5245.962709983619
 21
3518.371417009207
 31
0.0
  0
MTEXT
  5
1B4
330
1B1
100
AcDbEntity
  8
cotas
100
AcDbMText
 10
5270.154466040047
 20
3511.587867251942
 30
0.0
 40
10.0
 41
0.0
 71
     5
 72
     1
  1
R7
  7
SANINDUSA
 11
0.7758495341438782
 21
-0.6309179822835353
 31
0.0
 73
     1
 44
1.0
1001
ACAD
1000
MTEXTBEGIN
1070
    73
1070
     1
1070
    44
1040
1.0
1070
    74
1070
     0
1000
MTEXTEND
  0
SOLID
  5
1B5
330
1B1
100
AcDbEntity
  8
cotas
100
AcDbTrace
 10
5247.014239954092
 20
3519.664499566113
 30
0.0
 11
5244.911180013147
 21
3517.0783344523
 31
0.0
 12
5238.204214642181
 22
3524.680596832042
 32
0.0
 13
5238.204214642181
 23
3524.680596832042
 33
0.0
  0
POINT
  5
1B6
330
1B1
100
AcDbEntity
  8
Defpoints
 62
     0
100
AcDbPoint
 10
5238.204214642181
 20
3524.680596832042
 30
0.0
  0
POINT
  5
1B7
330
1B1
100
AcDbEntity
  8
Defpoints
 62
     0
100
AcDbPoint
 10
5243.635161381186
 20
3520.26417095606
 30
0.0
  0
ENDBLK
  5
1B8
330
1B1
100
AcDbEntity
  8
0
100
AcDbBlockEnd
  0
BLOCK
  5
1BA
330
1B9
100
AcDbEntity
  8
0
100
AcDbBlockBegin
  2
*D38
 70
     1
 10
0.0
 20
0.0
 30
0.0
  3
*D38
  1

  0
LINE
  5
1BB
330
1B9
100
AcDbEntity
  8
cotas
100
AcDbLine
 10
6400.395897321804
 20
3494.583463841547
 30
0.0
 11
6427.615279163831
 21
3518.293686068824
 31
0.0
  0
MTEXT
  5
1BC
330
1B9
100
AcDbEntity
  8
cotas
100
AcDbMText
 10
6403.667104395784
 20
3510.694835255571
 30
0.0
 40
10.0
 41
0.0
 71
     5
 72
     1
  1
R7
  7
SANINDUSA
 11
0.7540401779121493
 21
0.6568282957472328
 31
0.0
 73
     1
 44
1.0
1001
ACAD
1000
MTEXTBEGIN
1070
    73
1070
     1
1070
    44
1040
1.0
1070
    74
1070
     0
1000
MTEXTEND
  0
SOLID
  5
1BD
330
1B9
100
AcDbEntity
  8
cotas
100
AcDbTrace
 10
6426.520565337586
 20
3519.550419698677
 30
0.0
 11
6428.709992990076
 21
3517.03695243897
 31
0.0
 12
6435.155680942952
 22
3524.861969026296
 32
0.0
 13
6435.155680942952
 23
3524.861969026296
 33
0.0
  0
POINT
  5
1BE
330
1B9
100
AcDbEntity
  8
Defpoints
 62
     0
100
AcDbPoint
 10
6435.155680942952
 20
3524.861969026296
 30
0.0
  0
POINT
  5
1BF
330
1B9
100
AcDbEntity
  8
Defpoints
 62
     0
100
AcDbPoint
 10
6429.877399697561
 20
3520.26417095606
 30
0.0
  0
ENDBLK
  5
1C0
330
1B9
100
AcDbEntity
  8
0
100
AcDbBlockEnd
  0
BLOCK
  5
1C2
330
1C1
100
AcDbEntity
  8
0
100
AcDbBlockBegin
  2
*D39
 70
     1
 10
0.0
 20
0.0
 30
0.0
  3
*D39
  1

  0
LINE
  5
1C3
330
1C1
100
AcDbEntity
  8
cotas
100
AcDbLine
 10
6437.54180719867
 20
3482.26493351634
 30
0.0
 11
6438.299380409336
 21
3438.867640040149
 31
0.0
  0
ARC
  5
1C4
330
1C1
100
AcDbEntity
  8
cotas
100
AcDbCircle
 10
6436.756269344714
 20
3527.26417095606
 30
0.0
 40
83.4099986976887
100
AcDbArc
 50
186.8732946068364
 51
264.1267986218697
  0
SOLID
  5
1C5
330
1C1
100
AcDbEntity
  8
cotas
100
AcDbTrace
 10
6352.282049679724
 20
3517.182245965735
 30
0.0
 11
6355.609388647792
 21
3517.382062137979
 31
0.0
 12
6353.346270647025
 22
3527.26417095606
 32
0.0
 13
6353.346270647025
 23
3527.26417095606
 33
0.0
  0
SOLID
  5
1C6
330
1C1
100
AcDbEntity
  8
cotas
100
AcDbTrace
 10
6428.292006261216
 20
3445.957168969845
 30
0.0
 11
6428.150296012891
 21
3442.626849267981
 31
0.0
 12
6438.212110242649
 22
3443.866878373936
 32
0.0
 13
6438.212110242649
 23
3443.866878373936
 33
0.0
  0
MTEXT
  5
1C7
330
1C1
100
AcDbEntity
  8
cotas
100
AcDbMText
 10
6386.244012634186
 20
3475.862441440833
 30
0.0
 40
10.0
 41
0.0
 71
     5
 72
     1
  1
91,0°
  7
SANINDUSA
 11
0.7132510193954568
 21
-0.7009086840176413
 31
0.0
 73
     1
 44
1.0
1001
ACAD
1000
MTEXTBEGIN
1070
    73
1070
     1
1070
    44
1040
1.0
1070
    74
1070
     0
1000
MTEXTEND
  0
POINT
  5
1C8
330
1C1
100
AcDbEntity
  8
Defpoints
 62
     0
100
AcDbPoint
 10
6364.764965319078
 20
3485.139593481182
 30
0.0
  0
POINT
  5
1C9
330
1C1
100
AcDbEntity
  8
Defpoints
 62
     0
100
AcDbPoint
 10
5243.635161323283
 20
3527.26417095606
 30
0.0
  0
POINT
  5
1CA
330
1C1
100
AcDbEntity
  8
Defpoints
 62
     0
100
AcDbPoint
 10
6436.876333538346
 20
3520.386339251238
 30
0.0
  0
POINT
  5
1CB
330
1C1
100
AcDbEntity
  8
Defpoints
 62
     0
100
AcDbPoint
 10
6437.454537031984
 20
3487.264171850128
 30
0.0
  0
POINT
  5
1CC
330
1C1
100
AcDbEntity
  8
Defpoints
 62
     0
100
AcDbPoint
 10
6429.877356169557
 20
3527.26417095606
 30
0.0
  0
ENDBLK
  5
1CD
330
1C1
100
AcDbEntity
  8
0
100
AcDbBlockEnd
  0
BLOCK
  5
1CF
330
1CE
100
AcDbEntity
  8
0
100
AcDbBlockBegin
  2
*D40
 70
     1
 10
0.0
 20
0.0
 30
0.0
  3
*D40
  1

  0
LINE
  5
1D0
330
1CE
100
AcDbEntity
  8
cotas
100
AcDbLine
 10
5235.970815926629
 20
3482.264933374346
 30
0.0
 11
5235.168074795322
 21
3436.275924695818
 31
0.0
  0
ARC
  5
1D1
330
1CE
100
AcDbEntity
  8
cotas
100
AcDbCircle
 10
5236.756280539201
 20
3527.26417095606
 30
0.0
 40
86.00210632177308
100
AcDbArc
 50
275.665895543053
 51
353.3341044583944
  0
SOLID
  5
1D2
330
1CE
100
AcDbEntity
  8
cotas
100
AcDbTrace
 10
5245.314892299284
 20
3440.016941614989
 30
0.0
 11
5245.179204400245
 21
3443.347512122449
 31
0.0
 12
5235.255336827383
 22
3441.275163171602
 32
0.0
 13
5235.255336827383
 23
3441.275163171602
 33
0.0
  0
SOLID
  5
1D3
330
1CE
100
AcDbEntity
  8
cotas
100
AcDbTrace
 10
5320.513158168848
 20
3517.37798231241
 30
0.0
 11
5323.840853333931
 21
3517.184188609215
 31
0.0
 12
5322.758386860973
 22
3527.26417095606
 32
0.0
 13
5322.758386860973
 23
3527.26417095606
 33
0.0
  0
MTEXT
  5
1D4
330
1CE
100
AcDbEntity
  8
cotas
100
AcDbMText
 10
5289.085411317274
 20
3474.013660609833
 30
0.0
 40
10.0
 41
0.0
 71
     5
 72
     1
  1
91,0°
  7
SANINDUSA
 11
0.7132504491453286
 21
0.70090926430886
 31
0.0
 73
     1
 44
1.0
1001
ACAD
1000
MTEXTBEGIN
1070
    73
1070
     1
1070
    44
1040
1.0
1070
    74
1070
     0
1000
MTEXTEND
  0
POINT
  5
1D5
330
1CE
100
AcDbEntity
  8
Defpoints
 62
     0
100
AcDbPoint
 10
5278.887828174318
 20
3452.288875120355
 30
0.0
  0
POINT
  5
1D6
330
1CE
100
AcDbEntity
  8
Defpoints
 62
     0
100
AcDbPoint
 10
5236.058077958689
 20
3487.264171850129
 30
0.0
  0
POINT
  5
1D7
330
1CE
100
AcDbEntity
  8
Defpoints
 62
     0
100
AcDbPoint
 10
5243.635161323283
 20
3527.26417095606
 30
0.0
  0
POINT
  5
1D8
330
1CE
100
AcDbEntity
  8
Defpoints
 62
     0
100
AcDbPoint
 10
6429.877356169555
 20
3527.26417095606
 30
0.0
  0
POINT
  5
1D9
330
1CE
100
AcDbEntity
  8
Defpoints
 62
     0
100
AcDbPoint
 10
5236.636227516992
 20
3520.386337910102
 30
0.0
  0
ENDBLK
  5
1DA
330
1CE
100
AcDbEntity
  8
0
100
AcDbBlockEnd
  0
BLOCK
  5
1DC
330
1DB
100
AcDbEntity
  8
0
100
AcDbBlockBegin
  2
*D41
 70
     1
 10
0.0
 20
0.0
 30
0.0
  3
*D41
  1

  0
LINE
  5
1DD
330
1DB
100
AcDbEntity
  8
cotas
100
AcDbLine
 10
6441.756269344715
 20
3527.26417095606
 30
0.0
 11
6472.454537031983
 21
3527.26417095606
 31
0.0
  0
LINE
  5
1DE
330
1DB
100
AcDbEntity
  8
cotas
100
AcDbLine
 10
6313.452048801715
 20
3403.69799881968
 30
0.0
 11
6472.454537031983
 21
3403.69799881968
 31
0.0
  0
LINE
  5
1DF
330
1DB
100
AcDbEntity
  8
cotas
100
AcDbLine
 10
6467.454537031983
 20
3517.264170956059
 30
0.0
 11
6467.454537031983
 21
3413.69799881968
 31
0.0
  0
SOLID
  5
1E0
330
1DB
100
AcDbEntity
  8
cotas
100
AcDbTrace
 10
6465.787870365315
 20
3517.264170956059
 30
0.0
 11
6469.12120369865
 21
3517.264170956059
 31
0.0
 12
6467.454537031983
 22
3527.26417095606
 32
0.0
 13
6467.454537031983
 23
3527.26417095606
 33
0.0
  0
SOLID
  5
1E1
330
1DB
100
AcDbEntity
  8
cotas
100
AcDbTrace
 10
6465.787870365315
 20
3413.69799881968
 30
0.0
 11
6469.12120369865
 21
3413.69799881968
 31
0.0
 12
6467.454537031983
 22
3403.69799881968
 32
0.0
 13
6467.454537031983
 23
3403.69799881968
 33
0.0
  0
MTEXT
  5
1E2
330
1DB
100
AcDbEntity
  8
cotas
100
AcDbMText
 10
6456.107995729094
 20
3465.48108488787
 30
0.0
 40
10.0
 41
0.0
 71
     5
 72
     1
  1
123,6
  7
SANINDUSA
 11
0.0000000000000001
 21
1.0
 31
0.0
 73
     1
 44
1.0
1001
ACAD
1000
MTEXTBEGIN
1070
    73
1070
     1
1070
    44
1040
1.0
1070
    74
1070
     0
1000
MTEXTEND
  0
POINT
  5
1E3
330
1DB
100
AcDbEntity
  8
Defpoints
 62
     0
100
AcDbPoint
 10
6436.756269344716
 20
3527.26417095606
 30
0.0
  0
POINT
  5
1E4
330
1DB
100
AcDbEntity
  8
Defpoints
 62
     0
100
AcDbPoint
 10
6308.452048801715
 20
3403.69799881968
 30
0.0
  0
POINT
  5
1E5
330
1DB
100
AcDbEntity
  8
Defpoints
 62
     0
100
AcDbPoint
 10
6467.454537031983
 20
3403.69799881968
 30
0.0
  0
ENDBLK
  5
1E6
330
1DB
100
AcDbEntity
  8
0
100
AcDbBlockEnd
  0
BLOCK
  5
1E8
330
1E7
100
AcDbEntity
  8
0
100
AcDbBlockBegin
  2
*D42
 70
     1
 10
0.0
 20
0.0
 30
0.0
  3
*D42
  1

  0
LINE
  5
1E9
330
1E7
100
AcDbEntity
  8
cotas
100
AcDbLine
 10
6436.721280691957
 20
2920.201899134785
 30
0.0
 11
6436.721280691957
 21
2955.823570811422
 31
0.0
  0
LINE
  5
1EA
330
1E7
100
AcDbEntity
  8
cotas
100
AcDbLine
 10
6256.752038718712
 20
2918.246509158283
 30
0.0
 11
6256.752038718712
 21
2955.823570811422
 31
0.0
  0
LINE
  5
1EB
330
1E7
100
AcDbEntity
  8
cotas
100
AcDbLine
 10
6426.721280691956
 20
2950.823570811422
 30
0.0
 11
6266.752038718713
 21
2950.823570811422
 31
0.0
  0
SOLID
  5
1EC
330
1E7
100
AcDbEntity
  8
cotas
100
AcDbTrace
 10
6426.721280691956
 20
2952.490237478088
 30
0.0
 11
6426.721280691956
 21
2949.156904144755
 31
0.0
 12
6436.721280691957
 22
2950.823570811422
 32
0.0
 13
6436.721280691957
 23
2950.823570811422
 33
0.0
  0
SOLID
  5
1ED
330
1E7
100
AcDbEntity
  8
cotas
100
AcDbTrace
 10
6266.752038718713
 20
2952.490237478088
 30
0.0
 11
6266.752038718713
 21
2949.156904144755
 31
0.0
 12
6256.752038718712
 22
2950.823570811422
 32
0.0
 13
6256.752038718712
 23
2950.823570811422
 33
0.0
  0
MTEXT
  5
1EE
330
1E7
100
AcDbEntity
  8
cotas
100
AcDbMText
 10
6346.736659705334
 20
2961.051911979991
 30
0.0
 40
10.0
 41
0.0
 71
     5
 72
     1
  1
180
  7
SANINDUSA
 73
     1
 44
1.0
1001
ACAD
1000
MTEXTBEGIN
1070
    73
1070
     1
1070
    44
1040
1.0
1070
    74
1070
     0
1000
MTEXTEND
  0
POINT
  5
1EF
330
1E7
100
AcDbEntity
  8
Defpoints
 62
     0
100
AcDbPoint
 10
6436.721280691957
 20
2915.201899134785
 30
0.0
  0
POINT
  5
1F0
330
1E7
100
AcDbEntity
  8
Defpoints
 62
     0
100
AcDbPoint
 10
6256.752038718712
 20
2913.246509158284
 30
-0.000000000000021
  0
POINT
  5
1F1
330
1E7
100
AcDbEntity
  8
Defpoints
 62
     0
100
AcDbPoint
 10
6256.752038718712
 20
2950.823570811422
 30
0.0
  0
ENDBLK
  5
1F2
330
1E7
100
AcDbEntity
  8
0
100
AcDbBlockEnd
  0
BLOCK
  5
1F4
330
1F3
100
AcDbEntity
  8
0
100
AcDbBlockBegin
  2
*D43
 70
     1
 10
0.0
 20
0.0
 30
0.0
  3
*D43
  1

  0
LINE
  5
1F5
330
1F3
100
AcDbEntity
  8
cotas
100
AcDbLine
 10
6256.756280539368
 20
2925.82357081142
 30
0.0
 11
6256.756280539368
 21
2955.823570811422
 31
0.0
  0
LINE
  5
1F6
330
1F3
100
AcDbEntity
  8
cotas
100
AcDbLine
 10
6108.334632013445
 20
2790.575544120347
 30
0.0
 11
6108.334632013445
 21
2955.823570811422
 31
0.0
  0
LINE
  5
1F7
330
1F3
100
AcDbEntity
  8
cotas
100
AcDbLine
 10
6246.756280539369
 20
2950.823570811422
 30
0.0
 11
6118.334632013444
 21
2950.823570811422
 31
0.0
  0
SOLID
  5
1F8
330
1F3
100
AcDbEntity
  8
cotas
100
AcDbTrace
 10
6246.756280539369
 20
2952.490237478088
 30
0.0
 11
6246.756280539369
 21
2949.156904144755
 31
0.0
 12
6256.756280539368
 22
2950.823570811422
 32
0.0
 13
6256.756280539368
 23
2950.823570811422
 33
0.0
  0
SOLID
  5
1F9
330
1F3
100
AcDbEntity
  8
cotas
100
AcDbTrace
 10
6118.334632013444
 20
2952.490237478088
 30
0.0
 11
6118.334632013444
 21
2949.156904144755
 31
0.0
 12
6108.334632013445
 22
2950.823570811422
 32
0.0
 13
6108.334632013445
 23
2950.823570811422
 33
0.0
  0
MTEXT
  5
1FA
330
1F3
100
AcDbEntity
  8
cotas
100
AcDbMText
 10
6182.545456276407
 20
2962.180185989394
 30
0.0
 40
10.0
 41
0.0
 71
     5
 72
     1
  1
148,4
  7
SANINDUSA
 73
     1
 44
1.0
1001
ACAD
1000
MTEXTBEGIN
1070
    73
1070
     1
1070
    44
1040
1.0
1070
    74
1070
     0
1000
MTEXTEND
  0
POINT
  5
1FB
330
1F3
100
AcDbEntity
  8
Defpoints
 62
     0
100
AcDbPoint
 10
6256.756280539368
 20
2920.823570811421
 30
0.0
  0
POINT
  5
1FC
330
1F3
100
AcDbEntity
  8
Defpoints
 62
     0
100
AcDbPoint
 10
6108.334632013445
 20
2785.575544120347
 30
0.0
  0
POINT
  5
1FD
330
1F3
100
AcDbEntity
  8
Defpoints
 62
     0
100
AcDbPoint
 10
6108.334632013445
 20
2950.823570811422
 30
0.0
  0
ENDBLK
  5
1FE
330
1F3
100
AcDbEntity
  8
0
100
AcDbBlockEnd
  0
BLOCK
  5
200
330
1FF
100
AcDbEntity
  8
0
100
AcDbBlockBegin
  2
*D44
 70
     1
 10
0.0
 20
0.0
 30
0.0
  3
*D44
  1

  0
LINE
  5
201
330
1FF
100
AcDbEntity
  8
cotas
100
AcDbLine
 10
6108.334632013445
 20
2790.575544120347
 30
0.0
 11
6108.334632013445
 21
2955.823570811422
 31
0.0
  0
LINE
  5
202
330
1FF
100
AcDbEntity
  8
cotas
100
AcDbLine
 10
6028.367642720201
 20
2790.56392186716
 30
0.0
 11
6028.367642720201
 21
2955.823570811422
 31
0.0
  0
LINE
  5
203
330
1FF
100
AcDbEntity
  8
cotas
100
AcDbLine
 10
6098.334632013444
 20
2950.823570811422
 30
0.0
 11
6038.367642720201
 21
2950.823570811422
 31
0.0
  0
SOLID
  5
204
330
1FF
100
AcDbEntity
  8
cotas
100
AcDbTrace
 10
6098.334632013444
 20
2952.490237478088
 30
0.0
 11
6098.334632013444
 21
2949.156904144755
 31
0.0
 12
6108.334632013445
 22
2950.823570811422
 32
0.0
 13
6108.334632013445
 23
2950.823570811422
 33
0.0
  0
SOLID
  5
205
330
1FF
100
AcDbEntity
  8
cotas
100
AcDbTrace
 10
6038.367642720201
 20
2952.490237478088
 30
0.0
 11
6038.367642720201
 21
2949.156904144755
 31
0.0
 12
6028.367642720201
 22
2950.823570811422
 32
0.0
 13
6028.367642720201
 23
2950.823570811422
 33
0.0
  0
MTEXT
  5
206
330
1FF
100
AcDbEntity
  8
cotas
100
AcDbMText
 10
6068.351137366822
 20
2961.051911979991
 30
0.0
 40
10.0
 41
0.0
 71
     5
 72
     1
  1
80
  7
SANINDUSA
 73
     1
 44
1.0
1001
ACAD
1000
MTEXTBEGIN
1070
    73
1070
     1
1070
    44
1040
1.0
1070
    74
1070
     0
1000
MTEXTEND
  0
POINT
  5
207
330
1FF
100
AcDbEntity
  8
Defpoints
 62
     0
100
AcDbPoint
 10
6108.334632013445
 20
2785.575544120347
 30
0.0
  0
POINT
  5
208
330
1FF
100
AcDbEntity
  8
Defpoints
 62
     0
100
AcDbPoint
 10
6028.367642720201
 20
2785.56392186716
 30
0.0
  0
POINT
  5
209
330
1FF
100
AcDbEntity
  8
Defpoints
 62
     0
100
AcDbPoint
 10
6028.367642720201
 20
2950.823570811422
 30
0.0
  0
ENDBLK
  5
20A
330
1FF
100
AcDbEntity
  8
0
100
AcDbBlockEnd
  0
BLOCK
  5
20C
330
20B
100
AcDbEntity
  8
0
100
AcDbBlockBegin
  2
*D45
 70
     1
 10
0.0
 20
0.0
 30
0.0
  3
*D45
  1

  0
LINE
  5
20D
330
20B
100
AcDbEntity
  8
cotas
100
AcDbLine
 10
6028.367642720201
 20
2790.56392186716
 30
0.0
 11
6028.367642720201
 21
2955.823570811422
 31
0.0
  0
LINE
  5
20E
330
20B
100
AcDbEntity
  8
cotas
100
AcDbLine
 10
5948.453059501582
 20
2790.556987537536
 30
0.0
 11
5948.453059501582
 21
2955.823570811422
 31
0.0
  0
LINE
  5
20F
330
20B
100
AcDbEntity
  8
cotas
100
AcDbLine
 10
6018.367642720201
 20
2950.823570811422
 30
0.0
 11
5958.453059501582
 21
2950.823570811422
 31
0.0
  0
SOLID
  5
210
330
20B
100
AcDbEntity
  8
cotas
100
AcDbTrace
 10
6018.367642720201
 20
2952.490237478088
 30
0.0
 11
6018.367642720201
 21
2949.156904144755
 31
0.0
 12
6028.367642720201
 22
2950.823570811422
 32
0.0
 13
6028.367642720201
 23
2950.823570811422
 33
0.0
  0
SOLID
  5
211
330
20B
100
AcDbEntity
  8
cotas
100
AcDbTrace
 10
5958.453059501582
 20
2952.490237478088
 30
0.0
 11
5958.453059501582
 21
2949.156904144755
 31
0.0
 12
5948.453059501582
 22
2950.823570811422
 32
0.0
 13
5948.453059501582
 23
2950.823570811422
 33
0.0
  0
MTEXT
  5
212
330
20B
100
AcDbEntity
  8
cotas
100
AcDbMText
 10
5988.410351110892
 20
2961.051911979991
 30
0.0
 40
10.0
 41
0.0
 71
     5
 72
     1
  1
80
  7
SANINDUSA
 73
     1
 44
1.0
1001
ACAD
1000
MTEXTBEGIN
1070
    73
1070
     1
1070
    44
1040
1.0
1070
    74
1070
     0
1000
MTEXTEND
  0
POINT
  5
213
330
20B
100
AcDbEntity
  8
Defpoints
 62
     0
100
AcDbPoint
 10
6028.367642720201
 20
2785.56392186716
 30
0.0
  0
POINT
  5
214
330
20B
100
AcDbEntity
  8
Defpoints
 62
     0
100
AcDbPoint
 10
5948.453059501582
 20
2785.556987537536
 30
0.0
  0
POINT
  5
215
330
20B
100
AcDbEntity
  8
Defpoints
 62
     0
100
AcDbPoint
 10
5948.453059501582
 20
2950.823570811422
 30
0.0
  0
ENDBLK
  5
216
330
20B
100
AcDbEntity
  8
0
100
AcDbBlockEnd
  0
BLOCK
  5
218
330
217
100
AcDbEntity
  8
0
100
AcDbBlockBegin
  2
*D46
 70
     1
 10
0.0
 20
0.0
 30
0.0
  3
*D46
  1

  0
LINE
  5
219
330
217
100
AcDbEntity
  8
cotas
100
AcDbLine
 10
5868.465761759173
 20
2790.556987537536
 30
0.0
 11
5868.465761759173
 21
2955.823570811422
 31
0.0
  0
LINE
  5
21A
330
217
100
AcDbEntity
  8
cotas
100
AcDbLine
 10
5788.466933478908
 20
2925.82357081142
 30
0.0
 11
5788.466933478908
 21
2955.823570811422
 31
0.0
  0
LINE
  5
21B
330
217
100
AcDbEntity
  8
cotas
100
AcDbLine
 10
5858.465761759173
 20
2950.823570811422
 30
0.0
 11
5798.466933478909
 21
2950.823570811422
 31
0.0
  0
SOLID
  5
21C
330
217
100
AcDbEntity
  8
cotas
100
AcDbTrace
 10
5858.465761759173
 20
2952.490237478088
 30
0.0
 11
5858.465761759173
 21
2949.156904144755
 31
0.0
 12
5868.465761759173
 22
2950.823570811422
 32
0.0
 13
5868.465761759173
 23
2950.823570811422
 33
0.0
  0
SOLID
  5
21D
330
217
100
AcDbEntity
  8
cotas
100
AcDbTrace
 10
5798.466933478909
 20
2952.490237478088
 30
0.0
 11
5798.466933478909
 21
2949.156904144755
 31
0.0
 12
5788.466933478908
 22
2950.823570811422
 32
0.0
 13
5788.466933478908
 23
2950.823570811422
 33
0.0
  0
MTEXT
  5
21E
330
217
100
AcDbEntity
  8
cotas
100
AcDbMText
 10
5828.466347619041
 20
2961.051911979991
 30
0.0
 40
10.0
 41
0.0
 71
     5
 72
     1
  1
80
  7
SANINDUSA
 73
     1
 44
1.0
1001
ACAD
1000
MTEXTBEGIN
1070
    73
1070
     1
1070
    44
1040
1.0
1070
    74
1070
     0
1000
MTEXTEND
  0
POINT
  5
21F
330
217
100
AcDbEntity
  8
Defpoints
 62
     0
100
AcDbPoint
 10
5868.465761759173
 20
2785.556987537536
 30
0.0
  0
POINT
  5
220
330
217
100
AcDbEntity
  8
Defpoints
 62
     0
100
AcDbPoint
 10
5788.466933478908
 20
2920.823570811421
 30
-0.0000000000000197
  0
POINT
  5
221
330
217
100
AcDbEntity
  8
Defpoints
 62
     0
100
AcDbPoint
 10
5788.466933478908
 20
2950.823570811422
 30
0.0
  0
ENDBLK
  5
222
330
217
100
AcDbEntity
  8
0
100
AcDbBlockEnd
  0
BLOCK
  5
224
330
223
100
AcDbEntity
  8
0
100
AcDbBlockBegin
  2
*D47
 70
     1
 10
0.0
 20
0.0
 30
0.0
  3
*D47
  1

  0
LINE
  5
225
330
223
100
AcDbEntity
  8
cotas
100
AcDbLine
 10
5788.476191204463
 20
2925.82357081142
 30
0.0
 11
5788.476191204463
 21
2955.823570811421
 31
0.0
  0
LINE
  5
226
330
223
100
AcDbEntity
  8
cotas
100
AcDbLine
 10
5708.486231805785
 20
2790.557118540574
 30
0.0
 11
5708.486231805785
 21
2955.823570811421
 31
0.0
  0
LINE
  5
227
330
223
100
AcDbEntity
  8
cotas
100
AcDbLine
 10
5778.476191204464
 20
2950.823570811421
 30
0.0
 11
5718.486231805786
 21
2950.823570811421
 31
0.0
  0
SOLID
  5
228
330
223
100
AcDbEntity
  8
cotas
100
AcDbTrace
 10
5778.476191204464
 20
2952.490237478087
 30
0.0
 11
5778.476191204464
 21
2949.156904144754
 31
0.0
 12
5788.476191204463
 22
2950.823570811421
 32
0.0
 13
5788.476191204463
 23
2950.823570811421
 33
0.0
  0
SOLID
  5
229
330
223
100
AcDbEntity
  8
cotas
100
AcDbTrace
 10
5718.486231805786
 20
2952.490237478087
 30
0.0
 11
5718.486231805786
 21
2949.156904144754
 31
0.0
 12
5708.486231805785
 22
2950.823570811421
 32
0.0
 13
5708.486231805785
 23
2950.823570811421
 33
0.0
  0
MTEXT
  5
22A
330
223
100
AcDbEntity
  8
cotas
100
AcDbMText
 10
5748.481211505125
 20
2961.051911979991
 30
0.0
 40
10.0
 41
0.0
 71
     5
 72
     1
  1
80
  7
SANINDUSA
 73
     1
 44
1.0
1001
ACAD
1000
MTEXTBEGIN
1070
    73
1070
     1
1070
    44
1040
1.0
1070
    74
1070
     0
1000
MTEXTEND
  0
POINT
  5
22B
330
223
100
AcDbEntity
  8
Defpoints
 62
     0
100
AcDbPoint
 10
5788.476191204463
 20
2920.823570811421
 30
0.0
  0
POINT
  5
22C
330
223
100
AcDbEntity
  8
Defpoints
 62
     0
100
AcDbPoint
 10
5708.486231805785
 20
2785.557118540574
 30
0.0
  0
POINT
  5
22D
330
223
100
AcDbEntity
  8
Defpoints
 62
     0
100
AcDbPoint
 10
5708.486231805785
 20
2950.823570811421
 30
0.0
  0
ENDBLK
  5
22E
330
223
100
AcDbEntity
  8
0
100
AcDbBlockEnd
  0
BLOCK
  5
230
330
22F
100
AcDbEntity
  8
0
100
AcDbBlockBegin
  2
*D48
 70
     1
 10
0.0
 20
0.0
 30
0.0
  3
*D48
  1

  0
LINE
  5
231
330
22F
100
AcDbEntity
  8
cotas
100
AcDbLine
 10
6152.26006574209
 20
2750.125562684725
 30
0.0
 11
6472.454537031983
 21
2750.125562684725
 31
0.0
  0
LINE
  5
232
330
22F
100
AcDbEntity
  8
cotas
100
AcDbLine
 10
6152.251264988843
 20
2670.14371934167
 30
0.0
 11
6472.454537031983
 21
2670.14371934167
 31
0.0
  0
LINE
  5
233
330
22F
100
AcDbEntity
  8
cotas
100
AcDbLine
 10
6467.454537031983
 20
2740.125562684725
 30
0.0
 11
6467.454537031983
 21
2680.14371934167
 31
0.0
  0
SOLID
  5
234
330
22F
100
AcDbEntity
  8
cotas
100
AcDbTrace
 10
6465.787870365315
 20
2740.125562684725
 30
0.0
 11
6469.12120369865
 21
2740.125562684725
 31
0.0
 12
6467.454537031983
 22
2750.125562684725
 32
0.0
 13
6467.454537031983
 23
2750.125562684725
 33
0.0
  0
SOLID
  5
235
330
22F
100
AcDbEntity
  8
cotas
100
AcDbTrace
 10
6465.787870365315
 20
2680.14371934167
 30
0.0
 11
6469.12120369865
 21
2680.14371934167
 31
0.0
 12
6467.454537031983
 22
2670.14371934167
 32
0.0
 13
6467.454537031983
 23
2670.14371934167
 33
0.0
  0
MTEXT
  5
236
330
22F
100
AcDbEntity
  8
cotas
100
AcDbMText
 10
6457.226195863412
 20
2710.134641013198
 30
0.0
 40
10.0
 41
0.0
 71
     5
 72
     1
  1
80
  7
SANINDUSA
 11
0.0000000000000001
 21
1.0
 31
0.0
 73
     1
 44
1.0
1001
ACAD
1000
MTEXTBEGIN
1070
    73
1070
     1
1070
    44
1040
1.0
1070
    74
1070
     0
1000
MTEXTEND
  0
POINT
  5
237
330
22F
100
AcDbEntity
  8
Defpoints
 62
     0
100
AcDbPoint
 10
6147.26006574209
 20
2750.125562684725
 30
0.0
  0
POINT
  5
238
330
22F
100
AcDbEntity
  8
Defpoints
 62
     0
100
AcDbPoint
 10
6147.251264988843
 20
2670.14371934167
 30
0.0
  0
POINT
  5
239
330
22F
100
AcDbEntity
  8
Defpoints
 62
     0
100
AcDbPoint
 10
6467.454537031983
 20
2670.14371934167
 30
0.0
  0
ENDBLK
  5
23A
330
22F
100
AcDbEntity
  8
0
100
AcDbBlockEnd
  0
BLOCK
  5
23C
330
23B
100
AcDbEntity
  8
0
100
AcDbBlockBegin
  2
*D49
 70
     1
 10
0.0
 20
0.0
 30
0.0
  3
*D49
  1

  0
LINE
  5
23D
330
23B
100
AcDbEntity
  8
cotas
100
AcDbLine
 10
6157.251264988843
 20
2670.14371934167
 30
0.0
 11
6472.454537031983
 21
2670.14371934167
 31
0.0
  0
LINE
  5
23E
330
23B
100
AcDbEntity
  8
cotas
100
AcDbLine
 10
6152.231405034506
 20
2590.148840274406
 30
0.0
 11
6472.454537031983
 21
2590.148840274406
 31
0.0
  0
LINE
  5
23F
330
23B
100
AcDbEntity
  8
cotas
100
AcDbLine
 10
6467.454537031983
 20
2660.14371934167
 30
0.0
 11
6467.454537031983
 21
2600.148840274405
 31
0.0
  0
SOLID
  5
240
330
23B
100
AcDbEntity
  8
cotas
100
AcDbTrace
 10
6465.787870365315
 20
2660.14371934167
 30
0.0
 11
6469.12120369865
 21
2660.14371934167
 31
0.0
 12
6467.454537031983
 22
2670.14371934167
 32
0.0
 13
6467.454537031983
 23
2670.14371934167
 33
0.0
  0
SOLID
  5
241
330
23B
100
AcDbEntity
  8
cotas
100
AcDbTrace
 10
6465.787870365315
 20
2600.148840274405
 30
0.0
 11
6469.12120369865
 21
2600.148840274405
 31
0.0
 12
6467.454537031983
 22
2590.148840274406
 32
0.0
 13
6467.454537031983
 23
2590.148840274406
 33
0.0
  0
MTEXT
  5
242
330
23B
100
AcDbEntity
  8
cotas
100
AcDbMText
 10
6457.226195863412
 20
2630.146279808038
 30
0.0
 40
10.0
 41
0.0
 71
     5
 72
     1
  1
80
  7
SANINDUSA
 11
0.0000000000000001
 21
1.0
 31
0.0
 73
     1
 44
1.0
1001
ACAD
1000
MTEXTBEGIN
1070
    73
1070
     1
1070
    44
1040
1.0
1070
    74
1070
     0
1000
MTEXTEND
  0
POINT
  5
243
330
23B
100
AcDbEntity
  8
Defpoints
 62
     0
100
AcDbPoint
 10
6152.251264988843
 20
2670.14371934167
 30
0.0
  0
POINT
  5
244
330
23B
100
AcDbEntity
  8
Defpoints
 62
     0
100
AcDbPoint
 10
6147.231405034506
 20
2590.148840274406
 30
0.0
  0
POINT
  5
245
330
23B
100
AcDbEntity
  8
Defpoints
 62
     0
100
AcDbPoint
 10
6467.454537031983
 20
2590.148840274406
 30
0.0
  0
ENDBLK
  5
246
330
23B
100
AcDbEntity
  8
0
100
AcDbBlockEnd
  0
BLOCK
  5
248
330
247
100
AcDbEntity
  8
0
100
AcDbBlockBegin
  2
*D50
 70
     1
 10
0.0
 20
0.0
 30
0.0
  3
*D50
  1

  0
LINE
  5
249
330
247
100
AcDbEntity
  8
cotas
100
AcDbLine
 10
6152.214207496907
 20
2510.131915547301
 30
0.0
 11
6472.454537031983
 21
2510.131915547301
 31
0.0
  0
LINE
  5
24A
330
247
100
AcDbEntity
  8
cotas
100
AcDbLine
 10
6152.231405034506
 20
2590.148840274406
 30
0.0
 11
6472.454537031983
 21
2590.148840274406
 31
0.0
  0
LINE
  5
24B
330
247
100
AcDbEntity
  8
cotas
100
AcDbLine
 10
6467.454537031983
 20
2520.131915547301
 30
0.0
 11
6467.454537031983
 21
2580.148840274405
 31
0.0
  0
SOLID
  5
24C
330
247
100
AcDbEntity
  8
cotas
100
AcDbTrace
 10
6465.787870365315
 20
2520.131915547301
 30
0.0
 11
6469.12120369865
 21
2520.131915547301
 31
0.0
 12
6467.454537031983
 22
2510.131915547301
 32
0.0
 13
6467.454537031983
 23
2510.131915547301
 33
0.0
  0
SOLID
  5
24D
330
247
100
AcDbEntity
  8
cotas
100
AcDbTrace
 10
6465.787870365315
 20
2580.148840274405
 30
0.0
 11
6469.12120369865
 21
2580.148840274405
 31
0.0
 12
6467.454537031983
 22
2590.148840274406
 32
0.0
 13
6467.454537031983
 23
2590.148840274406
 33
0.0
  0
MTEXT
  5
24E
330
247
100
AcDbEntity
  8
cotas
100
AcDbMText
 10
6457.226195863412
 20
2550.140377910854
 30
0.0
 40
10.0
 41
0.0
 71
     5
 72
     1
  1
80
  7
SANINDUSA
 11
0.0000000000000001
 21
1.0
 31
0.0
 73
     1
 44
1.0
1001
ACAD
1000
MTEXTBEGIN
1070
    73
1070
     1
1070
    44
1040
1.0
1070
    74
1070
     0
1000
MTEXTEND
  0
POINT
  5
24F
330
247
100
AcDbEntity
  8
Defpoints
 62
     0
100
AcDbPoint
 10
6147.214207496907
 20
2510.131915547301
 30
0.0
  0
POINT
  5
250
330
247
100
AcDbEntity
  8
Defpoints
 62
     0
100
AcDbPoint
 10
6147.231405034506
 20
2590.148840274406
 30
0.0
  0
POINT
  5
251
330
247
100
AcDbEntity
  8
Defpoints
 62
     0
100
AcDbPoint
 10
6467.454537031983
 20
2590.148840274406
 30
0.0
  0
ENDBLK
  5
252
330
247
100
AcDbEntity
  8
0
100
AcDbBlockEnd
  0
BLOCK
  5
254
330
253
100
AcDbEntity
  8
0
100
AcDbBlockBegin
  2
*D51
 70
     1
 10
0.0
 20
0.0
 30
0.0
  3
*D51
  1

  0
LINE
  5
255
330
253
100
AcDbEntity
  8
cotas
100
AcDbLine
 10
6152.214207496907
 20
2510.131915547301
 30
0.0
 11
6472.454537031983
 21
2510.131915547301
 31
0.0
  0
LINE
  5
256
330
253
100
AcDbEntity
  8
cotas
100
AcDbLine
 10
6442.454537031983
 20
2470.12538584438
 30
0.0
 11
6472.454537031983
 21
2470.12538584438
 31
0.0
  0
LINE
  5
257
330
253
100
AcDbEntity
  8
cotas
100
AcDbLine
 10
6467.454537031983
 20
2500.131915547302
 30
0.0
 11
6467.454537031983
 21
2480.12538584438
 31
0.0
  0
SOLID
  5
258
330
253
100
AcDbEntity
  8
cotas
100
AcDbTrace
 10
6465.787870365315
 20
2500.131915547302
 30
0.0
 11
6469.12120369865
 21
2500.131915547302
 31
0.0
 12
6467.454537031983
 22
2510.131915547301
 32
0.0
 13
6467.454537031983
 23
2510.131915547301
 33
0.0
  0
SOLID
  5
259
330
253
100
AcDbEntity
  8
cotas
100
AcDbTrace
 10
6465.787870365315
 20
2480.12538584438
 30
0.0
 11
6469.12120369865
 21
2480.12538584438
 31
0.0
 12
6467.454537031983
 22
2470.12538584438
 32
0.0
 13
6467.454537031983
 23
2470.12538584438
 33
0.0
  0
MTEXT
  5
25A
330
253
100
AcDbEntity
  8
cotas
100
AcDbMText
 10
6457.249701571942
 20
2490.128650695841
 30
0.0
 40
10.0
 41
0.0
 71
     5
 72
     1
  1
40
  7
SANINDUSA
 11
0.0000000000000001
 21
1.0
 31
0.0
 73
     1
 44
1.0
1001
ACAD
1000
MTEXTBEGIN
1070
    73
1070
     1
1070
    44
1040
1.0
1070
    74
1070
     0
1000
MTEXTEND
  0
POINT
  5
25B
330
253
100
AcDbEntity
  8
Defpoints
 62
     0
100
AcDbPoint
 10
6147.214207496907
 20
2510.131915547301
 30
0.0
  0
POINT
  5
25C
330
253
100
AcDbEntity
  8
Defpoints
 62
     0
100
AcDbPoint
 10
6437.454537031984
 20
2470.12538584438
 30
0.0
  0
POINT
  5
25D
330
253
100
AcDbEntity
  8
Defpoints
 62
     0
100
AcDbPoint
 10
6467.454537031983
 20
2470.12538584438
 30
0.0
  0
ENDBLK
  5
25E
330
253
100
AcDbEntity
  8
0
100
AcDbBlockEnd
  0
BLOCK
  5
260
330
25F
100
AcDbEntity
  8
0
100
AcDbBlockBegin
  2
*D52
 70
     1
 10
0.0
 20
0.0
 30
0.0
  3
*D52
  1

  0
LINE
  5
261
330
25F
100
AcDbEntity
  8
cotas
100
AcDbLine
 10
6441.876333563661
 20
2470.125385844378
 30
0.0
 11
6472.454537031983
 21
2470.125385844378
 31
0.0
  0
LINE
  5
262
330
25F
100
AcDbEntity
  8
cotas
100
AcDbLine
 10
6152.216293234849
 20
2430.102952142946
 30
0.0
 11
6472.454537031983
 21
2430.102952142946
 31
0.0
  0
LINE
  5
263
330
25F
100
AcDbEntity
  8
cotas
100
AcDbLine
 10
6467.454537031983
 20
2460.125385844378
 30
0.0
 11
6467.454537031983
 21
2440.102952142947
 31
0.0
  0
SOLID
  5
264
330
25F
100
AcDbEntity
  8
cotas
100
AcDbTrace
 10
6465.787870365315
 20
2460.125385844378
 30
0.0
 11
6469.12120369865
 21
2460.125385844378
 31
0.0
 12
6467.454537031983
 22
2470.125385844378
 32
0.0
 13
6467.454537031983
 23
2470.125385844378
 33
0.0
  0
SOLID
  5
265
330
25F
100
AcDbEntity
  8
cotas
100
AcDbTrace
 10
6465.787870365315
 20
2440.102952142947
 30
0.0
 11
6469.12120369865
 21
2440.102952142947
 31
0.0
 12
6467.454537031983
 22
2430.102952142946
 32
0.0
 13
6467.454537031983
 23
2430.102952142946
 33
0.0
  0
MTEXT
  5
266
330
25F
100
AcDbEntity
  8
cotas
100
AcDbMText
 10
6457.249701571942
 20
2450.114168993663
 30
0.0
 40
10.0
 41
0.0
 71
     5
 72
     1
  1
40
  7
SANINDUSA
 11
0.0000000000000001
 21
1.0
 31
0.0
 73
     1
 44
1.0
1001
ACAD
1000
MTEXTBEGIN
1070
    73
1070
     1
1070
    44
1040
1.0
1070
    74
1070
     0
1000
MTEXTEND
  0
POINT
  5
267
330
25F
100
AcDbEntity
  8
Defpoints
 62
     0
100
AcDbPoint
 10
6436.876333563661
 20
2470.125385844378
 30
0.0
  0
POINT
  5
268
330
25F
100
AcDbEntity
  8
Defpoints
 62
     0
100
AcDbPoint
 10
6147.216293234849
 20
2430.102952142946
 30
0.0
  0
POINT
  5
269
330
25F
100
AcDbEntity
  8
Defpoints
 62
     0
100
AcDbPoint
 10
6467.454537031983
 20
2430.102952142946
 30
0.0
  0
ENDBLK
  5
26A
330
25F
100
AcDbEntity
  8
0
100
AcDbBlockEnd
  0
BLOCK
  5
26C
330
26B
100
AcDbEntity
  8
0
100
AcDbBlockBegin
  2
*D53
 70
     1
 10
0.0
 20
0.0
 30
0.0
  3
*D53
  1

  0
LINE
  5
26D
330
26B
100
AcDbEntity
  8
cotas
100
AcDbLine
 10
6152.216293234848
 20
2350.117421486086
 30
0.0
 11
6472.454537031983
 21
2350.117421486086
 31
0.0
  0
LINE
  5
26E
330
26B
100
AcDbEntity
  8
cotas
100
AcDbLine
 10
6152.304478148804
 20
2270.118122963015
 30
0.0
 11
6472.454537031983
 21
2270.118122963015
 31
0.0
  0
LINE
  5
26F
330
26B
100
AcDbEntity
  8
cotas
100
AcDbLine
 10
6467.454537031983
 20
2340.117421486086
 30
0.0
 11
6467.454537031983
 21
2280.118122963015
 31
0.0
  0
SOLID
  5
270
330
26B
100
AcDbEntity
  8
cotas
100
AcDbTrace
 10
6465.787870365315
 20
2340.117421486086
 30
0.0
 11
6469.12120369865
 21
2340.117421486086
 31
0.0
 12
6467.454537031983
 22
2350.117421486086
 32
0.0
 13
6467.454537031983
 23
2350.117421486086
 33
0.0
  0
SOLID
  5
271
330
26B
100
AcDbEntity
  8
cotas
100
AcDbTrace
 10
6465.787870365315
 20
2280.118122963015
 30
0.0
 11
6469.12120369865
 21
2280.118122963015
 31
0.0
 12
6467.454537031983
 22
2270.118122963015
 32
0.0
 13
6467.454537031983
 23
2270.118122963015
 33
0.0
  0
MTEXT
  5
272
330
26B
100
AcDbEntity
  8
cotas
100
AcDbMText
 10
6457.226195863412
 20
2310.117772224551
 30
0.0
 40
10.0
 41
0.0
 71
     5
 72
     1
  1
80
  7
SANINDUSA
 11
0.0000000000000001
 21
1.0
 31
0.0
 73
     1
 44
1.0
1001
ACAD
1000
MTEXTBEGIN
1070
    73
1070
     1
1070
    44
1040
1.0
1070
    74
1070
     0
1000
MTEXTEND
  0
POINT
  5
273
330
26B
100
AcDbEntity
  8
Defpoints
 62
     0
100
AcDbPoint
 10
6147.216293234848
 20
2350.117421486086
 30
0.0
  0
POINT
  5
274
330
26B
100
AcDbEntity
  8
Defpoints
 62
     0
100
AcDbPoint
 10
6147.304478148804
 20
2270.118122963015
 30
0.0
  0
POINT
  5
275
330
26B
100
AcDbEntity
  8
Defpoints
 62
     0
100
AcDbPoint
 10
6467.454537031983
 20
2270.118122963015
 30
0.0
  0
ENDBLK
  5
276
330
26B
100
AcDbEntity
  8
0
100
AcDbBlockEnd
  0
BLOCK
  5
278
330
277
100
AcDbEntity
  8
0
100
AcDbBlockBegin
  2
*D54
 70
     1
 10
0.0
 20
0.0
 30
0.0
  3
*D54
  1

  0
LINE
  5
279
330
277
100
AcDbEntity
  8
cotas
100
AcDbLine
 10
6152.304478148804
 20
2270.118122963015
 30
0.0
 11
6472.454537031983
 21
2270.118122963015
 31
0.0
  0
LINE
  5
27A
330
277
100
AcDbEntity
  8
cotas
100
AcDbLine
 10
6152.264573130253
 20
2190.117061522704
 30
0.0
 11
6472.454537031983
 21
2190.117061522704
 31
0.0
  0
LINE
  5
27B
330
277
100
AcDbEntity
  8
cotas
100
AcDbLine
 10
6467.454537031983
 20
2260.118122963015
 30
0.0
 11
6467.454537031983
 21
2200.117061522704
 31
0.0
  0
SOLID
  5
27C
330
277
100
AcDbEntity
  8
cotas
100
AcDbTrace
 10
6465.787870365315
 20
2260.118122963015
 30
0.0
 11
6469.12120369865
 21
2260.118122963015
 31
0.0
 12
6467.454537031983
 22
2270.118122963015
 32
0.0
 13
6467.454537031983
 23
2270.118122963015
 33
0.0
  0
SOLID
  5
27D
330
277
100
AcDbEntity
  8
cotas
100
AcDbTrace
 10
6465.787870365315
 20
2200.117061522704
 30
0.0
 11
6469.12120369865
 21
2200.117061522704
 31
0.0
 12
6467.454537031983
 22
2190.117061522704
 32
0.0
 13
6467.454537031983
 23
2190.117061522704
 33
0.0
  0
MTEXT
  5
27E
330
277
100
AcDbEntity
  8
cotas
100
AcDbMText
 10
6457.226195863412
 20
2230.11759224286
 30
0.0
 40
10.0
 41
0.0
 71
     5
 72
     1
  1
80
  7
SANINDUSA
 11
0.0000000000000001
 21
1.0
 31
0.0
 73
     1
 44
1.0
1001
ACAD
1000
MTEXTBEGIN
1070
    73
1070
     1
1070
    44
1040
1.0
1070
    74
1070
     0
1000
MTEXTEND
  0
POINT
  5
27F
330
277
100
AcDbEntity
  8
Defpoints
 62
     0
100
AcDbPoint
 10
6147.304478148804
 20
2270.118122963015
 30
0.0
  0
POINT
  5
280
330
277
100
AcDbEntity
  8
Defpoints
 62
     0
100
AcDbPoint
 10
6147.264573130253
 20
2190.117061522704
 30
0.0
  0
POINT
  5
281
330
277
100
AcDbEntity
  8
Defpoints
 62
     0
100
AcDbPoint
 10
6467.454537031983
 20
2190.117061522704
 30
0.0
  0
ENDBLK
  5
282
330
277
100
AcDbEntity
  8
0
100
AcDbBlockEnd
  0
BLOCK
  5
284
330
283
100
AcDbEntity
  8
0
100
AcDbBlockBegin
  2
*D55
 70
     1
 10
0.0
 20
0.0
 30
0.0
  3
*D55
  1

  0
LINE
  5
285
330
283
100
AcDbEntity
  8
cotas
100
AcDbLine
 10
6152.264573130253
 20
2190.117061522704
 30
0.0
 11
6472.454537031985
 21
2190.117061522704
 31
0.0
  0
LINE
  5
286
330
283
100
AcDbEntity
  8
cotas
100
AcDbLine
 10
6436.756269344716
 20
2020.12538584438
 30
0.0
 11
6472.454537031983
 21
2020.12538584438
 31
0.0
  0
LINE
  5
287
330
283
100
AcDbEntity
  8
cotas
100
AcDbLine
 10
6467.454537031983
 20
2180.117061522704
 30
0.0
 11
6467.454537031983
 21
2030.12538584438
 31
0.0
  0
SOLID
  5
288
330
283
100
AcDbEntity
  8
cotas
100
AcDbTrace
 10
6465.787870365317
 20
2180.117061522704
 30
0.0
 11
6469.121203698652
 21
2180.117061522704
 31
0.0
 12
6467.454537031983
 22
2190.117061522704
 32
0.0
 13
6467.454537031983
 23
2190.117061522704
 33
0.0
  0
SOLID
  5
289
330
283
100
AcDbEntity
  8
cotas
100
AcDbTrace
 10
6465.787870365315
 20
2030.12538584438
 30
0.0
 11
6469.12120369865
 21
2030.12538584438
 31
0.0
 12
6467.454537031983
 22
2020.12538584438
 32
0.0
 13
6467.454537031983
 23
2020.12538584438
 33
0.0
  0
MTEXT
  5
28A
330
283
100
AcDbEntity
  8
cotas
100
AcDbMText
 10
6457.249701571943
 20
2105.121223683543
 30
0.0
 40
10.0
 41
0.0
 71
     5
 72
     1
  1
170
  7
SANINDUSA
 11
0.0000000000000001
 21
1.0
 31
0.0
 73
     1
 44
1.0
1001
ACAD
1000
MTEXTBEGIN
1070
    73
1070
     1
1070
    44
1040
1.0
1070
    74
1070
     0
1000
MTEXTEND
  0
POINT
  5
28B
330
283
100
AcDbEntity
  8
Defpoints
 62
     0
100
AcDbPoint
 10
6147.264573130253
 20
2190.117061522704
 30
0.0
  0
POINT
  5
28C
330
283
100
AcDbEntity
  8
Defpoints
 62
     0
100
AcDbPoint
 10
6431.756269344716
 20
2020.12538584438
 30
0.0
  0
POINT
  5
28D
330
283
100
AcDbEntity
  8
Defpoints
 62
     0
100
AcDbPoint
 10
6467.454537031983
 20
2020.12538584438
 30
0.0
  0
ENDBLK
  5
28E
330
283
100
AcDbEntity
  8
0
100
AcDbBlockEnd
  0
BLOCK
  5
290
330
28F
100
AcDbEntity
  8
0
100
AcDbBlockBegin
  2
*D56
 70
     1
 10
0.0
 20
0.0
 30
0.0
  3
*D56
  1

  0
LINE
  5
291
330
28F
100
AcDbEntity
  8
cotas
100
AcDbLine
 10
6152.26006574209
 20
2750.125562684725
 30
0.0
 11
6472.454537031983
 21
2750.125562684725
 31
0.0
  0
LINE
  5
292
330
28F
100
AcDbEntity
  8
cotas
100
AcDbLine
 10
6436.756269344716
 20
2920.12538584438
 30
0.0
 11
6472.454537031983
 21
2920.12538584438
 31
0.0
  0
LINE
  5
293
330
28F
100
AcDbEntity
  8
cotas
100
AcDbLine
 10
6467.454537031983
 20
2760.125562684725
 30
0.0
 11
6467.454537031983
 21
2910.12538584438
 31
0.0
  0
SOLID
  5
294
330
28F
100
AcDbEntity
  8
cotas
100
AcDbTrace
 10
6465.787870365315
 20
2760.125562684725
 30
0.0
 11
6469.12120369865
 21
2760.125562684725
 31
0.0
 12
6467.454537031983
 22
2750.125562684725
 32
0.0
 13
6467.454537031983
 23
2750.125562684725
 33
0.0
  0
SOLID
  5
295
330
28F
100
AcDbEntity
  8
cotas
100
AcDbTrace
 10
6465.787870365315
 20
2910.12538584438
 30
0.0
 11
6469.12120369865
 21
2910.12538584438
 31
0.0
 12
6467.454537031983
 22
2920.12538584438
 32
0.0
 13
6467.454537031983
 23
2920.12538584438
 33
0.0
  0
MTEXT
  5
296
330
28F
100
AcDbEntity
  8
cotas
100
AcDbMText
 10
6457.249701571942
 20
2835.125474264554
 30
0.0
 40
10.0
 41
0.0
 71
     5
 72
     1
  1
170
  7
SANINDUSA
 11
0.0000000000000001
 21
1.0
 31
0.0
 73
     1
 44
1.0
1001
ACAD
1000
MTEXTBEGIN
1070
    73
1070
     1
1070
    44
1040
1.0
1070
    74
1070
     0
1000
MTEXTEND
  0
POINT
  5
297
330
28F
100
AcDbEntity
  8
Defpoints
 62
     0
100
AcDbPoint
 10
6147.26006574209
 20
2750.125562684725
 30
0.0
  0
POINT
  5
298
330
28F
100
AcDbEntity
  8
Defpoints
 62
     0
100
AcDbPoint
 10
6431.756269344716
 20
2920.12538584438
 30
0.0
  0
POINT
  5
299
330
28F
100
AcDbEntity
  8
Defpoints
 62
     0
100
AcDbPoint
 10
6467.454537031983
 20
2920.12538584438
 30
0.0
  0
ENDBLK
  5
29A
330
28F
100
AcDbEntity
  8
0
100
AcDbBlockEnd
  0
BLOCK
  5
29C
330
29B
100
AcDbEntity
  8
0
100
AcDbBlockBegin
  2
*D57
 70
     1
 10
0.0
 20
0.0
 30
0.0
  3
*D57
  1

  0
LINE
  5
29D
330
29B
100
AcDbEntity
  8
cotas
100
AcDbLine
 10
5234.701049713047
 20
2922.220755159971
 30
0.0
 11
5234.701049713047
 21
2955.823570811421
 31
0.0
  0
LINE
  5
29E
330
29B
100
AcDbEntity
  8
cotas
100
AcDbLine
 10
5464.299134081523
 20
2925.82357081142
 30
0.0
 11
5464.299134081523
 21
2955.823570811421
 31
0.0
  0
LINE
  5
29F
330
29B
100
AcDbEntity
  8
cotas
100
AcDbLine
 10
5244.701049713047
 20
2950.823570811421
 30
0.0
 11
5454.299134081523
 21
2950.823570811421
 31
0.0
  0
SOLID
  5
2A0
330
29B
100
AcDbEntity
  8
cotas
100
AcDbTrace
 10
5244.701049713047
 20
2952.490237478087
 30
0.0
 11
5244.701049713047
 21
2949.156904144754
 31
0.0
 12
5234.701049713047
 22
2950.823570811421
 32
0.0
 13
5234.701049713047
 23
2950.823570811421
 33
0.0
  0
SOLID
  5
2A1
330
29B
100
AcDbEntity
  8
cotas
100
AcDbTrace
 10
5454.299134081523
 20
2952.490237478087
 30
0.0
 11
5454.299134081523
 21
2949.156904144754
 31
0.0
 12
5464.299134081523
 22
2950.823570811421
 32
0.0
 13
5464.299134081523
 23
2950.823570811421
 33
0.0
  0
MTEXT
  5
2A2
330
29B
100
AcDbEntity
  8
cotas
100
AcDbMText
 10
5349.500091897285
 20
2962.170112114309
 30
0.0
 40
10.0
 41
0.0
 71
     5
 72
     1
  1
229,6
  7
SANINDUSA
 73
     1
 44
1.0
1001
ACAD
1000
MTEXTBEGIN
1070
    73
1070
     1
1070
    44
1040
1.0
1070
    74
1070
     0
1000
MTEXTEND
  0
POINT
  5
2A3
330
29B
100
AcDbEntity
  8
Defpoints
 62
     0
100
AcDbPoint
 10
5234.701049713047
 20
2917.220755159971
 30
0.0000000000000001
  0
POINT
  5
2A4
330
29B
100
AcDbEntity
  8
Defpoints
 62
     0
100
AcDbPoint
 10
5464.299134081523
 20
2920.823570811421
 30
-0.0000000000000197
  0
POINT
  5
2A5
330
29B
100
AcDbEntity
  8
Defpoints
 62
     0
100
AcDbPoint
 10
5464.299134081523
 20
2950.823570811421
 30
0.0
  0
ENDBLK
  5
2A6
330
29B
100
AcDbEntity
  8
0
100
AcDbBlockEnd
  0
BLOCK
  5
2A8
330
2A7
100
AcDbEntity
  8
0
100
AcDbBlockBegin
  2
*D58
 70
     1
 10
0.0
 20
0.0
 30
0.0
  3
*D58
  1

  0
LINE
  5
2A9
330
2A7
100
AcDbEntity
  8
cotas
100
AcDbLine
 10
6462.267340122399
 20
1984.270574432574
 30
0.0
 11
6440.731768400619
 21
2013.107049158403
 31
0.0
  0
MTEXT
  5
2AA
330
2A7
100
AcDbEntity
  8
cotas
100
AcDbMText
 10
6462.5870163574
 20
2000.728653598445
 30
0.0
 40
10.0
 41
0.0
 71
     5
 72
     1
  1
R5
  7
SANINDUSA
 11
0.5983666037270237
 21
-0.8012224457316376
 31
0.0
 73
     1
 44
1.0
1001
ACAD
1000
MTEXTBEGIN
1070
    73
1070
     1
1070
    44
1040
1.0
1070
    74
1070
     0
1000
MTEXTEND
  0
LINE
  5
2AB
330
2A7
100
AcDbEntity
  8
cotas
100
AcDbLine
 10
6431.756269344713
 20
2025.125385844379
 30
0.0
 11
6434.748102363347
 21
2021.119273615719
 31
0.0
  0
SOLID
  5
2AC
330
2A7
100
AcDbEntity
  8
cotas
100
AcDbTrace
 10
6442.067139143507
 20
2014.104326831282
 30
0.0
 11
6439.396397657732
 21
2012.109771485524
 31
0.0
 12
6434.748102363347
 22
2021.119273615719
 32
0.0
 13
6434.748102363347
 23
2021.119273615719
 33
0.0
  0
POINT
  5
2AD
330
2A7
100
AcDbEntity
  8
Defpoints
 62
     0
100
AcDbPoint
 10
6434.748102363347
 20
2021.119273615719
 30
0.0
  0
POINT
  5
2AE
330
2A7
100
AcDbEntity
  8
Defpoints
 62
     0
100
AcDbPoint
 10
6431.756269344713
 20
2025.125385844379
 30
0.0
  0
ENDBLK
  5
2AF
330
2A7
100
AcDbEntity
  8
0
100
AcDbBlockEnd
  0
BLOCK
  5
2B1
330
2B0
100
AcDbEntity
  8
0
100
AcDbBlockBegin
  2
*D59
 70
     1
 10
0.0
 20
0.0
 30
0.0
  3
*D59
  1

  0
LINE
  5
2B2
330
2B0
100
AcDbEntity
  8
cotas
100
AcDbLine
 10
5205.921366774405
 20
1988.850049719614
 30
0.0
 11
5231.214656582181
 21
2014.45420201367
 31
0.0
  0
MTEXT
  5
2B3
330
2B0
100
AcDbEntity
  8
cotas
100
AcDbMText
 10
5207.865958797476
 20
2005.195970451989
 30
0.0
 40
10.0
 41
0.0
 71
     5
 72
     1
  1
R5
  7
SANINDUSA
 11
0.7027749304679416
 21
0.7114122553806477
 31
0.0
 73
     1
 44
1.0
1001
ACAD
1000
MTEXTBEGIN
1070
    73
1070
     1
1070
    44
1040
1.0
1070
    74
1070
     0
1000
MTEXTEND
  0
LINE
  5
2B4
330
2B0
100
AcDbEntity
  8
cotas
100
AcDbLine
 10
5241.7562805392
 20
2025.12538584438
 30
0.0
 11
5238.24240588686
 21
2021.568324567477
 31
0.0
  0
SOLID
  5
2B5
330
2B0
100
AcDbEntity
  8
cotas
100
AcDbTrace
 10
5230.02896948988
 20
2015.62549356445
 30
0.0
 11
5232.400343674481
 21
2013.282910462891
 31
0.0
 12
5238.24240588686
 22
2021.568324567477
 32
0.0
 13
5238.24240588686
 23
2021.568324567477
 33
0.0
  0
POINT
  5
2B6
330
2B0
100
AcDbEntity
  8
Defpoints
 62
     0
100
AcDbPoint
 10
5238.24240588686
 20
2021.568324567477
 30
0.0
  0
POINT
  5
2B7
330
2B0
100
AcDbEntity
  8
Defpoints
 62
     0
100
AcDbPoint
 10
5241.7562805392
 20
2025.12538584438
 30
0.0
  0
ENDBLK
  5
2B8
330
2B0
100
AcDbEntity
  8
0
100
AcDbBlockEnd
  0
BLOCK
  5
2BA
330
2B9
100
AcDbEntity
  8
0
100
AcDbBlockBegin
  2
*D60
 70
     1
 10
0.0
 20
0.0
 30
0.0
  3
*D60
  1

  0
LINE
  5
2BB
330
2B9
100
AcDbEntity
  8
cotas
100
AcDbLine
 10
6148.636969082183
 20
2558.172108563099
 30
0.0
 11
6191.652817318113
 21
2523.155000669248
 31
0.0
  0
LINE
  5
2BC
330
2B9
100
AcDbEntity
  8
cotas
100
AcDbLine
 10
6321.918226681201
 20
2417.112272661531
 30
0.0
 11
6329.673475261332
 21
2410.799102343825
 31
0.0
  0
MTEXT
  5
2BD
330
2B9
100
AcDbEntity
  8
cotas
100
AcDbMText
 10
6173.148582157657
 20
2552.273308643766
 30
0.0
 40
10.0
 41
0.0
 71
     5
 72
     1
  1
\U+2205148
  7
SANINDUSA
 11
0.7755248580130756
 21
-0.6313170317707257
 31
0.0
 73
     1
 44
1.0
1001
ACAD
1000
MTEXTBEGIN
1070
    73
1070
     1
1070
    44
1040
1.0
1070
    74
1070
     0
1000
MTEXTEND
  0
LINE
  5
2BE
330
2B9
100
AcDbEntity
  8
cotas
100
AcDbLine
 10
6314.16297810107
 20
2423.425442979239
 30
0.0
 11
6199.408065898244
 21
2516.841830351541
 31
0.0
  0
SOLID
  5
2BF
330
2B9
100
AcDbEntity
  8
cotas
100
AcDbTrace
 10
6322.970421734153
 20
2418.404814091553
 30
0.0
 11
6320.866031628249
 21
2415.819731231509
 31
0.0
 12
6314.16297810107
 22
2423.425442979239
 32
0.0
 13
6314.16297810107
 23
2423.425442979239
 33
0.0
  0
SOLID
  5
2C0
330
2B9
100
AcDbEntity
  8
cotas
100
AcDbTrace
 10
6192.705012371064
 20
2524.44754209927
 30
0.0
 11
6190.600622265161
 21
2521.862459239225
 31
0.0
 12
6199.408065898244
 22
2516.841830351541
 32
0.0
 13
6199.408065898244
 23
2516.841830351541
 33
0.0
  0
POINT
  5
2C1
330
2B9
100
AcDbEntity
  8
Defpoints
 62
     0
100
AcDbPoint
 10
6199.408065898244
 20
2516.841830351541
 30
0.0
  0
POINT
  5
2C2
330
2B9
100
AcDbEntity
  8
Defpoints
 62
     0
100
AcDbPoint
 10
6314.16297810107
 20
2423.425442979239
 30
0.0
  0
ENDBLK
  5
2C3
330
2B9
100
AcDbEntity
  8
0
100
AcDbBlockEnd
  0
BLOCK
  5
2C5
330
2C4
100
AcDbEntity
  8
0
100
AcDbBlockBegin
  2
*D61
 70
     1
 10
0.0
 20
0.0
 30
0.0
  3
*D61
  1

  0
LINE
  5
2C6
330
2C4
100
AcDbEntity
  8
1
100
AcDbLine
 10
6441.756269344714
 20
4403.514462253893
 30
0.0
 11
6473.405202635453
 21
4403.514462253893
 31
0.0
  0
LINE
  5
2C7
330
2C4
100
AcDbEntity
  8
1
100
AcDbLine
 10
6368.457439994859
 20
4309.047778636425
 30
0.0
 11
6473.405202635453
 21
4309.047778636425
 31
0.0
  0
LINE
  5
2C8
330
2C4
100
AcDbEntity
  8
1
100
AcDbLine
 10
6468.405202635453
 20
4393.514462253892
 30
0.0
 11
6468.405202635453
 21
4319.047778636425
 31
0.0
  0
SOLID
  5
2C9
330
2C4
100
AcDbEntity
  8
1
100
AcDbTrace
 10
6466.738535968787
 20
4393.514462253892
 30
0.0
 11
6470.071869302121
 21
4393.514462253892
 31
0.0
 12
6468.405202635453
 22
4403.514462253893
 32
0.0
 13
6468.405202635453
 23
4403.514462253893
 33
0.0
  0
SOLID
  5
2CA
330
2C4
100
AcDbEntity
  8
1
100
AcDbTrace
 10
6466.738535968787
 20
4319.047778636425
 30
0.0
 11
6470.071869302121
 21
4319.047778636425
 31
0.0
 12
6468.405202635453
 22
4309.047778636425
 32
0.0
 13
6468.405202635453
 23
4309.047778636425
 33
0.0
  0
MTEXT
  5
2CB
330
2C4
100
AcDbEntity
  8
1
100
AcDbMText
 10
6457.062019290926
 20
4356.281120445161
 30
0.0
 40
10.0
 41
0.0
 71
     5
 72
     1
  1
94,5
  7
SANINDUSA
 11
0.0000000000000001
 21
1.0
 31
0.0
 73
     1
 44
1.0
1001
ACAD
1000
MTEXTBEGIN
1070
    73
1070
     1
1070
    44
1040
1.0
1070
    74
1070
     0
1000
MTEXTEND
  0
POINT
  5
2CC
330
2C4
100
AcDbEntity
  8
Defpoints
 62
     0
100
AcDbPoint
 10
6436.756269344714
 20
4403.514462253893
 30
0.0
  0
POINT
  5
2CD
330
2C4
100
AcDbEntity
  8
Defpoints
 62
     0
100
AcDbPoint
 10
6363.45743999486
 20
4309.047778636425
 30
0.0
  0
POINT
  5
2CE
330
2C4
100
AcDbEntity
  8
Defpoints
 62
     0
100
AcDbPoint
 10
6468.405202635453
 20
4309.047778636425
 30
0.0
  0
ENDBLK
  5
2CF
330
2C4
100
AcDbEntity
  8
0
100
AcDbBlockEnd
  0
BLOCK
  5
2D1
330
2D0
100
AcDbEntity
  8
0
100
AcDbBlockBegin
  2
*D62
 70
     1
 10
0.0
 20
0.0
 30
0.0
  3
*D62
  1

  0
LINE
  5
2D2
330
2D0
100
AcDbEntity
  8
1
100
AcDbLine
 10
5234.700288188816
 20
2922.219993635763
 30
0.0
 11
5201.096837933863
 21
2922.219993635763
 31
0.0
  0
LINE
  5
2D3
330
2D0
100
AcDbEntity
  8
1
100
AcDbLine
 10
5229.701049713038
 20
2827.277201269052
 30
0.0
 11
5201.096837933863
 21
2827.277201269052
 31
0.0
  0
LINE
  5
2D4
330
2D0
100
AcDbEntity
  8
1
100
AcDbLine
 10
5206.096837933863
 20
2912.219993635763
 30
0.0
 11
5206.096837933863
 21
2837.277201269052
 31
0.0
  0
SOLID
  5
2D5
330
2D0
100
AcDbEntity
  8
1
100
AcDbTrace
 10
5204.430171267196
 20
2912.219993635763
 30
0.0
 11
5207.76350460053
 21
2912.219993635763
 31
0.0
 12
5206.096837933863
 22
2922.219993635763
 32
0.0
 13
5206.096837933863
 23
2922.219993635763
 33
0.0
  0
SOLID
  5
2D6
330
2D0
100
AcDbEntity
  8
1
100
AcDbTrace
 10
5204.430171267196
 20
2837.277201269052
 30
0.0
 11
5207.76350460053
 21
2837.277201269052
 31
0.0
 12
5206.096837933863
 22
2827.277201269052
 32
0.0
 13
5206.096837933863
 23
2827.277201269052
 33
0.0
  0
MTEXT
  5
2D7
330
2D0
100
AcDbEntity
  8
1
100
AcDbMText
 10
5194.753654589336
 20
2874.748597452409
 30
0.0
 40
10.0
 41
0.0
 71
     5
 72
     1
  1
94,9
  7
SANINDUSA
 11
0.0000000000000001
 21
1.0
 31
0.0
 73
     1
 44
1.0
1001
ACAD
1000
MTEXTBEGIN
1070
    73
1070
     1
1070
    44
1040
1.0
1070
    74
1070
     0
1000
MTEXTEND
  0
POINT
  5
2D8
330
2D0
100
AcDbEntity
  8
Defpoints
 62
     0
100
AcDbPoint
 10
5239.700288188817
 20
2922.219993635763
 30
0.0
  0
POINT
  5
2D9
330
2D0
100
AcDbEntity
  8
Defpoints
 62
     0
100
AcDbPoint
 10
5234.701049713038
 20
2827.277201269052
 30
0.0
  0
POINT
  5
2DA
330
2D0
100
AcDbEntity
  8
Defpoints
 62
     0
100
AcDbPoint
 10
5206.096837933863
 20
2827.277201269052
 30
0.0
  0
ENDBLK
  5
2DB
330
2D0
100
AcDbEntity
  8
0
100
AcDbBlockEnd
  0
BLOCK
  5
B6A
330
B64
100
AcDbEntity
  8
0
100
AcDbBlockBegin
  2
*D64
 70
     1
 10
0.0
 20
0.0
 30
0.0
  3
*D64
  1

  0
LINE
  5
7464
330
B64
100
AcDbEntity
  8
cotas
100
AcDbLine
 10
176.7627335030405
 20
1741.447140270263
 30
0.0
 11
152.74608561255
 21
1768.396537481205
 31
0.0
  0
MTEXT
  5
7465
330
B64
100
AcDbEntity
  8
cotas
100
AcDbMText
 10
175.5466043115741
 20
1757.842203989295
 30
0.0
 40
10.0
 41
0.0
 71
     5
 72
     1
  1
R7
  7
SANINDUSA
 11
0.665316999236085
 21
-0.7465609757598446
 31
0.0
 73
     1
 44
1.0
1001
ACAD
1000
MTEXTBEGIN
1070
    73
1070
     1
1070
    44
1040
1.0
1070
    74
1070
     0
1000
MTEXTEND
  0
SOLID
  5
7466
330
B64
100
AcDbEntity
  8
cotas
100
AcDbTrace
 10
153.990353905483
 20
1769.505399146598
 30
0.0
 11
151.5018173196168
 21
1767.287675815811
 31
0.0
 12
146.0929156201891
 22
1775.862147238803
 32
0.0
 13
146.0929156201891
 23
1775.862147238803
 33
0.0
  0
POINT
  5
7467
330
B64
100
AcDbEntity
  8
Defpoints
 62
     0
100
AcDbPoint
 10
146.0929156201891
 20
1775.862147238803
 30
0.0
  0
POINT
  5
7468
330
B64
100
AcDbEntity
  8
Defpoints
 62
     0
100
AcDbPoint
 10
150.7501346148403
 20
1770.636220408486
 30
0.0
  0
ENDBLK
  5
B6B
330
B64
100
AcDbEntity
  8
0
100
AcDbBlockEnd
  0
BLOCK
  5
B72
330
B6C
100
AcDbEntity
  8
0
100
AcDbBlockBegin
  2
*D65
 70
     1
 10
0.0
 20
0.0
 30
0.0
  3
*D65
  1

  0
LINE
  5
745F
330
B6C
100
AcDbEntity
  8
cotas
100
AcDbLine
 10
1006.961498070063
 20
1745.600161307504
 30
0.0
 11
1034.688098956178
 21
1768.715199469513
 31
0.0
  0
MTEXT
  5
7460
330
B6C
100
AcDbEntity
  8
cotas
100
AcDbMText
 10
1010.580938758154
 20
1761.636892073681
 30
0.0
 40
10.0
 41
0.0
 71
     5
 72
     1
  1
R7
  7
SANINDUSA
 11
0.7680913250125029
 21
0.6403403129903175
 31
0.0
 73
     1
 44
1.0
1001
ACAD
1000
MTEXTBEGIN
1070
    73
1070
     1
1070
    44
1040
1.0
1070
    74
1070
     0
1000
MTEXTEND
  0
SOLID
  5
7461
330
B6C
100
AcDbEntity
  8
cotas
100
AcDbTrace
 10
1033.620865101194
 20
1769.995351677867
 30
0.0
 11
1035.755332811161
 21
1767.435047261159
 31
0.0
 12
1042.369012206302
 22
1775.118602599416
 32
0.0
 13
1042.369012206302
 23
1775.118602599416
 33
0.0
  0
POINT
  5
7462
330
B6C
100
AcDbEntity
  8
Defpoints
 62
     0
100
AcDbPoint
 10
1042.369012206302
 20
1775.118602599416
 30
0.0
  0
POINT
  5
7463
330
B6C
100
AcDbEntity
  8
Defpoints
 62
     0
100
AcDbPoint
 10
1036.992372931217
 20
1770.636220408485
 30
0.0
  0
ENDBLK
  5
B73
330
B6C
100
AcDbEntity
  8
0
100
AcDbBlockEnd
  0
BLOCK
  5
B7F
330
B74
100
AcDbEntity
  8
0
100
AcDbBlockBegin
  2
*D66
 70
     1
 10
0.0
 20
0.0
 30
0.0
  3
*D66
  1

  0
LINE
  5
7455
330
B74
100
AcDbEntity
  8
cotas
100
AcDbLine
 10
1044.656698114446
 20
1732.636982780381
 30
0.0
 11
1045.183424666579
 21
1702.459919414568
 31
0.0
  0
ARC
  5
7456
330
B74
100
AcDbEntity
  8
cotas
100
AcDbCircle
 10
1043.871257430668
 20
1777.636220408485
 30
0.0
 40
70.18775175507615
100
AcDbArc
 50
188.1701364803898
 51
262.8298330588096
  0
SOLID
  5
7457
330
B74
100
AcDbEntity
  8
cotas
100
AcDbTrace
 10
972.7334483773324
 20
1767.542897422084
 30
0.0
 11
976.0583129836383
 21
1767.780355757049
 31
0.0
 12
973.6835056755918
 22
1777.636220408485
 32
0.0
 13
973.6835056755918
 23
1777.636220408485
 33
0.0
  0
SOLID
  5
7458
330
B74
100
AcDbEntity
  8
cotas
100
AcDbTrace
 10
1035.20035680524
 20
1709.661600255466
 30
0.0
 11
1035.020959755219
 21
1706.333097918144
 31
0.0
 12
1045.096165292195
 22
1707.459157936742
 32
0.0
 13
1045.096165292195
 23
1707.459157936742
 33
0.0
  0
MTEXT
  5
7459
330
B74
100
AcDbEntity
  8
cotas
100
AcDbMText
 10
1002.626543121253
 20
1735.665316523071
 30
0.0
 40
10.0
 41
0.0
 71
     5
 72
     1
  1
91,0°
  7
SANINDUSA
 11
0.7132502628380123
 21
-0.7009094538965118
 31
0.0
 73
     1
 44
1.0
1001
ACAD
1000
MTEXTBEGIN
1070
    73
1070
     1
1070
    44
1040
1.0
1070
    74
1070
     0
1000
MTEXTEND
  0
POINT
  5
745A
330
B74
100
AcDbEntity
  8
Defpoints
 62
     0
100
AcDbPoint
 10
983.292070499281
 20
1742.1893219946
 30
0.0
  0
POINT
  5
745B
330
B74
100
AcDbEntity
  8
Defpoints
 62
     0
100
AcDbPoint
 10
150.7501345569358
 20
1777.636220408485
 30
0.0
  0
POINT
  5
745C
330
B74
100
AcDbEntity
  8
Defpoints
 62
     0
100
AcDbPoint
 10
1043.991306779251
 20
1770.758388287487
 30
0.0
  0
POINT
  5
745D
330
B74
100
AcDbEntity
  8
Defpoints
 62
     0
100
AcDbPoint
 10
1044.569438740061
 20
1737.636221302555
 30
0.0
  0
POINT
  5
745E
330
B74
100
AcDbEntity
  8
Defpoints
 62
     0
100
AcDbPoint
 10
1036.992377086924
 20
1777.636220408485
 30
0.0
  0
ENDBLK
  5
B80
330
B74
100
AcDbEntity
  8
0
100
AcDbBlockEnd
  0
BLOCK
  5
B8C
330
B81
100
AcDbEntity
  8
0
100
AcDbBlockBegin
  2
*D67
 70
     1
 10
0.0
 20
0.0
 30
0.0
  3
*D67
  1

  0
LINE
  5
744B
330
B81
100
AcDbEntity
  8
cotas
100
AcDbLine
 10
143.085789160281
 20
1732.63698282677
 30
0.0
 11
142.4601053093679
 21
1696.791578963082
 31
0.0
  0
ARC
  5
744C
330
B81
100
AcDbEntity
  8
cotas
100
AcDbCircle
 10
143.8712537728534
 20
1777.636220408485
 30
0.0
 40
75.85695635145874
100
AcDbArc
 50
276.5586144526253
 51
352.4413855488218
  0
SOLID
  5
744D
330
B81
100
AcDbEntity
  8
cotas
100
AcDbTrace
 10
152.6164195557676
 20
1700.611001655501
 30
0.0
 11
152.454789419868
 21
1703.94041403763
 31
0.0
 12
142.547367341428
 22
1701.790817438867
 32
0.0
 13
142.547367341428
 23
1701.790817438867
 33
0.0
  0
SOLID
  5
744E
330
B81
100
AcDbEntity
  8
cotas
100
AcDbTrace
 10
217.4060325629125
 20
1767.767822911874
 30
0.0
 11
220.7321170245917
 21
1767.548111135021
 31
0.0
 12
219.7282101243121
 22
1777.636220408485
 32
0.0
 13
219.7282101243121
 23
1777.636220408485
 33
0.0
  0
MTEXT
  5
744F
330
B81
100
AcDbEntity
  8
cotas
100
AcDbMText
 10
189.0895549489309
 20
1731.621742835231
 30
0.0
 40
10.0
 41
0.0
 71
     5
 72
     1
  1
91,0°
  7
SANINDUSA
 11
0.713250449145331
 21
0.7009092643088574
 31
0.0
 73
     1
 44
1.0
1001
ACAD
1000
MTEXTBEGIN
1070
    73
1070
     1
1070
    44
1040
1.0
1070
    74
1070
     0
1000
MTEXTEND
  0
POINT
  5
7450
330
B81
100
AcDbEntity
  8
Defpoints
 62
     0
100
AcDbPoint
 10
181.0327967473819
 20
1711.505308191433
 30
0.0
  0
POINT
  5
7451
330
B81
100
AcDbEntity
  8
Defpoints
 62
     0
100
AcDbPoint
 10
143.1730511923412
 20
1737.636221302554
 30
0.0
  0
POINT
  5
7452
330
B81
100
AcDbEntity
  8
Defpoints
 62
     0
100
AcDbPoint
 10
150.7501345569361
 20
1777.636220408485
 30
0.0
  0
POINT
  5
7453
330
B81
100
AcDbEntity
  8
Defpoints
 62
     0
100
AcDbPoint
 10
1036.992377086924
 20
1777.636220408485
 30
0.0
  0
POINT
  5
7454
330
B81
100
AcDbEntity
  8
Defpoints
 62
     0
100
AcDbPoint
 10
143.7512007506445
 20
1770.758387362531
 30
0.0
  0
ENDBLK
  5
B8D
330
B81
100
AcDbEntity
  8
0
100
AcDbBlockEnd
  0
BLOCK
  5
B98
330
B8E
100
AcDbEntity
  8
0
100
AcDbBlockBegin
  2
*D68
 70
     1
 10
0.0
 20
0.0
 30
0.0
  3
*D68
  1

  0
LINE
  5
7426
330
B8E
100
AcDbEntity
  8
cotas
100
AcDbLine
 10
3119.105322305867
 20
1713.489039276473
 30
0.0
 11
3168.591087980324
 21
1713.489039276473
 31
0.0
  0
LINE
  5
7427
330
B8E
100
AcDbEntity
  8
cotas
100
AcDbLine
 10
3344.738429575668
 20
1777.636223090694
 30
0.0
 11
3158.591087980323
 21
1777.636223090694
 31
0.0
  0
LINE
  5
7428
330
B8E
100
AcDbEntity
  8
cotas
100
AcDbLine
 10
3163.591087980324
 20
1723.489039276473
 30
0.0
 11
3163.591087980324
 21
1767.636223090694
 31
0.0
  0
SOLID
  5
7429
330
B8E
100
AcDbEntity
  8
cotas
100
AcDbTrace
 10
3161.924421313657
 20
1723.489039276473
 30
0.0
 11
3165.25775464699
 21
1723.489039276473
 31
0.0
 12
3163.591087980324
 22
1713.489039276473
 32
0.0
 13
3163.591087980324
 23
1713.489039276473
 33
0.0
  0
SOLID
  5
742A
330
B8E
100
AcDbEntity
  8
cotas
100
AcDbTrace
 10
3161.924421313657
 20
1767.636223090694
 30
0.0
 11
3165.25775464699
 21
1767.636223090694
 31
0.0
 12
3163.591087980324
 22
1777.636223090694
 32
0.0
 13
3163.591087980324
 23
1777.636223090694
 33
0.0
  0
MTEXT
  5
742B
330
B8E
100
AcDbEntity
  8
cotas
100
AcDbMText
 10
3152.254620552519
 20
1745.562631183584
 30
0.0
 40
10.0
 41
0.0
 71
     5
 72
     1
  1
64,1
  7
SANINDUSA
 11
0.0000000000000001
 21
1.0
 31
0.0
 73
     1
 44
1.0
1001
ACAD
1000
MTEXTBEGIN
1070
    73
1070
     1
1070
    44
1040
1.0
1070
    74
1070
     0
1000
MTEXTEND
  0
POINT
  5
742C
330
B8E
100
AcDbEntity
  8
Defpoints
 62
     0
100
AcDbPoint
 10
3114.105322305866
 20
1713.489039276473
 30
0.0
  0
POINT
  5
742D
330
B8E
100
AcDbEntity
  8
Defpoints
 62
     0
100
AcDbPoint
 10
3349.738429575668
 20
1777.636223090694
 30
0.0
  0
POINT
  5
742E
330
B8E
100
AcDbEntity
  8
Defpoints
 62
     0
100
AcDbPoint
 10
3163.591087980324
 20
1777.636223090694
 30
0.0
  0
ENDBLK
  5
B99
330
B8E
100
AcDbEntity
  8
0
100
AcDbBlockEnd
  0
BLOCK
  5
BA4
330
B9A
100
AcDbEntity
  8
0
100
AcDbBlockBegin
  2
*D69
 70
     1
 10
0.0
 20
0.0
 30
0.0
  3
*D69
  1

  0
LINE
  5
7407
330
B9A
100
AcDbEntity
  8
cotas
100
AcDbLine
 10
2847.14522623144
 20
1718.06157300263
 30
0.0
 11
2714.040222548775
 21
1718.06157300263
 31
0.0
  0
LINE
  5
7408
330
B9A
100
AcDbEntity
  8
cotas
100
AcDbLine
 10
2744.738425129285
 20
1777.636223090694
 30
0.0
 11
2714.040222548775
 21
1777.636223090694
 31
0.0
  0
LINE
  5
7409
330
B9A
100
AcDbEntity
  8
cotas
100
AcDbLine
 10
2719.040222548774
 20
1728.06157300263
 30
0.0
 11
2719.040222548774
 21
1767.636223090694
 31
0.0
  0
SOLID
  5
740A
330
B9A
100
AcDbEntity
  8
cotas
100
AcDbTrace
 10
2717.373555882108
 20
1728.06157300263
 30
0.0
 11
2720.706889215441
 21
1728.06157300263
 31
0.0
 12
2719.040222548774
 22
1718.06157300263
 32
0.0
 13
2719.040222548774
 23
1718.06157300263
 33
0.0
  0
SOLID
  5
740B
330
B9A
100
AcDbEntity
  8
cotas
100
AcDbTrace
 10
2717.373555882108
 20
1767.636223090694
 30
0.0
 11
2720.706889215441
 21
1767.636223090694
 31
0.0
 12
2719.040222548774
 22
1777.636223090694
 32
0.0
 13
2719.040222548774
 23
1777.636223090694
 33
0.0
  0
MTEXT
  5
740C
330
B9A
100
AcDbEntity
  8
cotas
100
AcDbMText
 10
2707.697039204247
 20
1747.848898046662
 30
0.0
 40
10.0
 41
0.0
 71
     5
 72
     1
  1
59,6
  7
SANINDUSA
 11
0.0000000000000001
 21
1.0
 31
0.0
 73
     1
 44
1.0
1001
ACAD
1000
MTEXTBEGIN
1070
    73
1070
     1
1070
    44
1040
1.0
1070
    74
1070
     0
1000
MTEXTEND
  0
POINT
  5
740D
330
B9A
100
AcDbEntity
  8
Defpoints
 62
     0
100
AcDbPoint
 10
2852.14522623144
 20
1718.06157300263
 30
0.0
  0
POINT
  5
740E
330
B9A
100
AcDbEntity
  8
Defpoints
 62
     0
100
AcDbPoint
 10
2749.738425129284
 20
1777.636223090694
 30
0.0
  0
POINT
  5
740F
330
B9A
100
AcDbEntity
  8
Defpoints
 62
     0
100
AcDbPoint
 10
2719.040222548774
 20
1777.636223090694
 30
0.0
  0
ENDBLK
  5
BA5
330
B9A
100
AcDbEntity
  8
0
100
AcDbBlockEnd
  0
BLOCK
  5
BB0
330
BA6
100
AcDbEntity
  8
0
100
AcDbBlockBegin
  2
*D70
 70
     1
 10
0.0
 20
0.0
 30
0.0
  3
*D70
  1

  0
ARC
  5
73FE
330
BA6
100
AcDbEntity
  8
cotas
100
AcDbCircle
 10
2815.972239183869
 20
1773.736223090693
 30
0.0
 40
47.0142815802099
100
AcDbArc
 50
192.2099791823488
 51
259.7900208176421
  0
SOLID
  5
73FF
330
BA6
100
AcDbEntity
  8
cotas
100
AcDbTrace
 10
2768.364249752848
 20
1763.615685122498
 30
0.0
 11
2771.678678707441
 21
1763.970187331327
 31
0.0
 12
2768.957957603659
 22
1773.736223090693
 32
0.0
 13
2768.957957603659
 23
1773.736223090693
 33
0.0
  0
SOLID
  5
7400
330
BA6
100
AcDbEntity
  8
cotas
100
AcDbTrace
 10
2807.757975597401
 20
1729.128815321756
 30
0.0
 11
2807.51936124411
 21
1725.80403347906
 31
0.0
 12
2817.61301394884
 22
1726.750581340538
 32
0.0
 13
2817.61301394884
 23
1726.750581340538
 33
0.0
  0
MTEXT
  5
7401
330
BA6
100
AcDbEntity
  8
cotas
100
AcDbMText
 10
2791.195344844867
 20
1748.078997921075
 30
0.0
 40
10.0
 41
0.0
 71
     5
 72
     1
  1
92,0°
  7
SANINDUSA
 11
0.719339800338595
 21
-0.6946583704590556
 31
0.0
 73
     1
 44
1.0
1001
ACAD
1000
MTEXTBEGIN
1070
    73
1070
     1
1070
    44
1040
1.0
1070
    74
1070
     0
1000
MTEXTEND
  0
POINT
  5
7402
330
BA6
100
AcDbEntity
  8
Defpoints
 62
     0
100
AcDbPoint
 10
2775.532944943738
 20
1749.756937157552
 30
0.0
  0
POINT
  5
7403
330
BA6
100
AcDbEntity
  8
Defpoints
 62
     0
100
AcDbPoint
 10
2756.617305971271
 20
1773.736223090693
 30
0.0
  0
POINT
  5
7404
330
BA6
100
AcDbEntity
  8
Defpoints
 62
     0
100
AcDbPoint
 10
2817.689158593345
 20
1724.57008401436
 30
0.0
  0
POINT
  5
7405
330
BA6
100
AcDbEntity
  8
Defpoints
 62
     0
100
AcDbPoint
 10
2816.076715545725
 20
1770.744411530473
 30
0.0
  0
POINT
  5
7406
330
BA6
100
AcDbEntity
  8
Defpoints
 62
     0
100
AcDbPoint
 10
2812.97860398197
 20
1773.736223090692
 30
0.0
  0
ENDBLK
  5
BB1
330
BA6
100
AcDbEntity
  8
0
100
AcDbBlockEnd
  0
BLOCK
  5
BB9
330
BB2
100
AcDbEntity
  8
0
100
AcDbBlockBegin
  2
*D71
 70
     1
 10
0.0
 20
0.0
 30
0.0
  3
*D71
  1

  0
LINE
  5
73F8
330
BB2
100
AcDbEntity
  8
cotas
100
AcDbLine
 10
2785.625229873002
 20
1676.745709368493
 30
0.0
 11
2818.676106486985
 21
1707.051819307043
 31
0.0
  0
MTEXT
  5
73F9
330
BB2
100
AcDbEntity
  8
cotas
100
AcDbMText
 10
2791.695682316214
 20
1695.902431197211
 30
0.0
 40
10.0
 41
0.0
 71
     5
 72
     1
  1
R17
  7
SANINDUSA
 11
0.7370489033730773
 21
0.6758394143852105
 31
0.0
 73
     1
 44
1.0
1001
ACAD
1000
MTEXTBEGIN
1070
    73
1070
     1
1070
    44
1040
1.0
1070
    74
1070
     0
1000
MTEXTEND
  0
LINE
  5
73FA
330
BB2
100
AcDbEntity
  8
cotas
100
AcDbLine
 10
2838.576426878054
 20
1725.29948349544
 30
0.0
 11
2826.046595520716
 21
1713.810213450895
 31
0.0
  0
SOLID
  5
73FB
330
BB2
100
AcDbEntity
  8
cotas
100
AcDbTrace
 10
2817.54970746301
 20
1708.280234145998
 30
0.0
 11
2819.80250551096
 21
1705.823404468088
 31
0.0
 12
2826.046595520716
 22
1713.810213450895
 32
0.0
 13
2826.046595520716
 23
1713.810213450895
 33
0.0
  0
POINT
  5
73FC
330
BB2
100
AcDbEntity
  8
Defpoints
 62
     0
100
AcDbPoint
 10
2826.046595520716
 20
1713.810213450895
 30
0.0
  0
POINT
  5
73FD
330
BB2
100
AcDbEntity
  8
Defpoints
 62
     0
100
AcDbPoint
 10
2838.576426878054
 20
1725.29948349544
 30
0.0
  0
ENDBLK
  5
BBA
330
BB2
100
AcDbEntity
  8
0
100
AcDbBlockEnd
  0
BLOCK
  5
BC2
330
BBB
100
AcDbEntity
  8
0
100
AcDbBlockBegin
  2
*D72
 70
     1
 10
0.0
 20
0.0
 30
0.0
  3
*D72
  1

  0
LINE
  5
73F2
330
BBB
100
AcDbEntity
  8
cotas
100
AcDbLine
 10
2861.971816580282
 20
1656.292101265759
 30
0.0
 11
2848.784140484164
 21
1699.109080276879
 31
0.0
  0
MTEXT
  5
73F3
330
BBB
100
AcDbEntity
  8
cotas
100
AcDbMText
 10
2866.602476277832
 20
1675.925959224965
 30
0.0
 40
10.0
 41
0.0
 71
     5
 72
     1
  1
R10
  7
SANINDUSA
 11
0.2943554145873297
 21
-0.9556960237979026
 31
0.0
 73
     1
 44
1.0
1001
ACAD
1000
MTEXTBEGIN
1070
    73
1070
     1
1070
    44
1040
1.0
1070
    74
1070
     0
1000
MTEXTEND
  0
LINE
  5
73F4
330
BBB
100
AcDbEntity
  8
cotas
100
AcDbLine
 10
2842.897032192418
 20
1718.223000752834
 30
0.0
 11
2845.84058633829
 21
1708.666040514858
 31
0.0
  0
SOLID
  5
73F5
330
BBB
100
AcDbEntity
  8
cotas
100
AcDbTrace
 10
2850.376967190493
 20
1699.599672634525
 30
0.0
 11
2847.191313777834
 21
1698.618487919233
 31
0.0
 12
2845.84058633829
 22
1708.666040514858
 32
0.0
 13
2845.84058633829
 23
1708.666040514858
 33
0.0
  0
POINT
  5
73F6
330
BBB
100
AcDbEntity
  8
Defpoints
 62
     0
100
AcDbPoint
 10
2845.84058633829
 20
1708.666040514858
 30
0.0
  0
POINT
  5
73F7
330
BBB
100
AcDbEntity
  8
Defpoints
 62
     0
100
AcDbPoint
 10
2842.897032192418
 20
1718.223000752834
 30
0.0
  0
ENDBLK
  5
BC3
330
BBB
100
AcDbEntity
  8
0
100
AcDbBlockEnd
  0
BLOCK
  5
BCA
330
BC4
100
AcDbEntity
  8
0
100
AcDbBlockBegin
  2
*D73
 70
     1
 10
0.0
 20
0.0
 30
0.0
  3
*D73
  1

  0
LINE
  5
73ED
330
BC4
100
AcDbEntity
  8
cotas
100
AcDbLine
 10
2889.717722440639
 20
1677.579530908802
 30
0.0
 11
2860.322000370701
 21
1708.770477061879
 31
0.0
  0
MTEXT
  5
73EE
330
BC4
100
AcDbEntity
  8
cotas
100
AcDbMText
 10
2888.045393749592
 20
1693.934358982205
 30
0.0
 40
10.0
 41
0.0
 71
     5
 72
     1
  1
R7
  7
SANINDUSA
 11
0.6858537116679184
 21
-0.727739435643926
 31
0.0
 73
     1
 44
1.0
1001
ACAD
1000
MTEXTBEGIN
1070
    73
1070
     1
1070
    44
1040
1.0
1070
    74
1070
     0
1000
MTEXTEND
  0
SOLID
  5
73EF
330
BC4
100
AcDbEntity
  8
cotas
100
AcDbTrace
 10
2861.534899430107
 20
1709.913566581326
 30
0.0
 11
2859.109101311294
 21
1707.627387542433
 31
0.0
 12
2853.463463254021
 22
1716.047871418318
 32
0.0
 13
2853.463463254021
 23
1716.047871418318
 33
0.0
  0
POINT
  5
73F0
330
BC4
100
AcDbEntity
  8
Defpoints
 62
     0
100
AcDbPoint
 10
2853.463463254021
 20
1716.047871418318
 30
0.0
  0
POINT
  5
73F1
330
BC4
100
AcDbEntity
  8
Defpoints
 62
     0
100
AcDbPoint
 10
2858.264439235696
 20
1710.953695368812
 30
0.0
  0
ENDBLK
  5
BCB
330
BC4
100
AcDbEntity
  8
0
100
AcDbBlockEnd
  0
BLOCK
  5
BD3
330
BCC
100
AcDbEntity
  8
0
100
AcDbBlockBegin
  2
*D74
 70
     1
 10
0.0
 20
0.0
 30
0.0
  3
*D74
  1

  0
LINE
  5
73E7
330
BCC
100
AcDbEntity
  8
cotas
100
AcDbLine
 10
3098.076032652989
 20
1644.651605817228
 30
0.0
 11
3119.10473053404
 21
1684.257345426376
 31
0.0
  0
MTEXT
  5
73E8
330
BCC
100
AcDbEntity
  8
cotas
100
AcDbMText
 10
3097.39855499482
 20
1664.735714164647
 30
0.0
 40
10.0
 41
0.0
 71
     5
 72
     1
  1
R17
  7
SANINDUSA
 11
0.4689490960743608
 21
0.8832251951178928
 31
0.0
 73
     1
 44
1.0
1001
ACAD
1000
MTEXTBEGIN
1070
    73
1070
     1
1070
    44
1040
1.0
1070
    74
1070
     0
1000
MTEXTEND
  0
LINE
  5
73E9
330
BCC
100
AcDbEntity
  8
cotas
100
AcDbLine
 10
3131.768263761868
 20
1708.108018558405
 30
0.0
 11
3123.794221494784
 21
1693.089597377555
 31
0.0
  0
SOLID
  5
73EA
330
BCC
100
AcDbEntity
  8
cotas
100
AcDbTrace
 10
3117.632688542177
 20
1685.038927253167
 30
0.0
 11
3120.576772525904
 21
1683.475763599586
 31
0.0
 12
3123.794221494784
 22
1693.089597377555
 32
0.0
 13
3123.794221494784
 23
1693.089597377555
 33
0.0
  0
POINT
  5
73EB
330
BCC
100
AcDbEntity
  8
Defpoints
 62
     0
100
AcDbPoint
 10
3123.794221494784
 20
1693.089597377555
 30
0.0
  0
POINT
  5
73EC
330
BCC
100
AcDbEntity
  8
Defpoints
 62
     0
100
AcDbPoint
 10
3131.768263761868
 20
1708.108018558405
 30
0.0
  0
ENDBLK
  5
BD4
330
BCC
100
AcDbEntity
  8
0
100
AcDbBlockEnd
  0
BLOCK
  5
BDB
330
BD5
100
AcDbEntity
  8
0
100
AcDbBlockBegin
  2
*D75
 70
     1
 10
0.0
 20
0.0
 30
0.0
  3
*D75
  1

  0
LINE
  5
73E2
330
BD5
100
AcDbEntity
  8
cotas
100
AcDbLine
 10
3075.074329145675
 20
1674.280742662565
 30
0.0
 11
3105.676769431742
 21
1704.490260909218
 31
0.0
  0
MTEXT
  5
73E3
330
BD5
100
AcDbEntity
  8
cotas
100
AcDbMText
 10
3077.335575493858
 20
1690.564595078817
 30
0.0
 40
10.0
 41
0.0
 71
     5
 72
     1
  1
R7
  7
SANINDUSA
 11
0.7116607288361184
 21
0.7025233142269692
 31
0.0
 73
     1
 44
1.0
1001
ACAD
1000
MTEXTBEGIN
1070
    73
1070
     1
1070
    44
1040
1.0
1070
    74
1070
     0
1000
MTEXTEND
  0
SOLID
  5
73E4
330
BD5
100
AcDbEntity
  8
cotas
100
AcDbTrace
 10
3104.505897241363
 20
1705.676362123945
 30
0.0
 11
3106.84764162212
 21
1703.304159694491
 31
0.0
 12
3112.793376720103
 22
1711.515494051488
 32
0.0
 13
3112.793376720103
 23
1711.515494051488
 33
0.0
  0
POINT
  5
73E5
330
BD5
100
AcDbEntity
  8
Defpoints
 62
     0
100
AcDbPoint
 10
3112.793376720103
 20
1711.515494051488
 30
0.0
  0
POINT
  5
73E6
330
BD5
100
AcDbEntity
  8
Defpoints
 62
     0
100
AcDbPoint
 10
3107.811759379428
 20
1706.597838513426
 30
0.0
  0
ENDBLK
  5
BDC
330
BD5
100
AcDbEntity
  8
0
100
AcDbBlockEnd
  0
BLOCK
  5
BE7
330
BDD
100
AcDbEntity
  8
0
100
AcDbBlockBegin
  2
*D76
 70
     1
 10
0.0
 20
0.0
 30
0.0
  3
*D76
  1

  0
ARC
  5
73D9
330
BDD
100
AcDbEntity
  8
cotas
100
AcDbCircle
 10
-560.8817726498691
 20
1777.636223090693
 30
0.0
 40
3635.944948314229
100
AcDbArc
 50
359.1575808785801
 51
359.8424184128587
  0
SOLID
  5
73DA
330
BDD
100
AcDbEntity
  8
cotas
100
AcDbTrace
 10
3076.336628635975
 20
1724.152100849485
 30
0.0
 11
3073.003726137998
 21
1724.205692360849
 31
0.0
 12
3074.509402852894
 22
1714.180189111236
 32
0.0
 13
3074.509402852894
 23
1714.180189111236
 33
0.0
  0
SOLID
  5
73DB
330
BDD
100
AcDbEntity
  8
cotas
100
AcDbTrace
 10
3073.382758990231
 20
1767.638524476559
 30
0.0
 11
3076.716089171795
 21
1767.633940615443
 31
0.0
 12
3075.06317566436
 22
1777.636223090694
 32
0.0
 13
3075.06317566436
 23
1777.636223090694
 33
0.0
  0
MTEXT
  5
73DC
330
BDD
100
AcDbEntity
  8
cotas
100
AcDbMText
 10
3063.581978395442
 20
1746.005984709841
 30
0.0
 40
10.0
 41
0.0
 71
     5
 72
     1
  1
1,0°
  7
SANINDUSA
 11
0.0087265416815007
 21
0.9999619230102121
 31
0.0
 73
     1
 44
1.0
1001
ACAD
1000
MTEXTBEGIN
1070
    73
1070
     1
1070
    44
1040
1.0
1070
    74
1070
     0
1000
MTEXTEND
  0
POINT
  5
73DD
330
BDD
100
AcDbEntity
  8
Defpoints
 62
     0
100
AcDbPoint
 10
3074.817050943813
 20
1735.331007203347
 30
0.0
  0
POINT
  5
73DE
330
BDD
100
AcDbEntity
  8
Defpoints
 62
     0
100
AcDbPoint
 10
2839.962156189006
 20
1777.636223090694
 30
0.0
  0
POINT
  5
73DF
330
BDD
100
AcDbEntity
  8
Defpoints
 62
     0
100
AcDbPoint
 10
3107.93392612071
 20
1713.596761473925
 30
0.0
  0
POINT
  5
73E0
330
BDD
100
AcDbEntity
  8
Defpoints
 62
     0
100
AcDbPoint
 10
2858.386606167315
 20
1717.952629233398
 30
0.0
  0
POINT
  5
73E1
330
BDD
100
AcDbEntity
  8
Defpoints
 62
     0
100
AcDbPoint
 10
3859.51470296233
 20
1777.636223090694
 30
0.0
  0
ENDBLK
  5
BE8
330
BDD
100
AcDbEntity
  8
0
100
AcDbBlockEnd
  0
BLOCK
  5
BF3
330
BE9
100
AcDbEntity
  8
0
100
AcDbBlockBegin
  2
*D77
 70
     1
 10
0.0
 20
0.0
 30
0.0
  3
*D77
  1

  0
LINE
  5
73BE
330
BE9
100
AcDbEntity
  8
cotas
100
AcDbLine
 10
3769.738435858254
 20
1706.530902238083
 30
0.0
 11
3769.738435858254
 21
1842.631223046452
 31
0.0
  0
LINE
  5
73BF
330
BE9
100
AcDbEntity
  8
cotas
100
AcDbLine
 10
2749.738425129284
 20
1782.636223090694
 30
0.0
 11
2749.738425129284
 21
1842.631223046452
 31
0.0
  0
LINE
  5
73C0
330
BE9
100
AcDbEntity
  8
cotas
100
AcDbLine
 10
3759.738435858254
 20
1837.631223046452
 30
0.0
 11
2759.738425129285
 21
1837.631223046452
 31
0.0
  0
SOLID
  5
73C1
330
BE9
100
AcDbEntity
  8
cotas
100
AcDbTrace
 10
3759.738435858254
 20
1839.297889713118
 30
0.0
 11
3759.738435858254
 21
1835.964556379785
 31
0.0
 12
3769.738435858254
 22
1837.631223046452
 32
0.0
 13
3769.738435858254
 23
1837.631223046452
 33
0.0
  0
SOLID
  5
73C2
330
BE9
100
AcDbEntity
  8
cotas
100
AcDbTrace
 10
2759.738425129285
 20
1839.297889713118
 30
0.0
 11
2759.738425129285
 21
1835.964556379785
 31
0.0
 12
2749.738425129284
 22
1837.631223046452
 32
0.0
 13
2749.738425129284
 23
1837.631223046452
 33
0.0
  0
MTEXT
  5
73C3
330
BE9
100
AcDbEntity
  8
cotas
100
AcDbMText
 10
3259.738430493769
 20
1847.839416464853
 30
0.0
 40
10.0
 41
0.0
 71
     5
 72
     1
  1
1020
  7
SANINDUSA
 73
     1
 44
1.0
1001
ACAD
1000
MTEXTBEGIN
1070
    73
1070
     1
1070
    44
1040
1.0
1070
    74
1070
     0
1000
MTEXTEND
  0
POINT
  5
73C4
330
BE9
100
AcDbEntity
  8
Defpoints
 62
     0
100
AcDbPoint
 10
3769.738435858254
 20
1701.530902238083
 30
0.0
  0
POINT
  5
73C5
330
BE9
100
AcDbEntity
  8
Defpoints
 62
     0
100
AcDbPoint
 10
2749.738425129284
 20
1777.636223090694
 30
0.0
  0
POINT
  5
73C6
330
BE9
100
AcDbEntity
  8
Defpoints
 62
     0
100
AcDbPoint
 10
2749.738425129284
 20
1837.631223046452
 30
0.0
  0
ENDBLK
  5
BF4
330
BE9
100
AcDbEntity
  8
0
100
AcDbBlockEnd
  0
BLOCK
  5
BFC
330
BF5
100
AcDbEntity
  8
0
100
AcDbBlockBegin
  2
*D78
 70
     1
 10
0.0
 20
0.0
 30
0.0
  3
*D78
  1

  0
LINE
  5
73B8
330
BF5
100
AcDbEntity
  8
cotas
100
AcDbLine
 10
3909.54313940148
 20
1645.8496531234
 30
0.0
 11
3878.582565175959
 21
1678.288265735319
 31
0.0
  0
MTEXT
  5
73B9
330
BF5
100
AcDbEntity
  8
cotas
100
AcDbMText
 10
3904.76112070591
 20
1665.367918448049
 30
0.0
 40
10.0
 41
0.0
 71
     5
 72
     1
  1
R17
  7
SANINDUSA
 11
0.6904342522360479
 21
-0.723395150204402
 31
0.0
 73
     1
 44
1.0
1001
ACAD
1000
MTEXTBEGIN
1070
    73
1070
     1
1070
    44
1040
1.0
1070
    74
1070
     0
1000
MTEXTEND
  0
LINE
  5
73BA
330
BF5
100
AcDbEntity
  8
cotas
100
AcDbLine
 10
3859.94093590672
 20
1697.81983468863
 30
0.0
 11
3871.678222653598
 21
1685.522217237364
 31
0.0
  0
SOLID
  5
73BB
330
BF5
100
AcDbEntity
  8
cotas
100
AcDbTrace
 10
3879.788223759632
 20
1679.438989489046
 30
0.0
 11
3877.376906592285
 21
1677.137541981593
 31
0.0
 12
3871.678222653598
 22
1685.522217237364
 32
0.0
 13
3871.678222653598
 23
1685.522217237364
 33
0.0
  0
POINT
  5
73BC
330
BF5
100
AcDbEntity
  8
Defpoints
 62
     0
100
AcDbPoint
 10
3871.678222653598
 20
1685.522217237364
 30
0.0
  0
POINT
  5
73BD
330
BF5
100
AcDbEntity
  8
Defpoints
 62
     0
100
AcDbPoint
 10
3859.94093590672
 20
1697.81983468863
 30
0.0
  0
ENDBLK
  5
BFD
330
BF5
100
AcDbEntity
  8
0
100
AcDbBlockEnd
  0
BLOCK
  5
C08
330
BFE
100
AcDbEntity
  8
0
100
AcDbBlockBegin
  2
*D79
 70
     1
 10
0.0
 20
0.0
 30
0.0
  3
*D79
  1

  0
ARC
  5
73AF
330
BFE
100
AcDbEntity
  8
cotas
100
AcDbCircle
 10
3879.738436112673
 20
1777.636223090694
 30
0.0
 40
60.1720484094959
100
AcDbArc
 50
189.5329846044822
 51
258.4669963830448
  0
SOLID
  5
73B0
330
BFE
100
AcDbEntity
  8
cotas
100
AcDbTrace
 10
3818.736435598868
 20
1767.532315070411
 30
0.0
 11
3822.058241016489
 21
1767.809298605246
 31
0.0
 12
3819.566387703176
 22
1777.636223090694
 32
0.0
 13
3819.566387703176
 23
1777.636223090694
 33
0.0
  0
SOLID
  5
73B1
330
BFE
100
AcDbEntity
  8
cotas
100
AcDbTrace
 10
3867.904469130976
 20
1720.334123856438
 30
0.0
 11
3867.511723891413
 21
1717.024008709209
 31
0.0
 12
3877.63844195288
 22
1717.500830564133
 32
0.0
 13
3877.63844195288
 23
1717.500830564133
 33
0.0
  0
MTEXT
  5
73B2
330
BFE
100
AcDbEntity
  8
cotas
100
AcDbMText
 10
3844.623546492273
 20
1743.726179614925
 30
0.0
 40
10.0
 41
0.0
 71
     5
 72
     1
  1
88,0°
  7
SANINDUSA
 11
0.694658251109633
 21
-0.7193399155929735
 31
0.0
 73
     1
 44
1.0
1001
ACAD
1000
MTEXTBEGIN
1070
    73
1070
     1
1070
    44
1040
1.0
1070
    74
1070
     0
1000
MTEXTEND
  0
POINT
  5
73B3
330
BFE
100
AcDbEntity
  8
Defpoints
 62
     0
100
AcDbPoint
 10
3827.28137890854
 20
1748.158561051837
 30
0.0
  0
POINT
  5
73B4
330
BFE
100
AcDbEntity
  8
Defpoints
 62
     0
100
AcDbPoint
 10
2839.962156189005
 20
1777.636223090694
 30
0.0
  0
POINT
  5
73B5
330
BFE
100
AcDbEntity
  8
Defpoints
 62
     0
100
AcDbPoint
 10
3876.930445545714
 20
1697.22665901284
 30
0.0
  0
POINT
  5
73B6
330
BFE
100
AcDbEntity
  8
Defpoints
 62
     0
100
AcDbPoint
 10
3879.502519583774
 20
1770.880521889008
 30
0.0
  0
POINT
  5
73B7
330
BFE
100
AcDbEntity
  8
Defpoints
 62
     0
100
AcDbPoint
 10
3859.51470296233
 20
1777.636223090694
 30
0.0
  0
ENDBLK
  5
C09
330
BFE
100
AcDbEntity
  8
0
100
AcDbBlockEnd
  0
BLOCK
  5
C14
330
C0A
100
AcDbEntity
  8
0
100
AcDbBlockBegin
  2
*D80
 70
     1
 10
0.0
 20
0.0
 30
0.0
  3
*D80
  1

  0
LINE
  5
739D
330
C0A
100
AcDbEntity
  8
cotas
100
AcDbLine
 10
1321.345349742152
 20
1777.636220408485
 30
0.0
 11
1289.25074194206
 21
1777.636220408485
 31
0.0
  0
LINE
  5
739E
330
C0A
100
AcDbEntity
  8
cotas
100
AcDbLine
 10
1319.25074194206
 20
1657.636223090694
 30
0.0
 11
1289.25074194206
 21
1657.636223090694
 31
0.0
  0
LINE
  5
739F
330
C0A
100
AcDbEntity
  8
cotas
100
AcDbLine
 10
1294.250741942059
 20
1767.636220408485
 30
0.0
 11
1294.250741942059
 21
1667.636223090694
 31
0.0
  0
SOLID
  5
73A0
330
C0A
100
AcDbEntity
  8
cotas
100
AcDbTrace
 10
1292.584075275393
 20
1767.636220408485
 30
0.0
 11
1295.917408608726
 21
1767.636220408485
 31
0.0
 12
1294.250741942059
 22
1777.636220408485
 32
0.0
 13
1294.250741942059
 23
1777.636220408485
 33
0.0
  0
SOLID
  5
73A1
330
C0A
100
AcDbEntity
  8
cotas
100
AcDbTrace
 10
1292.584075275393
 20
1667.636223090694
 30
0.0
 11
1295.917408608726
 21
1667.636223090694
 31
0.0
 12
1294.250741942059
 22
1657.636223090694
 32
0.0
 13
1294.250741942059
 23
1657.636223090694
 33
0.0
  0
MTEXT
  5
73A2
330
C0A
100
AcDbEntity
  8
cotas
100
AcDbMText
 10
1284.042548523657
 20
1717.63622174959
 30
0.0
 40
10.0
 41
0.0
 71
     5
 72
     1
  1
120
  7
SANINDUSA
 11
0.0000000000000001
 21
1.0
 31
0.0
 73
     1
 44
1.0
1001
ACAD
1000
MTEXTBEGIN
1070
    73
1070
     1
1070
    44
1040
1.0
1070
    74
1070
     0
1000
MTEXTEND
  0
POINT
  5
73A3
330
C0A
100
AcDbEntity
  8
Defpoints
 62
     0
100
AcDbPoint
 10
1326.345349742152
 20
1777.636220408485
 30
0.0
  0
POINT
  5
73A4
330
C0A
100
AcDbEntity
  8
Defpoints
 62
     0
100
AcDbPoint
 10
1324.25074194206
 20
1657.636223090694
 30
0.0
  0
POINT
  5
73A5
330
C0A
100
AcDbEntity
  8
Defpoints
 62
     0
100
AcDbPoint
 10
1294.250741942059
 20
1657.636223090694
 30
0.0
  0
ENDBLK
  5
C15
330
C0A
100
AcDbEntity
  8
0
100
AcDbBlockEnd
  0
BLOCK
  5
C1C
330
C16
100
AcDbEntity
  8
0
100
AcDbBlockBegin
  2
*D81
 70
     1
 10
0.0
 20
0.0
 30
0.0
  3
*D81
  1

  0
LINE
  5
7398
330
C16
100
AcDbEntity
  8
cotas
100
AcDbLine
 10
1363.558436312314
 20
1745.968556087056
 30
0.0
 11
1335.551779186571
 21
1768.743466461632
 31
0.0
  0
MTEXT
  5
7399
330
C16
100
AcDbEntity
  8
cotas
100
AcDbMText
 10
1359.743535242997
 20
1761.959916704364
 30
0.0
 40
10.0
 41
0.0
 71
     5
 72
     1
  1
R7
  7
SANINDUSA
 11
0.7758495341438363
 21
-0.630917982283587
 31
0.0
 73
     1
 44
1.0
1001
ACAD
1000
MTEXTBEGIN
1070
    73
1070
     1
1070
    44
1040
1.0
1070
    74
1070
     0
1000
MTEXTEND
  0
SOLID
  5
739A
330
C16
100
AcDbEntity
  8
cotas
100
AcDbTrace
 10
1336.603309157043
 20
1770.036549018538
 30
0.0
 11
1334.500249216098
 21
1767.450383904726
 31
0.0
 12
1327.793283845132
 22
1775.052646284468
 32
0.0
 13
1327.793283845132
 23
1775.052646284468
 33
0.0
  0
POINT
  5
739B
330
C16
100
AcDbEntity
  8
Defpoints
 62
     0
100
AcDbPoint
 10
1327.793283845132
 20
1775.052646284468
 30
0.0
  0
POINT
  5
739C
330
C16
100
AcDbEntity
  8
Defpoints
 62
     0
100
AcDbPoint
 10
1333.224230584137
 20
1770.636220408485
 30
0.0
  0
ENDBLK
  5
C1D
330
C16
100
AcDbEntity
  8
0
100
AcDbBlockEnd
  0
BLOCK
  5
C24
330
C1E
100
AcDbEntity
  8
0
100
AcDbBlockBegin
  2
*D82
 70
     1
 10
0.0
 20
0.0
 30
0.0
  3
*D82
  1

  0
LINE
  5
7393
330
C1E
100
AcDbEntity
  8
cotas
100
AcDbLine
 10
2489.984966524755
 20
1744.955513293972
 30
0.0
 11
2517.204348366784
 21
1768.66573552125
 31
0.0
  0
MTEXT
  5
7394
330
C1E
100
AcDbEntity
  8
cotas
100
AcDbMText
 10
2493.256173598736
 20
1761.066884707996
 30
0.0
 40
10.0
 41
0.0
 71
     5
 72
     1
  1
R7
  7
SANINDUSA
 11
0.7540401779121493
 21
0.6568282957472328
 31
0.0
 73
     1
 44
1.0
1001
ACAD
1000
MTEXTBEGIN
1070
    73
1070
     1
1070
    44
1040
1.0
1070
    74
1070
     0
1000
MTEXTEND
  0
SOLID
  5
7395
330
C1E
100
AcDbEntity
  8
cotas
100
AcDbTrace
 10
2516.109634540539
 20
1769.922469151103
 30
0.0
 11
2518.29906219303
 21
1767.409001891396
 31
0.0
 12
2524.744750145906
 22
1775.234018478722
 32
0.0
 13
2524.744750145906
 23
1775.234018478722
 33
0.0
  0
POINT
  5
7396
330
C1E
100
AcDbEntity
  8
Defpoints
 62
     0
100
AcDbPoint
 10
2524.744750145906
 20
1775.234018478722
 30
0.0
  0
POINT
  5
7397
330
C1E
100
AcDbEntity
  8
Defpoints
 62
     0
100
AcDbPoint
 10
2519.466468900515
 20
1770.636220408487
 30
0.0
  0
ENDBLK
  5
C25
330
C1E
100
AcDbEntity
  8
0
100
AcDbBlockEnd
  0
BLOCK
  5
C31
330
C26
100
AcDbEntity
  8
0
100
AcDbBlockBegin
  2
*D83
 70
     1
 10
0.0
 20
0.0
 30
0.0
  3
*D83
  1

  0
LINE
  5
7389
330
C26
100
AcDbEntity
  8
cotas
100
AcDbLine
 10
2527.130876401621
 20
1732.636982968767
 30
0.0
 11
2527.888449612289
 21
1689.239689492573
 31
0.0
  0
ARC
  5
738A
330
C26
100
AcDbEntity
  8
cotas
100
AcDbCircle
 10
2526.345338547665
 20
1777.636220408485
 30
0.0
 40
83.40999869769039
100
AcDbArc
 50
186.8732946068362
 51
264.1267986218705
  0
SOLID
  5
738B
330
C26
100
AcDbEntity
  8
cotas
100
AcDbTrace
 10
2441.871118882674
 20
1767.55429541816
 30
0.0
 11
2445.198457850742
 21
1767.754111590405
 31
0.0
 12
2442.935339849976
 22
1777.636220408485
 32
0.0
 13
2442.935339849976
 23
1777.636220408485
 33
0.0
  0
SOLID
  5
738C
330
C26
100
AcDbEntity
  8
cotas
100
AcDbTrace
 10
2517.881075464169
 20
1696.329218422269
 30
0.0
 11
2517.739365215844
 21
1692.998898720404
 31
0.0
 12
2527.801179445602
 22
1694.23892782636
 32
0.0
 13
2527.801179445602
 23
1694.23892782636
 33
0.0
  0
MTEXT
  5
738D
330
C26
100
AcDbEntity
  8
cotas
100
AcDbMText
 10
2475.833081837137
 20
1726.234490893257
 30
0.0
 40
10.0
 41
0.0
 71
     5
 72
     1
  1
91,0°
  7
SANINDUSA
 11
0.7132510193954568
 21
-0.7009086840176413
 31
0.0
 73
     1
 44
1.0
1001
ACAD
1000
MTEXTBEGIN
1070
    73
1070
     1
1070
    44
1040
1.0
1070
    74
1070
     0
1000
MTEXTEND
  0
POINT
  5
738E
330
C26
100
AcDbEntity
  8
Defpoints
 62
     0
100
AcDbPoint
 10
2454.354034522029
 20
1735.511642933606
 30
0.0
  0
POINT
  5
738F
330
C26
100
AcDbEntity
  8
Defpoints
 62
     0
100
AcDbPoint
 10
1333.224230526235
 20
1777.636220408485
 30
0.0
  0
POINT
  5
7390
330
C26
100
AcDbEntity
  8
Defpoints
 62
     0
100
AcDbPoint
 10
2526.465402741298
 20
1770.758388703665
 30
0.0
  0
POINT
  5
7391
330
C26
100
AcDbEntity
  8
Defpoints
 62
     0
100
AcDbPoint
 10
2527.043606234935
 20
1737.636221302555
 30
0.0
  0
POINT
  5
7392
330
C26
100
AcDbEntity
  8
Defpoints
 62
     0
100
AcDbPoint
 10
2519.466425372508
 20
1777.636220408485
 30
0.0
  0
ENDBLK
  5
C32
330
C26
100
AcDbEntity
  8
0
100
AcDbBlockEnd
  0
BLOCK
  5
C3E
330
C33
100
AcDbEntity
  8
0
100
AcDbBlockBegin
  2
*D84
 70
     1
 10
0.0
 20
0.0
 30
0.0
  3
*D84
  1

  0
LINE
  5
737F
330
C33
100
AcDbEntity
  8
cotas
100
AcDbLine
 10
1325.55988512958
 20
1732.63698282677
 30
0.0
 11
1324.757143998273
 21
1686.647974148244
 31
0.0
  0
ARC
  5
7380
330
C33
100
AcDbEntity
  8
cotas
100
AcDbCircle
 10
1326.345349742153
 20
1777.636220408485
 30
0.0
 40
86.0021063217723
100
AcDbArc
 50
275.6658955430523
 51
353.3341044583943
  0
SOLID
  5
7381
330
C33
100
AcDbEntity
  8
cotas
100
AcDbTrace
 10
1334.903961502235
 20
1690.388991067415
 30
0.0
 11
1334.768273603196
 21
1693.719561574876
 31
0.0
 12
1324.844406030333
 22
1691.647212624028
 32
0.0
 13
1324.844406030333
 23
1691.647212624028
 33
0.0
  0
SOLID
  5
7382
330
C33
100
AcDbEntity
  8
cotas
100
AcDbTrace
 10
1410.102227371798
 20
1767.750031764835
 30
0.0
 11
1413.429922536881
 21
1767.55623806164
 31
0.0
 12
1412.347456063925
 22
1777.636220408485
 32
0.0
 13
1412.347456063925
 23
1777.636220408485
 33
0.0
  0
MTEXT
  5
7383
330
C33
100
AcDbEntity
  8
cotas
100
AcDbMText
 10
1378.674480520225
 20
1724.385710062257
 30
0.0
 40
10.0
 41
0.0
 71
     5
 72
     1
  1
91,0°
  7
SANINDUSA
 11
0.713250449145331
 21
0.7009092643088574
 31
0.0
 73
     1
 44
1.0
1001
ACAD
1000
MTEXTBEGIN
1070
    73
1070
     1
1070
    44
1040
1.0
1070
    74
1070
     0
1000
MTEXTEND
  0
POINT
  5
7384
330
C33
100
AcDbEntity
  8
Defpoints
 62
     0
100
AcDbPoint
 10
1368.47689737727
 20
1702.660924572781
 30
0.0
  0
POINT
  5
7385
330
C33
100
AcDbEntity
  8
Defpoints
 62
     0
100
AcDbPoint
 10
1325.64714716164
 20
1737.636221302555
 30
0.0
  0
POINT
  5
7386
330
C33
100
AcDbEntity
  8
Defpoints
 62
     0
100
AcDbPoint
 10
1333.224230526235
 20
1777.636220408485
 30
0.0
  0
POINT
  5
7387
330
C33
100
AcDbEntity
  8
Defpoints
 62
     0
100
AcDbPoint
 10
2519.466425372508
 20
1777.636220408485
 30
0.0
  0
POINT
  5
7388
330
C33
100
AcDbEntity
  8
Defpoints
 62
     0
100
AcDbPoint
 10
1326.225296719944
 20
1770.758387362527
 30
0.0
  0
ENDBLK
  5
C3F
330
C33
100
AcDbEntity
  8
0
100
AcDbBlockEnd
  0
BLOCK
  5
C4A
330
C40
100
AcDbEntity
  8
0
100
AcDbBlockBegin
  2
*D85
 70
     1
 10
0.0
 20
0.0
 30
0.0
  3
*D85
  1

  0
LINE
  5
7376
330
C40
100
AcDbEntity
  8
cotas
100
AcDbLine
 10
2531.345338547667
 20
1777.636220408485
 30
0.0
 11
2562.043606234935
 21
1777.636220408485
 31
0.0
  0
LINE
  5
7377
330
C40
100
AcDbEntity
  8
cotas
100
AcDbLine
 10
2403.041118004667
 20
1654.070048272106
 30
0.0
 11
2562.043606234935
 21
1654.070048272105
 31
0.0
  0
LINE
  5
7378
330
C40
100
AcDbEntity
  8
cotas
100
AcDbLine
 10
2557.043606234934
 20
1767.636220408485
 30
0.0
 11
2557.043606234934
 21
1664.070048272105
 31
0.0
  0
SOLID
  5
7379
330
C40
100
AcDbEntity
  8
cotas
100
AcDbTrace
 10
2555.376939568268
 20
1767.636220408485
 30
0.0
 11
2558.710272901601
 21
1767.636220408485
 31
0.0
 12
2557.043606234934
 22
1777.636220408485
 32
0.0
 13
2557.043606234934
 23
1777.636220408485
 33
0.0
  0
SOLID
  5
737A
330
C40
100
AcDbEntity
  8
cotas
100
AcDbTrace
 10
2555.376939568268
 20
1664.070048272105
 30
0.0
 11
2558.710272901601
 21
1664.070048272105
 31
0.0
 12
2557.043606234934
 22
1654.070048272106
 32
0.0
 13
2557.043606234934
 23
1654.070048272106
 33
0.0
  0
MTEXT
  5
737B
330
C40
100
AcDbEntity
  8
cotas
100
AcDbMText
 10
2545.697064932046
 20
1715.853134340295
 30
0.0
 40
10.0
 41
0.0
 71
     5
 72
     1
  1
123,6
  7
SANINDUSA
 11
0.0000000000000001
 21
1.0
 31
0.0
 73
     1
 44
1.0
1001
ACAD
1000
MTEXTBEGIN
1070
    73
1070
     1
1070
    44
1040
1.0
1070
    74
1070
     0
1000
MTEXTEND
  0
POINT
  5
737C
330
C40
100
AcDbEntity
  8
Defpoints
 62
     0
100
AcDbPoint
 10
2526.345338547667
 20
1777.636220408485
 30
0.0
  0
POINT
  5
737D
330
C40
100
AcDbEntity
  8
Defpoints
 62
     0
100
AcDbPoint
 10
2398.041118004667
 20
1654.070048272106
 30
0.0
  0
POINT
  5
737E
330
C40
100
AcDbEntity
  8
Defpoints
 62
     0
100
AcDbPoint
 10
2557.043606234934
 20
1654.070048272106
 30
0.0
  0
ENDBLK
  5
C4B
330
C40
100
AcDbEntity
  8
0
100
AcDbBlockEnd
  0
BLOCK
  5
C56
330
C4C
100
AcDbEntity
  8
0
100
AcDbBlockBegin
  2
*D86
 70
     1
 10
0.0
 20
0.0
 30
0.0
  3
*D86
  1

  0
LINE
  5
7349
330
C4C
100
AcDbEntity
  8
cotas
100
AcDbLine
 10
-775.7150899343289
 20
1998.133333468581
 30
0.0
 11
-775.7150899343289
 21
2163.399916742467
 31
0.0
  0
LINE
  5
734A
330
C4C
100
AcDbEntity
  8
cotas
100
AcDbLine
 10
-855.7023876767383
 20
1998.133333468581
 30
0.0
 11
-855.7023876767383
 21
2163.399916742467
 31
0.0
  0
LINE
  5
734B
330
C4C
100
AcDbEntity
  8
cotas
100
AcDbLine
 10
-785.7150899343289
 20
2158.399916742467
 30
0.0
 11
-845.7023876767381
 21
2158.399916742467
 31
0.0
  0
SOLID
  5
734C
330
C4C
100
AcDbEntity
  8
cotas
100
AcDbTrace
 10
-785.7150899343289
 20
2160.066583409134
 30
0.0
 11
-785.7150899343289
 21
2156.7332500758
 31
0.0
 12
-775.7150899343289
 22
2158.399916742467
 32
0.0
 13
-775.7150899343289
 23
2158.399916742467
 33
0.0
  0
SOLID
  5
734D
330
C4C
100
AcDbEntity
  8
cotas
100
AcDbTrace
 10
-845.7023876767381
 20
2160.066583409134
 30
0.0
 11
-845.7023876767381
 21
2156.7332500758
 31
0.0
 12
-855.7023876767383
 22
2158.399916742467
 32
0.0
 13
-855.7023876767383
 23
2158.399916742467
 33
0.0
  0
MTEXT
  5
734E
330
C4C
100
AcDbEntity
  8
cotas
100
AcDbMText
 10
-815.7087388055336
 20
2168.628257911036
 30
0.0
 40
10.0
 41
0.0
 71
     5
 72
     1
  1
80
  7
SANINDUSA
 73
     1
 44
1.0
1001
ACAD
1000
MTEXTBEGIN
1070
    73
1070
     1
1070
    44
1040
1.0
1070
    74
1070
     0
1000
MTEXTEND
  0
POINT
  5
734F
330
C4C
100
AcDbEntity
  8
Defpoints
 62
     0
100
AcDbPoint
 10
-775.7150899343289
 20
1993.133333468582
 30
0.0
  0
POINT
  5
7350
330
C4C
100
AcDbEntity
  8
Defpoints
 62
     0
100
AcDbPoint
 10
-855.7023876767383
 20
1993.133333468582
 30
0.0
  0
POINT
  5
7351
330
C4C
100
AcDbEntity
  8
Defpoints
 62
     0
100
AcDbPoint
 10
-855.7023876767383
 20
2158.399916742467
 30
0.0
  0
ENDBLK
  5
C57
330
C4C
100
AcDbEntity
  8
0
100
AcDbBlockEnd
  0
BLOCK
  5
C62
330
C58
100
AcDbEntity
  8
0
100
AcDbBlockBegin
  2
*D87
 70
     1
 10
0.0
 20
0.0
 30
0.0
  3
*D87
  1

  0
LINE
  5
7340
330
C58
100
AcDbEntity
  8
cotas
100
AcDbLine
 10
-855.7023876767383
 20
1998.133333468581
 30
0.0
 11
-855.7023876767383
 21
2163.399916742467
 31
0.0
  0
LINE
  5
7341
330
C58
100
AcDbEntity
  8
cotas
100
AcDbLine
 10
-935.7012159570023
 20
2133.399916742467
 30
0.0
 11
-935.7012159570023
 21
2163.399916742467
 31
0.0
  0
LINE
  5
7342
330
C58
100
AcDbEntity
  8
cotas
100
AcDbLine
 10
-865.7023876767382
 20
2158.399916742467
 30
0.0
 11
-925.7012159570024
 21
2158.399916742467
 31
0.0
  0
SOLID
  5
7343
330
C58
100
AcDbEntity
  8
cotas
100
AcDbTrace
 10
-865.7023876767382
 20
2160.066583409134
 30
0.0
 11
-865.7023876767382
 21
2156.7332500758
 31
0.0
 12
-855.7023876767383
 22
2158.399916742467
 32
0.0
 13
-855.7023876767383
 23
2158.399916742467
 33
0.0
  0
SOLID
  5
7344
330
C58
100
AcDbEntity
  8
cotas
100
AcDbTrace
 10
-925.7012159570024
 20
2160.066583409134
 30
0.0
 11
-925.7012159570024
 21
2156.7332500758
 31
0.0
 12
-935.7012159570023
 22
2158.399916742467
 32
0.0
 13
-935.7012159570023
 23
2158.399916742467
 33
0.0
  0
MTEXT
  5
7345
330
C58
100
AcDbEntity
  8
cotas
100
AcDbMText
 10
-895.7018018168703
 20
2168.628257911036
 30
0.0
 40
10.0
 41
0.0
 71
     5
 72
     1
  1
80
  7
SANINDUSA
 73
     1
 44
1.0
1001
ACAD
1000
MTEXTBEGIN
1070
    73
1070
     1
1070
    44
1040
1.0
1070
    74
1070
     0
1000
MTEXTEND
  0
POINT
  5
7346
330
C58
100
AcDbEntity
  8
Defpoints
 62
     0
100
AcDbPoint
 10
-855.7023876767383
 20
1993.133333468582
 30
0.0
  0
POINT
  5
7347
330
C58
100
AcDbEntity
  8
Defpoints
 62
     0
100
AcDbPoint
 10
-935.7012159570023
 20
2128.399916742466
 30
-0.0000000000000197
  0
POINT
  5
7348
330
C58
100
AcDbEntity
  8
Defpoints
 62
     0
100
AcDbPoint
 10
-935.7012159570023
 20
2158.399916742467
 30
0.0
  0
ENDBLK
  5
C63
330
C58
100
AcDbEntity
  8
0
100
AcDbBlockEnd
  0
BLOCK
  5
C6E
330
C64
100
AcDbEntity
  8
0
100
AcDbBlockBegin
  2
*D88
 70
     1
 10
0.0
 20
0.0
 30
0.0
  3
*D88
  1

  0
LINE
  5
7313
330
C64
100
AcDbEntity
  8
cotas
100
AcDbLine
 10
-571.9539419390039
 20
1717.708261478347
 30
0.0
 11
-251.713612403928
 21
1717.708261478347
 31
0.0
  0
LINE
  5
7314
330
C64
100
AcDbEntity
  8
cotas
100
AcDbLine
 10
-281.713612403928
 20
1677.701731775425
 30
0.0
 11
-251.713612403928
 21
1677.701731775425
 31
0.0
  0
LINE
  5
7315
330
C64
100
AcDbEntity
  8
cotas
100
AcDbLine
 10
-256.713612403928
 20
1707.708261478346
 30
0.0
 11
-256.713612403928
 21
1687.701731775425
 31
0.0
  0
SOLID
  5
7316
330
C64
100
AcDbEntity
  8
cotas
100
AcDbTrace
 10
-258.3802790705947
 20
1707.708261478346
 30
0.0
 11
-255.0469457372614
 21
1707.708261478346
 31
0.0
 12
-256.713612403928
 22
1717.708261478347
 32
0.0
 13
-256.713612403928
 23
1717.708261478347
 33
0.0
  0
SOLID
  5
7317
330
C64
100
AcDbEntity
  8
cotas
100
AcDbTrace
 10
-258.3802790705947
 20
1687.701731775425
 30
0.0
 11
-255.0469457372614
 21
1687.701731775425
 31
0.0
 12
-256.713612403928
 22
1677.701731775425
 32
0.0
 13
-256.713612403928
 23
1677.701731775425
 33
0.0
  0
MTEXT
  5
7318
330
C64
100
AcDbEntity
  8
cotas
100
AcDbMText
 10
-266.9184478639685
 20
1697.704996626886
 30
0.0
 40
10.0
 41
0.0
 71
     5
 72
     1
  1
40
  7
SANINDUSA
 11
0.0000000000000001
 21
1.0
 31
0.0
 73
     1
 44
1.0
1001
ACAD
1000
MTEXTBEGIN
1070
    73
1070
     1
1070
    44
1040
1.0
1070
    74
1070
     0
1000
MTEXTEND
  0
POINT
  5
7319
330
C64
100
AcDbEntity
  8
Defpoints
 62
     0
100
AcDbPoint
 10
-576.9539419390039
 20
1717.708261478347
 30
0.0
  0
POINT
  5
731A
330
C64
100
AcDbEntity
  8
Defpoints
 62
     0
100
AcDbPoint
 10
-286.713612403928
 20
1677.701731775425
 30
0.0
  0
POINT
  5
731B
330
C64
100
AcDbEntity
  8
Defpoints
 62
     0
100
AcDbPoint
 10
-256.713612403928
 20
1677.701731775425
 30
0.0
  0
ENDBLK
  5
C6F
330
C64
100
AcDbEntity
  8
0
100
AcDbBlockEnd
  0
BLOCK
  5
C7A
330
C70
100
AcDbEntity
  8
0
100
AcDbBlockBegin
  2
*D89
 70
     1
 10
0.0
 20
0.0
 30
0.0
  3
*D89
  1

  0
LINE
  5
7301
330
C70
100
AcDbEntity
  8
cotas
100
AcDbLine
 10
-571.9518562010616
 20
1637.679298073992
 30
0.0
 11
-251.7136124039279
 21
1637.679298073992
 31
0.0
  0
LINE
  5
7302
330
C70
100
AcDbEntity
  8
cotas
100
AcDbLine
 10
-571.9518562010626
 20
1557.693767417131
 30
0.0
 11
-251.713612403928
 21
1557.693767417131
 31
0.0
  0
LINE
  5
7303
330
C70
100
AcDbEntity
  8
cotas
100
AcDbLine
 10
-256.713612403928
 20
1627.679298073992
 30
0.0
 11
-256.713612403928
 21
1567.693767417131
 31
0.0
  0
SOLID
  5
7304
330
C70
100
AcDbEntity
  8
cotas
100
AcDbTrace
 10
-258.3802790705947
 20
1627.679298073992
 30
0.0
 11
-255.0469457372613
 21
1627.679298073992
 31
0.0
 12
-256.713612403928
 22
1637.679298073992
 32
0.0
 13
-256.713612403928
 23
1637.679298073992
 33
0.0
  0
SOLID
  5
7305
330
C70
100
AcDbEntity
  8
cotas
100
AcDbTrace
 10
-258.3802790705947
 20
1567.693767417131
 30
0.0
 11
-255.0469457372613
 21
1567.693767417131
 31
0.0
 12
-256.713612403928
 22
1557.693767417131
 32
0.0
 13
-256.713612403928
 23
1557.693767417131
 33
0.0
  0
MTEXT
  5
7306
330
C70
100
AcDbEntity
  8
cotas
100
AcDbMText
 10
-266.9419535724977
 20
1597.686532745562
 30
0.0
 40
10.0
 41
0.0
 71
     5
 72
     1
  1
80
  7
SANINDUSA
 11
0.0000000000000001
 21
1.0
 31
0.0
 73
     1
 44
1.0
1001
ACAD
1000
MTEXTBEGIN
1070
    73
1070
     1
1070
    44
1040
1.0
1070
    74
1070
     0
1000
MTEXTEND
  0
POINT
  5
7307
330
C70
100
AcDbEntity
  8
Defpoints
 62
     0
100
AcDbPoint
 10
-576.9518562010616
 20
1637.679298073992
 30
0.0
  0
POINT
  5
7308
330
C70
100
AcDbEntity
  8
Defpoints
 62
     0
100
AcDbPoint
 10
-576.9518562010626
 20
1557.693767417131
 30
0.0
  0
POINT
  5
7309
330
C70
100
AcDbEntity
  8
Defpoints
 62
     0
100
AcDbPoint
 10
-256.713612403928
 20
1557.693767417131
 30
0.0
  0
ENDBLK
  5
C7B
330
C70
100
AcDbEntity
  8
0
100
AcDbBlockEnd
  0
BLOCK
  5
C86
330
C7C
100
AcDbEntity
  8
0
100
AcDbBlockBegin
  2
*D90
 70
     1
 10
0.0
 20
0.0
 30
0.0
  3
*D90
  1

  0
LINE
  5
72D4
330
C7C
100
AcDbEntity
  8
cotas
100
AcDbLine
 10
-1489.467099722864
 20
2129.797101091017
 30
0.0
 11
-1489.467099722864
 21
2163.399916742466
 31
0.0
  0
LINE
  5
72D5
330
C7C
100
AcDbEntity
  8
cotas
100
AcDbLine
 10
-1259.869015354388
 20
2133.399916742467
 30
0.0
 11
-1259.869015354388
 21
2163.399916742466
 31
0.0
  0
LINE
  5
72D6
330
C7C
100
AcDbEntity
  8
cotas
100
AcDbLine
 10
-1479.467099722864
 20
2158.399916742467
 30
0.0
 11
-1269.869015354389
 21
2158.399916742467
 31
0.0
  0
SOLID
  5
72D7
330
C7C
100
AcDbEntity
  8
cotas
100
AcDbTrace
 10
-1479.467099722864
 20
2160.066583409133
 30
0.0
 11
-1479.467099722864
 21
2156.7332500758
 31
0.0
 12
-1489.467099722864
 22
2158.399916742467
 32
0.0
 13
-1489.467099722864
 23
2158.399916742467
 33
0.0
  0
SOLID
  5
72D8
330
C7C
100
AcDbEntity
  8
cotas
100
AcDbTrace
 10
-1269.869015354389
 20
2160.066583409133
 30
0.0
 11
-1269.869015354389
 21
2156.7332500758
 31
0.0
 12
-1259.869015354388
 22
2158.399916742467
 32
0.0
 13
-1259.869015354388
 23
2158.399916742467
 33
0.0
  0
MTEXT
  5
72D9
330
C7C
100
AcDbEntity
  8
cotas
100
AcDbMText
 10
-1374.668057538626
 20
2169.746458045354
 30
0.0
 40
10.0
 41
0.0
 71
     5
 72
     1
  1
229,6
  7
SANINDUSA
 73
     1
 44
1.0
1001
ACAD
1000
MTEXTBEGIN
1070
    73
1070
     1
1070
    44
1040
1.0
1070
    74
1070
     0
1000
MTEXTEND
  0
POINT
  5
72DA
330
C7C
100
AcDbEntity
  8
Defpoints
 62
     0
100
AcDbPoint
 10
-1489.467099722864
 20
2124.797101091017
 30
0.0000000000000001
  0
POINT
  5
72DB
330
C7C
100
AcDbEntity
  8
Defpoints
 62
     0
100
AcDbPoint
 10
-1259.869015354388
 20
2128.399916742466
 30
-0.0000000000000197
  0
POINT
  5
72DC
330
C7C
100
AcDbEntity
  8
Defpoints
 62
     0
100
AcDbPoint
 10
-1259.869015354388
 20
2158.399916742467
 30
0.0
  0
ENDBLK
  5
C87
330
C7C
100
AcDbEntity
  8
0
100
AcDbBlockEnd
  0
BLOCK
  5
C8F
330
C88
100
AcDbEntity
  8
0
100
AcDbBlockBegin
  2
*D91
 70
     1
 10
0.0
 20
0.0
 30
0.0
  3
*D91
  1

  0
LINE
  5
72CE
330
C88
100
AcDbEntity
  8
cotas
100
AcDbLine
 10
-1448.830513939723
 20
1263.834702086137
 30
0.0
 11
-1417.892504985337
 21
1296.239147682277
 31
0.0
  0
MTEXT
  5
72CF
330
C88
100
AcDbEntity
  8
cotas
100
AcDbMText
 10
-1444.197681696479
 20
1283.469793099518
 30
0.0
 40
10.0
 41
0.0
 71
     5
 72
     1
  1
R20
  7
SANINDUSA
 11
0.6905515714747472
 21
0.7232831583368697
 31
0.0
 73
     1
 44
1.0
1001
ACAD
1000
MTEXTBEGIN
1070
    73
1070
     1
1070
    44
1040
1.0
1070
    74
1070
     0
1000
MTEXTEND
  0
LINE
  5
72D0
330
C88
100
AcDbEntity
  8
cotas
100
AcDbLine
 10
-1397.175957841095
 20
1317.937642432382
 30
0.0
 11
-1410.986989270589
 21
1303.471979265645
 31
0.0
  0
SOLID
  5
72D1
330
C88
100
AcDbEntity
  8
cotas
100
AcDbTrace
 10
-1419.097976915898
 20
1297.390066968068
 30
0.0
 11
-1416.687033054775
 21
1295.088228396485
 31
0.0
 12
-1410.986989270589
 22
1303.471979265645
 32
0.0
 13
-1410.986989270589
 23
1303.471979265645
 33
0.0
  0
POINT
  5
72D2
330
C88
100
AcDbEntity
  8
Defpoints
 62
     0
100
AcDbPoint
 10
-1410.986989270589
 20
1303.471979265645
 30
0.0
  0
POINT
  5
72D3
330
C88
100
AcDbEntity
  8
Defpoints
 62
     0
100
AcDbPoint
 10
-1397.175957841095
 20
1317.937642432382
 30
0.0
  0
ENDBLK
  5
C90
330
C88
100
AcDbEntity
  8
0
100
AcDbBlockEnd
  0
BLOCK
  5
C97
330
C91
100
AcDbEntity
  8
0
100
AcDbBlockBegin
  2
*D92
 70
     1
 10
0.0
 20
0.0
 30
0.0
  3
*D92
  1

  0
LINE
  5
72C9
330
C91
100
AcDbEntity
  8
cotas
100
AcDbLine
 10
-1342.754552836558
 20
1375.399971874846
 30
0.0
 11
-1375.257268229931
 21
1344.565219005512
 31
0.0
  0
MTEXT
  5
72CA
330
C91
100
AcDbEntity
  8
cotas
100
AcDbMText
 10
-1362.401973398567
 20
1370.827198880661
 30
0.0
 40
10.0
 41
0.0
 71
     5
 72
     1
  1
R10
  7
SANINDUSA
 11
0.7254765885283342
 21
0.688246844887276
 31
0.0
 73
     1
 44
1.0
1001
ACAD
1000
MTEXTBEGIN
1070
    73
1070
     1
1070
    44
1040
1.0
1070
    74
1070
     0
1000
MTEXTEND
  0
SOLID
  5
72CB
330
C91
100
AcDbEntity
  8
cotas
100
AcDbTrace
 10
-1376.404346304743
 20
1345.774346653059
 30
0.0
 11
-1374.110190155119
 21
1343.356091357964
 31
0.0
 12
-1382.512034115215
 22
1337.682750556639
 32
0.0
 13
-1382.512034115215
 23
1337.682750556639
 33
0.0
  0
POINT
  5
72CC
330
C91
100
AcDbEntity
  8
Defpoints
 62
     0
100
AcDbPoint
 10
-1382.512034115215
 20
1337.682750556639
 30
0.0
  0
POINT
  5
72CD
330
C91
100
AcDbEntity
  8
Defpoints
 62
     0
100
AcDbPoint
 10
-1375.257268229938
 20
1344.565219005505
 30
0.0
  0
ENDBLK
  5
C98
330
C91
100
AcDbEntity
  8
0
100
AcDbBlockEnd
  0
BLOCK
  5
C9F
330
C99
100
AcDbEntity
  8
0
100
AcDbBlockBegin
  2
*D93
 70
     1
 10
0.0
 20
0.0
 30
0.0
  3
*D93
  1

  0
LINE
  5
72C4
330
C99
100
AcDbEntity
  8
cotas
100
AcDbLine
 10
-1167.167726339846
 20
1373.396794203551
 30
0.0
 11
-1132.252150650695
 21
1345.323478283444
 31
0.0
  0
MTEXT
  5
72C5
330
C99
100
AcDbEntity
  8
cotas
100
AcDbMText
 10
-1147.2121484428
 20
1370.446150478572
 30
0.0
 40
10.0
 41
0.0
 71
     5
 72
     1
  1
R10
  7
SANINDUSA
 11
0.779332816686321
 21
-0.6266102144361878
 31
0.0
 73
     1
 44
1.0
1001
ACAD
1000
MTEXTBEGIN
1070
    73
1070
     1
1070
    44
1040
1.0
1070
    74
1070
     0
1000
MTEXTEND
  0
SOLID
  5
72C6
330
C99
100
AcDbEntity
  8
cotas
100
AcDbTrace
 10
-1131.207800293301
 20
1346.622366311254
 30
0.0
 11
-1133.296501008088
 21
1344.024590255633
 31
0.0
 12
-1124.458822483831
 22
1339.057376139082
 32
0.0
 13
-1124.458822483831
 23
1339.057376139082
 33
0.0
  0
POINT
  5
72C7
330
C99
100
AcDbEntity
  8
Defpoints
 62
     0
100
AcDbPoint
 10
-1124.458822483831
 20
1339.057376139082
 30
0.0
  0
POINT
  5
72C8
330
C99
100
AcDbEntity
  8
Defpoints
 62
     0
100
AcDbPoint
 10
-1132.252150650694
 20
1345.323478283444
 30
0.0
  0
ENDBLK
  5
CA0
330
C99
100
AcDbEntity
  8
0
100
AcDbBlockEnd
  0
BLOCK
  5
CA8
330
CA1
100
AcDbEntity
  8
0
100
AcDbBlockBegin
  2
*D94
 70
     1
 10
0.0
 20
0.0
 30
0.0
  3
*D94
  1

  0
LINE
  5
72BE
330
CA1
100
AcDbEntity
  8
cotas
100
AcDbLine
 10
-1450.455818809852
 20
2089.993316917165
 30
0.0
 11
-1418.544348992269
 21
2058.547067752337
 31
0.0
  0
MTEXT
  5
72BF
330
CA1
100
AcDbEntity
  8
cotas
100
AcDbMText
 10
-1430.896394881221
 20
2085.050759959685
 30
0.0
 40
10.0
 41
0.0
 71
     5
 72
     1
  1
R20
  7
SANINDUSA
 11
0.7122796965729174
 21
-0.7018957428635629
 31
0.0
 73
     1
 44
1.0
1001
ACAD
1000
MTEXTBEGIN
1070
    73
1070
     1
1070
    44
1040
1.0
1070
    74
1070
     0
1000
MTEXTEND
  0
LINE
  5
72C0
330
CA1
100
AcDbEntity
  8
cotas
100
AcDbLine
 10
-1397.17595809508
 20
2037.490195466428
 30
0.0
 11
-1411.42155202654
 21
2051.528110323701
 31
0.0
  0
SOLID
  5
72C1
330
CA1
100
AcDbEntity
  8
cotas
100
AcDbTrace
 10
-1417.374522754164
 20
2059.734200579958
 30
0.0
 11
-1419.714175230376
 21
2057.359934924715
 31
0.0
 12
-1411.42155202654
 22
2051.528110323701
 32
0.0
 13
-1411.42155202654
 23
2051.528110323701
 33
0.0
  0
POINT
  5
72C2
330
CA1
100
AcDbEntity
  8
Defpoints
 62
     0
100
AcDbPoint
 10
-1411.42155202654
 20
2051.528110323701
 30
0.0
  0
POINT
  5
72C3
330
CA1
100
AcDbEntity
  8
Defpoints
 62
     0
100
AcDbPoint
 10
-1397.17595809508
 20
2037.490195466428
 30
0.0
  0
ENDBLK
  5
CA9
330
CA1
100
AcDbEntity
  8
0
100
AcDbBlockEnd
  0
BLOCK
  5
CB0
330
CAA
100
AcDbEntity
  8
0
100
AcDbBlockBegin
  2
*D95
 70
     1
 10
0.0
 20
0.0
 30
0.0
  3
*D95
  1

  0
LINE
  5
72B9
330
CAA
100
AcDbEntity
  8
cotas
100
AcDbLine
 10
-1346.087503406222
 20
1976.833148189954
 30
0.0
 11
-1375.257056883189
 21
2010.838230786667
 31
0.0
  0
MTEXT
  5
72BA
330
CAA
100
AcDbEntity
  8
cotas
100
AcDbMText
 10
-1349.671312438318
 20
1996.684790449935
 30
0.0
 40
10.0
 41
0.0
 71
     5
 72
     1
  1
R10
  7
SANINDUSA
 11
0.6510787757038356
 21
-0.7590101631915047
 31
0.0
 73
     1
 44
1.0
1001
ACAD
1000
MTEXTBEGIN
1070
    73
1070
     1
1070
    44
1040
1.0
1070
    74
1070
     0
1000
MTEXTEND
  0
SOLID
  5
72BB
330
CAA
100
AcDbEntity
  8
cotas
100
AcDbTrace
 10
-1373.992039944536
 20
2011.923362079507
 30
0.0
 11
-1376.522073821841
 21
2009.753099493828
 31
0.0
 12
-1381.767844640227
 22
2018.428332418582
 32
0.0
 13
-1381.767844640227
 23
2018.428332418582
 33
0.0
  0
POINT
  5
72BC
330
CAA
100
AcDbEntity
  8
Defpoints
 62
     0
100
AcDbPoint
 10
-1381.767844640227
 20
2018.428332418582
 30
0.0
  0
POINT
  5
72BD
330
CAA
100
AcDbEntity
  8
Defpoints
 62
     0
100
AcDbPoint
 10
-1375.257056883188
 20
2010.838230786667
 30
0.0
  0
ENDBLK
  5
CB1
330
CAA
100
AcDbEntity
  8
0
100
AcDbBlockEnd
  0
BLOCK
  5
CB9
330
CB2
100
AcDbEntity
  8
0
100
AcDbBlockBegin
  2
*D96
 70
     1
 10
0.0
 20
0.0
 30
0.0
  3
*D96
  1

  0
LINE
  5
72B3
330
CB2
100
AcDbEntity
  8
cotas
100
AcDbLine
 10
-327.5203221920683
 20
1262.40584312968
 30
0.0
 11
-357.5363895867805
 21
1295.666092536606
 31
0.0
  0
MTEXT
  5
72B4
330
CB2
100
AcDbEntity
  8
cotas
100
AcDbMText
 10
-331.6000780789175
 20
1282.163260106641
 30
0.0
 40
10.0
 41
0.0
 71
     5
 72
     1
  1
R20
  7
SANINDUSA
 11
0.6699733825622328
 21
-0.7423851201755866
 31
0.0
 73
     1
 44
1.0
1001
ACAD
1000
MTEXTBEGIN
1070
    73
1070
     1
1070
    44
1040
1.0
1070
    74
1070
     0
1000
MTEXTEND
  0
LINE
  5
72B5
330
CB2
100
AcDbEntity
  8
cotas
100
AcDbLine
 10
-377.6355910636458
 20
1317.937646141872
 30
0.0
 11
-364.2361234124028
 21
1303.089943738362
 31
0.0
  0
SOLID
  5
72B6
330
CB2
100
AcDbEntity
  8
cotas
100
AcDbTrace
 10
-356.2990810531545
 20
1296.782714840877
 30
0.0
 11
-358.7736981204064
 21
1294.549470232336
 31
0.0
 12
-364.2361234124028
 22
1303.089943738362
 32
0.0
 13
-364.2361234124028
 23
1303.089943738362
 33
0.0
  0
POINT
  5
72B7
330
CB2
100
AcDbEntity
  8
Defpoints
 62
     0
100
AcDbPoint
 10
-364.2361234124028
 20
1303.089943738362
 30
0.0
  0
POINT
  5
72B8
330
CB2
100
AcDbEntity
  8
Defpoints
 62
     0
100
AcDbPoint
 10
-377.6355910636458
 20
1317.937646141872
 30
0.0
  0
ENDBLK
  5
CBA
330
CB2
100
AcDbEntity
  8
0
100
AcDbBlockEnd
  0
BLOCK
  5
CC2
330
CBB
100
AcDbEntity
  8
0
100
AcDbBlockBegin
  2
*D97
 70
     1
 10
0.0
 20
0.0
 30
0.0
  3
*D97
  1

  0
LINE
  5
72AD
330
CBB
100
AcDbEntity
  8
cotas
100
AcDbLine
 10
-324.2147375888202
 20
2089.837423490731
 30
0.0
 11
-356.2179486310995
 21
2058.484545226715
 31
0.0
  0
MTEXT
  5
72AE
330
CBB
100
AcDbEntity
  8
cotas
100
AcDbMText
 10
-343.7885188467797
 20
2084.952034973597
 30
0.0
 40
10.0
 41
0.0
 71
     5
 72
     1
  1
R20
  7
SANINDUSA
 11
0.7143274058155313
 21
0.6998116584487954
 31
0.0
 73
     1
 44
1.0
1001
ACAD
1000
MTEXTBEGIN
1070
    73
1070
     1
1070
    44
1040
1.0
1070
    74
1070
     0
1000
MTEXTEND
  0
LINE
  5
72AF
330
CBB
100
AcDbEntity
  8
cotas
100
AcDbLine
 10
-377.6477708055675
 20
2037.49019547325
 30
0.0
 11
-363.3612226892549
 21
2051.486428642227
 31
0.0
  0
SOLID
  5
72B0
330
CBB
100
AcDbEntity
  8
cotas
100
AcDbTrace
 10
-357.384301395181
 20
2059.675090903074
 30
0.0
 11
-355.0515958670183
 21
2057.293999550356
 31
0.0
 12
-363.3612226892549
 22
2051.486428642227
 32
0.0
 13
-363.3612226892549
 23
2051.486428642227
 33
0.0
  0
POINT
  5
72B1
330
CBB
100
AcDbEntity
  8
Defpoints
 62
     0
100
AcDbPoint
 10
-363.3612226892549
 20
2051.486428642227
 30
0.0
  0
POINT
  5
72B2
330
CBB
100
AcDbEntity
  8
Defpoints
 62
     0
100
AcDbPoint
 10
-377.6477708055675
 20
2037.49019547325
 30
0.0
  0
ENDBLK
  5
CC3
330
CBB
100
AcDbEntity
  8
0
100
AcDbBlockEnd
  0
BLOCK
  5
CCE
330
CC4
100
AcDbEntity
  8
0
100
AcDbBlockBegin
  2
*D98
 70
     1
 10
0.0
 20
0.0
 30
0.0
  3
*D98
  1

  0
LINE
  5
7469
330
CC4
100
AcDbEntity
  8
cotas
100
AcDbLine
 10
143.871253772854
 20
1782.636220408485
 30
0.0
 11
143.871253772854
 21
1812.636220408485
 31
0.0
  0
LINE
  5
746A
330
CC4
100
AcDbEntity
  8
cotas
100
AcDbLine
 10
1043.871257430668
 20
1782.636220408485
 30
0.0
 11
1043.871257430668
 21
1812.636220408485
 31
0.0
  0
LINE
  5
746B
330
CC4
100
AcDbEntity
  8
cotas
100
AcDbLine
 10
153.871253772854
 20
1807.636220408485
 30
0.0
 11
1033.871257430668
 21
1807.636220408485
 31
0.0
  0
SOLID
  5
746C
330
CC4
100
AcDbEntity
  8
cotas
100
AcDbTrace
 10
153.871253772854
 20
1809.302887075151
 30
0.0
 11
153.871253772854
 21
1805.969553741818
 31
0.0
 12
143.871253772854
 22
1807.636220408485
 32
0.0
 13
143.871253772854
 23
1807.636220408485
 33
0.0
  0
SOLID
  5
746D
330
CC4
100
AcDbEntity
  8
cotas
100
AcDbTrace
 10
1033.871257430668
 20
1809.302887075151
 30
0.0
 11
1033.871257430668
 21
1805.969553741818
 31
0.0
 12
1043.871257430668
 22
1807.636220408485
 32
0.0
 13
1043.871257430668
 23
1807.636220408485
 33
0.0
  0
MTEXT
  5
746E
330
CC4
100
AcDbEntity
  8
cotas
100
AcDbMText
 10
593.871255601761
 20
1817.841055868525
 30
0.0
 40
10.0
 41
0.0
 71
     5
 72
     1
  1
900
  7
SANINDUSA
 73
     1
 44
1.0
1001
ACAD
1000
MTEXTBEGIN
1070
    73
1070
     1
1070
    44
1040
1.0
1070
    74
1070
     0
1000
MTEXTEND
  0
POINT
  5
746F
330
CC4
100
AcDbEntity
  8
Defpoints
 62
     0
100
AcDbPoint
 10
143.871253772854
 20
1777.636220408485
 30
0.0
  0
POINT
  5
7470
330
CC4
100
AcDbEntity
  8
Defpoints
 62
     0
100
AcDbPoint
 10
1043.871257430668
 20
1777.636220408485
 30
0.0
  0
POINT
  5
7471
330
CC4
100
AcDbEntity
  8
Defpoints
 62
     0
100
AcDbPoint
 10
1043.871257430668
 20
1807.636220408485
 30
0.0
  0
ENDBLK
  5
CCF
330
CC4
100
AcDbEntity
  8
0
100
AcDbBlockEnd
  0
BLOCK
  5
CDA
330
CD0
100
AcDbEntity
  8
0
100
AcDbBlockBegin
  2
*D99
 70
     1
 10
0.0
 20
0.0
 30
0.0
  3
*D99
  1

  0
LINE
  5
7290
330
CD0
100
AcDbEntity
  8
1
100
AcDbLine
 10
3954.7384139348
 20
1777.636223090694
 30
0.0
 11
3986.387347225539
 21
1777.636223090694
 31
0.0
  0
LINE
  5
7291
330
CD0
100
AcDbEntity
  8
1
100
AcDbLine
 10
3881.439584584945
 20
1683.169539473227
 30
0.0
 11
3986.387347225539
 21
1683.169539473227
 31
0.0
  0
LINE
  5
7292
330
CD0
100
AcDbEntity
  8
1
100
AcDbLine
 10
3981.38734722554
 20
1767.636223090694
 30
0.0
 11
3981.38734722554
 21
1693.169539473226
 31
0.0
  0
SOLID
  5
7293
330
CD0
100
AcDbEntity
  8
1
100
AcDbTrace
 10
3979.720680558873
 20
1767.636223090694
 30
0.0
 11
3983.054013892206
 21
1767.636223090694
 31
0.0
 12
3981.38734722554
 22
1777.636223090694
 32
0.0
 13
3981.38734722554
 23
1777.636223090694
 33
0.0
  0
SOLID
  5
7294
330
CD0
100
AcDbEntity
  8
1
100
AcDbTrace
 10
3979.720680558873
 20
1693.169539473226
 30
0.0
 11
3983.054013892206
 21
1693.169539473226
 31
0.0
 12
3981.38734722554
 22
1683.169539473227
 32
0.0
 13
3981.38734722554
 23
1683.169539473227
 33
0.0
  0
MTEXT
  5
7295
330
CD0
100
AcDbEntity
  8
1
100
AcDbMText
 10
3970.044163881012
 20
1730.402881281961
 30
0.0
 40
10.0
 41
0.0
 71
     5
 72
     1
  1
94,5
  7
SANINDUSA
 11
0.0000000000000001
 21
1.0
 31
0.0
 73
     1
 44
1.0
1001
ACAD
1000
MTEXTBEGIN
1070
    73
1070
     1
1070
    44
1040
1.0
1070
    74
1070
     0
1000
MTEXTEND
  0
POINT
  5
7296
330
CD0
100
AcDbEntity
  8
Defpoints
 62
     0
100
AcDbPoint
 10
3949.7384139348
 20
1777.636223090694
 30
0.0
  0
POINT
  5
7297
330
CD0
100
AcDbEntity
  8
Defpoints
 62
     0
100
AcDbPoint
 10
3876.439584584945
 20
1683.169539473227
 30
0.0
  0
POINT
  5
7298
330
CD0
100
AcDbEntity
  8
Defpoints
 62
     0
100
AcDbPoint
 10
3981.38734722554
 20
1683.169539473227
 30
0.0
  0
ENDBLK
  5
CDB
330
CD0
100
AcDbEntity
  8
0
100
AcDbBlockEnd
  0
BLOCK
  5
CE6
330
CDC
100
AcDbEntity
  8
0
100
AcDbBlockBegin
  2
*D100
 70
     1
 10
0.0
 20
0.0
 30
0.0
  3
*D100
  1

  0
LINE
  5
7287
330
CDC
100
AcDbEntity
  8
1
100
AcDbLine
 10
-1489.467861247094
 20
2129.796339566809
 30
0.0
 11
-1523.071311502048
 21
2129.796339566809
 31
0.0
  0
LINE
  5
7288
330
CDC
100
AcDbEntity
  8
1
100
AcDbLine
 10
-1494.467099722873
 20
2034.853547200098
 30
0.0
 11
-1523.071311502048
 21
2034.853547200098
 31
0.0
  0
LINE
  5
7289
330
CDC
100
AcDbEntity
  8
1
100
AcDbLine
 10
-1518.071311502048
 20
2119.796339566809
 30
0.0
 11
-1518.071311502048
 21
2044.853547200098
 31
0.0
  0
SOLID
  5
728A
330
CDC
100
AcDbEntity
  8
1
100
AcDbTrace
 10
-1519.737978168715
 20
2119.796339566809
 30
0.0
 11
-1516.404644835381
 21
2119.796339566809
 31
0.0
 12
-1518.071311502048
 22
2129.796339566809
 32
0.0
 13
-1518.071311502048
 23
2129.796339566809
 33
0.0
  0
SOLID
  5
728B
330
CDC
100
AcDbEntity
  8
1
100
AcDbTrace
 10
-1519.737978168715
 20
2044.853547200098
 30
0.0
 11
-1516.404644835381
 21
2044.853547200098
 31
0.0
 12
-1518.071311502048
 22
2034.853547200098
 32
0.0
 13
-1518.071311502048
 23
2034.853547200098
 33
0.0
  0
MTEXT
  5
728C
330
CDC
100
AcDbEntity
  8
1
100
AcDbMText
 10
-1529.414494846575
 20
2082.324943383452
 30
0.0
 40
10.0
 41
0.0
 71
     5
 72
     1
  1
94,9
  7
SANINDUSA
 11
0.0000000000000001
 21
1.0
 31
0.0
 73
     1
 44
1.0
1001
ACAD
1000
MTEXTBEGIN
1070
    73
1070
     1
1070
    44
1040
1.0
1070
    74
1070
     0
1000
MTEXTEND
  0
POINT
  5
728D
330
CDC
100
AcDbEntity
  8
Defpoints
 62
     0
100
AcDbPoint
 10
-1484.467861247094
 20
2129.796339566809
 30
0.0
  0
POINT
  5
728E
330
CDC
100
AcDbEntity
  8
Defpoints
 62
     0
100
AcDbPoint
 10
-1489.467099722873
 20
2034.853547200098
 30
0.0
  0
POINT
  5
728F
330
CDC
100
AcDbEntity
  8
Defpoints
 62
     0
100
AcDbPoint
 10
-1518.071311502048
 20
2034.853547200098
 30
0.0
  0
ENDBLK
  5
CE7
330
CDC
100
AcDbEntity
  8
0
100
AcDbBlockEnd
  0
BLOCK
  5
D10
330
D06
100
AcDbEntity
  8
0
100
AcDbBlockBegin
  2
*D101
 70
     1
 10
0.0
 20
0.0
 30
0.0
  3
*D101
  1

  0
LINE
  5
7442
330
D06
100
AcDbEntity
  8
cotas
100
AcDbLine
 10
2819.738425405613
 20
1782.636223090694
 30
0.0
 11
2819.738425405613
 21
1812.636223090694
 31
0.0
  0
LINE
  5
7443
330
D06
100
AcDbEntity
  8
cotas
100
AcDbLine
 10
2749.738425129284
 20
1782.636223090694
 30
0.0
 11
2749.738425129284
 21
1812.636223090694
 31
0.0
  0
LINE
  5
7444
330
D06
100
AcDbEntity
  8
cotas
100
AcDbLine
 10
2809.738425405612
 20
1807.636223090694
 30
0.0
 11
2759.738425129285
 21
1807.636223090694
 31
0.0
  0
SOLID
  5
7445
330
D06
100
AcDbEntity
  8
cotas
100
AcDbTrace
 10
2809.738425405612
 20
1809.302889757361
 30
0.0
 11
2809.738425405612
 21
1805.969556424027
 31
0.0
 12
2819.738425405613
 22
1807.636223090694
 32
0.0
 13
2819.738425405613
 23
1807.636223090694
 33
0.0
  0
SOLID
  5
7446
330
D06
100
AcDbEntity
  8
cotas
100
AcDbTrace
 10
2759.738425129285
 20
1809.302889757361
 30
0.0
 11
2759.738425129285
 21
1805.969556424027
 31
0.0
 12
2749.738425129284
 22
1807.636223090694
 32
0.0
 13
2749.738425129284
 23
1807.636223090694
 33
0.0
  0
MTEXT
  5
7447
330
D06
100
AcDbEntity
  8
cotas
100
AcDbMText
 10
2784.738425267449
 20
1817.841058550735
 30
0.0
 40
10.0
 41
0.0
 71
     5
 72
     1
  1
70
  7
SANINDUSA
 73
     1
 44
1.0
1001
ACAD
1000
MTEXTBEGIN
1070
    73
1070
     1
1070
    44
1040
1.0
1070
    74
1070
     0
1000
MTEXTEND
  0
POINT
  5
7448
330
D06
100
AcDbEntity
  8
Defpoints
 62
     0
100
AcDbPoint
 10
2819.738425405613
 20
1777.636223090694
 30
0.0
  0
POINT
  5
7449
330
D06
100
AcDbEntity
  8
Defpoints
 62
     0
100
AcDbPoint
 10
2749.738425129284
 20
1777.636223090694
 30
0.0
  0
POINT
  5
744A
330
D06
100
AcDbEntity
  8
Defpoints
 62
     0
100
AcDbPoint
 10
2749.738425129284
 20
1807.636223090694
 30
0.0
  0
ENDBLK
  5
D11
330
D06
100
AcDbEntity
  8
0
100
AcDbBlockEnd
  0
BLOCK
  5
D1D
330
D12
100
AcDbEntity
  8
0
100
AcDbBlockBegin
  2
*D102
 70
     1
 10
0.0
 20
0.0
 30
0.0
  3
*D102
  1

  0
LINE
  5
7438
330
D12
100
AcDbEntity
  8
cotas
100
AcDbLine
 10
2819.738425405613
 20
1782.636223090694
 30
0.0
 11
2819.738425405613
 21
1812.636223090694
 31
0.0
  0
LINE
  5
7439
330
D12
100
AcDbEntity
  8
cotas
100
AcDbLine
 10
2852.14522623144
 20
1723.06157300263
 30
0.0
 11
2852.14522623144
 21
1812.636223090694
 31
0.0
  0
LINE
  5
743A
330
D12
100
AcDbEntity
  8
cotas
100
AcDbLine
 10
2829.738425405612
 20
1807.636223090694
 30
0.0
 11
2842.14522623144
 21
1807.636223090694
 31
0.0
  0
LINE
  5
743B
330
D12
100
AcDbEntity
  8
cotas
100
AcDbLine
 10
2852.14522623144
 20
1807.636223090694
 30
0.0
 11
2901.594521060184
 21
1807.636223090694
 31
0.0
  0
SOLID
  5
743C
330
D12
100
AcDbEntity
  8
cotas
100
AcDbTrace
 10
2829.738425405612
 20
1809.302889757361
 30
0.0
 11
2829.738425405612
 21
1805.969556424027
 31
0.0
 12
2819.738425405613
 22
1807.636223090694
 32
0.0
 13
2819.738425405613
 23
1807.636223090694
 33
0.0
  0
SOLID
  5
743D
330
D12
100
AcDbEntity
  8
cotas
100
AcDbTrace
 10
2842.14522623144
 20
1809.302889757361
 30
0.0
 11
2842.14522623144
 21
1805.969556424027
 31
0.0
 12
2852.14522623144
 22
1807.636223090694
 32
0.0
 13
2852.14522623144
 23
1807.636223090694
 33
0.0
  0
MTEXT
  5
743E
330
D12
100
AcDbEntity
  8
cotas
100
AcDbMText
 10
2881.869873645812
 20
1818.982764393582
 30
0.0
 40
10.0
 41
0.0
 71
     5
 72
     1
  1
32,4
  7
SANINDUSA
 73
     1
 44
1.0
1001
ACAD
1000
MTEXTBEGIN
1070
    73
1070
     1
1070
    44
1040
1.0
1070
    74
1070
     0
1000
MTEXTEND
  0
POINT
  5
743F
330
D12
100
AcDbEntity
  8
Defpoints
 62
     0
100
AcDbPoint
 10
2819.738425405613
 20
1777.636223090694
 30
0.0
  0
POINT
  5
7440
330
D12
100
AcDbEntity
  8
Defpoints
 62
     0
100
AcDbPoint
 10
2852.14522623144
 20
1718.06157300263
 30
0.0
  0
POINT
  5
7441
330
D12
100
AcDbEntity
  8
Defpoints
 62
     0
100
AcDbPoint
 10
2852.14522623144
 20
1807.636223090694
 30
0.0
  0
ENDBLK
  5
D1E
330
D12
100
AcDbEntity
  8
0
100
AcDbBlockEnd
  0
BLOCK
  5
D29
330
D1F
100
AcDbEntity
  8
0
100
AcDbBlockBegin
  2
*D103
 70
     1
 10
0.0
 20
0.0
 30
0.0
  3
*D103
  1

  0
LINE
  5
742F
330
D1F
100
AcDbEntity
  8
cotas
100
AcDbLine
 10
2852.23248832545
 20
1723.060811477333
 30
0.0
 11
2852.644563813175
 21
1746.668583627084
 31
0.0
  0
LINE
  5
7430
330
D1F
100
AcDbEntity
  8
cotas
100
AcDbLine
 10
3114.192584399877
 20
1718.488277751176
 30
0.0
 11
3114.604659887601
 21
1742.096049900927
 31
0.0
  0
LINE
  5
7431
330
D1F
100
AcDbEntity
  8
cotas
100
AcDbLine
 10
2862.55577866857
 20
1741.49482096436
 30
0.0
 11
3104.518920844185
 21
1737.271335614245
 31
0.0
  0
SOLID
  5
7432
330
D1F
100
AcDbEntity
  8
cotas
100
AcDbTrace
 10
2862.58486603324
 20
1743.16123378926
 30
0.0
 11
2862.5266913039
 21
1739.828408139458
 31
0.0
 12
2852.557301719164
 22
1741.669345152381
 32
0.0
 13
2852.557301719164
 23
1741.669345152381
 33
0.0
  0
SOLID
  5
7433
330
D1F
100
AcDbEntity
  8
cotas
100
AcDbTrace
 10
3104.548008208855
 20
1738.937748439146
 30
0.0
 11
3104.489833479515
 21
1735.604922789345
 31
0.0
 12
3114.51739779359
 22
1737.096811426224
 32
0.0
 13
3114.51739779359
 23
1737.096811426224
 33
0.0
  0
MTEXT
  5
7434
330
D1F
100
AcDbEntity
  8
cotas
100
AcDbMText
 10
2983.715507423129
 20
1749.589716948199
 30
0.0
 40
10.0
 41
0.0
 71
     5
 72
     1
  1
262
  7
SANINDUSA
 11
0.9998476949405622
 21
-0.0174524188021244
 31
0.0
 73
     1
 44
1.0
1001
ACAD
1000
MTEXTBEGIN
1070
    73
1070
     1
1070
    44
1040
1.0
1070
    74
1070
     0
1000
MTEXTEND
  0
POINT
  5
7435
330
D1F
100
AcDbEntity
  8
Defpoints
 62
     0
100
AcDbPoint
 10
2852.14522623144
 20
1718.06157300263
 30
0.0
  0
POINT
  5
7436
330
D1F
100
AcDbEntity
  8
Defpoints
 62
     0
100
AcDbPoint
 10
3114.105322305866
 20
1713.489039276473
 30
0.0
  0
POINT
  5
7437
330
D1F
100
AcDbEntity
  8
Defpoints
 62
     0
100
AcDbPoint
 10
3114.51739779359
 20
1737.096811426224
 30
0.0
  0
ENDBLK
  5
D2A
330
D1F
100
AcDbEntity
  8
0
100
AcDbBlockEnd
  0
BLOCK
  5
D40
330
D34
100
AcDbEntity
  8
0
100
AcDbBlockBegin
  2
*D104
 70
     1
 10
0.0
 20
0.0
 30
0.0
  3
*D104
  1

  0
LINE
  5
741B
330
D34
100
AcDbEntity
  8
cotas
100
AcDbLine
 10
3119.105322305867
 20
1713.489039276473
 30
0.0
 11
3168.591087980324
 21
1713.489039276473
 31
0.0
  0
LINE
  5
741C
330
D34
100
AcDbEntity
  8
cotas
100
AcDbLine
 10
3119.105322305867
 20
1691.470223592359
 30
0.0
 11
3168.591087980324
 21
1691.470223592359
 31
0.0
  0
LINE
  5
741D
330
D34
100
AcDbEntity
  8
cotas
100
AcDbLine
 10
3163.591087980324
 20
1723.489039276473
 30
0.0
 11
3163.591087980324
 21
1733.489039276473
 31
0.0
  0
LINE
  5
741E
330
D34
100
AcDbEntity
  8
cotas
100
AcDbLine
 10
3163.591087980324
 20
1681.470223592359
 30
0.0
 11
3163.591087980324
 21
1645.956455963078
 31
0.0
  0
LINE
  5
741F
330
D34
100
AcDbEntity
  8
cotas
100
AcDbLine
 10
3163.591087980324
 20
1713.489039276473
 30
0.0
 11
3163.591087980324
 21
1691.470223592359
 31
0.0
  0
SOLID
  5
7420
330
D34
100
AcDbEntity
  8
cotas
100
AcDbTrace
 10
3161.924421313657
 20
1723.489039276473
 30
0.0
 11
3165.25775464699
 21
1723.489039276473
 31
0.0
 12
3163.591087980324
 22
1713.489039276473
 32
0.0
 13
3163.591087980324
 23
1713.489039276473
 33
0.0
  0
SOLID
  5
7421
330
D34
100
AcDbEntity
  8
cotas
100
AcDbTrace
 10
3161.924421313657
 20
1681.470223592359
 30
0.0
 11
3165.25775464699
 21
1681.470223592359
 31
0.0
 12
3163.591087980324
 22
1691.470223592359
 32
0.0
 13
3163.591087980324
 23
1691.470223592359
 33
0.0
  0
MTEXT
  5
7422
330
D34
100
AcDbEntity
  8
cotas
100
AcDbMText
 10
3153.486991271122
 20
1658.713339777719
 30
0.0
 40
10.0
 41
0.0
 71
     5
 72
     1
  1
22
  7
SANINDUSA
 11
0.0000000000000001
 21
1.0
 31
0.0
 73
     1
 44
1.0
1001
ACAD
1000
MTEXTBEGIN
1070
    73
1070
     1
1070
    44
1040
1.0
1070
    74
1070
     0
1000
MTEXTEND
  0
POINT
  5
7423
330
D34
100
AcDbEntity
  8
Defpoints
 62
     0
100
AcDbPoint
 10
3114.105322305866
 20
1713.489039276473
 30
0.0
  0
POINT
  5
7424
330
D34
100
AcDbEntity
  8
Defpoints
 62
     0
100
AcDbPoint
 10
3114.105322305866
 20
1691.470223592359
 30
0.0
  0
POINT
  5
7425
330
D34
100
AcDbEntity
  8
Defpoints
 62
     0
100
AcDbPoint
 10
3163.591087980324
 20
1691.470223592359
 30
0.0
  0
ENDBLK
  5
D41
330
D34
100
AcDbEntity
  8
0
100
AcDbBlockEnd
  0
BLOCK
  5
D4E
330
D42
100
AcDbEntity
  8
0
100
AcDbBlockBegin
  2
*D105
 70
     1
 10
0.0
 20
0.0
 30
0.0
  3
*D105
  1

  0
LINE
  5
7410
330
D42
100
AcDbEntity
  8
cotas
100
AcDbLine
 10
2847.14522623144
 20
1718.06157300263
 30
0.0
 11
2714.040222548775
 21
1718.06157300263
 31
0.0
  0
LINE
  5
7411
330
D42
100
AcDbEntity
  8
cotas
100
AcDbLine
 10
2847.145226231439
 20
1708.060049644974
 30
0.0
 11
2714.040222548775
 21
1708.060049644974
 31
0.0
  0
LINE
  5
7412
330
D42
100
AcDbEntity
  8
cotas
100
AcDbLine
 10
2719.040222548774
 20
1728.06157300263
 30
0.0
 11
2719.040222548774
 21
1738.06157300263
 31
0.0
  0
LINE
  5
7413
330
D42
100
AcDbEntity
  8
cotas
100
AcDbLine
 10
2719.040222548774
 20
1698.060049644974
 30
0.0
 11
2719.040222548774
 21
1663.345476105686
 31
0.0
  0
LINE
  5
7414
330
D42
100
AcDbEntity
  8
cotas
100
AcDbLine
 10
2719.040222548774
 20
1718.06157300263
 30
0.0
 11
2719.040222548774
 21
1708.060049644974
 31
0.0
  0
SOLID
  5
7415
330
D42
100
AcDbEntity
  8
cotas
100
AcDbTrace
 10
2717.373555882108
 20
1728.06157300263
 30
0.0
 11
2720.706889215441
 21
1728.06157300263
 31
0.0
 12
2719.040222548774
 22
1718.06157300263
 32
0.0
 13
2719.040222548774
 23
1718.06157300263
 33
0.0
  0
SOLID
  5
7416
330
D42
100
AcDbEntity
  8
cotas
100
AcDbTrace
 10
2717.373555882108
 20
1698.060049644974
 30
0.0
 11
2720.706889215441
 21
1698.060049644974
 31
0.0
 12
2719.040222548774
 22
1708.060049644974
 32
0.0
 13
2719.040222548774
 23
1708.060049644974
 33
0.0
  0
MTEXT
  5
7417
330
D42
100
AcDbEntity
  8
cotas
100
AcDbMText
 10
2708.835387088734
 20
1675.70276287533
 30
0.0
 40
10.0
 41
0.0
 71
     5
 72
     1
  1
10
  7
SANINDUSA
 11
0.0000000000000001
 21
1.0
 31
0.0
 73
     1
 44
1.0
1001
ACAD
1000
MTEXTBEGIN
1070
    73
1070
     1
1070
    44
1040
1.0
1070
    74
1070
     0
1000
MTEXTEND
  0
POINT
  5
7418
330
D42
100
AcDbEntity
  8
Defpoints
 62
     0
100
AcDbPoint
 10
2852.14522623144
 20
1718.06157300263
 30
0.0
  0
POINT
  5
7419
330
D42
100
AcDbEntity
  8
Defpoints
 62
     0
100
AcDbPoint
 10
2852.145226231439
 20
1708.060049644974
 30
0.0
  0
POINT
  5
741A
330
D42
100
AcDbEntity
  8
Defpoints
 62
     0
100
AcDbPoint
 10
2719.040222548774
 20
1708.060049644974
 30
0.0
  0
ENDBLK
  5
D4F
330
D42
100
AcDbEntity
  8
0
100
AcDbBlockEnd
  0
BLOCK
  5
D91
330
D87
100
AcDbEntity
  8
0
100
AcDbBlockBegin
  2
*D106
 70
     1
 10
0.0
 20
0.0
 30
0.0
  3
*D106
  1

  0
LINE
  5
73D0
330
D87
100
AcDbEntity
  8
cotas
100
AcDbLine
 10
3949.7384139348
 20
1782.636223090694
 30
0.0
 11
3949.7384139348
 21
1812.636223090694
 31
0.0
  0
LINE
  5
73D1
330
D87
100
AcDbEntity
  8
cotas
100
AcDbLine
 10
3879.738436112673
 20
1782.636223090694
 30
0.0
 11
3879.738436112673
 21
1812.636223090694
 31
0.0
  0
LINE
  5
73D2
330
D87
100
AcDbEntity
  8
cotas
100
AcDbLine
 10
3939.7384139348
 20
1807.636223090694
 30
0.0
 11
3889.738436112672
 21
1807.636223090694
 31
0.0
  0
SOLID
  5
73D3
330
D87
100
AcDbEntity
  8
cotas
100
AcDbTrace
 10
3939.7384139348
 20
1809.302889757361
 30
0.0
 11
3939.7384139348
 21
1805.969556424027
 31
0.0
 12
3949.7384139348
 22
1807.636223090694
 32
0.0
 13
3949.7384139348
 23
1807.636223090694
 33
0.0
  0
SOLID
  5
73D4
330
D87
100
AcDbEntity
  8
cotas
100
AcDbTrace
 10
3889.738436112672
 20
1809.302889757361
 30
0.0
 11
3889.738436112672
 21
1805.969556424027
 31
0.0
 12
3879.738436112673
 22
1807.636223090694
 32
0.0
 13
3879.738436112673
 23
1807.636223090694
 33
0.0
  0
MTEXT
  5
73D5
330
D87
100
AcDbEntity
  8
cotas
100
AcDbMText
 10
3914.738425023736
 20
1817.841058550735
 30
0.0
 40
10.0
 41
0.0
 71
     5
 72
     1
  1
70
  7
SANINDUSA
 73
     1
 44
1.0
1001
ACAD
1000
MTEXTBEGIN
1070
    73
1070
     1
1070
    44
1040
1.0
1070
    74
1070
     0
1000
MTEXTEND
  0
POINT
  5
73D6
330
D87
100
AcDbEntity
  8
Defpoints
 62
     0
100
AcDbPoint
 10
3949.7384139348
 20
1777.636223090694
 30
0.0
  0
POINT
  5
73D7
330
D87
100
AcDbEntity
  8
Defpoints
 62
     0
100
AcDbPoint
 10
3879.738436112673
 20
1777.636223090694
 30
0.0
  0
POINT
  5
73D8
330
D87
100
AcDbEntity
  8
Defpoints
 62
     0
100
AcDbPoint
 10
3879.738436112673
 20
1807.636223090694
 30
0.0
  0
ENDBLK
  5
D92
330
D87
100
AcDbEntity
  8
0
100
AcDbBlockEnd
  0
BLOCK
  5
D9D
330
D93
100
AcDbEntity
  8
0
100
AcDbBlockBegin
  2
*D107
 70
     1
 10
0.0
 20
0.0
 30
0.0
  3
*D107
  1

  0
LINE
  5
73C7
330
D93
100
AcDbEntity
  8
cotas
100
AcDbLine
 10
3949.7384139348
 20
1782.636223090694
 30
0.0
 11
3949.7384139348
 21
1842.631223046452
 31
0.0
  0
LINE
  5
73C8
330
D93
100
AcDbEntity
  8
cotas
100
AcDbLine
 10
3769.738435858254
 20
1706.530902238083
 30
0.0
 11
3769.738435858254
 21
1842.631223046452
 31
0.0
  0
LINE
  5
73C9
330
D93
100
AcDbEntity
  8
cotas
100
AcDbLine
 10
3939.7384139348
 20
1837.631223046452
 30
0.0
 11
3779.738435858254
 21
1837.631223046452
 31
0.0
  0
SOLID
  5
73CA
330
D93
100
AcDbEntity
  8
cotas
100
AcDbTrace
 10
3939.7384139348
 20
1839.297889713118
 30
0.0
 11
3939.7384139348
 21
1835.964556379785
 31
0.0
 12
3949.7384139348
 22
1837.631223046452
 32
0.0
 13
3949.7384139348
 23
1837.631223046452
 33
0.0
  0
SOLID
  5
73CB
330
D93
100
AcDbEntity
  8
cotas
100
AcDbTrace
 10
3779.738435858254
 20
1839.297889713118
 30
0.0
 11
3779.738435858254
 21
1835.964556379785
 31
0.0
 12
3769.738435858254
 22
1837.631223046452
 32
0.0
 13
3769.738435858254
 23
1837.631223046452
 33
0.0
  0
MTEXT
  5
73CC
330
D93
100
AcDbEntity
  8
cotas
100
AcDbMText
 10
3859.738424896527
 20
1847.859564215021
 30
0.0
 40
10.0
 41
0.0
 71
     5
 72
     1
  1
180
  7
SANINDUSA
 73
     1
 44
1.0
1001
ACAD
1000
MTEXTBEGIN
1070
    73
1070
     1
1070
    44
1040
1.0
1070
    74
1070
     0
1000
MTEXTEND
  0
POINT
  5
73CD
330
D93
100
AcDbEntity
  8
Defpoints
 62
     0
100
AcDbPoint
 10
3949.7384139348
 20
1777.636223090694
 30
0.0
  0
POINT
  5
73CE
330
D93
100
AcDbEntity
  8
Defpoints
 62
     0
100
AcDbPoint
 10
3769.738435858254
 20
1701.530902238083
 30
0.0
  0
POINT
  5
73CF
330
D93
100
AcDbEntity
  8
Defpoints
 62
     0
100
AcDbPoint
 10
3769.738435858254
 20
1837.631223046452
 30
0.0
  0
ENDBLK
  5
D9E
330
D93
100
AcDbEntity
  8
0
100
AcDbBlockEnd
  0
BLOCK
  5
DC1
330
DB7
100
AcDbEntity
  8
0
100
AcDbBlockBegin
  2
*D108
 70
     1
 10
0.0
 20
0.0
 30
0.0
  3
*D108
  1

  0
LINE
  5
73A6
330
DB7
100
AcDbEntity
  8
cotas
100
AcDbLine
 10
1326.345349742152
 20
1782.636220408485
 30
0.0
 11
1326.345349742152
 21
1812.636220408485
 31
0.0
  0
LINE
  5
73A7
330
DB7
100
AcDbEntity
  8
cotas
100
AcDbLine
 10
2526.345338547667
 20
1782.636220408485
 30
0.0
 11
2526.345338547667
 21
1812.636220408485
 31
0.0
  0
LINE
  5
73A8
330
DB7
100
AcDbEntity
  8
cotas
100
AcDbLine
 10
1336.345349742152
 20
1807.636220408485
 30
0.0
 11
2516.345338547667
 21
1807.636220408485
 31
0.0
  0
SOLID
  5
73A9
330
DB7
100
AcDbEntity
  8
cotas
100
AcDbTrace
 10
1336.345349742152
 20
1809.302887075151
 30
0.0
 11
1336.345349742152
 21
1805.969553741818
 31
0.0
 12
1326.345349742152
 22
1807.636220408485
 32
0.0
 13
1326.345349742152
 23
1807.636220408485
 33
0.0
  0
SOLID
  5
73AA
330
DB7
100
AcDbEntity
  8
cotas
100
AcDbTrace
 10
2516.345338547667
 20
1809.302887075151
 30
0.0
 11
2516.345338547667
 21
1805.969553741818
 31
0.0
 12
2526.345338547667
 22
1807.636220408485
 32
0.0
 13
2526.345338547667
 23
1807.636220408485
 33
0.0
  0
MTEXT
  5
73AB
330
DB7
100
AcDbEntity
  8
cotas
100
AcDbMText
 10
1926.34534414491
 20
1817.844413826887
 30
0.0
 40
10.0
 41
0.0
 71
     5
 72
     1
  1
1200
  7
SANINDUSA
 73
     1
 44
1.0
1001
ACAD
1000
MTEXTBEGIN
1070
    73
1070
     1
1070
    44
1040
1.0
1070
    74
1070
     0
1000
MTEXTEND
  0
POINT
  5
73AC
330
DB7
100
AcDbEntity
  8
Defpoints
 62
     0
100
AcDbPoint
 10
1326.345349742152
 20
1777.636220408485
 30
0.0
  0
POINT
  5
73AD
330
DB7
100
AcDbEntity
  8
Defpoints
 62
     0
100
AcDbPoint
 10
2526.345338547667
 20
1777.636220408485
 30
0.0
  0
POINT
  5
73AE
330
DB7
100
AcDbEntity
  8
Defpoints
 62
     0
100
AcDbPoint
 10
2526.345338547667
 20
1807.636220408485
 30
0.0
  0
ENDBLK
  5
DC2
330
DB7
100
AcDbEntity
  8
0
100
AcDbBlockEnd
  0
BLOCK
  5
DFD
330
DF3
100
AcDbEntity
  8
0
100
AcDbBlockBegin
  2
*D109
 70
     1
 10
0.0
 20
0.0
 30
0.0
  3
*D109
  1

  0
LINE
  5
736D
330
DF3
100
AcDbEntity
  8
cotas
100
AcDbLine
 10
-287.4468687439549
 20
2127.778245065831
 30
0.0
 11
-287.4468687439549
 21
2163.399916742467
 31
0.0
  0
LINE
  5
736E
330
DF3
100
AcDbEntity
  8
cotas
100
AcDbLine
 10
-467.4161107171985
 20
2125.822855089329
 30
0.0
 11
-467.4161107171985
 21
2163.399916742467
 31
0.0
  0
LINE
  5
736F
330
DF3
100
AcDbEntity
  8
cotas
100
AcDbLine
 10
-297.4468687439548
 20
2158.399916742467
 30
0.0
 11
-457.4161107171985
 21
2158.399916742467
 31
0.0
  0
SOLID
  5
7370
330
DF3
100
AcDbEntity
  8
cotas
100
AcDbTrace
 10
-297.4468687439548
 20
2160.066583409134
 30
0.0
 11
-297.4468687439548
 21
2156.7332500758
 31
0.0
 12
-287.4468687439549
 22
2158.399916742467
 32
0.0
 13
-287.4468687439549
 23
2158.399916742467
 33
0.0
  0
SOLID
  5
7371
330
DF3
100
AcDbEntity
  8
cotas
100
AcDbTrace
 10
-457.4161107171985
 20
2160.066583409134
 30
0.0
 11
-457.4161107171985
 21
2156.7332500758
 31
0.0
 12
-467.4161107171985
 22
2158.399916742467
 32
0.0
 13
-467.4161107171985
 23
2158.399916742467
 33
0.0
  0
MTEXT
  5
7372
330
DF3
100
AcDbEntity
  8
cotas
100
AcDbMText
 10
-377.4314897305767
 20
2168.628257911036
 30
0.0
 40
10.0
 41
0.0
 71
     5
 72
     1
  1
180
  7
SANINDUSA
 73
     1
 44
1.0
1001
ACAD
1000
MTEXTBEGIN
1070
    73
1070
     1
1070
    44
1040
1.0
1070
    74
1070
     0
1000
MTEXTEND
  0
POINT
  5
7373
330
DF3
100
AcDbEntity
  8
Defpoints
 62
     0
100
AcDbPoint
 10
-287.4468687439549
 20
2122.778245065831
 30
0.0
  0
POINT
  5
7374
330
DF3
100
AcDbEntity
  8
Defpoints
 62
     0
100
AcDbPoint
 10
-467.4161107171985
 20
2120.822855089329
 30
-0.000000000000021
  0
POINT
  5
7375
330
DF3
100
AcDbEntity
  8
Defpoints
 62
     0
100
AcDbPoint
 10
-467.4161107171985
 20
2158.399916742467
 30
0.0
  0
ENDBLK
  5
DFE
330
DF3
100
AcDbEntity
  8
0
100
AcDbBlockEnd
  0
BLOCK
  5
E09
330
DFF
100
AcDbEntity
  8
0
100
AcDbBlockBegin
  2
*D110
 70
     1
 10
0.0
 20
0.0
 30
0.0
  3
*D110
  1

  0
LINE
  5
7364
330
DFF
100
AcDbEntity
  8
cotas
100
AcDbLine
 10
-467.4118688965427
 20
2133.399916742467
 30
0.0
 11
-467.4118688965427
 21
2163.399916742467
 31
0.0
  0
LINE
  5
7365
330
DFF
100
AcDbEntity
  8
cotas
100
AcDbLine
 10
-615.8335174224666
 20
1998.151890051392
 30
0.0
 11
-615.8335174224666
 21
2163.399916742467
 31
0.0
  0
LINE
  5
7366
330
DFF
100
AcDbEntity
  8
cotas
100
AcDbLine
 10
-477.4118688965427
 20
2158.399916742467
 30
0.0
 11
-605.8335174224667
 21
2158.399916742467
 31
0.0
  0
SOLID
  5
7367
330
DFF
100
AcDbEntity
  8
cotas
100
AcDbTrace
 10
-477.4118688965427
 20
2160.066583409134
 30
0.0
 11
-477.4118688965427
 21
2156.7332500758
 31
0.0
 12
-467.4118688965427
 22
2158.399916742467
 32
0.0
 13
-467.4118688965427
 23
2158.399916742467
 33
0.0
  0
SOLID
  5
7368
330
DFF
100
AcDbEntity
  8
cotas
100
AcDbTrace
 10
-605.8335174224667
 20
2160.066583409134
 30
0.0
 11
-605.8335174224667
 21
2156.7332500758
 31
0.0
 12
-615.8335174224666
 22
2158.399916742467
 32
0.0
 13
-615.8335174224666
 23
2158.399916742467
 33
0.0
  0
MTEXT
  5
7369
330
DFF
100
AcDbEntity
  8
cotas
100
AcDbMText
 10
-541.6226931595047
 20
2169.756531920439
 30
0.0
 40
10.0
 41
0.0
 71
     5
 72
     1
  1
148,4
  7
SANINDUSA
 73
     1
 44
1.0
1001
ACAD
1000
MTEXTBEGIN
1070
    73
1070
     1
1070
    44
1040
1.0
1070
    74
1070
     0
1000
MTEXTEND
  0
POINT
  5
736A
330
DFF
100
AcDbEntity
  8
Defpoints
 62
     0
100
AcDbPoint
 10
-467.4118688965427
 20
2128.399916742466
 30
0.0
  0
POINT
  5
736B
330
DFF
100
AcDbEntity
  8
Defpoints
 62
     0
100
AcDbPoint
 10
-615.8335174224666
 20
1993.151890051392
 30
0.0
  0
POINT
  5
736C
330
DFF
100
AcDbEntity
  8
Defpoints
 62
     0
100
AcDbPoint
 10
-615.8335174224666
 20
2158.399916742467
 30
0.0
  0
ENDBLK
  5
E0A
330
DFF
100
AcDbEntity
  8
0
100
AcDbBlockEnd
  0
BLOCK
  5
E15
330
E0B
100
AcDbEntity
  8
0
100
AcDbBlockBegin
  2
*D111
 70
     1
 10
0.0
 20
0.0
 30
0.0
  3
*D111
  1

  0
LINE
  5
735B
330
E0B
100
AcDbEntity
  8
cotas
100
AcDbLine
 10
-615.8335174224666
 20
1998.151890051392
 30
0.0
 11
-615.8335174224666
 21
2163.399916742467
 31
0.0
  0
LINE
  5
735C
330
E0B
100
AcDbEntity
  8
cotas
100
AcDbLine
 10
-695.8005067157101
 20
1998.140267798205
 30
0.0
 11
-695.8005067157101
 21
2163.399916742467
 31
0.0
  0
LINE
  5
735D
330
E0B
100
AcDbEntity
  8
cotas
100
AcDbLine
 10
-625.8335174224667
 20
2158.399916742467
 30
0.0
 11
-685.80050671571
 21
2158.399916742467
 31
0.0
  0
SOLID
  5
735E
330
E0B
100
AcDbEntity
  8
cotas
100
AcDbTrace
 10
-625.8335174224667
 20
2160.066583409134
 30
0.0
 11
-625.8335174224667
 21
2156.7332500758
 31
0.0
 12
-615.8335174224666
 22
2158.399916742467
 32
0.0
 13
-615.8335174224666
 23
2158.399916742467
 33
0.0
  0
SOLID
  5
735F
330
E0B
100
AcDbEntity
  8
cotas
100
AcDbTrace
 10
-685.80050671571
 20
2160.066583409134
 30
0.0
 11
-685.80050671571
 21
2156.7332500758
 31
0.0
 12
-695.8005067157101
 22
2158.399916742467
 32
0.0
 13
-695.8005067157101
 23
2158.399916742467
 33
0.0
  0
MTEXT
  5
7360
330
E0B
100
AcDbEntity
  8
cotas
100
AcDbMText
 10
-655.8170120690883
 20
2168.628257911036
 30
0.0
 40
10.0
 41
0.0
 71
     5
 72
     1
  1
80
  7
SANINDUSA
 73
     1
 44
1.0
1001
ACAD
1000
MTEXTBEGIN
1070
    73
1070
     1
1070
    44
1040
1.0
1070
    74
1070
     0
1000
MTEXTEND
  0
POINT
  5
7361
330
E0B
100
AcDbEntity
  8
Defpoints
 62
     0
100
AcDbPoint
 10
-615.8335174224666
 20
1993.151890051392
 30
0.0
  0
POINT
  5
7362
330
E0B
100
AcDbEntity
  8
Defpoints
 62
     0
100
AcDbPoint
 10
-695.8005067157101
 20
1993.140267798205
 30
0.0
  0
POINT
  5
7363
330
E0B
100
AcDbEntity
  8
Defpoints
 62
     0
100
AcDbPoint
 10
-695.8005067157101
 20
2158.399916742467
 30
0.0
  0
ENDBLK
  5
E16
330
E0B
100
AcDbEntity
  8
0
100
AcDbBlockEnd
  0
BLOCK
  5
E21
330
E17
100
AcDbEntity
  8
0
100
AcDbBlockBegin
  2
*D112
 70
     1
 10
0.0
 20
0.0
 30
0.0
  3
*D112
  1

  0
LINE
  5
7352
330
E17
100
AcDbEntity
  8
cotas
100
AcDbLine
 10
-695.8005067157101
 20
1998.140267798205
 30
0.0
 11
-695.8005067157101
 21
2163.399916742467
 31
0.0
  0
LINE
  5
7353
330
E17
100
AcDbEntity
  8
cotas
100
AcDbLine
 10
-775.7150899343289
 20
1998.133333468581
 30
0.0
 11
-775.7150899343289
 21
2163.399916742467
 31
0.0
  0
LINE
  5
7354
330
E17
100
AcDbEntity
  8
cotas
100
AcDbLine
 10
-705.80050671571
 20
2158.399916742467
 30
0.0
 11
-765.7150899343289
 21
2158.399916742467
 31
0.0
  0
SOLID
  5
7355
330
E17
100
AcDbEntity
  8
cotas
100
AcDbTrace
 10
-705.80050671571
 20
2160.066583409134
 30
0.0
 11
-705.80050671571
 21
2156.7332500758
 31
0.0
 12
-695.8005067157101
 22
2158.399916742467
 32
0.0
 13
-695.8005067157101
 23
2158.399916742467
 33
0.0
  0
SOLID
  5
7356
330
E17
100
AcDbEntity
  8
cotas
100
AcDbTrace
 10
-765.7150899343289
 20
2160.066583409134
 30
0.0
 11
-765.7150899343289
 21
2156.7332500758
 31
0.0
 12
-775.7150899343289
 22
2158.399916742467
 32
0.0
 13
-775.7150899343289
 23
2158.399916742467
 33
0.0
  0
MTEXT
  5
7357
330
E17
100
AcDbEntity
  8
cotas
100
AcDbMText
 10
-735.7577983250195
 20
2168.628257911036
 30
0.0
 40
10.0
 41
0.0
 71
     5
 72
     1
  1
80
  7
SANINDUSA
 73
     1
 44
1.0
1001
ACAD
1000
MTEXTBEGIN
1070
    73
1070
     1
1070
    44
1040
1.0
1070
    74
1070
     0
1000
MTEXTEND
  0
POINT
  5
7358
330
E17
100
AcDbEntity
  8
Defpoints
 62
     0
100
AcDbPoint
 10
-695.8005067157101
 20
1993.140267798205
 30
0.0
  0
POINT
  5
7359
330
E17
100
AcDbEntity
  8
Defpoints
 62
     0
100
AcDbPoint
 10
-775.7150899343289
 20
1993.133333468582
 30
0.0
  0
POINT
  5
735A
330
E17
100
AcDbEntity
  8
Defpoints
 62
     0
100
AcDbPoint
 10
-775.7150899343289
 20
2158.399916742467
 30
0.0
  0
ENDBLK
  5
E22
330
E17
100
AcDbEntity
  8
0
100
AcDbBlockEnd
  0
BLOCK
  5
E3F
330
E35
100
AcDbEntity
  8
0
100
AcDbBlockBegin
  2
*D113
 70
     1
 10
0.0
 20
0.0
 30
0.0
  3
*D113
  1

  0
LINE
  5
7337
330
E35
100
AcDbEntity
  8
cotas
100
AcDbLine
 10
-935.6919582314478
 20
2133.399916742467
 30
0.0
 11
-935.6919582314478
 21
2163.399916742466
 31
0.0
  0
LINE
  5
7338
330
E35
100
AcDbEntity
  8
cotas
100
AcDbLine
 10
-1015.681917630125
 20
1998.13346447162
 30
0.0
 11
-1015.681917630125
 21
2163.399916742466
 31
0.0
  0
LINE
  5
7339
330
E35
100
AcDbEntity
  8
cotas
100
AcDbLine
 10
-945.6919582314478
 20
2158.399916742467
 30
0.0
 11
-1005.681917630125
 21
2158.399916742467
 31
0.0
  0
SOLID
  5
733A
330
E35
100
AcDbEntity
  8
cotas
100
AcDbTrace
 10
-945.6919582314478
 20
2160.066583409133
 30
0.0
 11
-945.6919582314478
 21
2156.7332500758
 31
0.0
 12
-935.6919582314478
 22
2158.399916742467
 32
0.0
 13
-935.6919582314478
 23
2158.399916742467
 33
0.0
  0
SOLID
  5
733B
330
E35
100
AcDbEntity
  8
cotas
100
AcDbTrace
 10
-1005.681917630125
 20
2160.066583409133
 30
0.0
 11
-1005.681917630125
 21
2156.7332500758
 31
0.0
 12
-1015.681917630125
 22
2158.399916742467
 32
0.0
 13
-1015.681917630125
 23
2158.399916742467
 33
0.0
  0
MTEXT
  5
733C
330
E35
100
AcDbEntity
  8
cotas
100
AcDbMText
 10
-975.6869379307866
 20
2168.628257911036
 30
0.0
 40
10.0
 41
0.0
 71
     5
 72
     1
  1
80
  7
SANINDUSA
 73
     1
 44
1.0
1001
ACAD
1000
MTEXTBEGIN
1070
    73
1070
     1
1070
    44
1040
1.0
1070
    74
1070
     0
1000
MTEXTEND
  0
POINT
  5
733D
330
E35
100
AcDbEntity
  8
Defpoints
 62
     0
100
AcDbPoint
 10
-935.6919582314478
 20
2128.399916742466
 30
0.0
  0
POINT
  5
733E
330
E35
100
AcDbEntity
  8
Defpoints
 62
     0
100
AcDbPoint
 10
-1015.681917630125
 20
1993.13346447162
 30
0.0
  0
POINT
  5
733F
330
E35
100
AcDbEntity
  8
Defpoints
 62
     0
100
AcDbPoint
 10
-1015.681917630125
 20
2158.399916742467
 30
0.0
  0
ENDBLK
  5
E40
330
E35
100
AcDbEntity
  8
0
100
AcDbBlockEnd
  0
BLOCK
  5
E4B
330
E41
100
AcDbEntity
  8
0
100
AcDbBlockBegin
  2
*D114
 70
     1
 10
0.0
 20
0.0
 30
0.0
  3
*D114
  1

  0
LINE
  5
732E
330
E41
100
AcDbEntity
  8
cotas
100
AcDbLine
 10
-571.908083693821
 20
1957.701908615771
 30
0.0
 11
-251.7136124039279
 21
1957.701908615771
 31
0.0
  0
LINE
  5
732F
330
E41
100
AcDbEntity
  8
cotas
100
AcDbLine
 10
-571.9168844470678
 20
1877.720065272715
 30
0.0
 11
-251.7136124039279
 21
1877.720065272715
 31
0.0
  0
LINE
  5
7330
330
E41
100
AcDbEntity
  8
cotas
100
AcDbLine
 10
-256.7136124039279
 20
1947.701908615771
 30
0.0
 11
-256.713612403928
 21
1887.720065272715
 31
0.0
  0
SOLID
  5
7331
330
E41
100
AcDbEntity
  8
cotas
100
AcDbTrace
 10
-258.3802790705946
 20
1947.701908615771
 30
0.0
 11
-255.0469457372613
 21
1947.701908615771
 31
0.0
 12
-256.7136124039279
 22
1957.701908615771
 32
0.0
 13
-256.7136124039279
 23
1957.701908615771
 33
0.0
  0
SOLID
  5
7332
330
E41
100
AcDbEntity
  8
cotas
100
AcDbTrace
 10
-258.3802790705947
 20
1887.720065272715
 30
0.0
 11
-255.0469457372613
 21
1887.720065272715
 31
0.0
 12
-256.713612403928
 22
1877.720065272715
 32
0.0
 13
-256.713612403928
 23
1877.720065272715
 33
0.0
  0
MTEXT
  5
7333
330
E41
100
AcDbEntity
  8
cotas
100
AcDbMText
 10
-266.9419535724978
 20
1917.710986944243
 30
0.0
 40
10.0
 41
0.0
 71
     5
 72
     1
  1
80
  7
SANINDUSA
 11
0.0000000000000001
 21
1.0
 31
0.0
 73
     1
 44
1.0
1001
ACAD
1000
MTEXTBEGIN
1070
    73
1070
     1
1070
    44
1040
1.0
1070
    74
1070
     0
1000
MTEXTEND
  0
POINT
  5
7334
330
E41
100
AcDbEntity
  8
Defpoints
 62
     0
100
AcDbPoint
 10
-576.908083693821
 20
1957.701908615771
 30
0.0
  0
POINT
  5
7335
330
E41
100
AcDbEntity
  8
Defpoints
 62
     0
100
AcDbPoint
 10
-576.9168844470677
 20
1877.720065272715
 30
0.0
  0
POINT
  5
7336
330
E41
100
AcDbEntity
  8
Defpoints
 62
     0
100
AcDbPoint
 10
-256.713612403928
 20
1877.720065272715
 30
0.0
  0
ENDBLK
  5
E4C
330
E41
100
AcDbEntity
  8
0
100
AcDbBlockEnd
  0
BLOCK
  5
E57
330
E4D
100
AcDbEntity
  8
0
100
AcDbBlockBegin
  2
*D115
 70
     1
 10
0.0
 20
0.0
 30
0.0
  3
*D115
  1

  0
LINE
  5
7325
330
E4D
100
AcDbEntity
  8
cotas
100
AcDbLine
 10
-566.9168844470678
 20
1877.720065272715
 30
0.0
 11
-251.7136124039279
 21
1877.720065272715
 31
0.0
  0
LINE
  5
7326
330
E4D
100
AcDbEntity
  8
cotas
100
AcDbLine
 10
-571.9367444014042
 20
1797.725186205451
 30
0.0
 11
-251.713612403928
 21
1797.725186205451
 31
0.0
  0
LINE
  5
7327
330
E4D
100
AcDbEntity
  8
cotas
100
AcDbLine
 10
-256.713612403928
 20
1867.720065272715
 30
0.0
 11
-256.713612403928
 21
1807.725186205451
 31
0.0
  0
SOLID
  5
7328
330
E4D
100
AcDbEntity
  8
cotas
100
AcDbTrace
 10
-258.3802790705947
 20
1867.720065272715
 30
0.0
 11
-255.0469457372613
 21
1867.720065272715
 31
0.0
 12
-256.713612403928
 22
1877.720065272715
 32
0.0
 13
-256.713612403928
 23
1877.720065272715
 33
0.0
  0
SOLID
  5
7329
330
E4D
100
AcDbEntity
  8
cotas
100
AcDbTrace
 10
-258.3802790705947
 20
1807.725186205451
 30
0.0
 11
-255.0469457372613
 21
1807.725186205451
 31
0.0
 12
-256.713612403928
 22
1797.725186205451
 32
0.0
 13
-256.713612403928
 23
1797.725186205451
 33
0.0
  0
MTEXT
  5
732A
330
E4D
100
AcDbEntity
  8
cotas
100
AcDbMText
 10
-266.9419535724978
 20
1837.722625739083
 30
0.0
 40
10.0
 41
0.0
 71
     5
 72
     1
  1
80
  7
SANINDUSA
 11
0.0000000000000001
 21
1.0
 31
0.0
 73
     1
 44
1.0
1001
ACAD
1000
MTEXTBEGIN
1070
    73
1070
     1
1070
    44
1040
1.0
1070
    74
1070
     0
1000
MTEXTEND
  0
POINT
  5
732B
330
E4D
100
AcDbEntity
  8
Defpoints
 62
     0
100
AcDbPoint
 10
-571.9168844470678
 20
1877.720065272715
 30
0.0
  0
POINT
  5
732C
330
E4D
100
AcDbEntity
  8
Defpoints
 62
     0
100
AcDbPoint
 10
-576.9367444014042
 20
1797.725186205451
 30
0.0
  0
POINT
  5
732D
330
E4D
100
AcDbEntity
  8
Defpoints
 62
     0
100
AcDbPoint
 10
-256.713612403928
 20
1797.725186205451
 30
0.0
  0
ENDBLK
  5
E58
330
E4D
100
AcDbEntity
  8
0
100
AcDbBlockEnd
  0
BLOCK
  5
E63
330
E59
100
AcDbEntity
  8
0
100
AcDbBlockBegin
  2
*D116
 70
     1
 10
0.0
 20
0.0
 30
0.0
  3
*D116
  1

  0
LINE
  5
731C
330
E59
100
AcDbEntity
  8
cotas
100
AcDbLine
 10
-571.9539419390039
 20
1717.708261478347
 30
0.0
 11
-251.713612403928
 21
1717.708261478347
 31
0.0
  0
LINE
  5
731D
330
E59
100
AcDbEntity
  8
cotas
100
AcDbLine
 10
-571.9367444014042
 20
1797.725186205451
 30
0.0
 11
-251.713612403928
 21
1797.725186205451
 31
0.0
  0
LINE
  5
731E
330
E59
100
AcDbEntity
  8
cotas
100
AcDbLine
 10
-256.713612403928
 20
1727.708261478347
 30
0.0
 11
-256.713612403928
 21
1787.725186205451
 31
0.0
  0
SOLID
  5
731F
330
E59
100
AcDbEntity
  8
cotas
100
AcDbTrace
 10
-258.3802790705947
 20
1727.708261478347
 30
0.0
 11
-255.0469457372614
 21
1727.708261478347
 31
0.0
 12
-256.713612403928
 22
1717.708261478347
 32
0.0
 13
-256.713612403928
 23
1717.708261478347
 33
0.0
  0
SOLID
  5
7320
330
E59
100
AcDbEntity
  8
cotas
100
AcDbTrace
 10
-258.3802790705947
 20
1787.725186205451
 30
0.0
 11
-255.0469457372613
 21
1787.725186205451
 31
0.0
 12
-256.713612403928
 22
1797.725186205451
 32
0.0
 13
-256.713612403928
 23
1797.725186205451
 33
0.0
  0
MTEXT
  5
7321
330
E59
100
AcDbEntity
  8
cotas
100
AcDbMText
 10
-266.9419535724978
 20
1757.716723841898
 30
0.0
 40
10.0
 41
0.0
 71
     5
 72
     1
  1
80
  7
SANINDUSA
 11
0.0000000000000001
 21
1.0
 31
0.0
 73
     1
 44
1.0
1001
ACAD
1000
MTEXTBEGIN
1070
    73
1070
     1
1070
    44
1040
1.0
1070
    74
1070
     0
1000
MTEXTEND
  0
POINT
  5
7322
330
E59
100
AcDbEntity
  8
Defpoints
 62
     0
100
AcDbPoint
 10
-576.9539419390039
 20
1717.708261478347
 30
0.0
  0
POINT
  5
7323
330
E59
100
AcDbEntity
  8
Defpoints
 62
     0
100
AcDbPoint
 10
-576.9367444014042
 20
1797.725186205451
 30
0.0
  0
POINT
  5
7324
330
E59
100
AcDbEntity
  8
Defpoints
 62
     0
100
AcDbPoint
 10
-256.713612403928
 20
1797.725186205451
 30
0.0
  0
ENDBLK
  5
E64
330
E59
100
AcDbEntity
  8
0
100
AcDbBlockEnd
  0
BLOCK
  5
E78
330
E6E
100
AcDbEntity
  8
0
100
AcDbBlockBegin
  2
*D117
 70
     1
 10
0.0
 20
0.0
 30
0.0
  3
*D117
  1

  0
LINE
  5
730A
330
E6E
100
AcDbEntity
  8
cotas
100
AcDbLine
 10
-282.2918158722496
 20
1677.701731775423
 30
0.0
 11
-251.7136124039279
 21
1677.701731775423
 31
0.0
  0
LINE
  5
730B
330
E6E
100
AcDbEntity
  8
cotas
100
AcDbLine
 10
-571.9518562010616
 20
1637.679298073992
 30
0.0
 11
-251.7136124039279
 21
1637.679298073992
 31
0.0
  0
LINE
  5
730C
330
E6E
100
AcDbEntity
  8
cotas
100
AcDbLine
 10
-256.7136124039279
 20
1667.701731775423
 30
0.0
 11
-256.713612403928
 21
1647.679298073992
 31
0.0
  0
SOLID
  5
730D
330
E6E
100
AcDbEntity
  8
cotas
100
AcDbTrace
 10
-258.3802790705946
 20
1667.701731775423
 30
0.0
 11
-255.0469457372613
 21
1667.701731775423
 31
0.0
 12
-256.7136124039279
 22
1677.701731775423
 32
0.0
 13
-256.7136124039279
 23
1677.701731775423
 33
0.0
  0
SOLID
  5
730E
330
E6E
100
AcDbEntity
  8
cotas
100
AcDbTrace
 10
-258.3802790705947
 20
1647.679298073992
 30
0.0
 11
-255.0469457372613
 21
1647.679298073992
 31
0.0
 12
-256.713612403928
 22
1637.679298073992
 32
0.0
 13
-256.713612403928
 23
1637.679298073992
 33
0.0
  0
MTEXT
  5
730F
330
E6E
100
AcDbEntity
  8
cotas
100
AcDbMText
 10
-266.9184478639685
 20
1657.690514924708
 30
0.0
 40
10.0
 41
0.0
 71
     5
 72
     1
  1
40
  7
SANINDUSA
 11
0.0000000000000001
 21
1.0
 31
0.0
 73
     1
 44
1.0
1001
ACAD
1000
MTEXTBEGIN
1070
    73
1070
     1
1070
    44
1040
1.0
1070
    74
1070
     0
1000
MTEXTEND
  0
POINT
  5
7310
330
E6E
100
AcDbEntity
  8
Defpoints
 62
     0
100
AcDbPoint
 10
-287.2918158722496
 20
1677.701731775423
 30
0.0
  0
POINT
  5
7311
330
E6E
100
AcDbEntity
  8
Defpoints
 62
     0
100
AcDbPoint
 10
-576.9518562010616
 20
1637.679298073992
 30
0.0
  0
POINT
  5
7312
330
E6E
100
AcDbEntity
  8
Defpoints
 62
     0
100
AcDbPoint
 10
-256.713612403928
 20
1637.679298073992
 30
0.0
  0
ENDBLK
  5
E79
330
E6E
100
AcDbEntity
  8
0
100
AcDbBlockEnd
  0
BLOCK
  5
E8D
330
E83
100
AcDbEntity
  8
0
100
AcDbBlockBegin
  2
*D118
 70
     1
 10
0.0
 20
0.0
 30
0.0
  3
*D118
  1

  0
LINE
  5
72F8
330
E83
100
AcDbEntity
  8
cotas
100
AcDbLine
 10
-571.9518562010626
 20
1557.693767417131
 30
0.0
 11
-251.713612403928
 21
1557.693767417131
 31
0.0
  0
LINE
  5
72F9
330
E83
100
AcDbEntity
  8
cotas
100
AcDbLine
 10
-571.8636712871066
 20
1477.69446889406
 30
0.0
 11
-251.713612403928
 21
1477.69446889406
 31
0.0
  0
LINE
  5
72FA
330
E83
100
AcDbEntity
  8
cotas
100
AcDbLine
 10
-256.713612403928
 20
1547.693767417131
 30
0.0
 11
-256.713612403928
 21
1487.69446889406
 31
0.0
  0
SOLID
  5
72FB
330
E83
100
AcDbEntity
  8
cotas
100
AcDbTrace
 10
-258.3802790705947
 20
1547.693767417131
 30
0.0
 11
-255.0469457372613
 21
1547.693767417131
 31
0.0
 12
-256.713612403928
 22
1557.693767417131
 32
0.0
 13
-256.713612403928
 23
1557.693767417131
 33
0.0
  0
SOLID
  5
72FC
330
E83
100
AcDbEntity
  8
cotas
100
AcDbTrace
 10
-258.3802790705947
 20
1487.69446889406
 30
0.0
 11
-255.0469457372613
 21
1487.69446889406
 31
0.0
 12
-256.713612403928
 22
1477.69446889406
 32
0.0
 13
-256.713612403928
 23
1477.69446889406
 33
0.0
  0
MTEXT
  5
72FD
330
E83
100
AcDbEntity
  8
cotas
100
AcDbMText
 10
-266.9419535724977
 20
1517.694118155596
 30
0.0
 40
10.0
 41
0.0
 71
     5
 72
     1
  1
80
  7
SANINDUSA
 11
0.0000000000000001
 21
1.0
 31
0.0
 73
     1
 44
1.0
1001
ACAD
1000
MTEXTBEGIN
1070
    73
1070
     1
1070
    44
1040
1.0
1070
    74
1070
     0
1000
MTEXTEND
  0
POINT
  5
72FE
330
E83
100
AcDbEntity
  8
Defpoints
 62
     0
100
AcDbPoint
 10
-576.9518562010626
 20
1557.693767417131
 30
0.0
  0
POINT
  5
72FF
330
E83
100
AcDbEntity
  8
Defpoints
 62
     0
100
AcDbPoint
 10
-576.8636712871066
 20
1477.69446889406
 30
0.0
  0
POINT
  5
7300
330
E83
100
AcDbEntity
  8
Defpoints
 62
     0
100
AcDbPoint
 10
-256.713612403928
 20
1477.69446889406
 30
0.0
  0
ENDBLK
  5
E8E
330
E83
100
AcDbEntity
  8
0
100
AcDbBlockEnd
  0
BLOCK
  5
E99
330
E8F
100
AcDbEntity
  8
0
100
AcDbBlockBegin
  2
*D119
 70
     1
 10
0.0
 20
0.0
 30
0.0
  3
*D119
  1

  0
LINE
  5
72EF
330
E8F
100
AcDbEntity
  8
cotas
100
AcDbLine
 10
-571.8636712871066
 20
1477.69446889406
 30
0.0
 11
-251.7136124039279
 21
1477.69446889406
 31
0.0
  0
LINE
  5
72F0
330
E8F
100
AcDbEntity
  8
cotas
100
AcDbLine
 10
-571.9035763056581
 20
1397.693407453749
 30
0.0
 11
-251.7136124039279
 21
1397.693407453749
 31
0.0
  0
LINE
  5
72F1
330
E8F
100
AcDbEntity
  8
cotas
100
AcDbLine
 10
-256.7136124039279
 20
1467.69446889406
 30
0.0
 11
-256.713612403928
 21
1407.693407453749
 31
0.0
  0
SOLID
  5
72F2
330
E8F
100
AcDbEntity
  8
cotas
100
AcDbTrace
 10
-258.3802790705946
 20
1467.69446889406
 30
0.0
 11
-255.0469457372613
 21
1467.69446889406
 31
0.0
 12
-256.7136124039279
 22
1477.69446889406
 32
0.0
 13
-256.7136124039279
 23
1477.69446889406
 33
0.0
  0
SOLID
  5
72F3
330
E8F
100
AcDbEntity
  8
cotas
100
AcDbTrace
 10
-258.3802790705947
 20
1407.693407453749
 30
0.0
 11
-255.0469457372613
 21
1407.693407453749
 31
0.0
 12
-256.713612403928
 22
1397.693407453749
 32
0.0
 13
-256.713612403928
 23
1397.693407453749
 33
0.0
  0
MTEXT
  5
72F4
330
E8F
100
AcDbEntity
  8
cotas
100
AcDbMText
 10
-266.9419535724976
 20
1437.693938173905
 30
0.0
 40
10.0
 41
0.0
 71
     5
 72
     1
  1
80
  7
SANINDUSA
 11
0.0000000000000001
 21
1.0
 31
0.0
 73
     1
 44
1.0
1001
ACAD
1000
MTEXTBEGIN
1070
    73
1070
     1
1070
    44
1040
1.0
1070
    74
1070
     0
1000
MTEXTEND
  0
POINT
  5
72F5
330
E8F
100
AcDbEntity
  8
Defpoints
 62
     0
100
AcDbPoint
 10
-576.8636712871066
 20
1477.69446889406
 30
0.0
  0
POINT
  5
72F6
330
E8F
100
AcDbEntity
  8
Defpoints
 62
     0
100
AcDbPoint
 10
-576.9035763056581
 20
1397.693407453749
 30
0.0
  0
POINT
  5
72F7
330
E8F
100
AcDbEntity
  8
Defpoints
 62
     0
100
AcDbPoint
 10
-256.713612403928
 20
1397.693407453749
 30
0.0
  0
ENDBLK
  5
E9A
330
E8F
100
AcDbEntity
  8
0
100
AcDbBlockEnd
  0
BLOCK
  5
EA5
330
E9B
100
AcDbEntity
  8
0
100
AcDbBlockBegin
  2
*D120
 70
     1
 10
0.0
 20
0.0
 30
0.0
  3
*D120
  1

  0
LINE
  5
72E6
330
E9B
100
AcDbEntity
  8
cotas
100
AcDbLine
 10
-571.9035763056581
 20
1397.693407453749
 30
0.0
 11
-251.7136124039279
 21
1397.693407453749
 31
0.0
  0
LINE
  5
72E7
330
E9B
100
AcDbEntity
  8
cotas
100
AcDbLine
 10
-287.4118800911956
 20
1227.701731775425
 30
0.0
 11
-251.713612403928
 21
1227.701731775425
 31
0.0
  0
LINE
  5
72E8
330
E9B
100
AcDbEntity
  8
cotas
100
AcDbLine
 10
-256.713612403928
 20
1387.693407453749
 30
0.0
 11
-256.713612403928
 21
1237.701731775425
 31
0.0
  0
SOLID
  5
72E9
330
E9B
100
AcDbEntity
  8
cotas
100
AcDbTrace
 10
-258.3802790705947
 20
1387.693407453749
 30
0.0
 11
-255.0469457372613
 21
1387.693407453749
 31
0.0
 12
-256.713612403928
 22
1397.693407453749
 32
0.0
 13
-256.713612403928
 23
1397.693407453749
 33
0.0
  0
SOLID
  5
72EA
330
E9B
100
AcDbEntity
  8
cotas
100
AcDbTrace
 10
-258.3802790705947
 20
1237.701731775425
 30
0.0
 11
-255.0469457372613
 21
1237.701731775425
 31
0.0
 12
-256.713612403928
 22
1227.701731775425
 32
0.0
 13
-256.713612403928
 23
1227.701731775425
 33
0.0
  0
MTEXT
  5
72EB
330
E9B
100
AcDbEntity
  8
cotas
100
AcDbMText
 10
-266.9184478639685
 20
1312.697569614587
 30
0.0
 40
10.0
 41
0.0
 71
     5
 72
     1
  1
170
  7
SANINDUSA
 11
0.0000000000000001
 21
1.0
 31
0.0
 73
     1
 44
1.0
1001
ACAD
1000
MTEXTBEGIN
1070
    73
1070
     1
1070
    44
1040
1.0
1070
    74
1070
     0
1000
MTEXTEND
  0
POINT
  5
72EC
330
E9B
100
AcDbEntity
  8
Defpoints
 62
     0
100
AcDbPoint
 10
-576.9035763056581
 20
1397.693407453749
 30
0.0
  0
POINT
  5
72ED
330
E9B
100
AcDbEntity
  8
Defpoints
 62
     0
100
AcDbPoint
 10
-292.4118800911956
 20
1227.701731775425
 30
0.0
  0
POINT
  5
72EE
330
E9B
100
AcDbEntity
  8
Defpoints
 62
     0
100
AcDbPoint
 10
-256.713612403928
 20
1227.701731775425
 30
0.0
  0
ENDBLK
  5
EA6
330
E9B
100
AcDbEntity
  8
0
100
AcDbBlockEnd
  0
BLOCK
  5
EB1
330
EA7
100
AcDbEntity
  8
0
100
AcDbBlockBegin
  2
*D121
 70
     1
 10
0.0
 20
0.0
 30
0.0
  3
*D121
  1

  0
LINE
  5
72DD
330
EA7
100
AcDbEntity
  8
cotas
100
AcDbLine
 10
-571.908083693821
 20
1957.701908615771
 30
0.0
 11
-251.713612403928
 21
1957.701908615771
 31
0.0
  0
LINE
  5
72DE
330
EA7
100
AcDbEntity
  8
cotas
100
AcDbLine
 10
-287.4118800911956
 20
2127.701731775426
 30
0.0
 11
-251.7136124039279
 21
2127.701731775426
 31
0.0
  0
LINE
  5
72DF
330
EA7
100
AcDbEntity
  8
cotas
100
AcDbLine
 10
-256.713612403928
 20
1967.70190861577
 30
0.0
 11
-256.713612403928
 21
2117.701731775425
 31
0.0
  0
SOLID
  5
72E0
330
EA7
100
AcDbEntity
  8
cotas
100
AcDbTrace
 10
-258.3802790705947
 20
1967.70190861577
 30
0.0
 11
-255.0469457372614
 21
1967.70190861577
 31
0.0
 12
-256.713612403928
 22
1957.701908615771
 32
0.0
 13
-256.713612403928
 23
1957.701908615771
 33
0.0
  0
SOLID
  5
72E1
330
EA7
100
AcDbEntity
  8
cotas
100
AcDbTrace
 10
-258.3802790705947
 20
2117.701731775425
 30
0.0
 11
-255.0469457372613
 21
2117.701731775425
 31
0.0
 12
-256.713612403928
 22
2127.701731775426
 32
0.0
 13
-256.713612403928
 23
2127.701731775426
 33
0.0
  0
MTEXT
  5
72E2
330
EA7
100
AcDbEntity
  8
cotas
100
AcDbMText
 10
-266.9184478639686
 20
2042.701820195598
 30
0.0
 40
10.0
 41
0.0
 71
     5
 72
     1
  1
170
  7
SANINDUSA
 11
0.0000000000000001
 21
1.0
 31
0.0
 73
     1
 44
1.0
1001
ACAD
1000
MTEXTBEGIN
1070
    73
1070
     1
1070
    44
1040
1.0
1070
    74
1070
     0
1000
MTEXTEND
  0
POINT
  5
72E3
330
EA7
100
AcDbEntity
  8
Defpoints
 62
     0
100
AcDbPoint
 10
-576.908083693821
 20
1957.701908615771
 30
0.0
  0
POINT
  5
72E4
330
EA7
100
AcDbEntity
  8
Defpoints
 62
     0
100
AcDbPoint
 10
-292.4118800911956
 20
2127.701731775426
 30
0.0
  0
POINT
  5
72E5
330
EA7
100
AcDbEntity
  8
Defpoints
 62
     0
100
AcDbPoint
 10
-256.713612403928
 20
2127.701731775426
 30
0.0
  0
ENDBLK
  5
EB2
330
EA7
100
AcDbEntity
  8
0
100
AcDbBlockEnd
  0
BLOCK
  5
EEA
330
EE3
100
AcDbEntity
  8
0
100
AcDbBlockBegin
  2
*D122
 70
     1
 10
0.0
 20
0.0
 30
0.0
  3
*D122
  1

  0
LINE
  5
72A7
330
EE3
100
AcDbEntity
  8
cotas
100
AcDbLine
 10
-261.90080931351
 20
1191.846920363622
 30
0.0
 11
-283.4363810352901
 21
1220.68339508945
 31
0.0
  0
MTEXT
  5
72A8
330
EE3
100
AcDbEntity
  8
cotas
100
AcDbMText
 10
-261.5811330785102
 20
1208.304999529491
 30
0.0
 40
10.0
 41
0.0
 71
     5
 72
     1
  1
R5
  7
SANINDUSA
 11
0.5983666037270158
 21
-0.8012224457316435
 31
0.0
 73
     1
 44
1.0
1001
ACAD
1000
MTEXTBEGIN
1070
    73
1070
     1
1070
    44
1040
1.0
1070
    74
1070
     0
1000
MTEXTEND
  0
LINE
  5
72A9
330
EE3
100
AcDbEntity
  8
cotas
100
AcDbLine
 10
-292.4118800911956
 20
1232.701731775425
 30
0.0
 11
-289.4200470725603
 21
1228.695619546767
 31
0.0
  0
SOLID
  5
72AA
330
EE3
100
AcDbEntity
  8
cotas
100
AcDbTrace
 10
-282.101010292404
 20
1221.680672762328
 30
0.0
 11
-284.7717517781762
 21
1219.686117416572
 31
0.0
 12
-289.4200470725603
 22
1228.695619546767
 32
0.0
 13
-289.4200470725603
 23
1228.695619546767
 33
0.0
  0
POINT
  5
72AB
330
EE3
100
AcDbEntity
  8
Defpoints
 62
     0
100
AcDbPoint
 10
-289.4200470725603
 20
1228.695619546767
 30
0.0
  0
POINT
  5
72AC
330
EE3
100
AcDbEntity
  8
Defpoints
 62
     0
100
AcDbPoint
 10
-292.4118800911956
 20
1232.701731775425
 30
0.0
  0
ENDBLK
  5
EEB
330
EE3
100
AcDbEntity
  8
0
100
AcDbBlockEnd
  0
BLOCK
  5
EF3
330
EEC
100
AcDbEntity
  8
0
100
AcDbBlockBegin
  2
*D123
 70
     1
 10
0.0
 20
0.0
 30
0.0
  3
*D123
  1

  0
LINE
  5
72A1
330
EEC
100
AcDbEntity
  8
cotas
100
AcDbLine
 10
-1518.246782661504
 20
1196.426395650657
 30
0.0
 11
-1492.953492853731
 21
1222.030547944715
 31
0.0
  0
MTEXT
  5
72A2
330
EEC
100
AcDbEntity
  8
cotas
100
AcDbMText
 10
-1516.302190638434
 20
1212.772316383032
 30
0.0
 40
10.0
 41
0.0
 71
     5
 72
     1
  1
R5
  7
SANINDUSA
 11
0.7027749304678732
 21
0.7114122553807154
 31
0.0
 73
     1
 44
1.0
1001
ACAD
1000
MTEXTBEGIN
1070
    73
1070
     1
1070
    44
1040
1.0
1070
    74
1070
     0
1000
MTEXTEND
  0
LINE
  5
72A3
330
EEC
100
AcDbEntity
  8
cotas
100
AcDbLine
 10
-1482.411868896712
 20
1232.701731775426
 30
0.0
 11
-1485.925743549052
 21
1229.144670498522
 31
0.0
  0
SOLID
  5
72A4
330
EEC
100
AcDbEntity
  8
cotas
100
AcDbTrace
 10
-1494.139179946032
 20
1223.201839495495
 30
0.0
 11
-1491.76780576143
 21
1220.859256393935
 31
0.0
 12
-1485.925743549052
 22
1229.144670498522
 32
0.0
 13
-1485.925743549052
 23
1229.144670498522
 33
0.0
  0
POINT
  5
72A5
330
EEC
100
AcDbEntity
  8
Defpoints
 62
     0
100
AcDbPoint
 10
-1485.925743549052
 20
1229.144670498522
 30
0.0
  0
POINT
  5
72A6
330
EEC
100
AcDbEntity
  8
Defpoints
 62
     0
100
AcDbPoint
 10
-1482.411868896712
 20
1232.701731775426
 30
0.0
  0
ENDBLK
  5
EF4
330
EEC
100
AcDbEntity
  8
0
100
AcDbBlockEnd
  0
BLOCK
  5
EFE
330
EF5
100
AcDbEntity
  8
0
100
AcDbBlockBegin
  2
*D124
 70
     1
 10
0.0
 20
0.0
 30
0.0
  3
*D124
  1

  0
LINE
  5
7299
330
EF5
100
AcDbEntity
  8
cotas
100
AcDbLine
 10
-575.5311803537299
 20
1765.748454494146
 30
0.0
 11
-532.5153321177997
 21
1730.731346600295
 31
0.0
  0
LINE
  5
729A
330
EF5
100
AcDbEntity
  8
cotas
100
AcDbLine
 10
-402.2499227547109
 20
1624.688618592579
 30
0.0
 11
-394.4946741745803
 21
1618.375448274871
 31
0.0
  0
MTEXT
  5
729B
330
EF5
100
AcDbEntity
  8
cotas
100
AcDbMText
 10
-551.0195672782554
 20
1759.849654574813
 30
0.0
 40
10.0
 41
0.0
 71
     5
 72
     1
  1
\U+2205148
  7
SANINDUSA
 11
0.775524858013076
 21
-0.6313170317707249
 31
0.0
 73
     1
 44
1.0
1001
ACAD
1000
MTEXTBEGIN
1070
    73
1070
     1
1070
    44
1040
1.0
1070
    74
1070
     0
1000
MTEXTEND
  0
LINE
  5
729C
330
EF5
100
AcDbEntity
  8
cotas
100
AcDbLine
 10
-410.0051713348419
 20
1631.001788910286
 30
0.0
 11
-524.760083537669
 21
1724.418176282588
 31
0.0
  0
SOLID
  5
729D
330
EF5
100
AcDbEntity
  8
cotas
100
AcDbTrace
 10
-401.1977277017598
 20
1625.9811600226
 30
0.0
 11
-403.3021178076621
 21
1623.396077162557
 31
0.0
 12
-410.0051713348419
 22
1631.001788910286
 32
0.0
 13
-410.0051713348419
 23
1631.001788910286
 33
0.0
  0
SOLID
  5
729E
330
EF5
100
AcDbEntity
  8
cotas
100
AcDbTrace
 10
-531.4631370648486
 20
1732.023888030317
 30
0.0
 11
-533.5675271707509
 21
1729.438805170273
 31
0.0
 12
-524.760083537669
 22
1724.418176282588
 32
0.0
 13
-524.760083537669
 23
1724.418176282588
 33
0.0
  0
POINT
  5
729F
330
EF5
100
AcDbEntity
  8
Defpoints
 62
     0
100
AcDbPoint
 10
-524.760083537669
 20
1724.418176282588
 30
0.0
  0
POINT
  5
72A0
330
EF5
100
AcDbEntity
  8
Defpoints
 62
     0
100
AcDbPoint
 10
-410.0051713348419
 20
1631.001788910286
 30
0.0
  0
ENDBLK
  5
EFF
330
EF5
100
AcDbEntity
  8
0
100
AcDbBlockEnd
  0
ENDSEC
  0
SECTION
  2
ENTITIES
  0
ARC
  5
72F
330
23
100
AcDbEntity
  8
SANINDUSA
100
AcDbCircle
 10
1924.126723942102
 20
1658.10140758517
 30
0.0
 40
0.0050010940544078
100
AcDbArc
 50
0.0207794930126366
 51
89.97922050698738
  0
LINE
  5
730
330
23
100
AcDbEntity
  8
SANINDUSA
100
AcDbLine
 10
1922.936484129841
 20
1658.106408652403
 30
0.0
 11
1924.126725758938
 21
1658.106408652403
 31
0.0
  0
ARC
  5
734
330
23
100
AcDbEntity
  8
SANINDUSA
100
AcDbCircle
 10
1922.936485944892
 20
1658.101407625385
 30
0.0
 40
0.005001053840871
100
AcDbArc
 50
90.02079442259093
 51
179.9796810570359
  0
LINE
  5
737
330
23
100
AcDbEntity
  8
SANINDUSA
100
AcDbLine
 10
1922.931484891365
 20
1657.21116778483
 30
0.0
 11
1922.931484891365
 21
1658.101409413927
 31
0.0
  0
LINE
  5
738
330
23
100
AcDbEntity
  8
SANINDUSA
100
AcDbLine
 10
1924.131724997414
 20
1658.101409413927
 30
0.0
 11
1924.131724997414
 21
1657.21116778483
 31
0.0
  0
ELLIPSE
  5
745
330
23
100
AcDbEntity
  8
SANINDUSA
100
AcDbEllipse
 10
1923.021861580816
 20
1658.016031963106
 30
0.0
 11
0.0141714282394082
 21
-0.0141714282345848
 31
0.0
210
0.0
220
0.0
230
1.0
 40
0.9979329808699906
 41
2.356803477607984
 42
3.92638182957166
  0
LINE
  5
748
330
23
100
AcDbEntity
  8
SANINDUSA
100
AcDbLine
 10
1924.041381222222
 20
1658.036052685013
 30
0.0
 11
1923.021828675449
 21
1658.036052685013
 31
0.0
  0
ELLIPSE
  5
74A
330
23
100
AcDbEntity
  8
SANINDUSA
100
AcDbEllipse
 10
1924.041348316856
 20
1658.016031963106
 30
0.0
 11
0.0141714282369867
 21
0.0141714282369861
 31
0.0
210
0.0
220
0.0
230
1.0
 40
0.9979329808706708
 41
5.498396131367766
 42
7.067974482991445
  0
LINE
  5
74C
330
23
100
AcDbEntity
  8
SANINDUSA
100
AcDbLine
 10
1924.061369038763
 20
1657.296512330286
 30
0.0
 11
1924.061369038763
 21
1658.016064868473
 31
0.0
  0
LINE
  5
74D
330
23
100
AcDbEntity
  8
SANINDUSA
100
AcDbLine
 10
1923.001840858909
 20
1658.016064868466
 30
0.0
 11
1923.001840859154
 21
1657.296512330278
 31
0.0
  0
ELLIPSE
  5
74F
330
23
100
AcDbEntity
  8
SANINDUSA
100
AcDbEllipse
 10
1923.021861581061
 20
1657.296545235651
 30
0.0
 11
0.0141714282345586
 21
0.0141714282393943
 31
0.0
210
0.0
220
0.0
230
1.0
 40
0.9979329808713915
 41
2.356803477947544
 42
3.926381829232076
  0
ELLIPSE
  5
752
330
23
100
AcDbEntity
  8
SANINDUSA
100
AcDbEllipse
 10
1924.041348316856
 20
1657.296545235652
 30
0.0
 11
0.0141714282369929
 21
-0.0141714282369806
 31
0.0
210
0.0
220
0.0
230
1.0
 40
0.9979329808706811
 41
5.498396131368195
 42
7.067974482991004
  0
LINE
  5
753
330
23
100
AcDbEntity
  8
SANINDUSA
100
AcDbLine
 10
1923.021828675694
 20
1657.276524513744
 30
0.0
 11
1924.041381222222
 21
1657.276524513745
 31
0.0
  0
ARC
  5
756
330
23
100
AcDbEntity
  8
SANINDUSA
100
AcDbCircle
 10
1924.126723973201
 20
1657.211169608996
 30
0.0
 40
0.0050010629595766
100
AcDbArc
 50
270.0204233327454
 51
359.9791011876325
  0
ARC
  5
757
330
23
100
AcDbEntity
  8
SANINDUSA
100
AcDbCircle
 10
1922.936485913792
 20
1657.211169568781
 30
0.0
 40
0.0050010227454466
100
AcDbArc
 50
180.0204382492961
 51
269.9795617507039
  0
ARC
  5
792
330
23
100
AcDbEntity
  8
SANINDUSA
100
AcDbCircle
 10
1923.044690893234
 20
1657.324083032083
 30
0.0
 40
0.0108876910794493
100
AcDbArc
 50
179.9870663374818
 51
269.9881543204828
  0
ARC
  5
795
330
23
100
AcDbEntity
  8
SANINDUSA
100
AcDbCircle
 10
1923.044691111243
 20
1657.988493954724
 30
0.0
 40
0.0108879090372131
100
AcDbArc
 50
90.0129926903576
 51
180.0116690649907
  0
LINE
  5
797
330
23
100
AcDbEntity
  8
SANINDUSA
100
AcDbLine
 10
1923.033803202654
 20
1657.324085487478
 30
0.0
 11
1923.033803202654
 21
1657.988491711279
 31
0.0
  0
LINE
  5
799
330
23
100
AcDbEntity
  8
SANINDUSA
100
AcDbLine
 10
1923.273523025944
 20
1657.313195342908
 30
0.0
 11
1923.044688642505
 21
1657.313195342908
 31
0.0
  0
LINE
  5
79A
330
23
100
AcDbEntity
  8
SANINDUSA
100
AcDbLine
 10
1923.044688642505
 20
1657.999381855849
 30
0.0
 11
1923.273491968485
 21
1657.999381855849
 31
0.0
  0
ARC
  5
7A4
330
23
100
AcDbEntity
  8
SANINDUSA
100
AcDbCircle
 10
1923.271799851112
 20
1657.761794224461
 30
0.0
 40
0.2375936646598638
100
AcDbArc
 50
86.64224782915608
 51
89.59194126210412
  0
ARC
  5
7A5
330
23
100
AcDbEntity
  8
SANINDUSA
100
AcDbCircle
 10
1923.271835311116
 20
1657.550565167773
 30
0.0
 40
0.2373758263387925
100
AcDbArc
 50
270.4073697193151
 51
273.3523354101361
  0
ARC
  5
7A7
330
23
100
AcDbEntity
  8
SANINDUSA
100
AcDbCircle
 10
1923.286613432483
 20
1657.324022049242
 30
0.0
 40
0.0101506062512413
100
AcDbArc
 50
287.0997062514904
 51
0.0026431600214559
  0
ARC
  5
7AA
330
23
100
AcDbEntity
  8
SANINDUSA
100
AcDbCircle
 10
1923.286613127415
 20
1657.988559448111
 30
0.0
 40
0.0101443250092403
100
AcDbArc
 50
359.9969702473735
 51
72.87507156053752
  0
LINE
  5
7AD
330
23
100
AcDbEntity
  8
SANINDUSA
100
AcDbLine
 10
1923.285715786521
 20
1657.998980002129
 30
0.0
 11
1923.288136567045
 21
1657.99865851243
 31
0.0
  0
LINE
  5
7AE
330
23
100
AcDbEntity
  8
SANINDUSA
100
AcDbLine
 10
1923.288118296791
 20
1657.313912647729
 30
0.0
 11
1923.285716072606
 21
1657.313595535683
 31
0.0
  0
LWPOLYLINE
  5
7B3
330
23
100
AcDbEntity
  8
SANINDUSA
100
AcDbPolyline
 90
        6
 70
   128
 43
0.0
 10
1923.29675745241
 20
1657.988558911688
 10
1923.296698235195
 20
1657.800279878981
 10
1923.296667091769
 20
1657.704282634861
 10
1923.296664469164
 20
1657.656284444935
 10
1923.296735905331
 20
1657.464288645394
 10
1923.296764038723
 20
1657.324022517509
  0
LINE
  5
7B4
330
23
100
AcDbEntity
  8
SANINDUSA
100
AcDbLine
 10
1923.289598066401
 20
1657.314320151775
 30
0.0
 11
1923.288118296791
 21
1657.313912647729
 31
0.0
  0
LINE
  5
7B5
330
23
100
AcDbEntity
  8
SANINDUSA
100
AcDbLine
 10
1923.288136567045
 20
1657.99865851243
 30
0.0
 11
1923.289600174554
 21
1657.998254024606
 31
0.0
  0
CIRCLE
  5
7D5
330
23
100
AcDbEntity
  8
SANINDUSA
100
AcDbCircle
 10
1923.40331440716
 20
1657.376287317415
 30
0.0
 40
0.0107492777019512
  0
CIRCLE
  5
7D7
330
23
100
AcDbEntity
  8
SANINDUSA
100
AcDbCircle
 10
1923.403310745086
 20
1657.936291883185
 30
0.0
 40
0.0107493336961261
  0
CIRCLE
  5
7D9
330
23
100
AcDbEntity
  8
SANINDUSA
100
AcDbCircle
 10
1923.403307844319
 20
1657.456276666558
 30
0.0
 40
0.0107497312383957
  0
CIRCLE
  5
7DB
330
23
100
AcDbEntity
  8
SANINDUSA
100
AcDbCircle
 10
1923.40330325739
 20
1657.856301187397
 30
0.0
 40
0.0107493114400027
  0
CIRCLE
  5
7DD
330
23
100
AcDbEntity
  8
SANINDUSA
100
AcDbCircle
 10
1923.40329178142
 20
1657.536272598409
 30
0.0
 40
0.010750535544196
  0
CIRCLE
  5
7DF
330
23
100
AcDbEntity
  8
SANINDUSA
100
AcDbCircle
 10
1923.403287969005
 20
1657.776303530778
 30
0.0
 40
0.0107498777188437
  0
CIRCLE
  5
7E1
330
23
100
AcDbEntity
  8
SANINDUSA
100
AcDbCircle
 10
1923.483305013548
 20
1657.376288407087
 30
0.0
 40
0.0107490284751039
  0
CIRCLE
  5
7E5
330
23
100
AcDbEntity
  8
SANINDUSA
100
AcDbCircle
 10
1923.483300989579
 20
1657.936291256558
 30
0.0
 40
0.010749058934983
  0
CIRCLE
  5
7E7
330
23
100
AcDbEntity
  8
SANINDUSA
100
AcDbCircle
 10
1923.403276716254
 20
1657.61628010361
 30
0.0
 40
0.0107511164939949
  0
CIRCLE
  5
7E9
330
23
100
AcDbEntity
  8
SANINDUSA
100
AcDbCircle
 10
1923.483298705735
 20
1657.456274525437
 30
0.0
 40
0.0107494952506367
  0
CIRCLE
  5
7EC
330
23
100
AcDbEntity
  8
SANINDUSA
100
AcDbCircle
 10
1923.403275244422
 20
1657.69629467556
 30
0.0
 40
0.0107507704368149
  0
CIRCLE
  5
7EF
330
23
100
AcDbEntity
  8
SANINDUSA
100
AcDbCircle
 10
1923.483293592699
 20
1657.856303326207
 30
0.0
 40
0.0107490054761974
  0
CIRCLE
  5
81E
330
23
100
AcDbEntity
  8
SANINDUSA
100
AcDbCircle
 10
1923.483279671356
 20
1657.536267733064
 30
0.0
 40
0.0107505890241572
  0
CIRCLE
  5
820
330
23
100
AcDbEntity
  8
SANINDUSA
100
AcDbCircle
 10
1923.563293255629
 20
1657.376290284328
 30
0.0
 40
0.0107486699831988
  0
CIRCLE
  5
822
330
23
100
AcDbEntity
  8
SANINDUSA
100
AcDbCircle
 10
1923.483275192405
 20
1657.776307710282
 30
0.0
 40
0.0107498227262608
  0
CIRCLE
  5
824
330
23
100
AcDbEntity
  8
SANINDUSA
100
AcDbCircle
 10
1923.563289451717
 20
1657.936289921831
 30
0.0
 40
0.0107488975954795
  0
CIRCLE
  5
826
330
23
100
AcDbEntity
  8
SANINDUSA
100
AcDbCircle
 10
1923.563288044222
 20
1657.45627366939
 30
0.0
 40
0.0107490535484391
  0
CIRCLE
  5
828
330
23
100
AcDbEntity
  8
SANINDUSA
100
AcDbCircle
 10
1923.563282664731
 20
1657.856304402341
 30
0.0
 40
0.0107487705958742
  0
CIRCLE
  5
82A
330
23
100
AcDbEntity
  8
SANINDUSA
100
AcDbCircle
 10
1923.483260183424
 20
1657.616277233052
 30
0.0
 40
0.0107514798137096
  0
CIRCLE
  5
82C
330
23
100
AcDbEntity
  8
SANINDUSA
100
AcDbCircle
 10
1923.483258349952
 20
1657.696297025175
 30
0.0
 40
0.0107511080130088
  0
CIRCLE
  5
82E
330
23
100
AcDbEntity
  8
SANINDUSA
100
AcDbCircle
 10
1923.56326749349
 20
1657.536263555878
 30
0.0
 40
0.0107503524566627
  0
CIRCLE
  5
830
330
23
100
AcDbEntity
  8
SANINDUSA
100
AcDbCircle
 10
1923.64327633616
 20
1657.376290808254
 30
0.0
 40
0.0107485854228975
  0
CIRCLE
  5
832
330
23
100
AcDbEntity
  8
SANINDUSA
100
AcDbCircle
 10
1923.563262461472
 20
1657.77631199964
 30
0.0
 40
0.0107496624667642
  0
CIRCLE
  5
834
330
23
100
AcDbEntity
  8
SANINDUSA
100
AcDbCircle
 10
1923.64327339043
 20
1657.936289662907
 30
0.0
 40
0.0107487297346805
  0
CIRCLE
  5
836
330
23
100
AcDbEntity
  8
SANINDUSA
100
AcDbCircle
 10
1923.643272324779
 20
1657.456274630112
 30
0.0
 40
0.0107485437300579
  0
CIRCLE
  5
838
330
23
100
AcDbEntity
  8
SANINDUSA
100
AcDbCircle
 10
1923.643267671647
 20
1657.856304482701
 30
0.0
 40
0.0107483689577302
  0
CIRCLE
  5
83A
330
23
100
AcDbEntity
  8
SANINDUSA
100
AcDbCircle
 10
1923.563243596223
 20
1657.616273734246
 30
0.0
 40
0.0107519571375721
  0
CIRCLE
  5
83C
330
23
100
AcDbEntity
  8
SANINDUSA
100
AcDbCircle
 10
1923.563241553494
 20
1657.696299766371
 30
0.0
 40
0.0107514965821997
  0
CIRCLE
  5
83E
330
23
100
AcDbEntity
  8
SANINDUSA
100
AcDbCircle
 10
1923.643253321534
 20
1657.536261041753
 30
0.0
 40
0.0107499044360368
  0
CIRCLE
  5
840
330
23
100
AcDbEntity
  8
SANINDUSA
100
AcDbCircle
 10
1923.64324842645
 20
1657.776314934922
 30
0.0
 40
0.0107493159842233
  0
CIRCLE
  5
842
330
23
100
AcDbEntity
  8
SANINDUSA
100
AcDbCircle
 10
1923.723252085646
 20
1657.376288227403
 30
0.0
 40
0.0107490370414218
  0
CIRCLE
  5
844
330
23
100
AcDbEntity
  8
SANINDUSA
100
AcDbCircle
 10
1923.723250305771
 20
1657.93629182606
 30
0.0
 40
0.010748790416618
  0
CIRCLE
  5
846
330
23
100
AcDbEntity
  8
SANINDUSA
100
AcDbCircle
 10
1923.723248237824
 20
1657.456277458038
 30
0.0
 40
0.0107482356489224
  0
CIRCLE
  5
848
330
23
100
AcDbEntity
  8
SANINDUSA
100
AcDbCircle
 10
1923.723245121649
 20
1657.856301961716
 30
0.0
 40
0.0107483120048296
  0
CIRCLE
  5
84A
330
23
100
AcDbEntity
  8
SANINDUSA
100
AcDbCircle
 10
1923.643227007706
 20
1657.616270288229
 30
0.0
 40
0.0107523165460711
  0
CIRCLE
  5
84C
330
23
100
AcDbEntity
  8
SANINDUSA
100
AcDbCircle
 10
1923.643224754363
 20
1657.696303096664
 30
0.0
 40
0.0107517687258242
  0
CIRCLE
  5
84E
330
23
100
AcDbEntity
  8
SANINDUSA
100
AcDbCircle
 10
1923.7232343428
 20
1657.536262286923
 30
0.0
 40
0.0107492562513427
  0
CIRCLE
  5
850
330
23
100
AcDbEntity
  8
SANINDUSA
100
AcDbCircle
 10
1923.723230723053
 20
1657.776314432945
 30
0.0
 40
0.0107489421555262
  0
CIRCLE
  5
852
330
23
100
AcDbEntity
  8
SANINDUSA
100
AcDbCircle
 10
1923.803222775505
 20
1657.376282425275
 30
0.0
 40
0.0107499587998077
  0
CIRCLE
  5
854
330
23
100
AcDbEntity
  8
SANINDUSA
100
AcDbCircle
 10
1923.803222792818
 20
1657.936297268658
 30
0.0
 40
0.0107494052739955
  0
CIRCLE
  5
856
330
23
100
AcDbEntity
  8
SANINDUSA
100
AcDbCircle
 10
1923.803217881681
 20
1657.456280868996
 30
0.0
 40
0.0107485939776583
  0
CIRCLE
  5
858
330
23
100
AcDbEntity
  8
SANINDUSA
100
AcDbCircle
 10
1923.803216648235
 20
1657.856297295951
 30
0.0
 40
0.010748814140817
  0
CIRCLE
  5
85A
330
23
100
AcDbEntity
  8
SANINDUSA
100
AcDbCircle
 10
1923.723209937103
 20
1657.616268186286
 30
0.0
 40
0.0107523830563614
  0
CIRCLE
  5
85C
330
23
100
AcDbEntity
  8
SANINDUSA
100
AcDbCircle
 10
1923.723207957335
 20
1657.696305079453
 30
0.0
 40
0.0107519788760311
  0
CIRCLE
  5
85E
330
23
100
AcDbEntity
  8
SANINDUSA
100
AcDbCircle
 10
1923.803209807317
 20
1657.536266543866
 30
0.0
 40
0.0107488601858077
  0
CIRCLE
  5
860
330
23
100
AcDbEntity
  8
SANINDUSA
100
AcDbCircle
 10
1923.803209428846
 20
1657.776311077553
 30
0.0
 40
0.0107485234505344
  0
CIRCLE
  5
862
330
23
100
AcDbEntity
  8
SANINDUSA
100
AcDbCircle
 10
1923.803191229399
 20
1657.616270927464
 30
0.0
 40
0.0107517024141978
  0
CIRCLE
  5
864
330
23
100
AcDbEntity
  8
SANINDUSA
100
AcDbCircle
 10
1923.803190559447
 20
1657.696303685111
 30
0.0
 40
0.0107517764058378
  0
CIRCLE
  5
865
330
23
100
AcDbEntity
  8
SANINDUSA
100
AcDbCircle
 10
1923.95163418585
 20
1657.6562968502
 30
0.0
 40
0.0739853216935144
  0
CIRCLE
  5
867
330
23
100
AcDbEntity
  8
SANINDUSA
100
AcDbCircle
 10
1923.951604944389
 20
1657.656288599379
 30
0.0
 40
0.05
  0
LINE
  5
86D
330
23
100
AcDbEntity
  8
SANINDUSA
100
AcDbLine
 10
1922.936484129854
 20
1657.206168546354
 30
0.0
 11
1924.126725754616
 21
1657.206168550676
 31
0.0
  0
LINE
  5
938
330
23
100
AcDbEntity
  8
SANINDUSA
100
AcDbLine
 10
1926.710340857944
 20
1657.636223090694
 30
0.0
 11
1926.713666394766
 21
1657.632656915875
 31
0.0
  0
LINE
  5
939
330
23
100
AcDbEntity
  8
SANINDUSA
100
AcDbLine
 10
1926.817057931291
 20
1657.632656915875
 30
0.0
 11
1926.820383429966
 21
1657.636223090694
 31
0.0
  0
LINE
  5
93C
330
23
100
AcDbEntity
  8
SANINDUSA
100
AcDbLine
 10
1925.74826679376
 20
1657.636223090694
 30
0.0
 11
1926.942457557163
 21
1657.636223090694
 31
0.0
  0
LINE
  5
93F
330
23
100
AcDbEntity
  8
SANINDUSA
100
AcDbLine
 10
1925.743267555228
 20
1657.636223090694
 30
0.0
 11
1925.745242110004
 21
1657.749345254857
 31
0.0
  0
LINE
  5
940
330
23
100
AcDbEntity
  8
SANINDUSA
100
AcDbLine
 10
1925.743267555228
 20
1657.636223090694
 30
0.0
 11
1925.74826679376
 21
1657.636223090694
 31
0.0
  0
LINE
  5
942
330
23
100
AcDbEntity
  8
SANINDUSA
100
AcDbLine
 10
1926.945482216052
 20
1657.749345254857
 30
0.0
 11
1926.947456717929
 21
1657.636223090694
 31
0.0
  0
LINE
  5
943
330
23
100
AcDbEntity
  8
SANINDUSA
100
AcDbLine
 10
1926.942457557163
 20
1657.636223090694
 30
0.0
 11
1926.947456717929
 21
1657.636223090694
 31
0.0
  0
ARC
  5
945
330
23
100
AcDbEntity
  8
SANINDUSA
100
AcDbCircle
 10
1925.75224104387
 20
1657.749223088012
 30
0.0
 40
0.0070000000000002
100
AcDbArc
 50
90.0
 51
179.0000000030781
  0
LINE
  5
946
330
23
100
AcDbEntity
  8
SANINDUSA
100
AcDbLine
 10
1925.752241043812
 20
1657.756223088012
 30
0.0
 11
1926.938483238658
 21
1657.756223088012
 31
0.0
  0
ARC
  5
948
330
23
100
AcDbEntity
  8
SANINDUSA
100
AcDbCircle
 10
1926.938483282187
 20
1657.749223088012
 30
0.0
 40
0.0070000000000002
100
AcDbArc
 50
0.9999999969218754
 51
90.0
  0
LINE
  5
949
330
23
100
AcDbEntity
  8
SANINDUSA
100
AcDbLine
 10
1926.765362163028
 20
1657.632656915875
 30
0.0
 11
1926.817057931291
 21
1657.632656915875
 31
0.0
  0
LINE
  5
94A
330
23
100
AcDbEntity
  8
SANINDUSA
100
AcDbLine
 10
1926.713666394766
 20
1657.632656915875
 30
0.0
 11
1926.765362163028
 21
1657.632656915875
 31
0.0
  0
LINE
  5
94B
330
23
100
AcDbEntity
  8
SANINDUSA
100
AcDbLine
 10
1924.957866791529
 20
1657.636223088012
 30
0.0
 11
1924.961192300845
 21
1657.632656915875
 31
0.0
  0
LINE
  5
94C
330
23
100
AcDbEntity
  8
SANINDUSA
100
AcDbLine
 10
1925.064583837371
 20
1657.632656915875
 30
0.0
 11
1925.067909346687
 21
1657.636223088012
 31
0.0
  0
LINE
  5
94E
330
23
100
AcDbEntity
  8
SANINDUSA
100
AcDbLine
 10
1925.463008122132
 20
1657.749345254857
 30
0.0
 11
1925.464982676899
 21
1657.636223088012
 31
0.0
  0
LINE
  5
950
330
23
100
AcDbEntity
  8
SANINDUSA
100
AcDbLine
 10
1925.459983438424
 20
1657.636223088012
 30
0.0
 11
1925.464982676899
 21
1657.636223088012
 31
0.0
  0
LINE
  5
953
330
23
100
AcDbEntity
  8
SANINDUSA
100
AcDbLine
 10
1924.560793461317
 20
1657.636223088012
 30
0.0
 11
1924.562768016084
 21
1657.749345254857
 31
0.0
  0
LINE
  5
954
330
23
100
AcDbEntity
  8
SANINDUSA
100
AcDbLine
 10
1924.560793461317
 20
1657.636223088012
 30
0.0
 11
1924.565792699792
 21
1657.636223088012
 31
0.0
  0
LINE
  5
956
330
23
100
AcDbEntity
  8
SANINDUSA
100
AcDbLine
 10
1924.565792699792
 20
1657.636223088012
 30
0.0
 11
1925.459983438424
 21
1657.636223088012
 31
0.0
  0
LINE
  5
958
330
23
100
AcDbEntity
  8
SANINDUSA
100
AcDbLine
 10
1924.56976694995
 20
1657.756223088012
 30
0.0
 11
1925.456009188266
 21
1657.756223088012
 31
0.0
  0
ARC
  5
95A
330
23
100
AcDbEntity
  8
SANINDUSA
100
AcDbCircle
 10
1924.56976694995
 20
1657.749223088012
 30
0.0
 40
0.0070000000000002
100
AcDbArc
 50
90.0
 51
179.0000000030781
  0
ARC
  5
95B
330
23
100
AcDbEntity
  8
SANINDUSA
100
AcDbCircle
 10
1925.456009188266
 20
1657.749223088012
 30
0.0
 40
0.0070000000000002
100
AcDbArc
 50
0.9999999969218754
 51
90.0
  0
LINE
  5
95C
330
23
100
AcDbEntity
  8
SANINDUSA
100
AcDbLine
 10
1924.961192300845
 20
1657.632656915875
 30
0.0
 11
1925.064583837371
 21
1657.632656915875
 31
0.0
  0
LINE
  5
9CF
330
23
100
AcDbEntity
  8
SANINDUSA
100
AcDbLine
 10
1928.112513701555
 20
1657.654002766095
 30
0.0
 11
1928.125884969293
 21
1657.644640103629
 31
0.0
  0
LINE
  5
9D0
330
23
100
AcDbEntity
  8
SANINDUSA
100
AcDbLine
 10
1928.251625507537
 20
1657.644640103629
 30
0.0
 11
1928.264971455078
 21
1657.653985036702
 31
0.0
  0
ARC
  5
9D1
330
23
100
AcDbEntity
  8
SANINDUSA
100
AcDbCircle
 10
1928.112456343911
 20
1657.653920850891
 30
0.0
 40
0.0001000000014638
100
AcDbArc
 50
55.00000058305325
 51
88.80534931290787
  0
ARC
  5
9D2
330
23
100
AcDbEntity
  8
SANINDUSA
100
AcDbCircle
 10
1928.265028812722
 20
1657.653903121498
 30
0.0
 40
0.0001000000000352
100
AcDbArc
 50
90.74752169868236
 51
125.0000000060736
  0
LWPOLYLINE
  5
9D3
330
23
100
AcDbEntity
  8
SANINDUSA
100
AcDbPolyline
 90
        3
 70
   128
 43
0.0
 10
1928.112458428819
 20
1657.654020829155
 10
1927.731653310912
 20
1657.661997579273
 10
1927.550343584908
 20
1657.665795482427
  0
LWPOLYLINE
  5
9D4
330
23
100
AcDbEntity
  8
SANINDUSA
100
AcDbPolyline
 90
        3
 70
   128
 43
0.0
 10
1928.283074189459
 20
1657.655916237557
 10
1928.27413409574
 20
1657.654545304287
 10
1928.265027508087
 20
1657.654003112987
  0
LWPOLYLINE
  5
9D5
330
23
100
AcDbEntity
  8
SANINDUSA
100
AcDbPolyline
 90
       38
 70
   128
 43
0.0
 10
1928.264976627335
 20
1657.65790278107
 10
1928.264515584357
 20
1657.657908246081
 10
1928.263121851762
 20
1657.65791484443
 10
1928.261464629777
 20
1657.657918400096
 10
1928.259302242591
 20
1657.6579200607
 10
1928.25656414455
 20
1657.657919598882
 10
1928.253326224899
 20
1657.657917729272
 10
1928.249776705319
 20
1657.657914929478
 10
1928.24578353602
 20
1657.657911899035
 10
1928.24129824558
 20
1657.657909178051
 10
1928.236397518234
 20
1657.657906605155
 10
1928.231311495513
 20
1657.657904163938
 10
1928.225894182501
 20
1657.65790197053
 10
1928.220091175748
 20
1657.657900318056
 10
1928.214014630877
 20
1657.657899403435
 10
1928.207970427884
 20
1657.657899143853
 10
1928.201750384939
 20
1657.65789936687
 10
1928.195301053366
 20
1657.657900231386
 10
1928.188756057851
 20
1657.657901511649
 10
1928.182447638532
 20
1657.657902773715
 10
1928.176139400851
 20
1657.65790410167
 10
1928.169785029701
 20
1657.657905730003
 10
1928.163523498026
 20
1657.65790734105
 10
1928.163478161659
 20
1657.657907352215
 10
1928.157613999059
 20
1657.657908741561
 10
1928.151925186178
 20
1657.657910054913
 10
1928.146377630144
 20
1657.657911383642
 10
1928.141100639129
 20
1657.65791269953
 10
1928.136343590853
 20
1657.657913930712
 10
1928.131916821939
 20
1657.657915153847
 10
1928.127802221724
 20
1657.657916378024
 10
1928.124104758783
 20
1657.657917511261
 10
1928.120988349598
 20
1657.6579184955
 10
1928.118319638322
 20
1657.657919480083
 10
1928.116098327972
 20
1657.657920540319
 10
1928.114393564743
 20
1657.657920994525
 10
1928.113011696578
 20
1657.657920322508
 10
1928.112539740224
 20
1657.657919981429
  0
LWPOLYLINE
  5
9D6
330
23
100
AcDbEntity
  8
SANINDUSA
100
AcDbPolyline
 90
        3
 70
   128
 43
0.0
 10
1928.112539740224
 20
1657.657919981429
 10
1928.113726841846
 20
1657.657713717221
 10
1928.114750649657
 20
1657.657197459068
  0
LWPOLYLINE
  5
9D8
330
23
100
AcDbEntity
  8
SANINDUSA
100
AcDbPolyline
 90
        3
 70
   128
 43
0.0
 10
1928.262734506976
 20
1657.657179729675
 10
1928.263814545439
 20
1657.657714362105
 10
1928.264976627335
 20
1657.65790278107
  0
LINE
  5
9D9
330
23
100
AcDbEntity
  8
SANINDUSA
100
AcDbLine
 10
1928.114750649657
 20
1657.657197459068
 30
0.0
 11
1928.128457693157
 21
1657.647599683883
 31
0.0
  0
LINE
  5
9DB
330
23
100
AcDbEntity
  8
SANINDUSA
100
AcDbLine
 10
1928.249052783674
 20
1657.647599683883
 30
0.0
 11
1928.262734506976
 21
1657.657179729675
 31
0.0
  0
LWPOLYLINE
  5
A1E
330
23
100
AcDbEntity
  8
SANINDUSA
100
AcDbPolyline
 90
        3
 70
   128
 43
0.0
 10
1928.112539740224
 20
1657.657919981429
 10
1927.702131555884
 20
1657.666516687223
 10
1927.550425252953
 20
1657.66969462832
  0
LWPOLYLINE
  5
A1F
330
23
100
AcDbEntity
  8
SANINDUSA
100
AcDbPolyline
 90
        3
 70
   128
 43
0.0
 10
1928.282306029481
 20
1657.659739839327
 10
1928.273721269749
 20
1657.658423393346
 10
1928.264976627335
 20
1657.65790278107
  0
ARC
  5
A34
330
23
100
AcDbEntity
  8
SANINDUSA
100
AcDbCircle
 10
1927.550785097115
 20
1657.686694921214
 30
0.0
 40
0.0170041008674278
100
AcDbArc
 50
183.6108584561759
 51
268.7874048119777
  0
ARC
  5
A35
330
23
100
AcDbEntity
  8
SANINDUSA
100
AcDbCircle
 10
1928.305515068578
 20
1657.749223090694
 30
0.0
 40
0.0070000000000005
100
AcDbArc
 50
90.0
 51
177.9999999962464
  0
LINE
  5
A36
330
23
100
AcDbEntity
  8
SANINDUSA
100
AcDbLine
 10
1928.295947283413
 20
1657.675813529809
 30
0.0
 11
1928.298519332789
 21
1657.749467387171
 31
0.0
  0
ARC
  5
A37
330
23
100
AcDbEntity
  8
SANINDUSA
100
AcDbCircle
 10
1928.278957639241
 20
1657.676406821257
 30
0.0
 40
0.0170000001133813
100
AcDbArc
 50
281.3594855239326
 51
358.000000178521
  0
LINE
  5
A38
330
23
100
AcDbEntity
  8
SANINDUSA
100
AcDbLine
 10
1928.238755238415
 20
1657.636556918557
 30
0.0
 11
1928.249052783674
 21
1657.647599683883
 31
0.0
  0
LINE
  5
A39
330
23
100
AcDbEntity
  8
SANINDUSA
100
AcDbLine
 10
1928.138755238416
 20
1657.636556918557
 30
0.0
 11
1928.238755238415
 21
1657.636556918557
 31
0.0
  0
LINE
  5
A3A
330
23
100
AcDbEntity
  8
SANINDUSA
100
AcDbLine
 10
1928.128457693157
 20
1657.647599683883
 30
0.0
 11
1928.138755238416
 21
1657.636556918557
 31
0.0
  0
ARC
  5
A3B
330
23
100
AcDbEntity
  8
SANINDUSA
100
AcDbCircle
 10
1927.526828551439
 20
1657.68518469866
 30
0.0
 40
0.0070000000060814
100
AcDbArc
 50
3.598166373186646
 51
89.00000005518039
  0
LINE
  5
A3C
330
23
100
AcDbEntity
  8
SANINDUSA
100
AcDbLine
 10
1927.526950718277
 20
1657.692183632533
 30
0.0
 11
1927.277403419367
 21
1657.696539496838
 31
0.0
  0
ARC
  5
A3D
330
23
100
AcDbEntity
  8
SANINDUSA
100
AcDbCircle
 10
1927.277281252522
 20
1657.689540562972
 30
0.0
 40
0.0070000000000005
100
AcDbArc
 50
89.00000000307812
 51
154.6842608275599
  0
ARC
  5
A3E
330
23
100
AcDbEntity
  8
SANINDUSA
100
AcDbCircle
 10
1927.261913845478
 20
1657.696809868356
 30
0.0
 40
0.0100000000000001
100
AcDbArc
 50
269.0000000030781
 51
334.6842608275599
  0
LINE
  5
A3F
330
23
100
AcDbEntity
  8
SANINDUSA
100
AcDbLine
 10
1927.257296549255
 20
1657.686888940281
 30
0.0
 11
1927.261739321414
 21
1657.686811391404
 31
0.0
  0
ARC
  5
A40
330
23
100
AcDbEntity
  8
SANINDUSA
100
AcDbCircle
 10
1927.257593240164
 20
1657.703886351099
 30
0.0
 40
0.017
100
AcDbArc
 50
182.0000000037536
 51
269.0000000030781
  0
ARC
  5
A42
330
23
100
AcDbEntity
  8
SANINDUSA
100
AcDbCircle
 10
1927.231995417268
 20
1657.749223090694
 30
0.0
 40
0.0070000000000005
100
AcDbArc
 50
2.000000003753602
 51
90.0
  0
LINE
  5
A43
330
23
100
AcDbEntity
  8
SANINDUSA
100
AcDbLine
 10
1927.175634119257
 20
1657.756223090694
 30
0.0
 11
1927.231995417268
 21
1657.756223090694
 31
0.0
  0
ARC
  5
A44
330
23
100
AcDbEntity
  8
SANINDUSA
100
AcDbCircle
 10
1927.175634119257
 20
1657.749223090694
 30
0.0
 40
0.0070000000000005
100
AcDbArc
 50
90.0
 51
179.0000000030781
  0
LINE
  5
A45
330
23
100
AcDbEntity
  8
SANINDUSA
100
AcDbLine
 10
1927.166660630624
 20
1657.636223090694
 30
0.0
 11
1927.168635185391
 21
1657.749345257539
 31
0.0
  0
LINE
  5
A46
330
23
100
AcDbEntity
  8
SANINDUSA
100
AcDbLine
 10
1927.170561224703
 20
1657.636223090694
 30
0.0
 11
1927.166660630624
 21
1657.636223090694
 31
0.0
  0
LINE
  5
A47
330
23
100
AcDbEntity
  8
SANINDUSA
100
AcDbLine
 10
1927.170561224703
 20
1657.636223090694
 30
0.0
 11
1927.172534591402
 21
1657.749277193154
 31
0.0
  0
ARC
  5
A48
330
23
100
AcDbEntity
  8
SANINDUSA
100
AcDbCircle
 10
1927.175634119257
 20
1657.749223090694
 30
0.0
 40
0.0031000000000006
100
AcDbArc
 50
90.0
 51
179.0000000030781
  0
LINE
  5
A49
330
23
100
AcDbEntity
  8
SANINDUSA
100
AcDbLine
 10
1927.175634119257
 20
1657.752323090694
 30
0.0
 11
1927.231995417268
 21
1657.752323090694
 31
0.0
  0
ARC
  5
A4A
330
23
100
AcDbEntity
  8
SANINDUSA
100
AcDbCircle
 10
1927.231995417268
 20
1657.749223090694
 30
0.0
 40
0.0031000000000006
100
AcDbArc
 50
2.000000003753602
 51
90.0
  0
LINE
  5
A4B
330
23
100
AcDbEntity
  8
SANINDUSA
100
AcDbLine
 10
1927.235093528832
 20
1657.749331279133
 30
0.0
 11
1927.236705971879
 21
1657.703156951616
 31
0.0
  0
ARC
  5
A4C
330
23
100
AcDbEntity
  8
SANINDUSA
100
AcDbCircle
 10
1927.257593240164
 20
1657.703886351099
 30
0.0
 40
0.0209000000000006
100
AcDbArc
 50
182.0000000037536
 51
269.0000000030781
  0
LINE
  5
A4D
330
23
100
AcDbEntity
  8
SANINDUSA
100
AcDbLine
 10
1927.257228484869
 20
1657.68298953427
 30
0.0
 11
1927.261671257029
 21
1657.682911985394
 31
0.0
  0
ARC
  5
A4E
330
23
100
AcDbEntity
  8
SANINDUSA
100
AcDbCircle
 10
1927.261913845478
 20
1657.696809868356
 30
0.0
 40
0.0138999999999996
100
AcDbArc
 50
269.0000000030781
 51
334.6842608275599
  0
ARC
  5
A4F
330
23
100
AcDbEntity
  8
SANINDUSA
100
AcDbCircle
 10
1927.277281252522
 20
1657.689540562972
 30
0.0
 40
0.0031000000000007
100
AcDbArc
 50
89.00000000307812
 51
154.6842608275599
  0
LINE
  5
A50
330
23
100
AcDbEntity
  8
SANINDUSA
100
AcDbLine
 10
1927.526882653892
 20
1657.688284226522
 30
0.0
 11
1927.277335354981
 21
1657.692640090827
 31
0.0
  0
ARC
  5
A51
330
23
100
AcDbEntity
  8
SANINDUSA
100
AcDbCircle
 10
1927.526828551435
 20
1657.685184698664
 30
0.0
 40
0.0031000000026935
100
AcDbArc
 50
3.598165955491585
 51
89.00000005518039
  0
ARC
  5
A52
330
23
100
AcDbEntity
  8
SANINDUSA
100
AcDbCircle
 10
1927.550785981723
 20
1657.68669584251
 30
0.0
 40
0.0209050416534947
100
AcDbArc
 50
183.6108580384809
 51
268.7874043428152
  0
LINE
  5
A53
330
23
100
AcDbEntity
  8
SANINDUSA
100
AcDbLine
 10
1928.125884969293
 20
1657.644640103629
 30
0.0
 11
1928.137059470153
 21
1657.632656918557
 31
0.0
  0
LINE
  5
A54
330
23
100
AcDbEntity
  8
SANINDUSA
100
AcDbLine
 10
1928.137059470153
 20
1657.632656918557
 30
0.0
 11
1928.240451006678
 21
1657.632656918557
 31
0.0
  0
LINE
  5
A55
330
23
100
AcDbEntity
  8
SANINDUSA
100
AcDbLine
 10
1928.240451006678
 20
1657.632656918557
 30
0.0
 11
1928.251625507537
 21
1657.644640103629
 31
0.0
  0
ARC
  5
A56
330
23
100
AcDbEntity
  8
SANINDUSA
100
AcDbCircle
 10
1928.278957639215
 20
1657.676406821246
 30
0.0
 40
0.0209000001386569
100
AcDbArc
 50
281.3594852199047
 51
358.000000178521
  0
LINE
  5
A57
330
23
100
AcDbEntity
  8
SANINDUSA
100
AcDbLine
 10
1928.299844907641
 20
1657.675677421824
 30
0.0
 11
1928.302416957014
 21
1657.749331279133
 31
0.0
  0
ARC
  5
A58
330
23
100
AcDbEntity
  8
SANINDUSA
100
AcDbCircle
 10
1928.305515068578
 20
1657.749223090694
 30
0.0
 40
0.0031000000000006
100
AcDbArc
 50
90.0
 51
177.9999999962464
  0
LINE
  5
A59
330
23
100
AcDbEntity
  8
SANINDUSA
100
AcDbLine
 10
1928.305515068578
 20
1657.752323090694
 30
0.0
 11
1928.361876357574
 21
1657.752323090694
 31
0.0
  0
ARC
  5
A5A
330
23
100
AcDbEntity
  8
SANINDUSA
100
AcDbCircle
 10
1928.361876357574
 20
1657.749223090694
 30
0.0
 40
0.0031000000000006
100
AcDbArc
 50
0.9999999969218754
 51
90.0
  0
LINE
  5
A5B
330
23
100
AcDbEntity
  8
SANINDUSA
100
AcDbLine
 10
1928.364975885429
 20
1657.749277193154
 30
0.0
 11
1928.366949252128
 21
1657.636223090694
 31
0.0
  0
LINE
  5
A5C
330
23
100
AcDbEntity
  8
SANINDUSA
100
AcDbLine
 10
1928.370849846207
 20
1657.636223090694
 30
0.0
 11
1928.366949252128
 21
1657.636223090694
 31
0.0
  0
LINE
  5
A5D
330
23
100
AcDbEntity
  8
SANINDUSA
100
AcDbLine
 10
1928.36887529144
 20
1657.749345257539
 30
0.0
 11
1928.370849846207
 21
1657.636223090694
 31
0.0
  0
ARC
  5
A5E
330
23
100
AcDbEntity
  8
SANINDUSA
100
AcDbCircle
 10
1928.361876357574
 20
1657.749223090694
 30
0.0
 40
0.0070000000000005
100
AcDbArc
 50
0.9999999969218754
 51
90.0
  0
LINE
  5
A5F
330
23
100
AcDbEntity
  8
SANINDUSA
100
AcDbLine
 10
1928.305515068578
 20
1657.756223090694
 30
0.0
 11
1928.361876357574
 21
1657.756223090694
 31
0.0
  0
LINE
  5
A60
330
23
100
AcDbEntity
  8
SANINDUSA
100
AcDbLine
 10
1927.238991153057
 20
1657.749467387171
 30
0.0
 11
1927.240603596105
 21
1657.703293059653
 31
0.0
  0
LINE
  5
AB5
330
23
100
AcDbEntity
  8
SANINDUSA
100
AcDbLine
 10
1928.305515068578
 20
1657.756223090694
 30
0.0
 11
1928.278531516248
 21
1657.756223090694
 31
0.0
  0
LINE
  5
AB7
330
23
100
AcDbEntity
  8
SANINDUSA
100
AcDbLine
 10
1927.25897896972
 20
1657.756223090694
 30
0.0
 11
1927.231995417268
 21
1657.756223090694
 31
0.0
  0
LINE
  5
AB8
330
23
100
AcDbEntity
  8
SANINDUSA
100
AcDbLine
 10
1928.278531516248
 20
1657.756223090694
 30
0.0
 11
1927.25897896972
 21
1657.756223090694
 31
0.0
  0
LINE
  5
ABE
330
23
100
AcDbEntity
  8
SANINDUSA
100
AcDbLine
 10
1928.365849419663
 20
1657.636223090694
 30
0.0
 11
1928.366949252128
 21
1657.636223090694
 31
0.0
  0
LINE
  5
AC0
330
23
100
AcDbEntity
  8
SANINDUSA
100
AcDbLine
 10
1927.170561224703
 20
1657.636223090694
 30
0.0
 11
1927.171661057168
 21
1657.636223090694
 31
0.0
  0
LINE
  5
AC1
330
23
100
AcDbEntity
  8
SANINDUSA
100
AcDbLine
 10
1927.171661057168
 20
1657.636223090694
 30
0.0
 11
1928.133733960836
 21
1657.636223090694
 31
0.0
  0
LINE
  5
AC2
330
23
100
AcDbEntity
  8
SANINDUSA
100
AcDbLine
 10
1928.243776515994
 20
1657.636223090694
 30
0.0
 11
1928.365849419663
 21
1657.636223090694
 31
0.0
  0
ENDSEC
  0
SECTION
  2
OBJECTS
  0
DICTIONARY
  5
C
330
0
100
AcDbDictionary
281
     1
  3
ACAD_COLOR
350
1C
  3
ACAD_GROUP
350
D
  3
ACAD_LAYOUT
350
1A
  3
ACAD_MATERIAL
350
1B
  3
ACAD_MLINESTYLE
350
17
  3
ACAD_PLOTSETTINGS
350
19
  3
ACAD_PLOTSTYLENAME
350
E
  3
ACAD_TABLESTYLE
350
1D
  3
ACDBHEADERROUNDTRIPXREC
350
7489
  3
AcDbVariableDictionary
350
7483
  0
DICTIONARY
  5
2ED
330
2
100
AcDbDictionary
280
     1
281
     1
  3
ACAD_LAYERSTATES
360
2EE
  0
DICTIONARY
  5
1C
102
{ACAD_REACTORS
330
C
102
}
330
C
100
AcDbDictionary
281
     1
  0
DICTIONARY
  5
D
102
{ACAD_REACTORS
330
C
102
}
330
C
100
AcDbDictionary
281
     1
  0
DICTIONARY
  5
1A
102
{ACAD_REACTORS
330
C
102
}
330
C
100
AcDbDictionary
281
     1
  3
Layout1
350
22
  3
Layout2
350
2A
  3
Model
350
26
  0
DICTIONARY
  5
1B
102
{ACAD_REACTORS
330
C
102
}
330
C
100
AcDbDictionary
281
     1
  0
DICTIONARY
  5
17
102
{ACAD_REACTORS
330
C
102
}
330
C
100
AcDbDictionary
281
     1
  3
Standard
350
18
  0
DICTIONARY
  5
19
102
{ACAD_REACTORS
330
C
102
}
330
C
100
AcDbDictionary
281
     1
  0
ACDBDICTIONARYWDFLT
  5
E
102
{ACAD_REACTORS
330
C
102
}
330
C
100
AcDbDictionary
281
     1
  3
Normal
350
F
100
AcDbDictionaryWithDefault
340
F
  0
DICTIONARY
  5
1D
102
{ACAD_REACTORS
330
C
102
}
330
C
100
AcDbDictionary
281
     1
  3
Standard
350
1E
  0
DICTIONARY
  5
7489
102
{ACAD_REACTORS
330
C
102
}
330
C
100
AcDbDictionary
281
     1
  0
DICTIONARY
  5
7483
102
{ACAD_REACTORS
330
C
102
}
330
C
100
AcDbDictionary
281
     1
  3
CTABLESTYLE
350
7484
  3
DIMASSOC
350
7486
  3
HIDETEXT
350
7485
  3
PROJECTNAME
350
7487
  0
DICTIONARY
  5
2EE
102
{ACAD_REACTORS
330
2ED
102
}
330
2ED
100
AcDbDictionary
281
     1
  0
LAYOUT
  5
22
102
{ACAD_XDICTIONARY
360
748A
102
}
102
{ACAD_REACTORS
330
1A
102
}
330
1A
100
AcDbPlotSettings
  1

  2
C:\Documents and Settings\Julio\Application Data\Autodesk\AutoCAD 2006\R16.2\enu\plotters\Default Windows System Printer.pc3
  4

  6

 40
0.0
 41
0.0
 42
0.0
 43
0.0
 44
0.0
 45
0.0
 46
0.0
 47
0.0
 48
0.0
 49
0.0
140
0.0
141
0.0
142
1.0
143
1.0
 70
   688
 72
     0
 73
     0
 74
     5
  7

 75
    16
147
1.0
148
0.0
149
0.0
100
AcDbLayout
  1
Layout1
 70
     1
 71
     1
 10
0.0
 20
0.0
 11
420.0
 21
297.0
 12
0.0
 22
0.0
 32
0.0
 14
1.000000000000000E+20
 24
1.000000000000000E+20
 34
1.000000000000000E+20
 15
-1.000000000000000E+20
 25
-1.000000000000000E+20
 35
-1.000000000000000E+20
146
0.0
 13
0.0
 23
0.0
 33
0.0
 16
1.0
 26
0.0
 36
0.0
 17
0.0
 27
1.0
 37
0.0
 76
     0
330
1F
  0
LAYOUT
  5
2A
102
{ACAD_XDICTIONARY
360
748E
102
}
102
{ACAD_REACTORS
330
1A
102
}
330
1A
100
AcDbPlotSettings
  1

  2
C:\Documents and Settings\Julio\Application Data\Autodesk\AutoCAD 2006\R16.2\enu\plotters\Default Windows System Printer.pc3
  4

  6

 40
0.0
 41
0.0
 42
0.0
 43
0.0
 44
0.0
 45
0.0
 46
0.0
 47
0.0
 48
0.0
 49
0.0
140
0.0
141
0.0
142
1.0
143
1.0
 70
   688
 72
     0
 73
     0
 74
     5
  7

 75
    16
147
1.0
148
0.0
149
0.0
100
AcDbLayout
  1
Layout2
 70
     1
 71
     2
 10
0.0
 20
0.0
 11
12.0
 21
9.0
 12
0.0
 22
0.0
 32
0.0
 14
0.0
 24
0.0
 34
0.0
 15
0.0
 25
0.0
 35
0.0
146
0.0
 13
0.0
 23
0.0
 33
0.0
 16
1.0
 26
0.0
 36
0.0
 17
0.0
 27
1.0
 37
0.0
 76
     0
330
27
  0
LAYOUT
  5
26
102
{ACAD_XDICTIONARY
360
748C
102
}
102
{ACAD_REACTORS
330
1A
102
}
330
1A
100
AcDbPlotSettings
  1

  2
C:\Documents and Settings\Julio\Application Data\Autodesk\AutoCAD 2006\R16.2\enu\plotters\Default Windows System Printer.pc3
  4

  6

 40
0.0
 41
0.0
 42
0.0
 43
0.0
 44
0.0
 45
0.0
 46
0.0
 47
0.0
 48
0.0
 49
0.0
140
0.0
141
0.0
142
1.0
143
1.0
 70
  1712
 72
     0
 73
     0
 74
     0
  7

 75
     0
147
1.0
148
0.0
149
0.0
100
AcDbLayout
  1
Model
 70
     1
 71
     0
 10
0.0
 20
0.0
 11
12.0
 21
9.0
 12
0.0
 22
0.0
 32
0.0
 14
0.0
 24
0.0
 34
0.0
 15
0.0
 25
0.0
 35
0.0
146
0.0
 13
0.0
 23
0.0
 33
0.0
 16
1.0
 26
0.0
 36
0.0
 17
0.0
 27
1.0
 37
0.0
 76
     0
330
23
  0
MLINESTYLE
  5
18
102
{ACAD_REACTORS
330
17
102
}
330
17
100
AcDbMlineStyle
  2
STANDARD
 70
     0
  3

 62
   256
 51
90.0
 52
90.0
 71
     2
 49
0.5
 62
   256
  6
BYLAYER
 49
-0.5
 62
   256
  6
BYLAYER
  0
ACDBPLACEHOLDER
  5
F
102
{ACAD_REACTORS
330
E
102
}
330
E
  0
TABLESTYLE
  5
1E
102
{ACAD_REACTORS
330
1D
102
}
330
1D
100
AcDbTableStyle
  3
Standard
 70
     0
 71
     0
 40
1.5
 41
1.5
280
     0
281
     0
  7
Standard
140
4.5
170
     2
 62
     0
 63
     7
283
     0
274
    -2
284
     1
 64
     0
275
    -2
285
     1
 65
     0
276
    -2
286
     1
 66
     0
277
    -2
287
     1
 67
     0
278
    -2
288
     1
 68
     0
279
    -2
289
     1
 69
     0
  7
Standard
140
6.0
170
     5
 62
     0
 63
     7
283
     0
274
    -2
284
     1
 64
     0
275
    -2
285
     1
 65
     0
276
    -2
286
     1
 66
     0
277
    -2
287
     1
 67
     0
278
    -2
288
     1
 68
     0
279
    -2
289
     1
 69
     0
  7
Standard
140
4.5
170
     5
 62
     0
 63
     7
283
     0
274
    -2
284
     1
 64
     0
275
    -2
285
     1
 65
     0
276
    -2
286
     1
 66
     0
277
    -2
287
     1
 67
     0
278
    -2
288
     1
 68
     0
279
    -2
289
     1
 69
     0
  0
DICTIONARYVAR
  5
7484
102
{ACAD_REACTORS
330
7483
102
}
330
7483
100
DictionaryVariables
280
     0
  1
STANDARD
  0
DICTIONARYVAR
  5
7486
102
{ACAD_REACTORS
330
7483
102
}
330
7483
100
DictionaryVariables
280
     0
  1
2
  0
DICTIONARYVAR
  5
7485
102
{ACAD_REACTORS
330
7483
102
}
330
7483
100
DictionaryVariables
280
     0
  1
1
  0
DICTIONARYVAR
  5
7487
102
{ACAD_REACTORS
330
7483
102
}
330
7483
100
DictionaryVariables
280
     0
  1

  0
DICTIONARY
  5
748A
330
22
100
AcDbDictionary
280
     1
281
     1
  3
ACAD_XREC_ROUNDTRIP
360
748B
  0
DICTIONARY
  5
748E
330
2A
100
AcDbDictionary
280
     1
281
     1
  3
ACAD_XREC_ROUNDTRIP
360
748F
  0
DICTIONARY
  5
748C
330
26
100
AcDbDictionary
280
     1
281
     1
  3
ACAD_XREC_ROUNDTRIP
360
748D
  0
XRECORD
  5
748B
102
{ACAD_REACTORS
330
748A
102
}
330
748A
100
AcDbXrecord
280
     1
102
SHADEPLOT
 70
     0
102
SHADEPLOTRESLEVEL
 70
     2
102
SHADEPLOTCUSTOMDPI
 70
   300
  0
XRECORD
  5
748F
102
{ACAD_REACTORS
330
748E
102
}
330
748E
100
AcDbXrecord
280
     1
102
SHADEPLOT
 70
     0
102
SHADEPLOTRESLEVEL
 70
     2
102
SHADEPLOTCUSTOMDPI
 70
   300
  0
XRECORD
  5
748D
102
{ACAD_REACTORS
330
748C
102
}
330
748C
100
AcDbXrecord
280
     1
102
SHADEPLOT
 70
     0
102
SHADEPLOTRESLEVEL
 70
     2
102
SHADEPLOTCUSTOMDPI
 70
   300
  0
ENDSEC
  0
EOF
