  0
SECTION
  2
HEADER
  9
$ACADVER
  1
AC1015
  9
$ACADMAINTVER
 70
    20
  9
$DWGCODEPAGE
  3
ANSI_1252
  9
$INSBASE
 10
0.0
 20
0.0
 30
0.0
  9
$EXTMIN
 10
1959.517299145243
 20
1601.851811562194
 30
0.0
  9
$EXTMAX
 10
1966.000158651342
 20
1602.652051670894
 30
0.0
  9
$LIMMIN
 10
0.0
 20
0.0
  9
$LIMMAX
 10
420.0
 20
297.0
  9
$ORTHOMODE
 70
     1
  9
$REGENMODE
 70
     1
  9
$FILLMODE
 70
     1
  9
$QTEXTMODE
 70
     0
  9
$MIRRTEXT
 70
     0
  9
$LTSCALE
 40
1.0
  9
$ATTMODE
 70
     1
  9
$TEXTSIZE
 40
2.5
  9
$TRACEWID
 40
1.0
  9
$TEXTSTYLE
  7
Standard
  9
$CLAYER
  8
0
  9
$CELTYPE
  6
ByLayer
  9
$CECOLOR
 62
   256
  9
$CELTSCALE
 40
1.0
  9
$DISPSILH
 70
     0
  9
$DIMSCALE
 40
1.0
  9
$DIMASZ
 40
2.5
  9
$DIMEXO
 40
0.625
  9
$DIMDLI
 40
3.75
  9
$DIMRND
 40
0.0
  9
$DIMDLE
 40
0.0
  9
$DIMEXE
 40
1.25
  9
$DIMTP
 40
0.0
  9
$DIMTM
 40
0.0
  9
$DIMTXT
 40
2.5
  9
$DIMCEN
 40
2.5
  9
$DIMTSZ
 40
0.0
  9
$DIMTOL
 70
     0
  9
$DIMLIM
 70
     0
  9
$DIMTIH
 70
     0
  9
$DIMTOH
 70
     0
  9
$DIMSE1
 70
     0
  9
$DIMSE2
 70
     0
  9
$DIMTAD
 70
     1
  9
$DIMZIN
 70
     8
  9
$DIMBLK
  1

  9
$DIMASO
 70
     1
  9
$DIMSHO
 70
     1
  9
$DIMPOST
  1

  9
$DIMAPOST
  1

  9
$DIMALT
 70
     0
  9
$DIMALTD
 70
     3
  9
$DIMALTF
 40
0.03937007874016
  9
$DIMLFAC
 40
1.0
  9
$DIMTOFL
 70
     1
  9
$DIMTVP
 40
0.0
  9
$DIMTIX
 70
     0
  9
$DIMSOXD
 70
     0
  9
$DIMSAH
 70
     0
  9
$DIMBLK1
  1

  9
$DIMBLK2
  1

  9
$DIMSTYLE
  2
ISO-25
  9
$DIMCLRD
 70
     0
  9
$DIMCLRE
 70
     0
  9
$DIMCLRT
 70
     0
  9
$DIMTFAC
 40
1.0
  9
$DIMGAP
 40
0.625
  9
$DIMJUST
 70
     0
  9
$DIMSD1
 70
     0
  9
$DIMSD2
 70
     0
  9
$DIMTOLJ
 70
     0
  9
$DIMTZIN
 70
     8
  9
$DIMALTZ
 70
     0
  9
$DIMALTTZ
 70
     0
  9
$DIMUPT
 70
     0
  9
$DIMDEC
 70
     2
  9
$DIMTDEC
 70
     2
  9
$DIMALTU
 70
     2
  9
$DIMALTTD
 70
     3
  9
$DIMTXSTY
  7
Standard
  9
$DIMAUNIT
 70
     0
  9
$DIMADEC
 70
     0
  9
$DIMALTRND
 40
0.0
  9
$DIMAZIN
 70
     0
  9
$DIMDSEP
 70
    44
  9
$DIMATFIT
 70
     3
  9
$DIMFRAC
 70
     0
  9
$DIMLDRBLK
  1

  9
$DIMLUNIT
 70
     2
  9
$DIMLWD
 70
    -2
  9
$DIMLWE
 70
    -2
  9
$DIMTMOVE
 70
     0
  9
$LUNITS
 70
     2
  9
$LUPREC
 70
     4
  9
$SKETCHINC
 40
1.0
  9
$FILLETRAD
 40
0.0
  9
$AUNITS
 70
     0
  9
$AUPREC
 70
     0
  9
$MENU
  1
.
  9
$ELEVATION
 40
0.0
  9
$PELEVATION
 40
0.0
  9
$THICKNESS
 40
0.0
  9
$LIMCHECK
 70
     0
  9
$CHAMFERA
 40
0.0
  9
$CHAMFERB
 40
0.0
  9
$CHAMFERC
 40
0.0
  9
$CHAMFERD
 40
0.0
  9
$SKPOLY
 70
     0
  9
$TDCREATE
 40
2454930.709771586
  9
$TDUCREATE
 40
2454930.668104919
  9
$TDUPDATE
 40
2454936.417213541
  9
$TDUUPDATE
 40
2454936.375546875
  9
$TDINDWG
 40
0.0046643403
  9
$TDUSRTIMER
 40
0.0046643403
  9
$USRTIMER
 70
     1
  9
$ANGBASE
 50
0.0
  9
$ANGDIR
 70
     0
  9
$PDMODE
 70
     0
  9
$PDSIZE
 40
0.0
  9
$PLINEWID
 40
0.0
  9
$SPLFRAME
 70
     0
  9
$SPLINETYPE
 70
     6
  9
$SPLINESEGS
 70
     8
  9
$HANDSEED
  5
8A0D
  9
$SURFTAB1
 70
     6
  9
$SURFTAB2
 70
     6
  9
$SURFTYPE
 70
     6
  9
$SURFU
 70
     6
  9
$SURFV
 70
     6
  9
$UCSBASE
  2

  9
$UCSNAME
  2

  9
$UCSORG
 10
0.0
 20
0.0
 30
0.0
  9
$UCSXDIR
 10
1.0
 20
0.0
 30
0.0
  9
$UCSYDIR
 10
0.0
 20
1.0
 30
0.0
  9
$UCSORTHOREF
  2

  9
$UCSORTHOVIEW
 70
     0
  9
$UCSORGTOP
 10
0.0
 20
0.0
 30
0.0
  9
$UCSORGBOTTOM
 10
0.0
 20
0.0
 30
0.0
  9
$UCSORGLEFT
 10
0.0
 20
0.0
 30
0.0
  9
$UCSORGRIGHT
 10
0.0
 20
0.0
 30
0.0
  9
$UCSORGFRONT
 10
0.0
 20
0.0
 30
0.0
  9
$UCSORGBACK
 10
0.0
 20
0.0
 30
0.0
  9
$PUCSBASE
  2

  9
$PUCSNAME
  2

  9
$PUCSORG
 10
0.0
 20
0.0
 30
0.0
  9
$PUCSXDIR
 10
1.0
 20
0.0
 30
0.0
  9
$PUCSYDIR
 10
0.0
 20
1.0
 30
0.0
  9
$PUCSORTHOREF
  2

  9
$PUCSORTHOVIEW
 70
     0
  9
$PUCSORGTOP
 10
0.0
 20
0.0
 30
0.0
  9
$PUCSORGBOTTOM
 10
0.0
 20
0.0
 30
0.0
  9
$PUCSORGLEFT
 10
0.0
 20
0.0
 30
0.0
  9
$PUCSORGRIGHT
 10
0.0
 20
0.0
 30
0.0
  9
$PUCSORGFRONT
 10
0.0
 20
0.0
 30
0.0
  9
$PUCSORGBACK
 10
0.0
 20
0.0
 30
0.0
  9
$USERI1
 70
     0
  9
$USERI2
 70
     0
  9
$USERI3
 70
     0
  9
$USERI4
 70
     0
  9
$USERI5
 70
     0
  9
$USERR1
 40
0.0
  9
$USERR2
 40
0.0
  9
$USERR3
 40
0.0
  9
$USERR4
 40
0.0
  9
$USERR5
 40
0.0
  9
$WORLDVIEW
 70
     1
  9
$SHADEDGE
 70
     3
  9
$SHADEDIF
 70
    70
  9
$TILEMODE
 70
     1
  9
$MAXACTVP
 70
    64
  9
$PINSBASE
 10
0.0
 20
0.0
 30
0.0
  9
$PLIMCHECK
 70
     0
  9
$PEXTMIN
 10
1.000000000000000E+20
 20
1.000000000000000E+20
 30
1.000000000000000E+20
  9
$PEXTMAX
 10
-1.000000000000000E+20
 20
-1.000000000000000E+20
 30
-1.000000000000000E+20
  9
$PLIMMIN
 10
0.0
 20
0.0
  9
$PLIMMAX
 10
420.0
 20
297.0
  9
$UNITMODE
 70
     0
  9
$VISRETAIN
 70
     1
  9
$PLINEGEN
 70
     0
  9
$PSLTSCALE
 70
     1
  9
$TREEDEPTH
 70
  3020
  9
$CMLSTYLE
  2
Standard
  9
$CMLJUST
 70
     0
  9
$CMLSCALE
 40
20.0
  9
$PROXYGRAPHICS
 70
     1
  9
$MEASUREMENT
 70
     1
  9
$CELWEIGHT
370
    -1
  9
$ENDCAPS
280
     0
  9
$JOINSTYLE
280
     0
  9
$LWDISPLAY
290
     0
  9
$INSUNITS
 70
     4
  9
$HYPERLINKBASE
  1

  9
$STYLESHEET
  1

  9
$XEDIT
290
     1
  9
$CEPSNTYPE
380
     0
  9
$PSTYLEMODE
290
     1
  9
$FINGERPRINTGUID
  2
{AA9579EA-014F-4877-A034-63747DF3102B}
  9
$VERSIONGUID
  2
{08F3B878-5EB5-4209-B366-C5CA175AC5E8}
  9
$EXTNAMES
290
     1
  9
$PSVPSCALE
 40
0.0
  9
$OLESTARTUP
290
     0
  0
ENDSEC
  0
SECTION
  2
CLASSES
  0
CLASS
  1
ACDBDICTIONARYWDFLT
  2
AcDbDictionaryWithDefault
  3
ObjectDBX Classes
 90
        0
280
     0
281
     0
  0
CLASS
  1
TABLESTYLE
  2
AcDbTableStyle
  3
ObjectDBX Classes
 90
     2047
280
     0
281
     0
  0
CLASS
  1
DIMASSOC
  2
AcDbDimAssoc
  3
"AcDbDimAssoc|Product Desc:     AcDim ARX App For Dimension|Company:          Autodesk, Inc.|WEB Address:      www.autodesk.com"
 90
    32768
280
     0
281
     0
  0
CLASS
  1
SORTENTSTABLE
  2
AcDbSortentsTable
  3
ObjectDBX Classes
 90
    32768
280
     0
281
     0
  0
CLASS
  1
DICTIONARYVAR
  2
AcDbDictionaryVar
  3
ObjectDBX Classes
 90
        0
280
     0
281
     0
  0
CLASS
  1
ACDBPLACEHOLDER
  2
AcDbPlaceHolder
  3
ObjectDBX Classes
 90
        0
280
     0
281
     0
  0
CLASS
  1
LAYOUT
  2
AcDbLayout
  3
ObjectDBX Classes
 90
        0
280
     0
281
     0
  0
ENDSEC
  0
SECTION
  2
TABLES
  0
TABLE
  2
VPORT
  5
8
330
0
100
AcDbSymbolTable
 70
     7
  0
VPORT
  5
8A05
330
8
100
AcDbSymbolTableRecord
100
AcDbViewportTableRecord
  2
*Active
 70
     0
 10
0.0
 20
0.0
 11
1.0
 21
1.0
 12
1962.758728898292
 22
1602.251931616544
 13
0.0
 23
0.0
 14
10.0
 24
10.0
 15
10.0
 25
10.0
 16
0.0
 26
0.0
 36
1.0
 17
0.0
 27
0.0
 37
0.0
 40
4.062022750271922
 41
1.602030456852791
 42
50.0
 43
0.0
 44
0.0
 50
0.0
 51
0.0
 71
     0
 72
  1000
 73
     1
 74
     3
 75
     0
 76
     0
 77
     0
 78
     0
281
     0
 65
     1
110
0.0
120
0.0
130
0.0
111
1.0
121
0.0
131
0.0
112
0.0
122
1.0
132
0.0
 79
     0
146
0.0
  0
ENDTAB
  0
TABLE
  2
LTYPE
  5
5
330
0
100
AcDbSymbolTable
 70
     5
  0
LTYPE
  5
14
330
5
100
AcDbSymbolTableRecord
100
AcDbLinetypeTableRecord
  2
ByBlock
 70
     0
  3

 72
    65
 73
     0
 40
0.0
  0
LTYPE
  5
15
330
5
100
AcDbSymbolTableRecord
100
AcDbLinetypeTableRecord
  2
ByLayer
 70
     0
  3

 72
    65
 73
     0
 40
0.0
  0
LTYPE
  5
16
330
5
100
AcDbSymbolTableRecord
100
AcDbLinetypeTableRecord
  2
Continuous
 70
     0
  3
Solid line
 72
    65
 73
     0
 40
0.0
  0
LTYPE
  5
2EC
330
5
100
AcDbSymbolTableRecord
100
AcDbLinetypeTableRecord
  2
DASHDOT
 70
     0
  3
Dash dot __ . __ . __ . __ . __ . __ . __ . __
 72
    65
 73
     4
 40
25.4
 49
12.7
 74
     0
 49
-6.349999999999999
 74
     0
 49
0.0
 74
     0
 49
-6.349999999999999
 74
     0
  0
LTYPE
  5
2ED
330
5
100
AcDbSymbolTableRecord
100
AcDbLinetypeTableRecord
  2
HIDDEN
 70
     0
  3
Hidden __ __ __ __ __ __ __ __ __ __ __ __ __ _
 72
    65
 73
     2
 40
9.524999999999998
 49
6.349999999999999
 74
     0
 49
-3.174999999999999
 74
     0
  0
LTYPE
  5
2EE
330
5
100
AcDbSymbolTableRecord
100
AcDbLinetypeTableRecord
  2
HIDDEN2
 70
     0
  3
Hidden (.5x) _ _ _ _ _ _ _ _ _ _ _ _ _ _ _ _ _
 72
    65
 73
     2
 40
4.762499999999999
 49
3.174999999999999
 74
     0
 49
-1.587499999999999
 74
     0
  0
ENDTAB
  0
TABLE
  2
LAYER
  5
2
330
0
100
AcDbSymbolTable
 70
     9
  0
LAYER
  5
10
330
2
100
AcDbSymbolTableRecord
100
AcDbLayerTableRecord
  2
0
 70
     0
 62
     7
  6
Continuous
370
    -3
390
F
  0
LAYER
  5
2EF
330
2
100
AcDbSymbolTableRecord
100
AcDbLayerTableRecord
  2
4
 70
     0
 62
     4
  6
Continuous
370
    -3
390
F
  0
LAYER
  5
2F0
330
2
100
AcDbSymbolTableRecord
100
AcDbLayerTableRecord
  2
cen
 70
     0
 62
     7
  6
DASHDOT
370
    -3
390
F
  0
LAYER
  5
2F1
330
2
100
AcDbSymbolTableRecord
100
AcDbLayerTableRecord
  2
hid
 70
     0
 62
     9
  6
HIDDEN
370
    -3
390
F
  0
LAYER
  5
2F2
330
2
100
AcDbSymbolTableRecord
100
AcDbLayerTableRecord
  2
hatch
 70
     0
 62
     9
  6
Continuous
370
    -3
390
F
  0
LAYER
  5
2F3
330
2
100
AcDbSymbolTableRecord
100
AcDbLayerTableRecord
  2
9
 70
     0
 62
     9
  6
Continuous
370
    -3
390
F
  0
LAYER
  5
2F4
330
2
100
AcDbSymbolTableRecord
100
AcDbLayerTableRecord
  2
cotas
 70
     0
 62
     1
  6
Continuous
370
    -3
390
F
  0
LAYER
  5
2F5
330
2
100
AcDbSymbolTableRecord
100
AcDbLayerTableRecord
  2
Defpoints
 70
     0
 62
     7
  6
Continuous
290
     0
370
    -3
390
F
  0
LAYER
  5
2F6
330
2
100
AcDbSymbolTableRecord
100
AcDbLayerTableRecord
  2
SANINDUSA
 70
     0
 62
     3
  6
Continuous
370
    -3
390
F
  0
ENDTAB
  0
TABLE
  2
STYLE
  5
3
330
0
100
AcDbSymbolTable
 70
     2
  0
STYLE
  5
11
330
3
100
AcDbSymbolTableRecord
100
AcDbTextStyleTableRecord
  2
Standard
 70
     0
 40
0.0
 41
1.0
 50
0.0
 71
     0
 42
2.5
  3
txt
  4

  0
STYLE
  5
2F7
330
3
100
AcDbSymbolTableRecord
100
AcDbTextStyleTableRecord
  2
SANINDUSA
 70
     0
 40
0.0
 41
1.0
 50
0.0
 71
     0
 42
2.5
  3
verdana.TTF
  4

1001
ACAD
1000
Verdana
1071
       34
  0
ENDTAB
  0
TABLE
  2
VIEW
  5
6
330
0
100
AcDbSymbolTable
 70
     0
  0
ENDTAB
  0
TABLE
  2
UCS
  5
7
330
0
100
AcDbSymbolTable
 70
     0
  0
ENDTAB
  0
TABLE
  2
APPID
  5
9
330
0
100
AcDbSymbolTable
 70
     7
  0
APPID
  5
12
330
9
100
AcDbSymbolTableRecord
100
AcDbRegAppTableRecord
  2
ACAD
 70
     0
  0
APPID
  5
2F9
330
9
100
AcDbSymbolTableRecord
100
AcDbRegAppTableRecord
  2
ACAD_DSTYLE_DIMEXT_LENGTH
 70
     0
  0
APPID
  5
2FA
330
9
100
AcDbSymbolTableRecord
100
AcDbRegAppTableRecord
  2
ACAD_DSTYLE_DIMEXT_ENABLED
 70
     0
  0
APPID
  5
2FB
330
9
100
AcDbSymbolTableRecord
100
AcDbRegAppTableRecord
  2
ACAD_DSTYLE_DIMJOGGED_JOGANGLE_SYMBOL
 70
     0
  0
APPID
  5
2FC
330
9
100
AcDbSymbolTableRecord
100
AcDbRegAppTableRecord
  2
ACAD_DSTYLE_DIMARC_LENGTH_SYMBOL
 70
     0
  0
APPID
  5
2FD
330
9
100
AcDbSymbolTableRecord
100
AcDbRegAppTableRecord
  2
ACAD_PSEXT
 70
     0
  0
APPID
  5
89EF
330
9
100
AcDbSymbolTableRecord
100
AcDbRegAppTableRecord
  2
ACAD_EXEMPT_FROM_CAD_STANDARDS
 70
     0
  0
ENDTAB
  0
TABLE
  2
DIMSTYLE
  5
A
330
0
100
AcDbSymbolTable
 70
     3
100
AcDbDimStyleTable
 71
     1
340
2B
  0
DIMSTYLE
105
2B
330
A
100
AcDbSymbolTableRecord
100
AcDbDimStyleTableRecord
  2
ISO-25
 70
     0
 41
2.5
 42
0.625
 43
3.75
 44
1.25
 73
     0
 74
     0
 77
     1
 78
     8
140
2.5
141
2.5
143
0.03937007874016
147
0.625
171
     3
172
     1
271
     2
272
     2
274
     3
278
    44
283
     0
284
     8
340
11
  0
DIMSTYLE
105
2F8
330
A
100
AcDbSymbolTableRecord
100
AcDbDimStyleTableRecord
  2
SANINDUSA
 70
     0
 40
5.0
 41
2.0
 42
1.0
 43
1.0
 44
1.0
 73
     0
 74
     0
 77
     1
 78
     8
140
2.0
141
0.0
143
0.03937007874016
147
1.0
171
     3
172
     1
176
   256
177
   256
178
   256
179
     1
271
     1
272
     1
274
     3
278
    44
283
     0
284
     8
340
2F7
371
    -1
372
    -1
1001
ACAD_DSTYLE_DIMEXT_LENGTH
1070
   378
1040
1.0
1001
ACAD_DSTYLE_DIMEXT_ENABLED
1070
   383
1070
     0
1001
ACAD_DSTYLE_DIMARC_LENGTH_SYMBOL
1070
   379
1070
     0
1001
ACAD_DSTYLE_DIMJOGGED_JOGANGLE_SYMBOL
1070
   384
1040
1.570796326794896
  0
ENDTAB
  0
TABLE
  2
BLOCK_RECORD
  5
1
330
0
100
AcDbSymbolTable
 70
   126
  0
BLOCK_RECORD
  5
23
330
1
100
AcDbSymbolTableRecord
100
AcDbBlockTableRecord
  2
*Model_Space
340
26
  0
BLOCK_RECORD
  5
1F
330
1
100
AcDbSymbolTableRecord
100
AcDbBlockTableRecord
  2
*Paper_Space
340
22
  0
BLOCK_RECORD
  5
27
330
1
100
AcDbSymbolTableRecord
100
AcDbBlockTableRecord
  2
*Paper_Space0
340
2A
  0
ENDTAB
  0
ENDSEC
  0
SECTION
  2
BLOCKS
  0
BLOCK
  5
24
330
23
100
AcDbEntity
  8
0
100
AcDbBlockBegin
  2
*Model_Space
 70
     0
 10
0.0
 20
0.0
 30
0.0
  3
*Model_Space
  1

  0
ENDBLK
  5
25
330
23
100
AcDbEntity
  8
0
100
AcDbBlockEnd
  0
BLOCK
  5
20
330
1F
100
AcDbEntity
 67
     1
  8
0
100
AcDbBlockBegin
  2
*Paper_Space
 70
     0
 10
0.0
 20
0.0
 30
0.0
  3
*Paper_Space
  1

  0
ENDBLK
  5
21
330
1F
100
AcDbEntity
 67
     1
  8
0
100
AcDbBlockEnd
  0
BLOCK
  5
28
330
27
100
AcDbEntity
 67
     1
  8
0
100
AcDbBlockBegin
  2
*Paper_Space0
 70
     0
 10
0.0
 20
0.0
 30
0.0
  3
*Paper_Space0
  1

  0
ENDBLK
  5
29
330
27
100
AcDbEntity
 67
     1
  8
0
100
AcDbBlockEnd
  0
ENDSEC
  0
SECTION
  2
ENTITIES
  0
LINE
  5
9AC
330
23
100
AcDbEntity
  8
SANINDUSA
100
AcDbLine
 10
1963.846787328631
 20
1602.234704244308
 30
0.0
 11
1963.849724304694
 21
1602.232647749337
 31
0.0
  0
LINE
  5
9AD
330
23
100
AcDbEntity
  8
SANINDUSA
100
AcDbLine
 10
1963.975464842939
 20
1602.232647749337
 30
0.0
 11
1963.978404407191
 21
1602.23470424429
 31
0.0
  0
LINE
  5
9AE
330
23
100
AcDbEntity
  8
SANINDUSA
100
AcDbLine
 10
1963.849724304694
 20
1602.232647749337
 30
0.0
 11
1963.860898805554
 21
1602.220664564265
 31
0.0
  0
LINE
  5
9AF
330
23
100
AcDbEntity
  8
SANINDUSA
100
AcDbLine
 10
1963.964290342079
 20
1602.220664564265
 30
0.0
 11
1963.975464842939
 21
1602.232647749337
 31
0.0
  0
LINE
  5
9B5
330
23
100
AcDbEntity
  8
SANINDUSA
100
AcDbLine
 10
1962.390499966047
 20
1602.234704244506
 30
0.0
 11
1964.094689365714
 21
1602.234704244274
 31
0.0
  0
LINE
  5
9B9
330
23
100
AcDbEntity
  8
SANINDUSA
100
AcDbLine
 10
1962.390499966047
 20
1602.234704244506
 30
0.0
 11
1962.392474520792
 21
1602.347826410202
 31
0.0
  0
LINE
  5
9BB
330
23
100
AcDbEntity
  8
SANINDUSA
100
AcDbLine
 10
1964.092714626841
 20
1602.347826410202
 30
0.0
 11
1964.094689365714
 21
1602.234704244274
 31
0.0
  0
LINE
  5
9BD
330
23
100
AcDbEntity
  8
SANINDUSA
100
AcDbLine
 10
1962.3994734546
 20
1602.354704243357
 30
0.0
 11
1964.085715649446
 21
1602.354704243357
 31
0.0
  0
ARC
  5
9C0
330
23
100
AcDbEntity
  8
SANINDUSA
100
AcDbCircle
 10
1962.399473454658
 20
1602.347704243356
 30
0.0
 40
0.0069999999999999
100
AcDbArc
 50
90.0
 51
179.0000000030781
  0
ARC
  5
9C1
330
23
100
AcDbEntity
  8
SANINDUSA
100
AcDbCircle
 10
1964.085715692975
 20
1602.347704243356
 30
0.0
 40
0.0069999999999999
100
AcDbArc
 50
0.9999999969218754
 51
90.0
  0
LINE
  5
A24
330
23
100
AcDbEntity
  8
SANINDUSA
100
AcDbLine
 10
1963.860898805554
 20
1602.220664564265
 30
0.0
 11
1963.964290342079
 21
1602.220664564265
 31
0.0
  0
LINE
  5
A78
330
23
100
AcDbEntity
  8
SANINDUSA
100
AcDbLine
 10
1961.761778903718
 20
1602.234704251077
 30
0.0
 11
1961.764715884704
 21
1602.23264775627
 31
0.0
  0
LINE
  5
A79
330
23
100
AcDbEntity
  8
SANINDUSA
100
AcDbLine
 10
1961.890456422948
 20
1602.23264775627
 30
0.0
 11
1961.893393400448
 21
1602.234704251034
 31
0.0
  0
LINE
  5
A7A
330
23
100
AcDbEntity
  8
SANINDUSA
100
AcDbLine
 10
1961.764715884704
 20
1602.23264775627
 30
0.0
 11
1961.775890385564
 21
1602.220664571198
 31
0.0
  0
LINE
  5
A7B
330
23
100
AcDbEntity
  8
SANINDUSA
100
AcDbLine
 10
1961.879281922089
 20
1602.220664571198
 30
0.0
 11
1961.890456422948
 21
1602.23264775627
 31
0.0
  0
LINE
  5
A7E
330
23
100
AcDbEntity
  8
SANINDUSA
100
AcDbLine
 10
1961.425491546053
 20
1602.234704251183
 30
0.0
 11
1961.427466100802
 21
1602.347826417135
 31
0.0
  0
LINE
  5
A81
330
23
100
AcDbEntity
  8
SANINDUSA
100
AcDbLine
 10
1962.227706206851
 20
1602.347826417135
 30
0.0
 11
1962.229680823588
 21
1602.234704250928
 31
0.0
  0
LINE
  5
A85
330
23
100
AcDbEntity
  8
SANINDUSA
100
AcDbLine
 10
1961.425491546053
 20
1602.234704251183
 30
0.0
 11
1962.229680823588
 21
1602.234704250928
 31
0.0
  0
LINE
  5
A87
330
23
100
AcDbEntity
  8
SANINDUSA
100
AcDbLine
 10
1961.43446503461
 20
1602.35470425029
 30
0.0
 11
1962.220707253299
 21
1602.35470425029
 31
0.0
  0
ARC
  5
A89
330
23
100
AcDbEntity
  8
SANINDUSA
100
AcDbCircle
 10
1961.434465034668
 20
1602.34770425029
 30
0.0
 40
0.007
100
AcDbArc
 50
90.0
 51
179.0000000030781
  0
ARC
  5
A8A
330
23
100
AcDbEntity
  8
SANINDUSA
100
AcDbCircle
 10
1962.220707272985
 20
1602.34770425029
 30
0.0
 40
0.0069999999999999
100
AcDbArc
 50
0.9999999969218754
 51
90.0
  0
LINE
  5
A9E
330
23
100
AcDbEntity
  8
SANINDUSA
100
AcDbLine
 10
1961.827586153826
 20
1602.220664571198
 30
0.0
 11
1961.879281922089
 21
1602.220664571198
 31
0.0
  0
LINE
  5
A9F
330
23
100
AcDbEntity
  8
SANINDUSA
100
AcDbLine
 10
1961.775890385564
 20
1602.220664571198
 30
0.0
 11
1961.827586153826
 21
1602.220664571198
 31
0.0
  0
ARC
  5
AC2
330
23
100
AcDbEntity
  8
SANINDUSA
100
AcDbCircle
 10
1959.522300173958
 20
1602.647050642173
 30
0.0
 40
0.0050010290416769
100
AcDbArc
 50
90.02051026560812
 51
179.9792821012585
  0
LINE
  5
AC4
330
23
100
AcDbEntity
  8
SANINDUSA
100
AcDbLine
 10
1959.522298383718
 20
1602.652051668243
 30
0.0
 11
1961.212540012816
 21
1602.652051668243
 31
0.0
  0
ARC
  5
AC8
330
23
100
AcDbEntity
  8
SANINDUSA
100
AcDbCircle
 10
1961.212538220791
 20
1602.647050601958
 30
0.0
 40
0.0050010692556697
100
AcDbArc
 50
0.0211784618175847
 51
89.97950466397012
  0
LINE
  5
ACB
330
23
100
AcDbEntity
  8
SANINDUSA
100
AcDbLine
 10
1959.517299145243
 20
1601.85681080067
 30
0.0
 11
1959.517299145243
 21
1602.647052429767
 31
0.0
  0
LINE
  5
ACC
330
23
100
AcDbEntity
  8
SANINDUSA
100
AcDbLine
 10
1961.217539251292
 20
1602.647052429767
 30
0.0
 11
1961.217539251292
 21
1601.85681080067
 31
0.0
  0
ELLIPSE
  5
AD9
330
23
100
AcDbEntity
  8
SANINDUSA
100
AcDbEllipse
 10
1959.60767583454
 20
1602.561674978946
 30
0.0
 11
0.0141714282369873
 21
-0.0141714282369858
 31
0.0
210
0.0
220
0.0
230
1.0
 40
0.9979329808706712
 41
2.356803477777904
 42
3.92638182940161
  0
ELLIPSE
  5
ADC
330
23
100
AcDbEntity
  8
SANINDUSA
100
AcDbEllipse
 10
1961.127162561818
 20
1602.561674978946
 30
0.0
 11
0.0141714282369861
 21
0.0141714282369864
 31
0.0
210
0.0
220
0.0
230
1.0
 40
0.9979329808707111
 41
5.498396131367771
 42
7.067974482991423
  0
LINE
  5
ADE
330
23
100
AcDbEntity
  8
SANINDUSA
100
AcDbLine
 10
1961.127195467185
 20
1602.581695700853
 30
0.0
 11
1959.607642929174
 21
1602.581695700853
 31
0.0
  0
LINE
  5
ADF
330
23
100
AcDbEntity
  8
SANINDUSA
100
AcDbLine
 10
1959.587655112633
 20
1602.561707884312
 30
0.0
 11
1959.587655112633
 21
1601.942155346124
 31
0.0
  0
LINE
  5
AE2
330
23
100
AcDbEntity
  8
SANINDUSA
100
AcDbLine
 10
1961.147183283725
 20
1601.942155346124
 30
0.0
 11
1961.147183283725
 21
1602.561707884312
 31
0.0
  0
ELLIPSE
  5
AE4
330
23
100
AcDbEntity
  8
SANINDUSA
100
AcDbEllipse
 10
1961.127162561818
 20
1601.942188251491
 30
0.0
 11
-0.0141714282369861
 21
0.0141714282369874
 31
0.0
210
0.0
220
0.0
230
1.0
 40
0.9979329808706809
 41
2.35680347777799
 42
3.926381829401686
  0
ELLIPSE
  5
AE5
330
23
100
AcDbEntity
  8
SANINDUSA
100
AcDbEllipse
 10
1959.60767583454
 20
1601.942188251491
 30
0.0
 11
0.0141714282369856
 21
0.0141714282369874
 31
0.0
210
0.0
220
0.0
230
1.0
 40
0.9979329808707012
 41
2.356803477777897
 42
3.926381829401565
  0
LINE
  5
AE7
330
23
100
AcDbEntity
  8
SANINDUSA
100
AcDbLine
 10
1959.607642929174
 20
1601.922167529584
 30
0.0
 11
1961.127195467185
 21
1601.922167529584
 31
0.0
  0
ARC
  5
AE9
330
23
100
AcDbEntity
  8
SANINDUSA
100
AcDbCircle
 10
1961.212538227078
 20
1601.856812624836
 30
0.0
 40
0.0050010629595766
100
AcDbArc
 50
270.0204233327454
 51
359.9791011876325
  0
LINE
  5
AEA
330
23
100
AcDbEntity
  8
SANINDUSA
100
AcDbLine
 10
1961.212540012816
 20
1601.851811562194
 30
0.0
 11
1959.522298383718
 21
1601.851811562194
 31
0.0
  0
ARC
  5
AEC
330
23
100
AcDbEntity
  8
SANINDUSA
100
AcDbCircle
 10
1959.52230016767
 20
1601.856812584621
 30
0.0
 40
0.0050010227454467
100
AcDbArc
 50
180.0204382492961
 51
269.9795617507039
  0
ARC
  5
B32
330
23
100
AcDbEntity
  8
SANINDUSA
100
AcDbCircle
 10
1959.635504470832
 20
1601.969726136332
 30
0.0
 40
0.0108877795079256
100
AcDbArc
 50
179.98753168165
 51
269.9876889632898
  0
ARC
  5
B35
330
23
100
AcDbEntity
  8
SANINDUSA
100
AcDbCircle
 10
1959.635504460278
 20
1602.534137086777
 30
0.0
 40
0.0108877689512737
100
AcDbArc
 50
90.01225551328493
 51
180.0124062420634
  0
LINE
  5
B38
330
23
100
AcDbEntity
  8
SANINDUSA
100
AcDbLine
 10
1959.624616693773
 20
1601.969728503009
 30
0.0
 11
1959.624616693773
 21
1602.534134727428
 31
0.0
  0
LINE
  5
B3D
330
23
100
AcDbEntity
  8
SANINDUSA
100
AcDbLine
 10
1959.635502133624
 20
1602.545024871998
 30
0.0
 11
1960.152353180166
 21
1602.545024871998
 31
0.0
  0
LINE
  5
B3F
330
23
100
AcDbEntity
  8
SANINDUSA
100
AcDbLine
 10
1960.152353726985
 20
1601.958838358439
 30
0.0
 11
1959.635502133624
 21
1601.958838358439
 31
0.0
  0
LWPOLYLINE
  5
B4E
330
23
100
AcDbEntity
  8
SANINDUSA
100
AcDbPolyline
 90
        3
 70
   128
 43
0.0
 10
1960.164486327879
 20
1601.959235286757
 10
1960.158459583037
 20
1601.958951956078
 10
1960.15235374283
 20
1601.958838357076
  0
LWPOLYLINE
  5
B4F
330
23
100
AcDbEntity
  8
SANINDUSA
100
AcDbPolyline
 90
        3
 70
   128
 43
0.0
 10
1960.152353206389
 20
1602.545024855479
 10
1960.161418953649
 20
1602.544786138877
 10
1960.164486327879
 20
1602.544627888545
  0
ARC
  5
B51
330
23
100
AcDbEntity
  8
SANINDUSA
100
AcDbCircle
 10
1960.16538481245
 20
1602.53419505213
 30
0.0
 40
0.0101579386503083
100
AcDbArc
 50
0.0046899968820424
 51
72.96857489465125
  0
ARC
  5
B53
330
23
100
AcDbEntity
  8
SANINDUSA
100
AcDbCircle
 10
1960.165384999847
 20
1601.96966813496
 30
0.0
 40
0.010157870454485
100
AcDbArc
 50
287.0300858299747
 51
359.9959158885075
  0
LINE
  5
B56
330
23
100
AcDbEntity
  8
SANINDUSA
100
AcDbLine
 10
1960.164486306797
 20
1602.544627913701
 30
0.0
 11
1960.166846022335
 21
1602.544320795024
 31
0.0
  0
LINE
  5
B57
330
23
100
AcDbEntity
  8
SANINDUSA
100
AcDbLine
 10
1960.166845693485
 20
1601.959542328321
 30
0.0
 11
1960.164486312538
 21
1601.959235287529
 31
0.0
  0
LWPOLYLINE
  5
B58
330
23
100
AcDbEntity
  8
SANINDUSA
100
AcDbPolyline
 90
        8
 70
   128
 43
0.0
 10
1960.175542751066
 20
1602.534195883616
 10
1960.17554048609
 20
1602.497666223392
 10
1960.175465086214
 20
1602.401659949168
 10
1960.17539779257
 20
1602.305665834293
 10
1960.175391653292
 20
1602.209671421394
 10
1960.175459304563
 20
1602.113672478541
 10
1960.175536194555
 20
1602.017673505887
 10
1960.175542870275
 20
1601.969667410895
  0
LINE
  5
B59
330
23
100
AcDbEntity
  8
SANINDUSA
100
AcDbLine
 10
1960.168359965725
 20
1601.959955674195
 30
0.0
 11
1960.166845693485
 21
1601.959542328321
 31
0.0
  0
LINE
  5
B5A
330
23
100
AcDbEntity
  8
SANINDUSA
100
AcDbLine
 10
1960.166846022335
 20
1602.544320795024
 30
0.0
 11
1960.168360007315
 21
1602.543907500137
 31
0.0
  0
CIRCLE
  5
B7A
330
23
100
AcDbEntity
  8
SANINDUSA
100
AcDbCircle
 10
1960.302065307048
 20
1602.49178085128
 30
0.0
 40
0.0107481129185497
  0
CIRCLE
  5
B7C
330
23
100
AcDbEntity
  8
SANINDUSA
100
AcDbCircle
 10
1960.302081400288
 20
1602.011925545388
 30
0.0
 40
0.0107483118826213
  0
CIRCLE
  5
B7E
330
23
100
AcDbEntity
  8
SANINDUSA
100
AcDbCircle
 10
1960.302065212065
 20
1602.091904991219
 30
0.0
 40
0.0107494804090941
  0
CIRCLE
  5
B80
330
23
100
AcDbEntity
  8
SANINDUSA
100
AcDbCircle
 10
1960.302066196584
 20
1602.411958116002
 30
0.0
 40
0.0107484362535795
  0
CIRCLE
  5
B83
330
23
100
AcDbEntity
  8
SANINDUSA
100
AcDbCircle
 10
1960.382054122485
 20
1602.491780344023
 30
0.0
 40
0.0107478366991083
  0
CIRCLE
  5
B86
330
23
100
AcDbEntity
  8
SANINDUSA
100
AcDbCircle
 10
1960.38207015044
 20
1602.011926006098
 30
0.0
 40
0.0107480413484805
  0
CIRCLE
  5
BBF
330
23
100
AcDbEntity
  8
SANINDUSA
100
AcDbCircle
 10
1960.302035495648
 20
1602.17190465748
 30
0.0
 40
0.0107517191302605
  0
CIRCLE
  5
BC1
330
23
100
AcDbEntity
  8
SANINDUSA
100
AcDbCircle
 10
1960.302036720527
 20
1602.331959302313
 30
0.0
 40
0.0107504349513283
  0
CIRCLE
  5
BC3
330
23
100
AcDbEntity
  8
SANINDUSA
100
AcDbCircle
 10
1960.382053347262
 20
1602.091902326908
 30
0.0
 40
0.0107491692071922
  0
CIRCLE
  5
BC5
330
23
100
AcDbEntity
  8
SANINDUSA
100
AcDbCircle
 10
1960.38205436373
 20
1602.411960715233
 30
0.0
 40
0.0107480930625825
  0
CIRCLE
  5
BC7
330
23
100
AcDbEntity
  8
SANINDUSA
100
AcDbCircle
 10
1960.462040891472
 20
1602.491779941291
 30
0.0
 40
0.0107476995785199
  0
CIRCLE
  5
BC9
330
23
100
AcDbEntity
  8
SANINDUSA
100
AcDbCircle
 10
1960.462056742437
 20
1602.011926024979
 30
0.0
 40
0.0107479024319725
  0
CIRCLE
  5
BCB
330
23
100
AcDbEntity
  8
SANINDUSA
100
AcDbCircle
 10
1960.302019791328
 20
1602.251932415985
 30
0.0
 40
0.0107525811805692
  0
CIRCLE
  5
BCD
330
23
100
AcDbEntity
  8
SANINDUSA
100
AcDbCircle
 10
1960.462039621477
 20
1602.091900378306
 30
0.0
 40
0.0107488115733737
  0
CIRCLE
  5
BCF
330
23
100
AcDbEntity
  8
SANINDUSA
100
AcDbCircle
 10
1960.462040621531
 20
1602.411962896717
 30
0.0
 40
0.0107477519317148
  0
CIRCLE
  5
BD1
330
23
100
AcDbEntity
  8
SANINDUSA
100
AcDbCircle
 10
1960.382020453542
 20
1602.171900842352
 30
0.0
 40
0.0107517241546225
  0
CIRCLE
  5
BD3
330
23
100
AcDbEntity
  8
SANINDUSA
100
AcDbCircle
 10
1960.382021734328
 20
1602.331963514023
 30
0.0
 40
0.0107504438635698
  0
CIRCLE
  5
BD5
330
23
100
AcDbEntity
  8
SANINDUSA
100
AcDbCircle
 10
1960.542024337376
 20
1602.491780866531
 30
0.0
 40
0.0107476073192978
  0
CIRCLE
  5
BD7
330
23
100
AcDbEntity
  8
SANINDUSA
100
AcDbCircle
 10
1960.542039941985
 20
1602.011925427229
 30
0.0
 40
0.0107478180941346
  0
CIRCLE
  5
BD9
330
23
100
AcDbEntity
  8
SANINDUSA
100
AcDbCircle
 10
1960.382002210626
 20
1602.251932540119
 30
0.0
 40
0.0107530982747473
  0
CIRCLE
  5
BDB
330
23
100
AcDbEntity
  8
SANINDUSA
100
AcDbCircle
 10
1960.54202258934
 20
1602.091899744278
 30
0.0
 40
0.0107484818919734
  0
CIRCLE
  5
BDD
330
23
100
AcDbEntity
  8
SANINDUSA
100
AcDbCircle
 10
1960.542023455958
 20
1602.411963504406
 30
0.0
 40
0.0107476152708768
  0
CIRCLE
  5
BDF
330
23
100
AcDbEntity
  8
SANINDUSA
100
AcDbCircle
 10
1960.462004670529
 20
1602.171897000954
 30
0.0
 40
0.0107518742214049
  0
CIRCLE
  5
BE1
330
23
100
AcDbEntity
  8
SANINDUSA
100
AcDbCircle
 10
1960.46200610892
 20
1602.3319671565
 30
0.0
 40
0.0107503766654413
  0
CIRCLE
  5
BE3
330
23
100
AcDbEntity
  8
SANINDUSA
100
AcDbCircle
 10
1960.622003306324
 20
1602.491783701043
 30
0.0
 40
0.0107477005882255
  0
CIRCLE
  5
BE5
330
23
100
AcDbEntity
  8
SANINDUSA
100
AcDbCircle
 10
1960.622018304501
 20
1602.011922681261
 30
0.0
 40
0.0107481601668816
  0
CIRCLE
  5
BE7
330
23
100
AcDbEntity
  8
SANINDUSA
100
AcDbCircle
 10
1960.461984710251
 20
1602.251932791878
 30
0.0
 40
0.0107535350568672
  0
CIRCLE
  5
BE9
330
23
100
AcDbEntity
  8
SANINDUSA
100
AcDbCircle
 10
1960.622000712816
 20
1602.091899945472
 30
0.0
 40
0.0107484667787433
  0
CIRCLE
  5
BEB
330
23
100
AcDbEntity
  8
SANINDUSA
100
AcDbCircle
 10
1960.622001624264
 20
1602.411963382042
 30
0.0
 40
0.0107474361418635
  0
CIRCLE
  5
BED
330
23
100
AcDbEntity
  8
SANINDUSA
100
AcDbCircle
 10
1960.541987770292
 20
1602.171895321073
 30
0.0
 40
0.0107517106189313
  0
CIRCLE
  5
BEF
330
23
100
AcDbEntity
  8
SANINDUSA
100
AcDbCircle
 10
1960.541989094416
 20
1602.331968881125
 30
0.0
 40
0.010750386901094
  0
CIRCLE
  5
BF1
330
23
100
AcDbEntity
  8
SANINDUSA
100
AcDbCircle
 10
1960.701976870811
 20
1602.49178932886
 30
0.0
 40
0.0107480726579562
  0
CIRCLE
  5
BF3
330
23
100
AcDbEntity
  8
SANINDUSA
100
AcDbCircle
 10
1960.701991102833
 20
1602.011917247616
 30
0.0
 40
0.0107490598588956
  0
CIRCLE
  5
BF5
330
23
100
AcDbEntity
  8
SANINDUSA
100
AcDbCircle
 10
1960.541967283974
 20
1602.25193249828
 30
0.0
 40
0.0107539572926234
  0
CIRCLE
  5
BF7
330
23
100
AcDbEntity
  8
SANINDUSA
100
AcDbCircle
 10
1960.621968723532
 20
1602.171895850785
 30
0.0
 40
0.0107516073744219
  0
CIRCLE
  5
BF9
330
23
100
AcDbEntity
  8
SANINDUSA
100
AcDbCircle
 10
1960.621969879309
 20
1602.331968396504
 30
0.0
 40
0.0107503327432529
  0
CIRCLE
  5
BFB
330
23
100
AcDbEntity
  8
SANINDUSA
100
AcDbCircle
 10
1960.701973786871
 20
1602.091902790813
 30
0.0
 40
0.0107483748297078
  0
CIRCLE
  5
BFD
330
23
100
AcDbEntity
  8
SANINDUSA
100
AcDbCircle
 10
1960.701974370139
 20
1602.411960657655
 30
0.0
 40
0.0107477916016176
  0
CIRCLE
  5
C01
330
23
100
AcDbEntity
  8
SANINDUSA
100
AcDbCircle
 10
1960.781946422942
 20
1602.491797830612
 30
0.0
 40
0.0107488812431278
  0
CIRCLE
  5
C03
330
23
100
AcDbEntity
  8
SANINDUSA
100
AcDbCircle
 10
1960.781960214327
 20
1602.011909742033
 30
0.0
 40
0.0107503084925414
  0
CIRCLE
  5
C05
330
23
100
AcDbEntity
  8
SANINDUSA
100
AcDbCircle
 10
1960.70194680795
 20
1602.171900322484
 30
0.0
 40
0.0107512733628458
  0
CIRCLE
  5
C07
330
23
100
AcDbEntity
  8
SANINDUSA
100
AcDbCircle
 10
1960.701947649149
 20
1602.331964567014
 30
0.0
 40
0.0107504324796354
  0
CIRCLE
  5
C09
330
23
100
AcDbEntity
  8
SANINDUSA
100
AcDbCircle
 10
1960.781943719574
 20
1602.091907574102
 30
0.0
 40
0.0107485633532959
  0
CIRCLE
  5
C0B
330
23
100
AcDbEntity
  8
SANINDUSA
100
AcDbCircle
 10
1960.781943952098
 20
1602.411956007235
 30
0.0
 40
0.0107483308529514
  0
CIRCLE
  5
C0D
330
23
100
AcDbEntity
  8
SANINDUSA
100
AcDbCircle
 10
1960.701933868951
 20
1602.251932513911
 30
0.0
 40
0.0107532450834205
  0
CIRCLE
  5
C0F
330
23
100
AcDbEntity
  8
SANINDUSA
100
AcDbCircle
 10
1960.861918476399
 20
1602.491806157251
 30
0.0
 40
0.0107505256026794
  0
CIRCLE
  5
C11
330
23
100
AcDbEntity
  8
SANINDUSA
100
AcDbCircle
 10
1960.861932876488
 20
1602.011901462605
 30
0.0
 40
0.0107519401312836
  0
CIRCLE
  5
C13
330
23
100
AcDbEntity
  8
SANINDUSA
100
AcDbCircle
 10
1960.781922236531
 20
1602.171905945368
 30
0.0
 40
0.0107515689486119
  0
CIRCLE
  5
C15
330
23
100
AcDbEntity
  8
SANINDUSA
100
AcDbCircle
 10
1960.781923030953
 20
1602.331959056056
 30
0.0
 40
0.0107507747538567
  0
CIRCLE
  5
C17
330
23
100
AcDbEntity
  8
SANINDUSA
100
AcDbCircle
 10
1960.781918509124
 20
1602.25193239385
 30
0.0
 40
0.0107514816784711
  0
CIRCLE
  5
C19
330
23
100
AcDbEntity
  8
SANINDUSA
100
AcDbCircle
 10
1960.861917605194
 20
1602.411949826235
 30
0.0
 40
0.0107490906438859
  0
CIRCLE
  5
C1B
330
23
100
AcDbEntity
  8
SANINDUSA
100
AcDbCircle
 10
1960.86191751689
 20
1602.091914347426
 30
0.0
 40
0.0107491789440059
  0
CIRCLE
  5
C1D
330
23
100
AcDbEntity
  8
SANINDUSA
100
AcDbCircle
 10
1960.861901095021
 20
1602.171909552251
 30
0.0
 40
0.0107523686610698
  0
CIRCLE
  5
C1F
330
23
100
AcDbEntity
  8
SANINDUSA
100
AcDbCircle
 10
1960.861902179898
 20
1602.331954873154
 30
0.0
 40
0.0107512839936064
  0
CIRCLE
  5
C21
330
23
100
AcDbEntity
  8
SANINDUSA
100
AcDbCircle
 10
1960.861903757789
 20
1602.251931981549
 30
0.0
 40
0.0107492289750055
  0
LWPOLYLINE
  5
C22
330
23
100
AcDbEntity
  8
SANINDUSA
100
AcDbPolyline
 90
       59
 70
   128
 43
0.0
 10
1961.111401417963
 20
1602.251931621179
 10
1961.111160734407
 20
1602.258023245677
 10
1961.11043379616
 20
1602.264075799331
 10
1961.108657577745
 20
1602.27211864148
 10
1961.105984309427
 20
1602.279937250957
 10
1961.102464059107
 20
1602.287383718833
 10
1961.102406957857
 20
1602.287488324985
 10
1961.098007777445
 20
1602.294542802914
 10
1961.092827776186
 20
1602.301079972132
 10
1961.086966970675
 20
1602.306976898059
 10
1961.080463150255
 20
1602.312176211223
 10
1961.073396065943
 20
1602.316629810676
 10
1961.065899589769
 20
1602.320254607543
 10
1961.058046200983
 20
1602.323003305539
 10
1961.049909570925
 20
1602.32486520563
 10
1961.041642287485
 20
1602.325805290088
 10
1961.033334592096
 20
1602.325802250251
 10
1961.025052645914
 20
1602.324871046885
 10
1961.016951778643
 20
1602.323028667315
 10
1961.009108165018
 20
1602.320277912959
 10
1961.001596549265
 20
1602.316657556638
 10
1960.994558790438
 20
1602.312235219821
 10
1960.988059380762
 20
1602.30703325425
 10
1960.98216340851
 20
1602.301118417129
 10
1960.976981619112
 20
1602.294602794989
 10
1960.972594598047
 20
1602.287579818114
 10
1960.969002822153
 20
1602.280089719638
 10
1960.966273167841
 20
1602.272271944627
 10
1960.964692929499
 20
1602.265595032319
 10
1960.963736155741
 20
1602.258785529479
 10
1960.963414648287
 20
1602.251931621179
 10
1960.964087107889
 20
1602.24201048766
 10
1960.966082194559
 20
1602.232268883332
 10
1960.968749144785
 20
1602.22439680849
 10
1960.972287634127
 20
1602.216846926555
 10
1960.97663126301
 20
1602.209760738954
 10
1960.981747964136
 20
1602.203215374097
 10
1960.987580874674
 20
1602.197262330397
 10
1960.994020918123
 20
1602.192013932809
 10
1961.001026728861
 20
1602.187524391755
 10
1961.008514383547
 20
1602.183834357604
 10
1961.016342380754
 20
1602.181012912139
 10
1961.024445393793
 20
1602.179097993716
 10
1961.032737949602
 20
1602.178096725091
 10
1961.041063884012
 20
1602.1780275539
 10
1961.049330452196
 20
1602.178901745423
 10
1961.057473996393
 20
1602.180697067126
 10
1961.065341928713
 20
1602.183379752978
 10
1961.072821357958
 20
1602.186918212518
 10
1961.079883912317
 20
1602.191278620109
 10
1961.086397746317
 20
1602.196380658492
 10
1961.092252352946
 20
1602.202143146142
 10
1961.097449639551
 20
1602.208538039073
 10
1961.101891616099
 20
1602.215448035344
 10
1961.105649331324
 20
1602.223118318662
 10
1961.108502009622
 20
1602.231200321063
 10
1961.110391715281
 20
1602.239529891356
 10
1961.11115024399
 20
1602.245709909543
 10
1961.111401417963
 20
1602.251931621179
  0
CIRCLE
  5
C24
330
23
100
AcDbEntity
  8
SANINDUSA
100
AcDbCircle
 10
1961.037419198267
 20
1602.251931615218
 30
0.0
 40
0.05
  0
LINE
  5
C80
330
23
100
AcDbEntity
  8
SANINDUSA
100
AcDbLine
 10
1965.096425756912
 20
1602.255546381776
 30
0.0
 11
1965.148668691616
 21
1602.254452047949
 31
0.0
  0
LINE
  5
C82
330
23
100
AcDbEntity
  8
SANINDUSA
100
AcDbLine
 10
1965.176408693294
 20
1602.253870977168
 30
0.0
 11
1965.228651627998
 21
1602.252776643341
 31
0.0
  0
LINE
  5
C84
330
23
100
AcDbEntity
  8
SANINDUSA
100
AcDbLine
 10
1965.256391629677
 20
1602.25219557256
 30
0.0
 11
1965.308634623985
 21
1602.251101238732
 31
0.0
  0
LINE
  5
C86
330
23
100
AcDbEntity
  8
SANINDUSA
100
AcDbLine
 10
1965.336374625664
 20
1602.250520175402
 30
0.0
 11
1965.388617500763
 21
1602.249425834124
 31
0.0
  0
LINE
  5
C88
330
23
100
AcDbEntity
  8
SANINDUSA
100
AcDbLine
 10
1965.416357502441
 20
1602.248844755893
 30
0.0
 11
1965.46860049675
 21
1602.247750444417
 31
0.0
  0
LINE
  5
C8A
330
23
100
AcDbEntity
  8
SANINDUSA
100
AcDbLine
 10
1965.496340498428
 20
1602.247169358735
 30
0.0
 11
1965.548583373527
 21
1602.24607505471
 31
0.0
  0
LINE
  5
C8C
330
23
100
AcDbEntity
  8
SANINDUSA
100
AcDbLine
 10
1965.576323375206
 20
1602.245493969028
 30
0.0
 11
1965.628566369514
 21
1602.244399635201
 31
0.0
  0
LINE
  5
C8E
330
23
100
AcDbEntity
  8
SANINDUSA
100
AcDbLine
 10
1965.656306371193
 20
1602.243818601673
 30
0.0
 11
1965.741767067793
 21
1602.242028466539
 31
0.0
  0
LWPOLYLINE
  5
C8F
330
23
100
AcDbEntity
  8
SANINDUSA
100
AcDbPolyline
 90
        3
 70
   128
 43
0.0
 10
1965.894338831406
 20
1602.242012849157
 10
1965.903747782211
 20
1602.242716362779
 10
1965.913138613205
 20
1602.24455285639
  0
LINE
  5
C90
330
23
100
AcDbEntity
  8
SANINDUSA
100
AcDbLine
 10
1964.972589716415
 20
1602.258140375917
 30
0.0
 11
1965.068685755234
 21
1602.256127452557
 31
0.0
  0
ARC
  5
C92
330
23
100
AcDbEntity
  8
SANINDUSA
100
AcDbCircle
 10
1965.741764977796
 20
1602.241928488381
 30
0.0
 40
0.0001000000002118
100
AcDbArc
 50
54.99999999392633
 51
88.80243309824864
  0
LINE
  5
C93
330
23
100
AcDbEntity
  8
SANINDUSA
100
AcDbLine
 10
1965.894283070904
 20
1602.241994780175
 30
0.0
 11
1965.880934104423
 21
1602.232647752469
 31
0.0
  0
LINE
  5
C94
330
23
100
AcDbEntity
  8
SANINDUSA
100
AcDbLine
 10
1965.755193576316
 20
1602.232647752469
 30
0.0
 11
1965.74182233544
 21
1602.242010403586
 31
0.0
  0
LWPOLYLINE
  5
C96
330
23
100
AcDbEntity
  8
SANINDUSA
100
AcDbPolyline
 90
       37
 70
   128
 43
0.0
 10
1965.742030963401
 20
1602.245928196316
 10
1965.742573008041
 20
1602.245927972798
 10
1965.743491396408
 20
1602.245925514107
 10
1965.744776234131
 20
1602.245922325258
 10
1965.746757015686
 20
1602.245918950145
 10
1965.74922798584
 20
1602.245916334991
 10
1965.752266034584
 20
1602.245914502149
 10
1965.755782589416
 20
1602.245913429265
 10
1965.759657725792
 20
1602.24591297478
 10
1965.763937816124
 20
1602.245912944977
 10
1965.768735870819
 20
1602.245913190847
 10
1965.773895725708
 20
1602.24591348887
 10
1965.779212460022
 20
1602.245913697486
 10
1965.784797176819
 20
1602.245913794344
 10
1965.790784940223
 20
1602.2459138763
 10
1965.796972259979
 20
1602.245914233928
 10
1965.803128704529
 20
1602.245914986436
 10
1965.809388265114
 20
1602.245916230684
 10
1965.81589256237
 20
1602.245918160384
 10
1965.822412476043
 20
1602.24592081279
 10
1965.828722581367
 20
1602.245924105947
 10
1965.834958300094
 20
1602.245928114359
 10
1965.841252789001
 20
1602.245932912533
 10
1965.847376212577
 20
1602.245938358908
 10
1965.853116735916
 20
1602.245944215064
 10
1965.858613595466
 20
1602.245950287288
 10
1965.863975510101
 20
1602.24595635206
 10
1965.869000300865
 20
1602.245961910193
 10
1965.873514399032
 20
1602.245966537004
 10
1965.877647146682
 20
1602.245970038777
 10
1965.881470069389
 20
1602.245972028082
 10
1965.884833797912
 20
1602.245971901422
 10
1965.887631043892
 20
1602.245969144707
 10
1965.88995872448
 20
1602.245962841516
 10
1965.89184628437
 20
1602.245951315467
 10
1965.89320872734
 20
1602.245935289269
 10
1965.894006595116
 20
1602.24591913641
  0
ARC
  5
C97
330
23
100
AcDbEntity
  8
SANINDUSA
100
AcDbCircle
 10
1965.894340428548
 20
1602.241912864971
 30
0.0
 40
0.0040000000007639
100
AcDbArc
 50
90.92293436244634
 51
124.9999999879298
  0
ARC
  5
C99
330
23
100
AcDbEntity
  8
SANINDUSA
100
AcDbCircle
 10
1965.741764977796
 20
1602.241928488381
 30
0.0
 40
0.0040000000000051
100
AcDbArc
 50
54.99999999392633
 51
88.80243309824864
  0
LINE
  5
C9A
330
23
100
AcDbEntity
  8
SANINDUSA
100
AcDbLine
 10
1965.892046122803
 20
1602.245189473148
 30
0.0
 11
1965.878361404702
 21
1602.235607330376
 31
0.0
  0
LINE
  5
C9C
330
23
100
AcDbEntity
  8
SANINDUSA
100
AcDbLine
 10
1965.757766314185
 20
1602.235607330376
 30
0.0
 11
1965.744059283542
 21
1602.245205096559
 31
0.0
  0
ARC
  5
C9E
330
23
100
AcDbEntity
  8
SANINDUSA
100
AcDbCircle
 10
1965.416523026332
 20
1602.256743128442
 30
0.0
 40
0.0079001067762263
100
AcDbArc
 50
217.4825620031516
 51
268.7994447833098
  0
ARC
  5
C9F
330
23
100
AcDbEntity
  8
SANINDUSA
100
AcDbCircle
 10
1965.388783068252
 20
1602.257323799491
 30
0.0
 40
0.0078997005975023
100
AcDbArc
 50
268.7990667580087
 51
320.1188864769024
  0
ARC
  5
CA1
330
23
100
AcDbEntity
  8
SANINDUSA
100
AcDbCircle
 10
1965.336540241559
 20
1602.258418971405
 30
0.0
 40
0.0079005320656729
100
AcDbArc
 50
217.4840668238053
 51
268.7988420483825
  0
ARC
  5
CA2
330
23
100
AcDbEntity
  8
SANINDUSA
100
AcDbCircle
 10
1965.308799969965
 20
1602.258999691083
 30
0.0
 40
0.0079001828354773
100
AcDbArc
 50
268.8007469251177
 51
320.1172063035273
  0
ARC
  5
CA4
330
23
100
AcDbEntity
  8
SANINDUSA
100
AcDbCircle
 10
1965.25655708549
 20
1602.260093810682
 30
0.0
 40
0.0078999709530019
100
AcDbArc
 50
217.4820888024386
 51
268.7999179957493
  0
ARC
  5
CA5
330
23
100
AcDbEntity
  8
SANINDUSA
100
AcDbCircle
 10
1965.228817141678
 20
1602.260674740332
 30
0.0
 40
0.0078998310654644
100
AcDbArc
 50
268.7994769554684
 51
320.1183626738387
  0
ARC
  5
CA7
330
23
100
AcDbEntity
  8
SANINDUSA
100
AcDbCircle
 10
1965.496505927825
 20
1602.255067533108
 30
0.0
 40
0.0078999066648616
100
AcDbArc
 50
217.4817956007103
 51
268.8000998610808
  0
ARC
  5
CA8
330
23
100
AcDbEntity
  8
SANINDUSA
100
AcDbCircle
 10
1965.468765842729
 20
1602.255648896768
 30
0.0
 40
0.0079001828354815
100
AcDbArc
 50
268.8007469251177
 51
320.1172063035273
  0
ARC
  5
CAA
330
23
100
AcDbEntity
  8
SANINDUSA
100
AcDbCircle
 10
1965.176574166144
 20
1602.261769248931
 30
0.0
 40
0.0079000049432978
100
AcDbArc
 50
217.4822072166014
 51
268.7997995754854
  0
ARC
  5
CAB
330
23
100
AcDbEntity
  8
SANINDUSA
100
AcDbCircle
 10
1965.148834181935
 20
1602.262350182975
 30
0.0
 40
0.0078998686021548
100
AcDbArc
 50
268.7996521233785
 51
320.1183010959616
  0
ARC
  5
CAD
330
23
100
AcDbEntity
  8
SANINDUSA
100
AcDbCircle
 10
1965.096591229762
 20
1602.263444653539
 30
0.0
 40
0.0079000049432949
100
AcDbArc
 50
217.4822072166014
 51
268.7997995754854
  0
ARC
  5
CAE
330
23
100
AcDbEntity
  8
SANINDUSA
100
AcDbCircle
 10
1965.068851227411
 20
1602.264025640788
 30
0.0
 40
0.0078999214159259
100
AcDbArc
 50
268.7997917571217
 51
320.1180478839161
  0
ARC
  5
CAF
330
23
100
AcDbEntity
  8
SANINDUSA
100
AcDbCircle
 10
1965.416523052667
 20
1602.256743215473
 30
0.0
 40
0.0040001972186399
100
AcDbArc
 50
217.4834408505103
 51
268.7983087395862
  0
ARC
  5
CB0
330
23
100
AcDbEntity
  8
SANINDUSA
100
AcDbCircle
 10
1965.38878289753
 20
1602.257324389067
 30
0.0
 40
0.0040002818952162
100
AcDbArc
 50
268.8005326271337
 51
320.1158306584189
  0
ARC
  5
CB1
330
23
100
AcDbEntity
  8
SANINDUSA
100
AcDbCircle
 10
1965.336539878108
 20
1602.258418058571
 30
0.0
 40
0.0039996146986436
100
AcDbArc
 50
217.4795690237838
 51
268.8024004441761
  0
ARC
  5
CB2
330
23
100
AcDbEntity
  8
SANINDUSA
100
AcDbCircle
 10
1965.308799992372
 20
1602.258999600947
 30
0.0
 40
0.0040000886153905
100
AcDbArc
 50
268.8008812686522
 51
320.1171147131761
  0
ARC
  5
CB3
330
23
100
AcDbEntity
  8
SANINDUSA
100
AcDbCircle
 10
1965.256557135251
 20
1602.260093958754
 30
0.0
 40
0.0040001216624553
100
AcDbArc
 50
217.4830805920046
 51
268.7997796650212
  0
ARC
  5
CB4
330
23
100
AcDbEntity
  8
SANINDUSA
100
AcDbCircle
 10
1965.228817093966
 20
1602.260674901291
 30
0.0
 40
0.0039999926181313
100
AcDbArc
 50
268.800308399967
 51
320.1179119362179
  0
ARC
  5
CB5
330
23
100
AcDbEntity
  8
SANINDUSA
100
AcDbCircle
 10
1965.176574180875
 20
1602.26176933528
 30
0.0
 40
0.004000085761016
100
AcDbArc
 50
217.4828335624352
 51
268.8000266954985
  0
ARC
  5
CB6
330
23
100
AcDbEntity
  8
SANINDUSA
100
AcDbCircle
 10
1965.148834177029
 20
1602.26235028044
 30
0.0
 40
0.0039999613707132
100
AcDbArc
 50
268.7991664405766
 51
320.1180131726679
  0
ARC
  5
CB7
330
23
100
AcDbEntity
  8
SANINDUSA
100
AcDbCircle
 10
1965.496505750872
 20
1602.255067249355
 30
0.0
 40
0.0039996146986338
100
AcDbArc
 50
217.4795690237838
 51
268.8024004441761
  0
ARC
  5
CB8
330
23
100
AcDbEntity
  8
SANINDUSA
100
AcDbCircle
 10
1965.468766038185
 20
1602.25564842619
 30
0.0
 40
0.003999711882696
100
AcDbArc
 50
268.7982888551713
 51
320.119707128767
  0
ARC
  5
CBA
330
23
100
AcDbEntity
  8
SANINDUSA
100
AcDbCircle
 10
1965.576488914267
 20
1602.253392348356
 30
0.0
 40
0.0079001138722121
100
AcDbArc
 50
217.482448318277
 51
268.7993358230668
  0
ARC
  5
CBB
330
23
100
AcDbEntity
  8
SANINDUSA
100
AcDbCircle
 10
1965.548748991401
 20
1602.253972909309
 30
0.0
 40
0.0078995909100097
100
AcDbArc
 50
268.7986845628955
 51
320.1192686627078
  0
ARC
  5
CBC
330
23
100
AcDbEntity
  8
SANINDUSA
100
AcDbCircle
 10
1965.096591258312
 20
1602.263444744948
 30
0.0
 40
0.0040000998061773
100
AcDbArc
 50
217.4827706122088
 51
268.7989789721709
  0
ARC
  5
CBD
330
23
100
AcDbEntity
  8
SANINDUSA
100
AcDbCircle
 10
1965.068851217287
 20
1602.264025715633
 30
0.0
 40
0.003999998908336
100
AcDbArc
 50
268.7995124112143
 51
320.1178915614891
  0
ARC
  5
CBE
330
23
100
AcDbEntity
  8
SANINDUSA
100
AcDbCircle
 10
1965.57648894209
 20
1602.253392461505
 30
0.0
 40
0.004000230456623
100
AcDbArc
 50
217.4836695284574
 51
268.7980800557911
  0
ARC
  5
CBF
330
23
100
AcDbEntity
  8
SANINDUSA
100
AcDbCircle
 10
1965.548748737972
 20
1602.253973666893
 30
0.0
 40
0.0040003434028884
100
AcDbArc
 50
268.8027219039046
 51
320.1154984261191
  0
ARC
  5
CC1
330
23
100
AcDbEntity
  8
SANINDUSA
100
AcDbCircle
 10
1965.656471631051
 20
1602.251716418101
 30
0.0
 40
0.0078995452498161
100
AcDbArc
 50
217.4803979070691
 51
268.801274891061
  0
ARC
  5
CC2
330
23
100
AcDbEntity
  8
SANINDUSA
100
AcDbCircle
 10
1965.628731693874
 20
1602.252298095111
 30
0.0
 40
0.0079001899412632
100
AcDbArc
 50
268.8009048406926
 51
320.117389168988
  0
ARC
  5
CC3
330
23
100
AcDbEntity
  8
SANINDUSA
100
AcDbCircle
 10
1965.656471866536
 20
1602.251716941295
 30
0.0
 40
0.0040000761358179
100
AcDbArc
 50
217.4824710552519
 51
268.7990586531018
  0
ARC
  5
CC4
330
23
100
AcDbEntity
  8
SANINDUSA
100
AcDbCircle
 10
1965.628731889332
 20
1602.252297617082
 30
0.0
 40
0.0039997189871436
100
AcDbArc
 50
268.7986007251771
 51
320.1200683026502
  0
ARC
  5
CC5
330
23
100
AcDbEntity
  8
SANINDUSA
100
AcDbCircle
 10
1965.474904878288
 20
1602.250518898845
 30
0.0
 40
0.004000126154876
100
AcDbArc
 50
88.80122722599221
 51
140.1169931019972
  0
ARC
  5
CC6
330
23
100
AcDbEntity
  8
SANINDUSA
100
AcDbCircle
 10
1965.49015753055
 20
1602.250199378364
 30
0.0
 40
0.0040001396290444
100
AcDbArc
 50
37.48304461557221
 51
88.7987049815956
  0
ARC
  5
CC7
330
23
100
AcDbEntity
  8
SANINDUSA
100
AcDbCircle
 10
1965.554887635992
 20
1602.248844032992
 30
0.0
 40
0.0039996074086678
100
AcDbArc
 50
88.79765749216614
 51
140.1205628438226
  0
ARC
  5
CC8
330
23
100
AcDbEntity
  8
SANINDUSA
100
AcDbCircle
 10
1965.570140557076
 20
1602.248524303387
 30
0.0
 40
0.0039998292805663
100
AcDbArc
 50
37.48077241064584
 51
88.8007572974128
  0
ARC
  5
CC9
330
23
100
AcDbEntity
  8
SANINDUSA
100
AcDbCircle
 10
1965.394921795843
 20
1602.252194740704
 30
0.0
 40
0.003999678411202
100
AcDbArc
 50
88.79814615898762
 51
140.120074175707
  0
ARC
  5
CCA
330
23
100
AcDbEntity
  8
SANINDUSA
100
AcDbCircle
 10
1965.410174688244
 20
1602.251875059943
 30
0.0
 40
0.0039998446014727
100
AcDbArc
 50
37.48115121858663
 51
88.80081825367234
  0
ARC
  5
CCB
330
23
100
AcDbEntity
  8
SANINDUSA
100
AcDbCircle
 10
1965.314939005523
 20
1602.253869693161
 30
0.0
 40
0.0040001261548777
100
AcDbArc
 50
88.80122722599221
 51
140.1169931019972
  0
ARC
  5
CCC
330
23
100
AcDbEntity
  8
SANINDUSA
100
AcDbCircle
 10
1965.330191657785
 20
1602.25355018758
 30
0.0
 40
0.0040001396290398
100
AcDbArc
 50
37.48304461557221
 51
88.7987049815956
  0
ARC
  5
CCD
330
23
100
AcDbEntity
  8
SANINDUSA
100
AcDbCircle
 10
1965.23495598444
 20
1602.255545263206
 30
0.0
 40
0.0039999550786855
100
AcDbArc
 50
88.79996242932945
 51
140.1180335573936
  0
ARC
  5
CCE
330
23
100
AcDbEntity
  8
SANINDUSA
100
AcDbCircle
 10
1965.250208741466
 20
1602.255225742049
 30
0.0
 40
0.0039999806827514
100
AcDbArc
 50
37.48195095005065
 51
88.79979863716171
  0
ARC
  5
CCF
330
23
100
AcDbEntity
  8
SANINDUSA
100
AcDbCircle
 10
1965.154973029918
 20
1602.257220728469
 30
0.0
 40
0.0039999022654094
100
AcDbArc
 50
88.79968666685
 51
140.1185336647338
  0
ARC
  5
CD0
330
23
100
AcDbEntity
  8
SANINDUSA
100
AcDbCircle
 10
1965.170225821831
 20
1602.256901168138
 30
0.0
 40
0.0039999588559339
100
AcDbArc
 50
37.48193743971926
 51
88.80003202478127
  0
ARC
  5
CD1
330
23
100
AcDbEntity
  8
SANINDUSA
100
AcDbCircle
 10
1965.074990102794
 20
1602.258896091948
 30
0.0
 40
0.0039999357427641
100
AcDbArc
 50
88.79982937605822
 51
140.1181666094407
  0
ARC
  5
CD2
330
23
100
AcDbEntity
  8
SANINDUSA
100
AcDbCircle
 10
1965.090242863056
 20
1602.258576528532
 30
0.0
 40
0.0040000035302115
100
AcDbArc
 50
37.48224484757748
 51
88.79972462442855
  0
ARC
  5
CD3
330
23
100
AcDbEntity
  8
SANINDUSA
100
AcDbCircle
 10
1965.634870857427
 20
1602.247167891446
 30
0.0
 40
0.0040003444176724
100
AcDbArc
 50
88.80281654373302
 51
140.1156281204711
  0
ARC
  5
CD4
330
23
100
AcDbEntity
  8
SANINDUSA
100
AcDbCircle
 10
1965.650123393734
 20
1602.246848628873
 30
0.0
 40
0.004000147158171
100
AcDbArc
 50
37.48295972583444
 51
88.79856997352886
  0
ARC
  5
CD5
330
23
100
AcDbEntity
  8
SANINDUSA
100
AcDbCircle
 10
1965.314938948819
 20
1602.25386982021
 30
0.0
 40
0.0001000000106708
100
AcDbArc
 50
88.80000694133059
 51
140.1178118924008
  0
ARC
  5
CD6
330
23
100
AcDbEntity
  8
SANINDUSA
100
AcDbCircle
 10
1965.330191695447
 20
1602.253550322527
 30
0.0
 40
0.000100000011802
100
AcDbArc
 50
37.4822024873132
 51
88.8000066547873
  0
ARC
  5
CD7
330
23
100
AcDbEntity
  8
SANINDUSA
100
AcDbCircle
 10
1965.394921888551
 20
1602.252194412938
 30
0.0
 40
0.0001000000135109
100
AcDbArc
 50
88.79997274952584
 51
140.1177792911641
  0
ARC
  5
CD8
330
23
100
AcDbEntity
  8
SANINDUSA
100
AcDbCircle
 10
1965.410174635905
 20
1602.251874906252
 30
0.0
 40
0.0001000000148532
100
AcDbArc
 50
37.48218700710569
 51
88.79998198812687
  0
ARC
  5
CD9
330
23
100
AcDbEntity
  8
SANINDUSA
100
AcDbCircle
 10
1965.234956006124
 20
1602.255545220797
 30
0.0
 40
0.0001000000082693
100
AcDbArc
 50
88.79999735106279
 51
140.1178038642786
  0
ARC
  5
CDA
330
23
100
AcDbEntity
  8
SANINDUSA
100
AcDbCircle
 10
1965.250208752903
 20
1602.255225720775
 30
0.0
 40
0.000100000009191
100
AcDbArc
 50
37.48219364113599
 51
88.79999901876937
  0
ARC
  5
CDB
330
23
100
AcDbEntity
  8
SANINDUSA
100
AcDbCircle
 10
1965.154973064439
 20
1602.257220628916
 30
0.0
 40
0.000100000006275
100
AcDbArc
 50
88.79999960515347
 51
140.1178081560593
  0
ARC
  5
CDC
330
23
100
AcDbEntity
  8
SANINDUSA
100
AcDbCircle
 10
1965.170225810902
 20
1602.256901129067
 30
0.0
 40
0.0001000000070194
100
AcDbArc
 50
37.48219024072142
 51
88.79999792414935
  0
ARC
  5
CDD
330
23
100
AcDbEntity
  8
SANINDUSA
100
AcDbCircle
 10
1965.474904832299
 20
1602.250519025799
 30
0.0
 40
0.0001000000163984
100
AcDbArc
 50
88.79998835993093
 51
140.1177992956001
  0
ARC
  5
CDE
330
23
100
AcDbEntity
  8
SANINDUSA
100
AcDbCircle
 10
1965.490157574383
 20
1602.250199516684
 30
0.0
 40
0.0001000000176436
100
AcDbArc
 50
37.48213427638845
 51
88.79994079905989
  0
ARC
  5
CDF
330
23
100
AcDbEntity
  8
SANINDUSA
100
AcDbCircle
 10
1965.074990122495
 20
1602.258896029173
 30
0.0
 40
0.0001000000046296
100
AcDbArc
 50
88.80000137733045
 51
140.1178103578222
  0
ARC
  5
CE0
330
23
100
AcDbEntity
  8
SANINDUSA
100
AcDbCircle
 10
1965.090242869311
 20
1602.258576530286
 30
0.0
 40
0.0001000000052197
100
AcDbArc
 50
37.48219492314097
 51
88.80000335790255
  0
ARC
  5
CE1
330
23
100
AcDbEntity
  8
SANINDUSA
100
AcDbCircle
 10
1965.634870732895
 20
1602.247168239586
 30
0.0
 40
0.0001000000102281
100
AcDbArc
 50
88.80022583921444
 51
140.1180356657616
  0
ARC
  5
CE2
330
23
100
AcDbEntity
  8
SANINDUSA
100
AcDbCircle
 10
1965.650123451022
 20
1602.246848773435
 30
0.0
 40
0.000100000007764
100
AcDbArc
 50
37.48199332065284
 51
88.79993655109958
  0
ARC
  5
CE3
330
23
100
AcDbEntity
  8
SANINDUSA
100
AcDbCircle
 10
1965.55488777906
 20
1602.248843640623
 30
0.0
 40
0.0001000000171235
100
AcDbArc
 50
88.80003413587314
 51
140.1178646565161
  0
ARC
  5
CE4
330
23
100
AcDbEntity
  8
SANINDUSA
100
AcDbCircle
 10
1965.570140513123
 20
1602.248524131297
 30
0.0
 40
0.0001000000168627
100
AcDbArc
 50
37.48208197300619
 51
88.79989929712738
  0
LINE
  5
CE5
330
23
100
AcDbEntity
  8
SANINDUSA
100
AcDbLine
 10
1965.314941043049
 20
1602.253969798279
 30
0.0
 11
1965.330193789677
 21
1602.253650300596
 31
0.0
  0
LINE
  5
CE6
330
23
100
AcDbEntity
  8
SANINDUSA
100
AcDbLine
 10
1965.394923982841
 20
1602.252294391005
 30
0.0
 11
1965.410176730179
 21
1602.251974884319
 31
0.0
  0
LINE
  5
CE7
330
23
100
AcDbEntity
  8
SANINDUSA
100
AcDbLine
 10
1965.234958100371
 20
1602.255645198865
 30
0.0
 11
1965.250210847147
 21
1602.255325698843
 31
0.0
  0
LINE
  5
CE8
330
23
100
AcDbEntity
  8
SANINDUSA
100
AcDbLine
 10
1965.395005688171
 20
1602.256193539207
 30
0.0
 11
1965.41025839756
 21
1602.255874028509
 31
0.0
  0
LINE
  5
CE9
330
23
100
AcDbEntity
  8
SANINDUSA
100
AcDbLine
 10
1965.315022692184
 20
1602.257868943815
 30
0.0
 11
1965.330275520782
 21
1602.257549448018
 31
0.0
  0
LINE
  5
CEA
330
23
100
AcDbEntity
  8
SANINDUSA
100
AcDbLine
 10
1965.154975158681
 20
1602.257320606984
 30
0.0
 11
1965.170227905147
 21
1602.257001107135
 31
0.0
  0
LINE
  5
CEB
330
23
100
AcDbEntity
  8
SANINDUSA
100
AcDbLine
 10
1965.235039755802
 20
1602.259544340973
 30
0.0
 11
1965.250292524795
 21
1602.259224845176
 31
0.0
  0
LINE
  5
CEC
330
23
100
AcDbEntity
  8
SANINDUSA
100
AcDbLine
 10
1965.474906926561
 20
1602.250619003867
 30
0.0
 11
1965.490159668729
 21
1602.25029949475
 31
0.0
  0
LINE
  5
CED
330
23
100
AcDbEntity
  8
SANINDUSA
100
AcDbLine
 10
1965.15505681942
 20
1602.261219753032
 30
0.0
 11
1965.170309588413
 21
1602.260900249784
 31
0.0
  0
LINE
  5
CEE
330
23
100
AcDbEntity
  8
SANINDUSA
100
AcDbLine
 10
1965.074992216735
 20
1602.258996007241
 30
0.0
 11
1965.090244963548
 21
1602.258676508355
 31
0.0
  0
LINE
  5
CEF
330
23
100
AcDbEntity
  8
SANINDUSA
100
AcDbLine
 10
1965.474988564949
 20
1602.2545181495
 30
0.0
 11
1965.490241393547
 21
1602.254198638802
 31
0.0
  0
LINE
  5
CF0
330
23
100
AcDbEntity
  8
SANINDUSA
100
AcDbLine
 10
1965.075073883037
 20
1602.26289515019
 30
0.0
 11
1965.090326652031
 21
1602.262575654392
 31
0.0
  0
LINE
  5
CF1
330
23
100
AcDbEntity
  8
SANINDUSA
100
AcDbLine
 10
1965.634872826743
 20
1602.247268217662
 30
0.0
 11
1965.650125545375
 21
1602.246948751501
 31
0.0
  0
LINE
  5
CF2
330
23
100
AcDbEntity
  8
SANINDUSA
100
AcDbLine
 10
1965.554889873243
 20
1602.248943618692
 30
0.0
 11
1965.570142607542
 21
1602.248624109362
 31
0.0
  0
LINE
  5
CF3
330
23
100
AcDbEntity
  8
SANINDUSA
100
AcDbLine
 10
1965.554971560936
 20
1602.252842759793
 30
0.0
 11
1965.570224270324
 21
1602.252523256545
 31
0.0
  0
LINE
  5
CF5
330
23
100
AcDbEntity
  8
SANINDUSA
100
AcDbLine
 10
1965.996257875968
 20
1602.234704245036
 30
0.0
 11
1965.994284506457
 21
1602.347758346602
 31
0.0
  0
ARC
  5
CF6
330
23
100
AcDbEntity
  8
SANINDUSA
100
AcDbCircle
 10
1965.991184978602
 20
1602.347704244142
 30
0.0
 40
0.0030999999999999
100
AcDbArc
 50
0.9999999969218754
 51
90.0
  0
LINE
  5
CF7
330
23
100
AcDbEntity
  8
SANINDUSA
100
AcDbLine
 10
1965.991184978602
 20
1602.350804244142
 30
0.0
 11
1965.934823680691
 21
1602.350804244142
 31
0.0
  0
ARC
  5
CF8
330
23
100
AcDbEntity
  8
SANINDUSA
100
AcDbCircle
 10
1965.934823680691
 20
1602.347704244142
 30
0.0
 40
0.0031000000000001
100
AcDbArc
 50
90.0
 51
177.9999999962464
  0
LINE
  5
CF9
330
23
100
AcDbEntity
  8
SANINDUSA
100
AcDbLine
 10
1965.931725569127
 20
1602.347812432581
 30
0.0
 11
1965.928800806503
 21
1602.264059802597
 31
0.0
  0
ARC
  5
CFA
330
23
100
AcDbEntity
  8
SANINDUSA
100
AcDbCircle
 10
1965.907913689144
 20
1602.264789052822
 30
0.0
 40
0.020899843958022
100
AcDbArc
 50
284.4774076308748
 51
358.000394489454
  0
LINE
  5
CFB
330
23
100
AcDbEntity
  8
SANINDUSA
100
AcDbLine
 10
1965.880934104423
 20
1602.232647752469
 30
0.0
 11
1965.869759664039
 21
1602.220664559012
 31
0.0
  0
LINE
  5
CFC
330
23
100
AcDbEntity
  8
SANINDUSA
100
AcDbLine
 10
1965.869759664039
 20
1602.220664559012
 30
0.0
 11
1965.76636813591
 21
1602.220664559012
 31
0.0
  0
LINE
  5
CFD
330
23
100
AcDbEntity
  8
SANINDUSA
100
AcDbLine
 10
1965.76636813591
 20
1602.220664559012
 30
0.0
 11
1965.755193576316
 21
1602.232647752469
 31
0.0
  0
ARC
  5
CFE
330
23
100
AcDbEntity
  8
SANINDUSA
100
AcDbCircle
 10
1964.973031564353
 20
1602.279039962376
 30
0.0
 40
0.0209042565941532
100
AcDbArc
 50
181.1630179157752
 51
268.7888635335773
  0
ARC
  5
CFF
330
23
100
AcDbEntity
  8
SANINDUSA
100
AcDbCircle
 10
1964.94903223365
 20
1602.278553349798
 30
0.0
 40
0.0031000000001356
100
AcDbArc
 50
1.151829408211579
 51
89.00000000307812
  0
LINE
  5
D00
330
23
100
AcDbEntity
  8
SANINDUSA
100
AcDbLine
 10
1964.41164321325
 20
1602.291033982258
 30
0.0
 11
1964.94908633611
 21
1602.281652877653
 31
0.0
  0
ARC
  5
D01
330
23
100
AcDbEntity
  8
SANINDUSA
100
AcDbCircle
 10
1964.41158911079
 20
1602.287934454403
 30
0.0
 40
0.0031000000000004
100
AcDbArc
 50
89.00000000307812
 51
154.6842608275599
  0
ARC
  5
D02
330
23
100
AcDbEntity
  8
SANINDUSA
100
AcDbCircle
 10
1964.396221703747
 20
1602.295203759786
 30
0.0
 40
0.0139000000000002
100
AcDbArc
 50
269.0000000030781
 51
334.6842608275599
  0
LINE
  5
D03
330
23
100
AcDbEntity
  8
SANINDUSA
100
AcDbLine
 10
1964.386537105622
 20
1602.281470687716
 30
0.0
 11
1964.395979115298
 21
1602.281305876824
 31
0.0
  0
ARC
  5
D04
330
23
100
AcDbEntity
  8
SANINDUSA
100
AcDbCircle
 10
1964.386901860916
 20
1602.302367504545
 30
0.0
 40
0.0209
100
AcDbArc
 50
182.0000000037536
 51
269.0000000030781
  0
LINE
  5
D05
330
23
100
AcDbEntity
  8
SANINDUSA
100
AcDbLine
 10
1964.366014592632
 20
1602.301638105063
 30
0.0
 11
1964.364402149584
 21
1602.347812432581
 31
0.0
  0
ARC
  5
D06
330
23
100
AcDbEntity
  8
SANINDUSA
100
AcDbCircle
 10
1964.36130403802
 20
1602.347704244142
 30
0.0
 40
0.0031000000000001
100
AcDbArc
 50
2.000000003753602
 51
90.0
  0
LINE
  5
D07
330
23
100
AcDbEntity
  8
SANINDUSA
100
AcDbLine
 10
1964.36130403802
 20
1602.350804244142
 30
0.0
 11
1964.304942740285
 21
1602.350804244142
 31
0.0
  0
ARC
  5
D08
330
23
100
AcDbEntity
  8
SANINDUSA
100
AcDbCircle
 10
1964.304942740285
 20
1602.347704244142
 30
0.0
 40
0.0031000000000001
100
AcDbArc
 50
90.0
 51
179.0000000030781
  0
LINE
  5
D09
330
23
100
AcDbEntity
  8
SANINDUSA
100
AcDbLine
 10
1964.30184321243
 20
1602.347758346602
 30
0.0
 11
1964.299869845944
 21
1602.234704245027
 31
0.0
  0
LINE
  5
D0B
330
23
100
AcDbEntity
  8
SANINDUSA
100
AcDbLine
 10
1964.297943806419
 20
1602.347826410987
 30
0.0
 11
1964.29596925167
 21
1602.234704245012
 31
0.0
  0
ARC
  5
D0C
330
23
100
AcDbEntity
  8
SANINDUSA
100
AcDbCircle
 10
1964.304942740285
 20
1602.347704244142
 30
0.0
 40
0.0069999999999999
100
AcDbArc
 50
90.0
 51
179.0000000030781
  0
LINE
  5
D0D
330
23
100
AcDbEntity
  8
SANINDUSA
100
AcDbLine
 10
1964.36130403802
 20
1602.354704244142
 30
0.0
 11
1964.304942740285
 21
1602.354704244142
 31
0.0
  0
ARC
  5
D0E
330
23
100
AcDbEntity
  8
SANINDUSA
100
AcDbCircle
 10
1964.36130403802
 20
1602.347704244142
 30
0.0
 40
0.007
100
AcDbArc
 50
2.000000003753602
 51
90.0
  0
LINE
  5
D0F
330
23
100
AcDbEntity
  8
SANINDUSA
100
AcDbLine
 10
1964.369912216857
 20
1602.3017742131
 30
0.0
 11
1964.368299773809
 21
1602.347948540619
 31
0.0
  0
ARC
  5
D10
330
23
100
AcDbEntity
  8
SANINDUSA
100
AcDbCircle
 10
1964.386901860916
 20
1602.302367504545
 30
0.0
 40
0.0170000000000001
100
AcDbArc
 50
182.0000000037536
 51
269.0000000030781
  0
LINE
  5
D11
330
23
100
AcDbEntity
  8
SANINDUSA
100
AcDbLine
 10
1964.386605170007
 20
1602.285370093727
 30
0.0
 11
1964.396047179683
 21
1602.285205282835
 31
0.0
  0
ARC
  5
D12
330
23
100
AcDbEntity
  8
SANINDUSA
100
AcDbCircle
 10
1964.396221703747
 20
1602.295203759786
 30
0.0
 40
0.0100000000000007
100
AcDbArc
 50
269.0000000030781
 51
334.6842608275599
  0
ARC
  5
D13
330
23
100
AcDbEntity
  8
SANINDUSA
100
AcDbCircle
 10
1964.41158911079
 20
1602.287934454403
 30
0.0
 40
0.0070000000000004
100
AcDbArc
 50
89.00000000307812
 51
154.6842608275599
  0
LINE
  5
D14
330
23
100
AcDbEntity
  8
SANINDUSA
100
AcDbLine
 10
1964.411711277636
 20
1602.294933388268
 30
0.0
 11
1964.949154400495
 21
1602.285552283664
 31
0.0
  0
ARC
  5
D15
330
23
100
AcDbEntity
  8
SANINDUSA
100
AcDbCircle
 10
1964.94903223365
 20
1602.278553349798
 30
0.0
 40
0.0070000000002988
100
AcDbArc
 50
1.151829408211579
 51
89.00000000307812
  0
ARC
  5
D16
330
23
100
AcDbEntity
  8
SANINDUSA
100
AcDbCircle
 10
1964.973030722844
 20
1602.279039121491
 30
0.0
 40
0.0170033936150261
100
AcDbArc
 50
181.1628167157569
 51
268.7890264145671
  0
LINE
  5
D17
330
23
100
AcDbEntity
  8
SANINDUSA
100
AcDbLine
 10
1964.972671374778
 20
1602.262039525514
 30
0.0
 11
1965.068767413597
 21
1602.260026594703
 31
0.0
  0
LINE
  5
D18
330
23
100
AcDbEntity
  8
SANINDUSA
100
AcDbLine
 10
1965.096507415275
 20
1602.259445523923
 30
0.0
 11
1965.148750349979
 21
1602.258351197546
 31
0.0
  0
LINE
  5
D19
330
23
100
AcDbEntity
  8
SANINDUSA
100
AcDbLine
 10
1965.176490411262
 20
1602.257770126765
 30
0.0
 11
1965.228733345966
 21
1602.256675785487
 31
0.0
  0
LINE
  5
D1A
330
23
100
AcDbEntity
  8
SANINDUSA
100
AcDbLine
 10
1965.256473347645
 20
1602.256094714706
 30
0.0
 11
1965.308716282348
 21
1602.255000388329
 31
0.0
  0
LINE
  5
D1B
330
23
100
AcDbEntity
  8
SANINDUSA
100
AcDbLine
 10
1965.336456284027
 20
1602.254419317548
 30
0.0
 11
1965.388699159126
 21
1602.253324983721
 31
0.0
  0
LWPOLYLINE
  5
D1C
330
23
100
AcDbEntity
  8
SANINDUSA
100
AcDbPolyline
 90
        3
 70
   128
 43
0.0
 10
1965.416439160804
 20
1602.252743898039
 10
1965.44174669693
 20
1602.25221379668
 10
1965.468682155113
 20
1602.251649594014
  0
LINE
  5
D1D
330
23
100
AcDbEntity
  8
SANINDUSA
100
AcDbLine
 10
1965.496422156791
 20
1602.251068508332
 30
0.0
 11
1965.5486651511
 21
1602.249974196856
 31
0.0
  0
LINE
  5
D1E
330
23
100
AcDbEntity
  8
SANINDUSA
100
AcDbLine
 10
1965.576405033569
 20
1602.249393111174
 30
0.0
 11
1965.628648027878
 21
1602.248298777347
 31
0.0
  0
LINE
  5
D1F
330
23
100
AcDbEntity
  8
SANINDUSA
100
AcDbLine
 10
1965.656388029556
 20
1602.247717743819
 30
0.0
 11
1965.741848577651
 21
1602.245927614669
 31
0.0
  0
LINE
  5
D20
330
23
100
AcDbEntity
  8
SANINDUSA
100
AcDbLine
 10
1965.768063888054
 20
1602.224564565425
 30
0.0
 11
1965.757766314185
 21
1602.235607330376
 31
0.0
  0
LINE
  5
D21
330
23
100
AcDbEntity
  8
SANINDUSA
100
AcDbLine
 10
1965.868063911895
 20
1602.224564565425
 30
0.0
 11
1965.768063888054
 21
1602.224564565425
 31
0.0
  0
LINE
  5
D22
330
23
100
AcDbEntity
  8
SANINDUSA
100
AcDbLine
 10
1965.878361404702
 20
1602.235607330376
 30
0.0
 11
1965.868063911895
 21
1602.224564565425
 31
0.0
  0
LWPOLYLINE
  5
D23
330
23
100
AcDbEntity
  8
SANINDUSA
100
AcDbPolyline
 90
        3
 70
   128
 43
0.0
 10
1965.89427600811
 20
1602.245912348931
 10
1965.903228506546
 20
1602.246581627136
 10
1965.912163600426
 20
1602.248329019253
  0
ARC
  5
D24
330
23
100
AcDbEntity
  8
SANINDUSA
100
AcDbCircle
 10
1965.907913670475
 20
1602.264789157436
 30
0.0
 40
0.016999942752244
100
AcDbArc
 50
284.4773181724137
 51
358.0001410143113
  0
LINE
  5
D25
330
23
100
AcDbEntity
  8
SANINDUSA
100
AcDbLine
 10
1965.927827944902
 20
1602.347948540619
 30
0.0
 11
1965.924903258781
 21
1602.264195909803
 31
0.0
  0
ARC
  5
D26
330
23
100
AcDbEntity
  8
SANINDUSA
100
AcDbCircle
 10
1965.934823680691
 20
1602.347704244142
 30
0.0
 40
0.007
100
AcDbArc
 50
90.0
 51
177.9999999962464
  0
LINE
  5
D27
330
23
100
AcDbEntity
  8
SANINDUSA
100
AcDbLine
 10
1965.991184978602
 20
1602.354704244142
 30
0.0
 11
1965.934823680691
 21
1602.354704244142
 31
0.0
  0
ARC
  5
D28
330
23
100
AcDbEntity
  8
SANINDUSA
100
AcDbCircle
 10
1965.991184978602
 20
1602.347704244142
 30
0.0
 40
0.0069999999999999
100
AcDbArc
 50
0.9999999969218754
 51
90.0
  0
LINE
  5
D29
330
23
100
AcDbEntity
  8
SANINDUSA
100
AcDbLine
 10
1966.000158651342
 20
1602.234704245036
 30
0.0
 11
1965.998183912468
 21
1602.347826410987
 31
0.0
  0
LINE
  5
D2A
330
23
100
AcDbEntity
  8
SANINDUSA
100
AcDbLine
 10
1965.634954437713
 20
1602.251167362635
 30
0.0
 11
1965.650207266311
 21
1602.250847896641
 31
0.0
  0
LWPOLYLINE
  5
DB8
330
23
100
AcDbEntity
  8
SANINDUSA
100
AcDbPolyline
 90
       12
 70
   128
 43
0.0
 10
1964.395979113977
 20
1602.281305877571
 10
1964.396182656388
 20
1602.281302323644
 10
1964.396789133649
 20
1602.281291736369
 10
1964.397786200146
 20
1602.281274331813
 10
1964.3991535605
 20
1602.281250467603
 10
1964.40086337934
 20
1602.281220620578
 10
1964.402880847554
 20
1602.281185409134
 10
1964.405164897542
 20
1602.281145541077
 10
1964.407669037681
 20
1602.281101828521
 10
1964.410342276196
 20
1602.281055165534
 10
1964.41313020895
 20
1602.281006505792
 10
1964.415976069967
 20
1602.280956825321
  0
ARC
  5
DBD
330
23
100
AcDbEntity
  8
SANINDUSA
100
AcDbCircle
 10
1964.972195920407
 20
1602.310433915176
 30
0.0
 40
0.0497826604777848
100
AcDbArc
 50
238.2793821209875
 51
257.1794790496864
  0
LINE
  5
DC2
330
23
100
AcDbEntity
  8
SANINDUSA
100
AcDbLine
 10
1964.944122274391
 20
1602.269145071072
 30
0.0
 11
1964.946021276263
 21
1602.268087691094
 31
0.0
  0
LINE
  5
DC3
330
23
100
AcDbEntity
  8
SANINDUSA
100
AcDbLine
 10
1964.941329142506
 20
1602.27035386811
 30
0.0
 11
1964.944122274391
 21
1602.269145071072
 31
0.0
  0
LWPOLYLINE
  5
DC4
330
23
100
AcDbEntity
  8
SANINDUSA
100
AcDbPolyline
 90
        3
 70
   128
 43
0.0
 10
1964.932827100257
 20
1602.271935163145
 10
1964.93708448122
 20
1602.271510107522
 10
1964.941329166393
 20
1602.270353866821
  0
LINE
  5
DC6
330
23
100
AcDbEntity
  8
SANINDUSA
100
AcDbLine
 10
1964.415976069201
 20
1602.280956828695
 30
0.0
 11
1964.932827115744
 21
1602.27193516012
 31
0.0
  0
LINE
  5
DCD
330
23
100
AcDbEntity
  8
SANINDUSA
100
AcDbLine
 10
1965.907840128361
 20
1602.354704244142
 30
0.0
 11
1965.934823680691
 21
1602.354704244142
 31
0.0
  0
LINE
  5
DCF
330
23
100
AcDbEntity
  8
SANINDUSA
100
AcDbLine
 10
1964.36130403802
 20
1602.354704244142
 30
0.0
 11
1964.38828759035
 21
1602.354704244142
 31
0.0
  0
LINE
  5
DD0
330
23
100
AcDbEntity
  8
SANINDUSA
100
AcDbLine
 10
1964.38828759035
 20
1602.354704244142
 30
0.0
 11
1965.907840128361
 21
1602.354704244142
 31
0.0
  0
LINE
  5
DD9
330
23
100
AcDbEntity
  8
SANINDUSA
100
AcDbLine
 10
1966.000158651342
 20
1602.234704245036
 30
0.0
 11
1965.883871086233
 21
1602.234704245036
 31
0.0
  0
LINE
  5
DDA
330
23
100
AcDbEntity
  8
SANINDUSA
100
AcDbLine
 10
1965.752256602223
 20
1602.234704245507
 30
0.0
 11
1964.29596925167
 21
1602.234704245012
 31
0.0
  0
ENDSEC
  0
SECTION
  2
OBJECTS
  0
DICTIONARY
  5
C
330
0
100
AcDbDictionary
281
     1
  3
ACAD_COLOR
350
1C
  3
ACAD_GROUP
350
D
  3
ACAD_LAYOUT
350
1A
  3
ACAD_MATERIAL
350
1B
  3
ACAD_MLINESTYLE
350
17
  3
ACAD_PLOTSETTINGS
350
19
  3
ACAD_PLOTSTYLENAME
350
E
  3
ACAD_TABLESTYLE
350
1D
  3
ACDBHEADERROUNDTRIPXREC
350
8A06
  3
AcDbVariableDictionary
350
89DD
  0
DICTIONARY
  5
1C
102
{ACAD_REACTORS
330
C
102
}
330
C
100
AcDbDictionary
281
     1
  0
DICTIONARY
  5
D
102
{ACAD_REACTORS
330
C
102
}
330
C
100
AcDbDictionary
281
     1
  0
DICTIONARY
  5
1A
102
{ACAD_REACTORS
330
C
102
}
330
C
100
AcDbDictionary
281
     1
  3
Layout1
350
22
  3
Layout2
350
2A
  3
Model
350
26
  0
DICTIONARY
  5
1B
102
{ACAD_REACTORS
330
C
102
}
330
C
100
AcDbDictionary
281
     1
  0
DICTIONARY
  5
17
102
{ACAD_REACTORS
330
C
102
}
330
C
100
AcDbDictionary
281
     1
  3
Standard
350
18
  0
DICTIONARY
  5
19
102
{ACAD_REACTORS
330
C
102
}
330
C
100
AcDbDictionary
281
     1
  0
ACDBDICTIONARYWDFLT
  5
E
102
{ACAD_REACTORS
330
C
102
}
330
C
100
AcDbDictionary
281
     1
  3
Normal
350
F
100
AcDbDictionaryWithDefault
340
F
  0
DICTIONARY
  5
1D
102
{ACAD_REACTORS
330
C
102
}
330
C
100
AcDbDictionary
281
     1
  3
Standard
350
1E
  0
DICTIONARY
  5
8A06
102
{ACAD_REACTORS
330
C
102
}
330
C
100
AcDbDictionary
281
     1
  0
DICTIONARY
  5
89DD
102
{ACAD_REACTORS
330
C
102
}
330
C
100
AcDbDictionary
281
     1
  3
CTABLESTYLE
350
89DE
  3
DIMASSOC
350
89E8
  3
HIDETEXT
350
89E7
  3
PROJECTNAME
350
89E9
  0
LAYOUT
  5
22
102
{ACAD_XDICTIONARY
360
8A07
102
}
102
{ACAD_REACTORS
330
1A
102
}
330
1A
100
AcDbPlotSettings
  1

  2
C:\Documents and Settings\Julio\Application Data\Autodesk\AutoCAD 2006\R16.2\enu\plotters\Default Windows System Printer.pc3
  4

  6

 40
0.0
 41
0.0
 42
0.0
 43
0.0
 44
0.0
 45
0.0
 46
0.0
 47
0.0
 48
0.0
 49
0.0
140
0.0
141
0.0
142
1.0
143
1.0
 70
   688
 72
     0
 73
     0
 74
     5
  7

 75
    16
147
1.0
148
0.0
149
0.0
100
AcDbLayout
  1
Layout1
 70
     1
 71
     1
 10
0.0
 20
0.0
 11
420.0
 21
297.0
 12
0.0
 22
0.0
 32
0.0
 14
1.000000000000000E+20
 24
1.000000000000000E+20
 34
1.000000000000000E+20
 15
-1.000000000000000E+20
 25
-1.000000000000000E+20
 35
-1.000000000000000E+20
146
0.0
 13
0.0
 23
0.0
 33
0.0
 16
1.0
 26
0.0
 36
0.0
 17
0.0
 27
1.0
 37
0.0
 76
     0
330
1F
  0
LAYOUT
  5
2A
102
{ACAD_XDICTIONARY
360
8A0B
102
}
102
{ACAD_REACTORS
330
1A
102
}
330
1A
100
AcDbPlotSettings
  1

  2
C:\Documents and Settings\Julio\Application Data\Autodesk\AutoCAD 2006\R16.2\enu\plotters\Default Windows System Printer.pc3
  4

  6

 40
0.0
 41
0.0
 42
0.0
 43
0.0
 44
0.0
 45
0.0
 46
0.0
 47
0.0
 48
0.0
 49
0.0
140
0.0
141
0.0
142
1.0
143
1.0
 70
   688
 72
     0
 73
     0
 74
     5
  7

 75
    16
147
1.0
148
0.0
149
0.0
100
AcDbLayout
  1
Layout2
 70
     1
 71
     2
 10
0.0
 20
0.0
 11
12.0
 21
9.0
 12
0.0
 22
0.0
 32
0.0
 14
0.0
 24
0.0
 34
0.0
 15
0.0
 25
0.0
 35
0.0
146
0.0
 13
0.0
 23
0.0
 33
0.0
 16
1.0
 26
0.0
 36
0.0
 17
0.0
 27
1.0
 37
0.0
 76
     0
330
27
  0
LAYOUT
  5
26
102
{ACAD_XDICTIONARY
360
8A09
102
}
102
{ACAD_REACTORS
330
1A
102
}
330
1A
100
AcDbPlotSettings
  1

  2
C:\Documents and Settings\Julio\Application Data\Autodesk\AutoCAD 2006\R16.2\enu\plotters\Default Windows System Printer.pc3
  4

  6

 40
0.0
 41
0.0
 42
0.0
 43
0.0
 44
0.0
 45
0.0
 46
0.0
 47
0.0
 48
0.0
 49
0.0
140
0.0
141
0.0
142
1.0
143
1.0
 70
  1712
 72
     0
 73
     0
 74
     0
  7

 75
     0
147
1.0
148
0.0
149
0.0
100
AcDbLayout
  1
Model
 70
     1
 71
     0
 10
0.0
 20
0.0
 11
12.0
 21
9.0
 12
0.0
 22
0.0
 32
0.0
 14
0.0
 24
0.0
 34
0.0
 15
0.0
 25
0.0
 35
0.0
146
0.0
 13
0.0
 23
0.0
 33
0.0
 16
1.0
 26
0.0
 36
0.0
 17
0.0
 27
1.0
 37
0.0
 76
     0
330
23
  0
MLINESTYLE
  5
18
102
{ACAD_REACTORS
330
17
102
}
330
17
100
AcDbMlineStyle
  2
STANDARD
 70
     0
  3

 62
   256
 51
90.0
 52
90.0
 71
     2
 49
0.5
 62
   256
  6
BYLAYER
 49
-0.5
 62
   256
  6
BYLAYER
  0
ACDBPLACEHOLDER
  5
F
102
{ACAD_REACTORS
330
E
102
}
330
E
  0
TABLESTYLE
  5
1E
102
{ACAD_REACTORS
330
1D
102
}
330
1D
100
AcDbTableStyle
  3
Standard
 70
     0
 71
     0
 40
1.5
 41
1.5
280
     0
281
     0
  7
Standard
140
4.5
170
     2
 62
     0
 63
     7
283
     0
274
    -2
284
     1
 64
     0
275
    -2
285
     1
 65
     0
276
    -2
286
     1
 66
     0
277
    -2
287
     1
 67
     0
278
    -2
288
     1
 68
     0
279
    -2
289
     1
 69
     0
  7
Standard
140
6.0
170
     5
 62
     0
 63
     7
283
     0
274
    -2
284
     1
 64
     0
275
    -2
285
     1
 65
     0
276
    -2
286
     1
 66
     0
277
    -2
287
     1
 67
     0
278
    -2
288
     1
 68
     0
279
    -2
289
     1
 69
     0
  7
Standard
140
4.5
170
     5
 62
     0
 63
     7
283
     0
274
    -2
284
     1
 64
     0
275
    -2
285
     1
 65
     0
276
    -2
286
     1
 66
     0
277
    -2
287
     1
 67
     0
278
    -2
288
     1
 68
     0
279
    -2
289
     1
 69
     0
  0
DICTIONARYVAR
  5
89DE
102
{ACAD_REACTORS
330
89DD
102
}
330
89DD
100
DictionaryVariables
280
     0
  1
STANDARD
  0
DICTIONARYVAR
  5
89E8
102
{ACAD_REACTORS
330
89DD
102
}
330
89DD
100
DictionaryVariables
280
     0
  1
2
  0
DICTIONARYVAR
  5
89E7
102
{ACAD_REACTORS
330
89DD
102
}
330
89DD
100
DictionaryVariables
280
     0
  1
1
  0
DICTIONARYVAR
  5
89E9
102
{ACAD_REACTORS
330
89DD
102
}
330
89DD
100
DictionaryVariables
280
     0
  1

  0
DICTIONARY
  5
8A07
330
22
100
AcDbDictionary
280
     1
281
     1
  3
ACAD_XREC_ROUNDTRIP
360
8A08
  0
DICTIONARY
  5
8A0B
330
2A
100
AcDbDictionary
280
     1
281
     1
  3
ACAD_XREC_ROUNDTRIP
360
8A0C
  0
DICTIONARY
  5
8A09
330
26
100
AcDbDictionary
280
     1
281
     1
  3
ACAD_XREC_ROUNDTRIP
360
8A0A
  0
XRECORD
  5
8A08
102
{ACAD_REACTORS
330
8A07
102
}
330
8A07
100
AcDbXrecord
280
     1
102
SHADEPLOT
 70
     0
102
SHADEPLOTRESLEVEL
 70
     2
102
SHADEPLOTCUSTOMDPI
 70
   300
  0
XRECORD
  5
8A0C
102
{ACAD_REACTORS
330
8A0B
102
}
330
8A0B
100
AcDbXrecord
280
     1
102
SHADEPLOT
 70
     0
102
SHADEPLOTRESLEVEL
 70
     2
102
SHADEPLOTCUSTOMDPI
 70
   300
  0
XRECORD
  5
8A0A
102
{ACAD_REACTORS
330
8A09
102
}
330
8A09
100
AcDbXrecord
280
     1
102
SHADEPLOT
 70
     0
102
SHADEPLOTRESLEVEL
 70
     2
102
SHADEPLOTCUSTOMDPI
 70
   300
  0
ENDSEC
  0
EOF
