  0
SECTION
  2
HEADER
  9
$ACADVER
  1
AC1015
  9
$ACADMAINTVER
 70
    20
  9
$DWGCODEPAGE
  3
ANSI_1252
  9
$INSBASE
 10
0.0
 20
0.0
 30
0.0
  9
$EXTMIN
 10
1880.962143080301
 20
1644.380580935805
 30
0.0
  9
$EXTMAX
 10
1887.185611561772
 20
1645.180821041853
 30
0.0
  9
$LIMMIN
 10
0.0
 20
0.0
  9
$LIMMAX
 10
420.0
 20
297.0
  9
$ORTHOMODE
 70
     1
  9
$REGENMODE
 70
     1
  9
$FILLMODE
 70
     1
  9
$QTEXTMODE
 70
     0
  9
$MIRRTEXT
 70
     0
  9
$LTSCALE
 40
1.0
  9
$ATTMODE
 70
     1
  9
$TEXTSIZE
 40
2.5
  9
$TRACEWID
 40
1.0
  9
$TEXTSTYLE
  7
Standard
  9
$CLAYER
  8
0
  9
$CELTYPE
  6
ByLayer
  9
$CECOLOR
 62
   256
  9
$CELTSCALE
 40
1.0
  9
$DISPSILH
 70
     0
  9
$DIMSCALE
 40
1.0
  9
$DIMASZ
 40
2.5
  9
$DIMEXO
 40
0.625
  9
$DIMDLI
 40
3.75
  9
$DIMRND
 40
0.0
  9
$DIMDLE
 40
0.0
  9
$DIMEXE
 40
1.25
  9
$DIMTP
 40
0.0
  9
$DIMTM
 40
0.0
  9
$DIMTXT
 40
2.5
  9
$DIMCEN
 40
2.5
  9
$DIMTSZ
 40
0.0
  9
$DIMTOL
 70
     0
  9
$DIMLIM
 70
     0
  9
$DIMTIH
 70
     0
  9
$DIMTOH
 70
     0
  9
$DIMSE1
 70
     0
  9
$DIMSE2
 70
     0
  9
$DIMTAD
 70
     1
  9
$DIMZIN
 70
     8
  9
$DIMBLK
  1

  9
$DIMASO
 70
     1
  9
$DIMSHO
 70
     1
  9
$DIMPOST
  1

  9
$DIMAPOST
  1

  9
$DIMALT
 70
     0
  9
$DIMALTD
 70
     3
  9
$DIMALTF
 40
0.03937007874016
  9
$DIMLFAC
 40
1.0
  9
$DIMTOFL
 70
     1
  9
$DIMTVP
 40
0.0
  9
$DIMTIX
 70
     0
  9
$DIMSOXD
 70
     0
  9
$DIMSAH
 70
     0
  9
$DIMBLK1
  1

  9
$DIMBLK2
  1

  9
$DIMSTYLE
  2
ISO-25
  9
$DIMCLRD
 70
     0
  9
$DIMCLRE
 70
     0
  9
$DIMCLRT
 70
     0
  9
$DIMTFAC
 40
1.0
  9
$DIMGAP
 40
0.625
  9
$DIMJUST
 70
     0
  9
$DIMSD1
 70
     0
  9
$DIMSD2
 70
     0
  9
$DIMTOLJ
 70
     0
  9
$DIMTZIN
 70
     8
  9
$DIMALTZ
 70
     0
  9
$DIMALTTZ
 70
     0
  9
$DIMUPT
 70
     0
  9
$DIMDEC
 70
     2
  9
$DIMTDEC
 70
     2
  9
$DIMALTU
 70
     2
  9
$DIMALTTD
 70
     3
  9
$DIMTXSTY
  7
Standard
  9
$DIMAUNIT
 70
     0
  9
$DIMADEC
 70
     0
  9
$DIMALTRND
 40
0.0
  9
$DIMAZIN
 70
     0
  9
$DIMDSEP
 70
    44
  9
$DIMATFIT
 70
     3
  9
$DIMFRAC
 70
     0
  9
$DIMLDRBLK
  1

  9
$DIMLUNIT
 70
     2
  9
$DIMLWD
 70
    -2
  9
$DIMLWE
 70
    -2
  9
$DIMTMOVE
 70
     0
  9
$LUNITS
 70
     2
  9
$LUPREC
 70
     4
  9
$SKETCHINC
 40
1.0
  9
$FILLETRAD
 40
0.0
  9
$AUNITS
 70
     0
  9
$AUPREC
 70
     0
  9
$MENU
  1
.
  9
$ELEVATION
 40
0.0
  9
$PELEVATION
 40
0.0
  9
$THICKNESS
 40
0.0
  9
$LIMCHECK
 70
     0
  9
$CHAMFERA
 40
0.0
  9
$CHAMFERB
 40
0.0
  9
$CHAMFERC
 40
0.0
  9
$CHAMFERD
 40
0.0
  9
$SKPOLY
 70
     0
  9
$TDCREATE
 40
2454930.703632443
  9
$TDUCREATE
 40
2454930.661965775
  9
$TDUPDATE
 40
2454936.413500614
  9
$TDUUPDATE
 40
2454936.371833947
  9
$TDINDWG
 40
0.0070576620
  9
$TDUSRTIMER
 40
0.0070576620
  9
$USRTIMER
 70
     1
  9
$ANGBASE
 50
0.0
  9
$ANGDIR
 70
     0
  9
$PDMODE
 70
     0
  9
$PDSIZE
 40
0.0
  9
$PLINEWID
 40
0.0
  9
$SPLFRAME
 70
     0
  9
$SPLINETYPE
 70
     6
  9
$SPLINESEGS
 70
     8
  9
$HANDSEED
  5
908A
  9
$SURFTAB1
 70
     6
  9
$SURFTAB2
 70
     6
  9
$SURFTYPE
 70
     6
  9
$SURFU
 70
     6
  9
$SURFV
 70
     6
  9
$UCSBASE
  2

  9
$UCSNAME
  2

  9
$UCSORG
 10
0.0
 20
0.0
 30
0.0
  9
$UCSXDIR
 10
1.0
 20
0.0
 30
0.0
  9
$UCSYDIR
 10
0.0
 20
1.0
 30
0.0
  9
$UCSORTHOREF
  2

  9
$UCSORTHOVIEW
 70
     0
  9
$UCSORGTOP
 10
0.0
 20
0.0
 30
0.0
  9
$UCSORGBOTTOM
 10
0.0
 20
0.0
 30
0.0
  9
$UCSORGLEFT
 10
0.0
 20
0.0
 30
0.0
  9
$UCSORGRIGHT
 10
0.0
 20
0.0
 30
0.0
  9
$UCSORGFRONT
 10
0.0
 20
0.0
 30
0.0
  9
$UCSORGBACK
 10
0.0
 20
0.0
 30
0.0
  9
$PUCSBASE
  2

  9
$PUCSNAME
  2

  9
$PUCSORG
 10
0.0
 20
0.0
 30
0.0
  9
$PUCSXDIR
 10
1.0
 20
0.0
 30
0.0
  9
$PUCSYDIR
 10
0.0
 20
1.0
 30
0.0
  9
$PUCSORTHOREF
  2

  9
$PUCSORTHOVIEW
 70
     0
  9
$PUCSORGTOP
 10
0.0
 20
0.0
 30
0.0
  9
$PUCSORGBOTTOM
 10
0.0
 20
0.0
 30
0.0
  9
$PUCSORGLEFT
 10
0.0
 20
0.0
 30
0.0
  9
$PUCSORGRIGHT
 10
0.0
 20
0.0
 30
0.0
  9
$PUCSORGFRONT
 10
0.0
 20
0.0
 30
0.0
  9
$PUCSORGBACK
 10
0.0
 20
0.0
 30
0.0
  9
$USERI1
 70
     0
  9
$USERI2
 70
     0
  9
$USERI3
 70
     0
  9
$USERI4
 70
     0
  9
$USERI5
 70
     0
  9
$USERR1
 40
0.0
  9
$USERR2
 40
0.0
  9
$USERR3
 40
0.0
  9
$USERR4
 40
0.0
  9
$USERR5
 40
0.0
  9
$WORLDVIEW
 70
     1
  9
$SHADEDGE
 70
     3
  9
$SHADEDIF
 70
    70
  9
$TILEMODE
 70
     1
  9
$MAXACTVP
 70
    64
  9
$PINSBASE
 10
0.0
 20
0.0
 30
0.0
  9
$PLIMCHECK
 70
     0
  9
$PEXTMIN
 10
1.000000000000000E+20
 20
1.000000000000000E+20
 30
1.000000000000000E+20
  9
$PEXTMAX
 10
-1.000000000000000E+20
 20
-1.000000000000000E+20
 30
-1.000000000000000E+20
  9
$PLIMMIN
 10
0.0
 20
0.0
  9
$PLIMMAX
 10
420.0
 20
297.0
  9
$UNITMODE
 70
     0
  9
$VISRETAIN
 70
     1
  9
$PLINEGEN
 70
     0
  9
$PSLTSCALE
 70
     1
  9
$TREEDEPTH
 70
  3020
  9
$CMLSTYLE
  2
Standard
  9
$CMLJUST
 70
     0
  9
$CMLSCALE
 40
20.0
  9
$PROXYGRAPHICS
 70
     1
  9
$MEASUREMENT
 70
     1
  9
$CELWEIGHT
370
    -1
  9
$ENDCAPS
280
     0
  9
$JOINSTYLE
280
     0
  9
$LWDISPLAY
290
     0
  9
$INSUNITS
 70
     4
  9
$HYPERLINKBASE
  1

  9
$STYLESHEET
  1

  9
$XEDIT
290
     1
  9
$CEPSNTYPE
380
     0
  9
$PSTYLEMODE
290
     1
  9
$FINGERPRINTGUID
  2
{00A18679-C6FD-4CDA-9AA4-C19E4E7C5D15}
  9
$VERSIONGUID
  2
{3B96E0D7-16E0-4BE8-B089-2B529AC518D4}
  9
$EXTNAMES
290
     1
  9
$PSVPSCALE
 40
0.0
  9
$OLESTARTUP
290
     0
  0
ENDSEC
  0
SECTION
  2
CLASSES
  0
CLASS
  1
ACDBDICTIONARYWDFLT
  2
AcDbDictionaryWithDefault
  3
ObjectDBX Classes
 90
        0
280
     0
281
     0
  0
CLASS
  1
TABLESTYLE
  2
AcDbTableStyle
  3
ObjectDBX Classes
 90
     2047
280
     0
281
     0
  0
CLASS
  1
DIMASSOC
  2
AcDbDimAssoc
  3
"AcDbDimAssoc|Product Desc:     AcDim ARX App For Dimension|Company:          Autodesk, Inc.|WEB Address:      www.autodesk.com"
 90
    32768
280
     0
281
     0
  0
CLASS
  1
SORTENTSTABLE
  2
AcDbSortentsTable
  3
ObjectDBX Classes
 90
    32768
280
     0
281
     0
  0
CLASS
  1
DICTIONARYVAR
  2
AcDbDictionaryVar
  3
ObjectDBX Classes
 90
        0
280
     0
281
     0
  0
CLASS
  1
ACDBPLACEHOLDER
  2
AcDbPlaceHolder
  3
ObjectDBX Classes
 90
        0
280
     0
281
     0
  0
CLASS
  1
LAYOUT
  2
AcDbLayout
  3
ObjectDBX Classes
 90
        0
280
     0
281
     0
  0
ENDSEC
  0
SECTION
  2
TABLES
  0
TABLE
  2
VPORT
  5
8
330
0
100
AcDbSymbolTable
 70
     7
  0
VPORT
  5
9082
330
8
100
AcDbSymbolTableRecord
100
AcDbViewportTableRecord
  2
*Active
 70
     0
 10
0.0
 20
0.0
 11
1.0
 21
1.0
 12
1884.073877321037
 22
1644.780700988829
 13
0.0
 23
0.0
 14
10.0
 24
10.0
 15
10.0
 25
10.0
 16
0.0
 26
0.0
 36
1.0
 17
0.0
 27
0.0
 37
0.0
 40
3.899493816510348
 41
1.602030456852791
 42
50.0
 43
0.0
 44
0.0
 50
0.0
 51
0.0
 71
     0
 72
  1000
 73
     1
 74
     3
 75
     0
 76
     0
 77
     0
 78
     0
281
     0
 65
     1
110
0.0
120
0.0
130
0.0
111
1.0
121
0.0
131
0.0
112
0.0
122
1.0
132
0.0
 79
     0
146
0.0
  0
ENDTAB
  0
TABLE
  2
LTYPE
  5
5
330
0
100
AcDbSymbolTable
 70
     5
  0
LTYPE
  5
14
330
5
100
AcDbSymbolTableRecord
100
AcDbLinetypeTableRecord
  2
ByBlock
 70
     0
  3

 72
    65
 73
     0
 40
0.0
  0
LTYPE
  5
15
330
5
100
AcDbSymbolTableRecord
100
AcDbLinetypeTableRecord
  2
ByLayer
 70
     0
  3

 72
    65
 73
     0
 40
0.0
  0
LTYPE
  5
16
330
5
100
AcDbSymbolTableRecord
100
AcDbLinetypeTableRecord
  2
Continuous
 70
     0
  3
Solid line
 72
    65
 73
     0
 40
0.0
  0
LTYPE
  5
312
330
5
100
AcDbSymbolTableRecord
100
AcDbLinetypeTableRecord
  2
DASHDOT
 70
     0
  3
Dash dot __ . __ . __ . __ . __ . __ . __ . __
 72
    65
 73
     4
 40
25.4
 49
12.7
 74
     0
 49
-6.349999999999999
 74
     0
 49
0.0
 74
     0
 49
-6.349999999999999
 74
     0
  0
LTYPE
  5
313
330
5
100
AcDbSymbolTableRecord
100
AcDbLinetypeTableRecord
  2
HIDDEN
 70
     0
  3
Hidden __ __ __ __ __ __ __ __ __ __ __ __ __ _
 72
    65
 73
     2
 40
9.524999999999998
 49
6.349999999999999
 74
     0
 49
-3.174999999999999
 74
     0
  0
LTYPE
  5
314
330
5
100
AcDbSymbolTableRecord
100
AcDbLinetypeTableRecord
  2
HIDDEN2
 70
     0
  3
Hidden (.5x) _ _ _ _ _ _ _ _ _ _ _ _ _ _ _ _ _
 72
    65
 73
     2
 40
4.762499999999999
 49
3.174999999999999
 74
     0
 49
-1.587499999999999
 74
     0
  0
ENDTAB
  0
TABLE
  2
LAYER
  5
2
330
0
100
AcDbSymbolTable
 70
     9
  0
LAYER
  5
10
330
2
100
AcDbSymbolTableRecord
100
AcDbLayerTableRecord
  2
0
 70
     0
 62
     7
  6
Continuous
370
    -3
390
F
  0
LAYER
  5
315
330
2
100
AcDbSymbolTableRecord
100
AcDbLayerTableRecord
  2
4
 70
     0
 62
     4
  6
Continuous
370
    -3
390
F
  0
LAYER
  5
316
330
2
100
AcDbSymbolTableRecord
100
AcDbLayerTableRecord
  2
cen
 70
     0
 62
     7
  6
DASHDOT
370
    -3
390
F
  0
LAYER
  5
317
330
2
100
AcDbSymbolTableRecord
100
AcDbLayerTableRecord
  2
hid
 70
     0
 62
     9
  6
HIDDEN
370
    -3
390
F
  0
LAYER
  5
318
330
2
100
AcDbSymbolTableRecord
100
AcDbLayerTableRecord
  2
hatch
 70
     0
 62
     9
  6
Continuous
370
    -3
390
F
  0
LAYER
  5
319
330
2
100
AcDbSymbolTableRecord
100
AcDbLayerTableRecord
  2
9
 70
     0
 62
     9
  6
Continuous
370
    -3
390
F
  0
LAYER
  5
31A
330
2
100
AcDbSymbolTableRecord
100
AcDbLayerTableRecord
  2
cotas
 70
     0
 62
     1
  6
Continuous
370
    -3
390
F
  0
LAYER
  5
31B
330
2
100
AcDbSymbolTableRecord
100
AcDbLayerTableRecord
  2
Defpoints
 70
     0
 62
     7
  6
Continuous
290
     0
370
    -3
390
F
  0
LAYER
  5
31C
330
2
100
AcDbSymbolTableRecord
100
AcDbLayerTableRecord
  2
SANINDUSA
 70
     0
 62
     3
  6
Continuous
370
    -3
390
F
  0
ENDTAB
  0
TABLE
  2
STYLE
  5
3
330
0
100
AcDbSymbolTable
 70
     2
  0
STYLE
  5
11
330
3
100
AcDbSymbolTableRecord
100
AcDbTextStyleTableRecord
  2
Standard
 70
     0
 40
0.0
 41
1.0
 50
0.0
 71
     0
 42
2.5
  3
txt
  4

  0
STYLE
  5
31D
330
3
100
AcDbSymbolTableRecord
100
AcDbTextStyleTableRecord
  2
SANINDUSA
 70
     0
 40
0.0
 41
1.0
 50
0.0
 71
     0
 42
2.5
  3
verdana.TTF
  4

1001
ACAD
1000
Verdana
1071
       34
  0
ENDTAB
  0
TABLE
  2
VIEW
  5
6
330
0
100
AcDbSymbolTable
 70
     0
  0
ENDTAB
  0
TABLE
  2
UCS
  5
7
330
0
100
AcDbSymbolTable
 70
     0
  0
ENDTAB
  0
TABLE
  2
APPID
  5
9
330
0
100
AcDbSymbolTable
 70
     7
  0
APPID
  5
12
330
9
100
AcDbSymbolTableRecord
100
AcDbRegAppTableRecord
  2
ACAD
 70
     0
  0
APPID
  5
31F
330
9
100
AcDbSymbolTableRecord
100
AcDbRegAppTableRecord
  2
ACAD_DSTYLE_DIMEXT_LENGTH
 70
     0
  0
APPID
  5
320
330
9
100
AcDbSymbolTableRecord
100
AcDbRegAppTableRecord
  2
ACAD_DSTYLE_DIMEXT_ENABLED
 70
     0
  0
APPID
  5
321
330
9
100
AcDbSymbolTableRecord
100
AcDbRegAppTableRecord
  2
ACAD_DSTYLE_DIMJOGGED_JOGANGLE_SYMBOL
 70
     0
  0
APPID
  5
322
330
9
100
AcDbSymbolTableRecord
100
AcDbRegAppTableRecord
  2
ACAD_DSTYLE_DIMARC_LENGTH_SYMBOL
 70
     0
  0
APPID
  5
323
330
9
100
AcDbSymbolTableRecord
100
AcDbRegAppTableRecord
  2
ACAD_PSEXT
 70
     0
  0
APPID
  5
906C
330
9
100
AcDbSymbolTableRecord
100
AcDbRegAppTableRecord
  2
ACAD_EXEMPT_FROM_CAD_STANDARDS
 70
     0
  0
ENDTAB
  0
TABLE
  2
DIMSTYLE
  5
A
330
0
100
AcDbSymbolTable
 70
     3
100
AcDbDimStyleTable
 71
     1
340
2B
  0
DIMSTYLE
105
2B
330
A
100
AcDbSymbolTableRecord
100
AcDbDimStyleTableRecord
  2
ISO-25
 70
     0
 41
2.5
 42
0.625
 43
3.75
 44
1.25
 73
     0
 74
     0
 77
     1
 78
     8
140
2.5
141
2.5
143
0.03937007874016
147
0.625
171
     3
172
     1
271
     2
272
     2
274
     3
278
    44
283
     0
284
     8
340
11
  0
DIMSTYLE
105
31E
330
A
100
AcDbSymbolTableRecord
100
AcDbDimStyleTableRecord
  2
SANINDUSA
 70
     0
 40
5.0
 41
2.0
 42
1.0
 43
1.0
 44
1.0
 73
     0
 74
     0
 77
     1
 78
     8
140
2.0
141
0.0
143
0.03937007874016
147
1.0
171
     3
172
     1
176
   256
177
   256
178
   256
179
     1
271
     1
272
     1
274
     3
278
    44
283
     0
284
     8
340
31D
371
    -1
372
    -1
1001
ACAD_DSTYLE_DIMEXT_LENGTH
1070
   378
1040
1.0
1001
ACAD_DSTYLE_DIMEXT_ENABLED
1070
   383
1070
     0
1001
ACAD_DSTYLE_DIMARC_LENGTH_SYMBOL
1070
   379
1070
     0
1001
ACAD_DSTYLE_DIMJOGGED_JOGANGLE_SYMBOL
1070
   384
1040
1.570796326794896
  0
ENDTAB
  0
TABLE
  2
BLOCK_RECORD
  5
1
330
0
100
AcDbSymbolTable
 70
   132
  0
BLOCK_RECORD
  5
23
330
1
100
AcDbSymbolTableRecord
100
AcDbBlockTableRecord
  2
*Model_Space
340
26
  0
BLOCK_RECORD
  5
1F
330
1
100
AcDbSymbolTableRecord
100
AcDbBlockTableRecord
  2
*Paper_Space
340
22
  0
BLOCK_RECORD
  5
27
330
1
100
AcDbSymbolTableRecord
100
AcDbBlockTableRecord
  2
*Paper_Space0
340
2A
  0
ENDTAB
  0
ENDSEC
  0
SECTION
  2
BLOCKS
  0
BLOCK
  5
24
330
23
100
AcDbEntity
  8
0
100
AcDbBlockBegin
  2
*Model_Space
 70
     0
 10
0.0
 20
0.0
 30
0.0
  3
*Model_Space
  1

  0
ENDBLK
  5
25
330
23
100
AcDbEntity
  8
0
100
AcDbBlockEnd
  0
BLOCK
  5
20
330
1F
100
AcDbEntity
 67
     1
  8
0
100
AcDbBlockBegin
  2
*Paper_Space
 70
     0
 10
0.0
 20
0.0
 30
0.0
  3
*Paper_Space
  1

  0
ENDBLK
  5
21
330
1F
100
AcDbEntity
 67
     1
  8
0
100
AcDbBlockEnd
  0
BLOCK
  5
28
330
27
100
AcDbEntity
 67
     1
  8
0
100
AcDbBlockBegin
  2
*Paper_Space0
 70
     0
 10
0.0
 20
0.0
 30
0.0
  3
*Paper_Space0
  1

  0
ENDBLK
  5
29
330
27
100
AcDbEntity
 67
     1
  8
0
100
AcDbBlockEnd
  0
ENDSEC
  0
SECTION
  2
ENTITIES
  0
LINE
  5
9D8
330
23
100
AcDbEntity
  8
SANINDUSA
100
AcDbLine
 10
1885.078812046234
 20
1644.718417253416
 30
0.0
 11
1885.089950918984
 21
1644.706472274815
 31
0.0
  0
LINE
  5
9D9
330
23
100
AcDbEntity
  8
SANINDUSA
100
AcDbLine
 10
1885.193342455508
 20
1644.706472274815
 30
0.0
 11
1885.204481328253
 21
1644.718417253413
 31
0.0
  0
LINE
  5
A03
330
23
100
AcDbEntity
  8
SANINDUSA
100
AcDbLine
 10
1883.719552079474
 20
1644.71841725345
 30
0.0
 11
1885.323741397717
 21
1644.718417253409
 31
0.0
  0
LINE
  5
A07
330
23
100
AcDbEntity
  8
SANINDUSA
100
AcDbLine
 10
1883.719552079474
 20
1644.71841725345
 30
0.0
 11
1883.721526634221
 21
1644.83153941936
 31
0.0
  0
LINE
  5
A09
330
23
100
AcDbEntity
  8
SANINDUSA
100
AcDbLine
 10
1885.32176674027
 20
1644.83153941936
 30
0.0
 11
1885.323741397717
 21
1644.718417253409
 31
0.0
  0
LINE
  5
A0B
330
23
100
AcDbEntity
  8
SANINDUSA
100
AcDbLine
 10
1883.72852556803
 20
1644.838417252515
 30
0.0
 11
1885.314767858243
 21
1644.838417252515
 31
0.0
  0
ARC
  5
A0E
330
23
100
AcDbEntity
  8
SANINDUSA
100
AcDbCircle
 10
1883.728525568088
 20
1644.831417252516
 30
0.0
 40
0.0070000000000002
100
AcDbArc
 50
90.0
 51
179.0000000030781
  0
ARC
  5
A0F
330
23
100
AcDbEntity
  8
SANINDUSA
100
AcDbCircle
 10
1885.314767806404
 20
1644.831417252516
 30
0.0
 40
0.0070000000000002
100
AcDbArc
 50
0.9999999969218754
 51
90.0
  0
LINE
  5
A6E
330
23
100
AcDbEntity
  8
SANINDUSA
100
AcDbLine
 10
1885.141646687246
 20
1644.706472274815
 30
0.0
 11
1885.193342455508
 21
1644.706472274815
 31
0.0
  0
LINE
  5
A6F
330
23
100
AcDbEntity
  8
SANINDUSA
100
AcDbLine
 10
1885.089950918984
 20
1644.706472274815
 30
0.0
 11
1885.141646687246
 21
1644.706472274815
 31
0.0
  0
LINE
  5
AC5
330
23
100
AcDbEntity
  8
SANINDUSA
100
AcDbLine
 10
1883.12678197475
 20
1644.718417254287
 30
0.0
 11
1883.137920847477
 21
1644.706472275709
 31
0.0
  0
LINE
  5
AC6
330
23
100
AcDbEntity
  8
SANINDUSA
100
AcDbLine
 10
1883.241312384001
 20
1644.706472275709
 30
0.0
 11
1883.252451256722
 21
1644.71841725428
 31
0.0
  0
LINE
  5
AC9
330
23
100
AcDbEntity
  8
SANINDUSA
100
AcDbLine
 10
1882.787522007967
 20
1644.718417254304
 30
0.0
 11
1882.789496562715
 21
1644.831539420255
 31
0.0
  0
LINE
  5
ACC
330
23
100
AcDbEntity
  8
SANINDUSA
100
AcDbLine
 10
1883.589736668763
 20
1644.831539420255
 30
0.0
 11
1883.591711285497
 21
1644.718417254263
 31
0.0
  0
LINE
  5
AD0
330
23
100
AcDbEntity
  8
SANINDUSA
100
AcDbLine
 10
1882.787522007967
 20
1644.718417254304
 30
0.0
 11
1883.591711285497
 21
1644.718417254263
 31
0.0
  0
LINE
  5
AD2
330
23
100
AcDbEntity
  8
SANINDUSA
100
AcDbLine
 10
1882.796495496523
 20
1644.83841725341
 30
0.0
 11
1883.582737715211
 21
1644.83841725341
 31
0.0
  0
ARC
  5
AD4
330
23
100
AcDbEntity
  8
SANINDUSA
100
AcDbCircle
 10
1882.796495496581
 20
1644.83141725341
 30
0.0
 40
0.0070000000000002
100
AcDbArc
 50
90.0
 51
179.0000000030781
  0
ARC
  5
AD5
330
23
100
AcDbEntity
  8
SANINDUSA
100
AcDbCircle
 10
1883.582737734897
 20
1644.83141725341
 30
0.0
 40
0.0070000000000002
100
AcDbArc
 50
0.9999999969218754
 51
90.0
  0
LINE
  5
AE7
330
23
100
AcDbEntity
  8
SANINDUSA
100
AcDbLine
 10
1883.137920847477
 20
1644.706472275709
 30
0.0
 11
1883.241312384001
 21
1644.706472275709
 31
0.0
  0
ARC
  5
B20
330
23
100
AcDbEntity
  8
SANINDUSA
100
AcDbCircle
 10
1880.967144102608
 20
1645.175820019546
 30
0.0
 40
0.0050010226247751
100
AcDbArc
 50
90.02043701167874
 51
179.9795629883212
  0
LINE
  5
B22
330
23
100
AcDbEntity
  8
SANINDUSA
100
AcDbLine
 10
1880.967142318777
 20
1645.180821041853
 30
0.0
 11
1882.557383947874
 21
1645.180821041853
 31
0.0
  0
ARC
  5
B26
330
23
100
AcDbEntity
  8
SANINDUSA
100
AcDbCircle
 10
1882.557382164043
 20
1645.175820019546
 30
0.0
 40
0.0050010226247742
100
AcDbArc
 50
0.0204370116787323
 51
89.97956298832127
  0
LINE
  5
B29
330
23
100
AcDbEntity
  8
SANINDUSA
100
AcDbLine
 10
1880.962143080301
 20
1644.385580174281
 30
0.0
 11
1880.962143080301
 21
1645.175821803378
 31
0.0
  0
LINE
  5
B2A
330
23
100
AcDbEntity
  8
SANINDUSA
100
AcDbLine
 10
1882.56238318635
 20
1645.175821803378
 30
0.0
 11
1882.56238318635
 21
1644.385580174281
 31
0.0
  0
ELLIPSE
  5
B37
330
23
100
AcDbEntity
  8
SANINDUSA
100
AcDbEllipse
 10
1882.47200649781
 20
1645.090444352556
 30
0.0
 11
0.0141714282369861
 21
0.0141714282369867
 31
0.0
210
0.0
220
0.0
230
1.0
 40
0.9979329808706809
 41
5.498396131367732
 42
7.067974482991399
  0
LINE
  5
B39
330
23
100
AcDbEntity
  8
SANINDUSA
100
AcDbLine
 10
1882.472039403176
 20
1645.110465074463
 30
0.0
 11
1881.052486864231
 21
1645.110465074463
 31
0.0
  0
ELLIPSE
  5
B3B
330
23
100
AcDbEntity
  8
SANINDUSA
100
AcDbEllipse
 10
1881.052519769598
 20
1645.090444352556
 30
0.0
 11
-0.0141714282369793
 21
0.0141714282369932
 31
0.0
210
0.0
220
0.0
230
0.9999999999999998
 40
0.997932980870711
 41
5.498396131368258
 42
7.067974482990901
  0
LINE
  5
B3E
330
23
100
AcDbEntity
  8
SANINDUSA
100
AcDbLine
 10
1882.492027219717
 20
1644.470924719735
 30
0.0
 11
1882.492027219717
 21
1645.090477257923
 31
0.0
  0
LINE
  5
B3F
330
23
100
AcDbEntity
  8
SANINDUSA
100
AcDbLine
 10
1881.032499047691
 20
1645.090477257923
 30
0.0
 11
1881.03249904769
 21
1644.470924719735
 31
0.0
  0
ELLIPSE
  5
B42
330
23
100
AcDbEntity
  8
SANINDUSA
100
AcDbEllipse
 10
1882.47200649781
 20
1644.470957625102
 30
0.0
 11
-0.0141714282369867
 21
0.0141714282369861
 31
0.0
210
0.0
220
0.0
230
1.0
 40
0.9979329808706859
 41
2.356803477777984
 42
3.926381829401618
  0
ELLIPSE
  5
B43
330
23
100
AcDbEntity
  8
SANINDUSA
100
AcDbEllipse
 10
1881.052519769597
 20
1644.470957625102
 30
0.0
 11
0.0141714282369935
 21
0.0141714282369796
 31
0.0
210
0.0
220
0.0
230
1.0
 40
0.9979329808706863
 41
2.356803477777424
 42
3.926381829402172
  0
LINE
  5
B45
330
23
100
AcDbEntity
  8
SANINDUSA
100
AcDbLine
 10
1881.052486864231
 20
1644.450936903194
 30
0.0
 11
1882.472039403176
 21
1644.450936903195
 31
0.0
  0
ARC
  5
B47
330
23
100
AcDbEntity
  8
SANINDUSA
100
AcDbCircle
 10
1882.557382164043
 20
1644.385581958111
 30
0.0
 40
0.0050010226247742
100
AcDbArc
 50
270.0204370116787
 51
359.9795629883213
  0
LINE
  5
B48
330
23
100
AcDbEntity
  8
SANINDUSA
100
AcDbLine
 10
1882.557383947874
 20
1644.380580935805
 30
0.0
 11
1880.967142318777
 21
1644.380580935805
 31
0.0
  0
ARC
  5
B4A
330
23
100
AcDbEntity
  8
SANINDUSA
100
AcDbCircle
 10
1880.967144102608
 20
1644.385581958111
 30
0.0
 40
0.0050010226247748
100
AcDbArc
 50
180.0204370116787
 51
269.9795629883212
  0
ARC
  5
B86
330
23
100
AcDbEntity
  8
SANINDUSA
100
AcDbCircle
 10
1881.080348399301
 20
1644.498495502333
 30
0.0
 40
0.0108877701390786
100
AcDbArc
 50
179.9875034900254
 51
269.9877384549587
  0
ARC
  5
B8A
330
23
100
AcDbEntity
  8
SANINDUSA
100
AcDbCircle
 10
1881.080348444885
 20
1645.062906429761
 30
0.0
 40
0.0108878157128463
100
AcDbArc
 50
90.01250136925134
 51
180.0122566857646
  0
LINE
  5
B9A
330
23
100
AcDbEntity
  8
SANINDUSA
100
AcDbLine
 10
1881.069460629421
 20
1644.498497877013
 30
0.0
 11
1881.069460629421
 21
1645.062904100645
 31
0.0
  0
LINE
  5
B9B
330
23
100
AcDbEntity
  8
SANINDUSA
100
AcDbLine
 10
1881.080346069272
 20
1645.073794245215
 30
0.0
 11
1881.49715265689
 21
1645.073794245215
 31
0.0
  0
LINE
  5
B9D
330
23
100
AcDbEntity
  8
SANINDUSA
100
AcDbLine
 10
1881.497148611552
 20
1644.487607732443
 30
0.0
 11
1881.080346069272
 21
1644.487607732443
 31
0.0
  0
LWPOLYLINE
  5
BAC
330
23
100
AcDbEntity
  8
SANINDUSA
100
AcDbPolyline
 90
        3
 70
   128
 43
0.0
 10
1881.50934483781
 20
1644.488008096528
 10
1881.503286778414
 20
1644.487722491989
 10
1881.497148611552
 20
1644.487607732443
  0
LWPOLYLINE
  5
BAD
330
23
100
AcDbEntity
  8
SANINDUSA
100
AcDbPolyline
 90
        3
 70
   128
 43
0.0
 10
1881.49715265689
 20
1645.073794245215
 10
1881.506218439849
 20
1645.073555525608
 10
1881.509344876059
 20
1645.0733940974
  0
LWPOLYLINE
  5
BAE
330
23
100
AcDbEntity
  8
SANINDUSA
100
AcDbPolyline
 90
        5
 70
   128
 43
0.0
 10
1881.520390599445
 20
1645.062970959644
 10
1881.52030125737
 20
1644.900701851868
 10
1881.520263220766
 20
1644.73843275392
 10
1881.520379348819
 20
1644.546434719521
 10
1881.520389801844
 20
1644.498430571815
  0
ARC
  5
BB2
330
23
100
AcDbEntity
  8
SANINDUSA
100
AcDbCircle
 10
1881.510243565642
 20
1645.062971168924
 30
0.0
 40
0.0101470338059416
100
AcDbArc
 50
359.9988182837877
 51
72.91584372393508
  0
ARC
  5
BB3
330
23
100
AcDbEntity
  8
SANINDUSA
100
AcDbCircle
 10
1881.510243676926
 20
1644.498430208792
 30
0.0
 40
0.0101461249251531
100
AcDbArc
 50
287.0869938165856
 51
0.0020500025518493
  0
LINE
  5
BB5
330
23
100
AcDbEntity
  8
SANINDUSA
100
AcDbLine
 10
1881.511745006134
 20
1644.488324694159
 30
0.0
 11
1881.50934483781
 21
1644.488008096528
 31
0.0
  0
LINE
  5
BB6
330
23
100
AcDbEntity
  8
SANINDUSA
100
AcDbLine
 10
1881.509344876059
 20
1645.0733940974
 30
0.0
 11
1881.511742540411
 21
1645.073078089035
 31
0.0
  0
LINE
  5
BB7
330
23
100
AcDbEntity
  8
SANINDUSA
100
AcDbLine
 10
1881.511742540411
 20
1645.073078089035
 30
0.0
 11
1881.513224520778
 21
1645.072670457637
 31
0.0
  0
LINE
  5
BB8
330
23
100
AcDbEntity
  8
SANINDUSA
100
AcDbLine
 10
1881.51322484536
 20
1644.488731936484
 30
0.0
 11
1881.511745006134
 21
1644.488324694159
 31
0.0
  0
CIRCLE
  5
BD8
330
23
100
AcDbEntity
  8
SANINDUSA
100
AcDbCircle
 10
1881.646946500024
 20
1645.020551852297
 30
0.0
 40
0.0107485907389347
  0
CIRCLE
  5
BDA
330
23
100
AcDbEntity
  8
SANINDUSA
100
AcDbCircle
 10
1881.646936111545
 20
1644.540693991594
 30
0.0
 40
0.0107487871492258
  0
CIRCLE
  5
BDC
330
23
100
AcDbEntity
  8
SANINDUSA
100
AcDbCircle
 10
1881.646922791155
 20
1644.940722878848
 30
0.0
 40
0.0107488557390897
  0
CIRCLE
  5
BDE
330
23
100
AcDbEntity
  8
SANINDUSA
100
AcDbCircle
 10
1881.646921450979
 20
1644.620679252684
 30
0.0
 40
0.0107497697598041
  0
CIRCLE
  5
BE1
330
23
100
AcDbEntity
  8
SANINDUSA
100
AcDbCircle
 10
1881.726935498799
 20
1645.020551627927
 30
0.0
 40
0.0107483385549797
  0
CIRCLE
  5
BE4
330
23
100
AcDbEntity
  8
SANINDUSA
100
AcDbCircle
 10
1881.726925030742
 20
1644.540694132888
 30
0.0
 40
0.0107485243681132
  0
CIRCLE
  5
C1D
330
23
100
AcDbEntity
  8
SANINDUSA
100
AcDbCircle
 10
1881.646898937032
 20
1644.860722588821
 30
0.0
 40
0.0107503786384698
  0
CIRCLE
  5
C1F
330
23
100
AcDbEntity
  8
SANINDUSA
100
AcDbCircle
 10
1881.646897693826
 20
1644.700680524031
 30
0.0
 40
0.010751345129198
  0
CIRCLE
  5
C21
330
23
100
AcDbEntity
  8
SANINDUSA
100
AcDbCircle
 10
1881.726910855467
 20
1644.940725699427
 30
0.0
 40
0.0107485637086246
  0
CIRCLE
  5
C23
330
23
100
AcDbEntity
  8
SANINDUSA
100
AcDbCircle
 10
1881.726909378617
 20
1644.620676359334
 30
0.0
 40
0.0107495562197782
  0
CIRCLE
  5
C25
330
23
100
AcDbEntity
  8
SANINDUSA
100
AcDbCircle
 10
1881.646885720812
 20
1644.780701873764
 30
0.0
 40
0.010751915732633
  0
CIRCLE
  5
C27
330
23
100
AcDbEntity
  8
SANINDUSA
100
AcDbCircle
 10
1881.806923110106
 20
1645.020551605506
 30
0.0
 40
0.0107481032131858
  0
CIRCLE
  5
C29
330
23
100
AcDbEntity
  8
SANINDUSA
100
AcDbCircle
 10
1881.806912494019
 20
1644.540694106133
 30
0.0
 40
0.0107483090890619
  0
CIRCLE
  5
C2B
330
23
100
AcDbEntity
  8
SANINDUSA
100
AcDbCircle
 10
1881.726883792948
 20
1644.860726486128
 30
0.0
 40
0.0107504018393133
  0
CIRCLE
  5
C2D
330
23
100
AcDbEntity
  8
SANINDUSA
100
AcDbCircle
 10
1881.726882364672
 20
1644.700676708267
 30
0.0
 40
0.01075150567802
  0
CIRCLE
  5
C2F
330
23
100
AcDbEntity
  8
SANINDUSA
100
AcDbCircle
 10
1881.806897630068
 20
1644.940728058536
 30
0.0
 40
0.010748268413222
  0
CIRCLE
  5
C31
330
23
100
AcDbEntity
  8
SANINDUSA
100
AcDbCircle
 10
1881.806896066927
 20
1644.620673964364
 30
0.0
 40
0.0107493049911693
  0
CIRCLE
  5
C33
330
23
100
AcDbEntity
  8
SANINDUSA
100
AcDbCircle
 10
1881.726868218482
 20
1644.780701983184
 30
0.0
 40
0.0107523600377925
  0
CIRCLE
  5
C35
330
23
100
AcDbEntity
  8
SANINDUSA
100
AcDbCircle
 10
1881.886908138676
 20
1645.020552342415
 30
0.0
 40
0.0107479261151522
  0
CIRCLE
  5
C37
330
23
100
AcDbEntity
  8
SANINDUSA
100
AcDbCircle
 10
1881.886897272123
 20
1644.540693399169
 30
0.0
 40
0.0107482136189682
  0
CIRCLE
  5
C39
330
23
100
AcDbEntity
  8
SANINDUSA
100
AcDbCircle
 10
1881.806868230162
 20
1644.86072997706
 30
0.0
 40
0.0107504015398973
  0
CIRCLE
  5
C3B
330
23
100
AcDbEntity
  8
SANINDUSA
100
AcDbCircle
 10
1881.806866670819
 20
1644.700673298141
 30
0.0
 40
0.0107515934054756
  0
CIRCLE
  5
C3D
330
23
100
AcDbEntity
  8
SANINDUSA
100
AcDbCircle
 10
1881.886881763854
 20
1644.940729622828
 30
0.0
 40
0.0107480259202332
  0
CIRCLE
  5
C3F
330
23
100
AcDbEntity
  8
SANINDUSA
100
AcDbCircle
 10
1881.886880188531
 20
1644.620672435477
 30
0.0
 40
0.0107490593335421
  0
CIRCLE
  5
C41
330
23
100
AcDbEntity
  8
SANINDUSA
100
AcDbCircle
 10
1881.96688919884
 20
1645.020554579841
 30
0.0
 40
0.0107478912793929
  0
CIRCLE
  5
C43
330
23
100
AcDbEntity
  8
SANINDUSA
100
AcDbCircle
 10
1881.806850731774
 20
1644.780702120877
 30
0.0
 40
0.0107527882741636
  0
CIRCLE
  5
C45
330
23
100
AcDbEntity
  8
SANINDUSA
100
AcDbCircle
 10
1881.966877959612
 20
1644.540691308518
 30
0.0
 40
0.0107483479956344
  0
CIRCLE
  5
C47
330
23
100
AcDbEntity
  8
SANINDUSA
100
AcDbCircle
 10
1881.886851626941
 20
1644.860732275813
 30
0.0
 40
0.0107503868515249
  0
CIRCLE
  5
C49
330
23
100
AcDbEntity
  8
SANINDUSA
100
AcDbCircle
 10
1881.886850038277
 20
1644.700671082274
 30
0.0
 40
0.0107515732613772
  0
CIRCLE
  5
C4B
330
23
100
AcDbEntity
  8
SANINDUSA
100
AcDbCircle
 10
1881.966861742102
 20
1644.940730039628
 30
0.0
 40
0.0107479162530314
  0
CIRCLE
  5
C4D
330
23
100
AcDbEntity
  8
SANINDUSA
100
AcDbCircle
 10
1881.966860250262
 20
1644.6206721538
 30
0.0
 40
0.0107488879575456
  0
CIRCLE
  5
C4F
330
23
100
AcDbEntity
  8
SANINDUSA
100
AcDbCircle
 10
1881.886833337821
 20
1644.780702181544
 30
0.0
 40
0.0107531243744863
  0
CIRCLE
  5
C51
330
23
100
AcDbEntity
  8
SANINDUSA
100
AcDbCircle
 10
1882.046865262942
 20
1645.020559075296
 30
0.0
 40
0.0107481271209806
  0
CIRCLE
  5
C53
330
23
100
AcDbEntity
  8
SANINDUSA
100
AcDbCircle
 10
1882.046853529258
 20
1644.540687120459
 30
0.0
 40
0.0107488826352941
  0
CIRCLE
  5
C55
330
23
100
AcDbEntity
  8
SANINDUSA
100
AcDbCircle
 10
1881.966833105201
 20
1644.860732381904
 30
0.0
 40
0.0107503963282078
  0
CIRCLE
  5
C57
330
23
100
AcDbEntity
  8
SANINDUSA
100
AcDbCircle
 10
1881.966831646566
 20
1644.700671056525
 30
0.0
 40
0.0107514390457941
  0
CIRCLE
  5
C59
330
23
100
AcDbEntity
  8
SANINDUSA
100
AcDbCircle
 10
1882.046836737902
 20
1644.940728938079
 30
0.0
 40
0.0107480264460053
  0
CIRCLE
  5
C5B
330
23
100
AcDbEntity
  8
SANINDUSA
100
AcDbCircle
 10
1882.046835462704
 20
1644.620673468023
 30
0.0
 40
0.0107488611098995
  0
CIRCLE
  5
C5D
330
23
100
AcDbEntity
  8
SANINDUSA
100
AcDbCircle
 10
1881.966816208185
 20
1644.780702259803
 30
0.0
 40
0.0107531977810607
  0
CIRCLE
  5
C5F
330
23
100
AcDbEntity
  8
SANINDUSA
100
AcDbCircle
 10
1882.126836960287
 20
1645.020566143525
 30
0.0
 40
0.0107488144647613
  0
CIRCLE
  5
C61
330
23
100
AcDbEntity
  8
SANINDUSA
100
AcDbCircle
 10
1882.126824751803
 20
1644.540680546759
 30
0.0
 40
0.0107500081462997
  0
CIRCLE
  5
C63
330
23
100
AcDbEntity
  8
SANINDUSA
100
AcDbCircle
 10
1882.046811822392
 20
1644.86072962118
 30
0.0
 40
0.0107505058296161
  0
CIRCLE
  5
C65
330
23
100
AcDbEntity
  8
SANINDUSA
100
AcDbCircle
 10
1882.046810634094
 20
1644.700673931817
 30
0.0
 40
0.010751305136756
  0
CIRCLE
  5
C67
330
23
100
AcDbEntity
  8
SANINDUSA
100
AcDbCircle
 10
1882.126808314056
 20
1644.940725715269
 30
0.0
 40
0.010748426738329
  0
CIRCLE
  5
C69
330
23
100
AcDbEntity
  8
SANINDUSA
100
AcDbCircle
 10
1882.126807479362
 20
1644.620676827534
 30
0.0
 40
0.0107489911059765
  0
CIRCLE
  5
C6B
330
23
100
AcDbEntity
  8
SANINDUSA
100
AcDbCircle
 10
1882.046799600715
 20
1644.780702188452
 30
0.0
 40
0.0107527492358781
  0
CIRCLE
  5
C6D
330
23
100
AcDbEntity
  8
SANINDUSA
100
AcDbCircle
 10
1882.206809651593
 20
1645.020573913481
 30
0.0
 40
0.0107501672123204
  0
CIRCLE
  5
C6F
330
23
100
AcDbEntity
  8
SANINDUSA
100
AcDbCircle
 10
1882.206797796685
 20
1644.540673045178
 30
0.0
 40
0.0107515835857333
  0
CIRCLE
  5
C71
330
23
100
AcDbEntity
  8
SANINDUSA
100
AcDbCircle
 10
1882.12678810576
 20
1644.860724886523
 30
0.0
 40
0.0107508276885095
  0
CIRCLE
  5
C73
330
23
100
AcDbEntity
  8
SANINDUSA
100
AcDbCircle
 10
1882.12678710627
 20
1644.700678796585
 30
0.0
 40
0.0107515099958723
  0
CIRCLE
  5
C75
330
23
100
AcDbEntity
  8
SANINDUSA
100
AcDbCircle
 10
1882.126783925075
 20
1644.780702188587
 30
0.0
 40
0.0107513739482869
  0
CIRCLE
  5
C77
330
23
100
AcDbEntity
  8
SANINDUSA
100
AcDbCircle
 10
1882.206782954667
 20
1644.940719655425
 30
0.0
 40
0.0107492385063135
  0
CIRCLE
  5
C79
330
23
100
AcDbEntity
  8
SANINDUSA
100
AcDbCircle
 10
1882.206782869703
 20
1644.620682681361
 30
0.0
 40
0.0107493425359233
  0
CIRCLE
  5
C7B
330
23
100
AcDbEntity
  8
SANINDUSA
100
AcDbCircle
 10
1882.206767416716
 20
1644.860721747026
 30
0.0
 40
0.0107513034414153
  0
CIRCLE
  5
C7D
330
23
100
AcDbEntity
  8
SANINDUSA
100
AcDbCircle
 10
1882.206766229543
 20
1644.7006818067
 30
0.0
 40
0.0107523230982092
  0
CIRCLE
  5
C7F
330
23
100
AcDbEntity
  8
SANINDUSA
100
AcDbCircle
 10
1882.206768959014
 20
1644.780701439956
 30
0.0
 40
0.0107492868366882
  0
CIRCLE
  5
C80
330
23
100
AcDbEntity
  8
SANINDUSA
100
AcDbCircle
 10
1882.382296834547
 20
1644.780708576041
 30
0.0
 40
0.0739966376399416
  0
CIRCLE
  5
C82
330
23
100
AcDbEntity
  8
SANINDUSA
100
AcDbCircle
 10
1882.382263133325
 20
1644.780700988829
 30
0.0
 40
0.0499999999999997
  0
LINE
  5
CDF
330
23
100
AcDbEntity
  8
SANINDUSA
100
AcDbLine
 10
1886.281900182298
 20
1644.741353646714
 30
0.0
 11
1886.334143120131
 21
1644.740259310592
 31
0.0
  0
LINE
  5
CE1
330
23
100
AcDbEntity
  8
SANINDUSA
100
AcDbLine
 10
1886.361883124729
 20
1644.739678239794
 30
0.0
 11
1886.41412606266
 21
1644.738583911649
 31
0.0
  0
LINE
  5
CE3
330
23
100
AcDbEntity
  8
SANINDUSA
100
AcDbLine
 10
1886.4418660642
 20
1644.738002836607
 30
0.0
 11
1886.494109008175
 21
1644.736908509111
 31
0.0
  0
LINE
  5
CE5
330
23
100
AcDbEntity
  8
SANINDUSA
100
AcDbLine
 10
1886.521849005838
 20
1644.736327441006
 30
0.0
 11
1886.57409194879
 21
1644.735233090805
 31
0.0
  0
LWPOLYLINE
  5
CE7
330
23
100
AcDbEntity
  8
SANINDUSA
100
AcDbPolyline
 90
        3
 70
   128
 43
0.0
 10
1886.601831956721
 20
1644.734652041461
 10
1886.628173738548
 20
1644.734100262462
 10
1886.654074885997
 20
1644.733557667007
  0
LINE
  5
CE9
330
23
100
AcDbEntity
  8
SANINDUSA
100
AcDbLine
 10
1886.681814908268
 20
1644.732976638244
 30
0.0
 11
1886.734057806486
 21
1644.731882241368
 31
0.0
  0
LINE
  5
CEB
330
23
100
AcDbEntity
  8
SANINDUSA
100
AcDbLine
 10
1886.761797878122
 20
1644.731301253149
 30
0.0
 11
1886.814040758531
 21
1644.730206797438
 31
0.0
  0
LINE
  5
CED
330
23
100
AcDbEntity
  8
SANINDUSA
100
AcDbLine
 10
1886.84178084552
 20
1644.729625884004
 30
0.0
 11
1886.927220165034
 21
1644.727836172745
 31
0.0
  0
LWPOLYLINE
  5
CEE
330
23
100
AcDbEntity
  8
SANINDUSA
100
AcDbPolyline
 90
        3
 70
   128
 43
0.0
 10
1887.079791744911
 20
1644.727820413891
 10
1887.089128504573
 20
1644.728490170971
 10
1887.098448481053
 20
1644.730232418656
  0
LINE
  5
CEF
330
23
100
AcDbEntity
  8
SANINDUSA
100
AcDbLine
 10
1886.158064105057
 20
1644.743947641234
 30
0.0
 11
1886.254160179076
 21
1644.741934716477
 31
0.0
  0
ARC
  5
CF1
330
23
100
AcDbEntity
  8
SANINDUSA
100
AcDbCircle
 10
1886.927218078805
 20
1644.727736194509
 30
0.0
 40
0.000100000000035
100
AcDbArc
 50
54.99999999392633
 51
88.80459203907255
  0
LINE
  5
CF2
330
23
100
AcDbEntity
  8
SANINDUSA
100
AcDbLine
 10
1887.07973595192
 20
1644.727802341324
 30
0.0
 11
1887.066387223103
 21
1644.718455460781
 31
0.0
  0
LINE
  5
CF3
330
23
100
AcDbEntity
  8
SANINDUSA
100
AcDbLine
 10
1886.940646684859
 20
1644.718455460781
 30
0.0
 11
1886.927275436448
 21
1644.727818109714
 31
0.0
  0
LWPOLYLINE
  5
CF4
330
23
100
AcDbEntity
  8
SANINDUSA
100
AcDbPolyline
 90
       37
 70
   128
 43
0.0
 10
1886.927301527975
 20
1644.731735323945
 10
1886.927820094408
 20
1644.731735186747
 10
1886.928806250151
 20
1644.731732923468
 10
1886.930312142538
 20
1644.731729746754
 10
1886.932373655674
 20
1644.73172670712
 10
1886.934970297299
 20
1644.731724252879
 10
1886.937961784401
 20
1644.731722555517
 10
1886.941428985927
 20
1644.731721429942
 10
1886.945418015696
 20
1644.731720787517
 10
1886.949862962476
 20
1644.731720599197
 10
1886.954536299278
 20
1644.73172065417
 10
1886.959582712241
 20
1644.731720763997
 10
1886.965055313893
 20
1644.731720896533
 10
1886.970851232479
 20
1644.731720864594
 10
1886.976662789544
 20
1644.73172078245
 10
1886.982700826791
 20
1644.731721007473
 10
1886.989019810965
 20
1644.731721660105
 10
1886.995491820469
 20
1644.731722763361
 10
1887.005659642365
 20
1644.731725801258
 10
1887.010822045725
 20
1644.73172802916
 10
1887.015974232834
 20
1644.731730720607
 10
1887.021108054778
 20
1644.731733887229
 10
1887.026182072367
 20
1644.73173752352
 10
1887.031219753511
 20
1644.731741675354
 10
1887.036144460306
 20
1644.731746295951
 10
1887.041731573246
 20
1644.731752134577
 10
1887.0470907226
 20
1644.731758041793
 10
1887.052251731081
 20
1644.731763866653
 10
1887.057091067356
 20
1644.731769204205
 10
1887.061374635747
 20
1644.731773538447
 10
1887.065287881987
 20
1644.731776806581
 10
1887.068843854251
 20
1644.731778663898
 10
1887.071950046674
 20
1644.73177848004
 10
1887.074469298328
 20
1644.731775456021
 10
1887.07652465305
 20
1644.731768640239
 10
1887.07811311432
 20
1644.731757041505
 10
1887.079176957486
 20
1644.731739108957
  0
LWPOLYLINE
  5
CF6
330
23
100
AcDbEntity
  8
SANINDUSA
100
AcDbPolyline
 90
        3
 70
   128
 43
0.0
 10
1887.079730723251
 20
1644.73171993694
 10
1887.078547729822
 20
1644.731521548606
 10
1887.077499003818
 20
1644.730997034297
  0
LWPOLYLINE
  5
CF8
330
23
100
AcDbEntity
  8
SANINDUSA
100
AcDbPolyline
 90
        3
 70
   128
 43
0.0
 10
1886.929512384551
 20
1644.731012802686
 10
1886.928437700652
 20
1644.731545724999
 10
1886.927301527975
 20
1644.731735323945
  0
LINE
  5
CF9
330
23
100
AcDbEntity
  8
SANINDUSA
100
AcDbLine
 10
1887.077499003818
 20
1644.730997034297
 30
0.0
 11
1887.063814499239
 21
1644.721415041035
 31
0.0
  0
LINE
  5
CFB
330
23
100
AcDbEntity
  8
SANINDUSA
100
AcDbLine
 10
1886.943219408722
 20
1644.721415041035
 30
0.0
 11
1886.929512384551
 21
1644.731012802686
 31
0.0
  0
LWPOLYLINE
  5
D06
330
23
100
AcDbEntity
  8
SANINDUSA
100
AcDbPolyline
 90
        3
 70
   128
 43
0.0
 10
1887.079730723251
 20
1644.73171993694
 10
1887.088630045199
 20
1644.732358185777
 10
1887.097513370617
 20
1644.734018652736
  0
LINE
  5
D07
330
23
100
AcDbEntity
  8
SANINDUSA
100
AcDbLine
 10
1886.841862482267
 20
1644.733525029494
 30
0.0
 11
1886.927301527975
 21
1644.731735323945
 31
0.0
  0
LINE
  5
D08
330
23
100
AcDbEntity
  8
SANINDUSA
100
AcDbLine
 10
1886.761879528832
 20
1644.735200398466
 30
0.0
 11
1886.814122440436
 21
1644.734105942069
 31
0.0
  0
LINE
  5
D09
330
23
100
AcDbEntity
  8
SANINDUSA
100
AcDbLine
 10
1886.681896574683
 20
1644.736875783172
 30
0.0
 11
1886.734139494797
 21
1644.735781385764
 31
0.0
  0
LWPOLYLINE
  5
D0A
330
23
100
AcDbEntity
  8
SANINDUSA
100
AcDbPolyline
 90
        3
 70
   128
 43
0.0
 10
1886.601913628538
 20
1644.738551186263
 10
1886.627111673925
 20
1644.73802336677
 10
1886.654156562477
 20
1644.737456811691
  0
LINE
  5
D0B
330
23
100
AcDbEntity
  8
SANINDUSA
100
AcDbLine
 10
1886.521930682621
 20
1644.740226585679
 30
0.0
 11
1886.574173622915
 21
1644.73913223555
 31
0.0
  0
LINE
  5
D0C
330
23
100
AcDbEntity
  8
SANINDUSA
100
AcDbLine
 10
1886.441947740744
 20
1644.741901981285
 30
0.0
 11
1886.494190681752
 21
1644.740807653851
 31
0.0
  0
LINE
  5
D0D
330
23
100
AcDbEntity
  8
SANINDUSA
100
AcDbLine
 10
1886.361964799871
 20
1644.743577384486
 30
0.0
 11
1886.414207738225
 21
1644.742483056341
 31
0.0
  0
LINE
  5
D0E
330
23
100
AcDbEntity
  8
SANINDUSA
100
AcDbLine
 10
1886.281981857725
 20
1644.745252791397
 30
0.0
 11
1886.334224795955
 21
1644.744158455269
 31
0.0
  0
LINE
  5
D0F
330
23
100
AcDbEntity
  8
SANINDUSA
100
AcDbLine
 10
1886.158145780528
 20
1644.747846785906
 30
0.0
 11
1886.254241854413
 21
1644.745833861158
 31
0.0
  0
ARC
  5
D54
330
23
100
AcDbEntity
  8
SANINDUSA
100
AcDbCircle
 10
1886.601997394404
 20
1644.742550308876
 30
0.0
 40
0.0078999998602788
100
AcDbArc
 50
217.4822415305623
 51
268.8000539158176
  0
ARC
  5
D55
330
23
100
AcDbEntity
  8
SANINDUSA
100
AcDbCircle
 10
1886.574257391324
 20
1644.743131358138
 30
0.0
 40
0.0078999998791108
100
AcDbArc
 50
268.8000187208384
 51
320.1178391026188
  0
ARC
  5
D57
330
23
100
AcDbEntity
  8
SANINDUSA
100
AcDbCircle
 10
1886.522014453621
 20
1644.744225708268
 30
0.0
 40
0.0078999999182459
100
AcDbArc
 50
217.4821722799034
 51
268.7999806460377
  0
ARC
  5
D58
330
23
100
AcDbEntity
  8
SANINDUSA
100
AcDbCircle
 10
1886.494274449577
 20
1644.744806776505
 30
0.0
 40
0.0078999999173051
100
AcDbArc
 50
268.8000269429676
 51
320.1178357999744
  0
ARC
  5
D5A
330
23
100
AcDbEntity
  8
SANINDUSA
100
AcDbCircle
 10
1886.442031511498
 20
1644.745901103879
 30
0.0
 40
0.0078999999177627
100
AcDbArc
 50
217.4821718056997
 51
268.7999841640694
  0
ARC
  5
D5B
330
23
100
AcDbEntity
  8
SANINDUSA
100
AcDbCircle
 10
1886.414291508078
 20
1644.746482178972
 30
0.0
 40
0.0078999999301374
100
AcDbArc
 50
268.7999978069271
 51
320.1178089516958
  0
ARC
  5
D5D
330
23
100
AcDbEntity
  8
SANINDUSA
100
AcDbCircle
 10
1886.68198033498
 20
1644.740874905859
 30
0.0
 40
0.0078999998302705
100
AcDbArc
 50
217.4823213367385
 51
268.8001334925508
  0
ARC
  5
D5E
330
23
100
AcDbEntity
  8
SANINDUSA
100
AcDbCircle
 10
1886.654240333285
 20
1644.741455934265
 30
0.0
 40
0.0078999999038612
100
AcDbArc
 50
268.7999842291929
 51
320.1178269962095
  0
ARC
  5
D60
330
23
100
AcDbEntity
  8
SANINDUSA
100
AcDbCircle
 10
1886.36204856921
 20
1644.747576507158
 30
0.0
 40
0.0078999999513801
100
AcDbArc
 50
217.4821904623164
 51
268.8000046088189
  0
ARC
  5
D61
330
23
100
AcDbEntity
  8
SANINDUSA
100
AcDbCircle
 10
1886.334308566059
 20
1644.748157577929
 30
0.0
 40
0.0078999999545941
100
AcDbArc
 50
268.7999941062768
 51
320.1178076840181
  0
ARC
  5
D63
330
23
100
AcDbEntity
  8
SANINDUSA
100
AcDbCircle
 10
1886.282065627366
 20
1644.749251914077
 30
0.0
 40
0.0078999999622793
100
AcDbArc
 50
217.4821877418455
 51
268.800000347834
  0
ARC
  5
D64
330
23
100
AcDbEntity
  8
SANINDUSA
100
AcDbCircle
 10
1886.254325624009
 20
1644.749832983847
 30
0.0
 40
0.007899999967396
100
AcDbArc
 50
268.8000013252317
 51
320.1178140658166
  0
ARC
  5
D66
330
23
100
AcDbEntity
  8
SANINDUSA
100
AcDbCircle
 10
1886.761963272846
 20
1644.739199521308
 30
0.0
 40
0.0078999997040673
100
AcDbArc
 50
217.4825821371753
 51
268.8003655120318
  0
ARC
  5
D67
330
23
100
AcDbEntity
  8
SANINDUSA
100
AcDbCircle
 10
1886.734223277682
 20
1644.73978050822
 30
0.0
 40
0.0078999999991121
100
AcDbArc
 50
268.7998108207079
 51
320.1176774809246
  0
ARC
  5
D68
330
23
100
AcDbEntity
  8
SANINDUSA
100
AcDbCircle
 10
1886.522014453656
 20
1644.744225708359
 30
0.0
 40
0.0039999999752542
100
AcDbArc
 50
217.4821723998335
 51
268.7999805809142
  0
ARC
  5
D69
330
23
100
AcDbEntity
  8
SANINDUSA
100
AcDbCircle
 10
1886.494274449545
 20
1644.744806776599
 30
0.0
 40
0.0039999999754172
100
AcDbArc
 50
268.8000270211158
 51
320.1178356798757
  0
ARC
  5
D6A
330
23
100
AcDbEntity
  8
SANINDUSA
100
AcDbCircle
 10
1886.601997394463
 20
1644.742550309033
 30
0.0
 40
0.0039999999577026
100
AcDbArc
 50
217.4822417442298
 51
268.8000537855706
  0
ARC
  5
D6B
330
23
100
AcDbEntity
  8
SANINDUSA
100
AcDbCircle
 10
1886.574257391277
 20
1644.743131358276
 30
0.0
 40
0.0039999999637583
100
AcDbArc
 50
268.8000188641101
 51
320.117838954173
  0
ARC
  5
D6C
330
23
100
AcDbEntity
  8
SANINDUSA
100
AcDbCircle
 10
1886.442031511533
 20
1644.745901103971
 30
0.0
 40
0.0039999999751614
100
AcDbArc
 50
217.4821719256299
 51
268.7999840989459
  0
ARC
  5
D6D
330
23
100
AcDbEntity
  8
SANINDUSA
100
AcDbCircle
 10
1886.414291508051
 20
1644.746482179051
 30
0.0
 40
0.0039999999790824
100
AcDbArc
 50
268.7999978850753
 51
320.1178088682977
  0
ARC
  5
D6E
330
23
100
AcDbEntity
  8
SANINDUSA
100
AcDbCircle
 10
1886.681980335052
 20
1644.74087490605
 30
0.0
 40
0.0039999999491173
100
AcDbArc
 50
217.4823216258779
 51
268.8001333883534
  0
ARC
  5
D6F
330
23
100
AcDbEntity
  8
SANINDUSA
100
AcDbCircle
 10
1886.654240333248
 20
1644.741455934373
 30
0.0
 40
0.0039999999709991
100
AcDbArc
 50
268.7999843597126
 51
320.1178268944612
  0
ARC
  5
D70
330
23
100
AcDbEntity
  8
SANINDUSA
100
AcDbCircle
 10
1886.362048569231
 20
1644.747576507212
 30
0.0
 40
0.0039999999853403
100
AcDbArc
 50
217.4821905377883
 51
268.8000045697448
  0
ARC
  5
D71
330
23
100
AcDbEntity
  8
SANINDUSA
100
AcDbCircle
 10
1886.334308566042
 20
1644.748157577981
 30
0.0
 40
0.0039999999864672
100
AcDbArc
 50
268.7999941583756
 51
320.1178076189705
  0
ARC
  5
D72
330
23
100
AcDbEntity
  8
SANINDUSA
100
AcDbCircle
 10
1886.282065627382
 20
1644.749251914119
 30
0.0
 40
0.0039999999886427
100
AcDbArc
 50
217.4821877966416
 51
268.8000003217845
  0
ARC
  5
D73
330
23
100
AcDbEntity
  8
SANINDUSA
100
AcDbCircle
 10
1886.254325623997
 20
1644.749832983884
 30
0.0
 40
0.0039999999903053
100
AcDbArc
 50
268.8000013643058
 51
320.1178140191191
  0
ARC
  5
D74
330
23
100
AcDbEntity
  8
SANINDUSA
100
AcDbCircle
 10
1886.761963272964
 20
1644.739199521653
 30
0.0
 40
0.0039999999175983
100
AcDbArc
 50
217.4825831975853
 51
268.8003659942183
  0
ARC
  5
D75
330
23
100
AcDbEntity
  8
SANINDUSA
100
AcDbCircle
 10
1886.734223277681
 20
1644.739780508221
 30
0.0
 40
0.0039999999997829
100
AcDbArc
 50
268.7998108207079
 51
320.1176774709278
  0
ARC
  5
D77
330
23
100
AcDbEntity
  8
SANINDUSA
100
AcDbCircle
 10
1886.841946212279
 20
1644.737524153007
 30
0.0
 40
0.0078999999625243
100
AcDbArc
 50
217.4827618390932
 51
268.8005684215216
  0
ARC
  5
D78
330
23
100
AcDbEntity
  8
SANINDUSA
100
AcDbCircle
 10
1886.814206216834
 20
1644.738105064322
 30
0.0
 40
0.007899999760265
100
AcDbArc
 50
268.7999043138175
 51
320.117819615278
  0
ARC
  5
D79
330
23
100
AcDbEntity
  8
SANINDUSA
100
AcDbCircle
 10
1886.8419462123
 20
1644.737524153044
 30
0.0
 40
0.0039999999857173
100
AcDbArc
 50
217.4827615888949
 51
268.800568017756
  0
ARC
  5
D7A
330
23
100
AcDbEntity
  8
SANINDUSA
100
AcDbCircle
 10
1886.814206216736
 20
1644.738105064588
 30
0.0
 40
0.0039999999244345
100
AcDbArc
 50
268.7999051346462
 51
320.117819605281
  0
ARC
  5
D7B
330
23
100
AcDbEntity
  8
SANINDUSA
100
AcDbCircle
 10
1886.580396309858
 20
1644.738001672356
 30
0.0
 40
0.0039999999718972
100
AcDbArc
 50
88.80003270233823
 51
140.1178389174724
  0
ARC
  5
D7C
330
23
100
AcDbEntity
  8
SANINDUSA
100
AcDbCircle
 10
1886.595649058673
 20
1644.737682185016
 30
0.0
 40
0.0039999999636826
100
AcDbArc
 50
37.48224178076058
 51
88.80005473691898
  0
ARC
  5
D7D
330
23
100
AcDbEntity
  8
SANINDUSA
100
AcDbCircle
 10
1886.66037925076
 20
1644.736326247154
 30
0.0
 40
0.0039999999788688
100
AcDbArc
 50
88.80004274901601
 51
140.117826866114
  0
ARC
  5
D7E
330
23
100
AcDbEntity
  8
SANINDUSA
100
AcDbCircle
 10
1886.675632006065
 20
1644.736006773191
 30
0.0
 40
0.0039999999546053
100
AcDbArc
 50
37.48232169893943
 51
88.80013258054937
  0
ARC
  5
D7F
330
23
100
AcDbEntity
  8
SANINDUSA
100
AcDbCircle
 10
1886.500413367848
 20
1644.739677090317
 30
0.0
 40
0.0039999999799971
100
AcDbArc
 50
88.80001799118272
 51
140.1178356431751
  0
ARC
  5
D80
330
23
100
AcDbEntity
  8
SANINDUSA
100
AcDbCircle
 10
1886.515666111947
 20
1644.739357592007
 30
0.0
 40
0.0039999999787928
100
AcDbArc
 50
37.48217241809892
 51
88.79999039260182
  0
ARC
  5
D81
330
23
100
AcDbEntity
  8
SANINDUSA
100
AcDbCircle
 10
1886.420430423959
 20
1644.741352489892
 30
0.0
 40
0.00399999998372
100
AcDbArc
 50
88.79999409325211
 51
140.1178088399505
  0
ARC
  5
D82
330
23
100
AcDbEntity
  8
SANINDUSA
100
AcDbCircle
 10
1886.435683169785
 20
1644.74103298767
 30
0.0
 40
0.0039999999785133
100
AcDbArc
 50
37.48217195423317
 51
88.7999858580982
  0
ARC
  5
D83
330
23
100
AcDbEntity
  8
SANINDUSA
100
AcDbCircle
 10
1886.740362181855
 20
1644.734650804962
 30
0.0
 40
0.0039999999997831
100
AcDbArc
 50
88.79993466170034
 51
140.1176774709277
  0
ARC
  5
D84
330
23
100
AcDbEntity
  8
SANINDUSA
100
AcDbCircle
 10
1886.755614966254
 20
1644.734331359829
 30
0.0
 40
0.0039999999340208
100
AcDbArc
 50
37.48258354152088
 51
88.80040685766793
  0
ARC
  5
D85
330
23
100
AcDbEntity
  8
SANINDUSA
100
AcDbCircle
 10
1886.340447481849
 20
1644.74302788868
 30
0.0
 40
0.0039999999891801
100
AcDbArc
 50
88.79999574820685
 51
140.1178076006201
  0
ARC
  5
D86
330
23
100
AcDbEntity
  8
SANINDUSA
100
AcDbCircle
 10
1886.355700229049
 20
1644.742708388839
 30
0.0
 40
0.003999999987338
100
AcDbArc
 50
37.48219055605372
 51
88.80000200278862
  0
ARC
  5
D87
330
23
100
AcDbEntity
  8
SANINDUSA
100
AcDbCircle
 10
1886.260464540383
 20
1644.744703295265
 30
0.0
 40
0.0039999999923709
100
AcDbArc
 50
88.80000127313289
 51
140.1178140107657
  0
ARC
  5
D88
330
23
100
AcDbEntity
  8
SANINDUSA
100
AcDbCircle
 10
1886.275717286962
 20
1644.744383796046
 30
0.0
 40
0.0039999999901488
100
AcDbArc
 50
37.48218781490701
 51
88.80000069977349
  0
ARC
  5
D89
330
23
100
AcDbEntity
  8
SANINDUSA
100
AcDbCircle
 10
1886.820345133551
 20
1644.732975376627
 30
0.0
 40
0.0039999999654618
100
AcDbArc
 50
88.80011140614412
 51
140.1178196052811
  0
ARC
  5
D8A
330
23
100
AcDbEntity
  8
SANINDUSA
100
AcDbCircle
 10
1886.835597920588
 20
1644.73265597137
 30
0.0
 40
0.0040000000437021
100
AcDbArc
 50
37.48276150549548
 51
88.80055304583377
  0
ARC
  5
D8B
330
23
100
AcDbEntity
  8
SANINDUSA
100
AcDbCircle
 10
1886.500413367862
 20
1644.739677090263
 30
0.0
 40
0.0000999999989818
100
AcDbArc
 50
88.80001791303454
 51
140.117835791621
  0
ARC
  5
D8C
330
23
100
AcDbEntity
  8
SANINDUSA
100
AcDbCircle
 10
1886.515666111931
 20
1644.739357591953
 30
0.0
 40
0.0000999999990018
100
AcDbArc
 50
37.48217228783083
 51
88.79999045772528
  0
ARC
  5
D8D
330
23
100
AcDbEntity
  8
SANINDUSA
100
AcDbCircle
 10
1886.580396309876
 20
1644.738001672275
 30
0.0
 40
0.000099999998459
100
AcDbArc
 50
88.80003255906657
 51
140.1178391109722
  0
ARC
  5
D8E
330
23
100
AcDbEntity
  8
SANINDUSA
100
AcDbCircle
 10
1886.595649058645
 20
1644.737682184923
 30
0.0
 40
0.0000999999983081
100
AcDbArc
 50
37.48224155916562
 51
88.80005482809185
  0
ARC
  5
D8F
330
23
100
AcDbEntity
  8
SANINDUSA
100
AcDbCircle
 10
1886.42043042397
 20
1644.741352489845
 30
0.0
 40
0.0000999999991254
100
AcDbArc
 50
88.79999401510394
 51
140.1178089516957
  0
ARC
  5
D90
330
23
100
AcDbEntity
  8
SANINDUSA
100
AcDbCircle
 10
1886.435683169768
 20
1644.741032987616
 30
0.0
 40
0.0000999999990091
100
AcDbArc
 50
37.4821718239651
 51
88.79998591019699
  0
ARC
  5
D91
330
23
100
AcDbEntity
  8
SANINDUSA
100
AcDbCircle
 10
1886.340447481856
 20
1644.74302788865
 30
0.0
 40
0.000099999999436
100
AcDbArc
 50
88.79999570913275
 51
140.1178076840182
  0
ARC
  5
D92
330
23
100
AcDbEntity
  8
SANINDUSA
100
AcDbCircle
 10
1886.355700229039
 20
1644.742708388807
 30
0.0
 40
0.0000999999994119
100
AcDbArc
 50
37.48219047265429
 51
88.80000202883802
  0
ARC
  5
D93
330
23
100
AcDbEntity
  8
SANINDUSA
100
AcDbCircle
 10
1886.660379250772
 20
1644.736326247088
 30
0.0
 40
0.0000999999987402
100
AcDbArc
 50
88.80004259244683
 51
140.1178270145598
  0
ARC
  5
D94
330
23
100
AcDbEntity
  8
SANINDUSA
100
AcDbCircle
 10
1886.675632006026
 20
1644.736006773082
 30
0.0
 40
0.0000999999980493
100
AcDbArc
 50
37.48232138360714
 51
88.80013263264816
  0
ARC
  5
D95
330
23
100
AcDbEntity
  8
SANINDUSA
100
AcDbCircle
 10
1886.260464540388
 20
1644.744703295243
 30
0.0
 40
0.0001000000000007
100
AcDbArc
 50
88.80000126010818
 51
140.1178140474663
  0
ARC
  5
D96
330
23
100
AcDbEntity
  8
SANINDUSA
100
AcDbCircle
 10
1886.275717286954
 20
1644.744383796021
 30
0.0
 40
0.0000999999995421
100
AcDbArc
 50
37.48218774977297
 51
88.80000072582289
  0
ARC
  5
D97
330
23
100
AcDbEntity
  8
SANINDUSA
100
AcDbCircle
 10
1886.740362181856
 20
1644.734650804961
 30
0.0
 40
0.0001000000025225
100
AcDbArc
 50
88.79993468774973
 51
140.1176757412059
  0
ARC
  5
D98
330
23
100
AcDbEntity
  8
SANINDUSA
100
AcDbCircle
 10
1886.755614966151
 20
1644.73433135971
 30
0.0
 40
0.0000999999985345
100
AcDbArc
 50
37.48258250971417
 51
88.8004064536296
  0
ARC
  5
D99
330
23
100
AcDbEntity
  8
SANINDUSA
100
AcDbCircle
 10
1886.820345133548
 20
1644.732975376448
 30
0.0
 40
0.0000999999965518
100
AcDbArc
 50
88.80011093698231
 51
140.1178197637238
  0
ARC
  5
D9A
330
23
100
AcDbEntity
  8
SANINDUSA
100
AcDbCircle
 10
1886.835597920645
 20
1644.732655971341
 30
0.0
 40
0.0000999999996397
100
AcDbArc
 50
37.48276161749814
 51
88.80055364524256
  0
LINE
  5
D9B
330
23
100
AcDbEntity
  8
SANINDUSA
100
AcDbLine
 10
1886.500497136271
 20
1644.743676213057
 30
0.0
 11
1886.515749882297
 21
1644.743356714706
 31
0.0
  0
LINE
  5
D9C
330
23
100
AcDbEntity
  8
SANINDUSA
100
AcDbLine
 10
1886.580480077254
 20
1644.74200079511
 30
0.0
 11
1886.595732824531
 21
1644.741681307794
 31
0.0
  0
LINE
  5
D9D
330
23
100
AcDbEntity
  8
SANINDUSA
100
AcDbLine
 10
1886.42051419405
 20
1644.7453516126
 30
0.0
 11
1886.435766940451
 21
1644.745032110362
 31
0.0
  0
LINE
  5
D9E
330
23
100
AcDbEntity
  8
SANINDUSA
100
AcDbLine
 10
1886.660463017456
 20
1644.740325369929
 30
0.0
 11
1886.67571576649
 21
1644.740005896073
 31
0.0
  0
LINE
  5
D9F
330
23
100
AcDbEntity
  8
SANINDUSA
100
AcDbLine
 10
1886.340531251825
 20
1644.747027011397
 30
0.0
 11
1886.355783998588
 21
1644.746707511563
 31
0.0
  0
LINE
  5
DA0
330
23
100
AcDbEntity
  8
SANINDUSA
100
AcDbLine
 10
1886.260548309973
 20
1644.748702417993
 30
0.0
 11
1886.275801056592
 21
1644.748382918771
 31
0.0
  0
LINE
  5
DA1
330
23
100
AcDbEntity
  8
SANINDUSA
100
AcDbLine
 10
1886.740445956095
 20
1644.7386499276
 30
0.0
 11
1886.755698707534
 21
1644.738330483091
 31
0.0
  0
LINE
  5
DA2
330
23
100
AcDbEntity
  8
SANINDUSA
100
AcDbLine
 10
1886.820347227596
 20
1644.733075354517
 30
0.0
 11
1886.835600013921
 21
1644.73275594943
 31
0.0
  0
LINE
  5
DA4
330
23
100
AcDbEntity
  8
SANINDUSA
100
AcDbLine
 10
1887.181710967693
 20
1644.718417253409
 30
0.0
 11
1887.179737600994
 21
1644.83147135587
 31
0.0
  0
ARC
  5
DA5
330
23
100
AcDbEntity
  8
SANINDUSA
100
AcDbCircle
 10
1887.176638073139
 20
1644.83141725341
 30
0.0
 40
0.0031
100
AcDbArc
 50
0.9999999969218754
 51
90.0
  0
LINE
  5
DA6
330
23
100
AcDbEntity
  8
SANINDUSA
100
AcDbLine
 10
1887.176638073139
 20
1644.83451725341
 30
0.0
 11
1887.120276776161
 21
1644.83451725341
 31
0.0
  0
ARC
  5
DA7
330
23
100
AcDbEntity
  8
SANINDUSA
100
AcDbCircle
 10
1887.120276776161
 20
1644.83141725341
 30
0.0
 40
0.0031000000000001
100
AcDbArc
 50
90.0
 51
177.9999999962464
  0
LINE
  5
DA8
330
23
100
AcDbEntity
  8
SANINDUSA
100
AcDbLine
 10
1887.117178664597
 20
1644.831525441849
 30
0.0
 11
1887.114324517082
 21
1644.749793350675
 31
0.0
  0
ARC
  5
DA9
330
23
100
AcDbEntity
  8
SANINDUSA
100
AcDbCircle
 10
1887.093437248772
 20
1644.750522750148
 30
0.0
 40
0.0209000000246234
100
AcDbArc
 50
283.8730768871533
 51
358.0000000222856
  0
LINE
  5
DAA
330
23
100
AcDbEntity
  8
SANINDUSA
100
AcDbLine
 10
1887.066387223103
 20
1644.718455460781
 30
0.0
 11
1887.055212722243
 21
1644.706472275709
 31
0.0
  0
LINE
  5
DAB
330
23
100
AcDbEntity
  8
SANINDUSA
100
AcDbLine
 10
1887.055212722243
 20
1644.706472275709
 30
0.0
 11
1886.951821185719
 21
1644.706472275709
 31
0.0
  0
LINE
  5
DAC
330
23
100
AcDbEntity
  8
SANINDUSA
100
AcDbLine
 10
1886.951821185719
 20
1644.706472275709
 30
0.0
 11
1886.940646684859
 21
1644.718455460781
 31
0.0
  0
ARC
  5
DAD
330
23
100
AcDbEntity
  8
SANINDUSA
100
AcDbCircle
 10
1886.158506007494
 20
1644.764847321299
 30
0.0
 40
0.0209043513316761
100
AcDbArc
 50
181.9972894058364
 51
268.7887196122526
  0
ARC
  5
DAE
330
23
100
AcDbEntity
  8
SANINDUSA
100
AcDbCircle
 10
1886.134516218149
 20
1644.764011326372
 30
0.0
 40
0.0031000000000005
100
AcDbArc
 50
1.986009590153244
 51
89.00000000307812
  0
LINE
  5
DAF
330
23
100
AcDbEntity
  8
SANINDUSA
100
AcDbLine
 10
1885.697096308378
 20
1644.774746991515
 30
0.0
 11
1886.134570320609
 21
1644.767110854227
 31
0.0
  0
ARC
  5
DB0
330
23
100
AcDbEntity
  8
SANINDUSA
100
AcDbCircle
 10
1885.697042205918
 20
1644.77164746366
 30
0.0
 40
0.0030999999999999
100
AcDbArc
 50
89.00000000307812
 51
154.6842608275599
  0
ARC
  5
DB1
330
23
100
AcDbEntity
  8
SANINDUSA
100
AcDbCircle
 10
1885.681674798874
 20
1644.778916769044
 30
0.0
 40
0.0139000000000002
100
AcDbArc
 50
269.0000000030781
 51
334.6842608275599
  0
LINE
  5
DB2
330
23
100
AcDbEntity
  8
SANINDUSA
100
AcDbLine
 10
1885.671990200158
 20
1644.765183696984
 30
0.0
 11
1885.681432210425
 21
1644.765018886081
 31
0.0
  0
ARC
  5
DB3
330
23
100
AcDbEntity
  8
SANINDUSA
100
AcDbCircle
 10
1885.672354955453
 20
1644.786080513813
 30
0.0
 40
0.0209000000000002
100
AcDbArc
 50
182.0000000037536
 51
269.0000000030781
  0
LINE
  5
DB4
330
23
100
AcDbEntity
  8
SANINDUSA
100
AcDbLine
 10
1885.651467687169
 20
1644.785351114332
 30
0.0
 11
1885.649855244121
 21
1644.831525441849
 31
0.0
  0
ARC
  5
DB5
330
23
100
AcDbEntity
  8
SANINDUSA
100
AcDbCircle
 10
1885.646757132557
 20
1644.83141725341
 30
0.0
 40
0.0031
100
AcDbArc
 50
2.000000003753602
 51
90.0
  0
LINE
  5
DB6
330
23
100
AcDbEntity
  8
SANINDUSA
100
AcDbLine
 10
1885.646757132557
 20
1644.83451725341
 30
0.0
 11
1885.590395834823
 21
1644.83451725341
 31
0.0
  0
ARC
  5
DB7
330
23
100
AcDbEntity
  8
SANINDUSA
100
AcDbCircle
 10
1885.590395834823
 20
1644.83141725341
 30
0.0
 40
0.0031
100
AcDbArc
 50
90.0
 51
179.0000000030781
  0
LINE
  5
DB8
330
23
100
AcDbEntity
  8
SANINDUSA
100
AcDbLine
 10
1885.587296306968
 20
1644.83147135587
 30
0.0
 11
1885.585322940269
 21
1644.71841725341
 31
0.0
  0
LINE
  5
DBA
330
23
100
AcDbEntity
  8
SANINDUSA
100
AcDbLine
 10
1885.583396900957
 20
1644.831539420255
 30
0.0
 11
1885.581422346189
 21
1644.718417253409
 31
0.0
  0
ARC
  5
DBB
330
23
100
AcDbEntity
  8
SANINDUSA
100
AcDbCircle
 10
1885.590395834823
 20
1644.83141725341
 30
0.0
 40
0.0069999999999999
100
AcDbArc
 50
90.0
 51
179.0000000030781
  0
LINE
  5
DBC
330
23
100
AcDbEntity
  8
SANINDUSA
100
AcDbLine
 10
1885.646757132557
 20
1644.83841725341
 30
0.0
 11
1885.590395834823
 21
1644.83841725341
 31
0.0
  0
ARC
  5
DBD
330
23
100
AcDbEntity
  8
SANINDUSA
100
AcDbCircle
 10
1885.646757132557
 20
1644.83141725341
 30
0.0
 40
0.0069999999999999
100
AcDbArc
 50
2.000000003753602
 51
90.0
  0
LINE
  5
DBE
330
23
100
AcDbEntity
  8
SANINDUSA
100
AcDbLine
 10
1885.655365311394
 20
1644.785487222369
 30
0.0
 11
1885.653752868346
 21
1644.831661549886
 31
0.0
  0
ARC
  5
DBF
330
23
100
AcDbEntity
  8
SANINDUSA
100
AcDbCircle
 10
1885.672354955453
 20
1644.786080513813
 30
0.0
 40
0.017
100
AcDbArc
 50
182.0000000037536
 51
269.0000000030781
  0
LINE
  5
DC0
330
23
100
AcDbEntity
  8
SANINDUSA
100
AcDbLine
 10
1885.672058264544
 20
1644.769083102995
 30
0.0
 11
1885.68150027481
 21
1644.768918292093
 31
0.0
  0
ARC
  5
DC1
330
23
100
AcDbEntity
  8
SANINDUSA
100
AcDbCircle
 10
1885.681674798874
 20
1644.778916769044
 30
0.0
 40
0.0100000000000001
100
AcDbArc
 50
269.0000000030781
 51
334.6842608275599
  0
ARC
  5
DC2
330
23
100
AcDbEntity
  8
SANINDUSA
100
AcDbCircle
 10
1885.697042205918
 20
1644.77164746366
 30
0.0
 40
0.0070000000000003
100
AcDbArc
 50
89.00000000307812
 51
154.6842608275599
  0
LINE
  5
DC3
330
23
100
AcDbEntity
  8
SANINDUSA
100
AcDbLine
 10
1885.697164372763
 20
1644.778646397526
 30
0.0
 11
1886.134638384994
 21
1644.771010260238
 31
0.0
  0
ARC
  5
DC4
330
23
100
AcDbEntity
  8
SANINDUSA
100
AcDbCircle
 10
1886.134516218149
 20
1644.764011326372
 30
0.0
 40
0.007000000000023
100
AcDbArc
 50
1.986009590153244
 51
89.00000000307812
  0
ARC
  5
DC5
330
23
100
AcDbEntity
  8
SANINDUSA
100
AcDbCircle
 10
1886.1585052227
 20
1644.764846525671
 30
0.0
 40
0.0170035393607039
100
AcDbArc
 50
181.9972894058364
 51
268.7887196252772
  0
LINE
  5
DC6
330
23
100
AcDbEntity
  8
SANINDUSA
100
AcDbLine
 10
1886.953516953981
 20
1644.710372275709
 30
0.0
 11
1886.943219408722
 21
1644.721415041035
 31
0.0
  0
LINE
  5
DC7
330
23
100
AcDbEntity
  8
SANINDUSA
100
AcDbLine
 10
1887.053516953981
 20
1644.710372275709
 30
0.0
 11
1886.953516953981
 21
1644.710372275709
 31
0.0
  0
LINE
  5
DC8
330
23
100
AcDbEntity
  8
SANINDUSA
100
AcDbLine
 10
1887.063814499239
 20
1644.721415041035
 30
0.0
 11
1887.053516953981
 21
1644.710372275709
 31
0.0
  0
ARC
  5
DC9
330
23
100
AcDbEntity
  8
SANINDUSA
100
AcDbCircle
 10
1887.093437248776
 20
1644.75052275015
 30
0.0
 40
0.0170000000203012
100
AcDbArc
 50
283.8730764985095
 51
358.0000000222856
  0
LINE
  5
DCA
330
23
100
AcDbEntity
  8
SANINDUSA
100
AcDbLine
 10
1887.113281040372
 20
1644.831661549886
 30
0.0
 11
1887.110426892856
 21
1644.749929458712
 31
0.0
  0
ARC
  5
DCB
330
23
100
AcDbEntity
  8
SANINDUSA
100
AcDbCircle
 10
1887.120276776161
 20
1644.83141725341
 30
0.0
 40
0.0070000000000001
100
AcDbArc
 50
90.0
 51
177.9999999962464
  0
LINE
  5
DCC
330
23
100
AcDbEntity
  8
SANINDUSA
100
AcDbLine
 10
1887.176638073139
 20
1644.83841725341
 30
0.0
 11
1887.120276776161
 21
1644.83841725341
 31
0.0
  0
ARC
  5
DCD
330
23
100
AcDbEntity
  8
SANINDUSA
100
AcDbCircle
 10
1887.176638073139
 20
1644.83141725341
 30
0.0
 40
0.0069999999999999
100
AcDbArc
 50
0.9999999969218754
 51
90.0
  0
LINE
  5
DCE
330
23
100
AcDbEntity
  8
SANINDUSA
100
AcDbLine
 10
1887.185611561772
 20
1644.718417253409
 30
0.0
 11
1887.183637007005
 21
1644.831539420255
 31
0.0
  0
LINE
  5
DCF
330
23
100
AcDbEntity
  8
SANINDUSA
100
AcDbLine
 10
1886.820428895454
 20
1644.73697449949
 30
0.0
 11
1886.835681651666
 21
1644.736655094957
 31
0.0
  0
LINE
  5
DD0
330
23
100
AcDbEntity
  8
SANINDUSA
100
AcDbLine
 10
1886.740364276212
 20
1644.734750783027
 30
0.0
 11
1886.755617059684
 21
1644.734431337792
 31
0.0
  0
LINE
  5
DD1
330
23
100
AcDbEntity
  8
SANINDUSA
100
AcDbLine
 10
1886.260466634627
 20
1644.744803273312
 30
0.0
 11
1886.275719381195
 21
1644.744483774089
 31
0.0
  0
LINE
  5
DD2
330
23
100
AcDbEntity
  8
SANINDUSA
100
AcDbLine
 10
1886.66038134494
 20
1644.736426225157
 30
0.0
 11
1886.675634100036
 21
1644.736106751153
 31
0.0
  0
LINE
  5
DD3
330
23
100
AcDbEntity
  8
SANINDUSA
100
AcDbLine
 10
1886.340449576106
 20
1644.743127866718
 30
0.0
 11
1886.355702323277
 21
1644.742808366875
 31
0.0
  0
LINE
  5
DD4
330
23
100
AcDbEntity
  8
SANINDUSA
100
AcDbLine
 10
1886.420432518222
 20
1644.741452467912
 30
0.0
 11
1886.435685264034
 21
1644.741132965682
 31
0.0
  0
LINE
  5
DD5
330
23
100
AcDbEntity
  8
SANINDUSA
100
AcDbLine
 10
1886.580398404061
 20
1644.738101650343
 30
0.0
 11
1886.595651152791
 21
1644.737782162992
 31
0.0
  0
LINE
  5
DD6
330
23
100
AcDbEntity
  8
SANINDUSA
100
AcDbLine
 10
1886.500415462073
 20
1644.739777068331
 30
0.0
 11
1886.515668206189
 21
1644.73945757002
 31
0.0
  0
LINE
  5
E19
330
23
100
AcDbEntity
  8
SANINDUSA
100
AcDbLine
 10
1885.681432210425
 20
1644.765018886081
 30
0.0
 11
1885.701429164328
 21
1644.764669837953
 31
0.0
  0
ARC
  5
E1D
330
23
100
AcDbEntity
  8
SANINDUSA
100
AcDbCircle
 10
1886.157692987898
 20
1644.795491252983
 30
0.0
 40
0.0494982425196848
100
AcDbArc
 50
238.0043572596254
 51
258.3243537354698
  0
LINE
  5
E24
330
23
100
AcDbEntity
  8
SANINDUSA
100
AcDbLine
 10
1885.701429164328
 20
1644.764669837953
 30
0.0
 11
1886.118235751945
 21
1644.757394451903
 31
0.0
  0
ARC
  5
E25
330
23
100
AcDbEntity
  8
SANINDUSA
100
AcDbCircle
 10
1886.11776243452
 20
1644.731295385829
 30
0.0
 40
0.0261033515896164
100
AcDbArc
 50
58.3332682739102
 51
88.99944692530011
  0
LINE
  5
E2C
330
23
100
AcDbEntity
  8
SANINDUSA
100
AcDbLine
 10
1887.093293223832
 20
1644.83841725341
 30
0.0
 11
1887.120276776161
 21
1644.83841725341
 31
0.0
  0
LINE
  5
E2E
330
23
100
AcDbEntity
  8
SANINDUSA
100
AcDbLine
 10
1885.646757132557
 20
1644.83841725341
 30
0.0
 11
1885.673740684887
 21
1644.83841725341
 31
0.0
  0
LINE
  5
E2F
330
23
100
AcDbEntity
  8
SANINDUSA
100
AcDbLine
 10
1885.673740684887
 20
1644.83841725341
 30
0.0
 11
1887.093293223832
 21
1644.83841725341
 31
0.0
  0
LINE
  5
E38
330
23
100
AcDbEntity
  8
SANINDUSA
100
AcDbLine
 10
1887.185611561772
 20
1644.718417253409
 30
0.0
 11
1887.066351594152
 21
1644.718417253409
 31
0.0
  0
LINE
  5
E39
330
23
100
AcDbEntity
  8
SANINDUSA
100
AcDbLine
 10
1886.94068231381
 20
1644.718417253409
 30
0.0
 11
1885.581422346189
 21
1644.718417253409
 31
0.0
  0
ENDSEC
  0
SECTION
  2
OBJECTS
  0
DICTIONARY
  5
C
330
0
100
AcDbDictionary
281
     1
  3
ACAD_COLOR
350
1C
  3
ACAD_GROUP
350
D
  3
ACAD_LAYOUT
350
1A
  3
ACAD_MATERIAL
350
1B
  3
ACAD_MLINESTYLE
350
17
  3
ACAD_PLOTSETTINGS
350
19
  3
ACAD_PLOTSTYLENAME
350
E
  3
ACAD_TABLESTYLE
350
1D
  3
ACDBHEADERROUNDTRIPXREC
350
9083
  3
AcDbVariableDictionary
350
8EBF
  0
DICTIONARY
  5
1C
102
{ACAD_REACTORS
330
C
102
}
330
C
100
AcDbDictionary
281
     1
  0
DICTIONARY
  5
D
102
{ACAD_REACTORS
330
C
102
}
330
C
100
AcDbDictionary
281
     1
  0
DICTIONARY
  5
1A
102
{ACAD_REACTORS
330
C
102
}
330
C
100
AcDbDictionary
281
     1
  3
Layout1
350
22
  3
Layout2
350
2A
  3
Model
350
26
  0
DICTIONARY
  5
1B
102
{ACAD_REACTORS
330
C
102
}
330
C
100
AcDbDictionary
281
     1
  0
DICTIONARY
  5
17
102
{ACAD_REACTORS
330
C
102
}
330
C
100
AcDbDictionary
281
     1
  3
Standard
350
18
  0
DICTIONARY
  5
19
102
{ACAD_REACTORS
330
C
102
}
330
C
100
AcDbDictionary
281
     1
  0
ACDBDICTIONARYWDFLT
  5
E
102
{ACAD_REACTORS
330
C
102
}
330
C
100
AcDbDictionary
281
     1
  3
Normal
350
F
100
AcDbDictionaryWithDefault
340
F
  0
DICTIONARY
  5
1D
102
{ACAD_REACTORS
330
C
102
}
330
C
100
AcDbDictionary
281
     1
  3
Standard
350
1E
  0
DICTIONARY
  5
9083
102
{ACAD_REACTORS
330
C
102
}
330
C
100
AcDbDictionary
281
     1
  0
DICTIONARY
  5
8EBF
102
{ACAD_REACTORS
330
C
102
}
330
C
100
AcDbDictionary
281
     1
  3
CTABLESTYLE
350
8EC0
  3
DIMASSOC
350
9065
  3
HIDETEXT
350
9064
  3
PROJECTNAME
350
9066
  0
LAYOUT
  5
22
102
{ACAD_XDICTIONARY
360
9084
102
}
102
{ACAD_REACTORS
330
1A
102
}
330
1A
100
AcDbPlotSettings
  1

  2
C:\Documents and Settings\Julio\Application Data\Autodesk\AutoCAD 2006\R16.2\enu\plotters\Default Windows System Printer.pc3
  4

  6

 40
0.0
 41
0.0
 42
0.0
 43
0.0
 44
0.0
 45
0.0
 46
0.0
 47
0.0
 48
0.0
 49
0.0
140
0.0
141
0.0
142
1.0
143
1.0
 70
   688
 72
     0
 73
     0
 74
     5
  7

 75
    16
147
1.0
148
0.0
149
0.0
100
AcDbLayout
  1
Layout1
 70
     1
 71
     1
 10
0.0
 20
0.0
 11
420.0
 21
297.0
 12
0.0
 22
0.0
 32
0.0
 14
1.000000000000000E+20
 24
1.000000000000000E+20
 34
1.000000000000000E+20
 15
-1.000000000000000E+20
 25
-1.000000000000000E+20
 35
-1.000000000000000E+20
146
0.0
 13
0.0
 23
0.0
 33
0.0
 16
1.0
 26
0.0
 36
0.0
 17
0.0
 27
1.0
 37
0.0
 76
     0
330
1F
  0
LAYOUT
  5
2A
102
{ACAD_XDICTIONARY
360
9088
102
}
102
{ACAD_REACTORS
330
1A
102
}
330
1A
100
AcDbPlotSettings
  1

  2
C:\Documents and Settings\Julio\Application Data\Autodesk\AutoCAD 2006\R16.2\enu\plotters\Default Windows System Printer.pc3
  4

  6

 40
0.0
 41
0.0
 42
0.0
 43
0.0
 44
0.0
 45
0.0
 46
0.0
 47
0.0
 48
0.0
 49
0.0
140
0.0
141
0.0
142
1.0
143
1.0
 70
   688
 72
     0
 73
     0
 74
     5
  7

 75
    16
147
1.0
148
0.0
149
0.0
100
AcDbLayout
  1
Layout2
 70
     1
 71
     2
 10
0.0
 20
0.0
 11
12.0
 21
9.0
 12
0.0
 22
0.0
 32
0.0
 14
0.0
 24
0.0
 34
0.0
 15
0.0
 25
0.0
 35
0.0
146
0.0
 13
0.0
 23
0.0
 33
0.0
 16
1.0
 26
0.0
 36
0.0
 17
0.0
 27
1.0
 37
0.0
 76
     0
330
27
  0
LAYOUT
  5
26
102
{ACAD_XDICTIONARY
360
9086
102
}
102
{ACAD_REACTORS
330
1A
102
}
330
1A
100
AcDbPlotSettings
  1

  2
C:\Documents and Settings\Julio\Application Data\Autodesk\AutoCAD 2006\R16.2\enu\plotters\Default Windows System Printer.pc3
  4

  6

 40
0.0
 41
0.0
 42
0.0
 43
0.0
 44
0.0
 45
0.0
 46
0.0
 47
0.0
 48
0.0
 49
0.0
140
0.0
141
0.0
142
1.0
143
1.0
 70
  1712
 72
     0
 73
     0
 74
     0
  7

 75
     0
147
1.0
148
0.0
149
0.0
100
AcDbLayout
  1
Model
 70
     1
 71
     0
 10
0.0
 20
0.0
 11
12.0
 21
9.0
 12
0.0
 22
0.0
 32
0.0
 14
0.0
 24
0.0
 34
0.0
 15
0.0
 25
0.0
 35
0.0
146
0.0
 13
0.0
 23
0.0
 33
0.0
 16
1.0
 26
0.0
 36
0.0
 17
0.0
 27
1.0
 37
0.0
 76
     0
330
23
  0
MLINESTYLE
  5
18
102
{ACAD_REACTORS
330
17
102
}
330
17
100
AcDbMlineStyle
  2
STANDARD
 70
     0
  3

 62
   256
 51
90.0
 52
90.0
 71
     2
 49
0.5
 62
   256
  6
BYLAYER
 49
-0.5
 62
   256
  6
BYLAYER
  0
ACDBPLACEHOLDER
  5
F
102
{ACAD_REACTORS
330
E
102
}
330
E
  0
TABLESTYLE
  5
1E
102
{ACAD_REACTORS
330
1D
102
}
330
1D
100
AcDbTableStyle
  3
Standard
 70
     0
 71
     0
 40
1.5
 41
1.5
280
     0
281
     0
  7
Standard
140
4.5
170
     2
 62
     0
 63
     7
283
     0
274
    -2
284
     1
 64
     0
275
    -2
285
     1
 65
     0
276
    -2
286
     1
 66
     0
277
    -2
287
     1
 67
     0
278
    -2
288
     1
 68
     0
279
    -2
289
     1
 69
     0
  7
Standard
140
6.0
170
     5
 62
     0
 63
     7
283
     0
274
    -2
284
     1
 64
     0
275
    -2
285
     1
 65
     0
276
    -2
286
     1
 66
     0
277
    -2
287
     1
 67
     0
278
    -2
288
     1
 68
     0
279
    -2
289
     1
 69
     0
  7
Standard
140
4.5
170
     5
 62
     0
 63
     7
283
     0
274
    -2
284
     1
 64
     0
275
    -2
285
     1
 65
     0
276
    -2
286
     1
 66
     0
277
    -2
287
     1
 67
     0
278
    -2
288
     1
 68
     0
279
    -2
289
     1
 69
     0
  0
DICTIONARYVAR
  5
8EC0
102
{ACAD_REACTORS
330
8EBF
102
}
330
8EBF
100
DictionaryVariables
280
     0
  1
STANDARD
  0
DICTIONARYVAR
  5
9065
102
{ACAD_REACTORS
330
8EBF
102
}
330
8EBF
100
DictionaryVariables
280
     0
  1
2
  0
DICTIONARYVAR
  5
9064
102
{ACAD_REACTORS
330
8EBF
102
}
330
8EBF
100
DictionaryVariables
280
     0
  1
1
  0
DICTIONARYVAR
  5
9066
102
{ACAD_REACTORS
330
8EBF
102
}
330
8EBF
100
DictionaryVariables
280
     0
  1

  0
DICTIONARY
  5
9084
330
22
100
AcDbDictionary
280
     1
281
     1
  3
ACAD_XREC_ROUNDTRIP
360
9085
  0
DICTIONARY
  5
9088
330
2A
100
AcDbDictionary
280
     1
281
     1
  3
ACAD_XREC_ROUNDTRIP
360
9089
  0
DICTIONARY
  5
9086
330
26
100
AcDbDictionary
280
     1
281
     1
  3
ACAD_XREC_ROUNDTRIP
360
9087
  0
XRECORD
  5
9085
102
{ACAD_REACTORS
330
9084
102
}
330
9084
100
AcDbXrecord
280
     1
102
SHADEPLOT
 70
     0
102
SHADEPLOTRESLEVEL
 70
     2
102
SHADEPLOTCUSTOMDPI
 70
   300
  0
XRECORD
  5
9089
102
{ACAD_REACTORS
330
9088
102
}
330
9088
100
AcDbXrecord
280
     1
102
SHADEPLOT
 70
     0
102
SHADEPLOTRESLEVEL
 70
     2
102
SHADEPLOTCUSTOMDPI
 70
   300
  0
XRECORD
  5
9087
102
{ACAD_REACTORS
330
9086
102
}
330
9086
100
AcDbXrecord
280
     1
102
SHADEPLOT
 70
     0
102
SHADEPLOTRESLEVEL
 70
     2
102
SHADEPLOTCUSTOMDPI
 70
   300
  0
ENDSEC
  0
EOF
