  0
SECTION
  2
HEADER
  9
$ACADVER
  1
AC1015
  9
$ACADMAINTVER
 70
    20
  9
$DWGCODEPAGE
  3
ANSI_1252
  9
$INSBASE
 10
0.0
 20
0.0
 30
0.0
  9
$EXTMIN
 10
1155.786722305042
 20
1911.435034144535
 30
0.0
  9
$EXTMAX
 10
1161.518260983649
 20
1912.235274253235
 30
0.0
  9
$LIMMIN
 10
0.0
 20
0.0
  9
$LIMMAX
 10
420.0
 20
297.0
  9
$ORTHOMODE
 70
     1
  9
$REGENMODE
 70
     1
  9
$FILLMODE
 70
     1
  9
$QTEXTMODE
 70
     0
  9
$MIRRTEXT
 70
     0
  9
$LTSCALE
 40
1.0
  9
$ATTMODE
 70
     1
  9
$TEXTSIZE
 40
2.5
  9
$TRACEWID
 40
1.0
  9
$TEXTSTYLE
  7
Standard
  9
$CLAYER
  8
0
  9
$CELTYPE
  6
ByLayer
  9
$CECOLOR
 62
   256
  9
$CELTSCALE
 40
1.0
  9
$DISPSILH
 70
     0
  9
$DIMSCALE
 40
1.0
  9
$DIMASZ
 40
2.5
  9
$DIMEXO
 40
0.625
  9
$DIMDLI
 40
3.75
  9
$DIMRND
 40
0.0
  9
$DIMDLE
 40
0.0
  9
$DIMEXE
 40
1.25
  9
$DIMTP
 40
0.0
  9
$DIMTM
 40
0.0
  9
$DIMTXT
 40
2.5
  9
$DIMCEN
 40
2.5
  9
$DIMTSZ
 40
0.0
  9
$DIMTOL
 70
     0
  9
$DIMLIM
 70
     0
  9
$DIMTIH
 70
     0
  9
$DIMTOH
 70
     0
  9
$DIMSE1
 70
     0
  9
$DIMSE2
 70
     0
  9
$DIMTAD
 70
     1
  9
$DIMZIN
 70
     8
  9
$DIMBLK
  1

  9
$DIMASO
 70
     1
  9
$DIMSHO
 70
     1
  9
$DIMPOST
  1

  9
$DIMAPOST
  1

  9
$DIMALT
 70
     0
  9
$DIMALTD
 70
     3
  9
$DIMALTF
 40
0.03937007874016
  9
$DIMLFAC
 40
1.0
  9
$DIMTOFL
 70
     1
  9
$DIMTVP
 40
0.0
  9
$DIMTIX
 70
     0
  9
$DIMSOXD
 70
     0
  9
$DIMSAH
 70
     0
  9
$DIMBLK1
  1

  9
$DIMBLK2
  1

  9
$DIMSTYLE
  2
ISO-25
  9
$DIMCLRD
 70
     0
  9
$DIMCLRE
 70
     0
  9
$DIMCLRT
 70
     0
  9
$DIMTFAC
 40
1.0
  9
$DIMGAP
 40
0.625
  9
$DIMJUST
 70
     0
  9
$DIMSD1
 70
     0
  9
$DIMSD2
 70
     0
  9
$DIMTOLJ
 70
     0
  9
$DIMTZIN
 70
     8
  9
$DIMALTZ
 70
     0
  9
$DIMALTTZ
 70
     0
  9
$DIMUPT
 70
     0
  9
$DIMDEC
 70
     2
  9
$DIMTDEC
 70
     2
  9
$DIMALTU
 70
     2
  9
$DIMALTTD
 70
     3
  9
$DIMTXSTY
  7
Standard
  9
$DIMAUNIT
 70
     0
  9
$DIMADEC
 70
     0
  9
$DIMALTRND
 40
0.0
  9
$DIMAZIN
 70
     0
  9
$DIMDSEP
 70
    44
  9
$DIMATFIT
 70
     3
  9
$DIMFRAC
 70
     0
  9
$DIMLDRBLK
  1

  9
$DIMLUNIT
 70
     2
  9
$DIMLWD
 70
    -2
  9
$DIMLWE
 70
    -2
  9
$DIMTMOVE
 70
     0
  9
$LUNITS
 70
     2
  9
$LUPREC
 70
     4
  9
$SKETCHINC
 40
1.0
  9
$FILLETRAD
 40
0.0
  9
$AUNITS
 70
     0
  9
$AUPREC
 70
     0
  9
$MENU
  1
.
  9
$ELEVATION
 40
0.0
  9
$PELEVATION
 40
0.0
  9
$THICKNESS
 40
0.0
  9
$LIMCHECK
 70
     0
  9
$CHAMFERA
 40
0.0
  9
$CHAMFERB
 40
0.0
  9
$CHAMFERC
 40
0.0
  9
$CHAMFERD
 40
0.0
  9
$SKPOLY
 70
     0
  9
$TDCREATE
 40
2454930.700800417
  9
$TDUCREATE
 40
2454930.659133750
  9
$TDUPDATE
 40
2454936.409753137
  9
$TDUUPDATE
 40
2454936.368086470
  9
$TDINDWG
 40
0.0041351968
  9
$TDUSRTIMER
 40
0.0041351968
  9
$USRTIMER
 70
     1
  9
$ANGBASE
 50
0.0
  9
$ANGDIR
 70
     0
  9
$PDMODE
 70
     0
  9
$PDSIZE
 40
0.0
  9
$PLINEWID
 40
0.0
  9
$SPLFRAME
 70
     0
  9
$SPLINETYPE
 70
     6
  9
$SPLINESEGS
 70
     8
  9
$HANDSEED
  5
644F
  9
$SURFTAB1
 70
     6
  9
$SURFTAB2
 70
     6
  9
$SURFTYPE
 70
     6
  9
$SURFU
 70
     6
  9
$SURFV
 70
     6
  9
$UCSBASE
  2

  9
$UCSNAME
  2

  9
$UCSORG
 10
0.0
 20
0.0
 30
0.0
  9
$UCSXDIR
 10
1.0
 20
0.0
 30
0.0
  9
$UCSYDIR
 10
0.0
 20
1.0
 30
0.0
  9
$UCSORTHOREF
  2

  9
$UCSORTHOVIEW
 70
     0
  9
$UCSORGTOP
 10
0.0
 20
0.0
 30
0.0
  9
$UCSORGBOTTOM
 10
0.0
 20
0.0
 30
0.0
  9
$UCSORGLEFT
 10
0.0
 20
0.0
 30
0.0
  9
$UCSORGRIGHT
 10
0.0
 20
0.0
 30
0.0
  9
$UCSORGFRONT
 10
0.0
 20
0.0
 30
0.0
  9
$UCSORGBACK
 10
0.0
 20
0.0
 30
0.0
  9
$PUCSBASE
  2

  9
$PUCSNAME
  2

  9
$PUCSORG
 10
0.0
 20
0.0
 30
0.0
  9
$PUCSXDIR
 10
1.0
 20
0.0
 30
0.0
  9
$PUCSYDIR
 10
0.0
 20
1.0
 30
0.0
  9
$PUCSORTHOREF
  2

  9
$PUCSORTHOVIEW
 70
     0
  9
$PUCSORGTOP
 10
0.0
 20
0.0
 30
0.0
  9
$PUCSORGBOTTOM
 10
0.0
 20
0.0
 30
0.0
  9
$PUCSORGLEFT
 10
0.0
 20
0.0
 30
0.0
  9
$PUCSORGRIGHT
 10
0.0
 20
0.0
 30
0.0
  9
$PUCSORGFRONT
 10
0.0
 20
0.0
 30
0.0
  9
$PUCSORGBACK
 10
0.0
 20
0.0
 30
0.0
  9
$USERI1
 70
     0
  9
$USERI2
 70
     0
  9
$USERI3
 70
     0
  9
$USERI4
 70
     0
  9
$USERI5
 70
     0
  9
$USERR1
 40
0.0
  9
$USERR2
 40
0.0
  9
$USERR3
 40
0.0
  9
$USERR4
 40
0.0
  9
$USERR5
 40
0.0
  9
$WORLDVIEW
 70
     1
  9
$SHADEDGE
 70
     3
  9
$SHADEDIF
 70
    70
  9
$TILEMODE
 70
     1
  9
$MAXACTVP
 70
    64
  9
$PINSBASE
 10
0.0
 20
0.0
 30
0.0
  9
$PLIMCHECK
 70
     0
  9
$PEXTMIN
 10
1.000000000000000E+20
 20
1.000000000000000E+20
 30
1.000000000000000E+20
  9
$PEXTMAX
 10
-1.000000000000000E+20
 20
-1.000000000000000E+20
 30
-1.000000000000000E+20
  9
$PLIMMIN
 10
0.0
 20
0.0
  9
$PLIMMAX
 10
420.0
 20
297.0
  9
$UNITMODE
 70
     0
  9
$VISRETAIN
 70
     1
  9
$PLINEGEN
 70
     0
  9
$PSLTSCALE
 70
     1
  9
$TREEDEPTH
 70
  3020
  9
$CMLSTYLE
  2
Standard
  9
$CMLJUST
 70
     0
  9
$CMLSCALE
 40
20.0
  9
$PROXYGRAPHICS
 70
     1
  9
$MEASUREMENT
 70
     1
  9
$CELWEIGHT
370
    -1
  9
$ENDCAPS
280
     0
  9
$JOINSTYLE
280
     0
  9
$LWDISPLAY
290
     0
  9
$INSUNITS
 70
     4
  9
$HYPERLINKBASE
  1

  9
$STYLESHEET
  1

  9
$XEDIT
290
     1
  9
$CEPSNTYPE
380
     0
  9
$PSTYLEMODE
290
     1
  9
$FINGERPRINTGUID
  2
{15BD5E60-96F7-43B0-856B-93BE123ADE49}
  9
$VERSIONGUID
  2
{5A71123F-F256-4383-ABFC-C621AB65FC16}
  9
$EXTNAMES
290
     1
  9
$PSVPSCALE
 40
0.0
  9
$OLESTARTUP
290
     0
  0
ENDSEC
  0
SECTION
  2
CLASSES
  0
CLASS
  1
ACDBDICTIONARYWDFLT
  2
AcDbDictionaryWithDefault
  3
ObjectDBX Classes
 90
        0
280
     0
281
     0
  0
CLASS
  1
TABLESTYLE
  2
AcDbTableStyle
  3
ObjectDBX Classes
 90
     2047
280
     0
281
     0
  0
CLASS
  1
DIMASSOC
  2
AcDbDimAssoc
  3
"AcDbDimAssoc|Product Desc:     AcDim ARX App For Dimension|Company:          Autodesk, Inc.|WEB Address:      www.autodesk.com"
 90
    32768
280
     0
281
     0
  0
CLASS
  1
DICTIONARYVAR
  2
AcDbDictionaryVar
  3
ObjectDBX Classes
 90
        0
280
     0
281
     0
  0
CLASS
  1
ACDBPLACEHOLDER
  2
AcDbPlaceHolder
  3
ObjectDBX Classes
 90
        0
280
     0
281
     0
  0
CLASS
  1
LAYOUT
  2
AcDbLayout
  3
ObjectDBX Classes
 90
        0
280
     0
281
     0
  0
ENDSEC
  0
SECTION
  2
TABLES
  0
TABLE
  2
VPORT
  5
8
330
0
100
AcDbSymbolTable
 70
     7
  0
VPORT
  5
6447
330
8
100
AcDbSymbolTableRecord
100
AcDbViewportTableRecord
  2
*Active
 70
     0
 10
0.0
 20
0.0
 11
1.0
 21
1.0
 12
1158.652491644345
 22
1911.835154198885
 13
0.0
 23
0.0
 14
10.0
 24
10.0
 15
10.0
 25
10.0
 16
0.0
 26
0.0
 36
1.0
 17
0.0
 27
0.0
 37
0.0
 40
3.591260999048794
 41
1.602030456852791
 42
50.0
 43
0.0
 44
0.0
 50
0.0
 51
0.0
 71
     0
 72
  1000
 73
     1
 74
     3
 75
     0
 76
     0
 77
     0
 78
     0
281
     0
 65
     1
110
0.0
120
0.0
130
0.0
111
1.0
121
0.0
131
0.0
112
0.0
122
1.0
132
0.0
 79
     0
146
0.0
  0
ENDTAB
  0
TABLE
  2
LTYPE
  5
5
330
0
100
AcDbSymbolTable
 70
     5
  0
LTYPE
  5
14
330
5
100
AcDbSymbolTableRecord
100
AcDbLinetypeTableRecord
  2
ByBlock
 70
     0
  3

 72
    65
 73
     0
 40
0.0
  0
LTYPE
  5
15
330
5
100
AcDbSymbolTableRecord
100
AcDbLinetypeTableRecord
  2
ByLayer
 70
     0
  3

 72
    65
 73
     0
 40
0.0
  0
LTYPE
  5
16
330
5
100
AcDbSymbolTableRecord
100
AcDbLinetypeTableRecord
  2
Continuous
 70
     0
  3
Solid line
 72
    65
 73
     0
 40
0.0
  0
LTYPE
  5
2BD
330
5
100
AcDbSymbolTableRecord
100
AcDbLinetypeTableRecord
  2
DASHDOT
 70
     0
  3
Dash dot __ . __ . __ . __ . __ . __ . __ . __
 72
    65
 73
     4
 40
25.4
 49
12.7
 74
     0
 49
-6.349999999999999
 74
     0
 49
0.0
 74
     0
 49
-6.349999999999999
 74
     0
  0
LTYPE
  5
2BE
330
5
100
AcDbSymbolTableRecord
100
AcDbLinetypeTableRecord
  2
HIDDEN
 70
     0
  3
Hidden __ __ __ __ __ __ __ __ __ __ __ __ __ _
 72
    65
 73
     2
 40
9.524999999999998
 49
6.349999999999999
 74
     0
 49
-3.174999999999999
 74
     0
  0
LTYPE
  5
2BF
330
5
100
AcDbSymbolTableRecord
100
AcDbLinetypeTableRecord
  2
HIDDEN2
 70
     0
  3
Hidden (.5x) _ _ _ _ _ _ _ _ _ _ _ _ _ _ _ _ _
 72
    65
 73
     2
 40
4.762499999999999
 49
3.174999999999999
 74
     0
 49
-1.587499999999999
 74
     0
  0
ENDTAB
  0
TABLE
  2
LAYER
  5
2
330
0
100
AcDbSymbolTable
 70
     9
  0
LAYER
  5
10
330
2
100
AcDbSymbolTableRecord
100
AcDbLayerTableRecord
  2
0
 70
     0
 62
     7
  6
Continuous
370
    -3
390
F
  0
LAYER
  5
2C0
330
2
100
AcDbSymbolTableRecord
100
AcDbLayerTableRecord
  2
1
 70
     0
 62
     1
  6
Continuous
370
    -3
390
F
  0
LAYER
  5
2C1
330
2
100
AcDbSymbolTableRecord
100
AcDbLayerTableRecord
  2
4
 70
     0
 62
     4
  6
Continuous
370
    -3
390
F
  0
LAYER
  5
2C2
330
2
100
AcDbSymbolTableRecord
100
AcDbLayerTableRecord
  2
cen
 70
     0
 62
     7
  6
DASHDOT
370
    -3
390
F
  0
LAYER
  5
2C3
330
2
100
AcDbSymbolTableRecord
100
AcDbLayerTableRecord
  2
9
 70
     0
 62
     9
  6
Continuous
370
    -3
390
F
  0
LAYER
  5
2C4
330
2
100
AcDbSymbolTableRecord
100
AcDbLayerTableRecord
  2
cotas
 70
     0
 62
     1
  6
Continuous
370
    -3
390
F
  0
LAYER
  5
2C5
330
2
100
AcDbSymbolTableRecord
100
AcDbLayerTableRecord
  2
Defpoints
 70
     0
 62
     7
  6
Continuous
290
     0
370
    -3
390
F
  0
LAYER
  5
2C6
330
2
100
AcDbSymbolTableRecord
100
AcDbLayerTableRecord
  2
SANINDUSA
 70
     0
 62
     3
  6
Continuous
370
    -3
390
F
  0
LAYER
  5
2C7
330
2
100
AcDbSymbolTableRecord
100
AcDbLayerTableRecord
  2
hid1
 70
     0
 62
     9
  6
HIDDEN
370
    -3
390
F
1001
AcAecLayerStandard
1000

1000

  0
ENDTAB
  0
TABLE
  2
STYLE
  5
3
330
0
100
AcDbSymbolTable
 70
     2
  0
STYLE
  5
11
330
3
100
AcDbSymbolTableRecord
100
AcDbTextStyleTableRecord
  2
Standard
 70
     0
 40
0.0
 41
1.0
 50
0.0
 71
     0
 42
2.5
  3
txt
  4

  0
STYLE
  5
2C8
330
3
100
AcDbSymbolTableRecord
100
AcDbTextStyleTableRecord
  2
SANINDUSA
 70
     0
 40
0.0
 41
1.0
 50
0.0
 71
     0
 42
2.5
  3
verdana.TTF
  4

1001
ACAD
1000
Verdana
1071
       34
  0
ENDTAB
  0
TABLE
  2
VIEW
  5
6
330
0
100
AcDbSymbolTable
 70
     0
  0
ENDTAB
  0
TABLE
  2
UCS
  5
7
330
0
100
AcDbSymbolTable
 70
     0
  0
ENDTAB
  0
TABLE
  2
APPID
  5
9
330
0
100
AcDbSymbolTable
 70
     8
  0
APPID
  5
12
330
9
100
AcDbSymbolTableRecord
100
AcDbRegAppTableRecord
  2
ACAD
 70
     0
  0
APPID
  5
2CA
330
9
100
AcDbSymbolTableRecord
100
AcDbRegAppTableRecord
  2
ACAD_DSTYLE_DIMEXT_LENGTH
 70
     0
  0
APPID
  5
2CB
330
9
100
AcDbSymbolTableRecord
100
AcDbRegAppTableRecord
  2
ACAD_DSTYLE_DIMEXT_ENABLED
 70
     0
  0
APPID
  5
2CC
330
9
100
AcDbSymbolTableRecord
100
AcDbRegAppTableRecord
  2
ACAD_DSTYLE_DIMJOGGED_JOGANGLE_SYMBOL
 70
     0
  0
APPID
  5
2CD
330
9
100
AcDbSymbolTableRecord
100
AcDbRegAppTableRecord
  2
ACAD_DSTYLE_DIMARC_LENGTH_SYMBOL
 70
     0
  0
APPID
  5
2CE
330
9
100
AcDbSymbolTableRecord
100
AcDbRegAppTableRecord
  2
AcAecLayerStandard
 70
     0
  0
APPID
  5
2CF
330
9
100
AcDbSymbolTableRecord
100
AcDbRegAppTableRecord
  2
ACAD_PSEXT
 70
     0
  0
APPID
  5
6431
330
9
100
AcDbSymbolTableRecord
100
AcDbRegAppTableRecord
  2
ACAD_EXEMPT_FROM_CAD_STANDARDS
 70
     0
  0
ENDTAB
  0
TABLE
  2
DIMSTYLE
  5
A
330
0
100
AcDbSymbolTable
 70
     3
100
AcDbDimStyleTable
 71
     1
340
2B
  0
DIMSTYLE
105
2B
330
A
100
AcDbSymbolTableRecord
100
AcDbDimStyleTableRecord
  2
ISO-25
 70
     0
 41
2.5
 42
0.625
 43
3.75
 44
1.25
 73
     0
 74
     0
 77
     1
 78
     8
140
2.5
141
2.5
143
0.03937007874016
147
0.625
171
     3
172
     1
271
     2
272
     2
274
     3
278
    44
283
     0
284
     8
340
11
  0
DIMSTYLE
105
2C9
330
A
100
AcDbSymbolTableRecord
100
AcDbDimStyleTableRecord
  2
SANINDUSA
 70
     0
 40
5.0
 41
2.0
 42
1.0
 43
1.0
 44
1.0
 73
     0
 74
     0
 77
     1
 78
     8
140
2.0
141
0.0
143
0.03937007874016
147
1.0
171
     3
172
     1
176
   256
177
   256
178
   256
179
     1
271
     1
272
     1
274
     3
278
    44
283
     0
284
     8
340
2C8
371
    -1
372
    -1
1001
ACAD_DSTYLE_DIMEXT_LENGTH
1070
   378
1040
1.0
1001
ACAD_DSTYLE_DIMEXT_ENABLED
1070
   383
1070
     0
1001
ACAD_DSTYLE_DIMARC_LENGTH_SYMBOL
1070
   379
1070
     0
1001
ACAD_DSTYLE_DIMJOGGED_JOGANGLE_SYMBOL
1070
   384
1040
1.570796326794896
  0
ENDTAB
  0
TABLE
  2
BLOCK_RECORD
  5
1
330
0
100
AcDbSymbolTable
 70
   118
  0
BLOCK_RECORD
  5
23
330
1
100
AcDbSymbolTableRecord
100
AcDbBlockTableRecord
  2
*Model_Space
340
26
  0
BLOCK_RECORD
  5
1F
330
1
100
AcDbSymbolTableRecord
100
AcDbBlockTableRecord
  2
*Paper_Space
340
22
  0
BLOCK_RECORD
  5
27
330
1
100
AcDbSymbolTableRecord
100
AcDbBlockTableRecord
  2
*Paper_Space0
340
2A
  0
ENDTAB
  0
ENDSEC
  0
SECTION
  2
BLOCKS
  0
BLOCK
  5
24
330
23
100
AcDbEntity
  8
0
100
AcDbBlockBegin
  2
*Model_Space
 70
     0
 10
0.0
 20
0.0
 30
0.0
  3
*Model_Space
  1

  0
ENDBLK
  5
25
330
23
100
AcDbEntity
  8
0
100
AcDbBlockEnd
  0
BLOCK
  5
20
330
1F
100
AcDbEntity
 67
     1
  8
0
100
AcDbBlockBegin
  2
*Paper_Space
 70
     0
 10
0.0
 20
0.0
 30
0.0
  3
*Paper_Space
  1

  0
ENDBLK
  5
21
330
1F
100
AcDbEntity
 67
     1
  8
0
100
AcDbBlockEnd
  0
BLOCK
  5
28
330
27
100
AcDbEntity
 67
     1
  8
0
100
AcDbBlockBegin
  2
*Paper_Space0
 70
     0
 10
0.0
 20
0.0
 30
0.0
  3
*Paper_Space0
  1

  0
ENDBLK
  5
29
330
27
100
AcDbEntity
 67
     1
  8
0
100
AcDbBlockEnd
  0
ENDSEC
  0
SECTION
  2
ENTITIES
  0
LINE
  5
899
330
23
100
AcDbEntity
  8
SANINDUSA
100
AcDbLine
 10
1159.589575972331
 20
1911.793486532287
 30
0.0
 11
1159.59680816373
 21
1911.785730956526
 31
0.0
  0
LINE
  5
89A
330
23
100
AcDbEntity
  8
SANINDUSA
100
AcDbLine
 10
1159.700199700254
 20
1911.785730956526
 30
0.0
 11
1159.707431891668
 21
1911.793486532303
 31
0.0
  0
LINE
  5
8B7
330
23
100
AcDbEntity
  8
SANINDUSA
100
AcDbLine
 10
1158.426409324216
 20
1911.79348653213
 30
0.0
 11
1159.83059847961
 21
1911.793486532319
 31
0.0
  0
LINE
  5
8BA
330
23
100
AcDbEntity
  8
SANINDUSA
100
AcDbLine
 10
1158.426409324216
 20
1911.79348653213
 30
0.0
 11
1158.428383878968
 21
1911.90660869829
 31
0.0
  0
LINE
  5
8BD
330
23
100
AcDbEntity
  8
SANINDUSA
100
AcDbLine
 10
1159.828623985016
 20
1911.90660869829
 30
0.0
 11
1159.83059847961
 21
1911.793486532319
 31
0.0
  0
LINE
  5
8BF
330
23
100
AcDbEntity
  8
SANINDUSA
100
AcDbLine
 10
1158.435382812776
 20
1911.913486531444
 30
0.0
 11
1159.821625055306
 21
1911.913486531444
 31
0.0
  0
ARC
  5
8C2
330
23
100
AcDbEntity
  8
SANINDUSA
100
AcDbCircle
 10
1158.435382812834
 20
1911.906486531444
 30
0.0
 40
0.0070000000000002
100
AcDbArc
 50
90.0
 51
179.0000000030781
  0
ARC
  5
8C3
330
23
100
AcDbEntity
  8
SANINDUSA
100
AcDbCircle
 10
1159.82162505115
 20
1911.906486531444
 30
0.0
 40
0.0070000000000002
100
AcDbArc
 50
0.9999999969218754
 51
90.0
  0
LINE
  5
906
330
23
100
AcDbEntity
  8
SANINDUSA
100
AcDbLine
 10
1159.59680816373
 20
1911.785730956526
 30
0.0
 11
1159.700199700254
 21
1911.785730956526
 31
0.0
  0
LINE
  5
944
330
23
100
AcDbEntity
  8
SANINDUSA
100
AcDbLine
 10
1157.750980856982
 20
1911.793486525013
 30
0.0
 11
1157.758213048512
 21
1911.785730949112
 31
0.0
  0
LINE
  5
945
330
23
100
AcDbEntity
  8
SANINDUSA
100
AcDbLine
 10
1157.861604585037
 20
1911.785730949112
 30
0.0
 11
1157.868836776595
 21
1911.793486525044
 31
0.0
  0
LINE
  5
947
330
23
100
AcDbEntity
  8
SANINDUSA
100
AcDbLine
 10
1158.210028869799
 20
1911.906608690875
 30
0.0
 11
1158.212003486528
 21
1911.793486525133
 31
0.0
  0
LINE
  5
94C
330
23
100
AcDbEntity
  8
SANINDUSA
100
AcDbLine
 10
1157.407814209002
 20
1911.793486524924
 30
0.0
 11
1157.40978876375
 21
1911.906608690875
 31
0.0
  0
LINE
  5
94F
330
23
100
AcDbEntity
  8
SANINDUSA
100
AcDbLine
 10
1157.407814209002
 20
1911.793486524924
 30
0.0
 11
1158.212003486528
 21
1911.793486525133
 31
0.0
  0
ARC
  5
951
330
23
100
AcDbEntity
  8
SANINDUSA
100
AcDbCircle
 10
1158.203029935933
 20
1911.90648652403
 30
0.0
 40
0.0070000000000002
100
AcDbArc
 50
0.9999999969218754
 51
90.0
  0
ARC
  5
952
330
23
100
AcDbEntity
  8
SANINDUSA
100
AcDbCircle
 10
1157.416787697616
 20
1911.90648652403
 30
0.0
 40
0.0070000000000002
100
AcDbArc
 50
90.0
 51
179.0000000030781
  0
LINE
  5
954
330
23
100
AcDbEntity
  8
SANINDUSA
100
AcDbLine
 10
1157.416787697558
 20
1911.91348652403
 30
0.0
 11
1158.203029916247
 21
1911.91348652403
 31
0.0
  0
LINE
  5
966
330
23
100
AcDbEntity
  8
SANINDUSA
100
AcDbLine
 10
1157.758213048512
 20
1911.785730949112
 30
0.0
 11
1157.861604585037
 21
1911.785730949112
 31
0.0
  0
LINE
  5
994
330
23
100
AcDbEntity
  8
SANINDUSA
100
AcDbLine
 10
1155.791721543518
 20
1912.235274250583
 30
0.0
 11
1157.181963172615
 21
1912.235274250583
 31
0.0
  0
ARC
  5
999
330
23
100
AcDbEntity
  8
SANINDUSA
100
AcDbCircle
 10
1157.181961376874
 20
1912.230273252152
 30
0.0
 40
0.005001001421519
100
AcDbArc
 50
0.0204013682941462
 51
89.97891550591804
  0
ARC
  5
99B
330
23
100
AcDbEntity
  8
SANINDUSA
100
AcDbCircle
 10
1155.791723333757
 20
1912.230273224513
 30
0.0
 40
0.0050010290416764
100
AcDbArc
 50
90.02051026560812
 51
179.9792821012585
  0
LINE
  5
99E
330
23
100
AcDbEntity
  8
SANINDUSA
100
AcDbLine
 10
1155.786722305042
 20
1911.44003338301
 30
0.0
 11
1155.786722305042
 21
1912.230275012108
 31
0.0
  0
LINE
  5
99F
330
23
100
AcDbEntity
  8
SANINDUSA
100
AcDbLine
 10
1157.18696241109
 20
1912.230275012108
 30
0.0
 11
1157.18696241109
 21
1911.44003338301
 31
0.0
  0
ELLIPSE
  5
9AC
330
23
100
AcDbEntity
  8
SANINDUSA
100
AcDbEllipse
 10
1155.877098994338
 20
1912.144897561287
 30
0.0
 11
0.0141714282369876
 21
-0.0141714282369856
 31
0.0
210
0.0
220
0.0
230
1.0
 40
0.9979329808706911
 41
2.35680347777788
 42
3.926381829401615
  0
LINE
  5
9AF
330
23
100
AcDbEntity
  8
SANINDUSA
100
AcDbLine
 10
1157.096618626349
 20
1912.164918283194
 30
0.0
 11
1155.877066088972
 21
1912.164918283194
 31
0.0
  0
ELLIPSE
  5
9B1
330
23
100
AcDbEntity
  8
SANINDUSA
100
AcDbEllipse
 10
1157.096585720982
 20
1912.144897561287
 30
0.0
 11
0.0141714282369856
 21
0.0141714282369868
 31
0.0
210
0.0
220
0.0
230
1.0
 40
0.9979329808707209
 41
5.498396131367734
 42
7.067974482991383
  0
LINE
  5
9B3
330
23
100
AcDbEntity
  8
SANINDUSA
100
AcDbLine
 10
1157.116606442889
 20
1911.525377928465
 30
0.0
 11
1157.116606442889
 21
1912.144930466653
 31
0.0
  0
LINE
  5
9B4
330
23
100
AcDbEntity
  8
SANINDUSA
100
AcDbLine
 10
1155.857078272432
 20
1912.144930466653
 30
0.0
 11
1155.857078272432
 21
1911.525377928465
 31
0.0
  0
ELLIPSE
  5
9B7
330
23
100
AcDbEntity
  8
SANINDUSA
100
AcDbEllipse
 10
1157.096585720982
 20
1911.525410833831
 30
0.0
 11
0.0141714282369856
 21
-0.0141714282369868
 31
0.0
210
0.0
220
0.0
230
1.0
 40
0.9979329808706836
 41
5.498396131367827
 42
7.067974482991481
  0
ELLIPSE
  5
9B8
330
23
100
AcDbEntity
  8
SANINDUSA
100
AcDbEllipse
 10
1155.877098994338
 20
1911.525410833831
 30
0.0
 11
0.0141714282369858
 21
0.0141714282369874
 31
0.0
210
0.0
220
0.0
230
0.9999999999999998
 40
0.9979329808706761
 41
2.356803477777937
 42
3.926381829401616
  0
LINE
  5
9BA
330
23
100
AcDbEntity
  8
SANINDUSA
100
AcDbLine
 10
1155.877066088972
 20
1911.505390111924
 30
0.0
 11
1157.096618626349
 21
1911.505390111924
 31
0.0
  0
ARC
  5
9BC
330
23
100
AcDbEntity
  8
SANINDUSA
100
AcDbCircle
 10
1157.181961383162
 20
1911.440035139324
 30
0.0
 40
0.005000995125423
100
AcDbArc
 50
270.0210124907975
 51
359.9798782811559
  0
LINE
  5
9BD
330
23
100
AcDbEntity
  8
SANINDUSA
100
AcDbLine
 10
1157.181963172615
 20
1911.435034144535
 30
0.0
 11
1155.791721543518
 21
1911.435034144535
 31
0.0
  0
ARC
  5
9BF
330
23
100
AcDbEntity
  8
SANINDUSA
100
AcDbCircle
 10
1155.791723327469
 20
1911.440035166962
 30
0.0
 40
0.0050010227454467
100
AcDbArc
 50
180.0204382492961
 51
269.9795617507039
  0
ARC
  5
A0A
330
23
100
AcDbEntity
  8
SANINDUSA
100
AcDbCircle
 10
1155.904920759835
 20
1911.552943367911
 30
0.0
 40
0.0108824284944948
100
AcDbArc
 50
179.9914417190561
 51
269.9998112698545
  0
ARC
  5
A0D
330
23
100
AcDbEntity
  8
SANINDUSA
100
AcDbCircle
 10
1155.904920929266
 20
1912.117364839922
 30
0.0
 40
0.0108825978999808
100
AcDbArc
 50
90.001080765712
 51
180.0076270324369
  0
LINE
  5
A0F
330
23
100
AcDbEntity
  8
SANINDUSA
100
AcDbLine
 10
1155.894038327765
 20
1911.552944990852
 30
0.0
 11
1155.894038327765
 21
1912.117363404266
 31
0.0
  0
LINE
  5
A11
330
23
100
AcDbEntity
  8
SANINDUSA
100
AcDbLine
 10
1156.333791244294
 20
1911.54206093894
 30
0.0
 11
1155.904920721983
 21
1911.54206093894
 31
0.0
  0
LINE
  5
A12
330
23
100
AcDbEntity
  8
SANINDUSA
100
AcDbLine
 10
1155.904920721983
 20
1912.128247456178
 30
0.0
 11
1156.333869463255
 21
1912.128247456178
 31
0.0
  0
LWPOLYLINE
  5
A21
330
23
100
AcDbEntity
  8
SANINDUSA
100
AcDbPolyline
 90
        3
 70
   128
 43
0.0
 10
1156.33386946912
 20
1912.12824743782
 10
1156.339900386287
 20
1912.128136513576
 10
1156.345923733665
 20
1912.12785476242
  0
LWPOLYLINE
  5
A22
330
23
100
AcDbEntity
  8
SANINDUSA
100
AcDbPolyline
 90
        3
 70
   128
 43
0.0
 10
1156.3459228992
 20
1911.542457816944
 10
1156.342857015087
 20
1911.542299656019
 10
1156.333791267826
 20
1911.542060939417
  0
LWPOLYLINE
  5
A24
330
23
100
AcDbEntity
  8
SANINDUSA
100
AcDbPolyline
 90
        7
 70
   128
 43
0.0
 10
1156.356996190502
 20
1912.117408810004
 10
1156.357000422432
 20
1912.069401321754
 10
1156.356919479324
 20
1911.9734010676
 10
1156.356842410518
 20
1911.877400902852
 10
1156.35683883424
 20
1911.796273527488
 10
1156.356886696769
 20
1911.71514636074
 10
1156.35698063369
 20
1911.552891550407
  0
ARC
  5
A27
330
23
100
AcDbEntity
  8
SANINDUSA
100
AcDbCircle
 10
1156.346821590492
 20
1912.117406515363
 30
0.0
 40
0.0101746002684051
100
AcDbArc
 50
0.0129217162533199
 51
73.03432907339498
  0
ARC
  5
A29
330
23
100
AcDbEntity
  8
SANINDUSA
100
AcDbCircle
 10
1156.346820833123
 20
1911.552892515021
 30
0.0
 40
0.0101598006123653
100
AcDbArc
 50
287.036026574721
 51
359.9945600981407
  0
LINE
  5
A2A
330
23
100
AcDbEntity
  8
SANINDUSA
100
AcDbLine
 10
1156.3482832877
 20
1911.54276510789
 30
0.0
 11
1156.345922882118
 21
1911.542457816777
 31
0.0
  0
LWPOLYLINE
  5
A2B
330
23
100
AcDbEntity
  8
SANINDUSA
100
AcDbPolyline
 90
        3
 70
   128
 43
0.0
 10
1156.345923733665
 20
1912.12785476242
 10
1156.346339118434
 20
1912.127840040073
 10
1156.348234724952
 20
1912.127558884964
  0
LINE
  5
A2C
330
23
100
AcDbEntity
  8
SANINDUSA
100
AcDbLine
 10
1156.348234752767
 20
1912.127558898385
 30
0.0
 11
1156.349790536558
 21
1912.127138343315
 31
0.0
  0
LINE
  5
A2D
330
23
100
AcDbEntity
  8
SANINDUSA
100
AcDbLine
 10
1156.349797355211
 20
1911.543178520148
 30
0.0
 11
1156.3482832877
 21
1911.54276510789
 31
0.0
  0
CIRCLE
  5
A4D
330
23
100
AcDbEntity
  8
SANINDUSA
100
AcDbCircle
 10
1156.463527452076
 20
1912.075156161565
 30
0.0
 40
0.0107479699748592
  0
CIRCLE
  5
A4F
330
23
100
AcDbEntity
  8
SANINDUSA
100
AcDbCircle
 10
1156.46352215723
 20
1911.595150915957
 30
0.0
 40
0.0107483176350046
  0
CIRCLE
  5
A51
330
23
100
AcDbEntity
  8
SANINDUSA
100
AcDbCircle
 10
1156.463514686118
 20
1911.995178522547
 30
0.0
 40
0.0107483386858852
  0
CIRCLE
  5
A53
330
23
100
AcDbEntity
  8
SANINDUSA
100
AcDbCircle
 10
1156.463509112884
 20
1911.675130868428
 30
0.0
 40
0.0107493819799318
  0
CIRCLE
  5
A55
330
23
100
AcDbEntity
  8
SANINDUSA
100
AcDbCircle
 10
1156.543515749665
 20
1912.075154828305
 30
0.0
 40
0.0107477943830557
  0
CIRCLE
  5
A59
330
23
100
AcDbEntity
  8
SANINDUSA
100
AcDbCircle
 10
1156.543510020732
 20
1911.595151592567
 30
0.0
 40
0.0107481588890137
  0
CIRCLE
  5
A84
330
23
100
AcDbEntity
  8
SANINDUSA
100
AcDbCircle
 10
1156.463484935135
 20
1911.915183266662
 30
0.0
 40
0.0107502549844946
  0
CIRCLE
  5
A86
330
23
100
AcDbEntity
  8
SANINDUSA
100
AcDbCircle
 10
1156.543502948685
 20
1911.995181542388
 30
0.0
 40
0.0107477810034472
  0
CIRCLE
  5
A88
330
23
100
AcDbEntity
  8
SANINDUSA
100
AcDbCircle
 10
1156.463481342278
 20
1911.755129012817
 30
0.0
 40
0.0107515823676497
  0
CIRCLE
  5
A8A
330
23
100
AcDbEntity
  8
SANINDUSA
100
AcDbCircle
 10
1156.543497361516
 20
1911.675128807744
 30
0.0
 40
0.0107489572850194
  0
CIRCLE
  5
A8C
330
23
100
AcDbEntity
  8
SANINDUSA
100
AcDbCircle
 10
1156.623499977734
 20
1912.075155568811
 30
0.0
 40
0.0107473967654532
  0
CIRCLE
  5
A8E
330
23
100
AcDbEntity
  8
SANINDUSA
100
AcDbCircle
 10
1156.463465955248
 20
1911.835156456183
 30
0.0
 40
0.0107526040127177
  0
CIRCLE
  5
A90
330
23
100
AcDbEntity
  8
SANINDUSA
100
AcDbCircle
 10
1156.623493758806
 20
1911.595151895342
 30
0.0
 40
0.0107480128521847
  0
CIRCLE
  5
A92
330
23
100
AcDbEntity
  8
SANINDUSA
100
AcDbCircle
 10
1156.623486552552
 20
1911.995182704654
 30
0.0
 40
0.0107474709821812
  0
CIRCLE
  5
A94
330
23
100
AcDbEntity
  8
SANINDUSA
100
AcDbCircle
 10
1156.543470121448
 20
1911.915188354379
 30
0.0
 40
0.0107501510378179
  0
CIRCLE
  5
A96
330
23
100
AcDbEntity
  8
SANINDUSA
100
AcDbCircle
 10
1156.543466958112
 20
1911.755124233593
 30
0.0
 40
0.010751585229519
  0
CIRCLE
  5
A98
330
23
100
AcDbEntity
  8
SANINDUSA
100
AcDbCircle
 10
1156.623481715986
 20
1911.675128360494
 30
0.0
 40
0.0107485523442581
  0
CIRCLE
  5
A9A
330
23
100
AcDbEntity
  8
SANINDUSA
100
AcDbCircle
 10
1156.703477780237
 20
1912.075158173995
 30
0.0
 40
0.0107474047288333
  0
CIRCLE
  5
A9C
330
23
100
AcDbEntity
  8
SANINDUSA
100
AcDbCircle
 10
1156.543448226106
 20
1911.835156087769
 30
0.0
 40
0.0107532695517733
  0
CIRCLE
  5
A9E
330
23
100
AcDbEntity
  8
SANINDUSA
100
AcDbCircle
 10
1156.70347125473
 20
1911.595149552529
 30
0.0
 40
0.0107483870012243
  0
CIRCLE
  5
AA0
330
23
100
AcDbEntity
  8
SANINDUSA
100
AcDbCircle
 10
1156.623453682992
 20
1911.915191400382
 30
0.0
 40
0.0107500620998284
  0
CIRCLE
  5
AA2
330
23
100
AcDbEntity
  8
SANINDUSA
100
AcDbCircle
 10
1156.703463298676
 20
1911.995182310764
 30
0.0
 40
0.0107474026108597
  0
CIRCLE
  5
AA4
330
23
100
AcDbEntity
  8
SANINDUSA
100
AcDbCircle
 10
1156.623451510455
 20
1911.755120936024
 30
0.0
 40
0.0107513996749637
  0
CIRCLE
  5
AA6
330
23
100
AcDbEntity
  8
SANINDUSA
100
AcDbCircle
 10
1156.703459971873
 20
1911.675130476767
 30
0.0
 40
0.0107481661911076
  0
CIRCLE
  5
AA8
330
23
100
AcDbEntity
  8
SANINDUSA
100
AcDbCircle
 10
1156.623430620818
 20
1911.835156328469
 30
0.0
 40
0.0107538112434878
  0
CIRCLE
  5
AAA
330
23
100
AcDbEntity
  8
SANINDUSA
100
AcDbCircle
 10
1156.783448935116
 20
1912.07516399715
 30
0.0
 40
0.0107478020573278
  0
CIRCLE
  5
AAC
330
23
100
AcDbEntity
  8
SANINDUSA
100
AcDbCircle
 10
1156.783442527457
 20
1911.595144174835
 30
0.0
 40
0.0107493220720972
  0
CIRCLE
  5
AAE
330
23
100
AcDbEntity
  8
SANINDUSA
100
AcDbCircle
 10
1156.703434105705
 20
1911.915190365778
 30
0.0
 40
0.0107500121407003
  0
CIRCLE
  5
AB0
330
23
100
AcDbEntity
  8
SANINDUSA
100
AcDbCircle
 10
1156.703433814698
 20
1911.755121217877
 30
0.0
 40
0.0107508393163319
  0
CIRCLE
  5
AB2
330
23
100
AcDbEntity
  8
SANINDUSA
100
AcDbCircle
 10
1156.783433420849
 20
1911.995180780047
 30
0.0
 40
0.0107475806256105
  0
CIRCLE
  5
AB4
330
23
100
AcDbEntity
  8
SANINDUSA
100
AcDbCircle
 10
1156.78343178825
 20
1911.675133966851
 30
0.0
 40
0.0107482592506857
  0
CIRCLE
  5
AB6
330
23
100
AcDbEntity
  8
SANINDUSA
100
AcDbCircle
 10
1156.703413151434
 20
1911.835155191513
 30
0.0
 40
0.0107542169720716
  0
CIRCLE
  5
AB8
330
23
100
AcDbEntity
  8
SANINDUSA
100
AcDbCircle
 10
1156.863418638643
 20
1912.075170586765
 30
0.0
 40
0.0107491738007344
  0
CIRCLE
  5
ABA
330
23
100
AcDbEntity
  8
SANINDUSA
100
AcDbCircle
 10
1156.783412161467
 20
1911.755125734482
 30
0.0
 40
0.0107503622703357
  0
CIRCLE
  5
ABC
330
23
100
AcDbEntity
  8
SANINDUSA
100
AcDbCircle
 10
1156.783409991791
 20
1911.915184421461
 30
0.0
 40
0.0107502670304834
  0
CIRCLE
  5
ABE
330
23
100
AcDbEntity
  8
SANINDUSA
100
AcDbCircle
 10
1156.8634145637
 20
1911.59513686972
 30
0.0
 40
0.0107509836927189
  0
CIRCLE
  5
AC0
330
23
100
AcDbEntity
  8
SANINDUSA
100
AcDbCircle
 10
1156.863405761138
 20
1911.995176583048
 30
0.0
 40
0.0107483416880313
  0
CIRCLE
  5
AC2
330
23
100
AcDbEntity
  8
SANINDUSA
100
AcDbCircle
 10
1156.863405142401
 20
1911.675139628085
 30
0.0
 40
0.0107486027405002
  0
CIRCLE
  5
AC4
330
23
100
AcDbEntity
  8
SANINDUSA
100
AcDbCircle
 10
1156.783396368304
 20
1911.835154748686
 30
0.0
 40
0.0107539960897389
  0
CIRCLE
  5
AC6
330
23
100
AcDbEntity
  8
SANINDUSA
100
AcDbCircle
 10
1156.863388244898
 20
1911.755130308721
 30
0.0
 40
0.0107513144561478
  0
CIRCLE
  5
AC8
330
23
100
AcDbEntity
  8
SANINDUSA
100
AcDbCircle
 10
1156.863385178531
 20
1911.915176277052
 30
0.0
 40
0.0107517581449888
  0
CIRCLE
  5
ACA
330
23
100
AcDbEntity
  8
SANINDUSA
100
AcDbCircle
 10
1156.863379689486
 20
1911.835154906288
 30
0.0
 40
0.010753551726025
  0
CIRCLE
  5
ACB
330
23
100
AcDbEntity
  8
SANINDUSA
100
AcDbCircle
 10
1157.006904818609
 20
1911.835156485122
 30
0.0
 40
0.0739864540619888
  0
CIRCLE
  5
ACD
330
23
100
AcDbEntity
  8
SANINDUSA
100
AcDbCircle
 10
1157.006842358066
 20
1911.835154197559
 30
0.0
 40
0.05
  0
LINE
  5
B1D
330
23
100
AcDbEntity
  8
SANINDUSA
100
AcDbLine
 10
1160.778811358765
 20
1911.817171534069
 30
0.0
 11
1160.702711009339
 21
1911.81876560814
 31
0.0
  0
LINE
  5
B1F
330
23
100
AcDbEntity
  8
SANINDUSA
100
AcDbLine
 10
1160.858794295148
 20
1911.815496129461
 30
0.0
 11
1160.806551360444
 21
1911.816590463289
 31
0.0
  0
LINE
  5
B21
330
23
100
AcDbEntity
  8
SANINDUSA
100
AcDbLine
 10
1160.93877723153
 20
1911.813820724853
 30
0.0
 11
1160.886534296826
 21
1911.81491505868
 31
0.0
  0
LWPOLYLINE
  5
B24
330
23
100
AcDbEntity
  8
SANINDUSA
100
AcDbPolyline
 90
        3
 70
   128
 43
0.0
 10
1161.018760167912
 20
1911.812145312794
 10
1161.011430286721
 20
1911.812298854359
 10
1160.966517233208
 20
1911.813239661523
  0
LINE
  5
B26
330
23
100
AcDbEntity
  8
SANINDUSA
100
AcDbLine
 10
1161.098743104294
 20
1911.810469908186
 30
0.0
 11
1161.04650016959
 21
1911.811564242013
 31
0.0
  0
LINE
  5
B28
330
23
100
AcDbEntity
  8
SANINDUSA
100
AcDbLine
 10
1161.178726040676
 20
1911.808794458874
 30
0.0
 11
1161.126483165577
 21
1911.809888837405
 31
0.0
  0
LINE
  5
B2A
330
23
100
AcDbEntity
  8
SANINDUSA
100
AcDbLine
 10
1161.259869769718
 20
1911.807094765702
 30
0.0
 11
1161.206466042355
 21
1911.808213514753
 31
0.0
  0
LWPOLYLINE
  5
B2D
330
23
100
AcDbEntity
  8
SANINDUSA
100
AcDbPolyline
 90
        3
 70
   128
 43
0.0
 10
1161.430789076641
 20
1911.809236315556
 10
1161.421718680218
 20
1911.807689984806
 10
1161.41243942912
 20
1911.807077718445
  0
ARC
  5
B2E
330
23
100
AcDbEntity
  8
SANINDUSA
100
AcDbCircle
 10
1161.259867685104
 20
1911.806994787432
 30
0.0
 40
0.0001000000311269
100
AcDbArc
 50
54.99999999392633
 51
88.80551767838175
  0
ARC
  5
B2F
330
23
100
AcDbEntity
  8
SANINDUSA
100
AcDbCircle
 10
1161.412440825023
 20
1911.80697772902
 30
0.0
 40
0.0001000000000305
100
AcDbArc
 50
90.81263013966426
 51
125.0000000060736
  0
LINE
  5
B30
330
23
100
AcDbEntity
  8
SANINDUSA
100
AcDbLine
 10
1161.259925042748
 20
1911.807076702636
 30
0.0
 11
1161.273296200589
 21
1911.797714141675
 31
0.0
  0
LINE
  5
B31
330
23
100
AcDbEntity
  8
SANINDUSA
100
AcDbLine
 10
1161.399036728695
 20
1911.797714141675
 30
0.0
 11
1161.412383467379
 21
1911.807059644225
 31
0.0
  0
LWPOLYLINE
  5
B32
330
23
100
AcDbEntity
  8
SANINDUSA
100
AcDbPolyline
 90
        3
 70
   128
 43
0.0
 10
1161.259951078251
 20
1911.81099391497
 10
1161.26112755473
 20
1911.810791184672
 10
1161.262161933735
 20
1911.810271394917
  0
LWPOLYLINE
  5
B33
330
23
100
AcDbEntity
  8
SANINDUSA
100
AcDbPolyline
 90
       38
 70
   128
 43
0.0
 10
1161.259951078251
 20
1911.81099391497
 10
1161.260459029034
 20
1911.810993087955
 10
1161.261448942974
 20
1911.810992260941
 10
1161.262952648953
 20
1911.810991322168
 10
1161.265027367428
 20
1911.810990092822
 10
1161.267620050267
 20
1911.810988572904
 10
1161.270621620968
 20
1911.810986926325
 10
1161.274074875668
 20
1911.810985354253
 10
1161.278076850728
 20
1911.810984020599
 10
1161.282503210858
 20
1911.810983052023
 10
1161.287187897519
 20
1911.810982530482
 10
1161.292211257771
 20
1911.810982351669
 10
1161.29769822295
 20
1911.810982172855
 10
1161.303465926007
 20
1911.810981479951
 10
1161.309295379475
 20
1911.810980340012
 10
1161.315310441807
 20
1911.810979438492
 10
1161.321651303128
 20
1911.810979065963
 10
1161.328098379925
 20
1911.810979252227
 10
1161.338286959485
 20
1911.810980846652
 10
1161.34347256358
 20
1911.81098223991
 10
1161.348624073819
 20
1911.81098416216
 10
1161.353771054104
 20
1911.810986665555
 10
1161.358833991841
 20
1911.810989660688
 10
1161.363885366276
 20
1911.810993609496
 10
1161.368798696354
 20
1911.810998005339
 10
1161.374411784962
 20
1911.811002237269
 10
1161.379761063412
 20
1911.811004777916
 10
1161.384949528531
 20
1911.811005485721
 10
1161.389782630757
 20
1911.811004405387
 10
1161.394075476483
 20
1911.811001805135
 10
1161.397974454716
 20
1911.81099815435
 10
1161.401544296101
 20
1911.810993780859
 10
1161.404641353444
 20
1911.810989198752
 10
1161.407181941823
 20
1911.810985473462
 10
1161.409232580021
 20
1911.810983022221
 10
1161.410815679387
 20
1911.810981129773
 10
1161.411855542019
 20
1911.810979080864
 10
1161.412384116009
 20
1911.810977329977
  0
LWPOLYLINE
  5
B34
330
23
100
AcDbEntity
  8
SANINDUSA
100
AcDbPolyline
 90
        3
 70
   128
 43
0.0
 10
1161.410146557644
 20
1911.810254340537
 10
1161.411215507344
 20
1911.810785417922
 10
1161.412384116009
 20
1911.810977329977
  0
LINE
  5
B36
330
23
100
AcDbEntity
  8
SANINDUSA
100
AcDbLine
 10
1161.262161933735
 20
1911.810271394917
 30
0.0
 11
1161.275868890773
 21
1911.800673720957
 31
0.0
  0
LINE
  5
B37
330
23
100
AcDbEntity
  8
SANINDUSA
100
AcDbLine
 10
1161.39646398129
 20
1911.800673720957
 30
0.0
 11
1161.410146557644
 21
1911.810254340537
 31
0.0
  0
LINE
  5
B39
330
23
100
AcDbEntity
  8
SANINDUSA
100
AcDbLine
 10
1161.259951078251
 20
1911.81099391497
 30
0.0
 11
1161.206547700718
 21
1911.81211266435
 31
0.0
  0
LWPOLYLINE
  5
B3A
330
23
100
AcDbEntity
  8
SANINDUSA
100
AcDbPolyline
 90
        3
 70
   128
 43
0.0
 10
1161.17880769904
 20
1911.812693608471
 10
1161.176188194111
 20
1911.812748467096
 10
1161.126564823941
 20
1911.813787979551
  0
LINE
  5
B3B
330
23
100
AcDbEntity
  8
SANINDUSA
100
AcDbLine
 10
1161.098824822262
 20
1911.814369050332
 30
0.0
 11
1161.046581887559
 21
1911.81546339161
 31
0.0
  0
LINE
  5
B3C
330
23
100
AcDbEntity
  8
SANINDUSA
100
AcDbLine
 10
1161.01884188588
 20
1911.816044462391
 30
0.0
 11
1160.966598951176
 21
1911.817138803669
 31
0.0
  0
LINE
  5
B3D
330
23
100
AcDbEntity
  8
SANINDUSA
100
AcDbLine
 10
1160.938858949498
 20
1911.81771987445
 30
0.0
 11
1160.886615955189
 21
1911.818814200827
 31
0.0
  0
LINE
  5
B3E
330
23
100
AcDbEntity
  8
SANINDUSA
100
AcDbLine
 10
1160.858875953511
 20
1911.819395271607
 30
0.0
 11
1160.806633018807
 21
1911.820489612885
 31
0.0
  0
LINE
  5
B3F
330
23
100
AcDbEntity
  8
SANINDUSA
100
AcDbLine
 10
1160.778893017128
 20
1911.821070676215
 30
0.0
 11
1160.702792727307
 21
1911.822664750286
 31
0.0
  0
LWPOLYLINE
  5
B49
330
23
100
AcDbEntity
  8
SANINDUSA
100
AcDbPolyline
 90
        3
 70
   128
 43
0.0
 10
1161.429937922314
 20
1911.813042310544
 10
1161.421260916546
 20
1911.811563027569
 10
1161.412384116009
 20
1911.810977329977
  0
ARC
  5
B8F
330
23
100
AcDbEntity
  8
SANINDUSA
100
AcDbCircle
 10
1161.018925585427
 20
1911.820043735436
 30
0.0
 40
0.00790015463091
100
AcDbArc
 50
268.8002237150979
 51
320.1173161602393
  0
ARC
  5
B91
330
23
100
AcDbEntity
  8
SANINDUSA
100
AcDbCircle
 10
1161.04666564244
 20
1911.819462513776
 30
0.0
 40
0.007900004943295
100
AcDbArc
 50
217.4822072166014
 51
268.7997995754854
  0
ARC
  5
B92
330
23
100
AcDbEntity
  8
SANINDUSA
100
AcDbCircle
 10
1160.938942721848
 20
1911.821718859879
 30
0.0
 40
0.0078998686021548
100
AcDbArc
 50
268.7996521233785
 51
320.1183010959616
  0
ARC
  5
B94
330
23
100
AcDbEntity
  8
SANINDUSA
100
AcDbCircle
 10
1160.966682689021
 20
1911.821137899645
 30
0.0
 40
0.0078999709529986
100
AcDbArc
 50
217.4820888024386
 51
268.7999179957493
  0
ARC
  5
B95
330
23
100
AcDbEntity
  8
SANINDUSA
100
AcDbCircle
 10
1161.098908552688
 20
1911.818368289588
 30
0.0
 40
0.0079001140461567
100
AcDbArc
 50
268.7999935589668
 51
320.1173191476418
  0
ARC
  5
B97
330
23
100
AcDbEntity
  8
SANINDUSA
100
AcDbCircle
 10
1161.126648555183
 20
1911.817786967967
 30
0.0
 40
0.0078998620302438
100
AcDbArc
 50
217.4818477086905
 51
268.8003817348704
  0
ARC
  5
B98
330
23
100
AcDbEntity
  8
SANINDUSA
100
AcDbCircle
 10
1160.858959767326
 20
1911.823394317692
 30
0.0
 40
0.0078999214159265
100
AcDbArc
 50
268.7997917571217
 51
320.1180478839161
  0
ARC
  5
B9A
330
23
100
AcDbEntity
  8
SANINDUSA
100
AcDbCircle
 10
1160.886699752639
 20
1911.822813296802
 30
0.0
 40
0.0078999709529984
100
AcDbArc
 50
217.4820888024386
 51
268.7999179957493
  0
ARC
  5
B9B
330
23
100
AcDbEntity
  8
SANINDUSA
100
AcDbCircle
 10
1161.178891485678
 20
1911.816692895352
 30
0.0
 40
0.0079001690390648
100
AcDbArc
 50
268.8000265259046
 51
320.1175543802212
  0
ARC
  5
B9D
330
23
100
AcDbEntity
  8
SANINDUSA
100
AcDbCircle
 10
1161.20663151661
 20
1911.816111789289
 30
0.0
 40
0.0079000077455037
100
AcDbArc
 50
217.4822169825826
 51
268.799789802599
  0
ARC
  5
B9E
330
23
100
AcDbEntity
  8
SANINDUSA
100
AcDbCircle
 10
1160.778976830943
 20
1911.825069722301
 30
0.0
 40
0.0078999214159259
100
AcDbArc
 50
268.7997917571217
 51
320.1180478839161
  0
ARC
  5
BA0
330
23
100
AcDbEntity
  8
SANINDUSA
100
AcDbCircle
 10
1160.806716833294
 20
1911.824488735051
 30
0.0
 40
0.007900004943295
100
AcDbArc
 50
217.4822072166014
 51
268.7997995754854
  0
ARC
  5
BA1
330
23
100
AcDbEntity
  8
SANINDUSA
100
AcDbCircle
 10
1161.018925582164
 20
1911.820043705214
 30
0.0
 40
0.0040001185262886
100
AcDbArc
 50
268.8010870709883
 51
320.1169089109278
  0
ARC
  5
BA2
330
23
100
AcDbEntity
  8
SANINDUSA
100
AcDbCircle
 10
1161.046665608048
 20
1911.819462503124
 30
0.0
 40
0.0039999877529873
100
AcDbArc
 50
217.4821591786416
 51
268.8007010843248
  0
ARC
  5
BA3
330
23
100
AcDbEntity
  8
SANINDUSA
100
AcDbCircle
 10
1160.938942645782
 20
1911.821719117272
 30
0.0
 40
0.0040001185262889
100
AcDbArc
 50
268.8010870709883
 51
320.1169089109278
  0
ARC
  5
BA4
330
23
100
AcDbEntity
  8
SANINDUSA
100
AcDbCircle
 10
1160.966682671665
 20
1911.821137915183
 30
0.0
 40
0.0039999877529873
100
AcDbArc
 50
217.4821591786416
 51
268.8007010843248
  0
ARC
  5
BA5
330
23
100
AcDbEntity
  8
SANINDUSA
100
AcDbCircle
 10
1161.098908608978
 20
1911.818368094345
 30
0.0
 40
0.0039999216531166
100
AcDbArc
 50
268.7997324167429
 51
320.1182635641069
  0
ARC
  5
BA6
330
23
100
AcDbEntity
  8
SANINDUSA
100
AcDbCircle
 10
1161.126648421187
 20
1911.817786726823
 30
0.0
 40
0.0039996210128454
100
AcDbArc
 50
217.4796124809887
 51
268.8023569877211
  0
ARC
  5
BA7
330
23
100
AcDbEntity
  8
SANINDUSA
100
AcDbCircle
 10
1160.858959696292
 20
1911.823394526443
 30
0.0
 40
0.0040001315095264
100
AcDbArc
 50
268.8004248136094
 51
320.1169791457675
  0
ARC
  5
BA8
330
23
100
AcDbEntity
  8
SANINDUSA
100
AcDbCircle
 10
1160.886699739408
 20
1911.822813317297
 30
0.0
 40
0.0039999940422669
100
AcDbArc
 50
217.4821795549362
 51
268.7997899067966
  0
ARC
  5
BA9
330
23
100
AcDbEntity
  8
SANINDUSA
100
AcDbCircle
 10
1161.178891450098
 20
1911.816692959348
 30
0.0
 40
0.0040002277035056
100
AcDbArc
 50
268.8003350990255
 51
320.1164768750083
  0
ARC
  5
BAA
330
23
100
AcDbEntity
  8
SANINDUSA
100
AcDbCircle
 10
1161.206631654236
 20
1911.816112115119
 30
0.0
 40
0.0040003318172282
100
AcDbArc
 50
217.4845035611344
 51
268.7974659060472
  0
ARC
  5
BAB
330
23
100
AcDbEntity
  8
SANINDUSA
100
AcDbCircle
 10
1160.77897675991
 20
1911.825069931051
 30
0.0
 40
0.0040001315095269
100
AcDbArc
 50
268.8004248136094
 51
320.1169791457675
  0
ARC
  5
BAC
330
23
100
AcDbEntity
  8
SANINDUSA
100
AcDbCircle
 10
1160.806716803026
 20
1911.824488729356
 30
0.0
 40
0.0039999940422669
100
AcDbArc
 50
217.4821795549362
 51
268.7997899067966
  0
ARC
  5
BAD
330
23
100
AcDbEntity
  8
SANINDUSA
100
AcDbCircle
 10
1161.200283340228
 20
1911.811244040097
 30
0.0
 40
0.0039996210128454
100
AcDbArc
 50
37.47961248098873
 51
88.80235698772102
  0
ARC
  5
BAE
330
23
100
AcDbEntity
  8
SANINDUSA
100
AcDbCircle
 10
1161.185030396337
 20
1911.811563288717
 30
0.0
 40
0.0039997836568296
100
AcDbArc
 50
88.79904577897384
 51
140.1196232429427
  0
ARC
  5
BAF
330
23
100
AcDbEntity
  8
SANINDUSA
100
AcDbCircle
 10
1161.04031728049
 20
1911.814594398159
 30
0.0
 40
0.0039999940422664
100
AcDbArc
 50
37.48217955493617
 51
88.79978990679658
  0
ARC
  5
BB0
330
23
100
AcDbEntity
  8
SANINDUSA
100
AcDbCircle
 10
1161.025064526699
 20
1911.814913948277
 30
0.0
 40
0.0039999468637012
100
AcDbArc
 50
88.79999355896678
 51
140.1182267728379
  0
ARC
  5
BB1
330
23
100
AcDbEntity
  8
SANINDUSA
100
AcDbCircle
 10
1161.120300114765
 20
1911.812918647742
 30
0.0
 40
0.0040003282669612
100
AcDbArc
 50
37.48461582339811
 51
88.79757352420096
  0
ARC
  5
BB2
330
23
100
AcDbEntity
  8
SANINDUSA
100
AcDbCircle
 10
1161.105047536293
 20
1911.813238354493
 30
0.0
 40
0.0040001195679999
100
AcDbArc
 50
88.80109423757168
 51
140.1169017434898
  0
ARC
  5
BB3
330
23
100
AcDbEntity
  8
SANINDUSA
100
AcDbCircle
 10
1160.960334354226
 20
1911.816269849234
 30
0.0
 40
0.00399996227146
100
AcDbArc
 50
37.48182425765164
 51
88.79992533192643
  0
ARC
  5
BB4
330
23
100
AcDbEntity
  8
SANINDUSA
100
AcDbCircle
 10
1160.945081590317
 20
1911.816589360336
 30
0.0
 40
0.0039999468637011
100
AcDbArc
 50
88.79999355896678
 51
140.1182267728379
  0
ARC
  5
BB5
330
23
100
AcDbEntity
  8
SANINDUSA
100
AcDbCircle
 10
1160.880351417843
 20
1911.817945246392
 30
0.0
 40
0.0039999622714604
100
AcDbArc
 50
37.48182425765164
 51
88.79992533192643
  0
ARC
  5
BB6
330
23
100
AcDbEntity
  8
SANINDUSA
100
AcDbCircle
 10
1160.865098625286
 20
1911.818264807153
 30
0.0
 40
0.003999897814675
100
AcDbArc
 50
88.79956837683305
 51
140.1184276094111
  0
ARC
  5
BB7
330
23
100
AcDbEntity
  8
SANINDUSA
100
AcDbCircle
 10
1160.800368471344
 20
1911.819620619434
 30
0.0
 40
0.0039999940422669
100
AcDbArc
 50
37.48217955493617
 51
88.79978990679658
  0
ARC
  5
BB8
330
23
100
AcDbEntity
  8
SANINDUSA
100
AcDbCircle
 10
1160.785115683964
 20
1911.819940243395
 30
0.0
 40
0.0039998737407067
100
AcDbArc
 50
88.79949037663342
 51
140.1187299509787
  0
ARC
  5
BB9
330
23
100
AcDbEntity
  8
SANINDUSA
100
AcDbCircle
 10
1161.040317298166
 20
1911.81459439166
 30
0.0
 40
0.0001000000692547
100
AcDbArc
 50
37.48225832137811
 51
88.80001073315375
  0
ARC
  5
BBA
330
23
100
AcDbEntity
  8
SANINDUSA
100
AcDbCircle
 10
1161.025064506636
 20
1911.814914033231
 30
0.0
 40
0.000099857784292
100
AcDbArc
 50
88.77735804017682
 51
140.1529940479745
  0
ARC
  5
BBB
330
23
100
AcDbEntity
  8
SANINDUSA
100
AcDbCircle
 10
1160.960334374377
 20
1911.816269823366
 30
0.0
 40
0.0000999831396351
100
AcDbArc
 50
37.47999329533632
 51
88.7990268719569
  0
ARC
  5
BBC
330
23
100
AcDbEntity
  8
SANINDUSA
100
AcDbCircle
 10
1160.945081647655
 20
1911.816589168342
 30
0.0
 40
0.0001001405007457
100
AcDbArc
 50
88.82510544190619
 51
140.0815643514314
  0
ARC
  5
BBE
330
23
100
AcDbEntity
  8
SANINDUSA
100
AcDbCircle
 10
1161.105047473105
 20
1911.813238568354
 30
0.0
 40
0.0000999099527059
100
AcDbArc
 50
88.79525397789308
 51
140.1440745021923
  0
ARC
  5
BBF
330
23
100
AcDbEntity
  8
SANINDUSA
100
AcDbCircle
 10
1161.200283209896
 20
1911.811243747691
 30
0.0
 40
0.0000999189599239
100
AcDbArc
 50
37.45684343495606
 51
88.81338090422387
  0
ARC
  5
BC0
330
23
100
AcDbEntity
  8
SANINDUSA
100
AcDbCircle
 10
1161.185030469092
 20
1911.811563163746
 30
0.0
 40
0.0000999099527059
100
AcDbArc
 50
88.79525397789308
 51
140.1440745021923
  0
ARC
  5
BC1
330
23
100
AcDbEntity
  8
SANINDUSA
100
AcDbCircle
 10
1160.880351437995
 20
1911.817945220523
 30
0.0
 40
0.0000999831396351
100
AcDbArc
 50
37.47999329533632
 51
88.7990268719569
  0
ARC
  5
BC2
330
23
100
AcDbEntity
  8
SANINDUSA
100
AcDbCircle
 10
1160.865098711273
 20
1911.8182645655
 30
0.0
 40
0.0001001405007457
100
AcDbArc
 50
88.82510544190619
 51
140.0815643514314
  0
ARC
  5
BC3
330
23
100
AcDbEntity
  8
SANINDUSA
100
AcDbCircle
 10
1160.800368498766
 20
1911.819620635395
 30
0.0
 40
0.0000999791542065
100
AcDbArc
 50
37.47433325910605
 51
88.83151266341357
  0
ARC
  5
BC4
330
23
100
AcDbEntity
  8
SANINDUSA
100
AcDbCircle
 10
1160.785115720587
 20
1911.819940089523
 30
0.0
 40
0.0001000222401541
100
AcDbArc
 50
88.79260283099592
 51
140.1140669493803
  0
LINE
  5
BC5
330
23
100
AcDbEntity
  8
SANINDUSA
100
AcDbLine
 10
1161.040319392389
 20
1911.814694369729
 30
0.0
 11
1161.025066637352
 21
1911.81501386828
 31
0.0
  0
LINE
  5
BC6
330
23
100
AcDbEntity
  8
SANINDUSA
100
AcDbLine
 10
1161.120302283124
 20
1911.813018952974
 30
0.0
 11
1161.105049573735
 21
1911.813338456221
 31
0.0
  0
LINE
  5
BC7
330
23
100
AcDbEntity
  8
SANINDUSA
100
AcDbLine
 10
1161.20028527911
 20
1911.811343645223
 30
0.0
 11
1161.185032569722
 21
1911.811663051613
 31
0.0
  0
LINE
  5
BC8
330
23
100
AcDbEntity
  8
SANINDUSA
100
AcDbLine
 10
1161.040401064709
 20
1911.818593514629
 30
0.0
 11
1161.025148295716
 21
1911.818913017877
 31
0.0
  0
LINE
  5
BC9
330
23
100
AcDbEntity
  8
SANINDUSA
100
AcDbLine
 10
1160.960418128327
 20
1911.820268934139
 30
0.0
 11
1160.945165359334
 21
1911.820588429936
 31
0.0
  0
LINE
  5
BCA
330
23
100
AcDbEntity
  8
SANINDUSA
100
AcDbLine
 10
1161.120384060696
 20
1911.81691809512
 30
0.0
 11
1161.105131232098
 21
1911.817237598367
 31
0.0
  0
LINE
  5
BCB
330
23
100
AcDbEntity
  8
SANINDUSA
100
AcDbLine
 10
1161.200366937474
 20
1911.815242787369
 30
0.0
 11
1161.185114228085
 21
1911.815562193759
 31
0.0
  0
LINE
  5
BCC
330
23
100
AcDbEntity
  8
SANINDUSA
100
AcDbLine
 10
1160.880435191945
 20
1911.821944331296
 30
0.0
 11
1160.865182422951
 21
1911.822263827093
 31
0.0
  0
LINE
  5
BCD
330
23
100
AcDbEntity
  8
SANINDUSA
100
AcDbLine
 10
1160.800452255562
 20
1911.823619735904
 30
0.0
 11
1160.785199486569
 21
1911.823939239152
 31
0.0
  0
LINE
  5
BCE
330
23
100
AcDbEntity
  8
SANINDUSA
100
AcDbLine
 10
1161.516286489056
 20
1911.906608697395
 30
0.0
 11
1161.518260983649
 21
1911.793486531444
 31
0.0
  0
LINE
  5
BD0
330
23
100
AcDbEntity
  8
SANINDUSA
100
AcDbLine
 10
1161.512387083045
 20
1911.90654063301
 30
0.0
 11
1161.514360615648
 21
1911.793486531444
 31
0.0
  0
ARC
  5
BD1
330
23
100
AcDbEntity
  8
SANINDUSA
100
AcDbCircle
 10
1161.50928755519
 20
1911.90648653055
 30
0.0
 40
0.0031000000000006
100
AcDbArc
 50
0.9999999969218754
 51
90.0
  0
LINE
  5
BD2
330
23
100
AcDbEntity
  8
SANINDUSA
100
AcDbLine
 10
1161.452926256644
 20
1911.90958653055
 30
0.0
 11
1161.50928755519
 21
1911.90958653055
 31
0.0
  0
ARC
  5
BD3
330
23
100
AcDbEntity
  8
SANINDUSA
100
AcDbCircle
 10
1161.452926256644
 20
1911.90648653055
 30
0.0
 40
0.0031000000000006
100
AcDbArc
 50
90.0
 51
177.9999999962464
  0
LINE
  5
BD4
330
23
100
AcDbEntity
  8
SANINDUSA
100
AcDbLine
 10
1161.447115146473
 20
1911.82890312142
 30
0.0
 11
1161.449828145081
 21
1911.90659471899
 31
0.0
  0
ARC
  5
BD5
330
23
100
AcDbEntity
  8
SANINDUSA
100
AcDbCircle
 10
1161.426227724192
 20
1911.829632655762
 30
0.0
 40
0.0209001586105011
100
AcDbArc
 50
282.6059668002671
 51
357.9996452484959
  0
LINE
  5
BD6
330
23
100
AcDbEntity
  8
SANINDUSA
100
AcDbLine
 10
1161.387862169102
 20
1911.785730948218
 30
0.0
 11
1161.399036728695
 21
1911.797714141675
 31
0.0
  0
LINE
  5
BD7
330
23
100
AcDbEntity
  8
SANINDUSA
100
AcDbLine
 10
1161.284470640973
 20
1911.785730948218
 30
0.0
 11
1161.387862169102
 21
1911.785730948218
 31
0.0
  0
LINE
  5
BD8
330
23
100
AcDbEntity
  8
SANINDUSA
100
AcDbLine
 10
1161.273296200589
 20
1911.797714141675
 30
0.0
 11
1161.284470640973
 21
1911.785730948218
 31
0.0
  0
ARC
  5
BD9
330
23
100
AcDbEntity
  8
SANINDUSA
100
AcDbCircle
 10
1160.703153183074
 20
1911.839665520955
 30
0.0
 40
0.0209045897662778
100
AcDbArc
 50
181.8977958611533
 51
268.7879896846056
  0
ARC
  5
BDA
330
23
100
AcDbEntity
  8
SANINDUSA
100
AcDbCircle
 10
1160.679161693045
 20
1911.83887116461
 30
0.0
 40
0.0031000472481496
100
AcDbArc
 50
1.886723752069583
 51
88.99970954867649
  0
LINE
  5
BDB
330
23
100
AcDbEntity
  8
SANINDUSA
100
AcDbLine
 10
1160.679215812043
 20
1911.841970739432
 30
0.0
 11
1160.229744264032
 21
1911.849816295298
 31
0.0
  0
ARC
  5
BDC
330
23
100
AcDbEntity
  8
SANINDUSA
100
AcDbCircle
 10
1160.229690161572
 20
1911.846716767443
 30
0.0
 40
0.0031000000000002
100
AcDbArc
 50
89.00000000307812
 51
154.6842608275599
  0
ARC
  5
BDD
330
23
100
AcDbEntity
  8
SANINDUSA
100
AcDbCircle
 10
1160.214322754529
 20
1911.853986072827
 30
0.0
 40
0.0138999999999999
100
AcDbArc
 50
269.0000000030781
 51
334.6842608275599
  0
LINE
  5
BDE
330
23
100
AcDbEntity
  8
SANINDUSA
100
AcDbLine
 10
1160.214080166079
 20
1911.840088189865
 30
0.0
 11
1160.20463968221
 21
1911.840252974124
 31
0.0
  0
ARC
  5
BDF
330
23
100
AcDbEntity
  8
SANINDUSA
100
AcDbCircle
 10
1160.205004437504
 20
1911.861149790953
 30
0.0
 40
0.0209000000000003
100
AcDbArc
 50
182.0000000037536
 51
269.0000000030781
  0
LINE
  5
BE0
330
23
100
AcDbEntity
  8
SANINDUSA
100
AcDbLine
 10
1160.182504726172
 20
1911.90659471899
 30
0.0
 11
1160.184117169219
 21
1911.860420391472
 31
0.0
  0
ARC
  5
BE1
330
23
100
AcDbEntity
  8
SANINDUSA
100
AcDbCircle
 10
1160.179406614608
 20
1911.90648653055
 30
0.0
 40
0.0031000000000006
100
AcDbArc
 50
2.000000003753602
 51
90.0
  0
LINE
  5
BE2
330
23
100
AcDbEntity
  8
SANINDUSA
100
AcDbLine
 10
1160.123045316874
 20
1911.90958653055
 30
0.0
 11
1160.179406614608
 21
1911.90958653055
 31
0.0
  0
ARC
  5
BE3
330
23
100
AcDbEntity
  8
SANINDUSA
100
AcDbCircle
 10
1160.123045316874
 20
1911.90648653055
 30
0.0
 40
0.0031000000000006
100
AcDbArc
 50
90.0
 51
179.0000000030781
  0
LINE
  5
BE4
330
23
100
AcDbEntity
  8
SANINDUSA
100
AcDbLine
 10
1160.117972422533
 20
1911.793486531452
 30
0.0
 11
1160.119945789019
 21
1911.90654063301
 31
0.0
  0
LINE
  5
BE6
330
23
100
AcDbEntity
  8
SANINDUSA
100
AcDbLine
 10
1160.114071828259
 20
1911.793486531464
 30
0.0
 11
1160.116046383008
 21
1911.906608697395
 31
0.0
  0
ARC
  5
BE7
330
23
100
AcDbEntity
  8
SANINDUSA
100
AcDbCircle
 10
1160.123045316874
 20
1911.90648653055
 30
0.0
 40
0.0070000000000005
100
AcDbArc
 50
90.0
 51
179.0000000030781
  0
LINE
  5
BE8
330
23
100
AcDbEntity
  8
SANINDUSA
100
AcDbLine
 10
1160.123045316874
 20
1911.91348653055
 30
0.0
 11
1160.179406614608
 21
1911.91348653055
 31
0.0
  0
ARC
  5
BE9
330
23
100
AcDbEntity
  8
SANINDUSA
100
AcDbCircle
 10
1160.179406614608
 20
1911.90648653055
 30
0.0
 40
0.0070000000000005
100
AcDbArc
 50
2.000000003753602
 51
90.0
  0
LINE
  5
BEA
330
23
100
AcDbEntity
  8
SANINDUSA
100
AcDbLine
 10
1160.186402350397
 20
1911.906730827027
 30
0.0
 11
1160.188014793445
 21
1911.860556499508
 31
0.0
  0
ARC
  5
BEB
330
23
100
AcDbEntity
  8
SANINDUSA
100
AcDbCircle
 10
1160.205004437504
 20
1911.861149790953
 30
0.0
 40
0.0170000000000006
100
AcDbArc
 50
182.0000000037536
 51
269.0000000030781
  0
LINE
  5
BEC
330
23
100
AcDbEntity
  8
SANINDUSA
100
AcDbLine
 10
1160.214148230464
 20
1911.843987595876
 30
0.0
 11
1160.204707746595
 21
1911.844152380135
 31
0.0
  0
ARC
  5
BED
330
23
100
AcDbEntity
  8
SANINDUSA
100
AcDbCircle
 10
1160.214322754529
 20
1911.853986072827
 30
0.0
 40
0.01
100
AcDbArc
 50
269.0000000030781
 51
334.6842608275599
  0
ARC
  5
BEE
330
23
100
AcDbEntity
  8
SANINDUSA
100
AcDbCircle
 10
1160.229690161572
 20
1911.846716767443
 30
0.0
 40
0.007
100
AcDbArc
 50
89.00000000307812
 51
154.6842608275599
  0
LINE
  5
BEF
330
23
100
AcDbEntity
  8
SANINDUSA
100
AcDbLine
 10
1160.679283880547
 20
1911.845870142349
 30
0.0
 11
1160.229812328417
 21
1911.85371570131
 31
0.0
  0
ARC
  5
BF0
330
23
100
AcDbEntity
  8
SANINDUSA
100
AcDbCircle
 10
1160.679161810538
 20
1911.838871324091
 30
0.0
 40
0.006999882719731
100
AcDbArc
 50
1.884984543525627
 51
89.00077599002434
  0
ARC
  5
BF1
330
23
100
AcDbEntity
  8
SANINDUSA
100
AcDbCircle
 10
1160.703152401881
 20
1911.839664771975
 30
0.0
 40
0.0170038261349261
100
AcDbArc
 50
181.8980920617315
 51
268.7879567827917
  0
LINE
  5
BF2
330
23
100
AcDbEntity
  8
SANINDUSA
100
AcDbLine
 10
1161.275868890773
 20
1911.800673720957
 30
0.0
 11
1161.286166393116
 21
1911.789630954631
 31
0.0
  0
LINE
  5
BF3
330
23
100
AcDbEntity
  8
SANINDUSA
100
AcDbLine
 10
1161.286166393116
 20
1911.789630954631
 30
0.0
 11
1161.386166416958
 21
1911.789630954631
 31
0.0
  0
LINE
  5
BF4
330
23
100
AcDbEntity
  8
SANINDUSA
100
AcDbLine
 10
1161.386166416958
 20
1911.789630954631
 30
0.0
 11
1161.39646398129
 21
1911.800673720957
 31
0.0
  0
ARC
  5
BF5
330
23
100
AcDbEntity
  8
SANINDUSA
100
AcDbCircle
 10
1161.426227900572
 20
1911.8296324724
 30
0.0
 40
0.0169999332864433
100
AcDbArc
 50
282.6055298084659
 51
358.0001529157696
  0
LINE
  5
BF6
330
23
100
AcDbEntity
  8
SANINDUSA
100
AcDbLine
 10
1161.443217479542
 20
1911.829039228626
 30
0.0
 11
1161.445930520855
 21
1911.906730827027
 31
0.0
  0
ARC
  5
BF7
330
23
100
AcDbEntity
  8
SANINDUSA
100
AcDbCircle
 10
1161.452926256644
 20
1911.90648653055
 30
0.0
 40
0.0070000000000005
100
AcDbArc
 50
90.0
 51
177.9999999962464
  0
LINE
  5
BF8
330
23
100
AcDbEntity
  8
SANINDUSA
100
AcDbLine
 10
1161.452926256644
 20
1911.91348653055
 30
0.0
 11
1161.50928755519
 21
1911.91348653055
 31
0.0
  0
ARC
  5
BF9
330
23
100
AcDbEntity
  8
SANINDUSA
100
AcDbCircle
 10
1161.50928755519
 20
1911.90648653055
 30
0.0
 40
0.0070000000000005
100
AcDbArc
 50
0.9999999969218754
 51
90.0
  0
LINE
  5
BFA
330
23
100
AcDbEntity
  8
SANINDUSA
100
AcDbLine
 10
1160.800370537594
 20
1911.819720593759
 30
0.0
 11
1160.785117828206
 21
1911.820040089556
 31
0.0
  0
LINE
  5
BFB
330
23
100
AcDbEntity
  8
SANINDUSA
100
AcDbLine
 10
1160.880353533581
 20
1911.8180451817
 30
0.0
 11
1160.865100764588
 21
1911.818364684947
 31
0.0
  0
LINE
  5
BFC
330
23
100
AcDbEntity
  8
SANINDUSA
100
AcDbLine
 10
1160.960336469964
 20
1911.816369784542
 30
0.0
 11
1160.94508370097
 21
1911.81668928779
 31
0.0
  0
LWPOLYLINE
  5
C2A
330
23
100
AcDbEntity
  8
SANINDUSA
100
AcDbPolyline
 90
       12
 70
   128
 43
0.0
 10
1160.214080163196
 20
1911.840088186332
 10
1160.214283660904
 20
1911.840084639855
 10
1160.214889996604
 20
1911.84007405258
 10
1160.215886839584
 20
1911.840056655474
 10
1160.217253894463
 20
1911.840032791265
 10
1160.218963363126
 20
1911.84000295169
 10
1160.22098044391
 20
1911.839967747696
 10
1160.223264091567
 20
1911.83992788709
 10
1160.225767836824
 20
1911.839884181984
 10
1160.228440732613
 20
1911.839837526448
 10
1160.231228389696
 20
1911.839788866707
 10
1160.234074071899
 20
1911.839739193686
  0
ARC
  5
C32
330
23
100
AcDbEntity
  8
SANINDUSA
100
AcDbCircle
 10
1160.702690460658
 20
1911.871874776926
 30
0.0
 40
0.0508954869930924
100
AcDbArc
 50
238.5837130966273
 51
257.5226282247105
  0
LINE
  5
C34
330
23
100
AcDbEntity
  8
SANINDUSA
100
AcDbLine
 10
1160.67421901076
 20
1911.82951201049
 30
0.0
 11
1160.676161055008
 21
1911.828440432382
 31
0.0
  0
LINE
  5
C35
330
23
100
AcDbEntity
  8
SANINDUSA
100
AcDbLine
 10
1160.671473216507
 20
1911.830689419835
 30
0.0
 11
1160.67421901076
 21
1911.82951201049
 31
0.0
  0
LWPOLYLINE
  5
C36
330
23
100
AcDbEntity
  8
SANINDUSA
100
AcDbPolyline
 90
        3
 70
   128
 43
0.0
 10
1160.663022839383
 20
1911.832251866826
 10
1160.667254292325
 20
1911.831831572123
 10
1160.671473228291
 20
1911.83068942047
  0
LINE
  5
C38
330
23
100
AcDbEntity
  8
SANINDUSA
100
AcDbLine
 10
1160.234074074349
 20
1911.839739194897
 30
0.0
 11
1160.663022815621
 21
1911.832251866767
 31
0.0
  0
LINE
  5
C45
330
23
100
AcDbEntity
  8
SANINDUSA
100
AcDbLine
 10
1160.179406614608
 20
1911.91348653055
 30
0.0
 11
1160.206390166937
 21
1911.91348653055
 31
0.0
  0
LINE
  5
C47
330
23
100
AcDbEntity
  8
SANINDUSA
100
AcDbLine
 10
1161.425942704315
 20
1911.91348653055
 30
0.0
 11
1161.452926256644
 21
1911.91348653055
 31
0.0
  0
LINE
  5
C48
330
23
100
AcDbEntity
  8
SANINDUSA
100
AcDbLine
 10
1160.206390166937
 20
1911.91348653055
 30
0.0
 11
1161.425942704315
 21
1911.91348653055
 31
0.0
  0
LINE
  5
C51
330
23
100
AcDbEntity
  8
SANINDUSA
100
AcDbLine
 10
1161.518260983649
 20
1911.793486531444
 30
0.0
 11
1161.395094400415
 21
1911.793486531444
 31
0.0
  0
LINE
  5
C52
330
23
100
AcDbEntity
  8
SANINDUSA
100
AcDbLine
 10
1161.277238487099
 20
1911.793486531137
 30
0.0
 11
1160.114071828259
 21
1911.793486531464
 31
0.0
  0
ENDSEC
  0
SECTION
  2
OBJECTS
  0
DICTIONARY
  5
C
330
0
100
AcDbDictionary
281
     1
  3
ACAD_COLOR
350
1C
  3
ACAD_GROUP
350
D
  3
ACAD_LAYOUT
350
1A
  3
ACAD_MATERIAL
350
1B
  3
ACAD_MLINESTYLE
350
17
  3
ACAD_PLOTSETTINGS
350
19
  3
ACAD_PLOTSTYLENAME
350
E
  3
ACAD_TABLESTYLE
350
1D
  3
ACDBHEADERROUNDTRIPXREC
350
6448
  3
AcDbVariableDictionary
350
6427
  0
DICTIONARY
  5
1C
102
{ACAD_REACTORS
330
C
102
}
330
C
100
AcDbDictionary
281
     1
  0
DICTIONARY
  5
D
102
{ACAD_REACTORS
330
C
102
}
330
C
100
AcDbDictionary
281
     1
  0
DICTIONARY
  5
1A
102
{ACAD_REACTORS
330
C
102
}
330
C
100
AcDbDictionary
281
     1
  3
Layout1
350
22
  3
Layout2
350
2A
  3
Model
350
26
  0
DICTIONARY
  5
1B
102
{ACAD_REACTORS
330
C
102
}
330
C
100
AcDbDictionary
281
     1
  0
DICTIONARY
  5
17
102
{ACAD_REACTORS
330
C
102
}
330
C
100
AcDbDictionary
281
     1
  3
Standard
350
18
  0
DICTIONARY
  5
19
102
{ACAD_REACTORS
330
C
102
}
330
C
100
AcDbDictionary
281
     1
  0
ACDBDICTIONARYWDFLT
  5
E
102
{ACAD_REACTORS
330
C
102
}
330
C
100
AcDbDictionary
281
     1
  3
Normal
350
F
100
AcDbDictionaryWithDefault
340
F
  0
DICTIONARY
  5
1D
102
{ACAD_REACTORS
330
C
102
}
330
C
100
AcDbDictionary
281
     1
  3
Standard
350
1E
  0
DICTIONARY
  5
6448
102
{ACAD_REACTORS
330
C
102
}
330
C
100
AcDbDictionary
281
     1
  0
DICTIONARY
  5
6427
102
{ACAD_REACTORS
330
C
102
}
330
C
100
AcDbDictionary
281
     1
  3
CTABLESTYLE
350
6428
  3
DIMASSOC
350
642A
  3
HIDETEXT
350
6429
  3
PROJECTNAME
350
642B
  0
LAYOUT
  5
22
102
{ACAD_XDICTIONARY
360
6449
102
}
102
{ACAD_REACTORS
330
1A
102
}
330
1A
100
AcDbPlotSettings
  1

  2
C:\Documents and Settings\Julio\Application Data\Autodesk\AutoCAD 2006\R16.2\enu\plotters\Default Windows System Printer.pc3
  4

  6

 40
0.0
 41
0.0
 42
0.0
 43
0.0
 44
0.0
 45
0.0
 46
0.0
 47
0.0
 48
0.0
 49
0.0
140
0.0
141
0.0
142
1.0
143
1.0
 70
   688
 72
     0
 73
     0
 74
     5
  7

 75
    16
147
1.0
148
0.0
149
0.0
100
AcDbLayout
  1
Layout1
 70
     1
 71
     1
 10
0.0
 20
0.0
 11
420.0
 21
297.0
 12
0.0
 22
0.0
 32
0.0
 14
1.000000000000000E+20
 24
1.000000000000000E+20
 34
1.000000000000000E+20
 15
-1.000000000000000E+20
 25
-1.000000000000000E+20
 35
-1.000000000000000E+20
146
0.0
 13
0.0
 23
0.0
 33
0.0
 16
1.0
 26
0.0
 36
0.0
 17
0.0
 27
1.0
 37
0.0
 76
     0
330
1F
  0
LAYOUT
  5
2A
102
{ACAD_XDICTIONARY
360
644D
102
}
102
{ACAD_REACTORS
330
1A
102
}
330
1A
100
AcDbPlotSettings
  1

  2
C:\Documents and Settings\Julio\Application Data\Autodesk\AutoCAD 2006\R16.2\enu\plotters\Default Windows System Printer.pc3
  4

  6

 40
0.0
 41
0.0
 42
0.0
 43
0.0
 44
0.0
 45
0.0
 46
0.0
 47
0.0
 48
0.0
 49
0.0
140
0.0
141
0.0
142
1.0
143
1.0
 70
   688
 72
     0
 73
     0
 74
     5
  7

 75
    16
147
1.0
148
0.0
149
0.0
100
AcDbLayout
  1
Layout2
 70
     1
 71
     2
 10
0.0
 20
0.0
 11
12.0
 21
9.0
 12
0.0
 22
0.0
 32
0.0
 14
0.0
 24
0.0
 34
0.0
 15
0.0
 25
0.0
 35
0.0
146
0.0
 13
0.0
 23
0.0
 33
0.0
 16
1.0
 26
0.0
 36
0.0
 17
0.0
 27
1.0
 37
0.0
 76
     0
330
27
  0
LAYOUT
  5
26
102
{ACAD_XDICTIONARY
360
644B
102
}
102
{ACAD_REACTORS
330
1A
102
}
330
1A
100
AcDbPlotSettings
  1

  2
C:\Documents and Settings\Julio\Application Data\Autodesk\AutoCAD 2006\R16.2\enu\plotters\Default Windows System Printer.pc3
  4

  6

 40
0.0
 41
0.0
 42
0.0
 43
0.0
 44
0.0
 45
0.0
 46
0.0
 47
0.0
 48
0.0
 49
0.0
140
0.0
141
0.0
142
1.0
143
1.0
 70
  1712
 72
     0
 73
     0
 74
     0
  7

 75
     0
147
1.0
148
0.0
149
0.0
100
AcDbLayout
  1
Model
 70
     1
 71
     0
 10
0.0
 20
0.0
 11
12.0
 21
9.0
 12
0.0
 22
0.0
 32
0.0
 14
0.0
 24
0.0
 34
0.0
 15
0.0
 25
0.0
 35
0.0
146
0.0
 13
0.0
 23
0.0
 33
0.0
 16
1.0
 26
0.0
 36
0.0
 17
0.0
 27
1.0
 37
0.0
 76
     0
330
23
  0
MLINESTYLE
  5
18
102
{ACAD_REACTORS
330
17
102
}
330
17
100
AcDbMlineStyle
  2
STANDARD
 70
     0
  3

 62
   256
 51
90.0
 52
90.0
 71
     2
 49
0.5
 62
   256
  6
BYLAYER
 49
-0.5
 62
   256
  6
BYLAYER
  0
ACDBPLACEHOLDER
  5
F
102
{ACAD_REACTORS
330
E
102
}
330
E
  0
TABLESTYLE
  5
1E
102
{ACAD_REACTORS
330
1D
102
}
330
1D
100
AcDbTableStyle
  3
Standard
 70
     0
 71
     0
 40
1.5
 41
1.5
280
     0
281
     0
  7
Standard
140
4.5
170
     2
 62
     0
 63
     7
283
     0
274
    -2
284
     1
 64
     0
275
    -2
285
     1
 65
     0
276
    -2
286
     1
 66
     0
277
    -2
287
     1
 67
     0
278
    -2
288
     1
 68
     0
279
    -2
289
     1
 69
     0
  7
Standard
140
6.0
170
     5
 62
     0
 63
     7
283
     0
274
    -2
284
     1
 64
     0
275
    -2
285
     1
 65
     0
276
    -2
286
     1
 66
     0
277
    -2
287
     1
 67
     0
278
    -2
288
     1
 68
     0
279
    -2
289
     1
 69
     0
  7
Standard
140
4.5
170
     5
 62
     0
 63
     7
283
     0
274
    -2
284
     1
 64
     0
275
    -2
285
     1
 65
     0
276
    -2
286
     1
 66
     0
277
    -2
287
     1
 67
     0
278
    -2
288
     1
 68
     0
279
    -2
289
     1
 69
     0
  0
DICTIONARYVAR
  5
6428
102
{ACAD_REACTORS
330
6427
102
}
330
6427
100
DictionaryVariables
280
     0
  1
STANDARD
  0
DICTIONARYVAR
  5
642A
102
{ACAD_REACTORS
330
6427
102
}
330
6427
100
DictionaryVariables
280
     0
  1
2
  0
DICTIONARYVAR
  5
6429
102
{ACAD_REACTORS
330
6427
102
}
330
6427
100
DictionaryVariables
280
     0
  1
1
  0
DICTIONARYVAR
  5
642B
102
{ACAD_REACTORS
330
6427
102
}
330
6427
100
DictionaryVariables
280
     0
  1

  0
DICTIONARY
  5
6449
330
22
100
AcDbDictionary
280
     1
281
     1
  3
ACAD_XREC_ROUNDTRIP
360
644A
  0
DICTIONARY
  5
644D
330
2A
100
AcDbDictionary
280
     1
281
     1
  3
ACAD_XREC_ROUNDTRIP
360
644E
  0
DICTIONARY
  5
644B
330
26
100
AcDbDictionary
280
     1
281
     1
  3
ACAD_XREC_ROUNDTRIP
360
644C
  0
XRECORD
  5
644A
102
{ACAD_REACTORS
330
6449
102
}
330
6449
100
AcDbXrecord
280
     1
102
SHADEPLOT
 70
     0
102
SHADEPLOTRESLEVEL
 70
     2
102
SHADEPLOTCUSTOMDPI
 70
   300
  0
XRECORD
  5
644E
102
{ACAD_REACTORS
330
644D
102
}
330
644D
100
AcDbXrecord
280
     1
102
SHADEPLOT
 70
     0
102
SHADEPLOTRESLEVEL
 70
     2
102
SHADEPLOTCUSTOMDPI
 70
   300
  0
XRECORD
  5
644C
102
{ACAD_REACTORS
330
644B
102
}
330
644B
100
AcDbXrecord
280
     1
102
SHADEPLOT
 70
     0
102
SHADEPLOTRESLEVEL
 70
     2
102
SHADEPLOTCUSTOMDPI
 70
   300
  0
ENDSEC
  0
EOF
