  0
SECTION
  2
HEADER
  9
$ACADVER
  1
AC1015
  9
$ACADMAINTVER
 70
    20
  9
$DWGCODEPAGE
  3
ANSI_1252
  9
$INSBASE
 10
0.0
 20
0.0
 30
0.0
  9
$EXTMIN
 10
2028.115981384761
 20
1738.727558153344
 30
0.0
  9
$EXTMAX
 10
2034.049072453881
 20
1739.627798285886
 30
0.0
  9
$LIMMIN
 10
0.0
 20
0.0
  9
$LIMMAX
 10
420.0
 20
297.0
  9
$ORTHOMODE
 70
     0
  9
$REGENMODE
 70
     1
  9
$FILLMODE
 70
     1
  9
$QTEXTMODE
 70
     0
  9
$MIRRTEXT
 70
     0
  9
$LTSCALE
 40
1.0
  9
$ATTMODE
 70
     1
  9
$TEXTSIZE
 40
2.5
  9
$TRACEWID
 40
1.0
  9
$TEXTSTYLE
  7
Standard
  9
$CLAYER
  8
0
  9
$CELTYPE
  6
ByLayer
  9
$CECOLOR
 62
   256
  9
$CELTSCALE
 40
1.0
  9
$DISPSILH
 70
     0
  9
$DIMSCALE
 40
1.0
  9
$DIMASZ
 40
2.5
  9
$DIMEXO
 40
0.625
  9
$DIMDLI
 40
3.75
  9
$DIMRND
 40
0.0
  9
$DIMDLE
 40
0.0
  9
$DIMEXE
 40
1.25
  9
$DIMTP
 40
0.0
  9
$DIMTM
 40
0.0
  9
$DIMTXT
 40
2.5
  9
$DIMCEN
 40
2.5
  9
$DIMTSZ
 40
0.0
  9
$DIMTOL
 70
     0
  9
$DIMLIM
 70
     0
  9
$DIMTIH
 70
     0
  9
$DIMTOH
 70
     0
  9
$DIMSE1
 70
     0
  9
$DIMSE2
 70
     0
  9
$DIMTAD
 70
     1
  9
$DIMZIN
 70
     8
  9
$DIMBLK
  1

  9
$DIMASO
 70
     1
  9
$DIMSHO
 70
     1
  9
$DIMPOST
  1

  9
$DIMAPOST
  1

  9
$DIMALT
 70
     0
  9
$DIMALTD
 70
     3
  9
$DIMALTF
 40
0.03937007874016
  9
$DIMLFAC
 40
1.0
  9
$DIMTOFL
 70
     1
  9
$DIMTVP
 40
0.0
  9
$DIMTIX
 70
     0
  9
$DIMSOXD
 70
     0
  9
$DIMSAH
 70
     0
  9
$DIMBLK1
  1

  9
$DIMBLK2
  1

  9
$DIMSTYLE
  2
ISO-25
  9
$DIMCLRD
 70
     0
  9
$DIMCLRE
 70
     0
  9
$DIMCLRT
 70
     0
  9
$DIMTFAC
 40
1.0
  9
$DIMGAP
 40
0.625
  9
$DIMJUST
 70
     0
  9
$DIMSD1
 70
     0
  9
$DIMSD2
 70
     0
  9
$DIMTOLJ
 70
     0
  9
$DIMTZIN
 70
     8
  9
$DIMALTZ
 70
     0
  9
$DIMALTTZ
 70
     0
  9
$DIMUPT
 70
     0
  9
$DIMDEC
 70
     2
  9
$DIMTDEC
 70
     2
  9
$DIMALTU
 70
     2
  9
$DIMALTTD
 70
     3
  9
$DIMTXSTY
  7
Standard
  9
$DIMAUNIT
 70
     0
  9
$DIMADEC
 70
     0
  9
$DIMALTRND
 40
0.0
  9
$DIMAZIN
 70
     0
  9
$DIMDSEP
 70
    44
  9
$DIMATFIT
 70
     3
  9
$DIMFRAC
 70
     0
  9
$DIMLDRBLK
  1

  9
$DIMLUNIT
 70
     2
  9
$DIMLWD
 70
    -2
  9
$DIMLWE
 70
    -2
  9
$DIMTMOVE
 70
     0
  9
$LUNITS
 70
     2
  9
$LUPREC
 70
     4
  9
$SKETCHINC
 40
1.0
  9
$FILLETRAD
 40
0.0
  9
$AUNITS
 70
     0
  9
$AUPREC
 70
     0
  9
$MENU
  1
.
  9
$ELEVATION
 40
0.0
  9
$PELEVATION
 40
0.0
  9
$THICKNESS
 40
0.0
  9
$LIMCHECK
 70
     0
  9
$CHAMFERA
 40
0.0
  9
$CHAMFERB
 40
0.0
  9
$CHAMFERC
 40
0.0
  9
$CHAMFERD
 40
0.0
  9
$SKPOLY
 70
     0
  9
$TDCREATE
 40
2454930.720482130
  9
$TDUCREATE
 40
2454930.678815463
  9
$TDUPDATE
 40
2454930.723038009
  9
$TDUUPDATE
 40
2454930.681371342
  9
$TDINDWG
 40
0.0025564236
  9
$TDUSRTIMER
 40
0.0025564236
  9
$USRTIMER
 70
     1
  9
$ANGBASE
 50
0.0
  9
$ANGDIR
 70
     0
  9
$PDMODE
 70
     0
  9
$PDSIZE
 40
0.0
  9
$PLINEWID
 40
0.0
  9
$SPLFRAME
 70
     0
  9
$SPLINETYPE
 70
     6
  9
$SPLINESEGS
 70
     8
  9
$HANDSEED
  5
794A
  9
$SURFTAB1
 70
     6
  9
$SURFTAB2
 70
     6
  9
$SURFTYPE
 70
     6
  9
$SURFU
 70
     6
  9
$SURFV
 70
     6
  9
$UCSBASE
  2

  9
$UCSNAME
  2

  9
$UCSORG
 10
0.0
 20
0.0
 30
0.0
  9
$UCSXDIR
 10
1.0
 20
0.0
 30
0.0
  9
$UCSYDIR
 10
0.0
 20
1.0
 30
0.0
  9
$UCSORTHOREF
  2

  9
$UCSORTHOVIEW
 70
     0
  9
$UCSORGTOP
 10
0.0
 20
0.0
 30
0.0
  9
$UCSORGBOTTOM
 10
0.0
 20
0.0
 30
0.0
  9
$UCSORGLEFT
 10
0.0
 20
0.0
 30
0.0
  9
$UCSORGRIGHT
 10
0.0
 20
0.0
 30
0.0
  9
$UCSORGFRONT
 10
0.0
 20
0.0
 30
0.0
  9
$UCSORGBACK
 10
0.0
 20
0.0
 30
0.0
  9
$PUCSBASE
  2

  9
$PUCSNAME
  2

  9
$PUCSORG
 10
0.0
 20
0.0
 30
0.0
  9
$PUCSXDIR
 10
1.0
 20
0.0
 30
0.0
  9
$PUCSYDIR
 10
0.0
 20
1.0
 30
0.0
  9
$PUCSORTHOREF
  2

  9
$PUCSORTHOVIEW
 70
     0
  9
$PUCSORGTOP
 10
0.0
 20
0.0
 30
0.0
  9
$PUCSORGBOTTOM
 10
0.0
 20
0.0
 30
0.0
  9
$PUCSORGLEFT
 10
0.0
 20
0.0
 30
0.0
  9
$PUCSORGRIGHT
 10
0.0
 20
0.0
 30
0.0
  9
$PUCSORGFRONT
 10
0.0
 20
0.0
 30
0.0
  9
$PUCSORGBACK
 10
0.0
 20
0.0
 30
0.0
  9
$USERI1
 70
     0
  9
$USERI2
 70
     0
  9
$USERI3
 70
     0
  9
$USERI4
 70
     0
  9
$USERI5
 70
     0
  9
$USERR1
 40
0.0
  9
$USERR2
 40
0.0
  9
$USERR3
 40
0.0
  9
$USERR4
 40
0.0
  9
$USERR5
 40
0.0
  9
$WORLDVIEW
 70
     1
  9
$SHADEDGE
 70
     3
  9
$SHADEDIF
 70
    70
  9
$TILEMODE
 70
     1
  9
$MAXACTVP
 70
    64
  9
$PINSBASE
 10
0.0
 20
0.0
 30
0.0
  9
$PLIMCHECK
 70
     0
  9
$PEXTMIN
 10
1.000000000000000E+20
 20
1.000000000000000E+20
 30
1.000000000000000E+20
  9
$PEXTMAX
 10
-1.000000000000000E+20
 20
-1.000000000000000E+20
 30
-1.000000000000000E+20
  9
$PLIMMIN
 10
0.0
 20
0.0
  9
$PLIMMAX
 10
420.0
 20
297.0
  9
$UNITMODE
 70
     0
  9
$VISRETAIN
 70
     1
  9
$PLINEGEN
 70
     0
  9
$PSLTSCALE
 70
     1
  9
$TREEDEPTH
 70
  3020
  9
$CMLSTYLE
  2
Standard
  9
$CMLJUST
 70
     0
  9
$CMLSCALE
 40
20.0
  9
$PROXYGRAPHICS
 70
     1
  9
$MEASUREMENT
 70
     1
  9
$CELWEIGHT
370
    -1
  9
$ENDCAPS
280
     0
  9
$JOINSTYLE
280
     0
  9
$LWDISPLAY
290
     0
  9
$INSUNITS
 70
     4
  9
$HYPERLINKBASE
  1

  9
$STYLESHEET
  1

  9
$XEDIT
290
     1
  9
$CEPSNTYPE
380
     0
  9
$PSTYLEMODE
290
     1
  9
$FINGERPRINTGUID
  2
{D38897EB-D30B-404E-AE8E-43C593CF5E83}
  9
$VERSIONGUID
  2
{687AB47E-7AE7-4118-919C-486F951C999E}
  9
$EXTNAMES
290
     1
  9
$PSVPSCALE
 40
0.0
  9
$OLESTARTUP
290
     0
  0
ENDSEC
  0
SECTION
  2
CLASSES
  0
CLASS
  1
ACDBDICTIONARYWDFLT
  2
AcDbDictionaryWithDefault
  3
ObjectDBX Classes
 90
        0
280
     0
281
     0
  0
CLASS
  1
TABLESTYLE
  2
AcDbTableStyle
  3
ObjectDBX Classes
 90
     2047
280
     0
281
     0
  0
CLASS
  1
DIMASSOC
  2
AcDbDimAssoc
  3
"AcDbDimAssoc|Product Desc:     AcDim ARX App For Dimension|Company:          Autodesk, Inc.|WEB Address:      www.autodesk.com"
 90
        0
280
     0
281
     0
  0
CLASS
  1
SORTENTSTABLE
  2
AcDbSortentsTable
  3
ObjectDBX Classes
 90
        0
280
     0
281
     0
  0
CLASS
  1
DICTIONARYVAR
  2
AcDbDictionaryVar
  3
ObjectDBX Classes
 90
        0
280
     0
281
     0
  0
CLASS
  1
ACDBPLACEHOLDER
  2
AcDbPlaceHolder
  3
ObjectDBX Classes
 90
        0
280
     0
281
     0
  0
CLASS
  1
LAYOUT
  2
AcDbLayout
  3
ObjectDBX Classes
 90
        0
280
     0
281
     0
  0
ENDSEC
  0
SECTION
  2
TABLES
  0
TABLE
  2
VPORT
  5
8
330
0
100
AcDbSymbolTable
 70
     8
  0
VPORT
  5
7942
330
8
100
AcDbSymbolTableRecord
100
AcDbViewportTableRecord
  2
*Active
 70
     0
 10
0.0
 20
0.0
 11
1.0
 21
1.0
 12
2031.082526919321
 22
1739.177678219615
 13
0.0
 23
0.0
 14
10.0
 24
10.0
 15
10.0
 25
10.0
 16
0.0
 26
0.0
 36
1.0
 17
0.0
 27
0.0
 37
0.0
 40
3.717549467102826
 41
1.602030456852791
 42
50.0
 43
0.0
 44
0.0
 50
0.0
 51
0.0
 71
     0
 72
  1000
 73
     1
 74
     3
 75
     0
 76
     0
 77
     0
 78
     0
281
     0
 65
     1
110
0.0
120
0.0
130
0.0
111
1.0
121
0.0
131
0.0
112
0.0
122
1.0
132
0.0
 79
     0
146
0.0
  0
ENDTAB
  0
TABLE
  2
LTYPE
  5
5
330
0
100
AcDbSymbolTable
 70
     3
  0
LTYPE
  5
14
330
5
100
AcDbSymbolTableRecord
100
AcDbLinetypeTableRecord
  2
ByBlock
 70
     0
  3

 72
    65
 73
     0
 40
0.0
  0
LTYPE
  5
15
330
5
100
AcDbSymbolTableRecord
100
AcDbLinetypeTableRecord
  2
ByLayer
 70
     0
  3

 72
    65
 73
     0
 40
0.0
  0
LTYPE
  5
16
330
5
100
AcDbSymbolTableRecord
100
AcDbLinetypeTableRecord
  2
Continuous
 70
     0
  3
Solid line
 72
    65
 73
     0
 40
0.0
  0
LTYPE
  5
2E2
330
5
100
AcDbSymbolTableRecord
100
AcDbLinetypeTableRecord
  2
DASHDOT
 70
     0
  3
Dash dot __ . __ . __ . __ . __ . __ . __ . __
 72
    65
 73
     4
 40
25.4
 49
12.7
 74
     0
 49
-6.349999999999999
 74
     0
 49
0.0
 74
     0
 49
-6.349999999999999
 74
     0
  0
LTYPE
  5
2E3
330
5
100
AcDbSymbolTableRecord
100
AcDbLinetypeTableRecord
  2
HIDDEN
 70
     0
  3
Hidden __ __ __ __ __ __ __ __ __ __ __ __ __ _
 72
    65
 73
     2
 40
9.524999999999998
 49
6.349999999999999
 74
     0
 49
-3.174999999999999
 74
     0
  0
ENDTAB
  0
TABLE
  2
LAYER
  5
2
102
{ACAD_XDICTIONARY
360
2F3
102
}
330
0
100
AcDbSymbolTable
 70
     9
  0
LAYER
  5
10
330
2
100
AcDbSymbolTableRecord
100
AcDbLayerTableRecord
  2
0
 70
     0
 62
     7
  6
Continuous
370
    -3
390
F
  0
LAYER
  5
2E4
330
2
100
AcDbSymbolTableRecord
100
AcDbLayerTableRecord
  2
1
 70
     0
 62
     1
  6
Continuous
370
    -3
390
F
  0
LAYER
  5
2E5
330
2
100
AcDbSymbolTableRecord
100
AcDbLayerTableRecord
  2
4
 70
     0
 62
     4
  6
Continuous
370
    -3
390
F
  0
LAYER
  5
2E6
330
2
100
AcDbSymbolTableRecord
100
AcDbLayerTableRecord
  2
cen
 70
     0
 62
     7
  6
DASHDOT
370
    -3
390
F
  0
LAYER
  5
2E7
330
2
100
AcDbSymbolTableRecord
100
AcDbLayerTableRecord
  2
9
 70
     0
 62
     9
  6
Continuous
370
    -3
390
F
  0
LAYER
  5
2E8
330
2
100
AcDbSymbolTableRecord
100
AcDbLayerTableRecord
  2
cotas
 70
     0
 62
     1
  6
Continuous
370
    -3
390
F
  0
LAYER
  5
2E9
330
2
100
AcDbSymbolTableRecord
100
AcDbLayerTableRecord
  2
Defpoints
 70
     0
 62
     7
  6
Continuous
290
     0
370
    -3
390
F
  0
LAYER
  5
2EA
330
2
100
AcDbSymbolTableRecord
100
AcDbLayerTableRecord
  2
SANINDUSA
 70
     0
 62
     3
  6
Continuous
370
    -3
390
F
  0
LAYER
  5
2EB
330
2
100
AcDbSymbolTableRecord
100
AcDbLayerTableRecord
  2
hid1
 70
     0
 62
     9
  6
HIDDEN
370
    -3
390
F
1001
AcAecLayerStandard
1000

1000

  0
ENDTAB
  0
TABLE
  2
STYLE
  5
3
330
0
100
AcDbSymbolTable
 70
     2
  0
STYLE
  5
11
330
3
100
AcDbSymbolTableRecord
100
AcDbTextStyleTableRecord
  2
Standard
 70
     0
 40
0.0
 41
1.0
 50
0.0
 71
     0
 42
2.5
  3
txt
  4

  0
STYLE
  5
2EC
330
3
100
AcDbSymbolTableRecord
100
AcDbTextStyleTableRecord
  2
SANINDUSA
 70
     0
 40
0.0
 41
1.0
 50
0.0
 71
     0
 42
2.5
  3
verdana.TTF
  4

1001
ACAD
1000
Verdana
1071
       34
  0
ENDTAB
  0
TABLE
  2
VIEW
  5
6
330
0
100
AcDbSymbolTable
 70
     0
  0
ENDTAB
  0
TABLE
  2
UCS
  5
7
330
0
100
AcDbSymbolTable
 70
     0
  0
ENDTAB
  0
TABLE
  2
APPID
  5
9
330
0
100
AcDbSymbolTable
 70
     6
  0
APPID
  5
12
330
9
100
AcDbSymbolTableRecord
100
AcDbRegAppTableRecord
  2
ACAD
 70
     0
  0
APPID
  5
2EE
330
9
100
AcDbSymbolTableRecord
100
AcDbRegAppTableRecord
  2
ACAD_DSTYLE_DIMEXT_LENGTH
 70
     0
  0
APPID
  5
2EF
330
9
100
AcDbSymbolTableRecord
100
AcDbRegAppTableRecord
  2
ACAD_DSTYLE_DIMEXT_ENABLED
 70
     0
  0
APPID
  5
2F0
330
9
100
AcDbSymbolTableRecord
100
AcDbRegAppTableRecord
  2
ACAD_DSTYLE_DIMJOGGED_JOGANGLE_SYMBOL
 70
     0
  0
APPID
  5
2F1
330
9
100
AcDbSymbolTableRecord
100
AcDbRegAppTableRecord
  2
ACAD_DSTYLE_DIMARC_LENGTH_SYMBOL
 70
     0
  0
APPID
  5
2F2
330
9
100
AcDbSymbolTableRecord
100
AcDbRegAppTableRecord
  2
AcAecLayerStandard
 70
     0
  0
ENDTAB
  0
TABLE
  2
DIMSTYLE
  5
A
330
0
100
AcDbSymbolTable
 70
     2
100
AcDbDimStyleTable
 71
     0
  0
DIMSTYLE
105
2B
330
A
100
AcDbSymbolTableRecord
100
AcDbDimStyleTableRecord
  2
ISO-25
 70
     0
 41
2.5
 42
0.625
 43
3.75
 44
1.25
 73
     0
 74
     0
 77
     1
 78
     8
140
2.5
141
2.5
143
0.03937007874016
147
0.625
171
     3
172
     1
271
     2
272
     2
274
     3
278
    44
283
     0
284
     8
340
11
  0
DIMSTYLE
105
2ED
102
{ACAD_REACTORS
330
2FE
330
301
330
302
330
303
330
304
330
306
330
318
330
31B
330
31E
330
321
330
322
330
325
330
328
330
329
330
32A
330
32B
330
32C
330
32D
330
32E
330
330
330
332
330
335
330
338
330
339
330
33E
330
341
330
342
330
343
330
344
330
345
330
346
330
354
330
35D
330
360
330
363
330
366
330
367
330
368
330
36B
330
36E
330
371
330
374
330
375
330
376
330
377
330
37A
330
37D
330
37E
330
381
330
382
330
383
330
384
330
385
330
386
330
387
330
388
330
389
330
38C
330
3B3
330
7FA
330
806
330
809
102
}
330
A
100
AcDbSymbolTableRecord
100
AcDbDimStyleTableRecord
  2
SANINDUSA
 70
     0
 40
5.0
 41
2.0
 42
1.0
 43
1.0
 44
1.0
 73
     0
 74
     0
 77
     1
 78
     8
140
2.0
141
0.0
143
0.03937007874016
147
1.0
171
     3
172
     1
176
   256
177
   256
178
   256
179
     1
271
     1
272
     1
274
     3
278
    44
283
     0
284
     8
340
2EC
371
    -1
372
    -1
1001
ACAD_DSTYLE_DIMEXT_LENGTH
1070
   378
1040
1.0
1001
ACAD_DSTYLE_DIMEXT_ENABLED
1070
   383
1070
     0
1001
ACAD_DSTYLE_DIMARC_LENGTH_SYMBOL
1070
   379
1070
     0
1001
ACAD_DSTYLE_DIMJOGGED_JOGANGLE_SYMBOL
1070
   384
1040
1.570796326794896
  0
ENDTAB
  0
TABLE
  2
BLOCK_RECORD
  5
1
330
0
100
AcDbSymbolTable
 70
   126
  0
BLOCK_RECORD
  5
23
330
1
100
AcDbSymbolTableRecord
100
AcDbBlockTableRecord
  2
*Model_Space
340
26
  0
BLOCK_RECORD
  5
1F
330
1
100
AcDbSymbolTableRecord
100
AcDbBlockTableRecord
  2
*Paper_Space
340
22
  0
BLOCK_RECORD
  5
27
330
1
100
AcDbSymbolTableRecord
100
AcDbBlockTableRecord
  2
*Paper_Space0
340
2A
  0
BLOCK_RECORD
  5
2F
330
1
100
AcDbSymbolTableRecord
100
AcDbBlockTableRecord
  2
*D1
340
0
  0
BLOCK_RECORD
  5
3B
330
1
100
AcDbSymbolTableRecord
100
AcDbBlockTableRecord
  2
*D2
340
0
  0
BLOCK_RECORD
  5
47
330
1
100
AcDbSymbolTableRecord
100
AcDbBlockTableRecord
  2
*D3
340
0
  0
BLOCK_RECORD
  5
53
330
1
100
AcDbSymbolTableRecord
100
AcDbBlockTableRecord
  2
*D4
340
0
  0
BLOCK_RECORD
  5
5F
330
1
100
AcDbSymbolTableRecord
100
AcDbBlockTableRecord
  2
*D5
340
0
  0
BLOCK_RECORD
  5
68
330
1
100
AcDbSymbolTableRecord
100
AcDbBlockTableRecord
  2
*D6
340
0
  0
BLOCK_RECORD
  5
70
330
1
100
AcDbSymbolTableRecord
100
AcDbBlockTableRecord
  2
*D7
340
0
  0
BLOCK_RECORD
  5
78
330
1
100
AcDbSymbolTableRecord
100
AcDbBlockTableRecord
  2
*D8
340
0
  0
BLOCK_RECORD
  5
81
330
1
100
AcDbSymbolTableRecord
100
AcDbBlockTableRecord
  2
*D9
340
0
  0
BLOCK_RECORD
  5
89
330
1
100
AcDbSymbolTableRecord
100
AcDbBlockTableRecord
  2
*D10
340
0
  0
BLOCK_RECORD
  5
92
330
1
100
AcDbSymbolTableRecord
100
AcDbBlockTableRecord
  2
*D11
340
0
  0
BLOCK_RECORD
  5
9B
330
1
100
AcDbSymbolTableRecord
100
AcDbBlockTableRecord
  2
*D12
340
0
  0
BLOCK_RECORD
  5
A7
330
1
100
AcDbSymbolTableRecord
100
AcDbBlockTableRecord
  2
*D13
340
0
  0
BLOCK_RECORD
  5
AF
330
1
100
AcDbSymbolTableRecord
100
AcDbBlockTableRecord
  2
*D14
340
0
  0
BLOCK_RECORD
  5
B7
330
1
100
AcDbSymbolTableRecord
100
AcDbBlockTableRecord
  2
*D15
340
0
  0
BLOCK_RECORD
  5
C4
330
1
100
AcDbSymbolTableRecord
100
AcDbBlockTableRecord
  2
*D16
340
0
  0
BLOCK_RECORD
  5
D1
330
1
100
AcDbSymbolTableRecord
100
AcDbBlockTableRecord
  2
*D17
340
0
  0
BLOCK_RECORD
  5
E3
330
1
100
AcDbSymbolTableRecord
100
AcDbBlockTableRecord
  2
*D18
340
0
  0
BLOCK_RECORD
  5
EF
330
1
100
AcDbSymbolTableRecord
100
AcDbBlockTableRecord
  2
*D19
340
0
  0
BLOCK_RECORD
  5
FC
330
1
100
AcDbSymbolTableRecord
100
AcDbBlockTableRecord
  2
*D20
340
0
  0
BLOCK_RECORD
  5
108
330
1
100
AcDbSymbolTableRecord
100
AcDbBlockTableRecord
  2
*D21
340
0
  0
BLOCK_RECORD
  5
114
330
1
100
AcDbSymbolTableRecord
100
AcDbBlockTableRecord
  2
*D22
340
0
  0
BLOCK_RECORD
  5
122
330
1
100
AcDbSymbolTableRecord
100
AcDbBlockTableRecord
  2
*D23
340
0
  0
BLOCK_RECORD
  5
130
330
1
100
AcDbSymbolTableRecord
100
AcDbBlockTableRecord
  2
*D24
340
0
  0
BLOCK_RECORD
  5
13C
330
1
100
AcDbSymbolTableRecord
100
AcDbBlockTableRecord
  2
*D25
340
0
  0
BLOCK_RECORD
  5
145
330
1
100
AcDbSymbolTableRecord
100
AcDbBlockTableRecord
  2
*D26
340
0
  0
BLOCK_RECORD
  5
14E
330
1
100
AcDbSymbolTableRecord
100
AcDbBlockTableRecord
  2
*D27
340
0
  0
BLOCK_RECORD
  5
156
330
1
100
AcDbSymbolTableRecord
100
AcDbBlockTableRecord
  2
*D28
340
0
  0
BLOCK_RECORD
  5
15F
330
1
100
AcDbSymbolTableRecord
100
AcDbBlockTableRecord
  2
*D29
340
0
  0
BLOCK_RECORD
  5
167
330
1
100
AcDbSymbolTableRecord
100
AcDbBlockTableRecord
  2
*D30
340
0
  0
BLOCK_RECORD
  5
173
330
1
100
AcDbSymbolTableRecord
100
AcDbBlockTableRecord
  2
*D31
340
0
  0
BLOCK_RECORD
  5
17F
330
1
100
AcDbSymbolTableRecord
100
AcDbBlockTableRecord
  2
*D32
340
0
  0
BLOCK_RECORD
  5
18B
330
1
100
AcDbSymbolTableRecord
100
AcDbBlockTableRecord
  2
*D33
340
0
  0
BLOCK_RECORD
  5
197
330
1
100
AcDbSymbolTableRecord
100
AcDbBlockTableRecord
  2
*D34
340
0
  0
BLOCK_RECORD
  5
1A3
330
1
100
AcDbSymbolTableRecord
100
AcDbBlockTableRecord
  2
*D35
340
0
  0
BLOCK_RECORD
  5
1AF
330
1
100
AcDbSymbolTableRecord
100
AcDbBlockTableRecord
  2
*D36
340
0
  0
BLOCK_RECORD
  5
1B7
330
1
100
AcDbSymbolTableRecord
100
AcDbBlockTableRecord
  2
*D37
340
0
  0
BLOCK_RECORD
  5
1BF
330
1
100
AcDbSymbolTableRecord
100
AcDbBlockTableRecord
  2
*D38
340
0
  0
BLOCK_RECORD
  5
1CC
330
1
100
AcDbSymbolTableRecord
100
AcDbBlockTableRecord
  2
*D39
340
0
  0
BLOCK_RECORD
  5
1D9
330
1
100
AcDbSymbolTableRecord
100
AcDbBlockTableRecord
  2
*D40
340
0
  0
BLOCK_RECORD
  5
1E5
330
1
100
AcDbSymbolTableRecord
100
AcDbBlockTableRecord
  2
*D41
340
0
  0
BLOCK_RECORD
  5
1F1
330
1
100
AcDbSymbolTableRecord
100
AcDbBlockTableRecord
  2
*D42
340
0
  0
BLOCK_RECORD
  5
1FD
330
1
100
AcDbSymbolTableRecord
100
AcDbBlockTableRecord
  2
*D43
340
0
  0
BLOCK_RECORD
  5
209
330
1
100
AcDbSymbolTableRecord
100
AcDbBlockTableRecord
  2
*D44
340
0
  0
BLOCK_RECORD
  5
215
330
1
100
AcDbSymbolTableRecord
100
AcDbBlockTableRecord
  2
*D45
340
0
  0
BLOCK_RECORD
  5
221
330
1
100
AcDbSymbolTableRecord
100
AcDbBlockTableRecord
  2
*D46
340
0
  0
BLOCK_RECORD
  5
22D
330
1
100
AcDbSymbolTableRecord
100
AcDbBlockTableRecord
  2
*D47
340
0
  0
BLOCK_RECORD
  5
239
330
1
100
AcDbSymbolTableRecord
100
AcDbBlockTableRecord
  2
*D48
340
0
  0
BLOCK_RECORD
  5
245
330
1
100
AcDbSymbolTableRecord
100
AcDbBlockTableRecord
  2
*D49
340
0
  0
BLOCK_RECORD
  5
251
330
1
100
AcDbSymbolTableRecord
100
AcDbBlockTableRecord
  2
*D50
340
0
  0
BLOCK_RECORD
  5
25D
330
1
100
AcDbSymbolTableRecord
100
AcDbBlockTableRecord
  2
*D51
340
0
  0
BLOCK_RECORD
  5
269
330
1
100
AcDbSymbolTableRecord
100
AcDbBlockTableRecord
  2
*D52
340
0
  0
BLOCK_RECORD
  5
275
330
1
100
AcDbSymbolTableRecord
100
AcDbBlockTableRecord
  2
*D53
340
0
  0
BLOCK_RECORD
  5
281
330
1
100
AcDbSymbolTableRecord
100
AcDbBlockTableRecord
  2
*D54
340
0
  0
BLOCK_RECORD
  5
28D
330
1
100
AcDbSymbolTableRecord
100
AcDbBlockTableRecord
  2
*D55
340
0
  0
BLOCK_RECORD
  5
299
330
1
100
AcDbSymbolTableRecord
100
AcDbBlockTableRecord
  2
*D56
340
0
  0
BLOCK_RECORD
  5
2A5
330
1
100
AcDbSymbolTableRecord
100
AcDbBlockTableRecord
  2
*D57
340
0
  0
BLOCK_RECORD
  5
2AE
330
1
100
AcDbSymbolTableRecord
100
AcDbBlockTableRecord
  2
*D58
340
0
  0
BLOCK_RECORD
  5
2B7
330
1
100
AcDbSymbolTableRecord
100
AcDbBlockTableRecord
  2
*D59
340
0
  0
BLOCK_RECORD
  5
2C2
330
1
100
AcDbSymbolTableRecord
100
AcDbBlockTableRecord
  2
*D60
340
0
  0
BLOCK_RECORD
  5
2CE
330
1
100
AcDbSymbolTableRecord
100
AcDbBlockTableRecord
  2
*D61
340
0
  0
BLOCK_RECORD
  5
2D6
330
1
100
AcDbSymbolTableRecord
100
AcDbBlockTableRecord
  2
*D62
340
0
  0
BLOCK_RECORD
  5
D28
330
1
100
AcDbSymbolTableRecord
100
AcDbBlockTableRecord
  2
*D64
340
0
  0
BLOCK_RECORD
  5
D30
330
1
100
AcDbSymbolTableRecord
100
AcDbBlockTableRecord
  2
*D65
340
0
  0
BLOCK_RECORD
  5
D38
330
1
100
AcDbSymbolTableRecord
100
AcDbBlockTableRecord
  2
*D66
340
0
  0
BLOCK_RECORD
  5
D45
330
1
100
AcDbSymbolTableRecord
100
AcDbBlockTableRecord
  2
*D67
340
0
  0
BLOCK_RECORD
  5
D52
330
1
100
AcDbSymbolTableRecord
100
AcDbBlockTableRecord
  2
*D68
340
0
  0
BLOCK_RECORD
  5
D5E
330
1
100
AcDbSymbolTableRecord
100
AcDbBlockTableRecord
  2
*D69
340
0
  0
BLOCK_RECORD
  5
D6A
330
1
100
AcDbSymbolTableRecord
100
AcDbBlockTableRecord
  2
*D70
340
0
  0
BLOCK_RECORD
  5
D76
330
1
100
AcDbSymbolTableRecord
100
AcDbBlockTableRecord
  2
*D71
340
0
  0
BLOCK_RECORD
  5
D7F
330
1
100
AcDbSymbolTableRecord
100
AcDbBlockTableRecord
  2
*D72
340
0
  0
BLOCK_RECORD
  5
D88
330
1
100
AcDbSymbolTableRecord
100
AcDbBlockTableRecord
  2
*D73
340
0
  0
BLOCK_RECORD
  5
D90
330
1
100
AcDbSymbolTableRecord
100
AcDbBlockTableRecord
  2
*D74
340
0
  0
BLOCK_RECORD
  5
D99
330
1
100
AcDbSymbolTableRecord
100
AcDbBlockTableRecord
  2
*D75
340
0
  0
BLOCK_RECORD
  5
DA1
330
1
100
AcDbSymbolTableRecord
100
AcDbBlockTableRecord
  2
*D76
340
0
  0
BLOCK_RECORD
  5
DAD
330
1
100
AcDbSymbolTableRecord
100
AcDbBlockTableRecord
  2
*D77
340
0
  0
BLOCK_RECORD
  5
DB9
330
1
100
AcDbSymbolTableRecord
100
AcDbBlockTableRecord
  2
*D78
340
0
  0
BLOCK_RECORD
  5
DC5
330
1
100
AcDbSymbolTableRecord
100
AcDbBlockTableRecord
  2
*D79
340
0
  0
BLOCK_RECORD
  5
DD1
330
1
100
AcDbSymbolTableRecord
100
AcDbBlockTableRecord
  2
*D80
340
0
  0
BLOCK_RECORD
  5
DD9
330
1
100
AcDbSymbolTableRecord
100
AcDbBlockTableRecord
  2
*D81
340
0
  0
BLOCK_RECORD
  5
DE1
330
1
100
AcDbSymbolTableRecord
100
AcDbBlockTableRecord
  2
*D82
340
0
  0
BLOCK_RECORD
  5
DEE
330
1
100
AcDbSymbolTableRecord
100
AcDbBlockTableRecord
  2
*D83
340
0
  0
BLOCK_RECORD
  5
DFB
330
1
100
AcDbSymbolTableRecord
100
AcDbBlockTableRecord
  2
*D84
340
0
  0
BLOCK_RECORD
  5
E07
330
1
100
AcDbSymbolTableRecord
100
AcDbBlockTableRecord
  2
*D85
340
0
  0
BLOCK_RECORD
  5
E13
330
1
100
AcDbSymbolTableRecord
100
AcDbBlockTableRecord
  2
*D86
340
0
  0
BLOCK_RECORD
  5
E1F
330
1
100
AcDbSymbolTableRecord
100
AcDbBlockTableRecord
  2
*D87
340
0
  0
BLOCK_RECORD
  5
E2B
330
1
100
AcDbSymbolTableRecord
100
AcDbBlockTableRecord
  2
*D88
340
0
  0
BLOCK_RECORD
  5
E37
330
1
100
AcDbSymbolTableRecord
100
AcDbBlockTableRecord
  2
*D89
340
0
  0
BLOCK_RECORD
  5
E43
330
1
100
AcDbSymbolTableRecord
100
AcDbBlockTableRecord
  2
*D90
340
0
  0
BLOCK_RECORD
  5
E4F
330
1
100
AcDbSymbolTableRecord
100
AcDbBlockTableRecord
  2
*D91
340
0
  0
BLOCK_RECORD
  5
E5B
330
1
100
AcDbSymbolTableRecord
100
AcDbBlockTableRecord
  2
*D92
340
0
  0
BLOCK_RECORD
  5
E67
330
1
100
AcDbSymbolTableRecord
100
AcDbBlockTableRecord
  2
*D93
340
0
  0
BLOCK_RECORD
  5
E70
330
1
100
AcDbSymbolTableRecord
100
AcDbBlockTableRecord
  2
*D94
340
0
  0
BLOCK_RECORD
  5
E78
330
1
100
AcDbSymbolTableRecord
100
AcDbBlockTableRecord
  2
*D95
340
0
  0
BLOCK_RECORD
  5
E80
330
1
100
AcDbSymbolTableRecord
100
AcDbBlockTableRecord
  2
*D96
340
0
  0
BLOCK_RECORD
  5
E89
330
1
100
AcDbSymbolTableRecord
100
AcDbBlockTableRecord
  2
*D97
340
0
  0
BLOCK_RECORD
  5
E91
330
1
100
AcDbSymbolTableRecord
100
AcDbBlockTableRecord
  2
*D98
340
0
  0
BLOCK_RECORD
  5
E9A
330
1
100
AcDbSymbolTableRecord
100
AcDbBlockTableRecord
  2
*D99
340
0
  0
BLOCK_RECORD
  5
EA3
330
1
100
AcDbSymbolTableRecord
100
AcDbBlockTableRecord
  2
*D100
340
0
  0
BLOCK_RECORD
  5
EAE
330
1
100
AcDbSymbolTableRecord
100
AcDbBlockTableRecord
  2
*D101
340
0
  0
BLOCK_RECORD
  5
ED8
330
1
100
AcDbSymbolTableRecord
100
AcDbBlockTableRecord
  2
*D102
340
0
  0
BLOCK_RECORD
  5
EEA
330
1
100
AcDbSymbolTableRecord
100
AcDbBlockTableRecord
  2
*D103
340
0
  0
BLOCK_RECORD
  5
EF6
330
1
100
AcDbSymbolTableRecord
100
AcDbBlockTableRecord
  2
*D104
340
0
  0
BLOCK_RECORD
  5
F03
330
1
100
AcDbSymbolTableRecord
100
AcDbBlockTableRecord
  2
*D105
340
0
  0
BLOCK_RECORD
  5
F18
330
1
100
AcDbSymbolTableRecord
100
AcDbBlockTableRecord
  2
*D106
340
0
  0
BLOCK_RECORD
  5
F26
330
1
100
AcDbSymbolTableRecord
100
AcDbBlockTableRecord
  2
*D107
340
0
  0
BLOCK_RECORD
  5
F6B
330
1
100
AcDbSymbolTableRecord
100
AcDbBlockTableRecord
  2
*D108
340
0
  0
BLOCK_RECORD
  5
F77
330
1
100
AcDbSymbolTableRecord
100
AcDbBlockTableRecord
  2
*D109
340
0
  0
BLOCK_RECORD
  5
F95
330
1
100
AcDbSymbolTableRecord
100
AcDbBlockTableRecord
  2
*D110
340
0
  0
BLOCK_RECORD
  5
FDA
330
1
100
AcDbSymbolTableRecord
100
AcDbBlockTableRecord
  2
*D111
340
0
  0
BLOCK_RECORD
  5
FE6
330
1
100
AcDbSymbolTableRecord
100
AcDbBlockTableRecord
  2
*D112
340
0
  0
BLOCK_RECORD
  5
FF2
330
1
100
AcDbSymbolTableRecord
100
AcDbBlockTableRecord
  2
*D113
340
0
  0
BLOCK_RECORD
  5
1010
330
1
100
AcDbSymbolTableRecord
100
AcDbBlockTableRecord
  2
*D114
340
0
  0
BLOCK_RECORD
  5
101C
330
1
100
AcDbSymbolTableRecord
100
AcDbBlockTableRecord
  2
*D115
340
0
  0
BLOCK_RECORD
  5
1028
330
1
100
AcDbSymbolTableRecord
100
AcDbBlockTableRecord
  2
*D116
340
0
  0
BLOCK_RECORD
  5
1034
330
1
100
AcDbSymbolTableRecord
100
AcDbBlockTableRecord
  2
*D117
340
0
  0
BLOCK_RECORD
  5
105B
330
1
100
AcDbSymbolTableRecord
100
AcDbBlockTableRecord
  2
*D118
340
0
  0
BLOCK_RECORD
  5
1067
330
1
100
AcDbSymbolTableRecord
100
AcDbBlockTableRecord
  2
*D119
340
0
  0
BLOCK_RECORD
  5
107C
330
1
100
AcDbSymbolTableRecord
100
AcDbBlockTableRecord
  2
*D120
340
0
  0
BLOCK_RECORD
  5
10B8
330
1
100
AcDbSymbolTableRecord
100
AcDbBlockTableRecord
  2
*D121
340
0
  0
BLOCK_RECORD
  5
10C1
330
1
100
AcDbSymbolTableRecord
100
AcDbBlockTableRecord
  2
*D122
340
0
  0
BLOCK_RECORD
  5
10D2
330
1
100
AcDbSymbolTableRecord
100
AcDbBlockTableRecord
  2
*D123
340
0
  0
BLOCK_RECORD
  5
10DE
330
1
100
AcDbSymbolTableRecord
100
AcDbBlockTableRecord
  2
*D124
340
0
  0
BLOCK_RECORD
  5
10E6
330
1
100
AcDbSymbolTableRecord
100
AcDbBlockTableRecord
  2
*D125
340
0
  0
ENDTAB
  0
ENDSEC
  0
SECTION
  2
BLOCKS
  0
BLOCK
  5
24
330
23
100
AcDbEntity
  8
0
100
AcDbBlockBegin
  2
*Model_Space
 70
     0
 10
0.0
 20
0.0
 30
0.0
  3
*Model_Space
  1

  0
ENDBLK
  5
25
330
23
100
AcDbEntity
  8
0
100
AcDbBlockEnd
  0
BLOCK
  5
20
330
1F
100
AcDbEntity
 67
     1
  8
0
100
AcDbBlockBegin
  2
*Paper_Space
 70
     0
 10
0.0
 20
0.0
 30
0.0
  3
*Paper_Space
  1

  0
ENDBLK
  5
21
330
1F
100
AcDbEntity
 67
     1
  8
0
100
AcDbBlockEnd
  0
BLOCK
  5
28
330
27
100
AcDbEntity
 67
     1
  8
0
100
AcDbBlockBegin
  2
*Paper_Space0
 70
     0
 10
0.0
 20
0.0
 30
0.0
  3
*Paper_Space0
  1

  0
ENDBLK
  5
29
330
27
100
AcDbEntity
 67
     1
  8
0
100
AcDbBlockEnd
  0
BLOCK
  5
30
330
2F
100
AcDbEntity
  8
0
100
AcDbBlockBegin
  2
*D1
 70
     1
 10
0.0
 20
0.0
 30
0.0
  3
*D1
  1

  0
LINE
  5
31
330
2F
100
AcDbEntity
  8
cotas
100
AcDbLine
 10
5015.765444534885
 20
3901.492373098454
 30
0.0
 11
4882.66044085222
 21
3901.492373098454
 31
0.0
  0
LINE
  5
32
330
2F
100
AcDbEntity
  8
cotas
100
AcDbLine
 10
4913.358643432729
 20
3961.067023186518
 30
0.0
 11
4882.66044085222
 21
3961.067023186518
 31
0.0
  0
LINE
  5
33
330
2F
100
AcDbEntity
  8
cotas
100
AcDbLine
 10
4887.660440852221
 20
3911.492373098454
 30
0.0
 11
4887.660440852221
 21
3951.067023186518
 31
0.0
  0
SOLID
  5
34
330
2F
100
AcDbEntity
  8
cotas
100
AcDbTrace
 10
4885.993774185553
 20
3911.492373098454
 30
0.0
 11
4889.327107518887
 21
3911.492373098454
 31
0.0
 12
4887.660440852221
 22
3901.492373098454
 32
0.0
 13
4887.660440852221
 23
3901.492373098454
 33
0.0
  0
SOLID
  5
35
330
2F
100
AcDbEntity
  8
cotas
100
AcDbTrace
 10
4885.993774185553
 20
3951.067023186518
 30
0.0
 11
4889.327107518887
 21
3951.067023186518
 31
0.0
 12
4887.660440852221
 22
3961.067023186518
 32
0.0
 13
4887.660440852221
 23
3961.067023186518
 33
0.0
  0
MTEXT
  5
36
330
2F
100
AcDbEntity
  8
cotas
100
AcDbMText
 10
4876.317257507693
 20
3931.279698142486
 30
0.0
 40
10.0
 41
0.0
 71
     5
 72
     1
  1
59,6
  7
SANINDUSA
 11
0.0000000000000001
 21
1.0
 31
0.0
 73
     1
 44
1.0
1001
ACAD
1000
MTEXTBEGIN
1070
    73
1070
     1
1070
    44
1040
1.0
1070
    74
1070
     0
1000
MTEXTEND
  0
POINT
  5
37
330
2F
100
AcDbEntity
  8
Defpoints
 62
     0
100
AcDbPoint
 10
5020.765444534885
 20
3901.492373098454
 30
0.0
  0
POINT
  5
38
330
2F
100
AcDbEntity
  8
Defpoints
 62
     0
100
AcDbPoint
 10
4918.35864343273
 20
3961.067023186518
 30
0.0
  0
POINT
  5
39
330
2F
100
AcDbEntity
  8
Defpoints
 62
     0
100
AcDbPoint
 10
4887.660440852221
 20
3961.067023186518
 30
0.0
  0
ENDBLK
  5
3A
330
2F
100
AcDbEntity
  8
0
100
AcDbBlockEnd
  0
BLOCK
  5
3C
330
3B
100
AcDbEntity
  8
0
100
AcDbBlockBegin
  2
*D2
 70
     1
 10
0.0
 20
0.0
 30
0.0
  3
*D2
  1

  0
LINE
  5
3D
330
3B
100
AcDbEntity
  8
cotas
100
AcDbLine
 10
6138.358654161715
 20
3889.961702333907
 30
0.0
 11
6138.358654161715
 21
4026.062023142276
 31
0.0
  0
LINE
  5
3E
330
3B
100
AcDbEntity
  8
cotas
100
AcDbLine
 10
4918.35864343273
 20
3966.067023186518
 30
0.0
 11
4918.35864343273
 21
4026.062023142276
 31
0.0
  0
LINE
  5
3F
330
3B
100
AcDbEntity
  8
cotas
100
AcDbLine
 10
6128.358654161715
 20
4021.062023142276
 30
0.0
 11
4928.35864343273
 21
4021.062023142276
 31
0.0
  0
SOLID
  5
40
330
3B
100
AcDbEntity
  8
cotas
100
AcDbTrace
 10
6128.358654161715
 20
4022.728689808942
 30
0.0
 11
6128.358654161715
 21
4019.395356475609
 31
0.0
 12
6138.358654161715
 22
4021.062023142276
 32
0.0
 13
6138.358654161715
 23
4021.062023142276
 33
0.0
  0
SOLID
  5
41
330
3B
100
AcDbEntity
  8
cotas
100
AcDbTrace
 10
4928.35864343273
 20
4022.728689808942
 30
0.0
 11
4928.35864343273
 21
4019.395356475609
 31
0.0
 12
4918.35864343273
 22
4021.062023142276
 32
0.0
 13
4918.35864343273
 23
4021.062023142276
 33
0.0
  0
MTEXT
  5
42
330
3B
100
AcDbEntity
  8
cotas
100
AcDbMText
 10
5528.358648797222
 20
4031.270216560677
 30
0.0
 40
10.0
 41
0.0
 71
     5
 72
     1
  1
1220
  7
SANINDUSA
 73
     1
 44
1.0
1001
ACAD
1000
MTEXTBEGIN
1070
    73
1070
     1
1070
    44
1040
1.0
1070
    74
1070
     0
1000
MTEXTEND
  0
POINT
  5
43
330
3B
100
AcDbEntity
  8
Defpoints
 62
     0
100
AcDbPoint
 10
6138.358654161715
 20
3884.961702333907
 30
0.0
  0
POINT
  5
44
330
3B
100
AcDbEntity
  8
Defpoints
 62
     0
100
AcDbPoint
 10
4918.35864343273
 20
3961.067023186518
 30
0.0
  0
POINT
  5
45
330
3B
100
AcDbEntity
  8
Defpoints
 62
     0
100
AcDbPoint
 10
4918.35864343273
 20
4021.062023142276
 30
0.0
  0
ENDBLK
  5
46
330
3B
100
AcDbEntity
  8
0
100
AcDbBlockEnd
  0
BLOCK
  5
48
330
47
100
AcDbEntity
  8
0
100
AcDbBlockBegin
  2
*D3
 70
     1
 10
0.0
 20
0.0
 30
0.0
  3
*D3
  1

  0
LINE
  5
49
330
47
100
AcDbEntity
  8
cotas
100
AcDbLine
 10
5829.979721670922
 20
2445.504219973951
 30
0.0
 11
5829.979721670922
 21
2610.770803247837
 31
0.0
  0
LINE
  5
4A
330
47
100
AcDbEntity
  8
cotas
100
AcDbLine
 10
5749.992423928514
 20
2445.504219973951
 30
0.0
 11
5749.992423928514
 21
2610.770803247837
 31
0.0
  0
LINE
  5
4B
330
47
100
AcDbEntity
  8
cotas
100
AcDbLine
 10
5819.979721670922
 20
2605.770803247837
 30
0.0
 11
5759.992423928514
 21
2605.770803247837
 31
0.0
  0
SOLID
  5
4C
330
47
100
AcDbEntity
  8
cotas
100
AcDbTrace
 10
5819.979721670922
 20
2607.437469914503
 30
0.0
 11
5819.979721670922
 21
2604.104136581171
 31
0.0
 12
5829.979721670922
 22
2605.770803247837
 32
0.0
 13
5829.979721670922
 23
2605.770803247837
 33
0.0
  0
SOLID
  5
4D
330
47
100
AcDbEntity
  8
cotas
100
AcDbTrace
 10
5759.992423928514
 20
2607.437469914503
 30
0.0
 11
5759.992423928514
 21
2604.104136581171
 31
0.0
 12
5749.992423928514
 22
2605.770803247837
 32
0.0
 13
5749.992423928514
 23
2605.770803247837
 33
0.0
  0
MTEXT
  5
4E
330
47
100
AcDbEntity
  8
cotas
100
AcDbMText
 10
5789.986072799718
 20
2615.999144416406
 30
0.0
 40
10.0
 41
0.0
 71
     5
 72
     1
  1
80
  7
SANINDUSA
 73
     1
 44
1.0
1001
ACAD
1000
MTEXTBEGIN
1070
    73
1070
     1
1070
    44
1040
1.0
1070
    74
1070
     0
1000
MTEXTEND
  0
POINT
  5
4F
330
47
100
AcDbEntity
  8
Defpoints
 62
     0
100
AcDbPoint
 10
5829.979721670922
 20
2440.504219973951
 30
0.0
  0
POINT
  5
50
330
47
100
AcDbEntity
  8
Defpoints
 62
     0
100
AcDbPoint
 10
5749.992423928514
 20
2440.504219973951
 30
0.0
  0
POINT
  5
51
330
47
100
AcDbEntity
  8
Defpoints
 62
     0
100
AcDbPoint
 10
5749.992423928514
 20
2605.770803247837
 30
0.0
  0
ENDBLK
  5
52
330
47
100
AcDbEntity
  8
0
100
AcDbBlockEnd
  0
BLOCK
  5
54
330
53
100
AcDbEntity
  8
0
100
AcDbBlockBegin
  2
*D4
 70
     1
 10
0.0
 20
0.0
 30
0.0
  3
*D4
  1

  0
LINE
  5
55
330
53
100
AcDbEntity
  8
cotas
100
AcDbLine
 10
6033.742955404189
 20
2085.050184579362
 30
0.0
 11
6353.981199201324
 21
2085.050184579362
 31
0.0
  0
LINE
  5
56
330
53
100
AcDbEntity
  8
cotas
100
AcDbLine
 10
6033.742955404188
 20
2005.064653922501
 30
0.0
 11
6353.981199201323
 21
2005.064653922501
 31
0.0
  0
LINE
  5
57
330
53
100
AcDbEntity
  8
cotas
100
AcDbLine
 10
6348.981199201324
 20
2075.050184579362
 30
0.0
 11
6348.981199201323
 21
2015.064653922501
 31
0.0
  0
SOLID
  5
58
330
53
100
AcDbEntity
  8
cotas
100
AcDbTrace
 10
6347.314532534657
 20
2075.050184579362
 30
0.0
 11
6350.647865867991
 21
2075.050184579362
 31
0.0
 12
6348.981199201324
 22
2085.050184579362
 32
0.0
 13
6348.981199201324
 23
2085.050184579362
 33
0.0
  0
SOLID
  5
59
330
53
100
AcDbEntity
  8
cotas
100
AcDbTrace
 10
6347.314532534656
 20
2015.064653922501
 30
0.0
 11
6350.647865867991
 21
2015.064653922501
 31
0.0
 12
6348.981199201323
 22
2005.064653922501
 32
0.0
 13
6348.981199201323
 23
2005.064653922501
 33
0.0
  0
MTEXT
  5
5A
330
53
100
AcDbEntity
  8
cotas
100
AcDbMText
 10
6338.752858032753
 20
2045.057419250932
 30
0.0
 40
10.0
 41
0.0
 71
     5
 72
     1
  1
80
  7
SANINDUSA
 11
0.0000000000000001
 21
1.0
 31
0.0
 73
     1
 44
1.0
1001
ACAD
1000
MTEXTBEGIN
1070
    73
1070
     1
1070
    44
1040
1.0
1070
    74
1070
     0
1000
MTEXTEND
  0
POINT
  5
5B
330
53
100
AcDbEntity
  8
Defpoints
 62
     0
100
AcDbPoint
 10
6028.742955404189
 20
2085.050184579362
 30
0.0
  0
POINT
  5
5C
330
53
100
AcDbEntity
  8
Defpoints
 62
     0
100
AcDbPoint
 10
6028.742955404188
 20
2005.064653922501
 30
0.0
  0
POINT
  5
5D
330
53
100
AcDbEntity
  8
Defpoints
 62
     0
100
AcDbPoint
 10
6348.981199201323
 20
2005.064653922501
 30
0.0
  0
ENDBLK
  5
5E
330
53
100
AcDbEntity
  8
0
100
AcDbBlockEnd
  0
BLOCK
  5
60
330
5F
100
AcDbEntity
  8
0
100
AcDbBlockBegin
  2
*D5
 70
     1
 10
0.0
 20
0.0
 30
0.0
  3
*D5
  1

  0
LINE
  5
61
330
5F
100
AcDbEntity
  8
cotas
100
AcDbLine
 10
4956.939998389722
 20
1711.20153987199
 30
0.0
 11
4987.878007344107
 21
1743.605985468132
 31
0.0
  0
MTEXT
  5
62
330
5F
100
AcDbEntity
  8
cotas
100
AcDbMText
 10
4961.572830632966
 20
1730.83663088537
 30
0.0
 40
10.0
 41
0.0
 71
     5
 72
     1
  1
R20
  7
SANINDUSA
 11
0.6905515714747179
 21
0.7232831583368977
 31
0.0
 73
     1
 44
1.0
1001
ACAD
1000
MTEXTBEGIN
1070
    73
1070
     1
1070
    44
1040
1.0
1070
    74
1070
     0
1000
MTEXTEND
  0
LINE
  5
63
330
5F
100
AcDbEntity
  8
cotas
100
AcDbLine
 10
5008.594554488347
 20
1765.304480218237
 30
0.0
 11
4994.783523058853
 21
1750.8388170515
 31
0.0
  0
SOLID
  5
64
330
5F
100
AcDbEntity
  8
cotas
100
AcDbTrace
 10
4986.672535413545
 20
1744.756904753922
 30
0.0
 11
4989.083479274668
 21
1742.455066182341
 31
0.0
 12
4994.783523058853
 22
1750.8388170515
 32
0.0
 13
4994.783523058853
 23
1750.8388170515
 33
0.0
  0
POINT
  5
65
330
5F
100
AcDbEntity
  8
Defpoints
 62
     0
100
AcDbPoint
 10
4994.783523058853
 20
1750.8388170515
 30
0.0
  0
POINT
  5
66
330
5F
100
AcDbEntity
  8
Defpoints
 62
     0
100
AcDbPoint
 10
5008.594554488347
 20
1765.304480218237
 30
0.0
  0
ENDBLK
  5
67
330
5F
100
AcDbEntity
  8
0
100
AcDbBlockEnd
  0
BLOCK
  5
69
330
68
100
AcDbEntity
  8
0
100
AcDbBlockBegin
  2
*D6
 70
     1
 10
0.0
 20
0.0
 30
0.0
  3
*D6
  1

  0
LINE
  5
6A
330
68
100
AcDbEntity
  8
cotas
100
AcDbLine
 10
5063.015959492875
 20
1822.766809660704
 30
0.0
 11
5030.513244099513
 21
1791.932056791366
 31
0.0
  0
MTEXT
  5
6B
330
68
100
AcDbEntity
  8
cotas
100
AcDbMText
 10
5043.368538930867
 20
1818.194036666514
 30
0.0
 40
10.0
 41
0.0
 71
     5
 72
     1
  1
R10
  7
SANINDUSA
 11
0.725476588528169
 21
0.6882468448874502
 31
0.0
 73
     1
 44
1.0
1001
ACAD
1000
MTEXTBEGIN
1070
    73
1070
     1
1070
    44
1040
1.0
1070
    74
1070
     0
1000
MTEXTEND
  0
SOLID
  5
6C
330
68
100
AcDbEntity
  8
cotas
100
AcDbTrace
 10
5029.366166024701
 20
1793.141184438913
 30
0.0
 11
5031.660322174325
 21
1790.722929143819
 31
0.0
 12
5023.258478214231
 22
1785.049588342491
 32
0.0
 13
5023.258478214231
 23
1785.049588342491
 33
0.0
  0
POINT
  5
6D
330
68
100
AcDbEntity
  8
Defpoints
 62
     0
100
AcDbPoint
 10
5023.258478214231
 20
1785.049588342491
 30
0.0
  0
POINT
  5
6E
330
68
100
AcDbEntity
  8
Defpoints
 62
     0
100
AcDbPoint
 10
5030.513244099505
 20
1791.932056791359
 30
0.0
  0
ENDBLK
  5
6F
330
68
100
AcDbEntity
  8
0
100
AcDbBlockEnd
  0
BLOCK
  5
71
330
70
100
AcDbEntity
  8
0
100
AcDbBlockBegin
  2
*D7
 70
     1
 10
0.0
 20
0.0
 30
0.0
  3
*D7
  1

  0
LINE
  5
72
330
70
100
AcDbEntity
  8
cotas
100
AcDbLine
 10
5438.386396769338
 20
1820.763631989403
 30
0.0
 11
5473.301972458491
 21
1792.690316069298
 31
0.0
  0
MTEXT
  5
73
330
70
100
AcDbEntity
  8
cotas
100
AcDbMText
 10
5458.341974666384
 20
1817.812988264426
 30
0.0
 40
10.0
 41
0.0
 71
     5
 72
     1
  1
R10
  7
SANINDUSA
 11
0.7793328166863544
 21
-0.6266102144361464
 31
0.0
 73
     1
 44
1.0
1001
ACAD
1000
MTEXTBEGIN
1070
    73
1070
     1
1070
    44
1040
1.0
1070
    74
1070
     0
1000
MTEXTEND
  0
SOLID
  5
74
330
70
100
AcDbEntity
  8
cotas
100
AcDbTrace
 10
5474.346322815885
 20
1793.989204097109
 30
0.0
 11
5472.257622101096
 21
1791.391428041487
 31
0.0
 12
5481.095300625355
 22
1786.424213924936
 32
0.0
 13
5481.095300625355
 23
1786.424213924936
 33
0.0
  0
POINT
  5
75
330
70
100
AcDbEntity
  8
Defpoints
 62
     0
100
AcDbPoint
 10
5481.095300625355
 20
1786.424213924936
 30
0.0
  0
POINT
  5
76
330
70
100
AcDbEntity
  8
Defpoints
 62
     0
100
AcDbPoint
 10
5473.301972458492
 20
1792.690316069298
 30
0.0
  0
ENDBLK
  5
77
330
70
100
AcDbEntity
  8
0
100
AcDbBlockEnd
  0
BLOCK
  5
79
330
78
100
AcDbEntity
  8
0
100
AcDbBlockBegin
  2
*D8
 70
     1
 10
0.0
 20
0.0
 30
0.0
  3
*D8
  1

  0
LINE
  5
7A
330
78
100
AcDbEntity
  8
cotas
100
AcDbLine
 10
4955.314693519596
 20
2537.360154703025
 30
0.0
 11
4987.226163337176
 21
2505.913905538196
 31
0.0
  0
MTEXT
  5
7B
330
78
100
AcDbEntity
  8
cotas
100
AcDbMText
 10
4974.874117448226
 20
2532.417597745544
 30
0.0
 40
10.0
 41
0.0
 71
     5
 72
     1
  1
R20
  7
SANINDUSA
 11
0.7122796965728727
 21
-0.7018957428636084
 31
0.0
 73
     1
 44
1.0
1001
ACAD
1000
MTEXTBEGIN
1070
    73
1070
     1
1070
    44
1040
1.0
1070
    74
1070
     0
1000
MTEXTEND
  0
LINE
  5
7C
330
78
100
AcDbEntity
  8
cotas
100
AcDbLine
 10
5008.594554234364
 20
2484.857033252286
 30
0.0
 11
4994.348960302906
 21
2498.894948109559
 31
0.0
  0
SOLID
  5
7D
330
78
100
AcDbEntity
  8
cotas
100
AcDbTrace
 10
4988.395989575283
 20
2507.101038365817
 30
0.0
 11
4986.05633709907
 21
2504.726772710574
 31
0.0
 12
4994.348960302906
 22
2498.894948109559
 32
0.0
 13
4994.348960302906
 23
2498.894948109559
 33
0.0
  0
POINT
  5
7E
330
78
100
AcDbEntity
  8
Defpoints
 62
     0
100
AcDbPoint
 10
4994.348960302906
 20
2498.894948109559
 30
0.0
  0
POINT
  5
7F
330
78
100
AcDbEntity
  8
Defpoints
 62
     0
100
AcDbPoint
 10
5008.594554234364
 20
2484.857033252286
 30
0.0
  0
ENDBLK
  5
80
330
78
100
AcDbEntity
  8
0
100
AcDbBlockEnd
  0
BLOCK
  5
82
330
81
100
AcDbEntity
  8
0
100
AcDbBlockBegin
  2
*D9
 70
     1
 10
0.0
 20
0.0
 30
0.0
  3
*D9
  1

  0
LINE
  5
83
330
81
100
AcDbEntity
  8
cotas
100
AcDbLine
 10
5059.683008923222
 20
2424.199985975807
 30
0.0
 11
5030.513455446254
 21
2458.205068572521
 31
0.0
  0
MTEXT
  5
84
330
81
100
AcDbEntity
  8
cotas
100
AcDbMText
 10
5056.099199891124
 20
2444.051628235789
 30
0.0
 40
10.0
 41
0.0
 71
     5
 72
     1
  1
R10
  7
SANINDUSA
 11
0.6510787757038356
 21
-0.7590101631915047
 31
0.0
 73
     1
 44
1.0
1001
ACAD
1000
MTEXTBEGIN
1070
    73
1070
     1
1070
    44
1040
1.0
1070
    74
1070
     0
1000
MTEXTEND
  0
SOLID
  5
85
330
81
100
AcDbEntity
  8
cotas
100
AcDbTrace
 10
5031.778472384907
 20
2459.290199865362
 30
0.0
 11
5029.248438507601
 21
2457.119937279682
 31
0.0
 12
5024.002667689216
 22
2465.795170204437
 32
0.0
 13
5024.002667689216
 23
2465.795170204437
 33
0.0
  0
POINT
  5
86
330
81
100
AcDbEntity
  8
Defpoints
 62
     0
100
AcDbPoint
 10
5024.002667689216
 20
2465.795170204437
 30
0.0
  0
POINT
  5
87
330
81
100
AcDbEntity
  8
Defpoints
 62
     0
100
AcDbPoint
 10
5030.513455446254
 20
2458.205068572521
 30
0.0
  0
ENDBLK
  5
88
330
81
100
AcDbEntity
  8
0
100
AcDbBlockEnd
  0
BLOCK
  5
8A
330
89
100
AcDbEntity
  8
0
100
AcDbBlockBegin
  2
*D10
 70
     1
 10
0.0
 20
0.0
 30
0.0
  3
*D10
  1

  0
LINE
  5
8B
330
89
100
AcDbEntity
  8
cotas
100
AcDbLine
 10
6278.174489413181
 20
1709.776729635048
 30
0.0
 11
6248.158422018472
 21
1743.036979041977
 31
0.0
  0
MTEXT
  5
8C
330
89
100
AcDbEntity
  8
cotas
100
AcDbMText
 10
6274.094733526335
 20
1729.53414661201
 30
0.0
 40
10.0
 41
0.0
 71
     5
 72
     1
  1
R20
  7
SANINDUSA
 11
0.6699733825621795
 21
-0.7423851201756348
 31
0.0
 73
     1
 44
1.0
1001
ACAD
1000
MTEXTBEGIN
1070
    73
1070
     1
1070
    44
1040
1.0
1070
    74
1070
     0
1000
MTEXTEND
  0
LINE
  5
8D
330
89
100
AcDbEntity
  8
cotas
100
AcDbLine
 10
6228.059220541608
 20
1765.308532647244
 30
0.0
 11
6241.458688192849
 21
1750.460830243733
 31
0.0
  0
SOLID
  5
8E
330
89
100
AcDbEntity
  8
cotas
100
AcDbTrace
 10
6249.395730552098
 20
1744.153601346247
 30
0.0
 11
6246.921113484846
 21
1741.920356737707
 31
0.0
 12
6241.458688192849
 22
1750.460830243733
 32
0.0
 13
6241.458688192849
 23
1750.460830243733
 33
0.0
  0
POINT
  5
8F
330
89
100
AcDbEntity
  8
Defpoints
 62
     0
100
AcDbPoint
 10
6241.458688192849
 20
1750.460830243733
 30
0.0
  0
POINT
  5
90
330
89
100
AcDbEntity
  8
Defpoints
 62
     0
100
AcDbPoint
 10
6228.059220541608
 20
1765.308532647244
 30
0.0
  0
ENDBLK
  5
91
330
89
100
AcDbEntity
  8
0
100
AcDbBlockEnd
  0
BLOCK
  5
93
330
92
100
AcDbEntity
  8
0
100
AcDbBlockBegin
  2
*D11
 70
     1
 10
0.0
 20
0.0
 30
0.0
  3
*D11
  1

  0
LINE
  5
94
330
92
100
AcDbEntity
  8
cotas
100
AcDbLine
 10
6281.480074016434
 20
2537.208309996093
 30
0.0
 11
6249.476862974152
 21
2505.855431732082
 31
0.0
  0
MTEXT
  5
95
330
92
100
AcDbEntity
  8
cotas
100
AcDbMText
 10
6261.906292758474
 20
2532.322921478962
 30
0.0
 40
10.0
 41
0.0
 71
     5
 72
     1
  1
R20
  7
SANINDUSA
 11
0.7143274058156049
 21
0.6998116584487202
 31
0.0
 73
     1
 44
1.0
1001
ACAD
1000
MTEXTBEGIN
1070
    73
1070
     1
1070
    44
1040
1.0
1070
    74
1070
     0
1000
MTEXTEND
  0
LINE
  5
96
330
92
100
AcDbEntity
  8
cotas
100
AcDbLine
 10
6228.047040799681
 20
2484.861081978618
 30
0.0
 11
6242.333588915995
 21
2498.857315147594
 31
0.0
  0
SOLID
  5
97
330
92
100
AcDbEntity
  8
cotas
100
AcDbTrace
 10
6248.310510210071
 20
2507.045977408441
 30
0.0
 11
6250.643215738232
 21
2504.664886055722
 31
0.0
 12
6242.333588915995
 22
2498.857315147594
 32
0.0
 13
6242.333588915995
 23
2498.857315147594
 33
0.0
  0
POINT
  5
98
330
92
100
AcDbEntity
  8
Defpoints
 62
     0
100
AcDbPoint
 10
6242.333588915995
 20
2498.857315147594
 30
0.0
  0
POINT
  5
99
330
92
100
AcDbEntity
  8
Defpoints
 62
     0
100
AcDbPoint
 10
6228.047040799681
 20
2484.861081978618
 30
0.0
  0
ENDBLK
  5
9A
330
92
100
AcDbEntity
  8
0
100
AcDbBlockEnd
  0
BLOCK
  5
9C
330
9B
100
AcDbEntity
  8
0
100
AcDbBlockBegin
  2
*D12
 70
     1
 10
0.0
 20
0.0
 30
0.0
  3
*D12
  1

  0
LINE
  5
9D
330
9B
100
AcDbEntity
  8
cotas
100
AcDbLine
 10
3735.884547463435
 20
3187.20735467296
 30
0.0
 11
3735.884547463435
 21
3217.20735467296
 31
0.0
  0
LINE
  5
9E
330
9B
100
AcDbEntity
  8
cotas
100
AcDbLine
 10
4635.884551121248
 20
3187.20735467296
 30
0.0
 11
4635.884551121248
 21
3217.20735467296
 31
0.0
  0
LINE
  5
9F
330
9B
100
AcDbEntity
  8
cotas
100
AcDbLine
 10
3745.884547463435
 20
3212.20735467296
 30
0.0
 11
4625.884551121248
 21
3212.20735467296
 31
0.0
  0
SOLID
  5
A0
330
9B
100
AcDbEntity
  8
cotas
100
AcDbTrace
 10
3745.884547463435
 20
3213.874021339626
 30
0.0
 11
3745.884547463435
 21
3210.540688006294
 31
0.0
 12
3735.884547463435
 22
3212.20735467296
 32
0.0
 13
3735.884547463435
 23
3212.20735467296
 33
0.0
  0
SOLID
  5
A1
330
9B
100
AcDbEntity
  8
cotas
100
AcDbTrace
 10
4625.884551121248
 20
3213.874021339626
 30
0.0
 11
4625.884551121248
 21
3210.540688006294
 31
0.0
 12
4635.884551121248
 22
3212.20735467296
 32
0.0
 13
4635.884551121248
 23
3212.20735467296
 33
0.0
  0
MTEXT
  5
A2
330
9B
100
AcDbEntity
  8
cotas
100
AcDbMText
 10
4185.884549292341
 20
3222.412190133
 30
0.0
 40
10.0
 41
0.0
 71
     5
 72
     1
  1
900
  7
SANINDUSA
 73
     1
 44
1.0
1001
ACAD
1000
MTEXTBEGIN
1070
    73
1070
     1
1070
    44
1040
1.0
1070
    74
1070
     0
1000
MTEXTEND
  0
POINT
  5
A3
330
9B
100
AcDbEntity
  8
Defpoints
 62
     0
100
AcDbPoint
 10
3735.884547463435
 20
3182.20735467296
 30
0.0
  0
POINT
  5
A4
330
9B
100
AcDbEntity
  8
Defpoints
 62
     0
100
AcDbPoint
 10
4635.884551121248
 20
3182.20735467296
 30
0.0
  0
POINT
  5
A5
330
9B
100
AcDbEntity
  8
Defpoints
 62
     0
100
AcDbPoint
 10
4635.884551121248
 20
3212.20735467296
 30
0.0
  0
ENDBLK
  5
A6
330
9B
100
AcDbEntity
  8
0
100
AcDbBlockEnd
  0
BLOCK
  5
A8
330
A7
100
AcDbEntity
  8
0
100
AcDbBlockBegin
  2
*D13
 70
     1
 10
0.0
 20
0.0
 30
0.0
  3
*D13
  1

  0
LINE
  5
A9
330
A7
100
AcDbEntity
  8
cotas
100
AcDbLine
 10
3768.776027193617
 20
3146.018274534735
 30
0.0
 11
3744.759379303128
 21
3172.967671745678
 31
0.0
  0
MTEXT
  5
AA
330
A7
100
AcDbEntity
  8
cotas
100
AcDbMText
 10
3767.559898002152
 20
3162.413338253767
 30
0.0
 40
10.0
 41
0.0
 71
     5
 72
     1
  1
R7
  7
SANINDUSA
 11
0.6653169992360306
 21
-0.7465609757598931
 31
0.0
 73
     1
 44
1.0
1001
ACAD
1000
MTEXTBEGIN
1070
    73
1070
     1
1070
    44
1040
1.0
1070
    74
1070
     0
1000
MTEXTEND
  0
SOLID
  5
AB
330
A7
100
AcDbEntity
  8
cotas
100
AcDbTrace
 10
3746.003647596062
 20
3174.076533411072
 30
0.0
 11
3743.515111010195
 21
3171.858810080284
 31
0.0
 12
3738.106209310768
 22
3180.433281503277
 32
0.0
 13
3738.106209310768
 23
3180.433281503277
 33
0.0
  0
POINT
  5
AC
330
A7
100
AcDbEntity
  8
Defpoints
 62
     0
100
AcDbPoint
 10
3738.106209310768
 20
3180.433281503277
 30
0.0
  0
POINT
  5
AD
330
A7
100
AcDbEntity
  8
Defpoints
 62
     0
100
AcDbPoint
 10
3742.763428305419
 20
3175.20735467296
 30
0.0
  0
ENDBLK
  5
AE
330
A7
100
AcDbEntity
  8
0
100
AcDbBlockEnd
  0
BLOCK
  5
B0
330
AF
100
AcDbEntity
  8
0
100
AcDbBlockBegin
  2
*D14
 70
     1
 10
0.0
 20
0.0
 30
0.0
  3
*D14
  1

  0
LINE
  5
B1
330
AF
100
AcDbEntity
  8
cotas
100
AcDbLine
 10
4598.974791760652
 20
3150.171295571972
 30
0.0
 11
4626.70139264676
 21
3173.286333733986
 31
0.0
  0
MTEXT
  5
B2
330
AF
100
AcDbEntity
  8
cotas
100
AcDbMText
 10
4602.59423244874
 20
3166.20802633815
 30
0.0
 40
10.0
 41
0.0
 71
     5
 72
     1
  1
R7
  7
SANINDUSA
 11
0.7680913250123642
 21
0.6403403129904839
 31
0.0
 73
     1
 44
1.0
1001
ACAD
1000
MTEXTBEGIN
1070
    73
1070
     1
1070
    44
1040
1.0
1070
    74
1070
     0
1000
MTEXTEND
  0
SOLID
  5
B3
330
AF
100
AcDbEntity
  8
cotas
100
AcDbTrace
 10
4625.634158791775
 20
3174.56648594234
 30
0.0
 11
4627.768626501744
 21
3172.006181525632
 31
0.0
 12
4634.382305896883
 22
3179.689736863891
 32
0.0
 13
4634.382305896883
 23
3179.689736863891
 33
0.0
  0
POINT
  5
B4
330
AF
100
AcDbEntity
  8
Defpoints
 62
     0
100
AcDbPoint
 10
4634.382305896883
 20
3179.689736863891
 30
0.0
  0
POINT
  5
B5
330
AF
100
AcDbEntity
  8
Defpoints
 62
     0
100
AcDbPoint
 10
4629.005666621799
 20
3175.20735467296
 30
0.0
  0
ENDBLK
  5
B6
330
AF
100
AcDbEntity
  8
0
100
AcDbBlockEnd
  0
BLOCK
  5
B8
330
B7
100
AcDbEntity
  8
0
100
AcDbBlockBegin
  2
*D15
 70
     1
 10
0.0
 20
0.0
 30
0.0
  3
*D15
  1

  0
LINE
  5
B9
330
B7
100
AcDbEntity
  8
cotas
100
AcDbLine
 10
4636.669991805027
 20
3137.208117044856
 30
0.0
 11
4637.19671835716
 21
3107.031053679044
 31
0.0
  0
ARC
  5
BA
330
B7
100
AcDbEntity
  8
cotas
100
AcDbCircle
 10
4635.884551121248
 20
3182.20735467296
 30
0.0
 40
70.18775175507525
100
AcDbArc
 50
188.1701364803898
 51
262.8298330588097
  0
SOLID
  5
BB
330
B7
100
AcDbEntity
  8
cotas
100
AcDbTrace
 10
4564.746742067914
 20
3172.11403168656
 30
0.0
 11
4568.071606674219
 21
3172.351490021525
 31
0.0
 12
4565.696799366174
 22
3182.20735467296
 32
0.0
 13
4565.696799366174
 23
3182.20735467296
 33
0.0
  0
SOLID
  5
BC
330
B7
100
AcDbEntity
  8
cotas
100
AcDbTrace
 10
4627.213650495821
 20
3114.232734519942
 30
0.0
 11
4627.034253445802
 21
3110.90423218262
 31
0.0
 12
4637.109458982776
 22
3112.030292201218
 32
0.0
 13
4637.109458982776
 23
3112.030292201218
 33
0.0
  0
MTEXT
  5
BD
330
B7
100
AcDbEntity
  8
cotas
100
AcDbMText
 10
4594.639836811835
 20
3140.236450787547
 30
0.0
 40
10.0
 41
0.0
 71
     5
 72
     1
  1
91,0°
  7
SANINDUSA
 11
0.7132502628380123
 21
-0.7009094538965118
 31
0.0
 73
     1
 44
1.0
1001
ACAD
1000
MTEXTBEGIN
1070
    73
1070
     1
1070
    44
1040
1.0
1070
    74
1070
     0
1000
MTEXTEND
  0
POINT
  5
BE
330
B7
100
AcDbEntity
  8
Defpoints
 62
     0
100
AcDbPoint
 10
4575.305364189863
 20
3146.760456259075
 30
0.0
  0
POINT
  5
BF
330
B7
100
AcDbEntity
  8
Defpoints
 62
     0
100
AcDbPoint
 10
3742.763428247517
 20
3182.207354672961
 30
0.0
  0
POINT
  5
C0
330
B7
100
AcDbEntity
  8
Defpoints
 62
     0
100
AcDbPoint
 10
4636.004600469832
 20
3175.329522551963
 30
0.0
  0
POINT
  5
C1
330
B7
100
AcDbEntity
  8
Defpoints
 62
     0
100
AcDbPoint
 10
4636.582732430643
 20
3142.20735556703
 30
0.0
  0
POINT
  5
C2
330
B7
100
AcDbEntity
  8
Defpoints
 62
     0
100
AcDbPoint
 10
4629.005670777504
 20
3182.20735467296
 30
0.0
  0
ENDBLK
  5
C3
330
B7
100
AcDbEntity
  8
0
100
AcDbBlockEnd
  0
BLOCK
  5
C5
330
C4
100
AcDbEntity
  8
0
100
AcDbBlockBegin
  2
*D16
 70
     1
 10
0.0
 20
0.0
 30
0.0
  3
*D16
  1

  0
LINE
  5
C6
330
C4
100
AcDbEntity
  8
cotas
100
AcDbLine
 10
3735.099082850861
 20
3137.208117091245
 30
0.0
 11
3734.473398999948
 21
3101.362713227557
 31
0.0
  0
ARC
  5
C7
330
C4
100
AcDbEntity
  8
cotas
100
AcDbCircle
 10
3735.884547463434
 20
3182.20735467296
 30
0.0
 40
75.85695635145921
100
AcDbArc
 50
276.5586144526246
 51
352.4413855488218
  0
SOLID
  5
C8
330
C4
100
AcDbEntity
  8
cotas
100
AcDbTrace
 10
3744.629713246347
 20
3105.182135919975
 30
0.0
 11
3744.468083110448
 21
3108.511548302105
 31
0.0
 12
3734.560661032007
 22
3106.361951703341
 32
0.0
 13
3734.560661032007
 23
3106.361951703341
 33
0.0
  0
SOLID
  5
C9
330
C4
100
AcDbEntity
  8
cotas
100
AcDbTrace
 10
3809.419326253493
 20
3172.33895717635
 30
0.0
 11
3812.745410715173
 21
3172.119245399497
 31
0.0
 12
3811.741503814893
 22
3182.20735467296
 32
0.0
 13
3811.741503814893
 23
3182.20735467296
 33
0.0
  0
MTEXT
  5
CA
330
C4
100
AcDbEntity
  8
cotas
100
AcDbMText
 10
3781.102848639511
 20
3136.192877099706
 30
0.0
 40
10.0
 41
0.0
 71
     5
 72
     1
  1
91,0°
  7
SANINDUSA
 11
0.7132504491453286
 21
0.70090926430886
 31
0.0
 73
     1
 44
1.0
1001
ACAD
1000
MTEXTBEGIN
1070
    73
1070
     1
1070
    44
1040
1.0
1070
    74
1070
     0
1000
MTEXTEND
  0
POINT
  5
CB
330
C4
100
AcDbEntity
  8
Defpoints
 62
     0
100
AcDbPoint
 10
3773.046090437962
 20
3116.076442455908
 30
0.0
  0
POINT
  5
CC
330
C4
100
AcDbEntity
  8
Defpoints
 62
     0
100
AcDbPoint
 10
3735.186344882921
 20
3142.20735556703
 30
0.0
  0
POINT
  5
CD
330
C4
100
AcDbEntity
  8
Defpoints
 62
     0
100
AcDbPoint
 10
3742.763428247516
 20
3182.20735467296
 30
0.0
  0
POINT
  5
CE
330
C4
100
AcDbEntity
  8
Defpoints
 62
     0
100
AcDbPoint
 10
4629.005670777504
 20
3182.20735467296
 30
0.0
  0
POINT
  5
CF
330
C4
100
AcDbEntity
  8
Defpoints
 62
     0
100
AcDbPoint
 10
3735.764494441224
 20
3175.329521627005
 30
0.0
  0
ENDBLK
  5
D0
330
C4
100
AcDbEntity
  8
0
100
AcDbBlockEnd
  0
BLOCK
  5
D2
330
D1
100
AcDbEntity
  8
0
100
AcDbBlockBegin
  2
*D17
 70
     1
 10
0.0
 20
0.0
 30
0.0
  3
*D17
  1

  0
LINE
  5
D3
330
D1
100
AcDbEntity
  8
cotas
100
AcDbLine
 10
3803.378999463266
 20
3128.666045085416
 30
0.0
 11
3803.378999463265
 21
3035.41166495004
 31
0.0
  0
LINE
  5
D4
330
D1
100
AcDbEntity
  8
cotas
100
AcDbLine
 10
3804.85943242137
 20
3099.813351979793
 30
0.0
 11
3807.106119668436
 21
3035.476722151239
 31
0.0
  0
ARC
  5
D5
330
D1
100
AcDbEntity
  8
cotas
100
AcDbCircle
 10
3803.378999463266
 20
3142.20735556703
 30
0.0
 40
101.7956906169895
100
AcDbArc
 50
258.7248005626016
 51
269.9999999999998
  0
LINE
  5
D6
330
D1
100
AcDbEntity
  8
cotas
100
AcDbLine
 10
3783.475736503354
 20
3042.376384662514
 30
0.0
 11
3746.375134621189
 21
3049.773117645688
 31
0.0
  0
ARC
  5
D7
330
D1
100
AcDbEntity
  8
cotas
100
AcDbCircle
 10
3803.378999463266
 20
3142.20735556703
 30
0.0
 40
101.7956906169895
100
AcDbArc
 50
258.7384539308261
 51
264.3692269654129
  0
ARC
  5
D8
330
D1
100
AcDbEntity
  8
cotas
100
AcDbCircle
 10
3803.378999463266
 20
3142.20735556703
 30
0.0
 40
101.7956906169895
100
AcDbArc
 50
277.6307753711979
 51
283.2615484057847
  0
ARC
  5
D9
330
D1
100
AcDbEntity
  8
cotas
100
AcDbCircle
 10
3803.378999463266
 20
3142.20735556703
 30
0.0
 40
101.7956906169895
100
AcDbArc
 50
269.9999999999998
 51
272.0000023366111
  0
SOLID
  5
DA
330
D1
100
AcDbEntity
  8
cotas
100
AcDbTrace
 10
3793.472932955159
 20
3042.567499849735
 30
0.0
 11
3793.309206312453
 21
3039.238189906582
 31
0.0
 12
3803.378999463266
 22
3040.411664950041
 32
0.0
 13
3803.378999463266
 23
3040.411664950041
 33
0.0
  0
SOLID
  5
DB
330
D1
100
AcDbEntity
  8
cotas
100
AcDbTrace
 10
3817.036234607947
 20
3039.652347209994
 30
0.0
 11
3816.756416326246
 21
3042.973915038646
 31
0.0
 12
3806.93162198114
 22
3040.473676279218
 32
0.0
 13
3806.93162198114
 23
3040.473676279218
 33
0.0
  0
MTEXT
  5
DC
330
D1
100
AcDbEntity
  8
cotas
100
AcDbMText
 10
3767.143930214334
 20
3057.202297200597
 30
0.0
 40
10.0
 41
0.0
 71
     5
 72
     1
  1
2,0°
  7
SANINDUSA
 11
0.9806993822570998
 21
-0.1955216653993696
 31
0.0
 73
     1
 44
1.0
1001
ACAD
1000
MTEXTBEGIN
1070
    73
1070
     1
1070
    44
1040
1.0
1070
    74
1070
     0
1000
MTEXTEND
  0
POINT
  5
DD
330
D1
100
AcDbEntity
  8
Defpoints
 62
     0
100
AcDbPoint
 10
3805.747681714141
 20
3040.439227095566
 30
0.0
  0
POINT
  5
DE
330
D1
100
AcDbEntity
  8
Defpoints
 62
     0
100
AcDbPoint
 10
3803.378999463266
 20
3142.20735556703
 30
0.0
  0
POINT
  5
DF
330
D1
100
AcDbEntity
  8
Defpoints
 62
     0
100
AcDbPoint
 10
3803.378999463266
 20
3142.20735556703
 30
0.0
  0
POINT
  5
E0
330
D1
100
AcDbEntity
  8
Defpoints
 62
     0
100
AcDbPoint
 10
3804.684934734074
 20
3104.810306107772
 30
0.0
  0
POINT
  5
E1
330
D1
100
AcDbEntity
  8
Defpoints
 62
     0
100
AcDbPoint
 10
3803.378999463266
 20
3133.666045085416
 30
0.0
  0
ENDBLK
  5
E2
330
D1
100
AcDbEntity
  8
0
100
AcDbBlockEnd
  0
BLOCK
  5
E4
330
E3
100
AcDbEntity
  8
0
100
AcDbBlockBegin
  2
*D18
 70
     1
 10
0.0
 20
0.0
 30
0.0
  3
*D18
  1

  0
LINE
  5
E5
330
E3
100
AcDbEntity
  8
cotas
100
AcDbLine
 10
4988.358643709058
 20
3966.067023186518
 30
0.0
 11
4988.358643709058
 21
3996.067023186518
 31
0.0
  0
LINE
  5
E6
330
E3
100
AcDbEntity
  8
cotas
100
AcDbLine
 10
4918.35864343273
 20
3966.067023186518
 30
0.0
 11
4918.35864343273
 21
3996.067023186518
 31
0.0
  0
LINE
  5
E7
330
E3
100
AcDbEntity
  8
cotas
100
AcDbLine
 10
4978.358643709058
 20
3991.067023186518
 30
0.0
 11
4928.35864343273
 21
3991.067023186518
 31
0.0
  0
SOLID
  5
E8
330
E3
100
AcDbEntity
  8
cotas
100
AcDbTrace
 10
4978.358643709058
 20
3992.733689853184
 30
0.0
 11
4978.358643709058
 21
3989.400356519852
 31
0.0
 12
4988.358643709058
 22
3991.067023186518
 32
0.0
 13
4988.358643709058
 23
3991.067023186518
 33
0.0
  0
SOLID
  5
E9
330
E3
100
AcDbEntity
  8
cotas
100
AcDbTrace
 10
4928.35864343273
 20
3992.733689853184
 30
0.0
 11
4928.35864343273
 21
3989.400356519852
 31
0.0
 12
4918.35864343273
 22
3991.067023186518
 32
0.0
 13
4918.35864343273
 23
3991.067023186518
 33
0.0
  0
MTEXT
  5
EA
330
E3
100
AcDbEntity
  8
cotas
100
AcDbMText
 10
4953.358643570894
 20
4001.271858646558
 30
0.0
 40
10.0
 41
0.0
 71
     5
 72
     1
  1
70
  7
SANINDUSA
 73
     1
 44
1.0
1001
ACAD
1000
MTEXTBEGIN
1070
    73
1070
     1
1070
    44
1040
1.0
1070
    74
1070
     0
1000
MTEXTEND
  0
POINT
  5
EB
330
E3
100
AcDbEntity
  8
Defpoints
 62
     0
100
AcDbPoint
 10
4988.358643709058
 20
3961.067023186518
 30
0.0
  0
POINT
  5
EC
330
E3
100
AcDbEntity
  8
Defpoints
 62
     0
100
AcDbPoint
 10
4918.35864343273
 20
3961.067023186518
 30
0.0
  0
POINT
  5
ED
330
E3
100
AcDbEntity
  8
Defpoints
 62
     0
100
AcDbPoint
 10
4918.35864343273
 20
3991.067023186518
 30
0.0
  0
ENDBLK
  5
EE
330
E3
100
AcDbEntity
  8
0
100
AcDbBlockEnd
  0
BLOCK
  5
F0
330
EF
100
AcDbEntity
  8
0
100
AcDbBlockBegin
  2
*D19
 70
     1
 10
0.0
 20
0.0
 30
0.0
  3
*D19
  1

  0
LINE
  5
F1
330
EF
100
AcDbEntity
  8
cotas
100
AcDbLine
 10
4988.358643709058
 20
3966.067023186518
 30
0.0
 11
4988.358643709058
 21
3996.067023186518
 31
0.0
  0
LINE
  5
F2
330
EF
100
AcDbEntity
  8
cotas
100
AcDbLine
 10
5020.765444534885
 20
3906.492373098454
 30
0.0
 11
5020.765444534885
 21
3996.067023186518
 31
0.0
  0
LINE
  5
F3
330
EF
100
AcDbEntity
  8
cotas
100
AcDbLine
 10
4998.358643709058
 20
3991.067023186518
 30
0.0
 11
5010.765444534886
 21
3991.067023186518
 31
0.0
  0
LINE
  5
F4
330
EF
100
AcDbEntity
  8
cotas
100
AcDbLine
 10
5020.765444534885
 20
3991.067023186518
 30
0.0
 11
5070.214739363629
 21
3991.067023186518
 31
0.0
  0
SOLID
  5
F5
330
EF
100
AcDbEntity
  8
cotas
100
AcDbTrace
 10
4998.358643709058
 20
3992.733689853184
 30
0.0
 11
4998.358643709058
 21
3989.400356519852
 31
0.0
 12
4988.358643709058
 22
3991.067023186518
 32
0.0
 13
4988.358643709058
 23
3991.067023186518
 33
0.0
  0
SOLID
  5
F6
330
EF
100
AcDbEntity
  8
cotas
100
AcDbTrace
 10
5010.765444534886
 20
3992.733689853184
 30
0.0
 11
5010.765444534886
 21
3989.400356519852
 31
0.0
 12
5020.765444534885
 22
3991.067023186518
 32
0.0
 13
5020.765444534885
 23
3991.067023186518
 33
0.0
  0
MTEXT
  5
F7
330
EF
100
AcDbEntity
  8
cotas
100
AcDbMText
 10
5050.490091949257
 20
4002.413564489406
 30
0.0
 40
10.0
 41
0.0
 71
     5
 72
     1
  1
32,4
  7
SANINDUSA
 73
     1
 44
1.0
1001
ACAD
1000
MTEXTBEGIN
1070
    73
1070
     1
1070
    44
1040
1.0
1070
    74
1070
     0
1000
MTEXTEND
  0
POINT
  5
F8
330
EF
100
AcDbEntity
  8
Defpoints
 62
     0
100
AcDbPoint
 10
4988.358643709058
 20
3961.067023186518
 30
0.0
  0
POINT
  5
F9
330
EF
100
AcDbEntity
  8
Defpoints
 62
     0
100
AcDbPoint
 10
5020.765444534885
 20
3901.492373098454
 30
0.0
  0
POINT
  5
FA
330
EF
100
AcDbEntity
  8
Defpoints
 62
     0
100
AcDbPoint
 10
5020.765444534885
 20
3991.067023186518
 30
0.0
  0
ENDBLK
  5
FB
330
EF
100
AcDbEntity
  8
0
100
AcDbBlockEnd
  0
BLOCK
  5
FD
330
FC
100
AcDbEntity
  8
0
100
AcDbBlockBegin
  2
*D20
 70
     1
 10
0.0
 20
0.0
 30
0.0
  3
*D20
  1

  0
LINE
  5
FE
330
FC
100
AcDbEntity
  8
cotas
100
AcDbLine
 10
5020.85270652626
 20
3906.491611574948
 30
0.0
 11
5021.264781529317
 21
3930.099383733426
 31
0.0
  0
LINE
  5
FF
330
FC
100
AcDbEntity
  8
cotas
100
AcDbLine
 10
5482.782341754335
 20
3898.428603571879
 30
0.0
 11
5483.194416757392
 21
3922.036375730357
 31
0.0
  0
LINE
  5
100
330
FC
100
AcDbEntity
  8
cotas
100
AcDbLine
 10
5031.175996490929
 20
3924.925621274181
 30
0.0
 11
5473.108677813027
 21
3917.211661236613
 31
0.0
  0
SOLID
  5
101
330
FC
100
AcDbEntity
  8
cotas
100
AcDbTrace
 10
5031.205083821388
 20
3926.592034099679
 30
0.0
 11
5031.146909160471
 21
3923.259208448683
 31
0.0
 12
5021.177519537942
 22
3925.100145256932
 32
0.0
 13
5021.177519537942
 23
3925.100145256932
 33
0.0
  0
SOLID
  5
102
330
FC
100
AcDbEntity
  8
cotas
100
AcDbTrace
 10
5473.137765143486
 20
3918.87807406211
 30
0.0
 11
5473.079590482569
 21
3915.545248411115
 31
0.0
 12
5483.107154766017
 22
3917.037137253862
 32
0.0
 13
5483.107154766017
 23
3917.037137253862
 33
0.0
  0
MTEXT
  5
103
330
FC
100
AcDbEntity
  8
cotas
100
AcDbMText
 10
5252.320494609184
 20
3931.275279917951
 30
0.0
 40
10.0
 41
0.0
 71
     5
 72
     1
  1
462
  7
SANINDUSA
 11
0.9998476952988635
 21
-0.0174523982750426
 31
0.0
 73
     1
 44
1.0
1001
ACAD
1000
MTEXTBEGIN
1070
    73
1070
     1
1070
    44
1040
1.0
1070
    74
1070
     0
1000
MTEXTEND
  0
POINT
  5
104
330
FC
100
AcDbEntity
  8
Defpoints
 62
     0
100
AcDbPoint
 10
5020.765444534884
 20
3901.492373098454
 30
0.0
  0
POINT
  5
105
330
FC
100
AcDbEntity
  8
Defpoints
 62
     0
100
AcDbPoint
 10
5482.69507976296
 20
3893.429365095384
 30
0.0
  0
POINT
  5
106
330
FC
100
AcDbEntity
  8
Defpoints
 62
     0
100
AcDbPoint
 10
5483.107154766017
 20
3917.037137253862
 30
0.0
  0
ENDBLK
  5
107
330
FC
100
AcDbEntity
  8
0
100
AcDbBlockEnd
  0
BLOCK
  5
109
330
108
100
AcDbEntity
  8
0
100
AcDbBlockBegin
  2
*D21
 70
     1
 10
0.0
 20
0.0
 30
0.0
  3
*D21
  1

  0
LINE
  5
10A
330
108
100
AcDbEntity
  8
cotas
100
AcDbLine
 10
5487.695079762961
 20
3893.429365095384
 30
0.0
 11
5537.180845437417
 21
3893.429365095384
 31
0.0
  0
LINE
  5
10B
330
108
100
AcDbEntity
  8
cotas
100
AcDbLine
 10
5613.358651819009
 20
3961.067023186517
 30
0.0
 11
5527.180845437417
 21
3961.067023186517
 31
0.0
  0
LINE
  5
10C
330
108
100
AcDbEntity
  8
cotas
100
AcDbLine
 10
5532.180845437417
 20
3903.429365095384
 30
0.0
 11
5532.180845437417
 21
3951.067023186517
 31
0.0
  0
SOLID
  5
10D
330
108
100
AcDbEntity
  8
cotas
100
AcDbTrace
 10
5530.51417877075
 20
3903.429365095384
 30
0.0
 11
5533.847512104084
 21
3903.429365095384
 31
0.0
 12
5532.180845437417
 22
3893.429365095384
 32
0.0
 13
5532.180845437417
 23
3893.429365095384
 33
0.0
  0
SOLID
  5
10E
330
108
100
AcDbEntity
  8
cotas
100
AcDbTrace
 10
5530.51417877075
 20
3951.067023186517
 30
0.0
 11
5533.847512104084
 21
3951.067023186517
 31
0.0
 12
5532.180845437417
 22
3961.067023186517
 32
0.0
 13
5532.180845437417
 23
3961.067023186517
 33
0.0
  0
MTEXT
  5
10F
330
108
100
AcDbEntity
  8
cotas
100
AcDbMText
 10
5520.844378009613
 20
3927.248194140952
 30
0.0
 40
10.0
 41
0.0
 71
     5
 72
     1
  1
67,6
  7
SANINDUSA
 11
0.0000000000000001
 21
1.0
 31
0.0
 73
     1
 44
1.0
1001
ACAD
1000
MTEXTBEGIN
1070
    73
1070
     1
1070
    44
1040
1.0
1070
    74
1070
     0
1000
MTEXTEND
  0
POINT
  5
110
330
108
100
AcDbEntity
  8
Defpoints
 62
     0
100
AcDbPoint
 10
5482.695079762961
 20
3893.429365095384
 30
0.0
  0
POINT
  5
111
330
108
100
AcDbEntity
  8
Defpoints
 62
     0
100
AcDbPoint
 10
5618.358651819009
 20
3961.067023186517
 30
0.0
  0
POINT
  5
112
330
108
100
AcDbEntity
  8
Defpoints
 62
     0
100
AcDbPoint
 10
5532.180845437417
 20
3961.067023186517
 30
0.0
  0
ENDBLK
  5
113
330
108
100
AcDbEntity
  8
0
100
AcDbBlockEnd
  0
BLOCK
  5
115
330
114
100
AcDbEntity
  8
0
100
AcDbBlockBegin
  2
*D22
 70
     1
 10
0.0
 20
0.0
 30
0.0
  3
*D22
  1

  0
LINE
  5
116
330
114
100
AcDbEntity
  8
cotas
100
AcDbLine
 10
5487.695079762961
 20
3893.429365095384
 30
0.0
 11
5537.180845437417
 21
3893.429365095384
 31
0.0
  0
LINE
  5
117
330
114
100
AcDbEntity
  8
cotas
100
AcDbLine
 10
5487.695079762961
 20
3871.410549411271
 30
0.0
 11
5537.180845437417
 21
3871.410549411271
 31
0.0
  0
LINE
  5
118
330
114
100
AcDbEntity
  8
cotas
100
AcDbLine
 10
5532.180845437417
 20
3903.429365095384
 30
0.0
 11
5532.180845437417
 21
3913.429365095384
 31
0.0
  0
LINE
  5
119
330
114
100
AcDbEntity
  8
cotas
100
AcDbLine
 10
5532.180845437417
 20
3861.410549411271
 30
0.0
 11
5532.180845437417
 21
3825.896781781989
 31
0.0
  0
LINE
  5
11A
330
114
100
AcDbEntity
  8
cotas
100
AcDbLine
 10
5532.180845437417
 20
3893.429365095384
 30
0.0
 11
5532.180845437417
 21
3871.410549411271
 31
0.0
  0
SOLID
  5
11B
330
114
100
AcDbEntity
  8
cotas
100
AcDbTrace
 10
5530.51417877075
 20
3903.429365095384
 30
0.0
 11
5533.847512104084
 21
3903.429365095384
 31
0.0
 12
5532.180845437417
 22
3893.429365095384
 32
0.0
 13
5532.180845437417
 23
3893.429365095384
 33
0.0
  0
SOLID
  5
11C
330
114
100
AcDbEntity
  8
cotas
100
AcDbTrace
 10
5530.51417877075
 20
3861.410549411271
 30
0.0
 11
5533.847512104084
 21
3861.410549411271
 31
0.0
 12
5532.180845437417
 22
3871.410549411271
 32
0.0
 13
5532.180845437417
 23
3871.410549411271
 33
0.0
  0
MTEXT
  5
11D
330
114
100
AcDbEntity
  8
cotas
100
AcDbMText
 10
5522.076748728214
 20
3838.653665596631
 30
0.0
 40
10.0
 41
0.0
 71
     5
 72
     1
  1
22
  7
SANINDUSA
 11
0.0000000000000001
 21
1.0
 31
0.0
 73
     1
 44
1.0
1001
ACAD
1000
MTEXTBEGIN
1070
    73
1070
     1
1070
    44
1040
1.0
1070
    74
1070
     0
1000
MTEXTEND
  0
POINT
  5
11E
330
114
100
AcDbEntity
  8
Defpoints
 62
     0
100
AcDbPoint
 10
5482.695079762961
 20
3893.429365095384
 30
0.0
  0
POINT
  5
11F
330
114
100
AcDbEntity
  8
Defpoints
 62
     0
100
AcDbPoint
 10
5482.695079762961
 20
3871.410549411271
 30
0.0
  0
POINT
  5
120
330
114
100
AcDbEntity
  8
Defpoints
 62
     0
100
AcDbPoint
 10
5532.180845437417
 20
3871.410549411271
 30
0.0
  0
ENDBLK
  5
121
330
114
100
AcDbEntity
  8
0
100
AcDbBlockEnd
  0
BLOCK
  5
123
330
122
100
AcDbEntity
  8
0
100
AcDbBlockBegin
  2
*D23
 70
     1
 10
0.0
 20
0.0
 30
0.0
  3
*D23
  1

  0
LINE
  5
124
330
122
100
AcDbEntity
  8
cotas
100
AcDbLine
 10
5015.765444534885
 20
3901.492373098454
 30
0.0
 11
4882.66044085222
 21
3901.492373098454
 31
0.0
  0
LINE
  5
125
330
122
100
AcDbEntity
  8
cotas
100
AcDbLine
 10
5015.765444534885
 20
3891.490849740798
 30
0.0
 11
4882.66044085222
 21
3891.490849740798
 31
0.0
  0
LINE
  5
126
330
122
100
AcDbEntity
  8
cotas
100
AcDbLine
 10
4887.660440852221
 20
3911.492373098454
 30
0.0
 11
4887.660440852221
 21
3921.492373098454
 31
0.0
  0
LINE
  5
127
330
122
100
AcDbEntity
  8
cotas
100
AcDbLine
 10
4887.660440852221
 20
3881.490849740798
 30
0.0
 11
4887.660440852221
 21
3846.77627620151
 31
0.0
  0
LINE
  5
128
330
122
100
AcDbEntity
  8
cotas
100
AcDbLine
 10
4887.660440852221
 20
3901.492373098454
 30
0.0
 11
4887.660440852221
 21
3891.490849740798
 31
0.0
  0
SOLID
  5
129
330
122
100
AcDbEntity
  8
cotas
100
AcDbTrace
 10
4885.993774185553
 20
3911.492373098454
 30
0.0
 11
4889.327107518887
 21
3911.492373098454
 31
0.0
 12
4887.660440852221
 22
3901.492373098454
 32
0.0
 13
4887.660440852221
 23
3901.492373098454
 33
0.0
  0
SOLID
  5
12A
330
122
100
AcDbEntity
  8
cotas
100
AcDbTrace
 10
4885.993774185553
 20
3881.490849740798
 30
0.0
 11
4889.327107518887
 21
3881.490849740798
 31
0.0
 12
4887.660440852221
 22
3891.490849740798
 32
0.0
 13
4887.660440852221
 23
3891.490849740798
 33
0.0
  0
MTEXT
  5
12B
330
122
100
AcDbEntity
  8
cotas
100
AcDbMText
 10
4877.45560539218
 20
3859.133562971154
 30
0.0
 40
10.0
 41
0.0
 71
     5
 72
     1
  1
10
  7
SANINDUSA
 11
0.0000000000000001
 21
1.0
 31
0.0
 73
     1
 44
1.0
1001
ACAD
1000
MTEXTBEGIN
1070
    73
1070
     1
1070
    44
1040
1.0
1070
    74
1070
     0
1000
MTEXTEND
  0
POINT
  5
12C
330
122
100
AcDbEntity
  8
Defpoints
 62
     0
100
AcDbPoint
 10
5020.765444534885
 20
3901.492373098454
 30
0.0
  0
POINT
  5
12D
330
122
100
AcDbEntity
  8
Defpoints
 62
     0
100
AcDbPoint
 10
5020.765444534885
 20
3891.490849740798
 30
0.0
  0
POINT
  5
12E
330
122
100
AcDbEntity
  8
Defpoints
 62
     0
100
AcDbPoint
 10
4887.660440852221
 20
3891.490849740798
 30
0.0
  0
ENDBLK
  5
12F
330
122
100
AcDbEntity
  8
0
100
AcDbBlockEnd
  0
BLOCK
  5
131
330
130
100
AcDbEntity
  8
0
100
AcDbBlockBegin
  2
*D24
 70
     1
 10
0.0
 20
0.0
 30
0.0
  3
*D24
  1

  0
ARC
  5
132
330
130
100
AcDbEntity
  8
cotas
100
AcDbCircle
 10
4984.592457487315
 20
3957.167023186518
 30
0.0
 40
47.01428158020867
100
AcDbArc
 50
192.2099791823491
 51
259.7900208176419
  0
SOLID
  5
133
330
130
100
AcDbEntity
  8
cotas
100
AcDbTrace
 10
4936.984468056295
 20
3947.046485218324
 30
0.0
 11
4940.298897010888
 21
3947.400987427151
 31
0.0
 12
4937.578175907106
 22
3957.167023186517
 32
0.0
 13
4937.578175907106
 23
3957.167023186517
 33
0.0
  0
SOLID
  5
134
330
130
100
AcDbEntity
  8
cotas
100
AcDbTrace
 10
4976.378193900846
 20
3912.559615417583
 30
0.0
 11
4976.139579547556
 21
3909.234833574887
 31
0.0
 12
4986.233232252287
 22
3910.181381436364
 32
0.0
 13
4986.233232252287
 23
3910.181381436364
 33
0.0
  0
MTEXT
  5
135
330
130
100
AcDbEntity
  8
cotas
100
AcDbMText
 10
4959.815563148315
 20
3931.509798016901
 30
0.0
 40
10.0
 41
0.0
 71
     5
 72
     1
  1
92,0°
  7
SANINDUSA
 11
0.719339800338595
 21
-0.6946583704590556
 31
0.0
 73
     1
 44
1.0
1001
ACAD
1000
MTEXTBEGIN
1070
    73
1070
     1
1070
    44
1040
1.0
1070
    74
1070
     0
1000
MTEXTEND
  0
POINT
  5
136
330
130
100
AcDbEntity
  8
Defpoints
 62
     0
100
AcDbPoint
 10
4944.153163247184
 20
3933.187737253378
 30
0.0
  0
POINT
  5
137
330
130
100
AcDbEntity
  8
Defpoints
 62
     0
100
AcDbPoint
 10
4925.237524274717
 20
3957.167023186517
 30
0.0
  0
POINT
  5
138
330
130
100
AcDbEntity
  8
Defpoints
 62
     0
100
AcDbPoint
 10
4986.309376896791
 20
3908.000884110183
 30
0.0
  0
POINT
  5
139
330
130
100
AcDbEntity
  8
Defpoints
 62
     0
100
AcDbPoint
 10
4984.696933849171
 20
3954.175211626296
 30
0.0
  0
POINT
  5
13A
330
130
100
AcDbEntity
  8
Defpoints
 62
     0
100
AcDbPoint
 10
4981.598822285416
 20
3957.167023186517
 30
0.0
  0
ENDBLK
  5
13B
330
130
100
AcDbEntity
  8
0
100
AcDbBlockEnd
  0
BLOCK
  5
13D
330
13C
100
AcDbEntity
  8
0
100
AcDbBlockBegin
  2
*D25
 70
     1
 10
0.0
 20
0.0
 30
0.0
  3
*D25
  1

  0
LINE
  5
13E
330
13C
100
AcDbEntity
  8
cotas
100
AcDbLine
 10
4954.245448176454
 20
3860.176509464328
 30
0.0
 11
4987.296324790438
 21
3890.482619402875
 31
0.0
  0
MTEXT
  5
13F
330
13C
100
AcDbEntity
  8
cotas
100
AcDbMText
 10
4960.315900619665
 20
3879.333231293046
 30
0.0
 40
10.0
 41
0.0
 71
     5
 72
     1
  1
R17
  7
SANINDUSA
 11
0.7370489033731272
 21
0.675839414385156
 31
0.0
 73
     1
 44
1.0
1001
ACAD
1000
MTEXTBEGIN
1070
    73
1070
     1
1070
    44
1040
1.0
1070
    74
1070
     0
1000
MTEXTEND
  0
LINE
  5
140
330
13C
100
AcDbEntity
  8
cotas
100
AcDbLine
 10
5007.196645181507
 20
3908.730283591269
 30
0.0
 11
4994.66681382417
 21
3897.241013546727
 31
0.0
  0
SOLID
  5
141
330
13C
100
AcDbEntity
  8
cotas
100
AcDbTrace
 10
4986.169925766462
 20
3891.711034241831
 30
0.0
 11
4988.422723814413
 21
3889.25420456392
 31
0.0
 12
4994.66681382417
 22
3897.241013546727
 32
0.0
 13
4994.66681382417
 23
3897.241013546727
 33
0.0
  0
POINT
  5
142
330
13C
100
AcDbEntity
  8
Defpoints
 62
     0
100
AcDbPoint
 10
4994.66681382417
 20
3897.241013546727
 30
0.0
  0
POINT
  5
143
330
13C
100
AcDbEntity
  8
Defpoints
 62
     0
100
AcDbPoint
 10
5007.196645181507
 20
3908.730283591269
 30
0.0
  0
ENDBLK
  5
144
330
13C
100
AcDbEntity
  8
0
100
AcDbBlockEnd
  0
BLOCK
  5
146
330
145
100
AcDbEntity
  8
0
100
AcDbBlockBegin
  2
*D26
 70
     1
 10
0.0
 20
0.0
 30
0.0
  3
*D26
  1

  0
LINE
  5
147
330
145
100
AcDbEntity
  8
cotas
100
AcDbLine
 10
5030.592034883735
 20
3839.722901361584
 30
0.0
 11
5017.404358787614
 21
3882.539880372705
 31
0.0
  0
MTEXT
  5
148
330
145
100
AcDbEntity
  8
cotas
100
AcDbMText
 10
5035.222694581284
 20
3859.356759320792
 30
0.0
 40
10.0
 41
0.0
 71
     5
 72
     1
  1
R10
  7
SANINDUSA
 11
0.2943554145873806
 21
-0.955696023797887
 31
0.0
 73
     1
 44
1.0
1001
ACAD
1000
MTEXTBEGIN
1070
    73
1070
     1
1070
    44
1040
1.0
1070
    74
1070
     0
1000
MTEXTEND
  0
LINE
  5
149
330
145
100
AcDbEntity
  8
cotas
100
AcDbLine
 10
5011.517250495867
 20
3901.653800848661
 30
0.0
 11
5014.460804641739
 21
3892.096840610683
 31
0.0
  0
SOLID
  5
14A
330
145
100
AcDbEntity
  8
cotas
100
AcDbTrace
 10
5018.997185493944
 20
3883.03047273035
 30
0.0
 11
5015.811532081284
 21
3882.049288015059
 31
0.0
 12
5014.460804641739
 22
3892.096840610683
 32
0.0
 13
5014.460804641739
 23
3892.096840610683
 33
0.0
  0
POINT
  5
14B
330
145
100
AcDbEntity
  8
Defpoints
 62
     0
100
AcDbPoint
 10
5014.460804641739
 20
3892.096840610683
 30
0.0
  0
POINT
  5
14C
330
145
100
AcDbEntity
  8
Defpoints
 62
     0
100
AcDbPoint
 10
5011.517250495867
 20
3901.653800848661
 30
0.0
  0
ENDBLK
  5
14D
330
145
100
AcDbEntity
  8
0
100
AcDbBlockEnd
  0
BLOCK
  5
14F
330
14E
100
AcDbEntity
  8
0
100
AcDbBlockBegin
  2
*D27
 70
     1
 10
0.0
 20
0.0
 30
0.0
  3
*D27
  1

  0
LINE
  5
150
330
14E
100
AcDbEntity
  8
cotas
100
AcDbLine
 10
5058.337940744097
 20
3861.010331004637
 30
0.0
 11
5028.942218674154
 21
3892.201277157708
 31
0.0
  0
MTEXT
  5
151
330
14E
100
AcDbEntity
  8
cotas
100
AcDbMText
 10
5056.665612053047
 20
3877.36515907804
 30
0.0
 40
10.0
 41
0.0
 71
     5
 72
     1
  1
R7
  7
SANINDUSA
 11
0.6858537116680536
 21
-0.7277394356437986
 31
0.0
 73
     1
 44
1.0
1001
ACAD
1000
MTEXTBEGIN
1070
    73
1070
     1
1070
    44
1040
1.0
1070
    74
1070
     0
1000
MTEXTEND
  0
SOLID
  5
152
330
14E
100
AcDbEntity
  8
cotas
100
AcDbTrace
 10
5030.15511773356
 20
3893.344366677155
 30
0.0
 11
5027.729319614747
 21
3891.058187638261
 31
0.0
 12
5022.083681557474
 22
3899.478671514146
 32
0.0
 13
5022.083681557474
 23
3899.478671514146
 33
0.0
  0
POINT
  5
153
330
14E
100
AcDbEntity
  8
Defpoints
 62
     0
100
AcDbPoint
 10
5022.083681557474
 20
3899.478671514146
 30
0.0
  0
POINT
  5
154
330
14E
100
AcDbEntity
  8
Defpoints
 62
     0
100
AcDbPoint
 10
5026.88465753915
 20
3894.38449546464
 30
0.0
  0
ENDBLK
  5
155
330
14E
100
AcDbEntity
  8
0
100
AcDbBlockEnd
  0
BLOCK
  5
157
330
156
100
AcDbEntity
  8
0
100
AcDbBlockBegin
  2
*D28
 70
     1
 10
0.0
 20
0.0
 30
0.0
  3
*D28
  1

  0
LINE
  5
158
330
156
100
AcDbEntity
  8
cotas
100
AcDbLine
 10
5466.665790110086
 20
3824.591931636139
 30
0.0
 11
5487.694487991134
 21
3864.197671245288
 31
0.0
  0
MTEXT
  5
159
330
156
100
AcDbEntity
  8
cotas
100
AcDbMText
 10
5465.988312451915
 20
3844.676039983558
 30
0.0
 40
10.0
 41
0.0
 71
     5
 72
     1
  1
R17
  7
SANINDUSA
 11
0.4689490960742833
 21
0.8832251951179342
 31
0.0
 73
     1
 44
1.0
1001
ACAD
1000
MTEXTBEGIN
1070
    73
1070
     1
1070
    44
1040
1.0
1070
    74
1070
     0
1000
MTEXTEND
  0
LINE
  5
15A
330
156
100
AcDbEntity
  8
cotas
100
AcDbLine
 10
5500.358021218961
 20
3888.04834437732
 30
0.0
 11
5492.383978951878
 21
3873.029923196467
 31
0.0
  0
SOLID
  5
15B
330
156
100
AcDbEntity
  8
cotas
100
AcDbTrace
 10
5486.222445999271
 20
3864.979253072078
 30
0.0
 11
5489.166529982997
 21
3863.416089418498
 31
0.0
 12
5492.383978951878
 22
3873.029923196467
 32
0.0
 13
5492.383978951878
 23
3873.029923196467
 33
0.0
  0
POINT
  5
15C
330
156
100
AcDbEntity
  8
Defpoints
 62
     0
100
AcDbPoint
 10
5492.383978951878
 20
3873.029923196467
 30
0.0
  0
POINT
  5
15D
330
156
100
AcDbEntity
  8
Defpoints
 62
     0
100
AcDbPoint
 10
5500.358021218961
 20
3888.04834437732
 30
0.0
  0
ENDBLK
  5
15E
330
156
100
AcDbEntity
  8
0
100
AcDbBlockEnd
  0
BLOCK
  5
160
330
15F
100
AcDbEntity
  8
0
100
AcDbBlockBegin
  2
*D29
 70
     1
 10
0.0
 20
0.0
 30
0.0
  3
*D29
  1

  0
LINE
  5
161
330
15F
100
AcDbEntity
  8
cotas
100
AcDbLine
 10
5443.664086602765
 20
3854.221068481477
 30
0.0
 11
5474.266526888835
 21
3884.430586728129
 31
0.0
  0
MTEXT
  5
162
330
15F
100
AcDbEntity
  8
cotas
100
AcDbMText
 10
5445.925332950949
 20
3870.504920897729
 30
0.0
 40
10.0
 41
0.0
 71
     5
 72
     1
  1
R7
  7
SANINDUSA
 11
0.7116607288361506
 21
0.7025233142269367
 31
0.0
 73
     1
 44
1.0
1001
ACAD
1000
MTEXTBEGIN
1070
    73
1070
     1
1070
    44
1040
1.0
1070
    74
1070
     0
1000
MTEXTEND
  0
SOLID
  5
163
330
15F
100
AcDbEntity
  8
cotas
100
AcDbTrace
 10
5473.095654698457
 20
3885.616687942856
 30
0.0
 11
5475.437399079213
 21
3883.244485513402
 31
0.0
 12
5481.383134177196
 22
3891.455819870399
 32
0.0
 13
5481.383134177196
 23
3891.455819870399
 33
0.0
  0
POINT
  5
164
330
15F
100
AcDbEntity
  8
Defpoints
 62
     0
100
AcDbPoint
 10
5481.383134177196
 20
3891.455819870399
 30
0.0
  0
POINT
  5
165
330
15F
100
AcDbEntity
  8
Defpoints
 62
     0
100
AcDbPoint
 10
5476.401516836521
 20
3886.538164332337
 30
0.0
  0
ENDBLK
  5
166
330
15F
100
AcDbEntity
  8
0
100
AcDbBlockEnd
  0
BLOCK
  5
168
330
167
100
AcDbEntity
  8
0
100
AcDbBlockBegin
  2
*D30
 70
     1
 10
0.0
 20
0.0
 30
0.0
  3
*D30
  1

  0
ARC
  5
169
330
167
100
AcDbEntity
  8
cotas
100
AcDbCircle
 10
1607.73844565336
 20
3961.067023186519
 30
0.0
 40
3592.3580387123
100
AcDbArc
 50
359.1594928535916
 51
359.8405064378472
  0
SOLID
  5
16A
330
167
100
AcDbEntity
  8
cotas
100
AcDbTrace
 10
5201.376409461238
 20
3908.343628432088
 30
0.0
 11
5198.043506069545
 21
3908.397164333534
 31
0.0
 12
5199.549350061051
 22
3898.371686207728
 32
0.0
 13
5199.549350061051
 23
3898.371686207728
 33
0.0
  0
SOLID
  5
16B
330
167
100
AcDbEntity
  8
cotas
100
AcDbTrace
 10
5198.415900878869
 20
3951.069352611745
 30
0.0
 11
5201.749230983486
 21
3951.064713133585
 31
0.0
 12
5200.096484365659
 22
3961.067023186519
 32
0.0
 13
5200.096484365659
 23
3961.067023186519
 33
0.0
  0
MTEXT
  5
16C
330
167
100
AcDbEntity
  8
cotas
100
AcDbMText
 10
5188.616946755054
 20
3929.817147789078
 30
0.0
 40
10.0
 41
0.0
 71
     5
 72
     1
  1
1,0°
  7
SANINDUSA
 11
0.0087265416815007
 21
0.9999619230102121
 31
0.0
 73
     1
 44
1.0
1001
ACAD
1000
MTEXTBEGIN
1070
    73
1070
     1
1070
    44
1040
1.0
1070
    74
1070
     0
1000
MTEXTEND
  0
POINT
  5
16D
330
167
100
AcDbEntity
  8
Defpoints
 62
     0
100
AcDbPoint
 10
5199.853310134216
 20
3919.268952937183
 30
0.0
  0
POINT
  5
16E
330
167
100
AcDbEntity
  8
Defpoints
 62
     0
100
AcDbPoint
 10
5008.582374492453
 20
3961.067023186518
 30
0.0
  0
POINT
  5
16F
330
167
100
AcDbEntity
  8
Defpoints
 62
     0
100
AcDbPoint
 10
5276.554144424157
 20
3897.02756156975
 30
0.0
  0
POINT
  5
170
330
167
100
AcDbEntity
  8
Defpoints
 62
     0
100
AcDbPoint
 10
5027.006824470761
 20
3901.383429329222
 30
0.0
  0
POINT
  5
171
330
167
100
AcDbEntity
  8
Defpoints
 62
     0
100
AcDbPoint
 10
6028.134921265776
 20
3961.067023186518
 30
0.0
  0
ENDBLK
  5
172
330
167
100
AcDbEntity
  8
0
100
AcDbBlockEnd
  0
BLOCK
  5
174
330
173
100
AcDbEntity
  8
0
100
AcDbBlockBegin
  2
*D31
 70
     1
 10
0.0
 20
0.0
 30
0.0
  3
*D31
  1

  0
LINE
  5
175
330
173
100
AcDbEntity
  8
cotas
100
AcDbLine
 10
6318.358632238261
 20
3966.067023186518
 30
0.0
 11
6318.358632238261
 21
3996.067023186517
 31
0.0
  0
LINE
  5
176
330
173
100
AcDbEntity
  8
cotas
100
AcDbLine
 10
6248.358654416133
 20
3966.067023186518
 30
0.0
 11
6248.358654416133
 21
3996.067023186517
 31
0.0
  0
LINE
  5
177
330
173
100
AcDbEntity
  8
cotas
100
AcDbLine
 10
6308.35863223826
 20
3991.067023186518
 30
0.0
 11
6258.358654416134
 21
3991.067023186518
 31
0.0
  0
SOLID
  5
178
330
173
100
AcDbEntity
  8
cotas
100
AcDbTrace
 10
6308.35863223826
 20
3992.733689853184
 30
0.0
 11
6308.35863223826
 21
3989.400356519851
 31
0.0
 12
6318.358632238261
 22
3991.067023186518
 32
0.0
 13
6318.358632238261
 23
3991.067023186518
 33
0.0
  0
SOLID
  5
179
330
173
100
AcDbEntity
  8
cotas
100
AcDbTrace
 10
6258.358654416134
 20
3992.733689853184
 30
0.0
 11
6258.358654416134
 21
3989.400356519851
 31
0.0
 12
6248.358654416133
 22
3991.067023186518
 32
0.0
 13
6248.358654416133
 23
3991.067023186518
 33
0.0
  0
MTEXT
  5
17A
330
173
100
AcDbEntity
  8
cotas
100
AcDbMText
 10
6283.358643327197
 20
4001.271858646557
 30
0.0
 40
10.0
 41
0.0
 71
     5
 72
     1
  1
70
  7
SANINDUSA
 73
     1
 44
1.0
1001
ACAD
1000
MTEXTBEGIN
1070
    73
1070
     1
1070
    44
1040
1.0
1070
    74
1070
     0
1000
MTEXTEND
  0
POINT
  5
17B
330
173
100
AcDbEntity
  8
Defpoints
 62
     0
100
AcDbPoint
 10
6318.358632238261
 20
3961.067023186518
 30
0.0
  0
POINT
  5
17C
330
173
100
AcDbEntity
  8
Defpoints
 62
     0
100
AcDbPoint
 10
6248.358654416133
 20
3961.067023186518
 30
0.0
  0
POINT
  5
17D
330
173
100
AcDbEntity
  8
Defpoints
 62
     0
100
AcDbPoint
 10
6248.358654416133
 20
3991.067023186518
 30
0.0
  0
ENDBLK
  5
17E
330
173
100
AcDbEntity
  8
0
100
AcDbBlockEnd
  0
BLOCK
  5
180
330
17F
100
AcDbEntity
  8
0
100
AcDbBlockBegin
  2
*D32
 70
     1
 10
0.0
 20
0.0
 30
0.0
  3
*D32
  1

  0
LINE
  5
181
330
17F
100
AcDbEntity
  8
cotas
100
AcDbLine
 10
6318.358632238261
 20
3966.067023186518
 30
0.0
 11
6318.358632238261
 21
4026.062023142276
 31
0.0
  0
LINE
  5
182
330
17F
100
AcDbEntity
  8
cotas
100
AcDbLine
 10
6138.358654161715
 20
3889.961702333907
 30
0.0
 11
6138.358654161715
 21
4026.062023142276
 31
0.0
  0
LINE
  5
183
330
17F
100
AcDbEntity
  8
cotas
100
AcDbLine
 10
6308.35863223826
 20
4021.062023142275
 30
0.0
 11
6148.358654161715
 21
4021.062023142275
 31
0.0
  0
SOLID
  5
184
330
17F
100
AcDbEntity
  8
cotas
100
AcDbTrace
 10
6308.35863223826
 20
4022.728689808942
 30
0.0
 11
6308.35863223826
 21
4019.395356475609
 31
0.0
 12
6318.358632238261
 22
4021.062023142275
 32
0.0
 13
6318.358632238261
 23
4021.062023142275
 33
0.0
  0
SOLID
  5
185
330
17F
100
AcDbEntity
  8
cotas
100
AcDbTrace
 10
6148.358654161715
 20
4022.728689808942
 30
0.0
 11
6148.358654161715
 21
4019.395356475609
 31
0.0
 12
6138.358654161715
 22
4021.062023142275
 32
0.0
 13
6138.358654161715
 23
4021.062023142275
 33
0.0
  0
MTEXT
  5
186
330
17F
100
AcDbEntity
  8
cotas
100
AcDbMText
 10
6228.358643199989
 20
4031.290364310844
 30
0.0
 40
10.0
 41
0.0
 71
     5
 72
     1
  1
180
  7
SANINDUSA
 73
     1
 44
1.0
1001
ACAD
1000
MTEXTBEGIN
1070
    73
1070
     1
1070
    44
1040
1.0
1070
    74
1070
     0
1000
MTEXTEND
  0
POINT
  5
187
330
17F
100
AcDbEntity
  8
Defpoints
 62
     0
100
AcDbPoint
 10
6318.358632238261
 20
3961.067023186518
 30
0.0
  0
POINT
  5
188
330
17F
100
AcDbEntity
  8
Defpoints
 62
     0
100
AcDbPoint
 10
6138.358654161715
 20
3884.961702333907
 30
0.0
  0
POINT
  5
189
330
17F
100
AcDbEntity
  8
Defpoints
 62
     0
100
AcDbPoint
 10
6138.358654161715
 20
4021.062023142275
 30
0.0
  0
ENDBLK
  5
18A
330
17F
100
AcDbEntity
  8
0
100
AcDbBlockEnd
  0
BLOCK
  5
18C
330
18B
100
AcDbEntity
  8
0
100
AcDbBlockBegin
  2
*D33
 70
     1
 10
0.0
 20
0.0
 30
0.0
  3
*D33
  1

  0
ARC
  5
18D
330
18B
100
AcDbEntity
  8
cotas
100
AcDbCircle
 10
6248.358654416133
 20
3961.067023186517
 30
0.0
 40
60.17204840949608
100
AcDbArc
 50
189.5329846044821
 51
258.4669963830445
  0
SOLID
  5
18E
330
18B
100
AcDbEntity
  8
cotas
100
AcDbTrace
 10
6187.356653902329
 20
3950.963115166234
 30
0.0
 11
6190.678459319951
 21
3951.240098701069
 31
0.0
 12
6188.186606006638
 22
3961.067023186517
 32
0.0
 13
6188.186606006638
 23
3961.067023186517
 33
0.0
  0
SOLID
  5
18F
330
18B
100
AcDbEntity
  8
cotas
100
AcDbTrace
 10
6236.524687434436
 20
3903.76492395226
 30
0.0
 11
6236.131942194872
 21
3900.454808805032
 31
0.0
 12
6246.25866025634
 22
3900.931630659955
 32
0.0
 13
6246.25866025634
 23
3900.931630659955
 33
0.0
  0
MTEXT
  5
190
330
18B
100
AcDbEntity
  8
cotas
100
AcDbMText
 10
6213.243764795732
 20
3927.156979710748
 30
0.0
 40
10.0
 41
0.0
 71
     5
 72
     1
  1
88,0°
  7
SANINDUSA
 11
0.694658251109633
 21
-0.7193399155929735
 31
0.0
 73
     1
 44
1.0
1001
ACAD
1000
MTEXTBEGIN
1070
    73
1070
     1
1070
    44
1040
1.0
1070
    74
1070
     0
1000
MTEXTEND
  0
POINT
  5
191
330
18B
100
AcDbEntity
  8
Defpoints
 62
     0
100
AcDbPoint
 10
6195.901597211999
 20
3931.589361147659
 30
0.0
  0
POINT
  5
192
330
18B
100
AcDbEntity
  8
Defpoints
 62
     0
100
AcDbPoint
 10
5208.582374492465
 20
3961.067023186518
 30
0.0
  0
POINT
  5
193
330
18B
100
AcDbEntity
  8
Defpoints
 62
     0
100
AcDbPoint
 10
6245.550663849173
 20
3880.657459108664
 30
0.0
  0
POINT
  5
194
330
18B
100
AcDbEntity
  8
Defpoints
 62
     0
100
AcDbPoint
 10
6248.122737887234
 20
3954.311321984832
 30
0.0
  0
POINT
  5
195
330
18B
100
AcDbEntity
  8
Defpoints
 62
     0
100
AcDbPoint
 10
6228.13492126579
 20
3961.067023186517
 30
0.0
  0
ENDBLK
  5
196
330
18B
100
AcDbEntity
  8
0
100
AcDbBlockEnd
  0
BLOCK
  5
198
330
197
100
AcDbEntity
  8
0
100
AcDbBlockBegin
  2
*D34
 70
     1
 10
0.0
 20
0.0
 30
0.0
  3
*D34
  1

  0
LINE
  5
199
330
197
100
AcDbEntity
  8
cotas
100
AcDbLine
 10
4918.358643432732
 20
3187.20735467296
 30
0.0
 11
4918.358643432732
 21
3217.207354672967
 31
0.0
  0
LINE
  5
19A
330
197
100
AcDbEntity
  8
cotas
100
AcDbLine
 10
6318.358675766256
 20
3187.207354672968
 30
0.0
 11
6318.358675766256
 21
3217.207354672967
 31
0.0
  0
LINE
  5
19B
330
197
100
AcDbEntity
  8
cotas
100
AcDbLine
 10
4928.358643432732
 20
3212.207354672968
 30
0.0
 11
6308.358675766256
 21
3212.207354672968
 31
0.0
  0
SOLID
  5
19C
330
197
100
AcDbEntity
  8
cotas
100
AcDbTrace
 10
4928.358643432732
 20
3213.874021339634
 30
0.0
 11
4928.358643432732
 21
3210.540688006301
 31
0.0
 12
4918.358643432732
 22
3212.207354672968
 32
0.0
 13
4918.358643432732
 23
3212.207354672968
 33
0.0
  0
SOLID
  5
19D
330
197
100
AcDbEntity
  8
cotas
100
AcDbTrace
 10
6308.358675766256
 20
3213.874021339634
 30
0.0
 11
6308.358675766256
 21
3210.540688006301
 31
0.0
 12
6318.358675766256
 22
3212.207354672968
 32
0.0
 13
6318.358675766256
 23
3212.207354672968
 33
0.0
  0
MTEXT
  5
19E
330
197
100
AcDbEntity
  8
cotas
100
AcDbMText
 10
5618.358659599493
 20
3222.412190133007
 30
0.0
 40
10.0
 41
0.0
 71
     5
 72
     1
  1
1400
  7
SANINDUSA
 73
     1
 44
1.0
1001
ACAD
1000
MTEXTBEGIN
1070
    73
1070
     1
1070
    44
1040
1.0
1070
    74
1070
     0
1000
MTEXTEND
  0
POINT
  5
19F
330
197
100
AcDbEntity
  8
Defpoints
 62
     0
100
AcDbPoint
 10
4918.358643432732
 20
3182.20735467296
 30
0.0
  0
POINT
  5
1A0
330
197
100
AcDbEntity
  8
Defpoints
 62
     0
100
AcDbPoint
 10
6318.358675766256
 20
3182.207354672968
 30
0.0
  0
POINT
  5
1A1
330
197
100
AcDbEntity
  8
Defpoints
 62
     0
100
AcDbPoint
 10
6318.358675766256
 20
3212.207354672968
 30
0.0
  0
ENDBLK
  5
1A2
330
197
100
AcDbEntity
  8
0
100
AcDbBlockEnd
  0
BLOCK
  5
1A4
330
1A3
100
AcDbEntity
  8
0
100
AcDbBlockBegin
  2
*D35
 70
     1
 10
0.0
 20
0.0
 30
0.0
  3
*D35
  1

  0
LINE
  5
1A5
330
1A3
100
AcDbEntity
  8
cotas
100
AcDbLine
 10
4913.358643432732
 20
3182.20735467296
 30
0.0
 11
4882.66044085222
 21
3182.20735467296
 31
0.0
  0
LINE
  5
1A6
330
1A3
100
AcDbEntity
  8
cotas
100
AcDbLine
 10
4912.660440852221
 20
3142.20735556703
 30
0.0
 11
4882.66044085222
 21
3142.20735556703
 31
0.0
  0
LINE
  5
1A7
330
1A3
100
AcDbEntity
  8
cotas
100
AcDbLine
 10
4887.660440852221
 20
3172.20735467296
 30
0.0
 11
4887.660440852221
 21
3152.20735556703
 31
0.0
  0
SOLID
  5
1A8
330
1A3
100
AcDbEntity
  8
cotas
100
AcDbTrace
 10
4885.993774185553
 20
3172.20735467296
 30
0.0
 11
4889.327107518887
 21
3172.20735467296
 31
0.0
 12
4887.660440852221
 22
3182.20735467296
 32
0.0
 13
4887.660440852221
 23
3182.20735467296
 33
0.0
  0
SOLID
  5
1A9
330
1A3
100
AcDbEntity
  8
cotas
100
AcDbTrace
 10
4885.993774185553
 20
3152.20735556703
 30
0.0
 11
4889.327107518887
 21
3152.20735556703
 31
0.0
 12
4887.660440852221
 22
3142.20735556703
 32
0.0
 13
4887.660440852221
 23
3142.20735556703
 33
0.0
  0
MTEXT
  5
1AA
330
1A3
100
AcDbEntity
  8
cotas
100
AcDbMText
 10
4877.45560539218
 20
3162.207355119995
 30
0.0
 40
10.0
 41
0.0
 71
     5
 72
     1
  1
40
  7
SANINDUSA
 11
0.0000000000000001
 21
1.0
 31
0.0
 73
     1
 44
1.0
1001
ACAD
1000
MTEXTBEGIN
1070
    73
1070
     1
1070
    44
1040
1.0
1070
    74
1070
     0
1000
MTEXTEND
  0
POINT
  5
1AB
330
1A3
100
AcDbEntity
  8
Defpoints
 62
     0
100
AcDbPoint
 10
4918.358643432732
 20
3182.20735467296
 30
0.0
  0
POINT
  5
1AC
330
1A3
100
AcDbEntity
  8
Defpoints
 62
     0
100
AcDbPoint
 10
4917.660440852221
 20
3142.20735556703
 30
0.0
  0
POINT
  5
1AD
330
1A3
100
AcDbEntity
  8
Defpoints
 62
     0
100
AcDbPoint
 10
4887.660440852221
 20
3142.20735556703
 30
0.0
  0
ENDBLK
  5
1AE
330
1A3
100
AcDbEntity
  8
0
100
AcDbBlockEnd
  0
BLOCK
  5
1B0
330
1AF
100
AcDbEntity
  8
0
100
AcDbBlockBegin
  2
*D36
 70
     1
 10
0.0
 20
0.0
 30
0.0
  3
*D36
  1

  0
LINE
  5
1B1
330
1AF
100
AcDbEntity
  8
cotas
100
AcDbLine
 10
4955.571730002894
 20
3150.539690351531
 30
0.0
 11
4927.565072877151
 21
3173.314600726107
 31
0.0
  0
MTEXT
  5
1B2
330
1AF
100
AcDbEntity
  8
cotas
100
AcDbMText
 10
4951.756828933578
 20
3166.531050968839
 30
0.0
 40
10.0
 41
0.0
 71
     5
 72
     1
  1
R7
  7
SANINDUSA
 11
0.7758495341438144
 21
-0.6309179822836138
 31
0.0
 73
     1
 44
1.0
1001
ACAD
1000
MTEXTBEGIN
1070
    73
1070
     1
1070
    44
1040
1.0
1070
    74
1070
     0
1000
MTEXTEND
  0
SOLID
  5
1B3
330
1AF
100
AcDbEntity
  8
cotas
100
AcDbTrace
 10
4928.616602847624
 20
3174.607683283013
 30
0.0
 11
4926.513542906679
 21
3172.0215181692
 31
0.0
 12
4919.806577535713
 22
3179.623780548943
 32
0.0
 13
4919.806577535713
 23
3179.623780548943
 33
0.0
  0
POINT
  5
1B4
330
1AF
100
AcDbEntity
  8
Defpoints
 62
     0
100
AcDbPoint
 10
4919.806577535713
 20
3179.623780548943
 30
0.0
  0
POINT
  5
1B5
330
1AF
100
AcDbEntity
  8
Defpoints
 62
     0
100
AcDbPoint
 10
4925.237524274718
 20
3175.207354672959
 30
0.0
  0
ENDBLK
  5
1B6
330
1AF
100
AcDbEntity
  8
0
100
AcDbBlockEnd
  0
BLOCK
  5
1B8
330
1B7
100
AcDbEntity
  8
0
100
AcDbBlockBegin
  2
*D37
 70
     1
 10
0.0
 20
0.0
 30
0.0
  3
*D37
  1

  0
LINE
  5
1B9
330
1B7
100
AcDbEntity
  8
cotas
100
AcDbLine
 10
6281.998303743336
 20
3149.526647558452
 30
0.0
 11
6309.217685585365
 21
3173.236869785728
 31
0.0
  0
MTEXT
  5
1BA
330
1B7
100
AcDbEntity
  8
cotas
100
AcDbMText
 10
6285.269510817316
 20
3165.638018972475
 30
0.0
 40
10.0
 41
0.0
 71
     5
 72
     1
  1
R7
  7
SANINDUSA
 11
0.7540401779121738
 21
0.6568282957472046
 31
0.0
 73
     1
 44
1.0
1001
ACAD
1000
MTEXTBEGIN
1070
    73
1070
     1
1070
    44
1040
1.0
1070
    74
1070
     0
1000
MTEXTEND
  0
SOLID
  5
1BB
330
1B7
100
AcDbEntity
  8
cotas
100
AcDbTrace
 10
6308.12297175912
 20
3174.493603415582
 30
0.0
 11
6310.312399411611
 21
3171.980136155875
 31
0.0
 12
6316.758087364487
 22
3179.8051527432
 32
0.0
 13
6316.758087364487
 23
3179.8051527432
 33
0.0
  0
POINT
  5
1BC
330
1B7
100
AcDbEntity
  8
Defpoints
 62
     0
100
AcDbPoint
 10
6316.758087364487
 20
3179.8051527432
 30
0.0
  0
POINT
  5
1BD
330
1B7
100
AcDbEntity
  8
Defpoints
 62
     0
100
AcDbPoint
 10
6311.479806119099
 20
3175.207354672966
 30
0.0
  0
ENDBLK
  5
1BE
330
1B7
100
AcDbEntity
  8
0
100
AcDbBlockEnd
  0
BLOCK
  5
1C0
330
1BF
100
AcDbEntity
  8
0
100
AcDbBlockBegin
  2
*D38
 70
     1
 10
0.0
 20
0.0
 30
0.0
  3
*D38
  1

  0
LINE
  5
1C1
330
1BF
100
AcDbEntity
  8
cotas
100
AcDbLine
 10
6319.14421362021
 20
3137.208117233249
 30
0.0
 11
6319.693236720741
 21
3105.757537561786
 31
0.0
  0
ARC
  5
1C2
330
1BF
100
AcDbEntity
  8
cotas
100
AcDbCircle
 10
6318.358675766255
 20
3182.207354672967
 30
0.0
 40
71.46146473403632
100
AcDbArc
 50
188.0242731520482
 51
262.9758200766574
  0
SOLID
  5
1C3
330
1BF
100
AcDbEntity
  8
cotas
100
AcDbTrace
 10
6245.934306739803
 20
3172.115249188906
 30
0.0
 11
6249.259470912602
 21
3172.348475120233
 31
0.0
 12
6246.897211032218
 22
3182.207354672967
 32
0.0
 13
6246.897211032218
 23
3182.207354672967
 33
0.0
  0
SOLID
  5
1C4
330
1BF
100
AcDbEntity
  8
cotas
100
AcDbTrace
 10
6309.707357873708
 20
3112.946598712867
 30
0.0
 11
6309.532204996767
 21
3109.617870339928
 31
0.0
 12
6319.605966554055
 22
3110.756775895573
 32
0.0
 13
6319.605966554055
 23
3110.756775895573
 33
0.0
  0
MTEXT
  5
1C5
330
1BF
100
AcDbEntity
  8
cotas
100
AcDbMText
 10
6276.22125027213
 20
3139.327929187598
 30
0.0
 40
10.0
 41
0.0
 71
     5
 72
     1
  1
91,0°
  7
SANINDUSA
 11
0.7132510193954568
 21
-0.7009086840176413
 31
0.0
 73
     1
 44
1.0
1001
ACAD
1000
MTEXTBEGIN
1070
    73
1070
     1
1070
    44
1040
1.0
1070
    74
1070
     0
1000
MTEXTEND
  0
POINT
  5
1C6
330
1BF
100
AcDbEntity
  8
Defpoints
 62
     0
100
AcDbPoint
 10
6256.68017062167
 20
3146.117149006287
 30
0.0
  0
POINT
  5
1C7
330
1BF
100
AcDbEntity
  8
Defpoints
 62
     0
100
AcDbPoint
 10
5125.237567744824
 20
3182.207354672968
 30
0.0
  0
POINT
  5
1C8
330
1BF
100
AcDbEntity
  8
Defpoints
 62
     0
100
AcDbPoint
 10
6318.478739959886
 20
3175.329522968148
 30
0.0
  0
POINT
  5
1C9
330
1BF
100
AcDbEntity
  8
Defpoints
 62
     0
100
AcDbPoint
 10
6319.056943453523
 20
3142.207355567038
 30
0.0
  0
POINT
  5
1CA
330
1BF
100
AcDbEntity
  8
Defpoints
 62
     0
100
AcDbPoint
 10
6311.479762591098
 20
3182.207354672967
 30
0.0
  0
ENDBLK
  5
1CB
330
1BF
100
AcDbEntity
  8
0
100
AcDbBlockEnd
  0
BLOCK
  5
1CD
330
1CC
100
AcDbEntity
  8
0
100
AcDbBlockBegin
  2
*D39
 70
     1
 10
0.0
 20
0.0
 30
0.0
  3
*D39
  1

  0
LINE
  5
1CE
330
1CC
100
AcDbEntity
  8
cotas
100
AcDbLine
 10
4917.57317882016
 20
3137.208117091245
 30
0.0
 11
4916.770437688856
 21
3091.219108412716
 31
0.0
  0
ARC
  5
1CF
330
1CC
100
AcDbEntity
  8
cotas
100
AcDbCircle
 10
4918.358643432731
 20
3182.207354672959
 30
0.0
 40
86.00210632177416
100
AcDbArc
 50
275.6658955430554
 51
353.3341044583944
  0
SOLID
  5
1D0
330
1CC
100
AcDbEntity
  8
cotas
100
AcDbTrace
 10
4926.917255192818
 20
3094.960125331889
 30
0.0
 11
4926.781567293779
 21
3098.290695839349
 31
0.0
 12
4916.857699720917
 22
3096.2183468885
 32
0.0
 13
4916.857699720917
 23
3096.2183468885
 33
0.0
  0
SOLID
  5
1D1
330
1CC
100
AcDbEntity
  8
cotas
100
AcDbTrace
 10
5002.115521062378
 20
3172.32116602931
 30
0.0
 11
5005.443216227461
 21
3172.127372326114
 31
0.0
 12
5004.360749754504
 22
3182.20735467296
 32
0.0
 13
5004.360749754504
 23
3182.20735467296
 33
0.0
  0
MTEXT
  5
1D2
330
1CC
100
AcDbEntity
  8
cotas
100
AcDbMText
 10
4970.687774210808
 20
3128.956844326732
 30
0.0
 40
10.0
 41
0.0
 71
     5
 72
     1
  1
91,0°
  7
SANINDUSA
 11
0.7132504491453208
 21
0.7009092643088679
 31
0.0
 73
     1
 44
1.0
1001
ACAD
1000
MTEXTBEGIN
1070
    73
1070
     1
1070
    44
1040
1.0
1070
    74
1070
     0
1000
MTEXTEND
  0
POINT
  5
1D3
330
1CC
100
AcDbEntity
  8
Defpoints
 62
     0
100
AcDbPoint
 10
4960.490191067851
 20
3107.232058837256
 30
0.0
  0
POINT
  5
1D4
330
1CC
100
AcDbEntity
  8
Defpoints
 62
     0
100
AcDbPoint
 10
4917.660440852221
 20
3142.20735556703
 30
0.0
  0
POINT
  5
1D5
330
1CC
100
AcDbEntity
  8
Defpoints
 62
     0
100
AcDbPoint
 10
4925.237524216816
 20
3182.207354672959
 30
0.0
  0
POINT
  5
1D6
330
1CC
100
AcDbEntity
  8
Defpoints
 62
     0
100
AcDbPoint
 10
6111.479719063089
 20
3182.207354672959
 30
0.0
  0
POINT
  5
1D7
330
1CC
100
AcDbEntity
  8
Defpoints
 62
     0
100
AcDbPoint
 10
4918.238590410522
 20
3175.329521627001
 30
0.0
  0
ENDBLK
  5
1D8
330
1CC
100
AcDbEntity
  8
0
100
AcDbBlockEnd
  0
BLOCK
  5
1DA
330
1D9
100
AcDbEntity
  8
0
100
AcDbBlockBegin
  2
*D40
 70
     1
 10
0.0
 20
0.0
 30
0.0
  3
*D40
  1

  0
LINE
  5
1DB
330
1D9
100
AcDbEntity
  8
cotas
100
AcDbLine
 10
6323.358675766256
 20
3182.207354672968
 30
0.0
 11
6354.056943453524
 21
3182.207354672968
 31
0.0
  0
LINE
  5
1DC
330
1D9
100
AcDbEntity
  8
cotas
100
AcDbLine
 10
6195.054411695247
 20
3054.451779754652
 30
0.0
 11
6354.056943453524
 21
3054.451779754652
 31
0.0
  0
LINE
  5
1DD
330
1D9
100
AcDbEntity
  8
cotas
100
AcDbLine
 10
6349.056943453524
 20
3172.207354672968
 30
0.0
 11
6349.056943453524
 21
3064.451779754651
 31
0.0
  0
SOLID
  5
1DE
330
1D9
100
AcDbEntity
  8
cotas
100
AcDbTrace
 10
6347.390276786857
 20
3172.207354672968
 30
0.0
 11
6350.723610120191
 21
3172.207354672968
 31
0.0
 12
6349.056943453524
 22
3182.207354672968
 32
0.0
 13
6349.056943453524
 23
3182.207354672968
 33
0.0
  0
SOLID
  5
1DF
330
1D9
100
AcDbEntity
  8
cotas
100
AcDbTrace
 10
6347.390276786857
 20
3064.451779754651
 30
0.0
 11
6350.723610120191
 21
3064.451779754651
 31
0.0
 12
6349.056943453524
 22
3054.451779754652
 32
0.0
 13
6349.056943453524
 23
3054.451779754652
 33
0.0
  0
MTEXT
  5
1E0
330
1D9
100
AcDbEntity
  8
cotas
100
AcDbMText
 10
6337.700328275552
 20
3118.329567213811
 30
0.0
 40
10.0
 41
0.0
 71
     5
 72
     1
  1
127,8
  7
SANINDUSA
 11
0.0000000000000001
 21
1.0
 31
0.0
 73
     1
 44
1.0
1001
ACAD
1000
MTEXTBEGIN
1070
    73
1070
     1
1070
    44
1040
1.0
1070
    74
1070
     0
1000
MTEXTEND
  0
POINT
  5
1E1
330
1D9
100
AcDbEntity
  8
Defpoints
 62
     0
100
AcDbPoint
 10
6318.358675766256
 20
3182.207354672968
 30
0.0
  0
POINT
  5
1E2
330
1D9
100
AcDbEntity
  8
Defpoints
 62
     0
100
AcDbPoint
 10
6190.054411695246
 20
3054.451779754652
 30
0.0
  0
POINT
  5
1E3
330
1D9
100
AcDbEntity
  8
Defpoints
 62
     0
100
AcDbPoint
 10
6349.056943453524
 20
3054.451779754652
 30
0.0
  0
ENDBLK
  5
1E4
330
1D9
100
AcDbEntity
  8
0
100
AcDbBlockEnd
  0
BLOCK
  5
1E6
330
1E5
100
AcDbEntity
  8
0
100
AcDbBlockBegin
  2
*D41
 70
     1
 10
0.0
 20
0.0
 30
0.0
  3
*D41
  1

  0
LINE
  5
1E7
330
1E5
100
AcDbEntity
  8
cotas
100
AcDbLine
 10
6318.282931514055
 20
2575.072618280795
 30
0.0
 11
6318.282931514055
 21
2610.766754528322
 31
0.0
  0
LINE
  5
1E8
330
1E5
100
AcDbEntity
  8
cotas
100
AcDbLine
 10
6138.278634938862
 20
2580.766754342057
 30
0.0
 11
6138.278634938862
 21
2610.766754528322
 31
0.0
  0
LINE
  5
1E9
330
1E5
100
AcDbEntity
  8
cotas
100
AcDbLine
 10
6308.282931514055
 20
2605.766754528322
 30
0.0
 11
6148.278634938861
 21
2605.766754528322
 31
0.0
  0
SOLID
  5
1EA
330
1E5
100
AcDbEntity
  8
cotas
100
AcDbTrace
 10
6308.282931514055
 20
2607.433421194988
 30
0.0
 11
6308.282931514055
 21
2604.100087861656
 31
0.0
 12
6318.282931514055
 22
2605.766754528322
 32
0.0
 13
6318.282931514055
 23
2605.766754528322
 33
0.0
  0
SOLID
  5
1EB
330
1E5
100
AcDbEntity
  8
cotas
100
AcDbTrace
 10
6148.278634938861
 20
2607.433421194988
 30
0.0
 11
6148.278634938861
 21
2604.100087861656
 31
0.0
 12
6138.278634938862
 22
2605.766754528322
 32
0.0
 13
6138.278634938862
 23
2605.766754528322
 33
0.0
  0
MTEXT
  5
1EC
330
1E5
100
AcDbEntity
  8
cotas
100
AcDbMText
 10
6228.280783226459
 20
2615.995095696892
 30
0.0
 40
10.0
 41
0.0
 71
     5
 72
     1
  1
180
  7
SANINDUSA
 73
     1
 44
1.0
1001
ACAD
1000
MTEXTBEGIN
1070
    73
1070
     1
1070
    44
1040
1.0
1070
    74
1070
     0
1000
MTEXTEND
  0
POINT
  5
1ED
330
1E5
100
AcDbEntity
  8
Defpoints
 62
     0
100
AcDbPoint
 10
6318.282931514055
 20
2570.072618280795
 30
0.0
  0
POINT
  5
1EE
330
1E5
100
AcDbEntity
  8
Defpoints
 62
     0
100
AcDbPoint
 10
6138.278634938862
 20
2575.766754342057
 30
0.0
  0
POINT
  5
1EF
330
1E5
100
AcDbEntity
  8
Defpoints
 62
     0
100
AcDbPoint
 10
6138.278634938862
 20
2605.766754528322
 30
0.0
  0
ENDBLK
  5
1F0
330
1E5
100
AcDbEntity
  8
0
100
AcDbBlockEnd
  0
BLOCK
  5
1F2
330
1F1
100
AcDbEntity
  8
0
100
AcDbBlockBegin
  2
*D42
 70
     1
 10
0.0
 20
0.0
 30
0.0
  3
*D42
  1

  0
LINE
  5
1F3
330
1F1
100
AcDbEntity
  8
cotas
100
AcDbLine
 10
6138.282942708708
 20
2580.770803247836
 30
0.0
 11
6138.282942708708
 21
2610.770803247837
 31
0.0
  0
LINE
  5
1F4
330
1F1
100
AcDbEntity
  8
cotas
100
AcDbLine
 10
5989.861294182784
 20
2445.522776556762
 30
0.0
 11
5989.861294182784
 21
2610.770803247837
 31
0.0
  0
LINE
  5
1F5
330
1F1
100
AcDbEntity
  8
cotas
100
AcDbLine
 10
6128.282942708707
 20
2605.770803247837
 30
0.0
 11
5999.861294182784
 21
2605.770803247837
 31
0.0
  0
SOLID
  5
1F6
330
1F1
100
AcDbEntity
  8
cotas
100
AcDbTrace
 10
6128.282942708707
 20
2607.437469914503
 30
0.0
 11
6128.282942708707
 21
2604.104136581171
 31
0.0
 12
6138.282942708708
 22
2605.770803247837
 32
0.0
 13
6138.282942708708
 23
2605.770803247837
 33
0.0
  0
SOLID
  5
1F7
330
1F1
100
AcDbEntity
  8
cotas
100
AcDbTrace
 10
5999.861294182784
 20
2607.437469914503
 30
0.0
 11
5999.861294182784
 21
2604.104136581171
 31
0.0
 12
5989.861294182784
 22
2605.770803247837
 32
0.0
 13
5989.861294182784
 23
2605.770803247837
 33
0.0
  0
MTEXT
  5
1F8
330
1F1
100
AcDbEntity
  8
cotas
100
AcDbMText
 10
6064.072118445746
 20
2617.127418425809
 30
0.0
 40
10.0
 41
0.0
 71
     5
 72
     1
  1
148,4
  7
SANINDUSA
 73
     1
 44
1.0
1001
ACAD
1000
MTEXTBEGIN
1070
    73
1070
     1
1070
    44
1040
1.0
1070
    74
1070
     0
1000
MTEXTEND
  0
POINT
  5
1F9
330
1F1
100
AcDbEntity
  8
Defpoints
 62
     0
100
AcDbPoint
 10
6138.282942708708
 20
2575.770803247836
 30
0.0
  0
POINT
  5
1FA
330
1F1
100
AcDbEntity
  8
Defpoints
 62
     0
100
AcDbPoint
 10
5989.861294182784
 20
2440.522776556762
 30
0.0
  0
POINT
  5
1FB
330
1F1
100
AcDbEntity
  8
Defpoints
 62
     0
100
AcDbPoint
 10
5989.861294182784
 20
2605.770803247837
 30
0.0
  0
ENDBLK
  5
1FC
330
1F1
100
AcDbEntity
  8
0
100
AcDbBlockEnd
  0
BLOCK
  5
1FE
330
1FD
100
AcDbEntity
  8
0
100
AcDbBlockBegin
  2
*D43
 70
     1
 10
0.0
 20
0.0
 30
0.0
  3
*D43
  1

  0
LINE
  5
1FF
330
1FD
100
AcDbEntity
  8
cotas
100
AcDbLine
 10
5989.861294182784
 20
2445.522776556762
 30
0.0
 11
5989.861294182784
 21
2610.770803247837
 31
0.0
  0
LINE
  5
200
330
1FD
100
AcDbEntity
  8
cotas
100
AcDbLine
 10
5909.89430488954
 20
2445.511154303575
 30
0.0
 11
5909.89430488954
 21
2610.770803247837
 31
0.0
  0
LINE
  5
201
330
1FD
100
AcDbEntity
  8
cotas
100
AcDbLine
 10
5979.861294182784
 20
2605.770803247837
 30
0.0
 11
5919.894304889541
 21
2605.770803247837
 31
0.0
  0
SOLID
  5
202
330
1FD
100
AcDbEntity
  8
cotas
100
AcDbTrace
 10
5979.861294182784
 20
2607.437469914503
 30
0.0
 11
5979.861294182784
 21
2604.104136581171
 31
0.0
 12
5989.861294182784
 22
2605.770803247837
 32
0.0
 13
5989.861294182784
 23
2605.770803247837
 33
0.0
  0
SOLID
  5
203
330
1FD
100
AcDbEntity
  8
cotas
100
AcDbTrace
 10
5919.894304889541
 20
2607.437469914503
 30
0.0
 11
5919.894304889541
 21
2604.104136581171
 31
0.0
 12
5909.89430488954
 22
2605.770803247837
 32
0.0
 13
5909.89430488954
 23
2605.770803247837
 33
0.0
  0
MTEXT
  5
204
330
1FD
100
AcDbEntity
  8
cotas
100
AcDbMText
 10
5949.877799536163
 20
2615.999144416406
 30
0.0
 40
10.0
 41
0.0
 71
     5
 72
     1
  1
80
  7
SANINDUSA
 73
     1
 44
1.0
1001
ACAD
1000
MTEXTBEGIN
1070
    73
1070
     1
1070
    44
1040
1.0
1070
    74
1070
     0
1000
MTEXTEND
  0
POINT
  5
205
330
1FD
100
AcDbEntity
  8
Defpoints
 62
     0
100
AcDbPoint
 10
5989.861294182784
 20
2440.522776556762
 30
0.0
  0
POINT
  5
206
330
1FD
100
AcDbEntity
  8
Defpoints
 62
     0
100
AcDbPoint
 10
5909.89430488954
 20
2440.511154303575
 30
0.0
  0
POINT
  5
207
330
1FD
100
AcDbEntity
  8
Defpoints
 62
     0
100
AcDbPoint
 10
5909.89430488954
 20
2605.770803247837
 30
0.0
  0
ENDBLK
  5
208
330
1FD
100
AcDbEntity
  8
0
100
AcDbBlockEnd
  0
BLOCK
  5
20A
330
209
100
AcDbEntity
  8
0
100
AcDbBlockBegin
  2
*D44
 70
     1
 10
0.0
 20
0.0
 30
0.0
  3
*D44
  1

  0
LINE
  5
20B
330
209
100
AcDbEntity
  8
cotas
100
AcDbLine
 10
5909.89430488954
 20
2445.511154303575
 30
0.0
 11
5909.89430488954
 21
2610.770803247837
 31
0.0
  0
LINE
  5
20C
330
209
100
AcDbEntity
  8
cotas
100
AcDbLine
 10
5829.979721670922
 20
2445.504219973951
 30
0.0
 11
5829.979721670922
 21
2610.770803247837
 31
0.0
  0
LINE
  5
20D
330
209
100
AcDbEntity
  8
cotas
100
AcDbLine
 10
5899.89430488954
 20
2605.770803247837
 30
0.0
 11
5839.979721670922
 21
2605.770803247837
 31
0.0
  0
SOLID
  5
20E
330
209
100
AcDbEntity
  8
cotas
100
AcDbTrace
 10
5899.89430488954
 20
2607.437469914503
 30
0.0
 11
5899.89430488954
 21
2604.104136581171
 31
0.0
 12
5909.89430488954
 22
2605.770803247837
 32
0.0
 13
5909.89430488954
 23
2605.770803247837
 33
0.0
  0
SOLID
  5
20F
330
209
100
AcDbEntity
  8
cotas
100
AcDbTrace
 10
5839.979721670922
 20
2607.437469914503
 30
0.0
 11
5839.979721670922
 21
2604.104136581171
 31
0.0
 12
5829.979721670922
 22
2605.770803247837
 32
0.0
 13
5829.979721670922
 23
2605.770803247837
 33
0.0
  0
MTEXT
  5
210
330
209
100
AcDbEntity
  8
cotas
100
AcDbMText
 10
5869.937013280232
 20
2615.999144416406
 30
0.0
 40
10.0
 41
0.0
 71
     5
 72
     1
  1
80
  7
SANINDUSA
 73
     1
 44
1.0
1001
ACAD
1000
MTEXTBEGIN
1070
    73
1070
     1
1070
    44
1040
1.0
1070
    74
1070
     0
1000
MTEXTEND
  0
POINT
  5
211
330
209
100
AcDbEntity
  8
Defpoints
 62
     0
100
AcDbPoint
 10
5909.89430488954
 20
2440.511154303575
 30
0.0
  0
POINT
  5
212
330
209
100
AcDbEntity
  8
Defpoints
 62
     0
100
AcDbPoint
 10
5829.979721670922
 20
2440.504219973951
 30
0.0
  0
POINT
  5
213
330
209
100
AcDbEntity
  8
Defpoints
 62
     0
100
AcDbPoint
 10
5829.979721670922
 20
2605.770803247837
 30
0.0
  0
ENDBLK
  5
214
330
209
100
AcDbEntity
  8
0
100
AcDbBlockEnd
  0
BLOCK
  5
216
330
215
100
AcDbEntity
  8
0
100
AcDbBlockBegin
  2
*D45
 70
     1
 10
0.0
 20
0.0
 30
0.0
  3
*D45
  1

  0
LINE
  5
217
330
215
100
AcDbEntity
  8
cotas
100
AcDbLine
 10
5749.992423928514
 20
2445.504219973951
 30
0.0
 11
5749.992423928514
 21
2610.770803247837
 31
0.0
  0
LINE
  5
218
330
215
100
AcDbEntity
  8
cotas
100
AcDbLine
 10
5669.993595648248
 20
2580.770803247836
 30
0.0
 11
5669.993595648248
 21
2610.770803247837
 31
0.0
  0
LINE
  5
219
330
215
100
AcDbEntity
  8
cotas
100
AcDbLine
 10
5739.992423928514
 20
2605.770803247837
 30
0.0
 11
5679.993595648248
 21
2605.770803247837
 31
0.0
  0
SOLID
  5
21A
330
215
100
AcDbEntity
  8
cotas
100
AcDbTrace
 10
5739.992423928514
 20
2607.437469914503
 30
0.0
 11
5739.992423928514
 21
2604.104136581171
 31
0.0
 12
5749.992423928514
 22
2605.770803247837
 32
0.0
 13
5749.992423928514
 23
2605.770803247837
 33
0.0
  0
SOLID
  5
21B
330
215
100
AcDbEntity
  8
cotas
100
AcDbTrace
 10
5679.993595648248
 20
2607.437469914503
 30
0.0
 11
5679.993595648248
 21
2604.104136581171
 31
0.0
 12
5669.993595648248
 22
2605.770803247837
 32
0.0
 13
5669.993595648248
 23
2605.770803247837
 33
0.0
  0
MTEXT
  5
21C
330
215
100
AcDbEntity
  8
cotas
100
AcDbMText
 10
5709.99300978838
 20
2615.999144416406
 30
0.0
 40
10.0
 41
0.0
 71
     5
 72
     1
  1
80
  7
SANINDUSA
 73
     1
 44
1.0
1001
ACAD
1000
MTEXTBEGIN
1070
    73
1070
     1
1070
    44
1040
1.0
1070
    74
1070
     0
1000
MTEXTEND
  0
POINT
  5
21D
330
215
100
AcDbEntity
  8
Defpoints
 62
     0
100
AcDbPoint
 10
5749.992423928514
 20
2440.504219973951
 30
0.0
  0
POINT
  5
21E
330
215
100
AcDbEntity
  8
Defpoints
 62
     0
100
AcDbPoint
 10
5669.993595648248
 20
2575.770803247836
 30
-0.0000000000000197
  0
POINT
  5
21F
330
215
100
AcDbEntity
  8
Defpoints
 62
     0
100
AcDbPoint
 10
5669.993595648248
 20
2605.770803247837
 30
0.0
  0
ENDBLK
  5
220
330
215
100
AcDbEntity
  8
0
100
AcDbBlockEnd
  0
BLOCK
  5
222
330
221
100
AcDbEntity
  8
0
100
AcDbBlockBegin
  2
*D46
 70
     1
 10
0.0
 20
0.0
 30
0.0
  3
*D46
  1

  0
LINE
  5
223
330
221
100
AcDbEntity
  8
cotas
100
AcDbLine
 10
5670.002853373803
 20
2580.770803247836
 30
0.0
 11
5670.002853373803
 21
2610.770803247836
 31
0.0
  0
LINE
  5
224
330
221
100
AcDbEntity
  8
cotas
100
AcDbLine
 10
5590.012893975125
 20
2445.504350976989
 30
0.0
 11
5590.012893975125
 21
2610.770803247836
 31
0.0
  0
LINE
  5
225
330
221
100
AcDbEntity
  8
cotas
100
AcDbLine
 10
5660.002853373804
 20
2605.770803247836
 30
0.0
 11
5600.012893975126
 21
2605.770803247836
 31
0.0
  0
SOLID
  5
226
330
221
100
AcDbEntity
  8
cotas
100
AcDbTrace
 10
5660.002853373804
 20
2607.437469914503
 30
0.0
 11
5660.002853373804
 21
2604.104136581169
 31
0.0
 12
5670.002853373803
 22
2605.770803247836
 32
0.0
 13
5670.002853373803
 23
2605.770803247836
 33
0.0
  0
SOLID
  5
227
330
221
100
AcDbEntity
  8
cotas
100
AcDbTrace
 10
5600.012893975126
 20
2607.437469914503
 30
0.0
 11
5600.012893975126
 21
2604.104136581169
 31
0.0
 12
5590.012893975125
 22
2605.770803247836
 32
0.0
 13
5590.012893975125
 23
2605.770803247836
 33
0.0
  0
MTEXT
  5
228
330
221
100
AcDbEntity
  8
cotas
100
AcDbMText
 10
5630.007873674465
 20
2615.999144416405
 30
0.0
 40
10.0
 41
0.0
 71
     5
 72
     1
  1
80
  7
SANINDUSA
 73
     1
 44
1.0
1001
ACAD
1000
MTEXTBEGIN
1070
    73
1070
     1
1070
    44
1040
1.0
1070
    74
1070
     0
1000
MTEXTEND
  0
POINT
  5
229
330
221
100
AcDbEntity
  8
Defpoints
 62
     0
100
AcDbPoint
 10
5670.002853373803
 20
2575.770803247836
 30
0.0
  0
POINT
  5
22A
330
221
100
AcDbEntity
  8
Defpoints
 62
     0
100
AcDbPoint
 10
5590.012893975125
 20
2440.504350976989
 30
0.0
  0
POINT
  5
22B
330
221
100
AcDbEntity
  8
Defpoints
 62
     0
100
AcDbPoint
 10
5590.012893975125
 20
2605.770803247836
 30
0.0
  0
ENDBLK
  5
22C
330
221
100
AcDbEntity
  8
0
100
AcDbBlockEnd
  0
BLOCK
  5
22E
330
22D
100
AcDbEntity
  8
0
100
AcDbBlockBegin
  2
*D47
 70
     1
 10
0.0
 20
0.0
 30
0.0
  3
*D47
  1

  0
LINE
  5
22F
330
22D
100
AcDbEntity
  8
cotas
100
AcDbLine
 10
6033.786727911429
 20
2405.072795121141
 30
0.0
 11
6353.981199201323
 21
2405.072795121141
 31
0.0
  0
LINE
  5
230
330
22D
100
AcDbEntity
  8
cotas
100
AcDbLine
 10
6033.777927158183
 20
2325.090951778085
 30
0.0
 11
6353.981199201323
 21
2325.090951778085
 31
0.0
  0
LINE
  5
231
330
22D
100
AcDbEntity
  8
cotas
100
AcDbLine
 10
6348.981199201323
 20
2395.07279512114
 30
0.0
 11
6348.981199201323
 21
2335.090951778084
 31
0.0
  0
SOLID
  5
232
330
22D
100
AcDbEntity
  8
cotas
100
AcDbTrace
 10
6347.314532534656
 20
2395.07279512114
 30
0.0
 11
6350.647865867991
 21
2395.07279512114
 31
0.0
 12
6348.981199201323
 22
2405.072795121141
 32
0.0
 13
6348.981199201323
 23
2405.072795121141
 33
0.0
  0
SOLID
  5
233
330
22D
100
AcDbEntity
  8
cotas
100
AcDbTrace
 10
6347.314532534656
 20
2335.090951778084
 30
0.0
 11
6350.647865867991
 21
2335.090951778084
 31
0.0
 12
6348.981199201323
 22
2325.090951778085
 32
0.0
 13
6348.981199201323
 23
2325.090951778085
 33
0.0
  0
MTEXT
  5
234
330
22D
100
AcDbEntity
  8
cotas
100
AcDbMText
 10
6338.752858032752
 20
2365.081873449613
 30
0.0
 40
10.0
 41
0.0
 71
     5
 72
     1
  1
80
  7
SANINDUSA
 11
0.0000000000000001
 21
1.0
 31
0.0
 73
     1
 44
1.0
1001
ACAD
1000
MTEXTBEGIN
1070
    73
1070
     1
1070
    44
1040
1.0
1070
    74
1070
     0
1000
MTEXTEND
  0
POINT
  5
235
330
22D
100
AcDbEntity
  8
Defpoints
 62
     0
100
AcDbPoint
 10
6028.78672791143
 20
2405.072795121141
 30
0.0
  0
POINT
  5
236
330
22D
100
AcDbEntity
  8
Defpoints
 62
     0
100
AcDbPoint
 10
6028.777927158183
 20
2325.090951778085
 30
0.0
  0
POINT
  5
237
330
22D
100
AcDbEntity
  8
Defpoints
 62
     0
100
AcDbPoint
 10
6348.981199201323
 20
2325.090951778085
 30
0.0
  0
ENDBLK
  5
238
330
22D
100
AcDbEntity
  8
0
100
AcDbBlockEnd
  0
BLOCK
  5
23A
330
239
100
AcDbEntity
  8
0
100
AcDbBlockBegin
  2
*D48
 70
     1
 10
0.0
 20
0.0
 30
0.0
  3
*D48
  1

  0
LINE
  5
23B
330
239
100
AcDbEntity
  8
cotas
100
AcDbLine
 10
6038.777927158183
 20
2325.090951778085
 30
0.0
 11
6353.981199201323
 21
2325.090951778085
 31
0.0
  0
LINE
  5
23C
330
239
100
AcDbEntity
  8
cotas
100
AcDbLine
 10
6033.758067203847
 20
2245.09607271082
 30
0.0
 11
6353.981199201323
 21
2245.09607271082
 31
0.0
  0
LINE
  5
23D
330
239
100
AcDbEntity
  8
cotas
100
AcDbLine
 10
6348.981199201323
 20
2315.090951778085
 30
0.0
 11
6348.981199201323
 21
2255.09607271082
 31
0.0
  0
SOLID
  5
23E
330
239
100
AcDbEntity
  8
cotas
100
AcDbTrace
 10
6347.314532534656
 20
2315.090951778085
 30
0.0
 11
6350.647865867991
 21
2315.090951778085
 31
0.0
 12
6348.981199201323
 22
2325.090951778085
 32
0.0
 13
6348.981199201323
 23
2325.090951778085
 33
0.0
  0
SOLID
  5
23F
330
239
100
AcDbEntity
  8
cotas
100
AcDbTrace
 10
6347.314532534656
 20
2255.09607271082
 30
0.0
 11
6350.647865867991
 21
2255.09607271082
 31
0.0
 12
6348.981199201323
 22
2245.09607271082
 32
0.0
 13
6348.981199201323
 23
2245.09607271082
 33
0.0
  0
MTEXT
  5
240
330
239
100
AcDbEntity
  8
cotas
100
AcDbMText
 10
6338.752858032752
 20
2285.093512244454
 30
0.0
 40
10.0
 41
0.0
 71
     5
 72
     1
  1
80
  7
SANINDUSA
 11
0.0000000000000001
 21
1.0
 31
0.0
 73
     1
 44
1.0
1001
ACAD
1000
MTEXTBEGIN
1070
    73
1070
     1
1070
    44
1040
1.0
1070
    74
1070
     0
1000
MTEXTEND
  0
POINT
  5
241
330
239
100
AcDbEntity
  8
Defpoints
 62
     0
100
AcDbPoint
 10
6033.777927158183
 20
2325.090951778085
 30
0.0
  0
POINT
  5
242
330
239
100
AcDbEntity
  8
Defpoints
 62
     0
100
AcDbPoint
 10
6028.758067203846
 20
2245.09607271082
 30
0.0
  0
POINT
  5
243
330
239
100
AcDbEntity
  8
Defpoints
 62
     0
100
AcDbPoint
 10
6348.981199201323
 20
2245.09607271082
 30
0.0
  0
ENDBLK
  5
244
330
239
100
AcDbEntity
  8
0
100
AcDbBlockEnd
  0
BLOCK
  5
246
330
245
100
AcDbEntity
  8
0
100
AcDbBlockBegin
  2
*D49
 70
     1
 10
0.0
 20
0.0
 30
0.0
  3
*D49
  1

  0
LINE
  5
247
330
245
100
AcDbEntity
  8
cotas
100
AcDbLine
 10
6033.740869666247
 20
2165.079147983716
 30
0.0
 11
6353.981199201323
 21
2165.079147983716
 31
0.0
  0
LINE
  5
248
330
245
100
AcDbEntity
  8
cotas
100
AcDbLine
 10
6033.758067203847
 20
2245.09607271082
 30
0.0
 11
6353.981199201323
 21
2245.09607271082
 31
0.0
  0
LINE
  5
249
330
245
100
AcDbEntity
  8
cotas
100
AcDbLine
 10
6348.981199201323
 20
2175.079147983716
 30
0.0
 11
6348.981199201323
 21
2235.09607271082
 31
0.0
  0
SOLID
  5
24A
330
245
100
AcDbEntity
  8
cotas
100
AcDbTrace
 10
6347.314532534656
 20
2175.079147983716
 30
0.0
 11
6350.647865867991
 21
2175.079147983716
 31
0.0
 12
6348.981199201323
 22
2165.079147983716
 32
0.0
 13
6348.981199201323
 23
2165.079147983716
 33
0.0
  0
SOLID
  5
24B
330
245
100
AcDbEntity
  8
cotas
100
AcDbTrace
 10
6347.314532534656
 20
2235.09607271082
 30
0.0
 11
6350.647865867991
 21
2235.09607271082
 31
0.0
 12
6348.981199201323
 22
2245.09607271082
 32
0.0
 13
6348.981199201323
 23
2245.09607271082
 33
0.0
  0
MTEXT
  5
24C
330
245
100
AcDbEntity
  8
cotas
100
AcDbMText
 10
6338.752858032752
 20
2205.087610347269
 30
0.0
 40
10.0
 41
0.0
 71
     5
 72
     1
  1
80
  7
SANINDUSA
 11
0.0000000000000001
 21
1.0
 31
0.0
 73
     1
 44
1.0
1001
ACAD
1000
MTEXTBEGIN
1070
    73
1070
     1
1070
    44
1040
1.0
1070
    74
1070
     0
1000
MTEXTEND
  0
POINT
  5
24D
330
245
100
AcDbEntity
  8
Defpoints
 62
     0
100
AcDbPoint
 10
6028.740869666247
 20
2165.079147983716
 30
0.0
  0
POINT
  5
24E
330
245
100
AcDbEntity
  8
Defpoints
 62
     0
100
AcDbPoint
 10
6028.758067203846
 20
2245.09607271082
 30
0.0
  0
POINT
  5
24F
330
245
100
AcDbEntity
  8
Defpoints
 62
     0
100
AcDbPoint
 10
6348.981199201323
 20
2245.09607271082
 30
0.0
  0
ENDBLK
  5
250
330
245
100
AcDbEntity
  8
0
100
AcDbBlockEnd
  0
BLOCK
  5
252
330
251
100
AcDbEntity
  8
0
100
AcDbBlockBegin
  2
*D50
 70
     1
 10
0.0
 20
0.0
 30
0.0
  3
*D50
  1

  0
LINE
  5
253
330
251
100
AcDbEntity
  8
cotas
100
AcDbLine
 10
6033.740869666247
 20
2165.079147983716
 30
0.0
 11
6353.981199201323
 21
2165.079147983716
 31
0.0
  0
LINE
  5
254
330
251
100
AcDbEntity
  8
cotas
100
AcDbLine
 10
6323.981199201323
 20
2125.072618280795
 30
0.0
 11
6353.981199201323
 21
2125.072618280795
 31
0.0
  0
LINE
  5
255
330
251
100
AcDbEntity
  8
cotas
100
AcDbLine
 10
6348.981199201323
 20
2155.079147983716
 30
0.0
 11
6348.981199201323
 21
2135.072618280795
 31
0.0
  0
SOLID
  5
256
330
251
100
AcDbEntity
  8
cotas
100
AcDbTrace
 10
6347.314532534656
 20
2155.079147983716
 30
0.0
 11
6350.647865867991
 21
2155.079147983716
 31
0.0
 12
6348.981199201323
 22
2165.079147983716
 32
0.0
 13
6348.981199201323
 23
2165.079147983716
 33
0.0
  0
SOLID
  5
257
330
251
100
AcDbEntity
  8
cotas
100
AcDbTrace
 10
6347.314532534656
 20
2135.072618280795
 30
0.0
 11
6350.647865867991
 21
2135.072618280795
 31
0.0
 12
6348.981199201323
 22
2125.072618280795
 32
0.0
 13
6348.981199201323
 23
2125.072618280795
 33
0.0
  0
MTEXT
  5
258
330
251
100
AcDbEntity
  8
cotas
100
AcDbMText
 10
6338.776363741281
 20
2145.075883132256
 30
0.0
 40
10.0
 41
0.0
 71
     5
 72
     1
  1
40
  7
SANINDUSA
 11
0.0000000000000001
 21
1.0
 31
0.0
 73
     1
 44
1.0
1001
ACAD
1000
MTEXTBEGIN
1070
    73
1070
     1
1070
    44
1040
1.0
1070
    74
1070
     0
1000
MTEXTEND
  0
POINT
  5
259
330
251
100
AcDbEntity
  8
Defpoints
 62
     0
100
AcDbPoint
 10
6028.740869666247
 20
2165.079147983716
 30
0.0
  0
POINT
  5
25A
330
251
100
AcDbEntity
  8
Defpoints
 62
     0
100
AcDbPoint
 10
6318.981199201323
 20
2125.072618280795
 30
0.0
  0
POINT
  5
25B
330
251
100
AcDbEntity
  8
Defpoints
 62
     0
100
AcDbPoint
 10
6348.981199201323
 20
2125.072618280795
 30
0.0
  0
ENDBLK
  5
25C
330
251
100
AcDbEntity
  8
0
100
AcDbBlockEnd
  0
BLOCK
  5
25E
330
25D
100
AcDbEntity
  8
0
100
AcDbBlockBegin
  2
*D51
 70
     1
 10
0.0
 20
0.0
 30
0.0
  3
*D51
  1

  0
LINE
  5
25F
330
25D
100
AcDbEntity
  8
cotas
100
AcDbLine
 10
6323.402995733001
 20
2125.072618280793
 30
0.0
 11
6353.981199201323
 21
2125.072618280793
 31
0.0
  0
LINE
  5
260
330
25D
100
AcDbEntity
  8
cotas
100
AcDbLine
 10
6033.742955404189
 20
2085.050184579362
 30
0.0
 11
6353.981199201323
 21
2085.050184579362
 31
0.0
  0
LINE
  5
261
330
25D
100
AcDbEntity
  8
cotas
100
AcDbLine
 10
6348.981199201323
 20
2115.072618280793
 30
0.0
 11
6348.981199201323
 21
2095.050184579362
 31
0.0
  0
SOLID
  5
262
330
25D
100
AcDbEntity
  8
cotas
100
AcDbTrace
 10
6347.314532534656
 20
2115.072618280793
 30
0.0
 11
6350.647865867991
 21
2115.072618280793
 31
0.0
 12
6348.981199201323
 22
2125.072618280793
 32
0.0
 13
6348.981199201323
 23
2125.072618280793
 33
0.0
  0
SOLID
  5
263
330
25D
100
AcDbEntity
  8
cotas
100
AcDbTrace
 10
6347.314532534656
 20
2095.050184579362
 30
0.0
 11
6350.647865867991
 21
2095.050184579362
 31
0.0
 12
6348.981199201323
 22
2085.050184579362
 32
0.0
 13
6348.981199201323
 23
2085.050184579362
 33
0.0
  0
MTEXT
  5
264
330
25D
100
AcDbEntity
  8
cotas
100
AcDbMText
 10
6338.776363741281
 20
2105.061401430078
 30
0.0
 40
10.0
 41
0.0
 71
     5
 72
     1
  1
40
  7
SANINDUSA
 11
0.0000000000000001
 21
1.0
 31
0.0
 73
     1
 44
1.0
1001
ACAD
1000
MTEXTBEGIN
1070
    73
1070
     1
1070
    44
1040
1.0
1070
    74
1070
     0
1000
MTEXTEND
  0
POINT
  5
265
330
25D
100
AcDbEntity
  8
Defpoints
 62
     0
100
AcDbPoint
 10
6318.402995733001
 20
2125.072618280793
 30
0.0
  0
POINT
  5
266
330
25D
100
AcDbEntity
  8
Defpoints
 62
     0
100
AcDbPoint
 10
6028.742955404189
 20
2085.050184579362
 30
0.0
  0
POINT
  5
267
330
25D
100
AcDbEntity
  8
Defpoints
 62
     0
100
AcDbPoint
 10
6348.981199201323
 20
2085.050184579362
 30
0.0
  0
ENDBLK
  5
268
330
25D
100
AcDbEntity
  8
0
100
AcDbBlockEnd
  0
BLOCK
  5
26A
330
269
100
AcDbEntity
  8
0
100
AcDbBlockBegin
  2
*D52
 70
     1
 10
0.0
 20
0.0
 30
0.0
  3
*D52
  1

  0
LINE
  5
26B
330
269
100
AcDbEntity
  8
cotas
100
AcDbLine
 10
6033.742955404188
 20
2005.064653922501
 30
0.0
 11
6353.981199201323
 21
2005.064653922501
 31
0.0
  0
LINE
  5
26C
330
269
100
AcDbEntity
  8
cotas
100
AcDbLine
 10
6033.831140318144
 20
1925.06535539943
 30
0.0
 11
6353.981199201323
 21
1925.06535539943
 31
0.0
  0
LINE
  5
26D
330
269
100
AcDbEntity
  8
cotas
100
AcDbLine
 10
6348.981199201323
 20
1995.064653922501
 30
0.0
 11
6348.981199201323
 21
1935.06535539943
 31
0.0
  0
SOLID
  5
26E
330
269
100
AcDbEntity
  8
cotas
100
AcDbTrace
 10
6347.314532534656
 20
1995.064653922501
 30
0.0
 11
6350.647865867991
 21
1995.064653922501
 31
0.0
 12
6348.981199201323
 22
2005.064653922501
 32
0.0
 13
6348.981199201323
 23
2005.064653922501
 33
0.0
  0
SOLID
  5
26F
330
269
100
AcDbEntity
  8
cotas
100
AcDbTrace
 10
6347.314532534656
 20
1935.06535539943
 30
0.0
 11
6350.647865867991
 21
1935.06535539943
 31
0.0
 12
6348.981199201323
 22
1925.06535539943
 32
0.0
 13
6348.981199201323
 23
1925.06535539943
 33
0.0
  0
MTEXT
  5
270
330
269
100
AcDbEntity
  8
cotas
100
AcDbMText
 10
6338.752858032753
 20
1965.065004660966
 30
0.0
 40
10.0
 41
0.0
 71
     5
 72
     1
  1
80
  7
SANINDUSA
 11
0.0000000000000001
 21
1.0
 31
0.0
 73
     1
 44
1.0
1001
ACAD
1000
MTEXTBEGIN
1070
    73
1070
     1
1070
    44
1040
1.0
1070
    74
1070
     0
1000
MTEXTEND
  0
POINT
  5
271
330
269
100
AcDbEntity
  8
Defpoints
 62
     0
100
AcDbPoint
 10
6028.742955404188
 20
2005.064653922501
 30
0.0
  0
POINT
  5
272
330
269
100
AcDbEntity
  8
Defpoints
 62
     0
100
AcDbPoint
 10
6028.831140318144
 20
1925.06535539943
 30
0.0
  0
POINT
  5
273
330
269
100
AcDbEntity
  8
Defpoints
 62
     0
100
AcDbPoint
 10
6348.981199201323
 20
1925.06535539943
 30
0.0
  0
ENDBLK
  5
274
330
269
100
AcDbEntity
  8
0
100
AcDbBlockEnd
  0
BLOCK
  5
276
330
275
100
AcDbEntity
  8
0
100
AcDbBlockBegin
  2
*D53
 70
     1
 10
0.0
 20
0.0
 30
0.0
  3
*D53
  1

  0
LINE
  5
277
330
275
100
AcDbEntity
  8
cotas
100
AcDbLine
 10
6033.831140318144
 20
1925.06535539943
 30
0.0
 11
6353.981199201323
 21
1925.06535539943
 31
0.0
  0
LINE
  5
278
330
275
100
AcDbEntity
  8
cotas
100
AcDbLine
 10
6033.791235299593
 20
1845.064293959119
 30
0.0
 11
6353.981199201323
 21
1845.064293959119
 31
0.0
  0
LINE
  5
279
330
275
100
AcDbEntity
  8
cotas
100
AcDbLine
 10
6348.981199201323
 20
1915.06535539943
 30
0.0
 11
6348.981199201323
 21
1855.064293959119
 31
0.0
  0
SOLID
  5
27A
330
275
100
AcDbEntity
  8
cotas
100
AcDbTrace
 10
6347.314532534656
 20
1915.06535539943
 30
0.0
 11
6350.647865867991
 21
1915.06535539943
 31
0.0
 12
6348.981199201323
 22
1925.06535539943
 32
0.0
 13
6348.981199201323
 23
1925.06535539943
 33
0.0
  0
SOLID
  5
27B
330
275
100
AcDbEntity
  8
cotas
100
AcDbTrace
 10
6347.314532534656
 20
1855.064293959119
 30
0.0
 11
6350.647865867991
 21
1855.064293959119
 31
0.0
 12
6348.981199201323
 22
1845.064293959119
 32
0.0
 13
6348.981199201323
 23
1845.064293959119
 33
0.0
  0
MTEXT
  5
27C
330
275
100
AcDbEntity
  8
cotas
100
AcDbMText
 10
6338.752858032753
 20
1885.064824679275
 30
0.0
 40
10.0
 41
0.0
 71
     5
 72
     1
  1
80
  7
SANINDUSA
 11
0.0000000000000001
 21
1.0
 31
0.0
 73
     1
 44
1.0
1001
ACAD
1000
MTEXTBEGIN
1070
    73
1070
     1
1070
    44
1040
1.0
1070
    74
1070
     0
1000
MTEXTEND
  0
POINT
  5
27D
330
275
100
AcDbEntity
  8
Defpoints
 62
     0
100
AcDbPoint
 10
6028.831140318144
 20
1925.06535539943
 30
0.0
  0
POINT
  5
27E
330
275
100
AcDbEntity
  8
Defpoints
 62
     0
100
AcDbPoint
 10
6028.791235299593
 20
1845.064293959119
 30
0.0
  0
POINT
  5
27F
330
275
100
AcDbEntity
  8
Defpoints
 62
     0
100
AcDbPoint
 10
6348.981199201323
 20
1845.064293959119
 30
0.0
  0
ENDBLK
  5
280
330
275
100
AcDbEntity
  8
0
100
AcDbBlockEnd
  0
BLOCK
  5
282
330
281
100
AcDbEntity
  8
0
100
AcDbBlockBegin
  2
*D54
 70
     1
 10
0.0
 20
0.0
 30
0.0
  3
*D54
  1

  0
LINE
  5
283
330
281
100
AcDbEntity
  8
cotas
100
AcDbLine
 10
6033.791235299593
 20
1845.064293959119
 30
0.0
 11
6353.981199201323
 21
1845.064293959119
 31
0.0
  0
LINE
  5
284
330
281
100
AcDbEntity
  8
cotas
100
AcDbLine
 10
6318.282931514055
 20
1675.072618280794
 30
0.0
 11
6353.981199201323
 21
1675.072618280794
 31
0.0
  0
LINE
  5
285
330
281
100
AcDbEntity
  8
cotas
100
AcDbLine
 10
6348.981199201323
 20
1835.064293959119
 30
0.0
 11
6348.981199201323
 21
1685.072618280794
 31
0.0
  0
SOLID
  5
286
330
281
100
AcDbEntity
  8
cotas
100
AcDbTrace
 10
6347.314532534656
 20
1835.064293959119
 30
0.0
 11
6350.647865867991
 21
1835.064293959119
 31
0.0
 12
6348.981199201323
 22
1845.064293959119
 32
0.0
 13
6348.981199201323
 23
1845.064293959119
 33
0.0
  0
SOLID
  5
287
330
281
100
AcDbEntity
  8
cotas
100
AcDbTrace
 10
6347.314532534656
 20
1685.072618280794
 30
0.0
 11
6350.647865867991
 21
1685.072618280794
 31
0.0
 12
6348.981199201323
 22
1675.072618280794
 32
0.0
 13
6348.981199201323
 23
1675.072618280794
 33
0.0
  0
MTEXT
  5
288
330
281
100
AcDbEntity
  8
cotas
100
AcDbMText
 10
6338.776363741283
 20
1760.068456119958
 30
0.0
 40
10.0
 41
0.0
 71
     5
 72
     1
  1
170
  7
SANINDUSA
 11
0.0000000000000001
 21
1.0
 31
0.0
 73
     1
 44
1.0
1001
ACAD
1000
MTEXTBEGIN
1070
    73
1070
     1
1070
    44
1040
1.0
1070
    74
1070
     0
1000
MTEXTEND
  0
POINT
  5
289
330
281
100
AcDbEntity
  8
Defpoints
 62
     0
100
AcDbPoint
 10
6028.791235299593
 20
1845.064293959119
 30
0.0
  0
POINT
  5
28A
330
281
100
AcDbEntity
  8
Defpoints
 62
     0
100
AcDbPoint
 10
6313.282931514056
 20
1675.072618280794
 30
0.0
  0
POINT
  5
28B
330
281
100
AcDbEntity
  8
Defpoints
 62
     0
100
AcDbPoint
 10
6348.981199201323
 20
1675.072618280794
 30
0.0
  0
ENDBLK
  5
28C
330
281
100
AcDbEntity
  8
0
100
AcDbBlockEnd
  0
BLOCK
  5
28E
330
28D
100
AcDbEntity
  8
0
100
AcDbBlockBegin
  2
*D55
 70
     1
 10
0.0
 20
0.0
 30
0.0
  3
*D55
  1

  0
LINE
  5
28F
330
28D
100
AcDbEntity
  8
cotas
100
AcDbLine
 10
6033.786727911429
 20
2405.072795121141
 30
0.0
 11
6353.981199201323
 21
2405.072795121141
 31
0.0
  0
LINE
  5
290
330
28D
100
AcDbEntity
  8
cotas
100
AcDbLine
 10
6318.282931514055
 20
2575.072618280795
 30
0.0
 11
6353.981199201323
 21
2575.072618280795
 31
0.0
  0
LINE
  5
291
330
28D
100
AcDbEntity
  8
cotas
100
AcDbLine
 10
6348.981199201323
 20
2415.07279512114
 30
0.0
 11
6348.981199201323
 21
2565.072618280795
 31
0.0
  0
SOLID
  5
292
330
28D
100
AcDbEntity
  8
cotas
100
AcDbTrace
 10
6347.314532534656
 20
2415.07279512114
 30
0.0
 11
6350.647865867991
 21
2415.07279512114
 31
0.0
 12
6348.981199201323
 22
2405.072795121141
 32
0.0
 13
6348.981199201323
 23
2405.072795121141
 33
0.0
  0
SOLID
  5
293
330
28D
100
AcDbEntity
  8
cotas
100
AcDbTrace
 10
6347.314532534656
 20
2565.072618280795
 30
0.0
 11
6350.647865867991
 21
2565.072618280795
 31
0.0
 12
6348.981199201323
 22
2575.072618280795
 32
0.0
 13
6348.981199201323
 23
2575.072618280795
 33
0.0
  0
MTEXT
  5
294
330
28D
100
AcDbEntity
  8
cotas
100
AcDbMText
 10
6338.776363741281
 20
2490.072706700968
 30
0.0
 40
10.0
 41
0.0
 71
     5
 72
     1
  1
170
  7
SANINDUSA
 11
0.0000000000000001
 21
1.0
 31
0.0
 73
     1
 44
1.0
1001
ACAD
1000
MTEXTBEGIN
1070
    73
1070
     1
1070
    44
1040
1.0
1070
    74
1070
     0
1000
MTEXTEND
  0
POINT
  5
295
330
28D
100
AcDbEntity
  8
Defpoints
 62
     0
100
AcDbPoint
 10
6028.78672791143
 20
2405.072795121141
 30
0.0
  0
POINT
  5
296
330
28D
100
AcDbEntity
  8
Defpoints
 62
     0
100
AcDbPoint
 10
6313.282931514056
 20
2575.072618280795
 30
0.0
  0
POINT
  5
297
330
28D
100
AcDbEntity
  8
Defpoints
 62
     0
100
AcDbPoint
 10
6348.981199201323
 20
2575.072618280795
 30
0.0
  0
ENDBLK
  5
298
330
28D
100
AcDbEntity
  8
0
100
AcDbBlockEnd
  0
BLOCK
  5
29A
330
299
100
AcDbEntity
  8
0
100
AcDbBlockBegin
  2
*D56
 70
     1
 10
0.0
 20
0.0
 30
0.0
  3
*D56
  1

  0
LINE
  5
29B
330
299
100
AcDbEntity
  8
cotas
100
AcDbLine
 10
4917.660440835786
 20
2575.767533496361
 30
0.0
 11
4917.660440835786
 21
2610.766754528321
 31
0.0
  0
LINE
  5
29C
330
299
100
AcDbEntity
  8
cotas
100
AcDbLine
 10
5245.929422699259
 20
2580.068569561281
 30
0.0
 11
5245.929422699259
 21
2610.766754528321
 31
0.0
  0
LINE
  5
29D
330
299
100
AcDbEntity
  8
cotas
100
AcDbLine
 10
4927.660440835786
 20
2605.766754528322
 30
0.0
 11
5235.92942269926
 21
2605.766754528322
 31
0.0
  0
SOLID
  5
29E
330
299
100
AcDbEntity
  8
cotas
100
AcDbTrace
 10
4927.660440835786
 20
2607.433421194988
 30
0.0
 11
4927.660440835786
 21
2604.100087861655
 31
0.0
 12
4917.660440835786
 22
2605.766754528322
 32
0.0
 13
4917.660440835786
 23
2605.766754528322
 33
0.0
  0
SOLID
  5
29F
330
299
100
AcDbEntity
  8
cotas
100
AcDbTrace
 10
5235.92942269926
 20
2607.433421194988
 30
0.0
 11
5235.92942269926
 21
2604.100087861655
 31
0.0
 12
5245.929422699259
 22
2605.766754528322
 32
0.0
 13
5245.929422699259
 23
2605.766754528322
 33
0.0
  0
MTEXT
  5
2A0
330
299
100
AcDbEntity
  8
cotas
100
AcDbMText
 10
5081.794931767523
 20
2617.123369706293
 30
0.0
 40
10.0
 41
0.0
 71
     5
 72
     1
  1
328,3
  7
SANINDUSA
 73
     1
 44
1.0
1001
ACAD
1000
MTEXTBEGIN
1070
    73
1070
     1
1070
    44
1040
1.0
1070
    74
1070
     0
1000
MTEXTEND
  0
POINT
  5
2A1
330
299
100
AcDbEntity
  8
Defpoints
 62
     0
100
AcDbPoint
 10
4917.660440835786
 20
2570.767533496361
 30
0.0000000000000001
  0
POINT
  5
2A2
330
299
100
AcDbEntity
  8
Defpoints
 62
     0
100
AcDbPoint
 10
5245.929422699259
 20
2575.06856956128
 30
0.0
  0
POINT
  5
2A3
330
299
100
AcDbEntity
  8
Defpoints
 62
     0
100
AcDbPoint
 10
5245.929422699259
 20
2605.766754528322
 30
0.0
  0
ENDBLK
  5
2A4
330
299
100
AcDbEntity
  8
0
100
AcDbBlockEnd
  0
BLOCK
  5
2A6
330
2A5
100
AcDbEntity
  8
0
100
AcDbBlockBegin
  2
*D57
 70
     1
 10
0.0
 20
0.0
 30
0.0
  3
*D57
  1

  0
LINE
  5
2A7
330
2A5
100
AcDbEntity
  8
cotas
100
AcDbLine
 10
6343.79400229172
 20
1639.217806868976
 30
0.0
 11
6322.258430569955
 21
1668.054281594816
 31
0.0
  0
MTEXT
  5
2A8
330
2A5
100
AcDbEntity
  8
cotas
100
AcDbMText
 10
6344.11367852673
 20
1655.675886034845
 30
0.0
 40
10.0
 41
0.0
 71
     5
 72
     1
  1
R5
  7
SANINDUSA
 11
0.5983666037265995
 21
-0.8012224457319543
 31
0.0
 73
     1
 44
1.0
1001
ACAD
1000
MTEXTBEGIN
1070
    73
1070
     1
1070
    44
1040
1.0
1070
    74
1070
     0
1000
MTEXTEND
  0
LINE
  5
2A9
330
2A5
100
AcDbEntity
  8
cotas
100
AcDbLine
 10
6313.282931514057
 20
1680.072618280794
 30
0.0
 11
6316.274764532689
 21
1676.066506052135
 31
0.0
  0
SOLID
  5
2AA
330
2A5
100
AcDbEntity
  8
cotas
100
AcDbTrace
 10
6323.593801312842
 20
1669.051559267694
 30
0.0
 11
6320.923059827068
 21
1667.057003921938
 31
0.0
 12
6316.274764532689
 22
1676.066506052135
 32
0.0
 13
6316.274764532689
 23
1676.066506052135
 33
0.0
  0
POINT
  5
2AB
330
2A5
100
AcDbEntity
  8
Defpoints
 62
     0
100
AcDbPoint
 10
6316.274764532689
 20
1676.066506052135
 30
0.0
  0
POINT
  5
2AC
330
2A5
100
AcDbEntity
  8
Defpoints
 62
     0
100
AcDbPoint
 10
6313.282931514057
 20
1680.072618280794
 30
0.0
  0
ENDBLK
  5
2AD
330
2A5
100
AcDbEntity
  8
0
100
AcDbBlockEnd
  0
BLOCK
  5
2AF
330
2AE
100
AcDbEntity
  8
0
100
AcDbBlockBegin
  2
*D58
 70
     1
 10
0.0
 20
0.0
 30
0.0
  3
*D58
  1

  0
LINE
  5
2B0
330
2AE
100
AcDbEntity
  8
cotas
100
AcDbLine
 10
4887.523729667925
 20
1643.793233436526
 30
0.0
 11
4912.81701947571
 21
1669.397385730574
 31
0.0
  0
MTEXT
  5
2B1
330
2AE
100
AcDbEntity
  8
cotas
100
AcDbMText
 10
4889.468321691002
 20
1660.1391541689
 30
0.0
 40
10.0
 41
0.0
 71
     5
 72
     1
  1
R5
  7
SANINDUSA
 11
0.7027749304681699
 21
0.7114122553804222
 31
0.0
 73
     1
 44
1.0
1001
ACAD
1000
MTEXTBEGIN
1070
    73
1070
     1
1070
    44
1040
1.0
1070
    74
1070
     0
1000
MTEXTEND
  0
LINE
  5
2B2
330
2AE
100
AcDbEntity
  8
cotas
100
AcDbLine
 10
4923.358643432732
 20
1680.068569561279
 30
0.0
 11
4919.844768780391
 21
1676.511508284378
 31
0.0
  0
SOLID
  5
2B3
330
2AE
100
AcDbEntity
  8
cotas
100
AcDbTrace
 10
4911.631332383409
 20
1670.568677281354
 30
0.0
 11
4914.002706568011
 21
1668.226094179794
 31
0.0
 12
4919.844768780391
 22
1676.511508284378
 32
0.0
 13
4919.844768780391
 23
1676.511508284378
 33
0.0
  0
POINT
  5
2B4
330
2AE
100
AcDbEntity
  8
Defpoints
 62
     0
100
AcDbPoint
 10
4919.844768780391
 20
1676.511508284378
 30
0.0
  0
POINT
  5
2B5
330
2AE
100
AcDbEntity
  8
Defpoints
 62
     0
100
AcDbPoint
 10
4923.358643432732
 20
1680.068569561279
 30
0.0
  0
ENDBLK
  5
2B6
330
2AE
100
AcDbEntity
  8
0
100
AcDbBlockEnd
  0
BLOCK
  5
2B8
330
2B7
100
AcDbEntity
  8
0
100
AcDbBlockBegin
  2
*D59
 70
     1
 10
0.0
 20
0.0
 30
0.0
  3
*D59
  1

  0
LINE
  5
2B9
330
2B7
100
AcDbEntity
  8
cotas
100
AcDbLine
 10
6030.123871398457
 20
2213.115292279995
 30
-0.0000000000000961
 11
6073.139719634389
 21
2178.098184386145
 31
-0.0000000000000961
  0
LINE
  5
2BA
330
2B7
100
AcDbEntity
  8
cotas
100
AcDbLine
 10
6203.405128997485
 20
2072.055456378433
 30
-0.0000000000000961
 11
6211.160377577616
 21
2065.742286060726
 31
-0.0000000000000961
  0
MTEXT
  5
2BB
330
2B7
100
AcDbEntity
  8
cotas
100
AcDbMText
 10
6054.635484473931
 20
2207.216492360663
 30
-0.0000000000000961
 40
10.0
 41
0.0
 71
     5
 72
     1
  1
\U+2205148
  7
SANINDUSA
 11
0.7755248580131051
 21
-0.631317031770689
 31
0.0
 73
     1
 44
1.0
1001
ACAD
1000
MTEXTBEGIN
1070
    73
1070
     1
1070
    44
1040
1.0
1070
    74
1070
     0
1000
MTEXTEND
  0
LINE
  5
2BC
330
2B7
100
AcDbEntity
  8
cotas
100
AcDbLine
 10
6195.649880417353
 20
2078.36862669614
 30
-0.0000000000000961
 11
6080.894968214519
 21
2171.785014068439
 31
-0.0000000000000961
  0
SOLID
  5
2BD
330
2B7
100
AcDbEntity
  8
cotas
100
AcDbTrace
 10
6204.457324050436
 20
2073.347997808455
 30
-0.0000000000000961
 11
6202.352933944534
 21
2070.762914948411
 31
-0.0000000000000961
 12
6195.649880417353
 22
2078.36862669614
 32
-0.0000000000000961
 13
6195.649880417353
 23
2078.36862669614
 33
-0.0000000000000961
  0
SOLID
  5
2BE
330
2B7
100
AcDbEntity
  8
cotas
100
AcDbTrace
 10
6074.19191468734
 20
2179.390725816167
 30
-0.0000000000000961
 11
6072.087524581437
 21
2176.805642956123
 31
-0.0000000000000961
 12
6080.894968214519
 22
2171.785014068439
 32
-0.0000000000000961
 13
6080.894968214519
 23
2171.785014068439
 33
-0.0000000000000961
  0
POINT
  5
2BF
330
2B7
100
AcDbEntity
  8
Defpoints
 62
     0
100
AcDbPoint
 10
6080.894968214519
 20
2171.785014068439
 30
-0.0000000000000961
  0
POINT
  5
2C0
330
2B7
100
AcDbEntity
  8
Defpoints
 62
     0
100
AcDbPoint
 10
6195.649880417353
 20
2078.36862669614
 30
-0.0000000000000961
  0
ENDBLK
  5
2C1
330
2B7
100
AcDbEntity
  8
0
100
AcDbBlockEnd
  0
BLOCK
  5
2C3
330
2C2
100
AcDbEntity
  8
0
100
AcDbBlockBegin
  2
*D60
 70
     1
 10
0.0
 20
0.0
 30
0.0
  3
*D60
  1

  0
LINE
  5
2C4
330
2C2
100
AcDbEntity
  8
1
100
AcDbLine
 10
4917.659679209634
 20
2575.766754342057
 30
0.0
 11
4879.20938099333
 21
2575.766754342057
 31
0.0
  0
LINE
  5
2C5
330
2C2
100
AcDbEntity
  8
1
100
AcDbLine
 10
4913.358643432732
 20
2482.00702302217
 30
0.0
 11
4879.20938099333
 21
2482.00702302217
 31
0.0
  0
LINE
  5
2C6
330
2C2
100
AcDbEntity
  8
1
100
AcDbLine
 10
4884.20938099333
 20
2565.766754342057
 30
0.0
 11
4884.20938099333
 21
2492.00702302217
 31
0.0
  0
SOLID
  5
2C7
330
2C2
100
AcDbEntity
  8
1
100
AcDbTrace
 10
4882.542714326664
 20
2565.766754342057
 30
0.0
 11
4885.876047659998
 21
2565.766754342057
 31
0.0
 12
4884.20938099333
 22
2575.766754342057
 32
0.0
 13
4884.20938099333
 23
2575.766754342057
 33
0.0
  0
SOLID
  5
2C8
330
2C2
100
AcDbEntity
  8
1
100
AcDbTrace
 10
4882.542714326664
 20
2492.00702302217
 30
0.0
 11
4885.876047659998
 21
2492.00702302217
 31
0.0
 12
4884.20938099333
 22
2482.00702302217
 32
0.0
 13
4884.20938099333
 23
2482.00702302217
 33
0.0
  0
MTEXT
  5
2C9
330
2C2
100
AcDbEntity
  8
1
100
AcDbMText
 10
4872.852765815358
 20
2528.886888682114
 30
0.0
 40
10.0
 41
0.0
 71
     5
 72
     1
  1
93,8
  7
SANINDUSA
 11
0.0000000000000001
 21
1.0
 31
0.0
 73
     1
 44
1.0
1001
ACAD
1000
MTEXTBEGIN
1070
    73
1070
     1
1070
    44
1040
1.0
1070
    74
1070
     0
1000
MTEXTEND
  0
POINT
  5
2CA
330
2C2
100
AcDbEntity
  8
Defpoints
 62
     0
100
AcDbPoint
 10
4922.659679209634
 20
2575.766754342057
 30
0.0
  0
POINT
  5
2CB
330
2C2
100
AcDbEntity
  8
Defpoints
 62
     0
100
AcDbPoint
 10
4918.358643432732
 20
2482.00702302217
 30
-0.0000000000000961
  0
POINT
  5
2CC
330
2C2
100
AcDbEntity
  8
Defpoints
 62
     0
100
AcDbPoint
 10
4884.20938099333
 20
2482.00702302217
 30
0.0
  0
ENDBLK
  5
2CD
330
2C2
100
AcDbEntity
  8
0
100
AcDbBlockEnd
  0
BLOCK
  5
2CF
330
2CE
100
AcDbEntity
  8
0
100
AcDbBlockBegin
  2
*D61
 70
     1
 10
0.0
 20
0.0
 30
0.0
  3
*D61
  1

  0
LINE
  5
2D0
330
2CE
100
AcDbEntity
  8
1
100
AcDbLine
 10
6192.644838401527
 20
3899.573130606248
 30
0.0
 11
6234.356088303083
 21
3873.504249809992
 31
0.0
  0
MTEXT
  5
2D1
330
2CE
100
AcDbEntity
  8
1
100
AcDbMText
 10
6212.726787717432
 20
3898.834418374351
 30
0.0
 40
10.0
 41
0.0
 71
     5
 72
     1
  1
R17
  7
SANINDUSA
 11
0.8480042467384787
 21
-0.5299894315111438
 31
0.0
 73
     1
 44
1.0
1001
ACAD
1000
MTEXTBEGIN
1070
    73
1070
     1
1070
    44
1040
1.0
1070
    74
1070
     0
1000
MTEXTEND
  0
SOLID
  5
2D2
330
2CE
100
AcDbEntity
  8
1
100
AcDbTrace
 10
6235.239404022267
 20
3874.917590221224
 30
0.0
 11
6233.472772583897
 21
3872.090909398761
 31
0.0
 12
6242.836130770466
 22
3868.20435549488
 32
0.0
 13
6242.836130770466
 23
3868.20435549488
 33
0.0
  0
POINT
  5
2D3
330
2CE
100
AcDbEntity
  8
Defpoints
 62
     0
100
AcDbPoint
 10
6242.836130770466
 20
3868.20435549488
 30
0.0
  0
POINT
  5
2D4
330
2CE
100
AcDbEntity
  8
Defpoints
 62
     0
100
AcDbPoint
 10
6228.420169138617
 20
3877.214106730603
 30
0.0
  0
ENDBLK
  5
2D5
330
2CE
100
AcDbEntity
  8
0
100
AcDbBlockEnd
  0
BLOCK
  5
2D7
330
2D6
100
AcDbEntity
  8
0
100
AcDbBlockBegin
  2
*D62
 70
     1
 10
0.0
 20
0.0
 30
0.0
  3
*D62
  1

  0
LINE
  5
2D8
330
2D6
100
AcDbEntity
  8
1
100
AcDbLine
 10
6323.35863223826
 20
3961.067023186518
 30
0.0
 11
6354.056828399955
 21
3961.067023186518
 31
0.0
  0
LINE
  5
2D9
330
2D6
100
AcDbEntity
  8
1
100
AcDbLine
 10
6249.92729223463
 20
3862.807215731791
 30
0.0
 11
6354.056828399955
 21
3862.807215731791
 31
0.0
  0
LINE
  5
2DA
330
2D6
100
AcDbEntity
  8
1
100
AcDbLine
 10
6349.056828399955
 20
3951.067023186518
 30
0.0
 11
6349.056828399955
 21
3872.807215731791
 31
0.0
  0
SOLID
  5
2DB
330
2D6
100
AcDbEntity
  8
1
100
AcDbTrace
 10
6347.390161733288
 20
3951.067023186518
 30
0.0
 11
6350.723495066622
 21
3951.067023186518
 31
0.0
 12
6349.056828399955
 22
3961.067023186518
 32
0.0
 13
6349.056828399955
 23
3961.067023186518
 33
0.0
  0
SOLID
  5
2DC
330
2D6
100
AcDbEntity
  8
1
100
AcDbTrace
 10
6347.390161733288
 20
3872.807215731791
 30
0.0
 11
6350.723495066622
 21
3872.807215731791
 31
0.0
 12
6349.056828399955
 22
3862.807215731791
 32
0.0
 13
6349.056828399955
 23
3862.807215731791
 33
0.0
  0
MTEXT
  5
2DD
330
2D6
100
AcDbEntity
  8
1
100
AcDbMText
 10
6337.700213221983
 20
3911.937119459155
 30
0.0
 40
10.0
 41
0.0
 71
     5
 72
     1
  1
98,3
  7
SANINDUSA
 11
0.0000000000000001
 21
1.0
 31
0.0
 73
     1
 44
1.0
1001
ACAD
1000
MTEXTBEGIN
1070
    73
1070
     1
1070
    44
1040
1.0
1070
    74
1070
     0
1000
MTEXTEND
  0
POINT
  5
2DE
330
2D6
100
AcDbEntity
  8
Defpoints
 62
     0
100
AcDbPoint
 10
6318.358632238261
 20
3961.067023186518
 30
0.0
  0
POINT
  5
2DF
330
2D6
100
AcDbEntity
  8
Defpoints
 62
     0
100
AcDbPoint
 10
6244.927292234631
 20
3862.807215731791
 30
0.0
  0
POINT
  5
2E0
330
2D6
100
AcDbEntity
  8
Defpoints
 62
     0
100
AcDbPoint
 10
6349.056828399955
 20
3862.807215731791
 30
0.0
  0
ENDBLK
  5
2E1
330
2D6
100
AcDbEntity
  8
0
100
AcDbBlockEnd
  0
BLOCK
  5
D2E
330
D28
100
AcDbEntity
  8
0
100
AcDbBlockBegin
  2
*D64
 70
     1
 10
0.0
 20
0.0
 30
0.0
  3
*D64
  1

  0
LINE
  5
791E
330
D28
100
AcDbEntity
  8
cotas
100
AcDbLine
 10
182.1059214439955
 20
1702.987109489847
 30
0.0
 11
158.0892735535067
 21
1729.936506700789
 31
0.0
  0
MTEXT
  5
791F
330
D28
100
AcDbEntity
  8
cotas
100
AcDbMText
 10
180.8897922525299
 20
1719.382173208879
 30
0.0
 40
10.0
 41
0.0
 71
     5
 72
     1
  1
R7
  7
SANINDUSA
 11
0.6653169992360538
 21
-0.7465609757598725
 31
0.0
 73
     1
 44
1.0
1001
ACAD
1000
MTEXTBEGIN
1070
    73
1070
     1
1070
    44
1040
1.0
1070
    74
1070
     0
1000
MTEXTEND
  0
SOLID
  5
7920
330
D28
100
AcDbEntity
  8
cotas
100
AcDbTrace
 10
159.3335418464398
 20
1731.045368366183
 30
0.0
 11
156.8450052605735
 21
1728.827645035396
 31
0.0
 12
151.4361035611462
 22
1737.402116458388
 32
0.0
 13
151.4361035611462
 23
1737.402116458388
 33
0.0
  0
POINT
  5
7921
330
D28
100
AcDbEntity
  8
Defpoints
 62
     0
100
AcDbPoint
 10
151.4361035611462
 20
1737.402116458388
 30
0.0
  0
POINT
  5
7922
330
D28
100
AcDbEntity
  8
Defpoints
 62
     0
100
AcDbPoint
 10
156.0933225557966
 20
1732.176189628071
 30
0.0
  0
ENDBLK
  5
D2F
330
D28
100
AcDbEntity
  8
0
100
AcDbBlockEnd
  0
BLOCK
  5
D36
330
D30
100
AcDbEntity
  8
0
100
AcDbBlockBegin
  2
*D65
 70
     1
 10
0.0
 20
0.0
 30
0.0
  3
*D65
  1

  0
LINE
  5
7919
330
D30
100
AcDbEntity
  8
cotas
100
AcDbLine
 10
1012.30468601103
 20
1707.140130527083
 30
0.0
 11
1040.031286897137
 21
1730.255168689097
 31
0.0
  0
MTEXT
  5
791A
330
D30
100
AcDbEntity
  8
cotas
100
AcDbMText
 10
1015.924126699117
 20
1723.176861293261
 30
0.0
 40
10.0
 41
0.0
 71
     5
 72
     1
  1
R7
  7
SANINDUSA
 11
0.7680913250123425
 21
0.6403403129905099
 31
0.0
 73
     1
 44
1.0
1001
ACAD
1000
MTEXTBEGIN
1070
    73
1070
     1
1070
    44
1040
1.0
1070
    74
1070
     0
1000
MTEXTEND
  0
SOLID
  5
791B
330
D30
100
AcDbEntity
  8
cotas
100
AcDbTrace
 10
1038.964053042153
 20
1731.535320897451
 30
0.0
 11
1041.098520752121
 21
1728.975016480744
 31
0.0
 12
1047.712200147261
 22
1736.658571819003
 32
0.0
 13
1047.712200147261
 23
1736.658571819003
 33
0.0
  0
POINT
  5
791C
330
D30
100
AcDbEntity
  8
Defpoints
 62
     0
100
AcDbPoint
 10
1047.712200147261
 20
1736.658571819003
 30
0.0
  0
POINT
  5
791D
330
D30
100
AcDbEntity
  8
Defpoints
 62
     0
100
AcDbPoint
 10
1042.335560872177
 20
1732.176189628072
 30
0.0
  0
ENDBLK
  5
D37
330
D30
100
AcDbEntity
  8
0
100
AcDbBlockEnd
  0
BLOCK
  5
D43
330
D38
100
AcDbEntity
  8
0
100
AcDbBlockBegin
  2
*D66
 70
     1
 10
0.0
 20
0.0
 30
0.0
  3
*D66
  1

  0
LINE
  5
790F
330
D38
100
AcDbEntity
  8
cotas
100
AcDbLine
 10
1049.999886055405
 20
1694.176951999968
 30
0.0
 11
1050.526612607538
 21
1663.999888634156
 31
0.0
  0
ARC
  5
7910
330
D38
100
AcDbEntity
  8
cotas
100
AcDbCircle
 10
1049.214445371627
 20
1739.176189628072
 30
0.0
 40
70.18775175507468
100
AcDbArc
 50
188.17013648039
 51
262.8298330588091
  0
SOLID
  5
7911
330
D38
100
AcDbEntity
  8
cotas
100
AcDbTrace
 10
978.076636318293
 20
1729.082866641671
 30
0.0
 11
981.401500924599
 21
1729.320324976636
 31
0.0
 12
979.0266936165521
 22
1739.176189628072
 32
0.0
 13
979.0266936165521
 23
1739.176189628072
 33
0.0
  0
SOLID
  5
7912
330
D38
100
AcDbEntity
  8
cotas
100
AcDbTrace
 10
1040.543544746199
 20
1671.201569475054
 30
0.0
 11
1040.364147696178
 21
1667.873067137732
 31
0.0
 12
1050.439353233153
 22
1668.99912715633
 32
0.0
 13
1050.439353233153
 23
1668.99912715633
 33
0.0
  0
MTEXT
  5
7913
330
D38
100
AcDbEntity
  8
cotas
100
AcDbMText
 10
1007.969731062213
 20
1697.205285742659
 30
0.0
 40
10.0
 41
0.0
 71
     5
 72
     1
  1
91,0°
  7
SANINDUSA
 11
0.7132502628380123
 21
-0.7009094538965118
 31
0.0
 73
     1
 44
1.0
1001
ACAD
1000
MTEXTBEGIN
1070
    73
1070
     1
1070
    44
1040
1.0
1070
    74
1070
     0
1000
MTEXTEND
  0
POINT
  5
7914
330
D38
100
AcDbEntity
  8
Defpoints
 62
     0
100
AcDbPoint
 10
988.6352584402414
 20
1703.729291214187
 30
0.0
  0
POINT
  5
7915
330
D38
100
AcDbEntity
  8
Defpoints
 62
     0
100
AcDbPoint
 10
156.0933224978946
 20
1739.176189628072
 30
0.0
  0
POINT
  5
7916
330
D38
100
AcDbEntity
  8
Defpoints
 62
     0
100
AcDbPoint
 10
1049.334494720211
 20
1732.298357507074
 30
0.0
  0
POINT
  5
7917
330
D38
100
AcDbEntity
  8
Defpoints
 62
     0
100
AcDbPoint
 10
1049.91262668102
 20
1699.176190522142
 30
0.0
  0
POINT
  5
7918
330
D38
100
AcDbEntity
  8
Defpoints
 62
     0
100
AcDbPoint
 10
1042.335565027883
 20
1739.176189628072
 30
0.0
  0
ENDBLK
  5
D44
330
D38
100
AcDbEntity
  8
0
100
AcDbBlockEnd
  0
BLOCK
  5
D50
330
D45
100
AcDbEntity
  8
0
100
AcDbBlockBegin
  2
*D67
 70
     1
 10
0.0
 20
0.0
 30
0.0
  3
*D67
  1

  0
LINE
  5
7905
330
D45
100
AcDbEntity
  8
cotas
100
AcDbLine
 10
148.4289771012396
 20
1694.176952046357
 30
0.0
 11
147.8032932503262
 21
1658.331548182669
 31
0.0
  0
ARC
  5
7906
330
D45
100
AcDbEntity
  8
cotas
100
AcDbCircle
 10
149.2144417138121
 20
1739.176189628072
 30
0.0
 40
75.85695635145886
100
AcDbArc
 50
276.5586144526251
 51
352.4413855488218
  0
SOLID
  5
7907
330
D45
100
AcDbEntity
  8
cotas
100
AcDbTrace
 10
157.9596074967262
 20
1662.150970875087
 30
0.0
 11
157.7979773608264
 21
1665.480383257217
 31
0.0
 12
147.8905552823863
 22
1663.330786658453
 32
0.0
 13
147.8905552823863
 23
1663.330786658453
 33
0.0
  0
SOLID
  5
7908
330
D45
100
AcDbEntity
  8
cotas
100
AcDbTrace
 10
222.7492205038712
 20
1729.307792131461
 30
0.0
 11
226.0753049655505
 21
1729.088080354607
 31
0.0
 12
225.0713980652709
 22
1739.176189628072
 32
0.0
 13
225.0713980652709
 23
1739.176189628072
 33
0.0
  0
MTEXT
  5
7909
330
D45
100
AcDbEntity
  8
cotas
100
AcDbMText
 10
194.4327428898896
 20
1693.161712054817
 30
0.0
 40
10.0
 41
0.0
 71
     5
 72
     1
  1
91,0°
  7
SANINDUSA
 11
0.713250449145331
 21
0.7009092643088574
 31
0.0
 73
     1
 44
1.0
1001
ACAD
1000
MTEXTBEGIN
1070
    73
1070
     1
1070
    44
1040
1.0
1070
    74
1070
     0
1000
MTEXTEND
  0
POINT
  5
790A
330
D45
100
AcDbEntity
  8
Defpoints
 62
     0
100
AcDbPoint
 10
186.3759846883405
 20
1673.04527741102
 30
0.0
  0
POINT
  5
790B
330
D45
100
AcDbEntity
  8
Defpoints
 62
     0
100
AcDbPoint
 10
148.5162391332999
 20
1699.176190522141
 30
0.0
  0
POINT
  5
790C
330
D45
100
AcDbEntity
  8
Defpoints
 62
     0
100
AcDbPoint
 10
156.0933224978946
 20
1739.176189628072
 30
0.0
  0
POINT
  5
790D
330
D45
100
AcDbEntity
  8
Defpoints
 62
     0
100
AcDbPoint
 10
1042.335565027883
 20
1739.176189628072
 30
0.0
  0
POINT
  5
790E
330
D45
100
AcDbEntity
  8
Defpoints
 62
     0
100
AcDbPoint
 10
149.0943886916033
 20
1732.298356582117
 30
0.0
  0
ENDBLK
  5
D51
330
D45
100
AcDbEntity
  8
0
100
AcDbBlockEnd
  0
BLOCK
  5
D5C
330
D52
100
AcDbEntity
  8
0
100
AcDbBlockBegin
  2
*D68
 70
     1
 10
0.0
 20
0.0
 30
0.0
  3
*D68
  1

  0
LINE
  5
78D1
330
D52
100
AcDbEntity
  8
cotas
100
AcDbLine
 10
3560.861588564109
 20
1671.538531536946
 30
0.0
 11
3610.347354238565
 21
1671.538531536946
 31
0.0
  0
LINE
  5
78D2
330
D52
100
AcDbEntity
  8
cotas
100
AcDbLine
 10
3686.525160620157
 20
1739.176189628079
 30
0.0
 11
3600.347354238565
 21
1739.176189628079
 31
0.0
  0
LINE
  5
78D3
330
D52
100
AcDbEntity
  8
cotas
100
AcDbLine
 10
3605.347354238565
 20
1681.538531536946
 30
0.0
 11
3605.347354238565
 21
1729.176189628079
 31
0.0
  0
SOLID
  5
78D4
330
D52
100
AcDbEntity
  8
cotas
100
AcDbTrace
 10
3603.680687571898
 20
1681.538531536946
 30
0.0
 11
3607.014020905231
 21
1681.538531536946
 31
0.0
 12
3605.347354238565
 22
1671.538531536946
 32
0.0
 13
3605.347354238565
 23
1671.538531536946
 33
0.0
  0
SOLID
  5
78D5
330
D52
100
AcDbEntity
  8
cotas
100
AcDbTrace
 10
3603.680687571898
 20
1729.176189628079
 30
0.0
 11
3607.014020905231
 21
1729.176189628079
 31
0.0
 12
3605.347354238565
 22
1739.176189628079
 32
0.0
 13
3605.347354238565
 23
1739.176189628079
 33
0.0
  0
MTEXT
  5
78D6
330
D52
100
AcDbEntity
  8
cotas
100
AcDbMText
 10
3594.01088681076
 20
1705.357360582513
 30
0.0
 40
10.0
 41
0.0
 71
     5
 72
     1
  1
67,6
  7
SANINDUSA
 11
0.0000000000000001
 21
1.0
 31
0.0
 73
     1
 44
1.0
1001
ACAD
1000
MTEXTBEGIN
1070
    73
1070
     1
1070
    44
1040
1.0
1070
    74
1070
     0
1000
MTEXTEND
  0
POINT
  5
78D7
330
D52
100
AcDbEntity
  8
Defpoints
 62
     0
100
AcDbPoint
 10
3555.861588564108
 20
1671.538531536946
 30
0.0
  0
POINT
  5
78D8
330
D52
100
AcDbEntity
  8
Defpoints
 62
     0
100
AcDbPoint
 10
3691.525160620157
 20
1739.176189628079
 30
0.0
  0
POINT
  5
78D9
330
D52
100
AcDbEntity
  8
Defpoints
 62
     0
100
AcDbPoint
 10
3605.347354238565
 20
1739.176189628079
 30
0.0
  0
ENDBLK
  5
D5D
330
D52
100
AcDbEntity
  8
0
100
AcDbBlockEnd
  0
BLOCK
  5
D68
330
D5E
100
AcDbEntity
  8
0
100
AcDbBlockBegin
  2
*D69
 70
     1
 10
0.0
 20
0.0
 30
0.0
  3
*D69
  1

  0
LINE
  5
78B2
330
D5E
100
AcDbEntity
  8
cotas
100
AcDbLine
 10
3088.931953336033
 20
1679.601539540016
 30
0.0
 11
2955.826949653369
 21
1679.601539540016
 31
0.0
  0
LINE
  5
78B3
330
D5E
100
AcDbEntity
  8
cotas
100
AcDbLine
 10
2986.525152233878
 20
1739.176189628079
 30
0.0
 11
2955.826949653369
 21
1739.176189628079
 31
0.0
  0
LINE
  5
78B4
330
D5E
100
AcDbEntity
  8
cotas
100
AcDbLine
 10
2960.826949653369
 20
1689.601539540016
 30
0.0
 11
2960.826949653369
 21
1729.176189628079
 31
0.0
  0
SOLID
  5
78B5
330
D5E
100
AcDbEntity
  8
cotas
100
AcDbTrace
 10
2959.160282986702
 20
1689.601539540016
 30
0.0
 11
2962.493616320035
 21
1689.601539540016
 31
0.0
 12
2960.826949653369
 22
1679.601539540016
 32
0.0
 13
2960.826949653369
 23
1679.601539540016
 33
0.0
  0
SOLID
  5
78B6
330
D5E
100
AcDbEntity
  8
cotas
100
AcDbTrace
 10
2959.160282986702
 20
1729.176189628079
 30
0.0
 11
2962.493616320035
 21
1729.176189628079
 31
0.0
 12
2960.826949653369
 22
1739.176189628079
 32
0.0
 13
2960.826949653369
 23
1739.176189628079
 33
0.0
  0
MTEXT
  5
78B7
330
D5E
100
AcDbEntity
  8
cotas
100
AcDbMText
 10
2949.483766308842
 20
1709.388864584048
 30
0.0
 40
10.0
 41
0.0
 71
     5
 72
     1
  1
59,6
  7
SANINDUSA
 11
0.0000000000000001
 21
1.0
 31
0.0
 73
     1
 44
1.0
1001
ACAD
1000
MTEXTBEGIN
1070
    73
1070
     1
1070
    44
1040
1.0
1070
    74
1070
     0
1000
MTEXTEND
  0
POINT
  5
78B8
330
D5E
100
AcDbEntity
  8
Defpoints
 62
     0
100
AcDbPoint
 10
3093.931953336034
 20
1679.601539540016
 30
0.0
  0
POINT
  5
78B9
330
D5E
100
AcDbEntity
  8
Defpoints
 62
     0
100
AcDbPoint
 10
2991.525152233878
 20
1739.176189628079
 30
0.0
  0
POINT
  5
78BA
330
D5E
100
AcDbEntity
  8
Defpoints
 62
     0
100
AcDbPoint
 10
2960.826949653369
 20
1739.176189628079
 30
0.0
  0
ENDBLK
  5
D69
330
D5E
100
AcDbEntity
  8
0
100
AcDbBlockEnd
  0
BLOCK
  5
D74
330
D6A
100
AcDbEntity
  8
0
100
AcDbBlockBegin
  2
*D70
 70
     1
 10
0.0
 20
0.0
 30
0.0
  3
*D70
  1

  0
ARC
  5
78A9
330
D6A
100
AcDbEntity
  8
cotas
100
AcDbCircle
 10
3057.758966288463
 20
1735.276189628079
 30
0.0
 40
47.01428158020848
100
AcDbArc
 50
192.2099791823492
 51
259.7900208176413
  0
SOLID
  5
78AA
330
D6A
100
AcDbEntity
  8
cotas
100
AcDbTrace
 10
3010.150976857444
 20
1725.155651659884
 30
0.0
 11
3013.465405812037
 21
1725.510153868713
 31
0.0
 12
3010.744684708255
 22
1735.276189628078
 32
0.0
 13
3010.744684708255
 23
1735.276189628078
 33
0.0
  0
SOLID
  5
78AB
330
D6A
100
AcDbEntity
  8
cotas
100
AcDbTrace
 10
3049.544702701994
 20
1690.668781859144
 30
0.0
 11
3049.306088348704
 21
1687.344000016448
 31
0.0
 12
3059.399741053435
 22
1688.290547877925
 32
0.0
 13
3059.399741053435
 23
1688.290547877925
 33
0.0
  0
MTEXT
  5
78AC
330
D6A
100
AcDbEntity
  8
cotas
100
AcDbMText
 10
3032.982071949463
 20
1709.618964458462
 30
0.0
 40
10.0
 41
0.0
 71
     5
 72
     1
  1
92,0°
  7
SANINDUSA
 11
0.719339800338595
 21
-0.6946583704590556
 31
0.0
 73
     1
 44
1.0
1001
ACAD
1000
MTEXTBEGIN
1070
    73
1070
     1
1070
    44
1040
1.0
1070
    74
1070
     0
1000
MTEXTEND
  0
POINT
  5
78AD
330
D6A
100
AcDbEntity
  8
Defpoints
 62
     0
100
AcDbPoint
 10
3017.319672048333
 20
1711.296903694939
 30
0.0
  0
POINT
  5
78AE
330
D6A
100
AcDbEntity
  8
Defpoints
 62
     0
100
AcDbPoint
 10
2998.404033075865
 20
1735.276189628079
 30
0.0
  0
POINT
  5
78AF
330
D6A
100
AcDbEntity
  8
Defpoints
 62
     0
100
AcDbPoint
 10
3059.475885697938
 20
1686.110050551745
 30
0.0
  0
POINT
  5
78B0
330
D6A
100
AcDbEntity
  8
Defpoints
 62
     0
100
AcDbPoint
 10
3057.86344265032
 20
1732.284378067859
 30
0.0
  0
POINT
  5
78B1
330
D6A
100
AcDbEntity
  8
Defpoints
 62
     0
100
AcDbPoint
 10
3054.765331086565
 20
1735.276189628078
 30
0.0
  0
ENDBLK
  5
D75
330
D6A
100
AcDbEntity
  8
0
100
AcDbBlockEnd
  0
BLOCK
  5
D7D
330
D76
100
AcDbEntity
  8
0
100
AcDbBlockBegin
  2
*D71
 70
     1
 10
0.0
 20
0.0
 30
0.0
  3
*D71
  1

  0
LINE
  5
78A3
330
D76
100
AcDbEntity
  8
cotas
100
AcDbLine
 10
3027.411956977601
 20
1638.285675905892
 30
0.0
 11
3060.462833591587
 21
1668.591785844439
 31
0.0
  0
MTEXT
  5
78A4
330
D76
100
AcDbEntity
  8
cotas
100
AcDbMText
 10
3033.482409420815
 20
1657.44239773461
 30
0.0
 40
10.0
 41
0.0
 71
     5
 72
     1
  1
R17
  7
SANINDUSA
 11
0.7370489033731433
 21
0.6758394143851385
 31
0.0
 73
     1
 44
1.0
1001
ACAD
1000
MTEXTBEGIN
1070
    73
1070
     1
1070
    44
1040
1.0
1070
    74
1070
     0
1000
MTEXTEND
  0
LINE
  5
78A5
330
D76
100
AcDbEntity
  8
cotas
100
AcDbLine
 10
3080.363153982657
 20
1686.839450032833
 30
0.0
 11
3067.833322625318
 21
1675.35017998829
 31
0.0
  0
SOLID
  5
78A6
330
D76
100
AcDbEntity
  8
cotas
100
AcDbTrace
 10
3059.336434567612
 20
1669.820200683394
 30
0.0
 11
3061.589232615562
 21
1667.363371005483
 31
0.0
 12
3067.833322625318
 22
1675.35017998829
 32
0.0
 13
3067.833322625318
 23
1675.35017998829
 33
0.0
  0
POINT
  5
78A7
330
D76
100
AcDbEntity
  8
Defpoints
 62
     0
100
AcDbPoint
 10
3067.833322625318
 20
1675.35017998829
 30
0.0
  0
POINT
  5
78A8
330
D76
100
AcDbEntity
  8
Defpoints
 62
     0
100
AcDbPoint
 10
3080.363153982657
 20
1686.839450032833
 30
0.0
  0
ENDBLK
  5
D7E
330
D76
100
AcDbEntity
  8
0
100
AcDbBlockEnd
  0
BLOCK
  5
D86
330
D7F
100
AcDbEntity
  8
0
100
AcDbBlockBegin
  2
*D72
 70
     1
 10
0.0
 20
0.0
 30
0.0
  3
*D72
  1

  0
LINE
  5
789D
330
D7F
100
AcDbEntity
  8
cotas
100
AcDbLine
 10
3103.758543684879
 20
1617.832067803146
 30
0.0
 11
3090.570867588761
 21
1660.649046814266
 31
0.0
  0
MTEXT
  5
789E
330
D7F
100
AcDbEntity
  8
cotas
100
AcDbMText
 10
3108.389203382429
 20
1637.465925762352
 30
0.0
 40
10.0
 41
0.0
 71
     5
 72
     1
  1
R10
  7
SANINDUSA
 11
0.294355414587311
 21
-0.9556960237979083
 31
0.0
 73
     1
 44
1.0
1001
ACAD
1000
MTEXTBEGIN
1070
    73
1070
     1
1070
    44
1040
1.0
1070
    74
1070
     0
1000
MTEXTEND
  0
LINE
  5
789F
330
D7F
100
AcDbEntity
  8
cotas
100
AcDbLine
 10
3084.683759297015
 20
1679.762967290222
 30
0.0
 11
3087.627313442887
 21
1670.206007052246
 31
0.0
  0
SOLID
  5
78A0
330
D7F
100
AcDbEntity
  8
cotas
100
AcDbTrace
 10
3092.16369429509
 20
1661.139639171912
 30
0.0
 11
3088.978040882432
 21
1660.158454456621
 31
0.0
 12
3087.627313442887
 22
1670.206007052246
 32
0.0
 13
3087.627313442887
 23
1670.206007052246
 33
0.0
  0
POINT
  5
78A1
330
D7F
100
AcDbEntity
  8
Defpoints
 62
     0
100
AcDbPoint
 10
3087.627313442887
 20
1670.206007052246
 30
0.0
  0
POINT
  5
78A2
330
D7F
100
AcDbEntity
  8
Defpoints
 62
     0
100
AcDbPoint
 10
3084.683759297015
 20
1679.762967290222
 30
0.0
  0
ENDBLK
  5
D87
330
D7F
100
AcDbEntity
  8
0
100
AcDbBlockEnd
  0
BLOCK
  5
D8E
330
D88
100
AcDbEntity
  8
0
100
AcDbBlockBegin
  2
*D73
 70
     1
 10
0.0
 20
0.0
 30
0.0
  3
*D73
  1

  0
LINE
  5
7898
330
D88
100
AcDbEntity
  8
cotas
100
AcDbLine
 10
3131.504449545251
 20
1639.119497446202
 30
0.0
 11
3102.108727475305
 21
1670.31044359927
 31
0.0
  0
MTEXT
  5
7899
330
D88
100
AcDbEntity
  8
cotas
100
AcDbMText
 10
3129.832120854199
 20
1655.474325519605
 30
0.0
 40
10.0
 41
0.0
 71
     5
 72
     1
  1
R7
  7
SANINDUSA
 11
0.6858537116681331
 21
-0.7277394356437237
 31
0.0
 73
     1
 44
1.0
1001
ACAD
1000
MTEXTBEGIN
1070
    73
1070
     1
1070
    44
1040
1.0
1070
    74
1070
     0
1000
MTEXTEND
  0
SOLID
  5
789A
330
D88
100
AcDbEntity
  8
cotas
100
AcDbTrace
 10
3103.321626534711
 20
1671.453533118716
 30
0.0
 11
3100.895828415899
 21
1669.167354079823
 31
0.0
 12
3095.250190358624
 22
1677.587837955707
 32
0.0
 13
3095.250190358624
 23
1677.587837955707
 33
0.0
  0
POINT
  5
789B
330
D88
100
AcDbEntity
  8
Defpoints
 62
     0
100
AcDbPoint
 10
3095.250190358624
 20
1677.587837955707
 30
0.0
  0
POINT
  5
789C
330
D88
100
AcDbEntity
  8
Defpoints
 62
     0
100
AcDbPoint
 10
3100.051166340299
 20
1672.493661906203
 30
0.0
  0
ENDBLK
  5
D8F
330
D88
100
AcDbEntity
  8
0
100
AcDbBlockEnd
  0
BLOCK
  5
D97
330
D90
100
AcDbEntity
  8
0
100
AcDbBlockBegin
  2
*D74
 70
     1
 10
0.0
 20
0.0
 30
0.0
  3
*D74
  1

  0
LINE
  5
7892
330
D90
100
AcDbEntity
  8
cotas
100
AcDbLine
 10
3539.832298911239
 20
1602.701098077696
 30
0.0
 11
3560.860996792285
 21
1642.306837686847
 31
0.0
  0
MTEXT
  5
7893
330
D90
100
AcDbEntity
  8
cotas
100
AcDbMText
 10
3539.154821253067
 20
1622.785206425115
 30
0.0
 40
10.0
 41
0.0
 71
     5
 72
     1
  1
R17
  7
SANINDUSA
 11
0.4689490960742377
 21
0.8832251951179582
 31
0.0
 73
     1
 44
1.0
1001
ACAD
1000
MTEXTBEGIN
1070
    73
1070
     1
1070
    44
1040
1.0
1070
    74
1070
     0
1000
MTEXTEND
  0
LINE
  5
7894
330
D90
100
AcDbEntity
  8
cotas
100
AcDbLine
 10
3573.524530020112
 20
1666.157510818883
 30
0.0
 11
3565.550487753028
 21
1651.139089638026
 31
0.0
  0
SOLID
  5
7895
330
D90
100
AcDbEntity
  8
cotas
100
AcDbTrace
 10
3559.388954800422
 20
1643.088419513637
 30
0.0
 11
3562.333038784149
 21
1641.525255860057
 31
0.0
 12
3565.550487753028
 22
1651.139089638026
 32
0.0
 13
3565.550487753028
 23
1651.139089638026
 33
0.0
  0
POINT
  5
7896
330
D90
100
AcDbEntity
  8
Defpoints
 62
     0
100
AcDbPoint
 10
3565.550487753028
 20
1651.139089638026
 30
0.0
  0
POINT
  5
7897
330
D90
100
AcDbEntity
  8
Defpoints
 62
     0
100
AcDbPoint
 10
3573.524530020112
 20
1666.157510818883
 30
0.0
  0
ENDBLK
  5
D98
330
D90
100
AcDbEntity
  8
0
100
AcDbBlockEnd
  0
BLOCK
  5
D9F
330
D99
100
AcDbEntity
  8
0
100
AcDbBlockBegin
  2
*D75
 70
     1
 10
0.0
 20
0.0
 30
0.0
  3
*D75
  1

  0
LINE
  5
788D
330
D99
100
AcDbEntity
  8
cotas
100
AcDbLine
 10
3516.830595403913
 20
1632.330234923038
 30
0.0
 11
3547.433035689983
 21
1662.539753169691
 31
0.0
  0
MTEXT
  5
788E
330
D99
100
AcDbEntity
  8
cotas
100
AcDbMText
 10
3519.091841752097
 20
1648.61408733929
 30
0.0
 40
10.0
 41
0.0
 71
     5
 72
     1
  1
R7
  7
SANINDUSA
 11
0.7116607288361506
 21
0.7025233142269367
 31
0.0
 73
     1
 44
1.0
1001
ACAD
1000
MTEXTBEGIN
1070
    73
1070
     1
1070
    44
1040
1.0
1070
    74
1070
     0
1000
MTEXTEND
  0
SOLID
  5
788F
330
D99
100
AcDbEntity
  8
cotas
100
AcDbTrace
 10
3546.262163499605
 20
1663.725854384418
 30
0.0
 11
3548.603907880361
 21
1661.353651954964
 31
0.0
 12
3554.549642978344
 22
1669.56498631196
 32
0.0
 13
3554.549642978344
 23
1669.56498631196
 33
0.0
  0
POINT
  5
7890
330
D99
100
AcDbEntity
  8
Defpoints
 62
     0
100
AcDbPoint
 10
3554.549642978344
 20
1669.56498631196
 30
0.0
  0
POINT
  5
7891
330
D99
100
AcDbEntity
  8
Defpoints
 62
     0
100
AcDbPoint
 10
3549.568025637668
 20
1664.647330773899
 30
0.0
  0
ENDBLK
  5
DA0
330
D99
100
AcDbEntity
  8
0
100
AcDbBlockEnd
  0
BLOCK
  5
DAB
330
DA1
100
AcDbEntity
  8
0
100
AcDbBlockBegin
  2
*D76
 70
     1
 10
0.0
 20
0.0
 30
0.0
  3
*D76
  1

  0
ARC
  5
7884
330
DA1
100
AcDbEntity
  8
cotas
100
AcDbCircle
 10
-319.0950455456502
 20
1739.176189628079
 30
0.0
 40
3592.358038712458
100
AcDbArc
 50
359.1594928535918
 51
359.8405064378472
  0
SOLID
  5
7885
330
DA1
100
AcDbEntity
  8
cotas
100
AcDbTrace
 10
3274.542918262387
 20
1686.452794873648
 30
0.0
 11
3271.210014870692
 21
1686.506330775095
 31
0.0
 12
3272.715858862199
 22
1676.480852649289
 32
0.0
 13
3272.715858862199
 23
1676.480852649289
 33
0.0
  0
SOLID
  5
7886
330
DA1
100
AcDbEntity
  8
cotas
100
AcDbTrace
 10
3271.582409680017
 20
1729.178519053306
 30
0.0
 11
3274.915739784635
 21
1729.173879575145
 31
0.0
 12
3273.262993166808
 22
1739.17618962808
 32
0.0
 13
3273.262993166808
 23
1739.17618962808
 33
0.0
  0
MTEXT
  5
7887
330
DA1
100
AcDbEntity
  8
cotas
100
AcDbMText
 10
3261.783455556202
 20
1707.926314230637
 30
0.0
 40
10.0
 41
0.0
 71
     5
 72
     1
  1
1,0°
  7
SANINDUSA
 11
0.0087265416815007
 21
0.9999619230102121
 31
0.0
 73
     1
 44
1.0
1001
ACAD
1000
MTEXTBEGIN
1070
    73
1070
     1
1070
    44
1040
1.0
1070
    74
1070
     0
1000
MTEXTEND
  0
POINT
  5
7888
330
DA1
100
AcDbEntity
  8
Defpoints
 62
     0
100
AcDbPoint
 10
3273.019818935363
 20
1697.378119378745
 30
0.0
  0
POINT
  5
7889
330
DA1
100
AcDbEntity
  8
Defpoints
 62
     0
100
AcDbPoint
 10
3081.7488832936
 20
1739.17618962808
 30
0.0
  0
POINT
  5
788A
330
DA1
100
AcDbEntity
  8
Defpoints
 62
     0
100
AcDbPoint
 10
3349.720653225305
 20
1675.136728011312
 30
0.0
  0
POINT
  5
788B
330
DA1
100
AcDbEntity
  8
Defpoints
 62
     0
100
AcDbPoint
 10
3100.173333271909
 20
1679.492595770784
 30
0.0
  0
POINT
  5
788C
330
DA1
100
AcDbEntity
  8
Defpoints
 62
     0
100
AcDbPoint
 10
4101.301430066924
 20
1739.17618962808
 30
0.0
  0
ENDBLK
  5
DAC
330
DA1
100
AcDbEntity
  8
0
100
AcDbBlockEnd
  0
BLOCK
  5
DB7
330
DAD
100
AcDbEntity
  8
0
100
AcDbBlockBegin
  2
*D77
 70
     1
 10
0.0
 20
0.0
 30
0.0
  3
*D77
  1

  0
LINE
  5
7869
330
DAD
100
AcDbEntity
  8
cotas
100
AcDbLine
 10
4211.525162962863
 20
1668.070868775469
 30
0.0
 11
4211.525162962863
 21
1804.171189583838
 31
0.0
  0
LINE
  5
786A
330
DAD
100
AcDbEntity
  8
cotas
100
AcDbLine
 10
2991.525152233878
 20
1744.176189628079
 30
0.0
 11
2991.525152233878
 21
1804.171189583838
 31
0.0
  0
LINE
  5
786B
330
DAD
100
AcDbEntity
  8
cotas
100
AcDbLine
 10
4201.525162962862
 20
1799.171189583838
 30
0.0
 11
3001.525152233878
 21
1799.171189583838
 31
0.0
  0
SOLID
  5
786C
330
DAD
100
AcDbEntity
  8
cotas
100
AcDbTrace
 10
4201.525162962862
 20
1800.837856250504
 30
0.0
 11
4201.525162962862
 21
1797.504522917171
 31
0.0
 12
4211.525162962863
 22
1799.171189583838
 32
0.0
 13
4211.525162962863
 23
1799.171189583838
 33
0.0
  0
SOLID
  5
786D
330
DAD
100
AcDbEntity
  8
cotas
100
AcDbTrace
 10
3001.525152233878
 20
1800.837856250504
 30
0.0
 11
3001.525152233878
 21
1797.504522917171
 31
0.0
 12
2991.525152233878
 22
1799.171189583838
 32
0.0
 13
2991.525152233878
 23
1799.171189583838
 33
0.0
  0
MTEXT
  5
786E
330
DAD
100
AcDbEntity
  8
cotas
100
AcDbMText
 10
3601.52515759837
 20
1809.379383002239
 30
0.0
 40
10.0
 41
0.0
 71
     5
 72
     1
  1
1220
  7
SANINDUSA
 73
     1
 44
1.0
1001
ACAD
1000
MTEXTBEGIN
1070
    73
1070
     1
1070
    44
1040
1.0
1070
    74
1070
     0
1000
MTEXTEND
  0
POINT
  5
786F
330
DAD
100
AcDbEntity
  8
Defpoints
 62
     0
100
AcDbPoint
 10
4211.525162962863
 20
1663.070868775468
 30
0.0
  0
POINT
  5
7870
330
DAD
100
AcDbEntity
  8
Defpoints
 62
     0
100
AcDbPoint
 10
2991.525152233878
 20
1739.176189628079
 30
0.0
  0
POINT
  5
7871
330
DAD
100
AcDbEntity
  8
Defpoints
 62
     0
100
AcDbPoint
 10
2991.525152233878
 20
1799.171189583838
 30
0.0
  0
ENDBLK
  5
DB8
330
DAD
100
AcDbEntity
  8
0
100
AcDbBlockEnd
  0
BLOCK
  5
DC3
330
DB9
100
AcDbEntity
  8
0
100
AcDbBlockBegin
  2
*D78
 70
     1
 10
0.0
 20
0.0
 30
0.0
  3
*D78
  1

  0
ARC
  5
7860
330
DB9
100
AcDbEntity
  8
cotas
100
AcDbCircle
 10
4321.525163217281
 20
1739.176189628079
 30
0.0
 40
60.17204840949695
100
AcDbArc
 50
189.532984604482
 51
258.4669963830449
  0
SOLID
  5
7861
330
DB9
100
AcDbEntity
  8
cotas
100
AcDbTrace
 10
4260.523162703475
 20
1729.072281607797
 30
0.0
 11
4263.844968121097
 21
1729.349265142631
 31
0.0
 12
4261.353114807784
 22
1739.176189628079
 32
0.0
 13
4261.353114807784
 23
1739.176189628079
 33
0.0
  0
SOLID
  5
7862
330
DB9
100
AcDbEntity
  8
cotas
100
AcDbTrace
 10
4309.691196235585
 20
1681.874090393822
 30
0.0
 11
4309.298450996021
 21
1678.563975246593
 31
0.0
 12
4319.425169057488
 22
1679.040797101517
 32
0.0
 13
4319.425169057488
 23
1679.040797101517
 33
0.0
  0
MTEXT
  5
7863
330
DB9
100
AcDbEntity
  8
cotas
100
AcDbMText
 10
4286.410273596881
 20
1705.266146152309
 30
0.0
 40
10.0
 41
0.0
 71
     5
 72
     1
  1
88,0°
  7
SANINDUSA
 11
0.694658251109633
 21
-0.7193399155929735
 31
0.0
 73
     1
 44
1.0
1001
ACAD
1000
MTEXTBEGIN
1070
    73
1070
     1
1070
    44
1040
1.0
1070
    74
1070
     0
1000
MTEXTEND
  0
POINT
  5
7864
330
DB9
100
AcDbEntity
  8
Defpoints
 62
     0
100
AcDbPoint
 10
4269.068106013147
 20
1709.698527589221
 30
0.0
  0
POINT
  5
7865
330
DB9
100
AcDbEntity
  8
Defpoints
 62
     0
100
AcDbPoint
 10
3281.748883293615
 20
1739.176189628079
 30
0.0
  0
POINT
  5
7866
330
DB9
100
AcDbEntity
  8
Defpoints
 62
     0
100
AcDbPoint
 10
4318.717172650322
 20
1658.766625550225
 30
0.0
  0
POINT
  5
7867
330
DB9
100
AcDbEntity
  8
Defpoints
 62
     0
100
AcDbPoint
 10
4321.289246688382
 20
1732.420488426393
 30
0.0
  0
POINT
  5
7868
330
DB9
100
AcDbEntity
  8
Defpoints
 62
     0
100
AcDbPoint
 10
4301.301430066938
 20
1739.176189628079
 30
0.0
  0
ENDBLK
  5
DC4
330
DB9
100
AcDbEntity
  8
0
100
AcDbBlockEnd
  0
BLOCK
  5
DCF
330
DC5
100
AcDbEntity
  8
0
100
AcDbBlockBegin
  2
*D79
 70
     1
 10
0.0
 20
0.0
 30
0.0
  3
*D79
  1

  0
LINE
  5
784E
330
DC5
100
AcDbEntity
  8
cotas
100
AcDbLine
 10
1326.68853768311
 20
1739.176189628072
 30
0.0
 11
1295.990335102599
 21
1739.176189628072
 31
0.0
  0
LINE
  5
784F
330
DC5
100
AcDbEntity
  8
cotas
100
AcDbLine
 10
1325.990335102599
 20
1699.176190522141
 30
0.0
 11
1295.990335102599
 21
1699.176190522141
 31
0.0
  0
LINE
  5
7850
330
DC5
100
AcDbEntity
  8
cotas
100
AcDbLine
 10
1300.990335102599
 20
1729.176189628072
 30
0.0
 11
1300.990335102599
 21
1709.176190522141
 31
0.0
  0
SOLID
  5
7851
330
DC5
100
AcDbEntity
  8
cotas
100
AcDbTrace
 10
1299.323668435932
 20
1729.176189628072
 30
0.0
 11
1302.657001769266
 21
1729.176189628072
 31
0.0
 12
1300.990335102599
 22
1739.176189628072
 32
0.0
 13
1300.990335102599
 23
1739.176189628072
 33
0.0
  0
SOLID
  5
7852
330
DC5
100
AcDbEntity
  8
cotas
100
AcDbTrace
 10
1299.323668435932
 20
1709.176190522141
 30
0.0
 11
1302.657001769266
 21
1709.176190522141
 31
0.0
 12
1300.990335102599
 22
1699.176190522141
 32
0.0
 13
1300.990335102599
 23
1699.176190522141
 33
0.0
  0
MTEXT
  5
7853
330
DC5
100
AcDbEntity
  8
cotas
100
AcDbMText
 10
1290.785499642558
 20
1719.176190075106
 30
0.0
 40
10.0
 41
0.0
 71
     5
 72
     1
  1
40
  7
SANINDUSA
 11
0.0000000000000001
 21
1.0
 31
0.0
 73
     1
 44
1.0
1001
ACAD
1000
MTEXTBEGIN
1070
    73
1070
     1
1070
    44
1040
1.0
1070
    74
1070
     0
1000
MTEXTEND
  0
POINT
  5
7854
330
DC5
100
AcDbEntity
  8
Defpoints
 62
     0
100
AcDbPoint
 10
1331.68853768311
 20
1739.176189628072
 30
0.0
  0
POINT
  5
7855
330
DC5
100
AcDbEntity
  8
Defpoints
 62
     0
100
AcDbPoint
 10
1330.990335102599
 20
1699.176190522141
 30
0.0
  0
POINT
  5
7856
330
DC5
100
AcDbEntity
  8
Defpoints
 62
     0
100
AcDbPoint
 10
1300.990335102599
 20
1699.176190522141
 30
0.0
  0
ENDBLK
  5
DD0
330
DC5
100
AcDbEntity
  8
0
100
AcDbBlockEnd
  0
BLOCK
  5
DD7
330
DD1
100
AcDbEntity
  8
0
100
AcDbBlockBegin
  2
*D80
 70
     1
 10
0.0
 20
0.0
 30
0.0
  3
*D80
  1

  0
LINE
  5
7849
330
DD1
100
AcDbEntity
  8
cotas
100
AcDbLine
 10
1368.901624253269
 20
1707.508525306638
 30
0.0
 11
1340.894967127529
 21
1730.283435681218
 31
0.0
  0
MTEXT
  5
784A
330
DD1
100
AcDbEntity
  8
cotas
100
AcDbMText
 10
1365.086723183955
 20
1723.499885923947
 30
0.0
 40
10.0
 41
0.0
 71
     5
 72
     1
  1
R7
  7
SANINDUSA
 11
0.7758495341437465
 21
-0.6309179822836972
 31
0.0
 73
     1
 44
1.0
1001
ACAD
1000
MTEXTBEGIN
1070
    73
1070
     1
1070
    44
1040
1.0
1070
    74
1070
     0
1000
MTEXTEND
  0
SOLID
  5
784B
330
DD1
100
AcDbEntity
  8
cotas
100
AcDbTrace
 10
1341.946497098002
 20
1731.576518238124
 30
0.0
 11
1339.843437157057
 21
1728.990353124311
 31
0.0
 12
1333.136471786092
 22
1736.592615504054
 32
0.0
 13
1333.136471786092
 23
1736.592615504054
 33
0.0
  0
POINT
  5
784C
330
DD1
100
AcDbEntity
  8
Defpoints
 62
     0
100
AcDbPoint
 10
1333.136471786092
 20
1736.592615504054
 30
0.0
  0
POINT
  5
784D
330
DD1
100
AcDbEntity
  8
Defpoints
 62
     0
100
AcDbPoint
 10
1338.567418525096
 20
1732.176189628071
 30
0.0
  0
ENDBLK
  5
DD8
330
DD1
100
AcDbEntity
  8
0
100
AcDbBlockEnd
  0
BLOCK
  5
DDF
330
DD9
100
AcDbEntity
  8
0
100
AcDbBlockBegin
  2
*D81
 70
     1
 10
0.0
 20
0.0
 30
0.0
  3
*D81
  1

  0
LINE
  5
7844
330
DD9
100
AcDbEntity
  8
cotas
100
AcDbLine
 10
2695.328197993719
 20
1706.495482513558
 30
0.0
 11
2722.547579835743
 21
1730.205704740838
 31
0.0
  0
MTEXT
  5
7845
330
DD9
100
AcDbEntity
  8
cotas
100
AcDbMText
 10
2698.599405067697
 20
1722.606853927581
 30
0.0
 40
10.0
 41
0.0
 71
     5
 72
     1
  1
R7
  7
SANINDUSA
 11
0.7540401779120575
 21
0.6568282957473383
 31
0.0
 73
     1
 44
1.0
1001
ACAD
1000
MTEXTBEGIN
1070
    73
1070
     1
1070
    44
1040
1.0
1070
    74
1070
     0
1000
MTEXTEND
  0
SOLID
  5
7846
330
DD9
100
AcDbEntity
  8
cotas
100
AcDbTrace
 10
2721.452866009498
 20
1731.462438370692
 30
0.0
 11
2723.642293661989
 21
1728.948971110985
 31
0.0
 12
2730.087981614864
 22
1736.773987698312
 32
0.0
 13
2730.087981614864
 23
1736.773987698312
 33
0.0
  0
POINT
  5
7847
330
DD9
100
AcDbEntity
  8
Defpoints
 62
     0
100
AcDbPoint
 10
2730.087981614864
 20
1736.773987698312
 30
0.0
  0
POINT
  5
7848
330
DD9
100
AcDbEntity
  8
Defpoints
 62
     0
100
AcDbPoint
 10
2724.809700369477
 20
1732.176189628078
 30
0.0
  0
ENDBLK
  5
DE0
330
DD9
100
AcDbEntity
  8
0
100
AcDbBlockEnd
  0
BLOCK
  5
DEC
330
DE1
100
AcDbEntity
  8
0
100
AcDbBlockBegin
  2
*D82
 70
     1
 10
0.0
 20
0.0
 30
0.0
  3
*D82
  1

  0
LINE
  5
783A
330
DE1
100
AcDbEntity
  8
cotas
100
AcDbLine
 10
2732.474107870589
 20
1694.176952188362
 30
0.0
 11
2733.023130971122
 21
1662.726372516899
 31
0.0
  0
ARC
  5
783B
330
DE1
100
AcDbEntity
  8
cotas
100
AcDbCircle
 10
2731.688570016633
 20
1739.17618962808
 30
0.0
 40
71.46146473403522
100
AcDbArc
 50
188.0242731520483
 51
262.9758200766588
  0
SOLID
  5
783C
330
DE1
100
AcDbEntity
  8
cotas
100
AcDbTrace
 10
2659.264200990182
 20
1729.084084144018
 30
0.0
 11
2662.589365162981
 21
1729.317310075346
 31
0.0
 12
2660.227105282598
 22
1739.176189628079
 32
0.0
 13
2660.227105282598
 23
1739.176189628079
 33
0.0
  0
SOLID
  5
783D
330
DE1
100
AcDbEntity
  8
cotas
100
AcDbTrace
 10
2723.037252124088
 20
1669.915433667981
 30
0.0
 11
2722.862099247147
 21
1666.586705295042
 31
0.0
 12
2732.935860804435
 22
1667.725610850687
 32
0.0
 13
2732.935860804435
 23
1667.725610850687
 33
0.0
  0
MTEXT
  5
783E
330
DE1
100
AcDbEntity
  8
cotas
100
AcDbMText
 10
2689.55114452251
 20
1696.296764142709
 30
0.0
 40
10.0
 41
0.0
 71
     5
 72
     1
  1
91,0°
  7
SANINDUSA
 11
0.7132510193954568
 21
-0.7009086840176413
 31
0.0
 73
     1
 44
1.0
1001
ACAD
1000
MTEXTBEGIN
1070
    73
1070
     1
1070
    44
1040
1.0
1070
    74
1070
     0
1000
MTEXTEND
  0
POINT
  5
783F
330
DE1
100
AcDbEntity
  8
Defpoints
 62
     0
100
AcDbPoint
 10
2670.010064872049
 20
1703.085983961399
 30
0.0
  0
POINT
  5
7840
330
DE1
100
AcDbEntity
  8
Defpoints
 62
     0
100
AcDbPoint
 10
1538.567461995203
 20
1739.176189628079
 30
0.0
  0
POINT
  5
7841
330
DE1
100
AcDbEntity
  8
Defpoints
 62
     0
100
AcDbPoint
 10
2731.808634210266
 20
1732.298357923259
 30
0.0
  0
POINT
  5
7842
330
DE1
100
AcDbEntity
  8
Defpoints
 62
     0
100
AcDbPoint
 10
2732.386837703902
 20
1699.176190522149
 30
0.0
  0
POINT
  5
7843
330
DE1
100
AcDbEntity
  8
Defpoints
 62
     0
100
AcDbPoint
 10
2724.809656841475
 20
1739.176189628079
 30
0.0
  0
ENDBLK
  5
DED
330
DE1
100
AcDbEntity
  8
0
100
AcDbBlockEnd
  0
BLOCK
  5
DF9
330
DEE
100
AcDbEntity
  8
0
100
AcDbBlockBegin
  2
*D83
 70
     1
 10
0.0
 20
0.0
 30
0.0
  3
*D83
  1

  0
LINE
  5
7830
330
DEE
100
AcDbEntity
  8
cotas
100
AcDbLine
 10
1330.903073070539
 20
1694.176952046358
 30
0.0
 11
1330.100331939234
 21
1648.187943367829
 31
0.0
  0
ARC
  5
7831
330
DEE
100
AcDbEntity
  8
cotas
100
AcDbCircle
 10
1331.68853768311
 20
1739.176189628071
 30
0.0
 40
86.0021063217742
100
AcDbArc
 50
275.6658955430544
 51
353.3341044583944
  0
SOLID
  5
7832
330
DEE
100
AcDbEntity
  8
cotas
100
AcDbTrace
 10
1340.247149443195
 20
1651.928960287
 30
0.0
 11
1340.111461544156
 21
1655.259530794461
 31
0.0
 12
1330.187593971294
 22
1653.187181843613
 32
0.0
 13
1330.187593971294
 23
1653.187181843613
 33
0.0
  0
SOLID
  5
7833
330
DEE
100
AcDbEntity
  8
cotas
100
AcDbTrace
 10
1415.445415312757
 20
1729.290000984422
 30
0.0
 11
1418.77311047784
 21
1729.096207281227
 31
0.0
 12
1417.690644004884
 22
1739.176189628071
 32
0.0
 13
1417.690644004884
 23
1739.176189628071
 33
0.0
  0
MTEXT
  5
7834
330
DEE
100
AcDbEntity
  8
cotas
100
AcDbMText
 10
1384.017668461185
 20
1685.925679281844
 30
0.0
 40
10.0
 41
0.0
 71
     5
 72
     1
  1
91,0°
  7
SANINDUSA
 11
0.7132504491453208
 21
0.7009092643088679
 31
0.0
 73
     1
 44
1.0
1001
ACAD
1000
MTEXTBEGIN
1070
    73
1070
     1
1070
    44
1040
1.0
1070
    74
1070
     0
1000
MTEXTEND
  0
POINT
  5
7835
330
DEE
100
AcDbEntity
  8
Defpoints
 62
     0
100
AcDbPoint
 10
1373.82008531823
 20
1664.200893792367
 30
0.0
  0
POINT
  5
7836
330
DEE
100
AcDbEntity
  8
Defpoints
 62
     0
100
AcDbPoint
 10
1330.990335102599
 20
1699.176190522141
 30
0.0
  0
POINT
  5
7837
330
DEE
100
AcDbEntity
  8
Defpoints
 62
     0
100
AcDbPoint
 10
1338.567418467193
 20
1739.176189628071
 30
0.0
  0
POINT
  5
7838
330
DEE
100
AcDbEntity
  8
Defpoints
 62
     0
100
AcDbPoint
 10
2524.809613313466
 20
1739.176189628071
 30
0.0
  0
POINT
  5
7839
330
DEE
100
AcDbEntity
  8
Defpoints
 62
     0
100
AcDbPoint
 10
1331.568484660901
 20
1732.298356582113
 30
0.0
  0
ENDBLK
  5
DFA
330
DEE
100
AcDbEntity
  8
0
100
AcDbBlockEnd
  0
BLOCK
  5
E05
330
DFB
100
AcDbEntity
  8
0
100
AcDbBlockBegin
  2
*D84
 70
     1
 10
0.0
 20
0.0
 30
0.0
  3
*D84
  1

  0
LINE
  5
7827
330
DFB
100
AcDbEntity
  8
cotas
100
AcDbLine
 10
2736.688570016634
 20
1739.176189628079
 30
0.0
 11
2767.386837703902
 21
1739.176189628079
 31
0.0
  0
LINE
  5
7828
330
DFB
100
AcDbEntity
  8
cotas
100
AcDbLine
 10
2608.384305945625
 20
1611.420614709763
 30
0.0
 11
2767.386837703902
 21
1611.420614709763
 31
0.0
  0
LINE
  5
7829
330
DFB
100
AcDbEntity
  8
cotas
100
AcDbLine
 10
2762.386837703902
 20
1729.176189628079
 30
0.0
 11
2762.386837703902
 21
1621.420614709763
 31
0.0
  0
SOLID
  5
782A
330
DFB
100
AcDbEntity
  8
cotas
100
AcDbTrace
 10
2760.720171037235
 20
1729.176189628079
 30
0.0
 11
2764.053504370568
 21
1729.176189628079
 31
0.0
 12
2762.386837703902
 22
1739.176189628079
 32
0.0
 13
2762.386837703902
 23
1739.176189628079
 33
0.0
  0
SOLID
  5
782B
330
DFB
100
AcDbEntity
  8
cotas
100
AcDbTrace
 10
2760.720171037235
 20
1621.420614709763
 30
0.0
 11
2764.053504370568
 21
1621.420614709763
 31
0.0
 12
2762.386837703902
 22
1611.420614709763
 32
0.0
 13
2762.386837703902
 23
1611.420614709763
 33
0.0
  0
MTEXT
  5
782C
330
DFB
100
AcDbEntity
  8
cotas
100
AcDbMText
 10
2751.03022252593
 20
1675.298402168922
 30
0.0
 40
10.0
 41
0.0
 71
     5
 72
     1
  1
127,8
  7
SANINDUSA
 11
0.0000000000000001
 21
1.0
 31
0.0
 73
     1
 44
1.0
1001
ACAD
1000
MTEXTBEGIN
1070
    73
1070
     1
1070
    44
1040
1.0
1070
    74
1070
     0
1000
MTEXTEND
  0
POINT
  5
782D
330
DFB
100
AcDbEntity
  8
Defpoints
 62
     0
100
AcDbPoint
 10
2731.688570016634
 20
1739.176189628079
 30
0.0
  0
POINT
  5
782E
330
DFB
100
AcDbEntity
  8
Defpoints
 62
     0
100
AcDbPoint
 10
2603.384305945625
 20
1611.420614709763
 30
0.0
  0
POINT
  5
782F
330
DFB
100
AcDbEntity
  8
Defpoints
 62
     0
100
AcDbPoint
 10
2762.386837703902
 20
1611.420614709763
 30
0.0
  0
ENDBLK
  5
E06
330
DFB
100
AcDbEntity
  8
0
100
AcDbBlockEnd
  0
BLOCK
  5
E11
330
E07
100
AcDbEntity
  8
0
100
AcDbBlockBegin
  2
*D85
 70
     1
 10
0.0
 20
0.0
 30
0.0
  3
*D85
  1

  0
LINE
  5
781E
330
E07
100
AcDbEntity
  8
cotas
100
AcDbLine
 10
-140.8233908133002
 20
2190.668816827177
 30
0.0
 11
-140.8233908133002
 21
2226.362953074704
 31
0.0
  0
LINE
  5
781F
330
E07
100
AcDbEntity
  8
cotas
100
AcDbLine
 10
-320.8276873884938
 20
2196.362952888438
 30
0.0
 11
-320.8276873884938
 21
2226.362953074704
 31
0.0
  0
LINE
  5
7820
330
E07
100
AcDbEntity
  8
cotas
100
AcDbLine
 10
-150.8233908133002
 20
2221.362953074704
 30
0.0
 11
-310.8276873884938
 21
2221.362953074704
 31
0.0
  0
SOLID
  5
7821
330
E07
100
AcDbEntity
  8
cotas
100
AcDbTrace
 10
-150.8233908133002
 20
2223.029619741371
 30
0.0
 11
-150.8233908133002
 21
2219.696286408037
 31
0.0
 12
-140.8233908133002
 22
2221.362953074704
 32
0.0
 13
-140.8233908133002
 23
2221.362953074704
 33
0.0
  0
SOLID
  5
7822
330
E07
100
AcDbEntity
  8
cotas
100
AcDbTrace
 10
-310.8276873884938
 20
2223.029619741371
 30
0.0
 11
-310.8276873884938
 21
2219.696286408037
 31
0.0
 12
-320.8276873884938
 22
2221.362953074704
 32
0.0
 13
-320.8276873884938
 23
2221.362953074704
 33
0.0
  0
MTEXT
  5
7823
330
E07
100
AcDbEntity
  8
cotas
100
AcDbMText
 10
-230.825539100897
 20
2231.591294243273
 30
0.0
 40
10.0
 41
0.0
 71
     5
 72
     1
  1
180
  7
SANINDUSA
 73
     1
 44
1.0
1001
ACAD
1000
MTEXTBEGIN
1070
    73
1070
     1
1070
    44
1040
1.0
1070
    74
1070
     0
1000
MTEXTEND
  0
POINT
  5
7824
330
E07
100
AcDbEntity
  8
Defpoints
 62
     0
100
AcDbPoint
 10
-140.8233908133002
 20
2185.668816827177
 30
0.0
  0
POINT
  5
7825
330
E07
100
AcDbEntity
  8
Defpoints
 62
     0
100
AcDbPoint
 10
-320.8276873884938
 20
2191.362952888439
 30
0.0
  0
POINT
  5
7826
330
E07
100
AcDbEntity
  8
Defpoints
 62
     0
100
AcDbPoint
 10
-320.8276873884938
 20
2221.362953074704
 30
0.0
  0
ENDBLK
  5
E12
330
E07
100
AcDbEntity
  8
0
100
AcDbBlockEnd
  0
BLOCK
  5
E1D
330
E13
100
AcDbEntity
  8
0
100
AcDbBlockBegin
  2
*D86
 70
     1
 10
0.0
 20
0.0
 30
0.0
  3
*D86
  1

  0
LINE
  5
77FA
330
E13
100
AcDbEntity
  8
cotas
100
AcDbLine
 10
-629.1266006564333
 20
2061.100418520333
 30
0.0
 11
-629.1266006564333
 21
2226.367001794219
 31
0.0
  0
LINE
  5
77FB
330
E13
100
AcDbEntity
  8
cotas
100
AcDbLine
 10
-709.1138983988416
 20
2061.100418520333
 30
0.0
 11
-709.1138983988416
 21
2226.367001794219
 31
0.0
  0
LINE
  5
77FC
330
E13
100
AcDbEntity
  8
cotas
100
AcDbLine
 10
-639.1266006564332
 20
2221.367001794218
 30
0.0
 11
-699.1138983988417
 21
2221.367001794218
 31
0.0
  0
SOLID
  5
77FD
330
E13
100
AcDbEntity
  8
cotas
100
AcDbTrace
 10
-639.1266006564332
 20
2223.033668460885
 30
0.0
 11
-639.1266006564332
 21
2219.700335127552
 31
0.0
 12
-629.1266006564333
 22
2221.367001794218
 32
0.0
 13
-629.1266006564333
 23
2221.367001794218
 33
0.0
  0
SOLID
  5
77FE
330
E13
100
AcDbEntity
  8
cotas
100
AcDbTrace
 10
-699.1138983988417
 20
2223.033668460885
 30
0.0
 11
-699.1138983988417
 21
2219.700335127552
 31
0.0
 12
-709.1138983988416
 22
2221.367001794218
 32
0.0
 13
-709.1138983988416
 23
2221.367001794218
 33
0.0
  0
MTEXT
  5
77FF
330
E13
100
AcDbEntity
  8
cotas
100
AcDbMText
 10
-669.1202495276375
 20
2231.595342962788
 30
0.0
 40
10.0
 41
0.0
 71
     5
 72
     1
  1
80
  7
SANINDUSA
 73
     1
 44
1.0
1001
ACAD
1000
MTEXTBEGIN
1070
    73
1070
     1
1070
    44
1040
1.0
1070
    74
1070
     0
1000
MTEXTEND
  0
POINT
  5
7800
330
E13
100
AcDbEntity
  8
Defpoints
 62
     0
100
AcDbPoint
 10
-629.1266006564333
 20
2056.100418520333
 30
0.0
  0
POINT
  5
7801
330
E13
100
AcDbEntity
  8
Defpoints
 62
     0
100
AcDbPoint
 10
-709.1138983988416
 20
2056.100418520333
 30
0.0
  0
POINT
  5
7802
330
E13
100
AcDbEntity
  8
Defpoints
 62
     0
100
AcDbPoint
 10
-709.1138983988416
 20
2221.367001794218
 30
0.0
  0
ENDBLK
  5
E1E
330
E13
100
AcDbEntity
  8
0
100
AcDbBlockEnd
  0
BLOCK
  5
E29
330
E1F
100
AcDbEntity
  8
0
100
AcDbBlockBegin
  2
*D87
 70
     1
 10
0.0
 20
0.0
 30
0.0
  3
*D87
  1

  0
LINE
  5
77F1
330
E1F
100
AcDbEntity
  8
cotas
100
AcDbLine
 10
-709.1138983988416
 20
2061.100418520333
 30
0.0
 11
-709.1138983988416
 21
2226.367001794219
 31
0.0
  0
LINE
  5
77F2
330
E1F
100
AcDbEntity
  8
cotas
100
AcDbLine
 10
-789.1127266791068
 20
2196.367001794218
 30
0.0
 11
-789.1127266791068
 21
2226.367001794219
 31
0.0
  0
LINE
  5
77F3
330
E1F
100
AcDbEntity
  8
cotas
100
AcDbLine
 10
-719.1138983988416
 20
2221.367001794218
 30
0.0
 11
-779.1127266791067
 21
2221.367001794218
 31
0.0
  0
SOLID
  5
77F4
330
E1F
100
AcDbEntity
  8
cotas
100
AcDbTrace
 10
-719.1138983988416
 20
2223.033668460885
 30
0.0
 11
-719.1138983988416
 21
2219.700335127552
 31
0.0
 12
-709.1138983988416
 22
2221.367001794218
 32
0.0
 13
-709.1138983988416
 23
2221.367001794218
 33
0.0
  0
SOLID
  5
77F5
330
E1F
100
AcDbEntity
  8
cotas
100
AcDbTrace
 10
-779.1127266791067
 20
2223.033668460885
 30
0.0
 11
-779.1127266791067
 21
2219.700335127552
 31
0.0
 12
-789.1127266791068
 22
2221.367001794218
 32
0.0
 13
-789.1127266791068
 23
2221.367001794218
 33
0.0
  0
MTEXT
  5
77F6
330
E1F
100
AcDbEntity
  8
cotas
100
AcDbMText
 10
-749.1133125389742
 20
2231.595342962788
 30
0.0
 40
10.0
 41
0.0
 71
     5
 72
     1
  1
80
  7
SANINDUSA
 73
     1
 44
1.0
1001
ACAD
1000
MTEXTBEGIN
1070
    73
1070
     1
1070
    44
1040
1.0
1070
    74
1070
     0
1000
MTEXTEND
  0
POINT
  5
77F7
330
E1F
100
AcDbEntity
  8
Defpoints
 62
     0
100
AcDbPoint
 10
-709.1138983988416
 20
2056.100418520333
 30
0.0
  0
POINT
  5
77F8
330
E1F
100
AcDbEntity
  8
Defpoints
 62
     0
100
AcDbPoint
 10
-789.1127266791068
 20
2191.367001794218
 30
-0.0000000000000197
  0
POINT
  5
77F9
330
E1F
100
AcDbEntity
  8
Defpoints
 62
     0
100
AcDbPoint
 10
-789.1127266791068
 20
2221.367001794218
 30
0.0
  0
ENDBLK
  5
E2A
330
E1F
100
AcDbEntity
  8
0
100
AcDbBlockEnd
  0
BLOCK
  5
E35
330
E2B
100
AcDbEntity
  8
0
100
AcDbBlockBegin
  2
*D88
 70
     1
 10
0.0
 20
0.0
 30
0.0
  3
*D88
  1

  0
LINE
  5
77C4
330
E2B
100
AcDbEntity
  8
cotas
100
AcDbLine
 10
-425.3654526611085
 20
1780.675346530098
 30
0.0
 11
-105.1251231260325
 21
1780.675346530098
 31
0.0
  0
LINE
  5
77C5
330
E2B
100
AcDbEntity
  8
cotas
100
AcDbLine
 10
-135.1251231260325
 20
1740.668816827177
 30
0.0
 11
-105.1251231260325
 21
1740.668816827177
 31
0.0
  0
LINE
  5
77C6
330
E2B
100
AcDbEntity
  8
cotas
100
AcDbLine
 10
-110.1251231260325
 20
1770.675346530098
 30
0.0
 11
-110.1251231260325
 21
1750.668816827177
 31
0.0
  0
SOLID
  5
77C7
330
E2B
100
AcDbEntity
  8
cotas
100
AcDbTrace
 10
-111.7917897926992
 20
1770.675346530098
 30
0.0
 11
-108.4584564593659
 21
1770.675346530098
 31
0.0
 12
-110.1251231260325
 22
1780.675346530098
 32
0.0
 13
-110.1251231260325
 23
1780.675346530098
 33
0.0
  0
SOLID
  5
77C8
330
E2B
100
AcDbEntity
  8
cotas
100
AcDbTrace
 10
-111.7917897926992
 20
1750.668816827177
 30
0.0
 11
-108.4584564593659
 21
1750.668816827177
 31
0.0
 12
-110.1251231260325
 22
1740.668816827177
 32
0.0
 13
-110.1251231260325
 23
1740.668816827177
 33
0.0
  0
MTEXT
  5
77C9
330
E2B
100
AcDbEntity
  8
cotas
100
AcDbMText
 10
-120.3299585860731
 20
1760.672081678637
 30
0.0
 40
10.0
 41
0.0
 71
     5
 72
     1
  1
40
  7
SANINDUSA
 11
0.0000000000000001
 21
1.0
 31
0.0
 73
     1
 44
1.0
1001
ACAD
1000
MTEXTBEGIN
1070
    73
1070
     1
1070
    44
1040
1.0
1070
    74
1070
     0
1000
MTEXTEND
  0
POINT
  5
77CA
330
E2B
100
AcDbEntity
  8
Defpoints
 62
     0
100
AcDbPoint
 10
-430.3654526611085
 20
1780.675346530098
 30
0.0
  0
POINT
  5
77CB
330
E2B
100
AcDbEntity
  8
Defpoints
 62
     0
100
AcDbPoint
 10
-140.1251231260325
 20
1740.668816827177
 30
0.0
  0
POINT
  5
77CC
330
E2B
100
AcDbEntity
  8
Defpoints
 62
     0
100
AcDbPoint
 10
-110.1251231260325
 20
1740.668816827177
 30
0.0
  0
ENDBLK
  5
E36
330
E2B
100
AcDbEntity
  8
0
100
AcDbBlockEnd
  0
BLOCK
  5
E41
330
E37
100
AcDbEntity
  8
0
100
AcDbBlockBegin
  2
*D89
 70
     1
 10
0.0
 20
0.0
 30
0.0
  3
*D89
  1

  0
LINE
  5
77BB
330
E37
100
AcDbEntity
  8
cotas
100
AcDbLine
 10
-135.7033265943542
 20
1740.668816827175
 30
0.0
 11
-105.1251231260325
 21
1740.668816827175
 31
0.0
  0
LINE
  5
77BC
330
E37
100
AcDbEntity
  8
cotas
100
AcDbLine
 10
-425.3633669231662
 20
1700.646383125743
 30
0.0
 11
-105.1251231260326
 21
1700.646383125743
 31
0.0
  0
LINE
  5
77BD
330
E37
100
AcDbEntity
  8
cotas
100
AcDbLine
 10
-110.1251231260325
 20
1730.668816827175
 30
0.0
 11
-110.1251231260325
 21
1710.646383125743
 31
0.0
  0
SOLID
  5
77BE
330
E37
100
AcDbEntity
  8
cotas
100
AcDbTrace
 10
-111.7917897926992
 20
1730.668816827175
 30
0.0
 11
-108.4584564593659
 21
1730.668816827175
 31
0.0
 12
-110.1251231260325
 22
1740.668816827175
 32
0.0
 13
-110.1251231260325
 23
1740.668816827175
 33
0.0
  0
SOLID
  5
77BF
330
E37
100
AcDbEntity
  8
cotas
100
AcDbTrace
 10
-111.7917897926992
 20
1710.646383125743
 30
0.0
 11
-108.4584564593659
 21
1710.646383125743
 31
0.0
 12
-110.1251231260325
 22
1700.646383125743
 32
0.0
 13
-110.1251231260325
 23
1700.646383125743
 33
0.0
  0
MTEXT
  5
77C0
330
E37
100
AcDbEntity
  8
cotas
100
AcDbMText
 10
-120.3299585860731
 20
1720.657599976459
 30
0.0
 40
10.0
 41
0.0
 71
     5
 72
     1
  1
40
  7
SANINDUSA
 11
0.0000000000000001
 21
1.0
 31
0.0
 73
     1
 44
1.0
1001
ACAD
1000
MTEXTBEGIN
1070
    73
1070
     1
1070
    44
1040
1.0
1070
    74
1070
     0
1000
MTEXTEND
  0
POINT
  5
77C1
330
E37
100
AcDbEntity
  8
Defpoints
 62
     0
100
AcDbPoint
 10
-140.7033265943541
 20
1740.668816827175
 30
0.0
  0
POINT
  5
77C2
330
E37
100
AcDbEntity
  8
Defpoints
 62
     0
100
AcDbPoint
 10
-430.3633669231662
 20
1700.646383125743
 30
0.0
  0
POINT
  5
77C3
330
E37
100
AcDbEntity
  8
Defpoints
 62
     0
100
AcDbPoint
 10
-110.1251231260325
 20
1700.646383125743
 30
0.0
  0
ENDBLK
  5
E42
330
E37
100
AcDbEntity
  8
0
100
AcDbBlockEnd
  0
BLOCK
  5
E4D
330
E43
100
AcDbEntity
  8
0
100
AcDbBlockBegin
  2
*D90
 70
     1
 10
0.0
 20
0.0
 30
0.0
  3
*D90
  1

  0
LINE
  5
77B2
330
E43
100
AcDbEntity
  8
cotas
100
AcDbLine
 10
-425.3633669231662
 20
1700.646383125743
 30
0.0
 11
-105.1251231260325
 21
1700.646383125743
 31
0.0
  0
LINE
  5
77B3
330
E43
100
AcDbEntity
  8
cotas
100
AcDbLine
 10
-425.3633669231671
 20
1620.660852468883
 30
0.0
 11
-105.1251231260325
 21
1620.660852468883
 31
0.0
  0
LINE
  5
77B4
330
E43
100
AcDbEntity
  8
cotas
100
AcDbLine
 10
-110.1251231260325
 20
1690.646383125743
 30
0.0
 11
-110.1251231260325
 21
1630.660852468882
 31
0.0
  0
SOLID
  5
77B5
330
E43
100
AcDbEntity
  8
cotas
100
AcDbTrace
 10
-111.7917897926992
 20
1690.646383125743
 30
0.0
 11
-108.4584564593659
 21
1690.646383125743
 31
0.0
 12
-110.1251231260325
 22
1700.646383125743
 32
0.0
 13
-110.1251231260325
 23
1700.646383125743
 33
0.0
  0
SOLID
  5
77B6
330
E43
100
AcDbEntity
  8
cotas
100
AcDbTrace
 10
-111.7917897926992
 20
1630.660852468882
 30
0.0
 11
-108.4584564593659
 21
1630.660852468882
 31
0.0
 12
-110.1251231260325
 22
1620.660852468883
 32
0.0
 13
-110.1251231260325
 23
1620.660852468883
 33
0.0
  0
MTEXT
  5
77B7
330
E43
100
AcDbEntity
  8
cotas
100
AcDbMText
 10
-120.3534642946023
 20
1660.653617797313
 30
0.0
 40
10.0
 41
0.0
 71
     5
 72
     1
  1
80
  7
SANINDUSA
 11
0.0000000000000001
 21
1.0
 31
0.0
 73
     1
 44
1.0
1001
ACAD
1000
MTEXTBEGIN
1070
    73
1070
     1
1070
    44
1040
1.0
1070
    74
1070
     0
1000
MTEXTEND
  0
POINT
  5
77B8
330
E43
100
AcDbEntity
  8
Defpoints
 62
     0
100
AcDbPoint
 10
-430.3633669231662
 20
1700.646383125743
 30
0.0
  0
POINT
  5
77B9
330
E43
100
AcDbEntity
  8
Defpoints
 62
     0
100
AcDbPoint
 10
-430.3633669231671
 20
1620.660852468883
 30
0.0
  0
POINT
  5
77BA
330
E43
100
AcDbEntity
  8
Defpoints
 62
     0
100
AcDbPoint
 10
-110.1251231260325
 20
1620.660852468883
 30
0.0
  0
ENDBLK
  5
E4E
330
E43
100
AcDbEntity
  8
0
100
AcDbBlockEnd
  0
BLOCK
  5
E59
330
E4F
100
AcDbEntity
  8
0
100
AcDbBlockBegin
  2
*D91
 70
     1
 10
0.0
 20
0.0
 30
0.0
  3
*D91
  1

  0
LINE
  5
7797
330
E4F
100
AcDbEntity
  8
cotas
100
AcDbLine
 10
-425.3150870277627
 20
1460.660492505501
 30
0.0
 11
-105.1251231260325
 21
1460.660492505501
 31
0.0
  0
LINE
  5
7798
330
E4F
100
AcDbEntity
  8
cotas
100
AcDbLine
 10
-140.8233908133002
 20
1290.668816827176
 30
0.0
 11
-105.1251231260325
 21
1290.668816827176
 31
0.0
  0
LINE
  5
7799
330
E4F
100
AcDbEntity
  8
cotas
100
AcDbLine
 10
-110.1251231260325
 20
1450.660492505501
 30
0.0
 11
-110.1251231260325
 21
1300.668816827176
 31
0.0
  0
SOLID
  5
779A
330
E4F
100
AcDbEntity
  8
cotas
100
AcDbTrace
 10
-111.7917897926992
 20
1450.660492505501
 30
0.0
 11
-108.4584564593658
 21
1450.660492505501
 31
0.0
 12
-110.1251231260325
 22
1460.660492505501
 32
0.0
 13
-110.1251231260325
 23
1460.660492505501
 33
0.0
  0
SOLID
  5
779B
330
E4F
100
AcDbEntity
  8
cotas
100
AcDbTrace
 10
-111.7917897926992
 20
1300.668816827176
 30
0.0
 11
-108.4584564593659
 21
1300.668816827176
 31
0.0
 12
-110.1251231260325
 22
1290.668816827176
 32
0.0
 13
-110.1251231260325
 23
1290.668816827176
 33
0.0
  0
MTEXT
  5
779C
330
E4F
100
AcDbEntity
  8
cotas
100
AcDbMText
 10
-120.329958586073
 20
1375.664654666339
 30
0.0
 40
10.0
 41
0.0
 71
     5
 72
     1
  1
170
  7
SANINDUSA
 11
0.0000000000000001
 21
1.0
 31
0.0
 73
     1
 44
1.0
1001
ACAD
1000
MTEXTBEGIN
1070
    73
1070
     1
1070
    44
1040
1.0
1070
    74
1070
     0
1000
MTEXTEND
  0
POINT
  5
779D
330
E4F
100
AcDbEntity
  8
Defpoints
 62
     0
100
AcDbPoint
 10
-430.3150870277627
 20
1460.660492505501
 30
0.0
  0
POINT
  5
779E
330
E4F
100
AcDbEntity
  8
Defpoints
 62
     0
100
AcDbPoint
 10
-145.8233908133002
 20
1290.668816827176
 30
0.0
  0
POINT
  5
779F
330
E4F
100
AcDbEntity
  8
Defpoints
 62
     0
100
AcDbPoint
 10
-110.1251231260325
 20
1290.668816827176
 30
0.0
  0
ENDBLK
  5
E5A
330
E4F
100
AcDbEntity
  8
0
100
AcDbBlockEnd
  0
BLOCK
  5
E65
330
E5B
100
AcDbEntity
  8
0
100
AcDbBlockBegin
  2
*D92
 70
     1
 10
0.0
 20
0.0
 30
0.0
  3
*D92
  1

  0
LINE
  5
7785
330
E5B
100
AcDbEntity
  8
cotas
100
AcDbLine
 10
-1541.445881491569
 20
2191.363732042743
 30
0.0
 11
-1541.445881491569
 21
2226.362953074703
 31
0.0
  0
LINE
  5
7786
330
E5B
100
AcDbEntity
  8
cotas
100
AcDbLine
 10
-1213.176899628095
 20
2195.664768107662
 30
0.0
 11
-1213.176899628095
 21
2226.362953074703
 31
0.0
  0
LINE
  5
7787
330
E5B
100
AcDbEntity
  8
cotas
100
AcDbLine
 10
-1531.445881491569
 20
2221.362953074703
 30
0.0
 11
-1223.176899628095
 21
2221.362953074703
 31
0.0
  0
SOLID
  5
7788
330
E5B
100
AcDbEntity
  8
cotas
100
AcDbTrace
 10
-1531.445881491569
 20
2223.02961974137
 30
0.0
 11
-1531.445881491569
 21
2219.696286408037
 31
0.0
 12
-1541.445881491569
 22
2221.362953074703
 32
0.0
 13
-1541.445881491569
 23
2221.362953074703
 33
0.0
  0
SOLID
  5
7789
330
E5B
100
AcDbEntity
  8
cotas
100
AcDbTrace
 10
-1223.176899628095
 20
2223.02961974137
 30
0.0
 11
-1223.176899628095
 21
2219.696286408037
 31
0.0
 12
-1213.176899628095
 22
2221.362953074703
 32
0.0
 13
-1213.176899628095
 23
2221.362953074703
 33
0.0
  0
MTEXT
  5
778A
330
E5B
100
AcDbEntity
  8
cotas
100
AcDbMText
 10
-1377.311390559832
 20
2232.719568252675
 30
0.0
 40
10.0
 41
0.0
 71
     5
 72
     1
  1
328,3
  7
SANINDUSA
 73
     1
 44
1.0
1001
ACAD
1000
MTEXTBEGIN
1070
    73
1070
     1
1070
    44
1040
1.0
1070
    74
1070
     0
1000
MTEXTEND
  0
POINT
  5
778B
330
E5B
100
AcDbEntity
  8
Defpoints
 62
     0
100
AcDbPoint
 10
-1541.445881491569
 20
2186.363732042743
 30
0.0000000000000001
  0
POINT
  5
778C
330
E5B
100
AcDbEntity
  8
Defpoints
 62
     0
100
AcDbPoint
 10
-1213.176899628095
 20
2190.664768107662
 30
0.0
  0
POINT
  5
778D
330
E5B
100
AcDbEntity
  8
Defpoints
 62
     0
100
AcDbPoint
 10
-1213.176899628095
 20
2221.362953074703
 30
0.0
  0
ENDBLK
  5
E66
330
E5B
100
AcDbEntity
  8
0
100
AcDbBlockEnd
  0
BLOCK
  5
E6E
330
E67
100
AcDbEntity
  8
0
100
AcDbBlockBegin
  2
*D93
 70
     1
 10
0.0
 20
0.0
 30
0.0
  3
*D93
  1

  0
LINE
  5
777F
330
E67
100
AcDbEntity
  8
cotas
100
AcDbLine
 10
-1502.166323937632
 20
1326.797738418371
 30
0.0
 11
-1471.228314983247
 21
1359.202184014512
 31
0.0
  0
MTEXT
  5
7780
330
E67
100
AcDbEntity
  8
cotas
100
AcDbMText
 10
-1497.533491694389
 20
1346.432829431752
 30
0.0
 40
10.0
 41
0.0
 71
     5
 72
     1
  1
R20
  7
SANINDUSA
 11
0.690551571474729
 21
0.7232831583368871
 31
0.0
 73
     1
 44
1.0
1001
ACAD
1000
MTEXTBEGIN
1070
    73
1070
     1
1070
    44
1040
1.0
1070
    74
1070
     0
1000
MTEXTEND
  0
LINE
  5
7781
330
E67
100
AcDbEntity
  8
cotas
100
AcDbLine
 10
-1450.511767839006
 20
1380.900678764617
 30
0.0
 11
-1464.3227992685
 21
1366.435015597881
 31
0.0
  0
SOLID
  5
7782
330
E67
100
AcDbEntity
  8
cotas
100
AcDbTrace
 10
-1472.433786913809
 20
1360.353103300303
 30
0.0
 11
-1470.022843052686
 21
1358.05126472872
 31
0.0
 12
-1464.3227992685
 22
1366.435015597881
 32
0.0
 13
-1464.3227992685
 23
1366.435015597881
 33
0.0
  0
POINT
  5
7783
330
E67
100
AcDbEntity
  8
Defpoints
 62
     0
100
AcDbPoint
 10
-1464.3227992685
 20
1366.435015597881
 30
0.0
  0
POINT
  5
7784
330
E67
100
AcDbEntity
  8
Defpoints
 62
     0
100
AcDbPoint
 10
-1450.511767839006
 20
1380.900678764617
 30
0.0
  0
ENDBLK
  5
E6F
330
E67
100
AcDbEntity
  8
0
100
AcDbBlockEnd
  0
BLOCK
  5
E76
330
E70
100
AcDbEntity
  8
0
100
AcDbBlockBegin
  2
*D94
 70
     1
 10
0.0
 20
0.0
 30
0.0
  3
*D94
  1

  0
LINE
  5
777A
330
E70
100
AcDbEntity
  8
cotas
100
AcDbLine
 10
-1396.090362834478
 20
1438.363008207084
 30
0.0
 11
-1428.593078227842
 21
1407.528255337747
 31
0.0
  0
MTEXT
  5
777B
330
E70
100
AcDbEntity
  8
cotas
100
AcDbMText
 10
-1415.737783396487
 20
1433.790235212895
 30
0.0
 40
10.0
 41
0.0
 71
     5
 72
     1
  1
R10
  7
SANINDUSA
 11
0.7254765885281921
 21
0.6882468448874258
 31
0.0
 73
     1
 44
1.0
1001
ACAD
1000
MTEXTBEGIN
1070
    73
1070
     1
1070
    44
1040
1.0
1070
    74
1070
     0
1000
MTEXTEND
  0
SOLID
  5
777C
330
E70
100
AcDbEntity
  8
cotas
100
AcDbTrace
 10
-1429.740156302654
 20
1408.737382985294
 30
0.0
 11
-1427.446000153029
 21
1406.3191276902
 31
0.0
 12
-1435.847844113124
 22
1400.645786888873
 32
0.0
 13
-1435.847844113124
 23
1400.645786888873
 33
0.0
  0
POINT
  5
777D
330
E70
100
AcDbEntity
  8
Defpoints
 62
     0
100
AcDbPoint
 10
-1435.847844113124
 20
1400.645786888873
 30
0.0
  0
POINT
  5
777E
330
E70
100
AcDbEntity
  8
Defpoints
 62
     0
100
AcDbPoint
 10
-1428.593078227849
 20
1407.528255337741
 30
0.0
  0
ENDBLK
  5
E77
330
E70
100
AcDbEntity
  8
0
100
AcDbBlockEnd
  0
BLOCK
  5
E7E
330
E78
100
AcDbEntity
  8
0
100
AcDbBlockBegin
  2
*D95
 70
     1
 10
0.0
 20
0.0
 30
0.0
  3
*D95
  1

  0
LINE
  5
7775
330
E78
100
AcDbEntity
  8
cotas
100
AcDbLine
 10
-1020.719925558013
 20
1436.359830535788
 30
0.0
 11
-985.8043498688635
 21
1408.28651461568
 31
0.0
  0
MTEXT
  5
7776
330
E78
100
AcDbEntity
  8
cotas
100
AcDbMText
 10
-1000.764347660968
 20
1433.409186810809
 30
0.0
 40
10.0
 41
0.0
 71
     5
 72
     1
  1
R10
  7
SANINDUSA
 11
0.7793328166862965
 21
-0.6266102144362183
 31
0.0
 73
     1
 44
1.0
1001
ACAD
1000
MTEXTBEGIN
1070
    73
1070
     1
1070
    44
1040
1.0
1070
    74
1070
     0
1000
MTEXTEND
  0
SOLID
  5
7777
330
E78
100
AcDbEntity
  8
cotas
100
AcDbTrace
 10
-984.7599995114698
 20
1409.585402643491
 30
0.0
 11
-986.8487002262572
 21
1406.98762658787
 31
0.0
 12
-978.0110217020006
 22
1402.020412471317
 32
0.0
 13
-978.0110217020006
 23
1402.020412471317
 33
0.0
  0
POINT
  5
7778
330
E78
100
AcDbEntity
  8
Defpoints
 62
     0
100
AcDbPoint
 10
-978.0110217020006
 20
1402.020412471317
 30
0.0
  0
POINT
  5
7779
330
E78
100
AcDbEntity
  8
Defpoints
 62
     0
100
AcDbPoint
 10
-985.8043498688623
 20
1408.286514615679
 30
0.0
  0
ENDBLK
  5
E7F
330
E78
100
AcDbEntity
  8
0
100
AcDbBlockEnd
  0
BLOCK
  5
E87
330
E80
100
AcDbEntity
  8
0
100
AcDbBlockBegin
  2
*D96
 70
     1
 10
0.0
 20
0.0
 30
0.0
  3
*D96
  1

  0
LINE
  5
776F
330
E80
100
AcDbEntity
  8
cotas
100
AcDbLine
 10
-1503.791628807757
 20
2152.956353249408
 30
0.0
 11
-1471.880158990177
 21
2121.510104084578
 31
0.0
  0
MTEXT
  5
7770
330
E80
100
AcDbEntity
  8
cotas
100
AcDbMText
 10
-1484.232204879127
 20
2148.013796291927
 30
0.0
 40
10.0
 41
0.0
 71
     5
 72
     1
  1
R20
  7
SANINDUSA
 11
0.7122796965728789
 21
-0.7018957428636021
 31
0.0
 73
     1
 44
1.0
1001
ACAD
1000
MTEXTBEGIN
1070
    73
1070
     1
1070
    44
1040
1.0
1070
    74
1070
     0
1000
MTEXTEND
  0
LINE
  5
7771
330
E80
100
AcDbEntity
  8
cotas
100
AcDbLine
 10
-1450.511768092991
 20
2100.45323179867
 30
0.0
 11
-1464.757362024448
 21
2114.491146655942
 31
0.0
  0
SOLID
  5
7772
330
E80
100
AcDbEntity
  8
cotas
100
AcDbTrace
 10
-1470.710332752071
 20
2122.697236912199
 30
0.0
 11
-1473.049985228283
 21
2120.322971256956
 31
0.0
 12
-1464.757362024448
 22
2114.491146655942
 32
0.0
 13
-1464.757362024448
 23
2114.491146655942
 33
0.0
  0
POINT
  5
7773
330
E80
100
AcDbEntity
  8
Defpoints
 62
     0
100
AcDbPoint
 10
-1464.757362024448
 20
2114.491146655942
 30
0.0
  0
POINT
  5
7774
330
E80
100
AcDbEntity
  8
Defpoints
 62
     0
100
AcDbPoint
 10
-1450.511768092991
 20
2100.45323179867
 30
0.0
  0
ENDBLK
  5
E88
330
E80
100
AcDbEntity
  8
0
100
AcDbBlockEnd
  0
BLOCK
  5
E8F
330
E89
100
AcDbEntity
  8
0
100
AcDbBlockBegin
  2
*D97
 70
     1
 10
0.0
 20
0.0
 30
0.0
  3
*D97
  1

  0
LINE
  5
776A
330
E89
100
AcDbEntity
  8
cotas
100
AcDbLine
 10
-1399.423313404133
 20
2039.796184522189
 30
0.0
 11
-1428.592866881101
 21
2073.801267118903
 31
0.0
  0
MTEXT
  5
776B
330
E89
100
AcDbEntity
  8
cotas
100
AcDbMText
 10
-1403.00712243623
 20
2059.64782678217
 30
0.0
 40
10.0
 41
0.0
 71
     5
 72
     1
  1
R10
  7
SANINDUSA
 11
0.6510787757038356
 21
-0.7590101631915047
 31
0.0
 73
     1
 44
1.0
1001
ACAD
1000
MTEXTBEGIN
1070
    73
1070
     1
1070
    44
1040
1.0
1070
    74
1070
     0
1000
MTEXTEND
  0
SOLID
  5
776C
330
E89
100
AcDbEntity
  8
cotas
100
AcDbTrace
 10
-1427.327849942449
 20
2074.886398411743
 30
0.0
 11
-1429.857883819754
 21
2072.716135826064
 31
0.0
 12
-1435.10365463814
 22
2081.391368750818
 32
0.0
 13
-1435.10365463814
 23
2081.391368750818
 33
0.0
  0
POINT
  5
776D
330
E89
100
AcDbEntity
  8
Defpoints
 62
     0
100
AcDbPoint
 10
-1435.10365463814
 20
2081.391368750818
 30
0.0
  0
POINT
  5
776E
330
E89
100
AcDbEntity
  8
Defpoints
 62
     0
100
AcDbPoint
 10
-1428.592866881101
 20
2073.801267118903
 30
0.0
  0
ENDBLK
  5
E90
330
E89
100
AcDbEntity
  8
0
100
AcDbBlockEnd
  0
BLOCK
  5
E98
330
E91
100
AcDbEntity
  8
0
100
AcDbBlockBegin
  2
*D98
 70
     1
 10
0.0
 20
0.0
 30
0.0
  3
*D98
  1

  0
LINE
  5
7764
330
E91
100
AcDbEntity
  8
cotas
100
AcDbLine
 10
-180.9318329141744
 20
1325.37292818143
 30
0.0
 11
-210.947900308884
 21
1358.633177588358
 31
0.0
  0
MTEXT
  5
7765
330
E91
100
AcDbEntity
  8
cotas
100
AcDbMText
 10
-185.011588801022
 20
1345.130345158391
 30
0.0
 40
10.0
 41
0.0
 71
     5
 72
     1
  1
R20
  7
SANINDUSA
 11
0.6699733825621735
 21
-0.7423851201756401
 31
0.0
 73
     1
 44
1.0
1001
ACAD
1000
MTEXTBEGIN
1070
    73
1070
     1
1070
    44
1040
1.0
1070
    74
1070
     0
1000
MTEXTEND
  0
LINE
  5
7766
330
E91
100
AcDbEntity
  8
cotas
100
AcDbLine
 10
-231.0471017857477
 20
1380.904731193626
 30
0.0
 11
-217.6476341345057
 21
1366.057028790115
 31
0.0
  0
SOLID
  5
7767
330
E91
100
AcDbEntity
  8
cotas
100
AcDbTrace
 10
-209.710591775258
 20
1359.749799892629
 30
0.0
 11
-212.1852088425101
 21
1357.516555284088
 31
0.0
 12
-217.6476341345057
 22
1366.057028790115
 32
0.0
 13
-217.6476341345057
 23
1366.057028790115
 33
0.0
  0
POINT
  5
7768
330
E91
100
AcDbEntity
  8
Defpoints
 62
     0
100
AcDbPoint
 10
-217.6476341345057
 20
1366.057028790115
 30
0.0
  0
POINT
  5
7769
330
E91
100
AcDbEntity
  8
Defpoints
 62
     0
100
AcDbPoint
 10
-231.0471017857477
 20
1380.904731193626
 30
0.0
  0
ENDBLK
  5
E99
330
E91
100
AcDbEntity
  8
0
100
AcDbBlockEnd
  0
BLOCK
  5
EA1
330
E9A
100
AcDbEntity
  8
0
100
AcDbBlockBegin
  2
*D99
 70
     1
 10
0.0
 20
0.0
 30
0.0
  3
*D99
  1

  0
LINE
  5
775E
330
E9A
100
AcDbEntity
  8
cotas
100
AcDbLine
 10
-177.6262483109203
 20
2152.804508542472
 30
0.0
 11
-209.629459353204
 21
2121.451630278461
 31
0.0
  0
MTEXT
  5
775F
330
E9A
100
AcDbEntity
  8
cotas
100
AcDbMText
 10
-197.2000295688807
 20
2147.919120025341
 30
0.0
 40
10.0
 41
0.0
 71
     5
 72
     1
  1
R20
  7
SANINDUSA
 11
0.7143274058156251
 21
0.6998116584486996
 31
0.0
 73
     1
 44
1.0
1001
ACAD
1000
MTEXTBEGIN
1070
    73
1070
     1
1070
    44
1040
1.0
1070
    74
1070
     0
1000
MTEXTEND
  0
LINE
  5
7760
330
E9A
100
AcDbEntity
  8
cotas
100
AcDbLine
 10
-231.0592815276736
 20
2100.457280524999
 30
0.0
 11
-216.7727334113601
 21
2114.453513693974
 31
0.0
  0
SOLID
  5
7761
330
E9A
100
AcDbEntity
  8
cotas
100
AcDbTrace
 10
-210.7958121172852
 20
2122.64217595482
 30
0.0
 11
-208.4631065891227
 21
2120.261084602101
 31
0.0
 12
-216.7727334113601
 22
2114.453513693974
 32
0.0
 13
-216.7727334113601
 23
2114.453513693974
 33
0.0
  0
POINT
  5
7762
330
E9A
100
AcDbEntity
  8
Defpoints
 62
     0
100
AcDbPoint
 10
-216.7727334113601
 20
2114.453513693974
 30
0.0
  0
POINT
  5
7763
330
E9A
100
AcDbEntity
  8
Defpoints
 62
     0
100
AcDbPoint
 10
-231.0592815276736
 20
2100.457280524999
 30
0.0
  0
ENDBLK
  5
EA2
330
E9A
100
AcDbEntity
  8
0
100
AcDbBlockEnd
  0
BLOCK
  5
EAC
330
EA3
100
AcDbEntity
  8
0
100
AcDbBlockBegin
  2
*D100
 70
     1
 10
0.0
 20
0.0
 30
0.0
  3
*D100
  1

  0
LINE
  5
774A
330
EA3
100
AcDbEntity
  8
cotas
100
AcDbLine
 10
-428.9824509288997
 20
1828.711490826377
 30
-0.0000000000000961
 11
-385.9666026929679
 21
1793.694382932528
 31
-0.0000000000000961
  0
LINE
  5
774B
330
EA3
100
AcDbEntity
  8
cotas
100
AcDbLine
 10
-255.7011933298717
 20
1687.651654924814
 30
-0.0000000000000961
 11
-247.9459447497405
 21
1681.338484607107
 31
-0.0000000000000961
  0
MTEXT
  5
774C
330
EA3
100
AcDbEntity
  8
cotas
100
AcDbMText
 10
-404.4708378534247
 20
1822.812690907045
 30
-0.0000000000000961
 40
10.0
 41
0.0
 71
     5
 72
     1
  1
\U+2205148
  7
SANINDUSA
 11
0.775524858013103
 21
-0.6313170317706918
 31
0.0
 73
     1
 44
1.0
1001
ACAD
1000
MTEXTBEGIN
1070
    73
1070
     1
1070
    44
1040
1.0
1070
    74
1070
     0
1000
MTEXTEND
  0
LINE
  5
774D
330
EA3
100
AcDbEntity
  8
cotas
100
AcDbLine
 10
-263.4564419100027
 20
1693.964825242521
 30
-0.0000000000000961
 11
-378.2113541128369
 21
1787.381212614821
 31
-0.0000000000000961
  0
SOLID
  5
774E
330
EA3
100
AcDbEntity
  8
cotas
100
AcDbTrace
 10
-254.6489982769204
 20
1688.944196354836
 30
-0.0000000000000961
 11
-256.7533883828228
 21
1686.359113494793
 31
-0.0000000000000961
 12
-263.4564419100027
 22
1693.964825242521
 32
-0.0000000000000961
 13
-263.4564419100027
 23
1693.964825242521
 33
-0.0000000000000961
  0
SOLID
  5
774F
330
EA3
100
AcDbEntity
  8
cotas
100
AcDbTrace
 10
-384.9144076400166
 20
1794.98692436255
 30
-0.0000000000000961
 11
-387.018797745919
 21
1792.401841502506
 31
-0.0000000000000961
 12
-378.2113541128369
 22
1787.381212614821
 32
-0.0000000000000961
 13
-378.2113541128369
 23
1787.381212614821
 33
-0.0000000000000961
  0
POINT
  5
7750
330
EA3
100
AcDbEntity
  8
Defpoints
 62
     0
100
AcDbPoint
 10
-378.2113541128369
 20
1787.381212614821
 30
-0.0000000000000961
  0
POINT
  5
7751
330
EA3
100
AcDbEntity
  8
Defpoints
 62
     0
100
AcDbPoint
 10
-263.4564419100027
 20
1693.964825242521
 30
-0.0000000000000961
  0
ENDBLK
  5
EAD
330
EA3
100
AcDbEntity
  8
0
100
AcDbBlockEnd
  0
BLOCK
  5
EB8
330
EAE
100
AcDbEntity
  8
0
100
AcDbBlockBegin
  2
*D101
 70
     1
 10
0.0
 20
0.0
 30
0.0
  3
*D101
  1

  0
LINE
  5
7923
330
EAE
100
AcDbEntity
  8
cotas
100
AcDbLine
 10
149.2144417138127
 20
1744.176189628072
 30
0.0
 11
149.2144417138127
 21
1774.176189628072
 31
0.0
  0
LINE
  5
7924
330
EAE
100
AcDbEntity
  8
cotas
100
AcDbLine
 10
1049.214445371626
 20
1744.176189628072
 30
0.0
 11
1049.214445371626
 21
1774.176189628072
 31
0.0
  0
LINE
  5
7925
330
EAE
100
AcDbEntity
  8
cotas
100
AcDbLine
 10
159.2144417138126
 20
1769.176189628072
 30
0.0
 11
1039.214445371626
 21
1769.176189628072
 31
0.0
  0
SOLID
  5
7926
330
EAE
100
AcDbEntity
  8
cotas
100
AcDbTrace
 10
159.2144417138126
 20
1770.842856294738
 30
0.0
 11
159.2144417138126
 21
1767.509522961405
 31
0.0
 12
149.2144417138127
 22
1769.176189628072
 32
0.0
 13
149.2144417138127
 23
1769.176189628072
 33
0.0
  0
SOLID
  5
7927
330
EAE
100
AcDbEntity
  8
cotas
100
AcDbTrace
 10
1039.214445371626
 20
1770.842856294738
 30
0.0
 11
1039.214445371626
 21
1767.509522961405
 31
0.0
 12
1049.214445371626
 22
1769.176189628072
 32
0.0
 13
1049.214445371626
 23
1769.176189628072
 33
0.0
  0
MTEXT
  5
7928
330
EAE
100
AcDbEntity
  8
cotas
100
AcDbMText
 10
599.2144435427197
 20
1779.381025088112
 30
0.0
 40
10.0
 41
0.0
 71
     5
 72
     1
  1
900
  7
SANINDUSA
 73
     1
 44
1.0
1001
ACAD
1000
MTEXTBEGIN
1070
    73
1070
     1
1070
    44
1040
1.0
1070
    74
1070
     0
1000
MTEXTEND
  0
POINT
  5
7929
330
EAE
100
AcDbEntity
  8
Defpoints
 62
     0
100
AcDbPoint
 10
149.2144417138127
 20
1739.176189628072
 30
0.0
  0
POINT
  5
792A
330
EAE
100
AcDbEntity
  8
Defpoints
 62
     0
100
AcDbPoint
 10
1049.214445371626
 20
1739.176189628072
 30
0.0
  0
POINT
  5
792B
330
EAE
100
AcDbEntity
  8
Defpoints
 62
     0
100
AcDbPoint
 10
1049.214445371626
 20
1769.176189628072
 30
0.0
  0
ENDBLK
  5
EB9
330
EAE
100
AcDbEntity
  8
0
100
AcDbBlockEnd
  0
BLOCK
  5
EE8
330
ED8
100
AcDbEntity
  8
0
100
AcDbBlockBegin
  2
*D102
 70
     1
 10
0.0
 20
0.0
 30
0.0
  3
*D102
  1

  0
LINE
  5
78F6
330
ED8
100
AcDbEntity
  8
cotas
100
AcDbLine
 10
216.7088937136434
 20
1685.634880040527
 30
0.0
 11
216.7088937136437
 21
1592.380499905164
 31
0.0
  0
LINE
  5
78F7
330
ED8
100
AcDbEntity
  8
cotas
100
AcDbLine
 10
218.1893266717473
 20
1656.782186934904
 30
0.0
 11
220.4360139188129
 21
1592.445557106362
 31
0.0
  0
ARC
  5
78F8
330
ED8
100
AcDbEntity
  8
cotas
100
AcDbCircle
 10
216.7088937136434
 20
1699.176190522141
 30
0.0
 40
101.7956906169775
100
AcDbArc
 50
258.7248005626007
 51
270.0000000000002
  0
LINE
  5
78F9
330
ED8
100
AcDbEntity
  8
cotas
100
AcDbLine
 10
196.8056307537313
 20
1599.345219617637
 30
0.0
 11
159.7050288715673
 21
1606.741952600812
 31
0.0
  0
ARC
  5
78FA
330
ED8
100
AcDbEntity
  8
cotas
100
AcDbCircle
 10
216.7088937136434
 20
1699.176190522141
 30
0.0
 40
101.7956906169775
100
AcDbArc
 50
258.7384539308251
 51
264.3692269654126
  0
ARC
  5
78FB
330
ED8
100
AcDbEntity
  8
cotas
100
AcDbCircle
 10
216.7088937136434
 20
1699.176190522141
 30
0.0
 40
101.7956906169775
100
AcDbArc
 50
277.6307753711984
 51
283.2615484057859
  0
ARC
  5
78FC
330
ED8
100
AcDbEntity
  8
cotas
100
AcDbCircle
 10
216.7088937136434
 20
1699.176190522141
 30
0.0
 40
101.7956906169775
100
AcDbArc
 50
270.0000000000002
 51
272.0000023366109
  0
SOLID
  5
78FD
330
ED8
100
AcDbEntity
  8
cotas
100
AcDbTrace
 10
206.8028272055369
 20
1599.536334804859
 30
0.0
 11
206.6391005628308
 21
1596.207024861706
 31
0.0
 12
216.7088937136437
 22
1597.380499905164
 32
0.0
 13
216.7088937136437
 23
1597.380499905164
 33
0.0
  0
SOLID
  5
78FE
330
ED8
100
AcDbEntity
  8
cotas
100
AcDbTrace
 10
230.3661288583237
 20
1596.621182165117
 30
0.0
 11
230.0863105766232
 21
1599.942749993769
 31
0.0
 12
220.2615162315169
 22
1597.442511234342
 32
0.0
 13
220.2615162315169
 23
1597.442511234342
 33
0.0
  0
MTEXT
  5
78FF
330
ED8
100
AcDbEntity
  8
cotas
100
AcDbMText
 10
180.4738244647128
 20
1614.171132155721
 30
0.0
 40
10.0
 41
0.0
 71
     5
 72
     1
  1
2,0°
  7
SANINDUSA
 11
0.9806993822570962
 21
-0.1955216653993871
 31
0.0
 73
     1
 44
1.0
1001
ACAD
1000
MTEXTBEGIN
1070
    73
1070
     1
1070
    44
1040
1.0
1070
    74
1070
     0
1000
MTEXTEND
  0
POINT
  5
7900
330
ED8
100
AcDbEntity
  8
Defpoints
 62
     0
100
AcDbPoint
 10
219.0775759645184
 20
1597.40806205069
 30
0.0
  0
POINT
  5
7901
330
ED8
100
AcDbEntity
  8
Defpoints
 62
     0
100
AcDbPoint
 10
216.7088937136434
 20
1699.176190522141
 30
0.0
  0
POINT
  5
7902
330
ED8
100
AcDbEntity
  8
Defpoints
 62
     0
100
AcDbPoint
 10
216.7088937136434
 20
1699.176190522141
 30
0.0
  0
POINT
  5
7903
330
ED8
100
AcDbEntity
  8
Defpoints
 62
     0
100
AcDbPoint
 10
218.0148289844512
 20
1661.779141062884
 30
0.0
  0
POINT
  5
7904
330
ED8
100
AcDbEntity
  8
Defpoints
 62
     0
100
AcDbPoint
 10
216.7088937136434
 20
1690.634880040527
 30
0.0
  0
ENDBLK
  5
EE9
330
ED8
100
AcDbEntity
  8
0
100
AcDbBlockEnd
  0
BLOCK
  5
EF4
330
EEA
100
AcDbEntity
  8
0
100
AcDbBlockBegin
  2
*D103
 70
     1
 10
0.0
 20
0.0
 30
0.0
  3
*D103
  1

  0
LINE
  5
78ED
330
EEA
100
AcDbEntity
  8
cotas
100
AcDbLine
 10
3061.525152510206
 20
1744.17618962808
 30
0.0
 11
3061.525152510206
 21
1774.17618962808
 31
0.0
  0
LINE
  5
78EE
330
EEA
100
AcDbEntity
  8
cotas
100
AcDbLine
 10
2991.525152233878
 20
1744.176189628079
 30
0.0
 11
2991.525152233878
 21
1774.17618962808
 31
0.0
  0
LINE
  5
78EF
330
EEA
100
AcDbEntity
  8
cotas
100
AcDbLine
 10
3051.525152510206
 20
1769.17618962808
 30
0.0
 11
3001.525152233878
 21
1769.17618962808
 31
0.0
  0
SOLID
  5
78F0
330
EEA
100
AcDbEntity
  8
cotas
100
AcDbTrace
 10
3051.525152510206
 20
1770.842856294747
 30
0.0
 11
3051.525152510206
 21
1767.509522961413
 31
0.0
 12
3061.525152510206
 22
1769.17618962808
 32
0.0
 13
3061.525152510206
 23
1769.17618962808
 33
0.0
  0
SOLID
  5
78F1
330
EEA
100
AcDbEntity
  8
cotas
100
AcDbTrace
 10
3001.525152233878
 20
1770.842856294747
 30
0.0
 11
3001.525152233878
 21
1767.509522961413
 31
0.0
 12
2991.525152233878
 22
1769.17618962808
 32
0.0
 13
2991.525152233878
 23
1769.17618962808
 33
0.0
  0
MTEXT
  5
78F2
330
EEA
100
AcDbEntity
  8
cotas
100
AcDbMText
 10
3026.525152372042
 20
1779.38102508812
 30
0.0
 40
10.0
 41
0.0
 71
     5
 72
     1
  1
70
  7
SANINDUSA
 73
     1
 44
1.0
1001
ACAD
1000
MTEXTBEGIN
1070
    73
1070
     1
1070
    44
1040
1.0
1070
    74
1070
     0
1000
MTEXTEND
  0
POINT
  5
78F3
330
EEA
100
AcDbEntity
  8
Defpoints
 62
     0
100
AcDbPoint
 10
3061.525152510206
 20
1739.17618962808
 30
0.0
  0
POINT
  5
78F4
330
EEA
100
AcDbEntity
  8
Defpoints
 62
     0
100
AcDbPoint
 10
2991.525152233878
 20
1739.176189628079
 30
0.0
  0
POINT
  5
78F5
330
EEA
100
AcDbEntity
  8
Defpoints
 62
     0
100
AcDbPoint
 10
2991.525152233878
 20
1769.17618962808
 30
0.0
  0
ENDBLK
  5
EF5
330
EEA
100
AcDbEntity
  8
0
100
AcDbBlockEnd
  0
BLOCK
  5
F01
330
EF6
100
AcDbEntity
  8
0
100
AcDbBlockBegin
  2
*D104
 70
     1
 10
0.0
 20
0.0
 30
0.0
  3
*D104
  1

  0
LINE
  5
78E3
330
EF6
100
AcDbEntity
  8
cotas
100
AcDbLine
 10
3061.525152510206
 20
1744.17618962808
 30
0.0
 11
3061.525152510206
 21
1774.17618962808
 31
0.0
  0
LINE
  5
78E4
330
EF6
100
AcDbEntity
  8
cotas
100
AcDbLine
 10
3093.931953336034
 20
1684.601539540016
 30
0.0
 11
3093.931953336034
 21
1774.17618962808
 31
0.0
  0
LINE
  5
78E5
330
EF6
100
AcDbEntity
  8
cotas
100
AcDbLine
 10
3071.525152510206
 20
1769.17618962808
 30
0.0
 11
3083.931953336033
 21
1769.17618962808
 31
0.0
  0
LINE
  5
78E6
330
EF6
100
AcDbEntity
  8
cotas
100
AcDbLine
 10
3093.931953336034
 20
1769.17618962808
 30
0.0
 11
3143.381248164777
 21
1769.17618962808
 31
0.0
  0
SOLID
  5
78E7
330
EF6
100
AcDbEntity
  8
cotas
100
AcDbTrace
 10
3071.525152510206
 20
1770.842856294747
 30
0.0
 11
3071.525152510206
 21
1767.509522961413
 31
0.0
 12
3061.525152510206
 22
1769.17618962808
 32
0.0
 13
3061.525152510206
 23
1769.17618962808
 33
0.0
  0
SOLID
  5
78E8
330
EF6
100
AcDbEntity
  8
cotas
100
AcDbTrace
 10
3083.931953336033
 20
1770.842856294747
 30
0.0
 11
3083.931953336033
 21
1767.509522961413
 31
0.0
 12
3093.931953336034
 22
1769.17618962808
 32
0.0
 13
3093.931953336034
 23
1769.17618962808
 33
0.0
  0
MTEXT
  5
78E9
330
EF6
100
AcDbEntity
  8
cotas
100
AcDbMText
 10
3123.656600750405
 20
1780.522730930968
 30
0.0
 40
10.0
 41
0.0
 71
     5
 72
     1
  1
32,4
  7
SANINDUSA
 73
     1
 44
1.0
1001
ACAD
1000
MTEXTBEGIN
1070
    73
1070
     1
1070
    44
1040
1.0
1070
    74
1070
     0
1000
MTEXTEND
  0
POINT
  5
78EA
330
EF6
100
AcDbEntity
  8
Defpoints
 62
     0
100
AcDbPoint
 10
3061.525152510206
 20
1739.17618962808
 30
0.0
  0
POINT
  5
78EB
330
EF6
100
AcDbEntity
  8
Defpoints
 62
     0
100
AcDbPoint
 10
3093.931953336034
 20
1679.601539540016
 30
0.0
  0
POINT
  5
78EC
330
EF6
100
AcDbEntity
  8
Defpoints
 62
     0
100
AcDbPoint
 10
3093.931953336034
 20
1769.17618962808
 30
0.0
  0
ENDBLK
  5
F02
330
EF6
100
AcDbEntity
  8
0
100
AcDbBlockEnd
  0
BLOCK
  5
F0D
330
F03
100
AcDbEntity
  8
0
100
AcDbBlockBegin
  2
*D105
 70
     1
 10
0.0
 20
0.0
 30
0.0
  3
*D105
  1

  0
LINE
  5
78DA
330
F03
100
AcDbEntity
  8
cotas
100
AcDbLine
 10
3094.019215327409
 20
1684.60077801651
 30
0.0
 11
3094.431290330465
 21
1708.208550174988
 31
0.0
  0
LINE
  5
78DB
330
F03
100
AcDbEntity
  8
cotas
100
AcDbLine
 10
3555.948850555484
 20
1676.53777001344
 30
0.0
 11
3556.360925558541
 21
1700.145542171918
 31
0.0
  0
LINE
  5
78DC
330
F03
100
AcDbEntity
  8
cotas
100
AcDbLine
 10
3104.342505292078
 20
1703.034787715743
 30
0.0
 11
3546.275186614177
 21
1695.320827678174
 31
0.0
  0
SOLID
  5
78DD
330
F03
100
AcDbEntity
  8
cotas
100
AcDbTrace
 10
3104.371592622536
 20
1704.701200541241
 30
0.0
 11
3104.31341796162
 21
1701.368374890245
 31
0.0
 12
3094.34402833909
 22
1703.209311698494
 32
0.0
 13
3094.34402833909
 23
1703.209311698494
 33
0.0
  0
SOLID
  5
78DE
330
F03
100
AcDbEntity
  8
cotas
100
AcDbTrace
 10
3546.304273944635
 20
1696.987240503673
 30
0.0
 11
3546.246099283718
 21
1693.654414852676
 31
0.0
 12
3556.273663567165
 22
1695.146303695424
 32
0.0
 13
3556.273663567165
 23
1695.146303695424
 33
0.0
  0
MTEXT
  5
78DF
330
F03
100
AcDbEntity
  8
cotas
100
AcDbMText
 10
3325.487003410334
 20
1709.384446359513
 30
0.0
 40
10.0
 41
0.0
 71
     5
 72
     1
  1
462
  7
SANINDUSA
 11
0.9998476952988635
 21
-0.0174523982750426
 31
0.0
 73
     1
 44
1.0
1001
ACAD
1000
MTEXTBEGIN
1070
    73
1070
     1
1070
    44
1040
1.0
1070
    74
1070
     0
1000
MTEXTEND
  0
POINT
  5
78E0
330
F03
100
AcDbEntity
  8
Defpoints
 62
     0
100
AcDbPoint
 10
3093.931953336034
 20
1679.601539540016
 30
0.0
  0
POINT
  5
78E1
330
F03
100
AcDbEntity
  8
Defpoints
 62
     0
100
AcDbPoint
 10
3555.861588564108
 20
1671.538531536946
 30
0.0
  0
POINT
  5
78E2
330
F03
100
AcDbEntity
  8
Defpoints
 62
     0
100
AcDbPoint
 10
3556.273663567165
 20
1695.146303695424
 30
0.0
  0
ENDBLK
  5
F0E
330
F03
100
AcDbEntity
  8
0
100
AcDbBlockEnd
  0
BLOCK
  5
F24
330
F18
100
AcDbEntity
  8
0
100
AcDbBlockBegin
  2
*D106
 70
     1
 10
0.0
 20
0.0
 30
0.0
  3
*D106
  1

  0
LINE
  5
78C6
330
F18
100
AcDbEntity
  8
cotas
100
AcDbLine
 10
3560.861588564109
 20
1671.538531536946
 30
0.0
 11
3610.347354238565
 21
1671.538531536946
 31
0.0
  0
LINE
  5
78C7
330
F18
100
AcDbEntity
  8
cotas
100
AcDbLine
 10
3560.861588564109
 20
1649.519715852832
 30
0.0
 11
3610.347354238565
 21
1649.519715852832
 31
0.0
  0
LINE
  5
78C8
330
F18
100
AcDbEntity
  8
cotas
100
AcDbLine
 10
3605.347354238565
 20
1681.538531536946
 30
0.0
 11
3605.347354238565
 21
1691.538531536946
 31
0.0
  0
LINE
  5
78C9
330
F18
100
AcDbEntity
  8
cotas
100
AcDbLine
 10
3605.347354238565
 20
1639.519715852832
 30
0.0
 11
3605.347354238565
 21
1604.005948223551
 31
0.0
  0
LINE
  5
78CA
330
F18
100
AcDbEntity
  8
cotas
100
AcDbLine
 10
3605.347354238565
 20
1671.538531536946
 30
0.0
 11
3605.347354238565
 21
1649.519715852832
 31
0.0
  0
SOLID
  5
78CB
330
F18
100
AcDbEntity
  8
cotas
100
AcDbTrace
 10
3603.680687571898
 20
1681.538531536946
 30
0.0
 11
3607.014020905231
 21
1681.538531536946
 31
0.0
 12
3605.347354238565
 22
1671.538531536946
 32
0.0
 13
3605.347354238565
 23
1671.538531536946
 33
0.0
  0
SOLID
  5
78CC
330
F18
100
AcDbEntity
  8
cotas
100
AcDbTrace
 10
3603.680687571898
 20
1639.519715852832
 30
0.0
 11
3607.014020905231
 21
1639.519715852832
 31
0.0
 12
3605.347354238565
 22
1649.519715852832
 32
0.0
 13
3605.347354238565
 23
1649.519715852832
 33
0.0
  0
MTEXT
  5
78CD
330
F18
100
AcDbEntity
  8
cotas
100
AcDbMText
 10
3595.243257529364
 20
1616.762832038192
 30
0.0
 40
10.0
 41
0.0
 71
     5
 72
     1
  1
22
  7
SANINDUSA
 11
0.0000000000000001
 21
1.0
 31
0.0
 73
     1
 44
1.0
1001
ACAD
1000
MTEXTBEGIN
1070
    73
1070
     1
1070
    44
1040
1.0
1070
    74
1070
     0
1000
MTEXTEND
  0
POINT
  5
78CE
330
F18
100
AcDbEntity
  8
Defpoints
 62
     0
100
AcDbPoint
 10
3555.861588564108
 20
1671.538531536946
 30
0.0
  0
POINT
  5
78CF
330
F18
100
AcDbEntity
  8
Defpoints
 62
     0
100
AcDbPoint
 10
3555.861588564108
 20
1649.519715852832
 30
0.0
  0
POINT
  5
78D0
330
F18
100
AcDbEntity
  8
Defpoints
 62
     0
100
AcDbPoint
 10
3605.347354238565
 20
1649.519715852832
 30
0.0
  0
ENDBLK
  5
F25
330
F18
100
AcDbEntity
  8
0
100
AcDbBlockEnd
  0
BLOCK
  5
F32
330
F26
100
AcDbEntity
  8
0
100
AcDbBlockBegin
  2
*D107
 70
     1
 10
0.0
 20
0.0
 30
0.0
  3
*D107
  1

  0
LINE
  5
78BB
330
F26
100
AcDbEntity
  8
cotas
100
AcDbLine
 10
3088.931953336033
 20
1679.601539540016
 30
0.0
 11
2955.826949653369
 21
1679.601539540016
 31
0.0
  0
LINE
  5
78BC
330
F26
100
AcDbEntity
  8
cotas
100
AcDbLine
 10
3088.931953336033
 20
1669.60001618236
 30
0.0
 11
2955.826949653369
 21
1669.60001618236
 31
0.0
  0
LINE
  5
78BD
330
F26
100
AcDbEntity
  8
cotas
100
AcDbLine
 10
2960.826949653369
 20
1689.601539540016
 30
0.0
 11
2960.826949653369
 21
1699.601539540016
 31
0.0
  0
LINE
  5
78BE
330
F26
100
AcDbEntity
  8
cotas
100
AcDbLine
 10
2960.826949653369
 20
1659.60001618236
 30
0.0
 11
2960.826949653369
 21
1624.885442643072
 31
0.0
  0
LINE
  5
78BF
330
F26
100
AcDbEntity
  8
cotas
100
AcDbLine
 10
2960.826949653369
 20
1679.601539540016
 30
0.0
 11
2960.826949653369
 21
1669.60001618236
 31
0.0
  0
SOLID
  5
78C0
330
F26
100
AcDbEntity
  8
cotas
100
AcDbTrace
 10
2959.160282986702
 20
1689.601539540016
 30
0.0
 11
2962.493616320035
 21
1689.601539540016
 31
0.0
 12
2960.826949653369
 22
1679.601539540016
 32
0.0
 13
2960.826949653369
 23
1679.601539540016
 33
0.0
  0
SOLID
  5
78C1
330
F26
100
AcDbEntity
  8
cotas
100
AcDbTrace
 10
2959.160282986702
 20
1659.60001618236
 30
0.0
 11
2962.493616320035
 21
1659.60001618236
 31
0.0
 12
2960.826949653369
 22
1669.60001618236
 32
0.0
 13
2960.826949653369
 23
1669.60001618236
 33
0.0
  0
MTEXT
  5
78C2
330
F26
100
AcDbEntity
  8
cotas
100
AcDbMText
 10
2950.622114193328
 20
1637.242729412716
 30
0.0
 40
10.0
 41
0.0
 71
     5
 72
     1
  1
10
  7
SANINDUSA
 11
0.0000000000000001
 21
1.0
 31
0.0
 73
     1
 44
1.0
1001
ACAD
1000
MTEXTBEGIN
1070
    73
1070
     1
1070
    44
1040
1.0
1070
    74
1070
     0
1000
MTEXTEND
  0
POINT
  5
78C3
330
F26
100
AcDbEntity
  8
Defpoints
 62
     0
100
AcDbPoint
 10
3093.931953336034
 20
1679.601539540016
 30
0.0
  0
POINT
  5
78C4
330
F26
100
AcDbEntity
  8
Defpoints
 62
     0
100
AcDbPoint
 10
3093.931953336034
 20
1669.60001618236
 30
0.0
  0
POINT
  5
78C5
330
F26
100
AcDbEntity
  8
Defpoints
 62
     0
100
AcDbPoint
 10
2960.826949653369
 20
1669.60001618236
 30
0.0
  0
ENDBLK
  5
F33
330
F26
100
AcDbEntity
  8
0
100
AcDbBlockEnd
  0
BLOCK
  5
F75
330
F6B
100
AcDbEntity
  8
0
100
AcDbBlockBegin
  2
*D108
 70
     1
 10
0.0
 20
0.0
 30
0.0
  3
*D108
  1

  0
LINE
  5
787B
330
F6B
100
AcDbEntity
  8
cotas
100
AcDbLine
 10
4391.525141039408
 20
1744.176189628079
 30
0.0
 11
4391.525141039408
 21
1774.176189628079
 31
0.0
  0
LINE
  5
787C
330
F6B
100
AcDbEntity
  8
cotas
100
AcDbLine
 10
4321.525163217281
 20
1744.176189628079
 30
0.0
 11
4321.525163217281
 21
1774.176189628079
 31
0.0
  0
LINE
  5
787D
330
F6B
100
AcDbEntity
  8
cotas
100
AcDbLine
 10
4381.525141039408
 20
1769.176189628079
 30
0.0
 11
4331.525163217281
 21
1769.176189628079
 31
0.0
  0
SOLID
  5
787E
330
F6B
100
AcDbEntity
  8
cotas
100
AcDbTrace
 10
4381.525141039408
 20
1770.842856294746
 30
0.0
 11
4381.525141039408
 21
1767.509522961413
 31
0.0
 12
4391.525141039408
 22
1769.176189628079
 32
0.0
 13
4391.525141039408
 23
1769.176189628079
 33
0.0
  0
SOLID
  5
787F
330
F6B
100
AcDbEntity
  8
cotas
100
AcDbTrace
 10
4331.525163217281
 20
1770.842856294746
 30
0.0
 11
4331.525163217281
 21
1767.509522961413
 31
0.0
 12
4321.525163217281
 22
1769.176189628079
 32
0.0
 13
4321.525163217281
 23
1769.176189628079
 33
0.0
  0
MTEXT
  5
7880
330
F6B
100
AcDbEntity
  8
cotas
100
AcDbMText
 10
4356.525152128344
 20
1779.38102508812
 30
0.0
 40
10.0
 41
0.0
 71
     5
 72
     1
  1
70
  7
SANINDUSA
 73
     1
 44
1.0
1001
ACAD
1000
MTEXTBEGIN
1070
    73
1070
     1
1070
    44
1040
1.0
1070
    74
1070
     0
1000
MTEXTEND
  0
POINT
  5
7881
330
F6B
100
AcDbEntity
  8
Defpoints
 62
     0
100
AcDbPoint
 10
4391.525141039408
 20
1739.176189628079
 30
0.0
  0
POINT
  5
7882
330
F6B
100
AcDbEntity
  8
Defpoints
 62
     0
100
AcDbPoint
 10
4321.525163217281
 20
1739.176189628079
 30
0.0
  0
POINT
  5
7883
330
F6B
100
AcDbEntity
  8
Defpoints
 62
     0
100
AcDbPoint
 10
4321.525163217281
 20
1769.176189628079
 30
0.0
  0
ENDBLK
  5
F76
330
F6B
100
AcDbEntity
  8
0
100
AcDbBlockEnd
  0
BLOCK
  5
F81
330
F77
100
AcDbEntity
  8
0
100
AcDbBlockBegin
  2
*D109
 70
     1
 10
0.0
 20
0.0
 30
0.0
  3
*D109
  1

  0
LINE
  5
7872
330
F77
100
AcDbEntity
  8
cotas
100
AcDbLine
 10
4391.525141039408
 20
1744.176189628079
 30
0.0
 11
4391.525141039408
 21
1804.171189583837
 31
0.0
  0
LINE
  5
7873
330
F77
100
AcDbEntity
  8
cotas
100
AcDbLine
 10
4211.525162962863
 20
1668.070868775469
 30
0.0
 11
4211.525162962863
 21
1804.171189583837
 31
0.0
  0
LINE
  5
7874
330
F77
100
AcDbEntity
  8
cotas
100
AcDbLine
 10
4381.525141039408
 20
1799.171189583837
 30
0.0
 11
4221.525162962863
 21
1799.171189583837
 31
0.0
  0
SOLID
  5
7875
330
F77
100
AcDbEntity
  8
cotas
100
AcDbTrace
 10
4381.525141039408
 20
1800.837856250504
 30
0.0
 11
4381.525141039408
 21
1797.504522917171
 31
0.0
 12
4391.525141039408
 22
1799.171189583837
 32
0.0
 13
4391.525141039408
 23
1799.171189583837
 33
0.0
  0
SOLID
  5
7876
330
F77
100
AcDbEntity
  8
cotas
100
AcDbTrace
 10
4221.525162962863
 20
1800.837856250504
 30
0.0
 11
4221.525162962863
 21
1797.504522917171
 31
0.0
 12
4211.525162962863
 22
1799.171189583837
 32
0.0
 13
4211.525162962863
 23
1799.171189583837
 33
0.0
  0
MTEXT
  5
7877
330
F77
100
AcDbEntity
  8
cotas
100
AcDbMText
 10
4301.525152001135
 20
1809.399530752407
 30
0.0
 40
10.0
 41
0.0
 71
     5
 72
     1
  1
180
  7
SANINDUSA
 73
     1
 44
1.0
1001
ACAD
1000
MTEXTBEGIN
1070
    73
1070
     1
1070
    44
1040
1.0
1070
    74
1070
     0
1000
MTEXTEND
  0
POINT
  5
7878
330
F77
100
AcDbEntity
  8
Defpoints
 62
     0
100
AcDbPoint
 10
4391.525141039408
 20
1739.176189628079
 30
0.0
  0
POINT
  5
7879
330
F77
100
AcDbEntity
  8
Defpoints
 62
     0
100
AcDbPoint
 10
4211.525162962863
 20
1663.070868775468
 30
0.0
  0
POINT
  5
787A
330
F77
100
AcDbEntity
  8
Defpoints
 62
     0
100
AcDbPoint
 10
4211.525162962863
 20
1799.171189583837
 30
0.0
  0
ENDBLK
  5
F82
330
F77
100
AcDbEntity
  8
0
100
AcDbBlockEnd
  0
BLOCK
  5
F9F
330
F95
100
AcDbEntity
  8
0
100
AcDbBlockBegin
  2
*D110
 70
     1
 10
0.0
 20
0.0
 30
0.0
  3
*D110
  1

  0
LINE
  5
7857
330
F95
100
AcDbEntity
  8
cotas
100
AcDbLine
 10
1331.68853768311
 20
1744.176189628072
 30
0.0
 11
1331.68853768311
 21
1774.176189628079
 31
0.0
  0
LINE
  5
7858
330
F95
100
AcDbEntity
  8
cotas
100
AcDbLine
 10
2731.688570016634
 20
1744.176189628079
 30
0.0
 11
2731.688570016634
 21
1774.176189628079
 31
0.0
  0
LINE
  5
7859
330
F95
100
AcDbEntity
  8
cotas
100
AcDbLine
 10
1341.68853768311
 20
1769.176189628079
 30
0.0
 11
2721.688570016634
 21
1769.176189628079
 31
0.0
  0
SOLID
  5
785A
330
F95
100
AcDbEntity
  8
cotas
100
AcDbTrace
 10
1341.68853768311
 20
1770.842856294746
 30
0.0
 11
1341.68853768311
 21
1767.509522961412
 31
0.0
 12
1331.68853768311
 22
1769.176189628079
 32
0.0
 13
1331.68853768311
 23
1769.176189628079
 33
0.0
  0
SOLID
  5
785B
330
F95
100
AcDbEntity
  8
cotas
100
AcDbTrace
 10
2721.688570016634
 20
1770.842856294746
 30
0.0
 11
2721.688570016634
 21
1767.509522961412
 31
0.0
 12
2731.688570016634
 22
1769.176189628079
 32
0.0
 13
2731.688570016634
 23
1769.176189628079
 33
0.0
  0
MTEXT
  5
785C
330
F95
100
AcDbEntity
  8
cotas
100
AcDbMText
 10
2031.688553849872
 20
1779.381025088119
 30
0.0
 40
10.0
 41
0.0
 71
     5
 72
     1
  1
1400
  7
SANINDUSA
 73
     1
 44
1.0
1001
ACAD
1000
MTEXTBEGIN
1070
    73
1070
     1
1070
    44
1040
1.0
1070
    74
1070
     0
1000
MTEXTEND
  0
POINT
  5
785D
330
F95
100
AcDbEntity
  8
Defpoints
 62
     0
100
AcDbPoint
 10
1331.68853768311
 20
1739.176189628072
 30
0.0
  0
POINT
  5
785E
330
F95
100
AcDbEntity
  8
Defpoints
 62
     0
100
AcDbPoint
 10
2731.688570016634
 20
1739.176189628079
 30
0.0
  0
POINT
  5
785F
330
F95
100
AcDbEntity
  8
Defpoints
 62
     0
100
AcDbPoint
 10
2731.688570016634
 20
1769.176189628079
 30
0.0
  0
ENDBLK
  5
FA0
330
F95
100
AcDbEntity
  8
0
100
AcDbBlockEnd
  0
BLOCK
  5
FE4
330
FDA
100
AcDbEntity
  8
0
100
AcDbBlockBegin
  2
*D111
 70
     1
 10
0.0
 20
0.0
 30
0.0
  3
*D111
  1

  0
LINE
  5
7815
330
FDA
100
AcDbEntity
  8
cotas
100
AcDbLine
 10
-320.8233796186473
 20
2196.367001794218
 30
0.0
 11
-320.8233796186473
 21
2226.367001794219
 31
0.0
  0
LINE
  5
7816
330
FDA
100
AcDbEntity
  8
cotas
100
AcDbLine
 10
-469.2450281445712
 20
2061.118975103144
 30
0.0
 11
-469.2450281445712
 21
2226.367001794219
 31
0.0
  0
LINE
  5
7817
330
FDA
100
AcDbEntity
  8
cotas
100
AcDbLine
 10
-330.8233796186473
 20
2221.367001794218
 30
0.0
 11
-459.2450281445713
 21
2221.367001794218
 31
0.0
  0
SOLID
  5
7818
330
FDA
100
AcDbEntity
  8
cotas
100
AcDbTrace
 10
-330.8233796186473
 20
2223.033668460885
 30
0.0
 11
-330.8233796186473
 21
2219.700335127552
 31
0.0
 12
-320.8233796186473
 22
2221.367001794218
 32
0.0
 13
-320.8233796186473
 23
2221.367001794218
 33
0.0
  0
SOLID
  5
7819
330
FDA
100
AcDbEntity
  8
cotas
100
AcDbTrace
 10
-459.2450281445713
 20
2223.033668460885
 30
0.0
 11
-459.2450281445713
 21
2219.700335127552
 31
0.0
 12
-469.2450281445712
 22
2221.367001794218
 32
0.0
 13
-469.2450281445712
 23
2221.367001794218
 33
0.0
  0
MTEXT
  5
781A
330
FDA
100
AcDbEntity
  8
cotas
100
AcDbMText
 10
-395.0342038816093
 20
2232.723616972191
 30
0.0
 40
10.0
 41
0.0
 71
     5
 72
     1
  1
148,4
  7
SANINDUSA
 73
     1
 44
1.0
1001
ACAD
1000
MTEXTBEGIN
1070
    73
1070
     1
1070
    44
1040
1.0
1070
    74
1070
     0
1000
MTEXTEND
  0
POINT
  5
781B
330
FDA
100
AcDbEntity
  8
Defpoints
 62
     0
100
AcDbPoint
 10
-320.8233796186473
 20
2191.367001794218
 30
0.0
  0
POINT
  5
781C
330
FDA
100
AcDbEntity
  8
Defpoints
 62
     0
100
AcDbPoint
 10
-469.2450281445712
 20
2056.118975103144
 30
0.0
  0
POINT
  5
781D
330
FDA
100
AcDbEntity
  8
Defpoints
 62
     0
100
AcDbPoint
 10
-469.2450281445712
 20
2221.367001794218
 30
0.0
  0
ENDBLK
  5
FE5
330
FDA
100
AcDbEntity
  8
0
100
AcDbBlockEnd
  0
BLOCK
  5
FF0
330
FE6
100
AcDbEntity
  8
0
100
AcDbBlockBegin
  2
*D112
 70
     1
 10
0.0
 20
0.0
 30
0.0
  3
*D112
  1

  0
LINE
  5
780C
330
FE6
100
AcDbEntity
  8
cotas
100
AcDbLine
 10
-469.2450281445712
 20
2061.118975103144
 30
0.0
 11
-469.2450281445712
 21
2226.367001794219
 31
0.0
  0
LINE
  5
780D
330
FE6
100
AcDbEntity
  8
cotas
100
AcDbLine
 10
-549.2120174378146
 20
2061.107352849957
 30
0.0
 11
-549.2120174378146
 21
2226.367001794219
 31
0.0
  0
LINE
  5
780E
330
FE6
100
AcDbEntity
  8
cotas
100
AcDbLine
 10
-479.2450281445712
 20
2221.367001794218
 30
0.0
 11
-539.2120174378146
 21
2221.367001794218
 31
0.0
  0
SOLID
  5
780F
330
FE6
100
AcDbEntity
  8
cotas
100
AcDbTrace
 10
-479.2450281445712
 20
2223.033668460885
 30
0.0
 11
-479.2450281445712
 21
2219.700335127552
 31
0.0
 12
-469.2450281445712
 22
2221.367001794218
 32
0.0
 13
-469.2450281445712
 23
2221.367001794218
 33
0.0
  0
SOLID
  5
7810
330
FE6
100
AcDbEntity
  8
cotas
100
AcDbTrace
 10
-539.2120174378146
 20
2223.033668460885
 30
0.0
 11
-539.2120174378146
 21
2219.700335127552
 31
0.0
 12
-549.2120174378146
 22
2221.367001794218
 32
0.0
 13
-549.2120174378146
 23
2221.367001794218
 33
0.0
  0
MTEXT
  5
7811
330
FE6
100
AcDbEntity
  8
cotas
100
AcDbMText
 10
-509.2285227911929
 20
2231.595342962788
 30
0.0
 40
10.0
 41
0.0
 71
     5
 72
     1
  1
80
  7
SANINDUSA
 73
     1
 44
1.0
1001
ACAD
1000
MTEXTBEGIN
1070
    73
1070
     1
1070
    44
1040
1.0
1070
    74
1070
     0
1000
MTEXTEND
  0
POINT
  5
7812
330
FE6
100
AcDbEntity
  8
Defpoints
 62
     0
100
AcDbPoint
 10
-469.2450281445712
 20
2056.118975103144
 30
0.0
  0
POINT
  5
7813
330
FE6
100
AcDbEntity
  8
Defpoints
 62
     0
100
AcDbPoint
 10
-549.2120174378146
 20
2056.107352849957
 30
0.0
  0
POINT
  5
7814
330
FE6
100
AcDbEntity
  8
Defpoints
 62
     0
100
AcDbPoint
 10
-549.2120174378146
 20
2221.367001794218
 30
0.0
  0
ENDBLK
  5
FF1
330
FE6
100
AcDbEntity
  8
0
100
AcDbBlockEnd
  0
BLOCK
  5
FFC
330
FF2
100
AcDbEntity
  8
0
100
AcDbBlockBegin
  2
*D113
 70
     1
 10
0.0
 20
0.0
 30
0.0
  3
*D113
  1

  0
LINE
  5
7803
330
FF2
100
AcDbEntity
  8
cotas
100
AcDbLine
 10
-549.2120174378146
 20
2061.107352849957
 30
0.0
 11
-549.2120174378146
 21
2226.367001794219
 31
0.0
  0
LINE
  5
7804
330
FF2
100
AcDbEntity
  8
cotas
100
AcDbLine
 10
-629.1266006564333
 20
2061.100418520333
 30
0.0
 11
-629.1266006564333
 21
2226.367001794219
 31
0.0
  0
LINE
  5
7805
330
FF2
100
AcDbEntity
  8
cotas
100
AcDbLine
 10
-559.2120174378147
 20
2221.367001794218
 30
0.0
 11
-619.1266006564333
 21
2221.367001794218
 31
0.0
  0
SOLID
  5
7806
330
FF2
100
AcDbEntity
  8
cotas
100
AcDbTrace
 10
-559.2120174378147
 20
2223.033668460885
 30
0.0
 11
-559.2120174378147
 21
2219.700335127552
 31
0.0
 12
-549.2120174378146
 22
2221.367001794218
 32
0.0
 13
-549.2120174378146
 23
2221.367001794218
 33
0.0
  0
SOLID
  5
7807
330
FF2
100
AcDbEntity
  8
cotas
100
AcDbTrace
 10
-619.1266006564333
 20
2223.033668460885
 30
0.0
 11
-619.1266006564333
 21
2219.700335127552
 31
0.0
 12
-629.1266006564333
 22
2221.367001794218
 32
0.0
 13
-629.1266006564333
 23
2221.367001794218
 33
0.0
  0
MTEXT
  5
7808
330
FF2
100
AcDbEntity
  8
cotas
100
AcDbMText
 10
-589.169309047124
 20
2231.595342962788
 30
0.0
 40
10.0
 41
0.0
 71
     5
 72
     1
  1
80
  7
SANINDUSA
 73
     1
 44
1.0
1001
ACAD
1000
MTEXTBEGIN
1070
    73
1070
     1
1070
    44
1040
1.0
1070
    74
1070
     0
1000
MTEXTEND
  0
POINT
  5
7809
330
FF2
100
AcDbEntity
  8
Defpoints
 62
     0
100
AcDbPoint
 10
-549.2120174378146
 20
2056.107352849957
 30
0.0
  0
POINT
  5
780A
330
FF2
100
AcDbEntity
  8
Defpoints
 62
     0
100
AcDbPoint
 10
-629.1266006564333
 20
2056.100418520333
 30
0.0
  0
POINT
  5
780B
330
FF2
100
AcDbEntity
  8
Defpoints
 62
     0
100
AcDbPoint
 10
-629.1266006564333
 20
2221.367001794218
 30
0.0
  0
ENDBLK
  5
FFD
330
FF2
100
AcDbEntity
  8
0
100
AcDbBlockEnd
  0
BLOCK
  5
101A
330
1010
100
AcDbEntity
  8
0
100
AcDbBlockBegin
  2
*D114
 70
     1
 10
0.0
 20
0.0
 30
0.0
  3
*D114
  1

  0
LINE
  5
77E8
330
1010
100
AcDbEntity
  8
cotas
100
AcDbLine
 10
-789.1034689535522
 20
2196.367001794218
 30
0.0
 11
-789.1034689535522
 21
2226.367001794218
 31
0.0
  0
LINE
  5
77E9
330
1010
100
AcDbEntity
  8
cotas
100
AcDbLine
 10
-869.0934283522294
 20
2061.100549523371
 30
0.0
 11
-869.0934283522294
 21
2226.367001794218
 31
0.0
  0
LINE
  5
77EA
330
1010
100
AcDbEntity
  8
cotas
100
AcDbLine
 10
-799.1034689535522
 20
2221.367001794218
 30
0.0
 11
-859.0934283522294
 21
2221.367001794218
 31
0.0
  0
SOLID
  5
77EB
330
1010
100
AcDbEntity
  8
cotas
100
AcDbTrace
 10
-799.1034689535522
 20
2223.033668460884
 30
0.0
 11
-799.1034689535522
 21
2219.700335127551
 31
0.0
 12
-789.1034689535522
 22
2221.367001794218
 32
0.0
 13
-789.1034689535522
 23
2221.367001794218
 33
0.0
  0
SOLID
  5
77EC
330
1010
100
AcDbEntity
  8
cotas
100
AcDbTrace
 10
-859.0934283522294
 20
2223.033668460884
 30
0.0
 11
-859.0934283522294
 21
2219.700335127551
 31
0.0
 12
-869.0934283522294
 22
2221.367001794218
 32
0.0
 13
-869.0934283522294
 23
2221.367001794218
 33
0.0
  0
MTEXT
  5
77ED
330
1010
100
AcDbEntity
  8
cotas
100
AcDbMText
 10
-829.0984486528909
 20
2231.595342962787
 30
0.0
 40
10.0
 41
0.0
 71
     5
 72
     1
  1
80
  7
SANINDUSA
 73
     1
 44
1.0
1001
ACAD
1000
MTEXTBEGIN
1070
    73
1070
     1
1070
    44
1040
1.0
1070
    74
1070
     0
1000
MTEXTEND
  0
POINT
  5
77EE
330
1010
100
AcDbEntity
  8
Defpoints
 62
     0
100
AcDbPoint
 10
-789.1034689535522
 20
2191.367001794218
 30
0.0
  0
POINT
  5
77EF
330
1010
100
AcDbEntity
  8
Defpoints
 62
     0
100
AcDbPoint
 10
-869.0934283522294
 20
2056.100549523371
 30
0.0
  0
POINT
  5
77F0
330
1010
100
AcDbEntity
  8
Defpoints
 62
     0
100
AcDbPoint
 10
-869.0934283522294
 20
2221.367001794218
 30
0.0
  0
ENDBLK
  5
101B
330
1010
100
AcDbEntity
  8
0
100
AcDbBlockEnd
  0
BLOCK
  5
1026
330
101C
100
AcDbEntity
  8
0
100
AcDbBlockBegin
  2
*D115
 70
     1
 10
0.0
 20
0.0
 30
0.0
  3
*D115
  1

  0
LINE
  5
77DF
330
101C
100
AcDbEntity
  8
cotas
100
AcDbLine
 10
-425.3195944159256
 20
2020.668993667522
 30
0.0
 11
-105.1251231260325
 21
2020.668993667522
 31
0.0
  0
LINE
  5
77E0
330
101C
100
AcDbEntity
  8
cotas
100
AcDbLine
 10
-425.3283951691724
 20
1940.687150324466
 30
0.0
 11
-105.1251231260326
 21
1940.687150324466
 31
0.0
  0
LINE
  5
77E1
330
101C
100
AcDbEntity
  8
cotas
100
AcDbLine
 10
-110.1251231260325
 20
2010.668993667522
 30
0.0
 11
-110.1251231260325
 21
1950.687150324466
 31
0.0
  0
SOLID
  5
77E2
330
101C
100
AcDbEntity
  8
cotas
100
AcDbTrace
 10
-111.7917897926992
 20
2010.668993667522
 30
0.0
 11
-108.4584564593659
 21
2010.668993667522
 31
0.0
 12
-110.1251231260325
 22
2020.668993667522
 32
0.0
 13
-110.1251231260325
 23
2020.668993667522
 33
0.0
  0
SOLID
  5
77E3
330
101C
100
AcDbEntity
  8
cotas
100
AcDbTrace
 10
-111.7917897926992
 20
1950.687150324466
 30
0.0
 11
-108.4584564593659
 21
1950.687150324466
 31
0.0
 12
-110.1251231260325
 22
1940.687150324466
 32
0.0
 13
-110.1251231260325
 23
1940.687150324466
 33
0.0
  0
MTEXT
  5
77E4
330
101C
100
AcDbEntity
  8
cotas
100
AcDbMText
 10
-120.3534642946024
 20
1980.678071995994
 30
0.0
 40
10.0
 41
0.0
 71
     5
 72
     1
  1
80
  7
SANINDUSA
 11
0.0000000000000001
 21
1.0
 31
0.0
 73
     1
 44
1.0
1001
ACAD
1000
MTEXTBEGIN
1070
    73
1070
     1
1070
    44
1040
1.0
1070
    74
1070
     0
1000
MTEXTEND
  0
POINT
  5
77E5
330
101C
100
AcDbEntity
  8
Defpoints
 62
     0
100
AcDbPoint
 10
-430.3195944159256
 20
2020.668993667522
 30
0.0
  0
POINT
  5
77E6
330
101C
100
AcDbEntity
  8
Defpoints
 62
     0
100
AcDbPoint
 10
-430.3283951691724
 20
1940.687150324466
 30
0.0
  0
POINT
  5
77E7
330
101C
100
AcDbEntity
  8
Defpoints
 62
     0
100
AcDbPoint
 10
-110.1251231260325
 20
1940.687150324466
 30
0.0
  0
ENDBLK
  5
1027
330
101C
100
AcDbEntity
  8
0
100
AcDbBlockEnd
  0
BLOCK
  5
1032
330
1028
100
AcDbEntity
  8
0
100
AcDbBlockBegin
  2
*D116
 70
     1
 10
0.0
 20
0.0
 30
0.0
  3
*D116
  1

  0
LINE
  5
77D6
330
1028
100
AcDbEntity
  8
cotas
100
AcDbLine
 10
-420.3283951691723
 20
1940.687150324466
 30
0.0
 11
-105.1251231260325
 21
1940.687150324466
 31
0.0
  0
LINE
  5
77D7
330
1028
100
AcDbEntity
  8
cotas
100
AcDbLine
 10
-425.3482551235087
 20
1860.692271257202
 30
0.0
 11
-105.1251231260325
 21
1860.692271257202
 31
0.0
  0
LINE
  5
77D8
330
1028
100
AcDbEntity
  8
cotas
100
AcDbLine
 10
-110.1251231260325
 20
1930.687150324466
 30
0.0
 11
-110.1251231260325
 21
1870.692271257202
 31
0.0
  0
SOLID
  5
77D9
330
1028
100
AcDbEntity
  8
cotas
100
AcDbTrace
 10
-111.7917897926992
 20
1930.687150324466
 30
0.0
 11
-108.4584564593659
 21
1930.687150324466
 31
0.0
 12
-110.1251231260325
 22
1940.687150324466
 32
0.0
 13
-110.1251231260325
 23
1940.687150324466
 33
0.0
  0
SOLID
  5
77DA
330
1028
100
AcDbEntity
  8
cotas
100
AcDbTrace
 10
-111.7917897926992
 20
1870.692271257202
 30
0.0
 11
-108.4584564593659
 21
1870.692271257202
 31
0.0
 12
-110.1251231260325
 22
1860.692271257202
 32
0.0
 13
-110.1251231260325
 23
1860.692271257202
 33
0.0
  0
MTEXT
  5
77DB
330
1028
100
AcDbEntity
  8
cotas
100
AcDbMText
 10
-120.3534642946024
 20
1900.689710790834
 30
0.0
 40
10.0
 41
0.0
 71
     5
 72
     1
  1
80
  7
SANINDUSA
 11
0.0000000000000001
 21
1.0
 31
0.0
 73
     1
 44
1.0
1001
ACAD
1000
MTEXTBEGIN
1070
    73
1070
     1
1070
    44
1040
1.0
1070
    74
1070
     0
1000
MTEXTEND
  0
POINT
  5
77DC
330
1028
100
AcDbEntity
  8
Defpoints
 62
     0
100
AcDbPoint
 10
-425.3283951691724
 20
1940.687150324466
 30
0.0
  0
POINT
  5
77DD
330
1028
100
AcDbEntity
  8
Defpoints
 62
     0
100
AcDbPoint
 10
-430.3482551235088
 20
1860.692271257202
 30
0.0
  0
POINT
  5
77DE
330
1028
100
AcDbEntity
  8
Defpoints
 62
     0
100
AcDbPoint
 10
-110.1251231260325
 20
1860.692271257202
 30
0.0
  0
ENDBLK
  5
1033
330
1028
100
AcDbEntity
  8
0
100
AcDbBlockEnd
  0
BLOCK
  5
103E
330
1034
100
AcDbEntity
  8
0
100
AcDbBlockBegin
  2
*D117
 70
     1
 10
0.0
 20
0.0
 30
0.0
  3
*D117
  1

  0
LINE
  5
77CD
330
1034
100
AcDbEntity
  8
cotas
100
AcDbLine
 10
-425.3654526611085
 20
1780.675346530098
 30
0.0
 11
-105.1251231260325
 21
1780.675346530098
 31
0.0
  0
LINE
  5
77CE
330
1034
100
AcDbEntity
  8
cotas
100
AcDbLine
 10
-425.3482551235087
 20
1860.692271257202
 30
0.0
 11
-105.1251231260325
 21
1860.692271257202
 31
0.0
  0
LINE
  5
77CF
330
1034
100
AcDbEntity
  8
cotas
100
AcDbLine
 10
-110.1251231260326
 20
1790.675346530098
 30
0.0
 11
-110.1251231260325
 21
1850.692271257202
 31
0.0
  0
SOLID
  5
77D0
330
1034
100
AcDbEntity
  8
cotas
100
AcDbTrace
 10
-111.7917897926992
 20
1790.675346530098
 30
0.0
 11
-108.4584564593659
 21
1790.675346530098
 31
0.0
 12
-110.1251231260326
 22
1780.675346530098
 32
0.0
 13
-110.1251231260326
 23
1780.675346530098
 33
0.0
  0
SOLID
  5
77D1
330
1034
100
AcDbEntity
  8
cotas
100
AcDbTrace
 10
-111.7917897926992
 20
1850.692271257202
 30
0.0
 11
-108.4584564593659
 21
1850.692271257202
 31
0.0
 12
-110.1251231260325
 22
1860.692271257202
 32
0.0
 13
-110.1251231260325
 23
1860.692271257202
 33
0.0
  0
MTEXT
  5
77D2
330
1034
100
AcDbEntity
  8
cotas
100
AcDbMText
 10
-120.3534642946024
 20
1820.68380889365
 30
0.0
 40
10.0
 41
0.0
 71
     5
 72
     1
  1
80
  7
SANINDUSA
 11
0.0000000000000001
 21
1.0
 31
0.0
 73
     1
 44
1.0
1001
ACAD
1000
MTEXTBEGIN
1070
    73
1070
     1
1070
    44
1040
1.0
1070
    74
1070
     0
1000
MTEXTEND
  0
POINT
  5
77D3
330
1034
100
AcDbEntity
  8
Defpoints
 62
     0
100
AcDbPoint
 10
-430.3654526611085
 20
1780.675346530098
 30
0.0
  0
POINT
  5
77D4
330
1034
100
AcDbEntity
  8
Defpoints
 62
     0
100
AcDbPoint
 10
-430.3482551235088
 20
1860.692271257202
 30
0.0
  0
POINT
  5
77D5
330
1034
100
AcDbEntity
  8
Defpoints
 62
     0
100
AcDbPoint
 10
-110.1251231260325
 20
1860.692271257202
 30
0.0
  0
ENDBLK
  5
103F
330
1034
100
AcDbEntity
  8
0
100
AcDbBlockEnd
  0
BLOCK
  5
1065
330
105B
100
AcDbEntity
  8
0
100
AcDbBlockBegin
  2
*D118
 70
     1
 10
0.0
 20
0.0
 30
0.0
  3
*D118
  1

  0
LINE
  5
77A9
330
105B
100
AcDbEntity
  8
cotas
100
AcDbLine
 10
-425.3633669231671
 20
1620.660852468883
 30
0.0
 11
-105.1251231260325
 21
1620.660852468883
 31
0.0
  0
LINE
  5
77AA
330
105B
100
AcDbEntity
  8
cotas
100
AcDbLine
 10
-425.2751820092112
 20
1540.661553945812
 30
0.0
 11
-105.1251231260325
 21
1540.661553945812
 31
0.0
  0
LINE
  5
77AB
330
105B
100
AcDbEntity
  8
cotas
100
AcDbLine
 10
-110.1251231260325
 20
1610.660852468883
 30
0.0
 11
-110.1251231260325
 21
1550.661553945811
 31
0.0
  0
SOLID
  5
77AC
330
105B
100
AcDbEntity
  8
cotas
100
AcDbTrace
 10
-111.7917897926992
 20
1610.660852468883
 30
0.0
 11
-108.4584564593659
 21
1610.660852468883
 31
0.0
 12
-110.1251231260325
 22
1620.660852468883
 32
0.0
 13
-110.1251231260325
 23
1620.660852468883
 33
0.0
  0
SOLID
  5
77AD
330
105B
100
AcDbEntity
  8
cotas
100
AcDbTrace
 10
-111.7917897926992
 20
1550.661553945811
 30
0.0
 11
-108.4584564593659
 21
1550.661553945811
 31
0.0
 12
-110.1251231260325
 22
1540.661553945812
 32
0.0
 13
-110.1251231260325
 23
1540.661553945812
 33
0.0
  0
MTEXT
  5
77AE
330
105B
100
AcDbEntity
  8
cotas
100
AcDbMText
 10
-120.3534642946023
 20
1580.661203207347
 30
0.0
 40
10.0
 41
0.0
 71
     5
 72
     1
  1
80
  7
SANINDUSA
 11
0.0000000000000001
 21
1.0
 31
0.0
 73
     1
 44
1.0
1001
ACAD
1000
MTEXTBEGIN
1070
    73
1070
     1
1070
    44
1040
1.0
1070
    74
1070
     0
1000
MTEXTEND
  0
POINT
  5
77AF
330
105B
100
AcDbEntity
  8
Defpoints
 62
     0
100
AcDbPoint
 10
-430.3633669231671
 20
1620.660852468883
 30
0.0
  0
POINT
  5
77B0
330
105B
100
AcDbEntity
  8
Defpoints
 62
     0
100
AcDbPoint
 10
-430.2751820092112
 20
1540.661553945812
 30
0.0
  0
POINT
  5
77B1
330
105B
100
AcDbEntity
  8
Defpoints
 62
     0
100
AcDbPoint
 10
-110.1251231260325
 20
1540.661553945812
 30
0.0
  0
ENDBLK
  5
1066
330
105B
100
AcDbEntity
  8
0
100
AcDbBlockEnd
  0
BLOCK
  5
1071
330
1067
100
AcDbEntity
  8
0
100
AcDbBlockBegin
  2
*D119
 70
     1
 10
0.0
 20
0.0
 30
0.0
  3
*D119
  1

  0
LINE
  5
77A0
330
1067
100
AcDbEntity
  8
cotas
100
AcDbLine
 10
-425.2751820092112
 20
1540.661553945812
 30
0.0
 11
-105.1251231260325
 21
1540.661553945812
 31
0.0
  0
LINE
  5
77A1
330
1067
100
AcDbEntity
  8
cotas
100
AcDbLine
 10
-425.3150870277627
 20
1460.660492505501
 30
0.0
 11
-105.1251231260326
 21
1460.660492505501
 31
0.0
  0
LINE
  5
77A2
330
1067
100
AcDbEntity
  8
cotas
100
AcDbLine
 10
-110.1251231260325
 20
1530.661553945811
 30
0.0
 11
-110.1251231260325
 21
1470.660492505501
 31
0.0
  0
SOLID
  5
77A3
330
1067
100
AcDbEntity
  8
cotas
100
AcDbTrace
 10
-111.7917897926992
 20
1530.661553945811
 30
0.0
 11
-108.4584564593659
 21
1530.661553945811
 31
0.0
 12
-110.1251231260325
 22
1540.661553945812
 32
0.0
 13
-110.1251231260325
 23
1540.661553945812
 33
0.0
  0
SOLID
  5
77A4
330
1067
100
AcDbEntity
  8
cotas
100
AcDbTrace
 10
-111.7917897926992
 20
1470.660492505501
 30
0.0
 11
-108.4584564593659
 21
1470.660492505501
 31
0.0
 12
-110.1251231260325
 22
1460.660492505501
 32
0.0
 13
-110.1251231260325
 23
1460.660492505501
 33
0.0
  0
MTEXT
  5
77A5
330
1067
100
AcDbEntity
  8
cotas
100
AcDbMText
 10
-120.3534642946023
 20
1500.661023225656
 30
0.0
 40
10.0
 41
0.0
 71
     5
 72
     1
  1
80
  7
SANINDUSA
 11
0.0000000000000001
 21
1.0
 31
0.0
 73
     1
 44
1.0
1001
ACAD
1000
MTEXTBEGIN
1070
    73
1070
     1
1070
    44
1040
1.0
1070
    74
1070
     0
1000
MTEXTEND
  0
POINT
  5
77A6
330
1067
100
AcDbEntity
  8
Defpoints
 62
     0
100
AcDbPoint
 10
-430.2751820092112
 20
1540.661553945812
 30
0.0
  0
POINT
  5
77A7
330
1067
100
AcDbEntity
  8
Defpoints
 62
     0
100
AcDbPoint
 10
-430.3150870277627
 20
1460.660492505501
 30
0.0
  0
POINT
  5
77A8
330
1067
100
AcDbEntity
  8
Defpoints
 62
     0
100
AcDbPoint
 10
-110.1251231260325
 20
1460.660492505501
 30
0.0
  0
ENDBLK
  5
1072
330
1067
100
AcDbEntity
  8
0
100
AcDbBlockEnd
  0
BLOCK
  5
1086
330
107C
100
AcDbEntity
  8
0
100
AcDbBlockBegin
  2
*D120
 70
     1
 10
0.0
 20
0.0
 30
0.0
  3
*D120
  1

  0
LINE
  5
778E
330
107C
100
AcDbEntity
  8
cotas
100
AcDbLine
 10
-425.3195944159256
 20
2020.668993667522
 30
0.0
 11
-105.1251231260325
 21
2020.668993667522
 31
0.0
  0
LINE
  5
778F
330
107C
100
AcDbEntity
  8
cotas
100
AcDbLine
 10
-140.8233908133002
 20
2190.668816827177
 30
0.0
 11
-105.1251231260325
 21
2190.668816827177
 31
0.0
  0
LINE
  5
7790
330
107C
100
AcDbEntity
  8
cotas
100
AcDbLine
 10
-110.1251231260326
 20
2030.668993667522
 30
0.0
 11
-110.1251231260325
 21
2180.668816827177
 31
0.0
  0
SOLID
  5
7791
330
107C
100
AcDbEntity
  8
cotas
100
AcDbTrace
 10
-111.7917897926993
 20
2030.668993667522
 30
0.0
 11
-108.4584564593659
 21
2030.668993667522
 31
0.0
 12
-110.1251231260326
 22
2020.668993667522
 32
0.0
 13
-110.1251231260326
 23
2020.668993667522
 33
0.0
  0
SOLID
  5
7792
330
107C
100
AcDbEntity
  8
cotas
100
AcDbTrace
 10
-111.7917897926992
 20
2180.668816827177
 30
0.0
 11
-108.4584564593659
 21
2180.668816827177
 31
0.0
 12
-110.1251231260325
 22
2190.668816827177
 32
0.0
 13
-110.1251231260325
 23
2190.668816827177
 33
0.0
  0
MTEXT
  5
7793
330
107C
100
AcDbEntity
  8
cotas
100
AcDbMText
 10
-120.3299585860732
 20
2105.66890524735
 30
0.0
 40
10.0
 41
0.0
 71
     5
 72
     1
  1
170
  7
SANINDUSA
 11
0.0000000000000001
 21
1.0
 31
0.0
 73
     1
 44
1.0
1001
ACAD
1000
MTEXTBEGIN
1070
    73
1070
     1
1070
    44
1040
1.0
1070
    74
1070
     0
1000
MTEXTEND
  0
POINT
  5
7794
330
107C
100
AcDbEntity
  8
Defpoints
 62
     0
100
AcDbPoint
 10
-430.3195944159256
 20
2020.668993667522
 30
0.0
  0
POINT
  5
7795
330
107C
100
AcDbEntity
  8
Defpoints
 62
     0
100
AcDbPoint
 10
-145.8233908133002
 20
2190.668816827177
 30
0.0
  0
POINT
  5
7796
330
107C
100
AcDbEntity
  8
Defpoints
 62
     0
100
AcDbPoint
 10
-110.1251231260325
 20
2190.668816827177
 30
0.0
  0
ENDBLK
  5
1087
330
107C
100
AcDbEntity
  8
0
100
AcDbBlockEnd
  0
BLOCK
  5
10BF
330
10B8
100
AcDbEntity
  8
0
100
AcDbBlockBegin
  2
*D121
 70
     1
 10
0.0
 20
0.0
 30
0.0
  3
*D121
  1

  0
LINE
  5
7758
330
10B8
100
AcDbEntity
  8
cotas
100
AcDbLine
 10
-115.3123200356314
 20
1254.814005415364
 30
0.0
 11
-136.8478917574007
 21
1283.6504801412
 31
0.0
  0
MTEXT
  5
7759
330
10B8
100
AcDbEntity
  8
cotas
100
AcDbMText
 10
-114.9926438006251
 20
1271.272084581233
 30
0.0
 40
10.0
 41
0.0
 71
     5
 72
     1
  1
R5
  7
SANINDUSA
 11
0.5983666037267162
 21
-0.8012224457318673
 31
0.0
 73
     1
 44
1.0
1001
ACAD
1000
MTEXTBEGIN
1070
    73
1070
     1
1070
    44
1040
1.0
1070
    74
1070
     0
1000
MTEXTEND
  0
LINE
  5
775A
330
10B8
100
AcDbEntity
  8
cotas
100
AcDbLine
 10
-145.8233908132996
 20
1295.668816827176
 30
0.0
 11
-142.8315577946678
 21
1291.662704598519
 31
0.0
  0
SOLID
  5
775B
330
10B8
100
AcDbEntity
  8
cotas
100
AcDbTrace
 10
-135.5125210145142
 20
1284.647757814078
 30
0.0
 11
-138.1832625002871
 21
1282.653202468323
 31
0.0
 12
-142.8315577946678
 22
1291.662704598519
 32
0.0
 13
-142.8315577946678
 23
1291.662704598519
 33
0.0
  0
POINT
  5
775C
330
10B8
100
AcDbEntity
  8
Defpoints
 62
     0
100
AcDbPoint
 10
-142.8315577946678
 20
1291.662704598519
 30
0.0
  0
POINT
  5
775D
330
10B8
100
AcDbEntity
  8
Defpoints
 62
     0
100
AcDbPoint
 10
-145.8233908132996
 20
1295.668816827176
 30
0.0
  0
ENDBLK
  5
10C0
330
10B8
100
AcDbEntity
  8
0
100
AcDbBlockEnd
  0
BLOCK
  5
10C8
330
10C1
100
AcDbEntity
  8
0
100
AcDbBlockBegin
  2
*D122
 70
     1
 10
0.0
 20
0.0
 30
0.0
  3
*D122
  1

  0
LINE
  5
7752
330
10C1
100
AcDbEntity
  8
cotas
100
AcDbLine
 10
-1571.582592659428
 20
1259.389431982907
 30
0.0
 11
-1546.289302851646
 21
1284.993584276956
 31
0.0
  0
MTEXT
  5
7753
330
10C1
100
AcDbEntity
  8
cotas
100
AcDbMText
 10
-1569.638000636353
 20
1275.735352715282
 30
0.0
 40
10.0
 41
0.0
 71
     5
 72
     1
  1
R5
  7
SANINDUSA
 11
0.702774930468147
 21
0.7114122553804448
 31
0.0
 73
     1
 44
1.0
1001
ACAD
1000
MTEXTBEGIN
1070
    73
1070
     1
1070
    44
1040
1.0
1070
    74
1070
     0
1000
MTEXTEND
  0
LINE
  5
7754
330
10C1
100
AcDbEntity
  8
cotas
100
AcDbLine
 10
-1535.747678894624
 20
1295.664768107662
 30
0.0
 11
-1539.261553546964
 21
1292.10770683076
 31
0.0
  0
SOLID
  5
7755
330
10C1
100
AcDbEntity
  8
cotas
100
AcDbTrace
 10
-1547.474989943947
 20
1286.164875827736
 30
0.0
 11
-1545.103615759345
 21
1283.822292726176
 31
0.0
 12
-1539.261553546964
 22
1292.10770683076
 32
0.0
 13
-1539.261553546964
 23
1292.10770683076
 33
0.0
  0
POINT
  5
7756
330
10C1
100
AcDbEntity
  8
Defpoints
 62
     0
100
AcDbPoint
 10
-1539.261553546964
 20
1292.10770683076
 30
0.0
  0
POINT
  5
7757
330
10C1
100
AcDbEntity
  8
Defpoints
 62
     0
100
AcDbPoint
 10
-1535.747678894624
 20
1295.664768107662
 30
0.0
  0
ENDBLK
  5
10C9
330
10C1
100
AcDbEntity
  8
0
100
AcDbBlockEnd
  0
BLOCK
  5
10DC
330
10D2
100
AcDbEntity
  8
0
100
AcDbBlockBegin
  2
*D123
 70
     1
 10
0.0
 20
0.0
 30
0.0
  3
*D123
  1

  0
LINE
  5
7741
330
10D2
100
AcDbEntity
  8
1
100
AcDbLine
 10
-1541.446643117721
 20
2191.362952888439
 30
0.0
 11
-1579.896941334025
 21
2191.362952888439
 31
0.0
  0
LINE
  5
7742
330
10D2
100
AcDbEntity
  8
1
100
AcDbLine
 10
-1545.747678894623
 20
2097.603221568552
 30
0.0
 11
-1579.896941334025
 21
2097.603221568552
 31
0.0
  0
LINE
  5
7743
330
10D2
100
AcDbEntity
  8
1
100
AcDbLine
 10
-1574.896941334025
 20
2181.362952888438
 30
0.0
 11
-1574.896941334025
 21
2107.603221568552
 31
0.0
  0
SOLID
  5
7744
330
10D2
100
AcDbEntity
  8
1
100
AcDbTrace
 10
-1576.563608000691
 20
2181.362952888438
 30
0.0
 11
-1573.230274667358
 21
2181.362952888438
 31
0.0
 12
-1574.896941334025
 22
2191.362952888439
 32
0.0
 13
-1574.896941334025
 23
2191.362952888439
 33
0.0
  0
SOLID
  5
7745
330
10D2
100
AcDbEntity
  8
1
100
AcDbTrace
 10
-1576.563608000691
 20
2107.603221568552
 30
0.0
 11
-1573.230274667358
 21
2107.603221568552
 31
0.0
 12
-1574.896941334025
 22
2097.603221568552
 32
0.0
 13
-1574.896941334025
 23
2097.603221568552
 33
0.0
  0
MTEXT
  5
7746
330
10D2
100
AcDbEntity
  8
1
100
AcDbMText
 10
-1586.253556511997
 20
2144.483087228495
 30
0.0
 40
10.0
 41
0.0
 71
     5
 72
     1
  1
93,8
  7
SANINDUSA
 11
0.0000000000000001
 21
1.0
 31
0.0
 73
     1
 44
1.0
1001
ACAD
1000
MTEXTBEGIN
1070
    73
1070
     1
1070
    44
1040
1.0
1070
    74
1070
     0
1000
MTEXTEND
  0
POINT
  5
7747
330
10D2
100
AcDbEntity
  8
Defpoints
 62
     0
100
AcDbPoint
 10
-1536.446643117721
 20
2191.362952888439
 30
0.0
  0
POINT
  5
7748
330
10D2
100
AcDbEntity
  8
Defpoints
 62
     0
100
AcDbPoint
 10
-1540.747678894623
 20
2097.603221568552
 30
-0.0000000000000961
  0
POINT
  5
7749
330
10D2
100
AcDbEntity
  8
Defpoints
 62
     0
100
AcDbPoint
 10
-1574.896941334025
 20
2097.603221568552
 30
0.0
  0
ENDBLK
  5
10DD
330
10D2
100
AcDbEntity
  8
0
100
AcDbBlockEnd
  0
BLOCK
  5
10E4
330
10DE
100
AcDbEntity
  8
0
100
AcDbBlockBegin
  2
*D124
 70
     1
 10
0.0
 20
0.0
 30
0.0
  3
*D124
  1

  0
LINE
  5
773C
330
10DE
100
AcDbEntity
  8
1
100
AcDbLine
 10
4265.811347202681
 20
1677.682297047819
 30
0.0
 11
4307.522597104234
 21
1651.61341625156
 31
0.0
  0
MTEXT
  5
773D
330
10DE
100
AcDbEntity
  8
1
100
AcDbMText
 10
4285.893296518588
 20
1676.943584815921
 30
0.0
 40
10.0
 41
0.0
 71
     5
 72
     1
  1
R17
  7
SANINDUSA
 11
0.8480042467384459
 21
-0.5299894315111965
 31
0.0
 73
     1
 44
1.0
1001
ACAD
1000
MTEXTBEGIN
1070
    73
1070
     1
1070
    44
1040
1.0
1070
    74
1070
     0
1000
MTEXTEND
  0
SOLID
  5
773E
330
10DE
100
AcDbEntity
  8
1
100
AcDbTrace
 10
4308.405912823419
 20
1653.026756662791
 30
0.0
 11
4306.639281385048
 21
1650.20007584033
 31
0.0
 12
4316.002639571618
 22
1646.313521936449
 32
0.0
 13
4316.002639571618
 23
1646.313521936449
 33
0.0
  0
POINT
  5
773F
330
10DE
100
AcDbEntity
  8
Defpoints
 62
     0
100
AcDbPoint
 10
4316.002639571618
 20
1646.313521936449
 30
0.0
  0
POINT
  5
7740
330
10DE
100
AcDbEntity
  8
Defpoints
 62
     0
100
AcDbPoint
 10
4301.586677939769
 20
1655.323273172172
 30
0.0
  0
ENDBLK
  5
10E5
330
10DE
100
AcDbEntity
  8
0
100
AcDbBlockEnd
  0
BLOCK
  5
10F0
330
10E6
100
AcDbEntity
  8
0
100
AcDbBlockBegin
  2
*D125
 70
     1
 10
0.0
 20
0.0
 30
0.0
  3
*D125
  1

  0
LINE
  5
7733
330
10E6
100
AcDbEntity
  8
1
100
AcDbLine
 10
4396.525141039409
 20
1739.176189628079
 30
0.0
 11
4427.223337201104
 21
1739.176189628079
 31
0.0
  0
LINE
  5
7734
330
10E6
100
AcDbEntity
  8
1
100
AcDbLine
 10
4323.093801035779
 20
1640.916382173353
 30
0.0
 11
4427.223337201104
 21
1640.916382173353
 31
0.0
  0
LINE
  5
7735
330
10E6
100
AcDbEntity
  8
1
100
AcDbLine
 10
4422.223337201103
 20
1729.176189628079
 30
0.0
 11
4422.223337201103
 21
1650.916382173353
 31
0.0
  0
SOLID
  5
7736
330
10E6
100
AcDbEntity
  8
1
100
AcDbTrace
 10
4420.556670534437
 20
1729.176189628079
 30
0.0
 11
4423.890003867771
 21
1729.176189628079
 31
0.0
 12
4422.223337201103
 22
1739.176189628079
 32
0.0
 13
4422.223337201103
 23
1739.176189628079
 33
0.0
  0
SOLID
  5
7737
330
10E6
100
AcDbEntity
  8
1
100
AcDbTrace
 10
4420.556670534437
 20
1650.916382173353
 30
0.0
 11
4423.890003867771
 21
1650.916382173353
 31
0.0
 12
4422.223337201103
 22
1640.916382173353
 32
0.0
 13
4422.223337201103
 23
1640.916382173353
 33
0.0
  0
MTEXT
  5
7738
330
10E6
100
AcDbEntity
  8
1
100
AcDbMText
 10
4410.866722023132
 20
1690.046285900717
 30
0.0
 40
10.0
 41
0.0
 71
     5
 72
     1
  1
98,3
  7
SANINDUSA
 11
0.0000000000000001
 21
1.0
 31
0.0
 73
     1
 44
1.0
1001
ACAD
1000
MTEXTBEGIN
1070
    73
1070
     1
1070
    44
1040
1.0
1070
    74
1070
     0
1000
MTEXTEND
  0
POINT
  5
7739
330
10E6
100
AcDbEntity
  8
Defpoints
 62
     0
100
AcDbPoint
 10
4391.525141039408
 20
1739.176189628079
 30
0.0
  0
POINT
  5
773A
330
10E6
100
AcDbEntity
  8
Defpoints
 62
     0
100
AcDbPoint
 10
4318.093801035778
 20
1640.916382173353
 30
0.0
  0
POINT
  5
773B
330
10E6
100
AcDbEntity
  8
Defpoints
 62
     0
100
AcDbPoint
 10
4422.223337201103
 20
1640.916382173353
 30
0.0
  0
ENDBLK
  5
10F1
330
10E6
100
AcDbEntity
  8
0
100
AcDbBlockEnd
  0
ENDSEC
  0
SECTION
  2
ENTITIES
  0
ARC
  5
8D7
330
23
100
AcDbEntity
  8
SANINDUSA
100
AcDbCircle
 10
2032.298599098002
 20
1739.092336651522
 30
0.0
 40
0.0209000698469813
100
AcDbArc
 50
282.4645330386194
 51
357.9998751029966
  0
ARC
  5
8D8
330
23
100
AcDbEntity
  8
SANINDUSA
100
AcDbCircle
 10
2031.570520949554
 20
1739.102467125982
 30
0.0
 40
0.0208999379101829
100
AcDbArc
 50
238.5785201223877
 51
268.7983421496365
  0
LINE
  5
8E6
330
23
100
AcDbEntity
  8
SANINDUSA
100
AcDbLine
 10
2032.132339224302
 20
1739.069749709796
 30
0.0
 11
2032.145667385241
 21
1739.060417238229
 31
0.0
  0
LINE
  5
8E7
330
23
100
AcDbEntity
  8
SANINDUSA
100
AcDbLine
 10
2032.271407923485
 20
1739.060417238229
 30
0.0
 11
2032.284717783414
 21
1739.06973693205
 31
0.0
  0
LINE
  5
8E8
330
23
100
AcDbEntity
  8
SANINDUSA
100
AcDbLine
 10
2032.145667385241
 20
1739.060417238229
 30
0.0
 11
2032.1568418861
 21
1739.048434053157
 31
0.0
  0
LINE
  5
8E9
330
23
100
AcDbEntity
  8
SANINDUSA
100
AcDbLine
 10
2032.260233422626
 20
1739.048434053157
 30
0.0
 11
2032.271407923485
 21
1739.060417238229
 31
0.0
  0
LINE
  5
906
330
23
100
AcDbEntity
  8
SANINDUSA
100
AcDbLine
 10
2030.99283869014
 20
1739.136189628969
 30
0.0
 11
2032.384236559354
 21
1739.136189628969
 31
0.0
  0
LINE
  5
909
330
23
100
AcDbEntity
  8
SANINDUSA
100
AcDbLine
 10
2030.987839451782
 20
1739.136189628969
 30
0.0
 11
2030.988417601339
 21
1739.16931179492
 31
0.0
  0
LINE
  5
90A
330
23
100
AcDbEntity
  8
SANINDUSA
100
AcDbLine
 10
2030.987839451782
 20
1739.136189628969
 30
0.0
 11
2030.99283869014
 21
1739.136189628969
 31
0.0
  0
LINE
  5
90C
330
23
100
AcDbEntity
  8
SANINDUSA
100
AcDbLine
 10
2032.388657707387
 20
1739.16931179492
 30
0.0
 11
2032.38923583933
 21
1739.136189628969
 31
0.0
  0
LINE
  5
90D
330
23
100
AcDbEntity
  8
SANINDUSA
100
AcDbLine
 10
2032.384236559354
 20
1739.136189628969
 30
0.0
 11
2032.38923583933
 21
1739.136189628969
 31
0.0
  0
LINE
  5
90E
330
23
100
AcDbEntity
  8
SANINDUSA
100
AcDbLine
 10
2030.995416535147
 20
1739.176189628075
 30
0.0
 11
2032.381658773521
 21
1739.176189628075
 31
0.0
  0
ARC
  5
911
330
23
100
AcDbEntity
  8
SANINDUSA
100
AcDbCircle
 10
2030.995416535205
 20
1739.169189628075
 30
0.0
 40
0.0069999999999999
100
AcDbArc
 50
90.0
 51
179.0000000030781
  0
ARC
  5
912
330
23
100
AcDbEntity
  8
SANINDUSA
100
AcDbCircle
 10
2032.381658773521
 20
1739.169189628075
 30
0.0
 40
0.0070000000000004
100
AcDbArc
 50
0.9999999969218754
 51
90.0
  0
ARC
  5
95F
330
23
100
AcDbEntity
  8
SANINDUSA
100
AcDbCircle
 10
2031.52977987579
 20
1739.06894559344
 30
0.0
 40
0.0261033912172768
100
AcDbArc
 50
58.32904041909789
 51
88.99945083410724
  0
LINE
  5
963
330
23
100
AcDbEntity
  8
SANINDUSA
100
AcDbLine
 10
2031.056032106363
 20
1739.136189628969
 30
0.0
 11
2031.056488387636
 21
1739.123123488996
 31
0.0
  0
LINE
  5
964
330
23
100
AcDbEntity
  8
SANINDUSA
100
AcDbLine
 10
2032.319624727374
 20
1739.095569395167
 30
0.0
 11
2032.321043238126
 21
1739.136189628969
 31
0.0
  0
ARC
  5
966
330
23
100
AcDbEntity
  8
SANINDUSA
100
AcDbCircle
 10
2031.570737972965
 20
1739.135340923278
 30
0.0
 40
0.0519088228900164
100
AcDbArc
 50
238.3309377331662
 51
269.0154332705465
  0
ARC
  5
969
330
23
100
AcDbEntity
  8
SANINDUSA
100
AcDbCircle
 10
2031.077375655921
 20
1739.123852888477
 30
0.0
 40
0.0208999999999999
100
AcDbArc
 50
182.0000000037536
 51
269.0000000030781
  0
LINE
  5
96B
330
23
100
AcDbEntity
  8
SANINDUSA
100
AcDbLine
 10
2031.080010901741
 20
1739.102903706434
 30
0.0
 11
2031.530235689283
 21
1739.095045003535
 31
0.0
  0
LWPOLYLINE
  5
96C
330
23
100
AcDbEntity
  8
SANINDUSA
100
AcDbPolyline
 90
        7
 70
   128
 43
0.0
 10
2032.31948874899
 20
1739.091677103768
 10
2032.319486722432
 20
1739.091617737542
 10
2032.319506153547
 20
1739.092173200677
 10
2032.31953738638
 20
1739.093067993055
 10
2032.31956933447
 20
1739.093983341585
 10
2032.319590911352
 20
1739.094600465725
 10
2032.319611772977
 20
1739.095198970865
  0
LWPOLYLINE
  5
96D
330
23
100
AcDbEntity
  8
SANINDUSA
100
AcDbPolyline
 90
       39
 70
   128
 43
0.0
 10
2032.132360085928
 20
1739.069779519568
 10
2032.132392987691
 20
1739.069779035281
 10
2032.133001431905
 20
1739.069777113031
 10
2032.134161934339
 20
1739.069775421749
 10
2032.135811671697
 20
1739.069773469697
 10
2032.137963041745
 20
1739.069771629404
 10
2032.14068566271
 20
1739.069770325552
 10
2032.143903479063
 20
1739.069769409131
 10
2032.147481665098
 20
1739.069768738578
 10
2032.151480302297
 20
1739.069768187235
 10
2032.156006440603
 20
1739.069767695497
 10
2032.160915717565
 20
1739.069767293166
 10
2032.166027769529
 20
1739.06976696534
 10
2032.171433672391
 20
1739.069766458701
 10
2032.177265629255
 20
1739.069765616785
 10
2032.183326348745
 20
1739.069764663111
 10
2032.18939791628
 20
1739.069763843547
 10
2032.195601806127
 20
1739.069763314556
 10
2032.202079519712
 20
1739.069763262402
 10
2032.208604559385
 20
1739.069763694535
 10
2032.215135321103
 20
1739.069764506649
 10
2032.22161780306
 20
1739.069765914808
 10
2032.228199943983
 20
1739.069768239389
 10
2032.234629377805
 20
1739.069771405886
 10
2032.240305766546
 20
1739.069774989615
 10
2032.245777592145
 20
1739.069779035281
 10
2032.251146540128
 20
1739.069783416222
 10
2032.256225690328
 20
1739.069788050483
 10
2032.260969981634
 20
1739.069792833756
 10
2032.265358552419
 20
1739.069797296654
 10
2032.269468650304
 20
1739.069801275264
 10
2032.273140773259
 20
1739.069804479013
 10
2032.276336774312
 20
1739.069806311856
 10
2032.279045924627
 20
1739.069805544447
 10
2032.281304940664
 20
1739.069801312516
 10
2032.283007487737
 20
1739.069793318044
 10
2032.284087404691
 20
1739.069781188498
 10
2032.284655794584
 20
1739.069767643343
 10
2032.284696802579
 20
1739.069767047296
  0
LINE
  5
970
330
23
100
AcDbEntity
  8
SANINDUSA
100
AcDbLine
 10
2032.208537654363
 20
1739.048434053157
 30
0.0
 11
2032.260233422626
 21
1739.048434053157
 31
0.0
  0
LINE
  5
971
330
23
100
AcDbEntity
  8
SANINDUSA
100
AcDbLine
 10
2032.1568418861
 20
1739.048434053157
 30
0.0
 11
2032.208537654363
 21
1739.048434053157
 31
0.0
  0
LINE
  5
9B3
330
23
100
AcDbEntity
  8
SANINDUSA
100
AcDbLine
 10
2028.120980623237
 20
1739.627798259393
 30
0.0
 11
2029.511222252334
 21
1739.627798259393
 31
0.0
  0
ARC
  5
9B8
330
23
100
AcDbEntity
  8
SANINDUSA
100
AcDbCircle
 10
2028.120982438287
 20
1739.622797232374
 30
0.0
 40
0.0050010538408705
100
AcDbArc
 50
90.02079442259093
 51
179.9796810570359
  0
ARC
  5
9BA
330
23
100
AcDbEntity
  8
SANINDUSA
100
AcDbCircle
 10
2029.511220431781
 20
1739.622797260011
 30
0.0
 40
0.0050010262220429
100
AcDbArc
 50
0.0200024125167086
 51
89.97863133590767
  0
LINE
  5
9BB
330
23
100
AcDbEntity
  8
SANINDUSA
100
AcDbLine
 10
2029.51622149081
 20
1739.622799020917
 30
0.0
 11
2029.51622149081
 21
1738.73255739182
 31
0.0
  0
LINE
  5
9C0
330
23
100
AcDbEntity
  8
SANINDUSA
100
AcDbLine
 10
2028.115981384761
 20
1738.73255739182
 30
0.0
 11
2028.115981384761
 21
1739.622799020917
 31
0.0
  0
ELLIPSE
  5
9CB
330
23
100
AcDbEntity
  8
SANINDUSA
100
AcDbEllipse
 10
2028.206358074473
 20
1739.537421570096
 30
0.0
 11
-0.0141714282337242
 21
0.0141714282402219
 31
0.0
210
0.0
220
0.0
230
1.0
 40
0.9979329808716316
 41
5.498396131596733
 42
7.067974482762344
  0
ELLIPSE
  5
9CE
330
23
100
AcDbEntity
  8
SANINDUSA
100
AcDbEllipse
 10
2029.42584481787
 20
1739.537421570096
 30
0.0
 11
0.0141714282369861
 21
0.0141714282369861
 31
0.0
210
0.0
220
0.0
230
1.0
 40
0.9979329808707113
 41
5.498396131367766
 42
7.067974482991433
  0
LINE
  5
9D0
330
23
100
AcDbEntity
  8
SANINDUSA
100
AcDbLine
 10
2029.425877723237
 20
1739.557442292003
 30
0.0
 11
2028.206325169106
 21
1739.557442292003
 31
0.0
  0
LINE
  5
9D1
330
23
100
AcDbEntity
  8
SANINDUSA
100
AcDbLine
 10
2028.186337352566
 20
1739.537454475472
 30
0.0
 11
2028.186337352236
 21
1738.817901937283
 31
0.0
  0
LINE
  5
9D4
330
23
100
AcDbEntity
  8
SANINDUSA
100
AcDbLine
 10
2029.445865539777
 20
1738.817901937283
 30
0.0
 11
2029.445865539777
 21
1739.537454475463
 31
0.0
  0
ELLIPSE
  5
9D6
330
23
100
AcDbEntity
  8
SANINDUSA
100
AcDbEllipse
 10
2029.42584481787
 20
1738.817934842649
 30
0.0
 11
0.0141714282370339
 21
-0.0141714282369388
 31
0.0
210
0.0
220
0.0
230
1.0
 40
0.9979329808706911
 41
5.49839613137116
 42
7.067974482988092
  0
ELLIPSE
  5
9D7
330
23
100
AcDbEntity
  8
SANINDUSA
100
AcDbEllipse
 10
2028.206358074143
 20
1738.817934842641
 30
0.0
 11
0.0141714282402015
 21
0.0141714282337986
 31
0.0
210
0.0
220
0.0
230
1.0
 40
0.997932980869738
 41
2.356803477545526
 42
3.926381829634028
  0
LINE
  5
9D9
330
23
100
AcDbEntity
  8
SANINDUSA
100
AcDbLine
 10
2028.206325168776
 20
1738.797914120734
 30
0.0
 11
2029.425877723237
 21
1738.797914120742
 31
0.0
  0
ARC
  5
9DB
330
23
100
AcDbEntity
  8
SANINDUSA
100
AcDbCircle
 10
2029.511220462881
 20
1738.732559148133
 30
0.0
 40
0.0050009951254231
100
AcDbArc
 50
270.0210124907975
 51
359.9798782811559
  0
LINE
  5
9DC
330
23
100
AcDbEntity
  8
SANINDUSA
100
AcDbLine
 10
2029.511222252334
 20
1738.727558153344
 30
0.0
 11
2028.120980623237
 21
1738.727558153344
 31
0.0
  0
ARC
  5
9DE
330
23
100
AcDbEntity
  8
SANINDUSA
100
AcDbCircle
 10
2028.120982407188
 20
1738.732559175772
 30
0.0
 40
0.0050010227454459
100
AcDbArc
 50
180.0204382492961
 51
269.9795617507039
  0
ARC
  5
A29
330
23
100
AcDbEntity
  8
SANINDUSA
100
AcDbCircle
 10
2028.229187311616
 20
1738.845472564089
 30
0.0
 40
0.0108876160809712
100
AcDbArc
 50
179.9867108546625
 51
269.9885489901776
  0
ARC
  5
A2C
330
23
100
AcDbEntity
  8
SANINDUSA
100
AcDbCircle
 10
2028.229187652294
 20
1739.50988351408
 30
0.0
 40
0.0108879566823751
100
AcDbArc
 50
90.01324340560072
 51
180.0114183497476
  0
LINE
  5
A2E
330
23
100
AcDbEntity
  8
SANINDUSA
100
AcDbLine
 10
2028.218299693585
 20
1738.845475093056
 30
0.0
 11
2028.218299693585
 21
1739.509881319681
 31
0.0
  0
LINE
  5
A30
330
23
100
AcDbEntity
  8
SANINDUSA
100
AcDbLine
 10
2028.657989406305
 20
1738.834584948486
 30
0.0
 11
2028.229185133436
 21
1738.834584948486
 31
0.0
  0
LINE
  5
A31
330
23
100
AcDbEntity
  8
SANINDUSA
100
AcDbLine
 10
2028.229185133436
 20
1739.52077146425
 30
0.0
 11
2028.658015574967
 21
1739.52077146425
 31
0.0
  0
LWPOLYLINE
  5
A40
330
23
100
AcDbEntity
  8
SANINDUSA
100
AcDbPolyline
 90
        3
 70
   128
 43
0.0
 10
2028.658015602806
 20
1739.520771470472
 10
2028.664102846363
 20
1739.520658519669
 10
2028.670182341315
 20
1739.520372715398
  0
LWPOLYLINE
  5
A41
330
23
100
AcDbEntity
  8
SANINDUSA
100
AcDbPolyline
 90
        3
 70
   128
 43
0.0
 10
2028.670182102897
 20
1738.83498511891
 10
2028.667055183627
 20
1738.834823664828
 10
2028.657989376762
 20
1738.834584948226
  0
LWPOLYLINE
  5
A43
330
23
100
AcDbEntity
  8
SANINDUSA
100
AcDbPolyline
 90
        5
 70
   128
 43
0.0
 10
2028.681234353759
 20
1739.509942617818
 10
2028.681235724666
 20
1739.461938944264
 10
2028.681119614818
 20
1739.269935813352
 10
2028.68112772105
 20
1739.057673629924
 10
2028.681228989341
 20
1738.84541047792
  0
ARC
  5
A46
330
23
100
AcDbEntity
  8
SANINDUSA
100
AcDbCircle
 10
2028.671079686469
 20
1739.509942581708
 30
0.0
 40
0.0101546672901776
100
AcDbArc
 50
0.0002037378853453
 51
72.92629468695271
  0
ARC
  5
A48
330
23
100
AcDbEntity
  8
SANINDUSA
100
AcDbCircle
 10
2028.671079716363
 20
1738.845410206041
 30
0.0
 40
0.0101492729818724
100
AcDbArc
 50
287.0944990640019
 51
0.0015348410359851
  0
LINE
  5
A49
330
23
100
AcDbEntity
  8
SANINDUSA
100
AcDbLine
 10
2028.672582354801
 20
1738.835301755713
 30
0.0
 11
2028.670182106688
 21
1738.834985122471
 31
0.0
  0
LWPOLYLINE
  5
A4A
330
23
100
AcDbEntity
  8
SANINDUSA
100
AcDbPolyline
 90
        3
 70
   128
 43
0.0
 10
2028.670182341315
 20
1739.520372715398
 10
2028.670622342803
 20
1739.520356502935
 10
2028.672566646316
 20
1739.520059791013
  0
LINE
  5
A4B
330
23
100
AcDbEntity
  8
SANINDUSA
100
AcDbLine
 10
2028.672566674407
 20
1739.520059798232
 30
0.0
 11
2028.674061132416
 21
1739.519649730567
 31
0.0
  0
LINE
  5
A4C
330
23
100
AcDbEntity
  8
SANINDUSA
100
AcDbLine
 10
2028.674063077813
 20
1738.835709316499
 30
0.0
 11
2028.672582354801
 21
1738.835301755713
 31
0.0
  0
CIRCLE
  5
A6C
330
23
100
AcDbEntity
  8
SANINDUSA
100
AcDbCircle
 10
2028.78777886304
 20
1739.457680753978
 30
0.0
 40
0.0107489677776259
  0
CIRCLE
  5
A6E
330
23
100
AcDbEntity
  8
SANINDUSA
100
AcDbCircle
 10
2028.787776750548
 20
1738.897674026296
 30
0.0
 40
0.0107490537155165
  0
CIRCLE
  5
A70
330
23
100
AcDbEntity
  8
SANINDUSA
100
AcDbCircle
 10
2028.787770810057
 20
1739.377694279363
 30
0.0
 40
0.0107488551267432
  0
CIRCLE
  5
A72
330
23
100
AcDbEntity
  8
SANINDUSA
100
AcDbCircle
 10
2028.787766860225
 20
1738.977661251147
 30
0.0
 40
0.0107495863793257
  0
CIRCLE
  5
A75
330
23
100
AcDbEntity
  8
SANINDUSA
100
AcDbCircle
 10
2028.787750961437
 20
1739.297701020099
 30
0.0
 40
0.0107495711481791
  0
CIRCLE
  5
A77
330
23
100
AcDbEntity
  8
SANINDUSA
100
AcDbCircle
 10
2028.867765931169
 20
1739.457680232142
 30
0.0
 40
0.0107488295417754
  0
CIRCLE
  5
A7A
330
23
100
AcDbEntity
  8
SANINDUSA
100
AcDbCircle
 10
2028.86776398333
 20
1738.897674448037
 30
0.0
 40
0.0107488700359289
  0
CIRCLE
  5
A7C
330
23
100
AcDbEntity
  8
SANINDUSA
100
AcDbCircle
 10
2028.787746542034
 20
1739.057657109673
 30
0.0
 40
0.010750712059125
  0
CIRCLE
  5
A7F
330
23
100
AcDbEntity
  8
SANINDUSA
100
AcDbCircle
 10
2028.867758037735
 20
1739.3776955028
 30
0.0
 40
0.0107485573610358
  0
CIRCLE
  5
AAF
330
23
100
AcDbEntity
  8
SANINDUSA
100
AcDbCircle
 10
2028.867754166671
 20
1738.977659954052
 30
0.0
 40
0.0107492694051215
  0
CIRCLE
  5
AB1
330
23
100
AcDbEntity
  8
SANINDUSA
100
AcDbCircle
 10
2028.787731071785
 20
1739.21769107109
 30
0.0
 40
0.0107510426295834
  0
CIRCLE
  5
AB3
330
23
100
AcDbEntity
  8
SANINDUSA
100
AcDbCircle
 10
2028.78772911186
 20
1739.137669693327
 30
0.0
 40
0.0107515717124271
  0
CIRCLE
  5
AB5
330
23
100
AcDbEntity
  8
SANINDUSA
100
AcDbCircle
 10
2028.947749308813
 20
1739.457681090312
 30
0.0
 40
0.0107486267316527
  0
CIRCLE
  5
AB7
330
23
100
AcDbEntity
  8
SANINDUSA
100
AcDbCircle
 10
2028.86773712408
 20
1739.297704258168
 30
0.0
 40
0.0107493847748225
  0
CIRCLE
  5
AB9
330
23
100
AcDbEntity
  8
SANINDUSA
100
AcDbCircle
 10
2028.947747698723
 20
1738.897673935399
 30
0.0
 40
0.0107488659065334
  0
CIRCLE
  5
ABB
330
23
100
AcDbEntity
  8
SANINDUSA
100
AcDbCircle
 10
2028.867732216893
 20
1739.057653783967
 30
0.0
 40
0.0107505962094335
  0
CIRCLE
  5
ABD
330
23
100
AcDbEntity
  8
SANINDUSA
100
AcDbCircle
 10
2028.947741371144
 20
1739.377695563829
 30
0.0
 40
0.0107483390920891
  0
CIRCLE
  5
ABF
330
23
100
AcDbEntity
  8
SANINDUSA
100
AcDbCircle
 10
2028.947738052466
 20
1738.977659648639
 30
0.0
 40
0.0107489755739952
  0
CIRCLE
  5
AC1
330
23
100
AcDbEntity
  8
SANINDUSA
100
AcDbCircle
 10
2028.867714477557
 20
1739.217693363323
 30
0.0
 40
0.0107513481229396
  0
CIRCLE
  5
AC3
330
23
100
AcDbEntity
  8
SANINDUSA
100
AcDbCircle
 10
2028.867711842082
 20
1739.13766729425
 30
0.0
 40
0.0107520759435071
  0
CIRCLE
  5
AC5
330
23
100
AcDbEntity
  8
SANINDUSA
100
AcDbCircle
 10
2028.947721303151
 20
1739.297705703902
 30
0.0
 40
0.0107492147696327
  0
CIRCLE
  5
AC7
330
23
100
AcDbEntity
  8
SANINDUSA
100
AcDbCircle
 10
2029.027727336882
 20
1739.457684032555
 30
0.0
 40
0.0107486476388394
  0
CIRCLE
  5
AC9
330
23
100
AcDbEntity
  8
SANINDUSA
100
AcDbCircle
 10
2029.027726140304
 20
1738.897671644838
 30
0.0
 40
0.0107491288709762
  0
CIRCLE
  5
ACB
330
23
100
AcDbEntity
  8
SANINDUSA
100
AcDbCircle
 10
2028.947716315248
 20
1739.057651395979
 30
0.0
 40
0.0107504475081384
  0
CIRCLE
  5
ACD
330
23
100
AcDbEntity
  8
SANINDUSA
100
AcDbCircle
 10
2029.027718623927
 20
1739.377694307542
 30
0.0
 40
0.0107483601693954
  0
CIRCLE
  5
ACF
330
23
100
AcDbEntity
  8
SANINDUSA
100
AcDbCircle
 10
2029.027716497954
 20
1738.977660995772
 30
0.0
 40
0.0107487575860444
  0
CIRCLE
  5
AD1
330
23
100
AcDbEntity
  8
SANINDUSA
100
AcDbCircle
 10
2028.947697734819
 20
1739.217695796722
 30
0.0
 40
0.010751444522122
  0
CIRCLE
  5
AD3
330
23
100
AcDbEntity
  8
SANINDUSA
100
AcDbCircle
 10
2028.947694719699
 20
1739.13766615358
 30
0.0
 40
0.0107522538826042
  0
CIRCLE
  5
AD5
330
23
100
AcDbEntity
  8
SANINDUSA
100
AcDbCircle
 10
2029.027701918796
 20
1739.297704626336
 30
0.0
 40
0.0107490318495023
  0
CIRCLE
  5
AD7
330
23
100
AcDbEntity
  8
SANINDUSA
100
AcDbCircle
 10
2029.027697798648
 20
1739.057651818409
 30
0.0
 40
0.0107500524980374
  0
CIRCLE
  5
AD9
330
23
100
AcDbEntity
  8
SANINDUSA
100
AcDbCircle
 10
2029.107700266295
 20
1739.457689330541
 30
0.0
 40
0.0107491181626621
  0
CIRCLE
  5
ADB
330
23
100
AcDbEntity
  8
SANINDUSA
100
AcDbCircle
 10
2029.107699653597
 20
1738.897667434568
 30
0.0
 40
0.0107496113574816
  0
CIRCLE
  5
ADD
330
23
100
AcDbEntity
  8
SANINDUSA
100
AcDbCircle
 10
2029.107690277811
 20
1739.37769201336
 30
0.0
 40
0.0107486157614528
  0
CIRCLE
  5
ADF
330
23
100
AcDbEntity
  8
SANINDUSA
100
AcDbCircle
 10
2029.107689519727
 20
1738.977664206345
 30
0.0
 40
0.0107487777617694
  0
CIRCLE
  5
AE1
330
23
100
AcDbEntity
  8
SANINDUSA
100
AcDbCircle
 10
2029.027680688588
 20
1739.217696611575
 30
0.0
 40
0.0107514270283799
  0
CIRCLE
  5
AE3
330
23
100
AcDbEntity
  8
SANINDUSA
100
AcDbCircle
 10
2029.027677211176
 20
1739.137665712196
 30
0.0
 40
0.0107524007358432
  0
CIRCLE
  5
AE5
330
23
100
AcDbEntity
  8
SANINDUSA
100
AcDbCircle
 10
2029.107678444682
 20
1739.297700320917
 30
0.0
 40
0.010749124024471
  0
CIRCLE
  5
AE7
330
23
100
AcDbEntity
  8
SANINDUSA
100
AcDbCircle
 10
2029.107676286276
 20
1739.057655117696
 30
0.0
 40
0.0107496134843853
  0
CIRCLE
  5
AE9
330
23
100
AcDbEntity
  8
SANINDUSA
100
AcDbCircle
 10
2029.187674723763
 20
1739.457696467466
 30
0.0
 40
0.0107500276394824
  0
CIRCLE
  5
AEB
330
23
100
AcDbEntity
  8
SANINDUSA
100
AcDbCircle
 10
2029.187674130166
 20
1738.897660571604
 30
0.0
 40
0.0107509785322807
  0
CIRCLE
  5
AED
330
23
100
AcDbEntity
  8
SANINDUSA
100
AcDbCircle
 10
2029.107663034464
 20
1739.217694848959
 30
0.0
 40
0.0107510636832573
  0
CIRCLE
  5
AEF
330
23
100
AcDbEntity
  8
SANINDUSA
100
AcDbCircle
 10
2029.107659504079
 20
1739.137667437321
 30
0.0
 40
0.0107520905446663
  0
CIRCLE
  5
AF1
330
23
100
AcDbEntity
  8
SANINDUSA
100
AcDbCircle
 10
2029.187663689722
 20
1739.377689190957
 30
0.0
 40
0.0107493783535286
  0
CIRCLE
  5
AF3
330
23
100
AcDbEntity
  8
SANINDUSA
100
AcDbCircle
 10
2029.187663687876
 20
1738.97766772361
 30
0.0
 40
0.0107496185771035
  0
CIRCLE
  5
AF5
330
23
100
AcDbEntity
  8
SANINDUSA
100
AcDbCircle
 10
2029.187656901277
 20
1739.297695849696
 30
0.0
 40
0.0107491334380451
  0
CIRCLE
  5
AF7
330
23
100
AcDbEntity
  8
SANINDUSA
100
AcDbCircle
 10
2029.187657096393
 20
1739.057659332431
 30
0.0
 40
0.0107494151424929
  0
CIRCLE
  5
AF9
330
23
100
AcDbEntity
  8
SANINDUSA
100
AcDbCircle
 10
2029.187644285826
 20
1739.217688970191
 30
0.0
 40
0.0107509008179449
  0
CIRCLE
  5
AFB
330
23
100
AcDbEntity
  8
SANINDUSA
100
AcDbCircle
 10
2029.187641741541
 20
1739.137670847059
 30
0.0
 40
0.0107518954113993
  0
CIRCLE
  5
AFC
330
23
100
AcDbEntity
  8
SANINDUSA
100
AcDbCircle
 10
2029.336159389738
 20
1739.177689420174
 30
0.0
 40
0.0739926825045326
  0
CIRCLE
  5
AFE
330
23
100
AcDbEntity
  8
SANINDUSA
100
AcDbCircle
 10
2029.336101437785
 20
1739.177678206368
 30
0.0
 40
0.05
  0
ARC
  5
AFF
330
23
100
AcDbEntity
  8
SANINDUSA
100
AcDbCircle
 10
2029.895981151374
 20
1739.092936979007
 30
0.0
 40
0.0209000494317601
100
AcDbArc
 50
181.8544091716829
 51
269.6173514820635
  0
ARC
  5
B00
330
23
100
AcDbEntity
  8
SANINDUSA
100
AcDbCircle
 10
2030.616145909439
 20
1739.092936196906
 30
0.0
 40
0.0209001071763963
100
AcDbArc
 50
270.393867491039
 51
358.1478433105514
  0
LINE
  5
B01
330
23
100
AcDbEntity
  8
SANINDUSA
100
AcDbLine
 10
2030.179847087199
 20
1739.06976235343
 30
0.0
 11
2030.193193289272
 21
1739.060417238229
 31
0.0
  0
LINE
  5
B02
330
23
100
AcDbEntity
  8
SANINDUSA
100
AcDbLine
 10
2030.318933827516
 20
1739.060417238229
 30
0.0
 11
2030.332252468401
 21
1739.069743056427
 31
0.0
  0
LINE
  5
B03
330
23
100
AcDbEntity
  8
SANINDUSA
100
AcDbLine
 10
2030.193193289272
 20
1739.060417238229
 30
0.0
 11
2030.204367790132
 21
1739.048434053157
 31
0.0
  0
LINE
  5
B04
330
23
100
AcDbEntity
  8
SANINDUSA
100
AcDbLine
 10
2030.307759326656
 20
1739.048434053157
 30
0.0
 11
2030.318933827516
 21
1739.060417238229
 31
0.0
  0
LINE
  5
B06
330
23
100
AcDbEntity
  8
SANINDUSA
100
AcDbLine
 10
2030.706183611418
 20
1739.16931179492
 30
0.0
 11
2030.706761743361
 21
1739.136189628969
 31
0.0
  0
LINE
  5
B08
330
23
100
AcDbEntity
  8
SANINDUSA
100
AcDbLine
 10
2030.701762522989
 20
1739.136189628969
 30
0.0
 11
2030.706761743361
 21
1739.136189628969
 31
0.0
  0
LINE
  5
B0B
330
23
100
AcDbEntity
  8
SANINDUSA
100
AcDbLine
 10
2029.805365355813
 20
1739.136189628969
 30
0.0
 11
2029.805943505369
 21
1739.16931179492
 31
0.0
  0
LINE
  5
B0C
330
23
100
AcDbEntity
  8
SANINDUSA
100
AcDbLine
 10
2029.805365355813
 20
1739.136189628969
 30
0.0
 11
2029.810364594171
 21
1739.136189628969
 31
0.0
  0
LINE
  5
B0E
330
23
100
AcDbEntity
  8
SANINDUSA
100
AcDbLine
 10
2029.810364594171
 20
1739.136189628969
 30
0.0
 11
2030.701762522989
 21
1739.136189628969
 31
0.0
  0
ARC
  5
B0F
330
23
100
AcDbEntity
  8
SANINDUSA
100
AcDbCircle
 10
2029.812942439235
 20
1739.169189628075
 30
0.0
 40
0.007
100
AcDbArc
 50
90.0
 51
179.0000000030781
  0
ARC
  5
B12
330
23
100
AcDbEntity
  8
SANINDUSA
100
AcDbCircle
 10
2030.699184677552
 20
1739.169189628075
 30
0.0
 40
0.0070000000000004
100
AcDbArc
 50
0.9999999969218754
 51
90.0
  0
LINE
  5
B13
330
23
100
AcDbEntity
  8
SANINDUSA
100
AcDbLine
 10
2029.812942439177
 20
1739.176189628075
 30
0.0
 11
2030.699184681708
 21
1739.176189628075
 31
0.0
  0
LINE
  5
B18
330
23
100
AcDbEntity
  8
SANINDUSA
100
AcDbLine
 10
2030.637141605577
 20
1739.095311397687
 30
0.0
 11
2030.638569082552
 21
1739.136189628969
 31
0.0
  0
LINE
  5
B1B
330
23
100
AcDbEntity
  8
SANINDUSA
100
AcDbLine
 10
2029.873558010393
 20
1739.136189628969
 30
0.0
 11
2029.874985537716
 21
1739.095310638922
 31
0.0
  0
LWPOLYLINE
  5
B26
330
23
100
AcDbEntity
  8
SANINDUSA
100
AcDbPolyline
 90
        4
 70
   128
 43
0.0
 10
2029.874985534185
 20
1739.095310640166
 10
2029.875052678818
 20
1739.093388017844
 10
2029.87508619898
 20
1739.092428077589
 10
2029.875092047685
 20
1739.092260655592
  0
LWPOLYLINE
  5
B27
330
23
100
AcDbEntity
  8
SANINDUSA
100
AcDbPolyline
 90
        4
 70
   128
 43
0.0
 10
2030.637035097414
 20
1739.092260692845
 10
2030.63704081946
 20
1739.092426028679
 10
2030.637074376875
 20
1739.093385961483
 10
2030.637141610915
 20
1739.095311400126
  0
LWPOLYLINE
  5
B2A
330
23
100
AcDbEntity
  8
SANINDUSA
100
AcDbPolyline
 90
       38
 70
   128
 43
0.0
 10
2030.179848011071
 20
1739.069763694535
 10
2030.17984517985
 20
1739.069763694535
 10
2030.180130626494
 20
1739.069764506649
 10
2030.180972720915
 20
1739.069765914808
 10
2030.182418878609
 20
1739.069768239389
 10
2030.184438522392
 20
1739.069771405886
 10
2030.186764027411
 20
1739.069774989615
 10
2030.189537073904
 20
1739.069779035281
 10
2030.192834164434
 20
1739.069783416222
 10
2030.196562285954
 20
1739.069788050483
 10
2030.200688745314
 20
1739.069792833756
 10
2030.205191727215
 20
1739.069797296654
 10
2030.210185881191
 20
1739.069801275264
 10
2030.215510364109
 20
1739.069804479013
 10
2030.22111028009
 20
1739.069806311856
 10
2030.226961191231
 20
1739.069805544447
 10
2030.233210440212
 20
1739.069801312516
 10
2030.239633675152
 20
1739.069793318044
 10
2030.245806093747
 20
1739.069781188498
 10
2030.25204664045
 20
1739.069767643343
 10
2030.258484031493
 20
1739.069766689669
 10
2030.264904971653
 20
1739.069779862295
 10
2030.271152581507
 20
1739.069792163204
 10
2030.277296956116
 20
1739.069800798426
 10
2030.283469404512
 20
1739.069806796144
 10
2030.289440597826
 20
1739.069808077644
 10
2030.295021887356
 20
1739.069806274603
 10
2030.300333197647
 20
1739.069803309272
 10
2030.305478151375
 20
1739.069799196552
 10
2030.310260619455
 20
1739.06979430152
 10
2030.314526941115
 20
1739.069789317082
 10
2030.318389202887
 20
1739.06978454126
 10
2030.321912433439
 20
1739.069780100714
 10
2030.324953939253
 20
1739.069776084851
 10
2030.327034737402
 20
1739.06977311952
 10
2030.328779186541
 20
1739.069770422409
 10
2030.33020218783
 20
1739.069768008421
 10
2030.33126022988
 20
1739.069766056369
  0
LINE
  5
B2B
330
23
100
AcDbEntity
  8
SANINDUSA
100
AcDbLine
 10
2030.204367790132
 20
1739.048434053157
 30
0.0
 11
2030.307759326656
 21
1739.048434053157
 31
0.0
  0
LWPOLYLINE
  5
B99
330
23
100
AcDbEntity
  8
SANINDUSA
100
AcDbPolyline
 90
        3
 70
   128
 43
0.0
 10
2033.79207725277
 20
1739.069798093866
 10
2033.75089890709
 20
1739.070659574698
 10
2033.229919860268
 20
1739.081573460827
  0
LWPOLYLINE
  5
B9A
330
23
100
AcDbEntity
  8
SANINDUSA
100
AcDbPolyline
 90
        3
 70
   128
 43
0.0
 10
2033.962991783524
 20
1739.071939457784
 10
2033.953924367333
 20
1739.070392530988
 10
2033.944647977257
 20
1739.06978133751
  0
LWPOLYLINE
  5
B9B
330
23
100
AcDbEntity
  8
SANINDUSA
100
AcDbPolyline
 90
        3
 70
   128
 43
0.0
 10
2033.79207725277
 20
1739.069798093866
 10
2033.792106339836
 20
1739.06979314668
 10
2033.79213256588
 20
1739.069780033658
  0
LWPOLYLINE
  5
B9C
330
23
100
AcDbEntity
  8
SANINDUSA
100
AcDbPolyline
 90
        3
 70
   128
 43
0.0
 10
2033.944592068101
 20
1739.069763262402
 10
2033.944618413354
 20
1739.069776427578
 10
2033.944647977257
 20
1739.06978133751
  0
LINE
  5
B9D
330
23
100
AcDbEntity
  8
SANINDUSA
100
AcDbLine
 10
2033.79213256588
 20
1739.069780033658
 30
0.0
 11
2033.805504033471
 21
1739.0604172392
 31
0.0
  0
LINE
  5
B9E
330
23
100
AcDbEntity
  8
SANINDUSA
100
AcDbLine
 10
2033.931244561578
 20
1739.0604172392
 30
0.0
 11
2033.944592068101
 21
1739.069763262402
 31
0.0
  0
LWPOLYLINE
  5
B9F
330
23
100
AcDbEntity
  8
SANINDUSA
100
AcDbPolyline
 90
        3
 70
   128
 43
0.0
 10
2033.792156884576
 20
1739.073697280716
 10
2033.79331893673
 20
1739.073499832879
 10
2033.794369528199
 20
1739.072974723409
  0
LWPOLYLINE
  5
BA0
330
23
100
AcDbEntity
  8
SANINDUSA
100
AcDbPolyline
 90
       38
 70
   128
 43
0.0
 10
2033.792156884576
 20
1739.073697280716
 10
2033.7926730608
 20
1739.073696289788
 10
2033.7936663126
 20
1739.073695552181
 10
2033.79517144909
 20
1739.07369489653
 10
2033.797246882821
 20
1739.073693652283
 10
2033.799839923287
 20
1739.073692229222
 10
2033.802845427895
 20
1739.073691215943
 10
2033.806302735711
 20
1739.073690336774
 10
2033.810308763886
 20
1739.073689338396
 10
2033.814738819504
 20
1739.073688191007
 10
2033.819422075654
 20
1739.073686969112
 10
2033.824442932511
 20
1739.073685784469
 10
2033.829926798249
 20
1739.073684711586
 10
2033.835691521073
 20
1739.073683698307
 10
2033.841524431611
 20
1739.073682640325
 10
2033.847542831803
 20
1739.073681604694
 10
2033.853886911774
 20
1739.073680844734
 10
2033.860336968804
 20
1739.073680732976
 10
2033.870511720086
 20
1739.073681858014
 10
2033.875690052415
 20
1739.073682677577
 10
2033.880834410096
 20
1739.073683936726
 10
2033.885982820893
 20
1739.073685769568
 10
2033.89104730835
 20
1739.073688027094
 10
2033.896100113297
 20
1739.073690634798
 10
2033.901015469933
 20
1739.073693480919
 10
2033.906622836495
 20
1739.073697109352
 10
2033.911965081597
 20
1739.07370105816
 10
2033.917146394158
 20
1739.073705506157
 10
2033.921969840432
 20
1739.073710103165
 10
2033.92627567997
 20
1739.07371428294
 10
2033.930181333924
 20
1739.073717725108
 10
2033.933753201867
 20
1739.073720265757
 10
2033.936850378418
 20
1739.073721830379
 10
2033.939379522706
 20
1739.073720869254
 10
2033.941423842812
 20
1739.073715787958
 10
2033.943007657433
 20
1739.07370799465
 10
2033.944057176018
 20
1739.073696617614
 10
2033.944592664147
 20
1739.073680941592
  0
LWPOLYLINE
  5
BA1
330
23
100
AcDbEntity
  8
SANINDUSA
100
AcDbPolyline
 90
        3
 70
   128
 43
0.0
 10
2033.942355105782
 20
1739.072957952152
 10
2033.943409869576
 20
1739.07348444743
 10
2033.944592664147
 20
1739.073680941592
  0
LINE
  5
BA3
330
23
100
AcDbEntity
  8
SANINDUSA
100
AcDbLine
 10
2033.794369528199
 20
1739.072974723409
 30
0.0
 11
2033.808076723655
 21
1739.063376818482
 31
0.0
  0
LINE
  5
BA4
330
23
100
AcDbEntity
  8
SANINDUSA
100
AcDbLine
 10
2033.928671814172
 20
1739.063376818482
 30
0.0
 11
2033.942355105782
 21
1739.072957952152
 31
0.0
  0
LWPOLYLINE
  5
BA6
330
23
100
AcDbEntity
  8
SANINDUSA
100
AcDbPolyline
 90
        4
 70
   128
 43
0.0
 10
2033.792156884576
 20
1739.073697280716
 10
2033.685163209344
 20
1739.075938087534
 10
2033.495688149834
 20
1739.079907205533
 10
2033.230001518631
 20
1739.085472602974
  0
LWPOLYLINE
  5
BAC
330
23
100
AcDbEntity
  8
SANINDUSA
100
AcDbPolyline
 90
        3
 70
   128
 43
0.0
 10
2033.962141582871
 20
1739.075745668839
 10
2033.953467080499
 20
1739.074265633355
 10
2033.944592664147
 20
1739.073680941592
  0
ARC
  5
BF4
330
23
100
AcDbEntity
  8
SANINDUSA
100
AcDbCircle
 10
2033.95843579462
 20
1739.092336711619
 30
0.0
 40
0.0169998696201046
100
AcDbArc
 50
282.5909573765259
 51
358.0003907612973
  0
LINE
  5
BF5
330
23
100
AcDbEntity
  8
SANINDUSA
100
AcDbLine
 10
2034.048494321938
 20
1739.16931179492
 30
0.0
 11
2034.049072453881
 21
1739.136189628969
 31
0.0
  0
LINE
  5
BF6
330
23
100
AcDbEntity
  8
SANINDUSA
100
AcDbLine
 10
2034.049072453881
 20
1739.136189628969
 30
0.0
 11
2034.045171925927
 21
1739.136189628969
 31
0.0
  0
LINE
  5
BF7
330
23
100
AcDbEntity
  8
SANINDUSA
100
AcDbLine
 10
2034.044594915927
 20
1739.169243730535
 30
0.0
 11
2034.045171925927
 21
1739.136189628969
 31
0.0
  0
ARC
  5
BF8
330
23
100
AcDbEntity
  8
SANINDUSA
100
AcDbCircle
 10
2034.041495388072
 20
1739.169189628075
 30
0.0
 40
0.0031000000000004
100
AcDbArc
 50
0.9999999969218754
 51
90.0
  0
LINE
  5
BF9
330
23
100
AcDbEntity
  8
SANINDUSA
100
AcDbLine
 10
2033.985134106695
 20
1739.172289628075
 30
0.0
 11
2034.041495388072
 21
1739.172289628075
 31
0.0
  0
ARC
  5
BFA
330
23
100
AcDbEntity
  8
SANINDUSA
100
AcDbCircle
 10
2033.985134106695
 20
1739.169189628075
 30
0.0
 40
0.0031000000000001
100
AcDbArc
 50
90.0
 51
177.9999999962464
  0
LINE
  5
BFB
330
23
100
AcDbEntity
  8
SANINDUSA
100
AcDbLine
 10
2033.979322979355
 20
1739.091607433389
 30
0.0
 11
2033.982035995131
 21
1739.169297816515
 31
0.0
  0
ARC
  5
BFC
330
23
100
AcDbEntity
  8
SANINDUSA
100
AcDbCircle
 10
2033.958435794821
 20
1739.092336745365
 30
0.0
 40
0.0208999132467415
100
AcDbArc
 50
282.5910500689425
 51
358.0002317282998
  0
LINE
  5
BFD
330
23
100
AcDbEntity
  8
SANINDUSA
100
AcDbLine
 10
2033.920070001984
 20
1739.048434045743
 30
0.0
 11
2033.931244561578
 21
1739.0604172392
 31
0.0
  0
LINE
  5
BFE
330
23
100
AcDbEntity
  8
SANINDUSA
100
AcDbLine
 10
2033.816678473855
 20
1739.048434045743
 30
0.0
 11
2033.920070001984
 21
1739.048434045743
 31
0.0
  0
LINE
  5
BFF
330
23
100
AcDbEntity
  8
SANINDUSA
100
AcDbLine
 10
2033.805504033471
 20
1739.0604172392
 30
0.0
 11
2033.816678473855
 21
1739.048434045743
 31
0.0
  0
ARC
  5
C00
330
23
100
AcDbEntity
  8
SANINDUSA
100
AcDbCircle
 10
2033.230362073001
 20
1739.102473386476
 30
0.0
 40
0.0209046034210954
100
AcDbArc
 50
181.9396340354332
 51
268.7878835775876
  0
ARC
  5
C01
330
23
100
AcDbEntity
  8
SANINDUSA
100
AcDbCircle
 10
2033.206371149318
 20
1739.101661502579
 30
0.0
 40
0.003100053980797
100
AcDbArc
 50
1.928712861255299
 51
88.99878176725593
  0
LINE
  5
C02
330
23
100
AcDbEntity
  8
SANINDUSA
100
AcDbLine
 10
2033.206425318623
 20
1739.104761083256
 30
0.0
 11
2032.756954383015
 21
1739.112606628244
 31
0.0
  0
ARC
  5
C03
330
23
100
AcDbEntity
  8
SANINDUSA
100
AcDbCircle
 10
2032.756900280555
 20
1739.109507100389
 30
0.0
 40
0.0031000000000004
100
AcDbArc
 50
89.00000000307812
 51
154.6842608275599
  0
ARC
  5
C04
330
23
100
AcDbEntity
  8
SANINDUSA
100
AcDbCircle
 10
2032.741532873512
 20
1739.116776405774
 30
0.0
 40
0.0139000000000001
100
AcDbArc
 50
269.0000000030781
 51
334.6842608275599
  0
LINE
  5
C05
330
23
100
AcDbEntity
  8
SANINDUSA
100
AcDbLine
 10
2032.741290285062
 20
1739.102878522811
 30
0.0
 11
2032.736847515342
 21
1739.102956071645
 31
0.0
  0
ARC
  5
C06
330
23
100
AcDbEntity
  8
SANINDUSA
100
AcDbCircle
 10
2032.737212270637
 20
1739.123852888473
 30
0.0
 40
0.0209
100
AcDbArc
 50
182.0000000037536
 51
269.0000000030781
  0
LINE
  5
C07
330
23
100
AcDbEntity
  8
SANINDUSA
100
AcDbLine
 10
2032.714712559304
 20
1739.169297816515
 30
0.0
 11
2032.716325002352
 21
1739.123123488992
 31
0.0
  0
ARC
  5
C08
330
23
100
AcDbEntity
  8
SANINDUSA
100
AcDbCircle
 10
2032.71161444774
 20
1739.169189628075
 30
0.0
 40
0.0031
100
AcDbArc
 50
2.000000003753602
 51
90.0
  0
LINE
  5
C09
330
23
100
AcDbEntity
  8
SANINDUSA
100
AcDbLine
 10
2032.655253149755
 20
1739.172289628075
 30
0.0
 11
2032.71161444774
 21
1739.172289628075
 31
0.0
  0
ARC
  5
C0A
330
23
100
AcDbEntity
  8
SANINDUSA
100
AcDbCircle
 10
2032.655253149755
 20
1739.169189628075
 30
0.0
 40
0.0031
100
AcDbArc
 50
90.0
 51
179.0000000030781
  0
LINE
  5
C0B
330
23
100
AcDbEntity
  8
SANINDUSA
100
AcDbLine
 10
2032.65157666047
 20
1739.136189628969
 30
0.0
 11
2032.652153621901
 21
1739.169243730535
 31
0.0
  0
LINE
  5
C0C
330
23
100
AcDbEntity
  8
SANINDUSA
100
AcDbLine
 10
2032.65157666047
 20
1739.136189628969
 30
0.0
 11
2032.647676066333
 21
1739.136189628969
 31
0.0
  0
LINE
  5
C0D
330
23
100
AcDbEntity
  8
SANINDUSA
100
AcDbLine
 10
2032.647676066333
 20
1739.136189628969
 30
0.0
 11
2032.64825421589
 21
1739.16931179492
 31
0.0
  0
ARC
  5
C0E
330
23
100
AcDbEntity
  8
SANINDUSA
100
AcDbCircle
 10
2032.655253149755
 20
1739.169189628075
 30
0.0
 40
0.0070000000000005
100
AcDbArc
 50
90.0
 51
179.0000000030781
  0
LINE
  5
C0F
330
23
100
AcDbEntity
  8
SANINDUSA
100
AcDbLine
 10
2032.655253149755
 20
1739.176189628075
 30
0.0
 11
2032.71161444774
 21
1739.176189628075
 31
0.0
  0
ARC
  5
C10
330
23
100
AcDbEntity
  8
SANINDUSA
100
AcDbCircle
 10
2032.71161444774
 20
1739.169189628075
 30
0.0
 40
0.0070000000000005
100
AcDbArc
 50
2.000000003753602
 51
90.0
  0
ARC
  5
C12
330
23
100
AcDbEntity
  8
SANINDUSA
100
AcDbCircle
 10
2032.737212270637
 20
1739.123852888473
 30
0.0
 40
0.017
100
AcDbArc
 50
182.0000000037536
 51
269.0000000030781
  0
LINE
  5
C13
330
23
100
AcDbEntity
  8
SANINDUSA
100
AcDbLine
 10
2032.741358349447
 20
1739.106777928822
 30
0.0
 11
2032.736915579727
 21
1739.106855477656
 31
0.0
  0
ARC
  5
C14
330
23
100
AcDbEntity
  8
SANINDUSA
100
AcDbCircle
 10
2032.741532873512
 20
1739.116776405774
 30
0.0
 40
0.0100000000000001
100
AcDbArc
 50
269.0000000030781
 51
334.6842608275599
  0
ARC
  5
C15
330
23
100
AcDbEntity
  8
SANINDUSA
100
AcDbCircle
 10
2032.756900280555
 20
1739.109507100389
 30
0.0
 40
0.0070000000000004
100
AcDbArc
 50
89.00000000307812
 51
154.6842608275599
  0
LINE
  5
C16
330
23
100
AcDbEntity
  8
SANINDUSA
100
AcDbLine
 10
2033.206493387128
 20
1739.108660493623
 30
0.0
 11
2032.7570224474
 21
1739.116506034256
 31
0.0
  0
ARC
  5
C17
330
23
100
AcDbEntity
  8
SANINDUSA
100
AcDbCircle
 10
2033.206371273761
 20
1739.101661640592
 30
0.0
 40
0.0069999182433051
100
AcDbArc
 50
1.927057294868923
 51
89.00042612107176
  0
ARC
  5
C18
330
23
100
AcDbEntity
  8
SANINDUSA
100
AcDbCircle
 10
2033.230361322649
 20
1739.10247263051
 30
0.0
 40
0.0170038347192523
100
AcDbArc
 50
181.9399095306987
 51
268.7875211219712
  0
LINE
  5
C19
330
23
100
AcDbEntity
  8
SANINDUSA
100
AcDbLine
 10
2033.808076723655
 20
1739.063376818482
 30
0.0
 11
2033.818374225999
 21
1739.052334052156
 31
0.0
  0
LINE
  5
C1A
330
23
100
AcDbEntity
  8
SANINDUSA
100
AcDbLine
 10
2033.818374225999
 20
1739.052334052156
 30
0.0
 11
2033.91837424984
 21
1739.052334052156
 31
0.0
  0
LINE
  5
C1B
330
23
100
AcDbEntity
  8
SANINDUSA
100
AcDbLine
 10
2033.91837424984
 20
1739.052334052156
 30
0.0
 11
2033.928671814172
 21
1739.063376818482
 31
0.0
  0
ARC
  5
C1C
330
23
100
AcDbEntity
  8
SANINDUSA
100
AcDbCircle
 10
2033.985134106695
 20
1739.169189628075
 30
0.0
 40
0.0070000000000005
100
AcDbArc
 50
90.0
 51
177.9999999962464
  0
LINE
  5
C1D
330
23
100
AcDbEntity
  8
SANINDUSA
100
AcDbLine
 10
2033.985134106695
 20
1739.176189628075
 30
0.0
 11
2034.041495388072
 21
1739.176189628075
 31
0.0
  0
ARC
  5
C1E
330
23
100
AcDbEntity
  8
SANINDUSA
100
AcDbCircle
 10
2034.041495388072
 20
1739.169189628075
 30
0.0
 40
0.0070000000000005
100
AcDbArc
 50
0.9999999969218754
 51
90.0
  0
LINE
  5
C1F
330
23
100
AcDbEntity
  8
SANINDUSA
100
AcDbLine
 10
2033.975425303566
 20
1739.091743286948
 30
0.0
 11
2033.978138370906
 21
1739.169433924552
 31
0.0
  0
LINE
  5
C20
330
23
100
AcDbEntity
  8
SANINDUSA
100
AcDbLine
 10
2032.720222626577
 20
1739.12325959703
 30
0.0
 11
2032.718610183529
 21
1739.169433924552
 31
0.0
  0
LWPOLYLINE
  5
C55
330
23
100
AcDbEntity
  8
SANINDUSA
100
AcDbPolyline
 90
       12
 70
   128
 43
0.0
 10
2032.741290288175
 20
1739.102878522704
 10
2032.741493823135
 20
1739.102874968778
 10
2032.742100300396
 20
1739.102864381503
 10
2032.743097366894
 20
1739.102846976946
 10
2032.744464727247
 20
1739.102823112737
 10
2032.746174546087
 20
1739.102793265711
 10
2032.748192021752
 20
1739.102758054267
 10
2032.75047607174
 20
1739.10271818621
 10
2032.752980204428
 20
1739.102674473654
 10
2032.755653442944
 20
1739.102627810667
 10
2032.758441375698
 20
1739.102579150926
 10
2032.761287236715
 20
1739.102529477905
  0
ARC
  5
C59
330
23
100
AcDbEntity
  8
SANINDUSA
100
AcDbCircle
 10
2033.229247936705
 20
1739.13234699273
 30
0.0
 40
0.0486418190416976
100
AcDbArc
 50
237.8110048096805
 51
258.3361702015843
  0
LINE
  5
C5F
330
23
100
AcDbEntity
  8
SANINDUSA
100
AcDbLine
 10
2033.201459130814
 20
1739.092230597174
 30
0.0
 11
2033.203335783229
 21
1739.09118163786
 31
0.0
  0
LINE
  5
C60
330
23
100
AcDbEntity
  8
SANINDUSA
100
AcDbLine
 10
2033.198641753444
 20
1739.093454848666
 30
0.0
 11
2033.201459130814
 21
1739.092230597174
 31
0.0
  0
LWPOLYLINE
  5
C61
330
23
100
AcDbEntity
  8
SANINDUSA
100
AcDbPolyline
 90
        3
 70
   128
 43
0.0
 10
2033.190117666626
 20
1739.095044214855
 10
2033.194386134053
 20
1739.094617125224
 10
2033.198641726876
 20
1739.093454849552
  0
LINE
  5
C63
330
23
100
AcDbEntity
  8
SANINDUSA
100
AcDbLine
 10
2032.761287238965
 20
1739.102529474681
 30
0.0
 11
2033.190117680496
 21
1739.095044211481
 31
0.0
  0
LINE
  5
C70
330
23
100
AcDbEntity
  8
SANINDUSA
100
AcDbLine
 10
2033.958150554366
 20
1739.176189628075
 30
0.0
 11
2033.985134106695
 21
1739.176189628075
 31
0.0
  0
LINE
  5
C72
330
23
100
AcDbEntity
  8
SANINDUSA
100
AcDbLine
 10
2032.71161444774
 20
1739.176189628075
 30
0.0
 11
2032.738598000235
 21
1739.176189628075
 31
0.0
  0
LINE
  5
C73
330
23
100
AcDbEntity
  8
SANINDUSA
100
AcDbLine
 10
2032.738598000235
 20
1739.176189628075
 30
0.0
 11
2033.958150554366
 21
1739.176189628075
 31
0.0
  0
LINE
  5
C79
330
23
100
AcDbEntity
  8
SANINDUSA
100
AcDbLine
 10
2032.652676493058
 20
1739.136189628969
 30
0.0
 11
2032.65157666047
 21
1739.136189628969
 31
0.0
  0
LINE
  5
C7B
330
23
100
AcDbEntity
  8
SANINDUSA
100
AcDbLine
 10
2034.045171925927
 20
1739.136189628969
 30
0.0
 11
2034.044072101021
 21
1739.136189628969
 31
0.0
  0
LINE
  5
C7C
330
23
100
AcDbEntity
  8
SANINDUSA
100
AcDbLine
 10
2034.044072101021
 20
1739.136189628969
 30
0.0
 11
2033.980879852677
 21
1739.136189628969
 31
0.0
  0
LINE
  5
C7D
330
23
100
AcDbEntity
  8
SANINDUSA
100
AcDbLine
 10
2032.715868720913
 20
1739.136189628969
 30
0.0
 11
2032.652676493058
 21
1739.136189628969
 31
0.0
  0
LINE
  5
D10
330
23
100
AcDbEntity
  8
SANINDUSA
100
AcDbLine
 10
2030.616289581591
 20
1739.072036583553
 30
0.0
 11
2030.332252468401
 21
1739.069743056427
 31
0.0
  0
LINE
  5
D11
330
23
100
AcDbEntity
  8
SANINDUSA
100
AcDbLine
 10
2030.17984517985
 20
1739.069763694535
 30
0.0
 11
2029.895841571921
 21
1739.072037395667
 31
0.0
  0
LINE
  5
D12
330
23
100
AcDbEntity
  8
SANINDUSA
100
AcDbLine
 10
2031.570082649671
 20
1739.081571784447
 30
0.0
 11
2032.132339224302
 21
1739.069749709796
 31
0.0
  0
ARC
  5
D13
330
23
100
AcDbEntity
  8
SANINDUSA
100
AcDbCircle
 10
2032.269136602311
 20
1739.278705249083
 30
0.0
 40
0.2095483971030507
100
AcDbArc
 50
274.2642206403111
 51
279.3303804347806
  0
ENDSEC
  0
SECTION
  2
OBJECTS
  0
DICTIONARY
  5
C
330
0
100
AcDbDictionary
281
     1
  3
ACAD_COLOR
350
1C
  3
ACAD_GROUP
350
D
  3
ACAD_LAYOUT
350
1A
  3
ACAD_MATERIAL
350
1B
  3
ACAD_MLINESTYLE
350
17
  3
ACAD_PLOTSETTINGS
350
19
  3
ACAD_PLOTSTYLENAME
350
E
  3
ACAD_TABLESTYLE
350
1D
  3
ACDBHEADERROUNDTRIPXREC
350
7943
  3
AcDbVariableDictionary
350
793D
  0
DICTIONARY
  5
2F3
330
2
100
AcDbDictionary
280
     1
281
     1
  3
ACAD_LAYERSTATES
360
2F4
  0
DICTIONARY
  5
1C
102
{ACAD_REACTORS
330
C
102
}
330
C
100
AcDbDictionary
281
     1
  0
DICTIONARY
  5
D
102
{ACAD_REACTORS
330
C
102
}
330
C
100
AcDbDictionary
281
     1
  0
DICTIONARY
  5
1A
102
{ACAD_REACTORS
330
C
102
}
330
C
100
AcDbDictionary
281
     1
  3
Layout1
350
22
  3
Layout2
350
2A
  3
Model
350
26
  0
DICTIONARY
  5
1B
102
{ACAD_REACTORS
330
C
102
}
330
C
100
AcDbDictionary
281
     1
  0
DICTIONARY
  5
17
102
{ACAD_REACTORS
330
C
102
}
330
C
100
AcDbDictionary
281
     1
  3
Standard
350
18
  0
DICTIONARY
  5
19
102
{ACAD_REACTORS
330
C
102
}
330
C
100
AcDbDictionary
281
     1
  0
ACDBDICTIONARYWDFLT
  5
E
102
{ACAD_REACTORS
330
C
102
}
330
C
100
AcDbDictionary
281
     1
  3
Normal
350
F
100
AcDbDictionaryWithDefault
340
F
  0
DICTIONARY
  5
1D
102
{ACAD_REACTORS
330
C
102
}
330
C
100
AcDbDictionary
281
     1
  3
Standard
350
1E
  0
DICTIONARY
  5
7943
102
{ACAD_REACTORS
330
C
102
}
330
C
100
AcDbDictionary
281
     1
  0
DICTIONARY
  5
793D
102
{ACAD_REACTORS
330
C
102
}
330
C
100
AcDbDictionary
281
     1
  3
CTABLESTYLE
350
793E
  3
DIMASSOC
350
7940
  3
HIDETEXT
350
793F
  3
PROJECTNAME
350
7941
  0
DICTIONARY
  5
2F4
102
{ACAD_REACTORS
330
2F3
102
}
330
2F3
100
AcDbDictionary
281
     1
  0
LAYOUT
  5
22
102
{ACAD_XDICTIONARY
360
7944
102
}
102
{ACAD_REACTORS
330
1A
102
}
330
1A
100
AcDbPlotSettings
  1

  2
C:\Documents and Settings\Julio\Application Data\Autodesk\AutoCAD 2006\R16.2\enu\plotters\Default Windows System Printer.pc3
  4

  6

 40
0.0
 41
0.0
 42
0.0
 43
0.0
 44
0.0
 45
0.0
 46
0.0
 47
0.0
 48
0.0
 49
0.0
140
0.0
141
0.0
142
1.0
143
1.0
 70
   688
 72
     0
 73
     0
 74
     5
  7

 75
    16
147
1.0
148
0.0
149
0.0
100
AcDbLayout
  1
Layout1
 70
     1
 71
     1
 10
0.0
 20
0.0
 11
420.0
 21
297.0
 12
0.0
 22
0.0
 32
0.0
 14
1.000000000000000E+20
 24
1.000000000000000E+20
 34
1.000000000000000E+20
 15
-1.000000000000000E+20
 25
-1.000000000000000E+20
 35
-1.000000000000000E+20
146
0.0
 13
0.0
 23
0.0
 33
0.0
 16
1.0
 26
0.0
 36
0.0
 17
0.0
 27
1.0
 37
0.0
 76
     0
330
1F
  0
LAYOUT
  5
2A
102
{ACAD_XDICTIONARY
360
7948
102
}
102
{ACAD_REACTORS
330
1A
102
}
330
1A
100
AcDbPlotSettings
  1

  2
C:\Documents and Settings\Julio\Application Data\Autodesk\AutoCAD 2006\R16.2\enu\plotters\Default Windows System Printer.pc3
  4

  6

 40
0.0
 41
0.0
 42
0.0
 43
0.0
 44
0.0
 45
0.0
 46
0.0
 47
0.0
 48
0.0
 49
0.0
140
0.0
141
0.0
142
1.0
143
1.0
 70
   688
 72
     0
 73
     0
 74
     5
  7

 75
    16
147
1.0
148
0.0
149
0.0
100
AcDbLayout
  1
Layout2
 70
     1
 71
     2
 10
0.0
 20
0.0
 11
12.0
 21
9.0
 12
0.0
 22
0.0
 32
0.0
 14
0.0
 24
0.0
 34
0.0
 15
0.0
 25
0.0
 35
0.0
146
0.0
 13
0.0
 23
0.0
 33
0.0
 16
1.0
 26
0.0
 36
0.0
 17
0.0
 27
1.0
 37
0.0
 76
     0
330
27
  0
LAYOUT
  5
26
102
{ACAD_XDICTIONARY
360
7946
102
}
102
{ACAD_REACTORS
330
1A
102
}
330
1A
100
AcDbPlotSettings
  1

  2
C:\Documents and Settings\Julio\Application Data\Autodesk\AutoCAD 2006\R16.2\enu\plotters\Default Windows System Printer.pc3
  4

  6

 40
0.0
 41
0.0
 42
0.0
 43
0.0
 44
0.0
 45
0.0
 46
0.0
 47
0.0
 48
0.0
 49
0.0
140
0.0
141
0.0
142
1.0
143
1.0
 70
  1712
 72
     0
 73
     0
 74
     0
  7

 75
     0
147
1.0
148
0.0
149
0.0
100
AcDbLayout
  1
Model
 70
     1
 71
     0
 10
0.0
 20
0.0
 11
12.0
 21
9.0
 12
0.0
 22
0.0
 32
0.0
 14
0.0
 24
0.0
 34
0.0
 15
0.0
 25
0.0
 35
0.0
146
0.0
 13
0.0
 23
0.0
 33
0.0
 16
1.0
 26
0.0
 36
0.0
 17
0.0
 27
1.0
 37
0.0
 76
     0
330
23
  0
MLINESTYLE
  5
18
102
{ACAD_REACTORS
330
17
102
}
330
17
100
AcDbMlineStyle
  2
STANDARD
 70
     0
  3

 62
   256
 51
90.0
 52
90.0
 71
     2
 49
0.5
 62
   256
  6
BYLAYER
 49
-0.5
 62
   256
  6
BYLAYER
  0
ACDBPLACEHOLDER
  5
F
102
{ACAD_REACTORS
330
E
102
}
330
E
  0
TABLESTYLE
  5
1E
102
{ACAD_REACTORS
330
1D
102
}
330
1D
100
AcDbTableStyle
  3
Standard
 70
     0
 71
     0
 40
1.5
 41
1.5
280
     0
281
     0
  7
Standard
140
4.5
170
     2
 62
     0
 63
     7
283
     0
274
    -2
284
     1
 64
     0
275
    -2
285
     1
 65
     0
276
    -2
286
     1
 66
     0
277
    -2
287
     1
 67
     0
278
    -2
288
     1
 68
     0
279
    -2
289
     1
 69
     0
  7
Standard
140
6.0
170
     5
 62
     0
 63
     7
283
     0
274
    -2
284
     1
 64
     0
275
    -2
285
     1
 65
     0
276
    -2
286
     1
 66
     0
277
    -2
287
     1
 67
     0
278
    -2
288
     1
 68
     0
279
    -2
289
     1
 69
     0
  7
Standard
140
4.5
170
     5
 62
     0
 63
     7
283
     0
274
    -2
284
     1
 64
     0
275
    -2
285
     1
 65
     0
276
    -2
286
     1
 66
     0
277
    -2
287
     1
 67
     0
278
    -2
288
     1
 68
     0
279
    -2
289
     1
 69
     0
  0
DICTIONARYVAR
  5
793E
102
{ACAD_REACTORS
330
793D
102
}
330
793D
100
DictionaryVariables
280
     0
  1
STANDARD
  0
DICTIONARYVAR
  5
7940
102
{ACAD_REACTORS
330
793D
102
}
330
793D
100
DictionaryVariables
280
     0
  1
2
  0
DICTIONARYVAR
  5
793F
102
{ACAD_REACTORS
330
793D
102
}
330
793D
100
DictionaryVariables
280
     0
  1
1
  0
DICTIONARYVAR
  5
7941
102
{ACAD_REACTORS
330
793D
102
}
330
793D
100
DictionaryVariables
280
     0
  1

  0
DICTIONARY
  5
7944
330
22
100
AcDbDictionary
280
     1
281
     1
  3
ACAD_XREC_ROUNDTRIP
360
7945
  0
DICTIONARY
  5
7948
330
2A
100
AcDbDictionary
280
     1
281
     1
  3
ACAD_XREC_ROUNDTRIP
360
7949
  0
DICTIONARY
  5
7946
330
26
100
AcDbDictionary
280
     1
281
     1
  3
ACAD_XREC_ROUNDTRIP
360
7947
  0
XRECORD
  5
7945
102
{ACAD_REACTORS
330
7944
102
}
330
7944
100
AcDbXrecord
280
     1
102
SHADEPLOT
 70
     0
102
SHADEPLOTRESLEVEL
 70
     2
102
SHADEPLOTCUSTOMDPI
 70
   300
  0
XRECORD
  5
7949
102
{ACAD_REACTORS
330
7948
102
}
330
7948
100
AcDbXrecord
280
     1
102
SHADEPLOT
 70
     0
102
SHADEPLOTRESLEVEL
 70
     2
102
SHADEPLOTCUSTOMDPI
 70
   300
  0
XRECORD
  5
7947
102
{ACAD_REACTORS
330
7946
102
}
330
7946
100
AcDbXrecord
280
     1
102
SHADEPLOT
 70
     0
102
SHADEPLOTRESLEVEL
 70
     2
102
SHADEPLOTCUSTOMDPI
 70
   300
  0
ENDSEC
  0
EOF
