  0
SECTION
  2
HEADER
  9
$ACADVER
  1
AC1015
  9
$ACADMAINTVER
 70
    20
  9
$DWGCODEPAGE
  3
ANSI_1252
  9
$INSBASE
 10
0.0
 20
0.0
 30
0.0
  9
$EXTMIN
 10
1070.304606032657
 20
1737.06570203325
 30
0.0
  9
$EXTMAX
 10
1075.741283762767
 20
1737.965942165792
 30
0.0
  9
$LIMMIN
 10
0.0
 20
0.0
  9
$LIMMAX
 10
420.0
 20
297.0
  9
$ORTHOMODE
 70
     0
  9
$REGENMODE
 70
     1
  9
$FILLMODE
 70
     1
  9
$QTEXTMODE
 70
     0
  9
$MIRRTEXT
 70
     0
  9
$LTSCALE
 40
1.0
  9
$ATTMODE
 70
     1
  9
$TEXTSIZE
 40
2.5
  9
$TRACEWID
 40
1.0
  9
$TEXTSTYLE
  7
Standard
  9
$CLAYER
  8
0
  9
$CELTYPE
  6
ByLayer
  9
$CECOLOR
 62
   256
  9
$CELTSCALE
 40
1.0
  9
$DISPSILH
 70
     0
  9
$DIMSCALE
 40
1.0
  9
$DIMASZ
 40
2.5
  9
$DIMEXO
 40
0.625
  9
$DIMDLI
 40
3.75
  9
$DIMRND
 40
0.0
  9
$DIMDLE
 40
0.0
  9
$DIMEXE
 40
1.25
  9
$DIMTP
 40
0.0
  9
$DIMTM
 40
0.0
  9
$DIMTXT
 40
2.5
  9
$DIMCEN
 40
2.5
  9
$DIMTSZ
 40
0.0
  9
$DIMTOL
 70
     0
  9
$DIMLIM
 70
     0
  9
$DIMTIH
 70
     0
  9
$DIMTOH
 70
     0
  9
$DIMSE1
 70
     0
  9
$DIMSE2
 70
     0
  9
$DIMTAD
 70
     1
  9
$DIMZIN
 70
     8
  9
$DIMBLK
  1

  9
$DIMASO
 70
     1
  9
$DIMSHO
 70
     1
  9
$DIMPOST
  1

  9
$DIMAPOST
  1

  9
$DIMALT
 70
     0
  9
$DIMALTD
 70
     3
  9
$DIMALTF
 40
0.03937007874016
  9
$DIMLFAC
 40
1.0
  9
$DIMTOFL
 70
     1
  9
$DIMTVP
 40
0.0
  9
$DIMTIX
 70
     0
  9
$DIMSOXD
 70
     0
  9
$DIMSAH
 70
     0
  9
$DIMBLK1
  1

  9
$DIMBLK2
  1

  9
$DIMSTYLE
  2
ISO-25
  9
$DIMCLRD
 70
     0
  9
$DIMCLRE
 70
     0
  9
$DIMCLRT
 70
     0
  9
$DIMTFAC
 40
1.0
  9
$DIMGAP
 40
0.625
  9
$DIMJUST
 70
     0
  9
$DIMSD1
 70
     0
  9
$DIMSD2
 70
     0
  9
$DIMTOLJ
 70
     0
  9
$DIMTZIN
 70
     8
  9
$DIMALTZ
 70
     0
  9
$DIMALTTZ
 70
     0
  9
$DIMUPT
 70
     0
  9
$DIMDEC
 70
     2
  9
$DIMTDEC
 70
     2
  9
$DIMALTU
 70
     2
  9
$DIMALTTD
 70
     3
  9
$DIMTXSTY
  7
Standard
  9
$DIMAUNIT
 70
     0
  9
$DIMADEC
 70
     0
  9
$DIMALTRND
 40
0.0
  9
$DIMAZIN
 70
     0
  9
$DIMDSEP
 70
    44
  9
$DIMATFIT
 70
     3
  9
$DIMFRAC
 70
     0
  9
$DIMLDRBLK
  1

  9
$DIMLUNIT
 70
     2
  9
$DIMLWD
 70
    -2
  9
$DIMLWE
 70
    -2
  9
$DIMTMOVE
 70
     0
  9
$LUNITS
 70
     2
  9
$LUPREC
 70
     4
  9
$SKETCHINC
 40
1.0
  9
$FILLETRAD
 40
0.0
  9
$AUNITS
 70
     0
  9
$AUPREC
 70
     0
  9
$MENU
  1
.
  9
$ELEVATION
 40
0.0
  9
$PELEVATION
 40
0.0
  9
$THICKNESS
 40
0.0
  9
$LIMCHECK
 70
     0
  9
$CHAMFERA
 40
0.0
  9
$CHAMFERB
 40
0.0
  9
$CHAMFERC
 40
0.0
  9
$CHAMFERD
 40
0.0
  9
$SKPOLY
 70
     0
  9
$TDCREATE
 40
2454930.716822547
  9
$TDUCREATE
 40
2454930.675155880
  9
$TDUPDATE
 40
2454930.720227500
  9
$TDUUPDATE
 40
2454930.678560833
  9
$TDINDWG
 40
0.0034054977
  9
$TDUSRTIMER
 40
0.0034054977
  9
$USRTIMER
 70
     1
  9
$ANGBASE
 50
0.0
  9
$ANGDIR
 70
     0
  9
$PDMODE
 70
     0
  9
$PDSIZE
 40
0.0
  9
$PLINEWID
 40
0.0
  9
$SPLFRAME
 70
     0
  9
$SPLINETYPE
 70
     6
  9
$SPLINESEGS
 70
     8
  9
$HANDSEED
  5
752C
  9
$SURFTAB1
 70
     6
  9
$SURFTAB2
 70
     6
  9
$SURFTYPE
 70
     6
  9
$SURFU
 70
     6
  9
$SURFV
 70
     6
  9
$UCSBASE
  2

  9
$UCSNAME
  2

  9
$UCSORG
 10
0.0
 20
0.0
 30
0.0
  9
$UCSXDIR
 10
1.0
 20
0.0
 30
0.0
  9
$UCSYDIR
 10
0.0
 20
1.0
 30
0.0
  9
$UCSORTHOREF
  2

  9
$UCSORTHOVIEW
 70
     0
  9
$UCSORGTOP
 10
0.0
 20
0.0
 30
0.0
  9
$UCSORGBOTTOM
 10
0.0
 20
0.0
 30
0.0
  9
$UCSORGLEFT
 10
0.0
 20
0.0
 30
0.0
  9
$UCSORGRIGHT
 10
0.0
 20
0.0
 30
0.0
  9
$UCSORGFRONT
 10
0.0
 20
0.0
 30
0.0
  9
$UCSORGBACK
 10
0.0
 20
0.0
 30
0.0
  9
$PUCSBASE
  2

  9
$PUCSNAME
  2

  9
$PUCSORG
 10
0.0
 20
0.0
 30
0.0
  9
$PUCSXDIR
 10
1.0
 20
0.0
 30
0.0
  9
$PUCSYDIR
 10
0.0
 20
1.0
 30
0.0
  9
$PUCSORTHOREF
  2

  9
$PUCSORTHOVIEW
 70
     0
  9
$PUCSORGTOP
 10
0.0
 20
0.0
 30
0.0
  9
$PUCSORGBOTTOM
 10
0.0
 20
0.0
 30
0.0
  9
$PUCSORGLEFT
 10
0.0
 20
0.0
 30
0.0
  9
$PUCSORGRIGHT
 10
0.0
 20
0.0
 30
0.0
  9
$PUCSORGFRONT
 10
0.0
 20
0.0
 30
0.0
  9
$PUCSORGBACK
 10
0.0
 20
0.0
 30
0.0
  9
$USERI1
 70
     0
  9
$USERI2
 70
     0
  9
$USERI3
 70
     0
  9
$USERI4
 70
     0
  9
$USERI5
 70
     0
  9
$USERR1
 40
0.0
  9
$USERR2
 40
0.0
  9
$USERR3
 40
0.0
  9
$USERR4
 40
0.0
  9
$USERR5
 40
0.0
  9
$WORLDVIEW
 70
     1
  9
$SHADEDGE
 70
     3
  9
$SHADEDIF
 70
    70
  9
$TILEMODE
 70
     1
  9
$MAXACTVP
 70
    64
  9
$PINSBASE
 10
0.0
 20
0.0
 30
0.0
  9
$PLIMCHECK
 70
     0
  9
$PEXTMIN
 10
1.000000000000000E+20
 20
1.000000000000000E+20
 30
1.000000000000000E+20
  9
$PEXTMAX
 10
-1.000000000000000E+20
 20
-1.000000000000000E+20
 30
-1.000000000000000E+20
  9
$PLIMMIN
 10
0.0
 20
0.0
  9
$PLIMMAX
 10
420.0
 20
297.0
  9
$UNITMODE
 70
     0
  9
$VISRETAIN
 70
     1
  9
$PLINEGEN
 70
     0
  9
$PSLTSCALE
 70
     1
  9
$TREEDEPTH
 70
  3020
  9
$CMLSTYLE
  2
Standard
  9
$CMLJUST
 70
     0
  9
$CMLSCALE
 40
20.0
  9
$PROXYGRAPHICS
 70
     1
  9
$MEASUREMENT
 70
     1
  9
$CELWEIGHT
370
    -1
  9
$ENDCAPS
280
     0
  9
$JOINSTYLE
280
     0
  9
$LWDISPLAY
290
     0
  9
$INSUNITS
 70
     4
  9
$HYPERLINKBASE
  1

  9
$STYLESHEET
  1

  9
$XEDIT
290
     1
  9
$CEPSNTYPE
380
     0
  9
$PSTYLEMODE
290
     1
  9
$FINGERPRINTGUID
  2
{33F4DAF5-ED4D-4013-A958-DEF080836568}
  9
$VERSIONGUID
  2
{34F13DF0-CD9F-4DDD-9734-0714CC4C1964}
  9
$EXTNAMES
290
     1
  9
$PSVPSCALE
 40
0.0
  9
$OLESTARTUP
290
     0
  0
ENDSEC
  0
SECTION
  2
CLASSES
  0
CLASS
  1
ACDBDICTIONARYWDFLT
  2
AcDbDictionaryWithDefault
  3
ObjectDBX Classes
 90
        0
280
     0
281
     0
  0
CLASS
  1
TABLESTYLE
  2
AcDbTableStyle
  3
ObjectDBX Classes
 90
     2047
280
     0
281
     0
  0
CLASS
  1
DIMASSOC
  2
AcDbDimAssoc
  3
"AcDbDimAssoc|Product Desc:     AcDim ARX App For Dimension|Company:          Autodesk, Inc.|WEB Address:      www.autodesk.com"
 90
        0
280
     0
281
     0
  0
CLASS
  1
SORTENTSTABLE
  2
AcDbSortentsTable
  3
ObjectDBX Classes
 90
        0
280
     0
281
     0
  0
CLASS
  1
DICTIONARYVAR
  2
AcDbDictionaryVar
  3
ObjectDBX Classes
 90
        0
280
     0
281
     0
  0
CLASS
  1
ACDBPLACEHOLDER
  2
AcDbPlaceHolder
  3
ObjectDBX Classes
 90
        0
280
     0
281
     0
  0
CLASS
  1
LAYOUT
  2
AcDbLayout
  3
ObjectDBX Classes
 90
        0
280
     0
281
     0
  0
ENDSEC
  0
SECTION
  2
TABLES
  0
TABLE
  2
VPORT
  5
8
330
0
100
AcDbSymbolTable
 70
    10
  0
VPORT
  5
7524
330
8
100
AcDbSymbolTableRecord
100
AcDbViewportTableRecord
  2
*Active
 70
     0
 10
0.0
 20
0.0
 11
1.0
 21
1.0
 12
1073.022944897712
 22
1737.515822099521
 13
0.0
 23
0.0
 14
10.0
 24
10.0
 15
10.0
 25
10.0
 16
0.0
 26
0.0
 36
1.0
 17
0.0
 27
0.0
 37
0.0
 40
3.406507360652724
 41
1.602030456852791
 42
50.0
 43
0.0
 44
0.0
 50
0.0
 51
0.0
 71
     0
 72
  1000
 73
     1
 74
     3
 75
     0
 76
     0
 77
     0
 78
     0
281
     0
 65
     1
110
0.0
120
0.0
130
0.0
111
1.0
121
0.0
131
0.0
112
0.0
122
1.0
132
0.0
 79
     0
146
0.0
  0
ENDTAB
  0
TABLE
  2
LTYPE
  5
5
330
0
100
AcDbSymbolTable
 70
     4
  0
LTYPE
  5
14
330
5
100
AcDbSymbolTableRecord
100
AcDbLinetypeTableRecord
  2
ByBlock
 70
     0
  3

 72
    65
 73
     0
 40
0.0
  0
LTYPE
  5
15
330
5
100
AcDbSymbolTableRecord
100
AcDbLinetypeTableRecord
  2
ByLayer
 70
     0
  3

 72
    65
 73
     0
 40
0.0
  0
LTYPE
  5
16
330
5
100
AcDbSymbolTableRecord
100
AcDbLinetypeTableRecord
  2
Continuous
 70
     0
  3
Solid line
 72
    65
 73
     0
 40
0.0
  0
LTYPE
  5
2EE
330
5
100
AcDbSymbolTableRecord
100
AcDbLinetypeTableRecord
  2
DASHDOT
 70
     0
  3
Dash dot __ . __ . __ . __ . __ . __ . __ . __
 72
    65
 73
     4
 40
25.4
 49
12.7
 74
     0
 49
-6.349999999999999
 74
     0
 49
0.0
 74
     0
 49
-6.349999999999999
 74
     0
  0
LTYPE
  5
2EF
330
5
100
AcDbSymbolTableRecord
100
AcDbLinetypeTableRecord
  2
HIDDEN
 70
     0
  3
Hidden __ __ __ __ __ __ __ __ __ __ __ __ __ _
 72
    65
 73
     2
 40
9.524999999999998
 49
6.349999999999999
 74
     0
 49
-3.174999999999999
 74
     0
  0
ENDTAB
  0
TABLE
  2
LAYER
  5
2
102
{ACAD_XDICTIONARY
360
2FF
102
}
330
0
100
AcDbSymbolTable
 70
     9
  0
LAYER
  5
10
330
2
100
AcDbSymbolTableRecord
100
AcDbLayerTableRecord
  2
0
 70
     0
 62
     7
  6
Continuous
370
    -3
390
F
  0
LAYER
  5
2F0
330
2
100
AcDbSymbolTableRecord
100
AcDbLayerTableRecord
  2
1
 70
     0
 62
     1
  6
Continuous
370
    -3
390
F
  0
LAYER
  5
2F1
330
2
100
AcDbSymbolTableRecord
100
AcDbLayerTableRecord
  2
4
 70
     0
 62
     4
  6
Continuous
370
    -3
390
F
  0
LAYER
  5
2F2
330
2
100
AcDbSymbolTableRecord
100
AcDbLayerTableRecord
  2
cen
 70
     0
 62
     7
  6
DASHDOT
370
    -3
390
F
  0
LAYER
  5
2F3
330
2
100
AcDbSymbolTableRecord
100
AcDbLayerTableRecord
  2
9
 70
     0
 62
     9
  6
Continuous
370
    -3
390
F
  0
LAYER
  5
2F4
330
2
100
AcDbSymbolTableRecord
100
AcDbLayerTableRecord
  2
cotas
 70
     0
 62
     1
  6
Continuous
370
    -3
390
F
  0
LAYER
  5
2F5
330
2
100
AcDbSymbolTableRecord
100
AcDbLayerTableRecord
  2
Defpoints
 70
     0
 62
     7
  6
Continuous
290
     0
370
    -3
390
F
  0
LAYER
  5
2F6
330
2
100
AcDbSymbolTableRecord
100
AcDbLayerTableRecord
  2
SANINDUSA
 70
     0
 62
     3
  6
Continuous
370
    -3
390
F
  0
LAYER
  5
2F7
330
2
100
AcDbSymbolTableRecord
100
AcDbLayerTableRecord
  2
hid1
 70
     0
 62
     9
  6
HIDDEN
370
    -3
390
F
1001
AcAecLayerStandard
1000

1000

  0
ENDTAB
  0
TABLE
  2
STYLE
  5
3
330
0
100
AcDbSymbolTable
 70
     2
  0
STYLE
  5
11
330
3
100
AcDbSymbolTableRecord
100
AcDbTextStyleTableRecord
  2
Standard
 70
     0
 40
0.0
 41
1.0
 50
0.0
 71
     0
 42
2.5
  3
txt
  4

  0
STYLE
  5
2F8
330
3
100
AcDbSymbolTableRecord
100
AcDbTextStyleTableRecord
  2
SANINDUSA
 70
     0
 40
0.0
 41
1.0
 50
0.0
 71
     0
 42
2.5
  3
verdana.TTF
  4

1001
ACAD
1000
Verdana
1071
       34
  0
ENDTAB
  0
TABLE
  2
VIEW
  5
6
330
0
100
AcDbSymbolTable
 70
     0
  0
ENDTAB
  0
TABLE
  2
UCS
  5
7
330
0
100
AcDbSymbolTable
 70
     0
  0
ENDTAB
  0
TABLE
  2
APPID
  5
9
330
0
100
AcDbSymbolTable
 70
     7
  0
APPID
  5
12
330
9
100
AcDbSymbolTableRecord
100
AcDbRegAppTableRecord
  2
ACAD
 70
     0
  0
APPID
  5
2FA
330
9
100
AcDbSymbolTableRecord
100
AcDbRegAppTableRecord
  2
ACAD_DSTYLE_DIMEXT_LENGTH
 70
     0
  0
APPID
  5
2FB
330
9
100
AcDbSymbolTableRecord
100
AcDbRegAppTableRecord
  2
ACAD_DSTYLE_DIMEXT_ENABLED
 70
     0
  0
APPID
  5
2FC
330
9
100
AcDbSymbolTableRecord
100
AcDbRegAppTableRecord
  2
ACAD_DSTYLE_DIMJOGGED_JOGANGLE_SYMBOL
 70
     0
  0
APPID
  5
2FD
330
9
100
AcDbSymbolTableRecord
100
AcDbRegAppTableRecord
  2
ACAD_DSTYLE_DIMARC_LENGTH_SYMBOL
 70
     0
  0
APPID
  5
2FE
330
9
100
AcDbSymbolTableRecord
100
AcDbRegAppTableRecord
  2
AcAecLayerStandard
 70
     0
  0
APPID
  5
7506
330
9
100
AcDbSymbolTableRecord
100
AcDbRegAppTableRecord
  2
ACAD_EXEMPT_FROM_CAD_STANDARDS
 70
     0
  0
ENDTAB
  0
TABLE
  2
DIMSTYLE
  5
A
330
0
100
AcDbSymbolTable
 70
     3
100
AcDbDimStyleTable
 71
     1
340
2B
  0
DIMSTYLE
105
2B
330
A
100
AcDbSymbolTableRecord
100
AcDbDimStyleTableRecord
  2
ISO-25
 70
     0
 41
2.5
 42
0.625
 43
3.75
 44
1.25
 73
     0
 74
     0
 77
     1
 78
     8
140
2.5
141
2.5
143
0.03937007874016
147
0.625
171
     3
172
     1
271
     2
272
     2
274
     3
278
    44
283
     0
284
     8
340
11
  0
DIMSTYLE
105
2F9
102
{ACAD_REACTORS
330
705
330
708
330
70B
330
70E
330
711
330
715
330
728
330
72B
330
72E
330
731
330
734
330
737
330
73A
330
73B
330
73E
330
741
330
744
330
747
330
74A
330
74E
330
752
330
755
330
758
330
759
330
75C
330
763
330
766
330
769
330
76C
330
76F
330
772
330
775
330
785
330
790
330
793
330
796
330
799
330
79A
330
79D
330
7A0
330
7A3
330
7A6
330
7A9
330
7AC
330
7AF
330
7B0
330
7B3
330
7B6
330
7B9
330
7BC
330
7BF
330
7C0
330
7C1
330
7C2
330
7C3
330
7C4
330
7C5
330
7C6
330
7C9
330
7F0
330
801
330
812
102
}
330
A
100
AcDbSymbolTableRecord
100
AcDbDimStyleTableRecord
  2
SANINDUSA
 70
     0
 40
5.0
 41
2.0
 42
1.0
 43
1.0
 44
1.0
 73
     0
 74
     0
 77
     1
 78
     8
140
2.0
141
0.0
143
0.03937007874016
147
1.0
171
     3
172
     1
176
   256
177
   256
178
   256
179
     1
271
     1
272
     1
274
     3
278
    44
283
     0
284
     8
340
2F8
371
    -1
372
    -1
1001
ACAD_DSTYLE_DIMEXT_LENGTH
1070
   378
1040
1.0
1001
ACAD_DSTYLE_DIMEXT_ENABLED
1070
   383
1070
     0
1001
ACAD_DSTYLE_DIMARC_LENGTH_SYMBOL
1070
   379
1070
     0
1001
ACAD_DSTYLE_DIMJOGGED_JOGANGLE_SYMBOL
1070
   384
1040
1.570796326794896
  0
ENDTAB
  0
TABLE
  2
BLOCK_RECORD
  5
1
330
0
100
AcDbSymbolTable
 70
   128
  0
BLOCK_RECORD
  5
23
330
1
100
AcDbSymbolTableRecord
100
AcDbBlockTableRecord
  2
*Model_Space
340
26
  0
BLOCK_RECORD
  5
1F
330
1
100
AcDbSymbolTableRecord
100
AcDbBlockTableRecord
  2
*Paper_Space
340
22
  0
BLOCK_RECORD
  5
27
330
1
100
AcDbSymbolTableRecord
100
AcDbBlockTableRecord
  2
*Paper_Space0
340
2A
  0
BLOCK_RECORD
  5
2F
330
1
100
AcDbSymbolTableRecord
100
AcDbBlockTableRecord
  2
SW_CENTERMARKSYMBOL_0
340
0
102
{BLKREFS
331
527
102
}
  0
BLOCK_RECORD
  5
3A
330
1
100
AcDbSymbolTableRecord
100
AcDbBlockTableRecord
  2
*D2
340
0
  0
BLOCK_RECORD
  5
46
330
1
100
AcDbSymbolTableRecord
100
AcDbBlockTableRecord
  2
*D3
340
0
  0
BLOCK_RECORD
  5
4E
330
1
100
AcDbSymbolTableRecord
100
AcDbBlockTableRecord
  2
*D4
340
0
  0
BLOCK_RECORD
  5
56
330
1
100
AcDbSymbolTableRecord
100
AcDbBlockTableRecord
  2
*D5
340
0
  0
BLOCK_RECORD
  5
63
330
1
100
AcDbSymbolTableRecord
100
AcDbBlockTableRecord
  2
*D6
340
0
  0
BLOCK_RECORD
  5
70
330
1
100
AcDbSymbolTableRecord
100
AcDbBlockTableRecord
  2
*D7
340
0
  0
BLOCK_RECORD
  5
82
330
1
100
AcDbSymbolTableRecord
100
AcDbBlockTableRecord
  2
*D8
340
0
  0
BLOCK_RECORD
  5
8E
330
1
100
AcDbSymbolTableRecord
100
AcDbBlockTableRecord
  2
*D9
340
0
  0
BLOCK_RECORD
  5
9B
330
1
100
AcDbSymbolTableRecord
100
AcDbBlockTableRecord
  2
*D10
340
0
  0
BLOCK_RECORD
  5
A7
330
1
100
AcDbSymbolTableRecord
100
AcDbBlockTableRecord
  2
*D11
340
0
  0
BLOCK_RECORD
  5
B3
330
1
100
AcDbSymbolTableRecord
100
AcDbBlockTableRecord
  2
*D12
340
0
  0
BLOCK_RECORD
  5
C1
330
1
100
AcDbSymbolTableRecord
100
AcDbBlockTableRecord
  2
*D13
340
0
  0
BLOCK_RECORD
  5
CF
330
1
100
AcDbSymbolTableRecord
100
AcDbBlockTableRecord
  2
*D14
340
0
  0
BLOCK_RECORD
  5
DB
330
1
100
AcDbSymbolTableRecord
100
AcDbBlockTableRecord
  2
*D15
340
0
  0
BLOCK_RECORD
  5
E7
330
1
100
AcDbSymbolTableRecord
100
AcDbBlockTableRecord
  2
*D16
340
0
  0
BLOCK_RECORD
  5
F0
330
1
100
AcDbSymbolTableRecord
100
AcDbBlockTableRecord
  2
*D17
340
0
  0
BLOCK_RECORD
  5
F9
330
1
100
AcDbSymbolTableRecord
100
AcDbBlockTableRecord
  2
*D18
340
0
  0
BLOCK_RECORD
  5
101
330
1
100
AcDbSymbolTableRecord
100
AcDbBlockTableRecord
  2
*D19
340
0
  0
BLOCK_RECORD
  5
10A
330
1
100
AcDbSymbolTableRecord
100
AcDbBlockTableRecord
  2
*D20
340
0
  0
BLOCK_RECORD
  5
112
330
1
100
AcDbSymbolTableRecord
100
AcDbBlockTableRecord
  2
*D21
340
0
  0
BLOCK_RECORD
  5
11E
330
1
100
AcDbSymbolTableRecord
100
AcDbBlockTableRecord
  2
*D22
340
0
  0
BLOCK_RECORD
  5
12A
330
1
100
AcDbSymbolTableRecord
100
AcDbBlockTableRecord
  2
*D23
340
0
  0
BLOCK_RECORD
  5
136
330
1
100
AcDbSymbolTableRecord
100
AcDbBlockTableRecord
  2
*D24
340
0
  0
BLOCK_RECORD
  5
142
330
1
100
AcDbSymbolTableRecord
100
AcDbBlockTableRecord
  2
*D25
340
0
  0
BLOCK_RECORD
  5
14B
330
1
100
AcDbSymbolTableRecord
100
AcDbBlockTableRecord
  2
*D26
340
0
  0
BLOCK_RECORD
  5
157
330
1
100
AcDbSymbolTableRecord
100
AcDbBlockTableRecord
  2
*D27
340
0
  0
BLOCK_RECORD
  5
163
330
1
100
AcDbSymbolTableRecord
100
AcDbBlockTableRecord
  2
*D28
340
0
  0
BLOCK_RECORD
  5
16F
330
1
100
AcDbSymbolTableRecord
100
AcDbBlockTableRecord
  2
*D29
340
0
  0
BLOCK_RECORD
  5
177
330
1
100
AcDbSymbolTableRecord
100
AcDbBlockTableRecord
  2
*D30
340
0
  0
BLOCK_RECORD
  5
17F
330
1
100
AcDbSymbolTableRecord
100
AcDbBlockTableRecord
  2
*D31
340
0
  0
BLOCK_RECORD
  5
18C
330
1
100
AcDbSymbolTableRecord
100
AcDbBlockTableRecord
  2
*D32
340
0
  0
BLOCK_RECORD
  5
199
330
1
100
AcDbSymbolTableRecord
100
AcDbBlockTableRecord
  2
*D33
340
0
  0
BLOCK_RECORD
  5
1A5
330
1
100
AcDbSymbolTableRecord
100
AcDbBlockTableRecord
  2
*D34
340
0
  0
BLOCK_RECORD
  5
1B1
330
1
100
AcDbSymbolTableRecord
100
AcDbBlockTableRecord
  2
*D35
340
0
  0
BLOCK_RECORD
  5
1BD
330
1
100
AcDbSymbolTableRecord
100
AcDbBlockTableRecord
  2
*D36
340
0
  0
BLOCK_RECORD
  5
1C9
330
1
100
AcDbSymbolTableRecord
100
AcDbBlockTableRecord
  2
*D37
340
0
  0
BLOCK_RECORD
  5
1D5
330
1
100
AcDbSymbolTableRecord
100
AcDbBlockTableRecord
  2
*D38
340
0
  0
BLOCK_RECORD
  5
1E1
330
1
100
AcDbSymbolTableRecord
100
AcDbBlockTableRecord
  2
*D39
340
0
  0
BLOCK_RECORD
  5
1ED
330
1
100
AcDbSymbolTableRecord
100
AcDbBlockTableRecord
  2
*D40
340
0
  0
BLOCK_RECORD
  5
1F9
330
1
100
AcDbSymbolTableRecord
100
AcDbBlockTableRecord
  2
*D41
340
0
  0
BLOCK_RECORD
  5
205
330
1
100
AcDbSymbolTableRecord
100
AcDbBlockTableRecord
  2
*D42
340
0
  0
BLOCK_RECORD
  5
211
330
1
100
AcDbSymbolTableRecord
100
AcDbBlockTableRecord
  2
*D43
340
0
  0
BLOCK_RECORD
  5
21D
330
1
100
AcDbSymbolTableRecord
100
AcDbBlockTableRecord
  2
*D44
340
0
  0
BLOCK_RECORD
  5
229
330
1
100
AcDbSymbolTableRecord
100
AcDbBlockTableRecord
  2
*D45
340
0
  0
BLOCK_RECORD
  5
235
330
1
100
AcDbSymbolTableRecord
100
AcDbBlockTableRecord
  2
*D46
340
0
  0
BLOCK_RECORD
  5
241
330
1
100
AcDbSymbolTableRecord
100
AcDbBlockTableRecord
  2
*D47
340
0
  0
BLOCK_RECORD
  5
24D
330
1
100
AcDbSymbolTableRecord
100
AcDbBlockTableRecord
  2
*D48
340
0
  0
BLOCK_RECORD
  5
259
330
1
100
AcDbSymbolTableRecord
100
AcDbBlockTableRecord
  2
*D49
340
0
  0
BLOCK_RECORD
  5
265
330
1
100
AcDbSymbolTableRecord
100
AcDbBlockTableRecord
  2
*D50
340
0
  0
BLOCK_RECORD
  5
271
330
1
100
AcDbSymbolTableRecord
100
AcDbBlockTableRecord
  2
*D51
340
0
  0
BLOCK_RECORD
  5
27D
330
1
100
AcDbSymbolTableRecord
100
AcDbBlockTableRecord
  2
*D52
340
0
  0
BLOCK_RECORD
  5
286
330
1
100
AcDbSymbolTableRecord
100
AcDbBlockTableRecord
  2
*D53
340
0
  0
BLOCK_RECORD
  5
28E
330
1
100
AcDbSymbolTableRecord
100
AcDbBlockTableRecord
  2
*D54
340
0
  0
BLOCK_RECORD
  5
296
330
1
100
AcDbSymbolTableRecord
100
AcDbBlockTableRecord
  2
*D55
340
0
  0
BLOCK_RECORD
  5
29F
330
1
100
AcDbSymbolTableRecord
100
AcDbBlockTableRecord
  2
*D56
340
0
  0
BLOCK_RECORD
  5
2A7
330
1
100
AcDbSymbolTableRecord
100
AcDbBlockTableRecord
  2
*D57
340
0
  0
BLOCK_RECORD
  5
2B0
330
1
100
AcDbSymbolTableRecord
100
AcDbBlockTableRecord
  2
*D58
340
0
  0
BLOCK_RECORD
  5
2B9
330
1
100
AcDbSymbolTableRecord
100
AcDbBlockTableRecord
  2
*D59
340
0
  0
BLOCK_RECORD
  5
2C2
330
1
100
AcDbSymbolTableRecord
100
AcDbBlockTableRecord
  2
*D60
340
0
  0
BLOCK_RECORD
  5
2CB
330
1
100
AcDbSymbolTableRecord
100
AcDbBlockTableRecord
  2
*D61
340
0
  0
BLOCK_RECORD
  5
2D6
330
1
100
AcDbSymbolTableRecord
100
AcDbBlockTableRecord
  2
*D62
340
0
  0
BLOCK_RECORD
  5
2E2
330
1
100
AcDbSymbolTableRecord
100
AcDbBlockTableRecord
  2
*D63
340
0
  0
BLOCK_RECORD
  5
D2E
330
1
100
AcDbSymbolTableRecord
100
AcDbBlockTableRecord
  2
*D65
340
0
  0
BLOCK_RECORD
  5
D3A
330
1
100
AcDbSymbolTableRecord
100
AcDbBlockTableRecord
  2
*D66
340
0
  0
BLOCK_RECORD
  5
D46
330
1
100
AcDbSymbolTableRecord
100
AcDbBlockTableRecord
  2
*D67
340
0
  0
BLOCK_RECORD
  5
D52
330
1
100
AcDbSymbolTableRecord
100
AcDbBlockTableRecord
  2
*D68
340
0
  0
BLOCK_RECORD
  5
D5E
330
1
100
AcDbSymbolTableRecord
100
AcDbBlockTableRecord
  2
*D69
340
0
  0
BLOCK_RECORD
  5
D67
330
1
100
AcDbSymbolTableRecord
100
AcDbBlockTableRecord
  2
*D70
340
0
  0
BLOCK_RECORD
  5
D6F
330
1
100
AcDbSymbolTableRecord
100
AcDbBlockTableRecord
  2
*D71
340
0
  0
BLOCK_RECORD
  5
D77
330
1
100
AcDbSymbolTableRecord
100
AcDbBlockTableRecord
  2
*D72
340
0
  0
BLOCK_RECORD
  5
D80
330
1
100
AcDbSymbolTableRecord
100
AcDbBlockTableRecord
  2
*D73
340
0
  0
BLOCK_RECORD
  5
D88
330
1
100
AcDbSymbolTableRecord
100
AcDbBlockTableRecord
  2
*D74
340
0
  0
BLOCK_RECORD
  5
D91
330
1
100
AcDbSymbolTableRecord
100
AcDbBlockTableRecord
  2
*D75
340
0
  0
BLOCK_RECORD
  5
D9A
330
1
100
AcDbSymbolTableRecord
100
AcDbBlockTableRecord
  2
*D76
340
0
  0
BLOCK_RECORD
  5
DA6
330
1
100
AcDbSymbolTableRecord
100
AcDbBlockTableRecord
  2
*D77
340
0
  0
BLOCK_RECORD
  5
DAE
330
1
100
AcDbSymbolTableRecord
100
AcDbBlockTableRecord
  2
*D78
340
0
  0
BLOCK_RECORD
  5
DB6
330
1
100
AcDbSymbolTableRecord
100
AcDbBlockTableRecord
  2
*D79
340
0
  0
BLOCK_RECORD
  5
DC3
330
1
100
AcDbSymbolTableRecord
100
AcDbBlockTableRecord
  2
*D80
340
0
  0
BLOCK_RECORD
  5
DD0
330
1
100
AcDbSymbolTableRecord
100
AcDbBlockTableRecord
  2
*D81
340
0
  0
BLOCK_RECORD
  5
DE2
330
1
100
AcDbSymbolTableRecord
100
AcDbBlockTableRecord
  2
*D82
340
0
  0
BLOCK_RECORD
  5
DEE
330
1
100
AcDbSymbolTableRecord
100
AcDbBlockTableRecord
  2
*D83
340
0
  0
BLOCK_RECORD
  5
DFB
330
1
100
AcDbSymbolTableRecord
100
AcDbBlockTableRecord
  2
*D84
340
0
  0
BLOCK_RECORD
  5
E07
330
1
100
AcDbSymbolTableRecord
100
AcDbBlockTableRecord
  2
*D85
340
0
  0
BLOCK_RECORD
  5
E13
330
1
100
AcDbSymbolTableRecord
100
AcDbBlockTableRecord
  2
*D86
340
0
  0
BLOCK_RECORD
  5
E21
330
1
100
AcDbSymbolTableRecord
100
AcDbBlockTableRecord
  2
*D87
340
0
  0
BLOCK_RECORD
  5
E38
330
1
100
AcDbSymbolTableRecord
100
AcDbBlockTableRecord
  2
*D88
340
0
  0
BLOCK_RECORD
  5
E44
330
1
100
AcDbSymbolTableRecord
100
AcDbBlockTableRecord
  2
*D89
340
0
  0
BLOCK_RECORD
  5
E4D
330
1
100
AcDbSymbolTableRecord
100
AcDbBlockTableRecord
  2
*D90
340
0
  0
BLOCK_RECORD
  5
E56
330
1
100
AcDbSymbolTableRecord
100
AcDbBlockTableRecord
  2
*D91
340
0
  0
BLOCK_RECORD
  5
E5E
330
1
100
AcDbSymbolTableRecord
100
AcDbBlockTableRecord
  2
*D92
340
0
  0
BLOCK_RECORD
  5
E67
330
1
100
AcDbSymbolTableRecord
100
AcDbBlockTableRecord
  2
*D93
340
0
  0
BLOCK_RECORD
  5
E6F
330
1
100
AcDbSymbolTableRecord
100
AcDbBlockTableRecord
  2
*D94
340
0
  0
BLOCK_RECORD
  5
E7B
330
1
100
AcDbSymbolTableRecord
100
AcDbBlockTableRecord
  2
*D95
340
0
  0
BLOCK_RECORD
  5
E87
330
1
100
AcDbSymbolTableRecord
100
AcDbBlockTableRecord
  2
*D96
340
0
  0
BLOCK_RECORD
  5
E9C
330
1
100
AcDbSymbolTableRecord
100
AcDbBlockTableRecord
  2
*D97
340
0
  0
BLOCK_RECORD
  5
EA5
330
1
100
AcDbSymbolTableRecord
100
AcDbBlockTableRecord
  2
*D98
340
0
  0
BLOCK_RECORD
  5
EB1
330
1
100
AcDbSymbolTableRecord
100
AcDbBlockTableRecord
  2
*D99
340
0
  0
BLOCK_RECORD
  5
EBD
330
1
100
AcDbSymbolTableRecord
100
AcDbBlockTableRecord
  2
*D100
340
0
  0
BLOCK_RECORD
  5
EC9
330
1
100
AcDbSymbolTableRecord
100
AcDbBlockTableRecord
  2
*D101
340
0
  0
BLOCK_RECORD
  5
ED1
330
1
100
AcDbSymbolTableRecord
100
AcDbBlockTableRecord
  2
*D102
340
0
  0
BLOCK_RECORD
  5
ED9
330
1
100
AcDbSymbolTableRecord
100
AcDbBlockTableRecord
  2
*D103
340
0
  0
BLOCK_RECORD
  5
EE6
330
1
100
AcDbSymbolTableRecord
100
AcDbBlockTableRecord
  2
*D104
340
0
  0
BLOCK_RECORD
  5
EF3
330
1
100
AcDbSymbolTableRecord
100
AcDbBlockTableRecord
  2
*D105
340
0
  0
BLOCK_RECORD
  5
EFF
330
1
100
AcDbSymbolTableRecord
100
AcDbBlockTableRecord
  2
*D106
340
0
  0
BLOCK_RECORD
  5
F0B
330
1
100
AcDbSymbolTableRecord
100
AcDbBlockTableRecord
  2
*D107
340
0
  0
BLOCK_RECORD
  5
F17
330
1
100
AcDbSymbolTableRecord
100
AcDbBlockTableRecord
  2
*D108
340
0
  0
BLOCK_RECORD
  5
F23
330
1
100
AcDbSymbolTableRecord
100
AcDbBlockTableRecord
  2
*D109
340
0
  0
BLOCK_RECORD
  5
F38
330
1
100
AcDbSymbolTableRecord
100
AcDbBlockTableRecord
  2
*D110
340
0
  0
BLOCK_RECORD
  5
F44
330
1
100
AcDbSymbolTableRecord
100
AcDbBlockTableRecord
  2
*D111
340
0
  0
BLOCK_RECORD
  5
F50
330
1
100
AcDbSymbolTableRecord
100
AcDbBlockTableRecord
  2
*D112
340
0
  0
BLOCK_RECORD
  5
F5C
330
1
100
AcDbSymbolTableRecord
100
AcDbBlockTableRecord
  2
*D113
340
0
  0
BLOCK_RECORD
  5
F68
330
1
100
AcDbSymbolTableRecord
100
AcDbBlockTableRecord
  2
*D114
340
0
  0
BLOCK_RECORD
  5
F74
330
1
100
AcDbSymbolTableRecord
100
AcDbBlockTableRecord
  2
*D115
340
0
  0
BLOCK_RECORD
  5
F80
330
1
100
AcDbSymbolTableRecord
100
AcDbBlockTableRecord
  2
*D116
340
0
  0
BLOCK_RECORD
  5
F95
330
1
100
AcDbSymbolTableRecord
100
AcDbBlockTableRecord
  2
*D117
340
0
  0
BLOCK_RECORD
  5
FA1
330
1
100
AcDbSymbolTableRecord
100
AcDbBlockTableRecord
  2
*D118
340
0
  0
BLOCK_RECORD
  5
FAD
330
1
100
AcDbSymbolTableRecord
100
AcDbBlockTableRecord
  2
*D119
340
0
  0
BLOCK_RECORD
  5
FB9
330
1
100
AcDbSymbolTableRecord
100
AcDbBlockTableRecord
  2
*D120
340
0
  0
BLOCK_RECORD
  5
FC5
330
1
100
AcDbSymbolTableRecord
100
AcDbBlockTableRecord
  2
*D121
340
0
  0
BLOCK_RECORD
  5
FF8
330
1
100
AcDbSymbolTableRecord
100
AcDbBlockTableRecord
  2
*D122
340
0
  0
BLOCK_RECORD
  5
1001
330
1
100
AcDbSymbolTableRecord
100
AcDbBlockTableRecord
  2
*D123
340
0
  0
BLOCK_RECORD
  5
100A
330
1
100
AcDbSymbolTableRecord
100
AcDbBlockTableRecord
  2
*D124
340
0
  0
BLOCK_RECORD
  5
1015
330
1
100
AcDbSymbolTableRecord
100
AcDbBlockTableRecord
  2
*D125
340
0
  0
BLOCK_RECORD
  5
1021
330
1
100
AcDbSymbolTableRecord
100
AcDbBlockTableRecord
  2
*D126
340
0
  0
ENDTAB
  0
ENDSEC
  0
SECTION
  2
BLOCKS
  0
BLOCK
  5
24
330
23
100
AcDbEntity
  8
0
100
AcDbBlockBegin
  2
*Model_Space
 70
     0
 10
0.0
 20
0.0
 30
0.0
  3
*Model_Space
  1

  0
ENDBLK
  5
25
330
23
100
AcDbEntity
  8
0
100
AcDbBlockEnd
  0
BLOCK
  5
20
330
1F
100
AcDbEntity
 67
     1
  8
0
100
AcDbBlockBegin
  2
*Paper_Space
 70
     0
 10
0.0
 20
0.0
 30
0.0
  3
*Paper_Space
  1

  0
ENDBLK
  5
21
330
1F
100
AcDbEntity
 67
     1
  8
0
100
AcDbBlockEnd
  0
BLOCK
  5
28
330
27
100
AcDbEntity
 67
     1
  8
0
100
AcDbBlockBegin
  2
*Paper_Space0
 70
     0
 10
0.0
 20
0.0
 30
0.0
  3
*Paper_Space0
  1

  0
ENDBLK
  5
29
330
27
100
AcDbEntity
 67
     1
  8
0
100
AcDbBlockEnd
  0
BLOCK
  5
30
330
2F
100
AcDbEntity
  8
0
100
AcDbBlockBegin
  2
SW_CENTERMARKSYMBOL_0
 70
     0
 10
0.0
 20
0.0
 30
0.0
  3
SW_CENTERMARKSYMBOL_0
  1

  0
LINE
  5
31
330
2F
100
AcDbEntity
  8
0
  6
Continuous
 62
     0
370
     0
100
AcDbLine
 10
0.0
 20
0.0
 30
0.0
 11
0.0
 21
0.1250000000000001
 31
0.0
  0
LINE
  5
32
330
2F
100
AcDbEntity
  8
0
  6
Continuous
 62
     0
370
     0
100
AcDbLine
 10
0.0
 20
0.0
 30
0.0
 11
-0.1249999999999862
 21
0.0
 31
0.0
  0
LINE
  5
33
330
2F
100
AcDbEntity
  8
0
  6
Continuous
 62
     0
370
     0
100
AcDbLine
 10
0.0
 20
0.0
 30
0.0
 11
0.0
 21
-0.1250000000000001
 31
0.0
  0
LINE
  5
34
330
2F
100
AcDbEntity
  8
0
  6
Continuous
 62
     0
370
     0
100
AcDbLine
 10
0.0
 20
0.0
 30
0.0
 11
0.125000000000014
 21
0.0
 31
0.0
  0
LINE
  5
35
330
2F
100
AcDbEntity
  8
0
  6
Continuous
 62
     0
370
     0
100
AcDbLine
 10
0.0
 20
0.2500000000000002
 30
0.0
 11
0.0
 21
3.139877262920649
 31
0.0
  0
LINE
  5
36
330
2F
100
AcDbEntity
  8
0
  6
Continuous
 62
     0
370
     0
100
AcDbLine
 10
-0.2499999999999725
 20
0.0
 30
0.0
 11
-3.139877262920642
 21
0.0
 31
0.0
  0
LINE
  5
37
330
2F
100
AcDbEntity
  8
0
  6
Continuous
 62
     0
370
     0
100
AcDbLine
 10
0.0
 20
-0.2500000000000002
 30
0.0
 11
0.0
 21
-3.139877262920642
 31
0.0
  0
LINE
  5
38
330
2F
100
AcDbEntity
  8
0
  6
Continuous
 62
     0
370
     0
100
AcDbLine
 10
0.250000000000028
 20
0.0
 30
0.0
 11
3.139877262920642
 21
0.0
 31
0.0
  0
ENDBLK
  5
39
330
2F
100
AcDbEntity
  8
0
100
AcDbBlockEnd
  0
BLOCK
  5
3B
330
3A
100
AcDbEntity
  8
0
100
AcDbBlockBegin
  2
*D2
 70
     1
 10
0.0
 20
0.0
 30
0.0
  3
*D2
  1

  0
LINE
  5
3C
330
3A
100
AcDbEntity
  8
cotas
100
AcDbLine
 10
2162.060129019154
 20
1790.252658632853
 30
0.0
 11
2162.060129019154
 21
1820.252658632853
 31
0.0
  0
LINE
  5
3D
330
3A
100
AcDbEntity
  8
cotas
100
AcDbLine
 10
3062.060132676969
 20
1790.252658632853
 30
0.0
 11
3062.060132676969
 21
1820.252658632853
 31
0.0
  0
LINE
  5
3E
330
3A
100
AcDbEntity
  8
cotas
100
AcDbLine
 10
2172.060129019155
 20
1815.252658632853
 30
0.0
 11
3052.060132676968
 21
1815.252658632853
 31
0.0
  0
SOLID
  5
3F
330
3A
100
AcDbEntity
  8
cotas
100
AcDbTrace
 10
2172.060129019155
 20
1816.91932529952
 30
0.0
 11
2172.060129019155
 21
1813.585991966186
 31
0.0
 12
2162.060129019154
 22
1815.252658632853
 32
0.0
 13
2162.060129019154
 23
1815.252658632853
 33
0.0
  0
SOLID
  5
40
330
3A
100
AcDbEntity
  8
cotas
100
AcDbTrace
 10
3052.060132676968
 20
1816.91932529952
 30
0.0
 11
3052.060132676968
 21
1813.585991966186
 31
0.0
 12
3062.060132676969
 22
1815.252658632853
 32
0.0
 13
3062.060132676969
 23
1815.252658632853
 33
0.0
  0
MTEXT
  5
41
330
3A
100
AcDbEntity
  8
cotas
100
AcDbMText
 10
2612.060130848062
 20
1825.457494092893
 30
0.0
 40
10.0
 41
0.0
 71
     5
 72
     1
  1
900
  7
SANINDUSA
 73
     1
 44
1.0
1001
ACAD
1000
MTEXTBEGIN
1070
    73
1070
     1
1070
    44
1040
1.0
1070
    74
1070
     0
1000
MTEXTEND
  0
POINT
  5
42
330
3A
100
AcDbEntity
  8
Defpoints
 62
     0
100
AcDbPoint
 10
2162.060129019154
 20
1785.252658632853
 30
0.0
  0
POINT
  5
43
330
3A
100
AcDbEntity
  8
Defpoints
 62
     0
100
AcDbPoint
 10
3062.060132676969
 20
1785.252658632853
 30
0.0
  0
POINT
  5
44
330
3A
100
AcDbEntity
  8
Defpoints
 62
     0
100
AcDbPoint
 10
3062.060132676969
 20
1815.252658632853
 30
0.0
  0
ENDBLK
  5
45
330
3A
100
AcDbEntity
  8
0
100
AcDbBlockEnd
  0
BLOCK
  5
47
330
46
100
AcDbEntity
  8
0
100
AcDbBlockBegin
  2
*D3
 70
     1
 10
0.0
 20
0.0
 30
0.0
  3
*D3
  1

  0
LINE
  5
48
330
46
100
AcDbEntity
  8
cotas
100
AcDbLine
 10
2194.951608749335
 20
1749.063578494631
 30
0.0
 11
2170.934960858847
 21
1776.012975705574
 31
0.0
  0
MTEXT
  5
49
330
46
100
AcDbEntity
  8
cotas
100
AcDbMText
 10
2193.73547955787
 20
1765.458642213663
 30
0.0
 40
10.0
 41
0.0
 71
     5
 72
     1
  1
R7
  7
SANINDUSA
 11
0.6653169992360512
 21
-0.7465609757598748
 31
0.0
 73
     1
 44
1.0
1001
ACAD
1000
MTEXTBEGIN
1070
    73
1070
     1
1070
    44
1040
1.0
1070
    74
1070
     0
1000
MTEXTEND
  0
SOLID
  5
4A
330
46
100
AcDbEntity
  8
cotas
100
AcDbTrace
 10
2172.179229151779
 20
1777.121837370967
 30
0.0
 11
2169.690692565913
 21
1774.90411404018
 31
0.0
 12
2164.281790866485
 22
1783.478585463172
 32
0.0
 13
2164.281790866485
 23
1783.478585463172
 33
0.0
  0
POINT
  5
4B
330
46
100
AcDbEntity
  8
Defpoints
 62
     0
100
AcDbPoint
 10
2164.281790866485
 20
1783.478585463172
 30
0.0
  0
POINT
  5
4C
330
46
100
AcDbEntity
  8
Defpoints
 62
     0
100
AcDbPoint
 10
2168.939009861137
 20
1778.252658632855
 30
0.0
  0
ENDBLK
  5
4D
330
46
100
AcDbEntity
  8
0
100
AcDbBlockEnd
  0
BLOCK
  5
4F
330
4E
100
AcDbEntity
  8
0
100
AcDbBlockBegin
  2
*D4
 70
     1
 10
0.0
 20
0.0
 30
0.0
  3
*D4
  1

  0
LINE
  5
50
330
4E
100
AcDbEntity
  8
cotas
100
AcDbLine
 10
3025.150373316374
 20
1753.216599531874
 30
0.0
 11
3052.876974202486
 21
1776.331637693886
 31
0.0
  0
MTEXT
  5
51
330
4E
100
AcDbEntity
  8
cotas
100
AcDbMText
 10
3028.769814004464
 20
1769.253330298052
 30
0.0
 40
10.0
 41
0.0
 71
     5
 72
     1
  1
R7
  7
SANINDUSA
 11
0.7680913250124437
 21
0.6403403129903884
 31
0.0
 73
     1
 44
1.0
1001
ACAD
1000
MTEXTBEGIN
1070
    73
1070
     1
1070
    44
1040
1.0
1070
    74
1070
     0
1000
MTEXTEND
  0
SOLID
  5
52
330
4E
100
AcDbEntity
  8
cotas
100
AcDbTrace
 10
3051.809740347502
 20
1777.61178990224
 30
0.0
 11
3053.94420805747
 21
1775.051485485532
 31
0.0
 12
3060.557887452611
 22
1782.735040823789
 32
0.0
 13
3060.557887452611
 23
1782.735040823789
 33
0.0
  0
POINT
  5
53
330
4E
100
AcDbEntity
  8
Defpoints
 62
     0
100
AcDbPoint
 10
3060.557887452611
 20
1782.735040823789
 30
0.0
  0
POINT
  5
54
330
4E
100
AcDbEntity
  8
Defpoints
 62
     0
100
AcDbPoint
 10
3055.181248177525
 20
1778.252658632858
 30
0.0
  0
ENDBLK
  5
55
330
4E
100
AcDbEntity
  8
0
100
AcDbBlockEnd
  0
BLOCK
  5
57
330
56
100
AcDbEntity
  8
0
100
AcDbBlockBegin
  2
*D5
 70
     1
 10
0.0
 20
0.0
 30
0.0
  3
*D5
  1

  0
LINE
  5
58
330
56
100
AcDbEntity
  8
cotas
100
AcDbLine
 10
3062.845573360747
 20
1740.253421004749
 30
0.0
 11
3063.37229991288
 21
1710.076357638937
 31
0.0
  0
ARC
  5
59
330
56
100
AcDbEntity
  8
cotas
100
AcDbCircle
 10
3062.060132676969
 20
1785.252658632853
 30
0.0
 40
70.18775175507575
100
AcDbArc
 50
188.1701364803898
 51
262.8298330588098
  0
SOLID
  5
5A
330
56
100
AcDbEntity
  8
cotas
100
AcDbTrace
 10
2990.922323623633
 20
1775.159335646452
 30
0.0
 11
2994.24718822994
 21
1775.396793981417
 31
0.0
 12
2991.872380921893
 22
1785.252658632853
 32
0.0
 13
2991.872380921893
 23
1785.252658632853
 33
0.0
  0
SOLID
  5
5B
330
56
100
AcDbEntity
  8
cotas
100
AcDbTrace
 10
3053.389232051541
 20
1717.278038479834
 30
0.0
 11
3053.209835001521
 21
1713.949536142512
 31
0.0
 12
3063.285040538496
 22
1715.07559616111
 32
0.0
 13
3063.285040538496
 23
1715.07559616111
 33
0.0
  0
MTEXT
  5
5C
330
56
100
AcDbEntity
  8
cotas
100
AcDbMText
 10
3020.815418367555
 20
1743.28175474744
 30
0.0
 40
10.0
 41
0.0
 71
     5
 72
     1
  1
91,0°
  7
SANINDUSA
 11
0.7132502628380123
 21
-0.7009094538965118
 31
0.0
 73
     1
 44
1.0
1001
ACAD
1000
MTEXTBEGIN
1070
    73
1070
     1
1070
    44
1040
1.0
1070
    74
1070
     0
1000
MTEXTEND
  0
POINT
  5
5D
330
56
100
AcDbEntity
  8
Defpoints
 62
     0
100
AcDbPoint
 10
3001.480945745582
 20
1749.805760218968
 30
0.0
  0
POINT
  5
5E
330
56
100
AcDbEntity
  8
Defpoints
 62
     0
100
AcDbPoint
 10
2168.939009803236
 20
1785.252658632853
 30
0.0
  0
POINT
  5
5F
330
56
100
AcDbEntity
  8
Defpoints
 62
     0
100
AcDbPoint
 10
3062.180182025552
 20
1778.374826511855
 30
0.0
  0
POINT
  5
60
330
56
100
AcDbEntity
  8
Defpoints
 62
     0
100
AcDbPoint
 10
3062.758313986363
 20
1745.252659526922
 30
0.0
  0
POINT
  5
61
330
56
100
AcDbEntity
  8
Defpoints
 62
     0
100
AcDbPoint
 10
3055.181252333225
 20
1785.252658632853
 30
0.0
  0
ENDBLK
  5
62
330
56
100
AcDbEntity
  8
0
100
AcDbBlockEnd
  0
BLOCK
  5
64
330
63
100
AcDbEntity
  8
0
100
AcDbBlockBegin
  2
*D6
 70
     1
 10
0.0
 20
0.0
 30
0.0
  3
*D6
  1

  0
LINE
  5
65
330
63
100
AcDbEntity
  8
cotas
100
AcDbLine
 10
2161.274664406582
 20
1740.253421051139
 30
0.0
 11
2160.648980555669
 21
1704.40801718745
 31
0.0
  0
ARC
  5
66
330
63
100
AcDbEntity
  8
cotas
100
AcDbCircle
 10
2162.060129019154
 20
1785.252658632853
 30
0.0
 40
75.85695635145893
100
AcDbArc
 50
276.5586144526256
 51
352.4413855488218
  0
SOLID
  5
67
330
63
100
AcDbEntity
  8
cotas
100
AcDbTrace
 10
2170.805294802069
 20
1708.227439879868
 30
0.0
 11
2170.643664666169
 21
1711.556852261998
 31
0.0
 12
2160.736242587729
 22
1709.407255663234
 32
0.0
 13
2160.736242587729
 23
1709.407255663234
 33
0.0
  0
SOLID
  5
68
330
63
100
AcDbEntity
  8
cotas
100
AcDbTrace
 10
2235.594907809213
 20
1775.384261136242
 30
0.0
 11
2238.920992270893
 21
1775.164549359389
 31
0.0
 12
2237.917085370613
 22
1785.252658632852
 32
0.0
 13
2237.917085370613
 23
1785.252658632852
 33
0.0
  0
MTEXT
  5
69
330
63
100
AcDbEntity
  8
cotas
100
AcDbMText
 10
2207.278430195231
 20
1739.238181059599
 30
0.0
 40
10.0
 41
0.0
 71
     5
 72
     1
  1
91,0°
  7
SANINDUSA
 11
0.7132504491453286
 21
0.70090926430886
 31
0.0
 73
     1
 44
1.0
1001
ACAD
1000
MTEXTBEGIN
1070
    73
1070
     1
1070
    44
1040
1.0
1070
    74
1070
     0
1000
MTEXTEND
  0
POINT
  5
6A
330
63
100
AcDbEntity
  8
Defpoints
 62
     0
100
AcDbPoint
 10
2199.221671993683
 20
1719.121746415801
 30
0.0
  0
POINT
  5
6B
330
63
100
AcDbEntity
  8
Defpoints
 62
     0
100
AcDbPoint
 10
2161.361926438642
 20
1745.252659526923
 30
0.0
  0
POINT
  5
6C
330
63
100
AcDbEntity
  8
Defpoints
 62
     0
100
AcDbPoint
 10
2168.939009803236
 20
1785.252658632853
 30
0.0
  0
POINT
  5
6D
330
63
100
AcDbEntity
  8
Defpoints
 62
     0
100
AcDbPoint
 10
3055.181252333224
 20
1785.252658632853
 30
0.0
  0
POINT
  5
6E
330
63
100
AcDbEntity
  8
Defpoints
 62
     0
100
AcDbPoint
 10
2161.940075996945
 20
1778.374825586899
 30
0.0
  0
ENDBLK
  5
6F
330
63
100
AcDbEntity
  8
0
100
AcDbBlockEnd
  0
BLOCK
  5
71
330
70
100
AcDbEntity
  8
0
100
AcDbBlockBegin
  2
*D7
 70
     1
 10
0.0
 20
0.0
 30
0.0
  3
*D7
  1

  0
LINE
  5
72
330
70
100
AcDbEntity
  8
cotas
100
AcDbLine
 10
2229.554581018985
 20
1731.711349045308
 30
0.0
 11
2229.554581018984
 21
1621.719880725956
 31
0.0
  0
LINE
  5
73
330
70
100
AcDbEntity
  8
cotas
100
AcDbLine
 10
2231.03501397709
 20
1702.858655939686
 30
0.0
 11
2233.865817860191
 21
1621.795133732876
 31
0.0
  0
ARC
  5
74
330
70
100
AcDbEntity
  8
cotas
100
AcDbCircle
 10
2229.554581018985
 20
1745.252659526923
 30
0.0
 40
118.532778800967
100
AcDbArc
 50
260.320995570249
 51
269.9999999999998
  0
LINE
  5
75
330
70
100
AcDbEntity
  8
cotas
100
AcDbLine
 10
2209.625882393816
 20
1628.407177708471
 30
0.0
 11
2172.333638882966
 21
1634.767593793184
 31
0.0
  0
ARC
  5
76
330
70
100
AcDbEntity
  8
cotas
100
AcDbCircle
 10
2229.554581018985
 20
1745.252659526923
 30
0.0
 40
118.532778800967
100
AcDbArc
 50
260.329631124859
 51
265.1648155624293
  0
ARC
  5
77
330
70
100
AcDbEntity
  8
cotas
100
AcDbCircle
 10
2229.554581018985
 20
1745.252659526923
 30
0.0
 40
118.532778800967
100
AcDbArc
 50
276.8351867741815
 51
281.6703712117519
  0
ARC
  5
78
330
70
100
AcDbEntity
  8
cotas
100
AcDbCircle
 10
2229.554581018985
 20
1745.252659526923
 30
0.0
 40
118.532778800967
100
AcDbArc
 50
269.9999999999998
 51
272.0000023366111
  0
SOLID
  5
79
330
70
100
AcDbEntity
  8
cotas
100
AcDbTrace
 10
2219.633785805797
 20
1628.806888180606
 30
0.0
 11
2219.49317772392
 21
1625.476521762563
 31
0.0
 12
2229.554581018985
 22
1626.719880725955
 32
0.0
 13
2229.554581018985
 23
1626.719880725955
 33
0.0
  0
SOLID
  5
7A
330
70
100
AcDbEntity
  8
cotas
100
AcDbTrace
 10
2243.789986971319
 20
1625.900624641107
 30
0.0
 11
2243.533236296729
 21
1629.22405512815
 31
0.0
 12
2233.691320172894
 22
1626.792087860855
 32
0.0
 13
2233.691320172894
 23
1626.792087860855
 33
0.0
  0
MTEXT
  5
7B
330
70
100
AcDbEntity
  8
cotas
100
AcDbMText
 10
2192.887433809903
 20
1642.772410677435
 30
0.0
 40
10.0
 41
0.0
 71
     5
 72
     1
  1
2,0°
  7
SANINDUSA
 11
0.9857651444639767
 21
-0.1681281652785012
 31
0.0
 73
     1
 44
1.0
1001
ACAD
1000
MTEXTBEGIN
1070
    73
1070
     1
1070
    44
1040
1.0
1070
    74
1070
     0
1000
MTEXTEND
  0
POINT
  5
7C
330
70
100
AcDbEntity
  8
Defpoints
 62
     0
100
AcDbPoint
 10
2232.312718299562
 20
1626.751974596326
 30
0.0
  0
POINT
  5
7D
330
70
100
AcDbEntity
  8
Defpoints
 62
     0
100
AcDbPoint
 10
2229.554581018985
 20
1745.252659526923
 30
0.0
  0
POINT
  5
7E
330
70
100
AcDbEntity
  8
Defpoints
 62
     0
100
AcDbPoint
 10
2229.554581018985
 20
1745.252659526923
 30
0.0
  0
POINT
  5
7F
330
70
100
AcDbEntity
  8
Defpoints
 62
     0
100
AcDbPoint
 10
2230.860516289793
 20
1707.855610067665
 30
0.0
  0
POINT
  5
80
330
70
100
AcDbEntity
  8
Defpoints
 62
     0
100
AcDbPoint
 10
2229.554581018985
 20
1736.711349045308
 30
0.0
  0
ENDBLK
  5
81
330
70
100
AcDbEntity
  8
0
100
AcDbBlockEnd
  0
BLOCK
  5
83
330
82
100
AcDbEntity
  8
0
100
AcDbBlockBegin
  2
*D8
 70
     1
 10
0.0
 20
0.0
 30
0.0
  3
*D8
  1

  0
LINE
  5
84
330
82
100
AcDbEntity
  8
cotas
100
AcDbLine
 10
3414.534225264779
 20
2666.901083132684
 30
0.0
 11
3414.534225264779
 21
2696.901083132683
 31
0.0
  0
LINE
  5
85
330
82
100
AcDbEntity
  8
cotas
100
AcDbLine
 10
3344.53422498845
 20
2666.901083132683
 30
0.0
 11
3344.53422498845
 21
2696.901083132683
 31
0.0
  0
LINE
  5
86
330
82
100
AcDbEntity
  8
cotas
100
AcDbLine
 10
3404.534225264779
 20
2691.901083132683
 30
0.0
 11
3354.534224988451
 21
2691.901083132683
 31
0.0
  0
SOLID
  5
87
330
82
100
AcDbEntity
  8
cotas
100
AcDbTrace
 10
3404.534225264779
 20
2693.56774979935
 30
0.0
 11
3404.534225264779
 21
2690.234416466017
 31
0.0
 12
3414.534225264779
 22
2691.901083132683
 32
0.0
 13
3414.534225264779
 23
2691.901083132683
 33
0.0
  0
SOLID
  5
88
330
82
100
AcDbEntity
  8
cotas
100
AcDbTrace
 10
3354.534224988451
 20
2693.56774979935
 30
0.0
 11
3354.534224988451
 21
2690.234416466017
 31
0.0
 12
3344.53422498845
 22
2691.901083132683
 32
0.0
 13
3344.53422498845
 23
2691.901083132683
 33
0.0
  0
MTEXT
  5
89
330
82
100
AcDbEntity
  8
cotas
100
AcDbMText
 10
3379.534225126614
 20
2702.105918592724
 30
0.0
 40
10.0
 41
0.0
 71
     5
 72
     1
  1
70
  7
SANINDUSA
 73
     1
 44
1.0
1001
ACAD
1000
MTEXTBEGIN
1070
    73
1070
     1
1070
    44
1040
1.0
1070
    74
1070
     0
1000
MTEXTEND
  0
POINT
  5
8A
330
82
100
AcDbEntity
  8
Defpoints
 62
     0
100
AcDbPoint
 10
3414.534225264779
 20
2661.901083132683
 30
0.0
  0
POINT
  5
8B
330
82
100
AcDbEntity
  8
Defpoints
 62
     0
100
AcDbPoint
 10
3344.53422498845
 20
2661.901083132683
 30
0.0
  0
POINT
  5
8C
330
82
100
AcDbEntity
  8
Defpoints
 62
     0
100
AcDbPoint
 10
3344.53422498845
 20
2691.901083132683
 30
0.0
  0
ENDBLK
  5
8D
330
82
100
AcDbEntity
  8
0
100
AcDbBlockEnd
  0
BLOCK
  5
8F
330
8E
100
AcDbEntity
  8
0
100
AcDbBlockBegin
  2
*D9
 70
     1
 10
0.0
 20
0.0
 30
0.0
  3
*D9
  1

  0
LINE
  5
90
330
8E
100
AcDbEntity
  8
cotas
100
AcDbLine
 10
3414.534225264779
 20
2666.901083132684
 30
0.0
 11
3414.534225264779
 21
2696.901083132683
 31
0.0
  0
LINE
  5
91
330
8E
100
AcDbEntity
  8
cotas
100
AcDbLine
 10
3446.941026090606
 20
2607.326433044619
 30
0.0
 11
3446.941026090606
 21
2696.901083132683
 31
0.0
  0
LINE
  5
92
330
8E
100
AcDbEntity
  8
cotas
100
AcDbLine
 10
3424.534225264778
 20
2691.901083132683
 30
0.0
 11
3436.941026090606
 21
2691.901083132683
 31
0.0
  0
LINE
  5
93
330
8E
100
AcDbEntity
  8
cotas
100
AcDbLine
 10
3446.941026090606
 20
2691.901083132683
 30
0.0
 11
3496.39032091935
 21
2691.901083132683
 31
0.0
  0
SOLID
  5
94
330
8E
100
AcDbEntity
  8
cotas
100
AcDbTrace
 10
3424.534225264778
 20
2693.56774979935
 30
0.0
 11
3424.534225264778
 21
2690.234416466017
 31
0.0
 12
3414.534225264779
 22
2691.901083132683
 32
0.0
 13
3414.534225264779
 23
2691.901083132683
 33
0.0
  0
SOLID
  5
95
330
8E
100
AcDbEntity
  8
cotas
100
AcDbTrace
 10
3436.941026090606
 20
2693.56774979935
 30
0.0
 11
3436.941026090606
 21
2690.234416466017
 31
0.0
 12
3446.941026090606
 22
2691.901083132683
 32
0.0
 13
3446.941026090606
 23
2691.901083132683
 33
0.0
  0
MTEXT
  5
96
330
8E
100
AcDbEntity
  8
cotas
100
AcDbMText
 10
3476.665673504978
 20
2703.247624435571
 30
0.0
 40
10.0
 41
0.0
 71
     5
 72
     1
  1
32,4
  7
SANINDUSA
 73
     1
 44
1.0
1001
ACAD
1000
MTEXTBEGIN
1070
    73
1070
     1
1070
    44
1040
1.0
1070
    74
1070
     0
1000
MTEXTEND
  0
POINT
  5
97
330
8E
100
AcDbEntity
  8
Defpoints
 62
     0
100
AcDbPoint
 10
3414.534225264779
 20
2661.901083132683
 30
0.0
  0
POINT
  5
98
330
8E
100
AcDbEntity
  8
Defpoints
 62
     0
100
AcDbPoint
 10
3446.941026090606
 20
2602.326433044619
 30
0.0
  0
POINT
  5
99
330
8E
100
AcDbEntity
  8
Defpoints
 62
     0
100
AcDbPoint
 10
3446.941026090606
 20
2691.901083132683
 30
0.0
  0
ENDBLK
  5
9A
330
8E
100
AcDbEntity
  8
0
100
AcDbBlockEnd
  0
BLOCK
  5
9C
330
9B
100
AcDbEntity
  8
0
100
AcDbBlockBegin
  2
*D10
 70
     1
 10
0.0
 20
0.0
 30
0.0
  3
*D10
  1

  0
LINE
  5
9D
330
9B
100
AcDbEntity
  8
cotas
100
AcDbLine
 10
3447.028288184616
 20
2607.325671519322
 30
0.0
 11
3447.440363672346
 21
2630.9334436694
 31
0.0
  0
LINE
  5
9E
330
9B
100
AcDbEntity
  8
cotas
100
AcDbLine
 10
3708.988384259043
 20
2602.753137793165
 30
0.0
 11
3709.400459746774
 21
2626.360909943243
 31
0.0
  0
LINE
  5
9F
330
9B
100
AcDbEntity
  8
cotas
100
AcDbLine
 10
3457.351578527741
 20
2625.759681006676
 30
0.0
 11
3699.314720703358
 21
2621.536195656562
 31
0.0
  0
SOLID
  5
A0
330
9B
100
AcDbEntity
  8
cotas
100
AcDbTrace
 10
3457.380665892411
 20
2627.426093831577
 30
0.0
 11
3457.322491163071
 21
2624.093268181776
 31
0.0
 12
3447.353101578336
 22
2625.934205194698
 32
0.0
 13
3447.353101578336
 23
2625.934205194698
 33
0.0
  0
SOLID
  5
A1
330
9B
100
AcDbEntity
  8
cotas
100
AcDbTrace
 10
3699.343808068028
 20
2623.202608481463
 30
0.0
 11
3699.285633338688
 21
2619.869782831661
 31
0.0
 12
3709.313197652763
 22
2621.361671468541
 32
0.0
 13
3709.313197652763
 23
2621.361671468541
 33
0.0
  0
MTEXT
  5
A2
330
9B
100
AcDbEntity
  8
cotas
100
AcDbMText
 10
3578.5113072823
 20
2633.854576990515
 30
0.0
 40
10.0
 41
0.0
 71
     5
 72
     1
  1
262
  7
SANINDUSA
 11
0.999847694940562
 21
-0.0174524188021261
 31
0.0
 73
     1
 44
1.0
1001
ACAD
1000
MTEXTBEGIN
1070
    73
1070
     1
1070
    44
1040
1.0
1070
    74
1070
     0
1000
MTEXTEND
  0
POINT
  5
A3
330
9B
100
AcDbEntity
  8
Defpoints
 62
     0
100
AcDbPoint
 10
3446.941026090606
 20
2602.326433044619
 30
0.0
  0
POINT
  5
A4
330
9B
100
AcDbEntity
  8
Defpoints
 62
     0
100
AcDbPoint
 10
3708.901122165033
 20
2597.753899318462
 30
0.0
  0
POINT
  5
A5
330
9B
100
AcDbEntity
  8
Defpoints
 62
     0
100
AcDbPoint
 10
3709.313197652763
 20
2621.361671468541
 30
0.0
  0
ENDBLK
  5
A6
330
9B
100
AcDbEntity
  8
0
100
AcDbBlockEnd
  0
BLOCK
  5
A8
330
A7
100
AcDbEntity
  8
0
100
AcDbBlockBegin
  2
*D11
 70
     1
 10
0.0
 20
0.0
 30
0.0
  3
*D11
  1

  0
LINE
  5
A9
330
A7
100
AcDbEntity
  8
cotas
100
AcDbLine
 10
3713.901122165033
 20
2597.753899318462
 30
0.0
 11
3763.38688783949
 21
2597.753899318462
 31
0.0
  0
LINE
  5
AA
330
A7
100
AcDbEntity
  8
cotas
100
AcDbLine
 10
3939.534229434834
 20
2661.901083132683
 30
0.0
 11
3753.38688783949
 21
2661.901083132683
 31
0.0
  0
LINE
  5
AB
330
A7
100
AcDbEntity
  8
cotas
100
AcDbLine
 10
3758.38688783949
 20
2607.753899318462
 30
0.0
 11
3758.38688783949
 21
2651.901083132683
 31
0.0
  0
SOLID
  5
AC
330
A7
100
AcDbEntity
  8
cotas
100
AcDbTrace
 10
3756.720221172823
 20
2607.753899318462
 30
0.0
 11
3760.053554506156
 21
2607.753899318462
 31
0.0
 12
3758.38688783949
 22
2597.753899318462
 32
0.0
 13
3758.38688783949
 23
2597.753899318462
 33
0.0
  0
SOLID
  5
AD
330
A7
100
AcDbEntity
  8
cotas
100
AcDbTrace
 10
3756.720221172823
 20
2651.901083132683
 30
0.0
 11
3760.053554506156
 21
2651.901083132683
 31
0.0
 12
3758.38688783949
 22
2661.901083132683
 32
0.0
 13
3758.38688783949
 23
2661.901083132683
 33
0.0
  0
MTEXT
  5
AE
330
A7
100
AcDbEntity
  8
cotas
100
AcDbMText
 10
3747.050420411685
 20
2629.827491225574
 30
0.0
 40
10.0
 41
0.0
 71
     5
 72
     1
  1
64,1
  7
SANINDUSA
 11
0.0000000000000001
 21
1.0
 31
0.0
 73
     1
 44
1.0
1001
ACAD
1000
MTEXTBEGIN
1070
    73
1070
     1
1070
    44
1040
1.0
1070
    74
1070
     0
1000
MTEXTEND
  0
POINT
  5
AF
330
A7
100
AcDbEntity
  8
Defpoints
 62
     0
100
AcDbPoint
 10
3708.901122165033
 20
2597.753899318462
 30
0.0
  0
POINT
  5
B0
330
A7
100
AcDbEntity
  8
Defpoints
 62
     0
100
AcDbPoint
 10
3944.534229434834
 20
2661.901083132683
 30
0.0
  0
POINT
  5
B1
330
A7
100
AcDbEntity
  8
Defpoints
 62
     0
100
AcDbPoint
 10
3758.38688783949
 20
2661.901083132683
 30
0.0
  0
ENDBLK
  5
B2
330
A7
100
AcDbEntity
  8
0
100
AcDbBlockEnd
  0
BLOCK
  5
B4
330
B3
100
AcDbEntity
  8
0
100
AcDbBlockBegin
  2
*D12
 70
     1
 10
0.0
 20
0.0
 30
0.0
  3
*D12
  1

  0
LINE
  5
B5
330
B3
100
AcDbEntity
  8
cotas
100
AcDbLine
 10
3713.901122165033
 20
2597.753899318462
 30
0.0
 11
3763.38688783949
 21
2597.753899318462
 31
0.0
  0
LINE
  5
B6
330
B3
100
AcDbEntity
  8
cotas
100
AcDbLine
 10
3713.901122165033
 20
2575.735083634349
 30
0.0
 11
3763.38688783949
 21
2575.735083634349
 31
0.0
  0
LINE
  5
B7
330
B3
100
AcDbEntity
  8
cotas
100
AcDbLine
 10
3758.38688783949
 20
2607.753899318462
 30
0.0
 11
3758.38688783949
 21
2617.753899318462
 31
0.0
  0
LINE
  5
B8
330
B3
100
AcDbEntity
  8
cotas
100
AcDbLine
 10
3758.38688783949
 20
2565.735083634349
 30
0.0
 11
3758.38688783949
 21
2530.221316005067
 31
0.0
  0
LINE
  5
B9
330
B3
100
AcDbEntity
  8
cotas
100
AcDbLine
 10
3758.38688783949
 20
2597.753899318462
 30
0.0
 11
3758.38688783949
 21
2575.735083634349
 31
0.0
  0
SOLID
  5
BA
330
B3
100
AcDbEntity
  8
cotas
100
AcDbTrace
 10
3756.720221172823
 20
2607.753899318462
 30
0.0
 11
3760.053554506156
 21
2607.753899318462
 31
0.0
 12
3758.38688783949
 22
2597.753899318462
 32
0.0
 13
3758.38688783949
 23
2597.753899318462
 33
0.0
  0
SOLID
  5
BB
330
B3
100
AcDbEntity
  8
cotas
100
AcDbTrace
 10
3756.720221172823
 20
2565.735083634349
 30
0.0
 11
3760.053554506156
 21
2565.735083634349
 31
0.0
 12
3758.38688783949
 22
2575.735083634349
 32
0.0
 13
3758.38688783949
 23
2575.735083634349
 33
0.0
  0
MTEXT
  5
BC
330
B3
100
AcDbEntity
  8
cotas
100
AcDbMText
 10
3748.282791130288
 20
2542.978199819708
 30
0.0
 40
10.0
 41
0.0
 71
     5
 72
     1
  1
22
  7
SANINDUSA
 11
0.0000000000000001
 21
1.0
 31
0.0
 73
     1
 44
1.0
1001
ACAD
1000
MTEXTBEGIN
1070
    73
1070
     1
1070
    44
1040
1.0
1070
    74
1070
     0
1000
MTEXTEND
  0
POINT
  5
BD
330
B3
100
AcDbEntity
  8
Defpoints
 62
     0
100
AcDbPoint
 10
3708.901122165033
 20
2597.753899318462
 30
0.0
  0
POINT
  5
BE
330
B3
100
AcDbEntity
  8
Defpoints
 62
     0
100
AcDbPoint
 10
3708.901122165033
 20
2575.735083634349
 30
0.0
  0
POINT
  5
BF
330
B3
100
AcDbEntity
  8
Defpoints
 62
     0
100
AcDbPoint
 10
3758.38688783949
 20
2575.735083634349
 30
0.0
  0
ENDBLK
  5
C0
330
B3
100
AcDbEntity
  8
0
100
AcDbBlockEnd
  0
BLOCK
  5
C2
330
C1
100
AcDbEntity
  8
0
100
AcDbBlockBegin
  2
*D13
 70
     1
 10
0.0
 20
0.0
 30
0.0
  3
*D13
  1

  0
LINE
  5
C3
330
C1
100
AcDbEntity
  8
cotas
100
AcDbLine
 10
3441.941026090606
 20
2602.326433044619
 30
0.0
 11
3308.836022407941
 21
2602.326433044619
 31
0.0
  0
LINE
  5
C4
330
C1
100
AcDbEntity
  8
cotas
100
AcDbLine
 10
3441.941026090606
 20
2592.324909686964
 30
0.0
 11
3308.836022407941
 21
2592.324909686964
 31
0.0
  0
LINE
  5
C5
330
C1
100
AcDbEntity
  8
cotas
100
AcDbLine
 10
3313.836022407941
 20
2612.326433044619
 30
0.0
 11
3313.836022407941
 21
2622.326433044619
 31
0.0
  0
LINE
  5
C6
330
C1
100
AcDbEntity
  8
cotas
100
AcDbLine
 10
3313.836022407941
 20
2582.324909686963
 30
0.0
 11
3313.836022407941
 21
2547.610336147675
 31
0.0
  0
LINE
  5
C7
330
C1
100
AcDbEntity
  8
cotas
100
AcDbLine
 10
3313.836022407941
 20
2602.326433044619
 30
0.0
 11
3313.836022407941
 21
2592.324909686964
 31
0.0
  0
SOLID
  5
C8
330
C1
100
AcDbEntity
  8
cotas
100
AcDbTrace
 10
3312.169355741274
 20
2612.326433044619
 30
0.0
 11
3315.502689074607
 21
2612.326433044619
 31
0.0
 12
3313.836022407941
 22
2602.326433044619
 32
0.0
 13
3313.836022407941
 23
2602.326433044619
 33
0.0
  0
SOLID
  5
C9
330
C1
100
AcDbEntity
  8
cotas
100
AcDbTrace
 10
3312.169355741274
 20
2582.324909686963
 30
0.0
 11
3315.502689074607
 21
2582.324909686963
 31
0.0
 12
3313.836022407941
 22
2592.324909686964
 32
0.0
 13
3313.836022407941
 23
2592.324909686964
 33
0.0
  0
MTEXT
  5
CA
330
C1
100
AcDbEntity
  8
cotas
100
AcDbMText
 10
3303.6311869479
 20
2559.96762291732
 30
0.0
 40
10.0
 41
0.0
 71
     5
 72
     1
  1
10
  7
SANINDUSA
 11
0.0000000000000001
 21
1.0
 31
0.0
 73
     1
 44
1.0
1001
ACAD
1000
MTEXTBEGIN
1070
    73
1070
     1
1070
    44
1040
1.0
1070
    74
1070
     0
1000
MTEXTEND
  0
POINT
  5
CB
330
C1
100
AcDbEntity
  8
Defpoints
 62
     0
100
AcDbPoint
 10
3446.941026090606
 20
2602.326433044619
 30
0.0
  0
POINT
  5
CC
330
C1
100
AcDbEntity
  8
Defpoints
 62
     0
100
AcDbPoint
 10
3446.941026090605
 20
2592.324909686964
 30
0.0
  0
POINT
  5
CD
330
C1
100
AcDbEntity
  8
Defpoints
 62
     0
100
AcDbPoint
 10
3313.836022407941
 20
2592.324909686964
 30
0.0
  0
ENDBLK
  5
CE
330
C1
100
AcDbEntity
  8
0
100
AcDbBlockEnd
  0
BLOCK
  5
D0
330
CF
100
AcDbEntity
  8
0
100
AcDbBlockBegin
  2
*D14
 70
     1
 10
0.0
 20
0.0
 30
0.0
  3
*D14
  1

  0
LINE
  5
D1
330
CF
100
AcDbEntity
  8
cotas
100
AcDbLine
 10
3441.941026090606
 20
2602.326433044619
 30
0.0
 11
3308.836022407941
 21
2602.326433044619
 31
0.0
  0
LINE
  5
D2
330
CF
100
AcDbEntity
  8
cotas
100
AcDbLine
 10
3339.53422498845
 20
2661.901083132683
 30
0.0
 11
3308.836022407941
 21
2661.901083132683
 31
0.0
  0
LINE
  5
D3
330
CF
100
AcDbEntity
  8
cotas
100
AcDbLine
 10
3313.836022407941
 20
2612.326433044619
 30
0.0
 11
3313.836022407941
 21
2651.901083132683
 31
0.0
  0
SOLID
  5
D4
330
CF
100
AcDbEntity
  8
cotas
100
AcDbTrace
 10
3312.169355741274
 20
2612.326433044619
 30
0.0
 11
3315.502689074607
 21
2612.326433044619
 31
0.0
 12
3313.836022407941
 22
2602.326433044619
 32
0.0
 13
3313.836022407941
 23
2602.326433044619
 33
0.0
  0
SOLID
  5
D5
330
CF
100
AcDbEntity
  8
cotas
100
AcDbTrace
 10
3312.169355741274
 20
2651.901083132683
 30
0.0
 11
3315.502689074607
 21
2651.901083132683
 31
0.0
 12
3313.836022407941
 22
2661.901083132683
 32
0.0
 13
3313.836022407941
 23
2661.901083132683
 33
0.0
  0
MTEXT
  5
D6
330
CF
100
AcDbEntity
  8
cotas
100
AcDbMText
 10
3302.492839063414
 20
2632.113758088652
 30
0.0
 40
10.0
 41
0.0
 71
     5
 72
     1
  1
59,6
  7
SANINDUSA
 11
0.0000000000000001
 21
1.0
 31
0.0
 73
     1
 44
1.0
1001
ACAD
1000
MTEXTBEGIN
1070
    73
1070
     1
1070
    44
1040
1.0
1070
    74
1070
     0
1000
MTEXTEND
  0
POINT
  5
D7
330
CF
100
AcDbEntity
  8
Defpoints
 62
     0
100
AcDbPoint
 10
3446.941026090606
 20
2602.326433044619
 30
0.0
  0
POINT
  5
D8
330
CF
100
AcDbEntity
  8
Defpoints
 62
     0
100
AcDbPoint
 10
3344.53422498845
 20
2661.901083132683
 30
0.0
  0
POINT
  5
D9
330
CF
100
AcDbEntity
  8
Defpoints
 62
     0
100
AcDbPoint
 10
3313.836022407941
 20
2661.901083132683
 30
0.0
  0
ENDBLK
  5
DA
330
CF
100
AcDbEntity
  8
0
100
AcDbBlockEnd
  0
BLOCK
  5
DC
330
DB
100
AcDbEntity
  8
0
100
AcDbBlockBegin
  2
*D15
 70
     1
 10
0.0
 20
0.0
 30
0.0
  3
*D15
  1

  0
ARC
  5
DD
330
DB
100
AcDbEntity
  8
cotas
100
AcDbCircle
 10
3410.768039043035
 20
2658.001083132682
 30
0.0
 40
47.01428158020937
100
AcDbArc
 50
192.209979182349
 51
259.7900208176427
  0
SOLID
  5
DE
330
DB
100
AcDbEntity
  8
cotas
100
AcDbTrace
 10
3363.160049612015
 20
2647.880545164488
 30
0.0
 11
3366.474478566607
 21
2648.235047373316
 31
0.0
 12
3363.753757462826
 22
2658.001083132682
 32
0.0
 13
3363.753757462826
 23
2658.001083132682
 33
0.0
  0
SOLID
  5
DF
330
DB
100
AcDbEntity
  8
cotas
100
AcDbTrace
 10
3402.553775456567
 20
2613.393675363747
 30
0.0
 11
3402.315161103277
 21
2610.068893521051
 31
0.0
 12
3412.408813808007
 22
2611.015441382528
 32
0.0
 13
3412.408813808007
 23
2611.015441382528
 33
0.0
  0
MTEXT
  5
E0
330
DB
100
AcDbEntity
  8
cotas
100
AcDbMText
 10
3385.991144704034
 20
2632.343857963065
 30
0.0
 40
10.0
 41
0.0
 71
     5
 72
     1
  1
92,0°
  7
SANINDUSA
 11
0.719339800338595
 21
-0.6946583704590556
 31
0.0
 73
     1
 44
1.0
1001
ACAD
1000
MTEXTBEGIN
1070
    73
1070
     1
1070
    44
1040
1.0
1070
    74
1070
     0
1000
MTEXTEND
  0
POINT
  5
E1
330
DB
100
AcDbEntity
  8
Defpoints
 62
     0
100
AcDbPoint
 10
3370.328744802904
 20
2634.021797199541
 30
0.0
  0
POINT
  5
E2
330
DB
100
AcDbEntity
  8
Defpoints
 62
     0
100
AcDbPoint
 10
3351.413105830437
 20
2658.001083132682
 30
0.0
  0
POINT
  5
E3
330
DB
100
AcDbEntity
  8
Defpoints
 62
     0
100
AcDbPoint
 10
3412.484958452511
 20
2608.834944056349
 30
0.0
  0
POINT
  5
E4
330
DB
100
AcDbEntity
  8
Defpoints
 62
     0
100
AcDbPoint
 10
3410.872515404892
 20
2655.009271572462
 30
0.0
  0
POINT
  5
E5
330
DB
100
AcDbEntity
  8
Defpoints
 62
     0
100
AcDbPoint
 10
3407.774403841137
 20
2658.001083132682
 30
0.0
  0
ENDBLK
  5
E6
330
DB
100
AcDbEntity
  8
0
100
AcDbBlockEnd
  0
BLOCK
  5
E8
330
E7
100
AcDbEntity
  8
0
100
AcDbBlockBegin
  2
*D16
 70
     1
 10
0.0
 20
0.0
 30
0.0
  3
*D16
  1

  0
LINE
  5
E9
330
E7
100
AcDbEntity
  8
cotas
100
AcDbLine
 10
3380.421029732168
 20
2561.010569410493
 30
0.0
 11
3413.471906346155
 21
2591.316679349038
 31
0.0
  0
MTEXT
  5
EA
330
E7
100
AcDbEntity
  8
cotas
100
AcDbMText
 10
3386.491482175383
 20
2580.16729123921
 30
0.0
 40
10.0
 41
0.0
 71
     5
 72
     1
  1
R17
  7
SANINDUSA
 11
0.7370489033731641
 21
0.6758394143851159
 31
0.0
 73
     1
 44
1.0
1001
ACAD
1000
MTEXTBEGIN
1070
    73
1070
     1
1070
    44
1040
1.0
1070
    74
1070
     0
1000
MTEXTEND
  0
LINE
  5
EB
330
E7
100
AcDbEntity
  8
cotas
100
AcDbLine
 10
3433.372226737225
 20
2609.564343537432
 30
0.0
 11
3420.842395379886
 21
2598.075073492889
 31
0.0
  0
SOLID
  5
EC
330
E7
100
AcDbEntity
  8
cotas
100
AcDbTrace
 10
3412.345507322179
 20
2592.545094187993
 30
0.0
 11
3414.598305370129
 21
2590.088264510083
 31
0.0
 12
3420.842395379886
 22
2598.075073492889
 32
0.0
 13
3420.842395379886
 23
2598.075073492889
 33
0.0
  0
POINT
  5
ED
330
E7
100
AcDbEntity
  8
Defpoints
 62
     0
100
AcDbPoint
 10
3420.842395379886
 20
2598.075073492889
 30
0.0
  0
POINT
  5
EE
330
E7
100
AcDbEntity
  8
Defpoints
 62
     0
100
AcDbPoint
 10
3433.372226737225
 20
2609.564343537432
 30
0.0
  0
ENDBLK
  5
EF
330
E7
100
AcDbEntity
  8
0
100
AcDbBlockEnd
  0
BLOCK
  5
F1
330
F0
100
AcDbEntity
  8
0
100
AcDbBlockBegin
  2
*D17
 70
     1
 10
0.0
 20
0.0
 30
0.0
  3
*D17
  1

  0
LINE
  5
F2
330
F0
100
AcDbEntity
  8
cotas
100
AcDbLine
 10
3456.767616439457
 20
2540.556961307753
 30
0.0
 11
3443.579940343339
 21
2583.373940318874
 31
0.0
  0
MTEXT
  5
F3
330
F0
100
AcDbEntity
  8
cotas
100
AcDbMText
 10
3461.398276137007
 20
2560.19081926696
 30
0.0
 40
10.0
 41
0.0
 71
     5
 72
     1
  1
R10
  7
SANINDUSA
 11
0.2943554145872983
 21
-0.9556960237979122
 31
0.0
 73
     1
 44
1.0
1001
ACAD
1000
MTEXTBEGIN
1070
    73
1070
     1
1070
    44
1040
1.0
1070
    74
1070
     0
1000
MTEXTEND
  0
LINE
  5
F4
330
F0
100
AcDbEntity
  8
cotas
100
AcDbLine
 10
3437.692832051594
 20
2602.48786079483
 30
0.0
 11
3440.636386197467
 21
2592.930900556853
 31
0.0
  0
SOLID
  5
F5
330
F0
100
AcDbEntity
  8
cotas
100
AcDbTrace
 10
3445.172767049669
 20
2583.86453267652
 30
0.0
 11
3441.98711363701
 21
2582.883347961228
 31
0.0
 12
3440.636386197467
 22
2592.930900556853
 32
0.0
 13
3440.636386197467
 23
2592.930900556853
 33
0.0
  0
POINT
  5
F6
330
F0
100
AcDbEntity
  8
Defpoints
 62
     0
100
AcDbPoint
 10
3440.636386197467
 20
2592.930900556853
 30
0.0
  0
POINT
  5
F7
330
F0
100
AcDbEntity
  8
Defpoints
 62
     0
100
AcDbPoint
 10
3437.692832051594
 20
2602.48786079483
 30
0.0
  0
ENDBLK
  5
F8
330
F0
100
AcDbEntity
  8
0
100
AcDbBlockEnd
  0
BLOCK
  5
FA
330
F9
100
AcDbEntity
  8
0
100
AcDbBlockBegin
  2
*D18
 70
     1
 10
0.0
 20
0.0
 30
0.0
  3
*D18
  1

  0
LINE
  5
FB
330
F9
100
AcDbEntity
  8
cotas
100
AcDbLine
 10
3484.513522299797
 20
2561.844390950783
 30
0.0
 11
3455.117800229869
 21
2593.035337103869
 31
0.0
  0
MTEXT
  5
FC
330
F9
100
AcDbEntity
  8
cotas
100
AcDbMText
 10
3482.841193608754
 20
2578.199219024186
 30
0.0
 40
10.0
 41
0.0
 71
     5
 72
     1
  1
R7
  7
SANINDUSA
 11
0.6858537116676877
 21
-0.7277394356441435
 31
0.0
 73
     1
 44
1.0
1001
ACAD
1000
MTEXTBEGIN
1070
    73
1070
     1
1070
    44
1040
1.0
1070
    74
1070
     0
1000
MTEXTEND
  0
SOLID
  5
FD
330
F9
100
AcDbEntity
  8
cotas
100
AcDbTrace
 10
3456.330699289277
 20
2594.178426623316
 30
0.0
 11
3453.904901170462
 21
2591.892247584423
 31
0.0
 12
3448.259263113192
 22
2600.312731460311
 32
0.0
 13
3448.259263113192
 23
2600.312731460311
 33
0.0
  0
POINT
  5
FE
330
F9
100
AcDbEntity
  8
Defpoints
 62
     0
100
AcDbPoint
 10
3448.259263113192
 20
2600.312731460311
 30
0.0
  0
POINT
  5
FF
330
F9
100
AcDbEntity
  8
Defpoints
 62
     0
100
AcDbPoint
 10
3453.060239094865
 20
2595.218555410801
 30
0.0
  0
ENDBLK
  5
100
330
F9
100
AcDbEntity
  8
0
100
AcDbBlockEnd
  0
BLOCK
  5
102
330
101
100
AcDbEntity
  8
0
100
AcDbBlockBegin
  2
*D19
 70
     1
 10
0.0
 20
0.0
 30
0.0
  3
*D19
  1

  0
LINE
  5
103
330
101
100
AcDbEntity
  8
cotas
100
AcDbLine
 10
3692.871832512151
 20
2528.916465859222
 30
0.0
 11
3713.900530393207
 21
2568.522205468367
 31
0.0
  0
MTEXT
  5
104
330
101
100
AcDbEntity
  8
cotas
100
AcDbMText
 10
3692.194354853983
 20
2549.000574206642
 30
0.0
 40
10.0
 41
0.0
 71
     5
 72
     1
  1
R17
  7
SANINDUSA
 11
0.4689490960744506
 21
0.8832251951178452
 31
0.0
 73
     1
 44
1.0
1001
ACAD
1000
MTEXTBEGIN
1070
    73
1070
     1
1070
    44
1040
1.0
1070
    74
1070
     0
1000
MTEXTEND
  0
LINE
  5
105
330
101
100
AcDbEntity
  8
cotas
100
AcDbLine
 10
3726.564063621039
 20
2592.372878600399
 30
0.0
 11
3718.590021353951
 21
2577.354457419546
 31
0.0
  0
SOLID
  5
106
330
101
100
AcDbEntity
  8
cotas
100
AcDbTrace
 10
3712.428488401343
 20
2569.303787295158
 30
0.0
 11
3715.372572385069
 21
2567.740623641576
 31
0.0
 12
3718.590021353951
 22
2577.354457419546
 32
0.0
 13
3718.590021353951
 23
2577.354457419546
 33
0.0
  0
POINT
  5
107
330
101
100
AcDbEntity
  8
Defpoints
 62
     0
100
AcDbPoint
 10
3718.590021353951
 20
2577.354457419546
 30
0.0
  0
POINT
  5
108
330
101
100
AcDbEntity
  8
Defpoints
 62
     0
100
AcDbPoint
 10
3726.564063621039
 20
2592.372878600399
 30
0.0
  0
ENDBLK
  5
109
330
101
100
AcDbEntity
  8
0
100
AcDbBlockEnd
  0
BLOCK
  5
10B
330
10A
100
AcDbEntity
  8
0
100
AcDbBlockBegin
  2
*D20
 70
     1
 10
0.0
 20
0.0
 30
0.0
  3
*D20
  1

  0
LINE
  5
10C
330
10A
100
AcDbEntity
  8
cotas
100
AcDbLine
 10
3669.870129004837
 20
2558.545602704558
 30
0.0
 11
3700.472569290905
 21
2588.755120951206
 31
0.0
  0
MTEXT
  5
10D
330
10A
100
AcDbEntity
  8
cotas
100
AcDbMText
 10
3672.131375353024
 20
2574.82945512081
 30
0.0
 40
10.0
 41
0.0
 71
     5
 72
     1
  1
R7
  7
SANINDUSA
 11
0.7116607288361814
 21
0.7025233142269053
 31
0.0
 73
     1
 44
1.0
1001
ACAD
1000
MTEXTBEGIN
1070
    73
1070
     1
1070
    44
1040
1.0
1070
    74
1070
     0
1000
MTEXTEND
  0
SOLID
  5
10E
330
10A
100
AcDbEntity
  8
cotas
100
AcDbTrace
 10
3699.301697100528
 20
2589.941222165933
 30
0.0
 11
3701.643441481284
 21
2587.569019736479
 31
0.0
 12
3707.589176579268
 22
2595.780354093475
 32
0.0
 13
3707.589176579268
 23
2595.780354093475
 33
0.0
  0
POINT
  5
10F
330
10A
100
AcDbEntity
  8
Defpoints
 62
     0
100
AcDbPoint
 10
3707.589176579268
 20
2595.780354093475
 30
0.0
  0
POINT
  5
110
330
10A
100
AcDbEntity
  8
Defpoints
 62
     0
100
AcDbPoint
 10
3702.60755923859
 20
2590.862698555412
 30
0.0
  0
ENDBLK
  5
111
330
10A
100
AcDbEntity
  8
0
100
AcDbBlockEnd
  0
BLOCK
  5
113
330
112
100
AcDbEntity
  8
0
100
AcDbBlockBegin
  2
*D21
 70
     1
 10
0.0
 20
0.0
 30
0.0
  3
*D21
  1

  0
ARC
  5
114
330
112
100
AcDbEntity
  8
cotas
100
AcDbCircle
 10
33.91402720869248
 20
2661.901083132684
 30
0.0
 40
3635.944948314832
100
AcDbArc
 50
359.1575808785803
 51
359.8424184128587
  0
SOLID
  5
115
330
112
100
AcDbEntity
  8
cotas
100
AcDbTrace
 10
3671.132428495139
 20
2608.416960891478
 30
0.0
 11
3667.799525997163
 21
2608.470552402842
 31
0.0
 12
3669.305202712059
 22
2598.445049153229
 32
0.0
 13
3669.305202712059
 23
2598.445049153229
 33
0.0
  0
SOLID
  5
116
330
112
100
AcDbEntity
  8
cotas
100
AcDbTrace
 10
3668.178558849396
 20
2651.903384518549
 30
0.0
 11
3671.51188903096
 21
2651.898800657433
 31
0.0
 12
3669.858975523525
 22
2661.901083132685
 32
0.0
 13
3669.858975523525
 23
2661.901083132685
 33
0.0
  0
MTEXT
  5
117
330
112
100
AcDbEntity
  8
cotas
100
AcDbMText
 10
3658.377778254607
 20
2630.270844751832
 30
0.0
 40
10.0
 41
0.0
 71
     5
 72
     1
  1
1,0°
  7
SANINDUSA
 11
0.0087265416815007
 21
0.9999619230102121
 31
0.0
 73
     1
 44
1.0
1001
ACAD
1000
MTEXTBEGIN
1070
    73
1070
     1
1070
    44
1040
1.0
1070
    74
1070
     0
1000
MTEXTEND
  0
POINT
  5
118
330
112
100
AcDbEntity
  8
Defpoints
 62
     0
100
AcDbPoint
 10
3669.612850802978
 20
2619.59586724534
 30
0.0
  0
POINT
  5
119
330
112
100
AcDbEntity
  8
Defpoints
 62
     0
100
AcDbPoint
 10
3434.757956048172
 20
2661.901083132683
 30
0.0
  0
POINT
  5
11A
330
112
100
AcDbEntity
  8
Defpoints
 62
     0
100
AcDbPoint
 10
3702.729725979877
 20
2597.861621515915
 30
0.0
  0
POINT
  5
11B
330
112
100
AcDbEntity
  8
Defpoints
 62
     0
100
AcDbPoint
 10
3453.182406026481
 20
2602.217489275387
 30
0.0
  0
POINT
  5
11C
330
112
100
AcDbEntity
  8
Defpoints
 62
     0
100
AcDbPoint
 10
4454.310502821495
 20
2661.901083132683
 30
0.0
  0
ENDBLK
  5
11D
330
112
100
AcDbEntity
  8
0
100
AcDbBlockEnd
  0
BLOCK
  5
11F
330
11E
100
AcDbEntity
  8
0
100
AcDbBlockBegin
  2
*D22
 70
     1
 10
0.0
 20
0.0
 30
0.0
  3
*D22
  1

  0
LINE
  5
120
330
11E
100
AcDbEntity
  8
cotas
100
AcDbLine
 10
4544.534213793966
 20
2666.901083132684
 30
0.0
 11
4544.534213793966
 21
2696.901083132683
 31
0.0
  0
LINE
  5
121
330
11E
100
AcDbEntity
  8
cotas
100
AcDbLine
 10
4474.534235971838
 20
2666.901083132684
 30
0.0
 11
4474.534235971838
 21
2696.901083132683
 31
0.0
  0
LINE
  5
122
330
11E
100
AcDbEntity
  8
cotas
100
AcDbLine
 10
4534.534213793966
 20
2691.901083132683
 30
0.0
 11
4484.534235971838
 21
2691.901083132683
 31
0.0
  0
SOLID
  5
123
330
11E
100
AcDbEntity
  8
cotas
100
AcDbTrace
 10
4534.534213793966
 20
2693.56774979935
 30
0.0
 11
4534.534213793966
 21
2690.234416466017
 31
0.0
 12
4544.534213793966
 22
2691.901083132683
 32
0.0
 13
4544.534213793966
 23
2691.901083132683
 33
0.0
  0
SOLID
  5
124
330
11E
100
AcDbEntity
  8
cotas
100
AcDbTrace
 10
4484.534235971838
 20
2693.56774979935
 30
0.0
 11
4484.534235971838
 21
2690.234416466017
 31
0.0
 12
4474.534235971838
 22
2691.901083132683
 32
0.0
 13
4474.534235971838
 23
2691.901083132683
 33
0.0
  0
MTEXT
  5
125
330
11E
100
AcDbEntity
  8
cotas
100
AcDbMText
 10
4509.534224882902
 20
2702.105918592724
 30
0.0
 40
10.0
 41
0.0
 71
     5
 72
     1
  1
70
  7
SANINDUSA
 73
     1
 44
1.0
1001
ACAD
1000
MTEXTBEGIN
1070
    73
1070
     1
1070
    44
1040
1.0
1070
    74
1070
     0
1000
MTEXTEND
  0
POINT
  5
126
330
11E
100
AcDbEntity
  8
Defpoints
 62
     0
100
AcDbPoint
 10
4544.534213793966
 20
2661.901083132683
 30
0.0
  0
POINT
  5
127
330
11E
100
AcDbEntity
  8
Defpoints
 62
     0
100
AcDbPoint
 10
4474.534235971838
 20
2661.901083132683
 30
0.0
  0
POINT
  5
128
330
11E
100
AcDbEntity
  8
Defpoints
 62
     0
100
AcDbPoint
 10
4474.534235971838
 20
2691.901083132683
 30
0.0
  0
ENDBLK
  5
129
330
11E
100
AcDbEntity
  8
0
100
AcDbBlockEnd
  0
BLOCK
  5
12B
330
12A
100
AcDbEntity
  8
0
100
AcDbBlockBegin
  2
*D23
 70
     1
 10
0.0
 20
0.0
 30
0.0
  3
*D23
  1

  0
LINE
  5
12C
330
12A
100
AcDbEntity
  8
cotas
100
AcDbLine
 10
4544.534213793966
 20
2666.901083132684
 30
0.0
 11
4544.534213793966
 21
2726.896083088441
 31
0.0
  0
LINE
  5
12D
330
12A
100
AcDbEntity
  8
cotas
100
AcDbLine
 10
4364.53423571742
 20
2590.795762280072
 30
0.0
 11
4364.53423571742
 21
2726.896083088441
 31
0.0
  0
LINE
  5
12E
330
12A
100
AcDbEntity
  8
cotas
100
AcDbLine
 10
4534.534213793966
 20
2721.896083088441
 30
0.0
 11
4374.53423571742
 21
2721.896083088441
 31
0.0
  0
SOLID
  5
12F
330
12A
100
AcDbEntity
  8
cotas
100
AcDbTrace
 10
4534.534213793966
 20
2723.562749755108
 30
0.0
 11
4534.534213793966
 21
2720.229416421775
 31
0.0
 12
4544.534213793966
 22
2721.896083088441
 32
0.0
 13
4544.534213793966
 23
2721.896083088441
 33
0.0
  0
SOLID
  5
130
330
12A
100
AcDbEntity
  8
cotas
100
AcDbTrace
 10
4374.53423571742
 20
2723.562749755108
 30
0.0
 11
4374.53423571742
 21
2720.229416421775
 31
0.0
 12
4364.53423571742
 22
2721.896083088441
 32
0.0
 13
4364.53423571742
 23
2721.896083088441
 33
0.0
  0
MTEXT
  5
131
330
12A
100
AcDbEntity
  8
cotas
100
AcDbMText
 10
4454.534224755692
 20
2732.124424257011
 30
0.0
 40
10.0
 41
0.0
 71
     5
 72
     1
  1
180
  7
SANINDUSA
 73
     1
 44
1.0
1001
ACAD
1000
MTEXTBEGIN
1070
    73
1070
     1
1070
    44
1040
1.0
1070
    74
1070
     0
1000
MTEXTEND
  0
POINT
  5
132
330
12A
100
AcDbEntity
  8
Defpoints
 62
     0
100
AcDbPoint
 10
4544.534213793966
 20
2661.901083132683
 30
0.0
  0
POINT
  5
133
330
12A
100
AcDbEntity
  8
Defpoints
 62
     0
100
AcDbPoint
 10
4364.53423571742
 20
2585.795762280072
 30
0.0
  0
POINT
  5
134
330
12A
100
AcDbEntity
  8
Defpoints
 62
     0
100
AcDbPoint
 10
4364.53423571742
 20
2721.896083088441
 30
0.0
  0
ENDBLK
  5
135
330
12A
100
AcDbEntity
  8
0
100
AcDbBlockEnd
  0
BLOCK
  5
137
330
136
100
AcDbEntity
  8
0
100
AcDbBlockBegin
  2
*D24
 70
     1
 10
0.0
 20
0.0
 30
0.0
  3
*D24
  1

  0
LINE
  5
138
330
136
100
AcDbEntity
  8
cotas
100
AcDbLine
 10
4364.53423571742
 20
2590.795762280072
 30
0.0
 11
4364.53423571742
 21
2726.896083088441
 31
0.0
  0
LINE
  5
139
330
136
100
AcDbEntity
  8
cotas
100
AcDbLine
 10
3344.53422498845
 20
2666.901083132683
 30
0.0
 11
3344.53422498845
 21
2726.896083088441
 31
0.0
  0
LINE
  5
13A
330
136
100
AcDbEntity
  8
cotas
100
AcDbLine
 10
4354.53423571742
 20
2721.896083088441
 30
0.0
 11
3354.534224988451
 21
2721.896083088441
 31
0.0
  0
SOLID
  5
13B
330
136
100
AcDbEntity
  8
cotas
100
AcDbTrace
 10
4354.53423571742
 20
2723.562749755108
 30
0.0
 11
4354.53423571742
 21
2720.229416421775
 31
0.0
 12
4364.53423571742
 22
2721.896083088441
 32
0.0
 13
4364.53423571742
 23
2721.896083088441
 33
0.0
  0
SOLID
  5
13C
330
136
100
AcDbEntity
  8
cotas
100
AcDbTrace
 10
3354.534224988451
 20
2723.562749755108
 30
0.0
 11
3354.534224988451
 21
2720.229416421775
 31
0.0
 12
3344.53422498845
 22
2721.896083088441
 32
0.0
 13
3344.53422498845
 23
2721.896083088441
 33
0.0
  0
MTEXT
  5
13D
330
136
100
AcDbEntity
  8
cotas
100
AcDbMText
 10
3854.534230352935
 20
2732.104276506843
 30
0.0
 40
10.0
 41
0.0
 71
     5
 72
     1
  1
1020
  7
SANINDUSA
 73
     1
 44
1.0
1001
ACAD
1000
MTEXTBEGIN
1070
    73
1070
     1
1070
    44
1040
1.0
1070
    74
1070
     0
1000
MTEXTEND
  0
POINT
  5
13E
330
136
100
AcDbEntity
  8
Defpoints
 62
     0
100
AcDbPoint
 10
4364.53423571742
 20
2585.795762280072
 30
0.0
  0
POINT
  5
13F
330
136
100
AcDbEntity
  8
Defpoints
 62
     0
100
AcDbPoint
 10
3344.53422498845
 20
2661.901083132683
 30
0.0
  0
POINT
  5
140
330
136
100
AcDbEntity
  8
Defpoints
 62
     0
100
AcDbPoint
 10
3344.53422498845
 20
2721.896083088441
 30
0.0
  0
ENDBLK
  5
141
330
136
100
AcDbEntity
  8
0
100
AcDbBlockEnd
  0
BLOCK
  5
143
330
142
100
AcDbEntity
  8
0
100
AcDbBlockBegin
  2
*D25
 70
     1
 10
0.0
 20
0.0
 30
0.0
  3
*D25
  1

  0
LINE
  5
144
330
142
100
AcDbEntity
  8
cotas
100
AcDbLine
 10
4504.338939260664
 20
2530.114513165401
 30
0.0
 11
4473.378365035131
 21
2562.553125777309
 31
0.0
  0
MTEXT
  5
145
330
142
100
AcDbEntity
  8
cotas
100
AcDbMText
 10
4499.556920565086
 20
2549.632778490049
 30
0.0
 40
10.0
 41
0.0
 71
     5
 72
     1
  1
R17
  7
SANINDUSA
 11
0.6904342522363165
 21
-0.7233951502041457
 31
0.0
 73
     1
 44
1.0
1001
ACAD
1000
MTEXTBEGIN
1070
    73
1070
     1
1070
    44
1040
1.0
1070
    74
1070
     0
1000
MTEXTEND
  0
LINE
  5
146
330
142
100
AcDbEntity
  8
cotas
100
AcDbLine
 10
4454.736735765884
 20
2582.084694730614
 30
0.0
 11
4466.474022512768
 21
2569.787077279351
 31
0.0
  0
SOLID
  5
147
330
142
100
AcDbEntity
  8
cotas
100
AcDbTrace
 10
4474.584023618805
 20
2563.703849531036
 30
0.0
 11
4472.172706451457
 21
2561.402402023582
 31
0.0
 12
4466.474022512768
 22
2569.787077279351
 32
0.0
 13
4466.474022512768
 23
2569.787077279351
 33
0.0
  0
POINT
  5
148
330
142
100
AcDbEntity
  8
Defpoints
 62
     0
100
AcDbPoint
 10
4466.474022512768
 20
2569.787077279351
 30
0.0
  0
POINT
  5
149
330
142
100
AcDbEntity
  8
Defpoints
 62
     0
100
AcDbPoint
 10
4454.736735765884
 20
2582.084694730614
 30
0.0
  0
ENDBLK
  5
14A
330
142
100
AcDbEntity
  8
0
100
AcDbBlockEnd
  0
BLOCK
  5
14C
330
14B
100
AcDbEntity
  8
0
100
AcDbBlockBegin
  2
*D26
 70
     1
 10
0.0
 20
0.0
 30
0.0
  3
*D26
  1

  0
ARC
  5
14D
330
14B
100
AcDbEntity
  8
cotas
100
AcDbCircle
 10
4474.53423597184
 20
2661.901083132684
 30
0.0
 40
60.17204840949689
100
AcDbArc
 50
189.5329846044821
 51
258.4669963830445
  0
SOLID
  5
14E
330
14B
100
AcDbEntity
  8
cotas
100
AcDbTrace
 10
4413.532235458034
 20
2651.797175112401
 30
0.0
 11
4416.854040875655
 21
2652.074158647235
 31
0.0
 12
4414.362187562343
 22
2661.901083132685
 32
0.0
 13
4414.362187562343
 23
2661.901083132685
 33
0.0
  0
SOLID
  5
14F
330
14B
100
AcDbEntity
  8
cotas
100
AcDbTrace
 10
4462.700268990142
 20
2604.598983898427
 30
0.0
 11
4462.30752375058
 21
2601.288868751198
 31
0.0
 12
4472.434241812047
 22
2601.765690606122
 32
0.0
 13
4472.434241812047
 23
2601.765690606122
 33
0.0
  0
MTEXT
  5
150
330
14B
100
AcDbEntity
  8
cotas
100
AcDbMText
 10
4439.419346351439
 20
2627.991039656914
 30
0.0
 40
10.0
 41
0.0
 71
     5
 72
     1
  1
88,0°
  7
SANINDUSA
 11
0.694658251109633
 21
-0.7193399155929735
 31
0.0
 73
     1
 44
1.0
1001
ACAD
1000
MTEXTBEGIN
1070
    73
1070
     1
1070
    44
1040
1.0
1070
    74
1070
     0
1000
MTEXTEND
  0
POINT
  5
151
330
14B
100
AcDbEntity
  8
Defpoints
 62
     0
100
AcDbPoint
 10
4422.077178767706
 20
2632.423421093826
 30
0.0
  0
POINT
  5
152
330
14B
100
AcDbEntity
  8
Defpoints
 62
     0
100
AcDbPoint
 10
3434.757956048172
 20
2661.901083132683
 30
0.0
  0
POINT
  5
153
330
14B
100
AcDbEntity
  8
Defpoints
 62
     0
100
AcDbPoint
 10
4471.726245404879
 20
2581.491519054829
 30
0.0
  0
POINT
  5
154
330
14B
100
AcDbEntity
  8
Defpoints
 62
     0
100
AcDbPoint
 10
4474.29831944294
 20
2655.145381930998
 30
0.0
  0
POINT
  5
155
330
14B
100
AcDbEntity
  8
Defpoints
 62
     0
100
AcDbPoint
 10
4454.310502821495
 20
2661.901083132684
 30
0.0
  0
ENDBLK
  5
156
330
14B
100
AcDbEntity
  8
0
100
AcDbBlockEnd
  0
BLOCK
  5
158
330
157
100
AcDbEntity
  8
0
100
AcDbBlockBegin
  2
*D27
 70
     1
 10
0.0
 20
0.0
 30
0.0
  3
*D27
  1

  0
LINE
  5
159
330
157
100
AcDbEntity
  8
cotas
100
AcDbLine
 10
3344.534224988452
 20
1790.252658632853
 30
0.0
 11
3344.534224988452
 21
1820.252658632853
 31
0.0
  0
LINE
  5
15A
330
157
100
AcDbEntity
  8
cotas
100
AcDbLine
 10
4544.534213793967
 20
1790.252658632853
 30
0.0
 11
4544.534213793967
 21
1820.252658632853
 31
0.0
  0
LINE
  5
15B
330
157
100
AcDbEntity
  8
cotas
100
AcDbLine
 10
3354.534224988452
 20
1815.252658632853
 30
0.0
 11
4534.534213793967
 21
1815.252658632853
 31
0.0
  0
SOLID
  5
15C
330
157
100
AcDbEntity
  8
cotas
100
AcDbTrace
 10
3354.534224988452
 20
1816.91932529952
 30
0.0
 11
3354.534224988452
 21
1813.585991966186
 31
0.0
 12
3344.534224988452
 22
1815.252658632853
 32
0.0
 13
3344.534224988452
 23
1815.252658632853
 33
0.0
  0
SOLID
  5
15D
330
157
100
AcDbEntity
  8
cotas
100
AcDbTrace
 10
4534.534213793967
 20
1816.91932529952
 30
0.0
 11
4534.534213793967
 21
1813.585991966186
 31
0.0
 12
4544.534213793967
 22
1815.252658632853
 32
0.0
 13
4544.534213793967
 23
1815.252658632853
 33
0.0
  0
MTEXT
  5
15E
330
157
100
AcDbEntity
  8
cotas
100
AcDbMText
 10
3944.534219391209
 20
1825.460852051255
 30
0.0
 40
10.0
 41
0.0
 71
     5
 72
     1
  1
1200
  7
SANINDUSA
 73
     1
 44
1.0
1001
ACAD
1000
MTEXTBEGIN
1070
    73
1070
     1
1070
    44
1040
1.0
1070
    74
1070
     0
1000
MTEXTEND
  0
POINT
  5
15F
330
157
100
AcDbEntity
  8
Defpoints
 62
     0
100
AcDbPoint
 10
3344.534224988452
 20
1785.252658632853
 30
0.0
  0
POINT
  5
160
330
157
100
AcDbEntity
  8
Defpoints
 62
     0
100
AcDbPoint
 10
4544.534213793967
 20
1785.252658632853
 30
0.0
  0
POINT
  5
161
330
157
100
AcDbEntity
  8
Defpoints
 62
     0
100
AcDbPoint
 10
4544.534213793967
 20
1815.252658632853
 30
0.0
  0
ENDBLK
  5
162
330
157
100
AcDbEntity
  8
0
100
AcDbBlockEnd
  0
BLOCK
  5
164
330
163
100
AcDbEntity
  8
0
100
AcDbBlockBegin
  2
*D28
 70
     1
 10
0.0
 20
0.0
 30
0.0
  3
*D28
  1

  0
LINE
  5
165
330
163
100
AcDbEntity
  8
cotas
100
AcDbLine
 10
3339.534224988452
 20
1785.252658632853
 30
0.0
 11
3308.836022407941
 21
1785.252658632853
 31
0.0
  0
LINE
  5
166
330
163
100
AcDbEntity
  8
cotas
100
AcDbLine
 10
3338.836022407941
 20
1745.252659526923
 30
0.0
 11
3308.836022407941
 21
1745.252659526923
 31
0.0
  0
LINE
  5
167
330
163
100
AcDbEntity
  8
cotas
100
AcDbLine
 10
3313.836022407941
 20
1775.252658632853
 30
0.0
 11
3313.836022407941
 21
1755.252659526923
 31
0.0
  0
SOLID
  5
168
330
163
100
AcDbEntity
  8
cotas
100
AcDbTrace
 10
3312.169355741274
 20
1775.252658632853
 30
0.0
 11
3315.502689074607
 21
1775.252658632853
 31
0.0
 12
3313.836022407941
 22
1785.252658632853
 32
0.0
 13
3313.836022407941
 23
1785.252658632853
 33
0.0
  0
SOLID
  5
169
330
163
100
AcDbEntity
  8
cotas
100
AcDbTrace
 10
3312.169355741274
 20
1755.252659526923
 30
0.0
 11
3315.502689074607
 21
1755.252659526923
 31
0.0
 12
3313.836022407941
 22
1745.252659526923
 32
0.0
 13
3313.836022407941
 23
1745.252659526923
 33
0.0
  0
MTEXT
  5
16A
330
163
100
AcDbEntity
  8
cotas
100
AcDbMText
 10
3303.6311869479
 20
1765.252659079888
 30
0.0
 40
10.0
 41
0.0
 71
     5
 72
     1
  1
40
  7
SANINDUSA
 11
0.0000000000000001
 21
1.0
 31
0.0
 73
     1
 44
1.0
1001
ACAD
1000
MTEXTBEGIN
1070
    73
1070
     1
1070
    44
1040
1.0
1070
    74
1070
     0
1000
MTEXTEND
  0
POINT
  5
16B
330
163
100
AcDbEntity
  8
Defpoints
 62
     0
100
AcDbPoint
 10
3344.534224988452
 20
1785.252658632853
 30
0.0
  0
POINT
  5
16C
330
163
100
AcDbEntity
  8
Defpoints
 62
     0
100
AcDbPoint
 10
3343.83602240794
 20
1745.252659526923
 30
0.0
  0
POINT
  5
16D
330
163
100
AcDbEntity
  8
Defpoints
 62
     0
100
AcDbPoint
 10
3313.836022407941
 20
1745.252659526923
 30
0.0
  0
ENDBLK
  5
16E
330
163
100
AcDbEntity
  8
0
100
AcDbBlockEnd
  0
BLOCK
  5
170
330
16F
100
AcDbEntity
  8
0
100
AcDbBlockBegin
  2
*D29
 70
     1
 10
0.0
 20
0.0
 30
0.0
  3
*D29
  1

  0
LINE
  5
171
330
16F
100
AcDbEntity
  8
cotas
100
AcDbLine
 10
3381.747311558618
 20
1753.584994311432
 30
0.0
 11
3353.74065443287
 21
1776.359904686002
 31
0.0
  0
MTEXT
  5
172
330
16F
100
AcDbEntity
  8
cotas
100
AcDbMText
 10
3377.932410489298
 20
1769.576354928739
 30
0.0
 40
10.0
 41
0.0
 71
     5
 72
     1
  1
R7
  7
SANINDUSA
 11
0.7758495341439616
 21
-0.6309179822834326
 31
0.0
 73
     1
 44
1.0
1001
ACAD
1000
MTEXTBEGIN
1070
    73
1070
     1
1070
    44
1040
1.0
1070
    74
1070
     0
1000
MTEXTEND
  0
SOLID
  5
173
330
16F
100
AcDbEntity
  8
cotas
100
AcDbTrace
 10
3354.792184403342
 20
1777.652987242908
 30
0.0
 11
3352.689124462397
 21
1775.066822129095
 31
0.0
 12
3345.98215909143
 22
1782.669084508836
 32
0.0
 13
3345.98215909143
 23
1782.669084508836
 33
0.0
  0
POINT
  5
174
330
16F
100
AcDbEntity
  8
Defpoints
 62
     0
100
AcDbPoint
 10
3345.98215909143
 20
1782.669084508836
 30
0.0
  0
POINT
  5
175
330
16F
100
AcDbEntity
  8
Defpoints
 62
     0
100
AcDbPoint
 10
3351.413105830436
 20
1778.252658632854
 30
0.0
  0
ENDBLK
  5
176
330
16F
100
AcDbEntity
  8
0
100
AcDbBlockEnd
  0
BLOCK
  5
178
330
177
100
AcDbEntity
  8
0
100
AcDbBlockBegin
  2
*D30
 70
     1
 10
0.0
 20
0.0
 30
0.0
  3
*D30
  1

  0
LINE
  5
179
330
177
100
AcDbEntity
  8
cotas
100
AcDbLine
 10
4508.173841771056
 20
1752.571951518333
 30
0.0
 11
4535.39322361308
 21
1776.282173745614
 31
0.0
  0
MTEXT
  5
17A
330
177
100
AcDbEntity
  8
cotas
100
AcDbMText
 10
4511.445048845033
 20
1768.683322932356
 30
0.0
 40
10.0
 41
0.0
 71
     5
 72
     1
  1
R7
  7
SANINDUSA
 11
0.7540401779120525
 21
0.656828295747344
 31
0.0
 73
     1
 44
1.0
1001
ACAD
1000
MTEXTBEGIN
1070
    73
1070
     1
1070
    44
1040
1.0
1070
    74
1070
     0
1000
MTEXTEND
  0
SOLID
  5
17B
330
177
100
AcDbEntity
  8
cotas
100
AcDbTrace
 10
4534.298509786835
 20
1777.538907375467
 30
0.0
 11
4536.487937439326
 21
1775.02544011576
 31
0.0
 12
4542.9336253922
 22
1782.850456703087
 32
0.0
 13
4542.9336253922
 23
1782.850456703087
 33
0.0
  0
POINT
  5
17C
330
177
100
AcDbEntity
  8
Defpoints
 62
     0
100
AcDbPoint
 10
4542.9336253922
 20
1782.850456703087
 30
0.0
  0
POINT
  5
17D
330
177
100
AcDbEntity
  8
Defpoints
 62
     0
100
AcDbPoint
 10
4537.65534414681
 20
1778.25265863285
 30
0.0
  0
ENDBLK
  5
17E
330
177
100
AcDbEntity
  8
0
100
AcDbBlockEnd
  0
BLOCK
  5
180
330
17F
100
AcDbEntity
  8
0
100
AcDbBlockBegin
  2
*D31
 70
     1
 10
0.0
 20
0.0
 30
0.0
  3
*D31
  1

  0
LINE
  5
181
330
17F
100
AcDbEntity
  8
cotas
100
AcDbLine
 10
4545.319751647921
 20
1740.253421193135
 30
0.0
 11
4545.868774748454
 21
1708.802841521672
 31
0.0
  0
ARC
  5
182
330
17F
100
AcDbEntity
  8
cotas
100
AcDbCircle
 10
4544.534213793966
 20
1785.252658632853
 30
0.0
 40
71.46146473403533
100
AcDbArc
 50
188.0242731520483
 51
262.9758200766578
  0
SOLID
  5
183
330
17F
100
AcDbEntity
  8
cotas
100
AcDbTrace
 10
4472.109844767515
 20
1775.160553148791
 30
0.0
 11
4475.435008940314
 21
1775.393779080119
 31
0.0
 12
4473.072749059929
 22
1785.252658632853
 32
0.0
 13
4473.072749059929
 23
1785.252658632853
 33
0.0
  0
SOLID
  5
184
330
17F
100
AcDbEntity
  8
cotas
100
AcDbTrace
 10
4535.882895901421
 20
1715.991902672755
 30
0.0
 11
4535.707743024479
 21
1712.663174299815
 31
0.0
 12
4545.781504581767
 22
1713.80207985546
 32
0.0
 13
4545.781504581767
 23
1713.80207985546
 33
0.0
  0
MTEXT
  5
185
330
17F
100
AcDbEntity
  8
cotas
100
AcDbMText
 10
4502.396788299843
 20
1742.373233147484
 30
0.0
 40
10.0
 41
0.0
 71
     5
 72
     1
  1
91,0°
  7
SANINDUSA
 11
0.7132510193954568
 21
-0.7009086840176413
 31
0.0
 73
     1
 44
1.0
1001
ACAD
1000
MTEXTBEGIN
1070
    73
1070
     1
1070
    44
1040
1.0
1070
    74
1070
     0
1000
MTEXTEND
  0
POINT
  5
186
330
17F
100
AcDbEntity
  8
Defpoints
 62
     0
100
AcDbPoint
 10
4482.855708649382
 20
1749.162452966173
 30
0.0
  0
POINT
  5
187
330
17F
100
AcDbEntity
  8
Defpoints
 62
     0
100
AcDbPoint
 10
3351.413105772535
 20
1785.252658632853
 30
0.0
  0
POINT
  5
188
330
17F
100
AcDbEntity
  8
Defpoints
 62
     0
100
AcDbPoint
 10
4544.654277987598
 20
1778.374826928033
 30
0.0
  0
POINT
  5
189
330
17F
100
AcDbEntity
  8
Defpoints
 62
     0
100
AcDbPoint
 10
4545.232481481234
 20
1745.252659526923
 30
0.0
  0
POINT
  5
18A
330
17F
100
AcDbEntity
  8
Defpoints
 62
     0
100
AcDbPoint
 10
4537.655300618807
 20
1785.252658632853
 30
0.0
  0
ENDBLK
  5
18B
330
17F
100
AcDbEntity
  8
0
100
AcDbBlockEnd
  0
BLOCK
  5
18D
330
18C
100
AcDbEntity
  8
0
100
AcDbBlockBegin
  2
*D32
 70
     1
 10
0.0
 20
0.0
 30
0.0
  3
*D32
  1

  0
LINE
  5
18E
330
18C
100
AcDbEntity
  8
cotas
100
AcDbLine
 10
3343.748760375881
 20
1740.253421051139
 30
0.0
 11
3342.946019244575
 21
1694.26441237261
 31
0.0
  0
ARC
  5
18F
330
18C
100
AcDbEntity
  8
cotas
100
AcDbCircle
 10
3344.534224988452
 20
1785.252658632852
 30
0.0
 40
86.00210632177363
100
AcDbArc
 50
275.6658955430538
 51
353.3341044583944
  0
SOLID
  5
190
330
18C
100
AcDbEntity
  8
cotas
100
AcDbTrace
 10
3353.092836748536
 20
1698.005429291782
 30
0.0
 11
3352.957148849497
 21
1701.335999799242
 31
0.0
 12
3343.033281276635
 22
1699.263650848394
 32
0.0
 13
3343.033281276635
 23
1699.263650848394
 33
0.0
  0
SOLID
  5
191
330
18C
100
AcDbEntity
  8
cotas
100
AcDbTrace
 10
3428.291102618099
 20
1775.366469989203
 30
0.0
 11
3431.618797783182
 21
1775.172676286008
 31
0.0
 12
3430.536331310225
 22
1785.252658632852
 32
0.0
 13
3430.536331310225
 23
1785.252658632852
 33
0.0
  0
MTEXT
  5
192
330
18C
100
AcDbEntity
  8
cotas
100
AcDbMText
 10
3396.863355766527
 20
1732.002148286625
 30
0.0
 40
10.0
 41
0.0
 71
     5
 72
     1
  1
91,0°
  7
SANINDUSA
 11
0.7132504491453245
 21
0.700909264308864
 31
0.0
 73
     1
 44
1.0
1001
ACAD
1000
MTEXTBEGIN
1070
    73
1070
     1
1070
    44
1040
1.0
1070
    74
1070
     0
1000
MTEXTEND
  0
POINT
  5
193
330
18C
100
AcDbEntity
  8
Defpoints
 62
     0
100
AcDbPoint
 10
3386.66577262357
 20
1710.277362797148
 30
0.0
  0
POINT
  5
194
330
18C
100
AcDbEntity
  8
Defpoints
 62
     0
100
AcDbPoint
 10
3343.83602240794
 20
1745.252659526922
 30
0.0
  0
POINT
  5
195
330
18C
100
AcDbEntity
  8
Defpoints
 62
     0
100
AcDbPoint
 10
3351.413105772535
 20
1785.252658632852
 30
0.0
  0
POINT
  5
196
330
18C
100
AcDbEntity
  8
Defpoints
 62
     0
100
AcDbPoint
 10
4537.655300618807
 20
1785.252658632853
 30
0.0
  0
POINT
  5
197
330
18C
100
AcDbEntity
  8
Defpoints
 62
     0
100
AcDbPoint
 10
3344.414171966243
 20
1778.374825586895
 30
0.0
  0
ENDBLK
  5
198
330
18C
100
AcDbEntity
  8
0
100
AcDbBlockEnd
  0
BLOCK
  5
19A
330
199
100
AcDbEntity
  8
0
100
AcDbBlockBegin
  2
*D33
 70
     1
 10
0.0
 20
0.0
 30
0.0
  3
*D33
  1

  0
LINE
  5
19B
330
199
100
AcDbEntity
  8
cotas
100
AcDbLine
 10
4549.534213793967
 20
1785.252658632853
 30
0.0
 11
4580.232481481234
 21
1785.252658632853
 31
0.0
  0
LINE
  5
19C
330
199
100
AcDbEntity
  8
cotas
100
AcDbLine
 10
4421.229993250967
 20
1661.686486496473
 30
0.0
 11
4580.232481481234
 21
1661.686486496473
 31
0.0
  0
LINE
  5
19D
330
199
100
AcDbEntity
  8
cotas
100
AcDbLine
 10
4575.232481481235
 20
1775.252658632853
 30
0.0
 11
4575.232481481235
 21
1671.686486496474
 31
0.0
  0
SOLID
  5
19E
330
199
100
AcDbEntity
  8
cotas
100
AcDbTrace
 10
4573.565814814567
 20
1775.252658632853
 30
0.0
 11
4576.899148147901
 21
1775.252658632853
 31
0.0
 12
4575.232481481235
 22
1785.252658632853
 32
0.0
 13
4575.232481481235
 23
1785.252658632853
 33
0.0
  0
SOLID
  5
19F
330
199
100
AcDbEntity
  8
cotas
100
AcDbTrace
 10
4573.565814814567
 20
1671.686486496474
 30
0.0
 11
4576.899148147901
 21
1671.686486496474
 31
0.0
 12
4575.232481481235
 22
1661.686486496473
 32
0.0
 13
4575.232481481235
 23
1661.686486496473
 33
0.0
  0
MTEXT
  5
1A0
330
199
100
AcDbEntity
  8
cotas
100
AcDbMText
 10
4563.885940178346
 20
1723.469572564664
 30
0.0
 40
10.0
 41
0.0
 71
     5
 72
     1
  1
123,6
  7
SANINDUSA
 11
0.0000000000000001
 21
1.0
 31
0.0
 73
     1
 44
1.0
1001
ACAD
1000
MTEXTBEGIN
1070
    73
1070
     1
1070
    44
1040
1.0
1070
    74
1070
     0
1000
MTEXTEND
  0
POINT
  5
1A1
330
199
100
AcDbEntity
  8
Defpoints
 62
     0
100
AcDbPoint
 10
4544.534213793967
 20
1785.252658632853
 30
0.0
  0
POINT
  5
1A2
330
199
100
AcDbEntity
  8
Defpoints
 62
     0
100
AcDbPoint
 10
4416.229993250967
 20
1661.686486496473
 30
0.0
  0
POINT
  5
1A3
330
199
100
AcDbEntity
  8
Defpoints
 62
     0
100
AcDbPoint
 10
4575.232481481235
 20
1661.686486496473
 30
0.0
  0
ENDBLK
  5
1A4
330
199
100
AcDbEntity
  8
0
100
AcDbBlockEnd
  0
BLOCK
  5
1A6
330
1A5
100
AcDbEntity
  8
0
100
AcDbBlockBegin
  2
*D34
 70
     1
 10
0.0
 20
0.0
 30
0.0
  3
*D34
  1

  0
LINE
  5
1A7
330
1A5
100
AcDbEntity
  8
cotas
100
AcDbLine
 10
4544.499225141207
 20
1178.190386811579
 30
0.0
 11
4544.499225141207
 21
1213.812058488215
 31
0.0
  0
LINE
  5
1A8
330
1A5
100
AcDbEntity
  8
cotas
100
AcDbLine
 10
4364.529983167964
 20
1176.234996835077
 30
0.0
 11
4364.529983167964
 21
1213.812058488215
 31
0.0
  0
LINE
  5
1A9
330
1A5
100
AcDbEntity
  8
cotas
100
AcDbLine
 10
4534.499225141208
 20
1208.812058488215
 30
0.0
 11
4374.529983167963
 21
1208.812058488215
 31
0.0
  0
SOLID
  5
1AA
330
1A5
100
AcDbEntity
  8
cotas
100
AcDbTrace
 10
4534.499225141208
 20
1210.478725154882
 30
0.0
 11
4534.499225141208
 21
1207.145391821548
 31
0.0
 12
4544.499225141207
 22
1208.812058488215
 32
0.0
 13
4544.499225141207
 23
1208.812058488215
 33
0.0
  0
SOLID
  5
1AB
330
1A5
100
AcDbEntity
  8
cotas
100
AcDbTrace
 10
4374.529983167963
 20
1210.478725154882
 30
0.0
 11
4374.529983167963
 21
1207.145391821548
 31
0.0
 12
4364.529983167964
 22
1208.812058488215
 32
0.0
 13
4364.529983167964
 23
1208.812058488215
 33
0.0
  0
MTEXT
  5
1AC
330
1A5
100
AcDbEntity
  8
cotas
100
AcDbMText
 10
4454.514604154586
 20
1219.040399656785
 30
0.0
 40
10.0
 41
0.0
 71
     5
 72
     1
  1
180
  7
SANINDUSA
 73
     1
 44
1.0
1001
ACAD
1000
MTEXTBEGIN
1070
    73
1070
     1
1070
    44
1040
1.0
1070
    74
1070
     0
1000
MTEXTEND
  0
POINT
  5
1AD
330
1A5
100
AcDbEntity
  8
Defpoints
 62
     0
100
AcDbPoint
 10
4544.499225141207
 20
1173.190386811579
 30
0.0
  0
POINT
  5
1AE
330
1A5
100
AcDbEntity
  8
Defpoints
 62
     0
100
AcDbPoint
 10
4364.529983167964
 20
1171.234996835077
 30
-0.000000000000021
  0
POINT
  5
1AF
330
1A5
100
AcDbEntity
  8
Defpoints
 62
     0
100
AcDbPoint
 10
4364.529983167964
 20
1208.812058488215
 30
0.0
  0
ENDBLK
  5
1B0
330
1A5
100
AcDbEntity
  8
0
100
AcDbBlockEnd
  0
BLOCK
  5
1B2
330
1B1
100
AcDbEntity
  8
0
100
AcDbBlockBegin
  2
*D35
 70
     1
 10
0.0
 20
0.0
 30
0.0
  3
*D35
  1

  0
LINE
  5
1B3
330
1B1
100
AcDbEntity
  8
cotas
100
AcDbLine
 10
4364.534224988619
 20
1183.812058488214
 30
0.0
 11
4364.534224988619
 21
1213.812058488215
 31
0.0
  0
LINE
  5
1B4
330
1B1
100
AcDbEntity
  8
cotas
100
AcDbLine
 10
4216.112576462696
 20
1048.56403179714
 30
0.0
 11
4216.112576462696
 21
1213.812058488215
 31
0.0
  0
LINE
  5
1B5
330
1B1
100
AcDbEntity
  8
cotas
100
AcDbLine
 10
4354.534224988619
 20
1208.812058488215
 30
0.0
 11
4226.112576462695
 21
1208.812058488215
 31
0.0
  0
SOLID
  5
1B6
330
1B1
100
AcDbEntity
  8
cotas
100
AcDbTrace
 10
4354.534224988619
 20
1210.478725154882
 30
0.0
 11
4354.534224988619
 21
1207.145391821548
 31
0.0
 12
4364.534224988619
 22
1208.812058488215
 32
0.0
 13
4364.534224988619
 23
1208.812058488215
 33
0.0
  0
SOLID
  5
1B7
330
1B1
100
AcDbEntity
  8
cotas
100
AcDbTrace
 10
4226.112576462695
 20
1210.478725154882
 30
0.0
 11
4226.112576462695
 21
1207.145391821548
 31
0.0
 12
4216.112576462696
 22
1208.812058488215
 32
0.0
 13
4216.112576462696
 23
1208.812058488215
 33
0.0
  0
MTEXT
  5
1B8
330
1B1
100
AcDbEntity
  8
cotas
100
AcDbMText
 10
4290.323400725657
 20
1220.168673666187
 30
0.0
 40
10.0
 41
0.0
 71
     5
 72
     1
  1
148,4
  7
SANINDUSA
 73
     1
 44
1.0
1001
ACAD
1000
MTEXTBEGIN
1070
    73
1070
     1
1070
    44
1040
1.0
1070
    74
1070
     0
1000
MTEXTEND
  0
POINT
  5
1B9
330
1B1
100
AcDbEntity
  8
Defpoints
 62
     0
100
AcDbPoint
 10
4364.534224988619
 20
1178.812058488214
 30
0.0
  0
POINT
  5
1BA
330
1B1
100
AcDbEntity
  8
Defpoints
 62
     0
100
AcDbPoint
 10
4216.112576462696
 20
1043.56403179714
 30
0.0
  0
POINT
  5
1BB
330
1B1
100
AcDbEntity
  8
Defpoints
 62
     0
100
AcDbPoint
 10
4216.112576462696
 20
1208.812058488215
 30
0.0
  0
ENDBLK
  5
1BC
330
1B1
100
AcDbEntity
  8
0
100
AcDbBlockEnd
  0
BLOCK
  5
1BE
330
1BD
100
AcDbEntity
  8
0
100
AcDbBlockBegin
  2
*D36
 70
     1
 10
0.0
 20
0.0
 30
0.0
  3
*D36
  1

  0
LINE
  5
1BF
330
1BD
100
AcDbEntity
  8
cotas
100
AcDbLine
 10
4216.112576462696
 20
1048.56403179714
 30
0.0
 11
4216.112576462696
 21
1213.812058488215
 31
0.0
  0
LINE
  5
1C0
330
1BD
100
AcDbEntity
  8
cotas
100
AcDbLine
 10
4136.145587169452
 20
1048.552409543953
 30
0.0
 11
4136.145587169452
 21
1213.812058488215
 31
0.0
  0
LINE
  5
1C1
330
1BD
100
AcDbEntity
  8
cotas
100
AcDbLine
 10
4206.112576462696
 20
1208.812058488215
 30
0.0
 11
4146.145587169452
 21
1208.812058488215
 31
0.0
  0
SOLID
  5
1C2
330
1BD
100
AcDbEntity
  8
cotas
100
AcDbTrace
 10
4206.112576462696
 20
1210.478725154882
 30
0.0
 11
4206.112576462696
 21
1207.145391821548
 31
0.0
 12
4216.112576462696
 22
1208.812058488215
 32
0.0
 13
4216.112576462696
 23
1208.812058488215
 33
0.0
  0
SOLID
  5
1C3
330
1BD
100
AcDbEntity
  8
cotas
100
AcDbTrace
 10
4146.145587169452
 20
1210.478725154882
 30
0.0
 11
4146.145587169452
 21
1207.145391821548
 31
0.0
 12
4136.145587169452
 22
1208.812058488215
 32
0.0
 13
4136.145587169452
 23
1208.812058488215
 33
0.0
  0
MTEXT
  5
1C4
330
1BD
100
AcDbEntity
  8
cotas
100
AcDbMText
 10
4176.129081816074
 20
1219.040399656785
 30
0.0
 40
10.0
 41
0.0
 71
     5
 72
     1
  1
80
  7
SANINDUSA
 73
     1
 44
1.0
1001
ACAD
1000
MTEXTBEGIN
1070
    73
1070
     1
1070
    44
1040
1.0
1070
    74
1070
     0
1000
MTEXTEND
  0
POINT
  5
1C5
330
1BD
100
AcDbEntity
  8
Defpoints
 62
     0
100
AcDbPoint
 10
4216.112576462696
 20
1043.56403179714
 30
0.0
  0
POINT
  5
1C6
330
1BD
100
AcDbEntity
  8
Defpoints
 62
     0
100
AcDbPoint
 10
4136.145587169452
 20
1043.552409543953
 30
0.0
  0
POINT
  5
1C7
330
1BD
100
AcDbEntity
  8
Defpoints
 62
     0
100
AcDbPoint
 10
4136.145587169452
 20
1208.812058488215
 30
0.0
  0
ENDBLK
  5
1C8
330
1BD
100
AcDbEntity
  8
0
100
AcDbBlockEnd
  0
BLOCK
  5
1CA
330
1C9
100
AcDbEntity
  8
0
100
AcDbBlockBegin
  2
*D37
 70
     1
 10
0.0
 20
0.0
 30
0.0
  3
*D37
  1

  0
LINE
  5
1CB
330
1C9
100
AcDbEntity
  8
cotas
100
AcDbLine
 10
4136.145587169452
 20
1048.552409543953
 30
0.0
 11
4136.145587169452
 21
1213.812058488215
 31
0.0
  0
LINE
  5
1CC
330
1C9
100
AcDbEntity
  8
cotas
100
AcDbLine
 10
4056.231003950833
 20
1048.545475214329
 30
0.0
 11
4056.231003950833
 21
1213.812058488215
 31
0.0
  0
LINE
  5
1CD
330
1C9
100
AcDbEntity
  8
cotas
100
AcDbLine
 10
4126.145587169452
 20
1208.812058488215
 30
0.0
 11
4066.231003950834
 21
1208.812058488215
 31
0.0
  0
SOLID
  5
1CE
330
1C9
100
AcDbEntity
  8
cotas
100
AcDbTrace
 10
4126.145587169452
 20
1210.478725154882
 30
0.0
 11
4126.145587169452
 21
1207.145391821548
 31
0.0
 12
4136.145587169452
 22
1208.812058488215
 32
0.0
 13
4136.145587169452
 23
1208.812058488215
 33
0.0
  0
SOLID
  5
1CF
330
1C9
100
AcDbEntity
  8
cotas
100
AcDbTrace
 10
4066.231003950834
 20
1210.478725154882
 30
0.0
 11
4066.231003950834
 21
1207.145391821548
 31
0.0
 12
4056.231003950833
 22
1208.812058488215
 32
0.0
 13
4056.231003950833
 23
1208.812058488215
 33
0.0
  0
MTEXT
  5
1D0
330
1C9
100
AcDbEntity
  8
cotas
100
AcDbMText
 10
4096.188295560143
 20
1219.040399656785
 30
0.0
 40
10.0
 41
0.0
 71
     5
 72
     1
  1
80
  7
SANINDUSA
 73
     1
 44
1.0
1001
ACAD
1000
MTEXTBEGIN
1070
    73
1070
     1
1070
    44
1040
1.0
1070
    74
1070
     0
1000
MTEXTEND
  0
POINT
  5
1D1
330
1C9
100
AcDbEntity
  8
Defpoints
 62
     0
100
AcDbPoint
 10
4136.145587169452
 20
1043.552409543953
 30
0.0
  0
POINT
  5
1D2
330
1C9
100
AcDbEntity
  8
Defpoints
 62
     0
100
AcDbPoint
 10
4056.231003950833
 20
1043.54547521433
 30
0.0
  0
POINT
  5
1D3
330
1C9
100
AcDbEntity
  8
Defpoints
 62
     0
100
AcDbPoint
 10
4056.231003950833
 20
1208.812058488215
 30
0.0
  0
ENDBLK
  5
1D4
330
1C9
100
AcDbEntity
  8
0
100
AcDbBlockEnd
  0
BLOCK
  5
1D6
330
1D5
100
AcDbEntity
  8
0
100
AcDbBlockBegin
  2
*D38
 70
     1
 10
0.0
 20
0.0
 30
0.0
  3
*D38
  1

  0
LINE
  5
1D7
330
1D5
100
AcDbEntity
  8
cotas
100
AcDbLine
 10
4056.231003950833
 20
1048.545475214329
 30
0.0
 11
4056.231003950833
 21
1213.812058488215
 31
0.0
  0
LINE
  5
1D8
330
1D5
100
AcDbEntity
  8
cotas
100
AcDbLine
 10
3976.243706208425
 20
1048.545475214329
 30
0.0
 11
3976.243706208425
 21
1213.812058488215
 31
0.0
  0
LINE
  5
1D9
330
1D5
100
AcDbEntity
  8
cotas
100
AcDbLine
 10
4046.231003950834
 20
1208.812058488215
 30
0.0
 11
3986.243706208425
 21
1208.812058488215
 31
0.0
  0
SOLID
  5
1DA
330
1D5
100
AcDbEntity
  8
cotas
100
AcDbTrace
 10
4046.231003950834
 20
1210.478725154882
 30
0.0
 11
4046.231003950834
 21
1207.145391821548
 31
0.0
 12
4056.231003950833
 22
1208.812058488215
 32
0.0
 13
4056.231003950833
 23
1208.812058488215
 33
0.0
  0
SOLID
  5
1DB
330
1D5
100
AcDbEntity
  8
cotas
100
AcDbTrace
 10
3986.243706208425
 20
1210.478725154882
 30
0.0
 11
3986.243706208425
 21
1207.145391821548
 31
0.0
 12
3976.243706208425
 22
1208.812058488215
 32
0.0
 13
3976.243706208425
 23
1208.812058488215
 33
0.0
  0
MTEXT
  5
1DC
330
1D5
100
AcDbEntity
  8
cotas
100
AcDbMText
 10
4016.237355079629
 20
1219.040399656785
 30
0.0
 40
10.0
 41
0.0
 71
     5
 72
     1
  1
80
  7
SANINDUSA
 73
     1
 44
1.0
1001
ACAD
1000
MTEXTBEGIN
1070
    73
1070
     1
1070
    44
1040
1.0
1070
    74
1070
     0
1000
MTEXTEND
  0
POINT
  5
1DD
330
1D5
100
AcDbEntity
  8
Defpoints
 62
     0
100
AcDbPoint
 10
4056.231003950833
 20
1043.54547521433
 30
0.0
  0
POINT
  5
1DE
330
1D5
100
AcDbEntity
  8
Defpoints
 62
     0
100
AcDbPoint
 10
3976.243706208425
 20
1043.54547521433
 30
0.0
  0
POINT
  5
1DF
330
1D5
100
AcDbEntity
  8
Defpoints
 62
     0
100
AcDbPoint
 10
3976.243706208425
 20
1208.812058488215
 30
0.0
  0
ENDBLK
  5
1E0
330
1D5
100
AcDbEntity
  8
0
100
AcDbBlockEnd
  0
BLOCK
  5
1E2
330
1E1
100
AcDbEntity
  8
0
100
AcDbBlockBegin
  2
*D39
 70
     1
 10
0.0
 20
0.0
 30
0.0
  3
*D39
  1

  0
LINE
  5
1E3
330
1E1
100
AcDbEntity
  8
cotas
100
AcDbLine
 10
3976.243706208425
 20
1048.545475214329
 30
0.0
 11
3976.243706208425
 21
1213.812058488215
 31
0.0
  0
LINE
  5
1E4
330
1E1
100
AcDbEntity
  8
cotas
100
AcDbLine
 10
3896.24487792816
 20
1183.812058488214
 30
0.0
 11
3896.24487792816
 21
1213.812058488215
 31
0.0
  0
LINE
  5
1E5
330
1E1
100
AcDbEntity
  8
cotas
100
AcDbLine
 10
3966.243706208425
 20
1208.812058488215
 30
0.0
 11
3906.24487792816
 21
1208.812058488215
 31
0.0
  0
SOLID
  5
1E6
330
1E1
100
AcDbEntity
  8
cotas
100
AcDbTrace
 10
3966.243706208425
 20
1210.478725154882
 30
0.0
 11
3966.243706208425
 21
1207.145391821548
 31
0.0
 12
3976.243706208425
 22
1208.812058488215
 32
0.0
 13
3976.243706208425
 23
1208.812058488215
 33
0.0
  0
SOLID
  5
1E7
330
1E1
100
AcDbEntity
  8
cotas
100
AcDbTrace
 10
3906.24487792816
 20
1210.478725154882
 30
0.0
 11
3906.24487792816
 21
1207.145391821548
 31
0.0
 12
3896.24487792816
 22
1208.812058488215
 32
0.0
 13
3896.24487792816
 23
1208.812058488215
 33
0.0
  0
MTEXT
  5
1E8
330
1E1
100
AcDbEntity
  8
cotas
100
AcDbMText
 10
3936.244292068293
 20
1219.040399656785
 30
0.0
 40
10.0
 41
0.0
 71
     5
 72
     1
  1
80
  7
SANINDUSA
 73
     1
 44
1.0
1001
ACAD
1000
MTEXTBEGIN
1070
    73
1070
     1
1070
    44
1040
1.0
1070
    74
1070
     0
1000
MTEXTEND
  0
POINT
  5
1E9
330
1E1
100
AcDbEntity
  8
Defpoints
 62
     0
100
AcDbPoint
 10
3976.243706208425
 20
1043.54547521433
 30
0.0
  0
POINT
  5
1EA
330
1E1
100
AcDbEntity
  8
Defpoints
 62
     0
100
AcDbPoint
 10
3896.24487792816
 20
1178.812058488214
 30
-0.0000000000000197
  0
POINT
  5
1EB
330
1E1
100
AcDbEntity
  8
Defpoints
 62
     0
100
AcDbPoint
 10
3896.24487792816
 20
1208.812058488215
 30
0.0
  0
ENDBLK
  5
1EC
330
1E1
100
AcDbEntity
  8
0
100
AcDbBlockEnd
  0
BLOCK
  5
1EE
330
1ED
100
AcDbEntity
  8
0
100
AcDbBlockBegin
  2
*D40
 70
     1
 10
0.0
 20
0.0
 30
0.0
  3
*D40
  1

  0
LINE
  5
1EF
330
1ED
100
AcDbEntity
  8
cotas
100
AcDbLine
 10
3896.254135653715
 20
1183.812058488214
 30
0.0
 11
3896.254135653715
 21
1213.812058488214
 31
0.0
  0
LINE
  5
1F0
330
1ED
100
AcDbEntity
  8
cotas
100
AcDbLine
 10
3816.264176255037
 20
1048.545606217368
 30
0.0
 11
3816.264176255037
 21
1213.812058488214
 31
0.0
  0
LINE
  5
1F1
330
1ED
100
AcDbEntity
  8
cotas
100
AcDbLine
 10
3886.254135653715
 20
1208.812058488214
 30
0.0
 11
3826.264176255037
 21
1208.812058488214
 31
0.0
  0
SOLID
  5
1F2
330
1ED
100
AcDbEntity
  8
cotas
100
AcDbTrace
 10
3886.254135653715
 20
1210.478725154881
 30
0.0
 11
3886.254135653715
 21
1207.145391821548
 31
0.0
 12
3896.254135653715
 22
1208.812058488214
 32
0.0
 13
3896.254135653715
 23
1208.812058488214
 33
0.0
  0
SOLID
  5
1F3
330
1ED
100
AcDbEntity
  8
cotas
100
AcDbTrace
 10
3826.264176255037
 20
1210.478725154881
 30
0.0
 11
3826.264176255037
 21
1207.145391821548
 31
0.0
 12
3816.264176255037
 22
1208.812058488214
 32
0.0
 13
3816.264176255037
 23
1208.812058488214
 33
0.0
  0
MTEXT
  5
1F4
330
1ED
100
AcDbEntity
  8
cotas
100
AcDbMText
 10
3856.259155954376
 20
1219.040399656784
 30
0.0
 40
10.0
 41
0.0
 71
     5
 72
     1
  1
80
  7
SANINDUSA
 73
     1
 44
1.0
1001
ACAD
1000
MTEXTBEGIN
1070
    73
1070
     1
1070
    44
1040
1.0
1070
    74
1070
     0
1000
MTEXTEND
  0
POINT
  5
1F5
330
1ED
100
AcDbEntity
  8
Defpoints
 62
     0
100
AcDbPoint
 10
3896.254135653715
 20
1178.812058488214
 30
0.0
  0
POINT
  5
1F6
330
1ED
100
AcDbEntity
  8
Defpoints
 62
     0
100
AcDbPoint
 10
3816.264176255037
 20
1043.545606217368
 30
0.0
  0
POINT
  5
1F7
330
1ED
100
AcDbEntity
  8
Defpoints
 62
     0
100
AcDbPoint
 10
3816.264176255037
 20
1208.812058488214
 30
0.0
  0
ENDBLK
  5
1F8
330
1ED
100
AcDbEntity
  8
0
100
AcDbBlockEnd
  0
BLOCK
  5
1FA
330
1F9
100
AcDbEntity
  8
0
100
AcDbBlockBegin
  2
*D41
 70
     1
 10
0.0
 20
0.0
 30
0.0
  3
*D41
  1

  0
LINE
  5
1FB
330
1F9
100
AcDbEntity
  8
cotas
100
AcDbLine
 10
4260.038010191341
 20
1008.114050361519
 30
0.0
 11
4580.232481481234
 21
1008.114050361518
 31
0.0
  0
LINE
  5
1FC
330
1F9
100
AcDbEntity
  8
cotas
100
AcDbLine
 10
4260.029209438094
 20
928.1322070184632
 30
0.0
 11
4580.232481481234
 21
928.1322070184632
 31
0.0
  0
LINE
  5
1FD
330
1F9
100
AcDbEntity
  8
cotas
100
AcDbLine
 10
4575.232481481235
 20
998.1140503615186
 30
0.0
 11
4575.232481481235
 21
938.1322070184632
 31
0.0
  0
SOLID
  5
1FE
330
1F9
100
AcDbEntity
  8
cotas
100
AcDbTrace
 10
4573.565814814567
 20
998.1140503615186
 30
0.0
 11
4576.899148147901
 21
998.1140503615186
 31
0.0
 12
4575.232481481235
 22
1008.114050361518
 32
0.0
 13
4575.232481481235
 23
1008.114050361518
 33
0.0
  0
SOLID
  5
1FF
330
1F9
100
AcDbEntity
  8
cotas
100
AcDbTrace
 10
4573.565814814567
 20
938.1322070184632
 30
0.0
 11
4576.899148147901
 21
938.1322070184632
 31
0.0
 12
4575.232481481235
 22
928.1322070184632
 32
0.0
 13
4575.232481481235
 23
928.1322070184632
 33
0.0
  0
MTEXT
  5
200
330
1F9
100
AcDbEntity
  8
cotas
100
AcDbMText
 10
4565.004140312665
 20
968.1231286899917
 30
0.0
 40
10.0
 41
0.0
 71
     5
 72
     1
  1
80
  7
SANINDUSA
 11
0.0000000000000001
 21
1.0
 31
0.0
 73
     1
 44
1.0
1001
ACAD
1000
MTEXTBEGIN
1070
    73
1070
     1
1070
    44
1040
1.0
1070
    74
1070
     0
1000
MTEXTEND
  0
POINT
  5
201
330
1F9
100
AcDbEntity
  8
Defpoints
 62
     0
100
AcDbPoint
 10
4255.038010191341
 20
1008.114050361519
 30
0.0
  0
POINT
  5
202
330
1F9
100
AcDbEntity
  8
Defpoints
 62
     0
100
AcDbPoint
 10
4255.029209438094
 20
928.1322070184632
 30
0.0
  0
POINT
  5
203
330
1F9
100
AcDbEntity
  8
Defpoints
 62
     0
100
AcDbPoint
 10
4575.232481481235
 20
928.1322070184632
 30
0.0
  0
ENDBLK
  5
204
330
1F9
100
AcDbEntity
  8
0
100
AcDbBlockEnd
  0
BLOCK
  5
206
330
205
100
AcDbEntity
  8
0
100
AcDbBlockBegin
  2
*D42
 70
     1
 10
0.0
 20
0.0
 30
0.0
  3
*D42
  1

  0
LINE
  5
207
330
205
100
AcDbEntity
  8
cotas
100
AcDbLine
 10
4265.029209438095
 20
928.1322070184632
 30
0.0
 11
4580.232481481234
 21
928.1322070184632
 31
0.0
  0
LINE
  5
208
330
205
100
AcDbEntity
  8
cotas
100
AcDbLine
 10
4260.009349483758
 20
848.137327951199
 30
0.0
 11
4580.232481481234
 21
848.137327951199
 31
0.0
  0
LINE
  5
209
330
205
100
AcDbEntity
  8
cotas
100
AcDbLine
 10
4575.232481481235
 20
918.1322070184632
 30
0.0
 11
4575.232481481235
 21
858.1373279511989
 31
0.0
  0
SOLID
  5
20A
330
205
100
AcDbEntity
  8
cotas
100
AcDbTrace
 10
4573.565814814567
 20
918.1322070184632
 30
0.0
 11
4576.899148147901
 21
918.1322070184632
 31
0.0
 12
4575.232481481235
 22
928.1322070184632
 32
0.0
 13
4575.232481481235
 23
928.1322070184632
 33
0.0
  0
SOLID
  5
20B
330
205
100
AcDbEntity
  8
cotas
100
AcDbTrace
 10
4573.565814814567
 20
858.1373279511989
 30
0.0
 11
4576.899148147901
 21
858.1373279511989
 31
0.0
 12
4575.232481481235
 22
848.137327951199
 32
0.0
 13
4575.232481481235
 23
848.137327951199
 33
0.0
  0
MTEXT
  5
20C
330
205
100
AcDbEntity
  8
cotas
100
AcDbMText
 10
4565.004140312665
 20
888.1347674848319
 30
0.0
 40
10.0
 41
0.0
 71
     5
 72
     1
  1
80
  7
SANINDUSA
 11
0.0000000000000001
 21
1.0
 31
0.0
 73
     1
 44
1.0
1001
ACAD
1000
MTEXTBEGIN
1070
    73
1070
     1
1070
    44
1040
1.0
1070
    74
1070
     0
1000
MTEXTEND
  0
POINT
  5
20D
330
205
100
AcDbEntity
  8
Defpoints
 62
     0
100
AcDbPoint
 10
4260.029209438094
 20
928.1322070184632
 30
0.0
  0
POINT
  5
20E
330
205
100
AcDbEntity
  8
Defpoints
 62
     0
100
AcDbPoint
 10
4255.009349483758
 20
848.137327951199
 30
0.0
  0
POINT
  5
20F
330
205
100
AcDbEntity
  8
Defpoints
 62
     0
100
AcDbPoint
 10
4575.232481481235
 20
848.137327951199
 30
0.0
  0
ENDBLK
  5
210
330
205
100
AcDbEntity
  8
0
100
AcDbBlockEnd
  0
BLOCK
  5
212
330
211
100
AcDbEntity
  8
0
100
AcDbBlockBegin
  2
*D43
 70
     1
 10
0.0
 20
0.0
 30
0.0
  3
*D43
  1

  0
LINE
  5
213
330
211
100
AcDbEntity
  8
cotas
100
AcDbLine
 10
4259.992151946159
 20
768.1204032240948
 30
0.0
 11
4580.232481481234
 21
768.1204032240947
 31
0.0
  0
LINE
  5
214
330
211
100
AcDbEntity
  8
cotas
100
AcDbLine
 10
4260.009349483758
 20
848.137327951199
 30
0.0
 11
4580.232481481234
 21
848.137327951199
 31
0.0
  0
LINE
  5
215
330
211
100
AcDbEntity
  8
cotas
100
AcDbLine
 10
4575.232481481235
 20
778.1204032240947
 30
0.0
 11
4575.232481481235
 21
838.1373279511988
 31
0.0
  0
SOLID
  5
216
330
211
100
AcDbEntity
  8
cotas
100
AcDbTrace
 10
4573.565814814567
 20
778.1204032240947
 30
0.0
 11
4576.899148147901
 21
778.1204032240947
 31
0.0
 12
4575.232481481235
 22
768.1204032240947
 32
0.0
 13
4575.232481481235
 23
768.1204032240947
 33
0.0
  0
SOLID
  5
217
330
211
100
AcDbEntity
  8
cotas
100
AcDbTrace
 10
4573.565814814567
 20
838.1373279511988
 30
0.0
 11
4576.899148147901
 21
838.1373279511988
 31
0.0
 12
4575.232481481235
 22
848.137327951199
 32
0.0
 13
4575.232481481235
 23
848.137327951199
 33
0.0
  0
MTEXT
  5
218
330
211
100
AcDbEntity
  8
cotas
100
AcDbMText
 10
4565.004140312665
 20
808.1288655876475
 30
0.0
 40
10.0
 41
0.0
 71
     5
 72
     1
  1
80
  7
SANINDUSA
 11
0.0000000000000001
 21
1.0
 31
0.0
 73
     1
 44
1.0
1001
ACAD
1000
MTEXTBEGIN
1070
    73
1070
     1
1070
    44
1040
1.0
1070
    74
1070
     0
1000
MTEXTEND
  0
POINT
  5
219
330
211
100
AcDbEntity
  8
Defpoints
 62
     0
100
AcDbPoint
 10
4254.992151946158
 20
768.1204032240948
 30
0.0
  0
POINT
  5
21A
330
211
100
AcDbEntity
  8
Defpoints
 62
     0
100
AcDbPoint
 10
4255.009349483758
 20
848.137327951199
 30
0.0
  0
POINT
  5
21B
330
211
100
AcDbEntity
  8
Defpoints
 62
     0
100
AcDbPoint
 10
4575.232481481235
 20
848.137327951199
 30
0.0
  0
ENDBLK
  5
21C
330
211
100
AcDbEntity
  8
0
100
AcDbBlockEnd
  0
BLOCK
  5
21E
330
21D
100
AcDbEntity
  8
0
100
AcDbBlockBegin
  2
*D44
 70
     1
 10
0.0
 20
0.0
 30
0.0
  3
*D44
  1

  0
LINE
  5
21F
330
21D
100
AcDbEntity
  8
cotas
100
AcDbLine
 10
4259.992151946159
 20
768.1204032240948
 30
0.0
 11
4580.232481481234
 21
768.1204032240947
 31
0.0
  0
LINE
  5
220
330
21D
100
AcDbEntity
  8
cotas
100
AcDbLine
 10
4550.232481481234
 20
728.1138735211734
 30
0.0
 11
4580.232481481234
 21
728.1138735211734
 31
0.0
  0
LINE
  5
221
330
21D
100
AcDbEntity
  8
cotas
100
AcDbLine
 10
4575.232481481235
 20
758.1204032240947
 30
0.0
 11
4575.232481481235
 21
738.1138735211735
 31
0.0
  0
SOLID
  5
222
330
21D
100
AcDbEntity
  8
cotas
100
AcDbTrace
 10
4573.565814814567
 20
758.1204032240947
 30
0.0
 11
4576.899148147901
 21
758.1204032240947
 31
0.0
 12
4575.232481481235
 22
768.1204032240947
 32
0.0
 13
4575.232481481235
 23
768.1204032240947
 33
0.0
  0
SOLID
  5
223
330
21D
100
AcDbEntity
  8
cotas
100
AcDbTrace
 10
4573.565814814567
 20
738.1138735211735
 30
0.0
 11
4576.899148147901
 21
738.1138735211735
 31
0.0
 12
4575.232481481235
 22
728.1138735211734
 32
0.0
 13
4575.232481481235
 23
728.1138735211734
 33
0.0
  0
MTEXT
  5
224
330
21D
100
AcDbEntity
  8
cotas
100
AcDbMText
 10
4565.027646021195
 20
748.1171383726348
 30
0.0
 40
10.0
 41
0.0
 71
     5
 72
     1
  1
40
  7
SANINDUSA
 11
0.0000000000000001
 21
1.0
 31
0.0
 73
     1
 44
1.0
1001
ACAD
1000
MTEXTBEGIN
1070
    73
1070
     1
1070
    44
1040
1.0
1070
    74
1070
     0
1000
MTEXTEND
  0
POINT
  5
225
330
21D
100
AcDbEntity
  8
Defpoints
 62
     0
100
AcDbPoint
 10
4254.992151946158
 20
768.1204032240948
 30
0.0
  0
POINT
  5
226
330
21D
100
AcDbEntity
  8
Defpoints
 62
     0
100
AcDbPoint
 10
4545.232481481234
 20
728.1138735211734
 30
0.0
  0
POINT
  5
227
330
21D
100
AcDbEntity
  8
Defpoints
 62
     0
100
AcDbPoint
 10
4575.232481481235
 20
728.1138735211734
 30
0.0
  0
ENDBLK
  5
228
330
21D
100
AcDbEntity
  8
0
100
AcDbBlockEnd
  0
BLOCK
  5
22A
330
229
100
AcDbEntity
  8
0
100
AcDbBlockBegin
  2
*D45
 70
     1
 10
0.0
 20
0.0
 30
0.0
  3
*D45
  1

  0
LINE
  5
22B
330
229
100
AcDbEntity
  8
cotas
100
AcDbLine
 10
4549.654278012913
 20
728.1138735211716
 30
0.0
 11
4580.232481481234
 21
728.1138735211716
 31
0.0
  0
LINE
  5
22C
330
229
100
AcDbEntity
  8
cotas
100
AcDbLine
 10
4259.9942376841
 20
688.0914398197401
 30
0.0
 11
4580.232481481234
 21
688.09143981974
 31
0.0
  0
LINE
  5
22D
330
229
100
AcDbEntity
  8
cotas
100
AcDbLine
 10
4575.232481481235
 20
718.1138735211716
 30
0.0
 11
4575.232481481235
 21
698.0914398197399
 31
0.0
  0
SOLID
  5
22E
330
229
100
AcDbEntity
  8
cotas
100
AcDbTrace
 10
4573.565814814567
 20
718.1138735211716
 30
0.0
 11
4576.899148147901
 21
718.1138735211716
 31
0.0
 12
4575.232481481235
 22
728.1138735211716
 32
0.0
 13
4575.232481481235
 23
728.1138735211716
 33
0.0
  0
SOLID
  5
22F
330
229
100
AcDbEntity
  8
cotas
100
AcDbTrace
 10
4573.565814814567
 20
698.0914398197399
 30
0.0
 11
4576.899148147901
 21
698.0914398197399
 31
0.0
 12
4575.232481481235
 22
688.09143981974
 32
0.0
 13
4575.232481481235
 23
688.09143981974
 33
0.0
  0
MTEXT
  5
230
330
229
100
AcDbEntity
  8
cotas
100
AcDbMText
 10
4565.027646021195
 20
708.1026566704565
 30
0.0
 40
10.0
 41
0.0
 71
     5
 72
     1
  1
40
  7
SANINDUSA
 11
0.0000000000000001
 21
1.0
 31
0.0
 73
     1
 44
1.0
1001
ACAD
1000
MTEXTBEGIN
1070
    73
1070
     1
1070
    44
1040
1.0
1070
    74
1070
     0
1000
MTEXTEND
  0
POINT
  5
231
330
229
100
AcDbEntity
  8
Defpoints
 62
     0
100
AcDbPoint
 10
4544.654278012912
 20
728.1138735211716
 30
0.0
  0
POINT
  5
232
330
229
100
AcDbEntity
  8
Defpoints
 62
     0
100
AcDbPoint
 10
4254.9942376841
 20
688.0914398197401
 30
0.0
  0
POINT
  5
233
330
229
100
AcDbEntity
  8
Defpoints
 62
     0
100
AcDbPoint
 10
4575.232481481235
 20
688.09143981974
 30
0.0
  0
ENDBLK
  5
234
330
229
100
AcDbEntity
  8
0
100
AcDbBlockEnd
  0
BLOCK
  5
236
330
235
100
AcDbEntity
  8
0
100
AcDbBlockBegin
  2
*D46
 70
     1
 10
0.0
 20
0.0
 30
0.0
  3
*D46
  1

  0
LINE
  5
237
330
235
100
AcDbEntity
  8
cotas
100
AcDbLine
 10
4259.9942376841
 20
688.0914398197401
 30
0.0
 11
4580.232481481234
 21
688.09143981974
 31
0.0
  0
LINE
  5
238
330
235
100
AcDbEntity
  8
cotas
100
AcDbLine
 10
4259.994237684099
 20
608.1059091628794
 30
0.0
 11
4580.232481481234
 21
608.1059091628794
 31
0.0
  0
LINE
  5
239
330
235
100
AcDbEntity
  8
cotas
100
AcDbLine
 10
4575.232481481235
 20
678.09143981974
 30
0.0
 11
4575.232481481235
 21
618.1059091628793
 31
0.0
  0
SOLID
  5
23A
330
235
100
AcDbEntity
  8
cotas
100
AcDbTrace
 10
4573.565814814567
 20
678.09143981974
 30
0.0
 11
4576.899148147901
 21
678.09143981974
 31
0.0
 12
4575.232481481235
 22
688.09143981974
 32
0.0
 13
4575.232481481235
 23
688.09143981974
 33
0.0
  0
SOLID
  5
23B
330
235
100
AcDbEntity
  8
cotas
100
AcDbTrace
 10
4573.565814814567
 20
618.1059091628793
 30
0.0
 11
4576.899148147901
 21
618.1059091628793
 31
0.0
 12
4575.232481481235
 22
608.1059091628794
 32
0.0
 13
4575.232481481235
 23
608.1059091628794
 33
0.0
  0
MTEXT
  5
23C
330
235
100
AcDbEntity
  8
cotas
100
AcDbMText
 10
4565.004140312665
 20
648.0986744913105
 30
0.0
 40
10.0
 41
0.0
 71
     5
 72
     1
  1
80
  7
SANINDUSA
 11
0.0000000000000001
 21
1.0
 31
0.0
 73
     1
 44
1.0
1001
ACAD
1000
MTEXTBEGIN
1070
    73
1070
     1
1070
    44
1040
1.0
1070
    74
1070
     0
1000
MTEXTEND
  0
POINT
  5
23D
330
235
100
AcDbEntity
  8
Defpoints
 62
     0
100
AcDbPoint
 10
4254.9942376841
 20
688.0914398197401
 30
0.0
  0
POINT
  5
23E
330
235
100
AcDbEntity
  8
Defpoints
 62
     0
100
AcDbPoint
 10
4254.9942376841
 20
608.1059091628794
 30
0.0
  0
POINT
  5
23F
330
235
100
AcDbEntity
  8
Defpoints
 62
     0
100
AcDbPoint
 10
4575.232481481235
 20
608.1059091628794
 30
0.0
  0
ENDBLK
  5
240
330
235
100
AcDbEntity
  8
0
100
AcDbBlockEnd
  0
BLOCK
  5
242
330
241
100
AcDbEntity
  8
0
100
AcDbBlockBegin
  2
*D47
 70
     1
 10
0.0
 20
0.0
 30
0.0
  3
*D47
  1

  0
LINE
  5
243
330
241
100
AcDbEntity
  8
cotas
100
AcDbLine
 10
4259.994237684099
 20
608.1059091628794
 30
0.0
 11
4580.232481481234
 21
608.1059091628794
 31
0.0
  0
LINE
  5
244
330
241
100
AcDbEntity
  8
cotas
100
AcDbLine
 10
4260.082422598055
 20
528.1066106398084
 30
0.0
 11
4580.232481481234
 21
528.1066106398083
 31
0.0
  0
LINE
  5
245
330
241
100
AcDbEntity
  8
cotas
100
AcDbLine
 10
4575.232481481235
 20
598.1059091628793
 30
0.0
 11
4575.232481481235
 21
538.1066106398082
 31
0.0
  0
SOLID
  5
246
330
241
100
AcDbEntity
  8
cotas
100
AcDbTrace
 10
4573.565814814567
 20
598.1059091628793
 30
0.0
 11
4576.899148147901
 21
598.1059091628793
 31
0.0
 12
4575.232481481235
 22
608.1059091628794
 32
0.0
 13
4575.232481481235
 23
608.1059091628794
 33
0.0
  0
SOLID
  5
247
330
241
100
AcDbEntity
  8
cotas
100
AcDbTrace
 10
4573.565814814567
 20
538.1066106398082
 30
0.0
 11
4576.899148147901
 21
538.1066106398082
 31
0.0
 12
4575.232481481235
 22
528.1066106398083
 32
0.0
 13
4575.232481481235
 23
528.1066106398083
 33
0.0
  0
MTEXT
  5
248
330
241
100
AcDbEntity
  8
cotas
100
AcDbMText
 10
4565.004140312665
 20
568.1062599013446
 30
0.0
 40
10.0
 41
0.0
 71
     5
 72
     1
  1
80
  7
SANINDUSA
 11
0.0000000000000001
 21
1.0
 31
0.0
 73
     1
 44
1.0
1001
ACAD
1000
MTEXTBEGIN
1070
    73
1070
     1
1070
    44
1040
1.0
1070
    74
1070
     0
1000
MTEXTEND
  0
POINT
  5
249
330
241
100
AcDbEntity
  8
Defpoints
 62
     0
100
AcDbPoint
 10
4254.9942376841
 20
608.1059091628794
 30
0.0
  0
POINT
  5
24A
330
241
100
AcDbEntity
  8
Defpoints
 62
     0
100
AcDbPoint
 10
4255.082422598056
 20
528.1066106398084
 30
0.0
  0
POINT
  5
24B
330
241
100
AcDbEntity
  8
Defpoints
 62
     0
100
AcDbPoint
 10
4575.232481481235
 20
528.1066106398083
 30
0.0
  0
ENDBLK
  5
24C
330
241
100
AcDbEntity
  8
0
100
AcDbBlockEnd
  0
BLOCK
  5
24E
330
24D
100
AcDbEntity
  8
0
100
AcDbBlockBegin
  2
*D48
 70
     1
 10
0.0
 20
0.0
 30
0.0
  3
*D48
  1

  0
LINE
  5
24F
330
24D
100
AcDbEntity
  8
cotas
100
AcDbLine
 10
4260.082422598055
 20
528.1066106398084
 30
0.0
 11
4580.232481481234
 21
528.1066106398083
 31
0.0
  0
LINE
  5
250
330
24D
100
AcDbEntity
  8
cotas
100
AcDbLine
 10
4260.042517579504
 20
448.1055491994975
 30
0.0
 11
4580.232481481234
 21
448.1055491994974
 31
0.0
  0
LINE
  5
251
330
24D
100
AcDbEntity
  8
cotas
100
AcDbLine
 10
4575.232481481235
 20
518.1066106398083
 30
0.0
 11
4575.232481481235
 21
458.1055491994974
 31
0.0
  0
SOLID
  5
252
330
24D
100
AcDbEntity
  8
cotas
100
AcDbTrace
 10
4573.565814814567
 20
518.1066106398083
 30
0.0
 11
4576.899148147901
 21
518.1066106398083
 31
0.0
 12
4575.232481481235
 22
528.1066106398083
 32
0.0
 13
4575.232481481235
 23
528.1066106398083
 33
0.0
  0
SOLID
  5
253
330
24D
100
AcDbEntity
  8
cotas
100
AcDbTrace
 10
4573.565814814567
 20
458.1055491994974
 30
0.0
 11
4576.899148147901
 21
458.1055491994974
 31
0.0
 12
4575.232481481235
 22
448.1055491994974
 32
0.0
 13
4575.232481481235
 23
448.1055491994974
 33
0.0
  0
MTEXT
  5
254
330
24D
100
AcDbEntity
  8
cotas
100
AcDbMText
 10
4565.004140312665
 20
488.1060799196536
 30
0.0
 40
10.0
 41
0.0
 71
     5
 72
     1
  1
80
  7
SANINDUSA
 11
0.0000000000000001
 21
1.0
 31
0.0
 73
     1
 44
1.0
1001
ACAD
1000
MTEXTBEGIN
1070
    73
1070
     1
1070
    44
1040
1.0
1070
    74
1070
     0
1000
MTEXTEND
  0
POINT
  5
255
330
24D
100
AcDbEntity
  8
Defpoints
 62
     0
100
AcDbPoint
 10
4255.082422598056
 20
528.1066106398084
 30
0.0
  0
POINT
  5
256
330
24D
100
AcDbEntity
  8
Defpoints
 62
     0
100
AcDbPoint
 10
4255.042517579505
 20
448.1055491994975
 30
0.0
  0
POINT
  5
257
330
24D
100
AcDbEntity
  8
Defpoints
 62
     0
100
AcDbPoint
 10
4575.232481481235
 20
448.1055491994974
 30
0.0
  0
ENDBLK
  5
258
330
24D
100
AcDbEntity
  8
0
100
AcDbBlockEnd
  0
BLOCK
  5
25A
330
259
100
AcDbEntity
  8
0
100
AcDbBlockBegin
  2
*D49
 70
     1
 10
0.0
 20
0.0
 30
0.0
  3
*D49
  1

  0
LINE
  5
25B
330
259
100
AcDbEntity
  8
cotas
100
AcDbLine
 10
4260.042517579504
 20
448.1055491994975
 30
0.0
 11
4580.232481481234
 21
448.1055491994974
 31
0.0
  0
LINE
  5
25C
330
259
100
AcDbEntity
  8
cotas
100
AcDbLine
 10
4544.534213793967
 20
278.1138735211732
 30
0.0
 11
4580.232481481234
 21
278.1138735211732
 31
0.0
  0
LINE
  5
25D
330
259
100
AcDbEntity
  8
cotas
100
AcDbLine
 10
4575.232481481235
 20
438.1055491994975
 30
0.0
 11
4575.232481481235
 21
288.1138735211732
 31
0.0
  0
SOLID
  5
25E
330
259
100
AcDbEntity
  8
cotas
100
AcDbTrace
 10
4573.565814814567
 20
438.1055491994975
 30
0.0
 11
4576.899148147901
 21
438.1055491994975
 31
0.0
 12
4575.232481481235
 22
448.1055491994974
 32
0.0
 13
4575.232481481235
 23
448.1055491994974
 33
0.0
  0
SOLID
  5
25F
330
259
100
AcDbEntity
  8
cotas
100
AcDbTrace
 10
4573.565814814567
 20
288.1138735211732
 30
0.0
 11
4576.899148147901
 21
288.1138735211732
 31
0.0
 12
4575.232481481235
 22
278.1138735211732
 32
0.0
 13
4575.232481481235
 23
278.1138735211732
 33
0.0
  0
MTEXT
  5
260
330
259
100
AcDbEntity
  8
cotas
100
AcDbMText
 10
4565.027646021195
 20
363.1097113603361
 30
0.0
 40
10.0
 41
0.0
 71
     5
 72
     1
  1
170
  7
SANINDUSA
 11
0.0000000000000001
 21
1.0
 31
0.0
 73
     1
 44
1.0
1001
ACAD
1000
MTEXTBEGIN
1070
    73
1070
     1
1070
    44
1040
1.0
1070
    74
1070
     0
1000
MTEXTEND
  0
POINT
  5
261
330
259
100
AcDbEntity
  8
Defpoints
 62
     0
100
AcDbPoint
 10
4255.042517579505
 20
448.1055491994975
 30
0.0
  0
POINT
  5
262
330
259
100
AcDbEntity
  8
Defpoints
 62
     0
100
AcDbPoint
 10
4539.534213793967
 20
278.1138735211732
 30
0.0
  0
POINT
  5
263
330
259
100
AcDbEntity
  8
Defpoints
 62
     0
100
AcDbPoint
 10
4575.232481481235
 20
278.1138735211732
 30
0.0
  0
ENDBLK
  5
264
330
259
100
AcDbEntity
  8
0
100
AcDbBlockEnd
  0
BLOCK
  5
266
330
265
100
AcDbEntity
  8
0
100
AcDbBlockBegin
  2
*D50
 70
     1
 10
0.0
 20
0.0
 30
0.0
  3
*D50
  1

  0
LINE
  5
267
330
265
100
AcDbEntity
  8
cotas
100
AcDbLine
 10
4260.038010191341
 20
1008.114050361519
 30
0.0
 11
4580.232481481234
 21
1008.114050361518
 31
0.0
  0
LINE
  5
268
330
265
100
AcDbEntity
  8
cotas
100
AcDbLine
 10
4544.534213793967
 20
1178.113873521173
 30
0.0
 11
4580.232481481234
 21
1178.113873521173
 31
0.0
  0
LINE
  5
269
330
265
100
AcDbEntity
  8
cotas
100
AcDbLine
 10
4575.232481481235
 20
1018.114050361519
 30
0.0
 11
4575.232481481235
 21
1168.113873521173
 31
0.0
  0
SOLID
  5
26A
330
265
100
AcDbEntity
  8
cotas
100
AcDbTrace
 10
4573.565814814567
 20
1018.114050361519
 30
0.0
 11
4576.899148147901
 21
1018.114050361519
 31
0.0
 12
4575.232481481235
 22
1008.114050361518
 32
0.0
 13
4575.232481481235
 23
1008.114050361518
 33
0.0
  0
SOLID
  5
26B
330
265
100
AcDbEntity
  8
cotas
100
AcDbTrace
 10
4573.565814814567
 20
1168.113873521173
 30
0.0
 11
4576.899148147901
 21
1168.113873521173
 31
0.0
 12
4575.232481481235
 22
1178.113873521173
 32
0.0
 13
4575.232481481235
 23
1178.113873521173
 33
0.0
  0
MTEXT
  5
26C
330
265
100
AcDbEntity
  8
cotas
100
AcDbMText
 10
4565.027646021195
 20
1093.113961941347
 30
0.0
 40
10.0
 41
0.0
 71
     5
 72
     1
  1
170
  7
SANINDUSA
 11
0.0000000000000001
 21
1.0
 31
0.0
 73
     1
 44
1.0
1001
ACAD
1000
MTEXTBEGIN
1070
    73
1070
     1
1070
    44
1040
1.0
1070
    74
1070
     0
1000
MTEXTEND
  0
POINT
  5
26D
330
265
100
AcDbEntity
  8
Defpoints
 62
     0
100
AcDbPoint
 10
4255.038010191341
 20
1008.114050361519
 30
0.0
  0
POINT
  5
26E
330
265
100
AcDbEntity
  8
Defpoints
 62
     0
100
AcDbPoint
 10
4539.534213793967
 20
1178.113873521173
 30
0.0
  0
POINT
  5
26F
330
265
100
AcDbEntity
  8
Defpoints
 62
     0
100
AcDbPoint
 10
4575.232481481235
 20
1178.113873521173
 30
0.0
  0
ENDBLK
  5
270
330
265
100
AcDbEntity
  8
0
100
AcDbBlockEnd
  0
BLOCK
  5
272
330
271
100
AcDbEntity
  8
0
100
AcDbBlockBegin
  2
*D51
 70
     1
 10
0.0
 20
0.0
 30
0.0
  3
*D51
  1

  0
LINE
  5
273
330
271
100
AcDbEntity
  8
cotas
100
AcDbLine
 10
3343.83602240794
 20
1178.812838116968
 30
0.0
 11
3343.83602240794
 21
1213.812058488214
 31
0.0
  0
LINE
  5
274
330
271
100
AcDbEntity
  8
cotas
100
AcDbLine
 10
3572.077078530774
 20
1183.812058488214
 30
0.0
 11
3572.077078530774
 21
1213.812058488214
 31
0.0
  0
LINE
  5
275
330
271
100
AcDbEntity
  8
cotas
100
AcDbLine
 10
3353.836022407941
 20
1208.812058488214
 30
0.0
 11
3562.077078530774
 21
1208.812058488214
 31
0.0
  0
SOLID
  5
276
330
271
100
AcDbEntity
  8
cotas
100
AcDbTrace
 10
3353.836022407941
 20
1210.478725154881
 30
0.0
 11
3353.836022407941
 21
1207.145391821548
 31
0.0
 12
3343.83602240794
 22
1208.812058488214
 32
0.0
 13
3343.83602240794
 23
1208.812058488214
 33
0.0
  0
SOLID
  5
277
330
271
100
AcDbEntity
  8
cotas
100
AcDbTrace
 10
3562.077078530774
 20
1210.478725154881
 30
0.0
 11
3562.077078530774
 21
1207.145391821548
 31
0.0
 12
3572.077078530774
 22
1208.812058488214
 32
0.0
 13
3572.077078530774
 23
1208.812058488214
 33
0.0
  0
MTEXT
  5
278
330
271
100
AcDbEntity
  8
cotas
100
AcDbMText
 10
3457.956550469358
 20
1220.168673666186
 30
0.0
 40
10.0
 41
0.0
 71
     5
 72
     1
  1
228,2
  7
SANINDUSA
 73
     1
 44
1.0
1001
ACAD
1000
MTEXTBEGIN
1070
    73
1070
     1
1070
    44
1040
1.0
1070
    74
1070
     0
1000
MTEXTEND
  0
POINT
  5
279
330
271
100
AcDbEntity
  8
Defpoints
 62
     0
100
AcDbPoint
 10
3343.83602240794
 20
1173.812838116968
 30
0.0
  0
POINT
  5
27A
330
271
100
AcDbEntity
  8
Defpoints
 62
     0
100
AcDbPoint
 10
3572.077078530774
 20
1178.812058488214
 30
-0.0000000000000197
  0
POINT
  5
27B
330
271
100
AcDbEntity
  8
Defpoints
 62
     0
100
AcDbPoint
 10
3572.077078530774
 20
1208.812058488214
 30
0.0
  0
ENDBLK
  5
27C
330
271
100
AcDbEntity
  8
0
100
AcDbBlockEnd
  0
BLOCK
  5
27E
330
27D
100
AcDbEntity
  8
0
100
AcDbBlockBegin
  2
*D52
 70
     1
 10
0.0
 20
0.0
 30
0.0
  3
*D52
  1

  0
LINE
  5
27F
330
27D
100
AcDbEntity
  8
cotas
100
AcDbLine
 10
3383.115579945439
 20
314.2468438318858
 30
0.0
 11
3414.053588899826
 21
346.6512894280258
 31
0.0
  0
MTEXT
  5
280
330
27D
100
AcDbEntity
  8
cotas
100
AcDbMText
 10
3387.748412188684
 20
333.8819348452669
 30
0.0
 40
10.0
 41
0.0
 71
     5
 72
     1
  1
R20
  7
SANINDUSA
 11
0.6905515714747583
 21
0.7232831583368591
 31
0.0
 73
     1
 44
1.0
1001
ACAD
1000
MTEXTBEGIN
1070
    73
1070
     1
1070
    44
1040
1.0
1070
    74
1070
     0
1000
MTEXTEND
  0
LINE
  5
281
330
27D
100
AcDbEntity
  8
cotas
100
AcDbLine
 10
3434.770136044068
 20
368.3497841781309
 30
0.0
 11
3420.959104614573
 21
353.8841210113944
 31
0.0
  0
SOLID
  5
282
330
27D
100
AcDbEntity
  8
cotas
100
AcDbTrace
 10
3412.848116969265
 20
347.802208713817
 30
0.0
 11
3415.259060830388
 21
345.5003701422347
 31
0.0
 12
3420.959104614573
 22
353.8841210113944
 32
0.0
 13
3420.959104614573
 23
353.8841210113944
 33
0.0
  0
POINT
  5
283
330
27D
100
AcDbEntity
  8
Defpoints
 62
     0
100
AcDbPoint
 10
3420.959104614573
 20
353.8841210113944
 30
0.0
  0
POINT
  5
284
330
27D
100
AcDbEntity
  8
Defpoints
 62
     0
100
AcDbPoint
 10
3434.770136044068
 20
368.3497841781309
 30
0.0
  0
ENDBLK
  5
285
330
27D
100
AcDbEntity
  8
0
100
AcDbBlockEnd
  0
BLOCK
  5
287
330
286
100
AcDbEntity
  8
0
100
AcDbBlockBegin
  2
*D53
 70
     1
 10
0.0
 20
0.0
 30
0.0
  3
*D53
  1

  0
LINE
  5
288
330
286
100
AcDbEntity
  8
cotas
100
AcDbLine
 10
3489.191541048594
 20
425.8121136205972
 30
0.0
 11
3456.688825655234
 21
394.97736075126
 31
0.0
  0
MTEXT
  5
289
330
286
100
AcDbEntity
  8
cotas
100
AcDbMText
 10
3469.544120486587
 20
421.2393406264072
 30
0.0
 40
10.0
 41
0.0
 71
     5
 72
     1
  1
R10
  7
SANINDUSA
 11
0.7254765885281584
 21
0.6882468448874613
 31
0.0
 73
     1
 44
1.0
1001
ACAD
1000
MTEXTBEGIN
1070
    73
1070
     1
1070
    44
1040
1.0
1070
    74
1070
     0
1000
MTEXTEND
  0
SOLID
  5
28A
330
286
100
AcDbEntity
  8
cotas
100
AcDbTrace
 10
3455.541747580422
 20
396.1864883988069
 30
0.0
 11
3457.835903730046
 21
393.7682331037133
 31
0.0
 12
3449.434059769952
 22
388.0948923023852
 32
0.0
 13
3449.434059769952
 23
388.0948923023852
 33
0.0
  0
POINT
  5
28B
330
286
100
AcDbEntity
  8
Defpoints
 62
     0
100
AcDbPoint
 10
3449.434059769952
 20
388.0948923023852
 30
0.0
  0
POINT
  5
28C
330
286
100
AcDbEntity
  8
Defpoints
 62
     0
100
AcDbPoint
 10
3456.688825655227
 20
394.9773607512532
 30
0.0
  0
ENDBLK
  5
28D
330
286
100
AcDbEntity
  8
0
100
AcDbBlockEnd
  0
BLOCK
  5
28F
330
28E
100
AcDbEntity
  8
0
100
AcDbBlockBegin
  2
*D54
 70
     1
 10
0.0
 20
0.0
 30
0.0
  3
*D54
  1

  0
LINE
  5
290
330
28E
100
AcDbEntity
  8
cotas
100
AcDbLine
 10
3664.778367545314
 20
423.8089359492955
 30
0.0
 11
3699.693943234467
 21
395.7356200291922
 31
0.0
  0
MTEXT
  5
291
330
28E
100
AcDbEntity
  8
cotas
100
AcDbMText
 10
3684.733945442359
 20
420.858292224319
 30
0.0
 40
10.0
 41
0.0
 71
     5
 72
     1
  1
R10
  7
SANINDUSA
 11
0.7793328166863746
 21
-0.6266102144361215
 31
0.0
 73
     1
 44
1.0
1001
ACAD
1000
MTEXTBEGIN
1070
    73
1070
     1
1070
    44
1040
1.0
1070
    74
1070
     0
1000
MTEXTEND
  0
SOLID
  5
292
330
28E
100
AcDbEntity
  8
cotas
100
AcDbTrace
 10
3700.738293591861
 20
397.0345080570025
 30
0.0
 11
3698.649592877074
 21
394.4367320013816
 31
0.0
 12
3707.487271401331
 22
389.469517884831
 32
0.0
 13
3707.487271401331
 23
389.469517884831
 33
0.0
  0
POINT
  5
293
330
28E
100
AcDbEntity
  8
Defpoints
 62
     0
100
AcDbPoint
 10
3707.487271401331
 20
389.469517884831
 30
0.0
  0
POINT
  5
294
330
28E
100
AcDbEntity
  8
Defpoints
 62
     0
100
AcDbPoint
 10
3699.693943234469
 20
395.7356200291913
 30
0.0
  0
ENDBLK
  5
295
330
28E
100
AcDbEntity
  8
0
100
AcDbBlockEnd
  0
BLOCK
  5
297
330
296
100
AcDbEntity
  8
0
100
AcDbBlockBegin
  2
*D55
 70
     1
 10
0.0
 20
0.0
 30
0.0
  3
*D55
  1

  0
LINE
  5
298
330
296
100
AcDbEntity
  8
cotas
100
AcDbLine
 10
3381.490275075317
 20
1140.405458662918
 30
0.0
 11
3413.401744892895
 21
1108.959209498087
 31
0.0
  0
MTEXT
  5
299
330
296
100
AcDbEntity
  8
cotas
100
AcDbMText
 10
3401.049699003947
 20
1135.462901705437
 30
0.0
 40
10.0
 41
0.0
 71
     5
 72
     1
  1
R20
  7
SANINDUSA
 11
0.7122796965728452
 21
-0.7018957428636363
 31
0.0
 73
     1
 44
1.0
1001
ACAD
1000
MTEXTBEGIN
1070
    73
1070
     1
1070
    44
1040
1.0
1070
    74
1070
     0
1000
MTEXTEND
  0
LINE
  5
29A
330
296
100
AcDbEntity
  8
cotas
100
AcDbLine
 10
3434.77013579008
 20
1087.902337212178
 30
0.0
 11
3420.524541858624
 21
1101.940252069451
 31
0.0
  0
SOLID
  5
29B
330
296
100
AcDbEntity
  8
cotas
100
AcDbTrace
 10
3414.571571131001
 20
1110.146342325708
 30
0.0
 11
3412.231918654789
 21
1107.772076670466
 31
0.0
 12
3420.524541858624
 22
1101.940252069451
 32
0.0
 13
3420.524541858624
 23
1101.940252069451
 33
0.0
  0
POINT
  5
29C
330
296
100
AcDbEntity
  8
Defpoints
 62
     0
100
AcDbPoint
 10
3420.524541858624
 20
1101.940252069451
 30
0.0
  0
POINT
  5
29D
330
296
100
AcDbEntity
  8
Defpoints
 62
     0
100
AcDbPoint
 10
3434.77013579008
 20
1087.902337212178
 30
0.0
  0
ENDBLK
  5
29E
330
296
100
AcDbEntity
  8
0
100
AcDbBlockEnd
  0
BLOCK
  5
2A0
330
29F
100
AcDbEntity
  8
0
100
AcDbBlockBegin
  2
*D56
 70
     1
 10
0.0
 20
0.0
 30
0.0
  3
*D56
  1

  0
LINE
  5
2A1
330
29F
100
AcDbEntity
  8
cotas
100
AcDbLine
 10
3485.858590478945
 20
1027.245289935704
 30
0.0
 11
3456.689037001971
 21
1061.250372532414
 31
0.0
  0
MTEXT
  5
2A2
330
29F
100
AcDbEntity
  8
cotas
100
AcDbMText
 10
3482.274781446846
 20
1047.096932195684
 30
0.0
 40
10.0
 41
0.0
 71
     5
 72
     1
  1
R10
  7
SANINDUSA
 11
0.6510787757039779
 21
-0.7590101631913826
 31
0.0
 73
     1
 44
1.0
1001
ACAD
1000
MTEXTBEGIN
1070
    73
1070
     1
1070
    44
1040
1.0
1070
    74
1070
     0
1000
MTEXTEND
  0
SOLID
  5
2A3
330
29F
100
AcDbEntity
  8
cotas
100
AcDbTrace
 10
3457.954053940623
 20
1062.335503825254
 30
0.0
 11
3455.424020063319
 21
1060.165241239574
 31
0.0
 12
3450.178249244931
 22
1068.840474164328
 32
0.0
 13
3450.178249244931
 23
1068.840474164328
 33
0.0
  0
POINT
  5
2A4
330
29F
100
AcDbEntity
  8
Defpoints
 62
     0
100
AcDbPoint
 10
3450.178249244931
 20
1068.840474164328
 30
0.0
  0
POINT
  5
2A5
330
29F
100
AcDbEntity
  8
Defpoints
 62
     0
100
AcDbPoint
 10
3456.689037001972
 20
1061.250372532412
 30
0.0
  0
ENDBLK
  5
2A6
330
29F
100
AcDbEntity
  8
0
100
AcDbBlockEnd
  0
BLOCK
  5
2A8
330
2A7
100
AcDbEntity
  8
0
100
AcDbBlockBegin
  2
*D57
 70
     1
 10
0.0
 20
0.0
 30
0.0
  3
*D57
  1

  0
LINE
  5
2A9
330
2A7
100
AcDbEntity
  8
cotas
100
AcDbLine
 10
4504.425771693094
 20
312.8179848754271
 30
0.0
 11
4474.409704298381
 21
346.0782342823538
 31
0.0
  0
MTEXT
  5
2AA
330
2A7
100
AcDbEntity
  8
cotas
100
AcDbMText
 10
4500.346015806244
 20
332.5754018523885
 30
0.0
 40
10.0
 41
0.0
 71
     5
 72
     1
  1
R20
  7
SANINDUSA
 11
0.6699733825622328
 21
-0.7423851201755866
 31
0.0
 73
     1
 44
1.0
1001
ACAD
1000
MTEXTBEGIN
1070
    73
1070
     1
1070
    44
1040
1.0
1070
    74
1070
     0
1000
MTEXTEND
  0
LINE
  5
2AB
330
2A7
100
AcDbEntity
  8
cotas
100
AcDbLine
 10
4454.310502821516
 20
368.3497878876196
 30
0.0
 11
4467.709970472759
 21
353.5020854841098
 31
0.0
  0
SOLID
  5
2AC
330
2A7
100
AcDbEntity
  8
cotas
100
AcDbTrace
 10
4475.647012832006
 20
347.1948565866244
 30
0.0
 11
4473.172395764755
 21
344.9616119780837
 31
0.0
 12
4467.709970472759
 22
353.5020854841098
 32
0.0
 13
4467.709970472759
 23
353.5020854841098
 33
0.0
  0
POINT
  5
2AD
330
2A7
100
AcDbEntity
  8
Defpoints
 62
     0
100
AcDbPoint
 10
4467.709970472759
 20
353.5020854841098
 30
0.0
  0
POINT
  5
2AE
330
2A7
100
AcDbEntity
  8
Defpoints
 62
     0
100
AcDbPoint
 10
4454.310502821516
 20
368.3497878876196
 30
0.0
  0
ENDBLK
  5
2AF
330
2A7
100
AcDbEntity
  8
0
100
AcDbBlockEnd
  0
BLOCK
  5
2B1
330
2B0
100
AcDbEntity
  8
0
100
AcDbBlockBegin
  2
*D58
 70
     1
 10
0.0
 20
0.0
 30
0.0
  3
*D58
  1

  0
LINE
  5
2B2
330
2B0
100
AcDbEntity
  8
cotas
100
AcDbLine
 10
4507.731356296341
 20
1140.249565236475
 30
0.0
 11
4475.728145254059
 21
1108.89668697246
 31
0.0
  0
MTEXT
  5
2B3
330
2B0
100
AcDbEntity
  8
cotas
100
AcDbMText
 10
4488.157575038381
 20
1135.364176719342
 30
0.0
 40
10.0
 41
0.0
 71
     5
 72
     1
  1
R20
  7
SANINDUSA
 11
0.7143274058155718
 21
0.6998116584487542
 31
0.0
 73
     1
 44
1.0
1001
ACAD
1000
MTEXTBEGIN
1070
    73
1070
     1
1070
    44
1040
1.0
1070
    74
1070
     0
1000
MTEXTEND
  0
LINE
  5
2B4
330
2B0
100
AcDbEntity
  8
cotas
100
AcDbLine
 10
4454.298323079592
 20
1087.902337218997
 30
0.0
 11
4468.584871195904
 21
1101.898570387973
 31
0.0
  0
SOLID
  5
2B5
330
2B0
100
AcDbEntity
  8
cotas
100
AcDbTrace
 10
4474.561792489978
 20
1110.087232648819
 30
0.0
 11
4476.89449801814
 21
1107.706141296101
 31
0.0
 12
4468.584871195904
 22
1101.898570387973
 32
0.0
 13
4468.584871195904
 23
1101.898570387973
 33
0.0
  0
POINT
  5
2B6
330
2B0
100
AcDbEntity
  8
Defpoints
 62
     0
100
AcDbPoint
 10
4468.584871195904
 20
1101.898570387973
 30
0.0
  0
POINT
  5
2B7
330
2B0
100
AcDbEntity
  8
Defpoints
 62
     0
100
AcDbPoint
 10
4454.298323079592
 20
1087.902337218997
 30
0.0
  0
ENDBLK
  5
2B8
330
2B0
100
AcDbEntity
  8
0
100
AcDbBlockEnd
  0
BLOCK
  5
2BA
330
2B9
100
AcDbEntity
  8
0
100
AcDbBlockBegin
  2
*D59
 70
     1
 10
0.0
 20
0.0
 30
0.0
  3
*D59
  1

  0
LINE
  5
2BB
330
2B9
100
AcDbEntity
  8
cotas
100
AcDbLine
 10
4570.045284571642
 20
242.2590621093586
 30
0.0
 11
4548.509712849869
 21
271.0955368351931
 31
0.0
  0
MTEXT
  5
2BC
330
2B9
100
AcDbEntity
  8
cotas
100
AcDbMText
 10
4570.364960806646
 20
258.7171412752287
 30
0.0
 40
10.0
 41
0.0
 71
     5
 72
     1
  1
R5
  7
SANINDUSA
 11
0.5983666037267902
 21
-0.8012224457318119
 31
0.0
 73
     1
 44
1.0
1001
ACAD
1000
MTEXTBEGIN
1070
    73
1070
     1
1070
    44
1040
1.0
1070
    74
1070
     0
1000
MTEXTEND
  0
LINE
  5
2BD
330
2B9
100
AcDbEntity
  8
cotas
100
AcDbLine
 10
4539.534213793968
 20
283.11387352117
 30
0.0
 11
4542.526046812602
 21
279.1077612925112
 31
0.0
  0
SOLID
  5
2BE
330
2B9
100
AcDbEntity
  8
cotas
100
AcDbTrace
 10
4549.845083592756
 20
272.0928145080709
 30
0.0
 11
4547.174342106983
 21
270.0982591623149
 31
0.0
 12
4542.526046812602
 22
279.1077612925112
 32
0.0
 13
4542.526046812602
 23
279.1077612925112
 33
0.0
  0
POINT
  5
2BF
330
2B9
100
AcDbEntity
  8
Defpoints
 62
     0
100
AcDbPoint
 10
4542.526046812602
 20
279.1077612925112
 30
0.0
  0
POINT
  5
2C0
330
2B9
100
AcDbEntity
  8
Defpoints
 62
     0
100
AcDbPoint
 10
4539.534213793968
 20
283.11387352117
 30
0.0
  0
ENDBLK
  5
2C1
330
2B9
100
AcDbEntity
  8
0
100
AcDbBlockEnd
  0
BLOCK
  5
2C3
330
2C2
100
AcDbEntity
  8
0
100
AcDbBlockBegin
  2
*D60
 70
     1
 10
0.0
 20
0.0
 30
0.0
  3
*D60
  1

  0
LINE
  5
2C4
330
2C2
100
AcDbEntity
  8
cotas
100
AcDbLine
 10
3313.699311223651
 20
246.8385373964149
 30
0.0
 11
3338.992601031431
 21
272.4426896904665
 31
0.0
  0
MTEXT
  5
2C5
330
2C2
100
AcDbEntity
  8
cotas
100
AcDbMText
 10
3315.643903246725
 20
263.1844581287894
 30
0.0
 40
10.0
 41
0.0
 71
     5
 72
     1
  1
R5
  7
SANINDUSA
 11
0.7027749304680558
 21
0.7114122553805349
 31
0.0
 73
     1
 44
1.0
1001
ACAD
1000
MTEXTBEGIN
1070
    73
1070
     1
1070
    44
1040
1.0
1070
    74
1070
     0
1000
MTEXTEND
  0
LINE
  5
2C6
330
2C2
100
AcDbEntity
  8
cotas
100
AcDbLine
 10
3349.53422498845
 20
283.1138735211739
 30
0.0
 11
3346.020350336111
 21
279.5568122442719
 31
0.0
  0
SOLID
  5
2C7
330
2C2
100
AcDbEntity
  8
cotas
100
AcDbTrace
 10
3337.806913939129
 20
273.6139812412466
 30
0.0
 11
3340.178288123731
 21
271.2713981396866
 31
0.0
 12
3346.020350336111
 22
279.5568122442719
 32
0.0
 13
3346.020350336111
 23
279.5568122442719
 33
0.0
  0
POINT
  5
2C8
330
2C2
100
AcDbEntity
  8
Defpoints
 62
     0
100
AcDbPoint
 10
3346.020350336111
 20
279.5568122442719
 30
0.0
  0
POINT
  5
2C9
330
2C2
100
AcDbEntity
  8
Defpoints
 62
     0
100
AcDbPoint
 10
3349.53422498845
 20
283.1138735211739
 30
0.0
  0
ENDBLK
  5
2CA
330
2C2
100
AcDbEntity
  8
0
100
AcDbBlockEnd
  0
BLOCK
  5
2CC
330
2CB
100
AcDbEntity
  8
0
100
AcDbBlockBegin
  2
*D61
 70
     1
 10
0.0
 20
0.0
 30
0.0
  3
*D61
  1

  0
LINE
  5
2CD
330
2CB
100
AcDbEntity
  8
cotas
100
AcDbLine
 10
4256.414913531431
 20
816.1605962398919
 30
0.0
 11
4299.430761767362
 21
781.1434883460415
 31
0.0
  0
LINE
  5
2CE
330
2CB
100
AcDbEntity
  8
cotas
100
AcDbLine
 10
4429.696171130451
 20
675.1007603383263
 30
0.0
 11
4437.451419710583
 21
668.7875900206193
 31
0.0
  0
MTEXT
  5
2CF
330
2CB
100
AcDbEntity
  8
cotas
100
AcDbMText
 10
4280.926526606905
 20
810.2617963205592
 30
0.0
 40
10.0
 41
0.0
 71
     5
 72
     1
  1
\U+2205148
  7
SANINDUSA
 11
0.7755248580130855
 21
-0.6313170317707132
 31
0.0
 73
     1
 44
1.0
1001
ACAD
1000
MTEXTBEGIN
1070
    73
1070
     1
1070
    44
1040
1.0
1070
    74
1070
     0
1000
MTEXTEND
  0
LINE
  5
2D0
330
2CB
100
AcDbEntity
  8
cotas
100
AcDbLine
 10
4421.940922550322
 20
681.4139306560335
 30
0.0
 11
4307.186010347492
 21
774.8303180283344
 31
0.0
  0
SOLID
  5
2D1
330
2CB
100
AcDbEntity
  8
cotas
100
AcDbTrace
 10
4430.748366183403
 20
676.393301768348
 30
0.0
 11
4428.643976077501
 21
673.8082189083047
 31
0.0
 12
4421.940922550322
 22
681.4139306560335
 32
0.0
 13
4421.940922550322
 23
681.4139306560335
 33
0.0
  0
SOLID
  5
2D2
330
2CB
100
AcDbEntity
  8
cotas
100
AcDbTrace
 10
4300.482956820313
 20
782.4360297760631
 30
0.0
 11
4298.37856671441
 21
779.8509469160198
 31
0.0
 12
4307.186010347492
 22
774.8303180283344
 32
0.0
 13
4307.186010347492
 23
774.8303180283344
 33
0.0
  0
POINT
  5
2D3
330
2CB
100
AcDbEntity
  8
Defpoints
 62
     0
100
AcDbPoint
 10
4307.186010347492
 20
774.8303180283344
 30
0.0
  0
POINT
  5
2D4
330
2CB
100
AcDbEntity
  8
Defpoints
 62
     0
100
AcDbPoint
 10
4421.940922550322
 20
681.4139306560335
 30
0.0
  0
ENDBLK
  5
2D5
330
2CB
100
AcDbEntity
  8
0
100
AcDbBlockEnd
  0
BLOCK
  5
2D7
330
2D6
100
AcDbEntity
  8
0
100
AcDbBlockBegin
  2
*D62
 70
     1
 10
0.0
 20
0.0
 30
0.0
  3
*D62
  1

  0
LINE
  5
2D8
330
2D6
100
AcDbEntity
  8
cotas
100
AcDbLine
 10
4549.534213793966
 20
2661.901083132683
 30
0.0
 11
4580.232481481234
 21
2661.901083132683
 31
0.0
  0
LINE
  5
2D9
330
2D6
100
AcDbEntity
  8
cotas
100
AcDbLine
 10
4476.235355164315
 20
2567.434395530868
 30
0.0
 11
4580.232481481234
 21
2567.434395530868
 31
0.0
  0
LINE
  5
2DA
330
2D6
100
AcDbEntity
  8
cotas
100
AcDbLine
 10
4575.232481481235
 20
2651.901083132683
 30
0.0
 11
4575.232481481235
 21
2577.434395530868
 31
0.0
  0
SOLID
  5
2DB
330
2D6
100
AcDbEntity
  8
cotas
100
AcDbTrace
 10
4573.565814814567
 20
2651.901083132683
 30
0.0
 11
4576.899148147901
 21
2651.901083132683
 31
0.0
 12
4575.232481481235
 22
2661.901083132683
 32
0.0
 13
4575.232481481235
 23
2661.901083132683
 33
0.0
  0
SOLID
  5
2DC
330
2D6
100
AcDbEntity
  8
cotas
100
AcDbTrace
 10
4573.565814814567
 20
2577.434395530868
 30
0.0
 11
4576.899148147901
 21
2577.434395530868
 31
0.0
 12
4575.232481481235
 22
2567.434395530868
 32
0.0
 13
4575.232481481235
 23
2567.434395530868
 33
0.0
  0
MTEXT
  5
2DD
330
2D6
100
AcDbEntity
  8
cotas
100
AcDbMText
 10
4563.889298136706
 20
2614.667739331776
 30
0.0
 40
10.0
 41
0.0
 71
     5
 72
     1
  1
94,5
  7
SANINDUSA
 11
0.0000000000000001
 21
1.0
 31
0.0
 73
     1
 44
1.0
1001
ACAD
1000
MTEXTBEGIN
1070
    73
1070
     1
1070
    44
1040
1.0
1070
    74
1070
     0
1000
MTEXTEND
  0
POINT
  5
2DE
330
2D6
100
AcDbEntity
  8
Defpoints
 62
     0
100
AcDbPoint
 10
4544.534213793966
 20
2661.901083132683
 30
0.0
  0
POINT
  5
2DF
330
2D6
100
AcDbEntity
  8
Defpoints
 62
     0
100
AcDbPoint
 10
4471.235355164315
 20
2567.434395530868
 30
0.0
  0
POINT
  5
2E0
330
2D6
100
AcDbEntity
  8
Defpoints
 62
     0
100
AcDbPoint
 10
4575.232481481235
 20
2567.434395530868
 30
0.0
  0
ENDBLK
  5
2E1
330
2D6
100
AcDbEntity
  8
0
100
AcDbBlockEnd
  0
BLOCK
  5
2E3
330
2E2
100
AcDbEntity
  8
0
100
AcDbBlockBegin
  2
*D63
 70
     1
 10
0.0
 20
0.0
 30
0.0
  3
*D63
  1

  0
LINE
  5
2E4
330
2E2
100
AcDbEntity
  8
cotas
100
AcDbLine
 10
3343.835260867274
 20
1178.812076118301
 30
0.0
 11
3308.836802046372
 21
1178.812076118301
 31
0.0
  0
LINE
  5
2E5
330
2E2
100
AcDbEntity
  8
cotas
100
AcDbLine
 10
3338.836022407941
 20
1084.986601759194
 30
0.0
 11
3308.836802046372
 21
1084.986601759194
 31
0.0
  0
LINE
  5
2E6
330
2E2
100
AcDbEntity
  8
cotas
100
AcDbLine
 10
3313.836802046372
 20
1168.812076118301
 30
0.0
 11
3313.836802046372
 21
1094.986601759194
 31
0.0
  0
SOLID
  5
2E7
330
2E2
100
AcDbEntity
  8
cotas
100
AcDbTrace
 10
3312.170135379705
 20
1168.812076118301
 30
0.0
 11
3315.503468713038
 21
1168.812076118301
 31
0.0
 12
3313.836802046372
 22
1178.812076118301
 32
0.0
 13
3313.836802046372
 23
1178.812076118301
 33
0.0
  0
SOLID
  5
2E8
330
2E2
100
AcDbEntity
  8
cotas
100
AcDbTrace
 10
3312.170135379705
 20
1094.986601759194
 30
0.0
 11
3315.503468713038
 21
1094.986601759194
 31
0.0
 12
3313.836802046372
 22
1084.986601759194
 32
0.0
 13
3313.836802046372
 23
1084.986601759194
 33
0.0
  0
MTEXT
  5
2E9
330
2E2
100
AcDbEntity
  8
cotas
100
AcDbMText
 10
3302.480186868399
 20
1131.899338938748
 30
0.0
 40
10.0
 41
0.0
 71
     5
 72
     1
  1
93,8
  7
SANINDUSA
 11
0.0000000000000001
 21
1.0
 31
0.0
 73
     1
 44
1.0
1001
ACAD
1000
MTEXTBEGIN
1070
    73
1070
     1
1070
    44
1040
1.0
1070
    74
1070
     0
1000
MTEXTEND
  0
POINT
  5
2EA
330
2E2
100
AcDbEntity
  8
Defpoints
 62
     0
100
AcDbPoint
 10
3348.835260867274
 20
1178.812076118301
 30
0.0000000000004019
  0
POINT
  5
2EB
330
2E2
100
AcDbEntity
  8
Defpoints
 62
     0
100
AcDbPoint
 10
3343.83602240794
 20
1084.986601759194
 30
0.0
  0
POINT
  5
2EC
330
2E2
100
AcDbEntity
  8
Defpoints
 62
     0
100
AcDbPoint
 10
3313.836802046372
 20
1084.986601759194
 30
0.0
  0
ENDBLK
  5
2ED
330
2E2
100
AcDbEntity
  8
0
100
AcDbBlockEnd
  0
BLOCK
  5
D38
330
D2E
100
AcDbEntity
  8
0
100
AcDbBlockBegin
  2
*D65
 70
     1
 10
0.0
 20
0.0
 30
0.0
  3
*D65
  1

  0
LINE
  5
738F
330
D2E
100
AcDbEntity
  8
cotas
100
AcDbLine
 10
2940.678634275022
 20
1677.999700202197
 30
0.0
 11
2807.573630592357
 21
1677.999700202197
 31
0.0
  0
LINE
  5
7390
330
D2E
100
AcDbEntity
  8
cotas
100
AcDbLine
 10
2838.271833172866
 20
1737.574350290261
 30
0.0
 11
2807.573630592357
 21
1737.574350290261
 31
0.0
  0
LINE
  5
7391
330
D2E
100
AcDbEntity
  8
cotas
100
AcDbLine
 10
2812.573630592357
 20
1687.999700202197
 30
0.0
 11
2812.573630592357
 21
1727.574350290261
 31
0.0
  0
SOLID
  5
7392
330
D2E
100
AcDbEntity
  8
cotas
100
AcDbTrace
 10
2810.90696392569
 20
1687.999700202197
 30
0.0
 11
2814.240297259023
 21
1687.999700202197
 31
0.0
 12
2812.573630592357
 22
1677.999700202197
 32
0.0
 13
2812.573630592357
 23
1677.999700202197
 33
0.0
  0
SOLID
  5
7393
330
D2E
100
AcDbEntity
  8
cotas
100
AcDbTrace
 10
2810.90696392569
 20
1727.574350290261
 30
0.0
 11
2814.240297259023
 21
1727.574350290261
 31
0.0
 12
2812.573630592357
 22
1737.574350290261
 32
0.0
 13
2812.573630592357
 23
1737.574350290261
 33
0.0
  0
MTEXT
  5
7394
330
D2E
100
AcDbEntity
  8
cotas
100
AcDbMText
 10
2801.23044724783
 20
1707.787025246229
 30
0.0
 40
10.0
 41
0.0
 71
     5
 72
     1
  1
59,6
  7
SANINDUSA
 11
0.0000000000000001
 21
1.0
 31
0.0
 73
     1
 44
1.0
1001
ACAD
1000
MTEXTBEGIN
1070
    73
1070
     1
1070
    44
1040
1.0
1070
    74
1070
     0
1000
MTEXTEND
  0
POINT
  5
7395
330
D2E
100
AcDbEntity
  8
Defpoints
 62
     0
100
AcDbPoint
 10
2945.678634275022
 20
1677.999700202197
 30
0.0
  0
POINT
  5
7396
330
D2E
100
AcDbEntity
  8
Defpoints
 62
     0
100
AcDbPoint
 10
2843.271833172866
 20
1737.574350290261
 30
0.0
  0
POINT
  5
7397
330
D2E
100
AcDbEntity
  8
Defpoints
 62
     0
100
AcDbPoint
 10
2812.573630592357
 20
1737.574350290261
 30
0.0
  0
ENDBLK
  5
D39
330
D2E
100
AcDbEntity
  8
0
100
AcDbBlockEnd
  0
BLOCK
  5
D44
330
D3A
100
AcDbEntity
  8
0
100
AcDbBlockBegin
  2
*D66
 70
     1
 10
0.0
 20
0.0
 30
0.0
  3
*D66
  1

  0
LINE
  5
73D8
330
D3A
100
AcDbEntity
  8
cotas
100
AcDbLine
 10
3863.271843901836
 20
1666.46902943765
 30
0.0
 11
3863.271843901836
 21
1802.56935024602
 31
0.0
  0
LINE
  5
73D9
330
D3A
100
AcDbEntity
  8
cotas
100
AcDbLine
 10
2843.271833172866
 20
1742.574350290261
 30
0.0
 11
2843.271833172866
 21
1802.56935024602
 31
0.0
  0
LINE
  5
73DA
330
D3A
100
AcDbEntity
  8
cotas
100
AcDbLine
 10
3853.271843901836
 20
1797.569350246019
 30
0.0
 11
2853.271833172866
 21
1797.569350246019
 31
0.0
  0
SOLID
  5
73DB
330
D3A
100
AcDbEntity
  8
cotas
100
AcDbTrace
 10
3853.271843901836
 20
1799.236016912686
 30
0.0
 11
3853.271843901836
 21
1795.902683579353
 31
0.0
 12
3863.271843901836
 22
1797.569350246019
 32
0.0
 13
3863.271843901836
 23
1797.569350246019
 33
0.0
  0
SOLID
  5
73DC
330
D3A
100
AcDbEntity
  8
cotas
100
AcDbTrace
 10
2853.271833172866
 20
1799.236016912686
 30
0.0
 11
2853.271833172866
 21
1795.902683579353
 31
0.0
 12
2843.271833172866
 22
1797.569350246019
 32
0.0
 13
2843.271833172866
 23
1797.569350246019
 33
0.0
  0
MTEXT
  5
73DD
330
D3A
100
AcDbEntity
  8
cotas
100
AcDbMText
 10
3353.271838537351
 20
1807.777543664421
 30
0.0
 40
10.0
 41
0.0
 71
     5
 72
     1
  1
1020
  7
SANINDUSA
 73
     1
 44
1.0
1001
ACAD
1000
MTEXTBEGIN
1070
    73
1070
     1
1070
    44
1040
1.0
1070
    74
1070
     0
1000
MTEXTEND
  0
POINT
  5
73DE
330
D3A
100
AcDbEntity
  8
Defpoints
 62
     0
100
AcDbPoint
 10
3863.271843901836
 20
1661.46902943765
 30
0.0
  0
POINT
  5
73DF
330
D3A
100
AcDbEntity
  8
Defpoints
 62
     0
100
AcDbPoint
 10
2843.271833172866
 20
1737.574350290261
 30
0.0
  0
POINT
  5
73E0
330
D3A
100
AcDbEntity
  8
Defpoints
 62
     0
100
AcDbPoint
 10
2843.271833172866
 20
1797.569350246019
 30
0.0
  0
ENDBLK
  5
D45
330
D3A
100
AcDbEntity
  8
0
100
AcDbBlockEnd
  0
BLOCK
  5
D50
330
D46
100
AcDbEntity
  8
0
100
AcDbBlockBegin
  2
*D67
 70
     1
 10
0.0
 20
0.0
 30
0.0
  3
*D67
  1

  0
LINE
  5
7435
330
D46
100
AcDbEntity
  8
cotas
100
AcDbLine
 10
-680.8908084576496
 20
1999.477747997111
 30
0.0
 11
-680.8908084576496
 21
2164.744331270997
 31
0.0
  0
LINE
  5
7436
330
D46
100
AcDbEntity
  8
cotas
100
AcDbLine
 10
-760.8781062000587
 20
1999.477747997111
 30
0.0
 11
-760.8781062000587
 21
2164.744331270997
 31
0.0
  0
LINE
  5
7437
330
D46
100
AcDbEntity
  8
cotas
100
AcDbLine
 10
-690.8908084576496
 20
2159.744331270998
 30
0.0
 11
-750.8781062000586
 21
2159.744331270998
 31
0.0
  0
SOLID
  5
7438
330
D46
100
AcDbEntity
  8
cotas
100
AcDbTrace
 10
-690.8908084576496
 20
2161.410997937664
 30
0.0
 11
-690.8908084576496
 21
2158.077664604331
 31
0.0
 12
-680.8908084576496
 22
2159.744331270998
 32
0.0
 13
-680.8908084576496
 23
2159.744331270998
 33
0.0
  0
SOLID
  5
7439
330
D46
100
AcDbEntity
  8
cotas
100
AcDbTrace
 10
-750.8781062000586
 20
2161.410997937664
 30
0.0
 11
-750.8781062000586
 21
2158.077664604331
 31
0.0
 12
-760.8781062000587
 22
2159.744331270998
 32
0.0
 13
-760.8781062000587
 23
2159.744331270998
 33
0.0
  0
MTEXT
  5
743A
330
D46
100
AcDbEntity
  8
cotas
100
AcDbMText
 10
-720.8844573288542
 20
2169.972672439567
 30
0.0
 40
10.0
 41
0.0
 71
     5
 72
     1
  1
80
  7
SANINDUSA
 73
     1
 44
1.0
1001
ACAD
1000
MTEXTBEGIN
1070
    73
1070
     1
1070
    44
1040
1.0
1070
    74
1070
     0
1000
MTEXTEND
  0
POINT
  5
743B
330
D46
100
AcDbEntity
  8
Defpoints
 62
     0
100
AcDbPoint
 10
-680.8908084576496
 20
1994.477747997112
 30
0.0
  0
POINT
  5
743C
330
D46
100
AcDbEntity
  8
Defpoints
 62
     0
100
AcDbPoint
 10
-760.8781062000587
 20
1994.477747997112
 30
0.0
  0
POINT
  5
743D
330
D46
100
AcDbEntity
  8
Defpoints
 62
     0
100
AcDbPoint
 10
-760.8781062000587
 20
2159.744331270998
 30
0.0
  0
ENDBLK
  5
D51
330
D46
100
AcDbEntity
  8
0
100
AcDbBlockEnd
  0
BLOCK
  5
D5C
330
D52
100
AcDbEntity
  8
0
100
AcDbBlockBegin
  2
*D68
 70
     1
 10
0.0
 20
0.0
 30
0.0
  3
*D68
  1

  0
LINE
  5
747D
330
D52
100
AcDbEntity
  8
cotas
100
AcDbLine
 10
-477.1275747243826
 20
1639.023712602522
 30
0.0
 11
-156.8893309272489
 21
1639.023712602522
 31
0.0
  0
LINE
  5
747E
330
D52
100
AcDbEntity
  8
cotas
100
AcDbLine
 10
-477.1275747243834
 20
1559.038181945661
 30
0.0
 11
-156.8893309272489
 21
1559.038181945661
 31
0.0
  0
LINE
  5
747F
330
D52
100
AcDbEntity
  8
cotas
100
AcDbLine
 10
-161.8893309272489
 20
1629.023712602522
 30
0.0
 11
-161.8893309272489
 21
1569.038181945662
 31
0.0
  0
SOLID
  5
7480
330
D52
100
AcDbEntity
  8
cotas
100
AcDbTrace
 10
-163.5559975939155
 20
1629.023712602522
 30
0.0
 11
-160.2226642605822
 21
1629.023712602522
 31
0.0
 12
-161.8893309272489
 22
1639.023712602522
 32
0.0
 13
-161.8893309272489
 23
1639.023712602522
 33
0.0
  0
SOLID
  5
7481
330
D52
100
AcDbEntity
  8
cotas
100
AcDbTrace
 10
-163.5559975939156
 20
1569.038181945662
 30
0.0
 11
-160.2226642605822
 21
1569.038181945662
 31
0.0
 12
-161.8893309272489
 22
1559.038181945661
 32
0.0
 13
-161.8893309272489
 23
1559.038181945661
 33
0.0
  0
MTEXT
  5
7482
330
D52
100
AcDbEntity
  8
cotas
100
AcDbMText
 10
-172.1176720958187
 20
1599.030947274092
 30
0.0
 40
10.0
 41
0.0
 71
     5
 72
     1
  1
80
  7
SANINDUSA
 11
0.0000000000000001
 21
1.0
 31
0.0
 73
     1
 44
1.0
1001
ACAD
1000
MTEXTBEGIN
1070
    73
1070
     1
1070
    44
1040
1.0
1070
    74
1070
     0
1000
MTEXTEND
  0
POINT
  5
7483
330
D52
100
AcDbEntity
  8
Defpoints
 62
     0
100
AcDbPoint
 10
-482.1275747243825
 20
1639.023712602522
 30
0.0
  0
POINT
  5
7484
330
D52
100
AcDbEntity
  8
Defpoints
 62
     0
100
AcDbPoint
 10
-482.1275747243835
 20
1559.038181945661
 30
0.0
  0
POINT
  5
7485
330
D52
100
AcDbEntity
  8
Defpoints
 62
     0
100
AcDbPoint
 10
-161.8893309272489
 20
1559.038181945661
 30
0.0
  0
ENDBLK
  5
D5D
330
D52
100
AcDbEntity
  8
0
100
AcDbBlockEnd
  0
BLOCK
  5
D65
330
D5E
100
AcDbEntity
  8
0
100
AcDbBlockBegin
  2
*D69
 70
     1
 10
0.0
 20
0.0
 30
0.0
  3
*D69
  1

  0
LINE
  5
74B3
330
D5E
100
AcDbEntity
  8
cotas
100
AcDbLine
 10
-1354.006232463045
 20
1265.17911661467
 30
0.0
 11
-1323.068223508658
 21
1297.583562210809
 31
0.0
  0
MTEXT
  5
74B4
330
D5E
100
AcDbEntity
  8
cotas
100
AcDbMText
 10
-1349.3734002198
 20
1284.814207628051
 30
0.0
 40
10.0
 41
0.0
 71
     5
 72
     1
  1
R20
  7
SANINDUSA
 11
0.6905515714747763
 21
0.7232831583368418
 31
0.0
 73
     1
 44
1.0
1001
ACAD
1000
MTEXTBEGIN
1070
    73
1070
     1
1070
    44
1040
1.0
1070
    74
1070
     0
1000
MTEXTEND
  0
LINE
  5
74B5
330
D5E
100
AcDbEntity
  8
cotas
100
AcDbLine
 10
-1302.351676364415
 20
1319.282056960913
 30
0.0
 11
-1316.16270779391
 21
1304.816393794177
 31
0.0
  0
SOLID
  5
74B6
330
D5E
100
AcDbEntity
  8
cotas
100
AcDbTrace
 10
-1324.27369543922
 20
1298.7344814966
 30
0.0
 11
-1321.862751578096
 21
1296.432642925017
 31
0.0
 12
-1316.16270779391
 22
1304.816393794177
 32
0.0
 13
-1316.16270779391
 23
1304.816393794177
 33
0.0
  0
POINT
  5
74B7
330
D5E
100
AcDbEntity
  8
Defpoints
 62
     0
100
AcDbPoint
 10
-1316.16270779391
 20
1304.816393794177
 30
0.0
  0
POINT
  5
74B8
330
D5E
100
AcDbEntity
  8
Defpoints
 62
     0
100
AcDbPoint
 10
-1302.351676364415
 20
1319.282056960913
 30
0.0
  0
ENDBLK
  5
D66
330
D5E
100
AcDbEntity
  8
0
100
AcDbBlockEnd
  0
BLOCK
  5
D6D
330
D67
100
AcDbEntity
  8
0
100
AcDbBlockBegin
  2
*D70
 70
     1
 10
0.0
 20
0.0
 30
0.0
  3
*D70
  1

  0
LINE
  5
74B9
330
D67
100
AcDbEntity
  8
cotas
100
AcDbLine
 10
-1247.930271359889
 20
1376.744386403378
 30
0.0
 11
-1280.43298675325
 21
1345.909633534042
 31
0.0
  0
MTEXT
  5
74BA
330
D67
100
AcDbEntity
  8
cotas
100
AcDbMText
 10
-1267.577691921897
 20
1372.171613409189
 30
0.0
 40
10.0
 41
0.0
 71
     5
 72
     1
  1
R10
  7
SANINDUSA
 11
0.72547658852817
 21
0.6882468448874491
 31
0.0
 73
     1
 44
1.0
1001
ACAD
1000
MTEXTBEGIN
1070
    73
1070
     1
1070
    44
1040
1.0
1070
    74
1070
     0
1000
MTEXTEND
  0
SOLID
  5
74BB
330
D67
100
AcDbEntity
  8
cotas
100
AcDbTrace
 10
-1281.580064828063
 20
1347.118761181589
 30
0.0
 11
-1279.285908678438
 21
1344.700505886495
 31
0.0
 12
-1287.687752638532
 22
1339.027165085167
 32
0.0
 13
-1287.687752638532
 23
1339.027165085167
 33
0.0
  0
POINT
  5
74BC
330
D67
100
AcDbEntity
  8
Defpoints
 62
     0
100
AcDbPoint
 10
-1287.687752638532
 20
1339.027165085167
 30
0.0
  0
POINT
  5
74BD
330
D67
100
AcDbEntity
  8
Defpoints
 62
     0
100
AcDbPoint
 10
-1280.432986753258
 20
1345.909633534035
 30
0.0
  0
ENDBLK
  5
D6E
330
D67
100
AcDbEntity
  8
0
100
AcDbBlockEnd
  0
BLOCK
  5
D75
330
D6F
100
AcDbEntity
  8
0
100
AcDbBlockBegin
  2
*D71
 70
     1
 10
0.0
 20
0.0
 30
0.0
  3
*D71
  1

  0
LINE
  5
74BE
330
D6F
100
AcDbEntity
  8
cotas
100
AcDbLine
 10
-1072.34344486317
 20
1374.741208732077
 30
0.0
 11
-1037.427869174017
 21
1346.667892811974
 31
0.0
  0
MTEXT
  5
74BF
330
D6F
100
AcDbEntity
  8
cotas
100
AcDbMText
 10
-1052.387866966125
 20
1371.7905650071
 30
0.0
 40
10.0
 41
0.0
 71
     5
 72
     1
  1
R10
  7
SANINDUSA
 11
0.7793328166863855
 21
-0.6266102144361076
 31
0.0
 73
     1
 44
1.0
1001
ACAD
1000
MTEXTBEGIN
1070
    73
1070
     1
1070
    44
1040
1.0
1070
    74
1070
     0
1000
MTEXTEND
  0
SOLID
  5
74C0
330
D6F
100
AcDbEntity
  8
cotas
100
AcDbTrace
 10
-1036.383518816623
 20
1347.966780839785
 30
0.0
 11
-1038.472219531411
 21
1345.369004784163
 31
0.0
 12
-1029.634541007153
 22
1340.401790667613
 32
0.0
 13
-1029.634541007153
 23
1340.401790667613
 33
0.0
  0
POINT
  5
74C1
330
D6F
100
AcDbEntity
  8
Defpoints
 62
     0
100
AcDbPoint
 10
-1029.634541007153
 20
1340.401790667613
 30
0.0
  0
POINT
  5
74C2
330
D6F
100
AcDbEntity
  8
Defpoints
 62
     0
100
AcDbPoint
 10
-1037.427869174015
 20
1346.667892811973
 30
0.0
  0
ENDBLK
  5
D76
330
D6F
100
AcDbEntity
  8
0
100
AcDbBlockEnd
  0
BLOCK
  5
D7E
330
D77
100
AcDbEntity
  8
0
100
AcDbBlockBegin
  2
*D72
 70
     1
 10
0.0
 20
0.0
 30
0.0
  3
*D72
  1

  0
LINE
  5
74C3
330
D77
100
AcDbEntity
  8
cotas
100
AcDbLine
 10
-1355.631537333167
 20
2091.337731445701
 30
0.0
 11
-1323.720067515588
 21
2059.891482280869
 31
0.0
  0
MTEXT
  5
74C4
330
D77
100
AcDbEntity
  8
cotas
100
AcDbMText
 10
-1336.072113404537
 20
2086.395174488219
 30
0.0
 40
10.0
 41
0.0
 71
     5
 72
     1
  1
R20
  7
SANINDUSA
 11
0.7122796965728452
 21
-0.7018957428636363
 31
0.0
 73
     1
 44
1.0
1001
ACAD
1000
MTEXTBEGIN
1070
    73
1070
     1
1070
    44
1040
1.0
1070
    74
1070
     0
1000
MTEXTEND
  0
LINE
  5
74C5
330
D77
100
AcDbEntity
  8
cotas
100
AcDbLine
 10
-1302.351676618403
 20
2038.83460999496
 30
0.0
 11
-1316.59727054986
 21
2052.872524852233
 31
0.0
  0
SOLID
  5
74C6
330
D77
100
AcDbEntity
  8
cotas
100
AcDbTrace
 10
-1322.550241277482
 20
2061.078615108491
 30
0.0
 11
-1324.889893753694
 21
2058.704349453248
 31
0.0
 12
-1316.59727054986
 22
2052.872524852233
 32
0.0
 13
-1316.59727054986
 23
2052.872524852233
 33
0.0
  0
POINT
  5
74C7
330
D77
100
AcDbEntity
  8
Defpoints
 62
     0
100
AcDbPoint
 10
-1316.59727054986
 20
2052.872524852233
 30
0.0
  0
POINT
  5
74C8
330
D77
100
AcDbEntity
  8
Defpoints
 62
     0
100
AcDbPoint
 10
-1302.351676618403
 20
2038.83460999496
 30
0.0
  0
ENDBLK
  5
D7F
330
D77
100
AcDbEntity
  8
0
100
AcDbBlockEnd
  0
BLOCK
  5
D86
330
D80
100
AcDbEntity
  8
0
100
AcDbBlockBegin
  2
*D73
 70
     1
 10
0.0
 20
0.0
 30
0.0
  3
*D73
  1

  0
LINE
  5
74C9
330
D80
100
AcDbEntity
  8
cotas
100
AcDbLine
 10
-1251.263221929537
 20
1978.177562718487
 30
0.0
 11
-1280.432775406513
 21
2012.182645315196
 31
0.0
  0
MTEXT
  5
74CA
330
D80
100
AcDbEntity
  8
cotas
100
AcDbMText
 10
-1254.847030961638
 20
1998.029204978467
 30
0.0
 40
10.0
 41
0.0
 71
     5
 72
     1
  1
R10
  7
SANINDUSA
 11
0.6510787757040028
 21
-0.7590101631913613
 31
0.0
 73
     1
 44
1.0
1001
ACAD
1000
MTEXTBEGIN
1070
    73
1070
     1
1070
    44
1040
1.0
1070
    74
1070
     0
1000
MTEXTEND
  0
SOLID
  5
74CB
330
D80
100
AcDbEntity
  8
cotas
100
AcDbTrace
 10
-1279.167758467861
 20
2013.267776608036
 30
0.0
 11
-1281.697792345166
 21
2011.097514022356
 31
0.0
 12
-1286.943563163553
 22
2019.77274694711
 32
0.0
 13
-1286.943563163553
 23
2019.77274694711
 33
0.0
  0
POINT
  5
74CC
330
D80
100
AcDbEntity
  8
Defpoints
 62
     0
100
AcDbPoint
 10
-1286.943563163553
 20
2019.77274694711
 30
0.0
  0
POINT
  5
74CD
330
D80
100
AcDbEntity
  8
Defpoints
 62
     0
100
AcDbPoint
 10
-1280.432775406512
 20
2012.182645315195
 30
0.0
  0
ENDBLK
  5
D87
330
D80
100
AcDbEntity
  8
0
100
AcDbBlockEnd
  0
BLOCK
  5
D8F
330
D88
100
AcDbEntity
  8
0
100
AcDbBlockBegin
  2
*D74
 70
     1
 10
0.0
 20
0.0
 30
0.0
  3
*D74
  1

  0
LINE
  5
74CE
330
D88
100
AcDbEntity
  8
cotas
100
AcDbLine
 10
-232.6960407153901
 20
1263.75025765821
 30
0.0
 11
-262.7121081101023
 21
1297.010507065136
 31
0.0
  0
MTEXT
  5
74CF
330
D88
100
AcDbEntity
  8
cotas
100
AcDbMText
 10
-236.7757966022393
 20
1283.507674635171
 30
0.0
 40
10.0
 41
0.0
 71
     5
 72
     1
  1
R20
  7
SANINDUSA
 11
0.6699733825622328
 21
-0.7423851201755866
 31
0.0
 73
     1
 44
1.0
1001
ACAD
1000
MTEXTBEGIN
1070
    73
1070
     1
1070
    44
1040
1.0
1070
    74
1070
     0
1000
MTEXTEND
  0
LINE
  5
74D0
330
D88
100
AcDbEntity
  8
cotas
100
AcDbLine
 10
-282.8113095869676
 20
1319.282060670402
 30
0.0
 11
-269.4118419357246
 21
1304.434358266892
 31
0.0
  0
SOLID
  5
74D1
330
D88
100
AcDbEntity
  8
cotas
100
AcDbTrace
 10
-261.4747995764764
 20
1298.127129369406
 30
0.0
 11
-263.9494166437283
 21
1295.893884760866
 31
0.0
 12
-269.4118419357246
 22
1304.434358266892
 32
0.0
 13
-269.4118419357246
 23
1304.434358266892
 33
0.0
  0
POINT
  5
74D2
330
D88
100
AcDbEntity
  8
Defpoints
 62
     0
100
AcDbPoint
 10
-269.4118419357246
 20
1304.434358266892
 30
0.0
  0
POINT
  5
74D3
330
D88
100
AcDbEntity
  8
Defpoints
 62
     0
100
AcDbPoint
 10
-282.8113095869676
 20
1319.282060670402
 30
0.0
  0
ENDBLK
  5
D90
330
D88
100
AcDbEntity
  8
0
100
AcDbBlockEnd
  0
BLOCK
  5
D98
330
D91
100
AcDbEntity
  8
0
100
AcDbBlockBegin
  2
*D75
 70
     1
 10
0.0
 20
0.0
 30
0.0
  3
*D75
  1

  0
LINE
  5
74D4
330
D91
100
AcDbEntity
  8
cotas
100
AcDbLine
 10
-229.3904561121423
 20
2091.181838019256
 30
0.0
 11
-261.3936671544235
 21
2059.828959755243
 31
0.0
  0
MTEXT
  5
74D5
330
D91
100
AcDbEntity
  8
cotas
100
AcDbMText
 10
-248.9642373701024
 20
2086.296449502123
 30
0.0
 40
10.0
 41
0.0
 71
     5
 72
     1
  1
R20
  7
SANINDUSA
 11
0.7143274058155718
 21
0.6998116584487542
 31
0.0
 73
     1
 44
1.0
1001
ACAD
1000
MTEXTBEGIN
1070
    73
1070
     1
1070
    44
1040
1.0
1070
    74
1070
     0
1000
MTEXTEND
  0
LINE
  5
74D6
330
D91
100
AcDbEntity
  8
cotas
100
AcDbLine
 10
-282.8234893288908
 20
2038.83461000178
 30
0.0
 11
-268.5369412125792
 21
2052.830843170755
 31
0.0
  0
SOLID
  5
74D7
330
D91
100
AcDbEntity
  8
cotas
100
AcDbTrace
 10
-262.560019918505
 20
2061.019505431602
 30
0.0
 11
-260.2273143903423
 21
2058.638414078883
 31
0.0
 12
-268.5369412125792
 22
2052.830843170755
 32
0.0
 13
-268.5369412125792
 23
2052.830843170755
 33
0.0
  0
POINT
  5
74D8
330
D91
100
AcDbEntity
  8
Defpoints
 62
     0
100
AcDbPoint
 10
-268.5369412125792
 20
2052.830843170755
 30
0.0
  0
POINT
  5
74D9
330
D91
100
AcDbEntity
  8
Defpoints
 62
     0
100
AcDbPoint
 10
-282.8234893288908
 20
2038.83461000178
 30
0.0
  0
ENDBLK
  5
D99
330
D91
100
AcDbEntity
  8
0
100
AcDbBlockEnd
  0
BLOCK
  5
DA4
330
D9A
100
AcDbEntity
  8
0
100
AcDbBlockBegin
  2
*D76
 70
     1
 10
0.0
 20
0.0
 30
0.0
  3
*D76
  1

  0
LINE
  5
734B
330
D9A
100
AcDbEntity
  8
cotas
100
AcDbLine
 10
179.6489604427886
 20
1742.574350290261
 30
0.0
 11
179.6489604427886
 21
1772.574350290261
 31
0.0
  0
LINE
  5
734C
330
D9A
100
AcDbEntity
  8
cotas
100
AcDbLine
 10
1079.648964100602
 20
1742.574350290261
 30
0.0
 11
1079.648964100602
 21
1772.574350290261
 31
0.0
  0
LINE
  5
734D
330
D9A
100
AcDbEntity
  8
cotas
100
AcDbLine
 10
189.6489604427886
 20
1767.574350290261
 30
0.0
 11
1069.648964100602
 21
1767.574350290261
 31
0.0
  0
SOLID
  5
734E
330
D9A
100
AcDbEntity
  8
cotas
100
AcDbTrace
 10
189.6489604427886
 20
1769.241016956927
 30
0.0
 11
189.6489604427886
 21
1765.907683623594
 31
0.0
 12
179.6489604427886
 22
1767.574350290261
 32
0.0
 13
179.6489604427886
 23
1767.574350290261
 33
0.0
  0
SOLID
  5
734F
330
D9A
100
AcDbEntity
  8
cotas
100
AcDbTrace
 10
1069.648964100602
 20
1769.241016956927
 30
0.0
 11
1069.648964100602
 21
1765.907683623594
 31
0.0
 12
1079.648964100602
 22
1767.574350290261
 32
0.0
 13
1079.648964100602
 23
1767.574350290261
 33
0.0
  0
MTEXT
  5
7350
330
D9A
100
AcDbEntity
  8
cotas
100
AcDbMText
 10
629.6489622716956
 20
1777.779185750301
 30
0.0
 40
10.0
 41
0.0
 71
     5
 72
     1
  1
900
  7
SANINDUSA
 73
     1
 44
1.0
1001
ACAD
1000
MTEXTBEGIN
1070
    73
1070
     1
1070
    44
1040
1.0
1070
    74
1070
     0
1000
MTEXTEND
  0
POINT
  5
7351
330
D9A
100
AcDbEntity
  8
Defpoints
 62
     0
100
AcDbPoint
 10
179.6489604427886
 20
1737.574350290261
 30
0.0
  0
POINT
  5
7352
330
D9A
100
AcDbEntity
  8
Defpoints
 62
     0
100
AcDbPoint
 10
1079.648964100602
 20
1737.574350290261
 30
0.0
  0
POINT
  5
7353
330
D9A
100
AcDbEntity
  8
Defpoints
 62
     0
100
AcDbPoint
 10
1079.648964100602
 20
1767.574350290261
 30
0.0
  0
ENDBLK
  5
DA5
330
D9A
100
AcDbEntity
  8
0
100
AcDbBlockEnd
  0
BLOCK
  5
DAC
330
DA6
100
AcDbEntity
  8
0
100
AcDbBlockBegin
  2
*D77
 70
     1
 10
0.0
 20
0.0
 30
0.0
  3
*D77
  1

  0
LINE
  5
7346
330
DA6
100
AcDbEntity
  8
cotas
100
AcDbLine
 10
212.5404401729743
 20
1701.385270152039
 30
0.0
 11
188.5237922824829
 21
1728.33466736298
 31
0.0
  0
MTEXT
  5
7347
330
DA6
100
AcDbEntity
  8
cotas
100
AcDbMText
 10
211.3243109815075
 20
1717.780333871072
 30
0.0
 40
10.0
 41
0.0
 71
     5
 72
     1
  1
R7
  7
SANINDUSA
 11
0.6653169992361175
 21
-0.7465609757598158
 31
0.0
 73
     1
 44
1.0
1001
ACAD
1000
MTEXTBEGIN
1070
    73
1070
     1
1070
    44
1040
1.0
1070
    74
1070
     0
1000
MTEXTEND
  0
SOLID
  5
7348
330
DA6
100
AcDbEntity
  8
cotas
100
AcDbTrace
 10
189.768060575416
 20
1729.443529028374
 30
0.0
 11
187.2795239895498
 21
1727.225805697586
 31
0.0
 12
181.8706222901217
 22
1735.800277120578
 32
0.0
 13
181.8706222901217
 23
1735.800277120578
 33
0.0
  0
POINT
  5
7349
330
DA6
100
AcDbEntity
  8
Defpoints
 62
     0
100
AcDbPoint
 10
181.8706222901217
 20
1735.800277120578
 30
0.0
  0
POINT
  5
734A
330
DA6
100
AcDbEntity
  8
Defpoints
 62
     0
100
AcDbPoint
 10
186.5278412847729
 20
1730.574350290261
 30
0.0
  0
ENDBLK
  5
DAD
330
DA6
100
AcDbEntity
  8
0
100
AcDbBlockEnd
  0
BLOCK
  5
DB4
330
DAE
100
AcDbEntity
  8
0
100
AcDbBlockBegin
  2
*D78
 70
     1
 10
0.0
 20
0.0
 30
0.0
  3
*D78
  1

  0
LINE
  5
7341
330
DAE
100
AcDbEntity
  8
cotas
100
AcDbLine
 10
1042.739204740001
 20
1705.538291189277
 30
0.0
 11
1070.465805626112
 21
1728.653329351287
 31
0.0
  0
MTEXT
  5
7342
330
DAE
100
AcDbEntity
  8
cotas
100
AcDbMText
 10
1046.35864542809
 20
1721.575021955455
 30
0.0
 40
10.0
 41
0.0
 71
     5
 72
     1
  1
R7
  7
SANINDUSA
 11
0.7680913250124386
 21
0.6403403129903946
 31
0.0
 73
     1
 44
1.0
1001
ACAD
1000
MTEXTBEGIN
1070
    73
1070
     1
1070
    44
1040
1.0
1070
    74
1070
     0
1000
MTEXTEND
  0
SOLID
  5
7343
330
DAE
100
AcDbEntity
  8
cotas
100
AcDbTrace
 10
1069.398571771128
 20
1729.933481559642
 30
0.0
 11
1071.533039481096
 21
1727.373177142933
 31
0.0
 12
1078.146718876237
 22
1735.056732481191
 32
0.0
 13
1078.146718876237
 23
1735.056732481191
 33
0.0
  0
POINT
  5
7344
330
DAE
100
AcDbEntity
  8
Defpoints
 62
     0
100
AcDbPoint
 10
1078.146718876237
 20
1735.056732481191
 30
0.0
  0
POINT
  5
7345
330
DAE
100
AcDbEntity
  8
Defpoints
 62
     0
100
AcDbPoint
 10
1072.770079601152
 20
1730.574350290261
 30
0.0
  0
ENDBLK
  5
DB5
330
DAE
100
AcDbEntity
  8
0
100
AcDbBlockEnd
  0
BLOCK
  5
DC1
330
DB6
100
AcDbEntity
  8
0
100
AcDbBlockBegin
  2
*D79
 70
     1
 10
0.0
 20
0.0
 30
0.0
  3
*D79
  1

  0
LINE
  5
7337
330
DB6
100
AcDbEntity
  8
cotas
100
AcDbLine
 10
1080.434404784381
 20
1692.575112662157
 30
0.0
 11
1080.961131336513
 21
1662.398049296344
 31
0.0
  0
ARC
  5
7338
330
DB6
100
AcDbEntity
  8
cotas
100
AcDbCircle
 10
1079.648964100603
 20
1737.574350290261
 30
0.0
 40
70.18775175507596
100
AcDbArc
 50
188.1701364803898
 51
262.8298330588089
  0
SOLID
  5
7339
330
DB6
100
AcDbEntity
  8
cotas
100
AcDbTrace
 10
1008.511155047267
 20
1727.48102730386
 30
0.0
 11
1011.836019653573
 21
1727.718485638825
 31
0.0
 12
1009.461212345527
 22
1737.574350290261
 32
0.0
 13
1009.461212345527
 23
1737.574350290261
 33
0.0
  0
SOLID
  5
733A
330
DB6
100
AcDbEntity
  8
cotas
100
AcDbTrace
 10
1070.978063475175
 20
1669.599730137242
 30
0.0
 11
1070.798666425154
 21
1666.27122779992
 31
0.0
 12
1080.873871962128
 22
1667.397287818518
 32
0.0
 13
1080.873871962128
 23
1667.397287818518
 33
0.0
  0
MTEXT
  5
733B
330
DB6
100
AcDbEntity
  8
cotas
100
AcDbMText
 10
1038.404249791188
 20
1695.603446404847
 30
0.0
 40
10.0
 41
0.0
 71
     5
 72
     1
  1
91,0°
  7
SANINDUSA
 11
0.7132502628380123
 21
-0.7009094538965118
 31
0.0
 73
     1
 44
1.0
1001
ACAD
1000
MTEXTBEGIN
1070
    73
1070
     1
1070
    44
1040
1.0
1070
    74
1070
     0
1000
MTEXTEND
  0
POINT
  5
733C
330
DB6
100
AcDbEntity
  8
Defpoints
 62
     0
100
AcDbPoint
 10
1019.069777169216
 20
1702.127451876376
 30
0.0
  0
POINT
  5
733D
330
DB6
100
AcDbEntity
  8
Defpoints
 62
     0
100
AcDbPoint
 10
186.5278412268706
 20
1737.574350290261
 30
0.0
  0
POINT
  5
733E
330
DB6
100
AcDbEntity
  8
Defpoints
 62
     0
100
AcDbPoint
 10
1079.769013449187
 20
1730.696518169262
 30
0.0
  0
POINT
  5
733F
330
DB6
100
AcDbEntity
  8
Defpoints
 62
     0
100
AcDbPoint
 10
1080.347145409996
 20
1697.574351184331
 30
0.0
  0
POINT
  5
7340
330
DB6
100
AcDbEntity
  8
Defpoints
 62
     0
100
AcDbPoint
 10
1072.770083756859
 20
1737.574350290261
 30
0.0
  0
ENDBLK
  5
DC2
330
DB6
100
AcDbEntity
  8
0
100
AcDbBlockEnd
  0
BLOCK
  5
DCE
330
DC3
100
AcDbEntity
  8
0
100
AcDbBlockBegin
  2
*D80
 70
     1
 10
0.0
 20
0.0
 30
0.0
  3
*D80
  1

  0
LINE
  5
732D
330
DC3
100
AcDbEntity
  8
cotas
100
AcDbLine
 10
178.8634958302157
 20
1692.575112708546
 30
0.0
 11
178.2378119793026
 21
1656.729708844858
 31
0.0
  0
ARC
  5
732E
330
DC3
100
AcDbEntity
  8
cotas
100
AcDbCircle
 10
179.6489604427878
 20
1737.574350290261
 30
0.0
 40
75.85695635145903
100
AcDbArc
 50
276.5586144526255
 51
352.4413855488218
  0
SOLID
  5
732F
330
DC3
100
AcDbEntity
  8
cotas
100
AcDbTrace
 10
188.3941262257024
 20
1660.549131537276
 30
0.0
 11
188.2324960898028
 21
1663.878543919406
 31
0.0
 12
178.3250740113627
 22
1661.728947320642
 32
0.0
 13
178.3250740113627
 23
1661.728947320642
 33
0.0
  0
SOLID
  5
7330
330
DC3
100
AcDbEntity
  8
cotas
100
AcDbTrace
 10
253.1837392328473
 20
1727.70595279365
 30
0.0
 11
256.5098236945263
 21
1727.486241016797
 31
0.0
 12
255.5059167942469
 22
1737.57435029026
 32
0.0
 13
255.5059167942469
 23
1737.57435029026
 33
0.0
  0
MTEXT
  5
7331
330
DC3
100
AcDbEntity
  8
cotas
100
AcDbMText
 10
224.8672616188656
 20
1691.559872717006
 30
0.0
 40
10.0
 41
0.0
 71
     5
 72
     1
  1
91,0°
  7
SANINDUSA
 11
0.7132504491453298
 21
0.7009092643088586
 31
0.0
 73
     1
 44
1.0
1001
ACAD
1000
MTEXTBEGIN
1070
    73
1070
     1
1070
    44
1040
1.0
1070
    74
1070
     0
1000
MTEXTEND
  0
POINT
  5
7332
330
DC3
100
AcDbEntity
  8
Defpoints
 62
     0
100
AcDbPoint
 10
216.8105034173168
 20
1671.443438073209
 30
0.0
  0
POINT
  5
7333
330
DC3
100
AcDbEntity
  8
Defpoints
 62
     0
100
AcDbPoint
 10
178.9507578622758
 20
1697.57435118433
 30
0.0
  0
POINT
  5
7334
330
DC3
100
AcDbEntity
  8
Defpoints
 62
     0
100
AcDbPoint
 10
186.5278412268706
 20
1737.574350290261
 30
0.0
  0
POINT
  5
7335
330
DC3
100
AcDbEntity
  8
Defpoints
 62
     0
100
AcDbPoint
 10
1072.770083756859
 20
1737.574350290261
 30
0.0
  0
POINT
  5
7336
330
DC3
100
AcDbEntity
  8
Defpoints
 62
     0
100
AcDbPoint
 10
179.5289074205791
 20
1730.696517244306
 30
0.0
  0
ENDBLK
  5
DCF
330
DC3
100
AcDbEntity
  8
0
100
AcDbBlockEnd
  0
BLOCK
  5
DE0
330
DD0
100
AcDbEntity
  8
0
100
AcDbBlockBegin
  2
*D81
 70
     1
 10
0.0
 20
0.0
 30
0.0
  3
*D81
  1

  0
LINE
  5
731E
330
DD0
100
AcDbEntity
  8
cotas
100
AcDbLine
 10
247.1434124426194
 20
1684.033040702716
 30
0.0
 11
247.1434124426195
 21
1574.041572383364
 31
0.0
  0
LINE
  5
731F
330
DD0
100
AcDbEntity
  8
cotas
100
AcDbLine
 10
248.6238454007232
 20
1655.180347597094
 30
0.0
 11
251.4546492838241
 21
1574.116825390284
 31
0.0
  0
ARC
  5
7320
330
DD0
100
AcDbEntity
  8
cotas
100
AcDbCircle
 10
247.1434124426194
 20
1697.57435118433
 30
0.0
 40
118.5327788009668
100
AcDbArc
 50
260.3209955702493
 51
270.0000000000001
  0
LINE
  5
7321
330
DD0
100
AcDbEntity
  8
cotas
100
AcDbLine
 10
227.214713817451
 20
1580.728869365878
 30
0.0
 11
189.9224703066009
 21
1587.089285450591
 31
0.0
  0
ARC
  5
7322
330
DD0
100
AcDbEntity
  8
cotas
100
AcDbCircle
 10
247.1434124426194
 20
1697.57435118433
 30
0.0
 40
118.5327788009668
100
AcDbArc
 50
260.3296311248593
 51
265.1648155624297
  0
ARC
  5
7323
330
DD0
100
AcDbEntity
  8
cotas
100
AcDbCircle
 10
247.1434124426194
 20
1697.57435118433
 30
0.0
 40
118.5327788009668
100
AcDbArc
 50
276.8351867741813
 51
281.6703712117517
  0
ARC
  5
7324
330
DD0
100
AcDbEntity
  8
cotas
100
AcDbCircle
 10
247.1434124426194
 20
1697.57435118433
 30
0.0
 40
118.5327788009668
100
AcDbArc
 50
270.0000000000001
 51
272.0000023366109
  0
SOLID
  5
7325
330
DD0
100
AcDbEntity
  8
cotas
100
AcDbTrace
 10
237.2226172294315
 20
1581.128579838013
 30
0.0
 11
237.0820091475553
 21
1577.798213419971
 31
0.0
 12
247.1434124426195
 22
1579.041572383363
 32
0.0
 13
247.1434124426195
 23
1579.041572383363
 33
0.0
  0
SOLID
  5
7326
330
DD0
100
AcDbEntity
  8
cotas
100
AcDbTrace
 10
261.3788183949531
 20
1578.222316298515
 30
0.0
 11
261.1220677203621
 21
1581.545746785558
 31
0.0
 12
251.2801515965281
 22
1579.113779518263
 32
0.0
 13
251.2801515965281
 23
1579.113779518263
 33
0.0
  0
MTEXT
  5
7327
330
DD0
100
AcDbEntity
  8
cotas
100
AcDbMText
 10
210.4762652335371
 20
1595.094102334843
 30
0.0
 40
10.0
 41
0.0
 71
     5
 72
     1
  1
2,0°
  7
SANINDUSA
 11
0.9857651444639776
 21
-0.168128165278496
 31
0.0
 73
     1
 44
1.0
1001
ACAD
1000
MTEXTBEGIN
1070
    73
1070
     1
1070
    44
1040
1.0
1070
    74
1070
     0
1000
MTEXTEND
  0
POINT
  5
7328
330
DD0
100
AcDbEntity
  8
Defpoints
 62
     0
100
AcDbPoint
 10
249.901549723196
 20
1579.073666253734
 30
0.0
  0
POINT
  5
7329
330
DD0
100
AcDbEntity
  8
Defpoints
 62
     0
100
AcDbPoint
 10
247.1434124426194
 20
1697.57435118433
 30
0.0
  0
POINT
  5
732A
330
DD0
100
AcDbEntity
  8
Defpoints
 62
     0
100
AcDbPoint
 10
247.1434124426194
 20
1697.57435118433
 30
0.0
  0
POINT
  5
732B
330
DD0
100
AcDbEntity
  8
Defpoints
 62
     0
100
AcDbPoint
 10
248.4493477134271
 20
1660.177301725073
 30
0.0
  0
POINT
  5
732C
330
DD0
100
AcDbEntity
  8
Defpoints
 62
     0
100
AcDbPoint
 10
247.1434124426194
 20
1689.033040702716
 30
0.0
  0
ENDBLK
  5
DE1
330
DD0
100
AcDbEntity
  8
0
100
AcDbBlockEnd
  0
BLOCK
  5
DEC
330
DE2
100
AcDbEntity
  8
0
100
AcDbBlockBegin
  2
*D82
 70
     1
 10
0.0
 20
0.0
 30
0.0
  3
*D82
  1

  0
LINE
  5
7354
330
DE2
100
AcDbEntity
  8
cotas
100
AcDbLine
 10
2913.271833449194
 20
1742.574350290261
 30
0.0
 11
2913.271833449194
 21
1772.574350290261
 31
0.0
  0
LINE
  5
7355
330
DE2
100
AcDbEntity
  8
cotas
100
AcDbLine
 10
2843.271833172866
 20
1742.574350290261
 30
0.0
 11
2843.271833172866
 21
1772.574350290261
 31
0.0
  0
LINE
  5
7356
330
DE2
100
AcDbEntity
  8
cotas
100
AcDbLine
 10
2903.271833449194
 20
1767.574350290261
 30
0.0
 11
2853.271833172866
 21
1767.574350290261
 31
0.0
  0
SOLID
  5
7357
330
DE2
100
AcDbEntity
  8
cotas
100
AcDbTrace
 10
2903.271833449194
 20
1769.241016956928
 30
0.0
 11
2903.271833449194
 21
1765.907683623594
 31
0.0
 12
2913.271833449194
 22
1767.574350290261
 32
0.0
 13
2913.271833449194
 23
1767.574350290261
 33
0.0
  0
SOLID
  5
7358
330
DE2
100
AcDbEntity
  8
cotas
100
AcDbTrace
 10
2853.271833172866
 20
1769.241016956928
 30
0.0
 11
2853.271833172866
 21
1765.907683623594
 31
0.0
 12
2843.271833172866
 22
1767.574350290261
 32
0.0
 13
2843.271833172866
 23
1767.574350290261
 33
0.0
  0
MTEXT
  5
7359
330
DE2
100
AcDbEntity
  8
cotas
100
AcDbMText
 10
2878.271833311031
 20
1777.779185750301
 30
0.0
 40
10.0
 41
0.0
 71
     5
 72
     1
  1
70
  7
SANINDUSA
 73
     1
 44
1.0
1001
ACAD
1000
MTEXTBEGIN
1070
    73
1070
     1
1070
    44
1040
1.0
1070
    74
1070
     0
1000
MTEXTEND
  0
POINT
  5
735A
330
DE2
100
AcDbEntity
  8
Defpoints
 62
     0
100
AcDbPoint
 10
2913.271833449194
 20
1737.574350290261
 30
0.0
  0
POINT
  5
735B
330
DE2
100
AcDbEntity
  8
Defpoints
 62
     0
100
AcDbPoint
 10
2843.271833172866
 20
1737.574350290261
 30
0.0
  0
POINT
  5
735C
330
DE2
100
AcDbEntity
  8
Defpoints
 62
     0
100
AcDbPoint
 10
2843.271833172866
 20
1767.574350290261
 30
0.0
  0
ENDBLK
  5
DED
330
DE2
100
AcDbEntity
  8
0
100
AcDbBlockEnd
  0
BLOCK
  5
DF9
330
DEE
100
AcDbEntity
  8
0
100
AcDbBlockBegin
  2
*D83
 70
     1
 10
0.0
 20
0.0
 30
0.0
  3
*D83
  1

  0
LINE
  5
735D
330
DEE
100
AcDbEntity
  8
cotas
100
AcDbLine
 10
2913.271833449194
 20
1742.574350290261
 30
0.0
 11
2913.271833449194
 21
1772.574350290261
 31
0.0
  0
LINE
  5
735E
330
DEE
100
AcDbEntity
  8
cotas
100
AcDbLine
 10
2945.678634275022
 20
1682.999700202197
 30
0.0
 11
2945.678634275022
 21
1772.574350290261
 31
0.0
  0
LINE
  5
735F
330
DEE
100
AcDbEntity
  8
cotas
100
AcDbLine
 10
2923.271833449194
 20
1767.574350290261
 30
0.0
 11
2935.678634275022
 21
1767.574350290261
 31
0.0
  0
LINE
  5
7360
330
DEE
100
AcDbEntity
  8
cotas
100
AcDbLine
 10
2945.678634275022
 20
1767.574350290261
 30
0.0
 11
2995.127929103766
 21
1767.574350290261
 31
0.0
  0
SOLID
  5
7361
330
DEE
100
AcDbEntity
  8
cotas
100
AcDbTrace
 10
2923.271833449194
 20
1769.241016956928
 30
0.0
 11
2923.271833449194
 21
1765.907683623594
 31
0.0
 12
2913.271833449194
 22
1767.574350290261
 32
0.0
 13
2913.271833449194
 23
1767.574350290261
 33
0.0
  0
SOLID
  5
7362
330
DEE
100
AcDbEntity
  8
cotas
100
AcDbTrace
 10
2935.678634275022
 20
1769.241016956928
 30
0.0
 11
2935.678634275022
 21
1765.907683623594
 31
0.0
 12
2945.678634275022
 22
1767.574350290261
 32
0.0
 13
2945.678634275022
 23
1767.574350290261
 33
0.0
  0
MTEXT
  5
7363
330
DEE
100
AcDbEntity
  8
cotas
100
AcDbMText
 10
2975.403281689393
 20
1778.920891593149
 30
0.0
 40
10.0
 41
0.0
 71
     5
 72
     1
  1
32,4
  7
SANINDUSA
 73
     1
 44
1.0
1001
ACAD
1000
MTEXTBEGIN
1070
    73
1070
     1
1070
    44
1040
1.0
1070
    74
1070
     0
1000
MTEXTEND
  0
POINT
  5
7364
330
DEE
100
AcDbEntity
  8
Defpoints
 62
     0
100
AcDbPoint
 10
2913.271833449194
 20
1737.574350290261
 30
0.0
  0
POINT
  5
7365
330
DEE
100
AcDbEntity
  8
Defpoints
 62
     0
100
AcDbPoint
 10
2945.678634275022
 20
1677.999700202197
 30
0.0
  0
POINT
  5
7366
330
DEE
100
AcDbEntity
  8
Defpoints
 62
     0
100
AcDbPoint
 10
2945.678634275022
 20
1767.574350290261
 30
0.0
  0
ENDBLK
  5
DFA
330
DEE
100
AcDbEntity
  8
0
100
AcDbBlockEnd
  0
BLOCK
  5
E05
330
DFB
100
AcDbEntity
  8
0
100
AcDbBlockBegin
  2
*D84
 70
     1
 10
0.0
 20
0.0
 30
0.0
  3
*D84
  1

  0
LINE
  5
7367
330
DFB
100
AcDbEntity
  8
cotas
100
AcDbLine
 10
2945.765896369032
 20
1682.998938676899
 30
0.0
 11
2946.177971856761
 21
1706.606710826978
 31
0.0
  0
LINE
  5
7368
330
DFB
100
AcDbEntity
  8
cotas
100
AcDbLine
 10
3207.725992443459
 20
1678.426404950743
 30
0.0
 11
3208.138067931189
 21
1702.034177100821
 31
0.0
  0
LINE
  5
7369
330
DFB
100
AcDbEntity
  8
cotas
100
AcDbLine
 10
2956.089186712157
 20
1701.432948164253
 30
0.0
 11
3198.052328887773
 21
1697.209462814139
 31
0.0
  0
SOLID
  5
736A
330
DFB
100
AcDbEntity
  8
cotas
100
AcDbTrace
 10
2956.118274076827
 20
1703.099360989154
 30
0.0
 11
2956.060099347487
 21
1699.766535339352
 31
0.0
 12
2946.090709762751
 22
1701.607472352275
 32
0.0
 13
2946.090709762751
 23
1701.607472352275
 33
0.0
  0
SOLID
  5
736B
330
DFB
100
AcDbEntity
  8
cotas
100
AcDbTrace
 10
3198.081416252443
 20
1698.87587563904
 30
0.0
 11
3198.023241523103
 21
1695.543049989238
 31
0.0
 12
3208.050805837178
 22
1697.034938626118
 32
0.0
 13
3208.050805837178
 23
1697.034938626118
 33
0.0
  0
MTEXT
  5
736C
330
DFB
100
AcDbEntity
  8
cotas
100
AcDbMText
 10
3077.248915466716
 20
1709.527844148093
 30
0.0
 40
10.0
 41
0.0
 71
     5
 72
     1
  1
262
  7
SANINDUSA
 11
0.9998476949405622
 21
-0.0174524188021244
 31
0.0
 73
     1
 44
1.0
1001
ACAD
1000
MTEXTBEGIN
1070
    73
1070
     1
1070
    44
1040
1.0
1070
    74
1070
     0
1000
MTEXTEND
  0
POINT
  5
736D
330
DFB
100
AcDbEntity
  8
Defpoints
 62
     0
100
AcDbPoint
 10
2945.678634275021
 20
1677.999700202197
 30
0.0
  0
POINT
  5
736E
330
DFB
100
AcDbEntity
  8
Defpoints
 62
     0
100
AcDbPoint
 10
3207.638730349449
 20
1673.42716647604
 30
0.0
  0
POINT
  5
736F
330
DFB
100
AcDbEntity
  8
Defpoints
 62
     0
100
AcDbPoint
 10
3208.050805837178
 20
1697.034938626118
 30
0.0
  0
ENDBLK
  5
E06
330
DFB
100
AcDbEntity
  8
0
100
AcDbBlockEnd
  0
BLOCK
  5
E11
330
E07
100
AcDbEntity
  8
0
100
AcDbBlockBegin
  2
*D85
 70
     1
 10
0.0
 20
0.0
 30
0.0
  3
*D85
  1

  0
LINE
  5
7370
330
E07
100
AcDbEntity
  8
cotas
100
AcDbLine
 10
3212.638730349449
 20
1673.42716647604
 30
0.0
 11
3262.124496023905
 21
1673.42716647604
 31
0.0
  0
LINE
  5
7371
330
E07
100
AcDbEntity
  8
cotas
100
AcDbLine
 10
3438.27183761925
 20
1737.574350290261
 30
0.0
 11
3252.124496023906
 21
1737.574350290261
 31
0.0
  0
LINE
  5
7372
330
E07
100
AcDbEntity
  8
cotas
100
AcDbLine
 10
3257.124496023906
 20
1683.42716647604
 30
0.0
 11
3257.124496023906
 21
1727.574350290261
 31
0.0
  0
SOLID
  5
7373
330
E07
100
AcDbEntity
  8
cotas
100
AcDbTrace
 10
3255.457829357239
 20
1683.42716647604
 30
0.0
 11
3258.791162690573
 21
1683.42716647604
 31
0.0
 12
3257.124496023906
 22
1673.42716647604
 32
0.0
 13
3257.124496023906
 23
1673.42716647604
 33
0.0
  0
SOLID
  5
7374
330
E07
100
AcDbEntity
  8
cotas
100
AcDbTrace
 10
3255.457829357239
 20
1727.574350290261
 30
0.0
 11
3258.791162690573
 21
1727.574350290261
 31
0.0
 12
3257.124496023906
 22
1737.574350290261
 32
0.0
 13
3257.124496023906
 23
1737.574350290261
 33
0.0
  0
MTEXT
  5
7375
330
E07
100
AcDbEntity
  8
cotas
100
AcDbMText
 10
3245.788028596101
 20
1705.500758383151
 30
0.0
 40
10.0
 41
0.0
 71
     5
 72
     1
  1
64,1
  7
SANINDUSA
 11
0.0000000000000001
 21
1.0
 31
0.0
 73
     1
 44
1.0
1001
ACAD
1000
MTEXTBEGIN
1070
    73
1070
     1
1070
    44
1040
1.0
1070
    74
1070
     0
1000
MTEXTEND
  0
POINT
  5
7376
330
E07
100
AcDbEntity
  8
Defpoints
 62
     0
100
AcDbPoint
 10
3207.63873034945
 20
1673.42716647604
 30
0.0
  0
POINT
  5
7377
330
E07
100
AcDbEntity
  8
Defpoints
 62
     0
100
AcDbPoint
 10
3443.27183761925
 20
1737.574350290261
 30
0.0
  0
POINT
  5
7378
330
E07
100
AcDbEntity
  8
Defpoints
 62
     0
100
AcDbPoint
 10
3257.124496023906
 20
1737.574350290261
 30
0.0
  0
ENDBLK
  5
E12
330
E07
100
AcDbEntity
  8
0
100
AcDbBlockEnd
  0
BLOCK
  5
E1F
330
E13
100
AcDbEntity
  8
0
100
AcDbBlockBegin
  2
*D86
 70
     1
 10
0.0
 20
0.0
 30
0.0
  3
*D86
  1

  0
LINE
  5
7379
330
E13
100
AcDbEntity
  8
cotas
100
AcDbLine
 10
3212.638730349449
 20
1673.42716647604
 30
0.0
 11
3262.124496023905
 21
1673.42716647604
 31
0.0
  0
LINE
  5
737A
330
E13
100
AcDbEntity
  8
cotas
100
AcDbLine
 10
3212.638730349449
 20
1651.408350791926
 30
0.0
 11
3262.124496023905
 21
1651.408350791926
 31
0.0
  0
LINE
  5
737B
330
E13
100
AcDbEntity
  8
cotas
100
AcDbLine
 10
3257.124496023906
 20
1683.42716647604
 30
0.0
 11
3257.124496023906
 21
1693.42716647604
 31
0.0
  0
LINE
  5
737C
330
E13
100
AcDbEntity
  8
cotas
100
AcDbLine
 10
3257.124496023906
 20
1641.408350791926
 30
0.0
 11
3257.124496023906
 21
1605.894583162645
 31
0.0
  0
LINE
  5
737D
330
E13
100
AcDbEntity
  8
cotas
100
AcDbLine
 10
3257.124496023906
 20
1673.42716647604
 30
0.0
 11
3257.124496023906
 21
1651.408350791926
 31
0.0
  0
SOLID
  5
737E
330
E13
100
AcDbEntity
  8
cotas
100
AcDbTrace
 10
3255.457829357239
 20
1683.42716647604
 30
0.0
 11
3258.791162690573
 21
1683.42716647604
 31
0.0
 12
3257.124496023906
 22
1673.42716647604
 32
0.0
 13
3257.124496023906
 23
1673.42716647604
 33
0.0
  0
SOLID
  5
737F
330
E13
100
AcDbEntity
  8
cotas
100
AcDbTrace
 10
3255.457829357239
 20
1641.408350791926
 30
0.0
 11
3258.791162690573
 21
1641.408350791926
 31
0.0
 12
3257.124496023906
 22
1651.408350791926
 32
0.0
 13
3257.124496023906
 23
1651.408350791926
 33
0.0
  0
MTEXT
  5
7380
330
E13
100
AcDbEntity
  8
cotas
100
AcDbMText
 10
3247.020399314705
 20
1618.651466977286
 30
0.0
 40
10.0
 41
0.0
 71
     5
 72
     1
  1
22
  7
SANINDUSA
 11
0.0000000000000001
 21
1.0
 31
0.0
 73
     1
 44
1.0
1001
ACAD
1000
MTEXTBEGIN
1070
    73
1070
     1
1070
    44
1040
1.0
1070
    74
1070
     0
1000
MTEXTEND
  0
POINT
  5
7381
330
E13
100
AcDbEntity
  8
Defpoints
 62
     0
100
AcDbPoint
 10
3207.63873034945
 20
1673.42716647604
 30
0.0
  0
POINT
  5
7382
330
E13
100
AcDbEntity
  8
Defpoints
 62
     0
100
AcDbPoint
 10
3207.63873034945
 20
1651.408350791926
 30
0.0
  0
POINT
  5
7383
330
E13
100
AcDbEntity
  8
Defpoints
 62
     0
100
AcDbPoint
 10
3257.124496023906
 20
1651.408350791926
 30
0.0
  0
ENDBLK
  5
E20
330
E13
100
AcDbEntity
  8
0
100
AcDbBlockEnd
  0
BLOCK
  5
E2D
330
E21
100
AcDbEntity
  8
0
100
AcDbBlockBegin
  2
*D87
 70
     1
 10
0.0
 20
0.0
 30
0.0
  3
*D87
  1

  0
LINE
  5
7384
330
E21
100
AcDbEntity
  8
cotas
100
AcDbLine
 10
2940.678634275022
 20
1677.999700202197
 30
0.0
 11
2807.573630592357
 21
1677.999700202197
 31
0.0
  0
LINE
  5
7385
330
E21
100
AcDbEntity
  8
cotas
100
AcDbLine
 10
2940.678634275021
 20
1667.998176844541
 30
0.0
 11
2807.573630592357
 21
1667.998176844541
 31
0.0
  0
LINE
  5
7386
330
E21
100
AcDbEntity
  8
cotas
100
AcDbLine
 10
2812.573630592357
 20
1687.999700202197
 30
0.0
 11
2812.573630592357
 21
1697.999700202197
 31
0.0
  0
LINE
  5
7387
330
E21
100
AcDbEntity
  8
cotas
100
AcDbLine
 10
2812.573630592357
 20
1657.998176844541
 30
0.0
 11
2812.573630592357
 21
1623.283603305253
 31
0.0
  0
LINE
  5
7388
330
E21
100
AcDbEntity
  8
cotas
100
AcDbLine
 10
2812.573630592357
 20
1677.999700202197
 30
0.0
 11
2812.573630592357
 21
1667.998176844541
 31
0.0
  0
SOLID
  5
7389
330
E21
100
AcDbEntity
  8
cotas
100
AcDbTrace
 10
2810.90696392569
 20
1687.999700202197
 30
0.0
 11
2814.240297259023
 21
1687.999700202197
 31
0.0
 12
2812.573630592357
 22
1677.999700202197
 32
0.0
 13
2812.573630592357
 23
1677.999700202197
 33
0.0
  0
SOLID
  5
738A
330
E21
100
AcDbEntity
  8
cotas
100
AcDbTrace
 10
2810.90696392569
 20
1657.998176844541
 30
0.0
 11
2814.240297259023
 21
1657.998176844541
 31
0.0
 12
2812.573630592357
 22
1667.998176844541
 32
0.0
 13
2812.573630592357
 23
1667.998176844541
 33
0.0
  0
MTEXT
  5
738B
330
E21
100
AcDbEntity
  8
cotas
100
AcDbMText
 10
2802.368795132316
 20
1635.640890074897
 30
0.0
 40
10.0
 41
0.0
 71
     5
 72
     1
  1
10
  7
SANINDUSA
 11
0.0000000000000001
 21
1.0
 31
0.0
 73
     1
 44
1.0
1001
ACAD
1000
MTEXTBEGIN
1070
    73
1070
     1
1070
    44
1040
1.0
1070
    74
1070
     0
1000
MTEXTEND
  0
POINT
  5
738C
330
E21
100
AcDbEntity
  8
Defpoints
 62
     0
100
AcDbPoint
 10
2945.678634275022
 20
1677.999700202197
 30
0.0
  0
POINT
  5
738D
330
E21
100
AcDbEntity
  8
Defpoints
 62
     0
100
AcDbPoint
 10
2945.678634275021
 20
1667.998176844541
 30
0.0
  0
POINT
  5
738E
330
E21
100
AcDbEntity
  8
Defpoints
 62
     0
100
AcDbPoint
 10
2812.573630592357
 20
1667.998176844541
 30
0.0
  0
ENDBLK
  5
E2E
330
E21
100
AcDbEntity
  8
0
100
AcDbBlockEnd
  0
BLOCK
  5
E42
330
E38
100
AcDbEntity
  8
0
100
AcDbBlockBegin
  2
*D88
 70
     1
 10
0.0
 20
0.0
 30
0.0
  3
*D88
  1

  0
ARC
  5
7398
330
E38
100
AcDbEntity
  8
cotas
100
AcDbCircle
 10
2909.505647227451
 20
1733.674350290259
 30
0.0
 40
47.01428158020867
100
AcDbArc
 50
192.2099791823482
 51
259.7900208176421
  0
SOLID
  5
7399
330
E38
100
AcDbEntity
  8
cotas
100
AcDbTrace
 10
2861.897657796431
 20
1723.553812322065
 30
0.0
 11
2865.212086751024
 21
1723.908314530894
 31
0.0
 12
2862.491365647242
 22
1733.674350290259
 32
0.0
 13
2862.491365647242
 23
1733.674350290259
 33
0.0
  0
SOLID
  5
739A
330
E38
100
AcDbEntity
  8
cotas
100
AcDbTrace
 10
2901.291383640982
 20
1689.066942521324
 30
0.0
 11
2901.052769287693
 21
1685.742160678629
 31
0.0
 12
2911.146421992422
 22
1686.688708540105
 32
0.0
 13
2911.146421992422
 23
1686.688708540105
 33
0.0
  0
MTEXT
  5
739B
330
E38
100
AcDbEntity
  8
cotas
100
AcDbMText
 10
2884.728752888451
 20
1708.017125120642
 30
0.0
 40
10.0
 41
0.0
 71
     5
 72
     1
  1
92,0°
  7
SANINDUSA
 11
0.719339800338595
 21
-0.6946583704590556
 31
0.0
 73
     1
 44
1.0
1001
ACAD
1000
MTEXTBEGIN
1070
    73
1070
     1
1070
    44
1040
1.0
1070
    74
1070
     0
1000
MTEXTEND
  0
POINT
  5
739C
330
E38
100
AcDbEntity
  8
Defpoints
 62
     0
100
AcDbPoint
 10
2869.06635298732
 20
1709.695064357119
 30
0.0
  0
POINT
  5
739D
330
E38
100
AcDbEntity
  8
Defpoints
 62
     0
100
AcDbPoint
 10
2850.150714014854
 20
1733.67435029026
 30
0.0
  0
POINT
  5
739E
330
E38
100
AcDbEntity
  8
Defpoints
 62
     0
100
AcDbPoint
 10
2911.222566636927
 20
1684.508211213926
 30
0.0
  0
POINT
  5
739F
330
E38
100
AcDbEntity
  8
Defpoints
 62
     0
100
AcDbPoint
 10
2909.610123589308
 20
1730.68253873004
 30
0.0
  0
POINT
  5
73A0
330
E38
100
AcDbEntity
  8
Defpoints
 62
     0
100
AcDbPoint
 10
2906.512012025553
 20
1733.674350290259
 30
0.0
  0
ENDBLK
  5
E43
330
E38
100
AcDbEntity
  8
0
100
AcDbBlockEnd
  0
BLOCK
  5
E4B
330
E44
100
AcDbEntity
  8
0
100
AcDbBlockBegin
  2
*D89
 70
     1
 10
0.0
 20
0.0
 30
0.0
  3
*D89
  1

  0
LINE
  5
73F9
330
E44
100
AcDbEntity
  8
cotas
100
AcDbLine
 10
2879.158637916586
 20
1636.683836568069
 30
0.0
 11
2912.209514530572
 21
1666.989946506615
 31
0.0
  0
MTEXT
  5
73FA
330
E44
100
AcDbEntity
  8
cotas
100
AcDbMText
 10
2885.2290903598
 20
1655.840558396787
 30
0.0
 40
10.0
 41
0.0
 71
     5
 72
     1
  1
R17
  7
SANINDUSA
 11
0.7370489033731405
 21
0.6758394143851416
 31
0.0
 73
     1
 44
1.0
1001
ACAD
1000
MTEXTBEGIN
1070
    73
1070
     1
1070
    44
1040
1.0
1070
    74
1070
     0
1000
MTEXTEND
  0
LINE
  5
73FB
330
E44
100
AcDbEntity
  8
cotas
100
AcDbLine
 10
2932.109834921641
 20
1685.237610695008
 30
0.0
 11
2919.580003564303
 21
1673.748340650467
 31
0.0
  0
SOLID
  5
73FC
330
E44
100
AcDbEntity
  8
cotas
100
AcDbTrace
 10
2911.083115506596
 20
1668.218361345571
 30
0.0
 11
2913.335913554547
 21
1665.76153166766
 31
0.0
 12
2919.580003564303
 22
1673.748340650467
 32
0.0
 13
2919.580003564303
 23
1673.748340650467
 33
0.0
  0
POINT
  5
73FD
330
E44
100
AcDbEntity
  8
Defpoints
 62
     0
100
AcDbPoint
 10
2919.580003564303
 20
1673.748340650467
 30
0.0
  0
POINT
  5
73FE
330
E44
100
AcDbEntity
  8
Defpoints
 62
     0
100
AcDbPoint
 10
2932.109834921641
 20
1685.237610695008
 30
0.0
  0
ENDBLK
  5
E4C
330
E44
100
AcDbEntity
  8
0
100
AcDbBlockEnd
  0
BLOCK
  5
E54
330
E4D
100
AcDbEntity
  8
0
100
AcDbBlockBegin
  2
*D90
 70
     1
 10
0.0
 20
0.0
 30
0.0
  3
*D90
  1

  0
LINE
  5
73FF
330
E4D
100
AcDbEntity
  8
cotas
100
AcDbLine
 10
2955.505224623863
 20
1616.230228465326
 30
0.0
 11
2942.31754852775
 21
1659.047207476449
 31
0.0
  0
MTEXT
  5
7400
330
E4D
100
AcDbEntity
  8
cotas
100
AcDbMText
 10
2960.135884321415
 20
1635.864086424532
 30
0.0
 40
10.0
 41
0.0
 71
     5
 72
     1
  1
R10
  7
SANINDUSA
 11
0.2943554145871964
 21
-0.9556960237979437
 31
0.0
 73
     1
 44
1.0
1001
ACAD
1000
MTEXTBEGIN
1070
    73
1070
     1
1070
    44
1040
1.0
1070
    74
1070
     0
1000
MTEXTEND
  0
LINE
  5
7401
330
E4D
100
AcDbEntity
  8
cotas
100
AcDbLine
 10
2936.430440236006
 20
1678.161127952406
 30
0.0
 11
2939.373994381878
 21
1668.604167714428
 31
0.0
  0
SOLID
  5
7402
330
E4D
100
AcDbEntity
  8
cotas
100
AcDbTrace
 10
2943.91037523408
 20
1659.537799834094
 30
0.0
 11
2940.72472182142
 21
1658.556615118803
 31
0.0
 12
2939.373994381878
 22
1668.604167714428
 32
0.0
 13
2939.373994381878
 23
1668.604167714428
 33
0.0
  0
POINT
  5
7403
330
E4D
100
AcDbEntity
  8
Defpoints
 62
     0
100
AcDbPoint
 10
2939.373994381878
 20
1668.604167714428
 30
0.0
  0
POINT
  5
7404
330
E4D
100
AcDbEntity
  8
Defpoints
 62
     0
100
AcDbPoint
 10
2936.430440236006
 20
1678.161127952406
 30
0.0
  0
ENDBLK
  5
E55
330
E4D
100
AcDbEntity
  8
0
100
AcDbBlockEnd
  0
BLOCK
  5
E5C
330
E56
100
AcDbEntity
  8
0
100
AcDbBlockBegin
  2
*D91
 70
     1
 10
0.0
 20
0.0
 30
0.0
  3
*D91
  1

  0
LINE
  5
73AD
330
E56
100
AcDbEntity
  8
cotas
100
AcDbLine
 10
2983.251130484211
 20
1637.517658108358
 30
0.0
 11
2953.855408414285
 21
1668.708604261446
 31
0.0
  0
MTEXT
  5
73AE
330
E56
100
AcDbEntity
  8
cotas
100
AcDbMText
 10
2981.578801793171
 20
1653.872486181763
 30
0.0
 40
10.0
 41
0.0
 71
     5
 72
     1
  1
R7
  7
SANINDUSA
 11
0.6858537116676528
 21
-0.7277394356441764
 31
0.0
 73
     1
 44
1.0
1001
ACAD
1000
MTEXTBEGIN
1070
    73
1070
     1
1070
    44
1040
1.0
1070
    74
1070
     0
1000
MTEXTEND
  0
SOLID
  5
73AF
330
E56
100
AcDbEntity
  8
cotas
100
AcDbTrace
 10
2955.068307473693
 20
1669.851693780893
 30
0.0
 11
2952.642509354879
 21
1667.565514742001
 31
0.0
 12
2946.996871297609
 22
1675.985998617888
 32
0.0
 13
2946.996871297609
 23
1675.985998617888
 33
0.0
  0
POINT
  5
73B0
330
E56
100
AcDbEntity
  8
Defpoints
 62
     0
100
AcDbPoint
 10
2946.996871297609
 20
1675.985998617888
 30
0.0
  0
POINT
  5
73B1
330
E56
100
AcDbEntity
  8
Defpoints
 62
     0
100
AcDbPoint
 10
2951.797847279282
 20
1670.891822568379
 30
0.0
  0
ENDBLK
  5
E5D
330
E56
100
AcDbEntity
  8
0
100
AcDbBlockEnd
  0
BLOCK
  5
E65
330
E5E
100
AcDbEntity
  8
0
100
AcDbBlockBegin
  2
*D92
 70
     1
 10
0.0
 20
0.0
 30
0.0
  3
*D92
  1

  0
LINE
  5
7405
330
E5E
100
AcDbEntity
  8
cotas
100
AcDbLine
 10
3191.609440696562
 20
1604.589733016793
 30
0.0
 11
3212.638138577617
 21
1644.19547262594
 31
0.0
  0
MTEXT
  5
7406
330
E5E
100
AcDbEntity
  8
cotas
100
AcDbMText
 10
3190.931963038395
 20
1624.673841364213
 30
0.0
 40
10.0
 41
0.0
 71
     5
 72
     1
  1
R17
  7
SANINDUSA
 11
0.4689490960744396
 21
0.8832251951178509
 31
0.0
 73
     1
 44
1.0
1001
ACAD
1000
MTEXTBEGIN
1070
    73
1070
     1
1070
    44
1040
1.0
1070
    74
1070
     0
1000
MTEXTEND
  0
LINE
  5
7407
330
E5E
100
AcDbEntity
  8
cotas
100
AcDbLine
 10
3225.301671805449
 20
1668.046145757972
 30
0.0
 11
3217.327629538362
 21
1653.027724577118
 31
0.0
  0
SOLID
  5
7408
330
E5E
100
AcDbEntity
  8
cotas
100
AcDbTrace
 10
3211.166096585755
 20
1644.97705445273
 30
0.0
 11
3214.11018056948
 21
1643.413890799149
 31
0.0
 12
3217.327629538362
 22
1653.027724577118
 32
0.0
 13
3217.327629538362
 23
1653.027724577118
 33
0.0
  0
POINT
  5
7409
330
E5E
100
AcDbEntity
  8
Defpoints
 62
     0
100
AcDbPoint
 10
3217.327629538362
 20
1653.027724577118
 30
0.0
  0
POINT
  5
740A
330
E5E
100
AcDbEntity
  8
Defpoints
 62
     0
100
AcDbPoint
 10
3225.301671805449
 20
1668.046145757972
 30
0.0
  0
ENDBLK
  5
E66
330
E5E
100
AcDbEntity
  8
0
100
AcDbBlockEnd
  0
BLOCK
  5
E6D
330
E67
100
AcDbEntity
  8
0
100
AcDbBlockBegin
  2
*D93
 70
     1
 10
0.0
 20
0.0
 30
0.0
  3
*D93
  1

  0
LINE
  5
73B8
330
E67
100
AcDbEntity
  8
cotas
100
AcDbLine
 10
3168.607737189259
 20
1634.218869862136
 30
0.0
 11
3199.210177475325
 21
1664.428388108788
 31
0.0
  0
MTEXT
  5
73B9
330
E67
100
AcDbEntity
  8
cotas
100
AcDbMText
 10
3170.868983537444
 20
1650.50272227839
 30
0.0
 40
10.0
 41
0.0
 71
     5
 72
     1
  1
R7
  7
SANINDUSA
 11
0.7116607288361168
 21
0.7025233142269708
 31
0.0
 73
     1
 44
1.0
1001
ACAD
1000
MTEXTBEGIN
1070
    73
1070
     1
1070
    44
1040
1.0
1070
    74
1070
     0
1000
MTEXTEND
  0
SOLID
  5
73BA
330
E67
100
AcDbEntity
  8
cotas
100
AcDbTrace
 10
3198.039305284947
 20
1665.614489323515
 30
0.0
 11
3200.381049665703
 21
1663.242286894061
 31
0.0
 12
3206.326784763687
 22
1671.453621251058
 32
0.0
 13
3206.326784763687
 23
1671.453621251058
 33
0.0
  0
POINT
  5
73BB
330
E67
100
AcDbEntity
  8
Defpoints
 62
     0
100
AcDbPoint
 10
3206.326784763687
 20
1671.453621251058
 30
0.0
  0
POINT
  5
73BC
330
E67
100
AcDbEntity
  8
Defpoints
 62
     0
100
AcDbPoint
 10
3201.345167423009
 20
1666.535965712994
 30
0.0
  0
ENDBLK
  5
E6E
330
E67
100
AcDbEntity
  8
0
100
AcDbBlockEnd
  0
BLOCK
  5
E79
330
E6F
100
AcDbEntity
  8
0
100
AcDbBlockBegin
  2
*D94
 70
     1
 10
0.0
 20
0.0
 30
0.0
  3
*D94
  1

  0
ARC
  5
73BD
330
E6F
100
AcDbEntity
  8
cotas
100
AcDbCircle
 10
-467.3483646071426
 20
1737.574350290261
 30
0.0
 40
3635.944948315079
100
AcDbArc
 50
359.1575808785803
 51
359.8424184128587
  0
SOLID
  5
73BE
330
E6F
100
AcDbEntity
  8
cotas
100
AcDbTrace
 10
3169.870036679551
 20
1684.090228049056
 30
0.0
 11
3166.537134181574
 21
1684.14381956042
 31
0.0
 12
3168.04281089647
 22
1674.118316310807
 32
0.0
 13
3168.04281089647
 23
1674.118316310807
 33
0.0
  0
SOLID
  5
73BF
330
E6F
100
AcDbEntity
  8
cotas
100
AcDbTrace
 10
3166.916167033808
 20
1727.576651676125
 30
0.0
 11
3170.249497215372
 21
1727.572067815009
 31
0.0
 12
3168.596583707936
 22
1737.57435029026
 32
0.0
 13
3168.596583707936
 23
1737.57435029026
 33
0.0
  0
MTEXT
  5
73C0
330
E6F
100
AcDbEntity
  8
cotas
100
AcDbMText
 10
3157.11538643902
 20
1705.944111909408
 30
0.0
 40
10.0
 41
0.0
 71
     5
 72
     1
  1
1,0°
  7
SANINDUSA
 11
0.0087265416814994
 21
0.9999619230102121
 31
0.0
 73
     1
 44
1.0
1001
ACAD
1000
MTEXTBEGIN
1070
    73
1070
     1
1070
    44
1040
1.0
1070
    74
1070
     0
1000
MTEXTEND
  0
POINT
  5
73C1
330
E6F
100
AcDbEntity
  8
Defpoints
 62
     0
100
AcDbPoint
 10
3168.35045898739
 20
1695.269134402916
 30
0.0
  0
POINT
  5
73C2
330
E6F
100
AcDbEntity
  8
Defpoints
 62
     0
100
AcDbPoint
 10
2933.495564232588
 20
1737.574350290261
 30
0.0
  0
POINT
  5
73C3
330
E6F
100
AcDbEntity
  8
Defpoints
 62
     0
100
AcDbPoint
 10
3201.467334164292
 20
1673.534888673493
 30
0.0
  0
POINT
  5
73C4
330
E6F
100
AcDbEntity
  8
Defpoints
 62
     0
100
AcDbPoint
 10
2951.920014210897
 20
1677.890756432965
 30
0.0
  0
POINT
  5
73C5
330
E6F
100
AcDbEntity
  8
Defpoints
 62
     0
100
AcDbPoint
 10
3953.048111005912
 20
1737.574350290261
 30
0.0
  0
ENDBLK
  5
E7A
330
E6F
100
AcDbEntity
  8
0
100
AcDbBlockEnd
  0
BLOCK
  5
E85
330
E7B
100
AcDbEntity
  8
0
100
AcDbBlockBegin
  2
*D95
 70
     1
 10
0.0
 20
0.0
 30
0.0
  3
*D95
  1

  0
LINE
  5
73C6
330
E7B
100
AcDbEntity
  8
cotas
100
AcDbLine
 10
4043.271821978382
 20
1742.574350290261
 30
0.0
 11
4043.271821978382
 21
1772.574350290261
 31
0.0
  0
LINE
  5
73C7
330
E7B
100
AcDbEntity
  8
cotas
100
AcDbLine
 10
3973.271844156255
 20
1742.574350290261
 30
0.0
 11
3973.271844156255
 21
1772.574350290261
 31
0.0
  0
LINE
  5
73C8
330
E7B
100
AcDbEntity
  8
cotas
100
AcDbLine
 10
4033.271821978382
 20
1767.574350290261
 30
0.0
 11
3983.271844156255
 21
1767.574350290261
 31
0.0
  0
SOLID
  5
73C9
330
E7B
100
AcDbEntity
  8
cotas
100
AcDbTrace
 10
4033.271821978382
 20
1769.241016956928
 30
0.0
 11
4033.271821978382
 21
1765.907683623594
 31
0.0
 12
4043.271821978382
 22
1767.574350290261
 32
0.0
 13
4043.271821978382
 23
1767.574350290261
 33
0.0
  0
SOLID
  5
73CA
330
E7B
100
AcDbEntity
  8
cotas
100
AcDbTrace
 10
3983.271844156255
 20
1769.241016956928
 30
0.0
 11
3983.271844156255
 21
1765.907683623594
 31
0.0
 12
3973.271844156255
 22
1767.574350290261
 32
0.0
 13
3973.271844156255
 23
1767.574350290261
 33
0.0
  0
MTEXT
  5
73CB
330
E7B
100
AcDbEntity
  8
cotas
100
AcDbMText
 10
4008.271833067317
 20
1777.779185750301
 30
0.0
 40
10.0
 41
0.0
 71
     5
 72
     1
  1
70
  7
SANINDUSA
 73
     1
 44
1.0
1001
ACAD
1000
MTEXTBEGIN
1070
    73
1070
     1
1070
    44
1040
1.0
1070
    74
1070
     0
1000
MTEXTEND
  0
POINT
  5
73CC
330
E7B
100
AcDbEntity
  8
Defpoints
 62
     0
100
AcDbPoint
 10
4043.271821978382
 20
1737.574350290261
 30
0.0
  0
POINT
  5
73CD
330
E7B
100
AcDbEntity
  8
Defpoints
 62
     0
100
AcDbPoint
 10
3973.271844156255
 20
1737.574350290261
 30
0.0
  0
POINT
  5
73CE
330
E7B
100
AcDbEntity
  8
Defpoints
 62
     0
100
AcDbPoint
 10
3973.271844156255
 20
1767.574350290261
 30
0.0
  0
ENDBLK
  5
E86
330
E7B
100
AcDbEntity
  8
0
100
AcDbBlockEnd
  0
BLOCK
  5
E91
330
E87
100
AcDbEntity
  8
0
100
AcDbBlockBegin
  2
*D96
 70
     1
 10
0.0
 20
0.0
 30
0.0
  3
*D96
  1

  0
LINE
  5
73CF
330
E87
100
AcDbEntity
  8
cotas
100
AcDbLine
 10
4043.271821978382
 20
1742.574350290261
 30
0.0
 11
4043.271821978382
 21
1802.56935024602
 31
0.0
  0
LINE
  5
73D0
330
E87
100
AcDbEntity
  8
cotas
100
AcDbLine
 10
3863.271843901836
 20
1666.46902943765
 30
0.0
 11
3863.271843901836
 21
1802.56935024602
 31
0.0
  0
LINE
  5
73D1
330
E87
100
AcDbEntity
  8
cotas
100
AcDbLine
 10
4033.271821978382
 20
1797.569350246019
 30
0.0
 11
3873.271843901836
 21
1797.569350246019
 31
0.0
  0
SOLID
  5
73D2
330
E87
100
AcDbEntity
  8
cotas
100
AcDbTrace
 10
4033.271821978382
 20
1799.236016912686
 30
0.0
 11
4033.271821978382
 21
1795.902683579353
 31
0.0
 12
4043.271821978382
 22
1797.569350246019
 32
0.0
 13
4043.271821978382
 23
1797.569350246019
 33
0.0
  0
SOLID
  5
73D3
330
E87
100
AcDbEntity
  8
cotas
100
AcDbTrace
 10
3873.271843901836
 20
1799.236016912686
 30
0.0
 11
3873.271843901836
 21
1795.902683579353
 31
0.0
 12
3863.271843901836
 22
1797.569350246019
 32
0.0
 13
3863.271843901836
 23
1797.569350246019
 33
0.0
  0
MTEXT
  5
73D4
330
E87
100
AcDbEntity
  8
cotas
100
AcDbMText
 10
3953.271832940109
 20
1807.797691414589
 30
0.0
 40
10.0
 41
0.0
 71
     5
 72
     1
  1
180
  7
SANINDUSA
 73
     1
 44
1.0
1001
ACAD
1000
MTEXTBEGIN
1070
    73
1070
     1
1070
    44
1040
1.0
1070
    74
1070
     0
1000
MTEXTEND
  0
POINT
  5
73D5
330
E87
100
AcDbEntity
  8
Defpoints
 62
     0
100
AcDbPoint
 10
4043.271821978382
 20
1737.574350290261
 30
0.0
  0
POINT
  5
73D6
330
E87
100
AcDbEntity
  8
Defpoints
 62
     0
100
AcDbPoint
 10
3863.271843901836
 20
1661.46902943765
 30
0.0
  0
POINT
  5
73D7
330
E87
100
AcDbEntity
  8
Defpoints
 62
     0
100
AcDbPoint
 10
3863.271843901836
 20
1797.569350246019
 30
0.0
  0
ENDBLK
  5
E92
330
E87
100
AcDbEntity
  8
0
100
AcDbBlockEnd
  0
BLOCK
  5
EA3
330
E9C
100
AcDbEntity
  8
0
100
AcDbBlockBegin
  2
*D97
 70
     1
 10
0.0
 20
0.0
 30
0.0
  3
*D97
  1

  0
LINE
  5
740B
330
E9C
100
AcDbEntity
  8
cotas
100
AcDbLine
 10
4003.07654744508
 20
1605.787780322981
 30
0.0
 11
3972.115973219547
 21
1638.226392934889
 31
0.0
  0
MTEXT
  5
740C
330
E9C
100
AcDbEntity
  8
cotas
100
AcDbMText
 10
3998.294528749504
 20
1625.306045647629
 30
0.0
 40
10.0
 41
0.0
 71
     5
 72
     1
  1
R17
  7
SANINDUSA
 11
0.6904342522363223
 21
-0.7233951502041403
 31
0.0
 73
     1
 44
1.0
1001
ACAD
1000
MTEXTBEGIN
1070
    73
1070
     1
1070
    44
1040
1.0
1070
    74
1070
     0
1000
MTEXTEND
  0
LINE
  5
740D
330
E9C
100
AcDbEntity
  8
cotas
100
AcDbLine
 10
3953.474343950301
 20
1657.757961888193
 30
0.0
 11
3965.211630697184
 21
1645.46034443693
 31
0.0
  0
SOLID
  5
740E
330
E9C
100
AcDbEntity
  8
cotas
100
AcDbTrace
 10
3973.32163180322
 20
1639.377116688615
 30
0.0
 11
3970.910314635874
 21
1637.075669181162
 31
0.0
 12
3965.211630697184
 22
1645.46034443693
 32
0.0
 13
3965.211630697184
 23
1645.46034443693
 33
0.0
  0
POINT
  5
740F
330
E9C
100
AcDbEntity
  8
Defpoints
 62
     0
100
AcDbPoint
 10
3965.211630697184
 20
1645.46034443693
 30
0.0
  0
POINT
  5
7410
330
E9C
100
AcDbEntity
  8
Defpoints
 62
     0
100
AcDbPoint
 10
3953.474343950301
 20
1657.757961888193
 30
0.0
  0
ENDBLK
  5
EA4
330
E9C
100
AcDbEntity
  8
0
100
AcDbBlockEnd
  0
BLOCK
  5
EAF
330
EA5
100
AcDbEntity
  8
0
100
AcDbBlockBegin
  2
*D98
 70
     1
 10
0.0
 20
0.0
 30
0.0
  3
*D98
  1

  0
ARC
  5
73E7
330
EA5
100
AcDbEntity
  8
cotas
100
AcDbCircle
 10
3973.271844156255
 20
1737.574350290261
 30
0.0
 40
60.17204840949502
100
AcDbArc
 50
189.5329846044823
 51
258.4669963830445
  0
SOLID
  5
73E8
330
EA5
100
AcDbEntity
  8
cotas
100
AcDbTrace
 10
3912.269843642451
 20
1727.470442269978
 30
0.0
 11
3915.591649060072
 21
1727.747425804812
 31
0.0
 12
3913.09979574676
 22
1737.574350290261
 32
0.0
 13
3913.09979574676
 23
1737.574350290261
 33
0.0
  0
SOLID
  5
73E9
330
EA5
100
AcDbEntity
  8
cotas
100
AcDbTrace
 10
3961.437877174559
 20
1680.272251056005
 30
0.0
 11
3961.045131934995
 21
1676.962135908777
 31
0.0
 12
3971.171849996462
 22
1677.438957763701
 32
0.0
 13
3971.171849996462
 23
1677.438957763701
 33
0.0
  0
MTEXT
  5
73EA
330
EA5
100
AcDbEntity
  8
cotas
100
AcDbMText
 10
3938.156954535856
 20
1703.664306814493
 30
0.0
 40
10.0
 41
0.0
 71
     5
 72
     1
  1
88,0°
  7
SANINDUSA
 11
0.694658251109633
 21
-0.7193399155929735
 31
0.0
 73
     1
 44
1.0
1001
ACAD
1000
MTEXTBEGIN
1070
    73
1070
     1
1070
    44
1040
1.0
1070
    74
1070
     0
1000
MTEXTEND
  0
POINT
  5
73EB
330
EA5
100
AcDbEntity
  8
Defpoints
 62
     0
100
AcDbPoint
 10
3920.814786952123
 20
1708.096688251404
 30
0.0
  0
POINT
  5
73EC
330
EA5
100
AcDbEntity
  8
Defpoints
 62
     0
100
AcDbPoint
 10
2933.495564232588
 20
1737.574350290261
 30
0.0
  0
POINT
  5
73ED
330
EA5
100
AcDbEntity
  8
Defpoints
 62
     0
100
AcDbPoint
 10
3970.463853589296
 20
1657.164786212407
 30
0.0
  0
POINT
  5
73EE
330
EA5
100
AcDbEntity
  8
Defpoints
 62
     0
100
AcDbPoint
 10
3973.035927627356
 20
1730.818649088575
 30
0.0
  0
POINT
  5
73EF
330
EA5
100
AcDbEntity
  8
Defpoints
 62
     0
100
AcDbPoint
 10
3953.048111005911
 20
1737.574350290261
 30
0.0
  0
ENDBLK
  5
EB0
330
EA5
100
AcDbEntity
  8
0
100
AcDbBlockEnd
  0
BLOCK
  5
EBB
330
EB1
100
AcDbEntity
  8
0
100
AcDbBlockBegin
  2
*D99
 70
     1
 10
0.0
 20
0.0
 30
0.0
  3
*D99
  1

  0
LINE
  5
7279
330
EB1
100
AcDbEntity
  8
cotas
100
AcDbLine
 10
1362.123056412086
 20
1742.574350290261
 30
0.0
 11
1362.123056412086
 21
1772.574350290261
 31
0.0
  0
LINE
  5
727A
330
EB1
100
AcDbEntity
  8
cotas
100
AcDbLine
 10
2562.123045217602
 20
1742.574350290261
 30
0.0
 11
2562.123045217602
 21
1772.574350290261
 31
0.0
  0
LINE
  5
727B
330
EB1
100
AcDbEntity
  8
cotas
100
AcDbLine
 10
1372.123056412086
 20
1767.574350290261
 30
0.0
 11
2552.123045217602
 21
1767.574350290261
 31
0.0
  0
SOLID
  5
727C
330
EB1
100
AcDbEntity
  8
cotas
100
AcDbTrace
 10
1372.123056412086
 20
1769.241016956927
 30
0.0
 11
1372.123056412086
 21
1765.907683623594
 31
0.0
 12
1362.123056412086
 22
1767.574350290261
 32
0.0
 13
1362.123056412086
 23
1767.574350290261
 33
0.0
  0
SOLID
  5
727D
330
EB1
100
AcDbEntity
  8
cotas
100
AcDbTrace
 10
2552.123045217602
 20
1769.241016956927
 30
0.0
 11
2552.123045217602
 21
1765.907683623594
 31
0.0
 12
2562.123045217602
 22
1767.574350290261
 32
0.0
 13
2562.123045217602
 23
1767.574350290261
 33
0.0
  0
MTEXT
  5
727E
330
EB1
100
AcDbEntity
  8
cotas
100
AcDbMText
 10
1962.123050814844
 20
1777.782543708662
 30
0.0
 40
10.0
 41
0.0
 71
     5
 72
     1
  1
1200
  7
SANINDUSA
 73
     1
 44
1.0
1001
ACAD
1000
MTEXTBEGIN
1070
    73
1070
     1
1070
    44
1040
1.0
1070
    74
1070
     0
1000
MTEXTEND
  0
POINT
  5
727F
330
EB1
100
AcDbEntity
  8
Defpoints
 62
     0
100
AcDbPoint
 10
1362.123056412086
 20
1737.574350290261
 30
0.0
  0
POINT
  5
7280
330
EB1
100
AcDbEntity
  8
Defpoints
 62
     0
100
AcDbPoint
 10
2562.123045217602
 20
1737.574350290261
 30
0.0
  0
POINT
  5
7281
330
EB1
100
AcDbEntity
  8
Defpoints
 62
     0
100
AcDbPoint
 10
2562.123045217602
 20
1767.574350290261
 30
0.0
  0
ENDBLK
  5
EBC
330
EB1
100
AcDbEntity
  8
0
100
AcDbBlockEnd
  0
BLOCK
  5
EC7
330
EBD
100
AcDbEntity
  8
0
100
AcDbBlockBegin
  2
*D100
 70
     1
 10
0.0
 20
0.0
 30
0.0
  3
*D100
  1

  0
LINE
  5
7270
330
EBD
100
AcDbEntity
  8
cotas
100
AcDbLine
 10
1357.123056412086
 20
1737.574350290261
 30
0.0
 11
1326.424853831575
 21
1737.574350290261
 31
0.0
  0
LINE
  5
7271
330
EBD
100
AcDbEntity
  8
cotas
100
AcDbLine
 10
1356.424853831575
 20
1697.57435118433
 30
0.0
 11
1326.424853831575
 21
1697.57435118433
 31
0.0
  0
LINE
  5
7272
330
EBD
100
AcDbEntity
  8
cotas
100
AcDbLine
 10
1331.424853831575
 20
1727.57435029026
 30
0.0
 11
1331.424853831575
 21
1707.57435118433
 31
0.0
  0
SOLID
  5
7273
330
EBD
100
AcDbEntity
  8
cotas
100
AcDbTrace
 10
1329.758187164908
 20
1727.57435029026
 30
0.0
 11
1333.091520498241
 21
1727.57435029026
 31
0.0
 12
1331.424853831575
 22
1737.574350290261
 32
0.0
 13
1331.424853831575
 23
1737.574350290261
 33
0.0
  0
SOLID
  5
7274
330
EBD
100
AcDbEntity
  8
cotas
100
AcDbTrace
 10
1329.758187164908
 20
1707.57435118433
 30
0.0
 11
1333.091520498241
 21
1707.57435118433
 31
0.0
 12
1331.424853831575
 22
1697.57435118433
 32
0.0
 13
1331.424853831575
 23
1697.57435118433
 33
0.0
  0
MTEXT
  5
7275
330
EBD
100
AcDbEntity
  8
cotas
100
AcDbMText
 10
1321.220018371534
 20
1717.574350737296
 30
0.0
 40
10.0
 41
0.0
 71
     5
 72
     1
  1
40
  7
SANINDUSA
 11
0.0000000000000001
 21
1.0
 31
0.0
 73
     1
 44
1.0
1001
ACAD
1000
MTEXTBEGIN
1070
    73
1070
     1
1070
    44
1040
1.0
1070
    74
1070
     0
1000
MTEXTEND
  0
POINT
  5
7276
330
EBD
100
AcDbEntity
  8
Defpoints
 62
     0
100
AcDbPoint
 10
1362.123056412086
 20
1737.574350290261
 30
0.0
  0
POINT
  5
7277
330
EBD
100
AcDbEntity
  8
Defpoints
 62
     0
100
AcDbPoint
 10
1361.424853831575
 20
1697.57435118433
 30
0.0
  0
POINT
  5
7278
330
EBD
100
AcDbEntity
  8
Defpoints
 62
     0
100
AcDbPoint
 10
1331.424853831575
 20
1697.57435118433
 30
0.0
  0
ENDBLK
  5
EC8
330
EBD
100
AcDbEntity
  8
0
100
AcDbBlockEnd
  0
BLOCK
  5
ECF
330
EC9
100
AcDbEntity
  8
0
100
AcDbBlockBegin
  2
*D101
 70
     1
 10
0.0
 20
0.0
 30
0.0
  3
*D101
  1

  0
LINE
  5
726B
330
EC9
100
AcDbEntity
  8
cotas
100
AcDbLine
 10
1399.336142982254
 20
1705.90668596884
 30
0.0
 11
1371.329485856505
 21
1728.681596343409
 31
0.0
  0
MTEXT
  5
726C
330
EC9
100
AcDbEntity
  8
cotas
100
AcDbMText
 10
1395.521241912934
 20
1721.898046586147
 30
0.0
 40
10.0
 41
0.0
 71
     5
 72
     1
  1
R7
  7
SANINDUSA
 11
0.7758495341439902
 21
-0.6309179822833975
 31
0.0
 73
     1
 44
1.0
1001
ACAD
1000
MTEXTBEGIN
1070
    73
1070
     1
1070
    44
1040
1.0
1070
    74
1070
     0
1000
MTEXTEND
  0
SOLID
  5
726D
330
EC9
100
AcDbEntity
  8
cotas
100
AcDbTrace
 10
1372.381015826978
 20
1729.974678900315
 30
0.0
 11
1370.277955886033
 21
1727.388513786502
 31
0.0
 12
1363.570990515065
 22
1734.990776166243
 32
0.0
 13
1363.570990515065
 23
1734.990776166243
 33
0.0
  0
POINT
  5
726E
330
EC9
100
AcDbEntity
  8
Defpoints
 62
     0
100
AcDbPoint
 10
1363.570990515065
 20
1734.990776166243
 30
0.0
  0
POINT
  5
726F
330
EC9
100
AcDbEntity
  8
Defpoints
 62
     0
100
AcDbPoint
 10
1369.001937254072
 20
1730.574350290261
 30
0.0
  0
ENDBLK
  5
ED0
330
EC9
100
AcDbEntity
  8
0
100
AcDbBlockEnd
  0
BLOCK
  5
ED7
330
ED1
100
AcDbEntity
  8
0
100
AcDbBlockBegin
  2
*D102
 70
     1
 10
0.0
 20
0.0
 30
0.0
  3
*D102
  1

  0
LINE
  5
7266
330
ED1
100
AcDbEntity
  8
cotas
100
AcDbLine
 10
2525.7626731947
 20
1704.893643175739
 30
0.0
 11
2552.982055036722
 21
1728.603865403024
 31
0.0
  0
MTEXT
  5
7267
330
ED1
100
AcDbEntity
  8
cotas
100
AcDbMText
 10
2529.033880268676
 20
1721.005014589763
 30
0.0
 40
10.0
 41
0.0
 71
     5
 72
     1
  1
R7
  7
SANINDUSA
 11
0.754040177911972
 21
0.6568282957474363
 31
0.0
 73
     1
 44
1.0
1001
ACAD
1000
MTEXTBEGIN
1070
    73
1070
     1
1070
    44
1040
1.0
1070
    74
1070
     0
1000
MTEXTEND
  0
SOLID
  5
7268
330
ED1
100
AcDbEntity
  8
cotas
100
AcDbTrace
 10
2551.887341210477
 20
1729.860599032877
 30
0.0
 11
2554.076768862968
 21
1727.347131773171
 31
0.0
 12
2560.522456815842
 22
1735.172148360498
 32
0.0
 13
2560.522456815842
 23
1735.172148360498
 33
0.0
  0
POINT
  5
7269
330
ED1
100
AcDbEntity
  8
Defpoints
 62
     0
100
AcDbPoint
 10
2560.522456815842
 20
1735.172148360498
 30
0.0
  0
POINT
  5
726A
330
ED1
100
AcDbEntity
  8
Defpoints
 62
     0
100
AcDbPoint
 10
2555.244175570452
 20
1730.57435029026
 30
0.0
  0
ENDBLK
  5
ED8
330
ED1
100
AcDbEntity
  8
0
100
AcDbBlockEnd
  0
BLOCK
  5
EE4
330
ED9
100
AcDbEntity
  8
0
100
AcDbBlockBegin
  2
*D103
 70
     1
 10
0.0
 20
0.0
 30
0.0
  3
*D103
  1

  0
LINE
  5
725C
330
ED9
100
AcDbEntity
  8
cotas
100
AcDbLine
 10
2562.908583071556
 20
1692.575112850543
 30
0.0
 11
2563.457606172089
 21
1661.124533179081
 31
0.0
  0
ARC
  5
725D
330
ED9
100
AcDbEntity
  8
cotas
100
AcDbCircle
 10
2562.123045217601
 20
1737.57435029026
 30
0.0
 40
71.46146473403445
100
AcDbArc
 50
188.0242731520484
 51
262.975820076658
  0
SOLID
  5
725E
330
ED9
100
AcDbEntity
  8
cotas
100
AcDbTrace
 10
2489.69867619115
 20
1727.482244806199
 30
0.0
 11
2493.02384036395
 21
1727.715470737527
 31
0.0
 12
2490.661580483566
 22
1737.574350290261
 32
0.0
 13
2490.661580483566
 23
1737.574350290261
 33
0.0
  0
SOLID
  5
725F
330
ED9
100
AcDbEntity
  8
cotas
100
AcDbTrace
 10
2553.471727325056
 20
1668.313594330163
 30
0.0
 11
2553.296574448114
 21
1664.984865957224
 31
0.0
 12
2563.370336005402
 22
1666.123771512868
 32
0.0
 13
2563.370336005402
 23
1666.123771512868
 33
0.0
  0
MTEXT
  5
7260
330
ED9
100
AcDbEntity
  8
cotas
100
AcDbMText
 10
2519.985619723478
 20
1694.69492480489
 30
0.0
 40
10.0
 41
0.0
 71
     5
 72
     1
  1
91,0°
  7
SANINDUSA
 11
0.7132510193954606
 21
-0.7009086840176377
 31
0.0
 73
     1
 44
1.0
1001
ACAD
1000
MTEXTBEGIN
1070
    73
1070
     1
1070
    44
1040
1.0
1070
    74
1070
     0
1000
MTEXTEND
  0
POINT
  5
7261
330
ED9
100
AcDbEntity
  8
Defpoints
 62
     0
100
AcDbPoint
 10
2500.444540073017
 20
1701.48414462358
 30
0.0
  0
POINT
  5
7262
330
ED9
100
AcDbEntity
  8
Defpoints
 62
     0
100
AcDbPoint
 10
1369.001937196169
 20
1737.57435029026
 30
0.0
  0
POINT
  5
7263
330
ED9
100
AcDbEntity
  8
Defpoints
 62
     0
100
AcDbPoint
 10
2562.243109411233
 20
1730.69651858544
 30
0.0
  0
POINT
  5
7264
330
ED9
100
AcDbEntity
  8
Defpoints
 62
     0
100
AcDbPoint
 10
2562.82131290487
 20
1697.57435118433
 30
0.0
  0
POINT
  5
7265
330
ED9
100
AcDbEntity
  8
Defpoints
 62
     0
100
AcDbPoint
 10
2555.244132042443
 20
1737.57435029026
 30
0.0
  0
ENDBLK
  5
EE5
330
ED9
100
AcDbEntity
  8
0
100
AcDbBlockEnd
  0
BLOCK
  5
EF1
330
EE6
100
AcDbEntity
  8
0
100
AcDbBlockBegin
  2
*D104
 70
     1
 10
0.0
 20
0.0
 30
0.0
  3
*D104
  1

  0
LINE
  5
7252
330
EE6
100
AcDbEntity
  8
cotas
100
AcDbLine
 10
1361.337591799515
 20
1692.575112708546
 30
0.0
 11
1360.534850668209
 21
1646.586104030018
 31
0.0
  0
ARC
  5
7253
330
EE6
100
AcDbEntity
  8
cotas
100
AcDbCircle
 10
1362.123056412086
 20
1737.57435029026
 30
0.0
 40
86.00210632177438
100
AcDbArc
 50
275.6658955430534
 51
353.3341044583945
  0
SOLID
  5
7254
330
EE6
100
AcDbEntity
  8
cotas
100
AcDbTrace
 10
1370.68166817217
 20
1650.327120949189
 30
0.0
 11
1370.545980273131
 21
1653.657691456649
 31
0.0
 12
1360.622112700269
 22
1651.585342505802
 32
0.0
 13
1360.622112700269
 23
1651.585342505802
 33
0.0
  0
SOLID
  5
7255
330
EE6
100
AcDbEntity
  8
cotas
100
AcDbTrace
 10
1445.879934041734
 20
1727.688161646611
 30
0.0
 11
1449.207629206817
 21
1727.494367943416
 31
0.0
 12
1448.12516273386
 22
1737.574350290261
 32
0.0
 13
1448.12516273386
 23
1737.574350290261
 33
0.0
  0
MTEXT
  5
7256
330
EE6
100
AcDbEntity
  8
cotas
100
AcDbMText
 10
1414.452187190161
 20
1684.323839944032
 30
0.0
 40
10.0
 41
0.0
 71
     5
 72
     1
  1
91,0°
  7
SANINDUSA
 11
0.7132504491453263
 21
0.7009092643088622
 31
0.0
 73
     1
 44
1.0
1001
ACAD
1000
MTEXTBEGIN
1070
    73
1070
     1
1070
    44
1040
1.0
1070
    74
1070
     0
1000
MTEXTEND
  0
POINT
  5
7257
330
EE6
100
AcDbEntity
  8
Defpoints
 62
     0
100
AcDbPoint
 10
1404.254604047205
 20
1662.599054454556
 30
0.0
  0
POINT
  5
7258
330
EE6
100
AcDbEntity
  8
Defpoints
 62
     0
100
AcDbPoint
 10
1361.424853831575
 20
1697.57435118433
 30
0.0
  0
POINT
  5
7259
330
EE6
100
AcDbEntity
  8
Defpoints
 62
     0
100
AcDbPoint
 10
1369.001937196169
 20
1737.574350290261
 30
0.0
  0
POINT
  5
725A
330
EE6
100
AcDbEntity
  8
Defpoints
 62
     0
100
AcDbPoint
 10
2555.244132042443
 20
1737.574350290261
 30
0.0
  0
POINT
  5
725B
330
EE6
100
AcDbEntity
  8
Defpoints
 62
     0
100
AcDbPoint
 10
1362.003003389878
 20
1730.696517244302
 30
0.0
  0
ENDBLK
  5
EF2
330
EE6
100
AcDbEntity
  8
0
100
AcDbBlockEnd
  0
BLOCK
  5
EFD
330
EF3
100
AcDbEntity
  8
0
100
AcDbBlockBegin
  2
*D105
 70
     1
 10
0.0
 20
0.0
 30
0.0
  3
*D105
  1

  0
LINE
  5
7249
330
EF3
100
AcDbEntity
  8
cotas
100
AcDbLine
 10
2567.123045217602
 20
1737.574350290261
 30
0.0
 11
2597.821312904869
 21
1737.574350290261
 31
0.0
  0
LINE
  5
724A
330
EF3
100
AcDbEntity
  8
cotas
100
AcDbLine
 10
2438.818824674601
 20
1614.008178153881
 30
0.0
 11
2597.821312904869
 21
1614.008178153881
 31
0.0
  0
LINE
  5
724B
330
EF3
100
AcDbEntity
  8
cotas
100
AcDbLine
 10
2592.821312904869
 20
1727.574350290261
 30
0.0
 11
2592.821312904869
 21
1624.008178153881
 31
0.0
  0
SOLID
  5
724C
330
EF3
100
AcDbEntity
  8
cotas
100
AcDbTrace
 10
2591.154646238203
 20
1727.574350290261
 30
0.0
 11
2594.487979571536
 21
1727.574350290261
 31
0.0
 12
2592.821312904869
 22
1737.574350290261
 32
0.0
 13
2592.821312904869
 23
1737.574350290261
 33
0.0
  0
SOLID
  5
724D
330
EF3
100
AcDbEntity
  8
cotas
100
AcDbTrace
 10
2591.154646238203
 20
1624.008178153881
 30
0.0
 11
2594.487979571536
 21
1624.008178153881
 31
0.0
 12
2592.821312904869
 22
1614.008178153881
 32
0.0
 13
2592.821312904869
 23
1614.008178153881
 33
0.0
  0
MTEXT
  5
724E
330
EF3
100
AcDbEntity
  8
cotas
100
AcDbMText
 10
2581.474771601981
 20
1675.791264222072
 30
0.0
 40
10.0
 41
0.0
 71
     5
 72
     1
  1
123,6
  7
SANINDUSA
 11
0.0000000000000001
 21
1.0
 31
0.0
 73
     1
 44
1.0
1001
ACAD
1000
MTEXTBEGIN
1070
    73
1070
     1
1070
    44
1040
1.0
1070
    74
1070
     0
1000
MTEXTEND
  0
POINT
  5
724F
330
EF3
100
AcDbEntity
  8
Defpoints
 62
     0
100
AcDbPoint
 10
2562.123045217602
 20
1737.574350290261
 30
0.0
  0
POINT
  5
7250
330
EF3
100
AcDbEntity
  8
Defpoints
 62
     0
100
AcDbPoint
 10
2433.818824674601
 20
1614.008178153881
 30
0.0
  0
POINT
  5
7251
330
EF3
100
AcDbEntity
  8
Defpoints
 62
     0
100
AcDbPoint
 10
2592.821312904869
 20
1614.008178153881
 30
0.0
  0
ENDBLK
  5
EFE
330
EF3
100
AcDbEntity
  8
0
100
AcDbBlockEnd
  0
BLOCK
  5
F09
330
EFF
100
AcDbEntity
  8
0
100
AcDbBlockBegin
  2
*D106
 70
     1
 10
0.0
 20
0.0
 30
0.0
  3
*D106
  1

  0
LINE
  5
7411
330
EFF
100
AcDbEntity
  8
cotas
100
AcDbLine
 10
-192.6225872672758
 20
2129.122659594361
 30
0.0
 11
-192.6225872672758
 21
2164.744331270997
 31
0.0
  0
LINE
  5
7412
330
EFF
100
AcDbEntity
  8
cotas
100
AcDbLine
 10
-372.5918292405195
 20
2127.16726961786
 30
0.0
 11
-372.5918292405195
 21
2164.744331270997
 31
0.0
  0
LINE
  5
7413
330
EFF
100
AcDbEntity
  8
cotas
100
AcDbLine
 10
-202.6225872672758
 20
2159.744331270998
 30
0.0
 11
-362.5918292405195
 21
2159.744331270998
 31
0.0
  0
SOLID
  5
7414
330
EFF
100
AcDbEntity
  8
cotas
100
AcDbTrace
 10
-202.6225872672758
 20
2161.410997937664
 30
0.0
 11
-202.6225872672758
 21
2158.077664604331
 31
0.0
 12
-192.6225872672758
 22
2159.744331270998
 32
0.0
 13
-192.6225872672758
 23
2159.744331270998
 33
0.0
  0
SOLID
  5
7415
330
EFF
100
AcDbEntity
  8
cotas
100
AcDbTrace
 10
-362.5918292405195
 20
2161.410997937664
 30
0.0
 11
-362.5918292405195
 21
2158.077664604331
 31
0.0
 12
-372.5918292405195
 22
2159.744331270998
 32
0.0
 13
-372.5918292405195
 23
2159.744331270998
 33
0.0
  0
MTEXT
  5
7416
330
EFF
100
AcDbEntity
  8
cotas
100
AcDbMText
 10
-282.6072082538976
 20
2169.972672439567
 30
0.0
 40
10.0
 41
0.0
 71
     5
 72
     1
  1
180
  7
SANINDUSA
 73
     1
 44
1.0
1001
ACAD
1000
MTEXTBEGIN
1070
    73
1070
     1
1070
    44
1040
1.0
1070
    74
1070
     0
1000
MTEXTEND
  0
POINT
  5
7417
330
EFF
100
AcDbEntity
  8
Defpoints
 62
     0
100
AcDbPoint
 10
-192.6225872672758
 20
2124.122659594361
 30
0.0
  0
POINT
  5
7418
330
EFF
100
AcDbEntity
  8
Defpoints
 62
     0
100
AcDbPoint
 10
-372.5918292405195
 20
2122.167269617859
 30
-0.000000000000021
  0
POINT
  5
7419
330
EFF
100
AcDbEntity
  8
Defpoints
 62
     0
100
AcDbPoint
 10
-372.5918292405195
 20
2159.744331270998
 30
0.0
  0
ENDBLK
  5
F0A
330
EFF
100
AcDbEntity
  8
0
100
AcDbBlockEnd
  0
BLOCK
  5
F15
330
F0B
100
AcDbEntity
  8
0
100
AcDbBlockBegin
  2
*D107
 70
     1
 10
0.0
 20
0.0
 30
0.0
  3
*D107
  1

  0
LINE
  5
741A
330
F0B
100
AcDbEntity
  8
cotas
100
AcDbLine
 10
-372.5875874198637
 20
2134.744331270997
 30
0.0
 11
-372.5875874198637
 21
2164.744331270997
 31
0.0
  0
LINE
  5
741B
330
F0B
100
AcDbEntity
  8
cotas
100
AcDbLine
 10
-521.0092359457876
 20
1999.496304579922
 30
0.0
 11
-521.0092359457876
 21
2164.744331270997
 31
0.0
  0
LINE
  5
741C
330
F0B
100
AcDbEntity
  8
cotas
100
AcDbLine
 10
-382.5875874198637
 20
2159.744331270998
 30
0.0
 11
-511.0092359457876
 21
2159.744331270998
 31
0.0
  0
SOLID
  5
741D
330
F0B
100
AcDbEntity
  8
cotas
100
AcDbTrace
 10
-382.5875874198637
 20
2161.410997937664
 30
0.0
 11
-382.5875874198637
 21
2158.077664604331
 31
0.0
 12
-372.5875874198637
 22
2159.744331270998
 32
0.0
 13
-372.5875874198637
 23
2159.744331270998
 33
0.0
  0
SOLID
  5
741E
330
F0B
100
AcDbEntity
  8
cotas
100
AcDbTrace
 10
-511.0092359457876
 20
2161.410997937664
 30
0.0
 11
-511.0092359457876
 21
2158.077664604331
 31
0.0
 12
-521.0092359457876
 22
2159.744331270998
 32
0.0
 13
-521.0092359457876
 23
2159.744331270998
 33
0.0
  0
MTEXT
  5
741F
330
F0B
100
AcDbEntity
  8
cotas
100
AcDbMText
 10
-446.7984116828256
 20
2171.100946448969
 30
0.0
 40
10.0
 41
0.0
 71
     5
 72
     1
  1
148,4
  7
SANINDUSA
 73
     1
 44
1.0
1001
ACAD
1000
MTEXTBEGIN
1070
    73
1070
     1
1070
    44
1040
1.0
1070
    74
1070
     0
1000
MTEXTEND
  0
POINT
  5
7420
330
F0B
100
AcDbEntity
  8
Defpoints
 62
     0
100
AcDbPoint
 10
-372.5875874198637
 20
2129.744331270996
 30
0.0
  0
POINT
  5
7421
330
F0B
100
AcDbEntity
  8
Defpoints
 62
     0
100
AcDbPoint
 10
-521.0092359457876
 20
1994.496304579922
 30
0.0
  0
POINT
  5
7422
330
F0B
100
AcDbEntity
  8
Defpoints
 62
     0
100
AcDbPoint
 10
-521.0092359457876
 20
2159.744331270998
 30
0.0
  0
ENDBLK
  5
F16
330
F0B
100
AcDbEntity
  8
0
100
AcDbBlockEnd
  0
BLOCK
  5
F21
330
F17
100
AcDbEntity
  8
0
100
AcDbBlockBegin
  2
*D108
 70
     1
 10
0.0
 20
0.0
 30
0.0
  3
*D108
  1

  0
LINE
  5
7423
330
F17
100
AcDbEntity
  8
cotas
100
AcDbLine
 10
-521.0092359457876
 20
1999.496304579922
 30
0.0
 11
-521.0092359457876
 21
2164.744331270997
 31
0.0
  0
LINE
  5
7424
330
F17
100
AcDbEntity
  8
cotas
100
AcDbLine
 10
-600.9762252390309
 20
1999.484682326735
 30
0.0
 11
-600.9762252390309
 21
2164.744331270997
 31
0.0
  0
LINE
  5
7425
330
F17
100
AcDbEntity
  8
cotas
100
AcDbLine
 10
-531.0092359457875
 20
2159.744331270998
 30
0.0
 11
-590.976225239031
 21
2159.744331270998
 31
0.0
  0
SOLID
  5
7426
330
F17
100
AcDbEntity
  8
cotas
100
AcDbTrace
 10
-531.0092359457875
 20
2161.410997937664
 30
0.0
 11
-531.0092359457875
 21
2158.077664604331
 31
0.0
 12
-521.0092359457876
 22
2159.744331270998
 32
0.0
 13
-521.0092359457876
 23
2159.744331270998
 33
0.0
  0
SOLID
  5
7427
330
F17
100
AcDbEntity
  8
cotas
100
AcDbTrace
 10
-590.976225239031
 20
2161.410997937664
 30
0.0
 11
-590.976225239031
 21
2158.077664604331
 31
0.0
 12
-600.9762252390309
 22
2159.744331270998
 32
0.0
 13
-600.9762252390309
 23
2159.744331270998
 33
0.0
  0
MTEXT
  5
7428
330
F17
100
AcDbEntity
  8
cotas
100
AcDbMText
 10
-560.9927305924093
 20
2169.972672439567
 30
0.0
 40
10.0
 41
0.0
 71
     5
 72
     1
  1
80
  7
SANINDUSA
 73
     1
 44
1.0
1001
ACAD
1000
MTEXTBEGIN
1070
    73
1070
     1
1070
    44
1040
1.0
1070
    74
1070
     0
1000
MTEXTEND
  0
POINT
  5
7429
330
F17
100
AcDbEntity
  8
Defpoints
 62
     0
100
AcDbPoint
 10
-521.0092359457876
 20
1994.496304579922
 30
0.0
  0
POINT
  5
742A
330
F17
100
AcDbEntity
  8
Defpoints
 62
     0
100
AcDbPoint
 10
-600.9762252390309
 20
1994.484682326735
 30
0.0
  0
POINT
  5
742B
330
F17
100
AcDbEntity
  8
Defpoints
 62
     0
100
AcDbPoint
 10
-600.9762252390309
 20
2159.744331270998
 30
0.0
  0
ENDBLK
  5
F22
330
F17
100
AcDbEntity
  8
0
100
AcDbBlockEnd
  0
BLOCK
  5
F2D
330
F23
100
AcDbEntity
  8
0
100
AcDbBlockBegin
  2
*D109
 70
     1
 10
0.0
 20
0.0
 30
0.0
  3
*D109
  1

  0
LINE
  5
742C
330
F23
100
AcDbEntity
  8
cotas
100
AcDbLine
 10
-600.9762252390309
 20
1999.484682326735
 30
0.0
 11
-600.9762252390309
 21
2164.744331270997
 31
0.0
  0
LINE
  5
742D
330
F23
100
AcDbEntity
  8
cotas
100
AcDbLine
 10
-680.8908084576496
 20
1999.477747997111
 30
0.0
 11
-680.8908084576496
 21
2164.744331270997
 31
0.0
  0
LINE
  5
742E
330
F23
100
AcDbEntity
  8
cotas
100
AcDbLine
 10
-610.976225239031
 20
2159.744331270998
 30
0.0
 11
-670.8908084576497
 21
2159.744331270998
 31
0.0
  0
SOLID
  5
742F
330
F23
100
AcDbEntity
  8
cotas
100
AcDbTrace
 10
-610.976225239031
 20
2161.410997937664
 30
0.0
 11
-610.976225239031
 21
2158.077664604331
 31
0.0
 12
-600.9762252390309
 22
2159.744331270998
 32
0.0
 13
-600.9762252390309
 23
2159.744331270998
 33
0.0
  0
SOLID
  5
7430
330
F23
100
AcDbEntity
  8
cotas
100
AcDbTrace
 10
-670.8908084576497
 20
2161.410997937664
 30
0.0
 11
-670.8908084576497
 21
2158.077664604331
 31
0.0
 12
-680.8908084576496
 22
2159.744331270998
 32
0.0
 13
-680.8908084576496
 23
2159.744331270998
 33
0.0
  0
MTEXT
  5
7431
330
F23
100
AcDbEntity
  8
cotas
100
AcDbMText
 10
-640.9335168483403
 20
2169.972672439567
 30
0.0
 40
10.0
 41
0.0
 71
     5
 72
     1
  1
80
  7
SANINDUSA
 73
     1
 44
1.0
1001
ACAD
1000
MTEXTBEGIN
1070
    73
1070
     1
1070
    44
1040
1.0
1070
    74
1070
     0
1000
MTEXTEND
  0
POINT
  5
7432
330
F23
100
AcDbEntity
  8
Defpoints
 62
     0
100
AcDbPoint
 10
-600.9762252390309
 20
1994.484682326735
 30
0.0
  0
POINT
  5
7433
330
F23
100
AcDbEntity
  8
Defpoints
 62
     0
100
AcDbPoint
 10
-680.8908084576496
 20
1994.477747997112
 30
0.0
  0
POINT
  5
7434
330
F23
100
AcDbEntity
  8
Defpoints
 62
     0
100
AcDbPoint
 10
-680.8908084576496
 20
2159.744331270998
 30
0.0
  0
ENDBLK
  5
F2E
330
F23
100
AcDbEntity
  8
0
100
AcDbBlockEnd
  0
BLOCK
  5
F42
330
F38
100
AcDbEntity
  8
0
100
AcDbBlockBegin
  2
*D110
 70
     1
 10
0.0
 20
0.0
 30
0.0
  3
*D110
  1

  0
LINE
  5
743E
330
F38
100
AcDbEntity
  8
cotas
100
AcDbLine
 10
-760.8781062000587
 20
1999.477747997111
 30
0.0
 11
-760.8781062000587
 21
2164.744331270997
 31
0.0
  0
LINE
  5
743F
330
F38
100
AcDbEntity
  8
cotas
100
AcDbLine
 10
-840.8769344803234
 20
2134.744331270997
 30
0.0
 11
-840.8769344803234
 21
2164.744331270997
 31
0.0
  0
LINE
  5
7440
330
F38
100
AcDbEntity
  8
cotas
100
AcDbLine
 10
-770.8781062000586
 20
2159.744331270998
 30
0.0
 11
-830.8769344803234
 21
2159.744331270998
 31
0.0
  0
SOLID
  5
7441
330
F38
100
AcDbEntity
  8
cotas
100
AcDbTrace
 10
-770.8781062000586
 20
2161.410997937664
 30
0.0
 11
-770.8781062000586
 21
2158.077664604331
 31
0.0
 12
-760.8781062000587
 22
2159.744331270998
 32
0.0
 13
-760.8781062000587
 23
2159.744331270998
 33
0.0
  0
SOLID
  5
7442
330
F38
100
AcDbEntity
  8
cotas
100
AcDbTrace
 10
-830.8769344803234
 20
2161.410997937664
 30
0.0
 11
-830.8769344803234
 21
2158.077664604331
 31
0.0
 12
-840.8769344803234
 22
2159.744331270998
 32
0.0
 13
-840.8769344803234
 23
2159.744331270998
 33
0.0
  0
MTEXT
  5
7443
330
F38
100
AcDbEntity
  8
cotas
100
AcDbMText
 10
-800.877520340191
 20
2169.972672439567
 30
0.0
 40
10.0
 41
0.0
 71
     5
 72
     1
  1
80
  7
SANINDUSA
 73
     1
 44
1.0
1001
ACAD
1000
MTEXTBEGIN
1070
    73
1070
     1
1070
    44
1040
1.0
1070
    74
1070
     0
1000
MTEXTEND
  0
POINT
  5
7444
330
F38
100
AcDbEntity
  8
Defpoints
 62
     0
100
AcDbPoint
 10
-760.8781062000587
 20
1994.477747997112
 30
0.0
  0
POINT
  5
7445
330
F38
100
AcDbEntity
  8
Defpoints
 62
     0
100
AcDbPoint
 10
-840.8769344803234
 20
2129.744331270996
 30
-0.0000000000000197
  0
POINT
  5
7446
330
F38
100
AcDbEntity
  8
Defpoints
 62
     0
100
AcDbPoint
 10
-840.8769344803234
 20
2159.744331270998
 30
0.0
  0
ENDBLK
  5
F43
330
F38
100
AcDbEntity
  8
0
100
AcDbBlockEnd
  0
BLOCK
  5
F4E
330
F44
100
AcDbEntity
  8
0
100
AcDbBlockBegin
  2
*D111
 70
     1
 10
0.0
 20
0.0
 30
0.0
  3
*D111
  1

  0
LINE
  5
7447
330
F44
100
AcDbEntity
  8
cotas
100
AcDbLine
 10
-840.8676767547687
 20
2134.744331270997
 30
0.0
 11
-840.8676767547687
 21
2164.744331270997
 31
0.0
  0
LINE
  5
7448
330
F44
100
AcDbEntity
  8
cotas
100
AcDbLine
 10
-920.8576361534463
 20
1999.47787900015
 30
0.0
 11
-920.8576361534463
 21
2164.744331270997
 31
0.0
  0
LINE
  5
7449
330
F44
100
AcDbEntity
  8
cotas
100
AcDbLine
 10
-850.8676767547688
 20
2159.744331270997
 30
0.0
 11
-910.8576361534462
 21
2159.744331270997
 31
0.0
  0
SOLID
  5
744A
330
F44
100
AcDbEntity
  8
cotas
100
AcDbTrace
 10
-850.8676767547688
 20
2161.410997937663
 30
0.0
 11
-850.8676767547688
 21
2158.07766460433
 31
0.0
 12
-840.8676767547687
 22
2159.744331270997
 32
0.0
 13
-840.8676767547687
 23
2159.744331270997
 33
0.0
  0
SOLID
  5
744B
330
F44
100
AcDbEntity
  8
cotas
100
AcDbTrace
 10
-910.8576361534462
 20
2161.410997937663
 30
0.0
 11
-910.8576361534462
 21
2158.07766460433
 31
0.0
 12
-920.8576361534463
 22
2159.744331270997
 32
0.0
 13
-920.8576361534463
 23
2159.744331270997
 33
0.0
  0
MTEXT
  5
744C
330
F44
100
AcDbEntity
  8
cotas
100
AcDbMText
 10
-880.8626564541075
 20
2169.972672439566
 30
0.0
 40
10.0
 41
0.0
 71
     5
 72
     1
  1
80
  7
SANINDUSA
 73
     1
 44
1.0
1001
ACAD
1000
MTEXTBEGIN
1070
    73
1070
     1
1070
    44
1040
1.0
1070
    74
1070
     0
1000
MTEXTEND
  0
POINT
  5
744D
330
F44
100
AcDbEntity
  8
Defpoints
 62
     0
100
AcDbPoint
 10
-840.8676767547687
 20
2129.744331270996
 30
0.0
  0
POINT
  5
744E
330
F44
100
AcDbEntity
  8
Defpoints
 62
     0
100
AcDbPoint
 10
-920.8576361534463
 20
1994.47787900015
 30
0.0
  0
POINT
  5
744F
330
F44
100
AcDbEntity
  8
Defpoints
 62
     0
100
AcDbPoint
 10
-920.8576361534463
 20
2159.744331270997
 30
0.0
  0
ENDBLK
  5
F4F
330
F44
100
AcDbEntity
  8
0
100
AcDbBlockEnd
  0
BLOCK
  5
F5A
330
F50
100
AcDbEntity
  8
0
100
AcDbBlockBegin
  2
*D112
 70
     1
 10
0.0
 20
0.0
 30
0.0
  3
*D112
  1

  0
LINE
  5
7450
330
F50
100
AcDbEntity
  8
cotas
100
AcDbLine
 10
-477.0838022171419
 20
1959.046323144301
 30
0.0
 11
-156.8893309272489
 21
1959.046323144301
 31
0.0
  0
LINE
  5
7451
330
F50
100
AcDbEntity
  8
cotas
100
AcDbLine
 10
-477.0926029703887
 20
1879.064479801245
 30
0.0
 11
-156.8893309272489
 21
1879.064479801245
 31
0.0
  0
LINE
  5
7452
330
F50
100
AcDbEntity
  8
cotas
100
AcDbLine
 10
-161.8893309272489
 20
1949.046323144301
 30
0.0
 11
-161.8893309272489
 21
1889.064479801245
 31
0.0
  0
SOLID
  5
7453
330
F50
100
AcDbEntity
  8
cotas
100
AcDbTrace
 10
-163.5559975939156
 20
1949.046323144301
 30
0.0
 11
-160.2226642605822
 21
1949.046323144301
 31
0.0
 12
-161.8893309272489
 22
1959.046323144301
 32
0.0
 13
-161.8893309272489
 23
1959.046323144301
 33
0.0
  0
SOLID
  5
7454
330
F50
100
AcDbEntity
  8
cotas
100
AcDbTrace
 10
-163.5559975939156
 20
1889.064479801245
 30
0.0
 11
-160.2226642605822
 21
1889.064479801245
 31
0.0
 12
-161.8893309272489
 22
1879.064479801245
 32
0.0
 13
-161.8893309272489
 23
1879.064479801245
 33
0.0
  0
MTEXT
  5
7455
330
F50
100
AcDbEntity
  8
cotas
100
AcDbMText
 10
-172.1176720958187
 20
1919.055401472773
 30
0.0
 40
10.0
 41
0.0
 71
     5
 72
     1
  1
80
  7
SANINDUSA
 11
0.0000000000000001
 21
1.0
 31
0.0
 73
     1
 44
1.0
1001
ACAD
1000
MTEXTBEGIN
1070
    73
1070
     1
1070
    44
1040
1.0
1070
    74
1070
     0
1000
MTEXTEND
  0
POINT
  5
7456
330
F50
100
AcDbEntity
  8
Defpoints
 62
     0
100
AcDbPoint
 10
-482.0838022171419
 20
1959.046323144301
 30
0.0
  0
POINT
  5
7457
330
F50
100
AcDbEntity
  8
Defpoints
 62
     0
100
AcDbPoint
 10
-482.0926029703887
 20
1879.064479801245
 30
0.0
  0
POINT
  5
7458
330
F50
100
AcDbEntity
  8
Defpoints
 62
     0
100
AcDbPoint
 10
-161.8893309272489
 20
1879.064479801245
 30
0.0
  0
ENDBLK
  5
F5B
330
F50
100
AcDbEntity
  8
0
100
AcDbBlockEnd
  0
BLOCK
  5
F66
330
F5C
100
AcDbEntity
  8
0
100
AcDbBlockBegin
  2
*D113
 70
     1
 10
0.0
 20
0.0
 30
0.0
  3
*D113
  1

  0
LINE
  5
7459
330
F5C
100
AcDbEntity
  8
cotas
100
AcDbLine
 10
-472.0926029703887
 20
1879.064479801245
 30
0.0
 11
-156.8893309272489
 21
1879.064479801245
 31
0.0
  0
LINE
  5
745A
330
F5C
100
AcDbEntity
  8
cotas
100
AcDbLine
 10
-477.1124629247252
 20
1799.069600733981
 30
0.0
 11
-156.8893309272489
 21
1799.069600733981
 31
0.0
  0
LINE
  5
745B
330
F5C
100
AcDbEntity
  8
cotas
100
AcDbLine
 10
-161.8893309272489
 20
1869.064479801245
 30
0.0
 11
-161.8893309272489
 21
1809.069600733981
 31
0.0
  0
SOLID
  5
745C
330
F5C
100
AcDbEntity
  8
cotas
100
AcDbTrace
 10
-163.5559975939155
 20
1869.064479801245
 30
0.0
 11
-160.2226642605822
 21
1869.064479801245
 31
0.0
 12
-161.8893309272489
 22
1879.064479801245
 32
0.0
 13
-161.8893309272489
 23
1879.064479801245
 33
0.0
  0
SOLID
  5
745D
330
F5C
100
AcDbEntity
  8
cotas
100
AcDbTrace
 10
-163.5559975939156
 20
1809.069600733981
 30
0.0
 11
-160.2226642605822
 21
1809.069600733981
 31
0.0
 12
-161.8893309272489
 22
1799.069600733981
 32
0.0
 13
-161.8893309272489
 23
1799.069600733981
 33
0.0
  0
MTEXT
  5
745E
330
F5C
100
AcDbEntity
  8
cotas
100
AcDbMText
 10
-172.1176720958187
 20
1839.067040267613
 30
0.0
 40
10.0
 41
0.0
 71
     5
 72
     1
  1
80
  7
SANINDUSA
 11
0.0000000000000001
 21
1.0
 31
0.0
 73
     1
 44
1.0
1001
ACAD
1000
MTEXTBEGIN
1070
    73
1070
     1
1070
    44
1040
1.0
1070
    74
1070
     0
1000
MTEXTEND
  0
POINT
  5
745F
330
F5C
100
AcDbEntity
  8
Defpoints
 62
     0
100
AcDbPoint
 10
-477.0926029703887
 20
1879.064479801245
 30
0.0
  0
POINT
  5
7460
330
F5C
100
AcDbEntity
  8
Defpoints
 62
     0
100
AcDbPoint
 10
-482.1124629247251
 20
1799.069600733981
 30
0.0
  0
POINT
  5
7461
330
F5C
100
AcDbEntity
  8
Defpoints
 62
     0
100
AcDbPoint
 10
-161.8893309272489
 20
1799.069600733981
 30
0.0
  0
ENDBLK
  5
F67
330
F5C
100
AcDbEntity
  8
0
100
AcDbBlockEnd
  0
BLOCK
  5
F72
330
F68
100
AcDbEntity
  8
0
100
AcDbBlockBegin
  2
*D114
 70
     1
 10
0.0
 20
0.0
 30
0.0
  3
*D114
  1

  0
LINE
  5
7462
330
F68
100
AcDbEntity
  8
cotas
100
AcDbLine
 10
-477.1296604623248
 20
1719.052676006877
 30
0.0
 11
-156.8893309272489
 21
1719.052676006877
 31
0.0
  0
LINE
  5
7463
330
F68
100
AcDbEntity
  8
cotas
100
AcDbLine
 10
-477.1124629247252
 20
1799.069600733981
 30
0.0
 11
-156.8893309272489
 21
1799.069600733981
 31
0.0
  0
LINE
  5
7464
330
F68
100
AcDbEntity
  8
cotas
100
AcDbLine
 10
-161.8893309272489
 20
1729.052676006877
 30
0.0
 11
-161.8893309272489
 21
1789.069600733981
 31
0.0
  0
SOLID
  5
7465
330
F68
100
AcDbEntity
  8
cotas
100
AcDbTrace
 10
-163.5559975939156
 20
1729.052676006877
 30
0.0
 11
-160.2226642605822
 21
1729.052676006877
 31
0.0
 12
-161.8893309272489
 22
1719.052676006877
 32
0.0
 13
-161.8893309272489
 23
1719.052676006877
 33
0.0
  0
SOLID
  5
7466
330
F68
100
AcDbEntity
  8
cotas
100
AcDbTrace
 10
-163.5559975939156
 20
1789.069600733981
 30
0.0
 11
-160.2226642605822
 21
1789.069600733981
 31
0.0
 12
-161.8893309272489
 22
1799.069600733981
 32
0.0
 13
-161.8893309272489
 23
1799.069600733981
 33
0.0
  0
MTEXT
  5
7467
330
F68
100
AcDbEntity
  8
cotas
100
AcDbMText
 10
-172.1176720958187
 20
1759.061138370429
 30
0.0
 40
10.0
 41
0.0
 71
     5
 72
     1
  1
80
  7
SANINDUSA
 11
0.0000000000000001
 21
1.0
 31
0.0
 73
     1
 44
1.0
1001
ACAD
1000
MTEXTBEGIN
1070
    73
1070
     1
1070
    44
1040
1.0
1070
    74
1070
     0
1000
MTEXTEND
  0
POINT
  5
7468
330
F68
100
AcDbEntity
  8
Defpoints
 62
     0
100
AcDbPoint
 10
-482.1296604623248
 20
1719.052676006877
 30
0.0
  0
POINT
  5
7469
330
F68
100
AcDbEntity
  8
Defpoints
 62
     0
100
AcDbPoint
 10
-482.1124629247251
 20
1799.069600733981
 30
0.0
  0
POINT
  5
746A
330
F68
100
AcDbEntity
  8
Defpoints
 62
     0
100
AcDbPoint
 10
-161.8893309272489
 20
1799.069600733981
 30
0.0
  0
ENDBLK
  5
F73
330
F68
100
AcDbEntity
  8
0
100
AcDbBlockEnd
  0
BLOCK
  5
F7E
330
F74
100
AcDbEntity
  8
0
100
AcDbBlockBegin
  2
*D115
 70
     1
 10
0.0
 20
0.0
 30
0.0
  3
*D115
  1

  0
LINE
  5
746B
330
F74
100
AcDbEntity
  8
cotas
100
AcDbLine
 10
-477.1296604623248
 20
1719.052676006877
 30
0.0
 11
-156.8893309272489
 21
1719.052676006877
 31
0.0
  0
LINE
  5
746C
330
F74
100
AcDbEntity
  8
cotas
100
AcDbLine
 10
-186.8893309272489
 20
1679.046146303955
 30
0.0
 11
-156.8893309272489
 21
1679.046146303955
 31
0.0
  0
LINE
  5
746D
330
F74
100
AcDbEntity
  8
cotas
100
AcDbLine
 10
-161.8893309272489
 20
1709.052676006877
 30
0.0
 11
-161.8893309272489
 21
1689.046146303956
 31
0.0
  0
SOLID
  5
746E
330
F74
100
AcDbEntity
  8
cotas
100
AcDbTrace
 10
-163.5559975939156
 20
1709.052676006877
 30
0.0
 11
-160.2226642605822
 21
1709.052676006877
 31
0.0
 12
-161.8893309272489
 22
1719.052676006877
 32
0.0
 13
-161.8893309272489
 23
1719.052676006877
 33
0.0
  0
SOLID
  5
746F
330
F74
100
AcDbEntity
  8
cotas
100
AcDbTrace
 10
-163.5559975939156
 20
1689.046146303956
 30
0.0
 11
-160.2226642605822
 21
1689.046146303956
 31
0.0
 12
-161.8893309272489
 22
1679.046146303955
 32
0.0
 13
-161.8893309272489
 23
1679.046146303955
 33
0.0
  0
MTEXT
  5
7470
330
F74
100
AcDbEntity
  8
cotas
100
AcDbMText
 10
-172.0941663872894
 20
1699.049411155416
 30
0.0
 40
10.0
 41
0.0
 71
     5
 72
     1
  1
40
  7
SANINDUSA
 11
0.0000000000000001
 21
1.0
 31
0.0
 73
     1
 44
1.0
1001
ACAD
1000
MTEXTBEGIN
1070
    73
1070
     1
1070
    44
1040
1.0
1070
    74
1070
     0
1000
MTEXTEND
  0
POINT
  5
7471
330
F74
100
AcDbEntity
  8
Defpoints
 62
     0
100
AcDbPoint
 10
-482.1296604623248
 20
1719.052676006877
 30
0.0
  0
POINT
  5
7472
330
F74
100
AcDbEntity
  8
Defpoints
 62
     0
100
AcDbPoint
 10
-191.8893309272489
 20
1679.046146303955
 30
0.0
  0
POINT
  5
7473
330
F74
100
AcDbEntity
  8
Defpoints
 62
     0
100
AcDbPoint
 10
-161.8893309272489
 20
1679.046146303955
 30
0.0
  0
ENDBLK
  5
F7F
330
F74
100
AcDbEntity
  8
0
100
AcDbBlockEnd
  0
BLOCK
  5
F8A
330
F80
100
AcDbEntity
  8
0
100
AcDbBlockBegin
  2
*D116
 70
     1
 10
0.0
 20
0.0
 30
0.0
  3
*D116
  1

  0
LINE
  5
7474
330
F80
100
AcDbEntity
  8
cotas
100
AcDbLine
 10
-187.4675343955705
 20
1679.046146303954
 30
0.0
 11
-156.8893309272489
 21
1679.046146303954
 31
0.0
  0
LINE
  5
7475
330
F80
100
AcDbEntity
  8
cotas
100
AcDbLine
 10
-477.1275747243826
 20
1639.023712602522
 30
0.0
 11
-156.8893309272489
 21
1639.023712602522
 31
0.0
  0
LINE
  5
7476
330
F80
100
AcDbEntity
  8
cotas
100
AcDbLine
 10
-161.8893309272489
 20
1669.046146303953
 30
0.0
 11
-161.8893309272489
 21
1649.023712602522
 31
0.0
  0
SOLID
  5
7477
330
F80
100
AcDbEntity
  8
cotas
100
AcDbTrace
 10
-163.5559975939156
 20
1669.046146303953
 30
0.0
 11
-160.2226642605822
 21
1669.046146303953
 31
0.0
 12
-161.8893309272489
 22
1679.046146303954
 32
0.0
 13
-161.8893309272489
 23
1679.046146303954
 33
0.0
  0
SOLID
  5
7478
330
F80
100
AcDbEntity
  8
cotas
100
AcDbTrace
 10
-163.5559975939156
 20
1649.023712602522
 30
0.0
 11
-160.2226642605822
 21
1649.023712602522
 31
0.0
 12
-161.8893309272489
 22
1639.023712602522
 32
0.0
 13
-161.8893309272489
 23
1639.023712602522
 33
0.0
  0
MTEXT
  5
7479
330
F80
100
AcDbEntity
  8
cotas
100
AcDbMText
 10
-172.0941663872894
 20
1659.034929453238
 30
0.0
 40
10.0
 41
0.0
 71
     5
 72
     1
  1
40
  7
SANINDUSA
 11
0.0000000000000001
 21
1.0
 31
0.0
 73
     1
 44
1.0
1001
ACAD
1000
MTEXTBEGIN
1070
    73
1070
     1
1070
    44
1040
1.0
1070
    74
1070
     0
1000
MTEXTEND
  0
POINT
  5
747A
330
F80
100
AcDbEntity
  8
Defpoints
 62
     0
100
AcDbPoint
 10
-192.4675343955705
 20
1679.046146303954
 30
0.0
  0
POINT
  5
747B
330
F80
100
AcDbEntity
  8
Defpoints
 62
     0
100
AcDbPoint
 10
-482.1275747243825
 20
1639.023712602522
 30
0.0
  0
POINT
  5
747C
330
F80
100
AcDbEntity
  8
Defpoints
 62
     0
100
AcDbPoint
 10
-161.8893309272489
 20
1639.023712602522
 30
0.0
  0
ENDBLK
  5
F8B
330
F80
100
AcDbEntity
  8
0
100
AcDbBlockEnd
  0
BLOCK
  5
F9F
330
F95
100
AcDbEntity
  8
0
100
AcDbBlockBegin
  2
*D117
 70
     1
 10
0.0
 20
0.0
 30
0.0
  3
*D117
  1

  0
LINE
  5
7486
330
F95
100
AcDbEntity
  8
cotas
100
AcDbLine
 10
-477.1275747243834
 20
1559.038181945661
 30
0.0
 11
-156.8893309272489
 21
1559.038181945661
 31
0.0
  0
LINE
  5
7487
330
F95
100
AcDbEntity
  8
cotas
100
AcDbLine
 10
-477.0393898104275
 20
1479.03888342259
 30
0.0
 11
-156.8893309272489
 21
1479.03888342259
 31
0.0
  0
LINE
  5
7488
330
F95
100
AcDbEntity
  8
cotas
100
AcDbLine
 10
-161.8893309272489
 20
1549.038181945661
 30
0.0
 11
-161.8893309272489
 21
1489.03888342259
 31
0.0
  0
SOLID
  5
7489
330
F95
100
AcDbEntity
  8
cotas
100
AcDbTrace
 10
-163.5559975939156
 20
1549.038181945661
 30
0.0
 11
-160.2226642605822
 21
1549.038181945661
 31
0.0
 12
-161.8893309272489
 22
1559.038181945661
 32
0.0
 13
-161.8893309272489
 23
1559.038181945661
 33
0.0
  0
SOLID
  5
748A
330
F95
100
AcDbEntity
  8
cotas
100
AcDbTrace
 10
-163.5559975939156
 20
1489.03888342259
 30
0.0
 11
-160.2226642605822
 21
1489.03888342259
 31
0.0
 12
-161.8893309272489
 22
1479.03888342259
 32
0.0
 13
-161.8893309272489
 23
1479.03888342259
 33
0.0
  0
MTEXT
  5
748B
330
F95
100
AcDbEntity
  8
cotas
100
AcDbMText
 10
-172.1176720958187
 20
1519.038532684126
 30
0.0
 40
10.0
 41
0.0
 71
     5
 72
     1
  1
80
  7
SANINDUSA
 11
0.0000000000000001
 21
1.0
 31
0.0
 73
     1
 44
1.0
1001
ACAD
1000
MTEXTBEGIN
1070
    73
1070
     1
1070
    44
1040
1.0
1070
    74
1070
     0
1000
MTEXTEND
  0
POINT
  5
748C
330
F95
100
AcDbEntity
  8
Defpoints
 62
     0
100
AcDbPoint
 10
-482.1275747243835
 20
1559.038181945661
 30
0.0
  0
POINT
  5
748D
330
F95
100
AcDbEntity
  8
Defpoints
 62
     0
100
AcDbPoint
 10
-482.0393898104275
 20
1479.03888342259
 30
0.0
  0
POINT
  5
748E
330
F95
100
AcDbEntity
  8
Defpoints
 62
     0
100
AcDbPoint
 10
-161.8893309272489
 20
1479.03888342259
 30
0.0
  0
ENDBLK
  5
FA0
330
F95
100
AcDbEntity
  8
0
100
AcDbBlockEnd
  0
BLOCK
  5
FAB
330
FA1
100
AcDbEntity
  8
0
100
AcDbBlockBegin
  2
*D118
 70
     1
 10
0.0
 20
0.0
 30
0.0
  3
*D118
  1

  0
LINE
  5
748F
330
FA1
100
AcDbEntity
  8
cotas
100
AcDbLine
 10
-477.0393898104275
 20
1479.03888342259
 30
0.0
 11
-156.8893309272489
 21
1479.03888342259
 31
0.0
  0
LINE
  5
7490
330
FA1
100
AcDbEntity
  8
cotas
100
AcDbLine
 10
-477.079294828979
 20
1399.037821982279
 30
0.0
 11
-156.8893309272489
 21
1399.037821982279
 31
0.0
  0
LINE
  5
7491
330
FA1
100
AcDbEntity
  8
cotas
100
AcDbLine
 10
-161.8893309272489
 20
1469.03888342259
 30
0.0
 11
-161.8893309272489
 21
1409.037821982279
 31
0.0
  0
SOLID
  5
7492
330
FA1
100
AcDbEntity
  8
cotas
100
AcDbTrace
 10
-163.5559975939156
 20
1469.03888342259
 30
0.0
 11
-160.2226642605822
 21
1469.03888342259
 31
0.0
 12
-161.8893309272489
 22
1479.03888342259
 32
0.0
 13
-161.8893309272489
 23
1479.03888342259
 33
0.0
  0
SOLID
  5
7493
330
FA1
100
AcDbEntity
  8
cotas
100
AcDbTrace
 10
-163.5559975939156
 20
1409.037821982279
 30
0.0
 11
-160.2226642605822
 21
1409.037821982279
 31
0.0
 12
-161.8893309272489
 22
1399.037821982279
 32
0.0
 13
-161.8893309272489
 23
1399.037821982279
 33
0.0
  0
MTEXT
  5
7494
330
FA1
100
AcDbEntity
  8
cotas
100
AcDbMText
 10
-172.1176720958186
 20
1439.038352702435
 30
0.0
 40
10.0
 41
0.0
 71
     5
 72
     1
  1
80
  7
SANINDUSA
 11
0.0000000000000001
 21
1.0
 31
0.0
 73
     1
 44
1.0
1001
ACAD
1000
MTEXTBEGIN
1070
    73
1070
     1
1070
    44
1040
1.0
1070
    74
1070
     0
1000
MTEXTEND
  0
POINT
  5
7495
330
FA1
100
AcDbEntity
  8
Defpoints
 62
     0
100
AcDbPoint
 10
-482.0393898104275
 20
1479.03888342259
 30
0.0
  0
POINT
  5
7496
330
FA1
100
AcDbEntity
  8
Defpoints
 62
     0
100
AcDbPoint
 10
-482.079294828979
 20
1399.037821982279
 30
0.0
  0
POINT
  5
7497
330
FA1
100
AcDbEntity
  8
Defpoints
 62
     0
100
AcDbPoint
 10
-161.8893309272489
 20
1399.037821982279
 30
0.0
  0
ENDBLK
  5
FAC
330
FA1
100
AcDbEntity
  8
0
100
AcDbBlockEnd
  0
BLOCK
  5
FB7
330
FAD
100
AcDbEntity
  8
0
100
AcDbBlockBegin
  2
*D119
 70
     1
 10
0.0
 20
0.0
 30
0.0
  3
*D119
  1

  0
LINE
  5
7498
330
FAD
100
AcDbEntity
  8
cotas
100
AcDbLine
 10
-477.079294828979
 20
1399.037821982279
 30
0.0
 11
-156.8893309272489
 21
1399.037821982279
 31
0.0
  0
LINE
  5
7499
330
FAD
100
AcDbEntity
  8
cotas
100
AcDbLine
 10
-192.5875986145165
 20
1229.046146303955
 30
0.0
 11
-156.8893309272489
 21
1229.046146303955
 31
0.0
  0
LINE
  5
749A
330
FAD
100
AcDbEntity
  8
cotas
100
AcDbLine
 10
-161.8893309272489
 20
1389.037821982279
 30
0.0
 11
-161.8893309272489
 21
1239.046146303955
 31
0.0
  0
SOLID
  5
749B
330
FAD
100
AcDbEntity
  8
cotas
100
AcDbTrace
 10
-163.5559975939155
 20
1389.037821982279
 30
0.0
 11
-160.2226642605822
 21
1389.037821982279
 31
0.0
 12
-161.8893309272489
 22
1399.037821982279
 32
0.0
 13
-161.8893309272489
 23
1399.037821982279
 33
0.0
  0
SOLID
  5
749C
330
FAD
100
AcDbEntity
  8
cotas
100
AcDbTrace
 10
-163.5559975939156
 20
1239.046146303955
 30
0.0
 11
-160.2226642605822
 21
1239.046146303955
 31
0.0
 12
-161.8893309272489
 22
1229.046146303955
 32
0.0
 13
-161.8893309272489
 23
1229.046146303955
 33
0.0
  0
MTEXT
  5
749D
330
FAD
100
AcDbEntity
  8
cotas
100
AcDbMText
 10
-172.0941663872894
 20
1314.041984143117
 30
0.0
 40
10.0
 41
0.0
 71
     5
 72
     1
  1
170
  7
SANINDUSA
 11
0.0000000000000001
 21
1.0
 31
0.0
 73
     1
 44
1.0
1001
ACAD
1000
MTEXTBEGIN
1070
    73
1070
     1
1070
    44
1040
1.0
1070
    74
1070
     0
1000
MTEXTEND
  0
POINT
  5
749E
330
FAD
100
AcDbEntity
  8
Defpoints
 62
     0
100
AcDbPoint
 10
-482.079294828979
 20
1399.037821982279
 30
0.0
  0
POINT
  5
749F
330
FAD
100
AcDbEntity
  8
Defpoints
 62
     0
100
AcDbPoint
 10
-197.5875986145165
 20
1229.046146303955
 30
0.0
  0
POINT
  5
74A0
330
FAD
100
AcDbEntity
  8
Defpoints
 62
     0
100
AcDbPoint
 10
-161.8893309272489
 20
1229.046146303955
 30
0.0
  0
ENDBLK
  5
FB8
330
FAD
100
AcDbEntity
  8
0
100
AcDbBlockEnd
  0
BLOCK
  5
FC3
330
FB9
100
AcDbEntity
  8
0
100
AcDbBlockBegin
  2
*D120
 70
     1
 10
0.0
 20
0.0
 30
0.0
  3
*D120
  1

  0
LINE
  5
74A1
330
FB9
100
AcDbEntity
  8
cotas
100
AcDbLine
 10
-477.0838022171419
 20
1959.046323144301
 30
0.0
 11
-156.8893309272489
 21
1959.046323144301
 31
0.0
  0
LINE
  5
74A2
330
FB9
100
AcDbEntity
  8
cotas
100
AcDbLine
 10
-192.5875986145165
 20
2129.046146303956
 30
0.0
 11
-156.8893309272489
 21
2129.046146303956
 31
0.0
  0
LINE
  5
74A3
330
FB9
100
AcDbEntity
  8
cotas
100
AcDbLine
 10
-161.889330927249
 20
1969.046323144301
 30
0.0
 11
-161.8893309272489
 21
2119.046146303956
 31
0.0
  0
SOLID
  5
74A4
330
FB9
100
AcDbEntity
  8
cotas
100
AcDbTrace
 10
-163.5559975939156
 20
1969.046323144301
 30
0.0
 11
-160.2226642605823
 21
1969.046323144301
 31
0.0
 12
-161.889330927249
 22
1959.046323144301
 32
0.0
 13
-161.889330927249
 23
1959.046323144301
 33
0.0
  0
SOLID
  5
74A5
330
FB9
100
AcDbEntity
  8
cotas
100
AcDbTrace
 10
-163.5559975939156
 20
2119.046146303956
 30
0.0
 11
-160.2226642605822
 21
2119.046146303956
 31
0.0
 12
-161.8893309272489
 22
2129.046146303956
 32
0.0
 13
-161.8893309272489
 23
2129.046146303956
 33
0.0
  0
MTEXT
  5
74A6
330
FB9
100
AcDbEntity
  8
cotas
100
AcDbMText
 10
-172.0941663872896
 20
2044.046234724128
 30
0.0
 40
10.0
 41
0.0
 71
     5
 72
     1
  1
170
  7
SANINDUSA
 11
0.0000000000000001
 21
1.0
 31
0.0
 73
     1
 44
1.0
1001
ACAD
1000
MTEXTBEGIN
1070
    73
1070
     1
1070
    44
1040
1.0
1070
    74
1070
     0
1000
MTEXTEND
  0
POINT
  5
74A7
330
FB9
100
AcDbEntity
  8
Defpoints
 62
     0
100
AcDbPoint
 10
-482.0838022171419
 20
1959.046323144301
 30
0.0
  0
POINT
  5
74A8
330
FB9
100
AcDbEntity
  8
Defpoints
 62
     0
100
AcDbPoint
 10
-197.5875986145165
 20
2129.046146303956
 30
0.0
  0
POINT
  5
74A9
330
FB9
100
AcDbEntity
  8
Defpoints
 62
     0
100
AcDbPoint
 10
-161.8893309272489
 20
2129.046146303956
 30
0.0
  0
ENDBLK
  5
FC4
330
FB9
100
AcDbEntity
  8
0
100
AcDbBlockEnd
  0
BLOCK
  5
FCF
330
FC5
100
AcDbEntity
  8
0
100
AcDbBlockBegin
  2
*D121
 70
     1
 10
0.0
 20
0.0
 30
0.0
  3
*D121
  1

  0
LINE
  5
74AA
330
FC5
100
AcDbEntity
  8
cotas
100
AcDbLine
 10
-1393.285790000543
 20
2129.74511089975
 30
0.0
 11
-1393.285790000543
 21
2164.744331270997
 31
0.0
  0
LINE
  5
74AB
330
FC5
100
AcDbEntity
  8
cotas
100
AcDbLine
 10
-1165.044733877709
 20
2134.744331270997
 30
0.0
 11
-1165.044733877709
 21
2164.744331270997
 31
0.0
  0
LINE
  5
74AC
330
FC5
100
AcDbEntity
  8
cotas
100
AcDbLine
 10
-1383.285790000543
 20
2159.744331270997
 30
0.0
 11
-1175.044733877709
 21
2159.744331270997
 31
0.0
  0
SOLID
  5
74AD
330
FC5
100
AcDbEntity
  8
cotas
100
AcDbTrace
 10
-1383.285790000543
 20
2161.410997937663
 30
0.0
 11
-1383.285790000543
 21
2158.07766460433
 31
0.0
 12
-1393.285790000543
 22
2159.744331270997
 32
0.0
 13
-1393.285790000543
 23
2159.744331270997
 33
0.0
  0
SOLID
  5
74AE
330
FC5
100
AcDbEntity
  8
cotas
100
AcDbTrace
 10
-1175.044733877709
 20
2161.410997937663
 30
0.0
 11
-1175.044733877709
 21
2158.07766460433
 31
0.0
 12
-1165.044733877709
 22
2159.744331270997
 32
0.0
 13
-1165.044733877709
 23
2159.744331270997
 33
0.0
  0
MTEXT
  5
74AF
330
FC5
100
AcDbEntity
  8
cotas
100
AcDbMText
 10
-1279.165261939126
 20
2171.100946448969
 30
0.0
 40
10.0
 41
0.0
 71
     5
 72
     1
  1
228,2
  7
SANINDUSA
 73
     1
 44
1.0
1001
ACAD
1000
MTEXTBEGIN
1070
    73
1070
     1
1070
    44
1040
1.0
1070
    74
1070
     0
1000
MTEXTEND
  0
POINT
  5
74B0
330
FC5
100
AcDbEntity
  8
Defpoints
 62
     0
100
AcDbPoint
 10
-1393.285790000543
 20
2124.74511089975
 30
0.0
  0
POINT
  5
74B1
330
FC5
100
AcDbEntity
  8
Defpoints
 62
     0
100
AcDbPoint
 10
-1165.044733877709
 20
2129.744331270996
 30
-0.0000000000000197
  0
POINT
  5
74B2
330
FC5
100
AcDbEntity
  8
Defpoints
 62
     0
100
AcDbPoint
 10
-1165.044733877709
 20
2159.744331270997
 30
0.0
  0
ENDBLK
  5
FD0
330
FC5
100
AcDbEntity
  8
0
100
AcDbBlockEnd
  0
BLOCK
  5
FFF
330
FF8
100
AcDbEntity
  8
0
100
AcDbBlockBegin
  2
*D122
 70
     1
 10
0.0
 20
0.0
 30
0.0
  3
*D122
  1

  0
LINE
  5
74FF
330
FF8
100
AcDbEntity
  8
cotas
100
AcDbLine
 10
-167.0765278368366
 20
1193.191334892148
 30
0.0
 11
-188.6120995586128
 21
1222.027809617979
 31
0.0
  0
MTEXT
  5
7500
330
FF8
100
AcDbEntity
  8
cotas
100
AcDbMText
 10
-166.7568516018344
 20
1209.649414058018
 30
0.0
 40
10.0
 41
0.0
 71
     5
 72
     1
  1
R5
  7
SANINDUSA
 11
0.5983666037269069
 21
-0.8012224457317248
 31
0.0
 73
     1
 44
1.0
1001
ACAD
1000
MTEXTBEGIN
1070
    73
1070
     1
1070
    44
1040
1.0
1070
    74
1070
     0
1000
MTEXTEND
  0
LINE
  5
7501
330
FF8
100
AcDbEntity
  8
cotas
100
AcDbLine
 10
-197.5875986145164
 20
1234.046146303955
 30
0.0
 11
-194.5957655958818
 21
1230.040034075296
 31
0.0
  0
SOLID
  5
7502
330
FF8
100
AcDbEntity
  8
cotas
100
AcDbTrace
 10
-187.2767288157267
 20
1223.025087290857
 30
0.0
 11
-189.947470301499
 21
1221.030531945101
 31
0.0
 12
-194.5957655958818
 22
1230.040034075296
 32
0.0
 13
-194.5957655958818
 23
1230.040034075296
 33
0.0
  0
POINT
  5
7503
330
FF8
100
AcDbEntity
  8
Defpoints
 62
     0
100
AcDbPoint
 10
-194.5957655958818
 20
1230.040034075296
 30
0.0
  0
POINT
  5
7504
330
FF8
100
AcDbEntity
  8
Defpoints
 62
     0
100
AcDbPoint
 10
-197.5875986145164
 20
1234.046146303955
 30
0.0
  0
ENDBLK
  5
1000
330
FF8
100
AcDbEntity
  8
0
100
AcDbBlockEnd
  0
BLOCK
  5
1008
330
1001
100
AcDbEntity
  8
0
100
AcDbBlockBegin
  2
*D123
 70
     1
 10
0.0
 20
0.0
 30
0.0
  3
*D123
  1

  0
LINE
  5
74E0
330
1001
100
AcDbEntity
  8
cotas
100
AcDbLine
 10
-1423.422501184831
 20
1197.770810179196
 30
0.0
 11
-1398.129211377052
 21
1223.374962473248
 31
0.0
  0
MTEXT
  5
74E1
330
1001
100
AcDbEntity
  8
cotas
100
AcDbMText
 10
-1421.477909161757
 20
1214.116730911571
 30
0.0
 40
10.0
 41
0.0
 71
     5
 72
     1
  1
R5
  7
SANINDUSA
 11
0.7027749304680549
 21
0.7114122553805359
 31
0.0
 73
     1
 44
1.0
1001
ACAD
1000
MTEXTBEGIN
1070
    73
1070
     1
1070
    44
1040
1.0
1070
    74
1070
     0
1000
MTEXTEND
  0
LINE
  5
74E2
330
1001
100
AcDbEntity
  8
cotas
100
AcDbLine
 10
-1387.587587420032
 20
1234.046146303955
 30
0.0
 11
-1391.101462072372
 21
1230.489085027053
 31
0.0
  0
SOLID
  5
74E3
330
1001
100
AcDbEntity
  8
cotas
100
AcDbTrace
 10
-1399.314898469353
 20
1224.546254024028
 30
0.0
 11
-1396.943524284751
 21
1222.203670922468
 31
0.0
 12
-1391.101462072372
 22
1230.489085027053
 32
0.0
 13
-1391.101462072372
 23
1230.489085027053
 33
0.0
  0
POINT
  5
74E4
330
1001
100
AcDbEntity
  8
Defpoints
 62
     0
100
AcDbPoint
 10
-1391.101462072372
 20
1230.489085027053
 30
0.0
  0
POINT
  5
74E5
330
1001
100
AcDbEntity
  8
Defpoints
 62
     0
100
AcDbPoint
 10
-1387.587587420032
 20
1234.046146303955
 30
0.0
  0
ENDBLK
  5
1009
330
1001
100
AcDbEntity
  8
0
100
AcDbBlockEnd
  0
BLOCK
  5
1013
330
100A
100
AcDbEntity
  8
0
100
AcDbBlockBegin
  2
*D124
 70
     1
 10
0.0
 20
0.0
 30
0.0
  3
*D124
  1

  0
LINE
  5
74F7
330
100A
100
AcDbEntity
  8
cotas
100
AcDbLine
 10
-480.706898877053
 20
1767.092869022673
 30
0.0
 11
-437.6910506411219
 21
1732.075761128823
 31
0.0
  0
LINE
  5
74F8
330
100A
100
AcDbEntity
  8
cotas
100
AcDbLine
 10
-307.4256412780284
 20
1626.033033121108
 30
0.0
 11
-299.6703926978975
 21
1619.719862803401
 31
0.0
  0
MTEXT
  5
74F9
330
100A
100
AcDbEntity
  8
cotas
100
AcDbMText
 10
-456.1952858015785
 20
1761.194069103341
 30
0.0
 40
10.0
 41
0.0
 71
     5
 72
     1
  1
\U+2205148
  7
SANINDUSA
 11
0.7755248580130912
 21
-0.6313170317707063
 31
0.0
 73
     1
 44
1.0
1001
ACAD
1000
MTEXTBEGIN
1070
    73
1070
     1
1070
    44
1040
1.0
1070
    74
1070
     0
1000
MTEXTEND
  0
LINE
  5
74FA
330
100A
100
AcDbEntity
  8
cotas
100
AcDbLine
 10
-315.1808898581593
 20
1632.346203438815
 30
0.0
 11
-429.935802060991
 21
1725.762590811116
 31
0.0
  0
SOLID
  5
74FB
330
100A
100
AcDbEntity
  8
cotas
100
AcDbTrace
 10
-306.3734462250772
 20
1627.32557455113
 30
0.0
 11
-308.4778363309796
 21
1624.740491691086
 31
0.0
 12
-315.1808898581593
 22
1632.346203438815
 32
0.0
 13
-315.1808898581593
 23
1632.346203438815
 33
0.0
  0
SOLID
  5
74FC
330
100A
100
AcDbEntity
  8
cotas
100
AcDbTrace
 10
-436.6388555881707
 20
1733.368302558845
 30
0.0
 11
-438.7432456940731
 21
1730.783219698802
 31
0.0
 12
-429.935802060991
 22
1725.762590811116
 32
0.0
 13
-429.935802060991
 23
1725.762590811116
 33
0.0
  0
POINT
  5
74FD
330
100A
100
AcDbEntity
  8
Defpoints
 62
     0
100
AcDbPoint
 10
-429.935802060991
 20
1725.762590811116
 30
0.0
  0
POINT
  5
74FE
330
100A
100
AcDbEntity
  8
Defpoints
 62
     0
100
AcDbPoint
 10
-315.1808898581593
 20
1632.346203438815
 30
0.0
  0
ENDBLK
  5
1014
330
100A
100
AcDbEntity
  8
0
100
AcDbBlockEnd
  0
BLOCK
  5
101F
330
1015
100
AcDbEntity
  8
0
100
AcDbBlockBegin
  2
*D125
 70
     1
 10
0.0
 20
0.0
 30
0.0
  3
*D125
  1

  0
LINE
  5
73F0
330
1015
100
AcDbEntity
  8
cotas
100
AcDbLine
 10
4048.271821978381
 20
1737.574350290261
 30
0.0
 11
4078.97008966565
 21
1737.574350290261
 31
0.0
  0
LINE
  5
73F1
330
1015
100
AcDbEntity
  8
cotas
100
AcDbLine
 10
3974.972963348731
 20
1643.107662688445
 30
0.0
 11
4078.97008966565
 21
1643.107662688445
 31
0.0
  0
LINE
  5
73F2
330
1015
100
AcDbEntity
  8
cotas
100
AcDbLine
 10
4073.97008966565
 20
1727.574350290261
 30
0.0
 11
4073.97008966565
 21
1653.107662688445
 31
0.0
  0
SOLID
  5
73F3
330
1015
100
AcDbEntity
  8
cotas
100
AcDbTrace
 10
4072.303422998984
 20
1727.574350290261
 30
0.0
 11
4075.636756332317
 21
1727.574350290261
 31
0.0
 12
4073.97008966565
 22
1737.574350290261
 32
0.0
 13
4073.97008966565
 23
1737.574350290261
 33
0.0
  0
SOLID
  5
73F4
330
1015
100
AcDbEntity
  8
cotas
100
AcDbTrace
 10
4072.303422998984
 20
1653.107662688445
 30
0.0
 11
4075.636756332317
 21
1653.107662688445
 31
0.0
 12
4073.97008966565
 22
1643.107662688445
 32
0.0
 13
4073.97008966565
 23
1643.107662688445
 33
0.0
  0
MTEXT
  5
73F5
330
1015
100
AcDbEntity
  8
cotas
100
AcDbMText
 10
4062.626906321123
 20
1690.341006489354
 30
0.0
 40
10.0
 41
0.0
 71
     5
 72
     1
  1
94,5
  7
SANINDUSA
 11
0.0000000000000001
 21
1.0
 31
0.0
 73
     1
 44
1.0
1001
ACAD
1000
MTEXTBEGIN
1070
    73
1070
     1
1070
    44
1040
1.0
1070
    74
1070
     0
1000
MTEXTEND
  0
POINT
  5
73F6
330
1015
100
AcDbEntity
  8
Defpoints
 62
     0
100
AcDbPoint
 10
4043.271821978382
 20
1737.574350290261
 30
0.0
  0
POINT
  5
73F7
330
1015
100
AcDbEntity
  8
Defpoints
 62
     0
100
AcDbPoint
 10
3969.972963348732
 20
1643.107662688445
 30
0.0
  0
POINT
  5
73F8
330
1015
100
AcDbEntity
  8
Defpoints
 62
     0
100
AcDbPoint
 10
4073.97008966565
 20
1643.107662688445
 30
0.0
  0
ENDBLK
  5
1020
330
1015
100
AcDbEntity
  8
0
100
AcDbBlockEnd
  0
BLOCK
  5
102B
330
1021
100
AcDbEntity
  8
0
100
AcDbBlockBegin
  2
*D126
 70
     1
 10
0.0
 20
0.0
 30
0.0
  3
*D126
  1

  0
LINE
  5
74EE
330
1021
100
AcDbEntity
  8
cotas
100
AcDbLine
 10
-1393.28655154121
 20
2129.744348901084
 30
0.0
 11
-1428.285010362112
 21
2129.744348901084
 31
0.0
  0
LINE
  5
74EF
330
1021
100
AcDbEntity
  8
cotas
100
AcDbLine
 10
-1398.285790000543
 20
2035.918874541976
 30
0.0
 11
-1428.285010362112
 21
2035.918874541976
 31
0.0
  0
LINE
  5
74F0
330
1021
100
AcDbEntity
  8
cotas
100
AcDbLine
 10
-1423.285010362112
 20
2119.744348901083
 30
0.0
 11
-1423.285010362112
 21
2045.918874541976
 31
0.0
  0
SOLID
  5
74F1
330
1021
100
AcDbEntity
  8
cotas
100
AcDbTrace
 10
-1424.951677028779
 20
2119.744348901083
 30
0.0
 11
-1421.618343695445
 21
2119.744348901083
 31
0.0
 12
-1423.285010362112
 22
2129.744348901084
 32
0.0
 13
-1423.285010362112
 23
2129.744348901084
 33
0.0
  0
SOLID
  5
74F2
330
1021
100
AcDbEntity
  8
cotas
100
AcDbTrace
 10
-1424.951677028779
 20
2045.918874541976
 30
0.0
 11
-1421.618343695445
 21
2045.918874541976
 31
0.0
 12
-1423.285010362112
 22
2035.918874541976
 32
0.0
 13
-1423.285010362112
 23
2035.918874541976
 33
0.0
  0
MTEXT
  5
74F3
330
1021
100
AcDbEntity
  8
cotas
100
AcDbMText
 10
-1434.641625540084
 20
2082.831611721529
 30
0.0
 40
10.0
 41
0.0
 71
     5
 72
     1
  1
93,8
  7
SANINDUSA
 11
0.0000000000000001
 21
1.0
 31
0.0
 73
     1
 44
1.0
1001
ACAD
1000
MTEXTBEGIN
1070
    73
1070
     1
1070
    44
1040
1.0
1070
    74
1070
     0
1000
MTEXTEND
  0
POINT
  5
74F4
330
1021
100
AcDbEntity
  8
Defpoints
 62
     0
100
AcDbPoint
 10
-1388.28655154121
 20
2129.744348901084
 30
0.0000000000004019
  0
POINT
  5
74F5
330
1021
100
AcDbEntity
  8
Defpoints
 62
     0
100
AcDbPoint
 10
-1393.285790000543
 20
2035.918874541976
 30
0.0
  0
POINT
  5
74F6
330
1021
100
AcDbEntity
  8
Defpoints
 62
     0
100
AcDbPoint
 10
-1423.285010362112
 20
2035.918874541976
 30
0.0
  0
ENDBLK
  5
102C
330
1021
100
AcDbEntity
  8
0
100
AcDbBlockEnd
  0
ENDSEC
  0
SECTION
  2
ENTITIES
  0
ARC
  5
81E
330
23
100
AcDbEntity
  8
SANINDUSA
100
AcDbCircle
 10
1074.169638273911
 20
1737.494535470405
 30
0.0
 40
0.020901597655115
100
AcDbArc
 50
281.20879068397
 51
358.4656491692887
  0
ARC
  5
81F
330
23
100
AcDbEntity
  8
SANINDUSA
100
AcDbCircle
 10
1073.44146266601
 20
1737.504815390747
 30
0.0
 40
0.0208999609939217
100
AcDbArc
 50
246.0425214514007
 51
268.802641493318
  0
LINE
  5
829
330
23
100
AcDbEntity
  8
SANINDUSA
100
AcDbLine
 10
1074.003237715327
 20
1737.472100183628
 30
0.0
 11
1074.016566460392
 21
1737.462767303196
 31
0.0
  0
LINE
  5
82A
330
23
100
AcDbEntity
  8
SANINDUSA
100
AcDbLine
 10
1074.142306998636
 20
1737.462767303196
 30
0.0
 11
1074.155612161719
 21
1737.47208365824
 31
0.0
  0
LINE
  5
82B
330
23
100
AcDbEntity
  8
SANINDUSA
100
AcDbLine
 10
1074.016566460392
 20
1737.462767303196
 30
0.0
 11
1074.027740961251
 21
1737.450784118124
 31
0.0
  0
LINE
  5
82C
330
23
100
AcDbEntity
  8
SANINDUSA
100
AcDbLine
 10
1074.131132497776
 20
1737.450784118124
 30
0.0
 11
1074.142306998636
 21
1737.462767303196
 31
0.0
  0
LINE
  5
846
330
23
100
AcDbEntity
  8
SANINDUSA
100
AcDbLine
 10
1073.063737765291
 20
1737.534350291155
 30
0.0
 11
1074.255135706031
 21
1737.534350291155
 31
0.0
  0
LINE
  5
849
330
23
100
AcDbEntity
  8
SANINDUSA
100
AcDbLine
 10
1073.058738526933
 20
1737.534350291155
 30
0.0
 11
1073.059316676491
 21
1737.567472457214
 31
0.0
  0
LINE
  5
84A
330
23
100
AcDbEntity
  8
SANINDUSA
100
AcDbLine
 10
1073.058738526933
 20
1737.534350291155
 30
0.0
 11
1073.063737765291
 21
1737.534350291155
 31
0.0
  0
LINE
  5
84C
330
23
100
AcDbEntity
  8
SANINDUSA
100
AcDbLine
 10
1074.259556782513
 20
1737.567472458556
 30
0.0
 11
1074.260134986007
 21
1737.534350291155
 31
0.0
  0
LINE
  5
84D
330
23
100
AcDbEntity
  8
SANINDUSA
100
AcDbLine
 10
1074.255135706031
 20
1737.534350291155
 30
0.0
 11
1074.260134986007
 21
1737.534350291155
 31
0.0
  0
ARC
  5
84F
330
23
100
AcDbEntity
  8
SANINDUSA
100
AcDbCircle
 10
1073.066315610356
 20
1737.567350290261
 30
0.0
 40
0.0070000000000002
100
AcDbArc
 50
90.0
 51
179.0000000030781
  0
LINE
  5
850
330
23
100
AcDbEntity
  8
SANINDUSA
100
AcDbLine
 10
1073.066315610298
 20
1737.574350290261
 30
0.0
 11
1074.252557805144
 21
1737.574350290261
 31
0.0
  0
ARC
  5
852
330
23
100
AcDbEntity
  8
SANINDUSA
100
AcDbCircle
 10
1074.252557848672
 20
1737.567350290261
 30
0.0
 40
0.0070000000000002
100
AcDbArc
 50
0.9999999969218754
 51
90.0
  0
ARC
  5
8A8
330
23
100
AcDbEntity
  8
SANINDUSA
100
AcDbCircle
 10
1073.400707565995
 20
1737.470596507319
 30
0.0
 40
0.0261036551811227
100
AcDbArc
 50
58.32745802628643
 51
88.99937994039332
  0
LINE
  5
8AD
330
23
100
AcDbEntity
  8
SANINDUSA
100
AcDbLine
 10
1074.190645368984
 20
1737.497211483437
 30
0.0
 11
1074.191942265593
 21
1737.534350291155
 31
0.0
  0
ARC
  5
8AF
330
23
100
AcDbEntity
  8
SANINDUSA
100
AcDbCircle
 10
1073.441667627679
 20
1737.536990636404
 30
0.0
 40
0.0519085684214083
100
AcDbArc
 50
238.3291921555732
 51
269.0205385017977
  0
LWPOLYLINE
  5
8B1
330
23
100
AcDbEntity
  8
SANINDUSA
100
AcDbPolyline
 90
        9
 70
   128
 43
0.0
 10
1073.147909975015
 20
1737.501116730533
 10
1073.147967597806
 20
1737.501115724705
 10
1073.148138268256
 20
1737.501112751923
 10
1073.148415422403
 20
1737.501107909045
 10
1073.148788435721
 20
1737.501101397238
 10
1073.149242988192
 20
1737.50109346237
 10
1073.14976165291
 20
1737.501084409914
 10
1073.150324514472
 20
1737.501074590049
 10
1073.150909973644
 20
1737.501064367853
  0
ARC
  5
8B2
330
23
100
AcDbEntity
  8
SANINDUSA
100
AcDbCircle
 10
1073.148274731384
 20
1737.522013550664
 30
0.0
 40
0.0209000000000003
100
AcDbArc
 50
182.0000000037536
 51
269.0000000030781
  0
LINE
  5
8B4
330
23
100
AcDbEntity
  8
SANINDUSA
100
AcDbLine
 10
1073.150909977205
 20
1737.501064368621
 30
0.0
 11
1073.401163410687
 21
1737.496696178691
 31
0.0
  0
LINE
  5
8B5
330
23
100
AcDbEntity
  8
SANINDUSA
100
AcDbLine
 10
1073.1273874631
 20
1737.521284151183
 30
0.0
 11
1073.126931181514
 21
1737.534350291155
 31
0.0
  0
LWPOLYLINE
  5
8B6
330
23
100
AcDbEntity
  8
SANINDUSA
100
AcDbPolyline
 90
        6
 70
   128
 43
0.0
 10
1074.190532377326
 20
1737.493975803516
 10
1074.190543702208
 20
1737.494300246499
 10
1074.190567305648
 20
1737.494977332912
 10
1074.190591266715
 20
1737.495661244057
 10
1074.190625479781
 20
1737.496640615425
 10
1074.190632155501
 20
1737.496832162402
  0
LINE
  5
8BA
330
23
100
AcDbEntity
  8
SANINDUSA
100
AcDbLine
 10
1074.079436729514
 20
1737.450784118124
 30
0.0
 11
1074.131132497776
 21
1737.450784118124
 31
0.0
  0
LINE
  5
8BB
330
23
100
AcDbEntity
  8
SANINDUSA
100
AcDbLine
 10
1074.027740961251
 20
1737.450784118124
 30
0.0
 11
1074.079436729514
 21
1737.450784118124
 31
0.0
  0
ARC
  5
8F8
330
23
100
AcDbEntity
  8
SANINDUSA
100
AcDbCircle
 10
1071.499845083395
 20
1737.960941072066
 30
0.0
 40
0.0050010940544078
100
AcDbArc
 50
0.0207794930126366
 51
89.97922050698738
  0
LINE
  5
8F9
330
23
100
AcDbEntity
  8
SANINDUSA
100
AcDbLine
 10
1070.309605271133
 20
1737.965942139299
 30
0.0
 11
1071.49984690023
 21
1737.965942139299
 31
0.0
  0
ARC
  5
8FD
330
23
100
AcDbEntity
  8
SANINDUSA
100
AcDbCircle
 10
1070.309607086184
 20
1737.96094111228
 30
0.0
 40
0.005001053840871
100
AcDbArc
 50
90.02079442259093
 51
179.9796810570359
  0
LINE
  5
900
330
23
100
AcDbEntity
  8
SANINDUSA
100
AcDbLine
 10
1070.304606032657
 20
1737.070701271726
 30
0.0
 11
1070.304606032657
 21
1737.960942900823
 31
0.0
  0
LINE
  5
901
330
23
100
AcDbEntity
  8
SANINDUSA
100
AcDbLine
 10
1071.504846138706
 20
1737.960942900823
 30
0.0
 11
1071.504846138706
 21
1737.070701271726
 31
0.0
  0
ELLIPSE
  5
90E
330
23
100
AcDbEntity
  8
SANINDUSA
100
AcDbEllipse
 10
1070.394982722108
 20
1737.875565450002
 30
0.0
 11
0.0141714282394082
 21
-0.0141714282345848
 31
0.0
210
0.0
220
0.0
230
1.0
 40
0.9979329808699906
 41
2.356803477607984
 42
3.92638182957166
  0
LINE
  5
911
330
23
100
AcDbEntity
  8
SANINDUSA
100
AcDbLine
 10
1071.414502363515
 20
1737.895586171909
 30
0.0
 11
1070.394949816741
 21
1737.895586171909
 31
0.0
  0
ELLIPSE
  5
913
330
23
100
AcDbEntity
  8
SANINDUSA
100
AcDbEllipse
 10
1071.414469458148
 20
1737.875565450002
 30
0.0
 11
0.0141714282369867
 21
0.0141714282369861
 31
0.0
210
0.0
220
0.0
230
1.0
 40
0.9979329808706708
 41
5.498396131367766
 42
7.067974482991445
  0
LINE
  5
915
330
23
100
AcDbEntity
  8
SANINDUSA
100
AcDbLine
 10
1071.434490180055
 20
1737.156045817181
 30
0.0
 11
1071.434490180055
 21
1737.875598355368
 31
0.0
  0
LINE
  5
916
330
23
100
AcDbEntity
  8
SANINDUSA
100
AcDbLine
 10
1070.374962000201
 20
1737.875598355361
 30
0.0
 11
1070.374962000446
 21
1737.156045817173
 31
0.0
  0
ELLIPSE
  5
918
330
23
100
AcDbEntity
  8
SANINDUSA
100
AcDbEllipse
 10
1070.394982722353
 20
1737.156078722547
 30
0.0
 11
0.0141714282345586
 21
0.0141714282393943
 31
0.0
210
0.0
220
0.0
230
1.0
 40
0.9979329808713915
 41
2.356803477947544
 42
3.926381829232076
  0
ELLIPSE
  5
91B
330
23
100
AcDbEntity
  8
SANINDUSA
100
AcDbEllipse
 10
1071.414469458148
 20
1737.156078722548
 30
0.0
 11
0.0141714282369929
 21
-0.0141714282369806
 31
0.0
210
0.0
220
0.0
230
1.0
 40
0.9979329808706811
 41
5.498396131368195
 42
7.067974482991004
  0
LINE
  5
91C
330
23
100
AcDbEntity
  8
SANINDUSA
100
AcDbLine
 10
1070.394949816986
 20
1737.13605800064
 30
0.0
 11
1071.414502363515
 21
1737.136058000641
 31
0.0
  0
ARC
  5
91F
330
23
100
AcDbEntity
  8
SANINDUSA
100
AcDbCircle
 10
1071.499845114493
 20
1737.070703095892
 30
0.0
 40
0.0050010629595766
100
AcDbArc
 50
270.0204233327454
 51
359.9791011876325
  0
ARC
  5
920
330
23
100
AcDbEntity
  8
SANINDUSA
100
AcDbCircle
 10
1070.309607055085
 20
1737.070703055677
 30
0.0
 40
0.0050010227454466
100
AcDbArc
 50
180.0204382492961
 51
269.9795617507039
  0
ARC
  5
96A
330
23
100
AcDbEntity
  8
SANINDUSA
100
AcDbCircle
 10
1070.417812034526
 20
1737.183616518979
 30
0.0
 40
0.0108876910794493
100
AcDbArc
 50
179.9870663374818
 51
269.9881543204828
  0
ARC
  5
96D
330
23
100
AcDbEntity
  8
SANINDUSA
100
AcDbCircle
 10
1070.417812252536
 20
1737.84802744162
 30
0.0
 40
0.0108879090372131
100
AcDbArc
 50
90.0129926903576
 51
180.0116690649907
  0
LINE
  5
96F
330
23
100
AcDbEntity
  8
SANINDUSA
100
AcDbLine
 10
1070.406924343947
 20
1737.183618974373
 30
0.0
 11
1070.406924343947
 21
1737.848025198175
 31
0.0
  0
LINE
  5
971
330
23
100
AcDbEntity
  8
SANINDUSA
100
AcDbLine
 10
1070.646644167236
 20
1737.172728829803
 30
0.0
 11
1070.417809783798
 21
1737.172728829803
 31
0.0
  0
LINE
  5
972
330
23
100
AcDbEntity
  8
SANINDUSA
100
AcDbLine
 10
1070.417809783798
 20
1737.858915342745
 30
0.0
 11
1070.646613109777
 21
1737.858915342745
 31
0.0
  0
ARC
  5
97C
330
23
100
AcDbEntity
  8
SANINDUSA
100
AcDbCircle
 10
1070.644920992405
 20
1737.621327711357
 30
0.0
 40
0.2375936646598638
100
AcDbArc
 50
86.64224782915608
 51
89.59194126210412
  0
ARC
  5
97D
330
23
100
AcDbEntity
  8
SANINDUSA
100
AcDbCircle
 10
1070.644956452408
 20
1737.410098654669
 30
0.0
 40
0.2373758263387925
100
AcDbArc
 50
270.4073697193151
 51
273.3523354101361
  0
ARC
  5
97F
330
23
100
AcDbEntity
  8
SANINDUSA
100
AcDbCircle
 10
1070.659734573775
 20
1737.183555536138
 30
0.0
 40
0.0101506062512413
100
AcDbArc
 50
287.0997062514904
 51
0.0026431600214559
  0
ARC
  5
982
330
23
100
AcDbEntity
  8
SANINDUSA
100
AcDbCircle
 10
1070.659734268707
 20
1737.848092935007
 30
0.0
 40
0.0101443250092403
100
AcDbArc
 50
359.9969702473735
 51
72.87507156053752
  0
LINE
  5
985
330
23
100
AcDbEntity
  8
SANINDUSA
100
AcDbLine
 10
1070.658836927814
 20
1737.858513489025
 30
0.0
 11
1070.661257708337
 21
1737.858191999326
 31
0.0
  0
LINE
  5
986
330
23
100
AcDbEntity
  8
SANINDUSA
100
AcDbLine
 10
1070.661239438084
 20
1737.173446134624
 30
0.0
 11
1070.658837213899
 21
1737.173129022579
 31
0.0
  0
LWPOLYLINE
  5
98B
330
23
100
AcDbEntity
  8
SANINDUSA
100
AcDbPolyline
 90
        6
 70
   128
 43
0.0
 10
1070.669878593702
 20
1737.848092398583
 10
1070.669819376488
 20
1737.659813365876
 10
1070.669788233061
 20
1737.563816121757
 10
1070.669785610456
 20
1737.515817931831
 10
1070.669857046623
 20
1737.323822132289
 10
1070.669885180016
 20
1737.183556004405
  0
LINE
  5
98C
330
23
100
AcDbEntity
  8
SANINDUSA
100
AcDbLine
 10
1070.662719207693
 20
1737.173853638671
 30
0.0
 11
1070.661239438084
 21
1737.173446134624
 31
0.0
  0
LINE
  5
98D
330
23
100
AcDbEntity
  8
SANINDUSA
100
AcDbLine
 10
1070.661257708337
 20
1737.858191999326
 30
0.0
 11
1070.662721315846
 21
1737.857787511502
 31
0.0
  0
CIRCLE
  5
9AD
330
23
100
AcDbEntity
  8
SANINDUSA
100
AcDbCircle
 10
1070.776435548453
 20
1737.235820804311
 30
0.0
 40
0.0107492777019512
  0
CIRCLE
  5
9AF
330
23
100
AcDbEntity
  8
SANINDUSA
100
AcDbCircle
 10
1070.776431886378
 20
1737.795825370081
 30
0.0
 40
0.0107493336961261
  0
CIRCLE
  5
9B1
330
23
100
AcDbEntity
  8
SANINDUSA
100
AcDbCircle
 10
1070.776428985612
 20
1737.315810153454
 30
0.0
 40
0.0107497312383957
  0
CIRCLE
  5
9B3
330
23
100
AcDbEntity
  8
SANINDUSA
100
AcDbCircle
 10
1070.776424398682
 20
1737.715834674293
 30
0.0
 40
0.0107493114400027
  0
CIRCLE
  5
9B5
330
23
100
AcDbEntity
  8
SANINDUSA
100
AcDbCircle
 10
1070.776412922713
 20
1737.395806085305
 30
0.0
 40
0.010750535544196
  0
CIRCLE
  5
9B7
330
23
100
AcDbEntity
  8
SANINDUSA
100
AcDbCircle
 10
1070.776409110298
 20
1737.635837017673
 30
0.0
 40
0.0107498777188437
  0
CIRCLE
  5
9B9
330
23
100
AcDbEntity
  8
SANINDUSA
100
AcDbCircle
 10
1070.856426154841
 20
1737.235821893983
 30
0.0
 40
0.0107490284751039
  0
CIRCLE
  5
9BD
330
23
100
AcDbEntity
  8
SANINDUSA
100
AcDbCircle
 10
1070.856422130871
 20
1737.795824743454
 30
0.0
 40
0.010749058934983
  0
CIRCLE
  5
9BF
330
23
100
AcDbEntity
  8
SANINDUSA
100
AcDbCircle
 10
1070.776397857547
 20
1737.475813590506
 30
0.0
 40
0.0107511164939949
  0
CIRCLE
  5
9C1
330
23
100
AcDbEntity
  8
SANINDUSA
100
AcDbCircle
 10
1070.856419847028
 20
1737.315808012332
 30
0.0
 40
0.0107494952506367
  0
CIRCLE
  5
9C4
330
23
100
AcDbEntity
  8
SANINDUSA
100
AcDbCircle
 10
1070.776396385714
 20
1737.555828162456
 30
0.0
 40
0.0107507704368149
  0
CIRCLE
  5
9C7
330
23
100
AcDbEntity
  8
SANINDUSA
100
AcDbCircle
 10
1070.856414733992
 20
1737.715836813103
 30
0.0
 40
0.0107490054761974
  0
CIRCLE
  5
9F6
330
23
100
AcDbEntity
  8
SANINDUSA
100
AcDbCircle
 10
1070.856400812649
 20
1737.395801219959
 30
0.0
 40
0.0107505890241572
  0
CIRCLE
  5
9F8
330
23
100
AcDbEntity
  8
SANINDUSA
100
AcDbCircle
 10
1070.936414396922
 20
1737.235823771223
 30
0.0
 40
0.0107486699831988
  0
CIRCLE
  5
9FA
330
23
100
AcDbEntity
  8
SANINDUSA
100
AcDbCircle
 10
1070.856396333697
 20
1737.635841197178
 30
0.0
 40
0.0107498227262608
  0
CIRCLE
  5
9FC
330
23
100
AcDbEntity
  8
SANINDUSA
100
AcDbCircle
 10
1070.93641059301
 20
1737.795823408726
 30
0.0
 40
0.0107488975954795
  0
CIRCLE
  5
9FE
330
23
100
AcDbEntity
  8
SANINDUSA
100
AcDbCircle
 10
1070.936409185514
 20
1737.315807156286
 30
0.0
 40
0.0107490535484391
  0
CIRCLE
  5
A00
330
23
100
AcDbEntity
  8
SANINDUSA
100
AcDbCircle
 10
1070.936403806024
 20
1737.715837889237
 30
0.0
 40
0.0107487705958742
  0
CIRCLE
  5
A02
330
23
100
AcDbEntity
  8
SANINDUSA
100
AcDbCircle
 10
1070.856381324716
 20
1737.475810719948
 30
0.0
 40
0.0107514798137096
  0
CIRCLE
  5
A04
330
23
100
AcDbEntity
  8
SANINDUSA
100
AcDbCircle
 10
1070.856379491245
 20
1737.555830512071
 30
0.0
 40
0.0107511080130088
  0
CIRCLE
  5
A06
330
23
100
AcDbEntity
  8
SANINDUSA
100
AcDbCircle
 10
1070.936388634783
 20
1737.395797042773
 30
0.0
 40
0.0107503524566627
  0
CIRCLE
  5
A08
330
23
100
AcDbEntity
  8
SANINDUSA
100
AcDbCircle
 10
1071.016397477452
 20
1737.23582429515
 30
0.0
 40
0.0107485854228975
  0
CIRCLE
  5
A0A
330
23
100
AcDbEntity
  8
SANINDUSA
100
AcDbCircle
 10
1070.936383602765
 20
1737.635845486536
 30
0.0
 40
0.0107496624667642
  0
CIRCLE
  5
A0C
330
23
100
AcDbEntity
  8
SANINDUSA
100
AcDbCircle
 10
1071.016394531722
 20
1737.795823149802
 30
0.0
 40
0.0107487297346805
  0
CIRCLE
  5
A0E
330
23
100
AcDbEntity
  8
SANINDUSA
100
AcDbCircle
 10
1071.016393466071
 20
1737.315808117007
 30
0.0
 40
0.0107485437300579
  0
CIRCLE
  5
A10
330
23
100
AcDbEntity
  8
SANINDUSA
100
AcDbCircle
 10
1071.01638881294
 20
1737.715837969596
 30
0.0
 40
0.0107483689577302
  0
CIRCLE
  5
A12
330
23
100
AcDbEntity
  8
SANINDUSA
100
AcDbCircle
 10
1070.936364737515
 20
1737.475807221142
 30
0.0
 40
0.0107519571375721
  0
CIRCLE
  5
A14
330
23
100
AcDbEntity
  8
SANINDUSA
100
AcDbCircle
 10
1070.936362694786
 20
1737.555833253267
 30
0.0
 40
0.0107514965821997
  0
CIRCLE
  5
A16
330
23
100
AcDbEntity
  8
SANINDUSA
100
AcDbCircle
 10
1071.016374462826
 20
1737.395794528649
 30
0.0
 40
0.0107499044360368
  0
CIRCLE
  5
A18
330
23
100
AcDbEntity
  8
SANINDUSA
100
AcDbCircle
 10
1071.016369567742
 20
1737.635848421818
 30
0.0
 40
0.0107493159842233
  0
CIRCLE
  5
A1A
330
23
100
AcDbEntity
  8
SANINDUSA
100
AcDbCircle
 10
1071.096373226938
 20
1737.235821714299
 30
0.0
 40
0.0107490370414218
  0
CIRCLE
  5
A1C
330
23
100
AcDbEntity
  8
SANINDUSA
100
AcDbCircle
 10
1071.096371447063
 20
1737.795825312956
 30
0.0
 40
0.010748790416618
  0
CIRCLE
  5
A1E
330
23
100
AcDbEntity
  8
SANINDUSA
100
AcDbCircle
 10
1071.096369379116
 20
1737.315810944934
 30
0.0
 40
0.0107482356489224
  0
CIRCLE
  5
A20
330
23
100
AcDbEntity
  8
SANINDUSA
100
AcDbCircle
 10
1071.096366262942
 20
1737.715835448612
 30
0.0
 40
0.0107483120048296
  0
CIRCLE
  5
A22
330
23
100
AcDbEntity
  8
SANINDUSA
100
AcDbCircle
 10
1071.016348148998
 20
1737.475803775124
 30
0.0
 40
0.0107523165460711
  0
CIRCLE
  5
A24
330
23
100
AcDbEntity
  8
SANINDUSA
100
AcDbCircle
 10
1071.016345895655
 20
1737.55583658356
 30
0.0
 40
0.0107517687258242
  0
CIRCLE
  5
A26
330
23
100
AcDbEntity
  8
SANINDUSA
100
AcDbCircle
 10
1071.096355484092
 20
1737.395795773818
 30
0.0
 40
0.0107492562513427
  0
CIRCLE
  5
A28
330
23
100
AcDbEntity
  8
SANINDUSA
100
AcDbCircle
 10
1071.096351864345
 20
1737.635847919841
 30
0.0
 40
0.0107489421555262
  0
CIRCLE
  5
A2A
330
23
100
AcDbEntity
  8
SANINDUSA
100
AcDbCircle
 10
1071.176343916798
 20
1737.23581591217
 30
0.0
 40
0.0107499587998077
  0
CIRCLE
  5
A2C
330
23
100
AcDbEntity
  8
SANINDUSA
100
AcDbCircle
 10
1071.17634393411
 20
1737.795830755553
 30
0.0
 40
0.0107494052739955
  0
CIRCLE
  5
A2E
330
23
100
AcDbEntity
  8
SANINDUSA
100
AcDbCircle
 10
1071.176339022973
 20
1737.315814355892
 30
0.0
 40
0.0107485939776583
  0
CIRCLE
  5
A30
330
23
100
AcDbEntity
  8
SANINDUSA
100
AcDbCircle
 10
1071.176337789527
 20
1737.715830782846
 30
0.0
 40
0.010748814140817
  0
CIRCLE
  5
A32
330
23
100
AcDbEntity
  8
SANINDUSA
100
AcDbCircle
 10
1071.096331078395
 20
1737.475801673181
 30
0.0
 40
0.0107523830563614
  0
CIRCLE
  5
A34
330
23
100
AcDbEntity
  8
SANINDUSA
100
AcDbCircle
 10
1071.096329098628
 20
1737.555838566349
 30
0.0
 40
0.0107519788760311
  0
CIRCLE
  5
A36
330
23
100
AcDbEntity
  8
SANINDUSA
100
AcDbCircle
 10
1071.17633094861
 20
1737.395800030762
 30
0.0
 40
0.0107488601858077
  0
CIRCLE
  5
A38
330
23
100
AcDbEntity
  8
SANINDUSA
100
AcDbCircle
 10
1071.176330570139
 20
1737.635844564449
 30
0.0
 40
0.0107485234505344
  0
CIRCLE
  5
A3A
330
23
100
AcDbEntity
  8
SANINDUSA
100
AcDbCircle
 10
1071.176312370692
 20
1737.47580441436
 30
0.0
 40
0.0107517024141978
  0
CIRCLE
  5
A3C
330
23
100
AcDbEntity
  8
SANINDUSA
100
AcDbCircle
 10
1071.17631170074
 20
1737.555837172007
 30
0.0
 40
0.0107517764058378
  0
CIRCLE
  5
A3D
330
23
100
AcDbEntity
  8
SANINDUSA
100
AcDbCircle
 10
1071.324755327142
 20
1737.515830337095
 30
0.0
 40
0.0739853216935144
  0
CIRCLE
  5
A3F
330
23
100
AcDbEntity
  8
SANINDUSA
100
AcDbCircle
 10
1071.324726085682
 20
1737.515822086274
 30
0.0
 40
0.05
  0
ARC
  5
A46
330
23
100
AcDbEntity
  8
SANINDUSA
100
AcDbCircle
 10
1071.966757799454
 20
1737.494605874398
 30
0.0
 40
0.0209002065365297
100
AcDbArc
 50
181.793417962479
 51
269.7282411462823
  0
ARC
  5
A47
330
23
100
AcDbEntity
  8
SANINDUSA
100
AcDbCircle
 10
1072.687167497409
 20
1737.494609052509
 30
0.0
 40
0.0209004073229286
100
AcDbArc
 50
270.2818626328869
 51
358.2709564172759
  0
LINE
  5
A48
330
23
100
AcDbEntity
  8
SANINDUSA
100
AcDbLine
 10
1072.250749053175
 20
1737.472110398374
 30
0.0
 11
1072.264092364423
 21
1737.462767303196
 31
0.0
  0
LINE
  5
A49
330
23
100
AcDbEntity
  8
SANINDUSA
100
AcDbLine
 10
1072.389832902667
 20
1737.462767303196
 30
0.0
 11
1072.403147311622
 21
1737.472090170047
 31
0.0
  0
LINE
  5
A4A
330
23
100
AcDbEntity
  8
SANINDUSA
100
AcDbLine
 10
1072.264092364423
 20
1737.462767303196
 30
0.0
 11
1072.275266865282
 21
1737.450784118124
 31
0.0
  0
LINE
  5
A4B
330
23
100
AcDbEntity
  8
SANINDUSA
100
AcDbLine
 10
1072.378658401807
 20
1737.450784118124
 30
0.0
 11
1072.389832902667
 21
1737.462767303196
 31
0.0
  0
LINE
  5
A4D
330
23
100
AcDbEntity
  8
SANINDUSA
100
AcDbLine
 10
1072.777082686551
 20
1737.56747245814
 30
0.0
 11
1072.777660818512
 21
1737.534350291155
 31
0.0
  0
LINE
  5
A4F
330
23
100
AcDbEntity
  8
SANINDUSA
100
AcDbLine
 10
1072.772661598141
 20
1737.534350291155
 30
0.0
 11
1072.777660818512
 21
1737.534350291155
 31
0.0
  0
LINE
  5
A52
330
23
100
AcDbEntity
  8
SANINDUSA
100
AcDbLine
 10
1071.876264430964
 20
1737.534350291155
 30
0.0
 11
1071.876842580522
 21
1737.567472457214
 31
0.0
  0
LINE
  5
A53
330
23
100
AcDbEntity
  8
SANINDUSA
100
AcDbLine
 10
1071.876264430964
 20
1737.534350291155
 30
0.0
 11
1071.881263669322
 21
1737.534350291155
 31
0.0
  0
LINE
  5
A55
330
23
100
AcDbEntity
  8
SANINDUSA
100
AcDbLine
 10
1071.881263669322
 20
1737.534350291155
 30
0.0
 11
1072.772661598141
 21
1737.534350291155
 31
0.0
  0
LINE
  5
A57
330
23
100
AcDbEntity
  8
SANINDUSA
100
AcDbLine
 10
1071.883841514329
 20
1737.574350290261
 30
0.0
 11
1072.770083756859
 21
1737.574350290261
 31
0.0
  0
ARC
  5
A59
330
23
100
AcDbEntity
  8
SANINDUSA
100
AcDbCircle
 10
1071.883841514386
 20
1737.567350290261
 30
0.0
 40
0.0070000000000002
100
AcDbArc
 50
90.0
 51
179.0000000030781
  0
ARC
  5
A5A
330
23
100
AcDbEntity
  8
SANINDUSA
100
AcDbCircle
 10
1072.770083752703
 20
1737.567350290261
 30
0.0
 40
0.0070000000000002
100
AcDbArc
 50
0.9999999969218754
 51
90.0
  0
LINE
  5
A60
330
23
100
AcDbEntity
  8
SANINDUSA
100
AcDbLine
 10
1071.944457085544
 20
1737.534350291155
 30
0.0
 11
1071.945763020815
 21
1737.496953241695
 31
0.0
  0
LINE
  5
A61
330
23
100
AcDbEntity
  8
SANINDUSA
100
AcDbLine
 10
1072.708162334047
 20
1737.49695575517
 30
0.0
 11
1072.709468157703
 21
1737.534350291155
 31
0.0
  0
LWPOLYLINE
  5
A6E
330
23
100
AcDbEntity
  8
SANINDUSA
100
AcDbPolyline
 90
        4
 70
   128
 43
0.0
 10
1071.945763023312
 20
1737.496953241787
 10
1071.945830488319
 20
1737.495021313689
 10
1071.945863553995
 20
1737.494074449204
 10
1071.945867830629
 20
1737.493951782844
  0
LWPOLYLINE
  5
A6F
330
23
100
AcDbEntity
  8
SANINDUSA
100
AcDbPolyline
 90
        4
 70
   128
 43
0.0
 10
1072.708058388645
 20
1737.493978426121
 10
1072.708062322552
 20
1737.494092606268
 10
1072.708095045501
 20
1737.495028019212
 10
1072.708162339146
 20
1737.496955752633
  0
LINE
  5
A73
330
23
100
AcDbEntity
  8
SANINDUSA
100
AcDbLine
 10
1072.275266865282
 20
1737.450784118124
 30
0.0
 11
1072.378658401807
 21
1737.450784118124
 31
0.0
  0
LWPOLYLINE
  5
ADF
330
23
100
AcDbEntity
  8
SANINDUSA
100
AcDbPolyline
 90
        3
 70
   128
 43
0.0
 10
1075.484369981601
 20
1737.476047180853
 10
1075.485552835777
 20
1737.475842349492
 10
1075.48658089669
 20
1737.4753246608
  0
LWPOLYLINE
  5
AE0
330
23
100
AcDbEntity
  8
SANINDUSA
100
AcDbPolyline
 90
       30
 70
   128
 43
0.0
 10
1075.484369981601
 20
1737.476047180853
 10
1075.484884965732
 20
1737.476047031841
 10
1075.486358332946
 20
1737.476046480499
 10
1075.4887689832
 20
1737.47604534056
 10
1075.49207274945
 20
1737.476043626926
 10
1075.496247399166
 20
1737.47604174938
 10
1075.501243639305
 20
1737.476040035747
 10
1075.50696795018
 20
1737.476038441322
 10
1075.513384747817
 20
1737.476036943755
 10
1075.520416724994
 20
1737.476035520695
 10
1075.52793132098
 20
1737.476034142337
 10
1075.535862851455
 20
1737.476032845936
 10
1075.544130671337
 20
1737.476031579338
 10
1075.552579391315
 20
1737.476030208431
 10
1075.559407580211
 20
1737.476028926931
 10
1075.566259134128
 20
1737.476027600727
 10
1075.573051441028
 20
1737.476026542745
 10
1075.579963553264
 20
1737.476025909446
 10
1075.586723792865
 20
1737.476025864742
 10
1075.593245017841
 20
1737.476026624701
 10
1075.600767004802
 20
1737.476028710864
 10
1075.607804048374
 20
1737.476031705998
 10
1075.614223230197
 20
1737.476035319529
 10
1075.619950521305
 20
1737.47603930559
 10
1075.62494646342
 20
1737.476043068133
 10
1075.629118311717
 20
1737.476045742891
 10
1075.632412779643
 20
1737.476045452319
 10
1075.634820449665
 20
1737.476041659973
 10
1075.636294114902
 20
1737.476035416386
 10
1075.636806953266
 20
1737.476029977463
  0
LWPOLYLINE
  5
AE1
330
23
100
AcDbEntity
  8
SANINDUSA
100
AcDbPolyline
 90
        3
 70
   128
 43
0.0
 10
1075.634564745739
 20
1737.475306928418
 10
1075.635640490367
 20
1737.475840181372
 10
1075.636806953266
 20
1737.476029977463
  0
ARC
  5
AE3
330
23
100
AcDbEntity
  8
SANINDUSA
100
AcDbCircle
 10
1075.484286611771
 20
1737.472048050458
 30
0.0
 40
0.0001000000014608
100
AcDbArc
 50
54.99999999392633
 51
88.80534931290787
  0
LWPOLYLINE
  5
AE5
330
23
100
AcDbEntity
  8
SANINDUSA
100
AcDbPolyline
 90
        3
 70
   128
 43
0.0
 10
1075.484288680866
 20
1737.472148031256
 10
1075.103483605697
 20
1737.480124779306
 10
1074.92217384608
 20
1737.483922682963
  0
LWPOLYLINE
  5
AE6
330
23
100
AcDbEntity
  8
SANINDUSA
100
AcDbPolyline
 90
        3
 70
   128
 43
0.0
 10
1075.65490447314
 20
1737.474043436609
 10
1075.64596437247
 20
1737.472672507427
 10
1075.636857736423
 20
1737.472130313776
  0
LINE
  5
AE7
330
23
100
AcDbEntity
  8
SANINDUSA
100
AcDbLine
 10
1075.484343969414
 20
1737.472129965662
 30
0.0
 11
1075.497715223148
 21
1737.46276730325
 31
0.0
  0
LINE
  5
AE8
330
23
100
AcDbEntity
  8
SANINDUSA
100
AcDbLine
 10
1075.623455751255
 20
1737.46276730325
 30
0.0
 11
1075.636801722937
 21
1737.472112236269
 31
0.0
  0
LINE
  5
AE9
330
23
100
AcDbEntity
  8
SANINDUSA
100
AcDbLine
 10
1075.48658089669
 20
1737.4753246608
 30
0.0
 11
1075.500287961016
 21
1737.465726883449
 31
0.0
  0
LINE
  5
AEA
330
23
100
AcDbEntity
  8
SANINDUSA
100
AcDbLine
 10
1075.620883051533
 20
1737.465726883449
 30
0.0
 11
1075.634564745739
 21
1737.475306928418
 31
0.0
  0
LWPOLYLINE
  5
AEC
330
23
100
AcDbEntity
  8
SANINDUSA
100
AcDbPolyline
 90
        3
 70
   128
 43
0.0
 10
1075.484369981601
 20
1737.476047180853
 10
1075.073961842373
 20
1737.484643884263
 10
1074.922255534232
 20
1737.487821825109
  0
LWPOLYLINE
  5
AF6
330
23
100
AcDbEntity
  8
SANINDUSA
100
AcDbPolyline
 90
        3
 70
   128
 43
0.0
 10
1075.654136288479
 20
1737.477867037318
 10
1075.645551550701
 20
1737.476550594232
 10
1075.636806953266
 20
1737.476029977463
  0
LINE
  5
B3F
330
23
100
AcDbEntity
  8
SANINDUSA
100
AcDbLine
 10
1075.7407055591
 20
1737.567472468494
 30
0.0
 11
1075.741283762767
 21
1737.534350291155
 31
0.0
  0
LINE
  5
B40
330
23
100
AcDbEntity
  8
SANINDUSA
100
AcDbLine
 10
1075.741283762767
 20
1737.534350291155
 30
0.0
 11
1075.737383115604
 21
1737.534350291155
 31
0.0
  0
LINE
  5
B41
330
23
100
AcDbEntity
  8
SANINDUSA
100
AcDbLine
 10
1075.736806153288
 20
1737.56740439272
 30
0.0
 11
1075.737383115604
 21
1737.534350291155
 31
0.0
  0
ARC
  5
B42
330
23
100
AcDbEntity
  8
SANINDUSA
100
AcDbCircle
 10
1075.733706625433
 20
1737.567350290261
 30
0.0
 40
0.0030999999999999
100
AcDbArc
 50
0.9999999969218754
 51
90.0
  0
LINE
  5
B43
330
23
100
AcDbEntity
  8
SANINDUSA
100
AcDbLine
 10
1075.677345336437
 20
1737.570450290261
 30
0.0
 11
1075.733706625433
 21
1737.570450290261
 31
0.0
  0
ARC
  5
B44
330
23
100
AcDbEntity
  8
SANINDUSA
100
AcDbCircle
 10
1075.677345336437
 20
1737.567350290261
 30
0.0
 40
0.0031000000000001
100
AcDbArc
 50
90.0
 51
177.9999999962464
  0
LINE
  5
B45
330
23
100
AcDbEntity
  8
SANINDUSA
100
AcDbLine
 10
1075.671675193622
 20
1737.493804618976
 30
0.0
 11
1075.674247224873
 21
1737.5674584787
 31
0.0
  0
ARC
  5
B46
330
23
100
AcDbEntity
  8
SANINDUSA
100
AcDbCircle
 10
1075.650787846436
 20
1737.494534087688
 30
0.0
 40
0.0209000812697807
100
AcDbArc
 50
281.3596543347805
 51
357.9998178773204
  0
LINE
  5
B47
330
23
100
AcDbEntity
  8
SANINDUSA
100
AcDbLine
 10
1075.612281310871
 20
1737.450784117244
 30
0.0
 11
1075.623455751255
 21
1737.46276730325
 31
0.0
  0
LINE
  5
B48
330
23
100
AcDbEntity
  8
SANINDUSA
100
AcDbLine
 10
1075.508889723137
 20
1737.450784117244
 30
0.0
 11
1075.612281310871
 21
1737.450784117244
 31
0.0
  0
LINE
  5
B49
330
23
100
AcDbEntity
  8
SANINDUSA
100
AcDbLine
 10
1075.497715223148
 20
1737.46276730325
 30
0.0
 11
1075.508889723137
 21
1737.450784117244
 31
0.0
  0
ARC
  5
B4A
330
23
100
AcDbEntity
  8
SANINDUSA
100
AcDbCircle
 10
1074.922616252623
 20
1737.504823056257
 30
0.0
 40
0.0209050550675193
100
AcDbArc
 50
183.6108883481934
 51
268.7873784512873
  0
ARC
  5
B4B
330
23
100
AcDbEntity
  8
SANINDUSA
100
AcDbCircle
 10
1074.898658813627
 20
1737.503311902356
 30
0.0
 40
0.0030999959126841
100
AcDbArc
 50
3.598136898863489
 51
88.99989945430478
  0
LINE
  5
B4C
330
23
100
AcDbEntity
  8
SANINDUSA
100
AcDbLine
 10
1074.898712921455
 20
1737.50641142603
 30
0.0
 11
1074.649165622841
 21
1737.510767290394
 31
0.0
  0
ARC
  5
B4D
330
23
100
AcDbEntity
  8
SANINDUSA
100
AcDbCircle
 10
1074.649111520381
 20
1737.507667762539
 30
0.0
 40
0.0031000000000004
100
AcDbArc
 50
89.00000000307812
 51
154.6842608275599
  0
ARC
  5
B4E
330
23
100
AcDbEntity
  8
SANINDUSA
100
AcDbCircle
 10
1074.633744113338
 20
1737.514937067922
 30
0.0
 40
0.0138999999999999
100
AcDbArc
 50
269.0000000030781
 51
334.6842608275599
  0
LINE
  5
B4F
330
23
100
AcDbEntity
  8
SANINDUSA
100
AcDbLine
 10
1074.629058752729
 20
1737.501116733836
 30
0.0
 11
1074.633501524888
 21
1737.50103918496
 31
0.0
  0
ARC
  5
B50
330
23
100
AcDbEntity
  8
SANINDUSA
100
AcDbCircle
 10
1074.629423508024
 20
1737.522013550665
 30
0.0
 40
0.0209000000000002
100
AcDbArc
 50
182.0000000037536
 51
269.0000000030781
  0
ARC
  5
B52
330
23
100
AcDbEntity
  8
SANINDUSA
100
AcDbCircle
 10
1074.603825685127
 20
1737.567350290261
 30
0.0
 40
0.0031000000000001
100
AcDbArc
 50
2.000000003753602
 51
90.0
  0
LINE
  5
B53
330
23
100
AcDbEntity
  8
SANINDUSA
100
AcDbLine
 10
1074.547464387117
 20
1737.570450290261
 30
0.0
 11
1074.603825685127
 21
1737.570450290261
 31
0.0
  0
ARC
  5
B54
330
23
100
AcDbEntity
  8
SANINDUSA
100
AcDbCircle
 10
1074.547464387117
 20
1737.567350290261
 30
0.0
 40
0.0031000000000001
100
AcDbArc
 50
90.0
 51
179.0000000030781
  0
LINE
  5
B55
330
23
100
AcDbEntity
  8
SANINDUSA
100
AcDbLine
 10
1074.54378789783
 20
1737.534350291155
 30
0.0
 11
1074.544364859262
 21
1737.56740439272
 31
0.0
  0
LINE
  5
B56
330
23
100
AcDbEntity
  8
SANINDUSA
100
AcDbLine
 10
1074.54378789783
 20
1737.534350291155
 30
0.0
 11
1074.539887303694
 21
1737.534350291155
 31
0.0
  0
LINE
  5
B57
330
23
100
AcDbEntity
  8
SANINDUSA
100
AcDbLine
 10
1074.539887303694
 20
1737.534350291155
 30
0.0
 11
1074.54046545325
 21
1737.567472457105
 31
0.0
  0
ARC
  5
B58
330
23
100
AcDbEntity
  8
SANINDUSA
100
AcDbCircle
 10
1074.547464387117
 20
1737.567350290261
 30
0.0
 40
0.0069999999999999
100
AcDbArc
 50
90.0
 51
179.0000000030781
  0
LINE
  5
B59
330
23
100
AcDbEntity
  8
SANINDUSA
100
AcDbLine
 10
1074.547464387117
 20
1737.574350290261
 30
0.0
 11
1074.603825685127
 21
1737.574350290261
 31
0.0
  0
ARC
  5
B5A
330
23
100
AcDbEntity
  8
SANINDUSA
100
AcDbCircle
 10
1074.603825685127
 20
1737.567350290261
 30
0.0
 40
0.0069999999999999
100
AcDbArc
 50
2.000000003753602
 51
90.0
  0
LINE
  5
B5B
330
23
100
AcDbEntity
  8
SANINDUSA
100
AcDbLine
 10
1074.610821419974
 20
1737.567594613731
 30
0.0
 11
1074.612433863964
 21
1737.521420259221
 31
0.0
  0
ARC
  5
B5C
330
23
100
AcDbEntity
  8
SANINDUSA
100
AcDbCircle
 10
1074.629423508024
 20
1737.522013550665
 30
0.0
 40
0.0170000000000003
100
AcDbArc
 50
182.0000000037536
 51
269.0000000030781
  0
LINE
  5
B5D
330
23
100
AcDbEntity
  8
SANINDUSA
100
AcDbLine
 10
1074.629126817114
 20
1737.505016139848
 30
0.0
 11
1074.633569589273
 21
1737.504938590971
 31
0.0
  0
ARC
  5
B5E
330
23
100
AcDbEntity
  8
SANINDUSA
100
AcDbCircle
 10
1074.633744113338
 20
1737.514937067922
 30
0.0
 40
0.01
100
AcDbArc
 50
269.0000000030781
 51
334.6842608275599
  0
ARC
  5
B5F
330
23
100
AcDbEntity
  8
SANINDUSA
100
AcDbCircle
 10
1074.649111520381
 20
1737.507667762539
 30
0.0
 40
0.007
100
AcDbArc
 50
89.00000000307812
 51
154.6842608275599
  0
LINE
  5
B60
330
23
100
AcDbEntity
  8
SANINDUSA
100
AcDbLine
 10
1074.898781007266
 20
1737.510310828644
 30
0.0
 11
1074.649233687313
 21
1737.514666696403
 31
0.0
  0
ARC
  5
B61
330
23
100
AcDbEntity
  8
SANINDUSA
100
AcDbCircle
 10
1074.898658840525
 20
1737.503311905683
 30
0.0
 40
0.0069999890942758
100
AcDbArc
 50
3.59813414402239
 51
89.00014096966776
  0
ARC
  5
B62
330
23
100
AcDbEntity
  8
SANINDUSA
100
AcDbCircle
 10
1074.922615344907
 20
1737.504822085728
 30
0.0
 40
0.0170040678910316
100
AcDbArc
 50
183.610737528546
 51
268.7875153626015
  0
LINE
  5
B63
330
23
100
AcDbEntity
  8
SANINDUSA
100
AcDbLine
 10
1075.500287961016
 20
1737.465726883449
 30
0.0
 11
1075.510585534885
 21
1737.454684116207
 31
0.0
  0
LINE
  5
B64
330
23
100
AcDbEntity
  8
SANINDUSA
100
AcDbLine
 10
1075.510585534885
 20
1737.454684116207
 30
0.0
 11
1075.610585558727
 21
1737.454684116207
 31
0.0
  0
LINE
  5
B65
330
23
100
AcDbEntity
  8
SANINDUSA
100
AcDbLine
 10
1075.610585558727
 20
1737.454684116207
 30
0.0
 11
1075.620883051533
 21
1737.465726883449
 31
0.0
  0
ARC
  5
B66
330
23
100
AcDbEntity
  8
SANINDUSA
100
AcDbCircle
 10
1075.650788017052
 20
1737.494533901859
 30
0.0
 40
0.0169998616216781
100
AcDbArc
 50
281.3591708428356
 51
358.0003741278079
  0
LINE
  5
B67
330
23
100
AcDbEntity
  8
SANINDUSA
100
AcDbLine
 10
1075.667777518506
 20
1737.493940491809
 30
0.0
 11
1075.670349600729
 21
1737.567594589059
 31
0.0
  0
ARC
  5
B68
330
23
100
AcDbEntity
  8
SANINDUSA
100
AcDbCircle
 10
1075.677345336437
 20
1737.567350290261
 30
0.0
 40
0.007
100
AcDbArc
 50
90.0
 51
177.9999999962464
  0
LINE
  5
B69
330
23
100
AcDbEntity
  8
SANINDUSA
100
AcDbLine
 10
1075.677345336437
 20
1737.574350290261
 30
0.0
 11
1075.733706625433
 21
1737.574350290261
 31
0.0
  0
ARC
  5
B6A
330
23
100
AcDbEntity
  8
SANINDUSA
100
AcDbCircle
 10
1075.733706625433
 20
1737.567350290261
 30
0.0
 40
0.0069999999999999
100
AcDbArc
 50
0.9999999969218754
 51
90.0
  0
LINE
  5
B6C
330
23
100
AcDbEntity
  8
SANINDUSA
100
AcDbLine
 10
1074.608536239739
 20
1737.521284151184
 30
0.0
 11
1074.606923796691
 21
1737.5674584787
 31
0.0
  0
LWPOLYLINE
  5
B9A
330
23
100
AcDbEntity
  8
SANINDUSA
100
AcDbPolyline
 90
       12
 70
   128
 43
0.0
 10
1074.633501525536
 20
1737.50103918489
 10
1074.633705067947
 20
1737.501035630963
 10
1074.634311545207
 20
1737.501025043688
 10
1074.635308611705
 20
1737.501007639132
 10
1074.636675972059
 20
1737.500983774922
 10
1074.638385790899
 20
1737.500953927896
 10
1074.640403259113
 20
1737.500918716452
 10
1074.642687309101
 20
1737.500878848396
 10
1074.645191441789
 20
1737.500835135839
 10
1074.647864687755
 20
1737.500788472853
 10
1074.650652613058
 20
1737.500739813111
 10
1074.653498481526
 20
1737.50069014009
  0
ARC
  5
B9F
330
23
100
AcDbEntity
  8
SANINDUSA
100
AcDbCircle
 10
1074.922263207583
 20
1737.535726543546
 30
0.0
 40
0.0505477561498791
100
AcDbArc
 50
238.1089302649192
 51
260.9941588285614
  0
LINE
  5
BA5
330
23
100
AcDbEntity
  8
SANINDUSA
100
AcDbLine
 10
1074.893715699102
 20
1737.493845499056
 30
0.0
 11
1074.895558534478
 21
1737.492808769664
 31
0.0
  0
LWPOLYLINE
  5
BA6
330
23
100
AcDbEntity
  8
SANINDUSA
100
AcDbPolyline
 90
        3
 70
   128
 43
0.0
 10
1074.882301795795
 20
1737.496696360669
 10
1074.88658897908
 20
1737.496265813969
 10
1074.890863198354
 20
1737.495093286298
  0
LINE
  5
BA8
330
23
100
AcDbEntity
  8
SANINDUSA
100
AcDbLine
 10
1074.890863210203
 20
1737.49509328796
 30
0.0
 11
1074.893715699102
 21
1737.493845499056
 31
0.0
  0
LINE
  5
BA9
330
23
100
AcDbEntity
  8
SANINDUSA
100
AcDbLine
 10
1074.653498478791
 20
1737.500690136831
 30
0.0
 11
1074.88230180477
 21
1737.49669635992
 31
0.0
  0
LINE
  5
BB7
330
23
100
AcDbEntity
  8
SANINDUSA
100
AcDbLine
 10
1074.603825685127
 20
1737.574350290261
 30
0.0
 11
1074.630809237334
 21
1737.574350290261
 31
0.0
  0
LINE
  5
BB9
330
23
100
AcDbEntity
  8
SANINDUSA
100
AcDbLine
 10
1075.650361784108
 20
1737.574350290261
 30
0.0
 11
1075.677345336437
 21
1737.574350290261
 31
0.0
  0
LINE
  5
BBA
330
23
100
AcDbEntity
  8
SANINDUSA
100
AcDbLine
 10
1074.630809237334
 20
1737.574350290261
 30
0.0
 11
1075.650361784108
 21
1737.574350290261
 31
0.0
  0
LINE
  5
BC0
330
23
100
AcDbEntity
  8
SANINDUSA
100
AcDbLine
 10
1075.737383115604
 20
1737.534350291155
 30
0.0
 11
1075.736283290699
 21
1737.534350291155
 31
0.0
  0
LINE
  5
BC2
330
23
100
AcDbEntity
  8
SANINDUSA
100
AcDbLine
 10
1074.544887730419
 20
1737.534350291155
 30
0.0
 11
1074.54378789783
 21
1737.534350291155
 31
0.0
  0
LINE
  5
BC3
330
23
100
AcDbEntity
  8
SANINDUSA
100
AcDbLine
 10
1075.736283290699
 20
1737.534350291155
 30
0.0
 11
1075.673091042354
 21
1737.534350291155
 31
0.0
  0
LINE
  5
BC4
330
23
100
AcDbEntity
  8
SANINDUSA
100
AcDbLine
 10
1074.608079958274
 20
1737.534350291155
 30
0.0
 11
1074.544887730419
 21
1737.534350291155
 31
0.0
  0
LINE
  5
C14
330
23
100
AcDbEntity
  8
SANINDUSA
100
AcDbLine
 10
1070.309605271146
 20
1737.06570203325
 30
0.0
 11
1071.499846895909
 21
1737.065702037571
 31
0.0
  0
LINE
  5
C16
330
23
100
AcDbEntity
  8
SANINDUSA
100
AcDbLine
 10
1072.403147311622
 20
1737.472090170047
 30
0.0
 11
1072.687286748424
 21
1737.473708985253
 31
0.0
  0
LINE
  5
C17
330
23
100
AcDbEntity
  8
SANINDUSA
100
AcDbLine
 10
1072.250749053175
 20
1737.472110398374
 30
0.0
 11
1071.966658668334
 21
1737.473705902956
 31
0.0
  0
LINE
  5
C18
330
23
100
AcDbEntity
  8
SANINDUSA
100
AcDbLine
 10
1073.441025933587
 20
1737.483919993303
 30
0.0
 11
1074.003237715327
 21
1737.472100183628
 31
0.0
  0
LINE
  5
C19
330
23
100
AcDbEntity
  8
SANINDUSA
100
AcDbLine
 10
1074.155612161719
 20
1737.47208365824
 30
0.0
 11
1074.173701227907
 21
1737.474032563554
 31
0.0
  0
LINE
  5
750C
330
23
100
AcDbEntity
  8
SANINDUSA
100
AcDbLine
 10
1072.250749053175
 20
1737.472110398374
 30
0.0
 11
1072.403147311622
 21
1737.472090170047
 31
0.0
  0
LINE
  5
750D
330
23
100
AcDbEntity
  8
SANINDUSA
100
AcDbLine
 10
1074.003237715327
 20
1737.472100183628
 30
0.0
 11
1074.155612161719
 21
1737.47208365824
 31
0.0
  0
ENDSEC
  0
SECTION
  2
OBJECTS
  0
DICTIONARY
  5
C
330
0
100
AcDbDictionary
281
     1
  3
ACAD_COLOR
350
1C
  3
ACAD_GROUP
350
D
  3
ACAD_LAYOUT
350
1A
  3
ACAD_MATERIAL
350
1B
  3
ACAD_MLINESTYLE
350
17
  3
ACAD_PLOTSETTINGS
350
19
  3
ACAD_PLOTSTYLENAME
350
E
  3
ACAD_TABLESTYLE
350
1D
  3
ACDBHEADERROUNDTRIPXREC
350
7525
  3
AcDbVariableDictionary
350
750F
  0
DICTIONARY
  5
2FF
330
2
100
AcDbDictionary
280
     1
281
     1
  3
ACAD_LAYERSTATES
360
300
  0
DICTIONARY
  5
1C
102
{ACAD_REACTORS
330
C
102
}
330
C
100
AcDbDictionary
281
     1
  0
DICTIONARY
  5
D
102
{ACAD_REACTORS
330
C
102
}
330
C
100
AcDbDictionary
281
     1
  0
DICTIONARY
  5
1A
102
{ACAD_REACTORS
330
C
102
}
330
C
100
AcDbDictionary
281
     1
  3
Layout1
350
22
  3
Layout2
350
2A
  3
Model
350
26
  0
DICTIONARY
  5
1B
102
{ACAD_REACTORS
330
C
102
}
330
C
100
AcDbDictionary
281
     1
  0
DICTIONARY
  5
17
102
{ACAD_REACTORS
330
C
102
}
330
C
100
AcDbDictionary
281
     1
  3
Standard
350
18
  0
DICTIONARY
  5
19
102
{ACAD_REACTORS
330
C
102
}
330
C
100
AcDbDictionary
281
     1
  0
ACDBDICTIONARYWDFLT
  5
E
102
{ACAD_REACTORS
330
C
102
}
330
C
100
AcDbDictionary
281
     1
  3
Normal
350
F
100
AcDbDictionaryWithDefault
340
F
  0
DICTIONARY
  5
1D
102
{ACAD_REACTORS
330
C
102
}
330
C
100
AcDbDictionary
281
     1
  3
Standard
350
1E
  0
DICTIONARY
  5
7525
102
{ACAD_REACTORS
330
C
102
}
330
C
100
AcDbDictionary
281
     1
  0
DICTIONARY
  5
750F
102
{ACAD_REACTORS
330
C
102
}
330
C
100
AcDbDictionary
281
     1
  3
CTABLESTYLE
350
7510
  3
DIMASSOC
350
7522
  3
HIDETEXT
350
7521
  3
PROJECTNAME
350
7523
  0
DICTIONARY
  5
300
102
{ACAD_REACTORS
330
2FF
102
}
330
2FF
100
AcDbDictionary
281
     1
  0
LAYOUT
  5
22
102
{ACAD_XDICTIONARY
360
7526
102
}
102
{ACAD_REACTORS
330
1A
102
}
330
1A
100
AcDbPlotSettings
  1

  2
C:\Documents and Settings\Julio\Application Data\Autodesk\AutoCAD 2006\R16.2\enu\plotters\Default Windows System Printer.pc3
  4

  6

 40
0.0
 41
0.0
 42
0.0
 43
0.0
 44
0.0
 45
0.0
 46
0.0
 47
0.0
 48
0.0
 49
0.0
140
0.0
141
0.0
142
1.0
143
1.0
 70
   688
 72
     0
 73
     0
 74
     5
  7

 75
    16
147
1.0
148
0.0
149
0.0
100
AcDbLayout
  1
Layout1
 70
     1
 71
     1
 10
0.0
 20
0.0
 11
420.0
 21
297.0
 12
0.0
 22
0.0
 32
0.0
 14
1.000000000000000E+20
 24
1.000000000000000E+20
 34
1.000000000000000E+20
 15
-1.000000000000000E+20
 25
-1.000000000000000E+20
 35
-1.000000000000000E+20
146
0.0
 13
0.0
 23
0.0
 33
0.0
 16
1.0
 26
0.0
 36
0.0
 17
0.0
 27
1.0
 37
0.0
 76
     0
330
1F
  0
LAYOUT
  5
2A
102
{ACAD_XDICTIONARY
360
752A
102
}
102
{ACAD_REACTORS
330
1A
102
}
330
1A
100
AcDbPlotSettings
  1

  2
C:\Documents and Settings\Julio\Application Data\Autodesk\AutoCAD 2006\R16.2\enu\plotters\Default Windows System Printer.pc3
  4

  6

 40
0.0
 41
0.0
 42
0.0
 43
0.0
 44
0.0
 45
0.0
 46
0.0
 47
0.0
 48
0.0
 49
0.0
140
0.0
141
0.0
142
1.0
143
1.0
 70
   688
 72
     0
 73
     0
 74
     5
  7

 75
    16
147
1.0
148
0.0
149
0.0
100
AcDbLayout
  1
Layout2
 70
     1
 71
     2
 10
0.0
 20
0.0
 11
12.0
 21
9.0
 12
0.0
 22
0.0
 32
0.0
 14
0.0
 24
0.0
 34
0.0
 15
0.0
 25
0.0
 35
0.0
146
0.0
 13
0.0
 23
0.0
 33
0.0
 16
1.0
 26
0.0
 36
0.0
 17
0.0
 27
1.0
 37
0.0
 76
     0
330
27
  0
LAYOUT
  5
26
102
{ACAD_XDICTIONARY
360
7528
102
}
102
{ACAD_REACTORS
330
1A
102
}
330
1A
100
AcDbPlotSettings
  1

  2
C:\Documents and Settings\Julio\Application Data\Autodesk\AutoCAD 2006\R16.2\enu\plotters\Default Windows System Printer.pc3
  4

  6

 40
0.0
 41
0.0
 42
0.0
 43
0.0
 44
0.0
 45
0.0
 46
0.0
 47
0.0
 48
0.0
 49
0.0
140
0.0
141
0.0
142
1.0
143
1.0
 70
  1712
 72
     0
 73
     0
 74
     0
  7

 75
     0
147
1.0
148
0.0
149
0.0
100
AcDbLayout
  1
Model
 70
     1
 71
     0
 10
0.0
 20
0.0
 11
12.0
 21
9.0
 12
0.0
 22
0.0
 32
0.0
 14
0.0
 24
0.0
 34
0.0
 15
0.0
 25
0.0
 35
0.0
146
0.0
 13
0.0
 23
0.0
 33
0.0
 16
1.0
 26
0.0
 36
0.0
 17
0.0
 27
1.0
 37
0.0
 76
     0
330
23
  0
MLINESTYLE
  5
18
102
{ACAD_REACTORS
330
17
102
}
330
17
100
AcDbMlineStyle
  2
STANDARD
 70
     0
  3

 62
   256
 51
90.0
 52
90.0
 71
     2
 49
0.5
 62
   256
  6
BYLAYER
 49
-0.5
 62
   256
  6
BYLAYER
  0
ACDBPLACEHOLDER
  5
F
102
{ACAD_REACTORS
330
E
102
}
330
E
  0
TABLESTYLE
  5
1E
102
{ACAD_REACTORS
330
1D
102
}
330
1D
100
AcDbTableStyle
  3
Standard
 70
     0
 71
     0
 40
1.5
 41
1.5
280
     0
281
     0
  7
Standard
140
4.5
170
     2
 62
     0
 63
     7
283
     0
274
    -2
284
     1
 64
     0
275
    -2
285
     1
 65
     0
276
    -2
286
     1
 66
     0
277
    -2
287
     1
 67
     0
278
    -2
288
     1
 68
     0
279
    -2
289
     1
 69
     0
  7
Standard
140
6.0
170
     5
 62
     0
 63
     7
283
     0
274
    -2
284
     1
 64
     0
275
    -2
285
     1
 65
     0
276
    -2
286
     1
 66
     0
277
    -2
287
     1
 67
     0
278
    -2
288
     1
 68
     0
279
    -2
289
     1
 69
     0
  7
Standard
140
4.5
170
     5
 62
     0
 63
     7
283
     0
274
    -2
284
     1
 64
     0
275
    -2
285
     1
 65
     0
276
    -2
286
     1
 66
     0
277
    -2
287
     1
 67
     0
278
    -2
288
     1
 68
     0
279
    -2
289
     1
 69
     0
  0
DICTIONARYVAR
  5
7510
102
{ACAD_REACTORS
330
750F
102
}
330
750F
100
DictionaryVariables
280
     0
  1
STANDARD
  0
DICTIONARYVAR
  5
7522
102
{ACAD_REACTORS
330
750F
102
}
330
750F
100
DictionaryVariables
280
     0
  1
2
  0
DICTIONARYVAR
  5
7521
102
{ACAD_REACTORS
330
750F
102
}
330
750F
100
DictionaryVariables
280
     0
  1
1
  0
DICTIONARYVAR
  5
7523
102
{ACAD_REACTORS
330
750F
102
}
330
750F
100
DictionaryVariables
280
     0
  1

  0
DICTIONARY
  5
7526
330
22
100
AcDbDictionary
280
     1
281
     1
  3
ACAD_XREC_ROUNDTRIP
360
7527
  0
DICTIONARY
  5
752A
330
2A
100
AcDbDictionary
280
     1
281
     1
  3
ACAD_XREC_ROUNDTRIP
360
752B
  0
DICTIONARY
  5
7528
330
26
100
AcDbDictionary
280
     1
281
     1
  3
ACAD_XREC_ROUNDTRIP
360
7529
  0
XRECORD
  5
7527
102
{ACAD_REACTORS
330
7526
102
}
330
7526
100
AcDbXrecord
280
     1
102
SHADEPLOT
 70
     0
102
SHADEPLOTRESLEVEL
 70
     2
102
SHADEPLOTCUSTOMDPI
 70
   300
  0
XRECORD
  5
752B
102
{ACAD_REACTORS
330
752A
102
}
330
752A
100
AcDbXrecord
280
     1
102
SHADEPLOT
 70
     0
102
SHADEPLOTRESLEVEL
 70
     2
102
SHADEPLOTCUSTOMDPI
 70
   300
  0
XRECORD
  5
7529
102
{ACAD_REACTORS
330
7528
102
}
330
7528
100
AcDbXrecord
280
     1
102
SHADEPLOT
 70
     0
102
SHADEPLOTRESLEVEL
 70
     2
102
SHADEPLOTCUSTOMDPI
 70
   300
  0
ENDSEC
  0
EOF
