  0
SECTION
  2
HEADER
  9
$ACADVER
  1
AC1015
  9
$ACADMAINTVER
 70
    20
  9
$DWGCODEPAGE
  3
ANSI_1252
  9
$INSBASE
 10
0.0
 20
0.0
 30
0.0
  9
$EXTMIN
 10
7937.263664165101
 20
2229.450604521769
 30
0.0
  9
$EXTMAX
 10
7942.801500724752
 20
2231.052000926964
 30
0.0
  9
$LIMMIN
 10
0.0
 20
0.0
  9
$LIMMAX
 10
420.0
 20
297.0
  9
$ORTHOMODE
 70
     1
  9
$REGENMODE
 70
     1
  9
$FILLMODE
 70
     1
  9
$QTEXTMODE
 70
     0
  9
$MIRRTEXT
 70
     1
  9
$LTSCALE
 40
1.0
  9
$ATTMODE
 70
     1
  9
$TEXTSIZE
 40
2.5
  9
$TRACEWID
 40
1.0
  9
$TEXTSTYLE
  7
SANINDUSA
  9
$CLAYER
  8
0
  9
$CELTYPE
  6
ByLayer
  9
$CECOLOR
 62
   256
  9
$CELTSCALE
 40
1.0
  9
$DISPSILH
 70
     0
  9
$DIMSCALE
 40
1.0
  9
$DIMASZ
 40
2.0
  9
$DIMEXO
 40
1.0
  9
$DIMDLI
 40
1.0
  9
$DIMRND
 40
0.0
  9
$DIMDLE
 40
0.0
  9
$DIMEXE
 40
1.0
  9
$DIMTP
 40
0.0
  9
$DIMTM
 40
0.0
  9
$DIMTXT
 40
2.0
  9
$DIMCEN
 40
0.0
  9
$DIMTSZ
 40
0.0
  9
$DIMTOL
 70
     0
  9
$DIMLIM
 70
     0
  9
$DIMTIH
 70
     0
  9
$DIMTOH
 70
     0
  9
$DIMSE1
 70
     0
  9
$DIMSE2
 70
     0
  9
$DIMTAD
 70
     1
  9
$DIMZIN
 70
     8
  9
$DIMBLK
  1

  9
$DIMASO
 70
     1
  9
$DIMSHO
 70
     1
  9
$DIMPOST
  1

  9
$DIMAPOST
  1

  9
$DIMALT
 70
     0
  9
$DIMALTD
 70
     3
  9
$DIMALTF
 40
0.03937007874016
  9
$DIMLFAC
 40
1.0
  9
$DIMTOFL
 70
     1
  9
$DIMTVP
 40
0.0
  9
$DIMTIX
 70
     0
  9
$DIMSOXD
 70
     0
  9
$DIMSAH
 70
     0
  9
$DIMBLK1
  1

  9
$DIMBLK2
  1

  9
$DIMSTYLE
  2
SANINDUSA
  9
$DIMCLRD
 70
   256
  9
$DIMCLRE
 70
   256
  9
$DIMCLRT
 70
   256
  9
$DIMTFAC
 40
1.0
  9
$DIMGAP
 40
1.0
  9
$DIMJUST
 70
     0
  9
$DIMSD1
 70
     0
  9
$DIMSD2
 70
     0
  9
$DIMTOLJ
 70
     0
  9
$DIMTZIN
 70
     8
  9
$DIMALTZ
 70
     0
  9
$DIMALTTZ
 70
     0
  9
$DIMUPT
 70
     0
  9
$DIMDEC
 70
     1
  9
$DIMTDEC
 70
     1
  9
$DIMALTU
 70
     2
  9
$DIMALTTD
 70
     3
  9
$DIMTXSTY
  7
SANINDUSA
  9
$DIMAUNIT
 70
     0
  9
$DIMADEC
 70
     1
  9
$DIMALTRND
 40
0.0
  9
$DIMAZIN
 70
     0
  9
$DIMDSEP
 70
    44
  9
$DIMATFIT
 70
     3
  9
$DIMFRAC
 70
     0
  9
$DIMLDRBLK
  1

  9
$DIMLUNIT
 70
     2
  9
$DIMLWD
 70
    -1
  9
$DIMLWE
 70
    -1
  9
$DIMTMOVE
 70
     0
  9
$LUNITS
 70
     2
  9
$LUPREC
 70
     4
  9
$SKETCHINC
 40
1.0
  9
$FILLETRAD
 40
3.0
  9
$AUNITS
 70
     0
  9
$AUPREC
 70
     0
  9
$MENU
  1
.
  9
$ELEVATION
 40
0.0
  9
$PELEVATION
 40
0.0
  9
$THICKNESS
 40
0.0
  9
$LIMCHECK
 70
     0
  9
$CHAMFERA
 40
10.0
  9
$CHAMFERB
 40
10.0
  9
$CHAMFERC
 40
20.0
  9
$CHAMFERD
 40
0.0
  9
$SKPOLY
 70
     0
  9
$TDCREATE
 40
2454202.454035915
  9
$TDUCREATE
 40
2454202.412369248
  9
$TDUPDATE
 40
2454750.577917570
  9
$TDUUPDATE
 40
2454750.536250903
  9
$TDINDWG
 40
0.0098435648
  9
$TDUSRTIMER
 40
0.0098435648
  9
$USRTIMER
 70
     1
  9
$ANGBASE
 50
0.0
  9
$ANGDIR
 70
     0
  9
$PDMODE
 70
     0
  9
$PDSIZE
 40
0.0
  9
$PLINEWID
 40
0.0
  9
$SPLFRAME
 70
     0
  9
$SPLINETYPE
 70
     6
  9
$SPLINESEGS
 70
     8
  9
$HANDSEED
  5
29F8
  9
$SURFTAB1
 70
     6
  9
$SURFTAB2
 70
     6
  9
$SURFTYPE
 70
     6
  9
$SURFU
 70
     6
  9
$SURFV
 70
     6
  9
$UCSBASE
  2

  9
$UCSNAME
  2

  9
$UCSORG
 10
0.0
 20
0.0
 30
0.0
  9
$UCSXDIR
 10
1.0
 20
0.0
 30
0.0
  9
$UCSYDIR
 10
0.0
 20
1.0
 30
0.0
  9
$UCSORTHOREF
  2

  9
$UCSORTHOVIEW
 70
     0
  9
$UCSORGTOP
 10
0.0
 20
0.0
 30
0.0
  9
$UCSORGBOTTOM
 10
0.0
 20
0.0
 30
0.0
  9
$UCSORGLEFT
 10
0.0
 20
0.0
 30
0.0
  9
$UCSORGRIGHT
 10
0.0
 20
0.0
 30
0.0
  9
$UCSORGFRONT
 10
0.0
 20
0.0
 30
0.0
  9
$UCSORGBACK
 10
0.0
 20
0.0
 30
0.0
  9
$PUCSBASE
  2

  9
$PUCSNAME
  2

  9
$PUCSORG
 10
0.0
 20
0.0
 30
0.0
  9
$PUCSXDIR
 10
1.0
 20
0.0
 30
0.0
  9
$PUCSYDIR
 10
0.0
 20
1.0
 30
0.0
  9
$PUCSORTHOREF
  2

  9
$PUCSORTHOVIEW
 70
     0
  9
$PUCSORGTOP
 10
0.0
 20
0.0
 30
0.0
  9
$PUCSORGBOTTOM
 10
0.0
 20
0.0
 30
0.0
  9
$PUCSORGLEFT
 10
0.0
 20
0.0
 30
0.0
  9
$PUCSORGRIGHT
 10
0.0
 20
0.0
 30
0.0
  9
$PUCSORGFRONT
 10
0.0
 20
0.0
 30
0.0
  9
$PUCSORGBACK
 10
0.0
 20
0.0
 30
0.0
  9
$USERI1
 70
     0
  9
$USERI2
 70
     0
  9
$USERI3
 70
     0
  9
$USERI4
 70
     0
  9
$USERI5
 70
     0
  9
$USERR1
 40
0.0
  9
$USERR2
 40
0.0
  9
$USERR3
 40
0.0
  9
$USERR4
 40
0.0
  9
$USERR5
 40
0.0
  9
$WORLDVIEW
 70
     1
  9
$SHADEDGE
 70
     3
  9
$SHADEDIF
 70
    70
  9
$TILEMODE
 70
     1
  9
$MAXACTVP
 70
    64
  9
$PINSBASE
 10
0.0
 20
0.0
 30
0.0
  9
$PLIMCHECK
 70
     0
  9
$PEXTMIN
 10
1.000000000000000E+20
 20
1.000000000000000E+20
 30
1.000000000000000E+20
  9
$PEXTMAX
 10
-1.000000000000000E+20
 20
-1.000000000000000E+20
 30
-1.000000000000000E+20
  9
$PLIMMIN
 10
0.0
 20
0.0
  9
$PLIMMAX
 10
420.0
 20
297.0
  9
$UNITMODE
 70
     0
  9
$VISRETAIN
 70
     1
  9
$PLINEGEN
 70
     0
  9
$PSLTSCALE
 70
     1
  9
$TREEDEPTH
 70
  3020
  9
$CMLSTYLE
  2
Standard
  9
$CMLJUST
 70
     0
  9
$CMLSCALE
 40
20.0
  9
$PROXYGRAPHICS
 70
     1
  9
$MEASUREMENT
 70
     1
  9
$CELWEIGHT
370
    -1
  9
$ENDCAPS
280
     0
  9
$JOINSTYLE
280
     0
  9
$LWDISPLAY
290
     0
  9
$INSUNITS
 70
     6
  9
$HYPERLINKBASE
  1

  9
$STYLESHEET
  1
sanindusa.ctb
  9
$XEDIT
290
     1
  9
$CEPSNTYPE
380
     0
  9
$PSTYLEMODE
290
     1
  9
$FINGERPRINTGUID
  2
{8A3EBA9B-D508-4D44-BE91-7F8011FE7040}
  9
$VERSIONGUID
  2
{B64D9071-3520-4483-9EB6-6784ABE06E88}
  9
$EXTNAMES
290
     1
  9
$PSVPSCALE
 40
0.0
  9
$OLESTARTUP
290
     0
  0
ENDSEC
  0
SECTION
  2
CLASSES
  0
CLASS
  1
ACDBDICTIONARYWDFLT
  2
AcDbDictionaryWithDefault
  3
ObjectDBX Classes
 90
        0
280
     0
281
     0
  0
CLASS
  1
ACDBPLACEHOLDER
  2
AcDbPlaceHolder
  3
ObjectDBX Classes
 90
        0
280
     0
281
     0
  0
CLASS
  1
LAYOUT
  2
AcDbLayout
  3
ObjectDBX Classes
 90
        0
280
     0
281
     0
  0
CLASS
  1
DICTIONARYVAR
  2
AcDbDictionaryVar
  3
ObjectDBX Classes
 90
        0
280
     0
281
     0
  0
CLASS
  1
DIMASSOC
  2
AcDbDimAssoc
  3
"AcDbDimAssoc|Product Desc:     AcDim ARX App For Dimension|Company:          Autodesk, Inc.|WEB Address:      www.autodesk.com"
 90
    32768
280
     0
281
     0
  0
CLASS
  1
TABLESTYLE
  2
AcDbTableStyle
  3
ObjectDBX Classes
 90
     2047
280
     0
281
     0
  0
CLASS
  1
SORTENTSTABLE
  2
AcDbSortentsTable
  3
ObjectDBX Classes
 90
    32768
280
     0
281
     0
  0
ENDSEC
  0
SECTION
  2
TABLES
  0
TABLE
  2
VPORT
  5
8
330
0
100
AcDbSymbolTable
 70
     4
  0
VPORT
  5
29F0
330
8
100
AcDbSymbolTableRecord
100
AcDbViewportTableRecord
  2
*Active
 70
     0
 10
0.0
 20
0.0
 11
1.0
 21
1.0
 12
7940.032582444927
 22
2230.251302724367
 13
0.0
 23
0.0
 14
10.0
 24
10.0
 15
10.0
 25
10.0
 16
0.0
 26
0.0
 36
1.0
 17
0.0
 27
0.0
 37
0.0
 40
3.512164295434009
 41
1.582748244734202
 42
50.0
 43
0.0
 44
0.0
 50
0.0
 51
0.0
 71
     0
 72
   100
 73
     1
 74
     2
 75
     0
 76
     0
 77
     0
 78
     0
281
     0
 65
     1
110
0.0
120
0.0
130
0.0
111
1.0
121
0.0
131
0.0
112
0.0
122
1.0
132
0.0
 79
     0
146
0.0
  0
ENDTAB
  0
TABLE
  2
LTYPE
  5
5
330
0
100
AcDbSymbolTable
 70
     7
  0
LTYPE
  5
14
330
5
100
AcDbSymbolTableRecord
100
AcDbLinetypeTableRecord
  2
ByBlock
 70
     0
  3

 72
    65
 73
     0
 40
0.0
  0
LTYPE
  5
15
330
5
100
AcDbSymbolTableRecord
100
AcDbLinetypeTableRecord
  2
ByLayer
 70
     0
  3

 72
    65
 73
     0
 40
0.0
  0
LTYPE
  5
16
330
5
100
AcDbSymbolTableRecord
100
AcDbLinetypeTableRecord
  2
Continuous
 70
     0
  3
Solid line
 72
    65
 73
     0
 40
0.0
  0
LTYPE
  5
2D
330
5
100
AcDbSymbolTableRecord
100
AcDbLinetypeTableRecord
  2
DASHDOT
 70
     0
  3
Dash dot __ . __ . __ . __ . __ . __ . __ . __
 72
    65
 73
     4
 40
25.4
 49
12.7
 74
     0
 49
-6.349999999999999
 74
     0
 49
0.0
 74
     0
 49
-6.349999999999999
 74
     0
  0
LTYPE
  5
2E
330
5
100
AcDbSymbolTableRecord
100
AcDbLinetypeTableRecord
  2
HIDDEN
 70
     0
  3
Hidden __ __ __ __ __ __ __ __ __ __ __ __ __ _
 72
    65
 73
     2
 40
9.524999999999998
 49
6.349999999999999
 74
     0
 49
-3.174999999999999
 74
     0
  0
LTYPE
  5
C75
330
5
100
AcDbSymbolTableRecord
100
AcDbLinetypeTableRecord
  2
AM_ISO02W050
 70
     0
  3
__ __ __ __ __ __ __ __ __ __ __ __ __ __ __
 72
    65
 73
     2
 40
7.5
 49
6.0
 74
     0
 49
-1.5
 74
     0
  0
LTYPE
  5
C76
330
5
100
AcDbSymbolTableRecord
100
AcDbLinetypeTableRecord
  2
AM_ISO08W050
 70
     0
  3
____ . ____ . ____ . ____ . ____ . ____ . ____
 72
    65
 73
     4
 40
18.0
 49
12.0
 74
     0
 49
-1.5
 74
     0
 49
3.0
 74
     0
 49
-1.5
 74
     0
  0
LTYPE
  5
1301
330
5
100
AcDbSymbolTableRecord
100
AcDbLinetypeTableRecord
  2
HIDDEN2
 70
     0
  3
Hidden (.5x) _ _ _ _ _ _ _ _ _ _ _ _ _ _ _ _ _
 72
    65
 73
     2
 40
4.762499999999999
 49
3.174999999999999
 74
     0
 49
-1.587499999999999
 74
     0
  0
ENDTAB
  0
TABLE
  2
LAYER
  5
2
102
{ACAD_XDICTIONARY
360
1051
102
}
330
0
100
AcDbSymbolTable
 70
    16
  0
LAYER
  5
10
330
2
100
AcDbSymbolTableRecord
100
AcDbLayerTableRecord
  2
0
 70
     0
 62
     7
  6
Continuous
370
    -3
390
F
  0
LAYER
  5
2F
330
2
100
AcDbSymbolTableRecord
100
AcDbLayerTableRecord
  2
1
 70
     0
 62
     1
  6
Continuous
370
    -3
390
F
  0
LAYER
  5
30
330
2
100
AcDbSymbolTableRecord
100
AcDbLayerTableRecord
  2
2
 70
     0
 62
     2
  6
Continuous
370
    -3
390
F
  0
LAYER
  5
31
330
2
100
AcDbSymbolTableRecord
100
AcDbLayerTableRecord
  2
3
 70
     0
 62
     3
  6
Continuous
370
    -3
390
F
  0
LAYER
  5
32
330
2
100
AcDbSymbolTableRecord
100
AcDbLayerTableRecord
  2
4
 70
     0
 62
     4
  6
Continuous
370
    -3
390
F
  0
LAYER
  5
33
330
2
100
AcDbSymbolTableRecord
100
AcDbLayerTableRecord
  2
5
 70
     0
 62
     5
  6
Continuous
370
    -3
390
F
  0
LAYER
  5
34
330
2
100
AcDbSymbolTableRecord
100
AcDbLayerTableRecord
  2
6
 70
     0
 62
     6
  6
Continuous
370
    -3
390
F
  0
LAYER
  5
35
330
2
100
AcDbSymbolTableRecord
100
AcDbLayerTableRecord
  2
7
 70
     0
 62
     7
  6
Continuous
370
    -3
390
F
  0
LAYER
  5
36
330
2
100
AcDbSymbolTableRecord
100
AcDbLayerTableRecord
  2
cen
 70
     0
 62
     7
  6
DASHDOT
370
    -3
390
F
  0
LAYER
  5
37
330
2
100
AcDbSymbolTableRecord
100
AcDbLayerTableRecord
  2
hid
 70
     0
 62
     7
  6
HIDDEN
370
    -3
390
F
  0
LAYER
  5
5D6
330
2
100
AcDbSymbolTableRecord
100
AcDbLayerTableRecord
  2
hatch
 70
     0
 62
     9
  6
Continuous
370
    -3
390
F
  0
LAYER
  5
8AF
330
2
100
AcDbSymbolTableRecord
100
AcDbLayerTableRecord
  2
9
 70
     0
 62
     9
  6
Continuous
370
    -3
390
F
  0
LAYER
  5
8F8
330
2
100
AcDbSymbolTableRecord
100
AcDbLayerTableRecord
  2
leg fin
 70
     0
 62
     9
  6
Continuous
370
    -3
390
F
  0
LAYER
  5
91D
330
2
100
AcDbSymbolTableRecord
100
AcDbLayerTableRecord
  2
cotas
 70
     0
 62
     1
  6
Continuous
370
    -3
390
F
  0
LAYER
  5
92F
330
2
100
AcDbSymbolTableRecord
100
AcDbLayerTableRecord
  2
Defpoints
 70
     0
 62
     7
  6
Continuous
290
     0
370
    -3
390
F
  0
LAYER
  5
C7B
330
2
100
AcDbSymbolTableRecord
100
AcDbLayerTableRecord
  2
SANINDUSA
 70
     0
 62
     3
  6
Continuous
370
    -3
390
F
  0
ENDTAB
  0
TABLE
  2
STYLE
  5
3
330
0
100
AcDbSymbolTable
 70
     4
  0
STYLE
  5
11
330
3
100
AcDbSymbolTableRecord
100
AcDbTextStyleTableRecord
  2
Standard
 70
     0
 40
0.0
 41
1.0
 50
0.0
 71
     0
 42
2.5
  3
Avgardn.ttf
  4

1001
ACAD
1000
AvantGarde Bk BT
1071
       34
  0
STYLE
  5
2C
330
3
100
AcDbSymbolTableRecord
100
AcDbTextStyleTableRecord
  2

 70
     1
 40
0.0
 41
1.0
 50
0.0
 71
     0
 42
2.5
  3
ltypeshp.shx
  4

  0
STYLE
  5
91F
330
3
100
AcDbSymbolTableRecord
100
AcDbTextStyleTableRecord
  2
SANINDUSA
 70
     0
 40
0.0
 41
1.0
 50
0.0
 71
     0
 42
2.5
  3
verdana.TTF
  4

1001
ACAD
1000
Verdana
1071
       34
  0
STYLE
  5
C7C
330
3
100
AcDbSymbolTableRecord
100
AcDbTextStyleTableRecord
  2
futura
 70
     0
 40
0.0
 41
1.0
 50
0.0
 71
     0
 42
2.5
  3
ZURCHN.TTF
  4

1001
ACAD
1000
Zurich BT
1071
       34
  0
ENDTAB
  0
TABLE
  2
VIEW
  5
6
330
0
100
AcDbSymbolTable
 70
     0
  0
ENDTAB
  0
TABLE
  2
UCS
  5
7
330
0
100
AcDbSymbolTable
 70
     0
  0
ENDTAB
  0
TABLE
  2
APPID
  5
9
330
0
100
AcDbSymbolTable
 70
    11
  0
APPID
  5
12
330
9
100
AcDbSymbolTableRecord
100
AcDbRegAppTableRecord
  2
ACAD
 70
     0
  0
APPID
  5
3A
330
9
100
AcDbSymbolTableRecord
100
AcDbRegAppTableRecord
  2
DCO15
 70
     0
  0
APPID
  5
EEE
330
9
100
AcDbSymbolTableRecord
100
AcDbRegAppTableRecord
  2
ACAD_DSTYLE_DIMTEXT_FILL
 70
     0
  0
APPID
  5
EEF
330
9
100
AcDbSymbolTableRecord
100
AcDbRegAppTableRecord
  2
ACAD_DSTYLE_DIMEXT_LENGTH
 70
     0
  0
APPID
  5
EF0
330
9
100
AcDbSymbolTableRecord
100
AcDbRegAppTableRecord
  2
ACAD_DSTYLE_DIMEXT_ENABLED
 70
     0
  0
APPID
  5
EF1
330
9
100
AcDbSymbolTableRecord
100
AcDbRegAppTableRecord
  2
ACAD_DSTYLE_DIM_LINETYPE
 70
     0
  0
APPID
  5
EF2
330
9
100
AcDbSymbolTableRecord
100
AcDbRegAppTableRecord
  2
ACAD_DSTYLE_DIM_EXT1_LINETYPE
 70
     0
  0
APPID
  5
EF3
330
9
100
AcDbSymbolTableRecord
100
AcDbRegAppTableRecord
  2
ACAD_DSTYLE_DIM_EXT2_LINETYPE
 70
     0
  0
APPID
  5
FAF
330
9
100
AcDbSymbolTableRecord
100
AcDbRegAppTableRecord
  2
ACAD_DSTYLE_DIMJOGGED_JOGANGLE_SYMBOL
 70
     0
  0
APPID
  5
1013
330
9
100
AcDbSymbolTableRecord
100
AcDbRegAppTableRecord
  2
ACAD_DSTYLE_DIMARC_LENGTH_SYMBOL
 70
     0
  0
APPID
  5
200A
330
9
100
AcDbSymbolTableRecord
100
AcDbRegAppTableRecord
  2
ACAD_EXEMPT_FROM_CAD_STANDARDS
 70
     0
  0
ENDTAB
  0
TABLE
  2
DIMSTYLE
  5
A
330
0
100
AcDbSymbolTable
 70
     4
100
AcDbDimStyleTable
 71
     1
340
921
  0
DIMSTYLE
105
45
330
A
100
AcDbSymbolTableRecord
100
AcDbDimStyleTableRecord
  2
STANDARD
 70
     0
289
     0
340
11
  0
DIMSTYLE
105
921
330
A
100
AcDbSymbolTableRecord
100
AcDbDimStyleTableRecord
  2
SANINDUSA
 70
     0
 41
2.0
 42
1.0
 43
1.0
 44
1.0
 73
     0
 74
     0
 77
     1
 78
     8
140
2.0
141
0.0
143
0.03937007874016
147
1.0
171
     3
172
     1
176
   256
177
   256
178
   256
179
     1
271
     1
272
     1
274
     3
278
    44
283
     0
284
     8
340
91F
371
    -1
372
    -1
1001
ACAD_DSTYLE_DIMEXT_LENGTH
1070
   378
1040
1.0
1001
ACAD_DSTYLE_DIMEXT_ENABLED
1070
   383
1070
     0
1001
ACAD_DSTYLE_DIMARC_LENGTH_SYMBOL
1070
   379
1070
     0
1001
ACAD_DSTYLE_DIMJOGGED_JOGANGLE_SYMBOL
1070
   384
1040
1.570796326794896
  0
DIMSTYLE
105
C7D
330
A
100
AcDbSymbolTableRecord
100
AcDbDimStyleTableRecord
  2
AM_ISO
 70
     0
  4
"
 41
2.5
 42
1.0
 43
10.0
 44
1.0
 47
0.1
 48
0.1
 73
     0
 74
     0
 77
     1
 78
     8
 79
     2
140
3.5
141
0.0
143
0.0393701
146
0.71
147
1.5
172
     1
176
   256
177
   256
178
     2
271
     2
272
     3
274
     4
283
     0
284
     8
340
11
371
    -1
372
    -1
  0
ENDTAB
  0
TABLE
  2
BLOCK_RECORD
  5
1
330
0
100
AcDbSymbolTable
 70
    60
  0
BLOCK_RECORD
  5
1F
330
1
100
AcDbSymbolTableRecord
100
AcDbBlockTableRecord
  2
*Model_Space
340
22
  0
BLOCK_RECORD
  5
1B
330
1
100
AcDbSymbolTableRecord
100
AcDbBlockTableRecord
  2
*Paper_Space
340
1E
  0
BLOCK_RECORD
  5
23
330
1
100
AcDbSymbolTableRecord
100
AcDbBlockTableRecord
  2
*Paper_Space0
340
26
  0
BLOCK_RECORD
  5
919
330
1
100
AcDbSymbolTableRecord
100
AcDbBlockTableRecord
  2
_DotSmall
340
0
  0
BLOCK_RECORD
  5
922
330
1
100
AcDbSymbolTableRecord
100
AcDbBlockTableRecord
  2
base para cotas
340
0
310
2800000020000000200000000100080000000000000400000000000000000000000000000000000000000000000080000080000000808000800000008000800080800000C0C0C000C0DCC000F0CAA6000020400000206000002080000020A0000020C0000020E00000400000004020000040400000406000004080000040A0
310
000040C0000040E00000600000006020000060400000606000006080000060A0000060C0000060E00000800000008020000080400000806000008080000080A0000080C0000080E00000A0000000A0200000A0400000A0600000A0800000A0A00000A0C00000A0E00000C0000000C0200000C0400000C0600000C0800000C0
310
A00000C0C00000C0E00000E0000000E0200000E0400000E0600000E0800000E0A00000E0C00000E0E00040000000400020004000400040006000400080004000A0004000C0004000E00040200000402020004020400040206000402080004020A0004020C0004020E000404000004040200040404000404060004040800040
310
40A0004040C0004040E00040600000406020004060400040606000406080004060A0004060C0004060E00040800000408020004080400040806000408080004080A0004080C0004080E00040A0000040A0200040A0400040A0600040A0800040A0A00040A0C00040A0E00040C0000040C0200040C0400040C0600040C08000
310
40C0A00040C0C00040C0E00040E0000040E0200040E0400040E0600040E0800040E0A00040E0C00040E0E00080000000800020008000400080006000800080008000A0008000C0008000E00080200000802020008020400080206000802080008020A0008020C0008020E00080400000804020008040400080406000804080
310
008040A0008040C0008040E00080600000806020008060400080606000806080008060A0008060C0008060E00080800000808020008080400080806000808080008080A0008080C0008080E00080A0000080A0200080A0400080A0600080A0800080A0A00080A0C00080A0E00080C0000080C0200080C0400080C0600080C0
310
800080C0A00080C0C00080C0E00080E0000080E0200080E0400080E0600080E0800080E0A00080E0C00080E0E000C0000000C0002000C0004000C0006000C0008000C000A000C000C000C000E000C0200000C0202000C0204000C0206000C0208000C020A000C020C000C020E000C0400000C0402000C0404000C0406000C0
310
408000C040A000C040C000C040E000C0600000C0602000C0604000C0606000C0608000C060A000C060C000C060E000C0800000C0802000C0804000C0806000C0808000C080A000C080C000C080E000C0A00000C0A02000C0A04000C0A06000C0A08000C0A0A000C0A0C000C0A0E000C0C00000C0C02000C0C04000C0C06000
310
C0C08000C0C0A000F0FBFF00A4A0A000808080000000FF0000FF000000FFFF00FF000000FF00FF00FFFF0000FFFFFF00A4A4A4A4A4A4A4A4A4A4A4A4A4A4A4A4A4A4A4A4A4A4A4A4A4A4A4A4A4A4A4A4A4A4A4A4A4A4A4A4A4A4A4A4A4A4A4A4A4A4A4A4A4A4A4A4A4A4A4A4A4A4A4A4A4A4A4A4A4A4A4A4A4A4A4A4A4A4A4
310
A4A4A4A4A4A4A4A4A4A4A4A4A4A4A4A4A4A4A4A4A4A4A4A4A4A4A4A4A4A4A4A4A4A4A4A4A4A4A4A4A4A4A4A4A4A4A4A4A4A4A4A4A4A4A4A4A4A4A4A4A4A4A4A4A4A4A4A4A4A4A4A4A4A4A4A4A4A4A4A4A4A4A4A4A4A4A4A4A4A4A4A4A4A4A4A4A4A4A4A4A4A4A4A4A4A4A4A4A4A4A4A4A4A4A4A4A4A4A4A4A4A4A4A4A4A4A4
310
A4A4A4A4A4A4A4A4A4A4A4A4A4A4A4A4A4A4A4A4A4A4A4A4A4A4A4A4A4A4A4A4A4A4A4A4A4A4A4A4A4A4A4A4A4A4A4A4A4A4A4A4A4A4A4A4A4A4A4A4A4A4A4A4A4A4A4A4A4A4A4A4A4A4A4A4A4A4A4A4A4A4A4A4A4A4A4A4A4A4A4A4A4A4A4A4A4A4A4A4A4A4A4A4A4A4A4A4A4A4A4A4A4A4A4A4A4A4A4A4A4A4A4A4A4A4A4
310
A4A4A4A4A4A4A4A4A4A4A4A4A4A4A4A4A4A4A4A4A4A4A4A4A4A4A4A4A4A4A4A4A4A4A4A4A4A4A4A4A4A4A4A4A4A4A4A4A4A4A4A4A4A4A4A4A4A4A4A4A4A4A4A4A4A4A4A4A4A4A4A4A4A4A4A4A4A4A4A4A4A4A4A4A4A4A4A4A4A4A4A4A4A4A4A4A4A4A4A4A4A4A4A4A4A4A4A4A4A4A4A4A4A4A4A4F9F9F9F9F9F9F9F9F9F9F9
310
F9F9F9F9F9F9F9F9F9F9F9F9F9F9F9F9F9F9F9A4A4F9F9F9F9F9F9F9F9F9F9F9F9F9F9F9F9F9F9F9F9F9F9F9F9F9F9F9F9F9F9A4A4F9F9F9F9F9F9F9F9F9F9F9F9F9F9F9F9F9F9F9F9F9F9F9F9F9F9F9F9F9F9A4A4F9A4A4A4A4A4A4A4A4A4A4A4A4A4A4A4A4A4A4A4A4A4A4A4A4A4A4A4A4F9A4A4A4A4A4A4A4A4A4A4A4A4
310
A4A4A4A4A4A4A4A4A4A4A4A4A4A4A4A4A4A4A4A4A4A4A4A4A4A4A4A4A4A4A4A4A4A4A4A4A4A4A4A4A4A4A4A4A4A4A4A4A4A4A4A4A4A4A4A4A4A4A4A4A4A4A4A4A4A4A4A4A4A4A4A4A4A4A4A4A4A4A4A4A4A4A4A4A4A4A4A4A4A4A4A4A4A4A4A4A4A4A4A4A4A4A4A4A4A4A4A4A4A4A4A4A4A4A4A4A4A4A4A4A4A4A4A4A4A4A4
310
A4A4A4A4A4A4A4A4A4A4A4A4A4A4A4A4A4A4A4A4A4A4A4A4A4A4A4A4A4A4A4A4A4A4A4A4A4A4A4A4A4A4A4A4A4A4A4A4A4A4A4A4A4A4A4A4A4A4A4A4A4A4A4A4A4A4A4A4A4A4A4A4A4A4A4A4A4A4A4A4A4A4A4A4A4A4A4A4A4A4A4A4A4A4A4A4A4A4A4A4A4A4A4A4A4A4A4A4A4A4A4A4A4A4A4A4A4A4A4A4A4A4A4A4A4A4A4
310
A4A4A4A4A4A4A4A4A4A4A4A4A4A4A4A4A4A4A4A4A4A4A4A4A4A4A4A4A4A4A4A4A4A4A4A4A4A4A4A4A4A4A4A4A4A4A4A4A4A4A4A4A4A4A4A4A4A4A4A4A4A4A4A4A4A4A4A4A4A4A4A4A4A4A4A4A4A4A4A4A4A4A4A4A4A4A4A4A4A4A4A4A4A4A4A4A4A4A4A4A4A4A4A4A4A4A4A4A4A4A4A4A4A4A4A4A4A4A4A4A4A4A4A4A4A4A4
310
A4A4A4A4A4A4A4A4A4A4A4A4A4A4A4A4A4A4A4A4A4A4A4A4A4A4A4A4A4A4A4A4A4A4A4A4A4A4A4A4A4A4A4A4A4A4A4A4A4A4A4A4A4A4A4A4
1001
ACAD
1000
DesignCenter Data
1002
{
1070
     1
1070
     4
1002
}
  0
BLOCK_RECORD
  5
AA8
330
1
100
AcDbSymbolTableRecord
100
AcDbBlockTableRecord
  2
_CLOSED
340
0
  0
BLOCK_RECORD
  5
B79
330
1
100
AcDbSymbolTableRecord
100
AcDbBlockTableRecord
  2
nota revisoes
340
0
1001
ACAD
1000
DesignCenter Data
1002
{
1070
     1
1070
     4
1002
}
  0
BLOCK_RECORD
  5
B8E
330
1
100
AcDbSymbolTableRecord
100
AcDbBlockTableRecord
  2
a3l
340
0
1001
ACAD
1000
DesignCenter Data
1002
{
1070
     1
1070
     4
1002
}
  0
BLOCK_RECORD
  5
B9E
330
1
100
AcDbSymbolTableRecord
100
AcDbBlockTableRecord
  2
legenda desenvolvimento
340
0
1001
ACAD
1000
DesignCenter Data
1002
{
1070
     1
1070
     4
1002
}
  0
ENDTAB
  0
ENDSEC
  0
SECTION
  2
BLOCKS
  0
BLOCK
  5
20
330
1F
100
AcDbEntity
  8
0
100
AcDbBlockBegin
  2
*Model_Space
 70
     0
 10
0.0
 20
0.0
 30
0.0
  3
*Model_Space
  1

  0
ENDBLK
  5
21
330
1F
100
AcDbEntity
  8
0
100
AcDbBlockEnd
  0
BLOCK
  5
1C
330
1B
100
AcDbEntity
 67
     1
  8
0
100
AcDbBlockBegin
  2
*Paper_Space
 70
     0
 10
0.0
 20
0.0
 30
0.0
  3
*Paper_Space
  1

  0
ENDBLK
  5
1D
330
1B
100
AcDbEntity
 67
     1
  8
0
100
AcDbBlockEnd
  0
BLOCK
  5
24
330
23
100
AcDbEntity
 67
     1
  8
0
100
AcDbBlockBegin
  2
*Paper_Space0
 70
     0
 10
0.0
 20
0.0
 30
0.0
  3
*Paper_Space0
  1

  0
ENDBLK
  5
25
330
23
100
AcDbEntity
 67
     1
  8
0
100
AcDbBlockEnd
  0
BLOCK
  5
91B
330
919
100
AcDbEntity
  8
0
100
AcDbBlockBegin
  2
_DotSmall
 70
     0
 10
0.0
 20
0.0
 30
0.0
  3
_DotSmall
  1

  0
LWPOLYLINE
  5
91A
330
919
100
AcDbEntity
  8
0
  6
ByBlock
 62
     0
100
AcDbPolyline
 90
        2
 70
     1
 43
0.5
 10
-0.0625
 20
0.0
 42
1.0
 10
0.0625
 20
0.0
 42
1.0
  0
ENDBLK
  5
91C
330
919
100
AcDbEntity
  8
0
100
AcDbBlockEnd
  0
BLOCK
  5
92A
330
922
100
AcDbEntity
  8
0
100
AcDbBlockBegin
  2
base para cotas
 70
     0
 10
0.0
 20
0.0
 30
0.0
  3
base para cotas
  1

  0
LINE
  5
B36
330
922
100
AcDbEntity
  8
cotas
100
AcDbLine
 10
0.0
 20
-30.0
 30
0.0
 11
327.1260136525398
 21
-30.0
 31
0.0
  0
LINE
  5
B37
330
922
100
AcDbEntity
  8
cotas
100
AcDbLine
 10
0.0
 20
-25.0
 30
0.0
 11
327.1260136525398
 21
-25.0
 31
0.0
  0
LINE
  5
B38
330
922
100
AcDbEntity
  8
cotas
100
AcDbLine
 10
0.0
 20
-20.0
 30
0.0
 11
327.1260136525398
 21
-20.0
 31
0.0
  0
LINE
  5
B39
330
922
100
AcDbEntity
  8
cotas
100
AcDbLine
 10
0.0
 20
-15.0
 30
0.0
 11
327.1260136525398
 21
-15.0
 31
0.0
  0
LINE
  5
B3A
330
922
100
AcDbEntity
  8
cotas
100
AcDbLine
 10
0.0
 20
-10.0
 30
0.0
 11
327.1260136525398
 21
-10.0
 31
0.0
  0
LINE
  5
B3B
330
922
100
AcDbEntity
  8
cotas
100
AcDbLine
 10
0.0
 20
0.0
 30
0.0
 11
0.0
 21
-30.0
 31
0.0
  0
LINE
  5
B3C
330
922
100
AcDbEntity
  8
cotas
100
AcDbLine
 10
327.1260136525398
 20
-30.0
 30
0.0
 11
327.1260136525398
 21
0.0
 31
0.0
  0
ENDBLK
  5
92B
330
922
100
AcDbEntity
  8
0
100
AcDbBlockEnd
  0
BLOCK
  5
AAD
330
AA8
100
AcDbEntity
  8
0
100
AcDbBlockBegin
  2
_CLOSED
 70
     0
 10
0.0
 20
0.0
 30
0.0
  3
_CLOSED
  1

  0
LINE
  5
AA9
330
AA8
100
AcDbEntity
  8
0
100
AcDbLine
 10
-1.0
 20
0.166667
 30
0.0
 11
0.0
 21
0.0
 31
0.0
  0
LINE
  5
AAA
330
AA8
100
AcDbEntity
  8
0
100
AcDbLine
 10
0.0
 20
0.0
 30
0.0
 11
-1.0
 21
-0.166667
 31
0.0
  0
LINE
  5
AAB
330
AA8
100
AcDbEntity
  8
0
100
AcDbLine
 10
-1.0
 20
0.166667
 30
0.0
 11
-1.0
 21
-0.166667
 31
0.0
  0
LINE
  5
AAC
330
AA8
100
AcDbEntity
  8
0
100
AcDbLine
 10
0.0
 20
0.0
 30
0.0
 11
-1.0
 21
0.0
 31
0.0
  0
ENDBLK
  5
AAE
330
AA8
100
AcDbEntity
  8
0
100
AcDbBlockEnd
  0
BLOCK
  5
B7C
330
B79
100
AcDbEntity
  8
0
100
AcDbBlockBegin
  2
nota revisoes
 70
     0
 10
0.0
 20
0.0
 30
0.0
  3
nota revisoes
  1

  0
CIRCLE
  5
B7A
330
B79
100
AcDbEntity
  8
4
100
AcDbCircle
 10
0.0
 20
0.0
 30
0.0
 40
13.69426055101189
  0
TEXT
  5
B7B
330
B79
100
AcDbEntity
  8
4
100
AcDbText
 10
-5.496248358154345
 20
-5.354545554066362
 30
0.0
 40
12.0
  1
1
  7
SANINDUSA
 72
     1
 11
-0.249774214433728
 21
-5.354545554066362
 31
0.0
100
AcDbText
  0
ENDBLK
  5
B7D
330
B79
100
AcDbEntity
  8
0
100
AcDbBlockEnd
  0
BLOCK
  5
B9C
330
B8E
100
AcDbEntity
  8
0
100
AcDbBlockBegin
  2
a3l
 70
     0
 10
0.0
 20
0.0
 30
0.0
  3
a3l
  1

  0
LINE
  5
B8F
330
B8E
100
AcDbEntity
  8
1
100
AcDbLine
 10
-364.2925296599447
 20
-362.1188951399395
 30
0.0
 11
-364.2925296599447
 21
-65.11889513993946
 31
0.0
  0
LINE
  5
B90
330
B8E
100
AcDbEntity
  8
4
100
AcDbLine
 10
-369.2925296599447
 20
-357.1188951399395
 30
0.0
 11
-369.2925296599447
 21
-70.11889513993946
 31
0.0
  0
LINE
  5
B91
330
B8E
100
AcDbEntity
  8
1
100
AcDbLine
 10
-784.2925296599446
 20
-65.11889513993946
 30
0.0
 11
-784.2925296599446
 21
-362.1188951399395
 31
0.0
  0
LINE
  5
B92
330
B8E
100
AcDbEntity
  8
4
100
AcDbLine
 10
-759.2925296599446
 20
-357.1188951399395
 30
0.0
 11
-759.2925296599446
 21
-70.11889513993946
 31
0.0
  0
LINE
  5
B93
330
B8E
100
AcDbEntity
  8
1
100
AcDbLine
 10
-784.2925296599446
 20
-362.1188951399395
 30
0.0
 11
-364.2925296599447
 21
-362.1188951399395
 31
0.0
  0
LINE
  5
B94
330
B8E
100
AcDbEntity
  8
4
100
AcDbLine
 10
-759.2925296599446
 20
-357.1188951399395
 30
0.0
 11
-369.2925296599447
 21
-357.1188951399395
 31
0.0
  0
LINE
  5
B95
330
B8E
100
AcDbEntity
  8
1
100
AcDbLine
 10
-654.2925296599446
 20
-357.1188951399395
 30
0.0
 11
-654.2925296599446
 21
-362.1188951399395
 31
0.0
  0
LINE
  5
B96
330
B8E
100
AcDbEntity
  8
1
100
AcDbLine
 10
-364.2925296599447
 20
-65.11889513993946
 30
0.0
 11
-784.2925296599446
 21
-65.11889513993946
 31
0.0
  0
LINE
  5
B97
330
B8E
100
AcDbEntity
  8
4
100
AcDbLine
 10
-369.2925296599447
 20
-70.11889513993946
 30
0.0
 11
-759.2925296599446
 21
-70.11889513993946
 31
0.0
  0
LINE
  5
B98
330
B8E
100
AcDbEntity
  8
1
100
AcDbLine
 10
-654.2925296599446
 20
-65.11889513993946
 30
0.0
 11
-654.2925296599446
 21
-70.11889513993946
 31
0.0
  0
LINE
  5
B99
330
B8E
100
AcDbEntity
  8
1
100
AcDbLine
 10
-549.2925296599446
 20
-70.11889513993946
 30
0.0
 11
-549.2925296599446
 21
-65.11889513993946
 31
0.0
  0
LINE
  5
B9A
330
B8E
100
AcDbEntity
  8
1
100
AcDbLine
 10
-369.2925296599447
 20
-65.11889513993946
 30
0.0
 11
-364.2925296599447
 21
-65.11889513993946
 31
0.0
  0
LINE
  5
B9B
330
B8E
100
AcDbEntity
  8
1
100
AcDbLine
 10
-549.2925296599446
 20
-357.1188951399395
 30
0.0
 11
-549.2925296599446
 21
-362.1188951399395
 31
0.0
  0
ENDBLK
  5
B9D
330
B8E
100
AcDbEntity
  8
0
100
AcDbBlockEnd
  0
BLOCK
  5
C13
330
B9E
100
AcDbEntity
  8
0
100
AcDbBlockBegin
  2
legenda desenvolvimento
 70
     2
 10
0.0
 20
0.0
 30
0.0
  3
legenda desenvolvimento
  1

  0
ATTDEF
  5
B9F
330
B9E
100
AcDbEntity
  8
1
100
AcDbText
 10
-108.606245802552
 20
55.5
 30
0.0
 40
4.0
  1
XXXXXXXXXXXXXX
 41
0.8
  7
SANINDUSA
 72
     4
 11
-87.5
 21
57.5
 31
0.0
100
AcDbAttributeDefinition
  3
Nome do Produto:
  2
PRODUTO
 70
     0
  0
ATTDEF
  5
BA0
330
B9E
100
AcDbEntity
  8
1
100
AcDbText
 10
-97.9997966101695
 20
41.25
 30
0.0
 40
3.0
  1
XXXXXXXXX
 41
0.8
  7
futura
 72
     4
 11
-87.5
 21
42.75
 31
0.0
100
AcDbAttributeDefinition
  3
Nome da Peça:
  2
PECA
 70
     0
  0
ATTDEF
  5
BA1
330
B9E
100
AcDbEntity
  8
1
100
AcDbText
 10
-133.4422431161853
 20
21.11745296763252
 30
0.0
 40
2.5
  1
X
 41
0.8
  7
SANINDUSA
 72
     4
 11
-132.5
 21
22.36745296763252
 31
0.0
100
AcDbAttributeDefinition
  3
Cod. TESTE:
  2
TESTE
 70
     0
  0
ATTDEF
  5
BA2
330
B9E
100
AcDbEntity
  8
1
100
AcDbText
 10
-124.3844862323707
 20
21.11745296763252
 30
0.0
 40
2.5
  1
XX
 41
0.8
  7
SANINDUSA
 72
     4
 11
-122.5
 21
22.36745296763252
 31
0.0
100
AcDbAttributeDefinition
  3
Cod. Ano:
  2
ANO
 70
     0
  0
ATTDEF
  5
BA3
330
B9E
100
AcDbEntity
  8
1
100
AcDbText
 10
-112.526889953052
 20
21.11745296763252
 30
0.0
 40
2.5
  1
XXX
 41
0.8
  7
SANINDUSA
 72
     4
 11
-109.700160604496
 21
22.36745296763252
 31
0.0
100
AcDbAttributeDefinition
  3
Cod. Sequência:
  2
SEQUENCIA
 70
     0
  0
ATTDEF
  5
BA4
330
B9E
100
AcDbEntity
  8
1
100
AcDbText
 10
-99.35382430979316
 20
21.11745296763252
 30
0.0
 40
2.5
  1
XX
 41
0.8
  7
SANINDUSA
 72
     4
 11
-97.46933807742244
 21
22.36745296763252
 31
0.0
100
AcDbAttributeDefinition
  3
Cod. Tipo:
  2
TIPO
 70
     0
  0
ATTDEF
  5
BA5
330
B9E
100
AcDbEntity
  8
1
100
AcDbText
 10
-87.42035911468438
 20
21.11745296763252
 30
0.0
 40
2.5
  1
XXX
 41
0.8
  7
SANINDUSA
 72
     4
 11
-84.59362976612828
 21
22.36745296763252
 31
0.0
100
AcDbAttributeDefinition
  3
Cod. Produto:
  2
PRODUTO
 70
     0
  0
ATTDEF
  5
BA6
330
B9E
100
AcDbEntity
  8
1
100
AcDbText
 10
-74.62051971917853
 20
21.11745296763252
 30
0.0
 40
2.5
  1
XXX
 41
0.8
  7
SANINDUSA
 72
     4
 11
-71.79379037062244
 21
22.36745296763252
 31
0.0
100
AcDbAttributeDefinition
  3
Cod. Peça:
  2
PECA
 70
     0
  0
ATTDEF
  5
BA7
330
B9E
100
AcDbEntity
  8
1
100
AcDbText
 10
-61.10603446650329
 20
21.11745296763252
 30
0.0
 40
2.5
  1
XX
 41
0.8
  7
SANINDUSA
 72
     4
 11
-59.22154823413257
 21
22.36745296763252
 31
0.0
100
AcDbAttributeDefinition
  3
Cod. Revisão:
  2
REV
 70
     0
  0
ATTDEF
  5
BA8
330
B9E
100
AcDbEntity
  8
1
100
AcDbText
 10
-48.43615325006194
 20
21.11745296763252
 30
0.0
 40
2.5
  1
XX
 41
0.8
  7
SANINDUSA
 72
     4
 11
-46.55166701769121
 21
22.36745296763252
 31
0.0
100
AcDbAttributeDefinition
  3
Cod. Alteração:
  2
ALT
 70
     0
  0
ATTDEF
  5
BA9
330
B9E
100
AcDbEntity
  8
1
100
AcDbText
 10
-35.19086635325722
 20
23.98875083948959
 30
0.0
 40
3.0
  1
1/XXX
 41
0.8
  7
SANINDUSA
 72
     4
 11
-30.0
 21
25.25
 31
0.0
100
AcDbAttributeDefinition
  3
Escala geral:
  2
ESCALA
 70
     0
  0
ATTDEF
  5
BAA
330
B9E
100
AcDbEntity
  8
1
100
AcDbText
 10
-15.65345869711215
 20
23.75
 30
0.0
 40
3.0
  1
XXXXX
 41
0.8
  7
SANINDUSA
 72
     4
 11
-10.0
 21
25.25
 31
0.0
100
AcDbAttributeDefinition
  3
Folha:
  2
FOLHA
 70
     0
  0
ATTDEF
  5
BAB
330
B9E
100
AcDbEntity
  8
1
100
AcDbText
 10
-178.5146998822042
 20
56.9531347542807
 30
0.0
 40
2.0
  1
xx
 41
0.8
  7
SANINDUSA
 72
     4
 11
-177.2123493113513
 21
57.70330265219877
 31
0.0
100
AcDbAttributeDefinition
  3
revisão
  2
REV.
 70
     0
  0
ATTDEF
  5
BAC
330
B9E
100
AcDbEntity
  8
1
100
AcDbText
 10
-172.7849640077129
 20
56.9531347542807
 30
0.0
 40
2.0
  1
xx
 41
0.8
  7
SANINDUSA
 72
     4
 11
-171.48261343686
 21
57.70330265219877
 31
0.0
100
AcDbAttributeDefinition
  3
alteração
  2
ALT.
 70
     0
  0
ATTDEF
  5
BAD
330
B9E
100
AcDbEntity
  8
1
100
AcDbText
 10
-168.007199951307
 20
56.70330265219877
 30
0.0
 40
2.0
  1
xx/xx/xxxx
 41
0.8
  7
SANINDUSA
 11
-168.007199951307
 21
57.70330265219877
 31
0.0
100
AcDbAttributeDefinition
  3
data
  2
DATA
 70
     0
 74
     2
  0
ATTDEF
  5
BAE
330
B9E
100
AcDbEntity
  8
1
100
AcDbText
 10
-168.5396372253371
 20
13.15916722632639
 30
0.0
 40
2.0
  1
XX/XX/XXXX
 41
0.8
  7
SANINDUSA
 72
     4
 11
-161.5099528734231
 21
14.0
 31
0.0
100
AcDbAttributeDefinition
  3
Data projecto
  2
DATA_PROJ
 70
     0
  0
ATTDEF
  5
BAF
330
B9E
100
AcDbEntity
  8
1
100
AcDbText
 10
-150.8658110728766
 20
13.24983210208193
 30
0.0
 40
2.0
  1
xxxxxxxx
 41
0.8
  7
SANINDUSA
 72
     4
 11
-145.6564087894649
 21
14.0
 31
0.0
100
AcDbAttributeDefinition
  3
nome de quem projectou
  2
NOME
 70
     0
  0
ATTDEF
  5
BB0
330
B9E
100
AcDbEntity
  8
1
100
AcDbText
 10
-168.5396372253371
 20
9.159167226326394
 30
0.0
 40
2.0
  1
XX/XX/XXXX
 41
0.8
  7
SANINDUSA
 72
     4
 11
-161.5099528734231
 21
10.0
 31
0.0
100
AcDbAttributeDefinition
  3
Data desenhou
  2
DATA_DES
 70
     0
  0
ATTDEF
  5
BB1
330
B9E
100
AcDbEntity
  8
1
100
AcDbText
 10
-151.516986358303
 20
9.249832102081933
 30
0.0
 40
2.0
  1
xxxxxxxxx
 41
0.8
  7
SANINDUSA
 72
     4
 11
-145.6564087894649
 21
10.0
 31
0.0
100
AcDbAttributeDefinition
  3
nome
  2
NOME
 70
     0
  0
ATTDEF
  5
BB2
330
B9E
100
AcDbEntity
  8
1
100
AcDbText
 10
-127.2924214135946
 20
14.1979876583216
 30
0.0
 40
2.0
  1
Vitreous China
 41
0.8
  7
SANINDUSA
 72
     4
 11
-119.231709526422
 21
15.22216495852308
 31
0.0
100
AcDbAttributeDefinition
  3
Nome do Material:
  2
MATERIAL
 70
     0
  0
ATTDEF
  5
BB3
330
B9E
100
AcDbEntity
  8
1
100
AcDbText
 10
-103.1563452122093
 20
14.38019043949261
 30
0.0
 40
2.0
  1
Branco
 41
0.8
  7
SANINDUSA
 72
     4
 11
-99.33418268702462
 21
15.35937109765245
 31
0.0
100
AcDbAttributeDefinition
  3
cor da peça
  2
COR
 70
     0
  0
ATTDEF
  5
BB4
330
B9E
100
AcDbEntity
  8
1
100
AcDbText
 10
-116.7235057085292
 20
5.975822699798522
 30
0.0
 40
2.0
  1
Vidrado
 41
0.8
  7
SANINDUSA
 72
     4
 11
-112.5
 21
7.0
 31
0.0
100
AcDbAttributeDefinition
  3
Tipo de acabamento:
  2
ACABAMENTO
 70
     0
  0
ATTDEF
  5
BB5
330
B9E
100
AcDbEntity
  8
1
100
AcDbText
 10
-79.18527869967246
 20
16.65066409850533
 30
0.0
 40
2.0
  1
XXXXXXX
 41
0.8
  7
SANINDUSA
 72
     4
 11
-73.90871724903445
 21
17.65066409850533
 31
0.0
100
AcDbAttributeDefinition
  3
Normas
  2
NORMAS
 70
     0
  0
ATTDEF
  5
BB6
330
B9E
100
AcDbEntity
  8
1
100
AcDbText
 10
-30.55312290127603
 20
14.0
 30
0.0
 40
2.0
  1
XXXXXXXXXXXXXX
 41
0.8
  7
SANINDUSA
 72
     4
 11
-20.0
 21
15.0
 31
0.0
100
AcDbAttributeDefinition
  3
Substitui o desenho:
  2
SUBSTITUI
 70
     0
  0
ATTDEF
  5
BB7
330
B9E
100
AcDbEntity
  8
1
100
AcDbText
 10
-31.30691739422431
 20
6.0
 30
0.0
 40
2.0
  1
XXXXXXXXXXXXXXX
 41
0.8
  7
SANINDUSA
 72
     4
 11
-20.0
 21
7.0
 31
0.0
100
AcDbAttributeDefinition
  3
Substituido por:
  2
SUBSTITUIDO
 70
     0
  0
ATTDEF
  5
BB8
330
B9E
100
AcDbEntity
  8
1
100
AcDbText
 10
-110.0220608548302
 20
1.478208457928303
 30
0.0
 40
2.0
  1
XXXXXXXXXXXXXXXXXXXXXXXXXXXXXXXXXX
 41
0.8
  7
SANINDUSA
 11
-110.0220608548302
 21
2.478208457928303
 31
0.0
100
AcDbAttributeDefinition
  3
Localização do desenho:
  2
LOC-DWG
 70
     0
 74
     2
  0
LINE
  5
BB9
330
B9E
100
AcDbEntity
  8
3
100
AcDbLine
 10
-135.0
 20
4.0
 30
0.0
 11
0.0000000000004547
 21
4.0
 31
0.0
  0
LINE
  5
BBA
330
B9E
100
AcDbEntity
  8
3
100
AcDbLine
 10
-90.00000000000046
 20
12.0
 30
0.0
 11
-135.0
 21
12.0
 31
0.0
  0
LINE
  5
BBB
330
B9E
100
AcDbEntity
  8
3
100
AcDbLine
 10
-135.0
 20
32.5
 30
0.0
 11
-40.0
 21
32.5
 31
0.0
  0
TEXT
  5
BBC
330
B9E
100
AcDbEntity
  8
1
100
AcDbText
 10
-134.0
 20
1.25
 30
0.0
 40
2.0
  1
Localização do des.:
 41
0.8
  7
SANINDUSA
 11
-134.0
 21
2.25
 31
0.0
100
AcDbText
 73
     2
  0
LINE
  5
BBD
330
B9E
100
AcDbEntity
  8
3
100
AcDbLine
 10
-180.0
 20
65.0
 30
0.0
 11
0.0
 21
65.0
 31
0.0
  0
LINE
  5
BBE
330
B9E
100
AcDbEntity
  8
leg fin
100
AcDbLine
 10
-40.0
 20
25.05956924886846
 30
0.0
 11
-135.0
 21
25.05956924886846
 31
0.0
  0
LINE
  5
BBF
330
B9E
100
AcDbEntity
  8
leg fin
100
AcDbLine
 10
-40.0
 20
28.5
 30
0.0
 11
-135.0
 21
28.5
 31
0.0
  0
LINE
  5
BC0
330
B9E
100
AcDbEntity
  8
3
100
AcDbLine
 10
-135.0
 20
50.0
 30
0.0
 11
-40.0
 21
50.0
 31
0.0
  0
TEXT
  5
BC1
330
B9E
100
AcDbEntity
  8
1
100
AcDbText
 10
-134.0
 20
29.75
 30
0.0
 40
2.0
  1
Desenho nº:
 41
0.8
  7
SANINDUSA
 11
-134.0
 21
30.75
 31
0.0
100
AcDbText
 73
     2
  0
TEXT
  5
BC2
330
B9E
100
AcDbEntity
  8
1
100
AcDbText
 10
-134.0
 20
9.25
 30
0.0
 40
2.0
  1
Acabamento:
 41
0.8
  7
SANINDUSA
 11
-134.0
 21
10.25
 31
0.0
100
AcDbText
 73
     2
  0
LINE
  5
BC3
330
B9E
100
AcDbEntity
  8
3
100
AcDbLine
 10
-180.0
 20
20.0
 30
0.0
 11
0.0
 21
20.0
 31
0.0
  0
LINE
  5
BC4
330
B9E
100
AcDbEntity
  8
1
100
AcDbLine
 10
-174.5810776056337
 20
55.5
 30
0.0
 11
-174.5810776056337
 21
65.0
 31
0.0
  0
LINE
  5
BC5
330
B9E
100
AcDbEntity
  8
1
100
AcDbLine
 10
-168.9210461879161
 20
55.5
 30
0.0
 11
-168.9210461879161
 21
65.0
 31
0.0
  0
LINE
  5
BC6
330
B9E
100
AcDbEntity
  8
1
100
AcDbLine
 10
-154.0988595589306
 20
55.5
 30
0.0
 11
-154.0988595589306
 21
65.0
 31
0.0
  0
LINE
  5
BC7
330
B9E
100
AcDbEntity
  8
3
100
AcDbLine
 10
-180.0
 20
65.0
 30
0.0
 11
-180.0
 21
0.0
 31
0.0
  0
LINE
  5
BC8
330
B9E
100
AcDbEntity
  8
3
100
AcDbLine
 10
-135.0
 20
0.0
 30
0.0
 11
-135.0
 21
65.0
 31
0.0
  0
TEXT
  5
BC9
330
B9E
100
AcDbEntity
  8
1
100
AcDbText
 10
-179.0
 20
9.75
 30
0.0
 40
1.5
  1
Des.
 41
0.8
  7
SANINDUSA
 11
-179.0
 21
10.5
 31
0.0
100
AcDbText
 73
     2
  0
LINE
  5
BCA
330
B9E
100
AcDbEntity
  8
1
100
AcDbLine
 10
-168.9210461879161
 20
20.0
 30
0.0
 11
-168.9210461879161
 21
0.0
 31
0.0
  0
LINE
  5
BCB
330
B9E
100
AcDbEntity
  8
1
100
AcDbLine
 10
-154.0988595589306
 20
20.0
 30
0.0
 11
-154.0988595589306
 21
0.0
 31
0.0
  0
LINE
  5
BCC
330
B9E
100
AcDbEntity
  8
1
100
AcDbLine
 10
-180.0
 20
4.0
 30
0.0
 11
-135.0
 21
4.0
 31
0.0
  0
LINE
  5
BCD
330
B9E
100
AcDbEntity
  8
1
100
AcDbLine
 10
-180.0
 20
8.0
 30
0.0
 11
-135.0
 21
8.0
 31
0.0
  0
TEXT
  5
BCE
330
B9E
100
AcDbEntity
  8
1
100
AcDbText
 10
-179.0
 20
1.73257823687436
 30
0.0
 40
1.5
  1
Aprov.
 41
0.8
  7
SANINDUSA
 11
-179.0
 21
2.48257823687436
 31
0.0
100
AcDbText
 73
     2
  0
TEXT
  5
BCF
330
B9E
100
AcDbEntity
  8
1
100
AcDbText
 10
-179.0
 20
5.75
 30
0.0
 40
1.5
  1
Ver.
 41
0.8
  7
SANINDUSA
 11
-179.0
 21
6.5
 31
0.0
100
AcDbText
 73
     2
  0
LINE
  5
BD0
330
B9E
100
AcDbEntity
  8
1
100
AcDbLine
 10
-180.0
 20
16.0
 30
0.0
 11
-135.0
 21
16.0
 31
0.0
  0
LINE
  5
BD1
330
B9E
100
AcDbEntity
  8
1
100
AcDbLine
 10
-180.0
 20
12.0
 30
0.0
 11
-135.0
 21
12.0
 31
0.0
  0
TEXT
  5
BD2
330
B9E
100
AcDbEntity
  8
1
100
AcDbText
 10
-179.0
 20
13.75
 30
0.0
 40
1.5
  1
Proj.
 41
0.8
  7
SANINDUSA
 11
-179.0
 21
14.5
 31
0.0
100
AcDbText
 73
     2
  0
TEXT
  5
BD3
330
B9E
100
AcDbEntity
  8
1
100
AcDbText
 10
-167.9210461879161
 20
17.75
 30
0.0
 40
1.5
  1
Data
 41
0.8
  7
SANINDUSA
 11
-167.9210461879161
 21
18.5
 31
0.0
100
AcDbText
 73
     2
  0
TEXT
  5
BD4
330
B9E
100
AcDbEntity
  8
1
100
AcDbText
 10
-153.0988595589306
 20
17.75
 30
0.0
 40
1.5
  1
Nome
 41
0.8
  7
SANINDUSA
 11
-153.0988595589306
 21
18.5
 31
0.0
100
AcDbText
 73
     2
  0
LINE
  5
BD5
330
B9E
100
AcDbEntity
  8
leg fin
100
AcDbLine
 10
-130.0
 20
20.0
 30
0.0
 11
-130.0
 21
28.5
 31
0.0
  0
TEXT
  5
BD6
330
B9E
100
AcDbEntity
  8
1
100
AcDbText
 10
-134.0
 20
17.25
 30
0.0
 40
2.0
  1
Material:
 41
0.8
  7
SANINDUSA
 11
-134.0
 21
18.25
 31
0.0
100
AcDbText
 73
     2
  0
TEXT
  5
BD7
330
B9E
100
AcDbEntity
  8
1
100
AcDbText
 10
-129.0
 20
26.43288406845113
 30
0.0
 40
1.5
  1
Ano:
 41
0.8
  7
SANINDUSA
 11
-129.0
 21
27.18288406845113
 31
0.0
100
AcDbText
 73
     2
  0
LINE
  5
BD8
330
B9E
100
AcDbEntity
  8
1
100
AcDbLine
 10
-180.0
 20
55.5
 30
0.0
 11
-135.0
 21
55.5
 31
0.0
  0
TEXT
  5
BD9
330
B9E
100
AcDbEntity
  8
1
100
AcDbText
 10
-179.0
 20
52.67772246885193
 30
0.0
 40
1.5
  1
descrição
 41
0.8
  7
SANINDUSA
 11
-179.0
 21
53.42772246885193
 31
0.0
100
AcDbText
 73
     2
  0
TEXT
  5
BDA
330
B9E
100
AcDbEntity
  8
1
100
AcDbText
 10
-134.0
 20
47.25
 30
0.0
 40
2.0
  1
Peça:
 41
0.8
  7
SANINDUSA
 11
-134.0
 21
48.25
 31
0.0
100
AcDbText
 73
     2
  0
LINE
  5
BDB
330
B9E
100
AcDbEntity
  8
1
100
AcDbLine
 10
-180.0
 20
59.5
 30
0.0
 11
-135.0
 21
59.5
 31
0.0
  0
TEXT
  5
BDC
330
B9E
100
AcDbEntity
  8
1
100
AcDbText
 10
-173.5810776056337
 20
62.75
 30
0.0
 40
1.5
  1
Alt.
 41
0.8
  7
SANINDUSA
 11
-173.5810776056337
 21
63.5
 31
0.0
100
AcDbText
 73
     2
  0
TEXT
  5
BDD
330
B9E
100
AcDbEntity
  8
1
100
AcDbText
 10
-179.0
 20
62.75
 30
0.0
 40
1.5
  1
Rev.
 41
0.8
  7
SANINDUSA
 11
-179.0
 21
63.5
 31
0.0
100
AcDbText
 73
     2
  0
TEXT
  5
BDE
330
B9E
100
AcDbEntity
  8
1
100
AcDbText
 10
-167.9210461879161
 20
62.75
 30
0.0
 40
1.5
  1
Data
 41
0.8
  7
SANINDUSA
 11
-167.9210461879161
 21
63.5
 31
0.0
100
AcDbText
 73
     2
  0
TEXT
  5
BDF
330
B9E
100
AcDbEntity
  8
1
100
AcDbText
 10
-153.0988595589306
 20
62.75
 30
0.0
 40
1.5
  1
Nome
 41
0.8
  7
SANINDUSA
 11
-153.0988595589306
 21
63.5
 31
0.0
100
AcDbText
 73
     2
  0
TEXT
  5
BE0
330
B9E
100
AcDbEntity
  8
1
100
AcDbText
 10
-134.0
 20
62.25
 30
0.0
 40
2.0
  1
Produto:
 41
0.8
  7
SANINDUSA
 11
-134.0
 21
63.25
 31
0.0
100
AcDbText
 73
     2
  0
LINE
  5
BE1
330
B9E
100
AcDbEntity
  8
3
100
AcDbLine
 10
-40.0
 20
4.0
 30
0.0
 11
-40.0
 21
65.0
 31
0.0
  0
LWPOLYLINE
  5
BE2
102
{ACAD_REACTORS
330
BEC
102
}
330
B9E
100
AcDbEntity
  8
9
100
AcDbPolyline
 90
       12
 70
     1
 43
0.0
 10
-3.038714600644652
 20
58.90010174665076
 10
-5.726962862472191
 20
58.90010174665076
 10
-5.726962862472191
 20
58.5001017466509
 10
-3.038748516195028
 20
58.5001017466509
 42
-0.4142135623731731
 10
-2.638748516194482
 20
58.1001017466508
 10
-2.638748516194482
 20
57.42799728675596
 10
-5.21497371544865
 20
57.42799728675596
 42
0.4142135623731289
 10
-6.014973715448377
 20
56.627997286756
 10
-6.014973715448377
 20
55.92380871629643
 42
0.4142135623731132
 10
-5.21497371544865
 20
55.12380871629648
 10
-2.23871460064447
 20
55.12380871629648
 10
-2.23871460064447
 20
58.10010174665103
 42
0.4142135623730717
  0
LWPOLYLINE
  5
BE3
102
{ACAD_REACTORS
330
BEC
102
}
330
B9E
100
AcDbEntity
  8
9
100
AcDbPolyline
 90
       20
 70
     1
 43
0.0
 10
-10.01531287095122
 20
57.82799728675581
 10
-10.01531287095122
 20
58.10010174665103
 42
-0.4142135623730744
 10
-9.615312870951584
 20
58.5001017466509
 10
-6.92703069357276
 20
58.5001017466509
 10
-6.92703069357276
 20
58.90010174665076
 10
-9.615346786501959
 20
58.90010174665076
 42
0.4142135623730883
 10
-10.41534678650168
 20
58.1001017466508
 10
-10.41534678650168
 20
57.82796337120567
 42
0.4142135623730717
 10
-9.615346786501959
 20
57.02796337120571
 10
-7.423079531965413
 20
57.02796337120571
 42
-0.4142135623730847
 10
-7.023079531965322
 20
56.62796337120562
 10
-7.023079531965322
 20
55.90786840766487
 42
-0.4142135623730744
 10
-7.423079531965413
 20
55.507868407665
 10
-10.41534678650168
 20
55.507868407665
 10
-10.41534678650168
 20
55.12380871629648
 10
-7.445787917283723
 20
55.12380871629648
 42
0.4114777732064574
 10
-6.645822882998345
 20
55.9163291493976
 10
-6.639238813324936
 20
56.62051771985716
 42
0.4169546541682913
 10
-7.439203847610315
 20
57.42799728675596
 10
-9.615312870951584
 20
57.42799728675596
 42
-0.4142135623731576
  0
LWPOLYLINE
  5
BE4
102
{ACAD_REACTORS
330
BEC
102
}
330
B9E
100
AcDbEntity
  8
9
100
AcDbPolyline
 90
       12
 70
     1
 43
0.0
 10
-14.41561811090378
 20
58.90010174665076
 10
-14.79964388672215
 20
58.90010174665076
 10
-14.79964388672215
 20
55.92380871629643
 42
0.4142135623731133
 10
-13.99964388672242
 20
55.12380871629648
 10
-11.8233508563676
 20
55.12380871629648
 42
0.4142135623730872
 10
-11.02335085636741
 20
55.92380871629643
 10
-11.02335085636741
 20
58.90010174665076
 10
-11.42338477191788
 20
58.90010174665076
 10
-11.42338477191788
 20
55.91567577726095
 42
-0.4131711701795318
 10
-11.82196067063523
 20
55.51567831234956
 10
-14.0141940096214
 20
55.50787335710947
 42
-0.4152567234624407
 10
-14.41561811090378
 20
55.90787082202087
  0
LWPOLYLINE
  5
BE5
102
{ACAD_REACTORS
330
BEC
102
}
330
B9E
100
AcDbEntity
  8
9
100
AcDbPolyline
 90
        6
 70
     1
 43
0.0
 10
-15.80771578768872
 20
55.507868407665
 10
-18.39994912667453
 20
55.507868407665
 42
-0.4142135623731731
 10
-18.79994912667462
 20
55.90786840766487
 10
-18.79994912667462
 20
58.10010174665103
 42
-0.4142135623730744
 10
-18.39994912667453
 20
58.5001017466509
 10
-15.80771578768872
 20
58.5001017466509
  0
LWPOLYLINE
  5
BE6
102
{ACAD_REACTORS
330
BEC
102
}
330
B9E
100
AcDbEntity
  8
9
100
AcDbPolyline
 90
        8
 70
     1
 43
0.0
 10
-15.4236900118708
 20
59.87619128370352
 10
-15.80771578768872
 20
59.87619128370352
 10
-15.80771578768872
 20
58.90010174665076
 10
-18.39176256411201
 20
58.90010174665076
 42
0.4131164467977967
 10
-19.19175694739761
 20
58.1030995310698
 10
-19.1999120763262
 20
55.92680650071542
 42
0.4153115297271718
 10
-18.39991769304061
 20
55.12380871629648
 10
-15.4236900118708
 20
55.12380871629648
  0
LWPOLYLINE
  5
BE7
102
{ACAD_REACTORS
330
BEC
102
}
330
B9E
100
AcDbEntity
  8
9
100
AcDbPolyline
 90
       10
 70
     1
 43
0.0
 10
-20.59201288790928
 20
58.90010174665076
 10
-23.56830591826338
 20
58.90010174665076
 10
-23.56830591826338
 20
55.12380871629648
 10
-23.18424622689509
 20
55.12380871629648
 10
-23.18424622689509
 20
58.5001017466509
 10
-20.59204680345965
 20
58.5001017466509
 42
-0.4142135623730898
 10
-20.19204680345956
 20
58.1001017466508
 10
-20.19204680345956
 20
55.12380871629648
 10
-19.79201288790909
 20
55.12380871629648
 10
-19.79201288790909
 20
58.10010174665103
 42
0.4142135623731132
  0
LWPOLYLINE
  5
BE8
102
{ACAD_REACTORS
330
BEC
102
}
330
B9E
100
AcDbEntity
  8
9
100
AcDbPolyline
 90
        4
 70
     1
 43
0.0
 10
-24.19231812786165
 20
58.90010174665076
 10
-24.57637781922995
 20
58.90010174665076
 10
-24.57637781922995
 20
55.12380871629648
 10
-24.19231812786165
 20
55.12380871629648
  0
LWPOLYLINE
  5
BE9
102
{ACAD_REACTORS
330
BEC
102
}
330
B9E
100
AcDbEntity
  8
9
100
AcDbPolyline
 90
       10
 70
     1
 43
0.0
 10
-28.57661522808212
 20
58.5001017466509
 10
-25.98444972019706
 20
58.5001017466509
 42
-0.4142135623731731
 10
-25.58444972019652
 20
58.1001017466508
 10
-25.58444972019652
 20
55.12380871629648
 10
-25.2004239443786
 20
55.12380871629648
 10
-25.2004239443786
 20
58.10010174665103
 42
0.4142135623730717
 10
-26.00042394437833
 20
58.90010174665076
 10
-28.97664914363259
 20
58.90010174665076
 10
-28.97664914363259
 20
55.12380871629648
 10
-28.57661522808212
 20
55.12380871629648
  0
LWPOLYLINE
  5
BEA
102
{ACAD_REACTORS
330
BEC
102
}
330
B9E
100
AcDbEntity
  8
9
100
AcDbPolyline
 90
       12
 70
     1
 43
0.0
 10
-29.58465321349832
 20
58.10010174665103
 42
0.4142135623730716
 10
-30.3846532134985
 20
58.90010174665076
 10
-33.07296930642724
 20
58.90010174665076
 10
-33.07296930642724
 20
58.5001017466509
 10
-30.38468712904842
 20
58.5001017466509
 42
-0.4142135623730067
 10
-29.98468712904878
 20
58.1001017466508
 10
-29.98468712904878
 20
57.42799728675618
 10
-32.56098015940324
 20
57.42799728675596
 42
0.4142135623731289
 10
-33.36098015940343
 20
56.627997286756
 10
-33.36098015940343
 20
55.92380871629643
 42
0.4142135623731132
 10
-32.56098015940324
 20
55.12380871629648
 10
-29.58465321349832
 20
55.12380871629648
  0
LWPOLYLINE
  5
BEB
102
{ACAD_REACTORS
330
BEC
102
}
330
B9E
100
AcDbEntity
  8
9
100
AcDbPolyline
 90
       20
 70
     1
 43
0.0
 10
-34.7850262845518
 20
57.42799728675596
 10
-36.96125148380543
 20
57.42799728675596
 42
-0.4142135623730898
 10
-37.36125148380552
 20
57.82799728675604
 10
-37.36125148380552
 20
58.10010174665103
 42
-0.4142135623730744
 10
-36.96125148380543
 20
58.5001017466509
 10
-34.27303713752781
 20
58.50010174665067
 10
-34.27303713752781
 20
58.90010174665076
 10
-36.96128539935535
 20
58.90010174665076
 42
0.4142135623731289
 10
-37.76128539935553
 20
58.1001017466508
 10
-37.76128539935553
 20
57.82796337120567
 42
0.4142135623730716
 10
-36.9612853993558
 20
57.02796337120571
 10
-34.76901814481926
 20
57.02796337120571
 42
-0.414213562373168
 10
-34.36901814481962
 20
56.62796337120562
 10
-34.36901814481962
 20
55.90786840766487
 42
-0.4142135623730744
 10
-34.76901814481926
 20
55.507868407665
 10
-37.76128539935553
 20
55.507868407665
 10
-37.76128539935553
 20
55.12380871629648
 10
-34.7850262845518
 20
55.12380871629648
 42
0.4142135623731289
 10
-33.98502628455162
 20
55.92380871629643
 10
-33.98502628455162
 20
56.627997286756
 42
0.4142135623731132
  0
HATCH
  5
BEC
330
B9E
100
AcDbEntity
  8
9
100
AcDbHatch
 10
0.0
 20
0.0
 30
0.0
210
0.0
220
0.0
230
1.0
  2
SOLID
 70
     1
 71
     1
 91
       13
 92
        7
 72
     1
 73
     1
 93
       20
 10
-34.36901814481962
 20
55.90786840766487
 42
-0.414213562372991
 10
-34.76901814481926
 20
55.507868407665
 42
0.0
 10
-37.76128539935553
 20
55.507868407665
 42
0.0
 10
-37.76128539935553
 20
55.12380871629648
 42
0.0
 10
-34.7850262845518
 20
55.12380871629648
 42
0.4142135623731705
 10
-33.98502628455162
 20
55.92380871629666
 42
0.0
 10
-33.98502628455162
 20
56.627997286756
 42
0.4142135623731547
 10
-34.7850262845518
 20
57.42799728675596
 42
0.0
 10
-36.96125148380543
 20
57.42799728675596
 42
-0.4142135623730898
 10
-37.36125148380552
 20
57.82799728675604
 42
0.0
 10
-37.36125148380552
 20
58.1001017466508
 42
-0.4142135623731575
 10
-36.96125148380543
 20
58.5001017466509
 42
0.0
 10
-34.27303713752781
 20
58.50010174665067
 42
0.0
 10
-34.27303713752781
 20
58.90010174665076
 42
0.0
 10
-36.96128539935535
 20
58.90010174665076
 42
0.4142135623731705
 10
-37.76128539935553
 20
58.10010174665058
 42
0.0
 10
-37.76128539935553
 20
57.82796337120544
 42
0.4142135623730299
 10
-36.9612853993558
 20
57.02796337120571
 42
0.0
 10
-34.76901814481926
 20
57.02796337120571
 42
-0.4142135623730015
 10
-34.36901814481962
 20
56.62796337120608
 42
0.0
 97
        1
330
BEB
 92
        7
 72
     1
 73
     1
 93
       12
 10
-33.36098015940343
 20
55.92380871629666
 42
0.4142135623731547
 10
-32.56098015940324
 20
55.12380871629648
 42
0.0
 10
-29.58465321349877
 20
55.12380871629648
 42
0.0
 10
-29.58465321349832
 20
58.10010174665058
 42
0.4142135623731964
 10
-30.3846532134985
 20
58.90010174665076
 42
0.0
 10
-33.07296930642724
 20
58.90010174665076
 42
0.0
 10
-33.07296930642724
 20
58.50010174665067
 42
0.0
 10
-30.38468712904887
 20
58.5001017466509
 42
-0.4142135623732564
 10
-29.98468712904878
 20
58.10010174665103
 42
0.0
 10
-29.98468712904923
 20
57.42799728675596
 42
0.0
 10
-32.56098015940324
 20
57.42799728675596
 42
0.4142135623731705
 10
-33.36098015940343
 20
56.627997286756
 42
0.0
 97
        1
330
BEA
 92
       22
 72
     1
 73
     1
 93
        6
 10
-32.97692046803468
 20
56.62796337120562
 42
-0.4142135623731576
 10
-32.57692046803459
 20
57.02796337120571
 42
0.0
 10
-29.98468712904878
 20
57.02796337120571
 42
0.0
 10
-29.98468712904878
 20
55.507868407665
 42
0.0
 10
-32.57692046803459
 20
55.507868407665
 42
-0.4142135623731731
 10
-32.97692046803468
 20
55.90786840766487
 42
0.0
 97
        1
330
C11
 92
        7
 72
     1
 73
     1
 93
       10
 10
-28.57661522808212
 20
58.5001017466509
 42
0.0
 10
-25.98444972019661
 20
58.5001017466509
 42
-0.4142135623730067
 10
-25.58444972019652
 20
58.10010174665058
 42
0.0
 10
-25.58444972019606
 20
55.12380871629648
 42
0.0
 10
-25.20042394437906
 20
55.12380871629648
 42
0.0
 10
-25.2004239443786
 20
58.1001017466508
 42
0.4142135623731134
 10
-26.00042394437833
 20
58.90010174665076
 42
0.0
 10
-28.97664914363259
 20
58.90010174665076
 42
0.0
 10
-28.97664914363259
 20
55.12380871629648
 42
0.0
 10
-28.57661522808212
 20
55.12380871629648
 42
0.0
 97
        1
330
BE9
 92
        7
 72
     0
 73
     1
 93
        4
 10
-24.57637781922995
 20
55.12380871629648
 10
-24.19231812786165
 20
55.12380871629648
 10
-24.19231812786165
 20
58.90010174665076
 10
-24.57637781922995
 20
58.90010174665076
 97
        1
330
BE8
 92
        7
 72
     0
 73
     1
 93
        4
 10
-24.19231812786165
 20
59.87619128370352
 10
-24.5763778192304
 20
59.87619128370352
 10
-24.5763778192304
 20
59.28412752246913
 10
-24.1923181278612
 20
59.28412752246913
 97
        1
330
C12
 92
        7
 72
     1
 73
     1
 93
       10
 10
-23.18424622689509
 20
58.5001017466509
 42
0.0
 10
-20.59204680345965
 20
58.5001017466509
 42
-0.4142135623730898
 10
-20.19204680345956
 20
58.1001017466508
 42
0.0
 10
-20.19204680345956
 20
55.12380871629648
 42
0.0
 10
-19.79201288790909
 20
55.12380871629648
 42
0.0
 10
-19.79201288790909
 20
58.1001017466508
 42
0.4142135623731547
 10
-20.59201288790928
 20
58.90010174665076
 42
0.0
 10
-23.56830591826338
 20
58.90010174665076
 42
0.0
 10
-23.56830591826338
 20
55.12380871629648
 42
0.0
 10
-23.18424622689463
 20
55.12380871629648
 42
0.0
 97
        1
330
BE7
 92
        7
 72
     1
 73
     1
 93
        8
 10
-19.1999120763262
 20
55.92680650071542
 42
0.4153115297271299
 10
-18.39991769304061
 20
55.12380871629648
 42
0.0
 10
-15.4236900118708
 20
55.12380871629648
 42
0.0
 10
-15.4236900118708
 20
59.87619128370352
 42
0.0
 10
-15.80771578768872
 20
59.87619128370352
 42
0.0
 10
-15.80771578768872
 20
58.90010174665076
 42
0.0
 10
-18.39176256411201
 20
58.90010174665076
 42
0.4131164467977965
 10
-19.19175694739761
 20
58.1030995310698
 42
0.0
 97
        1
330
BE6
 92
       22
 72
     1
 73
     1
 93
        6
 10
-18.79994912667462
 20
58.1001017466508
 42
-0.4142135623731575
 10
-18.39994912667453
 20
58.5001017466509
 42
0.0
 10
-15.80771578768872
 20
58.50010174665067
 42
0.0
 10
-15.80771578768827
 20
55.507868407665
 42
0.0
 10
-18.39994912667453
 20
55.507868407665
 42
-0.4142135623731731
 10
-18.79994912667462
 20
55.90786840766487
 42
0.0
 97
        1
330
BE5
 92
        7
 72
     1
 73
     1
 93
       12
 10
-14.79964388672215
 20
55.92380871629621
 42
0.4142135623729885
 10
-13.99964388672242
 20
55.12380871629648
 42
0.0
 10
-11.8233508563676
 20
55.12380871629648
 42
0.4142135623731289
 10
-11.02335085636741
 20
55.92380871629666
 42
0.0
 10
-11.02335085636741
 20
58.90010174665076
 42
0.0
 10
-11.42338477191788
 20
58.90010174665076
 42
0.0
 10
-11.42338477191788
 20
55.91567577726095
 42
-0.4131711701795319
 10
-11.82196067063523
 20
55.51567831234956
 42
0.0
 10
-14.01419400962095
 20
55.50787335710947
 42
-0.4152567234626918
 10
-14.41561811090378
 20
55.90787082202087
 42
0.0
 10
-14.41561811090378
 20
58.90010174665076
 42
0.0
 10
-14.7996438867226
 20
58.90010174665076
 42
0.0
 97
        1
330
BE4
 92
        7
 72
     1
 73
     1
 93
       20
 10
-7.423079531965413
 20
57.02796337120571
 42
-0.414213562373168
 10
-7.023079531965322
 20
56.62796337120562
 42
0.0
 10
-7.023079531965322
 20
55.90786840766487
 42
-0.4142135623731575
 10
-7.423079531965413
 20
55.507868407665
 42
0.0
 10
-10.41534678650168
 20
55.507868407665
 42
0.0
 10
-10.41534678650168
 20
55.12380871629648
 42
0.0
 10
-7.445787917283723
 20
55.12380871629648
 42
0.4114777732065809
 10
-6.645822882998345
 20
55.91632914939783
 42
0.0
 10
-6.639238813324936
 20
56.62051771985716
 42
0.4169546541682913
 10
-7.439203847610315
 20
57.42799728675596
 42
0.0
 10
-9.615312870951584
 20
57.42799728675596
 42
-0.4142135623729911
 10
-10.01531287095122
 20
57.82799728675581
 42
0.0
 10
-10.01531287095122
 20
58.10010174665103
 42
-0.414213562372991
 10
-9.615312870951584
 20
58.5001017466509
 42
0.0
 10
-6.92703069357276
 20
58.50010174665067
 42
0.0
 10
-6.927030693572305
 20
58.90010174665076
 42
0.0
 10
-9.615346786501959
 20
58.90010174665076
 42
0.4142135623730467
 10
-10.41534678650168
 20
58.10010174665103
 42
0.0
 10
-10.41534678650168
 20
57.82796337120544
 42
0.4142135623730301
 10
-9.615346786501959
 20
57.02796337120571
 42
0.0
 97
        1
330
BE3
 92
        7
 72
     1
 73
     1
 93
       12
 10
-5.21497371544865
 20
57.42799728675596
 42
0.4142135623730871
 10
-6.014973715448377
 20
56.627997286756
 42
0.0
 10
-6.014973715448377
 20
55.92380871629621
 42
0.4142135623730715
 10
-5.21497371544865
 20
55.12380871629648
 42
0.0
 10
-2.23871460064447
 20
55.12380871629648
 42
0.0
 10
-2.23871460064447
 20
58.10010174665058
 42
0.414213562373155
 10
-3.038714600644652
 20
58.90010174665076
 42
0.0
 10
-5.726962862471737
 20
58.90010174665076
 42
0.0
 10
-5.726962862472191
 20
58.5001017466509
 42
0.0
 10
-3.038748516194573
 20
58.5001017466509
 42
-0.4142135623730067
 10
-2.638748516194482
 20
58.10010174665058
 42
0.0
 10
-2.638748516194482
 20
57.42799728675596
 42
0.0
 97
        1
330
BE2
 92
       22
 72
     1
 73
     1
 93
        6
 10
-2.638748516194937
 20
57.02796337120571
 42
0.0
 10
-2.638748516194482
 20
55.50786840766477
 42
0.0
 10
-5.21497371544865
 20
55.507868407665
 42
-0.4142135623731731
 10
-5.614973715448741
 20
55.90786840766509
 42
0.0
 10
-5.614973715448741
 20
56.62796337120562
 42
-0.4142135623731576
 10
-5.21497371544865
 20
57.02796337120571
 42
0.0
 97
        1
330
C0D
 75
     0
 76
     1
 47
0.0407044778999864
 98
       13
 10
-34.18710075113677
 20
56.16907953933765
 10
-33.12851374392494
 20
56.49471602641233
 10
-33.12851374392494
 20
56.49471602641233
 10
-28.77202873835904
 20
57.51232930166111
 10
-24.41554807250941
 20
57.91937341678636
 10
-24.41554807250941
 20
59.384734621186
 10
-23.31624584658039
 20
58.3264175319116
 10
-19.04119127844888
 20
57.75655517324913
 10
-19.04119127844888
 20
57.75655517324913
 10
-14.64399105416578
 20
57.43091868617466
 10
-8.048195057457178
 20
57.22739662861204
 10
-4.017427461911665
 20
57.18669281458665
 10
-4.017427461911665
 20
57.18669281458665
  0
TEXT
  5
BED
330
B9E
100
AcDbEntity
  8
leg fin
100
AcDbText
 10
3.391127401597259
 20
2.107634911895729
 30
0.0
 40
1.5
  1
Este desenho é propriedade da Sanindusa, S.A., e não pode ser copiado nem divulgado sem nossa autorização.
 50
90.0
 41
0.8
  7
SANINDUSA
100
AcDbText
  0
LINE
  5
BEE
330
B9E
100
AcDbEntity
  8
3
100
AcDbLine
 10
-90.0
 20
4.0
 30
0.0
 11
-90.0
 21
12.0
 31
0.0
  0
TEXT
  5
BEF
330
B9E
100
AcDbEntity
  8
1
100
AcDbText
 10
-39.0
 20
9.25
 30
0.0
 40
2.0
  1
Substituido por:
 41
0.8
  7
SANINDUSA
 11
-39.0
 21
10.25
 31
0.0
100
AcDbText
 73
     2
  0
POINT
  5
BF0
330
B9E
100
AcDbEntity
  8
SANINDUSA
100
AcDbPoint
 10
0.0
 20
0.0
 30
0.0
  0
TEXT
  5
BF1
330
B9E
100
AcDbEntity
  8
1
100
AcDbText
 10
-89.0
 20
16.74927010445663
 30
0.0
 40
2.0
  1
Normas:
 41
0.8
  7
SANINDUSA
 11
-89.0
 21
17.74927010445663
 31
0.0
100
AcDbText
 73
     2
  0
LINE
  5
BF2
330
B9E
100
AcDbEntity
  8
3
100
AcDbLine
 10
-90.0
 20
12.0
 30
0.0
 11
-90.0
 21
20.0
 31
0.0
  0
LINE
  5
BF3
330
B9E
100
AcDbEntity
  8
3
100
AcDbLine
 10
-110.546019464768
 20
12.0
 30
0.0
 11
-110.546019464768
 21
20.0
 31
0.0
  0
TEXT
  5
BF4
330
B9E
100
AcDbEntity
  8
1
100
AcDbText
 10
-109.6177520618648
 20
17.25
 30
0.0
 40
2.0
  1
Cor:
 41
0.8
  7
SANINDUSA
 11
-109.6177520618648
 21
18.25
 31
0.0
100
AcDbText
 73
     2
  0
LINE
  5
BF5
330
B9E
100
AcDbEntity
  8
leg fin
100
AcDbLine
 10
-91.42857142857156
 20
20.0
 30
0.0
 11
-91.42857142857156
 21
28.5
 31
0.0
  0
LINE
  5
BF6
330
B9E
100
AcDbEntity
  8
leg fin
100
AcDbLine
 10
-104.2857142857142
 20
20.0
 30
0.0
 11
-104.2857142857142
 21
28.5
 31
0.0
  0
LINE
  5
BF7
330
B9E
100
AcDbEntity
  8
leg fin
100
AcDbLine
 10
-117.1428571428573
 20
20.0
 30
0.0
 11
-117.1428571428573
 21
28.5
 31
0.0
  0
POINT
  5
BF8
330
B9E
100
AcDbEntity
  8
SANINDUSA
100
AcDbPoint
 10
-117.1428571428573
 20
28.5
 30
0.0
  0
POINT
  5
BF9
330
B9E
100
AcDbEntity
  8
SANINDUSA
100
AcDbPoint
 10
-104.2857142857142
 20
28.5
 30
0.0
  0
POINT
  5
BFA
330
B9E
100
AcDbEntity
  8
SANINDUSA
100
AcDbPoint
 10
-91.42857142857156
 20
28.5
 30
0.0
  0
TEXT
  5
BFB
330
B9E
100
AcDbEntity
  8
1
100
AcDbText
 10
-116.200160604496
 20
26.43288406845113
 30
0.0
 40
1.5
  1
Nº Seq.:
 41
0.8
  7
SANINDUSA
 11
-116.200160604496
 21
27.18288406845113
 31
0.0
100
AcDbText
 73
     2
  0
TEXT
  5
BFC
330
B9E
100
AcDbEntity
  8
1
100
AcDbText
 10
-103.2106584078738
 20
26.43288406845113
 30
0.0
 40
1.5
  1
Tipo:
 41
0.8
  7
SANINDUSA
 11
-103.2106584078738
 21
27.18288406845113
 31
0.0
100
AcDbText
 73
     2
  0
TEXT
  5
BFD
330
B9E
100
AcDbEntity
  8
1
100
AcDbText
 10
-90.22114672289353
 20
26.43288406845113
 30
0.0
 40
1.5
  1
Prod.:
 41
0.8
  7
SANINDUSA
 11
-90.22114672289353
 21
27.18288406845113
 31
0.0
100
AcDbText
 73
     2
  0
TEXT
  5
BFE
330
B9E
100
AcDbEntity
  8
1
100
AcDbText
 10
-64.77320576346574
 20
26.43288406845113
 30
0.0
 40
1.5
  1
Rev.:
 41
0.8
  7
SANINDUSA
 11
-64.77320576346574
 21
27.18288406845113
 31
0.0
100
AcDbText
 73
     2
  0
LINE
  5
BFF
330
B9E
100
AcDbEntity
  8
leg fin
100
AcDbLine
 10
-52.85714285714266
 20
20.0
 30
0.0
 11
-52.85714285714266
 21
28.5
 31
0.0
  0
LINE
  5
C00
330
B9E
100
AcDbEntity
  8
leg fin
100
AcDbLine
 10
-65.71428571428578
 20
20.0
 30
0.0
 11
-65.71428571428578
 21
28.5
 31
0.0
  0
LINE
  5
C01
330
B9E
100
AcDbEntity
  8
leg fin
100
AcDbLine
 10
-78.57142857142844
 20
20.0
 30
0.0
 11
-78.57142857142844
 21
28.5
 31
0.0
  0
POINT
  5
C02
330
B9E
100
AcDbEntity
  8
SANINDUSA
100
AcDbPoint
 10
-78.57142857142844
 20
28.5
 30
0.0
  0
POINT
  5
C03
330
B9E
100
AcDbEntity
  8
SANINDUSA
100
AcDbPoint
 10
-65.71428571428578
 20
28.5
 30
0.0
  0
POINT
  5
C04
330
B9E
100
AcDbEntity
  8
SANINDUSA
100
AcDbPoint
 10
-52.85714285714266
 20
28.5
 30
0.0
  0
TEXT
  5
C05
330
B9E
100
AcDbEntity
  8
1
100
AcDbText
 10
-77.61097961686573
 20
26.43288406845113
 30
0.0
 40
1.5
  1
Peça:
 41
0.8
  7
SANINDUSA
 11
-77.61097961686573
 21
27.18288406845113
 31
0.0
100
AcDbText
 73
     2
  0
TEXT
  5
C06
330
B9E
100
AcDbEntity
  8
1
100
AcDbText
 10
-52.06538060077036
 20
26.43288406845113
 30
0.0
 40
1.5
  1
Alt.:
 41
0.8
  7
SANINDUSA
 11
-52.06538060077036
 21
27.18288406845113
 31
0.0
100
AcDbText
 73
     2
  0
LINE
  5
C07
330
B9E
100
AcDbEntity
  8
3
100
AcDbLine
 10
0.0
 20
12.0
 30
0.0
 11
-40.0
 21
12.0
 31
0.0
  0
LINE
  5
C08
330
B9E
100
AcDbEntity
  8
3
100
AcDbLine
 10
-40.0
 20
32.5
 30
0.0
 11
0.0
 21
32.5
 31
0.0
  0
TEXT
  5
C09
330
B9E
100
AcDbEntity
  8
1
100
AcDbText
 10
-19.0
 20
29.75
 30
0.0
 40
2.0
  1
Folha:
 41
0.8
  7
SANINDUSA
 11
-19.0
 21
30.75
 31
0.0
100
AcDbText
 73
     2
  0
LINE
  5
C0A
330
B9E
100
AcDbEntity
  8
3
100
AcDbLine
 10
-20.0
 20
32.5
 30
0.0
 11
-20.0
 21
20.0
 31
0.0
  0
TEXT
  5
C0B
330
B9E
100
AcDbEntity
  8
1
100
AcDbText
 10
-39.0
 20
29.75
 30
0.0
 40
2.0
  1
Escala:
 41
0.8
  7
SANINDUSA
 11
-39.0
 21
30.75
 31
0.0
100
AcDbText
 73
     2
  0
TEXT
  5
C0C
330
B9E
100
AcDbEntity
  8
1
100
AcDbText
 10
-39.0
 20
17.25
 30
0.0
 40
2.0
  1
Substitui:
 41
0.8
  7
SANINDUSA
 11
-39.0
 21
18.25
 31
0.0
100
AcDbText
 73
     2
  0
LWPOLYLINE
  5
C0D
102
{ACAD_REACTORS
330
BEC
102
}
330
B9E
100
AcDbEntity
  8
9
100
AcDbPolyline
 90
        6
 70
     1
 43
0.0
 10
-2.638748516194482
 20
57.02796337120571
 10
-2.638748516194482
 20
55.50786840766477
 10
-5.21497371544865
 20
55.507868407665
 42
-0.4142135623730898
 10
-5.614973715448741
 20
55.90786840766487
 10
-5.614973715448741
 20
56.62796337120562
 42
-0.4142135623731576
 10
-5.21497371544865
 20
57.02796337120571
  0
LINE
  5
C0E
330
B9E
100
AcDbEntity
  8
3
100
AcDbLine
 10
-40.0
 20
50.0
 30
0.0
 11
0.0
 21
50.0
 31
0.0
  0
ATTDEF
  5
C0F
330
B9E
100
AcDbEntity
  8
1
100
AcDbText
 10
-31.30691739422431
 20
40.25
 30
0.0
 40
2.0
  1
XXXXXXXXXXXXXXX
 41
0.8
  7
SANINDUSA
 72
     4
 11
-20.0
 21
41.25
 31
0.0
100
AcDbAttributeDefinition
  3
Observações:
  2
OBS
 70
     0
  0
TEXT
  5
C10
330
B9E
100
AcDbEntity
  8
1
100
AcDbText
 10
-39.0
 20
47.25
 30
0.0
 40
2.0
  1
Observações:
 41
0.8
  7
SANINDUSA
 11
-39.0
 21
48.25
 31
0.0
100
AcDbText
 73
     2
  0
LWPOLYLINE
  5
C11
102
{ACAD_REACTORS
330
BEC
102
}
330
B9E
100
AcDbEntity
  8
9
100
AcDbPolyline
 90
        6
 70
     1
 43
0.0
 10
-29.98468712904878
 20
57.02796337120571
 10
-29.98468712904878
 20
55.507868407665
 10
-32.57692046803459
 20
55.507868407665
 42
-0.4142135623731731
 10
-32.97692046803468
 20
55.90786840766487
 10
-32.97692046803468
 20
56.62796337120562
 42
-0.4142135623731576
 10
-32.57692046803459
 20
57.02796337120571
  0
LWPOLYLINE
  5
C12
102
{ACAD_REACTORS
330
BEC
102
}
330
B9E
100
AcDbEntity
  8
9
100
AcDbPolyline
 90
        4
 70
     1
 43
0.0
 10
-24.19231812786165
 20
59.87619128370352
 10
-24.57637781922995
 20
59.87619128370352
 10
-24.57637781922995
 20
59.28412752246913
 10
-24.19231812786165
 20
59.28412752246913
  0
ENDBLK
  5
C14
330
B9E
100
AcDbEntity
  8
0
100
AcDbBlockEnd
  0
ENDSEC
  0
SECTION
  2
ENTITIES
  0
LINE
  5
173D
330
1F
100
AcDbEntity
  8
SANINDUSA
100
AcDbLine
 10
7938.579036386816
 20
2230.094620951117
 30
0.0
 11
7938.590175258726
 21
2230.082675973416
 31
0.0
  0
LINE
  5
173E
330
1F
100
AcDbEntity
  8
SANINDUSA
100
AcDbLine
 10
7938.693566795251
 20
2230.082675973416
 30
0.0
 11
7938.70470566716
 21
2230.094620951117
 31
0.0
  0
LINE
  5
1740
330
1F
100
AcDbEntity
  8
SANINDUSA
100
AcDbLine
 10
7939.016991080014
 20
2230.207743117961
 30
0.0
 11
7939.018965634781
 21
2230.094620951117
 31
0.0
  0
LINE
  5
1745
330
1F
100
AcDbEntity
  8
SANINDUSA
100
AcDbLine
 10
7938.264776419202
 20
2230.094620951117
 30
0.0
 11
7938.266750973965
 21
2230.207743117961
 31
0.0
  0
LINE
  5
1748
330
1F
100
AcDbEntity
  8
SANINDUSA
100
AcDbLine
 10
7938.264776419202
 20
2230.094620951117
 30
0.0
 11
7939.018965634781
 21
2230.094620951117
 31
0.0
  0
LINE
  5
174A
330
1F
100
AcDbEntity
  8
SANINDUSA
100
AcDbLine
 10
7938.27374990783
 20
2230.214620951116
 30
0.0
 11
7939.009992146146
 21
2230.214620951116
 31
0.0
  0
ARC
  5
174C
330
1F
100
AcDbEntity
  8
SANINDUSA
100
AcDbCircle
 10
7938.27374990783
 20
2230.207620951117
 30
0.0
 40
0.0070000000000002
100
AcDbArc
 50
90.0
 51
178.9999999902799
  0
ARC
  5
174D
330
1F
100
AcDbEntity
  8
SANINDUSA
100
AcDbCircle
 10
7939.009992146146
 20
2230.207620951117
 30
0.0
 40
0.0070000000000002
100
AcDbArc
 50
1.000000009720081
 51
90.0
  0
LINE
  5
1761
330
1F
100
AcDbEntity
  8
SANINDUSA
100
AcDbLine
 10
7938.590175258726
 20
2230.082675973416
 30
0.0
 11
7938.693566795251
 21
2230.082675973416
 31
0.0
  0
LINE
  5
179B
330
1F
100
AcDbEntity
  8
SANINDUSA
100
AcDbLine
 10
7937.526666724534
 20
2230.498335280746
 30
0.0
 11
7937.748974727803
 21
2230.498335280747
 31
0.0
  0
LINE
  5
179E
330
1F
100
AcDbEntity
  8
SANINDUSA
100
AcDbLine
 10
7937.944126453331
 20
2229.541526440266
 30
0.0
 11
7937.944126453331
 21
2230.961078994514
 31
0.0
  0
ELLIPSE
  5
17B6
330
1F
100
AcDbEntity
  8
SANINDUSA
100
AcDbEllipse
 10
7937.924105731425
 20
2230.961046089147
 30
0.0
 11
-0.0141714282290511
 21
-0.0141714282449876
 31
0.0
210
0.0
220
0.0
230
1.0
 40
0.9979329808683734
 41
2.356803477216367
 42
3.926381829963185
  0
ELLIPSE
  5
17B9
330
1F
100
AcDbEntity
  8
SANINDUSA
100
AcDbEllipse
 10
7937.924105731425
 20
2229.541559345633
 30
0.0
 11
0.0141714282369854
 21
-0.0141714282369874
 31
0.0
210
0.0
220
0.0
230
1.0
 40
0.9979329808706891
 41
5.498396131367841
 42
7.067974482991506
  0
LINE
  5
17BC
330
1F
100
AcDbEntity
  8
SANINDUSA
100
AcDbLine
 10
7937.354586098608
 20
2229.521538623725
 30
0.0
 11
7937.924138636791
 21
2229.521538623725
 31
0.0
  0
LINE
  5
17BD
330
1F
100
AcDbEntity
  8
SANINDUSA
100
AcDbLine
 10
7937.924138636768
 20
2230.981066811054
 30
0.0
 11
7937.354586098582
 21
2230.981066810414
 31
0.0
  0
ELLIPSE
  5
17BF
330
1F
100
AcDbEntity
  8
SANINDUSA
100
AcDbEllipse
 10
7937.35461900397
 20
2230.961046088507
 30
0.0
 11
0.0141714282449398
 21
-0.0141714282289676
 31
0.0
210
0.0
220
0.0
230
0.9999999999999994
 40
0.9979329808729985
 41
2.356803478338241
 42
3.926381828841476
  0
ELLIPSE
  5
17C2
330
1F
100
AcDbEntity
  8
SANINDUSA
100
AcDbEllipse
 10
7937.354619003975
 20
2229.541559345633
 30
0.0
 11
-0.0141714282369676
 21
-0.0141714282370051
 31
0.0
210
0.0
220
0.0
230
0.9999999999999998
 40
0.9979329808706943
 41
5.498396131369122
 42
7.067974482990119
  0
LINE
  5
17C3
330
1F
100
AcDbEntity
  8
SANINDUSA
100
AcDbLine
 10
7937.334598282063
 20
2230.961078993873
 30
0.0
 11
7937.334598282068
 21
2229.541526440266
 31
0.0
  0
ELLIPSE
  5
17D4
330
1F
100
AcDbEntity
  8
SANINDUSA
100
AcDbEllipse
 10
7938.010059808654
 20
2229.45560528341
 30
0.0
 11
0.0035366109458495
 21
-0.0035366109458464
 31
0.0
210
0.0
220
0.0
230
1.0
 40
0.9996954598818856
 41
5.497939437029295
 42
7.068431177329059
  0
ELLIPSE
  5
17D7
330
1F
100
AcDbEntity
  8
SANINDUSA
100
AcDbEllipse
 10
7938.010059808654
 20
2231.047000165324
 30
0.0
 11
-0.0035366109458496
 21
-0.0035366109458464
 31
0.0
210
0.0
220
0.0
230
0.9999999999999998
 40
0.9996954598818613
 41
2.356346783440368
 42
3.926838523740147
  0
ELLIPSE
  5
17DA
330
1F
100
AcDbEntity
  8
SANINDUSA
100
AcDbEllipse
 10
7937.268664926742
 20
2231.047000165324
 30
0.0
 11
0.0035366109458495
 21
-0.0035366109458463
 31
0.0
210
0.0
220
0.0
230
0.9999999999999998
 40
0.9996954598818776
 41
2.356346783439482
 42
3.926838523739233
  0
ELLIPSE
  5
17DD
330
1F
100
AcDbEntity
  8
SANINDUSA
100
AcDbEllipse
 10
7937.268664926742
 20
2229.45560528341
 30
0.0
 11
-0.0035366109458495
 21
-0.0035366109458464
 31
0.0
210
0.0
220
0.0
230
1.0
 40
0.9996954598818692
 41
5.497939437030137
 42
7.068431177329913
  0
LINE
  5
17DF
330
1F
100
AcDbEntity
  8
SANINDUSA
100
AcDbLine
 10
7938.015060570295
 20
2229.455603760245
 30
0.0
 11
7938.015060570295
 21
2231.047001688489
 31
0.0
  0
LINE
  5
17E0
330
1F
100
AcDbEntity
  8
SANINDUSA
100
AcDbLine
 10
7937.268663403576
 20
2229.450604521769
 30
0.0
 11
7938.010061331819
 21
2229.450604521769
 31
0.0
  0
LINE
  5
17E1
330
1F
100
AcDbEntity
  8
SANINDUSA
100
AcDbLine
 10
7938.010061331819
 20
2231.052000926964
 30
0.0
 11
7937.268663403576
 21
2231.052000926964
 31
0.0
  0
LINE
  5
17E2
330
1F
100
AcDbEntity
  8
SANINDUSA
100
AcDbLine
 10
7937.263664165101
 20
2231.047001688489
 30
0.0
 11
7937.263664165101
 21
2229.455603760245
 31
0.0
  0
LWPOLYLINE
  5
17E8
330
1F
100
AcDbEntity
  8
SANINDUSA
100
AcDbPolyline
 90
        6
 70
   128
 43
0.0
 10
7937.901687665491
 20
2230.948254811043
 10
7937.887687665503
 20
2230.948254847476
 10
7937.83168766563
 20
2230.948255099401
 10
7937.607687665992
 20
2230.948255972961
 10
7937.519906101353
 20
2230.94825557835
 10
7937.377037069902
 20
2230.948254827178
  0
ARC
  5
17EC
330
1F
100
AcDbEntity
  8
SANINDUSA
100
AcDbCircle
 10
7937.377035965152
 20
2230.938262878231
 30
0.0
 40
0.0099919490077909
100
AcDbArc
 50
90.0
 51
179.9951983569975
  0
ARC
  5
17EE
330
1F
100
AcDbEntity
  8
SANINDUSA
100
AcDbCircle
 10
7937.901688477461
 20
2230.938262584452
 30
0.0
 40
0.0099922266241352
100
AcDbArc
 50
0.00645301549887
 51
90.0
  0
LWPOLYLINE
  5
17F6
330
1F
100
AcDbEntity
  8
SANINDUSA
100
AcDbPolyline
 90
        6
 70
   128
 43
0.0
 10
7937.367044016179
 20
2230.938263715599
 10
7937.367044014949
 20
2230.924265848333
 10
7937.367044020679
 20
2230.868274375231
 10
7937.367044261103
 20
2230.644308401138
 10
7937.367044322495
 20
2230.615616954839
 10
7937.367044622513
 20
2230.50832898131
  0
ARC
  5
1809
330
1F
100
AcDbEntity
  8
SANINDUSA
100
AcDbCircle
 10
7937.377036377061
 20
2230.50833039142
 30
0.0
 40
0.0099917546470147
100
AcDbArc
 50
180.0080859930971
 51
270.0
  0
ARC
  5
180A
330
1F
100
AcDbEntity
  8
SANINDUSA
100
AcDbCircle
 10
7937.901688878982
 20
2230.508330005345
 30
0.0
 40
0.0099910387332106
100
AcDbArc
 50
270.0
 51
359.9937218142498
  0
LWPOLYLINE
  5
180C
330
1F
100
AcDbEntity
  8
SANINDUSA
100
AcDbPolyline
 90
        3
 70
   128
 43
0.0
 10
7937.749113670294
 20
2230.49833634688
 10
7937.857687700159
 20
2230.498337847096
 10
7937.901687665491
 20
2230.498338966685
  0
LWPOLYLINE
  5
180D
330
1F
100
AcDbEntity
  8
SANINDUSA
100
AcDbPolyline
 90
        3
 70
   128
 43
0.0
 10
7937.405866962693
 20
2230.498337726533
 10
7937.482505845013
 20
2230.498335306769
 10
7937.526503605835
 20
2230.49833634688
  0
CIRCLE
  5
1813
330
1F
100
AcDbEntity
  8
SANINDUSA
100
AcDbCircle
 10
7937.839387476898
 20
2230.373651638794
 30
0.0
 40
0.0138712141424937
  0
CIRCLE
  5
1814
330
1F
100
AcDbEntity
  8
SANINDUSA
100
AcDbCircle
 10
7937.599364228488
 20
2229.813813845981
 30
0.0
 40
0.0138702934863028
  0
CIRCLE
  5
1815
330
1F
100
AcDbEntity
  8
SANINDUSA
100
AcDbCircle
 10
7937.679365970403
 20
2229.81381979816
 30
0.0
 40
0.0138705010056269
  0
CIRCLE
  5
1816
330
1F
100
AcDbEntity
  8
SANINDUSA
100
AcDbCircle
 10
7937.839414977972
 20
2229.813804213963
 30
0.0
 40
0.0138698420662586
  0
CIRCLE
  5
1817
330
1F
100
AcDbEntity
  8
SANINDUSA
100
AcDbCircle
 10
7937.439288013738
 20
2229.813804430014
 30
0.0
 40
0.0138694562729339
  0
CIRCLE
  5
1818
330
1F
100
AcDbEntity
  8
SANINDUSA
100
AcDbCircle
 10
7937.519339626335
 20
2229.81382779465
 30
0.0
 40
0.0138714257686322
  0
CIRCLE
  5
1819
330
1F
100
AcDbEntity
  8
SANINDUSA
100
AcDbCircle
 10
7937.759423417396
 20
2229.813818138883
 30
0.0
 40
0.0138720386974794
  0
CIRCLE
  5
181A
330
1F
100
AcDbEntity
  8
SANINDUSA
100
AcDbCircle
 10
7937.839410715136
 20
2229.893775773791
 30
0.0
 40
0.0138677839165577
  0
CIRCLE
  5
181B
330
1F
100
AcDbEntity
  8
SANINDUSA
100
AcDbCircle
 10
7937.439295118526
 20
2229.893780587403
 30
0.0
 40
0.0138668609117058
  0
CIRCLE
  5
181C
330
1F
100
AcDbEntity
  8
SANINDUSA
100
AcDbCircle
 10
7937.519333010616
 20
2229.893806545832
 30
0.0
 40
0.0138680440876545
  0
CIRCLE
  5
181D
330
1F
100
AcDbEntity
  8
SANINDUSA
100
AcDbCircle
 10
7937.599345576384
 20
2229.893797334791
 30
0.0
 40
0.0138703643510297
  0
CIRCLE
  5
181E
330
1F
100
AcDbEntity
  8
SANINDUSA
100
AcDbCircle
 10
7937.679379122332
 20
2229.8938045936
 30
0.0
 40
0.0138698088153101
  0
CIRCLE
  5
181F
330
1F
100
AcDbEntity
  8
SANINDUSA
100
AcDbCircle
 10
7937.759425688155
 20
2229.893798710139
 30
0.0
 40
0.013868740097705
  0
CIRCLE
  5
1820
330
1F
100
AcDbEntity
  8
SANINDUSA
100
AcDbCircle
 10
7937.839405426152
 20
2229.973744181856
 30
0.0
 40
0.0138681419308425
  0
CIRCLE
  5
1821
330
1F
100
AcDbEntity
  8
SANINDUSA
100
AcDbCircle
 10
7937.439308298962
 20
2229.973750714204
 30
0.0
 40
0.0138668776869855
  0
CIRCLE
  5
1822
330
1F
100
AcDbEntity
  8
SANINDUSA
100
AcDbCircle
 10
7937.519319579256
 20
2229.973775675166
 30
0.0
 40
0.0138675931026004
  0
CIRCLE
  5
1823
330
1F
100
AcDbEntity
  8
SANINDUSA
100
AcDbCircle
 10
7937.599335583029
 20
2229.973780063106
 30
0.0
 40
0.0138699972223494
  0
CIRCLE
  5
1824
330
1F
100
AcDbEntity
  8
SANINDUSA
100
AcDbCircle
 10
7937.679391233714
 20
2229.973785693591
 30
0.0
 40
0.0138697445022289
  0
CIRCLE
  5
1825
330
1F
100
AcDbEntity
  8
SANINDUSA
100
AcDbCircle
 10
7937.759429280105
 20
2229.973770355258
 30
0.0
 40
0.0138684869046373
  0
CIRCLE
  5
1826
330
1F
100
AcDbEntity
  8
SANINDUSA
100
AcDbCircle
 10
7937.839399546021
 20
2230.053716650885
 30
0.0
 40
0.013869007505779
  0
CIRCLE
  5
1827
330
1F
100
AcDbEntity
  8
SANINDUSA
100
AcDbCircle
 10
7937.439318671549
 20
2230.053722883468
 30
0.0
 40
0.0138678380361499
  0
CIRCLE
  5
1828
330
1F
100
AcDbEntity
  8
SANINDUSA
100
AcDbCircle
 10
7937.519310015692
 20
2230.053746926659
 30
0.0
 40
0.0138681377174488
  0
CIRCLE
  5
1829
330
1F
100
AcDbEntity
  8
SANINDUSA
100
AcDbCircle
 10
7937.599331420078
 20
2230.053762617097
 30
0.0
 40
0.0138699460607421
  0
CIRCLE
  5
182A
330
1F
100
AcDbEntity
  8
SANINDUSA
100
AcDbCircle
 10
7937.679398400614
 20
2230.053766318697
 30
0.0
 40
0.0138700593148476
  0
CIRCLE
  5
182B
330
1F
100
AcDbEntity
  8
SANINDUSA
100
AcDbCircle
 10
7937.759430858917
 20
2230.053743652068
 30
0.0
 40
0.0138692847356556
  0
CIRCLE
  5
182C
330
1F
100
AcDbEntity
  8
SANINDUSA
100
AcDbCircle
 10
7937.839394888772
 20
2230.133694653629
 30
0.0
 40
0.0138698691711815
  0
CIRCLE
  5
182D
330
1F
100
AcDbEntity
  8
SANINDUSA
100
AcDbCircle
 10
7937.439325115352
 20
2230.133699866333
 30
0.0
 40
0.0138688948077995
  0
CIRCLE
  5
182E
330
1F
100
AcDbEntity
  8
SANINDUSA
100
AcDbCircle
 10
7937.519306577326
 20
2230.133723297853
 30
0.0
 40
0.0138688682923676
  0
CIRCLE
  5
182F
330
1F
100
AcDbEntity
  8
SANINDUSA
100
AcDbCircle
 10
7937.599330767351
 20
2230.133745478072
 30
0.0
 40
0.0138698946479023
  0
CIRCLE
  5
1830
330
1F
100
AcDbEntity
  8
SANINDUSA
100
AcDbCircle
 10
7937.679400417852
 20
2230.133747728058
 30
0.0
 40
0.0138704069171743
  0
CIRCLE
  5
1831
330
1F
100
AcDbEntity
  8
SANINDUSA
100
AcDbCircle
 10
7937.759428934521
 20
2230.133721345674
 30
0.0
 40
0.0138701653567426
  0
CIRCLE
  5
1832
330
1F
100
AcDbEntity
  8
SANINDUSA
100
AcDbCircle
 10
7937.839391728492
 20
2230.213677465298
 30
0.0
 40
0.0138705375996434
  0
CIRCLE
  5
1833
330
1F
100
AcDbEntity
  8
SANINDUSA
100
AcDbCircle
 10
7937.439329096761
 20
2230.213681552536
 30
0.0
 40
0.0138697151240879
  0
CIRCLE
  5
1834
330
1F
100
AcDbEntity
  8
SANINDUSA
100
AcDbCircle
 10
7937.519307957346
 20
2230.213704214807
 30
0.0
 40
0.0138694527519235
  0
CIRCLE
  5
1835
330
1F
100
AcDbEntity
  8
SANINDUSA
100
AcDbCircle
 10
7937.59933290083
 20
2230.213728659811
 30
0.0
 40
0.0138699304605605
  0
CIRCLE
  5
1836
330
1F
100
AcDbEntity
  8
SANINDUSA
100
AcDbCircle
 10
7937.679398851066
 20
2230.213730076259
 30
0.0
 40
0.0138705728432446
  0
CIRCLE
  5
1837
330
1F
100
AcDbEntity
  8
SANINDUSA
100
AcDbCircle
 10
7937.759424199673
 20
2230.213703045595
 30
0.0
 40
0.0138708009976833
  0
CIRCLE
  5
1838
330
1F
100
AcDbEntity
  8
SANINDUSA
100
AcDbCircle
 10
7937.839389449746
 20
2230.29366358654
 30
0.0
 40
0.0138709698527321
  0
CIRCLE
  5
1839
330
1F
100
AcDbEntity
  8
SANINDUSA
100
AcDbCircle
 10
7937.439331965942
 20
2230.293666651369
 30
0.0
 40
0.0138702405972253
  0
CIRCLE
  5
183A
330
1F
100
AcDbEntity
  8
SANINDUSA
100
AcDbCircle
 10
7937.519312389465
 20
2230.293688167826
 30
0.0
 40
0.0138698350633809
  0
CIRCLE
  5
183B
330
1F
100
AcDbEntity
  8
SANINDUSA
100
AcDbCircle
 10
7937.599336295398
 20
2230.293712106799
 30
0.0
 40
0.0138699406295586
  0
CIRCLE
  5
183C
330
1F
100
AcDbEntity
  8
SANINDUSA
100
AcDbCircle
 10
7937.679394975197
 20
2230.293712924093
 30
0.0
 40
0.0138706398660652
  0
CIRCLE
  5
183D
330
1F
100
AcDbEntity
  8
SANINDUSA
100
AcDbCircle
 10
7937.759417757376
 20
2230.293687474132
 30
0.0
 40
0.013871154991852
  0
CIRCLE
  5
183E
330
1F
100
AcDbEntity
  8
SANINDUSA
100
AcDbCircle
 10
7937.439334563631
 20
2230.373653849019
 30
0.0
 40
0.0138705441457085
  0
CIRCLE
  5
183F
330
1F
100
AcDbEntity
  8
SANINDUSA
100
AcDbCircle
 10
7937.519318428302
 20
2230.373673810303
 30
0.0
 40
0.0138700632729982
  0
CIRCLE
  5
1840
330
1F
100
AcDbEntity
  8
SANINDUSA
100
AcDbCircle
 10
7937.599340347997
 20
2230.373695620762
 30
0.0
 40
0.0138699476472518
  0
CIRCLE
  5
1841
330
1F
100
AcDbEntity
  8
SANINDUSA
100
AcDbCircle
 10
7937.679390298081
 20
2230.373696174
 30
0.0
 40
0.0138706431570627
  0
CIRCLE
  5
1842
330
1F
100
AcDbEntity
  8
SANINDUSA
100
AcDbCircle
 10
7937.759410549076
 20
2230.373673439042
 30
0.0
 40
0.0138712985856587
  0
CIRCLE
  5
18A4
330
1F
100
AcDbEntity
  8
SANINDUSA
100
AcDbCircle
 10
7937.639362662467
 20
2229.631253709873
 30
0.0
 40
0.073991931775215
  0
LINE
  5
18A5
330
1F
100
AcDbEntity
  8
SANINDUSA
100
AcDbLine
 10
7937.377037069902
 20
2230.498338636797
 30
0.0
 11
7937.405866962693
 21
2230.498337726533
 31
0.0
  0
LINE
  5
18B4
330
1F
100
AcDbEntity
  8
SANINDUSA
100
AcDbLine
 10
7937.911679917656
 20
2230.508328910577
 30
0.0
 11
7937.911679917656
 21
2230.93838794697
 31
0.0
  0
CIRCLE
  5
1FF2
330
1F
100
AcDbEntity
  8
SANINDUSA
100
AcDbCircle
 10
7937.639362662467
 20
2229.631253709873
 30
0.0
 40
0.045
  0
LINE
  5
2431
330
1F
100
AcDbEntity
  8
SANINDUSA
100
AcDbLine
 10
7940.664804592747
 20
2230.094620951117
 30
0.0
 11
7940.6759435223
 21
2230.082675966025
 31
0.0
  0
LINE
  5
2432
330
1F
100
AcDbEntity
  8
SANINDUSA
100
AcDbLine
 10
7940.77933505043
 20
2230.082675966025
 30
0.0
 11
7940.790509490814
 21
2230.094659159482
 31
0.0
  0
LINE
  5
2435
330
1F
100
AcDbEntity
  8
SANINDUSA
100
AcDbLine
 10
7939.305544661909
 20
2230.094620951117
 30
0.0
 11
7939.307519216652
 21
2230.207743117176
 31
0.0
  0
LINE
  5
2439
330
1F
100
AcDbEntity
  8
SANINDUSA
100
AcDbLine
 10
7939.305544661909
 20
2230.094620951117
 30
0.0
 11
7940.909733944946
 21
2230.094620951117
 31
0.0
  0
LINE
  5
243B
330
1F
100
AcDbEntity
  8
SANINDUSA
100
AcDbLine
 10
7940.907759337273
 20
2230.207743117176
 30
0.0
 11
7940.909733944947
 21
2230.094620951117
 31
0.0
  0
ARC
  5
243E
330
1F
100
AcDbEntity
  8
SANINDUSA
100
AcDbCircle
 10
7939.314518150517
 20
2230.207620950222
 30
0.0
 40
0.0070000000000004
100
AcDbArc
 50
90.0
 51
178.9999999902799
  0
LINE
  5
243F
330
1F
100
AcDbEntity
  8
SANINDUSA
100
AcDbLine
 10
7939.31451815046
 20
2230.214620950222
 30
0.0
 11
7940.900760440674
 21
2230.214620950222
 31
0.0
  0
ARC
  5
2441
330
1F
100
AcDbEntity
  8
SANINDUSA
100
AcDbCircle
 10
7940.900760388835
 20
2230.207620950222
 30
0.0
 40
0.0069999999999999
100
AcDbArc
 50
1.000000009720081
 51
90.0
  0
LINE
  5
24A0
330
1F
100
AcDbEntity
  8
SANINDUSA
100
AcDbLine
 10
7940.727639226762
 20
2230.082675966025
 30
0.0
 11
7940.77933505043
 21
2230.082675966025
 31
0.0
  0
LINE
  5
24A1
330
1F
100
AcDbEntity
  8
SANINDUSA
100
AcDbLine
 10
7940.6759435223
 20
2230.082675966025
 30
0.0
 11
7940.727639226762
 21
2230.082675966025
 31
0.0
  0
ARC
  5
24DA
330
1F
100
AcDbEntity
  8
SANINDUSA
100
AcDbCircle
 10
7942.452819958877
 20
2230.113726860668
 30
0.0
 40
0.0039267930077636
100
AcDbArc
 50
216.6644901888274
 51
265.7172266869062
  0
ARC
  5
24DB
330
1F
100
AcDbEntity
  8
SANINDUSA
100
AcDbCircle
 10
7942.372813445679
 20
2230.11536625944
 30
0.0
 40
0.003837046890427
100
AcDbArc
 50
215.8651653366743
 51
265.2244867090924
  0
ARC
  5
24DC
330
1F
100
AcDbEntity
  8
SANINDUSA
100
AcDbCircle
 10
7942.265175511089
 20
2230.11778484262
 30
0.0
 40
0.0038746565736712
100
AcDbArc
 50
275.9012492680792
 51
322.2730541584799
  0
LWPOLYLINE
  5
24DD
330
1F
100
AcDbEntity
  8
SANINDUSA
100
AcDbPolyline
 90
        9
 70
   128
 43
0.0
 10
7942.292392156353
 20
2230.113326790334
 10
7942.29239954733
 20
2230.113326246441
 10
7942.2922939279
 20
2230.113338733614
 10
7942.292130849591
 20
2230.113364914954
 10
7942.291877768269
 20
2230.113420377076
 10
7942.29122855448
 20
2230.113647239805
 10
7942.290452502004
 20
2230.114108475447
 10
7942.289702079526
 20
2230.114854330719
 10
7942.289692423575
 20
2230.114870558084
  0
ARC
  5
24DE
330
1F
100
AcDbEntity
  8
SANINDUSA
100
AcDbCircle
 10
7941.865254659116
 20
2230.126171389415
 30
0.0
 40
0.003876228249535
100
AcDbArc
 50
275.9179060193194
 51
322.3273128215713
  0
LWPOLYLINE
  5
24DF
330
1F
100
AcDbEntity
  8
SANINDUSA
100
AcDbPolyline
 90
        9
 70
   128
 43
0.0
 10
7941.892504117719
 20
2230.121748367847
 10
7941.892511568299
 20
2230.121747861207
 10
7941.892408929101
 20
2230.121759282947
 10
7941.89225222849
 20
2230.121783124805
 10
7941.892009995214
 20
2230.121833505631
 10
7941.891386649839
 20
2230.122040154935
 10
7941.890633425943
 20
2230.122462789119
 10
7941.889850697747
 20
2230.123198563755
 10
7941.889789364568
 20
2230.12329577148
  0
ARC
  5
24E0
330
1F
100
AcDbEntity
  8
SANINDUSA
100
AcDbCircle
 10
7941.945227058223
 20
2230.124591370617
 30
0.0
 40
0.0039424915306874
100
AcDbArc
 50
276.0722149775431
 51
321.5194573680863
  0
LWPOLYLINE
  5
24E1
330
1F
100
AcDbEntity
  8
SANINDUSA
100
AcDbPolyline
 90
        8
 70
   128
 43
0.0
 10
7941.97244288706
 20
2230.120107071996
 10
7941.97244956278
 20
2230.120106587708
 10
7941.972337625258
 20
2230.12012034148
 10
7941.972163639299
 20
2230.120149577559
 10
7941.971890769235
 20
2230.120212646724
 10
7941.971192977658
 20
2230.120473402143
 10
7941.970411620371
 20
2230.12097191304
 10
7941.969772181741
 20
2230.121646324695
  0
ARC
  5
24E2
330
1F
100
AcDbEntity
  8
SANINDUSA
100
AcDbCircle
 10
7942.185191656459
 20
2230.119564502983
 30
0.0
 40
0.003923066477578
100
AcDbArc
 50
275.9895608495884
 51
321.8342307013537
  0
LWPOLYLINE
  5
24E3
330
1F
100
AcDbEntity
  8
SANINDUSA
100
AcDbPolyline
 90
        9
 70
   128
 43
0.0
 10
7942.212351939907
 20
2230.11507929355
 10
7942.212356469861
 20
2230.115078988076
 10
7942.212237856619
 20
2230.115094835461
 10
7942.212050578824
 20
2230.115128944219
 10
7942.211753509275
 20
2230.115203561783
 10
7942.211152932874
 20
2230.115434581936
 10
7942.210446975462
 20
2230.115869993866
 10
7942.209752223722
 20
2230.116556281746
 10
7942.209718487493
 20
2230.116611453295
  0
ARC
  5
24E4
330
1F
100
AcDbEntity
  8
SANINDUSA
100
AcDbCircle
 10
7942.025221043593
 20
2230.122931141387
 30
0.0
 40
0.0039325097621806
100
AcDbArc
 50
276.0227377463139
 51
321.8102929251116
  0
LWPOLYLINE
  5
24E5
330
1F
100
AcDbEntity
  8
SANINDUSA
100
AcDbPolyline
 90
        9
 70
   128
 43
0.0
 10
7942.052390477887
 20
2230.118455911577
 10
7942.052394888631
 20
2230.118455613554
 10
7942.052275977364
 20
2230.118471386433
 10
7942.052088341942
 20
2230.11850535363
 10
7942.051790557137
 20
2230.118579874337
 10
7942.051189265481
 20
2230.118810648621
 10
7942.050482533208
 20
2230.11924591899
 10
7942.049787662259
 20
2230.119931528867
 10
7942.049754104845
 20
2230.119986394942
  0
ARC
  5
24E6
330
1F
100
AcDbEntity
  8
SANINDUSA
100
AcDbCircle
 10
7942.105205040753
 20
2230.121254580643
 30
0.0
 40
0.0039222260239484
100
AcDbArc
 50
276.079042661833
 51
321.6062811463064
  0
LWPOLYLINE
  5
24E7
330
1F
100
AcDbEntity
  8
SANINDUSA
100
AcDbPolyline
 90
        9
 70
   128
 43
0.0
 10
7942.132356844179
 20
2230.116784671844
 10
7942.132359824412
 20
2230.116784515381
 10
7942.132238111726
 20
2230.116801219583
 10
7942.132044694654
 20
2230.116837414504
 10
7942.131736121408
 20
2230.116917336882
 10
7942.131130836241
 20
2230.117157066763
 10
7942.130430958501
 20
2230.117599057556
 10
7942.129753551714
 20
2230.118279608489
 10
7942.1297341206
 20
2230.118311914206
  0
ARC
  5
24E8
330
1F
100
AcDbEntity
  8
SANINDUSA
100
AcDbCircle
 10
7942.43122407564
 20
2230.109297428929
 30
0.0
 40
0.0039553594682833
100
AcDbArc
 50
92.6145318055156
 51
139.4025397734188
  0
ARC
  5
24E9
330
1F
100
AcDbEntity
  8
SANINDUSA
100
AcDbCircle
 10
7942.446490067784
 20
2230.108962950237
 30
0.0
 40
0.0039680129991764
100
AcDbArc
 50
37.33460317975733
 51
86.88284027259177
  0
ARC
  5
24EA
330
1F
100
AcDbEntity
  8
SANINDUSA
100
AcDbCircle
 10
7942.351240767457
 20
2230.111086881453
 30
0.0
 40
0.0039142584012804
100
AcDbArc
 50
93.71573743276407
 51
139.5910703150946
  0
ARC
  5
24EB
330
1F
100
AcDbEntity
  8
SANINDUSA
100
AcDbCircle
 10
7942.366511815402
 20
2230.110734848762
 30
0.0
 40
0.0039279101716165
100
AcDbArc
 50
36.71754382065318
 51
84.22715960694125
  0
ARC
  5
24EC
330
1F
100
AcDbEntity
  8
SANINDUSA
100
AcDbCircle
 10
7942.271258206385
 20
2230.112882777239
 30
0.0
 40
0.0038859658557664
100
AcDbArc
 50
93.15408538018338
 51
139.9431049604689
  0
ARC
  5
24ED
330
1F
100
AcDbEntity
  8
SANINDUSA
100
AcDbCircle
 10
7942.28652521722
 20
2230.112498863205
 30
0.0
 40
0.0039353636527495
100
AcDbArc
 50
36.77817737708716
 51
83.76830619501427
  0
ARC
  5
24EE
330
1F
100
AcDbEntity
  8
SANINDUSA
100
AcDbCircle
 10
7941.871345642882
 20
2230.121265049962
 30
0.0
 40
0.0038973614583963
100
AcDbArc
 50
93.71328685730981
 51
139.9379390184893
  0
ARC
  5
24EF
330
1F
100
AcDbEntity
  8
SANINDUSA
100
AcDbCircle
 10
7941.886615396149
 20
2230.12089462186
 30
0.0
 40
0.0039550527590309
100
AcDbArc
 50
37.08159871318724
 51
84.26354031760832
  0
ARC
  5
24F0
330
1F
100
AcDbEntity
  8
SANINDUSA
100
AcDbCircle
 10
7941.951349098005
 20
2230.119530844191
 30
0.0
 40
0.0039877589997785
100
AcDbArc
 50
93.5116552027371
 51
138.9533380035269
  0
ARC
  5
24F1
330
1F
100
AcDbEntity
  8
SANINDUSA
100
AcDbCircle
 10
7941.966603210857
 20
2230.119279126642
 30
0.0
 40
0.0039233794465145
100
AcDbArc
 50
36.75542419953869
 51
83.5104336531138
  0
ARC
  5
24F2
330
1F
100
AcDbEntity
  8
SANINDUSA
100
AcDbCircle
 10
7942.191308954875
 20
2230.114491521341
 30
0.0
 40
0.0040133266012364
100
AcDbArc
 50
93.5935673858021
 51
138.7681754839018
  0
ARC
  5
24F3
330
1F
100
AcDbEntity
  8
SANINDUSA
100
AcDbCircle
 10
7942.206530779639
 20
2230.114207296856
 30
0.0
 40
0.0039699025944257
100
AcDbArc
 50
37.05340878834058
 51
83.93351445355312
  0
ARC
  5
24F4
330
1F
100
AcDbEntity
  8
SANINDUSA
100
AcDbCircle
 10
7942.031342442598
 20
2230.117855235347
 30
0.0
 40
0.0040109439984467
100
AcDbArc
 50
93.55754612275873
 51
138.7905711384324
  0
ARC
  5
24F5
330
1F
100
AcDbEntity
  8
SANINDUSA
100
AcDbCircle
 10
7942.046575235264
 20
2230.117606635203
 30
0.0
 40
0.0039425322188001
100
AcDbArc
 50
36.85140005376337
 51
83.89322683505382
  0
ARC
  5
24F6
330
1F
100
AcDbEntity
  8
SANINDUSA
100
AcDbCircle
 10
7942.111293970302
 20
2230.116327635097
 30
0.0
 40
0.0038678780609356
100
AcDbArc
 50
93.28952656766096
 51
140.2110189400256
  0
ARC
  5
24F7
330
1F
100
AcDbEntity
  8
SANINDUSA
100
AcDbCircle
 10
7942.126545284594
 20
2230.115899539128
 30
0.0
 40
0.0039791102678772
100
AcDbArc
 50
37.13645223221205
 51
84.16339178065296
  0
LWPOLYLINE
  5
2539
330
1F
100
AcDbEntity
  8
SANINDUSA
100
AcDbPolyline
 90
        3
 70
   128
 43
0.0
 10
7942.543189428083
 20
2230.107938821018
 10
7942.544287345639
 20
2230.107761690915
 10
7942.545401833287
 20
2230.107216271163
  0
LWPOLYLINE
  5
253A
330
1F
100
AcDbEntity
  8
SANINDUSA
100
AcDbPolyline
 90
       38
 70
   128
 43
0.0
 10
7942.543189428083
 20
2230.107938821018
 10
7942.543685338726
 20
2230.107935997248
 10
7942.544665835133
 20
2230.10793383658
 10
7942.546159527532
 20
2230.107931750417
 10
7942.548222921125
 20
2230.107929545045
 10
7942.550803683035
 20
2230.107927183212
 10
7942.553798458806
 20
2230.107924776674
 10
7942.55724611067
 20
2230.107922444642
 10
7942.561243794195
 20
2230.107920298875
 10
7942.565667174092
 20
2230.107918555439
 10
7942.570347092382
 20
2230.107917400599
 10
7942.575366518727
 20
2230.10791690141
 10
7942.580851218931
 20
2230.107917117477
 10
7942.586617968313
 20
2230.107917892337
 10
7942.592456481687
 20
2230.107918831111
 10
7942.5984815576
 20
2230.107919889093
 10
7942.604834339849
 20
2230.107921535671
 10
7942.611293814413
 20
2230.107924441398
 10
7942.621500156156
 20
2230.107931675911
 10
7942.626695416205
 20
2230.107936109007
 10
7942.631855986348
 20
2230.107941272259
 10
7942.636999867193
 20
2230.107947143317
 10
7942.642059467068
 20
2230.107953141034
 10
7942.647106669179
 20
2230.107958796025
 10
7942.652016780606
 20
2230.107963646353
 10
7942.657608292333
 20
2230.107968206108
 10
7942.66293802046
 20
2230.107971454561
 10
7942.668107888929
 20
2230.107972750962
 10
7942.672925255529
 20
2230.107971834541
 10
7942.677220604649
 20
2230.107969547213
 10
7942.681124351254
 20
2230.107965941132
 10
7942.684700510731
 20
2230.107960114778
 10
7942.687804482213
 20
2230.107952761055
 10
7942.690350196592
 20
2230.107947068811
 10
7942.692412040464
 20
2230.107942784727
 10
7942.694010637037
 20
2230.107936205865
 10
7942.695068142644
 20
2230.107928069831
 10
7942.695621273748
 20
2230.107923703791
  0
LWPOLYLINE
  5
253B
330
1F
100
AcDbEntity
  8
SANINDUSA
100
AcDbPolyline
 90
        3
 70
   128
 43
0.0
 10
7942.693388126127
 20
2230.107200781406
 10
7942.694378040068
 20
2230.107705498636
 10
7942.695621273748
 20
2230.107923703791
  0
LWPOLYLINE
  5
253D
330
1F
100
AcDbEntity
  8
SANINDUSA
100
AcDbPolyline
 90
        3
 70
   128
 43
0.0
 10
7942.543109557859
 20
2230.10403964162
 10
7942.358753226034
 20
2230.107901597918
 10
7941.768954239122
 20
2230.120255971849
  0
LWPOLYLINE
  5
253E
330
1F
100
AcDbEntity
  8
SANINDUSA
100
AcDbPolyline
 90
        3
 70
   128
 43
0.0
 10
7942.714335224859
 20
2230.106436806321
 10
7942.705137036077
 20
2230.104708271623
 10
7942.695680997601
 20
2230.104024159313
  0
LWPOLYLINE
  5
2540
330
1F
100
AcDbEntity
  8
SANINDUSA
100
AcDbPolyline
 90
        3
 70
   128
 43
0.0
 10
7942.543109557859
 20
2230.10403964162
 10
7942.543136856786
 20
2230.104035245777
 10
7942.543164870969
 20
2230.104021573962
  0
LWPOLYLINE
  5
2541
330
1F
100
AcDbEntity
  8
SANINDUSA
100
AcDbPolyline
 90
        3
 70
   128
 43
0.0
 10
7942.695625088446
 20
2230.104006091655
 10
7942.695649764768
 20
2230.104018675685
 10
7942.695680997601
 20
2230.104024159313
  0
LINE
  5
2542
330
1F
100
AcDbEntity
  8
SANINDUSA
100
AcDbLine
 10
7942.543164870969
 20
2230.104021573962
 30
0.0
 11
7942.556535742513
 21
2230.094659159482
 31
0.0
  0
LINE
  5
2543
330
1F
100
AcDbEntity
  8
SANINDUSA
100
AcDbLine
 10
7942.68227627062
 20
2230.094659159482
 30
0.0
 11
7942.695625088446
 21
2230.104006091655
 31
0.0
  0
LINE
  5
2544
330
1F
100
AcDbEntity
  8
SANINDUSA
100
AcDbLine
 10
7942.545401833287
 20
2230.107216271163
 30
0.0
 11
7942.5591085174
 21
2230.097618738712
 31
0.0
  0
LINE
  5
2545
330
1F
100
AcDbEntity
  8
SANINDUSA
100
AcDbLine
 10
7942.679703614942
 20
2230.097618738712
 30
0.0
 11
7942.693388126127
 21
2230.107200781406
 31
0.0
  0
LWPOLYLINE
  5
2547
330
1F
100
AcDbEntity
  8
SANINDUSA
100
AcDbPolyline
 90
        3
 70
   128
 43
0.0
 10
7942.543189428083
 20
2230.107938821018
 10
7942.357661626569
 20
2230.111825341881
 10
7941.769035897485
 20
2230.124155121446
  0
LWPOLYLINE
  5
2555
330
1F
100
AcDbEntity
  8
SANINDUSA
100
AcDbPolyline
 90
        3
 70
   128
 43
0.0
 10
7942.713400504818
 20
2230.110223154128
 10
7942.704633734456
 20
2230.108575674296
 10
7942.695621273748
 20
2230.107923703791
  0
LINE
  5
2594
330
1F
100
AcDbEntity
  8
SANINDUSA
100
AcDbLine
 10
7942.799526117077
 20
2230.207743117176
 30
0.0
 11
7942.801500724752
 21
2230.094620951117
 31
0.0
  0
LINE
  5
2596
330
1F
100
AcDbEntity
  8
SANINDUSA
100
AcDbLine
 10
7942.795626662007
 20
2230.207675052863
 30
0.0
 11
7942.797600067923
 21
2230.094620951117
 31
0.0
  0
ARC
  5
2597
330
1F
100
AcDbEntity
  8
SANINDUSA
100
AcDbCircle
 10
7942.792527168641
 20
2230.207620950222
 30
0.0
 40
0.0031000000000004
100
AcDbArc
 50
1.000000009720078
 51
90.0
  0
LINE
  5
2598
330
1F
100
AcDbEntity
  8
SANINDUSA
100
AcDbLine
 10
7942.736165902845
 20
2230.210720950328
 30
0.0
 11
7942.792527220479
 21
2230.210720950328
 31
0.0
  0
ARC
  5
2599
330
1F
100
AcDbEntity
  8
SANINDUSA
100
AcDbCircle
 10
7942.736165885911
 20
2230.207620950222
 30
0.0
 40
0.0031000000000001
100
AcDbArc
 50
90.0
 51
177.9999999962464
  0
LINE
  5
259A
330
1F
100
AcDbEntity
  8
SANINDUSA
100
AcDbLine
 10
7942.730213663809
 20
2230.125998335481
 30
0.0
 11
7942.733067772619
 21
2230.20772913849
 31
0.0
  0
ARC
  5
259B
330
1F
100
AcDbEntity
  8
SANINDUSA
100
AcDbCircle
 10
7942.709326396666
 20
2230.126727730037
 30
0.0
 40
0.0208999986855374
100
AcDbArc
 50
283.8662892195818
 51
358.0000133967792
  0
LINE
  5
259C
330
1F
100
AcDbEntity
  8
SANINDUSA
100
AcDbLine
 10
7942.671101830235
 20
2230.082675966025
 30
0.0
 11
7942.68227627062
 21
2230.094659159482
 31
0.0
  0
LINE
  5
259D
330
1F
100
AcDbEntity
  8
SANINDUSA
100
AcDbLine
 10
7942.567710302106
 20
2230.082675966025
 30
0.0
 11
7942.671101830235
 21
2230.082675966025
 31
0.0
  0
LINE
  5
259E
330
1F
100
AcDbEntity
  8
SANINDUSA
100
AcDbLine
 10
7942.556535742513
 20
2230.094659159482
 30
0.0
 11
7942.567710302106
 21
2230.082675966025
 31
0.0
  0
ARC
  5
259F
330
1F
100
AcDbEntity
  8
SANINDUSA
100
AcDbCircle
 10
7941.769397494287
 20
2230.141157030242
 30
0.0
 40
0.0209057579881274
100
AcDbArc
 50
182.0424635713875
 51
268.7850929189449
  0
ARC
  5
25A0
330
1F
100
AcDbEntity
  8
SANINDUSA
100
AcDbCircle
 10
7941.745406985879
 20
2230.140302269308
 30
0.0
 40
0.0031000000000004
100
AcDbArc
 50
2.027549055056388
 51
88.99999999027992
  0
LINE
  5
25A1
330
1F
100
AcDbEntity
  8
SANINDUSA
100
AcDbLine
 10
7941.745461068383
 20
2230.14340179652
 30
0.0
 11
7941.307986161939
 21
2230.151037948728
 31
0.0
  0
ARC
  5
25A2
330
1F
100
AcDbEntity
  8
SANINDUSA
100
AcDbCircle
 10
7941.307932061085
 20
2230.147938422525
 30
0.0
 40
0.0031000000000002
100
AcDbArc
 50
88.99999999027992
 51
154.6842608331306
  0
ARC
  5
25A3
330
1F
100
AcDbEntity
  8
SANINDUSA
100
AcDbCircle
 10
7941.292564654041
 20
2230.155207727909
 30
0.0
 40
0.0139000000000001
100
AcDbArc
 50
268.9999999902799
 51
334.6842608331306
  0
LINE
  5
25A4
330
1F
100
AcDbEntity
  8
SANINDUSA
100
AcDbLine
 10
7941.292322068743
 20
2230.141309844852
 30
0.0
 11
7941.287879294984
 21
2230.141387390495
 31
0.0
  0
ARC
  5
25A5
330
1F
100
AcDbEntity
  8
SANINDUSA
100
AcDbCircle
 10
7941.288244050221
 20
2230.162284210626
 30
0.0
 40
0.0209
100
AcDbArc
 50
182.0000000037536
 51
268.9999999902799
  0
ARC
  5
25A7
330
1F
100
AcDbEntity
  8
SANINDUSA
100
AcDbCircle
 10
7941.262646227325
 20
2230.207620950222
 30
0.0
 40
0.0031000000000001
100
AcDbArc
 50
2.000000003753601
 51
90.0
  0
LINE
  5
25A8
330
1F
100
AcDbEntity
  8
SANINDUSA
100
AcDbLine
 10
7941.206284930266
 20
2230.210720950328
 30
0.0
 11
7941.262646227412
 21
2230.210720950328
 31
0.0
  0
ARC
  5
25A9
330
1F
100
AcDbEntity
  8
SANINDUSA
100
AcDbCircle
 10
7941.206284930323
 20
2230.207620950222
 30
0.0
 40
0.0031
100
AcDbArc
 50
90.0
 51
178.9999999902799
  0
LINE
  5
25AA
330
1F
100
AcDbEntity
  8
SANINDUSA
100
AcDbLine
 10
7941.20121203626
 20
2230.094620951117
 30
0.0
 11
7941.203185402352
 21
2230.207675052668
 31
0.0
  0
LINE
  5
25AC
330
1F
100
AcDbEntity
  8
SANINDUSA
100
AcDbLine
 10
7941.197311441714
 20
2230.094620951117
 30
0.0
 11
7941.199285996457
 21
2230.207743117176
 31
0.0
  0
ARC
  5
25AD
330
1F
100
AcDbEntity
  8
SANINDUSA
100
AcDbCircle
 10
7941.206284930323
 20
2230.207620950222
 30
0.0
 40
0.0069999999999999
100
AcDbArc
 50
90.0
 51
178.9999999902799
  0
LINE
  5
25AE
330
1F
100
AcDbEntity
  8
SANINDUSA
100
AcDbLine
 10
7941.206284930266
 20
2230.214620950222
 30
0.0
 11
7941.262646227412
 21
2230.214620950222
 31
0.0
  0
ARC
  5
25AF
330
1F
100
AcDbEntity
  8
SANINDUSA
100
AcDbCircle
 10
7941.262646227325
 20
2230.207620950222
 30
0.0
 40
0.0070000000000001
100
AcDbArc
 50
2.000000003753601
 51
90.0
  0
LINE
  5
25B0
330
1F
100
AcDbEntity
  8
SANINDUSA
100
AcDbLine
 10
7941.269641964963
 20
2230.207865246628
 30
0.0
 11
7941.271254404715
 21
2230.161690919251
 31
0.0
  0
ARC
  5
25B1
330
1F
100
AcDbEntity
  8
SANINDUSA
100
AcDbCircle
 10
7941.288244050221
 20
2230.162284210626
 30
0.0
 40
0.017
100
AcDbArc
 50
182.0000000037536
 51
268.9999999902799
  0
LINE
  5
25B2
330
1F
100
AcDbEntity
  8
SANINDUSA
100
AcDbLine
 10
7941.292390129977
 20
2230.145209250958
 30
0.0
 11
7941.287947356037
 21
2230.145286800862
 31
0.0
  0
ARC
  5
25B3
330
1F
100
AcDbEntity
  8
SANINDUSA
100
AcDbCircle
 10
7941.292564654041
 20
2230.155207727909
 30
0.0
 40
0.0100000000000007
100
AcDbArc
 50
268.9999999902799
 51
334.6842608331306
  0
ARC
  5
25B4
330
1F
100
AcDbEntity
  8
SANINDUSA
100
AcDbCircle
 10
7941.307932061085
 20
2230.147938422525
 30
0.0
 40
0.0069999999999999
100
AcDbArc
 50
88.99999999027992
 51
154.6842608331306
  0
LINE
  5
25B5
330
1F
100
AcDbEntity
  8
SANINDUSA
100
AcDbLine
 10
7941.745529136888
 20
2230.147301206887
 30
0.0
 11
7941.308054230443
 21
2230.15493735537
 31
0.0
  0
ARC
  5
25B6
330
1F
100
AcDbEntity
  8
SANINDUSA
100
AcDbCircle
 10
7941.745406985879
 20
2230.140302269308
 30
0.0
 40
0.0070000000000008
100
AcDbArc
 50
2.027549055056388
 51
88.99999999027992
  0
ARC
  5
25B7
330
1F
100
AcDbEntity
  8
SANINDUSA
100
AcDbCircle
 10
7941.769396351775
 20
2230.141155824961
 30
0.0
 40
0.0170045243188613
100
AcDbArc
 50
182.0419597877304
 51
268.7853787558008
  0
LINE
  5
25B8
330
1F
100
AcDbEntity
  8
SANINDUSA
100
AcDbLine
 10
7942.5591085174
 20
2230.097618738712
 30
0.0
 11
7942.56940605425
 21
2230.086575972439
 31
0.0
  0
LINE
  5
25B9
330
1F
100
AcDbEntity
  8
SANINDUSA
100
AcDbLine
 10
7942.56940605425
 20
2230.086575972439
 30
0.0
 11
7942.669406078092
 21
2230.086575972439
 31
0.0
  0
LINE
  5
25BA
330
1F
100
AcDbEntity
  8
SANINDUSA
100
AcDbLine
 10
7942.669406078092
 20
2230.086575972439
 30
0.0
 11
7942.679703614942
 21
2230.097618738712
 31
0.0
  0
ARC
  5
25BB
330
1F
100
AcDbEntity
  8
SANINDUSA
100
AcDbCircle
 10
7942.709326445991
 20
2230.12672766241
 30
0.0
 40
0.0169999043802984
100
AcDbArc
 50
283.8659942211915
 51
358.0002306193592
  0
LINE
  5
25BC
330
1F
100
AcDbEntity
  8
SANINDUSA
100
AcDbLine
 10
7942.726315996877
 20
2230.126134442688
 30
0.0
 11
7942.729170105687
 21
2230.207865246628
 31
0.0
  0
ARC
  5
25BD
330
1F
100
AcDbEntity
  8
SANINDUSA
100
AcDbCircle
 10
7942.736165885911
 20
2230.207620950222
 30
0.0
 40
0.0070000000000001
100
AcDbArc
 50
90.0
 51
177.9999999962464
  0
LINE
  5
25BE
330
1F
100
AcDbEntity
  8
SANINDUSA
100
AcDbLine
 10
7942.736165902845
 20
2230.214620950222
 30
0.0
 11
7942.792527220479
 21
2230.214620950222
 31
0.0
  0
ARC
  5
25BF
330
1F
100
AcDbEntity
  8
SANINDUSA
100
AcDbCircle
 10
7942.792527168641
 20
2230.207620950222
 30
0.0
 40
0.0069999999999999
100
AcDbArc
 50
1.000000009720078
 51
90.0
  0
LWPOLYLINE
  5
25C0
330
1F
100
AcDbEntity
  8
SANINDUSA
100
AcDbPolyline
 90
       16
 70
   128
 43
0.0
 10
7941.292322068743
 20
2230.141309844852
 10
7941.292431614629
 20
2230.141307930053
 10
7941.292759045295
 20
2230.141302215457
 10
7941.29330078446
 20
2230.141292760671
 10
7941.294050894014
 20
2230.141279670001
 10
7941.295001148514
 20
2230.141263085008
 10
7941.296141146949
 20
2230.141243184508
 10
7941.297458387246
 20
2230.141220192016
 10
7941.298938445083
 20
2230.141194353402
 10
7941.300565107993
 20
2230.14116595924
 10
7941.302320539287
 20
2230.141135322452
 10
7941.304185523918
 20
2230.141102770866
 10
7941.306139617494
 20
2230.141068662108
 10
7941.308161421947
 20
2230.141033368707
 10
7941.310228771797
 20
2230.140997285545
 10
7941.312319017282
 20
2230.140960800052
  0
LINE
  5
25C1
330
1F
100
AcDbEntity
  8
SANINDUSA
100
AcDbLine
 10
7941.312319017282
 20
2230.140960800052
 30
0.0
 11
7941.729102573624
 21
2230.133685814739
 31
0.0
  0
LINE
  5
25C6
330
1F
100
AcDbEntity
  8
SANINDUSA
100
AcDbLine
 10
7941.267356782488
 20
2230.161554812045
 30
0.0
 11
7941.265744335286
 21
2230.20772913849
 31
0.0
  0
ARC
  5
25C8
330
1F
100
AcDbEntity
  8
SANINDUSA
100
AcDbCircle
 10
7942.486010726229
 20
2232.323889770469
 30
0.0
 40
2.211313729457918
100
AcDbArc
 50
268.5854285075533
 51
268.9737295763988
  0
ARC
  5
25CA
330
1F
100
AcDbEntity
  8
SANINDUSA
100
AcDbCircle
 10
7942.379492366943
 20
2231.027651995144
 30
0.0
 40
0.9130881277542734
100
AcDbArc
 50
268.2403562547309
 51
269.1798485125604
  0
ARC
  5
25CC
330
1F
100
AcDbEntity
  8
SANINDUSA
100
AcDbCircle
 10
7942.291820380695
 20
2230.68819234774
 30
0.0
 40
0.5717964539870973
100
AcDbArc
 50
267.9619251448558
 51
269.4609962634971
  0
LWPOLYLINE
  5
25CD
330
1F
100
AcDbEntity
  8
SANINDUSA
100
AcDbPolyline
 90
       24
 70
   128
 43
0.0
 10
7941.886693856947
 20
2230.124846632183
 10
7941.886648438206
 20
2230.124853017331
 10
7941.886632702581
 20
2230.124855230153
 10
7941.885885856382
 20
2230.124889897705
 10
7941.884368858568
 20
2230.124937983752
 10
7941.882254383795
 20
2230.124993498028
 10
7941.879782102339
 20
2230.12504973501
 10
7941.877230665913
 20
2230.125100242496
 10
7941.874886236421
 20
2230.125139551759
 10
7941.873011908761
 20
2230.125163676739
 10
7941.871818862193
 20
2230.125170397163
 10
7941.871483347646
 20
2230.125165494681
 10
7941.871487162344
 20
2230.125164980591
 10
7941.871565006009
 20
2230.125154564679
 10
7941.871645710698
 20
2230.125143761338
 10
7941.87264629387
 20
2230.125107082129
 10
7941.874371967546
 20
2230.125059189797
 10
7941.876626632444
 20
2230.125004986823
 10
7941.879154763452
 20
2230.124950217605
 10
7941.881671629182
 20
2230.124900961817
 10
7941.88389524006
 20
2230.124863001109
 10
7941.885576210252
 20
2230.124841118754
 10
7941.886524937384
 20
2230.124838317335
 10
7941.886526487104
 20
2230.124838391841
  0
LWPOLYLINE
  5
25CE
330
1F
100
AcDbEntity
  8
SANINDUSA
100
AcDbPolyline
 90
       23
 70
   128
 43
0.0
 10
7941.966677270166
 20
2230.123199234308
 10
7941.966624222032
 20
2230.123207847178
 10
7941.9666161158
 20
2230.123209165931
 10
7941.965869031183
 20
2230.123247372508
 10
7941.964351496927
 20
2230.123298632503
 10
7941.962236545316
 20
2230.123356493712
 10
7941.959764144652
 20
2230.123413900436
 10
7941.957213065855
 20
2230.123464221657
 10
7941.954869232408
 20
2230.123502018452
 10
7941.952995262376
 20
2230.123523572982
 10
7941.951802335016
 20
2230.1235270077
 10
7941.951466820469
 20
2230.123519899846
 10
7941.951553664438
 20
2230.123506421746
 10
7941.951629243127
 20
2230.123494694531
 10
7941.952630124323
 20
2230.123454960585
 10
7941.954356453649
 20
2230.123404691518
 10
7941.956611535779
 20
2230.123348983527
 10
7941.959139607182
 20
2230.123293662966
 10
7941.961655996076
 20
2230.123244831861
 10
7941.963878951303
 20
2230.12320825696
 10
7941.965559623472
 20
2230.123188624681
 10
7941.966508350603
 20
2230.123188803494
 10
7941.966510138742
 20
2230.123188915253
  0
ARC
  5
25D0
330
1F
100
AcDbEntity
  8
SANINDUSA
100
AcDbCircle
 10
7942.209382596441
 20
2230.589768014022
 30
0.0
 40
0.4716185359739415
100
AcDbArc
 50
267.8281510582311
 51
269.6448832305387
  0
ARC
  5
25D2
330
1F
100
AcDbEntity
  8
SANINDUSA
100
AcDbCircle
 10
7942.049266397025
 20
2230.600472512444
 30
0.0
 40
0.478949228340713
100
AcDbArc
 50
267.8791116708755
 51
269.6683022393028
  0
ARC
  5
25D4
330
1F
100
AcDbEntity
  8
SANINDUSA
100
AcDbCircle
 10
7942.128803581276
 20
2230.572931261695
 30
0.0
 40
0.453079154724901
100
AcDbArc
 50
267.8148538655629
 51
269.7057704553095
  0
ARC
  5
25FE
330
1F
100
AcDbEntity
  8
SANINDUSA
100
AcDbCircle
 10
7941.769378423488
 20
2230.173505168716
 30
0.0
 40
0.051383956281925
100
AcDbArc
 50
238.2694380344359
 51
257.9422946563028
  0
LINE
  5
2604
330
1F
100
AcDbEntity
  8
SANINDUSA
100
AcDbLine
 10
7941.740506670704
 20
2230.130840020776
 30
0.0
 11
7941.742354295484
 21
2230.129801536501
 31
0.0
  0
LINE
  5
2605
330
1F
100
AcDbEntity
  8
SANINDUSA
100
AcDbLine
 10
7941.737658224337
 20
2230.132084856332
 30
0.0
 11
7941.740506670704
 21
2230.130840020776
 31
0.0
  0
LWPOLYLINE
  5
2606
330
1F
100
AcDbEntity
  8
SANINDUSA
100
AcDbPolyline
 90
        3
 70
   128
 43
0.0
 10
7941.729102573624
 20
2230.133685814739
 10
7941.733386895887
 20
2230.13325580448
 10
7941.737658224337
 20
2230.132084856332
  0
LINE
  5
2614
330
1F
100
AcDbEntity
  8
SANINDUSA
100
AcDbLine
 10
7941.262646227412
 20
2230.214620950222
 30
0.0
 11
7941.289629779092
 21
2230.214620950222
 31
0.0
  0
LINE
  5
2616
330
1F
100
AcDbEntity
  8
SANINDUSA
100
AcDbLine
 10
7942.709182284109
 20
2230.214620950222
 30
0.0
 11
7942.736165902845
 21
2230.214620950222
 31
0.0
  0
LINE
  5
2617
330
1F
100
AcDbEntity
  8
SANINDUSA
100
AcDbLine
 10
7941.289629779092
 20
2230.214620950222
 30
0.0
 11
7942.709182284109
 21
2230.214620950222
 31
0.0
  0
LINE
  5
2620
330
1F
100
AcDbEntity
  8
SANINDUSA
100
AcDbLine
 10
7942.801500724751
 20
2230.094620951117
 30
0.0
 11
7942.68224064096
 21
2230.094620951117
 31
0.0
  0
LINE
  5
2621
330
1F
100
AcDbEntity
  8
SANINDUSA
100
AcDbLine
 10
7942.556571372553
 20
2230.094620951117
 30
0.0
 11
7941.197311441714
 21
2230.094620951117
 31
0.0
  0
LWPOLYLINE
  5
29C2
330
1F
100
AcDbEntity
  8
SANINDUSA
100
AcDbPolyline
 90
        9
 70
   128
 43
0.0
 10
7942.348295591108
 20
2230.113648618162
 10
7942.347753904096
 20
2230.113091277481
 10
7942.347170255414
 20
2230.112684580089
 10
7942.346633932821
 20
2230.112429732979
 10
7942.346221468679
 20
2230.112296695412
 10
7942.34597124838
 20
2230.112240667046
 10
7942.34581854128
 20
2230.11221594602
 10
7942.345733664265
 20
2230.112205992044
 10
7942.345742962591
 20
2230.112206558288
  0
LWPOLYLINE
  5
29C3
330
1F
100
AcDbEntity
  8
SANINDUSA
100
AcDbPolyline
 90
        9
 70
   128
 43
0.0
 10
7942.428220770588
 20
2230.111871341765
 10
7942.427753112546
 20
2230.111366505325
 10
7942.427168033352
 20
2230.110940235257
 10
7942.426620266667
 20
2230.110668050647
 10
7942.426187179318
 20
2230.110522265136
 10
7942.425915978184
 20
2230.110459359885
 10
7942.425754807224
 20
2230.110432500541
 10
7942.425657890073
 20
2230.110420788228
 10
7942.425662896862
 20
2230.110420989394
  0
ENDSEC
  0
SECTION
  2
OBJECTS
  0
DICTIONARY
  5
C
330
0
100
AcDbDictionary
281
     1
  3
ACAD_COLOR
350
EE6
  3
ACAD_GROUP
350
D
  3
ACAD_LAYOUT
350
1A
  3
ACAD_MATERIAL
350
EE5
  3
ACAD_MLINESTYLE
350
17
  3
ACAD_PLOTSETTINGS
350
19
  3
ACAD_PLOTSTYLENAME
350
E
  3
ACAD_TABLESTYLE
350
EE7
  3
ACDBHEADERROUNDTRIPXREC
350
29F1
  3
AcDbVariableDictionary
350
3D
  3
ASE_INDEX_DICTIONARY
350
2006
  0
DICTIONARY
  5
1051
330
2
100
AcDbDictionary
280
     1
281
     1
  3
ACAD_LAYERFILTERS
360
1057
  3
ACLYDICTIONARY
360
1056
  0
DICTIONARY
  5
EE6
102
{ACAD_REACTORS
330
C
102
}
330
C
100
AcDbDictionary
281
     1
  0
DICTIONARY
  5
D
102
{ACAD_REACTORS
330
C
102
}
330
C
100
AcDbDictionary
281
     1
  0
DICTIONARY
  5
1A
102
{ACAD_REACTORS
330
C
102
}
330
C
100
AcDbDictionary
281
     1
  3
Layout1
350
1E
  3
Layout2
350
26
  3
Model
350
22
  0
DICTIONARY
  5
EE5
102
{ACAD_REACTORS
330
C
102
}
330
C
100
AcDbDictionary
281
     1
  0
DICTIONARY
  5
17
102
{ACAD_REACTORS
330
C
102
}
330
C
100
AcDbDictionary
281
     1
  3
Standard
350
18
  0
DICTIONARY
  5
19
102
{ACAD_REACTORS
330
C
102
}
330
C
100
AcDbDictionary
281
     1
  0
ACDBDICTIONARYWDFLT
  5
E
102
{ACAD_REACTORS
330
C
102
}
330
C
100
AcDbDictionary
281
     1
  3
Normal
350
F
100
AcDbDictionaryWithDefault
340
F
  0
DICTIONARY
  5
EE7
102
{ACAD_REACTORS
330
C
102
}
330
C
100
AcDbDictionary
281
     1
  3
Standard
350
EE8
  0
DICTIONARY
  5
29F1
102
{ACAD_REACTORS
330
C
102
}
330
C
100
AcDbDictionary
281
     1
  0
DICTIONARY
  5
3D
102
{ACAD_REACTORS
330
C
102
}
330
C
100
AcDbDictionary
281
     1
  3
CTABLESTYLE
350
1049
  3
DIMASSOC
350
3F
  3
HIDETEXT
350
3E
  3
PROJECTNAME
350
1FFF
  0
DICTIONARY
  5
2006
102
{ACAD_REACTORS
330
C
102
}
330
C
100
AcDbDictionary
281
     1
  3
ASEBlockHierarchyIndexRecord
350
2007
1001
DCO15
1040
1598620602.781
  0
DICTIONARY
  5
1057
102
{ACAD_REACTORS
330
1051
102
}
330
1051
100
AcDbDictionary
281
     1
  0
DICTIONARY
  5
1056
102
{ACAD_REACTORS
330
1051
102
}
330
1051
100
AcDbDictionary
281
     1
1001
ACAD
1000
<All
  0
LAYOUT
  5
1E
102
{ACAD_XDICTIONARY
360
29F2
102
}
102
{ACAD_REACTORS
330
1A
102
}
330
1A
100
AcDbPlotSettings
  1

  2
Ploter HP500
  4

  6

 40
0.0
 41
0.0
 42
0.0
 43
0.0
 44
0.0
 45
0.0
 46
0.0
 47
0.0
 48
0.0
 49
0.0
140
0.0
141
0.0
142
1.0
143
1.0
 70
   688
 72
     0
 73
     0
 74
     5
  7
sanindusa.ctb
 75
    16
147
1.0
148
0.0
149
0.0
100
AcDbLayout
  1
Layout1
 70
     1
 71
     1
 10
0.0
 20
0.0
 11
420.0
 21
297.0
 12
0.0
 22
0.0
 32
0.0
 14
1.000000000000000E+20
 24
1.000000000000000E+20
 34
1.000000000000000E+20
 15
-1.000000000000000E+20
 25
-1.000000000000000E+20
 35
-1.000000000000000E+20
146
0.0
 13
0.0
 23
0.0
 33
0.0
 16
1.0
 26
0.0
 36
0.0
 17
0.0
 27
1.0
 37
0.0
 76
     0
330
1B
  0
LAYOUT
  5
26
102
{ACAD_XDICTIONARY
360
29F6
102
}
102
{ACAD_REACTORS
330
1A
102
}
330
1A
100
AcDbPlotSettings
  1

  2
Ploter HP500
  4

  6

 40
0.0
 41
0.0
 42
0.0
 43
0.0
 44
0.0
 45
0.0
 46
0.0
 47
0.0
 48
0.0
 49
0.0
140
0.0
141
0.0
142
1.0
143
1.0
 70
   688
 72
     0
 73
     0
 74
     5
  7
sanindusa.ctb
 75
    16
147
1.0
148
0.0
149
0.0
100
AcDbLayout
  1
Layout2
 70
     1
 71
     2
 10
0.0
 20
0.0
 11
12.0
 21
9.0
 12
0.0
 22
0.0
 32
0.0
 14
0.0
 24
0.0
 34
0.0
 15
0.0
 25
0.0
 35
0.0
146
0.0
 13
0.0
 23
0.0
 33
0.0
 16
1.0
 26
0.0
 36
0.0
 17
0.0
 27
1.0
 37
0.0
 76
     0
330
23
  0
LAYOUT
  5
22
102
{ACAD_XDICTIONARY
360
29F4
102
}
102
{ACAD_REACTORS
330
1A
102
}
330
1A
100
AcDbPlotSettings
  1

  2
Ploter HP500
  4
User268
  6

 40
4.995333194732666
 41
16.97565841674804
 42
4.995330810546875
 43
16.97567749023437
 44
209.9733276367187
 45
296.9259948730469
 46
0.0
 47
0.0
 48
0.0
 49
0.0
140
0.0
141
0.0
142
1.0
143
1.0
 70
 11952
 72
     1
 73
     1
 74
     0
  7
sanindusa.ctb
 75
     0
147
1.0
148
-427.5957866592534
149
7.362384574453926
100
AcDbLayout
  1
Model
 70
     1
 71
     0
 10
0.0
 20
0.0
 11
12.0
 21
9.0
 12
0.0
 22
0.0
 32
0.0
 14
0.0
 24
0.0
 34
0.0
 15
0.0
 25
0.0
 35
0.0
146
0.0
 13
0.0
 23
0.0
 33
0.0
 16
1.0
 26
0.0
 36
0.0
 17
0.0
 27
1.0
 37
0.0
 76
     0
330
1F
  0
MLINESTYLE
  5
18
102
{ACAD_REACTORS
330
17
102
}
330
17
100
AcDbMlineStyle
  2
STANDARD
 70
     0
  3

 62
   256
 51
90.0
 52
90.0
 71
     2
 49
0.5
 62
   256
  6
BYLAYER
 49
-0.5
 62
   256
  6
BYLAYER
  0
ACDBPLACEHOLDER
  5
F
102
{ACAD_REACTORS
330
E
102
}
330
E
  0
TABLESTYLE
  5
EE8
102
{ACAD_REACTORS
330
EE7
102
}
330
EE7
100
AcDbTableStyle
  3
Standard
 70
     0
 71
     0
 40
1.5
 41
1.5
280
     0
281
     0
  7
Standard
140
4.5
170
     2
 62
     0
 63
     7
283
     0
274
    -2
284
     1
 64
     0
275
    -2
285
     1
 65
     0
276
    -2
286
     1
 66
     0
277
    -2
287
     1
 67
     0
278
    -2
288
     1
 68
     0
279
    -2
289
     1
 69
     0
  7
Standard
140
6.0
170
     5
 62
     0
 63
     7
283
     0
274
    -2
284
     1
 64
     0
275
    -2
285
     1
 65
     0
276
    -2
286
     1
 66
     0
277
    -2
287
     1
 67
     0
278
    -2
288
     1
 68
     0
279
    -2
289
     1
 69
     0
  7
Standard
140
4.5
170
     5
 62
     0
 63
     7
283
     0
274
    -2
284
     1
 64
     0
275
    -2
285
     1
 65
     0
276
    -2
286
     1
 66
     0
277
    -2
287
     1
 67
     0
278
    -2
288
     1
 68
     0
279
    -2
289
     1
 69
     0
  0
DICTIONARYVAR
  5
1049
102
{ACAD_REACTORS
330
3D
102
}
330
3D
100
DictionaryVariables
280
     0
  1
STANDARD
  0
DICTIONARYVAR
  5
3F
102
{ACAD_REACTORS
330
3D
102
}
330
3D
100
DictionaryVariables
280
     0
  1
2
  0
DICTIONARYVAR
  5
3E
102
{ACAD_REACTORS
330
3D
102
}
330
3D
100
DictionaryVariables
280
     0
  1
1
  0
DICTIONARYVAR
  5
1FFF
102
{ACAD_REACTORS
330
3D
102
}
330
3D
100
DictionaryVariables
280
     0
  1

  0
XRECORD
  5
2007
102
{ACAD_REACTORS
330
2006
102
}
330
2006
100
AcDbXrecord
280
     1
  0
DICTIONARY
  5
29F2
330
1E
100
AcDbDictionary
280
     1
281
     1
  3
ACAD_XREC_ROUNDTRIP
360
29F3
  0
DICTIONARY
  5
29F6
330
26
100
AcDbDictionary
280
     1
281
     1
  3
ACAD_XREC_ROUNDTRIP
360
29F7
  0
DICTIONARY
  5
29F4
330
22
100
AcDbDictionary
280
     1
281
     1
  3
ACAD_XREC_ROUNDTRIP
360
29F5
  0
XRECORD
  5
29F3
102
{ACAD_REACTORS
330
29F2
102
}
330
29F2
100
AcDbXrecord
280
     1
102
SHADEPLOT
 70
     0
102
SHADEPLOTRESLEVEL
 70
     2
102
SHADEPLOTCUSTOMDPI
 70
   300
  0
XRECORD
  5
29F7
102
{ACAD_REACTORS
330
29F6
102
}
330
29F6
100
AcDbXrecord
280
     1
102
SHADEPLOT
 70
     0
102
SHADEPLOTRESLEVEL
 70
     2
102
SHADEPLOTCUSTOMDPI
 70
   300
  0
XRECORD
  5
29F5
102
{ACAD_REACTORS
330
29F4
102
}
330
29F4
100
AcDbXrecord
280
     1
102
SHADEPLOT
 70
     0
102
SHADEPLOTRESLEVEL
 70
     2
102
SHADEPLOTCUSTOMDPI
 70
   300
  0
ENDSEC
  0
EOF
