  0
SECTION
  2
HEADER
  9
$ACADVER
  1
AC1015
  9
$ACADMAINTVER
 70
    20
  9
$DWGCODEPAGE
  3
ANSI_1252
  9
$INSBASE
 10
0.0
 20
0.0
 30
0.0
  9
$EXTMIN
 10
1959.517299145243
 20
1601.851811562194
 30
0.0
  9
$EXTMAX
 10
1965.998762115936
 20
1602.652051670894
 30
0.0
  9
$LIMMIN
 10
0.0
 20
0.0
  9
$LIMMAX
 10
420.0
 20
297.0
  9
$ORTHOMODE
 70
     0
  9
$REGENMODE
 70
     1
  9
$FILLMODE
 70
     1
  9
$QTEXTMODE
 70
     0
  9
$MIRRTEXT
 70
     0
  9
$LTSCALE
 40
1.0
  9
$ATTMODE
 70
     1
  9
$TEXTSIZE
 40
2.5
  9
$TRACEWID
 40
1.0
  9
$TEXTSTYLE
  7
Standard
  9
$CLAYER
  8
0
  9
$CELTYPE
  6
ByLayer
  9
$CECOLOR
 62
   256
  9
$CELTSCALE
 40
1.0
  9
$DISPSILH
 70
     0
  9
$DIMSCALE
 40
1.0
  9
$DIMASZ
 40
2.5
  9
$DIMEXO
 40
0.625
  9
$DIMDLI
 40
3.75
  9
$DIMRND
 40
0.0
  9
$DIMDLE
 40
0.0
  9
$DIMEXE
 40
1.25
  9
$DIMTP
 40
0.0
  9
$DIMTM
 40
0.0
  9
$DIMTXT
 40
2.5
  9
$DIMCEN
 40
2.5
  9
$DIMTSZ
 40
0.0
  9
$DIMTOL
 70
     0
  9
$DIMLIM
 70
     0
  9
$DIMTIH
 70
     0
  9
$DIMTOH
 70
     0
  9
$DIMSE1
 70
     0
  9
$DIMSE2
 70
     0
  9
$DIMTAD
 70
     1
  9
$DIMZIN
 70
     8
  9
$DIMBLK
  1

  9
$DIMASO
 70
     1
  9
$DIMSHO
 70
     1
  9
$DIMPOST
  1

  9
$DIMAPOST
  1

  9
$DIMALT
 70
     0
  9
$DIMALTD
 70
     3
  9
$DIMALTF
 40
0.03937007874016
  9
$DIMLFAC
 40
1.0
  9
$DIMTOFL
 70
     1
  9
$DIMTVP
 40
0.0
  9
$DIMTIX
 70
     0
  9
$DIMSOXD
 70
     0
  9
$DIMSAH
 70
     0
  9
$DIMBLK1
  1

  9
$DIMBLK2
  1

  9
$DIMSTYLE
  2
ISO-25
  9
$DIMCLRD
 70
     0
  9
$DIMCLRE
 70
     0
  9
$DIMCLRT
 70
     0
  9
$DIMTFAC
 40
1.0
  9
$DIMGAP
 40
0.625
  9
$DIMJUST
 70
     0
  9
$DIMSD1
 70
     0
  9
$DIMSD2
 70
     0
  9
$DIMTOLJ
 70
     0
  9
$DIMTZIN
 70
     8
  9
$DIMALTZ
 70
     0
  9
$DIMALTTZ
 70
     0
  9
$DIMUPT
 70
     0
  9
$DIMDEC
 70
     2
  9
$DIMTDEC
 70
     2
  9
$DIMALTU
 70
     2
  9
$DIMALTTD
 70
     3
  9
$DIMTXSTY
  7
Standard
  9
$DIMAUNIT
 70
     0
  9
$DIMADEC
 70
     0
  9
$DIMALTRND
 40
0.0
  9
$DIMAZIN
 70
     0
  9
$DIMDSEP
 70
    44
  9
$DIMATFIT
 70
     3
  9
$DIMFRAC
 70
     0
  9
$DIMLDRBLK
  1

  9
$DIMLUNIT
 70
     2
  9
$DIMLWD
 70
    -2
  9
$DIMLWE
 70
    -2
  9
$DIMTMOVE
 70
     0
  9
$LUNITS
 70
     2
  9
$LUPREC
 70
     4
  9
$SKETCHINC
 40
1.0
  9
$FILLETRAD
 40
0.0
  9
$AUNITS
 70
     0
  9
$AUPREC
 70
     0
  9
$MENU
  1
.
  9
$ELEVATION
 40
0.0
  9
$PELEVATION
 40
0.0
  9
$THICKNESS
 40
0.0
  9
$LIMCHECK
 70
     0
  9
$CHAMFERA
 40
0.0
  9
$CHAMFERB
 40
0.0
  9
$CHAMFERC
 40
0.0
  9
$CHAMFERD
 40
0.0
  9
$SKPOLY
 70
     0
  9
$TDCREATE
 40
2454930.709771586
  9
$TDUCREATE
 40
2454930.668104919
  9
$TDUPDATE
 40
2454930.712758426
  9
$TDUUPDATE
 40
2454930.671091759
  9
$TDINDWG
 40
0.0029873843
  9
$TDUSRTIMER
 40
0.0029873843
  9
$USRTIMER
 70
     1
  9
$ANGBASE
 50
0.0
  9
$ANGDIR
 70
     0
  9
$PDMODE
 70
     0
  9
$PDSIZE
 40
0.0
  9
$PLINEWID
 40
0.0
  9
$SPLFRAME
 70
     0
  9
$SPLINETYPE
 70
     6
  9
$SPLINESEGS
 70
     8
  9
$HANDSEED
  5
89F9
  9
$SURFTAB1
 70
     6
  9
$SURFTAB2
 70
     6
  9
$SURFTYPE
 70
     6
  9
$SURFU
 70
     6
  9
$SURFV
 70
     6
  9
$UCSBASE
  2

  9
$UCSNAME
  2

  9
$UCSORG
 10
0.0
 20
0.0
 30
0.0
  9
$UCSXDIR
 10
1.0
 20
0.0
 30
0.0
  9
$UCSYDIR
 10
0.0
 20
1.0
 30
0.0
  9
$UCSORTHOREF
  2

  9
$UCSORTHOVIEW
 70
     0
  9
$UCSORGTOP
 10
0.0
 20
0.0
 30
0.0
  9
$UCSORGBOTTOM
 10
0.0
 20
0.0
 30
0.0
  9
$UCSORGLEFT
 10
0.0
 20
0.0
 30
0.0
  9
$UCSORGRIGHT
 10
0.0
 20
0.0
 30
0.0
  9
$UCSORGFRONT
 10
0.0
 20
0.0
 30
0.0
  9
$UCSORGBACK
 10
0.0
 20
0.0
 30
0.0
  9
$PUCSBASE
  2

  9
$PUCSNAME
  2

  9
$PUCSORG
 10
0.0
 20
0.0
 30
0.0
  9
$PUCSXDIR
 10
1.0
 20
0.0
 30
0.0
  9
$PUCSYDIR
 10
0.0
 20
1.0
 30
0.0
  9
$PUCSORTHOREF
  2

  9
$PUCSORTHOVIEW
 70
     0
  9
$PUCSORGTOP
 10
0.0
 20
0.0
 30
0.0
  9
$PUCSORGBOTTOM
 10
0.0
 20
0.0
 30
0.0
  9
$PUCSORGLEFT
 10
0.0
 20
0.0
 30
0.0
  9
$PUCSORGRIGHT
 10
0.0
 20
0.0
 30
0.0
  9
$PUCSORGFRONT
 10
0.0
 20
0.0
 30
0.0
  9
$PUCSORGBACK
 10
0.0
 20
0.0
 30
0.0
  9
$USERI1
 70
     0
  9
$USERI2
 70
     0
  9
$USERI3
 70
     0
  9
$USERI4
 70
     0
  9
$USERI5
 70
     0
  9
$USERR1
 40
0.0
  9
$USERR2
 40
0.0
  9
$USERR3
 40
0.0
  9
$USERR4
 40
0.0
  9
$USERR5
 40
0.0
  9
$WORLDVIEW
 70
     1
  9
$SHADEDGE
 70
     3
  9
$SHADEDIF
 70
    70
  9
$TILEMODE
 70
     1
  9
$MAXACTVP
 70
    64
  9
$PINSBASE
 10
0.0
 20
0.0
 30
0.0
  9
$PLIMCHECK
 70
     0
  9
$PEXTMIN
 10
1.000000000000000E+20
 20
1.000000000000000E+20
 30
1.000000000000000E+20
  9
$PEXTMAX
 10
-1.000000000000000E+20
 20
-1.000000000000000E+20
 30
-1.000000000000000E+20
  9
$PLIMMIN
 10
0.0
 20
0.0
  9
$PLIMMAX
 10
420.0
 20
297.0
  9
$UNITMODE
 70
     0
  9
$VISRETAIN
 70
     1
  9
$PLINEGEN
 70
     0
  9
$PSLTSCALE
 70
     1
  9
$TREEDEPTH
 70
  3020
  9
$CMLSTYLE
  2
Standard
  9
$CMLJUST
 70
     0
  9
$CMLSCALE
 40
20.0
  9
$PROXYGRAPHICS
 70
     1
  9
$MEASUREMENT
 70
     1
  9
$CELWEIGHT
370
    -1
  9
$ENDCAPS
280
     0
  9
$JOINSTYLE
280
     0
  9
$LWDISPLAY
290
     0
  9
$INSUNITS
 70
     4
  9
$HYPERLINKBASE
  1

  9
$STYLESHEET
  1

  9
$XEDIT
290
     1
  9
$CEPSNTYPE
380
     0
  9
$PSTYLEMODE
290
     1
  9
$FINGERPRINTGUID
  2
{AA9579EA-014F-4877-A034-63747DF3102B}
  9
$VERSIONGUID
  2
{C117C579-4753-4DFE-BEE4-815FD4966DF7}
  9
$EXTNAMES
290
     1
  9
$PSVPSCALE
 40
0.0
  9
$OLESTARTUP
290
     0
  0
ENDSEC
  0
SECTION
  2
CLASSES
  0
CLASS
  1
ACDBDICTIONARYWDFLT
  2
AcDbDictionaryWithDefault
  3
ObjectDBX Classes
 90
        0
280
     0
281
     0
  0
CLASS
  1
TABLESTYLE
  2
AcDbTableStyle
  3
ObjectDBX Classes
 90
     2047
280
     0
281
     0
  0
CLASS
  1
DIMASSOC
  2
AcDbDimAssoc
  3
"AcDbDimAssoc|Product Desc:     AcDim ARX App For Dimension|Company:          Autodesk, Inc.|WEB Address:      www.autodesk.com"
 90
        0
280
     0
281
     0
  0
CLASS
  1
SORTENTSTABLE
  2
AcDbSortentsTable
  3
ObjectDBX Classes
 90
        0
280
     0
281
     0
  0
CLASS
  1
DICTIONARYVAR
  2
AcDbDictionaryVar
  3
ObjectDBX Classes
 90
        0
280
     0
281
     0
  0
CLASS
  1
ACDBPLACEHOLDER
  2
AcDbPlaceHolder
  3
ObjectDBX Classes
 90
        0
280
     0
281
     0
  0
CLASS
  1
LAYOUT
  2
AcDbLayout
  3
ObjectDBX Classes
 90
        0
280
     0
281
     0
  0
ENDSEC
  0
SECTION
  2
TABLES
  0
TABLE
  2
VPORT
  5
8
330
0
100
AcDbSymbolTable
 70
     9
  0
VPORT
  5
89F1
330
8
100
AcDbSymbolTableRecord
100
AcDbViewportTableRecord
  2
*Active
 70
     0
 10
0.0
 20
0.0
 11
1.0
 21
1.0
 12
1962.758030630589
 22
1602.251931616544
 13
0.0
 23
0.0
 14
10.0
 24
10.0
 15
10.0
 25
10.0
 16
0.0
 26
0.0
 36
1.0
 17
0.0
 27
0.0
 37
0.0
 40
4.061147710702809
 41
1.602030456852791
 42
50.0
 43
0.0
 44
0.0
 50
0.0
 51
0.0
 71
     0
 72
  1000
 73
     1
 74
     3
 75
     0
 76
     0
 77
     0
 78
     0
281
     0
 65
     1
110
0.0
120
0.0
130
0.0
111
1.0
121
0.0
131
0.0
112
0.0
122
1.0
132
0.0
 79
     0
146
0.0
  0
ENDTAB
  0
TABLE
  2
LTYPE
  5
5
330
0
100
AcDbSymbolTable
 70
     4
  0
LTYPE
  5
14
330
5
100
AcDbSymbolTableRecord
100
AcDbLinetypeTableRecord
  2
ByBlock
 70
     0
  3

 72
    65
 73
     0
 40
0.0
  0
LTYPE
  5
15
330
5
100
AcDbSymbolTableRecord
100
AcDbLinetypeTableRecord
  2
ByLayer
 70
     0
  3

 72
    65
 73
     0
 40
0.0
  0
LTYPE
  5
16
330
5
100
AcDbSymbolTableRecord
100
AcDbLinetypeTableRecord
  2
Continuous
 70
     0
  3
Solid line
 72
    65
 73
     0
 40
0.0
  0
LTYPE
  5
2EC
330
5
100
AcDbSymbolTableRecord
100
AcDbLinetypeTableRecord
  2
DASHDOT
 70
     0
  3
Dash dot __ . __ . __ . __ . __ . __ . __ . __
 72
    65
 73
     4
 40
25.4
 49
12.7
 74
     0
 49
-6.349999999999999
 74
     0
 49
0.0
 74
     0
 49
-6.349999999999999
 74
     0
  0
LTYPE
  5
2ED
330
5
100
AcDbSymbolTableRecord
100
AcDbLinetypeTableRecord
  2
HIDDEN
 70
     0
  3
Hidden __ __ __ __ __ __ __ __ __ __ __ __ __ _
 72
    65
 73
     2
 40
9.524999999999998
 49
6.349999999999999
 74
     0
 49
-3.174999999999999
 74
     0
  0
LTYPE
  5
2EE
330
5
100
AcDbSymbolTableRecord
100
AcDbLinetypeTableRecord
  2
HIDDEN2
 70
     0
  3
Hidden (.5x) _ _ _ _ _ _ _ _ _ _ _ _ _ _ _ _ _
 72
    65
 73
     2
 40
4.762499999999999
 49
3.174999999999999
 74
     0
 49
-1.587499999999999
 74
     0
  0
ENDTAB
  0
TABLE
  2
LAYER
  5
2
330
0
100
AcDbSymbolTable
 70
     9
  0
LAYER
  5
10
330
2
100
AcDbSymbolTableRecord
100
AcDbLayerTableRecord
  2
0
 70
     0
 62
     7
  6
Continuous
370
    -3
390
F
  0
LAYER
  5
2EF
330
2
100
AcDbSymbolTableRecord
100
AcDbLayerTableRecord
  2
4
 70
     0
 62
     4
  6
Continuous
370
    -3
390
F
  0
LAYER
  5
2F0
330
2
100
AcDbSymbolTableRecord
100
AcDbLayerTableRecord
  2
cen
 70
     0
 62
     7
  6
DASHDOT
370
    -3
390
F
  0
LAYER
  5
2F1
330
2
100
AcDbSymbolTableRecord
100
AcDbLayerTableRecord
  2
hid
 70
     0
 62
     9
  6
HIDDEN
370
    -3
390
F
  0
LAYER
  5
2F2
330
2
100
AcDbSymbolTableRecord
100
AcDbLayerTableRecord
  2
hatch
 70
     0
 62
     9
  6
Continuous
370
    -3
390
F
  0
LAYER
  5
2F3
330
2
100
AcDbSymbolTableRecord
100
AcDbLayerTableRecord
  2
9
 70
     0
 62
     9
  6
Continuous
370
    -3
390
F
  0
LAYER
  5
2F4
330
2
100
AcDbSymbolTableRecord
100
AcDbLayerTableRecord
  2
cotas
 70
     0
 62
     1
  6
Continuous
370
    -3
390
F
  0
LAYER
  5
2F5
330
2
100
AcDbSymbolTableRecord
100
AcDbLayerTableRecord
  2
Defpoints
 70
     0
 62
     7
  6
Continuous
290
     0
370
    -3
390
F
  0
LAYER
  5
2F6
330
2
100
AcDbSymbolTableRecord
100
AcDbLayerTableRecord
  2
SANINDUSA
 70
     0
 62
     3
  6
Continuous
370
    -3
390
F
  0
ENDTAB
  0
TABLE
  2
STYLE
  5
3
330
0
100
AcDbSymbolTable
 70
     2
  0
STYLE
  5
11
330
3
100
AcDbSymbolTableRecord
100
AcDbTextStyleTableRecord
  2
Standard
 70
     0
 40
0.0
 41
1.0
 50
0.0
 71
     0
 42
2.5
  3
txt
  4

  0
STYLE
  5
2F7
330
3
100
AcDbSymbolTableRecord
100
AcDbTextStyleTableRecord
  2
SANINDUSA
 70
     0
 40
0.0
 41
1.0
 50
0.0
 71
     0
 42
2.5
  3
verdana.TTF
  4

1001
ACAD
1000
Verdana
1071
       34
  0
ENDTAB
  0
TABLE
  2
VIEW
  5
6
330
0
100
AcDbSymbolTable
 70
     0
  0
ENDTAB
  0
TABLE
  2
UCS
  5
7
330
0
100
AcDbSymbolTable
 70
     0
  0
ENDTAB
  0
TABLE
  2
APPID
  5
9
330
0
100
AcDbSymbolTable
 70
     6
  0
APPID
  5
12
330
9
100
AcDbSymbolTableRecord
100
AcDbRegAppTableRecord
  2
ACAD
 70
     0
  0
APPID
  5
2F9
330
9
100
AcDbSymbolTableRecord
100
AcDbRegAppTableRecord
  2
ACAD_DSTYLE_DIMEXT_LENGTH
 70
     0
  0
APPID
  5
2FA
330
9
100
AcDbSymbolTableRecord
100
AcDbRegAppTableRecord
  2
ACAD_DSTYLE_DIMEXT_ENABLED
 70
     0
  0
APPID
  5
2FB
330
9
100
AcDbSymbolTableRecord
100
AcDbRegAppTableRecord
  2
ACAD_DSTYLE_DIMJOGGED_JOGANGLE_SYMBOL
 70
     0
  0
APPID
  5
2FC
330
9
100
AcDbSymbolTableRecord
100
AcDbRegAppTableRecord
  2
ACAD_DSTYLE_DIMARC_LENGTH_SYMBOL
 70
     0
  0
APPID
  5
2FD
330
9
100
AcDbSymbolTableRecord
100
AcDbRegAppTableRecord
  2
ACAD_PSEXT
 70
     0
  0
ENDTAB
  0
TABLE
  2
DIMSTYLE
  5
A
330
0
100
AcDbSymbolTable
 70
     2
100
AcDbDimStyleTable
 71
     1
340
2B
  0
DIMSTYLE
105
2B
330
A
100
AcDbSymbolTableRecord
100
AcDbDimStyleTableRecord
  2
ISO-25
 70
     0
 41
2.5
 42
0.625
 43
3.75
 44
1.25
 73
     0
 74
     0
 77
     1
 78
     8
140
2.5
141
2.5
143
0.03937007874016
147
0.625
171
     3
172
     1
271
     2
272
     2
274
     3
278
    44
283
     0
284
     8
340
11
  0
DIMSTYLE
105
2F8
102
{ACAD_REACTORS
330
321
330
384
330
385
330
386
330
387
330
388
330
389
330
38A
330
38B
330
38C
330
38D
330
38E
330
38F
330
390
330
391
330
393
330
394
330
395
330
396
330
3C6
330
3CB
330
3CC
330
3CD
330
3CE
330
3CF
330
3D1
330
3D2
330
3A4
330
3A5
330
3A8
330
3A9
330
3AA
330
3AF
330
3B0
330
3B1
330
3B2
330
3B3
330
3B9
330
3BA
330
3BB
330
3BE
330
3BF
330
3C0
330
3D3
330
3D4
330
3D5
330
3D6
330
3D8
330
3DB
330
3DC
330
3DD
330
4EE
330
4F3
330
4F6
330
507
330
50A
330
89B
330
89E
330
8A1
330
8A6
330
8A9
330
8AC
102
}
330
A
100
AcDbSymbolTableRecord
100
AcDbDimStyleTableRecord
  2
SANINDUSA
 70
     0
 40
5.0
 41
2.0
 42
1.0
 43
1.0
 44
1.0
 73
     0
 74
     0
 77
     1
 78
     8
140
2.0
141
0.0
143
0.03937007874016
147
1.0
171
     3
172
     1
176
   256
177
   256
178
   256
179
     1
271
     1
272
     1
274
     3
278
    44
283
     0
284
     8
340
2F7
371
    -1
372
    -1
1001
ACAD_DSTYLE_DIMEXT_LENGTH
1070
   378
1040
1.0
1001
ACAD_DSTYLE_DIMEXT_ENABLED
1070
   383
1070
     0
1001
ACAD_DSTYLE_DIMARC_LENGTH_SYMBOL
1070
   379
1070
     0
1001
ACAD_DSTYLE_DIMJOGGED_JOGANGLE_SYMBOL
1070
   384
1040
1.570796326794896
  0
ENDTAB
  0
TABLE
  2
BLOCK_RECORD
  5
1
330
0
100
AcDbSymbolTable
 70
   126
  0
BLOCK_RECORD
  5
23
330
1
100
AcDbSymbolTableRecord
100
AcDbBlockTableRecord
  2
*Model_Space
340
26
  0
BLOCK_RECORD
  5
1F
330
1
100
AcDbSymbolTableRecord
100
AcDbBlockTableRecord
  2
*Paper_Space
340
22
  0
BLOCK_RECORD
  5
27
330
1
100
AcDbSymbolTableRecord
100
AcDbBlockTableRecord
  2
*Paper_Space0
340
2A
  0
BLOCK_RECORD
  5
2F
330
1
100
AcDbSymbolTableRecord
100
AcDbBlockTableRecord
  2
*D1
340
0
  0
BLOCK_RECORD
  5
3B
330
1
100
AcDbSymbolTableRecord
100
AcDbBlockTableRecord
  2
*D2
340
0
  0
BLOCK_RECORD
  5
47
330
1
100
AcDbSymbolTableRecord
100
AcDbBlockTableRecord
  2
*D3
340
0
  0
BLOCK_RECORD
  5
53
330
1
100
AcDbSymbolTableRecord
100
AcDbBlockTableRecord
  2
*D4
340
0
  0
BLOCK_RECORD
  5
5F
330
1
100
AcDbSymbolTableRecord
100
AcDbBlockTableRecord
  2
*D5
340
0
  0
BLOCK_RECORD
  5
6B
330
1
100
AcDbSymbolTableRecord
100
AcDbBlockTableRecord
  2
*D6
340
0
  0
BLOCK_RECORD
  5
77
330
1
100
AcDbSymbolTableRecord
100
AcDbBlockTableRecord
  2
*D7
340
0
  0
BLOCK_RECORD
  5
83
330
1
100
AcDbSymbolTableRecord
100
AcDbBlockTableRecord
  2
*D8
340
0
  0
BLOCK_RECORD
  5
8F
330
1
100
AcDbSymbolTableRecord
100
AcDbBlockTableRecord
  2
*D9
340
0
  0
BLOCK_RECORD
  5
9B
330
1
100
AcDbSymbolTableRecord
100
AcDbBlockTableRecord
  2
*D10
340
0
  0
BLOCK_RECORD
  5
A7
330
1
100
AcDbSymbolTableRecord
100
AcDbBlockTableRecord
  2
*D11
340
0
  0
BLOCK_RECORD
  5
B3
330
1
100
AcDbSymbolTableRecord
100
AcDbBlockTableRecord
  2
*D12
340
0
  0
BLOCK_RECORD
  5
BF
330
1
100
AcDbSymbolTableRecord
100
AcDbBlockTableRecord
  2
*D13
340
0
  0
BLOCK_RECORD
  5
CB
330
1
100
AcDbSymbolTableRecord
100
AcDbBlockTableRecord
  2
*D14
340
0
  0
BLOCK_RECORD
  5
D7
330
1
100
AcDbSymbolTableRecord
100
AcDbBlockTableRecord
  2
*D15
340
0
  0
BLOCK_RECORD
  5
E3
330
1
100
AcDbSymbolTableRecord
100
AcDbBlockTableRecord
  2
*D16
340
0
  0
BLOCK_RECORD
  5
EC
330
1
100
AcDbSymbolTableRecord
100
AcDbBlockTableRecord
  2
*D17
340
0
  0
BLOCK_RECORD
  5
F5
330
1
100
AcDbSymbolTableRecord
100
AcDbBlockTableRecord
  2
*D18
340
0
  0
BLOCK_RECORD
  5
FE
330
1
100
AcDbSymbolTableRecord
100
AcDbBlockTableRecord
  2
*D19
340
0
  0
BLOCK_RECORD
  5
107
330
1
100
AcDbSymbolTableRecord
100
AcDbBlockTableRecord
  2
*D20
340
0
  0
BLOCK_RECORD
  5
113
330
1
100
AcDbSymbolTableRecord
100
AcDbBlockTableRecord
  2
*D21
340
0
  0
BLOCK_RECORD
  5
11F
330
1
100
AcDbSymbolTableRecord
100
AcDbBlockTableRecord
  2
*D22
340
0
  0
BLOCK_RECORD
  5
12B
330
1
100
AcDbSymbolTableRecord
100
AcDbBlockTableRecord
  2
*D23
340
0
  0
BLOCK_RECORD
  5
137
330
1
100
AcDbSymbolTableRecord
100
AcDbBlockTableRecord
  2
*D24
340
0
  0
BLOCK_RECORD
  5
143
330
1
100
AcDbSymbolTableRecord
100
AcDbBlockTableRecord
  2
*D25
340
0
  0
BLOCK_RECORD
  5
14F
330
1
100
AcDbSymbolTableRecord
100
AcDbBlockTableRecord
  2
*D26
340
0
  0
BLOCK_RECORD
  5
15E
330
1
100
AcDbSymbolTableRecord
100
AcDbBlockTableRecord
  2
*D27
340
0
  0
BLOCK_RECORD
  5
16A
330
1
100
AcDbSymbolTableRecord
100
AcDbBlockTableRecord
  2
*D28
340
0
  0
BLOCK_RECORD
  5
173
330
1
100
AcDbSymbolTableRecord
100
AcDbBlockTableRecord
  2
*D29
340
0
  0
BLOCK_RECORD
  5
17C
330
1
100
AcDbSymbolTableRecord
100
AcDbBlockTableRecord
  2
*D30
340
0
  0
BLOCK_RECORD
  5
185
330
1
100
AcDbSymbolTableRecord
100
AcDbBlockTableRecord
  2
*D31
340
0
  0
BLOCK_RECORD
  5
18E
330
1
100
AcDbSymbolTableRecord
100
AcDbBlockTableRecord
  2
*D32
340
0
  0
BLOCK_RECORD
  5
199
330
1
100
AcDbSymbolTableRecord
100
AcDbBlockTableRecord
  2
*D33
340
0
  0
BLOCK_RECORD
  5
1A5
330
1
100
AcDbSymbolTableRecord
100
AcDbBlockTableRecord
  2
*D34
340
0
  0
BLOCK_RECORD
  5
1B2
330
1
100
AcDbSymbolTableRecord
100
AcDbBlockTableRecord
  2
*D35
340
0
  0
BLOCK_RECORD
  5
1BE
330
1
100
AcDbSymbolTableRecord
100
AcDbBlockTableRecord
  2
*D36
340
0
  0
BLOCK_RECORD
  5
1CB
330
1
100
AcDbSymbolTableRecord
100
AcDbBlockTableRecord
  2
*D37
340
0
  0
BLOCK_RECORD
  5
1D7
330
1
100
AcDbSymbolTableRecord
100
AcDbBlockTableRecord
  2
*D38
340
0
  0
BLOCK_RECORD
  5
1E3
330
1
100
AcDbSymbolTableRecord
100
AcDbBlockTableRecord
  2
*D39
340
0
  0
BLOCK_RECORD
  5
1F0
330
1
100
AcDbSymbolTableRecord
100
AcDbBlockTableRecord
  2
*D40
340
0
  0
BLOCK_RECORD
  5
1FD
330
1
100
AcDbSymbolTableRecord
100
AcDbBlockTableRecord
  2
*D41
340
0
  0
BLOCK_RECORD
  5
209
330
1
100
AcDbSymbolTableRecord
100
AcDbBlockTableRecord
  2
*D42
340
0
  0
BLOCK_RECORD
  5
215
330
1
100
AcDbSymbolTableRecord
100
AcDbBlockTableRecord
  2
*D43
340
0
  0
BLOCK_RECORD
  5
226
330
1
100
AcDbSymbolTableRecord
100
AcDbBlockTableRecord
  2
*D44
340
0
  0
BLOCK_RECORD
  5
22E
330
1
100
AcDbSymbolTableRecord
100
AcDbBlockTableRecord
  2
*D45
340
0
  0
BLOCK_RECORD
  5
236
330
1
100
AcDbSymbolTableRecord
100
AcDbBlockTableRecord
  2
*D46
340
0
  0
BLOCK_RECORD
  5
23E
330
1
100
AcDbSymbolTableRecord
100
AcDbBlockTableRecord
  2
*D47
340
0
  0
BLOCK_RECORD
  5
246
330
1
100
AcDbSymbolTableRecord
100
AcDbBlockTableRecord
  2
*D48
340
0
  0
BLOCK_RECORD
  5
254
330
1
100
AcDbSymbolTableRecord
100
AcDbBlockTableRecord
  2
*D49
340
0
  0
BLOCK_RECORD
  5
25C
330
1
100
AcDbSymbolTableRecord
100
AcDbBlockTableRecord
  2
*D50
340
0
  0
BLOCK_RECORD
  5
265
330
1
100
AcDbSymbolTableRecord
100
AcDbBlockTableRecord
  2
*D51
340
0
  0
BLOCK_RECORD
  5
26E
330
1
100
AcDbSymbolTableRecord
100
AcDbBlockTableRecord
  2
*D52
340
0
  0
BLOCK_RECORD
  5
280
330
1
100
AcDbSymbolTableRecord
100
AcDbBlockTableRecord
  2
*D53
340
0
  0
BLOCK_RECORD
  5
292
330
1
100
AcDbSymbolTableRecord
100
AcDbBlockTableRecord
  2
*D54
340
0
  0
BLOCK_RECORD
  5
2A1
330
1
100
AcDbSymbolTableRecord
100
AcDbBlockTableRecord
  2
*D55
340
0
  0
BLOCK_RECORD
  5
2AD
330
1
100
AcDbSymbolTableRecord
100
AcDbBlockTableRecord
  2
*D56
340
0
  0
BLOCK_RECORD
  5
2B9
330
1
100
AcDbSymbolTableRecord
100
AcDbBlockTableRecord
  2
*D57
340
0
  0
BLOCK_RECORD
  5
2C2
330
1
100
AcDbSymbolTableRecord
100
AcDbBlockTableRecord
  2
*D58
340
0
  0
BLOCK_RECORD
  5
2CB
330
1
100
AcDbSymbolTableRecord
100
AcDbBlockTableRecord
  2
*D59
340
0
  0
BLOCK_RECORD
  5
2D4
330
1
100
AcDbSymbolTableRecord
100
AcDbBlockTableRecord
  2
*D60
340
0
  0
BLOCK_RECORD
  5
2DC
330
1
100
AcDbSymbolTableRecord
100
AcDbBlockTableRecord
  2
*D61
340
0
  0
BLOCK_RECORD
  5
2E4
330
1
100
AcDbSymbolTableRecord
100
AcDbBlockTableRecord
  2
*D62
340
0
  0
BLOCK_RECORD
  5
E65
330
1
100
AcDbSymbolTableRecord
100
AcDbBlockTableRecord
  2
*D64
340
0
  0
BLOCK_RECORD
  5
E74
330
1
100
AcDbSymbolTableRecord
100
AcDbBlockTableRecord
  2
*D65
340
0
  0
BLOCK_RECORD
  5
E80
330
1
100
AcDbSymbolTableRecord
100
AcDbBlockTableRecord
  2
*D66
340
0
  0
BLOCK_RECORD
  5
E8C
330
1
100
AcDbSymbolTableRecord
100
AcDbBlockTableRecord
  2
*D67
340
0
  0
BLOCK_RECORD
  5
E98
330
1
100
AcDbSymbolTableRecord
100
AcDbBlockTableRecord
  2
*D68
340
0
  0
BLOCK_RECORD
  5
EA4
330
1
100
AcDbSymbolTableRecord
100
AcDbBlockTableRecord
  2
*D69
340
0
  0
BLOCK_RECORD
  5
EB0
330
1
100
AcDbSymbolTableRecord
100
AcDbBlockTableRecord
  2
*D70
340
0
  0
BLOCK_RECORD
  5
EBC
330
1
100
AcDbSymbolTableRecord
100
AcDbBlockTableRecord
  2
*D71
340
0
  0
BLOCK_RECORD
  5
EC8
330
1
100
AcDbSymbolTableRecord
100
AcDbBlockTableRecord
  2
*D72
340
0
  0
BLOCK_RECORD
  5
ED4
330
1
100
AcDbSymbolTableRecord
100
AcDbBlockTableRecord
  2
*D73
340
0
  0
BLOCK_RECORD
  5
EE0
330
1
100
AcDbSymbolTableRecord
100
AcDbBlockTableRecord
  2
*D74
340
0
  0
BLOCK_RECORD
  5
EEC
330
1
100
AcDbSymbolTableRecord
100
AcDbBlockTableRecord
  2
*D75
340
0
  0
BLOCK_RECORD
  5
EF8
330
1
100
AcDbSymbolTableRecord
100
AcDbBlockTableRecord
  2
*D76
340
0
  0
BLOCK_RECORD
  5
F04
330
1
100
AcDbSymbolTableRecord
100
AcDbBlockTableRecord
  2
*D77
340
0
  0
BLOCK_RECORD
  5
F10
330
1
100
AcDbSymbolTableRecord
100
AcDbBlockTableRecord
  2
*D78
340
0
  0
BLOCK_RECORD
  5
F1C
330
1
100
AcDbSymbolTableRecord
100
AcDbBlockTableRecord
  2
*D79
340
0
  0
BLOCK_RECORD
  5
F28
330
1
100
AcDbSymbolTableRecord
100
AcDbBlockTableRecord
  2
*D80
340
0
  0
BLOCK_RECORD
  5
F34
330
1
100
AcDbSymbolTableRecord
100
AcDbBlockTableRecord
  2
*D81
340
0
  0
BLOCK_RECORD
  5
F3D
330
1
100
AcDbSymbolTableRecord
100
AcDbBlockTableRecord
  2
*D82
340
0
  0
BLOCK_RECORD
  5
F46
330
1
100
AcDbSymbolTableRecord
100
AcDbBlockTableRecord
  2
*D83
340
0
  0
BLOCK_RECORD
  5
F4F
330
1
100
AcDbSymbolTableRecord
100
AcDbBlockTableRecord
  2
*D84
340
0
  0
BLOCK_RECORD
  5
F58
330
1
100
AcDbSymbolTableRecord
100
AcDbBlockTableRecord
  2
*D85
340
0
  0
BLOCK_RECORD
  5
F61
330
1
100
AcDbSymbolTableRecord
100
AcDbBlockTableRecord
  2
*D86
340
0
  0
BLOCK_RECORD
  5
F6A
330
1
100
AcDbSymbolTableRecord
100
AcDbBlockTableRecord
  2
*D87
340
0
  0
BLOCK_RECORD
  5
F73
330
1
100
AcDbSymbolTableRecord
100
AcDbBlockTableRecord
  2
*D88
340
0
  0
BLOCK_RECORD
  5
F7C
330
1
100
AcDbSymbolTableRecord
100
AcDbBlockTableRecord
  2
*D89
340
0
  0
BLOCK_RECORD
  5
F87
330
1
100
AcDbSymbolTableRecord
100
AcDbBlockTableRecord
  2
*D90
340
0
  0
BLOCK_RECORD
  5
F93
330
1
100
AcDbSymbolTableRecord
100
AcDbBlockTableRecord
  2
*D91
340
0
  0
BLOCK_RECORD
  5
FA0
330
1
100
AcDbSymbolTableRecord
100
AcDbBlockTableRecord
  2
*D92
340
0
  0
BLOCK_RECORD
  5
FAC
330
1
100
AcDbSymbolTableRecord
100
AcDbBlockTableRecord
  2
*D93
340
0
  0
BLOCK_RECORD
  5
FB9
330
1
100
AcDbSymbolTableRecord
100
AcDbBlockTableRecord
  2
*D94
340
0
  0
BLOCK_RECORD
  5
FC5
330
1
100
AcDbSymbolTableRecord
100
AcDbBlockTableRecord
  2
*D95
340
0
  0
BLOCK_RECORD
  5
FD1
330
1
100
AcDbSymbolTableRecord
100
AcDbBlockTableRecord
  2
*D96
340
0
  0
BLOCK_RECORD
  5
FDE
330
1
100
AcDbSymbolTableRecord
100
AcDbBlockTableRecord
  2
*D97
340
0
  0
BLOCK_RECORD
  5
FEB
330
1
100
AcDbSymbolTableRecord
100
AcDbBlockTableRecord
  2
*D98
340
0
  0
BLOCK_RECORD
  5
FF7
330
1
100
AcDbSymbolTableRecord
100
AcDbBlockTableRecord
  2
*D99
340
0
  0
BLOCK_RECORD
  5
1003
330
1
100
AcDbSymbolTableRecord
100
AcDbBlockTableRecord
  2
*D100
340
0
  0
BLOCK_RECORD
  5
1014
330
1
100
AcDbSymbolTableRecord
100
AcDbBlockTableRecord
  2
*D101
340
0
  0
BLOCK_RECORD
  5
1020
330
1
100
AcDbSymbolTableRecord
100
AcDbBlockTableRecord
  2
*D102
340
0
  0
BLOCK_RECORD
  5
102C
330
1
100
AcDbSymbolTableRecord
100
AcDbBlockTableRecord
  2
*D103
340
0
  0
BLOCK_RECORD
  5
1038
330
1
100
AcDbSymbolTableRecord
100
AcDbBlockTableRecord
  2
*D104
340
0
  0
BLOCK_RECORD
  5
1044
330
1
100
AcDbSymbolTableRecord
100
AcDbBlockTableRecord
  2
*D105
340
0
  0
BLOCK_RECORD
  5
1050
330
1
100
AcDbSymbolTableRecord
100
AcDbBlockTableRecord
  2
*D106
340
0
  0
BLOCK_RECORD
  5
105C
330
1
100
AcDbSymbolTableRecord
100
AcDbBlockTableRecord
  2
*D107
340
0
  0
BLOCK_RECORD
  5
106B
330
1
100
AcDbSymbolTableRecord
100
AcDbBlockTableRecord
  2
*D108
340
0
  0
BLOCK_RECORD
  5
1077
330
1
100
AcDbSymbolTableRecord
100
AcDbBlockTableRecord
  2
*D109
340
0
  0
BLOCK_RECORD
  5
107F
330
1
100
AcDbSymbolTableRecord
100
AcDbBlockTableRecord
  2
*D110
340
0
  0
BLOCK_RECORD
  5
1087
330
1
100
AcDbSymbolTableRecord
100
AcDbBlockTableRecord
  2
*D111
340
0
  0
BLOCK_RECORD
  5
108F
330
1
100
AcDbSymbolTableRecord
100
AcDbBlockTableRecord
  2
*D112
340
0
  0
BLOCK_RECORD
  5
1097
330
1
100
AcDbSymbolTableRecord
100
AcDbBlockTableRecord
  2
*D113
340
0
  0
BLOCK_RECORD
  5
109F
330
1
100
AcDbSymbolTableRecord
100
AcDbBlockTableRecord
  2
*D114
340
0
  0
BLOCK_RECORD
  5
10A8
330
1
100
AcDbSymbolTableRecord
100
AcDbBlockTableRecord
  2
*D115
340
0
  0
BLOCK_RECORD
  5
10B1
330
1
100
AcDbSymbolTableRecord
100
AcDbBlockTableRecord
  2
*D116
340
0
  0
BLOCK_RECORD
  5
10C3
330
1
100
AcDbSymbolTableRecord
100
AcDbBlockTableRecord
  2
*D117
340
0
  0
BLOCK_RECORD
  5
10E1
330
1
100
AcDbSymbolTableRecord
100
AcDbBlockTableRecord
  2
*D118
340
0
  0
BLOCK_RECORD
  5
10F6
330
1
100
AcDbSymbolTableRecord
100
AcDbBlockTableRecord
  2
*D119
340
0
  0
BLOCK_RECORD
  5
10FF
330
1
100
AcDbSymbolTableRecord
100
AcDbBlockTableRecord
  2
*D120
340
0
  0
BLOCK_RECORD
  5
1108
330
1
100
AcDbSymbolTableRecord
100
AcDbBlockTableRecord
  2
*D121
340
0
  0
BLOCK_RECORD
  5
1111
330
1
100
AcDbSymbolTableRecord
100
AcDbBlockTableRecord
  2
*D122
340
0
  0
BLOCK_RECORD
  5
1119
330
1
100
AcDbSymbolTableRecord
100
AcDbBlockTableRecord
  2
*D123
340
0
  0
BLOCK_RECORD
  5
1121
330
1
100
AcDbSymbolTableRecord
100
AcDbBlockTableRecord
  2
*D124
340
0
  0
BLOCK_RECORD
  5
12B3
330
1
100
AcDbSymbolTableRecord
100
AcDbBlockTableRecord
  2
*D125
340
0
  0
ENDTAB
  0
ENDSEC
  0
SECTION
  2
BLOCKS
  0
BLOCK
  5
24
330
23
100
AcDbEntity
  8
0
100
AcDbBlockBegin
  2
*Model_Space
 70
     0
 10
0.0
 20
0.0
 30
0.0
  3
*Model_Space
  1

  0
ENDBLK
  5
25
330
23
100
AcDbEntity
  8
0
100
AcDbBlockEnd
  0
BLOCK
  5
20
330
1F
100
AcDbEntity
 67
     1
  8
0
100
AcDbBlockBegin
  2
*Paper_Space
 70
     0
 10
0.0
 20
0.0
 30
0.0
  3
*Paper_Space
  1

  0
ENDBLK
  5
21
330
1F
100
AcDbEntity
 67
     1
  8
0
100
AcDbBlockEnd
  0
BLOCK
  5
28
330
27
100
AcDbEntity
 67
     1
  8
0
100
AcDbBlockBegin
  2
*Paper_Space0
 70
     0
 10
0.0
 20
0.0
 30
0.0
  3
*Paper_Space0
  1

  0
ENDBLK
  5
29
330
27
100
AcDbEntity
 67
     1
  8
0
100
AcDbBlockEnd
  0
BLOCK
  5
30
330
2F
100
AcDbEntity
  8
0
100
AcDbBlockBegin
  2
*D1
 70
     1
 10
0.0
 20
0.0
 30
0.0
  3
*D1
  1

  0
LINE
  5
31
330
2F
100
AcDbEntity
  8
cotas
100
AcDbLine
 10
4051.894443881033
 20
1703.291970990601
 30
0.0
 11
4051.894443881033
 21
1856.787061377978
 31
0.0
  0
LINE
  5
32
330
2F
100
AcDbEntity
  8
cotas
100
AcDbLine
 10
4602.820501175291
 20
1703.353127179136
 30
0.0
 11
4602.820501175291
 21
1856.787061377978
 31
0.0
  0
LINE
  5
33
330
2F
100
AcDbEntity
  8
cotas
100
AcDbLine
 10
4061.894443881032
 20
1851.787061377978
 30
0.0
 11
4592.820501175292
 21
1851.787061377978
 31
0.0
  0
SOLID
  5
34
330
2F
100
AcDbEntity
  8
cotas
100
AcDbTrace
 10
4061.894443881032
 20
1853.453728044645
 30
0.0
 11
4061.894443881032
 21
1850.120394711311
 31
0.0
 12
4051.894443881033
 22
1851.787061377978
 32
0.0
 13
4051.894443881033
 23
1851.787061377978
 33
0.0
  0
SOLID
  5
35
330
2F
100
AcDbEntity
  8
cotas
100
AcDbTrace
 10
4592.820501175292
 20
1853.453728044645
 30
0.0
 11
4592.820501175292
 21
1850.120394711311
 31
0.0
 12
4602.820501175291
 22
1851.787061377978
 32
0.0
 13
4602.820501175291
 23
1851.787061377978
 33
0.0
  0
MTEXT
  5
36
330
2F
100
AcDbEntity
  8
cotas
100
AcDbMText
 10
4327.357472528162
 20
1861.907947878985
 30
0.0
 40
10.0
 41
0.0
 71
     5
 72
     1
  1
551
  7
SANINDUSA
 73
     1
 44
1.0
1001
ACAD
1000
MTEXTBEGIN
1070
    73
1070
     1
1070
    44
1040
1.0
1070
    74
1070
     0
1000
MTEXTEND
  0
POINT
  5
37
330
2F
100
AcDbEntity
  8
Defpoints
 62
     0
100
AcDbPoint
 10
4051.894443881033
 20
1698.291970990602
 30
0.0
  0
POINT
  5
38
330
2F
100
AcDbEntity
  8
Defpoints
 62
     0
100
AcDbPoint
 10
4602.820501175291
 20
1698.353127179135
 30
0.0
  0
POINT
  5
39
330
2F
100
AcDbEntity
  8
Defpoints
 62
     0
100
AcDbPoint
 10
4602.820501175291
 20
1851.787061377978
 30
0.0
  0
ENDBLK
  5
3A
330
2F
100
AcDbEntity
  8
0
100
AcDbBlockEnd
  0
BLOCK
  5
3C
330
3B
100
AcDbEntity
  8
0
100
AcDbBlockBegin
  2
*D2
 70
     1
 10
0.0
 20
0.0
 30
0.0
  3
*D2
  1

  0
LINE
  5
3D
330
3B
100
AcDbEntity
  8
cotas
100
AcDbLine
 10
4602.820501175291
 20
1703.353127179136
 30
0.0
 11
4602.820501175291
 21
1856.785548255081
 31
0.0
  0
LINE
  5
3E
330
3B
100
AcDbEntity
  8
cotas
100
AcDbLine
 10
4729.431467550558
 20
1684.337829221402
 30
0.0
 11
4729.431467550558
 21
1856.785548255081
 31
0.0
  0
LINE
  5
3F
330
3B
100
AcDbEntity
  8
cotas
100
AcDbLine
 10
4612.820501175291
 20
1851.785548255081
 30
0.0
 11
4719.431467550559
 21
1851.785548255081
 31
0.0
  0
SOLID
  5
40
330
3B
100
AcDbEntity
  8
cotas
100
AcDbTrace
 10
4612.820501175291
 20
1853.452214921748
 30
0.0
 11
4612.820501175291
 21
1850.118881588414
 31
0.0
 12
4602.820501175291
 22
1851.785548255081
 32
0.0
 13
4602.820501175291
 23
1851.785548255081
 33
0.0
  0
SOLID
  5
41
330
3B
100
AcDbEntity
  8
cotas
100
AcDbTrace
 10
4719.431467550559
 20
1853.452214921748
 30
0.0
 11
4719.431467550559
 21
1850.118881588414
 31
0.0
 12
4729.431467550558
 22
1851.785548255081
 32
0.0
 13
4729.431467550558
 23
1851.785548255081
 33
0.0
  0
MTEXT
  5
42
330
3B
100
AcDbEntity
  8
cotas
100
AcDbMText
 10
4666.125984362925
 20
1861.889644964282
 30
0.0
 40
10.0
 41
0.0
 71
     5
 72
     1
  1
127
  7
SANINDUSA
 73
     1
 44
1.0
1001
ACAD
1000
MTEXTBEGIN
1070
    73
1070
     1
1070
    44
1040
1.0
1070
    74
1070
     0
1000
MTEXTEND
  0
POINT
  5
43
330
3B
100
AcDbEntity
  8
Defpoints
 62
     0
100
AcDbPoint
 10
4602.820501175291
 20
1698.353127179135
 30
0.0
  0
POINT
  5
44
330
3B
100
AcDbEntity
  8
Defpoints
 62
     0
100
AcDbPoint
 10
4729.431467550558
 20
1679.337829221402
 30
0.0
  0
POINT
  5
45
330
3B
100
AcDbEntity
  8
Defpoints
 62
     0
100
AcDbPoint
 10
4729.431467550558
 20
1851.785548255081
 30
0.0
  0
ENDBLK
  5
46
330
3B
100
AcDbEntity
  8
0
100
AcDbBlockEnd
  0
BLOCK
  5
48
330
47
100
AcDbEntity
  8
0
100
AcDbBlockBegin
  2
*D3
 70
     1
 10
0.0
 20
0.0
 30
0.0
  3
*D3
  1

  0
LINE
  5
49
330
47
100
AcDbEntity
  8
cotas
100
AcDbLine
 10
4729.431467550558
 20
1684.337829221402
 30
0.0
 11
4729.431467550558
 21
1856.785548255081
 31
0.0
  0
LINE
  5
4A
330
47
100
AcDbEntity
  8
cotas
100
AcDbLine
 10
4809.420470619721
 20
1684.337883263758
 30
0.0
 11
4809.420470619721
 21
1856.785548255081
 31
0.0
  0
LINE
  5
4B
330
47
100
AcDbEntity
  8
cotas
100
AcDbLine
 10
4739.431467550558
 20
1851.785548255081
 30
0.0
 11
4799.420470619721
 21
1851.785548255081
 31
0.0
  0
SOLID
  5
4C
330
47
100
AcDbEntity
  8
cotas
100
AcDbTrace
 10
4739.431467550558
 20
1853.452214921748
 30
0.0
 11
4739.431467550558
 21
1850.118881588414
 31
0.0
 12
4729.431467550558
 22
1851.785548255081
 32
0.0
 13
4729.431467550558
 23
1851.785548255081
 33
0.0
  0
SOLID
  5
4D
330
47
100
AcDbEntity
  8
cotas
100
AcDbTrace
 10
4799.420470619721
 20
1853.452214921748
 30
0.0
 11
4799.420470619721
 21
1850.118881588414
 31
0.0
 12
4809.420470619721
 22
1851.785548255081
 32
0.0
 13
4809.420470619721
 23
1851.785548255081
 33
0.0
  0
MTEXT
  5
4E
330
47
100
AcDbEntity
  8
cotas
100
AcDbMText
 10
4769.42596908514
 20
1862.013889423651
 30
0.0
 40
10.0
 41
0.0
 71
     5
 72
     1
  1
80
  7
SANINDUSA
 73
     1
 44
1.0
1001
ACAD
1000
MTEXTBEGIN
1070
    73
1070
     1
1070
    44
1040
1.0
1070
    74
1070
     0
1000
MTEXTEND
  0
POINT
  5
4F
330
47
100
AcDbEntity
  8
Defpoints
 62
     0
100
AcDbPoint
 10
4729.431467550558
 20
1679.337829221402
 30
0.0
  0
POINT
  5
50
330
47
100
AcDbEntity
  8
Defpoints
 62
     0
100
AcDbPoint
 10
4809.420470619721
 20
1679.337883263758
 30
0.0
  0
POINT
  5
51
330
47
100
AcDbEntity
  8
Defpoints
 62
     0
100
AcDbPoint
 10
4809.420470619721
 20
1851.785548255081
 30
0.0
  0
ENDBLK
  5
52
330
47
100
AcDbEntity
  8
0
100
AcDbBlockEnd
  0
BLOCK
  5
54
330
53
100
AcDbEntity
  8
0
100
AcDbBlockBegin
  2
*D4
 70
     1
 10
0.0
 20
0.0
 30
0.0
  3
*D4
  1

  0
LINE
  5
55
330
53
100
AcDbEntity
  8
cotas
100
AcDbLine
 10
4809.420470619721
 20
1684.337883263758
 30
0.0
 11
4809.420470619721
 21
1856.785548255081
 31
0.0
  0
LINE
  5
56
330
53
100
AcDbEntity
  8
cotas
100
AcDbLine
 10
4889.408462100707
 20
1684.337917589401
 30
0.0
 11
4889.408462100707
 21
1856.785548255081
 31
0.0
  0
LINE
  5
57
330
53
100
AcDbEntity
  8
cotas
100
AcDbLine
 10
4819.420470619721
 20
1851.785548255081
 30
0.0
 11
4879.408462100707
 21
1851.785548255081
 31
0.0
  0
SOLID
  5
58
330
53
100
AcDbEntity
  8
cotas
100
AcDbTrace
 10
4819.420470619721
 20
1853.452214921748
 30
0.0
 11
4819.420470619721
 21
1850.118881588414
 31
0.0
 12
4809.420470619721
 22
1851.785548255081
 32
0.0
 13
4809.420470619721
 23
1851.785548255081
 33
0.0
  0
SOLID
  5
59
330
53
100
AcDbEntity
  8
cotas
100
AcDbTrace
 10
4879.408462100707
 20
1853.452214921748
 30
0.0
 11
4879.408462100707
 21
1850.118881588414
 31
0.0
 12
4889.408462100707
 22
1851.785548255081
 32
0.0
 13
4889.408462100707
 23
1851.785548255081
 33
0.0
  0
MTEXT
  5
5A
330
53
100
AcDbEntity
  8
cotas
100
AcDbMText
 10
4849.414466360213
 20
1862.013889423651
 30
0.0
 40
10.0
 41
0.0
 71
     5
 72
     1
  1
80
  7
SANINDUSA
 73
     1
 44
1.0
1001
ACAD
1000
MTEXTBEGIN
1070
    73
1070
     1
1070
    44
1040
1.0
1070
    74
1070
     0
1000
MTEXTEND
  0
POINT
  5
5B
330
53
100
AcDbEntity
  8
Defpoints
 62
     0
100
AcDbPoint
 10
4809.420470619721
 20
1679.337883263758
 30
0.0
  0
POINT
  5
5C
330
53
100
AcDbEntity
  8
Defpoints
 62
     0
100
AcDbPoint
 10
4889.408462100707
 20
1679.337917589401
 30
0.0
  0
POINT
  5
5D
330
53
100
AcDbEntity
  8
Defpoints
 62
     0
100
AcDbPoint
 10
4889.408462100707
 20
1851.785548255081
 30
0.0
  0
ENDBLK
  5
5E
330
53
100
AcDbEntity
  8
0
100
AcDbBlockEnd
  0
BLOCK
  5
60
330
5F
100
AcDbEntity
  8
0
100
AcDbBlockBegin
  2
*D5
 70
     1
 10
0.0
 20
0.0
 30
0.0
  3
*D5
  1

  0
LINE
  5
61
330
5F
100
AcDbEntity
  8
cotas
100
AcDbLine
 10
4889.408462100707
 20
1684.337917589401
 30
0.0
 11
4889.408462100707
 21
1856.785548255081
 31
0.0
  0
LINE
  5
62
330
5F
100
AcDbEntity
  8
cotas
100
AcDbLine
 10
4969.397465169869
 20
1684.337971631757
 30
0.0
 11
4969.397465169869
 21
1856.785548255081
 31
0.0
  0
LINE
  5
63
330
5F
100
AcDbEntity
  8
cotas
100
AcDbLine
 10
4899.408462100707
 20
1851.785548255081
 30
0.0
 11
4959.397465169869
 21
1851.785548255081
 31
0.0
  0
SOLID
  5
64
330
5F
100
AcDbEntity
  8
cotas
100
AcDbTrace
 10
4899.408462100707
 20
1853.452214921748
 30
0.0
 11
4899.408462100707
 21
1850.118881588414
 31
0.0
 12
4889.408462100707
 22
1851.785548255081
 32
0.0
 13
4889.408462100707
 23
1851.785548255081
 33
0.0
  0
SOLID
  5
65
330
5F
100
AcDbEntity
  8
cotas
100
AcDbTrace
 10
4959.397465169869
 20
1853.452214921748
 30
0.0
 11
4959.397465169869
 21
1850.118881588414
 31
0.0
 12
4969.397465169869
 22
1851.785548255081
 32
0.0
 13
4969.397465169869
 23
1851.785548255081
 33
0.0
  0
MTEXT
  5
66
330
5F
100
AcDbEntity
  8
cotas
100
AcDbMText
 10
4929.402963635288
 20
1862.013889423651
 30
0.0
 40
10.0
 41
0.0
 71
     5
 72
     1
  1
80
  7
SANINDUSA
 73
     1
 44
1.0
1001
ACAD
1000
MTEXTBEGIN
1070
    73
1070
     1
1070
    44
1040
1.0
1070
    74
1070
     0
1000
MTEXTEND
  0
POINT
  5
67
330
5F
100
AcDbEntity
  8
Defpoints
 62
     0
100
AcDbPoint
 10
4889.408462100707
 20
1679.337917589401
 30
0.0
  0
POINT
  5
68
330
5F
100
AcDbEntity
  8
Defpoints
 62
     0
100
AcDbPoint
 10
4969.397465169869
 20
1679.337971631756
 30
0.0
  0
POINT
  5
69
330
5F
100
AcDbEntity
  8
Defpoints
 62
     0
100
AcDbPoint
 10
4969.397465169869
 20
1851.785548255081
 30
0.0
  0
ENDBLK
  5
6A
330
5F
100
AcDbEntity
  8
0
100
AcDbBlockEnd
  0
BLOCK
  5
6C
330
6B
100
AcDbEntity
  8
0
100
AcDbBlockBegin
  2
*D6
 70
     1
 10
0.0
 20
0.0
 30
0.0
  3
*D6
  1

  0
LINE
  5
6D
330
6B
100
AcDbEntity
  8
cotas
100
AcDbLine
 10
4969.397465169869
 20
1684.337971631757
 30
0.0
 11
4969.397465169869
 21
1856.785548255081
 31
0.0
  0
LINE
  5
6E
330
6B
100
AcDbEntity
  8
cotas
100
AcDbLine
 10
5049.343758950966
 20
1684.354519097725
 30
0.0
 11
5049.343758950966
 21
1856.785548255081
 31
0.0
  0
LINE
  5
6F
330
6B
100
AcDbEntity
  8
cotas
100
AcDbLine
 10
4979.397465169869
 20
1851.785548255081
 30
0.0
 11
5039.343758950966
 21
1851.785548255081
 31
0.0
  0
SOLID
  5
70
330
6B
100
AcDbEntity
  8
cotas
100
AcDbTrace
 10
4979.397465169869
 20
1853.452214921748
 30
0.0
 11
4979.397465169869
 21
1850.118881588414
 31
0.0
 12
4969.397465169869
 22
1851.785548255081
 32
0.0
 13
4969.397465169869
 23
1851.785548255081
 33
0.0
  0
SOLID
  5
71
330
6B
100
AcDbEntity
  8
cotas
100
AcDbTrace
 10
5039.343758950966
 20
1853.452214921748
 30
0.0
 11
5039.343758950966
 21
1850.118881588414
 31
0.0
 12
5049.343758950966
 22
1851.785548255081
 32
0.0
 13
5049.343758950966
 23
1851.785548255081
 33
0.0
  0
MTEXT
  5
72
330
6B
100
AcDbEntity
  8
cotas
100
AcDbMText
 10
5009.370612060418
 20
1862.013889423651
 30
0.0
 40
10.0
 41
0.0
 71
     5
 72
     1
  1
80
  7
SANINDUSA
 73
     1
 44
1.0
1001
ACAD
1000
MTEXTBEGIN
1070
    73
1070
     1
1070
    44
1040
1.0
1070
    74
1070
     0
1000
MTEXTEND
  0
POINT
  5
73
330
6B
100
AcDbEntity
  8
Defpoints
 62
     0
100
AcDbPoint
 10
4969.397465169869
 20
1679.337971631756
 30
0.0
  0
POINT
  5
74
330
6B
100
AcDbEntity
  8
Defpoints
 62
     0
100
AcDbPoint
 10
5049.343758950966
 20
1679.354519097725
 30
0.0
  0
POINT
  5
75
330
6B
100
AcDbEntity
  8
Defpoints
 62
     0
100
AcDbPoint
 10
5049.343758950966
 20
1851.785548255081
 30
0.0
  0
ENDBLK
  5
76
330
6B
100
AcDbEntity
  8
0
100
AcDbBlockEnd
  0
BLOCK
  5
78
330
77
100
AcDbEntity
  8
0
100
AcDbBlockBegin
  2
*D7
 70
     1
 10
0.0
 20
0.0
 30
0.0
  3
*D7
  1

  0
LINE
  5
79
330
77
100
AcDbEntity
  8
cotas
100
AcDbLine
 10
5049.343758950966
 20
1684.354519097725
 30
0.0
 11
5049.343758950966
 21
1856.785548255081
 31
0.0
  0
LINE
  5
7A
330
77
100
AcDbEntity
  8
cotas
100
AcDbLine
 10
5129.332762020126
 20
1684.354573140082
 30
0.0
 11
5129.332762020126
 21
1856.785548255081
 31
0.0
  0
LINE
  5
7B
330
77
100
AcDbEntity
  8
cotas
100
AcDbLine
 10
5059.343758950966
 20
1851.785548255081
 30
0.0
 11
5119.332762020126
 21
1851.785548255081
 31
0.0
  0
SOLID
  5
7C
330
77
100
AcDbEntity
  8
cotas
100
AcDbTrace
 10
5059.343758950966
 20
1853.452214921748
 30
0.0
 11
5059.343758950966
 21
1850.118881588414
 31
0.0
 12
5049.343758950966
 22
1851.785548255081
 32
0.0
 13
5049.343758950966
 23
1851.785548255081
 33
0.0
  0
SOLID
  5
7D
330
77
100
AcDbEntity
  8
cotas
100
AcDbTrace
 10
5119.332762020126
 20
1853.452214921748
 30
0.0
 11
5119.332762020126
 21
1850.118881588414
 31
0.0
 12
5129.332762020126
 22
1851.785548255081
 32
0.0
 13
5129.332762020126
 23
1851.785548255081
 33
0.0
  0
MTEXT
  5
7E
330
77
100
AcDbEntity
  8
cotas
100
AcDbMText
 10
5089.338260485546
 20
1862.013889423651
 30
0.0
 40
10.0
 41
0.0
 71
     5
 72
     1
  1
80
  7
SANINDUSA
 73
     1
 44
1.0
1001
ACAD
1000
MTEXTBEGIN
1070
    73
1070
     1
1070
    44
1040
1.0
1070
    74
1070
     0
1000
MTEXTEND
  0
POINT
  5
7F
330
77
100
AcDbEntity
  8
Defpoints
 62
     0
100
AcDbPoint
 10
5049.343758950966
 20
1679.354519097725
 30
0.0
  0
POINT
  5
80
330
77
100
AcDbEntity
  8
Defpoints
 62
     0
100
AcDbPoint
 10
5129.332762020126
 20
1679.354573140082
 30
0.0
  0
POINT
  5
81
330
77
100
AcDbEntity
  8
Defpoints
 62
     0
100
AcDbPoint
 10
5129.332762020126
 20
1851.785548255081
 30
0.0
  0
ENDBLK
  5
82
330
77
100
AcDbEntity
  8
0
100
AcDbBlockEnd
  0
BLOCK
  5
84
330
83
100
AcDbEntity
  8
0
100
AcDbBlockBegin
  2
*D8
 70
     1
 10
0.0
 20
0.0
 30
0.0
  3
*D8
  1

  0
LINE
  5
85
330
83
100
AcDbEntity
  8
cotas
100
AcDbLine
 10
5129.332762020126
 20
1684.354573140082
 30
0.0
 11
5129.332762020126
 21
1856.785548255081
 31
0.0
  0
LINE
  5
86
330
83
100
AcDbEntity
  8
cotas
100
AcDbLine
 10
5209.286954657919
 20
1684.361804135382
 30
0.0
 11
5209.286954657919
 21
1856.785548255081
 31
0.0
  0
LINE
  5
87
330
83
100
AcDbEntity
  8
cotas
100
AcDbLine
 10
5139.332762020126
 20
1851.785548255081
 30
0.0
 11
5199.286954657918
 21
1851.785548255081
 31
0.0
  0
SOLID
  5
88
330
83
100
AcDbEntity
  8
cotas
100
AcDbTrace
 10
5139.332762020126
 20
1853.452214921748
 30
0.0
 11
5139.332762020126
 21
1850.118881588414
 31
0.0
 12
5129.332762020126
 22
1851.785548255081
 32
0.0
 13
5129.332762020126
 23
1851.785548255081
 33
0.0
  0
SOLID
  5
89
330
83
100
AcDbEntity
  8
cotas
100
AcDbTrace
 10
5199.286954657918
 20
1853.452214921748
 30
0.0
 11
5199.286954657918
 21
1850.118881588414
 31
0.0
 12
5209.286954657919
 22
1851.785548255081
 32
0.0
 13
5209.286954657919
 23
1851.785548255081
 33
0.0
  0
MTEXT
  5
8A
330
83
100
AcDbEntity
  8
cotas
100
AcDbMText
 10
5169.309858339023
 20
1862.013889423651
 30
0.0
 40
10.0
 41
0.0
 71
     5
 72
     1
  1
80
  7
SANINDUSA
 73
     1
 44
1.0
1001
ACAD
1000
MTEXTBEGIN
1070
    73
1070
     1
1070
    44
1040
1.0
1070
    74
1070
     0
1000
MTEXTEND
  0
POINT
  5
8B
330
83
100
AcDbEntity
  8
Defpoints
 62
     0
100
AcDbPoint
 10
5129.332762020126
 20
1679.354573140082
 30
0.0
  0
POINT
  5
8C
330
83
100
AcDbEntity
  8
Defpoints
 62
     0
100
AcDbPoint
 10
5209.286954657919
 20
1679.361804135382
 30
0.0
  0
POINT
  5
8D
330
83
100
AcDbEntity
  8
Defpoints
 62
     0
100
AcDbPoint
 10
5209.286954657919
 20
1851.785548255081
 30
0.0
  0
ENDBLK
  5
8E
330
83
100
AcDbEntity
  8
0
100
AcDbBlockEnd
  0
BLOCK
  5
90
330
8F
100
AcDbEntity
  8
0
100
AcDbBlockBegin
  2
*D9
 70
     1
 10
0.0
 20
0.0
 30
0.0
  3
*D9
  1

  0
LINE
  5
91
330
8F
100
AcDbEntity
  8
cotas
100
AcDbLine
 10
5209.286954657919
 20
1684.361804135382
 30
0.0
 11
5209.286954657919
 21
1856.785548255081
 31
0.0
  0
LINE
  5
92
330
8F
100
AcDbEntity
  8
cotas
100
AcDbLine
 10
5289.27595772708
 20
1684.361858177738
 30
0.0
 11
5289.27595772708
 21
1856.785548255081
 31
0.0
  0
LINE
  5
93
330
8F
100
AcDbEntity
  8
cotas
100
AcDbLine
 10
5219.286954657919
 20
1851.785548255081
 30
0.0
 11
5279.27595772708
 21
1851.785548255081
 31
0.0
  0
SOLID
  5
94
330
8F
100
AcDbEntity
  8
cotas
100
AcDbTrace
 10
5219.286954657919
 20
1853.452214921748
 30
0.0
 11
5219.286954657919
 21
1850.118881588414
 31
0.0
 12
5209.286954657919
 22
1851.785548255081
 32
0.0
 13
5209.286954657919
 23
1851.785548255081
 33
0.0
  0
SOLID
  5
95
330
8F
100
AcDbEntity
  8
cotas
100
AcDbTrace
 10
5279.27595772708
 20
1853.452214921748
 30
0.0
 11
5279.27595772708
 21
1850.118881588414
 31
0.0
 12
5289.27595772708
 22
1851.785548255081
 32
0.0
 13
5289.27595772708
 23
1851.785548255081
 33
0.0
  0
MTEXT
  5
96
330
8F
100
AcDbEntity
  8
cotas
100
AcDbMText
 10
5249.281456192498
 20
1862.013889423651
 30
0.0
 40
10.0
 41
0.0
 71
     5
 72
     1
  1
80
  7
SANINDUSA
 73
     1
 44
1.0
1001
ACAD
1000
MTEXTBEGIN
1070
    73
1070
     1
1070
    44
1040
1.0
1070
    74
1070
     0
1000
MTEXTEND
  0
POINT
  5
97
330
8F
100
AcDbEntity
  8
Defpoints
 62
     0
100
AcDbPoint
 10
5209.286954657919
 20
1679.361804135382
 30
0.0
  0
POINT
  5
98
330
8F
100
AcDbEntity
  8
Defpoints
 62
     0
100
AcDbPoint
 10
5289.27595772708
 20
1679.361858177738
 30
0.0
  0
POINT
  5
99
330
8F
100
AcDbEntity
  8
Defpoints
 62
     0
100
AcDbPoint
 10
5289.27595772708
 20
1851.785548255081
 30
0.0
  0
ENDBLK
  5
9A
330
8F
100
AcDbEntity
  8
0
100
AcDbBlockEnd
  0
BLOCK
  5
9C
330
9B
100
AcDbEntity
  8
0
100
AcDbBlockBegin
  2
*D10
 70
     1
 10
0.0
 20
0.0
 30
0.0
  3
*D10
  1

  0
LINE
  5
9D
330
9B
100
AcDbEntity
  8
cotas
100
AcDbLine
 10
4799.369120995808
 20
1015.390656192045
 30
0.0
 11
4661.257734632509
 21
1015.390656192045
 31
0.0
  0
LINE
  5
9E
330
9B
100
AcDbEntity
  8
cotas
100
AcDbLine
 10
4701.242738113012
 20
1176.093613613387
 30
0.0
 11
4661.257734632509
 21
1176.093613613387
 31
0.0
  0
LINE
  5
9F
330
9B
100
AcDbEntity
  8
cotas
100
AcDbLine
 10
4666.25773463251
 20
1025.390656192045
 30
0.0
 11
4666.25773463251
 21
1166.093613613387
 31
0.0
  0
SOLID
  5
A0
330
9B
100
AcDbEntity
  8
cotas
100
AcDbTrace
 10
4664.591067965843
 20
1025.390656192045
 30
0.0
 11
4667.924401299177
 21
1025.390656192045
 31
0.0
 12
4666.25773463251
 22
1015.390656192045
 32
0.0
 13
4666.25773463251
 23
1015.390656192045
 33
0.0
  0
SOLID
  5
A1
330
9B
100
AcDbEntity
  8
cotas
100
AcDbTrace
 10
4664.591067965843
 20
1166.093613613387
 30
0.0
 11
4667.924401299177
 21
1166.093613613387
 31
0.0
 12
4666.25773463251
 22
1176.093613613387
 32
0.0
 13
4666.25773463251
 23
1176.093613613387
 33
0.0
  0
MTEXT
  5
A2
330
9B
100
AcDbEntity
  8
cotas
100
AcDbMText
 10
4654.914551287983
 20
1129.758481655571
 30
0.0
 40
10.0
 41
0.0
 71
     5
 72
     1
  1
160,7
  7
SANINDUSA
 11
0.0000000000000001
 21
1.0
 31
0.0
 73
     1
 44
1.0
1001
ACAD
1000
MTEXTBEGIN
1070
    73
1070
     1
1070
    44
1040
1.0
1070
    74
1070
     0
1000
MTEXTEND
  0
POINT
  5
A3
330
9B
100
AcDbEntity
  8
Defpoints
 62
     0
100
AcDbPoint
 10
4804.369120995809
 20
1015.390656192045
 30
-0.0000000000001987
  0
POINT
  5
A4
330
9B
100
AcDbEntity
  8
Defpoints
 62
     0
100
AcDbPoint
 10
4706.242738113012
 20
1176.093613613387
 30
0.0
  0
POINT
  5
A5
330
9B
100
AcDbEntity
  8
Defpoints
 62
     0
100
AcDbPoint
 10
4666.25773463251
 20
1176.093613613387
 30
0.0
  0
ENDBLK
  5
A6
330
9B
100
AcDbEntity
  8
0
100
AcDbBlockEnd
  0
BLOCK
  5
A8
330
A7
100
AcDbEntity
  8
0
100
AcDbBlockBegin
  2
*D11
 70
     1
 10
0.0
 20
0.0
 30
0.0
  3
*D11
  1

  0
LINE
  5
A9
330
A7
100
AcDbEntity
  8
cotas
100
AcDbLine
 10
4701.242738113012
 20
1176.093613613387
 30
0.0
 11
4661.257734632509
 21
1176.093613613387
 31
0.0
  0
LINE
  5
AA
330
A7
100
AcDbEntity
  8
cotas
100
AcDbLine
 10
4701.177094671372
 20
1256.064313420972
 30
0.0
 11
4661.257734632509
 21
1256.064313420972
 31
0.0
  0
LINE
  5
AB
330
A7
100
AcDbEntity
  8
cotas
100
AcDbLine
 10
4666.257734632508
 20
1186.093613613387
 30
0.0
 11
4666.257734632508
 21
1246.064313420972
 31
0.0
  0
SOLID
  5
AC
330
A7
100
AcDbEntity
  8
cotas
100
AcDbTrace
 10
4664.591067965842
 20
1186.093613613387
 30
0.0
 11
4667.924401299176
 21
1186.093613613387
 31
0.0
 12
4666.257734632508
 22
1176.093613613387
 32
0.0
 13
4666.257734632508
 23
1176.093613613387
 33
0.0
  0
SOLID
  5
AD
330
A7
100
AcDbEntity
  8
cotas
100
AcDbTrace
 10
4664.591067965842
 20
1246.064313420972
 30
0.0
 11
4667.924401299176
 21
1246.064313420972
 31
0.0
 12
4666.257734632508
 22
1256.064313420972
 32
0.0
 13
4666.257734632508
 23
1256.064313420972
 33
0.0
  0
MTEXT
  5
AE
330
A7
100
AcDbEntity
  8
cotas
100
AcDbMText
 10
4656.029393463939
 20
1216.07896351718
 30
0.0
 40
10.0
 41
0.0
 71
     5
 72
     1
  1
80
  7
SANINDUSA
 11
0.0000000000000001
 21
1.0
 31
0.0
 73
     1
 44
1.0
1001
ACAD
1000
MTEXTBEGIN
1070
    73
1070
     1
1070
    44
1040
1.0
1070
    74
1070
     0
1000
MTEXTEND
  0
POINT
  5
AF
330
A7
100
AcDbEntity
  8
Defpoints
 62
     0
100
AcDbPoint
 10
4706.242738113012
 20
1176.093613613387
 30
0.0
  0
POINT
  5
B0
330
A7
100
AcDbEntity
  8
Defpoints
 62
     0
100
AcDbPoint
 10
4706.177094671372
 20
1256.064313420972
 30
0.0
  0
POINT
  5
B1
330
A7
100
AcDbEntity
  8
Defpoints
 62
     0
100
AcDbPoint
 10
4666.257734632508
 20
1256.064313420972
 30
0.0
  0
ENDBLK
  5
B2
330
A7
100
AcDbEntity
  8
0
100
AcDbBlockEnd
  0
BLOCK
  5
B4
330
B3
100
AcDbEntity
  8
0
100
AcDbBlockBegin
  2
*D12
 70
     1
 10
0.0
 20
0.0
 30
0.0
  3
*D12
  1

  0
LINE
  5
B5
330
B3
100
AcDbEntity
  8
cotas
100
AcDbLine
 10
4701.177094671372
 20
1256.064313420972
 30
0.0
 11
4661.257734632509
 21
1256.064313420972
 31
0.0
  0
LINE
  5
B6
330
B3
100
AcDbEntity
  8
cotas
100
AcDbLine
 10
4701.222047031243
 20
1336.092824809046
 30
0.0
 11
4661.257734632509
 21
1336.092824809046
 31
0.0
  0
LINE
  5
B7
330
B3
100
AcDbEntity
  8
cotas
100
AcDbLine
 10
4666.257734632508
 20
1266.064313420972
 30
0.0
 11
4666.257734632508
 21
1326.092824809046
 31
0.0
  0
SOLID
  5
B8
330
B3
100
AcDbEntity
  8
cotas
100
AcDbTrace
 10
4664.591067965842
 20
1266.064313420972
 30
0.0
 11
4667.924401299176
 21
1266.064313420972
 31
0.0
 12
4666.257734632508
 22
1256.064313420972
 32
0.0
 13
4666.257734632508
 23
1256.064313420972
 33
0.0
  0
SOLID
  5
B9
330
B3
100
AcDbEntity
  8
cotas
100
AcDbTrace
 10
4664.591067965842
 20
1326.092824809046
 30
0.0
 11
4667.924401299176
 21
1326.092824809046
 31
0.0
 12
4666.257734632508
 22
1336.092824809046
 32
0.0
 13
4666.257734632508
 23
1336.092824809046
 33
0.0
  0
MTEXT
  5
BA
330
B3
100
AcDbEntity
  8
cotas
100
AcDbMText
 10
4656.029393463939
 20
1296.07856911501
 30
0.0
 40
10.0
 41
0.0
 71
     5
 72
     1
  1
80
  7
SANINDUSA
 11
0.0000000000000001
 21
1.0
 31
0.0
 73
     1
 44
1.0
1001
ACAD
1000
MTEXTBEGIN
1070
    73
1070
     1
1070
    44
1040
1.0
1070
    74
1070
     0
1000
MTEXTEND
  0
POINT
  5
BB
330
B3
100
AcDbEntity
  8
Defpoints
 62
     0
100
AcDbPoint
 10
4706.177094671372
 20
1256.064313420972
 30
0.0
  0
POINT
  5
BC
330
B3
100
AcDbEntity
  8
Defpoints
 62
     0
100
AcDbPoint
 10
4706.222047031243
 20
1336.092824809046
 30
0.0
  0
POINT
  5
BD
330
B3
100
AcDbEntity
  8
Defpoints
 62
     0
100
AcDbPoint
 10
4666.257734632508
 20
1336.092824809046
 30
0.0
  0
ENDBLK
  5
BE
330
B3
100
AcDbEntity
  8
0
100
AcDbBlockEnd
  0
BLOCK
  5
C0
330
BF
100
AcDbEntity
  8
0
100
AcDbBlockBegin
  2
*D13
 70
     1
 10
0.0
 20
0.0
 30
0.0
  3
*D13
  1

  0
LINE
  5
C1
330
BF
100
AcDbEntity
  8
cotas
100
AcDbLine
 10
4701.222047031243
 20
1336.092824809046
 30
0.0
 11
4661.257734632509
 21
1336.092824809046
 31
0.0
  0
LINE
  5
C2
330
BF
100
AcDbEntity
  8
cotas
100
AcDbLine
 10
4696.113175462584
 20
1416.081840015584
 30
0.0
 11
4661.257734632509
 21
1416.081840015584
 31
0.0
  0
LINE
  5
C3
330
BF
100
AcDbEntity
  8
cotas
100
AcDbLine
 10
4666.257734632508
 20
1346.092824809046
 30
0.0
 11
4666.257734632508
 21
1406.081840015584
 31
0.0
  0
SOLID
  5
C4
330
BF
100
AcDbEntity
  8
cotas
100
AcDbTrace
 10
4664.591067965842
 20
1346.092824809046
 30
0.0
 11
4667.924401299176
 21
1346.092824809046
 31
0.0
 12
4666.257734632508
 22
1336.092824809046
 32
0.0
 13
4666.257734632508
 23
1336.092824809046
 33
0.0
  0
SOLID
  5
C5
330
BF
100
AcDbEntity
  8
cotas
100
AcDbTrace
 10
4664.591067965842
 20
1406.081840015584
 30
0.0
 11
4667.924401299176
 21
1406.081840015584
 31
0.0
 12
4666.257734632508
 22
1416.081840015584
 32
0.0
 13
4666.257734632508
 23
1416.081840015584
 33
0.0
  0
MTEXT
  5
C6
330
BF
100
AcDbEntity
  8
cotas
100
AcDbMText
 10
4656.029393463939
 20
1376.087332412316
 30
0.0
 40
10.0
 41
0.0
 71
     5
 72
     1
  1
80
  7
SANINDUSA
 11
0.0000000000000001
 21
1.0
 31
0.0
 73
     1
 44
1.0
1001
ACAD
1000
MTEXTBEGIN
1070
    73
1070
     1
1070
    44
1040
1.0
1070
    74
1070
     0
1000
MTEXTEND
  0
POINT
  5
C7
330
BF
100
AcDbEntity
  8
Defpoints
 62
     0
100
AcDbPoint
 10
4706.222047031243
 20
1336.092824809046
 30
0.0
  0
POINT
  5
C8
330
BF
100
AcDbEntity
  8
Defpoints
 62
     0
100
AcDbPoint
 10
4701.113175462584
 20
1416.081840015584
 30
0.0
  0
POINT
  5
C9
330
BF
100
AcDbEntity
  8
Defpoints
 62
     0
100
AcDbPoint
 10
4666.257734632508
 20
1416.081840015584
 30
0.0
  0
ENDBLK
  5
CA
330
BF
100
AcDbEntity
  8
0
100
AcDbBlockEnd
  0
BLOCK
  5
CC
330
CB
100
AcDbEntity
  8
0
100
AcDbBlockBegin
  2
*D14
 70
     1
 10
0.0
 20
0.0
 30
0.0
  3
*D14
  1

  0
LINE
  5
CD
330
CB
100
AcDbEntity
  8
cotas
100
AcDbLine
 10
4696.113175462584
 20
1416.081840015584
 30
0.0
 11
4661.257734632509
 21
1416.081840015584
 31
0.0
  0
LINE
  5
CE
330
CB
100
AcDbEntity
  8
cotas
100
AcDbLine
 10
4696.186108783375
 20
1496.063391095048
 30
0.0
 11
4661.257734632509
 21
1496.063391095048
 31
0.0
  0
LINE
  5
CF
330
CB
100
AcDbEntity
  8
cotas
100
AcDbLine
 10
4666.257734632508
 20
1426.081840015584
 30
0.0
 11
4666.257734632508
 21
1486.063391095048
 31
0.0
  0
SOLID
  5
D0
330
CB
100
AcDbEntity
  8
cotas
100
AcDbTrace
 10
4664.591067965842
 20
1426.081840015584
 30
0.0
 11
4667.924401299176
 21
1426.081840015584
 31
0.0
 12
4666.257734632508
 22
1416.081840015584
 32
0.0
 13
4666.257734632508
 23
1416.081840015584
 33
0.0
  0
SOLID
  5
D1
330
CB
100
AcDbEntity
  8
cotas
100
AcDbTrace
 10
4664.591067965842
 20
1486.063391095048
 30
0.0
 11
4667.924401299176
 21
1486.063391095048
 31
0.0
 12
4666.257734632508
 22
1496.063391095048
 32
0.0
 13
4666.257734632508
 23
1496.063391095048
 33
0.0
  0
MTEXT
  5
D2
330
CB
100
AcDbEntity
  8
cotas
100
AcDbMText
 10
4656.029393463939
 20
1456.072615555317
 30
0.0
 40
10.0
 41
0.0
 71
     5
 72
     1
  1
80
  7
SANINDUSA
 11
0.0000000000000001
 21
1.0
 31
0.0
 73
     1
 44
1.0
1001
ACAD
1000
MTEXTBEGIN
1070
    73
1070
     1
1070
    44
1040
1.0
1070
    74
1070
     0
1000
MTEXTEND
  0
POINT
  5
D3
330
CB
100
AcDbEntity
  8
Defpoints
 62
     0
100
AcDbPoint
 10
4701.113175462584
 20
1416.081840015584
 30
0.0
  0
POINT
  5
D4
330
CB
100
AcDbEntity
  8
Defpoints
 62
     0
100
AcDbPoint
 10
4701.186108783375
 20
1496.063391095048
 30
0.0
  0
POINT
  5
D5
330
CB
100
AcDbEntity
  8
Defpoints
 62
     0
100
AcDbPoint
 10
4666.257734632508
 20
1496.063391095048
 30
0.0
  0
ENDBLK
  5
D6
330
CB
100
AcDbEntity
  8
0
100
AcDbBlockEnd
  0
BLOCK
  5
D8
330
D7
100
AcDbEntity
  8
0
100
AcDbBlockBegin
  2
*D15
 70
     1
 10
0.0
 20
0.0
 30
0.0
  3
*D15
  1

  0
LINE
  5
D9
330
D7
100
AcDbEntity
  8
cotas
100
AcDbLine
 10
4696.186108783375
 20
1496.063391095048
 30
0.0
 11
4661.257734632509
 21
1496.063391095048
 31
0.0
  0
LINE
  5
DA
330
D7
100
AcDbEntity
  8
cotas
100
AcDbLine
 10
4701.243887989848
 20
1576.095233429571
 30
0.0
 11
4661.257734632509
 21
1576.095233429571
 31
0.0
  0
LINE
  5
DB
330
D7
100
AcDbEntity
  8
cotas
100
AcDbLine
 10
4666.257734632508
 20
1506.063391095048
 30
0.0
 11
4666.257734632508
 21
1566.095233429571
 31
0.0
  0
SOLID
  5
DC
330
D7
100
AcDbEntity
  8
cotas
100
AcDbTrace
 10
4664.591067965842
 20
1506.063391095048
 30
0.0
 11
4667.924401299176
 21
1506.063391095048
 31
0.0
 12
4666.257734632508
 22
1496.063391095048
 32
0.0
 13
4666.257734632508
 23
1496.063391095048
 33
0.0
  0
SOLID
  5
DD
330
D7
100
AcDbEntity
  8
cotas
100
AcDbTrace
 10
4664.591067965842
 20
1566.095233429571
 30
0.0
 11
4667.924401299176
 21
1566.095233429571
 31
0.0
 12
4666.257734632508
 22
1576.095233429571
 32
0.0
 13
4666.257734632508
 23
1576.095233429571
 33
0.0
  0
MTEXT
  5
DE
330
D7
100
AcDbEntity
  8
cotas
100
AcDbMText
 10
4656.029393463939
 20
1536.079312262311
 30
0.0
 40
10.0
 41
0.0
 71
     5
 72
     1
  1
80
  7
SANINDUSA
 11
0.0000000000000001
 21
1.0
 31
0.0
 73
     1
 44
1.0
1001
ACAD
1000
MTEXTBEGIN
1070
    73
1070
     1
1070
    44
1040
1.0
1070
    74
1070
     0
1000
MTEXTEND
  0
POINT
  5
DF
330
D7
100
AcDbEntity
  8
Defpoints
 62
     0
100
AcDbPoint
 10
4701.186108783375
 20
1496.063391095048
 30
0.0
  0
POINT
  5
E0
330
D7
100
AcDbEntity
  8
Defpoints
 62
     0
100
AcDbPoint
 10
4706.243887989848
 20
1576.095233429571
 30
0.0
  0
POINT
  5
E1
330
D7
100
AcDbEntity
  8
Defpoints
 62
     0
100
AcDbPoint
 10
4666.257734632508
 20
1576.095233429571
 30
0.0
  0
ENDBLK
  5
E2
330
D7
100
AcDbEntity
  8
0
100
AcDbBlockEnd
  0
BLOCK
  5
E4
330
E3
100
AcDbEntity
  8
0
100
AcDbBlockBegin
  2
*D16
 70
     1
 10
0.0
 20
0.0
 30
0.0
  3
*D16
  1

  0
LINE
  5
E5
330
E3
100
AcDbEntity
  8
cotas
100
AcDbLine
 10
5607.097625329076
 20
1058.959004785365
 30
0.0
 11
5573.883126614727
 21
1089.025690129935
 31
0.0
  0
MTEXT
  5
E6
330
E3
100
AcDbEntity
  8
cotas
100
AcDbMText
 10
5601.047946953251
 20
1078.204817972832
 30
0.0
 40
10.0
 41
0.0
 71
     5
 72
     1
  1
R20
  7
SANINDUSA
 11
0.7413639422225227
 21
-0.6711032000909249
 31
0.0
 73
     1
 44
1.0
1001
ACAD
1000
MTEXTBEGIN
1070
    73
1070
     1
1070
    44
1040
1.0
1070
    74
1070
     0
1000
MTEXTEND
  0
LINE
  5
E7
330
E3
100
AcDbEntity
  8
cotas
100
AcDbLine
 10
5551.642671440724
 20
1109.158366928333
 30
0.0
 11
5566.469487192502
 21
1095.736722130845
 31
0.0
  0
SOLID
  5
E8
330
E3
100
AcDbEntity
  8
cotas
100
AcDbTrace
 10
5575.001631948212
 20
1090.261296700307
 30
0.0
 11
5572.764621281241
 21
1087.790083559564
 31
0.0
 12
5566.469487192502
 22
1095.736722130845
 32
0.0
 13
5566.469487192502
 23
1095.736722130845
 33
0.0
  0
POINT
  5
E9
330
E3
100
AcDbEntity
  8
Defpoints
 62
     0
100
AcDbPoint
 10
5566.469487192502
 20
1095.736722130845
 30
0.0
  0
POINT
  5
EA
330
E3
100
AcDbEntity
  8
Defpoints
 62
     0
100
AcDbPoint
 10
5551.642671440724
 20
1109.158366928333
 30
0.0
  0
ENDBLK
  5
EB
330
E3
100
AcDbEntity
  8
0
100
AcDbBlockEnd
  0
BLOCK
  5
ED
330
EC
100
AcDbEntity
  8
0
100
AcDbBlockBegin
  2
*D17
 70
     1
 10
0.0
 20
0.0
 30
0.0
  3
*D17
  1

  0
LINE
  5
EE
330
EC
100
AcDbEntity
  8
cotas
100
AcDbLine
 10
5682.025085411275
 20
990.9452343116118
 30
0.0
 11
5652.641646592165
 21
1011.728319914112
 31
0.0
  0
MTEXT
  5
EF
330
EC
100
AcDbEntity
  8
cotas
100
AcDbMText
 10
5677.250164376378
 20
1006.698668598641
 30
0.0
 40
10.0
 41
0.0
 71
     5
 72
     1
  1
R5
  7
SANINDUSA
 11
0.8164198619454282
 21
-0.577458750925993
 31
0.0
 73
     1
 44
1.0
1001
ACAD
1000
MTEXTBEGIN
1070
    73
1070
     1
1070
    44
1040
1.0
1070
    74
1070
     0
1000
MTEXTEND
  0
LINE
  5
F0
330
EC
100
AcDbEntity
  8
cotas
100
AcDbLine
 10
5640.396227790409
 20
1020.389579365809
 30
0.0
 11
5644.477447972711
 21
1017.502907423372
 31
0.0
  0
SOLID
  5
F1
330
EC
100
AcDbEntity
  8
cotas
100
AcDbTrace
 10
5653.604077843709
 20
1013.089019684021
 30
0.0
 11
5651.679215340622
 21
1010.367620144204
 31
0.0
 12
5644.477447972711
 22
1017.502907423372
 32
0.0
 13
5644.477447972711
 23
1017.502907423372
 33
0.0
  0
POINT
  5
F2
330
EC
100
AcDbEntity
  8
Defpoints
 62
     0
100
AcDbPoint
 10
5644.477447972711
 20
1017.502907423372
 30
0.0
  0
POINT
  5
F3
330
EC
100
AcDbEntity
  8
Defpoints
 62
     0
100
AcDbPoint
 10
5640.396227790409
 20
1020.389579365809
 30
0.0
  0
ENDBLK
  5
F4
330
EC
100
AcDbEntity
  8
0
100
AcDbBlockEnd
  0
BLOCK
  5
F6
330
F5
100
AcDbEntity
  8
0
100
AcDbBlockBegin
  2
*D18
 70
     1
 10
0.0
 20
0.0
 30
0.0
  3
*D18
  1

  0
LINE
  5
F7
330
F5
100
AcDbEntity
  8
cotas
100
AcDbLine
 10
5597.238959073667
 20
1782.317515097425
 30
0.0
 11
5569.929529552137
 21
1746.80127160711
 31
0.0
  0
MTEXT
  5
F8
330
F5
100
AcDbEntity
  8
cotas
100
AcDbMText
 10
5578.539600357498
 20
1774.745598741455
 30
0.0
 40
10.0
 41
0.0
 71
     5
 72
     1
  1
R20
  7
SANINDUSA
 11
0.6095598944320272
 21
0.7927400173449149
 31
0.0
 73
     1
 44
1.0
1001
ACAD
1000
MTEXTBEGIN
1070
    73
1070
     1
1070
    44
1040
1.0
1070
    74
1070
     0
1000
MTEXTEND
  0
LINE
  5
F9
330
F5
100
AcDbEntity
  8
cotas
100
AcDbLine
 10
5551.643869394631
 20
1723.020549346944
 30
0.0
 11
5563.833930607816
 21
1738.873871433661
 31
0.0
  0
SOLID
  5
FA
330
F5
100
AcDbEntity
  8
cotas
100
AcDbTrace
 10
5568.608296189895
 20
1747.817204764497
 30
0.0
 11
5571.250762914378
 21
1745.785338449724
 31
0.0
 12
5563.833930607816
 22
1738.873871433661
 32
0.0
 13
5563.833930607816
 23
1738.873871433661
 33
0.0
  0
POINT
  5
FB
330
F5
100
AcDbEntity
  8
Defpoints
 62
     0
100
AcDbPoint
 10
5563.833930607816
 20
1738.873871433661
 30
0.0
  0
POINT
  5
FC
330
F5
100
AcDbEntity
  8
Defpoints
 62
     0
100
AcDbPoint
 10
5551.643869394631
 20
1723.020549346944
 30
0.0
  0
ENDBLK
  5
FD
330
F5
100
AcDbEntity
  8
0
100
AcDbBlockEnd
  0
BLOCK
  5
FF
330
FE
100
AcDbEntity
  8
0
100
AcDbBlockBegin
  2
*D19
 70
     1
 10
0.0
 20
0.0
 30
0.0
  3
*D19
  1

  0
LINE
  5
100
330
FE
100
AcDbEntity
  8
cotas
100
AcDbLine
 10
5682.221377979879
 20
1840.952980971367
 30
0.0
 11
5652.699387420225
 21
1820.367180102977
 31
0.0
  0
MTEXT
  5
101
330
FE
100
AcDbEntity
  8
cotas
100
AcDbMText
 10
5665.782417513481
 20
1841.808049102858
 30
0.0
 40
10.0
 41
0.0
 71
     5
 72
     1
  1
R5
  7
SANINDUSA
 11
0.8202695268394174
 21
0.5719771877781826
 31
0.0
 73
     1
 44
1.0
1001
ACAD
1000
MTEXTBEGIN
1070
    73
1070
     1
1070
    44
1040
1.0
1070
    74
1070
     0
1000
MTEXTEND
  0
LINE
  5
102
330
FE
100
AcDbEntity
  8
cotas
100
AcDbLine
 10
5640.396227790405
 20
1811.788138195903
 30
0.0
 11
5644.496692151831
 21
1814.647408225194
 31
0.0
  0
SOLID
  5
103
330
FE
100
AcDbEntity
  8
cotas
100
AcDbTrace
 10
5651.746092107262
 20
1821.734295981042
 30
0.0
 11
5653.652682733189
 21
1819.000064224911
 31
0.0
 12
5644.496692151831
 22
1814.647408225194
 32
0.0
 13
5644.496692151831
 23
1814.647408225194
 33
0.0
  0
POINT
  5
104
330
FE
100
AcDbEntity
  8
Defpoints
 62
     0
100
AcDbPoint
 10
5644.496692151831
 20
1814.647408225194
 30
0.0
  0
POINT
  5
105
330
FE
100
AcDbEntity
  8
Defpoints
 62
     0
100
AcDbPoint
 10
5640.396227790405
 20
1811.788138195903
 30
0.0
  0
ENDBLK
  5
106
330
FE
100
AcDbEntity
  8
0
100
AcDbBlockEnd
  0
BLOCK
  5
108
330
107
100
AcDbEntity
  8
0
100
AcDbBlockBegin
  2
*D20
 70
     1
 10
0.0
 20
0.0
 30
0.0
  3
*D20
  1

  0
LINE
  5
109
330
107
100
AcDbEntity
  8
cotas
100
AcDbLine
 10
5464.962486811558
 20
3222.454445049778
 30
0.0
 11
5464.962486811558
 21
3366.433703921889
 31
0.0
  0
LINE
  5
10A
330
107
100
AcDbEntity
  8
cotas
100
AcDbLine
 10
3944.696897697584
 20
3308.033271710947
 30
0.0
 11
3944.696897697584
 21
3366.433703921889
 31
0.0
  0
LINE
  5
10B
330
107
100
AcDbEntity
  8
cotas
100
AcDbLine
 10
5454.962486811559
 20
3361.433703921889
 30
0.0
 11
3954.696897697584
 21
3361.433703921889
 31
0.0
  0
SOLID
  5
10C
330
107
100
AcDbEntity
  8
cotas
100
AcDbTrace
 10
5454.962486811559
 20
3363.100370588556
 30
0.0
 11
5454.962486811559
 21
3359.767037255223
 31
0.0
 12
5464.962486811558
 22
3361.433703921889
 32
0.0
 13
5464.962486811558
 23
3361.433703921889
 33
0.0
  0
SOLID
  5
10D
330
107
100
AcDbEntity
  8
cotas
100
AcDbTrace
 10
3954.696897697584
 20
3363.100370588556
 30
0.0
 11
3954.696897697584
 21
3359.767037255223
 31
0.0
 12
3944.696897697584
 22
3361.433703921889
 32
0.0
 13
3944.696897697584
 23
3361.433703921889
 33
0.0
  0
MTEXT
  5
10E
330
107
100
AcDbEntity
  8
cotas
100
AcDbMText
 10
4704.829692254572
 20
3371.641897340291
 30
0.0
 40
10.0
 41
0.0
 71
     5
 72
     1
  1
1520
  7
SANINDUSA
 73
     1
 44
1.0
1001
ACAD
1000
MTEXTBEGIN
1070
    73
1070
     1
1070
    44
1040
1.0
1070
    74
1070
     0
1000
MTEXTEND
  0
POINT
  5
10F
330
107
100
AcDbEntity
  8
Defpoints
 62
     0
100
AcDbPoint
 10
5464.962486811558
 20
3217.454445049778
 30
0.0
  0
POINT
  5
110
330
107
100
AcDbEntity
  8
Defpoints
 62
     0
100
AcDbPoint
 10
3944.696897697584
 20
3303.033271710947
 30
0.0
  0
POINT
  5
111
330
107
100
AcDbEntity
  8
Defpoints
 62
     0
100
AcDbPoint
 10
3944.696897697584
 20
3361.433703921889
 30
0.0
  0
ENDBLK
  5
112
330
107
100
AcDbEntity
  8
0
100
AcDbBlockEnd
  0
BLOCK
  5
114
330
113
100
AcDbEntity
  8
0
100
AcDbBlockBegin
  2
*D21
 70
     1
 10
0.0
 20
0.0
 30
0.0
  3
*D21
  1

  0
LINE
  5
115
330
113
100
AcDbEntity
  8
cotas
100
AcDbLine
 10
4052.603259354385
 20
3248.362380183358
 30
0.0
 11
4053.142503253801
 21
3279.26900122209
 31
0.0
  0
LINE
  5
116
330
113
100
AcDbEntity
  8
cotas
100
AcDbLine
 10
4602.437867866734
 20
3238.769129664115
 30
0.0
 11
4602.97711176615
 21
3269.675750702846
 31
0.0
  0
LINE
  5
117
330
113
100
AcDbEntity
  8
cotas
100
AcDbLine
 10
4063.053757194887
 20
3274.095313435287
 30
0.0
 11
4592.891409172056
 21
3264.850960222059
 31
0.0
  0
SOLID
  5
118
330
113
100
AcDbEntity
  8
cotas
100
AcDbTrace
 10
4063.082831970388
 20
3275.761726479885
 30
0.0
 11
4063.024682419385
 21
3272.428900390688
 31
0.0
 12
4053.055278927296
 22
3274.269762088295
 32
0.0
 13
4053.055278927296
 23
3274.269762088295
 33
0.0
  0
SOLID
  5
119
330
113
100
AcDbEntity
  8
cotas
100
AcDbTrace
 10
4592.920483947557
 20
3266.517373266657
 30
0.0
 11
4592.862334396555
 21
3263.184547177461
 31
0.0
 12
4602.889887439644
 22
3264.676511569052
 32
0.0
 13
4602.889887439644
 23
3264.676511569052
 33
0.0
  0
MTEXT
  5
11A
330
113
100
AcDbEntity
  8
cotas
100
AcDbMText
 10
4328.150605163488
 20
3279.676419385827
 30
0.0
 40
10.0
 41
0.0
 71
     5
 72
     1
  1
550
  7
SANINDUSA
 11
0.9998478267589707
 21
-0.0174448653008065
 31
0.0
 73
     1
 44
1.0
1001
ACAD
1000
MTEXTBEGIN
1070
    73
1070
     1
1070
    44
1040
1.0
1070
    74
1070
     0
1000
MTEXTEND
  0
POINT
  5
11B
330
113
100
AcDbEntity
  8
Defpoints
 62
     0
100
AcDbPoint
 10
4052.51603502788
 20
3243.363141049564
 30
0.0
  0
POINT
  5
11C
330
113
100
AcDbEntity
  8
Defpoints
 62
     0
100
AcDbPoint
 10
4602.350643540229
 20
3233.769890530321
 30
0.0
  0
POINT
  5
11D
330
113
100
AcDbEntity
  8
Defpoints
 62
     0
100
AcDbPoint
 10
4602.889887439644
 20
3264.676511569052
 30
0.0
  0
ENDBLK
  5
11E
330
113
100
AcDbEntity
  8
0
100
AcDbBlockEnd
  0
BLOCK
  5
120
330
11F
100
AcDbEntity
  8
0
100
AcDbBlockBegin
  2
*D22
 70
     1
 10
0.0
 20
0.0
 30
0.0
  3
*D22
  1

  0
LINE
  5
121
330
11F
100
AcDbEntity
  8
cotas
100
AcDbLine
 10
3944.696897697584
 20
3308.033271710947
 30
0.0
 11
3944.696897697584
 21
3336.433703921889
 31
0.0
  0
LINE
  5
122
330
11F
100
AcDbEntity
  8
cotas
100
AcDbLine
 10
4014.816035027881
 20
3308.033271710947
 30
0.0
 11
4014.816035027881
 21
3336.433703921889
 31
0.0
  0
LINE
  5
123
330
11F
100
AcDbEntity
  8
cotas
100
AcDbLine
 10
3954.696897697584
 20
3331.433703921889
 30
0.0
 11
4004.816035027881
 21
3331.433703921889
 31
0.0
  0
SOLID
  5
124
330
11F
100
AcDbEntity
  8
cotas
100
AcDbTrace
 10
3954.696897697584
 20
3333.100370588556
 30
0.0
 11
3954.696897697584
 21
3329.767037255223
 31
0.0
 12
3944.696897697584
 22
3331.433703921889
 32
0.0
 13
3944.696897697584
 23
3331.433703921889
 33
0.0
  0
SOLID
  5
125
330
11F
100
AcDbEntity
  8
cotas
100
AcDbTrace
 10
4004.816035027881
 20
3333.100370588556
 30
0.0
 11
4004.816035027881
 21
3329.767037255223
 31
0.0
 12
4014.816035027881
 22
3331.433703921889
 32
0.0
 13
4014.816035027881
 23
3331.433703921889
 33
0.0
  0
MTEXT
  5
126
330
11F
100
AcDbEntity
  8
cotas
100
AcDbMText
 10
3979.756466362733
 20
3341.638539381929
 30
0.0
 40
10.0
 41
0.0
 71
     5
 72
     1
  1
70
  7
SANINDUSA
 73
     1
 44
1.0
1001
ACAD
1000
MTEXTBEGIN
1070
    73
1070
     1
1070
    44
1040
1.0
1070
    74
1070
     0
1000
MTEXTEND
  0
POINT
  5
127
330
11F
100
AcDbEntity
  8
Defpoints
 62
     0
100
AcDbPoint
 10
3944.696897697584
 20
3303.033271710947
 30
0.0
  0
POINT
  5
128
330
11F
100
AcDbEntity
  8
Defpoints
 62
     0
100
AcDbPoint
 10
4014.816035027881
 20
3303.033271710947
 30
0.0
  0
POINT
  5
129
330
11F
100
AcDbEntity
  8
Defpoints
 62
     0
100
AcDbPoint
 10
4014.816035027881
 20
3331.433703921889
 30
0.0
  0
ENDBLK
  5
12A
330
11F
100
AcDbEntity
  8
0
100
AcDbBlockEnd
  0
BLOCK
  5
12C
330
12B
100
AcDbEntity
  8
0
100
AcDbBlockBegin
  2
*D23
 70
     1
 10
0.0
 20
0.0
 30
0.0
  3
*D23
  1

  0
LINE
  5
12D
330
12B
100
AcDbEntity
  8
cotas
100
AcDbLine
 10
4014.816035027881
 20
3308.033271710947
 30
0.0
 11
4014.816035027881
 21
3336.347508023611
 31
0.0
  0
LINE
  5
12E
330
12B
100
AcDbEntity
  8
cotas
100
AcDbLine
 10
4052.51603502788
 20
3248.363141049563
 30
0.0
 11
4052.51603502788
 21
3336.347508023611
 31
0.0
  0
LINE
  5
12F
330
12B
100
AcDbEntity
  8
cotas
100
AcDbLine
 10
4024.816035027881
 20
3331.347508023611
 30
0.0
 11
4042.516035027881
 21
3331.347508023611
 31
0.0
  0
SOLID
  5
130
330
12B
100
AcDbEntity
  8
cotas
100
AcDbTrace
 10
4024.816035027881
 20
3333.014174690278
 30
0.0
 11
4024.816035027881
 21
3329.680841356945
 31
0.0
 12
4014.816035027881
 22
3331.347508023611
 32
0.0
 13
4014.816035027881
 23
3331.347508023611
 33
0.0
  0
SOLID
  5
131
330
12B
100
AcDbEntity
  8
cotas
100
AcDbTrace
 10
4042.516035027881
 20
3333.014174690278
 30
0.0
 11
4042.516035027881
 21
3329.680841356945
 31
0.0
 12
4052.51603502788
 22
3331.347508023611
 32
0.0
 13
4052.51603502788
 23
3331.347508023611
 33
0.0
  0
MTEXT
  5
132
330
12B
100
AcDbEntity
  8
cotas
100
AcDbMText
 10
4036.232494808245
 20
3342.694049326499
 30
0.0
 40
10.0
 41
0.0
 71
     5
 72
     1
  1
37,7
  7
SANINDUSA
 73
     1
 44
1.0
1001
ACAD
1000
MTEXTBEGIN
1070
    73
1070
     1
1070
    44
1040
1.0
1070
    74
1070
     0
1000
MTEXTEND
  0
POINT
  5
133
330
12B
100
AcDbEntity
  8
Defpoints
 62
     0
100
AcDbPoint
 10
4014.816035027881
 20
3303.033271710947
 30
0.0
  0
POINT
  5
134
330
12B
100
AcDbEntity
  8
Defpoints
 62
     0
100
AcDbPoint
 10
4052.51603502788
 20
3243.363141049564
 30
0.0
  0
POINT
  5
135
330
12B
100
AcDbEntity
  8
Defpoints
 62
     0
100
AcDbPoint
 10
4052.51603502788
 20
3331.347508023611
 30
0.0
  0
ENDBLK
  5
136
330
12B
100
AcDbEntity
  8
0
100
AcDbBlockEnd
  0
BLOCK
  5
138
330
137
100
AcDbEntity
  8
0
100
AcDbBlockBegin
  2
*D24
 70
     1
 10
0.0
 20
0.0
 30
0.0
  3
*D24
  1

  0
LINE
  5
139
330
137
100
AcDbEntity
  8
cotas
100
AcDbLine
 10
3944.573969328289
 20
3302.947075812669
 30
0.0
 11
3913.875763529891
 21
3302.947075812669
 31
0.0
  0
LINE
  5
13A
330
137
100
AcDbEntity
  8
cotas
100
AcDbLine
 10
4047.771882957902
 20
3243.358635299158
 30
0.0
 11
3913.875763529891
 21
3243.358635299158
 31
0.0
  0
LINE
  5
13B
330
137
100
AcDbEntity
  8
cotas
100
AcDbLine
 10
3918.875763529891
 20
3292.947075812668
 30
0.0
 11
3918.875763529891
 21
3253.358635299158
 31
0.0
  0
SOLID
  5
13C
330
137
100
AcDbEntity
  8
cotas
100
AcDbTrace
 10
3917.209096863224
 20
3292.947075812668
 30
0.0
 11
3920.542430196557
 21
3292.947075812668
 31
0.0
 12
3918.875763529891
 22
3302.947075812669
 32
0.0
 13
3918.875763529891
 23
3302.947075812669
 33
0.0
  0
SOLID
  5
13D
330
137
100
AcDbEntity
  8
cotas
100
AcDbTrace
 10
3917.209096863224
 20
3253.358635299158
 30
0.0
 11
3920.542430196557
 21
3253.358635299158
 31
0.0
 12
3918.875763529891
 22
3243.358635299158
 32
0.0
 13
3918.875763529891
 23
3243.358635299158
 33
0.0
  0
MTEXT
  5
13E
330
137
100
AcDbEntity
  8
cotas
100
AcDbMText
 10
3907.532580185363
 20
3273.152855555914
 30
0.0
 40
10.0
 41
0.0
 71
     5
 72
     1
  1
59,6
  7
SANINDUSA
 11
0.0000000000000001
 21
1.0
 31
0.0
 73
     1
 44
1.0
1001
ACAD
1000
MTEXTBEGIN
1070
    73
1070
     1
1070
    44
1040
1.0
1070
    74
1070
     0
1000
MTEXTEND
  0
POINT
  5
13F
330
137
100
AcDbEntity
  8
Defpoints
 62
     0
100
AcDbPoint
 10
3949.573969328289
 20
3302.947075812669
 30
0.0
  0
POINT
  5
140
330
137
100
AcDbEntity
  8
Defpoints
 62
     0
100
AcDbPoint
 10
4052.771882957903
 20
3243.358635299158
 30
0.0
  0
POINT
  5
141
330
137
100
AcDbEntity
  8
Defpoints
 62
     0
100
AcDbPoint
 10
3918.875763529891
 20
3243.358635299158
 30
0.0
  0
ENDBLK
  5
142
330
137
100
AcDbEntity
  8
0
100
AcDbBlockEnd
  0
BLOCK
  5
144
330
143
100
AcDbEntity
  8
0
100
AcDbBlockBegin
  2
*D25
 70
     1
 10
0.0
 20
0.0
 30
0.0
  3
*D25
  1

  0
LINE
  5
145
330
143
100
AcDbEntity
  8
cotas
100
AcDbLine
 10
3939.696897697584
 20
3303.033271710947
 30
0.0
 11
3878.998691899187
 21
3303.033271710947
 31
0.0
  0
LINE
  5
146
330
143
100
AcDbEntity
  8
cotas
100
AcDbLine
 10
4042.720286709517
 20
3233.446322546862
 30
0.0
 11
3878.998691899187
 21
3233.446322546862
 31
0.0
  0
LINE
  5
147
330
143
100
AcDbEntity
  8
cotas
100
AcDbLine
 10
3883.998691899186
 20
3293.033271710946
 30
0.0
 11
3883.998691899186
 21
3243.446322546862
 31
0.0
  0
SOLID
  5
148
330
143
100
AcDbEntity
  8
cotas
100
AcDbTrace
 10
3882.33202523252
 20
3293.033271710946
 30
0.0
 11
3885.665358565853
 21
3293.033271710946
 31
0.0
 12
3883.998691899186
 22
3303.033271710947
 32
0.0
 13
3883.998691899186
 23
3303.033271710947
 33
0.0
  0
SOLID
  5
149
330
143
100
AcDbEntity
  8
cotas
100
AcDbTrace
 10
3882.33202523252
 20
3243.446322546862
 30
0.0
 11
3885.665358565853
 21
3243.446322546862
 31
0.0
 12
3883.998691899186
 22
3233.446322546862
 32
0.0
 13
3883.998691899186
 23
3233.446322546862
 33
0.0
  0
MTEXT
  5
14A
330
143
100
AcDbEntity
  8
cotas
100
AcDbMText
 10
3872.655508554659
 20
3268.239797128905
 30
0.0
 40
10.0
 41
0.0
 71
     5
 72
     1
  1
69,6
  7
SANINDUSA
 11
0.0000000000000001
 21
1.0
 31
0.0
 73
     1
 44
1.0
1001
ACAD
1000
MTEXTBEGIN
1070
    73
1070
     1
1070
    44
1040
1.0
1070
    74
1070
     0
1000
MTEXTEND
  0
POINT
  5
14B
330
143
100
AcDbEntity
  8
Defpoints
 62
     0
100
AcDbPoint
 10
3944.696897697584
 20
3303.033271710947
 30
0.0
  0
POINT
  5
14C
330
143
100
AcDbEntity
  8
Defpoints
 62
     0
100
AcDbPoint
 10
4047.720286709517
 20
3233.446322546862
 30
0.0
  0
POINT
  5
14D
330
143
100
AcDbEntity
  8
Defpoints
 62
     0
100
AcDbPoint
 10
3883.998691899186
 20
3233.446322546862
 30
0.0
  0
ENDBLK
  5
14E
330
143
100
AcDbEntity
  8
0
100
AcDbBlockEnd
  0
BLOCK
  5
150
330
14F
100
AcDbEntity
  8
0
100
AcDbBlockBegin
  2
*D26
 70
     1
 10
0.0
 20
0.0
 30
0.0
  3
*D26
  1

  0
LINE
  5
151
330
14F
100
AcDbEntity
  8
cotas
100
AcDbLine
 10
4244.024664383116
 20
3240.565435240994
 30
0.0
 11
4320.751251384362
 21
3240.565435240995
 31
0.0
  0
ARC
  5
152
330
14F
100
AcDbEntity
  8
cotas
100
AcDbCircle
 10
4212.793124200774
 20
3240.565435240994
 30
0.0
 40
102.9581271835872
100
AcDbArc
 50
347.8657020394461
 51
353.4328511458903
  0
ARC
  5
153
330
14F
100
AcDbEntity
  8
cotas
100
AcDbCircle
 10
4212.793124200774
 20
3240.565435240994
 30
0.0
 40
102.9581271835872
100
AcDbArc
 50
5.56714910644489
 51
11.13429821288906
  0
ARC
  5
154
330
14F
100
AcDbEntity
  8
cotas
100
AcDbCircle
 10
4212.793124200774
 20
3240.565435240994
 30
0.0
 40
102.9581271835872
100
AcDbArc
 50
359.0000002523345
 51
0.0000000000007194
  0
SOLID
  5
155
330
14F
100
AcDbEntity
  8
cotas
100
AcDbTrace
 10
4313.412657871756
 20
3228.90034408653
 30
0.0
 11
4316.738725961283
 21
3228.680384601764
 31
0.0
 12
4315.735570370816
 22
3238.768568612729
 32
0.0
 13
4315.735570370816
 23
3238.768568612729
 33
0.0
  0
SOLID
  5
156
330
14F
100
AcDbEntity
  8
cotas
100
AcDbTrace
 10
4316.930317232602
 20
3250.63457529878
 30
0.0
 11
4313.60091689774
 21
3250.472697192383
 31
0.0
 12
4315.751251384361
 22
3240.565435240995
 32
0.0
 13
4315.751251384361
 23
3240.565435240995
 33
0.0
  0
MTEXT
  5
157
330
14F
100
AcDbEntity
  8
cotas
100
AcDbMText
 10
4304.274118336656
 20
3224.154466101922
 30
0.0
 40
10.0
 41
0.0
 71
     5
 72
     1
  1
1°
  7
SANINDUSA
 11
0.1765734128603684
 21
0.9842874731859803
 31
0.0
 73
     1
 44
1.0
1001
ACAD
1000
MTEXTBEGIN
1070
    73
1070
     1
1070
    44
1040
1.0
1070
    74
1070
     0
1000
MTEXTEND
  0
POINT
  5
158
330
14F
100
AcDbEntity
  8
Defpoints
 62
     0
100
AcDbPoint
 10
4315.749509010208
 20
3239.96645266737
 30
0.0
  0
POINT
  5
159
330
14F
100
AcDbEntity
  8
Defpoints
 62
     0
100
AcDbPoint
 10
4212.793124200797
 20
3240.565435240994
 30
0.0
  0
POINT
  5
15A
330
14F
100
AcDbEntity
  8
Defpoints
 62
     0
100
AcDbPoint
 10
4595.648320759161
 20
3233.882674613595
 30
0.0
  0
POINT
  5
15B
330
14F
100
AcDbEntity
  8
Defpoints
 62
     0
100
AcDbPoint
 10
4059.729980672225
 20
3243.237161675097
 30
0.0
  0
POINT
  5
15C
330
14F
100
AcDbEntity
  8
Defpoints
 62
     0
100
AcDbPoint
 10
4239.024664383116
 20
3240.565435240994
 30
0.0
  0
ENDBLK
  5
15D
330
14F
100
AcDbEntity
  8
0
100
AcDbBlockEnd
  0
BLOCK
  5
15F
330
15E
100
AcDbEntity
  8
0
100
AcDbBlockBegin
  2
*D27
 70
     1
 10
0.0
 20
0.0
 30
0.0
  3
*D27
  1

  0
LINE
  5
160
330
15E
100
AcDbEntity
  8
cotas
100
AcDbLine
 10
4794.573960150104
 20
3302.94707570374
 30
0.0
 11
4683.963031881674
 21
3302.94707570374
 31
0.0
  0
LINE
  5
161
330
15E
100
AcDbEntity
  8
cotas
100
AcDbLine
 10
4607.606491470249
 20
3233.765384779915
 30
0.0
 11
4693.963031881675
 21
3233.765384779915
 31
0.0
  0
LINE
  5
162
330
15E
100
AcDbEntity
  8
cotas
100
AcDbLine
 10
4688.963031881674
 20
3292.94707570374
 30
0.0
 11
4688.963031881674
 21
3243.765384779914
 31
0.0
  0
SOLID
  5
163
330
15E
100
AcDbEntity
  8
cotas
100
AcDbTrace
 10
4687.296365215007
 20
3292.94707570374
 30
0.0
 11
4690.629698548341
 21
3292.94707570374
 31
0.0
 12
4688.963031881674
 22
3302.94707570374
 32
0.0
 13
4688.963031881674
 23
3302.94707570374
 33
0.0
  0
SOLID
  5
164
330
15E
100
AcDbEntity
  8
cotas
100
AcDbTrace
 10
4687.296365215007
 20
3243.765384779914
 30
0.0
 11
4690.629698548341
 21
3243.765384779914
 31
0.0
 12
4688.963031881674
 22
3233.765384779915
 32
0.0
 13
4688.963031881674
 23
3233.765384779915
 33
0.0
  0
MTEXT
  5
165
330
15E
100
AcDbEntity
  8
cotas
100
AcDbMText
 10
4677.616490578786
 20
3268.356230241828
 30
0.0
 40
10.0
 41
0.0
 71
     5
 72
     1
  1
69,2
  7
SANINDUSA
 11
0.0000000000000001
 21
1.0
 31
0.0
 73
     1
 44
1.0
1001
ACAD
1000
MTEXTBEGIN
1070
    73
1070
     1
1070
    44
1040
1.0
1070
    74
1070
     0
1000
MTEXTEND
  0
POINT
  5
166
330
15E
100
AcDbEntity
  8
Defpoints
 62
     0
100
AcDbPoint
 10
4799.573960150104
 20
3302.94707570374
 30
0.0
  0
POINT
  5
167
330
15E
100
AcDbEntity
  8
Defpoints
 62
     0
100
AcDbPoint
 10
4602.60649147025
 20
3233.765384779915
 30
0.0
  0
POINT
  5
168
330
15E
100
AcDbEntity
  8
Defpoints
 62
     0
100
AcDbPoint
 10
4688.963031881674
 20
3233.765384779915
 30
0.0
  0
ENDBLK
  5
169
330
15E
100
AcDbEntity
  8
0
100
AcDbBlockEnd
  0
BLOCK
  5
16B
330
16A
100
AcDbEntity
  8
0
100
AcDbBlockBegin
  2
*D28
 70
     1
 10
0.0
 20
0.0
 30
0.0
  3
*D28
  1

  0
LINE
  5
16C
330
16A
100
AcDbEntity
  8
cotas
100
AcDbLine
 10
3968.752485810058
 20
1754.408528183934
 30
0.0
 11
4009.626594926569
 21
1736.064164025249
 31
0.0
  0
MTEXT
  5
16D
330
16A
100
AcDbEntity
  8
cotas
100
AcDbMText
 10
3988.807687465294
 20
1756.596865512961
 30
0.0
 40
10.0
 41
0.0
 71
     5
 72
     1
  1
R20
  7
SANINDUSA
 11
0.9123302124791527
 21
-0.4094552275862944
 31
0.0
 73
     1
 44
1.0
1001
ACAD
1000
MTEXTBEGIN
1070
    73
1070
     1
1070
    44
1040
1.0
1070
    74
1070
     0
1000
MTEXTEND
  0
LINE
  5
16E
330
16A
100
AcDbEntity
  8
cotas
100
AcDbLine
 10
4037.006935187286
 20
1723.775824453136
 30
0.0
 11
4018.74989705136
 21
1731.969611749386
 31
0.0
  0
SOLID
  5
16F
330
16A
100
AcDbEntity
  8
cotas
100
AcDbTrace
 10
4010.309020305879
 20
1737.584714379381
 30
0.0
 11
4008.944169547258
 21
1734.543613671117
 31
0.0
 12
4018.74989705136
 22
1731.969611749386
 32
0.0
 13
4018.74989705136
 23
1731.969611749386
 33
0.0
  0
POINT
  5
170
330
16A
100
AcDbEntity
  8
Defpoints
 62
     0
100
AcDbPoint
 10
4018.74989705136
 20
1731.969611749386
 30
0.0
  0
POINT
  5
171
330
16A
100
AcDbEntity
  8
Defpoints
 62
     0
100
AcDbPoint
 10
4037.006935187286
 20
1723.775824453136
 30
0.0
  0
ENDBLK
  5
172
330
16A
100
AcDbEntity
  8
0
100
AcDbBlockEnd
  0
BLOCK
  5
174
330
173
100
AcDbEntity
  8
0
100
AcDbBlockBegin
  2
*D29
 70
     1
 10
0.0
 20
0.0
 30
0.0
  3
*D29
  1

  0
LINE
  5
175
330
173
100
AcDbEntity
  8
cotas
100
AcDbLine
 10
4000.481596418517
 20
1043.108680187346
 30
0.0
 11
4022.353205024988
 21
1082.209079538507
 31
0.0
  0
MTEXT
  5
176
330
173
100
AcDbEntity
  8
cotas
100
AcDbMText
 10
4000.067375295087
 20
1063.278666666239
 30
0.0
 40
10.0
 41
0.0
 71
     5
 72
     1
  1
R20
  7
SANINDUSA
 11
0.4881850579378629
 21
0.8727401384181924
 31
0.0
 73
     1
 44
1.0
1001
ACAD
1000
MTEXTBEGIN
1070
    73
1070
     1
1070
    44
1040
1.0
1070
    74
1070
     0
1000
MTEXTEND
  0
LINE
  5
177
330
173
100
AcDbEntity
  8
cotas
100
AcDbLine
 10
4037.001841410238
 20
1108.396798188689
 30
0.0
 11
4027.235055604367
 21
1090.936480922689
 31
0.0
  0
SOLID
  5
178
330
173
100
AcDbEntity
  8
cotas
100
AcDbTrace
 10
4020.898638127625
 20
1083.022721301736
 30
0.0
 11
4023.807771922352
 21
1081.395437775277
 31
0.0
 12
4027.235055604367
 22
1090.936480922689
 32
0.0
 13
4027.235055604367
 23
1090.936480922689
 33
0.0
  0
POINT
  5
179
330
173
100
AcDbEntity
  8
Defpoints
 62
     0
100
AcDbPoint
 10
4027.235055604367
 20
1090.936480922689
 30
0.0
  0
POINT
  5
17A
330
173
100
AcDbEntity
  8
Defpoints
 62
     0
100
AcDbPoint
 10
4037.001841410238
 20
1108.396798188689
 30
0.0
  0
ENDBLK
  5
17B
330
173
100
AcDbEntity
  8
0
100
AcDbBlockEnd
  0
BLOCK
  5
17D
330
17C
100
AcDbEntity
  8
0
100
AcDbBlockBegin
  2
*D30
 70
     1
 10
0.0
 20
0.0
 30
0.0
  3
*D30
  1

  0
LINE
  5
17E
330
17C
100
AcDbEntity
  8
cotas
100
AcDbLine
 10
3901.98851899061
 20
1831.53835494448
 30
0.0
 11
3935.169599640309
 21
1817.597802196635
 31
0.0
  0
MTEXT
  5
17F
330
17C
100
AcDbEntity
  8
cotas
100
AcDbMText
 10
3917.883080040489
 20
1835.82011763722
 30
0.0
 40
10.0
 41
0.0
 71
     5
 72
     1
  1
R5
  7
SANINDUSA
 11
0.9219374713081174
 21
-0.387338739345801
 31
0.0
 73
     1
 44
1.0
1001
ACAD
1000
MTEXTBEGIN
1070
    73
1070
     1
1070
    44
1040
1.0
1070
    74
1070
     0
1000
MTEXTEND
  0
LINE
  5
180
330
17C
100
AcDbEntity
  8
cotas
100
AcDbLine
 10
3948.997668960306
 20
1811.788138195893
 30
0.0
 11
3944.388974353389
 21
1813.724414803177
 31
0.0
  0
SOLID
  5
181
330
17C
100
AcDbEntity
  8
cotas
100
AcDbTrace
 10
3935.815164205885
 20
1819.134364648815
 30
0.0
 11
3934.524035074733
 21
1816.061239744455
 31
0.0
 12
3944.388974353389
 22
1813.724414803177
 32
0.0
 13
3944.388974353389
 23
1813.724414803177
 33
0.0
  0
POINT
  5
182
330
17C
100
AcDbEntity
  8
Defpoints
 62
     0
100
AcDbPoint
 10
3944.388974353389
 20
1813.724414803177
 30
0.0
  0
POINT
  5
183
330
17C
100
AcDbEntity
  8
Defpoints
 62
     0
100
AcDbPoint
 10
3948.997668960306
 20
1811.788138195893
 30
0.0
  0
ENDBLK
  5
184
330
17C
100
AcDbEntity
  8
0
100
AcDbBlockEnd
  0
BLOCK
  5
186
330
185
100
AcDbEntity
  8
0
100
AcDbBlockBegin
  2
*D31
 70
     1
 10
0.0
 20
0.0
 30
0.0
  3
*D31
  1

  0
LINE
  5
187
330
185
100
AcDbEntity
  8
cotas
100
AcDbLine
 10
3902.873283483742
 20
998.6531512576977
 30
0.0
 11
3935.429859286589
 21
1013.995657441199
 31
0.0
  0
MTEXT
  5
188
330
185
100
AcDbEntity
  8
cotas
100
AcDbMText
 10
3910.321347231723
 20
1013.332964237816
 30
0.0
 40
10.0
 41
0.0
 71
     5
 72
     1
  1
R5
  7
SANINDUSA
 11
0.9045855825795682
 21
0.4262920639528529
 31
0.0
 73
     1
 44
1.0
1001
ACAD
1000
MTEXTBEGIN
1070
    73
1070
     1
1070
    44
1040
1.0
1070
    74
1070
     0
1000
MTEXTEND
  0
LINE
  5
189
330
185
100
AcDbEntity
  8
cotas
100
AcDbLine
 10
3948.997668960319
 20
1020.3895793658
 30
0.0
 11
3944.475715112385
 21
1018.258578080727
 31
0.0
  0
SOLID
  5
18A
330
185
100
AcDbEntity
  8
cotas
100
AcDbTrace
 10
3934.719372513334
 20
1015.503300078831
 30
0.0
 11
3936.140346059843
 21
1012.488014803566
 31
0.0
 12
3944.475715112385
 22
1018.258578080727
 32
0.0
 13
3944.475715112385
 23
1018.258578080727
 33
0.0
  0
POINT
  5
18B
330
185
100
AcDbEntity
  8
Defpoints
 62
     0
100
AcDbPoint
 10
3944.475715112385
 20
1018.258578080727
 30
0.0
  0
POINT
  5
18C
330
185
100
AcDbEntity
  8
Defpoints
 62
     0
100
AcDbPoint
 10
3948.997668960319
 20
1020.3895793658
 30
0.0
  0
ENDBLK
  5
18D
330
185
100
AcDbEntity
  8
0
100
AcDbBlockEnd
  0
BLOCK
  5
18F
330
18E
100
AcDbEntity
  8
0
100
AcDbBlockBegin
  2
*D32
 70
     1
 10
0.0
 20
0.0
 30
0.0
  3
*D32
  1

  0
LINE
  5
190
330
18E
100
AcDbEntity
  8
cotas
100
AcDbLine
 10
5345.693373570894
 20
1490.550519842624
 30
0.0
 11
5392.64007745022
 21
1461.175523688319
 31
0.0
  0
LINE
  5
191
330
18E
100
AcDbEntity
  8
cotas
100
AcDbLine
 10
5536.753819300495
 20
1371.002193873386
 30
0.0
 11
5545.231098232864
 21
1365.697880354861
 31
0.0
  0
MTEXT
  5
192
330
18E
100
AcDbEntity
  8
cotas
100
AcDbMText
 10
5370.709752156237
 20
1487.755355628318
 30
0.0
 40
10.0
 41
0.0
 71
     5
 72
     1
  1
\U+2205150
  7
SANINDUSA
 11
0.8477278932369076
 21
-0.5304313518525411
 31
0.0
 73
     1
 44
1.0
1001
ACAD
1000
MTEXTBEGIN
1070
    73
1070
     1
1070
    44
1040
1.0
1070
    74
1070
     0
1000
MTEXTEND
  0
LINE
  5
193
330
18E
100
AcDbEntity
  8
cotas
100
AcDbLine
 10
5528.276540368126
 20
1376.306507391912
 30
0.0
 11
5401.117356382588
 21
1455.871210169794
 31
0.0
  0
SOLID
  5
194
330
18E
100
AcDbEntity
  8
cotas
100
AcDbTrace
 10
5537.637871553583
 20
1372.415073695448
 30
0.0
 11
5535.869767047408
 21
1369.589314051325
 31
0.0
 12
5528.276540368126
 22
1376.306507391912
 32
0.0
 13
5528.276540368126
 23
1376.306507391912
 33
0.0
  0
SOLID
  5
195
330
18E
100
AcDbEntity
  8
cotas
100
AcDbTrace
 10
5393.524129703307
 20
1462.588403510381
 30
0.0
 11
5391.756025197132
 21
1459.762643866257
 31
0.0
 12
5401.117356382588
 22
1455.871210169794
 32
0.0
 13
5401.117356382588
 23
1455.871210169794
 33
0.0
  0
POINT
  5
196
330
18E
100
AcDbEntity
  8
Defpoints
 62
     0
100
AcDbPoint
 10
5401.117356382588
 20
1455.871210169794
 30
0.0
  0
POINT
  5
197
330
18E
100
AcDbEntity
  8
Defpoints
 62
     0
100
AcDbPoint
 10
5528.276540368126
 20
1376.306507391912
 30
0.0
  0
ENDBLK
  5
198
330
18E
100
AcDbEntity
  8
0
100
AcDbBlockEnd
  0
BLOCK
  5
19A
330
199
100
AcDbEntity
  8
0
100
AcDbBlockBegin
  2
*D33
 70
     1
 10
0.0
 20
0.0
 30
0.0
  3
*D33
  1

  0
LINE
  5
19B
330
199
100
AcDbEntity
  8
cotas
100
AcDbLine
 10
3944.696935027476
 20
2425.028077922975
 30
0.0
 11
3944.696935027476
 21
2454.718082906944
 31
0.0
  0
LINE
  5
19C
330
199
100
AcDbEntity
  8
cotas
100
AcDbLine
 10
5644.696935027472
 20
2425.028077922975
 30
0.0
 11
5644.696935027472
 21
2454.718082906944
 31
0.0
  0
LINE
  5
19D
330
199
100
AcDbEntity
  8
cotas
100
AcDbLine
 10
3954.696935027476
 20
2449.718082906944
 30
0.0
 11
5634.696935027471
 21
2449.718082906944
 31
0.0
  0
SOLID
  5
19E
330
199
100
AcDbEntity
  8
cotas
100
AcDbTrace
 10
3954.696935027476
 20
2451.384749573611
 30
0.0
 11
3954.696935027476
 21
2448.051416240277
 31
0.0
 12
3944.696935027476
 22
2449.718082906944
 32
0.0
 13
3944.696935027476
 23
2449.718082906944
 33
0.0
  0
SOLID
  5
19F
330
199
100
AcDbEntity
  8
cotas
100
AcDbTrace
 10
5634.696935027471
 20
2451.384749573611
 30
0.0
 11
5634.696935027471
 21
2448.051416240277
 31
0.0
 12
5644.696935027472
 22
2449.718082906944
 32
0.0
 13
5644.696935027472
 23
2449.718082906944
 33
0.0
  0
MTEXT
  5
1A0
330
199
100
AcDbEntity
  8
cotas
100
AcDbMText
 10
4794.696935027474
 20
2459.922918366984
 30
0.0
 40
10.0
 41
0.0
 71
     5
 72
     1
  1
1700
  7
SANINDUSA
 73
     1
 44
1.0
1001
ACAD
1000
MTEXTBEGIN
1070
    73
1070
     1
1070
    44
1040
1.0
1070
    74
1070
     0
1000
MTEXTEND
  0
POINT
  5
1A1
330
199
100
AcDbEntity
  8
Defpoints
 62
     0
100
AcDbPoint
 10
3944.696935027476
 20
2420.028077922975
 30
0.0
  0
POINT
  5
1A2
330
199
100
AcDbEntity
  8
Defpoints
 62
     0
100
AcDbPoint
 10
5644.696935027472
 20
2420.028077922975
 30
0.0
  0
POINT
  5
1A3
330
199
100
AcDbEntity
  8
Defpoints
 62
     0
100
AcDbPoint
 10
5644.696935027472
 20
2449.718082906944
 30
0.0
  0
ENDBLK
  5
1A4
330
199
100
AcDbEntity
  8
0
100
AcDbBlockEnd
  0
BLOCK
  5
1A6
330
1A5
100
AcDbEntity
  8
0
100
AcDbBlockBegin
  2
*D34
 70
     1
 10
0.0
 20
0.0
 30
0.0
  3
*D34
  1

  0
LINE
  5
1A7
330
1A5
100
AcDbEntity
  8
cotas
100
AcDbLine
 10
5645.482453535826
 20
2375.028839447203
 30
0.0
 11
5646.074207766416
 21
2341.127262281759
 31
0.0
  0
ARC
  5
1A8
330
1A5
100
AcDbEntity
  8
cotas
100
AcDbCircle
 10
5644.696988906511
 20
2420.028077922987
 30
0.0
 40
73.91283444813637
100
AcDbArc
 50
187.757728301578
 51
263.2422716984212
  0
SOLID
  5
1A9
330
1A5
100
AcDbEntity
  8
cotas
100
AcDbTrace
 10
5569.797778124504
 20
2409.938239494857
 30
0.0
 11
5573.123475794918
 21
2410.163730328636
 31
0.0
 12
5570.784154458375
 22
2420.028077922987
 32
0.0
 13
5570.784154458375
 23
2420.028077922987
 33
0.0
  0
SOLID
  5
1AA
330
1A5
100
AcDbEntity
  8
cotas
100
AcDbTrace
 10
5636.083273741046
 20
2348.293309200659
 30
0.0
 11
5635.915858678044
 21
2344.964182692431
 31
0.0
 12
5645.98694573423
 22
2346.126500757542
 32
0.0
 13
5645.98694573423
 23
2346.126500757542
 33
0.0
  0
MTEXT
  5
1AB
330
1A5
100
AcDbEntity
  8
cotas
100
AcDbMText
 10
5614.578533817911
 20
2363.881452392342
 30
0.0
 40
10.0
 41
0.0
 71
     5
 72
     1
  1
91°
  7
SANINDUSA
 11
0.881219128336667
 21
-0.472707994277191
 31
0.0
 73
     1
 44
1.0
1001
ACAD
1000
MTEXTBEGIN
1070
    73
1070
     1
1070
    44
1040
1.0
1070
    74
1070
     0
1000
MTEXTEND
  0
POINT
  5
1AC
330
1A5
100
AcDbEntity
  8
Defpoints
 62
     0
100
AcDbPoint
 10
5580.902682372938
 20
2382.699890851308
 30
0.0
  0
POINT
  5
1AD
330
1A5
100
AcDbEntity
  8
Defpoints
 62
     0
100
AcDbPoint
 10
5644.817041930796
 20
2413.150244768047
 30
0.0
  0
POINT
  5
1AE
330
1A5
100
AcDbEntity
  8
Defpoints
 62
     0
100
AcDbPoint
 10
3951.57586974832
 20
2420.028077922986
 30
0.0
  0
POINT
  5
1AF
330
1A5
100
AcDbEntity
  8
Defpoints
 62
     0
100
AcDbPoint
 10
5637.818108064701
 20
2420.028077922986
 30
0.0
  0
POINT
  5
1B0
330
1A5
100
AcDbEntity
  8
Defpoints
 62
     0
100
AcDbPoint
 10
5645.39519150364
 20
2380.028077922986
 30
0.0
  0
ENDBLK
  5
1B1
330
1A5
100
AcDbEntity
  8
0
100
AcDbBlockEnd
  0
BLOCK
  5
1B3
330
1B2
100
AcDbEntity
  8
0
100
AcDbBlockBegin
  2
*D35
 70
     1
 10
0.0
 20
0.0
 30
0.0
  3
*D35
  1

  0
LINE
  5
1B4
330
1B2
100
AcDbEntity
  8
cotas
100
AcDbLine
 10
5649.696988906508
 20
2420.028077922975
 30
0.0
 11
5685.986945734229
 21
2420.028077922975
 31
0.0
  0
LINE
  5
1B5
330
1B2
100
AcDbEntity
  8
cotas
100
AcDbLine
 10
5521.392757168857
 20
2285.988398831772
 30
0.0
 11
5685.986945734229
 21
2285.988398831772
 31
0.0
  0
LINE
  5
1B6
330
1B2
100
AcDbEntity
  8
cotas
100
AcDbLine
 10
5680.986945734229
 20
2410.028077922975
 30
0.0
 11
5680.986945734229
 21
2295.988398831772
 31
0.0
  0
SOLID
  5
1B7
330
1B2
100
AcDbEntity
  8
cotas
100
AcDbTrace
 10
5679.320279067562
 20
2410.028077922975
 30
0.0
 11
5682.653612400896
 21
2410.028077922975
 31
0.0
 12
5680.986945734229
 22
2420.028077922975
 32
0.0
 13
5680.986945734229
 23
2420.028077922975
 33
0.0
  0
SOLID
  5
1B8
330
1B2
100
AcDbEntity
  8
cotas
100
AcDbTrace
 10
5679.320279067562
 20
2295.988398831772
 30
0.0
 11
5682.653612400896
 21
2295.988398831772
 31
0.0
 12
5680.986945734229
 22
2285.988398831772
 32
0.0
 13
5680.986945734229
 23
2285.988398831772
 33
0.0
  0
MTEXT
  5
1B9
330
1B2
100
AcDbEntity
  8
cotas
100
AcDbMText
 10
5670.778752315826
 20
2353.008238377374
 30
0.0
 40
10.0
 41
0.0
 71
     5
 72
     1
  1
134
  7
SANINDUSA
 11
0.0000000000000001
 21
1.0
 31
0.0
 73
     1
 44
1.0
1001
ACAD
1000
MTEXTBEGIN
1070
    73
1070
     1
1070
    44
1040
1.0
1070
    74
1070
     0
1000
MTEXTEND
  0
POINT
  5
1BA
330
1B2
100
AcDbEntity
  8
Defpoints
 62
     0
100
AcDbPoint
 10
5644.696988906508
 20
2420.028077922975
 30
0.0
  0
POINT
  5
1BB
330
1B2
100
AcDbEntity
  8
Defpoints
 62
     0
100
AcDbPoint
 10
5516.392757168857
 20
2285.988398831772
 30
0.0
  0
POINT
  5
1BC
330
1B2
100
AcDbEntity
  8
Defpoints
 62
     0
100
AcDbPoint
 10
5680.986945734229
 20
2285.988398831772
 30
0.0
  0
ENDBLK
  5
1BD
330
1B2
100
AcDbEntity
  8
0
100
AcDbBlockEnd
  0
BLOCK
  5
1BF
330
1BE
100
AcDbEntity
  8
0
100
AcDbBlockBegin
  2
*D36
 70
     1
 10
0.0
 20
0.0
 30
0.0
  3
*D36
  1

  0
LINE
  5
1C0
330
1BE
100
AcDbEntity
  8
cotas
100
AcDbLine
 10
3943.911470398158
 20
2375.028839447203
 30
0.0
 11
3943.324913973667
 21
2341.425044393855
 31
0.0
  0
ARC
  5
1C1
330
1BE
100
AcDbEntity
  8
cotas
100
AcDbCircle
 10
3944.696935027474
 20
2420.028077922986
 30
0.0
 40
73.61500697547279
100
AcDbArc
 50
276.7891624136404
 51
352.2108375863583
  0
SOLID
  5
1C2
330
1BE
100
AcDbEntity
  8
cotas
100
AcDbTrace
 10
3953.483581523675
 20
2345.264727492188
 30
0.0
 11
3953.315253239722
 21
2348.593807950803
 31
0.0
 12
3943.412176005853
 22
2346.424282869637
 32
0.0
 13
3943.412176005853
 23
2346.424282869637
 33
0.0
  0
SOLID
  5
1C3
330
1BE
100
AcDbEntity
  8
cotas
100
AcDbTrace
 10
4015.969914822092
 20
2410.164372409238
 30
0.0
 11
4019.295550512002
 21
2409.937969297271
 31
0.0
 12
4018.311942002947
 22
2420.028077922985
 32
0.0
 13
4018.311942002947
 23
2420.028077922985
 33
0.0
  0
MTEXT
  5
1C4
330
1BE
100
AcDbEntity
  8
cotas
100
AcDbMText
 10
3974.461223251804
 20
2364.029964043305
 30
0.0
 40
10.0
 41
0.0
 71
     5
 72
     1
  1
91°
  7
SANINDUSA
 11
0.8830158045771106
 21
0.4693432527128074
 31
0.0
 73
     1
 44
1.0
1001
ACAD
1000
MTEXTBEGIN
1070
    73
1070
     1
1070
    44
1040
1.0
1070
    74
1070
     0
1000
MTEXTEND
  0
POINT
  5
1C5
330
1BE
100
AcDbEntity
  8
Defpoints
 62
     0
100
AcDbPoint
 10
4008.234186108808
 20
2382.850302612641
 30
0.0
  0
POINT
  5
1C6
330
1BE
100
AcDbEntity
  8
Defpoints
 62
     0
100
AcDbPoint
 10
3951.575815869283
 20
2420.028077922985
 30
0.0
  0
POINT
  5
1C7
330
1BE
100
AcDbEntity
  8
Defpoints
 62
     0
100
AcDbPoint
 10
3943.998732430344
 20
2380.028077922985
 30
0.0
  0
POINT
  5
1C8
330
1BE
100
AcDbEntity
  8
Defpoints
 62
     0
100
AcDbPoint
 10
3944.57688200319
 20
2413.150244768046
 30
0.0
  0
POINT
  5
1C9
330
1BE
100
AcDbEntity
  8
Defpoints
 62
     0
100
AcDbPoint
 10
5637.818054185663
 20
2420.028077922985
 30
0.0
  0
ENDBLK
  5
1CA
330
1BE
100
AcDbEntity
  8
0
100
AcDbBlockEnd
  0
BLOCK
  5
1CC
330
1CB
100
AcDbEntity
  8
0
100
AcDbBlockBegin
  2
*D37
 70
     1
 10
0.0
 20
0.0
 30
0.0
  3
*D37
  1

  0
LINE
  5
1CD
330
1CB
100
AcDbEntity
  8
cotas
100
AcDbLine
 10
3939.696935027476
 20
2420.028077922975
 30
0.0
 11
3914.746679895255
 21
2420.028077922975
 31
0.0
  0
LINE
  5
1CE
330
1CB
100
AcDbEntity
  8
cotas
100
AcDbLine
 10
3938.998732430345
 20
2380.028077922985
 30
0.0
 11
3914.746679895255
 21
2380.028077922985
 31
0.0
  0
LINE
  5
1CF
330
1CB
100
AcDbEntity
  8
cotas
100
AcDbLine
 10
3919.746679895255
 20
2410.028077922975
 30
0.0
 11
3919.746679895255
 21
2390.028077922985
 31
0.0
  0
SOLID
  5
1D0
330
1CB
100
AcDbEntity
  8
cotas
100
AcDbTrace
 10
3918.080013228588
 20
2410.028077922975
 30
0.0
 11
3921.413346561921
 21
2410.028077922975
 31
0.0
 12
3919.746679895255
 22
2420.028077922975
 32
0.0
 13
3919.746679895255
 23
2420.028077922975
 33
0.0
  0
SOLID
  5
1D1
330
1CB
100
AcDbEntity
  8
cotas
100
AcDbTrace
 10
3918.080013228588
 20
2390.028077922985
 30
0.0
 11
3921.413346561921
 21
2390.028077922985
 31
0.0
 12
3919.746679895255
 22
2380.028077922985
 32
0.0
 13
3919.746679895255
 23
2380.028077922985
 33
0.0
  0
MTEXT
  5
1D2
330
1CB
100
AcDbEntity
  8
cotas
100
AcDbMText
 10
3909.541844435214
 20
2400.028077922981
 30
0.0
 40
10.0
 41
0.0
 71
     5
 72
     1
  1
40
  7
SANINDUSA
 11
0.0000000000000001
 21
1.0
 31
0.0
 73
     1
 44
1.0
1001
ACAD
1000
MTEXTBEGIN
1070
    73
1070
     1
1070
    44
1040
1.0
1070
    74
1070
     0
1000
MTEXTEND
  0
POINT
  5
1D3
330
1CB
100
AcDbEntity
  8
Defpoints
 62
     0
100
AcDbPoint
 10
3944.696935027476
 20
2420.028077922975
 30
0.0
  0
POINT
  5
1D4
330
1CB
100
AcDbEntity
  8
Defpoints
 62
     0
100
AcDbPoint
 10
3943.998732430344
 20
2380.028077922985
 30
0.0
  0
POINT
  5
1D5
330
1CB
100
AcDbEntity
  8
Defpoints
 62
     0
100
AcDbPoint
 10
3919.746679895255
 20
2380.028077922985
 30
0.0
  0
ENDBLK
  5
1D6
330
1CB
100
AcDbEntity
  8
0
100
AcDbBlockEnd
  0
BLOCK
  5
1D8
330
1D7
100
AcDbEntity
  8
0
100
AcDbBlockBegin
  2
*D38
 70
     1
 10
0.0
 20
0.0
 30
0.0
  3
*D38
  1

  0
LINE
  5
1D9
330
1D7
100
AcDbEntity
  8
cotas
100
AcDbLine
 10
2979.68851503751
 20
2425.02808485596
 30
0.0
 11
2979.68851503751
 21
2453.192806537171
 31
0.0
  0
LINE
  5
1DA
330
1D7
100
AcDbEntity
  8
cotas
100
AcDbLine
 10
3779.68853315376
 20
2425.02808485595
 30
0.0
 11
3779.68853315376
 21
2453.192806537171
 31
0.0
  0
LINE
  5
1DB
330
1D7
100
AcDbEntity
  8
cotas
100
AcDbLine
 10
2989.68851503751
 20
2448.19280653717
 30
0.0
 11
3769.68853315376
 21
2448.19280653717
 31
0.0
  0
SOLID
  5
1DC
330
1D7
100
AcDbEntity
  8
cotas
100
AcDbTrace
 10
2989.68851503751
 20
2449.859473203837
 30
0.0
 11
2989.68851503751
 21
2446.526139870504
 31
0.0
 12
2979.68851503751
 22
2448.19280653717
 32
0.0
 13
2979.68851503751
 23
2448.19280653717
 33
0.0
  0
SOLID
  5
1DD
330
1D7
100
AcDbEntity
  8
cotas
100
AcDbTrace
 10
3769.68853315376
 20
2449.859473203837
 30
0.0
 11
3769.68853315376
 21
2446.526139870504
 31
0.0
 12
3779.68853315376
 22
2448.19280653717
 32
0.0
 13
3779.68853315376
 23
2448.19280653717
 33
0.0
  0
MTEXT
  5
1DE
330
1D7
100
AcDbEntity
  8
cotas
100
AcDbMText
 10
3379.688524095636
 20
2458.42114770574
 30
0.0
 40
10.0
 41
0.0
 71
     5
 72
     1
  1
800
  7
SANINDUSA
 73
     1
 44
1.0
1001
ACAD
1000
MTEXTBEGIN
1070
    73
1070
     1
1070
    44
1040
1.0
1070
    74
1070
     0
1000
MTEXTEND
  0
POINT
  5
1DF
330
1D7
100
AcDbEntity
  8
Defpoints
 62
     0
100
AcDbPoint
 10
2979.68851503751
 20
2420.02808485596
 30
0.0
  0
POINT
  5
1E0
330
1D7
100
AcDbEntity
  8
Defpoints
 62
     0
100
AcDbPoint
 10
3779.68853315376
 20
2420.02808485595
 30
0.0
  0
POINT
  5
1E1
330
1D7
100
AcDbEntity
  8
Defpoints
 62
     0
100
AcDbPoint
 10
3779.68853315376
 20
2448.19280653717
 30
0.0
  0
ENDBLK
  5
1E2
330
1D7
100
AcDbEntity
  8
0
100
AcDbBlockEnd
  0
BLOCK
  5
1E4
330
1E3
100
AcDbEntity
  8
0
100
AcDbBlockBegin
  2
*D39
 70
     1
 10
0.0
 20
0.0
 30
0.0
  3
*D39
  1

  0
LINE
  5
1E5
330
1E3
100
AcDbEntity
  8
cotas
100
AcDbLine
 10
2978.903050408196
 20
2375.028846380179
 30
0.0
 11
2978.353611757721
 21
2343.551527175935
 31
0.0
  0
ARC
  5
1E6
330
1E3
100
AcDbEntity
  8
cotas
100
AcDbCircle
 10
2979.68851503751
 20
2420.028084855961
 30
0.0
 40
71.48820720446169
100
AcDbArc
 50
277.0212665005624
 51
351.9787334994393
  0
SOLID
  5
1E7
330
1E3
100
AcDbEntity
  8
cotas
100
AcDbTrace
 10
2988.514607314727
 20
2347.411612172724
 30
0.0
 11
2988.339536360627
 21
2350.740344855313
 31
0.0
 12
2978.440873789907
 22
2348.550765651717
 32
0.0
 13
2978.440873789907
 23
2348.550765651717
 33
0.0
  0
SOLID
  5
1E8
330
1E3
100
AcDbEntity
  8
cotas
100
AcDbTrace
 10
3048.814721039524
 20
2410.169143325684
 30
0.0
 11
3052.139891330557
 21
2409.93600464004
 31
0.0
 12
3051.176722241972
 22
2420.028084855961
 32
0.0
 13
3051.176722241972
 23
2420.028084855961
 33
0.0
  0
MTEXT
  5
1E9
330
1E3
100
AcDbEntity
  8
cotas
100
AcDbMText
 10
3007.043811180821
 20
2365.181365551863
 30
0.0
 40
10.0
 41
0.0
 71
     5
 72
     1
  1
91°
  7
SANINDUSA
 11
0.8948709554362251
 21
0.4463249635822062
 31
0.0
 73
     1
 44
1.0
1001
ACAD
1000
MTEXTBEGIN
1070
    73
1070
     1
1070
    44
1040
1.0
1070
    74
1070
     0
1000
MTEXTEND
  0
POINT
  5
1EA
330
1E3
100
AcDbEntity
  8
Defpoints
 62
     0
100
AcDbPoint
 10
3041.390121233347
 20
2383.924406897033
 30
0.0
  0
POINT
  5
1EB
330
1E3
100
AcDbEntity
  8
Defpoints
 62
     0
100
AcDbPoint
 10
2986.567395879321
 20
2420.028084855961
 30
0.0
  0
POINT
  5
1EC
330
1E3
100
AcDbEntity
  8
Defpoints
 62
     0
100
AcDbPoint
 10
2978.990312440382
 20
2380.028084855961
 30
0.0
  0
POINT
  5
1ED
330
1E3
100
AcDbEntity
  8
Defpoints
 62
     0
100
AcDbPoint
 10
2979.568462013225
 20
2413.150251701021
 30
0.0
  0
POINT
  5
1EE
330
1E3
100
AcDbEntity
  8
Defpoints
 62
     0
100
AcDbPoint
 10
3722.809634195701
 20
2420.028084855961
 30
0.0
  0
ENDBLK
  5
1EF
330
1E3
100
AcDbEntity
  8
0
100
AcDbBlockEnd
  0
BLOCK
  5
1F1
330
1F0
100
AcDbEntity
  8
0
100
AcDbBlockBegin
  2
*D40
 70
     1
 10
0.0
 20
0.0
 30
0.0
  3
*D40
  1

  0
LINE
  5
1F2
330
1F0
100
AcDbEntity
  8
cotas
100
AcDbLine
 10
3780.473997783076
 20
2375.028846380179
 30
0.0
 11
3781.046623222646
 21
2342.223156918403
 31
0.0
  0
ARC
  5
1F3
330
1F0
100
AcDbEntity
  8
cotas
100
AcDbCircle
 10
3779.688533153761
 20
2420.028084855961
 30
0.0
 40
72.81677981003689
100
AcDbArc
 50
187.8746821700983
 51
263.125317829902
  0
SOLID
  5
1F4
330
1F0
100
AcDbEntity
  8
cotas
100
AcDbTrace
 10
3705.895675362641
 20
2409.937244972551
 30
0.0
 11
3709.221141161644
 21
2410.166129945357
 31
0.0
 12
3706.871753343723
 22
2420.028084855961
 32
0.0
 13
3706.871753343723
 23
2420.028084855961
 33
0.0
  0
SOLID
  5
1F5
330
1F0
100
AcDbEntity
  8
cotas
100
AcDbTrace
 10
3771.057905832279
 20
2349.399310543595
 30
0.0
 11
3770.88709310048
 21
2346.070356635568
 31
0.0
 12
3780.95936119046
 22
2347.222395394185
 32
0.0
 13
3780.95936119046
 23
2347.222395394185
 33
0.0
  0
MTEXT
  5
1F6
330
1F0
100
AcDbEntity
  8
cotas
100
AcDbMText
 10
3750.623114851958
 20
2364.563699232932
 30
0.0
 40
10.0
 41
0.0
 71
     5
 72
     1
  1
91°
  7
SANINDUSA
 11
0.8857485194793804
 21
-0.4641654449009379
 31
0.0
 73
     1
 44
1.0
1001
ACAD
1000
MTEXTBEGIN
1070
    73
1070
     1
1070
    44
1040
1.0
1070
    74
1070
     0
1000
MTEXTEND
  0
POINT
  5
1F7
330
1F0
100
AcDbEntity
  8
Defpoints
 62
     0
100
AcDbPoint
 10
3716.840233441365
 20
2383.253438084519
 30
0.0
  0
POINT
  5
1F8
330
1F0
100
AcDbEntity
  8
Defpoints
 62
     0
100
AcDbPoint
 10
3779.808586178045
 20
2413.150251701022
 30
0.0
  0
POINT
  5
1F9
330
1F0
100
AcDbEntity
  8
Defpoints
 62
     0
100
AcDbPoint
 10
3036.56741399557
 20
2420.028084855961
 30
0.0
  0
POINT
  5
1FA
330
1F0
100
AcDbEntity
  8
Defpoints
 62
     0
100
AcDbPoint
 10
3772.809652311951
 20
2420.028084855961
 30
0.0
  0
POINT
  5
1FB
330
1F0
100
AcDbEntity
  8
Defpoints
 62
     0
100
AcDbPoint
 10
3780.38673575089
 20
2380.028084855961
 30
0.0
  0
ENDBLK
  5
1FC
330
1F0
100
AcDbEntity
  8
0
100
AcDbBlockEnd
  0
BLOCK
  5
1FE
330
1FD
100
AcDbEntity
  8
0
100
AcDbBlockBegin
  2
*D41
 70
     1
 10
0.0
 20
0.0
 30
0.0
  3
*D41
  1

  0
LINE
  5
1FF
330
1FD
100
AcDbEntity
  8
cotas
100
AcDbLine
 10
5644.696931850578
 20
3308.033268703357
 30
0.0
 11
5644.696931850578
 21
3336.433703921889
 31
0.0
  0
LINE
  5
200
330
1FD
100
AcDbEntity
  8
cotas
100
AcDbLine
 10
5574.577794577419
 20
3308.033271976573
 30
0.0
 11
5574.577794577419
 21
3336.433703921889
 31
0.0
  0
LINE
  5
201
330
1FD
100
AcDbEntity
  8
cotas
100
AcDbLine
 10
5634.696931850578
 20
3331.433703921889
 30
0.0
 11
5584.577794577419
 21
3331.433703921889
 31
0.0
  0
SOLID
  5
202
330
1FD
100
AcDbEntity
  8
cotas
100
AcDbTrace
 10
5634.696931850578
 20
3333.100370588556
 30
0.0
 11
5634.696931850578
 21
3329.767037255223
 31
0.0
 12
5644.696931850578
 22
3331.433703921889
 32
0.0
 13
5644.696931850578
 23
3331.433703921889
 33
0.0
  0
SOLID
  5
203
330
1FD
100
AcDbEntity
  8
cotas
100
AcDbTrace
 10
5584.577794577419
 20
3333.100370588556
 30
0.0
 11
5584.577794577419
 21
3329.767037255223
 31
0.0
 12
5574.577794577419
 22
3331.433703921889
 32
0.0
 13
5574.577794577419
 23
3331.433703921889
 33
0.0
  0
MTEXT
  5
204
330
1FD
100
AcDbEntity
  8
cotas
100
AcDbMText
 10
5609.637363213998
 20
3341.638539381929
 30
0.0
 40
10.0
 41
0.0
 71
     5
 72
     1
  1
70
  7
SANINDUSA
 73
     1
 44
1.0
1001
ACAD
1000
MTEXTBEGIN
1070
    73
1070
     1
1070
    44
1040
1.0
1070
    74
1070
     0
1000
MTEXTEND
  0
POINT
  5
205
330
1FD
100
AcDbEntity
  8
Defpoints
 62
     0
100
AcDbPoint
 10
5644.696931850578
 20
3303.033268703357
 30
0.0
  0
POINT
  5
206
330
1FD
100
AcDbEntity
  8
Defpoints
 62
     0
100
AcDbPoint
 10
5574.577794577419
 20
3303.033271976573
 30
0.0
  0
POINT
  5
207
330
1FD
100
AcDbEntity
  8
Defpoints
 62
     0
100
AcDbPoint
 10
5574.577794577419
 20
3331.433703921889
 30
0.0
  0
ENDBLK
  5
208
330
1FD
100
AcDbEntity
  8
0
100
AcDbBlockEnd
  0
BLOCK
  5
20A
330
209
100
AcDbEntity
  8
0
100
AcDbBlockBegin
  2
*D42
 70
     1
 10
0.0
 20
0.0
 30
0.0
  3
*D42
  1

  0
LINE
  5
20B
330
209
100
AcDbEntity
  8
cotas
100
AcDbLine
 10
5644.696931850578
 20
3308.033268703357
 30
0.0
 11
5644.696931850578
 21
3366.433703921889
 31
0.0
  0
LINE
  5
20C
330
209
100
AcDbEntity
  8
cotas
100
AcDbLine
 10
5464.962486811558
 20
3221.454445049778
 30
0.0
 11
5464.962486811558
 21
3366.433703921889
 31
0.0
  0
LINE
  5
20D
330
209
100
AcDbEntity
  8
cotas
100
AcDbLine
 10
5634.696931850578
 20
3361.433703921889
 30
0.0
 11
5474.962486811559
 21
3361.433703921889
 31
0.0
  0
SOLID
  5
20E
330
209
100
AcDbEntity
  8
cotas
100
AcDbTrace
 10
5634.696931850578
 20
3363.100370588556
 30
0.0
 11
5634.696931850578
 21
3359.767037255223
 31
0.0
 12
5644.696931850578
 22
3361.433703921889
 32
0.0
 13
5644.696931850578
 23
3361.433703921889
 33
0.0
  0
SOLID
  5
20F
330
209
100
AcDbEntity
  8
cotas
100
AcDbTrace
 10
5474.962486811559
 20
3363.100370588556
 30
0.0
 11
5474.962486811559
 21
3359.767037255223
 31
0.0
 12
5464.962486811558
 22
3361.433703921889
 32
0.0
 13
5464.962486811558
 23
3361.433703921889
 33
0.0
  0
MTEXT
  5
210
330
209
100
AcDbEntity
  8
cotas
100
AcDbMText
 10
5554.829709331069
 20
3371.662045090459
 30
0.0
 40
10.0
 41
0.0
 71
     5
 72
     1
  1
180
  7
SANINDUSA
 73
     1
 44
1.0
1001
ACAD
1000
MTEXTBEGIN
1070
    73
1070
     1
1070
    44
1040
1.0
1070
    74
1070
     0
1000
MTEXTEND
  0
POINT
  5
211
330
209
100
AcDbEntity
  8
Defpoints
 62
     0
100
AcDbPoint
 10
5644.696931850578
 20
3303.033268703357
 30
0.0
  0
POINT
  5
212
330
209
100
AcDbEntity
  8
Defpoints
 62
     0
100
AcDbPoint
 10
5464.962486811558
 20
3216.454445049778
 30
0.0
  0
POINT
  5
213
330
209
100
AcDbEntity
  8
Defpoints
 62
     0
100
AcDbPoint
 10
5464.962486811558
 20
3361.433703921889
 30
0.0
  0
ENDBLK
  5
214
330
209
100
AcDbEntity
  8
0
100
AcDbBlockEnd
  0
BLOCK
  5
216
330
215
100
AcDbEntity
  8
0
100
AcDbBlockBegin
  2
*D43
 70
     1
 10
0.0
 20
0.0
 30
0.0
  3
*D43
  1

  0
LINE
  5
217
330
215
100
AcDbEntity
  8
cotas
100
AcDbLine
 10
5571.691812597021
 20
3257.048985256469
 30
0.0
 11
5571.691812597021
 21
3288.806530734353
 31
0.0
  0
ARC
  5
218
330
215
100
AcDbEntity
  8
cotas
100
AcDbCircle
 10
5571.691812597021
 20
3216.97782935557
 30
0.0
 40
66.82870137878295
100
AcDbArc
 50
70.78829890688675
 51
88.00000000000048
  0
LINE
  5
219
330
215
100
AcDbEntity
  8
cotas
100
AcDbLine
 10
5593.682431850692
 20
3280.084786125918
 30
0.0
 11
5616.424491958908
 21
3272.159954847746
 31
0.0
  0
ARC
  5
21A
330
215
100
AcDbEntity
  8
cotas
100
AcDbCircle
 10
5571.691812597021
 20
3216.97782935557
 30
0.0
 40
66.82870137878295
100
AcDbArc
 50
70.83690448436756
 51
79.41845224218401
  0
ARC
  5
21B
330
215
100
AcDbEntity
  8
cotas
100
AcDbCircle
 10
5571.691812597021
 20
3216.97782935557
 30
0.0
 40
66.82870137878295
100
AcDbArc
 50
98.58154775781716
 51
107.1630955156336
  0
ARC
  5
21C
330
215
100
AcDbEntity
  8
cotas
100
AcDbCircle
 10
5571.691812597021
 20
3216.97782935557
 30
0.0
 40
66.82870137878295
100
AcDbArc
 50
88.00000000000048
 51
90.00000000000072
  0
SOLID
  5
21D
330
215
100
AcDbEntity
  8
cotas
100
AcDbTrace
 10
5583.781263007217
 20
3281.013446914781
 30
0.0
 11
5584.146510526962
 21
3284.326708957003
 31
0.0
 12
5574.024100640422
 22
3283.765820495124
 32
0.0
 13
5574.024100640422
 23
3283.765820495124
 33
0.0
  0
SOLID
  5
21E
330
215
100
AcDbEntity
  8
cotas
100
AcDbTrace
 10
5561.595143734112
 20
3284.720344528593
 30
0.0
 11
5561.844537577218
 21
3281.396353881474
 31
0.0
 12
5571.69181259702
 22
3283.806530734352
 32
0.0
 13
5571.69181259702
 23
3283.806530734352
 33
0.0
  0
MTEXT
  5
21F
330
215
100
AcDbEntity
  8
cotas
100
AcDbMText
 10
5608.37831094496
 20
3285.663761851252
 30
0.0
 40
10.0
 41
0.0
 71
     5
 72
     1
  1
2°
  7
SANINDUSA
 11
0.944309188542504
 21
-0.3290595028778196
 31
0.0
 73
     1
 44
1.0
1001
ACAD
1000
MTEXTBEGIN
1070
    73
1070
     1
1070
    44
1040
1.0
1070
    74
1070
     0
1000
MTEXTEND
  0
POINT
  5
220
330
215
100
AcDbEntity
  8
Defpoints
 62
     0
100
AcDbPoint
 10
5572.469382300726
 20
3283.802006966151
 30
0.0
  0
POINT
  5
221
330
215
100
AcDbEntity
  8
Defpoints
 62
     0
100
AcDbPoint
 10
5571.484838811171
 20
3211.050875601071
 30
0.0
  0
POINT
  5
222
330
215
100
AcDbEntity
  8
Defpoints
 62
     0
100
AcDbPoint
 10
5571.691812597021
 20
3216.977829355561
 30
0.0
  0
POINT
  5
223
330
215
100
AcDbEntity
  8
Defpoints
 62
     0
100
AcDbPoint
 10
5571.691812597021
 20
3252.04898525647
 30
0.0
  0
POINT
  5
224
330
215
100
AcDbEntity
  8
Defpoints
 62
     0
100
AcDbPoint
 10
5574.461020506815
 20
3296.277568453491
 30
0.0
  0
ENDBLK
  5
225
330
215
100
AcDbEntity
  8
0
100
AcDbBlockEnd
  0
BLOCK
  5
227
330
226
100
AcDbEntity
  8
0
100
AcDbBlockBegin
  2
*D44
 70
     1
 10
0.0
 20
0.0
 30
0.0
  3
*D44
  1

  0
LINE
  5
228
330
226
100
AcDbEntity
  8
cotas
100
AcDbLine
 10
5606.355394051838
 20
2387.007872553938
 30
0.0
 11
5635.506279103992
 21
2411.116155629469
 31
0.0
  0
MTEXT
  5
229
330
226
100
AcDbEntity
  8
cotas
100
AcDbMText
 10
5610.038025293405
 20
2403.030210451389
 30
0.0
 40
10.0
 41
0.0
 71
     5
 72
     1
  1
R7
  7
SANINDUSA
 11
0.7706096535687146
 21
0.6373074311717271
 31
0.0
 73
     1
 44
1.0
1001
ACAD
1000
MTEXTBEGIN
1070
    73
1070
     1
1070
    44
1040
1.0
1070
    74
1070
     0
1000
MTEXTEND
  0
SOLID
  5
22A
330
226
100
AcDbEntity
  8
cotas
100
AcDbTrace
 10
5634.44410005204
 20
2412.400505052084
 30
0.0
 11
5636.568458155945
 21
2409.831806206854
 31
0.0
 12
5643.212375639681
 22
2417.489229941186
 32
0.0
 13
5643.212375639681
 23
2417.489229941186
 33
0.0
  0
POINT
  5
22B
330
226
100
AcDbEntity
  8
Defpoints
 62
     0
100
AcDbPoint
 10
5643.212375639681
 20
2417.489229941186
 30
0.0
  0
POINT
  5
22C
330
226
100
AcDbEntity
  8
Defpoints
 62
     0
100
AcDbPoint
 10
5637.818108064697
 20
2413.028077922982
 30
0.0
  0
ENDBLK
  5
22D
330
226
100
AcDbEntity
  8
0
100
AcDbBlockEnd
  0
BLOCK
  5
22F
330
22E
100
AcDbEntity
  8
0
100
AcDbBlockBegin
  2
*D45
 70
     1
 10
0.0
 20
0.0
 30
0.0
  3
*D45
  1

  0
LINE
  5
230
330
22E
100
AcDbEntity
  8
cotas
100
AcDbLine
 10
3986.898709044485
 20
2389.041429114339
 30
0.0
 11
3954.05767035417
 21
2411.342729794002
 31
0.0
  0
MTEXT
  5
231
330
22E
100
AcDbEntity
  8
cotas
100
AcDbMText
 10
3981.721274748372
 20
2404.644994689902
 30
0.0
 40
10.0
 41
0.0
 71
     5
 72
     1
  1
R7
  7
SANINDUSA
 11
0.827284828294481
 21
-0.5617827096607467
 31
0.0
 73
     1
 44
1.0
1001
ACAD
1000
MTEXTBEGIN
1070
    73
1070
     1
1070
    44
1040
1.0
1070
    74
1070
     0
1000
MTEXTEND
  0
SOLID
  5
232
330
22E
100
AcDbEntity
  8
cotas
100
AcDbTrace
 10
3954.993974870271
 20
2412.72153784116
 30
0.0
 11
3953.121365838068
 21
2409.963921746845
 31
0.0
 12
3945.784822071225
 22
2416.96055689061
 32
0.0
 13
3945.784822071225
 23
2416.96055689061
 33
0.0
  0
POINT
  5
233
330
22E
100
AcDbEntity
  8
Defpoints
 62
     0
100
AcDbPoint
 10
3945.784822071225
 20
2416.96055689061
 30
0.0
  0
POINT
  5
234
330
22E
100
AcDbEntity
  8
Defpoints
 62
     0
100
AcDbPoint
 10
3951.575815869283
 20
2413.028077922987
 30
0.0
  0
ENDBLK
  5
235
330
22E
100
AcDbEntity
  8
0
100
AcDbBlockEnd
  0
BLOCK
  5
237
330
236
100
AcDbEntity
  8
0
100
AcDbBlockBegin
  2
*D46
 70
     1
 10
0.0
 20
0.0
 30
0.0
  3
*D46
  1

  0
LINE
  5
238
330
236
100
AcDbEntity
  8
cotas
100
AcDbLine
 10
3739.138940339315
 20
2387.110868246629
 30
0.0
 11
3770.432349222494
 21
2411.198213270069
 31
0.0
  0
MTEXT
  5
239
330
236
100
AcDbEntity
  8
cotas
100
AcDbMText
 10
3743.379865146616
 20
2402.994559295636
 30
0.0
 40
10.0
 41
0.0
 71
     5
 72
     1
  1
R7
  7
SANINDUSA
 11
0.7924343631524366
 21
0.6099571952974998
 31
0.0
 73
     1
 44
1.0
1001
ACAD
1000
MTEXTBEGIN
1070
    73
1070
     1
1070
    44
1040
1.0
1070
    74
1070
     0
1000
MTEXTEND
  0
SOLID
  5
23A
330
236
100
AcDbEntity
  8
cotas
100
AcDbTrace
 10
3769.415753896999
 20
2412.518937208657
 30
0.0
 11
3771.448944547991
 21
2409.877489331482
 31
0.0
 12
3778.356692854019
 22
2417.297785223044
 32
0.0
 13
3778.356692854019
 23
2417.297785223044
 33
0.0
  0
POINT
  5
23B
330
236
100
AcDbEntity
  8
Defpoints
 62
     0
100
AcDbPoint
 10
3778.356692854019
 20
2417.297785223044
 30
0.0
  0
POINT
  5
23C
330
236
100
AcDbEntity
  8
Defpoints
 62
     0
100
AcDbPoint
 10
3772.80965231195
 20
2413.02808485596
 30
0.0
  0
ENDBLK
  5
23D
330
236
100
AcDbEntity
  8
0
100
AcDbBlockEnd
  0
BLOCK
  5
23F
330
23E
100
AcDbEntity
  8
0
100
AcDbBlockBegin
  2
*D47
 70
     1
 10
0.0
 20
0.0
 30
0.0
  3
*D47
  1

  0
LINE
  5
240
330
23E
100
AcDbEntity
  8
cotas
100
AcDbLine
 10
3021.070388176928
 20
2388.57229913311
 30
0.0
 11
2989.014928295873
 21
2411.293269283662
 31
0.0
  0
MTEXT
  5
241
330
23E
100
AcDbEntity
  8
cotas
100
AcDbMText
 10
3016.207135214751
 20
2404.276625135436
 30
0.0
 40
10.0
 41
0.0
 71
     5
 72
     1
  1
R7
  7
SANINDUSA
 11
0.815844138851682
 21
-0.578271857435028
 31
0.0
 73
     1
 44
1.0
1001
ACAD
1000
MTEXTBEGIN
1070
    73
1070
     1
1070
    44
1040
1.0
1070
    74
1070
     0
1000
MTEXTEND
  0
SOLID
  5
242
330
23E
100
AcDbEntity
  8
cotas
100
AcDbTrace
 10
2989.97871472493
 20
2412.653009515081
 30
0.0
 11
2988.051141866814
 21
2409.933529052243
 31
0.0
 12
2980.856486907356
 22
2417.075987858012
 32
0.0
 13
2980.856486907356
 23
2417.075987858012
 33
0.0
  0
POINT
  5
243
330
23E
100
AcDbEntity
  8
Defpoints
 62
     0
100
AcDbPoint
 10
2980.856486907356
 20
2417.075987858012
 30
0.0
  0
POINT
  5
244
330
23E
100
AcDbEntity
  8
Defpoints
 62
     0
100
AcDbPoint
 10
2986.567395879323
 20
2413.028084855963
 30
0.0
  0
ENDBLK
  5
245
330
23E
100
AcDbEntity
  8
0
100
AcDbBlockEnd
  0
BLOCK
  5
247
330
246
100
AcDbEntity
  8
0
100
AcDbBlockBegin
  2
*D48
 70
     1
 10
0.0
 20
0.0
 30
0.0
  3
*D48
  1

  0
LINE
  5
248
330
246
100
AcDbEntity
  8
cotas
100
AcDbLine
 10
4047.771882957902
 20
3243.358635299158
 30
0.0
 11
3913.875763529891
 21
3243.358635299158
 31
0.0
  0
LINE
  5
249
330
246
100
AcDbEntity
  8
cotas
100
AcDbLine
 10
4047.597358340222
 20
3233.360126648584
 30
0.0
 11
3913.875763529891
 21
3233.360126648584
 31
0.0
  0
LINE
  5
24A
330
246
100
AcDbEntity
  8
cotas
100
AcDbLine
 10
3918.875763529891
 20
3253.358635299158
 30
0.0
 11
3918.875763529891
 21
3263.358635299157
 31
0.0
  0
LINE
  5
24B
330
246
100
AcDbEntity
  8
cotas
100
AcDbLine
 10
3918.875763529891
 20
3223.360126648584
 30
0.0
 11
3918.875763529891
 21
3188.645553109295
 31
0.0
  0
LINE
  5
24C
330
246
100
AcDbEntity
  8
cotas
100
AcDbLine
 10
3918.875763529891
 20
3243.358635299158
 30
0.0
 11
3918.875763529891
 21
3233.360126648584
 31
0.0
  0
SOLID
  5
24D
330
246
100
AcDbEntity
  8
cotas
100
AcDbTrace
 10
3917.209096863224
 20
3253.358635299158
 30
0.0
 11
3920.542430196557
 21
3253.358635299158
 31
0.0
 12
3918.875763529891
 22
3243.358635299158
 32
0.0
 13
3918.875763529891
 23
3243.358635299158
 33
0.0
  0
SOLID
  5
24E
330
246
100
AcDbEntity
  8
cotas
100
AcDbTrace
 10
3917.209096863224
 20
3223.360126648584
 30
0.0
 11
3920.542430196557
 21
3223.360126648584
 31
0.0
 12
3918.875763529891
 22
3233.360126648584
 32
0.0
 13
3918.875763529891
 23
3233.360126648584
 33
0.0
  0
MTEXT
  5
24F
330
246
100
AcDbEntity
  8
cotas
100
AcDbMText
 10
3908.67092806985
 20
3201.00283987894
 30
0.0
 40
10.0
 41
0.0
 71
     5
 72
     1
  1
10
  7
SANINDUSA
 11
0.0000000000000001
 21
1.0
 31
0.0
 73
     1
 44
1.0
1001
ACAD
1000
MTEXTBEGIN
1070
    73
1070
     1
1070
    44
1040
1.0
1070
    74
1070
     0
1000
MTEXTEND
  0
POINT
  5
250
330
246
100
AcDbEntity
  8
Defpoints
 62
     0
100
AcDbPoint
 10
4052.771882957903
 20
3243.358635299158
 30
0.0
  0
POINT
  5
251
330
246
100
AcDbEntity
  8
Defpoints
 62
     0
100
AcDbPoint
 10
4052.597358340221
 20
3233.360126648584
 30
0.0
  0
POINT
  5
252
330
246
100
AcDbEntity
  8
Defpoints
 62
     0
100
AcDbPoint
 10
3918.875763529891
 20
3233.360126648584
 30
0.0
  0
ENDBLK
  5
253
330
246
100
AcDbEntity
  8
0
100
AcDbBlockEnd
  0
BLOCK
  5
255
330
254
100
AcDbEntity
  8
0
100
AcDbBlockBegin
  2
*D49
 70
     1
 10
0.0
 20
0.0
 30
0.0
  3
*D49
  1

  0
LINE
  5
256
330
254
100
AcDbEntity
  8
cotas
100
AcDbLine
 10
4082.137994360317
 20
3203.035341097531
 30
0.0
 11
4059.858331949691
 21
3233.833870096287
 31
0.0
  0
MTEXT
  5
257
330
254
100
AcDbEntity
  8
cotas
100
AcDbMText
 10
4082.591989641115
 20
3219.469177315727
 30
0.0
 40
10.0
 41
0.0
 71
     5
 72
     1
  1
R7
  7
SANINDUSA
 11
0.5861176360132861
 21
-0.8102259664773754
 31
0.0
 73
     1
 44
1.0
1001
ACAD
1000
MTEXTBEGIN
1070
    73
1070
     1
1070
    44
1040
1.0
1070
    74
1070
     0
1000
MTEXTEND
  0
SOLID
  5
258
330
254
100
AcDbEntity
  8
cotas
100
AcDbTrace
 10
4061.208708560488
 20
3234.810732822977
 30
0.0
 11
4058.507955338895
 21
3232.857007369599
 31
0.0
 12
4053.997155589559
 22
3241.936129761061
 32
0.0
 13
4053.997155589559
 23
3241.936129761061
 33
0.0
  0
POINT
  5
259
330
254
100
AcDbEntity
  8
Defpoints
 62
     0
100
AcDbPoint
 10
4053.997155589559
 20
3241.936129761061
 30
0.0
  0
POINT
  5
25A
330
254
100
AcDbEntity
  8
Defpoints
 62
     0
100
AcDbPoint
 10
4058.099979041652
 20
3236.26454799572
 30
0.0
  0
ENDBLK
  5
25B
330
254
100
AcDbEntity
  8
0
100
AcDbBlockEnd
  0
BLOCK
  5
25D
330
25C
100
AcDbEntity
  8
0
100
AcDbBlockBegin
  2
*D50
 70
     1
 10
0.0
 20
0.0
 30
0.0
  3
*D50
  1

  0
LINE
  5
25E
330
25C
100
AcDbEntity
  8
cotas
100
AcDbLine
 10
3976.608025373625
 20
3201.241835599055
 30
0.0
 11
4013.152228818441
 21
3232.989276980783
 31
0.0
  0
MTEXT
  5
25F
330
25C
100
AcDbEntity
  8
cotas
100
AcDbMText
 10
3983.190187818723
 20
3220.22881855145
 30
0.0
 40
10.0
 41
0.0
 71
     5
 72
     1
  1
R17
  7
SANINDUSA
 11
0.7549135975688773
 21
0.6558242601532938
 31
0.0
 73
     1
 44
1.0
1001
ACAD
1000
MTEXTBEGIN
1070
    73
1070
     1
1070
    44
1040
1.0
1070
    74
1070
     0
1000
MTEXTEND
  0
LINE
  5
260
330
25C
100
AcDbEntity
  8
cotas
100
AcDbLine
 10
4033.534895952801
 20
3250.696532004923
 30
0.0
 11
4020.701364794129
 21
3239.547519582316
 31
0.0
  0
SOLID
  5
261
330
25C
100
AcDbEntity
  8
cotas
100
AcDbTrace
 10
4012.059188384852
 20
3234.247466310065
 30
0.0
 11
4014.245269252029
 21
3231.731087651501
 31
0.0
 12
4020.701364794129
 22
3239.547519582316
 32
0.0
 13
4020.701364794129
 23
3239.547519582316
 33
0.0
  0
POINT
  5
262
330
25C
100
AcDbEntity
  8
Defpoints
 62
     0
100
AcDbPoint
 10
4020.701364794129
 20
3239.547519582316
 30
0.0
  0
POINT
  5
263
330
25C
100
AcDbEntity
  8
Defpoints
 62
     0
100
AcDbPoint
 10
4033.534895952801
 20
3250.696532004923
 30
0.0
  0
ENDBLK
  5
264
330
25C
100
AcDbEntity
  8
0
100
AcDbBlockEnd
  0
BLOCK
  5
266
330
265
100
AcDbEntity
  8
0
100
AcDbBlockBegin
  2
*D51
 70
     1
 10
0.0
 20
0.0
 30
0.0
  3
*D51
  1

  0
LINE
  5
267
330
265
100
AcDbEntity
  8
cotas
100
AcDbLine
 10
4057.161953348991
 20
3180.35888472474
 30
0.0
 11
4047.185955526431
 21
3224.035972080687
 31
0.0
  0
MTEXT
  5
268
330
265
100
AcDbEntity
  8
cotas
100
AcDbMText
 10
4063.235933843535
 20
3199.595260385156
 30
0.0
 40
10.0
 41
0.0
 71
     5
 72
     1
  1
R10
  7
SANINDUSA
 11
0.2226691764022208
 21
-0.9748940649528833
 31
0.0
 73
     1
 44
1.0
1001
ACAD
1000
MTEXTBEGIN
1070
    73
1070
     1
1070
    44
1040
1.0
1070
    74
1070
     0
1000
MTEXTEND
  0
LINE
  5
269
330
265
100
AcDbEntity
  8
cotas
100
AcDbLine
 10
4042.732571998387
 20
3243.533853379743
 30
0.0
 11
4044.959263762408
 21
3233.784912730217
 31
0.0
  0
SOLID
  5
26A
330
265
100
AcDbEntity
  8
cotas
100
AcDbTrace
 10
4048.810778968019
 20
3224.407087374692
 30
0.0
 11
4045.561132084841
 21
3223.664856786685
 31
0.0
 12
4044.959263762408
 22
3233.784912730217
 32
0.0
 13
4044.959263762408
 23
3233.784912730217
 33
0.0
  0
POINT
  5
26B
330
265
100
AcDbEntity
  8
Defpoints
 62
     0
100
AcDbPoint
 10
4044.959263762408
 20
3233.784912730217
 30
0.0
  0
POINT
  5
26C
330
265
100
AcDbEntity
  8
Defpoints
 62
     0
100
AcDbPoint
 10
4042.732571998387
 20
3243.533853379743
 30
0.0
  0
ENDBLK
  5
26D
330
265
100
AcDbEntity
  8
0
100
AcDbBlockEnd
  0
BLOCK
  5
26F
330
26E
100
AcDbEntity
  8
0
100
AcDbBlockBegin
  2
*D52
 70
     1
 10
0.0
 20
0.0
 30
0.0
  3
*D52
  1

  0
LINE
  5
270
330
26E
100
AcDbEntity
  8
cotas
100
AcDbLine
 10
3047.182968594418
 20
2337.905294318935
 30
0.0
 11
3047.182968594418
 21
2287.158290956407
 31
0.0
  0
LINE
  5
271
330
26E
100
AcDbEntity
  8
cotas
100
AcDbLine
 10
3048.967595876226
 20
2328.923049369633
 30
0.0
 11
3050.424079155725
 21
2287.214864805281
 31
0.0
  0
ARC
  5
272
330
26E
100
AcDbEntity
  8
cotas
100
AcDbCircle
 10
3047.182968594418
 20
2380.028039791351
 30
0.0
 40
87.86974883494341
100
AcDbArc
 50
256.9306138357871
 51
270.0
  0
LINE
  5
273
330
26E
100
AcDbEntity
  8
cotas
100
AcDbLine
 10
3027.312906033826
 20
2294.434387140268
 30
0.0
 11
2990.462079900531
 21
2302.989089480907
 31
0.0
  0
ARC
  5
274
330
26E
100
AcDbEntity
  8
cotas
100
AcDbCircle
 10
3047.182968594418
 20
2380.028039791351
 30
0.0
 40
87.86974883494341
100
AcDbArc
 50
256.9518816378412
 51
263.4759408189206
  0
ARC
  5
275
330
26E
100
AcDbEntity
  8
cotas
100
AcDbCircle
 10
3047.182968594418
 20
2380.028039791351
 30
0.0
 40
87.86974883494341
100
AcDbArc
 50
278.5240610750783
 51
285.0481202561577
  0
ARC
  5
276
330
26E
100
AcDbEntity
  8
cotas
100
AcDbCircle
 10
3047.182968594418
 20
2380.028039791351
 30
0.0
 40
87.86974883494341
100
AcDbArc
 50
270.0
 51
272.0000018939989
  0
SOLID
  5
277
330
26E
100
AcDbEntity
  8
cotas
100
AcDbTrace
 10
3037.294008479778
 20
2294.391281244978
 30
0.0
 11
3037.10433379779
 21
2291.063348759767
 31
0.0
 12
3047.182968594418
 22
2292.158290956407
 32
0.0
 13
3047.182968594418
 23
2292.158290956407
 33
0.0
  0
SOLID
  5
278
330
26E
100
AcDbEntity
  8
cotas
100
AcDbTrace
 10
3060.360289627783
 20
2291.469283363245
 30
0.0
 11
3060.054587211968
 21
2294.788569000859
 31
0.0
 12
3050.249581507031
 22
2292.211818934608
 32
0.0
 13
3050.249581507031
 23
2292.211818934608
 33
0.0
  0
MTEXT
  5
279
330
26E
100
AcDbEntity
  8
cotas
100
AcDbMText
 10
3011.45329619894
 20
2309.764369369029
 30
0.0
 40
10.0
 41
0.0
 71
     5
 72
     1
  1
2,0°
  7
SANINDUSA
 11
0.974096930809077
 21
-0.2261308678361631
 31
0.0
 73
     1
 44
1.0
1001
ACAD
1000
MTEXTBEGIN
1070
    73
1070
     1
1070
    44
1040
1.0
1070
    74
1070
     0
1000
MTEXTEND
  0
POINT
  5
27A
330
26E
100
AcDbEntity
  8
Defpoints
 62
     0
100
AcDbPoint
 10
3049.227607882578
 20
2292.182082511022
 30
0.0
  0
POINT
  5
27B
330
26E
100
AcDbEntity
  8
Defpoints
 62
     0
100
AcDbPoint
 10
3047.182967020725
 20
2380.028084855961
 30
0.0
  0
POINT
  5
27C
330
26E
100
AcDbEntity
  8
Defpoints
 62
     0
100
AcDbPoint
 10
3047.182968594418
 20
2380.028084855961
 30
0.0
  0
POINT
  5
27D
330
26E
100
AcDbEntity
  8
Defpoints
 62
     0
100
AcDbPoint
 10
3047.182968594418
 20
2342.905294318935
 30
0.0
  0
POINT
  5
27E
330
26E
100
AcDbEntity
  8
Defpoints
 62
     0
100
AcDbPoint
 10
3048.793098227531
 20
2333.92000349896
 30
0.0
  0
ENDBLK
  5
27F
330
26E
100
AcDbEntity
  8
0
100
AcDbBlockEnd
  0
BLOCK
  5
281
330
280
100
AcDbEntity
  8
0
100
AcDbBlockBegin
  2
*D53
 70
     1
 10
0.0
 20
0.0
 30
0.0
  3
*D53
  1

  0
LINE
  5
282
330
280
100
AcDbEntity
  8
cotas
100
AcDbLine
 10
4012.191388584827
 20
2356.004209542794
 30
0.0
 11
4012.191388584827
 21
2307.283398763448
 31
0.0
  0
LINE
  5
283
330
280
100
AcDbEntity
  8
cotas
100
AcDbLine
 10
4012.822166265889
 20
2361.964983836
 30
0.0
 11
4014.730148185218
 21
2307.327713125275
 31
0.0
  0
ARC
  5
284
330
280
100
AcDbEntity
  8
cotas
100
AcDbCircle
 10
4012.191388584827
 20
2380.028032845693
 30
0.0
 40
67.74463408224457
100
AcDbArc
 50
253.022737310375
 51
270.0000000000001
  0
LINE
  5
285
330
280
100
AcDbEntity
  8
cotas
100
AcDbLine
 10
3992.410485138735
 20
2315.235662108132
 30
0.0
 11
3956.228364015092
 21
2326.281947901881
 31
0.0
  0
ARC
  5
286
330
280
100
AcDbEntity
  8
cotas
100
AcDbCircle
 10
4012.191388584827
 20
2380.028032845693
 30
0.0
 40
67.74463408224457
100
AcDbArc
 50
253.0693819011198
 51
261.53469095056
  0
ARC
  5
287
330
280
100
AcDbEntity
  8
cotas
100
AcDbCircle
 10
4012.191388584827
 20
2380.028032845693
 30
0.0
 40
67.74463408224457
100
AcDbArc
 50
280.4653157350582
 51
288.9306247844983
  0
ARC
  5
288
330
280
100
AcDbEntity
  8
cotas
100
AcDbCircle
 10
4012.191388584827
 20
2380.028032845693
 30
0.0
 40
67.74463408224457
100
AcDbArc
 50
270.0000000000001
 51
272.000006685618
  0
SOLID
  5
289
330
280
100
AcDbEntity
  8
cotas
100
AcDbTrace
 10
4002.341673810692
 20
2314.683585557425
 30
0.0
 11
4002.095651865302
 21
2311.359343641814
 31
0.0
 12
4012.191388584827
 22
2312.283398763449
 32
0.0
 13
4012.191388584827
 23
2312.283398763449
 33
0.0
  0
SOLID
  5
28A
330
280
100
AcDbEntity
  8
cotas
100
AcDbTrace
 10
4024.67748591344
 20
2311.753512339217
 30
0.0
 11
4024.315599081545
 21
2315.067143132171
 31
0.0
 12
4014.555650118631
 22
2312.324667240009
 32
0.0
 13
4014.555650118631
 23
2312.324667240009
 33
0.0
  0
MTEXT
  5
28B
330
280
100
AcDbEntity
  8
cotas
100
AcDbMText
 10
3977.63252591697
 20
2331.610872045376
 30
0.0
 40
10.0
 41
0.0
 71
     5
 72
     1
  1
2,0°
  7
SANINDUSA
 11
0.9564207057181953
 21
-0.291992180843099
 31
0.0
 73
     1
 44
1.0
1001
ACAD
1000
MTEXTBEGIN
1070
    73
1070
     1
1070
    44
1040
1.0
1070
    74
1070
     0
1000
MTEXTEND
  0
POINT
  5
28C
330
280
100
AcDbEntity
  8
Defpoints
 62
     0
100
AcDbPoint
 10
4013.767740788339
 20
2312.301741343296
 30
0.0
  0
POINT
  5
28D
330
280
100
AcDbEntity
  8
Defpoints
 62
     0
100
AcDbPoint
 10
4012.191387010688
 20
2380.028077922985
 30
0.0
  0
POINT
  5
28E
330
280
100
AcDbEntity
  8
Defpoints
 62
     0
100
AcDbPoint
 10
4012.191388584827
 20
2380.028077922985
 30
0.0
  0
POINT
  5
28F
330
280
100
AcDbEntity
  8
Defpoints
 62
     0
100
AcDbPoint
 10
4012.191388584827
 20
2361.004209542794
 30
0.0
  0
POINT
  5
290
330
280
100
AcDbEntity
  8
Defpoints
 62
     0
100
AcDbPoint
 10
4012.647668199302
 20
2366.961937950733
 30
0.0
  0
ENDBLK
  5
291
330
280
100
AcDbEntity
  8
0
100
AcDbBlockEnd
  0
BLOCK
  5
293
330
292
100
AcDbEntity
  8
0
100
AcDbBlockBegin
  2
*D54
 70
     1
 10
0.0
 20
0.0
 30
0.0
  3
*D54
  1

  0
LINE
  5
294
330
292
100
AcDbEntity
  8
cotas
100
AcDbLine
 10
4016.545251893524
 20
3258.516687574306
 30
0.0
 11
4016.545251893523
 21
3286.994320306376
 31
0.0
  0
ARC
  5
295
330
292
100
AcDbEntity
  8
cotas
100
AcDbCircle
 10
4016.545251893524
 20
3250.103240560284
 30
0.0
 40
31.89107974609296
100
AcDbArc
 50
53.91897204496098
 51
71.95948602247998
  0
ARC
  5
296
330
292
100
AcDbEntity
  8
cotas
100
AcDbCircle
 10
4016.545251893524
 20
3250.103240560284
 30
0.0
 40
31.89107974609296
100
AcDbArc
 50
110.0405139774846
 51
128.0810279550036
  0
ARC
  5
297
330
292
100
AcDbEntity
  8
cotas
100
AcDbCircle
 10
4016.545251893524
 20
3250.103240560284
 30
0.0
 40
31.89107974609296
100
AcDbArc
 50
89.99999999999896
 51
91.99999999996562
  0
SOLID
  5
298
330
292
100
AcDbEntity
  8
cotas
100
AcDbTrace
 10
4026.160275516998
 20
3278.78042881819
 30
0.0
 11
4026.68288769568
 21
3282.072538722463
 31
0.0
 12
4016.545251893524
 22
3281.994320306377
 32
0.0
 13
4016.545251893524
 23
3281.994320306377
 33
0.0
  0
SOLID
  5
299
330
292
100
AcDbEntity
  8
cotas
100
AcDbTrace
 10
4005.298079249415
 20
3281.699265502562
 30
0.0
 11
4005.935266045625
 21
3278.427399964701
 31
0.0
 12
4015.432269261105
 22
3281.974893122264
 32
0.0
 13
4015.432269261105
 23
3281.974893122264
 33
0.0
  0
MTEXT
  5
29A
330
292
100
AcDbEntity
  8
cotas
100
AcDbMText
 10
3991.461018411229
 20
3285.320751894574
 30
0.0
 40
10.0
 41
0.0
 71
     5
 72
     1
  1
2,0°
  7
SANINDUSA
 11
0.8145108468016392
 21
0.580148326242933
 31
0.0
 73
     1
 44
1.0
1001
ACAD
1000
MTEXTBEGIN
1070
    73
1070
     1
1070
    44
1040
1.0
1070
    74
1070
     0
1000
MTEXTEND
  0
POINT
  5
29B
330
292
100
AcDbEntity
  8
Defpoints
 62
     0
100
AcDbPoint
 10
4016.174190703991
 20
3281.992161535526
 30
0.0
  0
POINT
  5
29C
330
292
100
AcDbEntity
  8
Defpoints
 62
     0
100
AcDbPoint
 10
4016.545251893524
 20
3250.103240559998
 30
0.0
  0
POINT
  5
29D
330
292
100
AcDbEntity
  8
Defpoints
 62
     0
100
AcDbPoint
 10
4016.5452518935
 20
3250.103240560979
 30
0.0
  0
POINT
  5
29E
330
292
100
AcDbEntity
  8
Defpoints
 62
     0
100
AcDbPoint
 10
4014.932808845837
 20
3296.277568078933
 30
0.0
  0
POINT
  5
29F
330
292
100
AcDbEntity
  8
Defpoints
 62
     0
100
AcDbPoint
 10
4016.545251893524
 20
3253.516687574306
 30
0.0
  0
ENDBLK
  5
2A0
330
292
100
AcDbEntity
  8
0
100
AcDbBlockEnd
  0
BLOCK
  5
2A2
330
2A1
100
AcDbEntity
  8
0
100
AcDbBlockBegin
  2
*D55
 70
     1
 10
0.0
 20
0.0
 30
0.0
  3
*D55
  1

  0
LINE
  5
2A3
330
2A1
100
AcDbEntity
  8
cotas
100
AcDbLine
 10
4701.243887989848
 20
1576.095233429571
 30
0.0
 11
4661.28606618347
 21
1576.095233429571
 31
0.0
  0
LINE
  5
2A4
330
2A1
100
AcDbEntity
  8
cotas
100
AcDbLine
 10
4701.215556438886
 20
1656.121918109729
 30
0.0
 11
4661.28606618347
 21
1656.121918109729
 31
0.0
  0
LINE
  5
2A5
330
2A1
100
AcDbEntity
  8
cotas
100
AcDbLine
 10
4666.286066183471
 20
1586.095233429572
 30
0.0
 11
4666.286066183471
 21
1646.121918109729
 31
0.0
  0
SOLID
  5
2A6
330
2A1
100
AcDbEntity
  8
cotas
100
AcDbTrace
 10
4664.619399516804
 20
1586.095233429572
 30
0.0
 11
4667.952732850138
 21
1586.095233429572
 31
0.0
 12
4666.286066183471
 22
1576.095233429571
 32
0.0
 13
4666.286066183471
 23
1576.095233429571
 33
0.0
  0
SOLID
  5
2A7
330
2A1
100
AcDbEntity
  8
cotas
100
AcDbTrace
 10
4664.619399516804
 20
1646.121918109729
 30
0.0
 11
4667.952732850138
 21
1646.121918109729
 31
0.0
 12
4666.286066183471
 22
1656.121918109729
 32
0.0
 13
4666.286066183471
 23
1656.121918109729
 33
0.0
  0
MTEXT
  5
2A8
330
2A1
100
AcDbEntity
  8
cotas
100
AcDbMText
 10
4656.057725014902
 20
1616.108575769651
 30
0.0
 40
10.0
 41
0.0
 71
     5
 72
     1
  1
80
  7
SANINDUSA
 11
0.0000000000000001
 21
1.0
 31
0.0
 73
     1
 44
1.0
1001
ACAD
1000
MTEXTBEGIN
1070
    73
1070
     1
1070
    44
1040
1.0
1070
    74
1070
     0
1000
MTEXTEND
  0
POINT
  5
2A9
330
2A1
100
AcDbEntity
  8
Defpoints
 62
     0
100
AcDbPoint
 10
4706.243887989848
 20
1576.095233429571
 30
0.0
  0
POINT
  5
2AA
330
2A1
100
AcDbEntity
  8
Defpoints
 62
     0
100
AcDbPoint
 10
4706.215556438886
 20
1656.121918109729
 30
0.0
  0
POINT
  5
2AB
330
2A1
100
AcDbEntity
  8
Defpoints
 62
     0
100
AcDbPoint
 10
4666.286066183471
 20
1656.121918109729
 30
0.0
  0
ENDBLK
  5
2AC
330
2A1
100
AcDbEntity
  8
0
100
AcDbBlockEnd
  0
BLOCK
  5
2AE
330
2AD
100
AcDbEntity
  8
0
100
AcDbBlockBegin
  2
*D56
 70
     1
 10
0.0
 20
0.0
 30
0.0
  3
*D56
  1

  0
LINE
  5
2AF
330
2AD
100
AcDbEntity
  8
cotas
100
AcDbLine
 10
4696.168048230648
 20
1656.089336990128
 30
0.0
 11
4661.257734632509
 21
1656.089336990128
 31
0.0
  0
LINE
  5
2B0
330
2AD
100
AcDbEntity
  8
cotas
100
AcDbLine
 10
4719.383959342322
 20
1816.787079510683
 30
0.0
 11
4661.257734632509
 21
1816.787079510683
 31
0.0
  0
LINE
  5
2B1
330
2AD
100
AcDbEntity
  8
cotas
100
AcDbLine
 10
4666.257734632508
 20
1666.089336990127
 30
0.0
 11
4666.257734632508
 21
1806.787079510683
 31
0.0
  0
SOLID
  5
2B2
330
2AD
100
AcDbEntity
  8
cotas
100
AcDbTrace
 10
4664.591067965842
 20
1666.089336990127
 30
0.0
 11
4667.924401299176
 21
1666.089336990127
 31
0.0
 12
4666.257734632508
 22
1656.089336990128
 32
0.0
 13
4666.257734632508
 23
1656.089336990128
 33
0.0
  0
SOLID
  5
2B3
330
2AD
100
AcDbEntity
  8
cotas
100
AcDbTrace
 10
4664.591067965842
 20
1806.787079510683
 30
0.0
 11
4667.924401299176
 21
1806.787079510683
 31
0.0
 12
4666.257734632508
 22
1816.787079510683
 32
0.0
 13
4666.257734632508
 23
1816.787079510683
 33
0.0
  0
MTEXT
  5
2B4
330
2AD
100
AcDbEntity
  8
cotas
100
AcDbMText
 10
4654.914551287983
 20
1703.855453522893
 30
0.0
 40
10.0
 41
0.0
 71
     5
 72
     1
  1
160,7
  7
SANINDUSA
 11
0.0000000000000001
 21
1.0
 31
0.0
 73
     1
 44
1.0
1001
ACAD
1000
MTEXTBEGIN
1070
    73
1070
     1
1070
    44
1040
1.0
1070
    74
1070
     0
1000
MTEXTEND
  0
POINT
  5
2B5
330
2AD
100
AcDbEntity
  8
Defpoints
 62
     0
100
AcDbPoint
 10
4701.168048230649
 20
1656.089336990128
 30
0.0
  0
POINT
  5
2B6
330
2AD
100
AcDbEntity
  8
Defpoints
 62
     0
100
AcDbPoint
 10
4724.383959342321
 20
1816.787079510683
 30
0.0
  0
POINT
  5
2B7
330
2AD
100
AcDbEntity
  8
Defpoints
 62
     0
100
AcDbPoint
 10
4666.257734632508
 20
1816.787079510683
 30
0.0
  0
ENDBLK
  5
2B8
330
2AD
100
AcDbEntity
  8
0
100
AcDbBlockEnd
  0
BLOCK
  5
2BA
330
2B9
100
AcDbEntity
  8
0
100
AcDbBlockBegin
  2
*D57
 70
     1
 10
0.0
 20
0.0
 30
0.0
  3
*D57
  1

  0
LINE
  5
2BB
330
2B9
100
AcDbEntity
  8
cotas
100
AcDbLine
 10
4636.366448533711
 20
3260.982481746034
 30
0.0
 11
4608.696256196442
 21
3237.799948624147
 31
0.0
  0
MTEXT
  5
2BC
330
2B9
100
AcDbEntity
  8
cotas
100
AcDbMText
 10
4619.941894946772
 20
3260.267552357078
 30
0.0
 40
10.0
 41
0.0
 71
     5
 72
     1
  1
R7
  7
SANINDUSA
 11
0.7665286770268521
 21
0.6422100803440133
 31
0.0
 73
     1
 44
1.0
1001
ACAD
1000
MTEXTBEGIN
1070
    73
1070
     1
1070
    44
1040
1.0
1070
    74
1070
     0
1000
MTEXTEND
  0
LINE
  5
2BD
330
2B9
100
AcDbEntity
  8
cotas
100
AcDbLine
 10
4595.665268686756
 20
3226.882377258106
 30
0.0
 11
4601.030969426175
 21
3231.377847820706
 31
0.0
  0
SOLID
  5
2BE
330
2B9
100
AcDbEntity
  8
cotas
100
AcDbTrace
 10
4607.625906062536
 20
3239.077496419191
 30
0.0
 11
4609.766606330349
 21
3236.522400829102
 31
0.0
 12
4601.030969426175
 22
3231.377847820706
 32
0.0
 13
4601.030969426175
 23
3231.377847820706
 33
0.0
  0
POINT
  5
2BF
330
2B9
100
AcDbEntity
  8
Defpoints
 62
     0
100
AcDbPoint
 10
4601.030969426175
 20
3231.377847820706
 30
0.0
  0
POINT
  5
2C0
330
2B9
100
AcDbEntity
  8
Defpoints
 62
     0
100
AcDbPoint
 10
4595.665268686756
 20
3226.882377258106
 30
0.0
  0
ENDBLK
  5
2C1
330
2B9
100
AcDbEntity
  8
0
100
AcDbBlockEnd
  0
BLOCK
  5
2C3
330
2C2
100
AcDbEntity
  8
0
100
AcDbBlockBegin
  2
*D58
 70
     1
 10
0.0
 20
0.0
 30
0.0
  3
*D58
  1

  0
LINE
  5
2C4
330
2C2
100
AcDbEntity
  8
cotas
100
AcDbLine
 10
4568.608702218813
 20
3176.819487658689
 30
0.0
 11
4600.474547296279
 21
3208.369268356166
 31
0.0
  0
MTEXT
  5
2C5
330
2C2
100
AcDbEntity
  8
cotas
100
AcDbMText
 10
4573.940962847937
 20
3196.194661997809
 30
0.0
 40
10.0
 41
0.0
 71
     5
 72
     1
  1
R17
  7
SANINDUSA
 11
0.7106221854178575
 21
0.703573812468847
 31
0.0
 73
     1
 44
1.0
1001
ACAD
1000
MTEXTBEGIN
1070
    73
1070
     1
1070
    44
1040
1.0
1070
    74
1070
     0
1000
MTEXTEND
  0
LINE
  5
2C6
330
2C2
100
AcDbEntity
  8
cotas
100
AcDbLine
 10
4619.663757880693
 20
3227.368148951491
 30
0.0
 11
4607.580769150458
 21
3215.405006480855
 31
0.0
  0
SOLID
  5
2C7
330
2C2
100
AcDbEntity
  8
cotas
100
AcDbTrace
 10
4599.301924275498
 20
3209.553638665196
 30
0.0
 11
4601.64717031706
 21
3207.184898047137
 31
0.0
 12
4607.580769150458
 22
3215.405006480855
 32
0.0
 13
4607.580769150458
 23
3215.405006480855
 33
0.0
  0
POINT
  5
2C8
330
2C2
100
AcDbEntity
  8
Defpoints
 62
     0
100
AcDbPoint
 10
4607.580769150458
 20
3215.405006480855
 30
0.0
  0
POINT
  5
2C9
330
2C2
100
AcDbEntity
  8
Defpoints
 62
     0
100
AcDbPoint
 10
4619.663757880693
 20
3227.368148951491
 30
0.0
  0
ENDBLK
  5
2CA
330
2C2
100
AcDbEntity
  8
0
100
AcDbBlockEnd
  0
BLOCK
  5
2CC
330
2CB
100
AcDbEntity
  8
0
100
AcDbBlockBegin
  2
*D59
 70
     1
 10
0.0
 20
0.0
 30
0.0
  3
*D59
  1

  0
LINE
  5
2CD
330
2CB
100
AcDbEntity
  8
cotas
100
AcDbLine
 10
5610.436366969692
 20
3167.978005868386
 30
0.0
 11
5575.551342998624
 21
3196.153453461958
 31
0.0
  0
MTEXT
  5
2CE
330
2CB
100
AcDbEntity
  8
cotas
100
AcDbMText
 10
5603.177407542534
 20
3186.716679570733
 30
0.0
 40
10.0
 41
0.0
 71
     5
 72
     1
  1
R17
  7
SANINDUSA
 11
0.7779511860554313
 21
-0.6283247186884723
 31
0.0
 73
     1
 44
1.0
1001
ACAD
1000
MTEXTBEGIN
1070
    73
1070
     1
1070
    44
1040
1.0
1070
    74
1070
     0
1000
MTEXTEND
  0
LINE
  5
2CF
330
2CB
100
AcDbEntity
  8
cotas
100
AcDbLine
 10
5554.546705511087
 20
3213.118184896366
 30
0.0
 11
5567.771831138069
 21
3202.436700648843
 31
0.0
  0
SOLID
  5
2D0
330
2CB
100
AcDbEntity
  8
cotas
100
AcDbTrace
 10
5576.598550863105
 20
3197.450038772051
 30
0.0
 11
5574.504135134144
 21
3194.856868151866
 31
0.0
 12
5567.771831138069
 22
3202.436700648843
 32
0.0
 13
5567.771831138069
 23
3202.436700648843
 33
0.0
  0
POINT
  5
2D1
330
2CB
100
AcDbEntity
  8
Defpoints
 62
     0
100
AcDbPoint
 10
5567.771831138069
 20
3202.436700648843
 30
0.0
  0
POINT
  5
2D2
330
2CB
100
AcDbEntity
  8
Defpoints
 62
     0
100
AcDbPoint
 10
5554.546705511087
 20
3213.118184896366
 30
0.0
  0
ENDBLK
  5
2D3
330
2CB
100
AcDbEntity
  8
0
100
AcDbBlockEnd
  0
BLOCK
  5
2D5
330
2D4
100
AcDbEntity
  8
0
100
AcDbBlockBegin
  2
*D60
 70
     1
 10
0.0
 20
0.0
 30
0.0
  3
*D60
  1

  0
LINE
  5
2D6
330
2D4
100
AcDbEntity
  8
cotas
100
AcDbLine
 10
4102.460880968529
 20
1666.592452806738
 30
0.0
 11
4062.088629338779
 21
1698.848477469652
 31
0.0
  0
MTEXT
  5
2D7
330
2D4
100
AcDbEntity
  8
cotas
100
AcDbMText
 10
4095.236048361162
 20
1685.42681452654
 30
0.0
 40
10.0
 41
0.0
 71
     5
 72
     1
  1
R10
  7
SANINDUSA
 11
0.7812630148378288
 21
-0.6242019718380475
 31
0.0
 73
     1
 44
1.0
1001
ACAD
1000
MTEXTBEGIN
1070
    73
1070
     1
1070
    44
1040
1.0
1070
    74
1070
     0
1000
MTEXTEND
  0
SOLID
  5
2D8
330
2D4
100
AcDbEntity
  8
cotas
100
AcDbTrace
 10
4063.12896595851
 20
1700.150582494381
 30
0.0
 11
4061.048292719049
 21
1697.546372444923
 31
0.0
 12
4054.275999190401
 22
1705.090497188033
 32
0.0
 13
4054.275999190401
 23
1705.090497188033
 33
0.0
  0
POINT
  5
2D9
330
2D4
100
AcDbEntity
  8
Defpoints
 62
     0
100
AcDbPoint
 10
4054.275999190401
 20
1705.090497188033
 30
0.0
  0
POINT
  5
2DA
330
2D4
100
AcDbEntity
  8
Defpoints
 62
     0
100
AcDbPoint
 10
4062.782210386131
 20
1698.29433033973
 30
0.0
  0
ENDBLK
  5
2DB
330
2D4
100
AcDbEntity
  8
0
100
AcDbBlockEnd
  0
BLOCK
  5
2DD
330
2DC
100
AcDbEntity
  8
0
100
AcDbBlockBegin
  2
*D61
 70
     1
 10
0.0
 20
0.0
 30
0.0
  3
*D61
  1

  0
LINE
  5
2DE
330
2DC
100
AcDbEntity
  8
cotas
100
AcDbLine
 10
4553.696571895726
 20
1664.641537597994
 30
0.0
 11
4592.782005698923
 21
1698.455629875732
 31
0.0
  0
MTEXT
  5
2DF
330
2DC
100
AcDbEntity
  8
cotas
100
AcDbMText
 10
4560.179561404928
 20
1683.743951964257
 30
0.0
 40
10.0
 41
0.0
 71
     5
 72
     1
  1
R10
  7
SANINDUSA
 11
0.7562628930278429
 21
0.654267863056988
 31
0.0
 73
     1
 44
1.0
1001
ACAD
1000
MTEXTBEGIN
1070
    73
1070
     1
1070
    44
1040
1.0
1070
    74
1070
     0
1000
MTEXTEND
  0
SOLID
  5
2E0
330
2DC
100
AcDbEntity
  8
cotas
100
AcDbTrace
 10
4591.691559260494
 20
1699.716068030778
 30
0.0
 11
4593.872452137351
 21
1697.195191720685
 31
0.0
 12
4600.344634629201
 22
1704.998308506302
 32
0.0
 13
4600.344634629201
 23
1704.998308506302
 33
0.0
  0
POINT
  5
2E1
330
2DC
100
AcDbEntity
  8
Defpoints
 62
     0
100
AcDbPoint
 10
4600.344634629201
 20
1704.998308506302
 30
0.0
  0
POINT
  5
2E2
330
2DC
100
AcDbEntity
  8
Defpoints
 62
     0
100
AcDbPoint
 10
4592.662562558327
 20
1698.352295692506
 30
0.0
  0
ENDBLK
  5
2E3
330
2DC
100
AcDbEntity
  8
0
100
AcDbBlockEnd
  0
BLOCK
  5
2E5
330
2E4
100
AcDbEntity
  8
0
100
AcDbBlockBegin
  2
*D62
 70
     1
 10
0.0
 20
0.0
 30
0.0
  3
*D62
  1

  0
LINE
  5
2E6
330
2E4
100
AcDbEntity
  8
cotas
100
AcDbLine
 10
4550.690283718286
 20
1163.709868565688
 30
0.0
 11
4592.791353175129
 21
1133.733812742057
 31
0.0
  0
MTEXT
  5
2E7
330
2E4
100
AcDbEntity
  8
cotas
100
AcDbMText
 10
4570.784168168509
 20
1161.930206997322
 30
0.0
 40
10.0
 41
0.0
 71
     5
 72
     1
  1
R10
  7
SANINDUSA
 11
0.8146123373561025
 21
-0.5800058101667841
 31
0.0
 73
     1
 44
1.0
1001
ACAD
1000
MTEXTBEGIN
1070
    73
1070
     1
1070
    44
1040
1.0
1070
    74
1070
     0
1000
MTEXTEND
  0
SOLID
  5
2E8
330
2E4
100
AcDbEntity
  8
cotas
100
AcDbTrace
 10
4593.758029525406
 20
1135.091499970984
 30
0.0
 11
4591.824676824851
 21
1132.376125513131
 31
0.0
 12
4600.93747654869
 22
1127.93375464039
 32
0.0
 13
4600.93747654869
 23
1127.93375464039
 33
0.0
  0
POINT
  5
2E9
330
2E4
100
AcDbEntity
  8
Defpoints
 62
     0
100
AcDbPoint
 10
4600.93747654869
 20
1127.93375464039
 30
0.0
  0
POINT
  5
2EA
330
2E4
100
AcDbEntity
  8
Defpoints
 62
     0
100
AcDbPoint
 10
4592.662749955203
 20
1133.825378522911
 30
0.0
  0
ENDBLK
  5
2EB
330
2E4
100
AcDbEntity
  8
0
100
AcDbBlockEnd
  0
BLOCK
  5
E72
330
E65
100
AcDbEntity
  8
0
100
AcDbBlockBegin
  2
*D64
 70
     1
 10
0.0
 20
0.0
 30
0.0
  3
*D64
  1

  0
LINE
  5
880C
330
E65
100
AcDbEntity
  8
cotas
100
AcDbLine
 10
3090.560259385679
 20
1557.838121000775
 30
0.0
 11
3090.560259385682
 21
1586.315753732844
 31
0.0
  0
ARC
  5
880D
330
E65
100
AcDbEntity
  8
cotas
100
AcDbCircle
 10
3090.560259385678
 20
1549.424673986746
 30
0.0
 40
31.89107974609808
100
AcDbArc
 50
53.91897204496196
 51
71.95948602247803
  0
ARC
  5
880E
330
E65
100
AcDbEntity
  8
cotas
100
AcDbCircle
 10
3090.560259385678
 20
1549.424673986746
 30
0.0
 40
31.89107974609808
100
AcDbArc
 50
110.0405139774808
 51
128.0810279549968
  0
ARC
  5
880F
330
E65
100
AcDbEntity
  8
cotas
100
AcDbCircle
 10
3090.560259385678
 20
1549.424673986746
 30
0.0
 40
31.89107974609808
100
AcDbArc
 50
89.9999999999941
 51
91.99999999996474
  0
SOLID
  5
8810
330
E65
100
AcDbEntity
  8
cotas
100
AcDbTrace
 10
3100.175283009155
 20
1578.101862244658
 30
0.0
 11
3100.697895187837
 21
1581.393972148929
 31
0.0
 12
3090.560259385682
 22
1581.315753732844
 32
0.0
 13
3090.560259385682
 23
1581.315753732844
 33
0.0
  0
SOLID
  5
8811
330
E65
100
AcDbEntity
  8
cotas
100
AcDbTrace
 10
3079.313086741569
 20
1581.02069892903
 30
0.0
 11
3079.95027353778
 21
1577.748833391168
 31
0.0
 12
3089.44727675326
 22
1581.296326548731
 32
0.0
 13
3089.44727675326
 23
1581.296326548731
 33
0.0
  0
MTEXT
  5
8812
330
E65
100
AcDbEntity
  8
cotas
100
AcDbMText
 10
3065.476025903383
 20
1584.642185321043
 30
0.0
 40
10.0
 41
0.0
 71
     5
 72
     1
  1
2,0°
  7
SANINDUSA
 11
0.8145108468016367
 21
0.5801483262429365
 31
0.0
 73
     1
 44
1.0
1001
ACAD
1000
MTEXTBEGIN
1070
    73
1070
     1
1070
    44
1040
1.0
1070
    74
1070
     0
1000
MTEXTEND
  0
POINT
  5
8813
330
E65
100
AcDbEntity
  8
Defpoints
 62
     0
100
AcDbPoint
 10
3090.189198196148
 20
1581.313594961994
 30
0.0
  0
POINT
  5
8814
330
E65
100
AcDbEntity
  8
Defpoints
 62
     0
100
AcDbPoint
 10
3090.560259385679
 20
1549.424673986467
 30
0.0
  0
POINT
  5
8815
330
E65
100
AcDbEntity
  8
Defpoints
 62
     0
100
AcDbPoint
 10
3090.560259385654
 20
1549.424673987448
 30
0.0
  0
POINT
  5
8816
330
E65
100
AcDbEntity
  8
Defpoints
 62
     0
100
AcDbPoint
 10
3088.947816337991
 20
1595.599001505402
 30
0.0
  0
POINT
  5
8817
330
E65
100
AcDbEntity
  8
Defpoints
 62
     0
100
AcDbPoint
 10
3090.560259385679
 20
1552.838121000775
 30
0.0
  0
ENDBLK
  5
E73
330
E65
100
AcDbEntity
  8
0
100
AcDbBlockEnd
  0
BLOCK
  5
E7E
330
E74
100
AcDbEntity
  8
0
100
AcDbBlockBegin
  2
*D65
 70
     1
 10
0.0
 20
0.0
 30
0.0
  3
*D65
  1

  0
LINE
  5
87FA
330
E74
100
AcDbEntity
  8
cotas
100
AcDbLine
 10
-1010.461659349135
 20
1739.582554314259
 30
0.0
 11
-1045.371972947275
 21
1739.582554314259
 31
0.0
  0
LINE
  5
87FB
330
E74
100
AcDbEntity
  8
cotas
100
AcDbLine
 10
-987.2457482374629
 20
1900.280296834814
 30
0.0
 11
-1045.371972947275
 21
1900.280296834814
 31
0.0
  0
LINE
  5
87FC
330
E74
100
AcDbEntity
  8
cotas
100
AcDbLine
 10
-1040.371972947275
 20
1749.582554314259
 30
0.0
 11
-1040.371972947275
 21
1890.280296834814
 31
0.0
  0
SOLID
  5
87FD
330
E74
100
AcDbEntity
  8
cotas
100
AcDbTrace
 10
-1042.038639613942
 20
1749.582554314259
 30
0.0
 11
-1038.705306280609
 21
1749.582554314259
 31
0.0
 12
-1040.371972947275
 22
1739.582554314259
 32
0.0
 13
-1040.371972947275
 23
1739.582554314259
 33
0.0
  0
SOLID
  5
87FE
330
E74
100
AcDbEntity
  8
cotas
100
AcDbTrace
 10
-1042.038639613942
 20
1890.280296834814
 30
0.0
 11
-1038.705306280609
 21
1890.280296834814
 31
0.0
 12
-1040.371972947275
 22
1900.280296834814
 32
0.0
 13
-1040.371972947275
 23
1900.280296834814
 33
0.0
  0
MTEXT
  5
87FF
330
E74
100
AcDbEntity
  8
cotas
100
AcDbMText
 10
-1051.715156291802
 20
1787.348670847024
 30
0.0
 40
10.0
 41
0.0
 71
     5
 72
     1
  1
160,7
  7
SANINDUSA
 11
0.0000000000000001
 21
1.0
 31
0.0
 73
     1
 44
1.0
1001
ACAD
1000
MTEXTBEGIN
1070
    73
1070
     1
1070
    44
1040
1.0
1070
    74
1070
     0
1000
MTEXTEND
  0
POINT
  5
8800
330
E74
100
AcDbEntity
  8
Defpoints
 62
     0
100
AcDbPoint
 10
-1005.461659349135
 20
1739.582554314259
 30
0.0
  0
POINT
  5
8801
330
E74
100
AcDbEntity
  8
Defpoints
 62
     0
100
AcDbPoint
 10
-982.2457482374629
 20
1900.280296834814
 30
0.0
  0
POINT
  5
8802
330
E74
100
AcDbEntity
  8
Defpoints
 62
     0
100
AcDbPoint
 10
-1040.371972947275
 20
1900.280296834814
 30
0.0
  0
ENDBLK
  5
E7F
330
E74
100
AcDbEntity
  8
0
100
AcDbBlockEnd
  0
BLOCK
  5
E8A
330
E80
100
AcDbEntity
  8
0
100
AcDbBlockBegin
  2
*D66
 70
     1
 10
0.0
 20
0.0
 30
0.0
  3
*D66
  1

  0
LINE
  5
89D3
330
E80
100
AcDbEntity
  8
cotas
100
AcDbLine
 10
-1654.735263698751
 20
1786.785188314733
 30
0.0
 11
-1654.735263698751
 21
1940.280278702109
 31
0.0
  0
LINE
  5
89D4
330
E80
100
AcDbEntity
  8
cotas
100
AcDbLine
 10
-1103.809206404493
 20
1786.846344503267
 30
0.0
 11
-1103.809206404493
 21
1940.280278702109
 31
0.0
  0
LINE
  5
89D5
330
E80
100
AcDbEntity
  8
cotas
100
AcDbLine
 10
-1644.735263698752
 20
1935.280278702109
 30
0.0
 11
-1113.809206404493
 21
1935.280278702109
 31
0.0
  0
SOLID
  5
89D6
330
E80
100
AcDbEntity
  8
cotas
100
AcDbTrace
 10
-1644.735263698752
 20
1936.946945368776
 30
0.0
 11
-1644.735263698752
 21
1933.613612035442
 31
0.0
 12
-1654.735263698751
 22
1935.280278702109
 32
0.0
 13
-1654.735263698751
 23
1935.280278702109
 33
0.0
  0
SOLID
  5
89D7
330
E80
100
AcDbEntity
  8
cotas
100
AcDbTrace
 10
-1113.809206404493
 20
1936.946945368776
 30
0.0
 11
-1113.809206404493
 21
1933.613612035442
 31
0.0
 12
-1103.809206404493
 22
1935.280278702109
 32
0.0
 13
-1103.809206404493
 23
1935.280278702109
 33
0.0
  0
MTEXT
  5
89D8
330
E80
100
AcDbEntity
  8
cotas
100
AcDbMText
 10
-1379.272235051622
 20
1945.401165203116
 30
0.0
 40
10.0
 41
0.0
 71
     5
 72
     1
  1
551
  7
SANINDUSA
 73
     1
 44
1.0
1001
ACAD
1000
MTEXTBEGIN
1070
    73
1070
     1
1070
    44
1040
1.0
1070
    74
1070
     0
1000
MTEXTEND
  0
POINT
  5
89D9
330
E80
100
AcDbEntity
  8
Defpoints
 62
     0
100
AcDbPoint
 10
-1654.735263698751
 20
1781.785188314733
 30
0.0
  0
POINT
  5
89DA
330
E80
100
AcDbEntity
  8
Defpoints
 62
     0
100
AcDbPoint
 10
-1103.809206404493
 20
1781.846344503267
 30
0.0
  0
POINT
  5
89DB
330
E80
100
AcDbEntity
  8
Defpoints
 62
     0
100
AcDbPoint
 10
-1103.809206404493
 20
1935.280278702109
 30
0.0
  0
ENDBLK
  5
E8B
330
E80
100
AcDbEntity
  8
0
100
AcDbBlockEnd
  0
BLOCK
  5
E96
330
E8C
100
AcDbEntity
  8
0
100
AcDbBlockBegin
  2
*D67
 70
     1
 10
0.0
 20
0.0
 30
0.0
  3
*D67
  1

  0
LINE
  5
89CA
330
E8C
100
AcDbEntity
  8
cotas
100
AcDbLine
 10
-1103.809206404493
 20
1786.846344503267
 30
0.0
 11
-1103.809206404493
 21
1940.278765579213
 31
0.0
  0
LINE
  5
89CB
330
E8C
100
AcDbEntity
  8
cotas
100
AcDbLine
 10
-977.1982400292262
 20
1767.831046545533
 30
0.0
 11
-977.1982400292262
 21
1940.278765579213
 31
0.0
  0
LINE
  5
89CC
330
E8C
100
AcDbEntity
  8
cotas
100
AcDbLine
 10
-1093.809206404493
 20
1935.278765579212
 30
0.0
 11
-987.1982400292264
 21
1935.278765579212
 31
0.0
  0
SOLID
  5
89CD
330
E8C
100
AcDbEntity
  8
cotas
100
AcDbTrace
 10
-1093.809206404493
 20
1936.945432245879
 30
0.0
 11
-1093.809206404493
 21
1933.612098912545
 31
0.0
 12
-1103.809206404493
 22
1935.278765579212
 32
0.0
 13
-1103.809206404493
 23
1935.278765579212
 33
0.0
  0
SOLID
  5
89CE
330
E8C
100
AcDbEntity
  8
cotas
100
AcDbTrace
 10
-987.1982400292264
 20
1936.945432245879
 30
0.0
 11
-987.1982400292264
 21
1933.612098912545
 31
0.0
 12
-977.1982400292262
 22
1935.278765579212
 32
0.0
 13
-977.1982400292262
 23
1935.278765579212
 33
0.0
  0
MTEXT
  5
89CF
330
E8C
100
AcDbEntity
  8
cotas
100
AcDbMText
 10
-1040.503723216859
 20
1945.382862288413
 30
0.0
 40
10.0
 41
0.0
 71
     5
 72
     1
  1
127
  7
SANINDUSA
 73
     1
 44
1.0
1001
ACAD
1000
MTEXTBEGIN
1070
    73
1070
     1
1070
    44
1040
1.0
1070
    74
1070
     0
1000
MTEXTEND
  0
POINT
  5
89D0
330
E8C
100
AcDbEntity
  8
Defpoints
 62
     0
100
AcDbPoint
 10
-1103.809206404493
 20
1781.846344503267
 30
0.0
  0
POINT
  5
89D1
330
E8C
100
AcDbEntity
  8
Defpoints
 62
     0
100
AcDbPoint
 10
-977.1982400292262
 20
1762.831046545533
 30
0.0
  0
POINT
  5
89D2
330
E8C
100
AcDbEntity
  8
Defpoints
 62
     0
100
AcDbPoint
 10
-977.1982400292262
 20
1935.278765579212
 30
0.0
  0
ENDBLK
  5
E97
330
E8C
100
AcDbEntity
  8
0
100
AcDbBlockEnd
  0
BLOCK
  5
EA2
330
E98
100
AcDbEntity
  8
0
100
AcDbBlockBegin
  2
*D68
 70
     1
 10
0.0
 20
0.0
 30
0.0
  3
*D68
  1

  0
LINE
  5
89C1
330
E98
100
AcDbEntity
  8
cotas
100
AcDbLine
 10
-977.1982400292262
 20
1767.831046545533
 30
0.0
 11
-977.1982400292262
 21
1940.278765579213
 31
0.0
  0
LINE
  5
89C2
330
E98
100
AcDbEntity
  8
cotas
100
AcDbLine
 10
-897.2092369600641
 20
1767.831100587889
 30
0.0
 11
-897.2092369600641
 21
1940.278765579213
 31
0.0
  0
LINE
  5
89C3
330
E98
100
AcDbEntity
  8
cotas
100
AcDbLine
 10
-967.1982400292263
 20
1935.278765579212
 30
0.0
 11
-907.2092369600641
 21
1935.278765579212
 31
0.0
  0
SOLID
  5
89C4
330
E98
100
AcDbEntity
  8
cotas
100
AcDbTrace
 10
-967.1982400292263
 20
1936.945432245879
 30
0.0
 11
-967.1982400292263
 21
1933.612098912545
 31
0.0
 12
-977.1982400292262
 22
1935.278765579212
 32
0.0
 13
-977.1982400292262
 23
1935.278765579212
 33
0.0
  0
SOLID
  5
89C5
330
E98
100
AcDbEntity
  8
cotas
100
AcDbTrace
 10
-907.2092369600641
 20
1936.945432245879
 30
0.0
 11
-907.2092369600641
 21
1933.612098912545
 31
0.0
 12
-897.2092369600641
 22
1935.278765579212
 32
0.0
 13
-897.2092369600641
 23
1935.278765579212
 33
0.0
  0
MTEXT
  5
89C6
330
E98
100
AcDbEntity
  8
cotas
100
AcDbMText
 10
-937.2037384946452
 20
1945.507106747782
 30
0.0
 40
10.0
 41
0.0
 71
     5
 72
     1
  1
80
  7
SANINDUSA
 73
     1
 44
1.0
1001
ACAD
1000
MTEXTBEGIN
1070
    73
1070
     1
1070
    44
1040
1.0
1070
    74
1070
     0
1000
MTEXTEND
  0
POINT
  5
89C7
330
E98
100
AcDbEntity
  8
Defpoints
 62
     0
100
AcDbPoint
 10
-977.1982400292262
 20
1762.831046545533
 30
0.0
  0
POINT
  5
89C8
330
E98
100
AcDbEntity
  8
Defpoints
 62
     0
100
AcDbPoint
 10
-897.2092369600641
 20
1762.831100587889
 30
0.0
  0
POINT
  5
89C9
330
E98
100
AcDbEntity
  8
Defpoints
 62
     0
100
AcDbPoint
 10
-897.2092369600641
 20
1935.278765579212
 30
0.0
  0
ENDBLK
  5
EA3
330
E98
100
AcDbEntity
  8
0
100
AcDbBlockEnd
  0
BLOCK
  5
EAE
330
EA4
100
AcDbEntity
  8
0
100
AcDbBlockBegin
  2
*D69
 70
     1
 10
0.0
 20
0.0
 30
0.0
  3
*D69
  1

  0
LINE
  5
89B8
330
EA4
100
AcDbEntity
  8
cotas
100
AcDbLine
 10
-897.2092369600641
 20
1767.831100587889
 30
0.0
 11
-897.2092369600641
 21
1940.278765579213
 31
0.0
  0
LINE
  5
89B9
330
EA4
100
AcDbEntity
  8
cotas
100
AcDbLine
 10
-817.2212454790779
 20
1767.831134913532
 30
0.0
 11
-817.2212454790779
 21
1940.278765579213
 31
0.0
  0
LINE
  5
89BA
330
EA4
100
AcDbEntity
  8
cotas
100
AcDbLine
 10
-887.2092369600641
 20
1935.278765579212
 30
0.0
 11
-827.2212454790778
 21
1935.278765579212
 31
0.0
  0
SOLID
  5
89BB
330
EA4
100
AcDbEntity
  8
cotas
100
AcDbTrace
 10
-887.2092369600641
 20
1936.945432245879
 30
0.0
 11
-887.2092369600641
 21
1933.612098912545
 31
0.0
 12
-897.2092369600641
 22
1935.278765579212
 32
0.0
 13
-897.2092369600641
 23
1935.278765579212
 33
0.0
  0
SOLID
  5
89BC
330
EA4
100
AcDbEntity
  8
cotas
100
AcDbTrace
 10
-827.2212454790778
 20
1936.945432245879
 30
0.0
 11
-827.2212454790778
 21
1933.612098912545
 31
0.0
 12
-817.2212454790779
 22
1935.278765579212
 32
0.0
 13
-817.2212454790779
 23
1935.278765579212
 33
0.0
  0
MTEXT
  5
89BD
330
EA4
100
AcDbEntity
  8
cotas
100
AcDbMText
 10
-857.2152412195709
 20
1945.507106747782
 30
0.0
 40
10.0
 41
0.0
 71
     5
 72
     1
  1
80
  7
SANINDUSA
 73
     1
 44
1.0
1001
ACAD
1000
MTEXTBEGIN
1070
    73
1070
     1
1070
    44
1040
1.0
1070
    74
1070
     0
1000
MTEXTEND
  0
POINT
  5
89BE
330
EA4
100
AcDbEntity
  8
Defpoints
 62
     0
100
AcDbPoint
 10
-897.2092369600641
 20
1762.831100587889
 30
0.0
  0
POINT
  5
89BF
330
EA4
100
AcDbEntity
  8
Defpoints
 62
     0
100
AcDbPoint
 10
-817.2212454790779
 20
1762.831134913532
 30
0.0
  0
POINT
  5
89C0
330
EA4
100
AcDbEntity
  8
Defpoints
 62
     0
100
AcDbPoint
 10
-817.2212454790779
 20
1935.278765579212
 30
0.0
  0
ENDBLK
  5
EAF
330
EA4
100
AcDbEntity
  8
0
100
AcDbBlockEnd
  0
BLOCK
  5
EBA
330
EB0
100
AcDbEntity
  8
0
100
AcDbBlockBegin
  2
*D70
 70
     1
 10
0.0
 20
0.0
 30
0.0
  3
*D70
  1

  0
LINE
  5
89AF
330
EB0
100
AcDbEntity
  8
cotas
100
AcDbLine
 10
-817.2212454790779
 20
1767.831134913532
 30
0.0
 11
-817.2212454790779
 21
1940.278765579213
 31
0.0
  0
LINE
  5
89B0
330
EB0
100
AcDbEntity
  8
cotas
100
AcDbLine
 10
-737.2322424099157
 20
1767.831188955888
 30
0.0
 11
-737.2322424099157
 21
1940.278765579213
 31
0.0
  0
LINE
  5
89B1
330
EB0
100
AcDbEntity
  8
cotas
100
AcDbLine
 10
-807.2212454790779
 20
1935.278765579212
 30
0.0
 11
-747.2322424099156
 21
1935.278765579212
 31
0.0
  0
SOLID
  5
89B2
330
EB0
100
AcDbEntity
  8
cotas
100
AcDbTrace
 10
-807.2212454790779
 20
1936.945432245879
 30
0.0
 11
-807.2212454790779
 21
1933.612098912545
 31
0.0
 12
-817.2212454790779
 22
1935.278765579212
 32
0.0
 13
-817.2212454790779
 23
1935.278765579212
 33
0.0
  0
SOLID
  5
89B3
330
EB0
100
AcDbEntity
  8
cotas
100
AcDbTrace
 10
-747.2322424099156
 20
1936.945432245879
 30
0.0
 11
-747.2322424099156
 21
1933.612098912545
 31
0.0
 12
-737.2322424099157
 22
1935.278765579212
 32
0.0
 13
-737.2322424099157
 23
1935.278765579212
 33
0.0
  0
MTEXT
  5
89B4
330
EB0
100
AcDbEntity
  8
cotas
100
AcDbMText
 10
-777.2267439444967
 20
1945.507106747782
 30
0.0
 40
10.0
 41
0.0
 71
     5
 72
     1
  1
80
  7
SANINDUSA
 73
     1
 44
1.0
1001
ACAD
1000
MTEXTBEGIN
1070
    73
1070
     1
1070
    44
1040
1.0
1070
    74
1070
     0
1000
MTEXTEND
  0
POINT
  5
89B5
330
EB0
100
AcDbEntity
  8
Defpoints
 62
     0
100
AcDbPoint
 10
-817.2212454790779
 20
1762.831134913532
 30
0.0
  0
POINT
  5
89B6
330
EB0
100
AcDbEntity
  8
Defpoints
 62
     0
100
AcDbPoint
 10
-737.2322424099157
 20
1762.831188955888
 30
0.0
  0
POINT
  5
89B7
330
EB0
100
AcDbEntity
  8
Defpoints
 62
     0
100
AcDbPoint
 10
-737.2322424099157
 20
1935.278765579212
 30
0.0
  0
ENDBLK
  5
EBB
330
EB0
100
AcDbEntity
  8
0
100
AcDbBlockEnd
  0
BLOCK
  5
EC6
330
EBC
100
AcDbEntity
  8
0
100
AcDbBlockBegin
  2
*D71
 70
     1
 10
0.0
 20
0.0
 30
0.0
  3
*D71
  1

  0
LINE
  5
89A6
330
EBC
100
AcDbEntity
  8
cotas
100
AcDbLine
 10
-737.2322424099157
 20
1767.831188955888
 30
0.0
 11
-737.2322424099157
 21
1940.278765579213
 31
0.0
  0
LINE
  5
89A7
330
EBC
100
AcDbEntity
  8
cotas
100
AcDbLine
 10
-657.2859486288189
 20
1767.847736421857
 30
0.0
 11
-657.2859486288189
 21
1940.278765579213
 31
0.0
  0
LINE
  5
89A8
330
EBC
100
AcDbEntity
  8
cotas
100
AcDbLine
 10
-727.2322424099156
 20
1935.278765579212
 30
0.0
 11
-667.2859486288189
 21
1935.278765579212
 31
0.0
  0
SOLID
  5
89A9
330
EBC
100
AcDbEntity
  8
cotas
100
AcDbTrace
 10
-727.2322424099156
 20
1936.945432245879
 30
0.0
 11
-727.2322424099156
 21
1933.612098912545
 31
0.0
 12
-737.2322424099157
 22
1935.278765579212
 32
0.0
 13
-737.2322424099157
 23
1935.278765579212
 33
0.0
  0
SOLID
  5
89AA
330
EBC
100
AcDbEntity
  8
cotas
100
AcDbTrace
 10
-667.2859486288189
 20
1936.945432245879
 30
0.0
 11
-667.2859486288189
 21
1933.612098912545
 31
0.0
 12
-657.2859486288189
 22
1935.278765579212
 32
0.0
 13
-657.2859486288189
 23
1935.278765579212
 33
0.0
  0
MTEXT
  5
89AB
330
EBC
100
AcDbEntity
  8
cotas
100
AcDbMText
 10
-697.2590955193672
 20
1945.507106747782
 30
0.0
 40
10.0
 41
0.0
 71
     5
 72
     1
  1
80
  7
SANINDUSA
 73
     1
 44
1.0
1001
ACAD
1000
MTEXTBEGIN
1070
    73
1070
     1
1070
    44
1040
1.0
1070
    74
1070
     0
1000
MTEXTEND
  0
POINT
  5
89AC
330
EBC
100
AcDbEntity
  8
Defpoints
 62
     0
100
AcDbPoint
 10
-737.2322424099157
 20
1762.831188955888
 30
0.0
  0
POINT
  5
89AD
330
EBC
100
AcDbEntity
  8
Defpoints
 62
     0
100
AcDbPoint
 10
-657.2859486288189
 20
1762.847736421857
 30
0.0
  0
POINT
  5
89AE
330
EBC
100
AcDbEntity
  8
Defpoints
 62
     0
100
AcDbPoint
 10
-657.2859486288189
 20
1935.278765579212
 30
0.0
  0
ENDBLK
  5
EC7
330
EBC
100
AcDbEntity
  8
0
100
AcDbBlockEnd
  0
BLOCK
  5
ED2
330
EC8
100
AcDbEntity
  8
0
100
AcDbBlockBegin
  2
*D72
 70
     1
 10
0.0
 20
0.0
 30
0.0
  3
*D72
  1

  0
LINE
  5
899D
330
EC8
100
AcDbEntity
  8
cotas
100
AcDbLine
 10
-657.2859486288189
 20
1767.847736421857
 30
0.0
 11
-657.2859486288189
 21
1940.278765579213
 31
0.0
  0
LINE
  5
899E
330
EC8
100
AcDbEntity
  8
cotas
100
AcDbLine
 10
-577.2969455596585
 20
1767.847790464213
 30
0.0
 11
-577.2969455596585
 21
1940.278765579213
 31
0.0
  0
LINE
  5
899F
330
EC8
100
AcDbEntity
  8
cotas
100
AcDbLine
 10
-647.2859486288188
 20
1935.278765579212
 30
0.0
 11
-587.2969455596585
 21
1935.278765579212
 31
0.0
  0
SOLID
  5
89A0
330
EC8
100
AcDbEntity
  8
cotas
100
AcDbTrace
 10
-647.2859486288188
 20
1936.945432245879
 30
0.0
 11
-647.2859486288188
 21
1933.612098912545
 31
0.0
 12
-657.2859486288189
 22
1935.278765579212
 32
0.0
 13
-657.2859486288189
 23
1935.278765579212
 33
0.0
  0
SOLID
  5
89A1
330
EC8
100
AcDbEntity
  8
cotas
100
AcDbTrace
 10
-587.2969455596585
 20
1936.945432245879
 30
0.0
 11
-587.2969455596585
 21
1933.612098912545
 31
0.0
 12
-577.2969455596585
 22
1935.278765579212
 32
0.0
 13
-577.2969455596585
 23
1935.278765579212
 33
0.0
  0
MTEXT
  5
89A2
330
EC8
100
AcDbEntity
  8
cotas
100
AcDbMText
 10
-617.2914470942387
 20
1945.507106747782
 30
0.0
 40
10.0
 41
0.0
 71
     5
 72
     1
  1
80
  7
SANINDUSA
 73
     1
 44
1.0
1001
ACAD
1000
MTEXTBEGIN
1070
    73
1070
     1
1070
    44
1040
1.0
1070
    74
1070
     0
1000
MTEXTEND
  0
POINT
  5
89A3
330
EC8
100
AcDbEntity
  8
Defpoints
 62
     0
100
AcDbPoint
 10
-657.2859486288189
 20
1762.847736421857
 30
0.0
  0
POINT
  5
89A4
330
EC8
100
AcDbEntity
  8
Defpoints
 62
     0
100
AcDbPoint
 10
-577.2969455596585
 20
1762.847790464213
 30
0.0
  0
POINT
  5
89A5
330
EC8
100
AcDbEntity
  8
Defpoints
 62
     0
100
AcDbPoint
 10
-577.2969455596585
 20
1935.278765579212
 30
0.0
  0
ENDBLK
  5
ED3
330
EC8
100
AcDbEntity
  8
0
100
AcDbBlockEnd
  0
BLOCK
  5
EDE
330
ED4
100
AcDbEntity
  8
0
100
AcDbBlockBegin
  2
*D73
 70
     1
 10
0.0
 20
0.0
 30
0.0
  3
*D73
  1

  0
LINE
  5
8994
330
ED4
100
AcDbEntity
  8
cotas
100
AcDbLine
 10
-577.2969455596585
 20
1767.847790464213
 30
0.0
 11
-577.2969455596585
 21
1940.278765579213
 31
0.0
  0
LINE
  5
8995
330
ED4
100
AcDbEntity
  8
cotas
100
AcDbLine
 10
-497.342752921866
 20
1767.855021459513
 30
0.0
 11
-497.342752921866
 21
1940.278765579213
 31
0.0
  0
LINE
  5
8996
330
ED4
100
AcDbEntity
  8
cotas
100
AcDbLine
 10
-567.2969455596585
 20
1935.278765579212
 30
0.0
 11
-507.3427529218661
 21
1935.278765579212
 31
0.0
  0
SOLID
  5
8997
330
ED4
100
AcDbEntity
  8
cotas
100
AcDbTrace
 10
-567.2969455596585
 20
1936.945432245879
 30
0.0
 11
-567.2969455596585
 21
1933.612098912545
 31
0.0
 12
-577.2969455596585
 22
1935.278765579212
 32
0.0
 13
-577.2969455596585
 23
1935.278765579212
 33
0.0
  0
SOLID
  5
8998
330
ED4
100
AcDbEntity
  8
cotas
100
AcDbTrace
 10
-507.3427529218661
 20
1936.945432245879
 30
0.0
 11
-507.3427529218661
 21
1933.612098912545
 31
0.0
 12
-497.342752921866
 22
1935.278765579212
 32
0.0
 13
-497.342752921866
 23
1935.278765579212
 33
0.0
  0
MTEXT
  5
8999
330
ED4
100
AcDbEntity
  8
cotas
100
AcDbMText
 10
-537.3198492407623
 20
1945.507106747782
 30
0.0
 40
10.0
 41
0.0
 71
     5
 72
     1
  1
80
  7
SANINDUSA
 73
     1
 44
1.0
1001
ACAD
1000
MTEXTBEGIN
1070
    73
1070
     1
1070
    44
1040
1.0
1070
    74
1070
     0
1000
MTEXTEND
  0
POINT
  5
899A
330
ED4
100
AcDbEntity
  8
Defpoints
 62
     0
100
AcDbPoint
 10
-577.2969455596585
 20
1762.847790464213
 30
0.0
  0
POINT
  5
899B
330
ED4
100
AcDbEntity
  8
Defpoints
 62
     0
100
AcDbPoint
 10
-497.342752921866
 20
1762.855021459513
 30
0.0
  0
POINT
  5
899C
330
ED4
100
AcDbEntity
  8
Defpoints
 62
     0
100
AcDbPoint
 10
-497.342752921866
 20
1935.278765579212
 30
0.0
  0
ENDBLK
  5
EDF
330
ED4
100
AcDbEntity
  8
0
100
AcDbBlockEnd
  0
BLOCK
  5
EEA
330
EE0
100
AcDbEntity
  8
0
100
AcDbBlockBegin
  2
*D74
 70
     1
 10
0.0
 20
0.0
 30
0.0
  3
*D74
  1

  0
LINE
  5
898B
330
EE0
100
AcDbEntity
  8
cotas
100
AcDbLine
 10
-497.342752921866
 20
1767.855021459513
 30
0.0
 11
-497.342752921866
 21
1940.278765579213
 31
0.0
  0
LINE
  5
898C
330
EE0
100
AcDbEntity
  8
cotas
100
AcDbLine
 10
-417.3537498527048
 20
1767.85507550187
 30
0.0
 11
-417.3537498527048
 21
1940.278765579213
 31
0.0
  0
LINE
  5
898D
330
EE0
100
AcDbEntity
  8
cotas
100
AcDbLine
 10
-487.3427529218661
 20
1935.278765579212
 30
0.0
 11
-427.3537498527048
 21
1935.278765579212
 31
0.0
  0
SOLID
  5
898E
330
EE0
100
AcDbEntity
  8
cotas
100
AcDbTrace
 10
-487.3427529218661
 20
1936.945432245879
 30
0.0
 11
-487.3427529218661
 21
1933.612098912545
 31
0.0
 12
-497.342752921866
 22
1935.278765579212
 32
0.0
 13
-497.342752921866
 23
1935.278765579212
 33
0.0
  0
SOLID
  5
898F
330
EE0
100
AcDbEntity
  8
cotas
100
AcDbTrace
 10
-427.3537498527048
 20
1936.945432245879
 30
0.0
 11
-427.3537498527048
 21
1933.612098912545
 31
0.0
 12
-417.3537498527048
 22
1935.278765579212
 32
0.0
 13
-417.3537498527048
 23
1935.278765579212
 33
0.0
  0
MTEXT
  5
8990
330
EE0
100
AcDbEntity
  8
cotas
100
AcDbMText
 10
-457.3482513872854
 20
1945.507106747782
 30
0.0
 40
10.0
 41
0.0
 71
     5
 72
     1
  1
80
  7
SANINDUSA
 73
     1
 44
1.0
1001
ACAD
1000
MTEXTBEGIN
1070
    73
1070
     1
1070
    44
1040
1.0
1070
    74
1070
     0
1000
MTEXTEND
  0
POINT
  5
8991
330
EE0
100
AcDbEntity
  8
Defpoints
 62
     0
100
AcDbPoint
 10
-497.342752921866
 20
1762.855021459513
 30
0.0
  0
POINT
  5
8992
330
EE0
100
AcDbEntity
  8
Defpoints
 62
     0
100
AcDbPoint
 10
-417.3537498527048
 20
1762.855075501869
 30
0.0
  0
POINT
  5
8993
330
EE0
100
AcDbEntity
  8
Defpoints
 62
     0
100
AcDbPoint
 10
-417.3537498527048
 20
1935.278765579212
 30
0.0
  0
ENDBLK
  5
EEB
330
EE0
100
AcDbEntity
  8
0
100
AcDbBlockEnd
  0
BLOCK
  5
EF6
330
EEC
100
AcDbEntity
  8
0
100
AcDbBlockBegin
  2
*D75
 70
     1
 10
0.0
 20
0.0
 30
0.0
  3
*D75
  1

  0
LINE
  5
8982
330
EEC
100
AcDbEntity
  8
cotas
100
AcDbLine
 10
-907.260586583976
 20
1098.883873516177
 30
0.0
 11
-1045.371972947275
 21
1098.883873516177
 31
0.0
  0
LINE
  5
8983
330
EEC
100
AcDbEntity
  8
cotas
100
AcDbLine
 10
-1005.386969466773
 20
1259.586830937518
 30
0.0
 11
-1045.371972947275
 21
1259.586830937518
 31
0.0
  0
LINE
  5
8984
330
EEC
100
AcDbEntity
  8
cotas
100
AcDbLine
 10
-1040.371972947275
 20
1108.883873516177
 30
0.0
 11
-1040.371972947275
 21
1249.586830937518
 31
0.0
  0
SOLID
  5
8985
330
EEC
100
AcDbEntity
  8
cotas
100
AcDbTrace
 10
-1042.038639613941
 20
1108.883873516177
 30
0.0
 11
-1038.705306280608
 21
1108.883873516177
 31
0.0
 12
-1040.371972947275
 22
1098.883873516177
 32
0.0
 13
-1040.371972947275
 23
1098.883873516177
 33
0.0
  0
SOLID
  5
8986
330
EEC
100
AcDbEntity
  8
cotas
100
AcDbTrace
 10
-1042.038639613941
 20
1249.586830937518
 30
0.0
 11
-1038.705306280608
 21
1249.586830937518
 31
0.0
 12
-1040.371972947275
 22
1259.586830937518
 32
0.0
 13
-1040.371972947275
 23
1259.586830937518
 33
0.0
  0
MTEXT
  5
8987
330
EEC
100
AcDbEntity
  8
cotas
100
AcDbMText
 10
-1051.715156291801
 20
1213.251698979702
 30
0.0
 40
10.0
 41
0.0
 71
     5
 72
     1
  1
160,7
  7
SANINDUSA
 11
0.0000000000000001
 21
1.0
 31
0.0
 73
     1
 44
1.0
1001
ACAD
1000
MTEXTBEGIN
1070
    73
1070
     1
1070
    44
1040
1.0
1070
    74
1070
     0
1000
MTEXTEND
  0
POINT
  5
8988
330
EEC
100
AcDbEntity
  8
Defpoints
 62
     0
100
AcDbPoint
 10
-902.2605865839759
 20
1098.883873516177
 30
-0.0000000000001987
  0
POINT
  5
8989
330
EEC
100
AcDbEntity
  8
Defpoints
 62
     0
100
AcDbPoint
 10
-1000.386969466773
 20
1259.586830937518
 30
0.0
  0
POINT
  5
898A
330
EEC
100
AcDbEntity
  8
Defpoints
 62
     0
100
AcDbPoint
 10
-1040.371972947275
 20
1259.586830937518
 30
0.0
  0
ENDBLK
  5
EF7
330
EEC
100
AcDbEntity
  8
0
100
AcDbBlockEnd
  0
BLOCK
  5
F02
330
EF8
100
AcDbEntity
  8
0
100
AcDbBlockBegin
  2
*D76
 70
     1
 10
0.0
 20
0.0
 30
0.0
  3
*D76
  1

  0
LINE
  5
8979
330
EF8
100
AcDbEntity
  8
cotas
100
AcDbLine
 10
-1005.386969466773
 20
1259.586830937518
 30
0.0
 11
-1045.371972947276
 21
1259.586830937518
 31
0.0
  0
LINE
  5
897A
330
EF8
100
AcDbEntity
  8
cotas
100
AcDbLine
 10
-1005.452612908412
 20
1339.557530745103
 30
0.0
 11
-1045.371972947276
 21
1339.557530745103
 31
0.0
  0
LINE
  5
897B
330
EF8
100
AcDbEntity
  8
cotas
100
AcDbLine
 10
-1040.371972947276
 20
1269.586830937518
 30
0.0
 11
-1040.371972947276
 21
1329.557530745103
 31
0.0
  0
SOLID
  5
897C
330
EF8
100
AcDbEntity
  8
cotas
100
AcDbTrace
 10
-1042.038639613942
 20
1269.586830937518
 30
0.0
 11
-1038.705306280609
 21
1269.586830937518
 31
0.0
 12
-1040.371972947276
 22
1259.586830937518
 32
0.0
 13
-1040.371972947276
 23
1259.586830937518
 33
0.0
  0
SOLID
  5
897D
330
EF8
100
AcDbEntity
  8
cotas
100
AcDbTrace
 10
-1042.038639613942
 20
1329.557530745103
 30
0.0
 11
-1038.705306280609
 21
1329.557530745103
 31
0.0
 12
-1040.371972947276
 22
1339.557530745103
 32
0.0
 13
-1040.371972947276
 23
1339.557530745103
 33
0.0
  0
MTEXT
  5
897E
330
EF8
100
AcDbEntity
  8
cotas
100
AcDbMText
 10
-1050.600314115845
 20
1299.57218084131
 30
0.0
 40
10.0
 41
0.0
 71
     5
 72
     1
  1
80
  7
SANINDUSA
 11
0.0000000000000001
 21
1.0
 31
0.0
 73
     1
 44
1.0
1001
ACAD
1000
MTEXTBEGIN
1070
    73
1070
     1
1070
    44
1040
1.0
1070
    74
1070
     0
1000
MTEXTEND
  0
POINT
  5
897F
330
EF8
100
AcDbEntity
  8
Defpoints
 62
     0
100
AcDbPoint
 10
-1000.386969466773
 20
1259.586830937518
 30
0.0
  0
POINT
  5
8980
330
EF8
100
AcDbEntity
  8
Defpoints
 62
     0
100
AcDbPoint
 10
-1000.452612908412
 20
1339.557530745103
 30
0.0
  0
POINT
  5
8981
330
EF8
100
AcDbEntity
  8
Defpoints
 62
     0
100
AcDbPoint
 10
-1040.371972947276
 20
1339.557530745103
 30
0.0
  0
ENDBLK
  5
F03
330
EF8
100
AcDbEntity
  8
0
100
AcDbBlockEnd
  0
BLOCK
  5
F0E
330
F04
100
AcDbEntity
  8
0
100
AcDbBlockBegin
  2
*D77
 70
     1
 10
0.0
 20
0.0
 30
0.0
  3
*D77
  1

  0
LINE
  5
8970
330
F04
100
AcDbEntity
  8
cotas
100
AcDbLine
 10
-1005.452612908412
 20
1339.557530745103
 30
0.0
 11
-1045.371972947276
 21
1339.557530745103
 31
0.0
  0
LINE
  5
8971
330
F04
100
AcDbEntity
  8
cotas
100
AcDbLine
 10
-1005.407660548542
 20
1419.586042133177
 30
0.0
 11
-1045.371972947276
 21
1419.586042133177
 31
0.0
  0
LINE
  5
8972
330
F04
100
AcDbEntity
  8
cotas
100
AcDbLine
 10
-1040.371972947276
 20
1349.557530745103
 30
0.0
 11
-1040.371972947276
 21
1409.586042133177
 31
0.0
  0
SOLID
  5
8973
330
F04
100
AcDbEntity
  8
cotas
100
AcDbTrace
 10
-1042.038639613942
 20
1349.557530745103
 30
0.0
 11
-1038.705306280609
 21
1349.557530745103
 31
0.0
 12
-1040.371972947276
 22
1339.557530745103
 32
0.0
 13
-1040.371972947276
 23
1339.557530745103
 33
0.0
  0
SOLID
  5
8974
330
F04
100
AcDbEntity
  8
cotas
100
AcDbTrace
 10
-1042.038639613942
 20
1409.586042133177
 30
0.0
 11
-1038.705306280609
 21
1409.586042133177
 31
0.0
 12
-1040.371972947276
 22
1419.586042133177
 32
0.0
 13
-1040.371972947276
 23
1419.586042133177
 33
0.0
  0
MTEXT
  5
8975
330
F04
100
AcDbEntity
  8
cotas
100
AcDbMText
 10
-1050.600314115845
 20
1379.57178643914
 30
0.0
 40
10.0
 41
0.0
 71
     5
 72
     1
  1
80
  7
SANINDUSA
 11
0.0000000000000001
 21
1.0
 31
0.0
 73
     1
 44
1.0
1001
ACAD
1000
MTEXTBEGIN
1070
    73
1070
     1
1070
    44
1040
1.0
1070
    74
1070
     0
1000
MTEXTEND
  0
POINT
  5
8976
330
F04
100
AcDbEntity
  8
Defpoints
 62
     0
100
AcDbPoint
 10
-1000.452612908412
 20
1339.557530745103
 30
0.0
  0
POINT
  5
8977
330
F04
100
AcDbEntity
  8
Defpoints
 62
     0
100
AcDbPoint
 10
-1000.407660548541
 20
1419.586042133177
 30
0.0
  0
POINT
  5
8978
330
F04
100
AcDbEntity
  8
Defpoints
 62
     0
100
AcDbPoint
 10
-1040.371972947276
 20
1419.586042133177
 30
0.0
  0
ENDBLK
  5
F0F
330
F04
100
AcDbEntity
  8
0
100
AcDbBlockEnd
  0
BLOCK
  5
F1A
330
F10
100
AcDbEntity
  8
0
100
AcDbBlockBegin
  2
*D78
 70
     1
 10
0.0
 20
0.0
 30
0.0
  3
*D78
  1

  0
LINE
  5
8967
330
F10
100
AcDbEntity
  8
cotas
100
AcDbLine
 10
-1005.407660548542
 20
1419.586042133177
 30
0.0
 11
-1045.371972947276
 21
1419.586042133177
 31
0.0
  0
LINE
  5
8968
330
F10
100
AcDbEntity
  8
cotas
100
AcDbLine
 10
-1010.5165321172
 20
1499.575057339715
 30
0.0
 11
-1045.371972947276
 21
1499.575057339715
 31
0.0
  0
LINE
  5
8969
330
F10
100
AcDbEntity
  8
cotas
100
AcDbLine
 10
-1040.371972947276
 20
1429.586042133177
 30
0.0
 11
-1040.371972947276
 21
1489.575057339715
 31
0.0
  0
SOLID
  5
896A
330
F10
100
AcDbEntity
  8
cotas
100
AcDbTrace
 10
-1042.038639613942
 20
1429.586042133177
 30
0.0
 11
-1038.705306280609
 21
1429.586042133177
 31
0.0
 12
-1040.371972947276
 22
1419.586042133177
 32
0.0
 13
-1040.371972947276
 23
1419.586042133177
 33
0.0
  0
SOLID
  5
896B
330
F10
100
AcDbEntity
  8
cotas
100
AcDbTrace
 10
-1042.038639613942
 20
1489.575057339715
 30
0.0
 11
-1038.705306280609
 21
1489.575057339715
 31
0.0
 12
-1040.371972947276
 22
1499.575057339715
 32
0.0
 13
-1040.371972947276
 23
1499.575057339715
 33
0.0
  0
MTEXT
  5
896C
330
F10
100
AcDbEntity
  8
cotas
100
AcDbMText
 10
-1050.600314115845
 20
1459.580549736446
 30
0.0
 40
10.0
 41
0.0
 71
     5
 72
     1
  1
80
  7
SANINDUSA
 11
0.0000000000000001
 21
1.0
 31
0.0
 73
     1
 44
1.0
1001
ACAD
1000
MTEXTBEGIN
1070
    73
1070
     1
1070
    44
1040
1.0
1070
    74
1070
     0
1000
MTEXTEND
  0
POINT
  5
896D
330
F10
100
AcDbEntity
  8
Defpoints
 62
     0
100
AcDbPoint
 10
-1000.407660548541
 20
1419.586042133177
 30
0.0
  0
POINT
  5
896E
330
F10
100
AcDbEntity
  8
Defpoints
 62
     0
100
AcDbPoint
 10
-1005.516532117201
 20
1499.575057339715
 30
0.0
  0
POINT
  5
896F
330
F10
100
AcDbEntity
  8
Defpoints
 62
     0
100
AcDbPoint
 10
-1040.371972947276
 20
1499.575057339715
 30
0.0
  0
ENDBLK
  5
F1B
330
F10
100
AcDbEntity
  8
0
100
AcDbBlockEnd
  0
BLOCK
  5
F26
330
F1C
100
AcDbEntity
  8
0
100
AcDbBlockBegin
  2
*D79
 70
     1
 10
0.0
 20
0.0
 30
0.0
  3
*D79
  1

  0
LINE
  5
895E
330
F1C
100
AcDbEntity
  8
cotas
100
AcDbLine
 10
-1010.5165321172
 20
1499.575057339715
 30
0.0
 11
-1045.371972947276
 21
1499.575057339715
 31
0.0
  0
LINE
  5
895F
330
F1C
100
AcDbEntity
  8
cotas
100
AcDbLine
 10
-1010.44359879641
 20
1579.556608419179
 30
0.0
 11
-1045.371972947276
 21
1579.556608419179
 31
0.0
  0
LINE
  5
8960
330
F1C
100
AcDbEntity
  8
cotas
100
AcDbLine
 10
-1040.371972947276
 20
1509.575057339715
 30
0.0
 11
-1040.371972947276
 21
1569.556608419179
 31
0.0
  0
SOLID
  5
8961
330
F1C
100
AcDbEntity
  8
cotas
100
AcDbTrace
 10
-1042.038639613943
 20
1509.575057339715
 30
0.0
 11
-1038.705306280609
 21
1509.575057339715
 31
0.0
 12
-1040.371972947276
 22
1499.575057339715
 32
0.0
 13
-1040.371972947276
 23
1499.575057339715
 33
0.0
  0
SOLID
  5
8962
330
F1C
100
AcDbEntity
  8
cotas
100
AcDbTrace
 10
-1042.038639613942
 20
1569.556608419179
 30
0.0
 11
-1038.705306280609
 21
1569.556608419179
 31
0.0
 12
-1040.371972947276
 22
1579.556608419179
 32
0.0
 13
-1040.371972947276
 23
1579.556608419179
 33
0.0
  0
MTEXT
  5
8963
330
F1C
100
AcDbEntity
  8
cotas
100
AcDbMText
 10
-1050.600314115846
 20
1539.565832879447
 30
0.0
 40
10.0
 41
0.0
 71
     5
 72
     1
  1
80
  7
SANINDUSA
 11
0.0000000000000001
 21
1.0
 31
0.0
 73
     1
 44
1.0
1001
ACAD
1000
MTEXTBEGIN
1070
    73
1070
     1
1070
    44
1040
1.0
1070
    74
1070
     0
1000
MTEXTEND
  0
POINT
  5
8964
330
F1C
100
AcDbEntity
  8
Defpoints
 62
     0
100
AcDbPoint
 10
-1005.516532117201
 20
1499.575057339715
 30
0.0
  0
POINT
  5
8965
330
F1C
100
AcDbEntity
  8
Defpoints
 62
     0
100
AcDbPoint
 10
-1005.44359879641
 20
1579.556608419179
 30
0.0
  0
POINT
  5
8966
330
F1C
100
AcDbEntity
  8
Defpoints
 62
     0
100
AcDbPoint
 10
-1040.371972947276
 20
1579.556608419179
 30
0.0
  0
ENDBLK
  5
F27
330
F1C
100
AcDbEntity
  8
0
100
AcDbBlockEnd
  0
BLOCK
  5
F32
330
F28
100
AcDbEntity
  8
0
100
AcDbBlockBegin
  2
*D80
 70
     1
 10
0.0
 20
0.0
 30
0.0
  3
*D80
  1

  0
LINE
  5
8955
330
F28
100
AcDbEntity
  8
cotas
100
AcDbLine
 10
-1010.44359879641
 20
1579.556608419179
 30
0.0
 11
-1045.371972947276
 21
1579.556608419179
 31
0.0
  0
LINE
  5
8956
330
F28
100
AcDbEntity
  8
cotas
100
AcDbLine
 10
-1005.385819589936
 20
1659.588450753703
 30
0.0
 11
-1045.371972947276
 21
1659.588450753703
 31
0.0
  0
LINE
  5
8957
330
F28
100
AcDbEntity
  8
cotas
100
AcDbLine
 10
-1040.371972947276
 20
1589.55660841918
 30
0.0
 11
-1040.371972947276
 21
1649.588450753703
 31
0.0
  0
SOLID
  5
8958
330
F28
100
AcDbEntity
  8
cotas
100
AcDbTrace
 10
-1042.038639613942
 20
1589.55660841918
 30
0.0
 11
-1038.705306280609
 21
1589.55660841918
 31
0.0
 12
-1040.371972947276
 22
1579.556608419179
 32
0.0
 13
-1040.371972947276
 23
1579.556608419179
 33
0.0
  0
SOLID
  5
8959
330
F28
100
AcDbEntity
  8
cotas
100
AcDbTrace
 10
-1042.038639613942
 20
1649.588450753703
 30
0.0
 11
-1038.705306280609
 21
1649.588450753703
 31
0.0
 12
-1040.371972947276
 22
1659.588450753703
 32
0.0
 13
-1040.371972947276
 23
1659.588450753703
 33
0.0
  0
MTEXT
  5
895A
330
F28
100
AcDbEntity
  8
cotas
100
AcDbMText
 10
-1050.600314115846
 20
1619.572529586441
 30
0.0
 40
10.0
 41
0.0
 71
     5
 72
     1
  1
80
  7
SANINDUSA
 11
0.0000000000000001
 21
1.0
 31
0.0
 73
     1
 44
1.0
1001
ACAD
1000
MTEXTBEGIN
1070
    73
1070
     1
1070
    44
1040
1.0
1070
    74
1070
     0
1000
MTEXTEND
  0
POINT
  5
895B
330
F28
100
AcDbEntity
  8
Defpoints
 62
     0
100
AcDbPoint
 10
-1005.44359879641
 20
1579.556608419179
 30
0.0
  0
POINT
  5
895C
330
F28
100
AcDbEntity
  8
Defpoints
 62
     0
100
AcDbPoint
 10
-1000.385819589936
 20
1659.588450753703
 30
0.0
  0
POINT
  5
895D
330
F28
100
AcDbEntity
  8
Defpoints
 62
     0
100
AcDbPoint
 10
-1040.371972947276
 20
1659.588450753703
 30
0.0
  0
ENDBLK
  5
F33
330
F28
100
AcDbEntity
  8
0
100
AcDbBlockEnd
  0
BLOCK
  5
F3B
330
F34
100
AcDbEntity
  8
0
100
AcDbBlockBegin
  2
*D81
 70
     1
 10
0.0
 20
0.0
 30
0.0
  3
*D81
  1

  0
LINE
  5
894F
330
F34
100
AcDbEntity
  8
cotas
100
AcDbLine
 10
-99.53208225071023
 20
1142.452222109496
 30
0.0
 11
-132.7465809650578
 21
1172.518907454067
 31
0.0
  0
MTEXT
  5
8950
330
F34
100
AcDbEntity
  8
cotas
100
AcDbMText
 10
-105.5817606265347
 20
1161.698035296963
 30
0.0
 40
10.0
 41
0.0
 71
     5
 72
     1
  1
R20
  7
SANINDUSA
 11
0.7413639422225091
 21
-0.6711032000909402
 31
0.0
 73
     1
 44
1.0
1001
ACAD
1000
MTEXTBEGIN
1070
    73
1070
     1
1070
    44
1040
1.0
1070
    74
1070
     0
1000
MTEXTEND
  0
LINE
  5
8951
330
F34
100
AcDbEntity
  8
cotas
100
AcDbLine
 10
-154.9870361390605
 20
1192.651584252465
 30
0.0
 11
-140.1602203872828
 21
1179.229939454976
 31
0.0
  0
SOLID
  5
8952
330
F34
100
AcDbEntity
  8
cotas
100
AcDbTrace
 10
-131.6280756315729
 20
1173.754514024438
 30
0.0
 11
-133.8650862985425
 21
1171.283300883696
 31
0.0
 12
-140.1602203872828
 22
1179.229939454976
 32
0.0
 13
-140.1602203872828
 23
1179.229939454976
 33
0.0
  0
POINT
  5
8953
330
F34
100
AcDbEntity
  8
Defpoints
 62
     0
100
AcDbPoint
 10
-140.1602203872828
 20
1179.229939454976
 30
0.0
  0
POINT
  5
8954
330
F34
100
AcDbEntity
  8
Defpoints
 62
     0
100
AcDbPoint
 10
-154.9870361390605
 20
1192.651584252465
 30
0.0
  0
ENDBLK
  5
F3C
330
F34
100
AcDbEntity
  8
0
100
AcDbBlockEnd
  0
BLOCK
  5
F44
330
F3D
100
AcDbEntity
  8
0
100
AcDbBlockBegin
  2
*D82
 70
     1
 10
0.0
 20
0.0
 30
0.0
  3
*D82
  1

  0
LINE
  5
8949
330
F3D
100
AcDbEntity
  8
cotas
100
AcDbLine
 10
-24.60462216850596
 20
1074.438451635747
 30
0.0
 11
-53.98806098761866
 21
1095.221537238245
 31
0.0
  0
MTEXT
  5
894A
330
F3D
100
AcDbEntity
  8
cotas
100
AcDbMText
 10
-29.37954320340521
 20
1090.191885922775
 30
0.0
 40
10.0
 41
0.0
 71
     5
 72
     1
  1
R5
  7
SANINDUSA
 11
0.8164198619454888
 21
-0.5774587509259074
 31
0.0
 73
     1
 44
1.0
1001
ACAD
1000
MTEXTBEGIN
1070
    73
1070
     1
1070
    44
1040
1.0
1070
    74
1070
     0
1000
MTEXTEND
  0
LINE
  5
894B
330
F3D
100
AcDbEntity
  8
cotas
100
AcDbLine
 10
-66.2334797893763
 20
1103.88279668994
 30
0.0
 11
-62.15225960707352
 21
1100.996124747503
 31
0.0
  0
SOLID
  5
894C
330
F3D
100
AcDbEntity
  8
cotas
100
AcDbTrace
 10
-53.02562973607553
 20
1096.582237008154
 30
0.0
 11
-54.95049223916186
 21
1093.860837468335
 31
0.0
 12
-62.15225960707352
 22
1100.996124747503
 32
0.0
 13
-62.15225960707352
 23
1100.996124747503
 33
0.0
  0
POINT
  5
894D
330
F3D
100
AcDbEntity
  8
Defpoints
 62
     0
100
AcDbPoint
 10
-62.15225960707352
 20
1100.996124747503
 30
0.0
  0
POINT
  5
894E
330
F3D
100
AcDbEntity
  8
Defpoints
 62
     0
100
AcDbPoint
 10
-66.2334797893763
 20
1103.88279668994
 30
0.0
  0
ENDBLK
  5
F45
330
F3D
100
AcDbEntity
  8
0
100
AcDbBlockEnd
  0
BLOCK
  5
F4D
330
F46
100
AcDbEntity
  8
0
100
AcDbBlockBegin
  2
*D83
 70
     1
 10
0.0
 20
0.0
 30
0.0
  3
*D83
  1

  0
LINE
  5
8943
330
F46
100
AcDbEntity
  8
cotas
100
AcDbLine
 10
-109.390748506117
 20
1865.810732421556
 30
0.0
 11
-136.7001780276484
 21
1830.29448893124
 31
0.0
  0
MTEXT
  5
8944
330
F46
100
AcDbEntity
  8
cotas
100
AcDbMText
 10
-128.0901072222866
 20
1858.238816065586
 30
0.0
 40
10.0
 41
0.0
 71
     5
 72
     1
  1
R20
  7
SANINDUSA
 11
0.6095598944320252
 21
0.7927400173449165
 31
0.0
 73
     1
 44
1.0
1001
ACAD
1000
MTEXTBEGIN
1070
    73
1070
     1
1070
    44
1040
1.0
1070
    74
1070
     0
1000
MTEXTEND
  0
LINE
  5
8945
330
F46
100
AcDbEntity
  8
cotas
100
AcDbLine
 10
-154.9858381851533
 20
1806.513766671075
 30
0.0
 11
-142.7957769719687
 21
1822.367088757792
 31
0.0
  0
SOLID
  5
8946
330
F46
100
AcDbEntity
  8
cotas
100
AcDbTrace
 10
-138.0214113898899
 20
1831.310422088628
 30
0.0
 11
-135.3789446654068
 21
1829.278555773854
 31
0.0
 12
-142.7957769719687
 22
1822.367088757792
 32
0.0
 13
-142.7957769719687
 23
1822.367088757792
 33
0.0
  0
POINT
  5
8947
330
F46
100
AcDbEntity
  8
Defpoints
 62
     0
100
AcDbPoint
 10
-142.7957769719687
 20
1822.367088757792
 30
0.0
  0
POINT
  5
8948
330
F46
100
AcDbEntity
  8
Defpoints
 62
     0
100
AcDbPoint
 10
-154.9858381851533
 20
1806.513766671075
 30
0.0
  0
ENDBLK
  5
F4E
330
F46
100
AcDbEntity
  8
0
100
AcDbBlockEnd
  0
BLOCK
  5
F56
330
F4F
100
AcDbEntity
  8
0
100
AcDbBlockBegin
  2
*D84
 70
     1
 10
0.0
 20
0.0
 30
0.0
  3
*D84
  1

  0
LINE
  5
893D
330
F4F
100
AcDbEntity
  8
cotas
100
AcDbLine
 10
-24.40832959990553
 20
1924.446198295497
 30
0.0
 11
-53.93032015955942
 21
1903.860397427107
 31
0.0
  0
MTEXT
  5
893E
330
F4F
100
AcDbEntity
  8
cotas
100
AcDbMText
 10
-40.84729006630266
 20
1925.301266426989
 30
0.0
 40
10.0
 41
0.0
 71
     5
 72
     1
  1
R5
  7
SANINDUSA
 11
0.8202695268394265
 21
0.5719771877781695
 31
0.0
 73
     1
 44
1.0
1001
ACAD
1000
MTEXTBEGIN
1070
    73
1070
     1
1070
    44
1040
1.0
1070
    74
1070
     0
1000
MTEXTEND
  0
LINE
  5
893F
330
F4F
100
AcDbEntity
  8
cotas
100
AcDbLine
 10
-66.23347978938046
 20
1895.281355520034
 30
0.0
 11
-62.13301542795363
 21
1898.140625549326
 31
0.0
  0
SOLID
  5
8940
330
F4F
100
AcDbEntity
  8
cotas
100
AcDbTrace
 10
-54.88361547252305
 20
1905.227513305174
 30
0.0
 11
-52.97702484659578
 21
1902.493281549042
 31
0.0
 12
-62.13301542795363
 22
1898.140625549326
 32
0.0
 13
-62.13301542795363
 23
1898.140625549326
 33
0.0
  0
POINT
  5
8941
330
F4F
100
AcDbEntity
  8
Defpoints
 62
     0
100
AcDbPoint
 10
-62.13301542795363
 20
1898.140625549326
 30
0.0
  0
POINT
  5
8942
330
F4F
100
AcDbEntity
  8
Defpoints
 62
     0
100
AcDbPoint
 10
-66.23347978938046
 20
1895.281355520034
 30
0.0
  0
ENDBLK
  5
F57
330
F4F
100
AcDbEntity
  8
0
100
AcDbBlockEnd
  0
BLOCK
  5
F5F
330
F58
100
AcDbEntity
  8
0
100
AcDbBlockBegin
  2
*D85
 70
     1
 10
0.0
 20
0.0
 30
0.0
  3
*D85
  1

  0
LINE
  5
8937
330
F58
100
AcDbEntity
  8
cotas
100
AcDbLine
 10
-1737.877221769727
 20
1837.901745508065
 30
0.0
 11
-1697.003112653216
 21
1819.55738134938
 31
0.0
  0
MTEXT
  5
8938
330
F58
100
AcDbEntity
  8
cotas
100
AcDbMText
 10
-1717.82202011449
 20
1840.090082837093
 30
0.0
 40
10.0
 41
0.0
 71
     5
 72
     1
  1
R20
  7
SANINDUSA
 11
0.9123302124791571
 21
-0.4094552275862844
 31
0.0
 73
     1
 44
1.0
1001
ACAD
1000
MTEXTBEGIN
1070
    73
1070
     1
1070
    44
1040
1.0
1070
    74
1070
     0
1000
MTEXTEND
  0
LINE
  5
8939
330
F58
100
AcDbEntity
  8
cotas
100
AcDbLine
 10
-1669.622772392498
 20
1807.269041777267
 30
0.0
 11
-1687.879810528424
 21
1815.462829073517
 31
0.0
  0
SOLID
  5
893A
330
F58
100
AcDbEntity
  8
cotas
100
AcDbTrace
 10
-1696.320687273905
 20
1821.077931703512
 30
0.0
 11
-1697.685538032526
 21
1818.036830995248
 31
0.0
 12
-1687.879810528424
 22
1815.462829073517
 32
0.0
 13
-1687.879810528424
 23
1815.462829073517
 33
0.0
  0
POINT
  5
893B
330
F58
100
AcDbEntity
  8
Defpoints
 62
     0
100
AcDbPoint
 10
-1687.879810528424
 20
1815.462829073517
 30
0.0
  0
POINT
  5
893C
330
F58
100
AcDbEntity
  8
Defpoints
 62
     0
100
AcDbPoint
 10
-1669.622772392498
 20
1807.269041777267
 30
0.0
  0
ENDBLK
  5
F60
330
F58
100
AcDbEntity
  8
0
100
AcDbBlockEnd
  0
BLOCK
  5
F68
330
F61
100
AcDbEntity
  8
0
100
AcDbBlockBegin
  2
*D86
 70
     1
 10
0.0
 20
0.0
 30
0.0
  3
*D86
  1

  0
LINE
  5
8931
330
F61
100
AcDbEntity
  8
cotas
100
AcDbLine
 10
-1706.148111161266
 20
1126.601897511478
 30
0.0
 11
-1684.276502554796
 21
1165.702296862638
 31
0.0
  0
MTEXT
  5
8932
330
F61
100
AcDbEntity
  8
cotas
100
AcDbMText
 10
-1706.562332284696
 20
1146.77188399037
 30
0.0
 40
10.0
 41
0.0
 71
     5
 72
     1
  1
R20
  7
SANINDUSA
 11
0.4881850579378556
 21
0.8727401384181966
 31
0.0
 73
     1
 44
1.0
1001
ACAD
1000
MTEXTBEGIN
1070
    73
1070
     1
1070
    44
1040
1.0
1070
    74
1070
     0
1000
MTEXTEND
  0
LINE
  5
8933
330
F61
100
AcDbEntity
  8
cotas
100
AcDbLine
 10
-1669.627866169547
 20
1191.890015512821
 30
0.0
 11
-1679.394651975417
 21
1174.42969824682
 31
0.0
  0
SOLID
  5
8934
330
F61
100
AcDbEntity
  8
cotas
100
AcDbTrace
 10
-1685.731069452159
 20
1166.515938625868
 30
0.0
 11
-1682.821935657432
 21
1164.888655099408
 31
0.0
 12
-1679.394651975417
 22
1174.42969824682
 32
0.0
 13
-1679.394651975417
 23
1174.42969824682
 33
0.0
  0
POINT
  5
8935
330
F61
100
AcDbEntity
  8
Defpoints
 62
     0
100
AcDbPoint
 10
-1679.394651975417
 20
1174.42969824682
 30
0.0
  0
POINT
  5
8936
330
F61
100
AcDbEntity
  8
Defpoints
 62
     0
100
AcDbPoint
 10
-1669.627866169547
 20
1191.890015512821
 30
0.0
  0
ENDBLK
  5
F69
330
F61
100
AcDbEntity
  8
0
100
AcDbBlockEnd
  0
BLOCK
  5
F71
330
F6A
100
AcDbEntity
  8
0
100
AcDbBlockBegin
  2
*D87
 70
     1
 10
0.0
 20
0.0
 30
0.0
  3
*D87
  1

  0
LINE
  5
892B
330
F6A
100
AcDbEntity
  8
cotas
100
AcDbLine
 10
-1804.641188589177
 20
1915.031572268604
 30
0.0
 11
-1771.460107939476
 21
1901.091019520764
 31
0.0
  0
MTEXT
  5
892C
330
F6A
100
AcDbEntity
  8
cotas
100
AcDbMText
 10
-1788.746627539299
 20
1919.313334961346
 30
0.0
 40
10.0
 41
0.0
 71
     5
 72
     1
  1
R5
  7
SANINDUSA
 11
0.9219374713081773
 21
-0.3873387393456586
 31
0.0
 73
     1
 44
1.0
1001
ACAD
1000
MTEXTBEGIN
1070
    73
1070
     1
1070
    44
1040
1.0
1070
    74
1070
     0
1000
MTEXTEND
  0
LINE
  5
892D
330
F6A
100
AcDbEntity
  8
cotas
100
AcDbLine
 10
-1757.632038619477
 20
1895.281355520024
 30
0.0
 11
-1762.240733226394
 21
1897.217632127307
 31
0.0
  0
SOLID
  5
892E
330
F6A
100
AcDbEntity
  8
cotas
100
AcDbTrace
 10
-1770.8145433739
 20
1902.627581972944
 30
0.0
 11
-1772.105672505052
 21
1899.554457068584
 31
0.0
 12
-1762.240733226394
 22
1897.217632127307
 32
0.0
 13
-1762.240733226394
 23
1897.217632127307
 33
0.0
  0
POINT
  5
892F
330
F6A
100
AcDbEntity
  8
Defpoints
 62
     0
100
AcDbPoint
 10
-1762.240733226394
 20
1897.217632127307
 30
0.0
  0
POINT
  5
8930
330
F6A
100
AcDbEntity
  8
Defpoints
 62
     0
100
AcDbPoint
 10
-1757.632038619477
 20
1895.281355520024
 30
0.0
  0
ENDBLK
  5
F72
330
F6A
100
AcDbEntity
  8
0
100
AcDbBlockEnd
  0
BLOCK
  5
F7A
330
F73
100
AcDbEntity
  8
0
100
AcDbBlockBegin
  2
*D88
 70
     1
 10
0.0
 20
0.0
 30
0.0
  3
*D88
  1

  0
LINE
  5
8925
330
F73
100
AcDbEntity
  8
cotas
100
AcDbLine
 10
-1803.756424096043
 20
1082.14636858183
 30
0.0
 11
-1771.199848293196
 21
1097.48887476533
 31
0.0
  0
MTEXT
  5
8926
330
F73
100
AcDbEntity
  8
cotas
100
AcDbMText
 10
-1796.308360348062
 20
1096.826181561948
 30
0.0
 40
10.0
 41
0.0
 71
     5
 72
     1
  1
R5
  7
SANINDUSA
 11
0.9045855825795765
 21
0.4262920639528352
 31
0.0
 73
     1
 44
1.0
1001
ACAD
1000
MTEXTBEGIN
1070
    73
1070
     1
1070
    44
1040
1.0
1070
    74
1070
     0
1000
MTEXTEND
  0
LINE
  5
8927
330
F73
100
AcDbEntity
  8
cotas
100
AcDbLine
 10
-1757.632038619465
 20
1103.882796689932
 30
0.0
 11
-1762.1539924674
 21
1101.751795404859
 31
0.0
  0
SOLID
  5
8928
330
F73
100
AcDbEntity
  8
cotas
100
AcDbTrace
 10
-1771.910335066451
 20
1098.996517402963
 30
0.0
 11
-1770.489361519941
 21
1095.981232127698
 31
0.0
 12
-1762.1539924674
 22
1101.751795404859
 32
0.0
 13
-1762.1539924674
 23
1101.751795404859
 33
0.0
  0
POINT
  5
8929
330
F73
100
AcDbEntity
  8
Defpoints
 62
     0
100
AcDbPoint
 10
-1762.1539924674
 20
1101.751795404859
 30
0.0
  0
POINT
  5
892A
330
F73
100
AcDbEntity
  8
Defpoints
 62
     0
100
AcDbPoint
 10
-1757.632038619465
 20
1103.882796689932
 30
0.0
  0
ENDBLK
  5
F7B
330
F73
100
AcDbEntity
  8
0
100
AcDbBlockEnd
  0
BLOCK
  5
F85
330
F7C
100
AcDbEntity
  8
0
100
AcDbBlockBegin
  2
*D89
 70
     1
 10
0.0
 20
0.0
 30
0.0
  3
*D89
  1

  0
LINE
  5
891D
330
F7C
100
AcDbEntity
  8
cotas
100
AcDbLine
 10
-360.9363340088906
 20
1574.043737166756
 30
0.0
 11
-313.9896301295653
 21
1544.668741012451
 31
0.0
  0
LINE
  5
891E
330
F7C
100
AcDbEntity
  8
cotas
100
AcDbLine
 10
-169.8758882792896
 20
1454.495411197519
 30
0.0
 11
-161.3986093469206
 21
1449.191097678993
 31
0.0
  0
MTEXT
  5
891F
330
F7C
100
AcDbEntity
  8
cotas
100
AcDbMText
 10
-335.919955423548
 20
1571.248572952449
 30
0.0
 40
10.0
 41
0.0
 71
     5
 72
     1
  1
\U+2205150
  7
SANINDUSA
 11
0.8477278932369094
 21
-0.5304313518525382
 31
0.0
 73
     1
 44
1.0
1001
ACAD
1000
MTEXTBEGIN
1070
    73
1070
     1
1070
    44
1040
1.0
1070
    74
1070
     0
1000
MTEXTEND
  0
LINE
  5
8920
330
F7C
100
AcDbEntity
  8
cotas
100
AcDbLine
 10
-178.3531672116587
 20
1459.799724716044
 30
0.0
 11
-305.5123511971962
 21
1539.364427493925
 31
0.0
  0
SOLID
  5
8921
330
F7C
100
AcDbEntity
  8
cotas
100
AcDbTrace
 10
-168.991836026202
 20
1455.908291019581
 30
0.0
 11
-170.7599405323773
 21
1453.082531375457
 31
0.0
 12
-178.3531672116587
 22
1459.799724716044
 32
0.0
 13
-178.3531672116587
 23
1459.799724716044
 33
0.0
  0
SOLID
  5
8922
330
F7C
100
AcDbEntity
  8
cotas
100
AcDbTrace
 10
-313.1055778764777
 20
1546.081620834512
 30
0.0
 11
-314.873682382653
 21
1543.255861190389
 31
0.0
 12
-305.5123511971962
 22
1539.364427493925
 32
0.0
 13
-305.5123511971962
 23
1539.364427493925
 33
0.0
  0
POINT
  5
8923
330
F7C
100
AcDbEntity
  8
Defpoints
 62
     0
100
AcDbPoint
 10
-305.5123511971962
 20
1539.364427493925
 30
0.0
  0
POINT
  5
8924
330
F7C
100
AcDbEntity
  8
Defpoints
 62
     0
100
AcDbPoint
 10
-178.3531672116587
 20
1459.799724716044
 30
0.0
  0
ENDBLK
  5
F86
330
F7C
100
AcDbEntity
  8
0
100
AcDbBlockEnd
  0
BLOCK
  5
F91
330
F87
100
AcDbEntity
  8
0
100
AcDbBlockBegin
  2
*D90
 70
     1
 10
0.0
 20
0.0
 30
0.0
  3
*D90
  1

  0
LINE
  5
8914
330
F87
100
AcDbEntity
  8
cotas
100
AcDbLine
 10
1113.242616361423
 20
1607.354705137416
 30
0.0
 11
1113.242616361423
 21
1637.044710121385
 31
0.0
  0
LINE
  5
8915
330
F87
100
AcDbEntity
  8
cotas
100
AcDbLine
 10
2813.242616361419
 20
1607.354705137416
 30
0.0
 11
2813.242616361419
 21
1637.044710121385
 31
0.0
  0
LINE
  5
8916
330
F87
100
AcDbEntity
  8
cotas
100
AcDbLine
 10
1123.242616361423
 20
1632.044710121385
 30
0.0
 11
2803.242616361419
 21
1632.044710121385
 31
0.0
  0
SOLID
  5
8917
330
F87
100
AcDbEntity
  8
cotas
100
AcDbTrace
 10
1123.242616361423
 20
1633.711376788052
 30
0.0
 11
1123.242616361423
 21
1630.378043454718
 31
0.0
 12
1113.242616361423
 22
1632.044710121385
 32
0.0
 13
1113.242616361423
 23
1632.044710121385
 33
0.0
  0
SOLID
  5
8918
330
F87
100
AcDbEntity
  8
cotas
100
AcDbTrace
 10
2803.242616361419
 20
1633.711376788052
 30
0.0
 11
2803.242616361419
 21
1630.378043454718
 31
0.0
 12
2813.242616361419
 22
1632.044710121385
 32
0.0
 13
2813.242616361419
 23
1632.044710121385
 33
0.0
  0
MTEXT
  5
8919
330
F87
100
AcDbEntity
  8
cotas
100
AcDbMText
 10
1963.242616361421
 20
1642.249545581426
 30
0.0
 40
10.0
 41
0.0
 71
     5
 72
     1
  1
1700
  7
SANINDUSA
 73
     1
 44
1.0
1001
ACAD
1000
MTEXTBEGIN
1070
    73
1070
     1
1070
    44
1040
1.0
1070
    74
1070
     0
1000
MTEXTEND
  0
POINT
  5
891A
330
F87
100
AcDbEntity
  8
Defpoints
 62
     0
100
AcDbPoint
 10
1113.242616361423
 20
1602.354705137416
 30
0.0
  0
POINT
  5
891B
330
F87
100
AcDbEntity
  8
Defpoints
 62
     0
100
AcDbPoint
 10
2813.242616361419
 20
1602.354705137416
 30
0.0
  0
POINT
  5
891C
330
F87
100
AcDbEntity
  8
Defpoints
 62
     0
100
AcDbPoint
 10
2813.242616361419
 20
1632.044710121385
 30
0.0
  0
ENDBLK
  5
F92
330
F87
100
AcDbEntity
  8
0
100
AcDbBlockEnd
  0
BLOCK
  5
F9E
330
F93
100
AcDbEntity
  8
0
100
AcDbBlockBegin
  2
*D91
 70
     1
 10
0.0
 20
0.0
 30
0.0
  3
*D91
  1

  0
LINE
  5
890A
330
F93
100
AcDbEntity
  8
cotas
100
AcDbLine
 10
2814.028134869773
 20
1557.355466661644
 30
0.0
 11
2814.619889100364
 21
1523.4538894962
 31
0.0
  0
ARC
  5
890B
330
F93
100
AcDbEntity
  8
cotas
100
AcDbCircle
 10
2813.242670240459
 20
1602.354705137426
 30
0.0
 40
73.91283444813564
100
AcDbArc
 50
187.757728301578
 51
263.2422716984211
  0
SOLID
  5
890C
330
F93
100
AcDbEntity
  8
cotas
100
AcDbTrace
 10
2738.343459458453
 20
1592.264866709297
 30
0.0
 11
2741.669157128866
 21
1592.490357543076
 31
0.0
 12
2739.329835792323
 22
1602.354705137426
 32
0.0
 13
2739.329835792323
 23
1602.354705137426
 33
0.0
  0
SOLID
  5
890D
330
F93
100
AcDbEntity
  8
cotas
100
AcDbTrace
 10
2804.628955074992
 20
1530.6199364151
 30
0.0
 11
2804.461540011991
 21
1527.290809906871
 31
0.0
 12
2814.532627068178
 22
1528.453127971982
 32
0.0
 13
2814.532627068178
 23
1528.453127971982
 33
0.0
  0
MTEXT
  5
890E
330
F93
100
AcDbEntity
  8
cotas
100
AcDbMText
 10
2783.124215151859
 20
1546.208079606784
 30
0.0
 40
10.0
 41
0.0
 71
     5
 72
     1
  1
91°
  7
SANINDUSA
 11
0.8812191283366665
 21
-0.4727079942771918
 31
0.0
 73
     1
 44
1.0
1001
ACAD
1000
MTEXTBEGIN
1070
    73
1070
     1
1070
    44
1040
1.0
1070
    74
1070
     0
1000
MTEXTEND
  0
POINT
  5
890F
330
F93
100
AcDbEntity
  8
Defpoints
 62
     0
100
AcDbPoint
 10
2749.448363706887
 20
1565.026518065749
 30
0.0
  0
POINT
  5
8910
330
F93
100
AcDbEntity
  8
Defpoints
 62
     0
100
AcDbPoint
 10
2813.362723264743
 20
1595.476871982487
 30
0.0
  0
POINT
  5
8911
330
F93
100
AcDbEntity
  8
Defpoints
 62
     0
100
AcDbPoint
 10
1120.121551082267
 20
1602.354705137426
 30
0.0
  0
POINT
  5
8912
330
F93
100
AcDbEntity
  8
Defpoints
 62
     0
100
AcDbPoint
 10
2806.363789398648
 20
1602.354705137426
 30
0.0
  0
POINT
  5
8913
330
F93
100
AcDbEntity
  8
Defpoints
 62
     0
100
AcDbPoint
 10
2813.940872837587
 20
1562.354705137426
 30
0.0
  0
ENDBLK
  5
F9F
330
F93
100
AcDbEntity
  8
0
100
AcDbBlockEnd
  0
BLOCK
  5
FAA
330
FA0
100
AcDbEntity
  8
0
100
AcDbBlockBegin
  2
*D92
 70
     1
 10
0.0
 20
0.0
 30
0.0
  3
*D92
  1

  0
LINE
  5
8901
330
FA0
100
AcDbEntity
  8
cotas
100
AcDbLine
 10
2818.242670240456
 20
1602.354705137416
 30
0.0
 11
2854.532627068178
 21
1602.354705137416
 31
0.0
  0
LINE
  5
8902
330
FA0
100
AcDbEntity
  8
cotas
100
AcDbLine
 10
2689.938438502804
 20
1468.315026046212
 30
0.0
 11
2854.532627068178
 21
1468.315026046212
 31
0.0
  0
LINE
  5
8903
330
FA0
100
AcDbEntity
  8
cotas
100
AcDbLine
 10
2849.532627068177
 20
1592.354705137416
 30
0.0
 11
2849.532627068177
 21
1478.315026046213
 31
0.0
  0
SOLID
  5
8904
330
FA0
100
AcDbEntity
  8
cotas
100
AcDbTrace
 10
2847.865960401511
 20
1592.354705137416
 30
0.0
 11
2851.199293734844
 21
1592.354705137416
 31
0.0
 12
2849.532627068177
 22
1602.354705137416
 32
0.0
 13
2849.532627068177
 23
1602.354705137416
 33
0.0
  0
SOLID
  5
8905
330
FA0
100
AcDbEntity
  8
cotas
100
AcDbTrace
 10
2847.865960401511
 20
1478.315026046213
 30
0.0
 11
2851.199293734844
 21
1478.315026046213
 31
0.0
 12
2849.532627068177
 22
1468.315026046212
 32
0.0
 13
2849.532627068177
 23
1468.315026046212
 33
0.0
  0
MTEXT
  5
8906
330
FA0
100
AcDbEntity
  8
cotas
100
AcDbMText
 10
2839.324433649775
 20
1535.334865591815
 30
0.0
 40
10.0
 41
0.0
 71
     5
 72
     1
  1
134
  7
SANINDUSA
 11
0.0000000000000001
 21
1.0
 31
0.0
 73
     1
 44
1.0
1001
ACAD
1000
MTEXTBEGIN
1070
    73
1070
     1
1070
    44
1040
1.0
1070
    74
1070
     0
1000
MTEXTEND
  0
POINT
  5
8907
330
FA0
100
AcDbEntity
  8
Defpoints
 62
     0
100
AcDbPoint
 10
2813.242670240456
 20
1602.354705137416
 30
0.0
  0
POINT
  5
8908
330
FA0
100
AcDbEntity
  8
Defpoints
 62
     0
100
AcDbPoint
 10
2684.938438502805
 20
1468.315026046212
 30
0.0
  0
POINT
  5
8909
330
FA0
100
AcDbEntity
  8
Defpoints
 62
     0
100
AcDbPoint
 10
2849.532627068177
 20
1468.315026046212
 30
0.0
  0
ENDBLK
  5
FAB
330
FA0
100
AcDbEntity
  8
0
100
AcDbBlockEnd
  0
BLOCK
  5
FB7
330
FAC
100
AcDbEntity
  8
0
100
AcDbBlockBegin
  2
*D93
 70
     1
 10
0.0
 20
0.0
 30
0.0
  3
*D93
  1

  0
LINE
  5
88F7
330
FAC
100
AcDbEntity
  8
cotas
100
AcDbLine
 10
1112.457151732106
 20
1557.355466661644
 30
0.0
 11
1111.870595307615
 21
1523.751671608296
 31
0.0
  0
ARC
  5
88F8
330
FAC
100
AcDbEntity
  8
cotas
100
AcDbCircle
 10
1113.242616361421
 20
1602.354705137426
 30
0.0
 40
73.61500697547315
100
AcDbArc
 50
276.7891624136408
 51
352.2108375863584
  0
SOLID
  5
88F9
330
FAC
100
AcDbEntity
  8
cotas
100
AcDbTrace
 10
1122.029262857623
 20
1527.591354706629
 30
0.0
 11
1121.86093457367
 21
1530.920435165245
 31
0.0
 12
1111.957857339801
 22
1528.750910084078
 32
0.0
 13
1111.957857339801
 23
1528.750910084078
 33
0.0
  0
SOLID
  5
88FA
330
FAC
100
AcDbEntity
  8
cotas
100
AcDbTrace
 10
1184.515596156041
 20
1592.49099962368
 30
0.0
 11
1187.841231845951
 21
1592.264596511713
 31
0.0
 12
1186.857623336895
 22
1602.354705137426
 32
0.0
 13
1186.857623336895
 23
1602.354705137426
 33
0.0
  0
MTEXT
  5
88FB
330
FAC
100
AcDbEntity
  8
cotas
100
AcDbMText
 10
1143.006904585752
 20
1546.356591257746
 30
0.0
 40
10.0
 41
0.0
 71
     5
 72
     1
  1
91°
  7
SANINDUSA
 11
0.8830158045771101
 21
0.4693432527128082
 31
0.0
 73
     1
 44
1.0
1001
ACAD
1000
MTEXTBEGIN
1070
    73
1070
     1
1070
    44
1040
1.0
1070
    74
1070
     0
1000
MTEXTEND
  0
POINT
  5
88FC
330
FAC
100
AcDbEntity
  8
Defpoints
 62
     0
100
AcDbPoint
 10
1176.779867442756
 20
1565.176929827083
 30
0.0
  0
POINT
  5
88FD
330
FAC
100
AcDbEntity
  8
Defpoints
 62
     0
100
AcDbPoint
 10
1120.121497203231
 20
1602.354705137426
 30
0.0
  0
POINT
  5
88FE
330
FAC
100
AcDbEntity
  8
Defpoints
 62
     0
100
AcDbPoint
 10
1112.544413764292
 20
1562.354705137426
 30
0.0
  0
POINT
  5
88FF
330
FAC
100
AcDbEntity
  8
Defpoints
 62
     0
100
AcDbPoint
 10
1113.122563337137
 20
1595.476871982487
 30
0.0
  0
POINT
  5
8900
330
FAC
100
AcDbEntity
  8
Defpoints
 62
     0
100
AcDbPoint
 10
2806.363735519612
 20
1602.354705137426
 30
0.0
  0
ENDBLK
  5
FB8
330
FAC
100
AcDbEntity
  8
0
100
AcDbBlockEnd
  0
BLOCK
  5
FC3
330
FB9
100
AcDbEntity
  8
0
100
AcDbBlockBegin
  2
*D94
 70
     1
 10
0.0
 20
0.0
 30
0.0
  3
*D94
  1

  0
LINE
  5
88EE
330
FB9
100
AcDbEntity
  8
cotas
100
AcDbLine
 10
1108.242616361423
 20
1602.354705137416
 30
0.0
 11
1083.292361229202
 21
1602.354705137416
 31
0.0
  0
LINE
  5
88EF
330
FB9
100
AcDbEntity
  8
cotas
100
AcDbLine
 10
1107.544413764292
 20
1562.354705137426
 30
0.0
 11
1083.292361229202
 21
1562.354705137426
 31
0.0
  0
LINE
  5
88F0
330
FB9
100
AcDbEntity
  8
cotas
100
AcDbLine
 10
1088.292361229202
 20
1592.354705137416
 30
0.0
 11
1088.292361229202
 21
1572.354705137426
 31
0.0
  0
SOLID
  5
88F1
330
FB9
100
AcDbEntity
  8
cotas
100
AcDbTrace
 10
1086.625694562536
 20
1592.354705137416
 30
0.0
 11
1089.959027895869
 21
1592.354705137416
 31
0.0
 12
1088.292361229202
 22
1602.354705137416
 32
0.0
 13
1088.292361229202
 23
1602.354705137416
 33
0.0
  0
SOLID
  5
88F2
330
FB9
100
AcDbEntity
  8
cotas
100
AcDbTrace
 10
1086.625694562536
 20
1572.354705137426
 30
0.0
 11
1089.959027895869
 21
1572.354705137426
 31
0.0
 12
1088.292361229202
 22
1562.354705137426
 32
0.0
 13
1088.292361229202
 23
1562.354705137426
 33
0.0
  0
MTEXT
  5
88F3
330
FB9
100
AcDbEntity
  8
cotas
100
AcDbMText
 10
1078.087525769162
 20
1582.354705137422
 30
0.0
 40
10.0
 41
0.0
 71
     5
 72
     1
  1
40
  7
SANINDUSA
 11
0.0000000000000001
 21
1.0
 31
0.0
 73
     1
 44
1.0
1001
ACAD
1000
MTEXTBEGIN
1070
    73
1070
     1
1070
    44
1040
1.0
1070
    74
1070
     0
1000
MTEXTEND
  0
POINT
  5
88F4
330
FB9
100
AcDbEntity
  8
Defpoints
 62
     0
100
AcDbPoint
 10
1113.242616361423
 20
1602.354705137416
 30
0.0
  0
POINT
  5
88F5
330
FB9
100
AcDbEntity
  8
Defpoints
 62
     0
100
AcDbPoint
 10
1112.544413764292
 20
1562.354705137426
 30
0.0
  0
POINT
  5
88F6
330
FB9
100
AcDbEntity
  8
Defpoints
 62
     0
100
AcDbPoint
 10
1088.292361229202
 20
1562.354705137426
 30
0.0
  0
ENDBLK
  5
FC4
330
FB9
100
AcDbEntity
  8
0
100
AcDbBlockEnd
  0
BLOCK
  5
FCF
330
FC5
100
AcDbEntity
  8
0
100
AcDbBlockBegin
  2
*D95
 70
     1
 10
0.0
 20
0.0
 30
0.0
  3
*D95
  1

  0
LINE
  5
88E5
330
FC5
100
AcDbEntity
  8
cotas
100
AcDbLine
 10
148.234196371458
 20
1607.354712070401
 30
0.0
 11
148.234196371458
 21
1635.519433751612
 31
0.0
  0
LINE
  5
88E6
330
FC5
100
AcDbEntity
  8
cotas
100
AcDbLine
 10
948.234214487708
 20
1607.354712070391
 30
0.0
 11
948.234214487708
 21
1635.519433751612
 31
0.0
  0
LINE
  5
88E7
330
FC5
100
AcDbEntity
  8
cotas
100
AcDbLine
 10
158.234196371458
 20
1630.519433751612
 30
0.0
 11
938.234214487708
 21
1630.519433751612
 31
0.0
  0
SOLID
  5
88E8
330
FC5
100
AcDbEntity
  8
cotas
100
AcDbTrace
 10
158.234196371458
 20
1632.186100418278
 30
0.0
 11
158.234196371458
 21
1628.852767084945
 31
0.0
 12
148.234196371458
 22
1630.519433751612
 32
0.0
 13
148.234196371458
 23
1630.519433751612
 33
0.0
  0
SOLID
  5
88E9
330
FC5
100
AcDbEntity
  8
cotas
100
AcDbTrace
 10
938.234214487708
 20
1632.186100418278
 30
0.0
 11
938.234214487708
 21
1628.852767084945
 31
0.0
 12
948.234214487708
 22
1630.519433751612
 32
0.0
 13
948.234214487708
 23
1630.519433751612
 33
0.0
  0
MTEXT
  5
88EA
330
FC5
100
AcDbEntity
  8
cotas
100
AcDbMText
 10
548.234205429583
 20
1640.747774920181
 30
0.0
 40
10.0
 41
0.0
 71
     5
 72
     1
  1
800
  7
SANINDUSA
 73
     1
 44
1.0
1001
ACAD
1000
MTEXTBEGIN
1070
    73
1070
     1
1070
    44
1040
1.0
1070
    74
1070
     0
1000
MTEXTEND
  0
POINT
  5
88EB
330
FC5
100
AcDbEntity
  8
Defpoints
 62
     0
100
AcDbPoint
 10
148.234196371458
 20
1602.354712070401
 30
0.0
  0
POINT
  5
88EC
330
FC5
100
AcDbEntity
  8
Defpoints
 62
     0
100
AcDbPoint
 10
948.234214487708
 20
1602.354712070391
 30
0.0
  0
POINT
  5
88ED
330
FC5
100
AcDbEntity
  8
Defpoints
 62
     0
100
AcDbPoint
 10
948.234214487708
 20
1630.519433751612
 30
0.0
  0
ENDBLK
  5
FD0
330
FC5
100
AcDbEntity
  8
0
100
AcDbBlockEnd
  0
BLOCK
  5
FDC
330
FD1
100
AcDbEntity
  8
0
100
AcDbBlockBegin
  2
*D96
 70
     1
 10
0.0
 20
0.0
 30
0.0
  3
*D96
  1

  0
LINE
  5
88DB
330
FD1
100
AcDbEntity
  8
cotas
100
AcDbLine
 10
147.4487317421432
 20
1557.35547359462
 30
0.0
 11
146.8992930916668
 21
1525.878154390377
 31
0.0
  0
ARC
  5
88DC
330
FD1
100
AcDbEntity
  8
cotas
100
AcDbCircle
 10
148.2341963714584
 20
1602.354712070401
 30
0.0
 40
71.48820720446119
100
AcDbArc
 50
277.0212665005608
 51
351.9787334994392
  0
SOLID
  5
88DD
330
FD1
100
AcDbEntity
  8
cotas
100
AcDbTrace
 10
157.0602886486729
 20
1529.738239387165
 30
0.0
 11
156.8852176945727
 21
1533.066972069754
 31
0.0
 12
146.9865551238533
 22
1530.877392866158
 32
0.0
 13
146.9865551238533
 23
1530.877392866158
 33
0.0
  0
SOLID
  5
88DE
330
FD1
100
AcDbEntity
  8
cotas
100
AcDbTrace
 10
217.3604023734723
 20
1592.495770540125
 30
0.0
 11
220.685572664505
 21
1592.262631854481
 31
0.0
 12
219.7224035759195
 22
1602.354712070401
 32
0.0
 13
219.7224035759195
 23
1602.354712070401
 33
0.0
  0
MTEXT
  5
88DF
330
FD1
100
AcDbEntity
  8
cotas
100
AcDbMText
 10
175.5894925147685
 20
1547.507992766304
 30
0.0
 40
10.0
 41
0.0
 71
     5
 72
     1
  1
91°
  7
SANINDUSA
 11
0.8948709554362242
 21
0.4463249635822078
 31
0.0
 73
     1
 44
1.0
1001
ACAD
1000
MTEXTBEGIN
1070
    73
1070
     1
1070
    44
1040
1.0
1070
    74
1070
     0
1000
MTEXTEND
  0
POINT
  5
88E0
330
FD1
100
AcDbEntity
  8
Defpoints
 62
     0
100
AcDbPoint
 10
209.9358025672943
 20
1566.251034111474
 30
0.0
  0
POINT
  5
88E1
330
FD1
100
AcDbEntity
  8
Defpoints
 62
     0
100
AcDbPoint
 10
155.1130772132684
 20
1602.354712070401
 30
0.0
  0
POINT
  5
88E2
330
FD1
100
AcDbEntity
  8
Defpoints
 62
     0
100
AcDbPoint
 10
147.5359937743296
 20
1562.354712070402
 30
0.0
  0
POINT
  5
88E3
330
FD1
100
AcDbEntity
  8
Defpoints
 62
     0
100
AcDbPoint
 10
148.1141433471734
 20
1595.476878915462
 30
0.0
  0
POINT
  5
88E4
330
FD1
100
AcDbEntity
  8
Defpoints
 62
     0
100
AcDbPoint
 10
891.3553155296485
 20
1602.354712070401
 30
0.0
  0
ENDBLK
  5
FDD
330
FD1
100
AcDbEntity
  8
0
100
AcDbBlockEnd
  0
BLOCK
  5
FE9
330
FDE
100
AcDbEntity
  8
0
100
AcDbBlockBegin
  2
*D97
 70
     1
 10
0.0
 20
0.0
 30
0.0
  3
*D97
  1

  0
LINE
  5
88D1
330
FDE
100
AcDbEntity
  8
cotas
100
AcDbLine
 10
949.019679117023
 20
1557.355473594619
 30
0.0
 11
949.5923045565934
 21
1524.549784132844
 31
0.0
  0
ARC
  5
88D2
330
FDE
100
AcDbEntity
  8
cotas
100
AcDbCircle
 10
948.234214487708
 20
1602.354712070401
 30
0.0
 40
72.81677981003645
100
AcDbArc
 50
187.8746821700983
 51
263.1253178299018
  0
SOLID
  5
88D3
330
FDE
100
AcDbEntity
  8
cotas
100
AcDbTrace
 10
874.4413566965894
 20
1592.263872186991
 30
0.0
 11
877.7668224955917
 21
1592.492757159798
 31
0.0
 12
875.4174346776714
 22
1602.354712070401
 32
0.0
 13
875.4174346776714
 23
1602.354712070401
 33
0.0
  0
SOLID
  5
88D4
330
FDE
100
AcDbEntity
  8
cotas
100
AcDbTrace
 10
939.6035871662261
 20
1531.725937758036
 30
0.0
 11
939.4327744344273
 21
1528.39698385001
 31
0.0
 12
949.505042524407
 22
1529.549022608626
 32
0.0
 13
949.505042524407
 23
1529.549022608626
 33
0.0
  0
MTEXT
  5
88D5
330
FDE
100
AcDbEntity
  8
cotas
100
AcDbMText
 10
919.1687961859054
 20
1546.890326447373
 30
0.0
 40
10.0
 41
0.0
 71
     5
 72
     1
  1
91°
  7
SANINDUSA
 11
0.8857485194793783
 21
-0.4641654449009418
 31
0.0
 73
     1
 44
1.0
1001
ACAD
1000
MTEXTBEGIN
1070
    73
1070
     1
1070
    44
1040
1.0
1070
    74
1070
     0
1000
MTEXTEND
  0
POINT
  5
88D6
330
FDE
100
AcDbEntity
  8
Defpoints
 62
     0
100
AcDbPoint
 10
885.385914775313
 20
1565.58006529896
 30
0.0
  0
POINT
  5
88D7
330
FDE
100
AcDbEntity
  8
Defpoints
 62
     0
100
AcDbPoint
 10
948.3542675119929
 20
1595.476878915462
 30
0.0
  0
POINT
  5
88D8
330
FDE
100
AcDbEntity
  8
Defpoints
 62
     0
100
AcDbPoint
 10
205.1130953295178
 20
1602.354712070401
 30
0.0
  0
POINT
  5
88D9
330
FDE
100
AcDbEntity
  8
Defpoints
 62
     0
100
AcDbPoint
 10
941.355333645898
 20
1602.354712070401
 30
0.0
  0
POINT
  5
88DA
330
FDE
100
AcDbEntity
  8
Defpoints
 62
     0
100
AcDbPoint
 10
948.9324170848366
 20
1562.354712070401
 30
0.0
  0
ENDBLK
  5
FEA
330
FDE
100
AcDbEntity
  8
0
100
AcDbBlockEnd
  0
BLOCK
  5
FF5
330
FEB
100
AcDbEntity
  8
0
100
AcDbBlockBegin
  2
*D98
 70
     1
 10
0.0
 20
0.0
 30
0.0
  3
*D98
  1

  0
LINE
  5
88C8
330
FEB
100
AcDbEntity
  8
cotas
100
AcDbLine
 10
4718.711939342732
 20
1607.354702129827
 30
0.0
 11
4718.711939342732
 21
1635.755137348359
 31
0.0
  0
LINE
  5
88C9
330
FEB
100
AcDbEntity
  8
cotas
100
AcDbLine
 10
4648.592802069573
 20
1607.354705403042
 30
0.0
 11
4648.592802069573
 21
1635.755137348359
 31
0.0
  0
LINE
  5
88CA
330
FEB
100
AcDbEntity
  8
cotas
100
AcDbLine
 10
4708.711939342732
 20
1630.755137348359
 30
0.0
 11
4658.592802069573
 21
1630.755137348359
 31
0.0
  0
SOLID
  5
88CB
330
FEB
100
AcDbEntity
  8
cotas
100
AcDbTrace
 10
4708.711939342732
 20
1632.421804015025
 30
0.0
 11
4708.711939342732
 21
1629.088470681692
 31
0.0
 12
4718.711939342732
 22
1630.755137348359
 32
0.0
 13
4718.711939342732
 23
1630.755137348359
 33
0.0
  0
SOLID
  5
88CC
330
FEB
100
AcDbEntity
  8
cotas
100
AcDbTrace
 10
4658.592802069573
 20
1632.421804015025
 30
0.0
 11
4658.592802069573
 21
1629.088470681692
 31
0.0
 12
4648.592802069573
 22
1630.755137348359
 32
0.0
 13
4648.592802069573
 23
1630.755137348359
 33
0.0
  0
MTEXT
  5
88CD
330
FEB
100
AcDbEntity
  8
cotas
100
AcDbMText
 10
4683.652370706152
 20
1640.959972808399
 30
0.0
 40
10.0
 41
0.0
 71
     5
 72
     1
  1
70
  7
SANINDUSA
 73
     1
 44
1.0
1001
ACAD
1000
MTEXTBEGIN
1070
    73
1070
     1
1070
    44
1040
1.0
1070
    74
1070
     0
1000
MTEXTEND
  0
POINT
  5
88CE
330
FEB
100
AcDbEntity
  8
Defpoints
 62
     0
100
AcDbPoint
 10
4718.711939342732
 20
1602.354702129827
 30
0.0
  0
POINT
  5
88CF
330
FEB
100
AcDbEntity
  8
Defpoints
 62
     0
100
AcDbPoint
 10
4648.592802069573
 20
1602.354705403042
 30
0.0
  0
POINT
  5
88D0
330
FEB
100
AcDbEntity
  8
Defpoints
 62
     0
100
AcDbPoint
 10
4648.592802069573
 20
1630.755137348359
 30
0.0
  0
ENDBLK
  5
FF6
330
FEB
100
AcDbEntity
  8
0
100
AcDbBlockEnd
  0
BLOCK
  5
1001
330
FF7
100
AcDbEntity
  8
0
100
AcDbBlockBegin
  2
*D99
 70
     1
 10
0.0
 20
0.0
 30
0.0
  3
*D99
  1

  0
LINE
  5
88BF
330
FF7
100
AcDbEntity
  8
cotas
100
AcDbLine
 10
4718.711939342732
 20
1607.354702129827
 30
0.0
 11
4718.711939342732
 21
1665.755137348358
 31
0.0
  0
LINE
  5
88C0
330
FF7
100
AcDbEntity
  8
cotas
100
AcDbLine
 10
4538.977494303713
 20
1520.775878476247
 30
0.0
 11
4538.977494303713
 21
1665.755137348358
 31
0.0
  0
LINE
  5
88C1
330
FF7
100
AcDbEntity
  8
cotas
100
AcDbLine
 10
4708.711939342732
 20
1660.755137348359
 30
0.0
 11
4548.977494303712
 21
1660.755137348359
 31
0.0
  0
SOLID
  5
88C2
330
FF7
100
AcDbEntity
  8
cotas
100
AcDbTrace
 10
4708.711939342732
 20
1662.421804015025
 30
0.0
 11
4708.711939342732
 21
1659.088470681692
 31
0.0
 12
4718.711939342732
 22
1660.755137348359
 32
0.0
 13
4718.711939342732
 23
1660.755137348359
 33
0.0
  0
SOLID
  5
88C3
330
FF7
100
AcDbEntity
  8
cotas
100
AcDbTrace
 10
4548.977494303712
 20
1662.421804015025
 30
0.0
 11
4548.977494303712
 21
1659.088470681692
 31
0.0
 12
4538.977494303713
 22
1660.755137348359
 32
0.0
 13
4538.977494303713
 23
1660.755137348359
 33
0.0
  0
MTEXT
  5
88C4
330
FF7
100
AcDbEntity
  8
cotas
100
AcDbMText
 10
4628.844716823222
 20
1670.983478516928
 30
0.0
 40
10.0
 41
0.0
 71
     5
 72
     1
  1
180
  7
SANINDUSA
 73
     1
 44
1.0
1001
ACAD
1000
MTEXTBEGIN
1070
    73
1070
     1
1070
    44
1040
1.0
1070
    74
1070
     0
1000
MTEXTEND
  0
POINT
  5
88C5
330
FF7
100
AcDbEntity
  8
Defpoints
 62
     0
100
AcDbPoint
 10
4718.711939342732
 20
1602.354702129827
 30
0.0
  0
POINT
  5
88C6
330
FF7
100
AcDbEntity
  8
Defpoints
 62
     0
100
AcDbPoint
 10
4538.977494303713
 20
1515.775878476247
 30
0.0
  0
POINT
  5
88C7
330
FF7
100
AcDbEntity
  8
Defpoints
 62
     0
100
AcDbPoint
 10
4538.977494303713
 20
1660.755137348359
 30
0.0
  0
ENDBLK
  5
1002
330
FF7
100
AcDbEntity
  8
0
100
AcDbBlockEnd
  0
BLOCK
  5
1012
330
1003
100
AcDbEntity
  8
0
100
AcDbBlockBegin
  2
*D100
 70
     1
 10
0.0
 20
0.0
 30
0.0
  3
*D100
  1

  0
LINE
  5
88B1
330
1003
100
AcDbEntity
  8
cotas
100
AcDbLine
 10
4645.706820089175
 20
1556.370418682939
 30
0.0
 11
4645.706820089175
 21
1588.127964160823
 31
0.0
  0
ARC
  5
88B2
330
1003
100
AcDbEntity
  8
cotas
100
AcDbCircle
 10
4645.706820089173
 20
1516.299262782011
 30
0.0
 40
66.8287013788116
100
AcDbArc
 50
70.78829890689322
 51
87.99999999999952
  0
LINE
  5
88B3
330
1003
100
AcDbEntity
  8
cotas
100
AcDbLine
 10
4667.697439342847
 20
1579.406219552389
 30
0.0
 11
4690.439499451064
 21
1571.48138827422
 31
0.0
  0
ARC
  5
88B4
330
1003
100
AcDbEntity
  8
cotas
100
AcDbCircle
 10
4645.706820089173
 20
1516.299262782011
 30
0.0
 40
66.8287013788116
100
AcDbArc
 50
70.83690448437398
 51
79.41845224218676
  0
ARC
  5
88B5
330
1003
100
AcDbEntity
  8
cotas
100
AcDbCircle
 10
4645.706820089173
 20
1516.299262782011
 30
0.0
 40
66.8287013788116
100
AcDbArc
 50
98.58154775781116
 51
107.1630955156239
  0
ARC
  5
88B6
330
1003
100
AcDbEntity
  8
cotas
100
AcDbCircle
 10
4645.706820089173
 20
1516.299262782011
 30
0.0
 40
66.8287013788116
100
AcDbArc
 50
87.99999999999952
 51
89.9999999999984
  0
SOLID
  5
88B7
330
1003
100
AcDbEntity
  8
cotas
100
AcDbTrace
 10
4657.796270499372
 20
1580.334880341252
 30
0.0
 11
4658.161518019115
 21
1583.648142383474
 31
0.0
 12
4648.039108132576
 22
1583.087253921594
 32
0.0
 13
4648.039108132576
 23
1583.087253921594
 33
0.0
  0
SOLID
  5
88B8
330
1003
100
AcDbEntity
  8
cotas
100
AcDbTrace
 10
4635.610151226265
 20
1584.041777955064
 30
0.0
 11
4635.859545069372
 21
1580.717787307945
 31
0.0
 12
4645.706820089175
 22
1583.127964160823
 32
0.0
 13
4645.706820089175
 23
1583.127964160823
 33
0.0
  0
MTEXT
  5
88B9
330
1003
100
AcDbEntity
  8
cotas
100
AcDbMText
 10
4682.393318437114
 20
1584.985195277725
 30
0.0
 40
10.0
 41
0.0
 71
     5
 72
     1
  1
2°
  7
SANINDUSA
 11
0.9443091885425504
 21
-0.3290595028776862
 31
0.0
 73
     1
 44
1.0
1001
ACAD
1000
MTEXTBEGIN
1070
    73
1070
     1
1070
    44
1040
1.0
1070
    74
1070
     0
1000
MTEXTEND
  0
POINT
  5
88BA
330
1003
100
AcDbEntity
  8
Defpoints
 62
     0
100
AcDbPoint
 10
4646.484389792879
 20
1583.123440392621
 30
0.0
  0
POINT
  5
88BB
330
1003
100
AcDbEntity
  8
Defpoints
 62
     0
100
AcDbPoint
 10
4645.499846303326
 20
1510.37230902754
 30
0.0
  0
POINT
  5
88BC
330
1003
100
AcDbEntity
  8
Defpoints
 62
     0
100
AcDbPoint
 10
4645.706820089174
 20
1516.29926278203
 30
0.0
  0
POINT
  5
88BD
330
1003
100
AcDbEntity
  8
Defpoints
 62
     0
100
AcDbPoint
 10
4645.706820089174
 20
1551.370418682939
 30
0.0
  0
POINT
  5
88BE
330
1003
100
AcDbEntity
  8
Defpoints
 62
     0
100
AcDbPoint
 10
4648.476027998969
 20
1595.599001879961
 30
0.0
  0
ENDBLK
  5
1013
330
1003
100
AcDbEntity
  8
0
100
AcDbBlockEnd
  0
BLOCK
  5
101E
330
1014
100
AcDbEntity
  8
0
100
AcDbBlockBegin
  2
*D101
 70
     1
 10
0.0
 20
0.0
 30
0.0
  3
*D101
  1

  0
LINE
  5
88A8
330
1014
100
AcDbEntity
  8
cotas
100
AcDbLine
 10
4538.977494303713
 20
1521.775878476247
 30
0.0
 11
4538.977494303713
 21
1665.755137348358
 31
0.0
  0
LINE
  5
88A9
330
1014
100
AcDbEntity
  8
cotas
100
AcDbLine
 10
3018.711905189738
 20
1607.354705137416
 30
0.0
 11
3018.711905189738
 21
1665.755137348358
 31
0.0
  0
LINE
  5
88AA
330
1014
100
AcDbEntity
  8
cotas
100
AcDbLine
 10
4528.977494303712
 20
1660.755137348359
 30
0.0
 11
3028.711905189738
 21
1660.755137348359
 31
0.0
  0
SOLID
  5
88AB
330
1014
100
AcDbEntity
  8
cotas
100
AcDbTrace
 10
4528.977494303712
 20
1662.421804015025
 30
0.0
 11
4528.977494303712
 21
1659.088470681692
 31
0.0
 12
4538.977494303713
 22
1660.755137348359
 32
0.0
 13
4538.977494303713
 23
1660.755137348359
 33
0.0
  0
SOLID
  5
88AC
330
1014
100
AcDbEntity
  8
cotas
100
AcDbTrace
 10
3028.711905189738
 20
1662.421804015025
 30
0.0
 11
3028.711905189738
 21
1659.088470681692
 31
0.0
 12
3018.711905189738
 22
1660.755137348359
 32
0.0
 13
3018.711905189738
 23
1660.755137348359
 33
0.0
  0
MTEXT
  5
88AD
330
1014
100
AcDbEntity
  8
cotas
100
AcDbMText
 10
3778.844699746726
 20
1670.96333076676
 30
0.0
 40
10.0
 41
0.0
 71
     5
 72
     1
  1
1520
  7
SANINDUSA
 73
     1
 44
1.0
1001
ACAD
1000
MTEXTBEGIN
1070
    73
1070
     1
1070
    44
1040
1.0
1070
    74
1070
     0
1000
MTEXTEND
  0
POINT
  5
88AE
330
1014
100
AcDbEntity
  8
Defpoints
 62
     0
100
AcDbPoint
 10
4538.977494303713
 20
1516.775878476247
 30
0.0
  0
POINT
  5
88AF
330
1014
100
AcDbEntity
  8
Defpoints
 62
     0
100
AcDbPoint
 10
3018.711905189738
 20
1602.354705137416
 30
0.0
  0
POINT
  5
88B0
330
1014
100
AcDbEntity
  8
Defpoints
 62
     0
100
AcDbPoint
 10
3018.711905189738
 20
1660.755137348359
 30
0.0
  0
ENDBLK
  5
101F
330
1014
100
AcDbEntity
  8
0
100
AcDbBlockEnd
  0
BLOCK
  5
102A
330
1020
100
AcDbEntity
  8
0
100
AcDbBlockBegin
  2
*D102
 70
     1
 10
0.0
 20
0.0
 30
0.0
  3
*D102
  1

  0
LINE
  5
889F
330
1020
100
AcDbEntity
  8
cotas
100
AcDbLine
 10
3126.61826684654
 20
1547.683813609828
 30
0.0
 11
3127.157510745955
 21
1578.590434648559
 31
0.0
  0
LINE
  5
88A0
330
1020
100
AcDbEntity
  8
cotas
100
AcDbLine
 10
3676.452875358888
 20
1538.090563090585
 30
0.0
 11
3676.992119258303
 21
1568.997184129316
 31
0.0
  0
LINE
  5
88A1
330
1020
100
AcDbEntity
  8
cotas
100
AcDbLine
 10
3137.068764687041
 20
1573.416746861756
 30
0.0
 11
3666.90641666421
 21
1564.172393648529
 31
0.0
  0
SOLID
  5
88A2
330
1020
100
AcDbEntity
  8
cotas
100
AcDbTrace
 10
3137.097839462542
 20
1575.083159906354
 30
0.0
 11
3137.039689911539
 21
1571.750333817158
 31
0.0
 12
3127.070286419451
 22
1573.591195514764
 32
0.0
 13
3127.070286419451
 23
1573.591195514764
 33
0.0
  0
SOLID
  5
88A3
330
1020
100
AcDbEntity
  8
cotas
100
AcDbTrace
 10
3666.935491439711
 20
1565.838806693127
 30
0.0
 11
3666.877341888708
 21
1562.505980603931
 31
0.0
 12
3676.904894931799
 22
1563.997944995521
 32
0.0
 13
3676.904894931799
 23
1563.997944995521
 33
0.0
  0
MTEXT
  5
88A4
330
1020
100
AcDbEntity
  8
cotas
100
AcDbMText
 10
3402.165612655642
 20
1578.997852812297
 30
0.0
 40
10.0
 41
0.0
 71
     5
 72
     1
  1
550
  7
SANINDUSA
 11
0.9998478267589707
 21
-0.0174448653008065
 31
0.0
 73
     1
 44
1.0
1001
ACAD
1000
MTEXTBEGIN
1070
    73
1070
     1
1070
    44
1040
1.0
1070
    74
1070
     0
1000
MTEXTEND
  0
POINT
  5
88A5
330
1020
100
AcDbEntity
  8
Defpoints
 62
     0
100
AcDbPoint
 10
3126.531042520035
 20
1542.684574476033
 30
0.0
  0
POINT
  5
88A6
330
1020
100
AcDbEntity
  8
Defpoints
 62
     0
100
AcDbPoint
 10
3676.365651032384
 20
1533.09132395679
 30
0.0
  0
POINT
  5
88A7
330
1020
100
AcDbEntity
  8
Defpoints
 62
     0
100
AcDbPoint
 10
3676.904894931799
 20
1563.997944995521
 30
0.0
  0
ENDBLK
  5
102B
330
1020
100
AcDbEntity
  8
0
100
AcDbBlockEnd
  0
BLOCK
  5
1036
330
102C
100
AcDbEntity
  8
0
100
AcDbBlockBegin
  2
*D103
 70
     1
 10
0.0
 20
0.0
 30
0.0
  3
*D103
  1

  0
LINE
  5
8896
330
102C
100
AcDbEntity
  8
cotas
100
AcDbLine
 10
3018.711905189738
 20
1607.354705137416
 30
0.0
 11
3018.711905189738
 21
1635.755137348359
 31
0.0
  0
LINE
  5
8897
330
102C
100
AcDbEntity
  8
cotas
100
AcDbLine
 10
3088.831042520035
 20
1607.354705137416
 30
0.0
 11
3088.831042520035
 21
1635.755137348359
 31
0.0
  0
LINE
  5
8898
330
102C
100
AcDbEntity
  8
cotas
100
AcDbLine
 10
3028.711905189738
 20
1630.755137348359
 30
0.0
 11
3078.831042520036
 21
1630.755137348359
 31
0.0
  0
SOLID
  5
8899
330
102C
100
AcDbEntity
  8
cotas
100
AcDbTrace
 10
3028.711905189738
 20
1632.421804015025
 30
0.0
 11
3028.711905189738
 21
1629.088470681692
 31
0.0
 12
3018.711905189738
 22
1630.755137348359
 32
0.0
 13
3018.711905189738
 23
1630.755137348359
 33
0.0
  0
SOLID
  5
889A
330
102C
100
AcDbEntity
  8
cotas
100
AcDbTrace
 10
3078.831042520036
 20
1632.421804015025
 30
0.0
 11
3078.831042520036
 21
1629.088470681692
 31
0.0
 12
3088.831042520035
 22
1630.755137348359
 32
0.0
 13
3088.831042520035
 23
1630.755137348359
 33
0.0
  0
MTEXT
  5
889B
330
102C
100
AcDbEntity
  8
cotas
100
AcDbMText
 10
3053.771473854887
 20
1640.959972808399
 30
0.0
 40
10.0
 41
0.0
 71
     5
 72
     1
  1
70
  7
SANINDUSA
 73
     1
 44
1.0
1001
ACAD
1000
MTEXTBEGIN
1070
    73
1070
     1
1070
    44
1040
1.0
1070
    74
1070
     0
1000
MTEXTEND
  0
POINT
  5
889C
330
102C
100
AcDbEntity
  8
Defpoints
 62
     0
100
AcDbPoint
 10
3018.711905189738
 20
1602.354705137416
 30
0.0
  0
POINT
  5
889D
330
102C
100
AcDbEntity
  8
Defpoints
 62
     0
100
AcDbPoint
 10
3088.831042520035
 20
1602.354705137416
 30
0.0
  0
POINT
  5
889E
330
102C
100
AcDbEntity
  8
Defpoints
 62
     0
100
AcDbPoint
 10
3088.831042520035
 20
1630.755137348359
 30
0.0
  0
ENDBLK
  5
1037
330
102C
100
AcDbEntity
  8
0
100
AcDbBlockEnd
  0
BLOCK
  5
1042
330
1038
100
AcDbEntity
  8
0
100
AcDbBlockBegin
  2
*D104
 70
     1
 10
0.0
 20
0.0
 30
0.0
  3
*D104
  1

  0
LINE
  5
888D
330
1038
100
AcDbEntity
  8
cotas
100
AcDbLine
 10
3088.831042520035
 20
1607.354705137416
 30
0.0
 11
3088.831042520035
 21
1635.668941450081
 31
0.0
  0
LINE
  5
888E
330
1038
100
AcDbEntity
  8
cotas
100
AcDbLine
 10
3126.531042520035
 20
1547.684574476033
 30
0.0
 11
3126.531042520035
 21
1635.668941450081
 31
0.0
  0
LINE
  5
888F
330
1038
100
AcDbEntity
  8
cotas
100
AcDbLine
 10
3098.831042520036
 20
1630.668941450081
 30
0.0
 11
3116.531042520035
 21
1630.668941450081
 31
0.0
  0
SOLID
  5
8890
330
1038
100
AcDbEntity
  8
cotas
100
AcDbTrace
 10
3098.831042520036
 20
1632.335608116747
 30
0.0
 11
3098.831042520036
 21
1629.002274783414
 31
0.0
 12
3088.831042520035
 22
1630.668941450081
 32
0.0
 13
3088.831042520035
 23
1630.668941450081
 33
0.0
  0
SOLID
  5
8891
330
1038
100
AcDbEntity
  8
cotas
100
AcDbTrace
 10
3116.531042520035
 20
1632.335608116747
 30
0.0
 11
3116.531042520035
 21
1629.002274783414
 31
0.0
 12
3126.531042520035
 22
1630.668941450081
 32
0.0
 13
3126.531042520035
 23
1630.668941450081
 33
0.0
  0
MTEXT
  5
8892
330
1038
100
AcDbEntity
  8
cotas
100
AcDbMText
 10
3110.247502300398
 20
1642.015482752968
 30
0.0
 40
10.0
 41
0.0
 71
     5
 72
     1
  1
37,7
  7
SANINDUSA
 73
     1
 44
1.0
1001
ACAD
1000
MTEXTBEGIN
1070
    73
1070
     1
1070
    44
1040
1.0
1070
    74
1070
     0
1000
MTEXTEND
  0
POINT
  5
8893
330
1038
100
AcDbEntity
  8
Defpoints
 62
     0
100
AcDbPoint
 10
3088.831042520035
 20
1602.354705137416
 30
0.0
  0
POINT
  5
8894
330
1038
100
AcDbEntity
  8
Defpoints
 62
     0
100
AcDbPoint
 10
3126.531042520035
 20
1542.684574476033
 30
0.0
  0
POINT
  5
8895
330
1038
100
AcDbEntity
  8
Defpoints
 62
     0
100
AcDbPoint
 10
3126.531042520035
 20
1630.668941450081
 30
0.0
  0
ENDBLK
  5
1043
330
1038
100
AcDbEntity
  8
0
100
AcDbBlockEnd
  0
BLOCK
  5
104E
330
1044
100
AcDbEntity
  8
0
100
AcDbBlockBegin
  2
*D105
 70
     1
 10
0.0
 20
0.0
 30
0.0
  3
*D105
  1

  0
LINE
  5
8884
330
1044
100
AcDbEntity
  8
cotas
100
AcDbLine
 10
3018.588976820443
 20
1602.268509239139
 30
0.0
 11
2987.890771022044
 21
1602.268509239139
 31
0.0
  0
LINE
  5
8885
330
1044
100
AcDbEntity
  8
cotas
100
AcDbLine
 10
3121.786890450057
 20
1542.680068725627
 30
0.0
 11
2987.890771022044
 21
1542.680068725627
 31
0.0
  0
LINE
  5
8886
330
1044
100
AcDbEntity
  8
cotas
100
AcDbLine
 10
2992.890771022045
 20
1592.268509239138
 30
0.0
 11
2992.890771022045
 21
1552.680068725627
 31
0.0
  0
SOLID
  5
8887
330
1044
100
AcDbEntity
  8
cotas
100
AcDbTrace
 10
2991.224104355378
 20
1592.268509239138
 30
0.0
 11
2994.557437688711
 21
1592.268509239138
 31
0.0
 12
2992.890771022045
 22
1602.268509239139
 32
0.0
 13
2992.890771022045
 23
1602.268509239139
 33
0.0
  0
SOLID
  5
8888
330
1044
100
AcDbEntity
  8
cotas
100
AcDbTrace
 10
2991.224104355378
 20
1552.680068725627
 30
0.0
 11
2994.557437688711
 21
1552.680068725627
 31
0.0
 12
2992.890771022045
 22
1542.680068725627
 32
0.0
 13
2992.890771022045
 23
1542.680068725627
 33
0.0
  0
MTEXT
  5
8889
330
1044
100
AcDbEntity
  8
cotas
100
AcDbMText
 10
2981.547587677518
 20
1572.474288982383
 30
0.0
 40
10.0
 41
0.0
 71
     5
 72
     1
  1
59,6
  7
SANINDUSA
 11
0.0000000000000001
 21
1.0
 31
0.0
 73
     1
 44
1.0
1001
ACAD
1000
MTEXTBEGIN
1070
    73
1070
     1
1070
    44
1040
1.0
1070
    74
1070
     0
1000
MTEXTEND
  0
POINT
  5
888A
330
1044
100
AcDbEntity
  8
Defpoints
 62
     0
100
AcDbPoint
 10
3023.588976820443
 20
1602.268509239139
 30
0.0
  0
POINT
  5
888B
330
1044
100
AcDbEntity
  8
Defpoints
 62
     0
100
AcDbPoint
 10
3126.786890450057
 20
1542.680068725627
 30
0.0
  0
POINT
  5
888C
330
1044
100
AcDbEntity
  8
Defpoints
 62
     0
100
AcDbPoint
 10
2992.890771022045
 20
1542.680068725627
 30
0.0
  0
ENDBLK
  5
104F
330
1044
100
AcDbEntity
  8
0
100
AcDbBlockEnd
  0
BLOCK
  5
105A
330
1050
100
AcDbEntity
  8
0
100
AcDbBlockBegin
  2
*D106
 70
     1
 10
0.0
 20
0.0
 30
0.0
  3
*D106
  1

  0
LINE
  5
887B
330
1050
100
AcDbEntity
  8
cotas
100
AcDbLine
 10
3013.711905189738
 20
1602.354705137416
 30
0.0
 11
2953.01369939134
 21
1602.354705137416
 31
0.0
  0
LINE
  5
887C
330
1050
100
AcDbEntity
  8
cotas
100
AcDbLine
 10
3116.735294201672
 20
1532.767755973331
 30
0.0
 11
2953.01369939134
 21
1532.767755973331
 31
0.0
  0
LINE
  5
887D
330
1050
100
AcDbEntity
  8
cotas
100
AcDbLine
 10
2958.01369939134
 20
1592.354705137416
 30
0.0
 11
2958.01369939134
 21
1542.767755973331
 31
0.0
  0
SOLID
  5
887E
330
1050
100
AcDbEntity
  8
cotas
100
AcDbTrace
 10
2956.347032724674
 20
1592.354705137416
 30
0.0
 11
2959.680366058007
 21
1592.354705137416
 31
0.0
 12
2958.01369939134
 22
1602.354705137416
 32
0.0
 13
2958.01369939134
 23
1602.354705137416
 33
0.0
  0
SOLID
  5
887F
330
1050
100
AcDbEntity
  8
cotas
100
AcDbTrace
 10
2956.347032724674
 20
1542.767755973331
 30
0.0
 11
2959.680366058007
 21
1542.767755973331
 31
0.0
 12
2958.01369939134
 22
1532.767755973331
 32
0.0
 13
2958.01369939134
 23
1532.767755973331
 33
0.0
  0
MTEXT
  5
8880
330
1050
100
AcDbEntity
  8
cotas
100
AcDbMText
 10
2946.670516046813
 20
1567.561230555374
 30
0.0
 40
10.0
 41
0.0
 71
     5
 72
     1
  1
69,6
  7
SANINDUSA
 11
0.0000000000000001
 21
1.0
 31
0.0
 73
     1
 44
1.0
1001
ACAD
1000
MTEXTBEGIN
1070
    73
1070
     1
1070
    44
1040
1.0
1070
    74
1070
     0
1000
MTEXTEND
  0
POINT
  5
8881
330
1050
100
AcDbEntity
  8
Defpoints
 62
     0
100
AcDbPoint
 10
3018.711905189738
 20
1602.354705137416
 30
0.0
  0
POINT
  5
8882
330
1050
100
AcDbEntity
  8
Defpoints
 62
     0
100
AcDbPoint
 10
3121.735294201672
 20
1532.767755973331
 30
0.0
  0
POINT
  5
8883
330
1050
100
AcDbEntity
  8
Defpoints
 62
     0
100
AcDbPoint
 10
2958.01369939134
 20
1532.767755973331
 30
0.0
  0
ENDBLK
  5
105B
330
1050
100
AcDbEntity
  8
0
100
AcDbBlockEnd
  0
BLOCK
  5
1069
330
105C
100
AcDbEntity
  8
0
100
AcDbBlockBegin
  2
*D107
 70
     1
 10
0.0
 20
0.0
 30
0.0
  3
*D107
  1

  0
LINE
  5
886F
330
105C
100
AcDbEntity
  8
cotas
100
AcDbLine
 10
3318.039671875271
 20
1539.886868667464
 30
0.0
 11
3394.766258876517
 21
1539.886868667464
 31
0.0
  0
ARC
  5
8870
330
105C
100
AcDbEntity
  8
cotas
100
AcDbCircle
 10
3286.808131692944
 20
1539.886868667464
 30
0.0
 40
102.958127183573
100
AcDbArc
 50
347.8657020394445
 51
353.4328511458895
  0
ARC
  5
8871
330
105C
100
AcDbEntity
  8
cotas
100
AcDbCircle
 10
3286.808131692944
 20
1539.886868667464
 30
0.0
 40
102.958127183573
100
AcDbArc
 50
5.56714910644481
 51
11.13429821288978
  0
ARC
  5
8872
330
105C
100
AcDbEntity
  8
cotas
100
AcDbCircle
 10
3286.808131692944
 20
1539.886868667464
 30
0.0
 40
102.958127183573
100
AcDbArc
 50
359.0000002523344
 51
359.9999999999998
  0
SOLID
  5
8873
330
105C
100
AcDbEntity
  8
cotas
100
AcDbTrace
 10
3387.427665363911
 20
1528.221777513001
 30
0.0
 11
3390.753733453439
 21
1528.001818028234
 31
0.0
 12
3389.750577862971
 22
1538.090002039199
 32
0.0
 13
3389.750577862971
 23
1538.090002039199
 33
0.0
  0
SOLID
  5
8874
330
105C
100
AcDbEntity
  8
cotas
100
AcDbTrace
 10
3390.945324724757
 20
1549.956008725249
 30
0.0
 11
3387.615924389895
 21
1549.794130618851
 31
0.0
 12
3389.766258876517
 22
1539.886868667464
 32
0.0
 13
3389.766258876517
 23
1539.886868667464
 33
0.0
  0
MTEXT
  5
8875
330
105C
100
AcDbEntity
  8
cotas
100
AcDbMText
 10
3378.289125828811
 20
1523.475899528391
 30
0.0
 40
10.0
 41
0.0
 71
     5
 72
     1
  1
1°
  7
SANINDUSA
 11
0.1765734128603653
 21
0.9842874731859808
 31
0.0
 73
     1
 44
1.0
1001
ACAD
1000
MTEXTBEGIN
1070
    73
1070
     1
1070
    44
1040
1.0
1070
    74
1070
     0
1000
MTEXTEND
  0
POINT
  5
8876
330
105C
100
AcDbEntity
  8
Defpoints
 62
     0
100
AcDbPoint
 10
3389.764516502364
 20
1539.287886093838
 30
0.0
  0
POINT
  5
8877
330
105C
100
AcDbEntity
  8
Defpoints
 62
     0
100
AcDbPoint
 10
3286.80813169295
 20
1539.886868667464
 30
0.0
  0
POINT
  5
8878
330
105C
100
AcDbEntity
  8
Defpoints
 62
     0
100
AcDbPoint
 10
3669.663328251315
 20
1533.204108040065
 30
0.0
  0
POINT
  5
8879
330
105C
100
AcDbEntity
  8
Defpoints
 62
     0
100
AcDbPoint
 10
3133.744988164378
 20
1542.558595101566
 30
0.0
  0
POINT
  5
887A
330
105C
100
AcDbEntity
  8
Defpoints
 62
     0
100
AcDbPoint
 10
3313.03967187527
 20
1539.886868667464
 30
0.0
  0
ENDBLK
  5
106A
330
105C
100
AcDbEntity
  8
0
100
AcDbBlockEnd
  0
BLOCK
  5
1075
330
106B
100
AcDbEntity
  8
0
100
AcDbBlockBegin
  2
*D108
 70
     1
 10
0.0
 20
0.0
 30
0.0
  3
*D108
  1

  0
LINE
  5
8866
330
106B
100
AcDbEntity
  8
cotas
100
AcDbLine
 10
3868.588967642259
 20
1602.26850913021
 30
0.0
 11
3757.978039373828
 21
1602.26850913021
 31
0.0
  0
LINE
  5
8867
330
106B
100
AcDbEntity
  8
cotas
100
AcDbLine
 10
3681.621498962404
 20
1533.086818206384
 30
0.0
 11
3767.978039373828
 21
1533.086818206384
 31
0.0
  0
LINE
  5
8868
330
106B
100
AcDbEntity
  8
cotas
100
AcDbLine
 10
3762.978039373829
 20
1592.26850913021
 30
0.0
 11
3762.978039373829
 21
1543.086818206384
 31
0.0
  0
SOLID
  5
8869
330
106B
100
AcDbEntity
  8
cotas
100
AcDbTrace
 10
3761.311372707162
 20
1592.26850913021
 30
0.0
 11
3764.644706040495
 21
1592.26850913021
 31
0.0
 12
3762.978039373829
 22
1602.26850913021
 32
0.0
 13
3762.978039373829
 23
1602.26850913021
 33
0.0
  0
SOLID
  5
886A
330
106B
100
AcDbEntity
  8
cotas
100
AcDbTrace
 10
3761.311372707162
 20
1543.086818206384
 30
0.0
 11
3764.644706040495
 21
1543.086818206384
 31
0.0
 12
3762.978039373829
 22
1533.086818206384
 32
0.0
 13
3762.978039373829
 23
1533.086818206384
 33
0.0
  0
MTEXT
  5
886B
330
106B
100
AcDbEntity
  8
cotas
100
AcDbMText
 10
3751.631498070941
 20
1567.677663668298
 30
0.0
 40
10.0
 41
0.0
 71
     5
 72
     1
  1
69,2
  7
SANINDUSA
 11
0.0000000000000001
 21
1.0
 31
0.0
 73
     1
 44
1.0
1001
ACAD
1000
MTEXTBEGIN
1070
    73
1070
     1
1070
    44
1040
1.0
1070
    74
1070
     0
1000
MTEXTEND
  0
POINT
  5
886C
330
106B
100
AcDbEntity
  8
Defpoints
 62
     0
100
AcDbPoint
 10
3873.588967642259
 20
1602.26850913021
 30
0.0
  0
POINT
  5
886D
330
106B
100
AcDbEntity
  8
Defpoints
 62
     0
100
AcDbPoint
 10
3676.621498962404
 20
1533.086818206384
 30
0.0
  0
POINT
  5
886E
330
106B
100
AcDbEntity
  8
Defpoints
 62
     0
100
AcDbPoint
 10
3762.978039373829
 20
1533.086818206384
 30
0.0
  0
ENDBLK
  5
1076
330
106B
100
AcDbEntity
  8
0
100
AcDbBlockEnd
  0
BLOCK
  5
107D
330
1077
100
AcDbEntity
  8
0
100
AcDbBlockBegin
  2
*D109
 70
     1
 10
0.0
 20
0.0
 30
0.0
  3
*D109
  1

  0
LINE
  5
8861
330
1077
100
AcDbEntity
  8
cotas
100
AcDbLine
 10
2774.901075385791
 20
1569.334499768381
 30
0.0
 11
2804.051960437942
 21
1593.442782843909
 31
0.0
  0
MTEXT
  5
8862
330
1077
100
AcDbEntity
  8
cotas
100
AcDbMText
 10
2778.583706627358
 20
1585.356837665832
 30
0.0
 40
10.0
 41
0.0
 71
     5
 72
     1
  1
R7
  7
SANINDUSA
 11
0.7706096535686994
 21
0.6373074311717457
 31
0.0
 73
     1
 44
1.0
1001
ACAD
1000
MTEXTBEGIN
1070
    73
1070
     1
1070
    44
1040
1.0
1070
    74
1070
     0
1000
MTEXTEND
  0
SOLID
  5
8863
330
1077
100
AcDbEntity
  8
cotas
100
AcDbTrace
 10
2802.989781385989
 20
1594.727132266523
 30
0.0
 11
2805.114139489894
 21
1592.158433421294
 31
0.0
 12
2811.758056973629
 22
1599.815857155627
 32
0.0
 13
2811.758056973629
 23
1599.815857155627
 33
0.0
  0
POINT
  5
8864
330
1077
100
AcDbEntity
  8
Defpoints
 62
     0
100
AcDbPoint
 10
2811.758056973629
 20
1599.815857155627
 30
0.0
  0
POINT
  5
8865
330
1077
100
AcDbEntity
  8
Defpoints
 62
     0
100
AcDbPoint
 10
2806.363789398645
 20
1595.354705137422
 30
0.0
  0
ENDBLK
  5
107E
330
1077
100
AcDbEntity
  8
0
100
AcDbBlockEnd
  0
BLOCK
  5
1085
330
107F
100
AcDbEntity
  8
0
100
AcDbBlockBegin
  2
*D110
 70
     1
 10
0.0
 20
0.0
 30
0.0
  3
*D110
  1

  0
LINE
  5
885C
330
107F
100
AcDbEntity
  8
cotas
100
AcDbLine
 10
1155.444390378432
 20
1571.36805632878
 30
0.0
 11
1122.603351688117
 21
1593.669357008443
 31
0.0
  0
MTEXT
  5
885D
330
107F
100
AcDbEntity
  8
cotas
100
AcDbMText
 10
1150.266956082319
 20
1586.971621904343
 30
0.0
 40
10.0
 41
0.0
 71
     5
 72
     1
  1
R7
  7
SANINDUSA
 11
0.827284828294471
 21
-0.5617827096607614
 31
0.0
 73
     1
 44
1.0
1001
ACAD
1000
MTEXTBEGIN
1070
    73
1070
     1
1070
    44
1040
1.0
1070
    74
1070
     0
1000
MTEXTEND
  0
SOLID
  5
885E
330
107F
100
AcDbEntity
  8
cotas
100
AcDbTrace
 10
1123.539656204219
 20
1595.048165055601
 30
0.0
 11
1121.667047172016
 21
1592.290548961286
 31
0.0
 12
1114.330503405173
 22
1599.287184105051
 32
0.0
 13
1114.330503405173
 23
1599.287184105051
 33
0.0
  0
POINT
  5
885F
330
107F
100
AcDbEntity
  8
Defpoints
 62
     0
100
AcDbPoint
 10
1114.330503405173
 20
1599.287184105051
 30
0.0
  0
POINT
  5
8860
330
107F
100
AcDbEntity
  8
Defpoints
 62
     0
100
AcDbPoint
 10
1120.12149720323
 20
1595.354705137428
 30
0.0
  0
ENDBLK
  5
1086
330
107F
100
AcDbEntity
  8
0
100
AcDbBlockEnd
  0
BLOCK
  5
108D
330
1087
100
AcDbEntity
  8
0
100
AcDbBlockBegin
  2
*D111
 70
     1
 10
0.0
 20
0.0
 30
0.0
  3
*D111
  1

  0
LINE
  5
8857
330
1087
100
AcDbEntity
  8
cotas
100
AcDbLine
 10
907.6846216732603
 20
1569.437495461072
 30
0.0
 11
938.9780305564412
 21
1593.52484048451
 31
0.0
  0
MTEXT
  5
8858
330
1087
100
AcDbEntity
  8
cotas
100
AcDbMText
 10
911.9255464805625
 20
1585.321186510078
 30
0.0
 40
10.0
 41
0.0
 71
     5
 72
     1
  1
R7
  7
SANINDUSA
 11
0.7924343631524631
 21
0.6099571952974653
 31
0.0
 73
     1
 44
1.0
1001
ACAD
1000
MTEXTBEGIN
1070
    73
1070
     1
1070
    44
1040
1.0
1070
    74
1070
     0
1000
MTEXTEND
  0
SOLID
  5
8859
330
1087
100
AcDbEntity
  8
cotas
100
AcDbTrace
 10
937.9614352309456
 20
1594.845564423098
 30
0.0
 11
939.9946258819371
 21
1592.204116545923
 31
0.0
 12
946.9023741879659
 22
1599.624412437485
 32
0.0
 13
946.9023741879659
 23
1599.624412437485
 33
0.0
  0
POINT
  5
885A
330
1087
100
AcDbEntity
  8
Defpoints
 62
     0
100
AcDbPoint
 10
946.9023741879659
 20
1599.624412437485
 30
0.0
  0
POINT
  5
885B
330
1087
100
AcDbEntity
  8
Defpoints
 62
     0
100
AcDbPoint
 10
941.3553336458974
 20
1595.354712070401
 30
0.0
  0
ENDBLK
  5
108E
330
1087
100
AcDbEntity
  8
0
100
AcDbBlockEnd
  0
BLOCK
  5
1095
330
108F
100
AcDbEntity
  8
0
100
AcDbBlockBegin
  2
*D112
 70
     1
 10
0.0
 20
0.0
 30
0.0
  3
*D112
  1

  0
LINE
  5
8852
330
108F
100
AcDbEntity
  8
cotas
100
AcDbLine
 10
189.6160695108756
 20
1570.898926347553
 30
0.0
 11
157.5606096298207
 21
1593.619896498102
 31
0.0
  0
MTEXT
  5
8853
330
108F
100
AcDbEntity
  8
cotas
100
AcDbMText
 10
184.7528165486986
 20
1586.603252349879
 30
0.0
 40
10.0
 41
0.0
 71
     5
 72
     1
  1
R7
  7
SANINDUSA
 11
0.8158441388517072
 21
-0.5782718574349924
 31
0.0
 73
     1
 44
1.0
1001
ACAD
1000
MTEXTBEGIN
1070
    73
1070
     1
1070
    44
1040
1.0
1070
    74
1070
     0
1000
MTEXTEND
  0
SOLID
  5
8854
330
108F
100
AcDbEntity
  8
cotas
100
AcDbTrace
 10
158.5243960588791
 20
1594.979636729522
 30
0.0
 11
156.5968232007624
 21
1592.260156266683
 31
0.0
 12
149.4021682413037
 22
1599.402615072452
 32
0.0
 13
149.4021682413037
 23
1599.402615072452
 33
0.0
  0
POINT
  5
8855
330
108F
100
AcDbEntity
  8
Defpoints
 62
     0
100
AcDbPoint
 10
149.4021682413037
 20
1599.402615072452
 30
0.0
  0
POINT
  5
8856
330
108F
100
AcDbEntity
  8
Defpoints
 62
     0
100
AcDbPoint
 10
155.113077213271
 20
1595.354712070404
 30
0.0
  0
ENDBLK
  5
1096
330
108F
100
AcDbEntity
  8
0
100
AcDbBlockEnd
  0
BLOCK
  5
109D
330
1097
100
AcDbEntity
  8
0
100
AcDbBlockBegin
  2
*D113
 70
     1
 10
0.0
 20
0.0
 30
0.0
  3
*D113
  1

  0
LINE
  5
8842
330
1097
100
AcDbEntity
  8
cotas
100
AcDbLine
 10
3156.153001852471
 20
1502.356774523999
 30
0.0
 11
3133.873339441846
 21
1533.155303522757
 31
0.0
  0
MTEXT
  5
8843
330
1097
100
AcDbEntity
  8
cotas
100
AcDbMText
 10
3156.60699713327
 20
1518.790610742195
 30
0.0
 40
10.0
 41
0.0
 71
     5
 72
     1
  1
R7
  7
SANINDUSA
 11
0.5861176360132861
 21
-0.8102259664773754
 31
0.0
 73
     1
 44
1.0
1001
ACAD
1000
MTEXTBEGIN
1070
    73
1070
     1
1070
    44
1040
1.0
1070
    74
1070
     0
1000
MTEXTEND
  0
SOLID
  5
8844
330
1097
100
AcDbEntity
  8
cotas
100
AcDbTrace
 10
3135.223716052641
 20
1534.132166249445
 30
0.0
 11
3132.52296283105
 21
1532.178440796068
 31
0.0
 12
3128.012163081713
 22
1541.25756318753
 32
0.0
 13
3128.012163081713
 23
1541.25756318753
 33
0.0
  0
POINT
  5
8845
330
1097
100
AcDbEntity
  8
Defpoints
 62
     0
100
AcDbPoint
 10
3128.012163081713
 20
1541.25756318753
 30
0.0
  0
POINT
  5
8846
330
1097
100
AcDbEntity
  8
Defpoints
 62
     0
100
AcDbPoint
 10
3132.114986533806
 20
1535.585981422189
 30
0.0
  0
ENDBLK
  5
109E
330
1097
100
AcDbEntity
  8
0
100
AcDbBlockEnd
  0
BLOCK
  5
10A6
330
109F
100
AcDbEntity
  8
0
100
AcDbBlockBegin
  2
*D114
 70
     1
 10
0.0
 20
0.0
 30
0.0
  3
*D114
  1

  0
LINE
  5
883C
330
109F
100
AcDbEntity
  8
cotas
100
AcDbLine
 10
3050.623032865777
 20
1500.563269025529
 30
0.0
 11
3087.167236310592
 21
1532.310710407253
 31
0.0
  0
MTEXT
  5
883D
330
109F
100
AcDbEntity
  8
cotas
100
AcDbMText
 10
3057.205195310876
 20
1519.550251977924
 30
0.0
 40
10.0
 41
0.0
 71
     5
 72
     1
  1
R17
  7
SANINDUSA
 11
0.754913597568913
 21
0.6558242601532527
 31
0.0
 73
     1
 44
1.0
1001
ACAD
1000
MTEXTBEGIN
1070
    73
1070
     1
1070
    44
1040
1.0
1070
    74
1070
     0
1000
MTEXTEND
  0
LINE
  5
883E
330
109F
100
AcDbEntity
  8
cotas
100
AcDbLine
 10
3107.549903444953
 20
1550.017965431391
 30
0.0
 11
3094.716372286281
 21
1538.868953008785
 31
0.0
  0
SOLID
  5
883F
330
109F
100
AcDbEntity
  8
cotas
100
AcDbTrace
 10
3086.074195877003
 20
1533.568899736534
 30
0.0
 11
3088.26027674418
 21
1531.052521077971
 31
0.0
 12
3094.716372286281
 22
1538.868953008785
 32
0.0
 13
3094.716372286281
 23
1538.868953008785
 33
0.0
  0
POINT
  5
8840
330
109F
100
AcDbEntity
  8
Defpoints
 62
     0
100
AcDbPoint
 10
3094.716372286281
 20
1538.868953008785
 30
0.0
  0
POINT
  5
8841
330
109F
100
AcDbEntity
  8
Defpoints
 62
     0
100
AcDbPoint
 10
3107.549903444953
 20
1550.017965431391
 30
0.0
  0
ENDBLK
  5
10A7
330
109F
100
AcDbEntity
  8
0
100
AcDbBlockEnd
  0
BLOCK
  5
10AF
330
10A8
100
AcDbEntity
  8
0
100
AcDbBlockBegin
  2
*D115
 70
     1
 10
0.0
 20
0.0
 30
0.0
  3
*D115
  1

  0
LINE
  5
8836
330
10A8
100
AcDbEntity
  8
cotas
100
AcDbLine
 10
3131.176960841145
 20
1479.680318151209
 30
0.0
 11
3121.200963018585
 21
1523.357405507157
 31
0.0
  0
MTEXT
  5
8837
330
10A8
100
AcDbEntity
  8
cotas
100
AcDbMText
 10
3137.25094133569
 20
1498.916693811626
 30
0.0
 40
10.0
 41
0.0
 71
     5
 72
     1
  1
R10
  7
SANINDUSA
 11
0.2226691764022208
 21
-0.9748940649528833
 31
0.0
 73
     1
 44
1.0
1001
ACAD
1000
MTEXTBEGIN
1070
    73
1070
     1
1070
    44
1040
1.0
1070
    74
1070
     0
1000
MTEXTEND
  0
LINE
  5
8838
330
10A8
100
AcDbEntity
  8
cotas
100
AcDbLine
 10
3116.747579490541
 20
1542.855286806213
 30
0.0
 11
3118.974271254563
 21
1533.106346156686
 31
0.0
  0
SOLID
  5
8839
330
10A8
100
AcDbEntity
  8
cotas
100
AcDbTrace
 10
3122.825786460173
 20
1523.728520801161
 30
0.0
 11
3119.576139576997
 21
1522.986290213153
 31
0.0
 12
3118.974271254563
 22
1533.106346156686
 32
0.0
 13
3118.974271254563
 23
1533.106346156686
 33
0.0
  0
POINT
  5
883A
330
10A8
100
AcDbEntity
  8
Defpoints
 62
     0
100
AcDbPoint
 10
3118.974271254563
 20
1533.106346156686
 30
0.0
  0
POINT
  5
883B
330
10A8
100
AcDbEntity
  8
Defpoints
 62
     0
100
AcDbPoint
 10
3116.747579490541
 20
1542.855286806213
 30
0.0
  0
ENDBLK
  5
10B0
330
10A8
100
AcDbEntity
  8
0
100
AcDbBlockEnd
  0
BLOCK
  5
10C1
330
10B1
100
AcDbEntity
  8
0
100
AcDbBlockBegin
  2
*D116
 70
     1
 10
0.0
 20
0.0
 30
0.0
  3
*D116
  1

  0
LINE
  5
8827
330
10B1
100
AcDbEntity
  8
cotas
100
AcDbLine
 10
215.7286499283655
 20
1520.231921533376
 30
0.0
 11
215.7286499283655
 21
1469.484918170835
 31
0.0
  0
LINE
  5
8828
330
10B1
100
AcDbEntity
  8
cotas
100
AcDbLine
 10
217.5132772101734
 20
1511.249676584074
 30
0.0
 11
218.9697604896734
 21
1469.541492019709
 31
0.0
  0
ARC
  5
8829
330
10B1
100
AcDbEntity
  8
cotas
100
AcDbCircle
 10
215.7286499283655
 20
1562.354667005793
 30
0.0
 40
87.86974883495728
100
AcDbArc
 50
256.9306138357892
 51
270.0000000000001
  0
LINE
  5
882A
330
10B1
100
AcDbEntity
  8
cotas
100
AcDbLine
 10
195.8585873677741
 20
1476.761014354696
 30
0.0
 11
159.0077612344794
 21
1485.315716695333
 31
0.0
  0
ARC
  5
882B
330
10B1
100
AcDbEntity
  8
cotas
100
AcDbCircle
 10
215.7286499283655
 20
1562.354667005793
 30
0.0
 40
87.86974883495728
100
AcDbArc
 50
256.9518816378433
 51
263.4759408189217
  0
ARC
  5
882C
330
10B1
100
AcDbEntity
  8
cotas
100
AcDbCircle
 10
215.7286499283655
 20
1562.354667005793
 30
0.0
 40
87.86974883495728
100
AcDbArc
 50
278.5240610750772
 51
285.0481202561556
  0
ARC
  5
882D
330
10B1
100
AcDbEntity
  8
cotas
100
AcDbCircle
 10
215.7286499283655
 20
1562.354667005793
 30
0.0
 40
87.86974883495728
100
AcDbArc
 50
270.0000000000001
 51
272.0000018939988
  0
SOLID
  5
882E
330
10B1
100
AcDbEntity
  8
cotas
100
AcDbTrace
 10
205.8396898137262
 20
1476.717908459406
 30
0.0
 11
205.6500151317379
 21
1473.389975974195
 31
0.0
 12
215.7286499283656
 22
1474.484918170835
 32
0.0
 13
215.7286499283656
 23
1474.484918170835
 33
0.0
  0
SOLID
  5
882F
330
10B1
100
AcDbEntity
  8
cotas
100
AcDbTrace
 10
228.9059709617309
 20
1473.795910577673
 30
0.0
 11
228.6002685459162
 21
1477.115196215288
 31
0.0
 12
218.795262840979
 22
1474.538446149036
 32
0.0
 13
218.795262840979
 23
1474.538446149036
 33
0.0
  0
MTEXT
  5
8830
330
10B1
100
AcDbEntity
  8
cotas
100
AcDbMText
 10
179.9989775328872
 20
1492.090996583456
 30
0.0
 40
10.0
 41
0.0
 71
     5
 72
     1
  1
2,0°
  7
SANINDUSA
 11
0.9740969308090853
 21
-0.2261308678361268
 31
0.0
 73
     1
 44
1.0
1001
ACAD
1000
MTEXTBEGIN
1070
    73
1070
     1
1070
    44
1040
1.0
1070
    74
1070
     0
1000
MTEXTEND
  0
POINT
  5
8831
330
10B1
100
AcDbEntity
  8
Defpoints
 62
     0
100
AcDbPoint
 10
217.7732892165263
 20
1474.50870972545
 30
0.0
  0
POINT
  5
8832
330
10B1
100
AcDbEntity
  8
Defpoints
 62
     0
100
AcDbPoint
 10
215.7286483546732
 20
1562.354712070402
 30
0.0
  0
POINT
  5
8833
330
10B1
100
AcDbEntity
  8
Defpoints
 62
     0
100
AcDbPoint
 10
215.7286499283655
 20
1562.354712070401
 30
0.0
  0
POINT
  5
8834
330
10B1
100
AcDbEntity
  8
Defpoints
 62
     0
100
AcDbPoint
 10
215.7286499283655
 20
1525.231921533376
 30
0.0
  0
POINT
  5
8835
330
10B1
100
AcDbEntity
  8
Defpoints
 62
     0
100
AcDbPoint
 10
217.338779561479
 20
1516.246630713401
 30
0.0
  0
ENDBLK
  5
10C2
330
10B1
100
AcDbEntity
  8
0
100
AcDbBlockEnd
  0
BLOCK
  5
10D3
330
10C3
100
AcDbEntity
  8
0
100
AcDbBlockBegin
  2
*D117
 70
     1
 10
0.0
 20
0.0
 30
0.0
  3
*D117
  1

  0
LINE
  5
8818
330
10C3
100
AcDbEntity
  8
cotas
100
AcDbLine
 10
1180.737069918775
 20
1538.330836757235
 30
0.0
 11
1180.737069918774
 21
1489.610025977903
 31
0.0
  0
LINE
  5
8819
330
10C3
100
AcDbEntity
  8
cotas
100
AcDbLine
 10
1181.367847599837
 20
1544.29161105044
 30
0.0
 11
1183.275829519166
 21
1489.654340339729
 31
0.0
  0
ARC
  5
881A
330
10C3
100
AcDbEntity
  8
cotas
100
AcDbCircle
 10
1180.737069918775
 20
1562.354660060135
 30
0.0
 40
67.74463408223161
100
AcDbArc
 50
253.0227373103711
 51
269.9999999999995
  0
LINE
  5
881B
330
10C3
100
AcDbEntity
  8
cotas
100
AcDbLine
 10
1160.956166472682
 20
1497.562289322587
 30
0.0
 11
1124.774045349039
 21
1508.608575116338
 31
0.0
  0
ARC
  5
881C
330
10C3
100
AcDbEntity
  8
cotas
100
AcDbCircle
 10
1180.737069918775
 20
1562.354660060135
 30
0.0
 40
67.74463408223161
100
AcDbArc
 50
253.069381901116
 51
261.5346909505578
  0
ARC
  5
881D
330
10C3
100
AcDbEntity
  8
cotas
100
AcDbCircle
 10
1180.737069918775
 20
1562.354660060135
 30
0.0
 40
67.74463408223161
100
AcDbArc
 50
280.4653157350598
 51
288.9306247845015
  0
ARC
  5
881E
330
10C3
100
AcDbEntity
  8
cotas
100
AcDbCircle
 10
1180.737069918775
 20
1562.354660060135
 30
0.0
 40
67.74463408223161
100
AcDbArc
 50
269.9999999999995
 51
272.0000066856181
  0
SOLID
  5
881F
330
10C3
100
AcDbEntity
  8
cotas
100
AcDbTrace
 10
1170.88735514464
 20
1497.010212771879
 30
0.0
 11
1170.64133319925
 21
1493.685970856269
 31
0.0
 12
1180.737069918775
 22
1494.610025977903
 32
0.0
 13
1180.737069918775
 23
1494.610025977903
 33
0.0
  0
SOLID
  5
8820
330
10C3
100
AcDbEntity
  8
cotas
100
AcDbTrace
 10
1193.223167247388
 20
1494.080139553672
 30
0.0
 11
1192.861280415492
 21
1497.393770346626
 31
0.0
 12
1183.101331452578
 22
1494.651294454463
 32
0.0
 13
1183.101331452578
 23
1494.651294454463
 33
0.0
  0
MTEXT
  5
8821
330
10C3
100
AcDbEntity
  8
cotas
100
AcDbMText
 10
1146.178207250917
 20
1513.937499259832
 30
0.0
 40
10.0
 41
0.0
 71
     5
 72
     1
  1
2,0°
  7
SANINDUSA
 11
0.9564207057181771
 21
-0.2919921808431585
 31
0.0
 73
     1
 44
1.0
1001
ACAD
1000
MTEXTBEGIN
1070
    73
1070
     1
1070
    44
1040
1.0
1070
    74
1070
     0
1000
MTEXTEND
  0
POINT
  5
8822
330
10C3
100
AcDbEntity
  8
Defpoints
 62
     0
100
AcDbPoint
 10
1182.313422122286
 20
1494.62836855775
 30
0.0
  0
POINT
  5
8823
330
10C3
100
AcDbEntity
  8
Defpoints
 62
     0
100
AcDbPoint
 10
1180.737068344636
 20
1562.354705137426
 30
0.0
  0
POINT
  5
8824
330
10C3
100
AcDbEntity
  8
Defpoints
 62
     0
100
AcDbPoint
 10
1180.737069918775
 20
1562.354705137426
 30
0.0
  0
POINT
  5
8825
330
10C3
100
AcDbEntity
  8
Defpoints
 62
     0
100
AcDbPoint
 10
1180.737069918775
 20
1543.330836757235
 30
0.0
  0
POINT
  5
8826
330
10C3
100
AcDbEntity
  8
Defpoints
 62
     0
100
AcDbPoint
 10
1181.193349533249
 20
1549.288565165174
 30
0.0
  0
ENDBLK
  5
10D4
330
10C3
100
AcDbEntity
  8
0
100
AcDbBlockEnd
  0
BLOCK
  5
10EB
330
10E1
100
AcDbEntity
  8
0
100
AcDbBlockBegin
  2
*D118
 70
     1
 10
0.0
 20
0.0
 30
0.0
  3
*D118
  1

  0
LINE
  5
8803
330
10E1
100
AcDbEntity
  8
cotas
100
AcDbLine
 10
-1005.385819589936
 20
1659.588450753703
 30
0.0
 11
-1045.343641396313
 21
1659.588450753703
 31
0.0
  0
LINE
  5
8804
330
10E1
100
AcDbEntity
  8
cotas
100
AcDbLine
 10
-1005.414151140899
 20
1739.615135433861
 30
0.0
 11
-1045.343641396313
 21
1739.615135433861
 31
0.0
  0
LINE
  5
8805
330
10E1
100
AcDbEntity
  8
cotas
100
AcDbLine
 10
-1040.343641396313
 20
1669.588450753703
 30
0.0
 11
-1040.343641396313
 21
1729.615135433861
 31
0.0
  0
SOLID
  5
8806
330
10E1
100
AcDbEntity
  8
cotas
100
AcDbTrace
 10
-1042.01030806298
 20
1669.588450753703
 30
0.0
 11
-1038.676974729647
 21
1669.588450753703
 31
0.0
 12
-1040.343641396313
 22
1659.588450753703
 32
0.0
 13
-1040.343641396313
 23
1659.588450753703
 33
0.0
  0
SOLID
  5
8807
330
10E1
100
AcDbEntity
  8
cotas
100
AcDbTrace
 10
-1042.01030806298
 20
1729.615135433861
 30
0.0
 11
-1038.676974729647
 21
1729.615135433861
 31
0.0
 12
-1040.343641396313
 22
1739.615135433861
 32
0.0
 13
-1040.343641396313
 23
1739.615135433861
 33
0.0
  0
MTEXT
  5
8808
330
10E1
100
AcDbEntity
  8
cotas
100
AcDbMText
 10
-1050.571982564884
 20
1699.601793093782
 30
0.0
 40
10.0
 41
0.0
 71
     5
 72
     1
  1
80
  7
SANINDUSA
 11
0.0000000000000001
 21
1.0
 31
0.0
 73
     1
 44
1.0
1001
ACAD
1000
MTEXTBEGIN
1070
    73
1070
     1
1070
    44
1040
1.0
1070
    74
1070
     0
1000
MTEXTEND
  0
POINT
  5
8809
330
10E1
100
AcDbEntity
  8
Defpoints
 62
     0
100
AcDbPoint
 10
-1000.385819589936
 20
1659.588450753703
 30
0.0
  0
POINT
  5
880A
330
10E1
100
AcDbEntity
  8
Defpoints
 62
     0
100
AcDbPoint
 10
-1000.414151140899
 20
1739.615135433861
 30
0.0
  0
POINT
  5
880B
330
10E1
100
AcDbEntity
  8
Defpoints
 62
     0
100
AcDbPoint
 10
-1040.343641396313
 20
1739.615135433861
 30
0.0
  0
ENDBLK
  5
10EC
330
10E1
100
AcDbEntity
  8
0
100
AcDbBlockEnd
  0
BLOCK
  5
10FD
330
10F6
100
AcDbEntity
  8
0
100
AcDbBlockBegin
  2
*D119
 70
     1
 10
0.0
 20
0.0
 30
0.0
  3
*D119
  1

  0
LINE
  5
87F4
330
10F6
100
AcDbEntity
  8
cotas
100
AcDbLine
 10
3710.381456025867
 20
1560.303915172502
 30
0.0
 11
3682.711263688596
 21
1537.121382050617
 31
0.0
  0
MTEXT
  5
87F5
330
10F6
100
AcDbEntity
  8
cotas
100
AcDbMText
 10
3693.956902438927
 20
1559.588985783548
 30
0.0
 40
10.0
 41
0.0
 71
     5
 72
     1
  1
R7
  7
SANINDUSA
 11
0.7665286770269115
 21
0.6422100803439425
 31
0.0
 73
     1
 44
1.0
1001
ACAD
1000
MTEXTBEGIN
1070
    73
1070
     1
1070
    44
1040
1.0
1070
    74
1070
     0
1000
MTEXTEND
  0
LINE
  5
87F6
330
10F6
100
AcDbEntity
  8
cotas
100
AcDbLine
 10
3669.680276178908
 20
1526.203810684577
 30
0.0
 11
3675.045976918327
 21
1530.699281247177
 31
0.0
  0
SOLID
  5
87F7
330
10F6
100
AcDbEntity
  8
cotas
100
AcDbTrace
 10
3681.640913554689
 20
1538.398929845661
 30
0.0
 11
3683.781613822503
 21
1535.843834255572
 31
0.0
 12
3675.045976918327
 22
1530.699281247177
 32
0.0
 13
3675.045976918327
 23
1530.699281247177
 33
0.0
  0
POINT
  5
87F8
330
10F6
100
AcDbEntity
  8
Defpoints
 62
     0
100
AcDbPoint
 10
3675.045976918327
 20
1530.699281247177
 30
0.0
  0
POINT
  5
87F9
330
10F6
100
AcDbEntity
  8
Defpoints
 62
     0
100
AcDbPoint
 10
3669.680276178908
 20
1526.203810684577
 30
0.0
  0
ENDBLK
  5
10FE
330
10F6
100
AcDbEntity
  8
0
100
AcDbBlockEnd
  0
BLOCK
  5
1106
330
10FF
100
AcDbEntity
  8
0
100
AcDbBlockBegin
  2
*D120
 70
     1
 10
0.0
 20
0.0
 30
0.0
  3
*D120
  1

  0
LINE
  5
87EE
330
10FF
100
AcDbEntity
  8
cotas
100
AcDbLine
 10
3642.623709710967
 20
1476.140921085162
 30
0.0
 11
3674.489554788437
 21
1507.690701782639
 31
0.0
  0
MTEXT
  5
87EF
330
10FF
100
AcDbEntity
  8
cotas
100
AcDbMText
 10
3647.955970340092
 20
1495.516095424283
 30
0.0
 40
10.0
 41
0.0
 71
     5
 72
     1
  1
R17
  7
SANINDUSA
 11
0.7106221854178977
 21
0.7035738124688064
 31
0.0
 73
     1
 44
1.0
1001
ACAD
1000
MTEXTBEGIN
1070
    73
1070
     1
1070
    44
1040
1.0
1070
    74
1070
     0
1000
MTEXTEND
  0
LINE
  5
87F0
330
10FF
100
AcDbEntity
  8
cotas
100
AcDbLine
 10
3693.67876537285
 20
1526.689582377962
 30
0.0
 11
3681.595776642615
 21
1514.726439907327
 31
0.0
  0
SOLID
  5
87F1
330
10FF
100
AcDbEntity
  8
cotas
100
AcDbTrace
 10
3673.316931767656
 20
1508.875072091669
 30
0.0
 11
3675.662177809219
 21
1506.506331473609
 31
0.0
 12
3681.595776642615
 22
1514.726439907327
 32
0.0
 13
3681.595776642615
 23
1514.726439907327
 33
0.0
  0
POINT
  5
87F2
330
10FF
100
AcDbEntity
  8
Defpoints
 62
     0
100
AcDbPoint
 10
3681.595776642615
 20
1514.726439907327
 30
0.0
  0
POINT
  5
87F3
330
10FF
100
AcDbEntity
  8
Defpoints
 62
     0
100
AcDbPoint
 10
3693.67876537285
 20
1526.689582377962
 30
0.0
  0
ENDBLK
  5
1107
330
10FF
100
AcDbEntity
  8
0
100
AcDbBlockEnd
  0
BLOCK
  5
110F
330
1108
100
AcDbEntity
  8
0
100
AcDbBlockBegin
  2
*D121
 70
     1
 10
0.0
 20
0.0
 30
0.0
  3
*D121
  1

  0
LINE
  5
87E8
330
1108
100
AcDbEntity
  8
cotas
100
AcDbLine
 10
4684.451374461849
 20
1467.29943929486
 30
0.0
 11
4649.566350490778
 21
1495.47488688843
 31
0.0
  0
MTEXT
  5
87E9
330
1108
100
AcDbEntity
  8
cotas
100
AcDbMText
 10
4677.192415034688
 20
1486.038112997207
 30
0.0
 40
10.0
 41
0.0
 71
     5
 72
     1
  1
R17
  7
SANINDUSA
 11
0.7779511860554759
 21
-0.628324718688417
 31
0.0
 73
     1
 44
1.0
1001
ACAD
1000
MTEXTBEGIN
1070
    73
1070
     1
1070
    44
1040
1.0
1070
    74
1070
     0
1000
MTEXTEND
  0
LINE
  5
87EA
330
1108
100
AcDbEntity
  8
cotas
100
AcDbLine
 10
4628.561713003242
 20
1512.439618322835
 30
0.0
 11
4641.786838630223
 21
1501.758134075314
 31
0.0
  0
SOLID
  5
87EB
330
1108
100
AcDbEntity
  8
cotas
100
AcDbTrace
 10
4650.613558355258
 20
1496.771472198522
 30
0.0
 11
4648.519142626297
 21
1494.178301578337
 31
0.0
 12
4641.786838630223
 22
1501.758134075314
 32
0.0
 13
4641.786838630223
 23
1501.758134075314
 33
0.0
  0
POINT
  5
87EC
330
1108
100
AcDbEntity
  8
Defpoints
 62
     0
100
AcDbPoint
 10
4641.786838630223
 20
1501.758134075314
 30
0.0
  0
POINT
  5
87ED
330
1108
100
AcDbEntity
  8
Defpoints
 62
     0
100
AcDbPoint
 10
4628.561713003242
 20
1512.439618322835
 30
0.0
  0
ENDBLK
  5
1110
330
1108
100
AcDbEntity
  8
0
100
AcDbBlockEnd
  0
BLOCK
  5
1117
330
1111
100
AcDbEntity
  8
0
100
AcDbBlockBegin
  2
*D122
 70
     1
 10
0.0
 20
0.0
 30
0.0
  3
*D122
  1

  0
LINE
  5
87E3
330
1111
100
AcDbEntity
  8
cotas
100
AcDbLine
 10
-1604.168826611255
 20
1750.085670130871
 30
0.0
 11
-1644.541078241006
 21
1782.341694793782
 31
0.0
  0
MTEXT
  5
87E4
330
1111
100
AcDbEntity
  8
cotas
100
AcDbMText
 10
-1611.393659218623
 20
1768.920031850672
 30
0.0
 40
10.0
 41
0.0
 71
     5
 72
     1
  1
R10
  7
SANINDUSA
 11
0.7812630148378616
 21
-0.6242019718380064
 31
0.0
 73
     1
 44
1.0
1001
ACAD
1000
MTEXTBEGIN
1070
    73
1070
     1
1070
    44
1040
1.0
1070
    74
1070
     0
1000
MTEXTEND
  0
SOLID
  5
87E5
330
1111
100
AcDbEntity
  8
cotas
100
AcDbTrace
 10
-1643.500741621276
 20
1783.643799818512
 30
0.0
 11
-1645.581414860736
 21
1781.039589769053
 31
0.0
 12
-1652.353708389385
 22
1788.583714512163
 32
0.0
 13
-1652.353708389385
 23
1788.583714512163
 33
0.0
  0
POINT
  5
87E6
330
1111
100
AcDbEntity
  8
Defpoints
 62
     0
100
AcDbPoint
 10
-1652.353708389385
 20
1788.583714512163
 30
0.0
  0
POINT
  5
87E7
330
1111
100
AcDbEntity
  8
Defpoints
 62
     0
100
AcDbPoint
 10
-1643.847497193655
 20
1781.787547663861
 30
0.0
  0
ENDBLK
  5
1118
330
1111
100
AcDbEntity
  8
0
100
AcDbBlockEnd
  0
BLOCK
  5
111F
330
1119
100
AcDbEntity
  8
0
100
AcDbBlockBegin
  2
*D123
 70
     1
 10
0.0
 20
0.0
 30
0.0
  3
*D123
  1

  0
LINE
  5
87DE
330
1119
100
AcDbEntity
  8
cotas
100
AcDbLine
 10
-1152.933135684063
 20
1748.134754922118
 30
0.0
 11
-1113.847701880873
 21
1781.948847199861
 31
0.0
  0
MTEXT
  5
87DF
330
1119
100
AcDbEntity
  8
cotas
100
AcDbMText
 10
-1146.450146174865
 20
1767.237169288381
 30
0.0
 40
10.0
 41
0.0
 71
     5
 72
     1
  1
R10
  7
SANINDUSA
 11
0.7562628930277505
 21
0.6542678630570947
 31
0.0
 73
     1
 44
1.0
1001
ACAD
1000
MTEXTBEGIN
1070
    73
1070
     1
1070
    44
1040
1.0
1070
    74
1070
     0
1000
MTEXTEND
  0
SOLID
  5
87E0
330
1119
100
AcDbEntity
  8
cotas
100
AcDbTrace
 10
-1114.938148319301
 20
1783.209285354907
 30
0.0
 11
-1112.757255442444
 21
1780.688409044814
 31
0.0
 12
-1106.285072950595
 22
1788.491525830432
 32
0.0
 13
-1106.285072950595
 23
1788.491525830432
 33
0.0
  0
POINT
  5
87E1
330
1119
100
AcDbEntity
  8
Defpoints
 62
     0
100
AcDbPoint
 10
-1106.285072950595
 20
1788.491525830432
 30
0.0
  0
POINT
  5
87E2
330
1119
100
AcDbEntity
  8
Defpoints
 62
     0
100
AcDbPoint
 10
-1113.967145021469
 20
1781.845513016635
 30
0.0
  0
ENDBLK
  5
1120
330
1119
100
AcDbEntity
  8
0
100
AcDbBlockEnd
  0
BLOCK
  5
1127
330
1121
100
AcDbEntity
  8
0
100
AcDbBlockBegin
  2
*D124
 70
     1
 10
0.0
 20
0.0
 30
0.0
  3
*D124
  1

  0
LINE
  5
87D9
330
1121
100
AcDbEntity
  8
cotas
100
AcDbLine
 10
-1155.939423861497
 20
1247.203085889822
 30
0.0
 11
-1113.838354404656
 21
1217.227030066191
 31
0.0
  0
MTEXT
  5
87DA
330
1121
100
AcDbEntity
  8
cotas
100
AcDbMText
 10
-1135.845539411275
 20
1245.423424321457
 30
0.0
 40
10.0
 41
0.0
 71
     5
 72
     1
  1
R10
  7
SANINDUSA
 11
0.8146123373560808
 21
-0.5800058101668144
 31
0.0
 73
     1
 44
1.0
1001
ACAD
1000
MTEXTBEGIN
1070
    73
1070
     1
1070
    44
1040
1.0
1070
    74
1070
     0
1000
MTEXTEND
  0
SOLID
  5
87DB
330
1121
100
AcDbEntity
  8
cotas
100
AcDbTrace
 10
-1112.871678054378
 20
1218.584717295118
 30
0.0
 11
-1114.805030754934
 21
1215.869342837264
 31
0.0
 12
-1105.692231031095
 22
1211.426971964523
 32
0.0
 13
-1105.692231031095
 23
1211.426971964523
 33
0.0
  0
POINT
  5
87DC
330
1121
100
AcDbEntity
  8
Defpoints
 62
     0
100
AcDbPoint
 10
-1105.692231031095
 20
1211.426971964523
 30
0.0
  0
POINT
  5
87DD
330
1121
100
AcDbEntity
  8
Defpoints
 62
     0
100
AcDbPoint
 10
-1113.966957624582
 20
1217.318595847045
 30
0.0
  0
ENDBLK
  5
1128
330
1121
100
AcDbEntity
  8
0
100
AcDbBlockEnd
  0
BLOCK
  5
12BF
330
12B3
100
AcDbEntity
  8
0
100
AcDbBlockBegin
  2
*D125
 70
     1
 10
0.0
 20
0.0
 30
0.0
  3
*D125
  1

  0
LINE
  5
8847
330
12B3
100
AcDbEntity
  8
cotas
100
AcDbLine
 10
3121.786890450057
 20
1542.680068725627
 30
0.0
 11
2987.890771022044
 21
1542.680068725627
 31
0.0
  0
LINE
  5
8848
330
12B3
100
AcDbEntity
  8
cotas
100
AcDbLine
 10
3121.612365832376
 20
1532.681560075053
 30
0.0
 11
2987.890771022044
 21
1532.681560075053
 31
0.0
  0
LINE
  5
8849
330
12B3
100
AcDbEntity
  8
cotas
100
AcDbLine
 10
2992.890771022045
 20
1552.680068725627
 30
0.0
 11
2992.890771022045
 21
1562.680068725627
 31
0.0
  0
LINE
  5
884A
330
12B3
100
AcDbEntity
  8
cotas
100
AcDbLine
 10
2992.890771022045
 20
1522.681560075053
 30
0.0
 11
2992.890771022045
 21
1487.966986535765
 31
0.0
  0
LINE
  5
884B
330
12B3
100
AcDbEntity
  8
cotas
100
AcDbLine
 10
2992.890771022045
 20
1542.680068725627
 30
0.0
 11
2992.890771022045
 21
1532.681560075053
 31
0.0
  0
SOLID
  5
884C
330
12B3
100
AcDbEntity
  8
cotas
100
AcDbTrace
 10
2991.224104355378
 20
1552.680068725627
 30
0.0
 11
2994.557437688711
 21
1552.680068725627
 31
0.0
 12
2992.890771022045
 22
1542.680068725627
 32
0.0
 13
2992.890771022045
 23
1542.680068725627
 33
0.0
  0
SOLID
  5
884D
330
12B3
100
AcDbEntity
  8
cotas
100
AcDbTrace
 10
2991.224104355378
 20
1522.681560075053
 30
0.0
 11
2994.557437688711
 21
1522.681560075053
 31
0.0
 12
2992.890771022045
 22
1532.681560075053
 32
0.0
 13
2992.890771022045
 23
1532.681560075053
 33
0.0
  0
MTEXT
  5
884E
330
12B3
100
AcDbEntity
  8
cotas
100
AcDbMText
 10
2982.685935562004
 20
1500.32427330541
 30
0.0
 40
10.0
 41
0.0
 71
     5
 72
     1
  1
10
  7
SANINDUSA
 11
0.0000000000000001
 21
1.0
 31
0.0
 73
     1
 44
1.0
1001
ACAD
1000
MTEXTBEGIN
1070
    73
1070
     1
1070
    44
1040
1.0
1070
    74
1070
     0
1000
MTEXTEND
  0
POINT
  5
884F
330
12B3
100
AcDbEntity
  8
Defpoints
 62
     0
100
AcDbPoint
 10
3126.786890450057
 20
1542.680068725627
 30
0.0
  0
POINT
  5
8850
330
12B3
100
AcDbEntity
  8
Defpoints
 62
     0
100
AcDbPoint
 10
3126.612365832376
 20
1532.681560075053
 30
0.0
  0
POINT
  5
8851
330
12B3
100
AcDbEntity
  8
Defpoints
 62
     0
100
AcDbPoint
 10
2992.890771022045
 20
1532.681560075053
 30
0.0
  0
ENDBLK
  5
12C0
330
12B3
100
AcDbEntity
  8
0
100
AcDbBlockEnd
  0
ENDSEC
  0
SECTION
  2
ENTITIES
  0
ARC
  5
994
330
23
100
AcDbEntity
  8
SANINDUSA
100
AcDbCircle
 10
1963.98782544
 20
1602.320222738581
 30
0.0
 40
0.0782123205470804
100
AcDbArc
 50
270.7561667058103
 51
284.6840122179102
  0
ARC
  5
996
330
23
100
AcDbEntity
  8
SANINDUSA
100
AcDbCircle
 10
1964.002444308955
 20
1602.26478920203
 30
0.0
 40
0.0209000001298174
100
AcDbArc
 50
284.4477006178479
 51
358.0000000613444
  0
ARC
  5
997
330
23
100
AcDbEntity
  8
SANINDUSA
100
AcDbCircle
 10
1963.062558676764
 20
1602.279144317171
 30
0.0
 40
0.0208980652522151
100
AcDbArc
 50
236.4672484999446
 51
268.800683688718
  0
LINE
  5
9AC
330
23
100
AcDbEntity
  8
SANINDUSA
100
AcDbLine
 10
1963.836353061518
 20
1602.242010404582
 30
0.0
 11
1963.849724304694
 21
1602.232647749337
 31
0.0
  0
LINE
  5
9AD
330
23
100
AcDbEntity
  8
SANINDUSA
100
AcDbLine
 10
1963.975464842939
 20
1602.232647749337
 30
0.0
 11
1963.988857624849
 21
1602.242017229313
 31
0.0
  0
LINE
  5
9AE
330
23
100
AcDbEntity
  8
SANINDUSA
100
AcDbLine
 10
1963.849724304694
 20
1602.232647749337
 30
0.0
 11
1963.860898805554
 21
1602.220664564265
 31
0.0
  0
LINE
  5
9AF
330
23
100
AcDbEntity
  8
SANINDUSA
100
AcDbLine
 10
1963.964290342079
 20
1602.220664564265
 30
0.0
 11
1963.975464842939
 21
1602.232647749337
 31
0.0
  0
LINE
  5
9B5
330
23
100
AcDbEntity
  8
SANINDUSA
100
AcDbLine
 10
1962.396895609593
 20
1602.314704244251
 30
0.0
 11
1964.088293550333
 21
1602.314704244251
 31
0.0
  0
LINE
  5
9B8
330
23
100
AcDbEntity
  8
SANINDUSA
100
AcDbLine
 10
1962.391896371236
 20
1602.314704244251
 30
0.0
 11
1962.396895609593
 21
1602.314704244251
 31
0.0
  0
LINE
  5
9B9
330
23
100
AcDbEntity
  8
SANINDUSA
100
AcDbLine
 10
1962.391896371236
 20
1602.314704244251
 30
0.0
 11
1962.392474520792
 21
1602.347826410202
 31
0.0
  0
LINE
  5
9BB
330
23
100
AcDbEntity
  8
SANINDUSA
100
AcDbLine
 10
1964.092714626841
 20
1602.347826410202
 30
0.0
 11
1964.093292830309
 21
1602.314704244251
 31
0.0
  0
LINE
  5
9BC
330
23
100
AcDbEntity
  8
SANINDUSA
100
AcDbLine
 10
1964.088293550333
 20
1602.314704244251
 30
0.0
 11
1964.093292830309
 21
1602.314704244251
 31
0.0
  0
LINE
  5
9BD
330
23
100
AcDbEntity
  8
SANINDUSA
100
AcDbLine
 10
1962.3994734546
 20
1602.354704243357
 30
0.0
 11
1964.085715649446
 21
1602.354704243357
 31
0.0
  0
ARC
  5
9C0
330
23
100
AcDbEntity
  8
SANINDUSA
100
AcDbCircle
 10
1962.399473454658
 20
1602.347704243356
 30
0.0
 40
0.0069999999999999
100
AcDbArc
 50
90.0
 51
179.0000000030781
  0
ARC
  5
9C1
330
23
100
AcDbEntity
  8
SANINDUSA
100
AcDbCircle
 10
1964.085715692975
 20
1602.347704243356
 30
0.0
 40
0.0069999999999999
100
AcDbArc
 50
0.9999999969218754
 51
90.0
  0
ARC
  5
A15
330
23
100
AcDbEntity
  8
SANINDUSA
100
AcDbCircle
 10
1963.021867238239
 20
1602.245920593444
 30
0.0
 40
0.0261064240177658
100
AcDbArc
 50
58.41176908957125
 51
88.99914273763005
  0
LINE
  5
A19
330
23
100
AcDbEntity
  8
SANINDUSA
100
AcDbLine
 10
1962.460089025816
 20
1602.314704244251
 30
0.0
 11
1962.460545307005
 21
1602.301638104278
 31
0.0
  0
LINE
  5
A1A
330
23
100
AcDbEntity
  8
SANINDUSA
100
AcDbLine
 10
1964.023499030467
 20
1602.268855035576
 30
0.0
 11
1964.025100109896
 21
1602.314704244251
 31
0.0
  0
ARC
  5
A1C
330
23
100
AcDbEntity
  8
SANINDUSA
100
AcDbCircle
 10
1963.062731648566
 20
1602.312377517408
 30
0.0
 40
0.0519091050429793
100
AcDbArc
 50
238.4130356291948
 51
269.0228771189211
  0
LINE
  5
A1E
330
23
100
AcDbEntity
  8
SANINDUSA
100
AcDbLine
 10
1962.48406782111
 20
1602.281418321716
 30
0.0
 11
1963.022323256497
 21
1602.272023038144
 31
0.0
  0
LWPOLYLINE
  5
A20
330
23
100
AcDbEntity
  8
SANINDUSA
100
AcDbPolyline
 90
        9
 70
   128
 43
0.0
 10
1962.481067819318
 20
1602.281470683629
 10
1962.481125442108
 20
1602.2814696778
 10
1962.481296112558
 20
1602.281466705019
 10
1962.481573266705
 20
1602.281461862142
 10
1962.481946280023
 20
1602.281455350334
 10
1962.482400832495
 20
1602.281447415466
 10
1962.482919497212
 20
1602.28143836301
 10
1962.483482358774
 20
1602.281428543145
 10
1962.484067817947
 20
1602.281418320949
  0
ARC
  5
A21
330
23
100
AcDbEntity
  8
SANINDUSA
100
AcDbCircle
 10
1962.481432575289
 20
1602.302367503759
 30
0.0
 40
0.0209
100
AcDbArc
 50
182.0000000037536
 51
269.0000000030781
  0
LWPOLYLINE
  5
A22
330
23
100
AcDbEntity
  8
SANINDUSA
100
AcDbPolyline
 90
        8
 70
   128
 43
0.0
 10
1964.023333070597
 20
1602.264101815636
 10
1964.023331759294
 20
1602.264064830954
 10
1964.023350594362
 20
1602.264603075797
 10
1964.023388741335
 20
1602.265698244089
 10
1964.023430583796
 20
1602.266895135159
 10
1964.02346002849
 20
1602.267738540883
 10
1964.023484347185
 20
1602.268434775288
 10
1964.023485658487
 20
1602.268473555559
  0
LINE
  5
A24
330
23
100
AcDbEntity
  8
SANINDUSA
100
AcDbLine
 10
1963.860898805554
 20
1602.220664564265
 30
0.0
 11
1963.964290342079
 21
1602.220664564265
 31
0.0
  0
LWPOLYLINE
  5
A75
330
23
100
AcDbEntity
  8
SANINDUSA
100
AcDbPolyline
 90
       18
 70
   128
 43
0.0
 10
1961.902658269486
 20
1602.242014881863
 10
1961.913119629702
 20
1602.242126476659
 10
1961.924591646275
 20
1602.24224518676
 10
1961.936969474635
 20
1602.242372062697
 10
1961.950253025374
 20
1602.242508080496
 10
1961.964181259951
 20
1602.242651548876
 10
1961.978920356116
 20
1602.242806476249
 10
1961.993792370639
 20
1602.242969748272
 10
1962.008613661608
 20
1602.243144047154
 10
1962.030972794375
 20
1602.243437585129
 10
1962.053212658248
 20
1602.243769143416
 10
1962.075332955203
 20
1602.24412876804
 10
1962.086382583461
 20
1602.244320747151
 10
1962.097453848204
 20
1602.244522300257
 10
1962.108545974574
 20
1602.24472958286
 10
1962.119658068499
 20
1602.244935122026
 10
1962.130788937888
 20
1602.245127138389
 10
1962.137794390997
 20
1602.245226961268
  0
ARC
  5
A76
330
23
100
AcDbEntity
  8
SANINDUSA
100
AcDbCircle
 10
1961.517689946586
 20
1602.266119882157
 30
0.0
 40
0.0208999975672579
100
AcDbArc
 50
181.9912127100843
 51
269.1227162964827
  0
ARC
  5
A77
330
23
100
AcDbEntity
  8
SANINDUSA
100
AcDbCircle
 10
1962.137482392496
 20
1602.266119850635
 30
0.0
 40
0.0208999631187457
100
AcDbArc
 50
270.7777299136141
 51
358.0087887234391
  0
LINE
  5
A78
330
23
100
AcDbEntity
  8
SANINDUSA
100
AcDbLine
 10
1961.751403704963
 20
1602.24196903844
 30
0.0
 11
1961.764715884704
 21
1602.23264775627
 31
0.0
  0
LINE
  5
A79
330
23
100
AcDbEntity
  8
SANINDUSA
100
AcDbLine
 10
1961.890456422948
 20
1602.23264775627
 30
0.0
 11
1961.903776482424
 21
1602.241974566771
 31
0.0
  0
LINE
  5
A7A
330
23
100
AcDbEntity
  8
SANINDUSA
100
AcDbLine
 10
1961.764715884704
 20
1602.23264775627
 30
0.0
 11
1961.775890385564
 21
1602.220664571198
 31
0.0
  0
LINE
  5
A7B
330
23
100
AcDbEntity
  8
SANINDUSA
100
AcDbLine
 10
1961.879281922089
 20
1602.220664571198
 30
0.0
 11
1961.890456422948
 21
1602.23264775627
 31
0.0
  0
LINE
  5
A7E
330
23
100
AcDbEntity
  8
SANINDUSA
100
AcDbLine
 10
1961.426887951246
 20
1602.314704251184
 30
0.0
 11
1961.427466100802
 21
1602.347826417135
 31
0.0
  0
LINE
  5
A7F
330
23
100
AcDbEntity
  8
SANINDUSA
100
AcDbLine
 10
1961.426887951246
 20
1602.314704251184
 30
0.0
 11
1961.431887189603
 21
1602.314704251184
 31
0.0
  0
LINE
  5
A81
330
23
100
AcDbEntity
  8
SANINDUSA
100
AcDbLine
 10
1962.227706206851
 20
1602.347826417135
 30
0.0
 11
1962.228284374556
 21
1602.314704251184
 31
0.0
  0
LINE
  5
A83
330
23
100
AcDbEntity
  8
SANINDUSA
100
AcDbLine
 10
1962.22328509458
 20
1602.314704251184
 30
0.0
 11
1962.228284374556
 21
1602.314704251184
 31
0.0
  0
LINE
  5
A85
330
23
100
AcDbEntity
  8
SANINDUSA
100
AcDbLine
 10
1961.431887189603
 20
1602.314704251184
 30
0.0
 11
1962.22328509458
 21
1602.314704251184
 31
0.0
  0
LINE
  5
A87
330
23
100
AcDbEntity
  8
SANINDUSA
100
AcDbLine
 10
1961.43446503461
 20
1602.35470425029
 30
0.0
 11
1962.220707253299
 21
1602.35470425029
 31
0.0
  0
ARC
  5
A89
330
23
100
AcDbEntity
  8
SANINDUSA
100
AcDbCircle
 10
1961.434465034668
 20
1602.34770425029
 30
0.0
 40
0.007
100
AcDbArc
 50
90.0
 51
179.0000000030781
  0
ARC
  5
A8A
330
23
100
AcDbEntity
  8
SANINDUSA
100
AcDbCircle
 10
1962.220707272985
 20
1602.34770425029
 30
0.0
 40
0.0069999999999999
100
AcDbArc
 50
0.9999999969218754
 51
90.0
  0
LINE
  5
A90
330
23
100
AcDbEntity
  8
SANINDUSA
100
AcDbLine
 10
1961.495080605826
 20
1602.314704251184
 30
0.0
 11
1961.496690737033
 21
1602.268596169826
 31
0.0
  0
LINE
  5
A91
330
23
100
AcDbEntity
  8
SANINDUSA
100
AcDbLine
 10
1962.15848157163
 20
1602.26859619874
 30
0.0
 11
1962.160091713748
 21
1602.314704251184
 31
0.0
  0
LWPOLYLINE
  5
A99
330
23
100
AcDbEntity
  8
SANINDUSA
100
AcDbPolyline
 90
        5
 70
   128
 43
0.0
 10
1961.496690735898
 20
1602.268596169247
 10
1961.496750809929
 20
1602.266875986649
 10
1961.496786051175
 20
1602.265866753353
 10
1961.496800758621
 20
1602.265445586933
 10
1961.496800259433
 20
1602.265459824993
  0
LWPOLYLINE
  5
A9A
330
23
100
AcDbEntity
  8
SANINDUSA
100
AcDbPolyline
 90
        4
 70
   128
 43
0.0
 10
1962.158370093188
 20
1602.265404161705
 10
1962.15838153728
 20
1602.265731435909
 10
1962.158416525206
 20
1602.266733442141
 10
1962.158481553874
 20
1602.268596199049
  0
LWPOLYLINE
  5
A9B
330
23
100
AcDbEntity
  8
SANINDUSA
100
AcDbPolyline
 90
       40
 70
   128
 43
0.0
 10
1961.751426354727
 20
1602.242001351608
 10
1961.751447872004
 20
1602.24200290878
 10
1961.752018765292
 20
1602.242006328596
 10
1961.753110305152
 20
1602.242010530724
 10
1961.754770890555
 20
1602.242015649272
 10
1961.756962612948
 20
1602.242021565033
 10
1961.759575054726
 20
1602.242028032138
 10
1961.762652144513
 20
1602.242034938826
 10
1961.766282663426
 20
1602.242042069031
 10
1961.770357296548
 20
1602.242048826708
 10
1961.774685010991
 20
1602.242054638161
 10
1961.779370472512
 20
1602.242059279873
 10
1961.78453134068
 20
1602.242062252654
 10
1961.790000901303
 20
1602.242062744392
 10
1961.795797274193
 20
1602.242059928073
 10
1961.801826373419
 20
1602.242052693559
 10
1961.808243290267
 20
1602.2420391037
 10
1961.814809635958
 20
1602.242020395292
 10
1961.821026221594
 20
1602.242003102495
 10
1961.8272847689
 20
1602.241994809999
 10
1961.833711699328
 20
1602.242002037062
 10
1961.840097383342
 20
1602.242019568278
 10
1961.846241698346
 20
1602.242037360264
 10
1961.852260307154
 20
1602.242050853266
 10
1961.858278319916
 20
1602.242058937146
 10
1961.864075229249
 20
1602.242062461271
 10
1961.864216551861
 20
1602.242062498523
 10
1961.869646535
 20
1602.242062520875
 10
1961.874784693799
 20
1602.242060024931
 10
1961.879730597815
 20
1602.242055494977
 10
1961.884294048628
 20
1602.242049594118
 10
1961.888334558091
 20
1602.24204307486
 10
1961.891953960738
 20
1602.242036138369
 10
1961.895211652598
 20
1602.242028956009
 10
1961.897973880849
 20
1602.242022175981
 10
1961.90016134151
 20
1602.242016327275
 10
1961.901847854933
 20
1602.242011245979
 10
1961.903046206317
 20
1602.242006805433
 10
1961.903693125329
 20
1602.242003199352
 10
1961.903757736764
 20
1602.242001336707
  0
LINE
  5
A9E
330
23
100
AcDbEntity
  8
SANINDUSA
100
AcDbLine
 10
1961.827586153826
 20
1602.220664571198
 30
0.0
 11
1961.879281922089
 21
1602.220664571198
 31
0.0
  0
LINE
  5
A9F
330
23
100
AcDbEntity
  8
SANINDUSA
100
AcDbLine
 10
1961.775890385564
 20
1602.220664571198
 30
0.0
 11
1961.827586153826
 21
1602.220664571198
 31
0.0
  0
LWPOLYLINE
  5
AA3
330
23
100
AcDbEntity
  8
SANINDUSA
100
AcDbPolyline
 90
       18
 70
   128
 43
0.0
 10
1961.752514038167
 20
1602.242014881863
 10
1961.742052677951
 20
1602.242126476659
 10
1961.730580661378
 20
1602.24224518676
 10
1961.718202833018
 20
1602.242372062697
 10
1961.704919282279
 20
1602.242508080496
 10
1961.690991047702
 20
1602.242651548876
 10
1961.676251951537
 20
1602.242806476249
 10
1961.661379937014
 20
1602.242969748272
 10
1961.646558646044
 20
1602.243144047154
 10
1961.624199513278
 20
1602.243437585129
 10
1961.601959649405
 20
1602.243769143416
 10
1961.57983935245
 20
1602.24412876804
 10
1961.568789724192
 20
1602.244320747151
 10
1961.557718459449
 20
1602.244522300257
 10
1961.546626333079
 20
1602.24472958286
 10
1961.535514239154
 20
1602.244935122026
 10
1961.524383369765
 20
1602.245127138389
 10
1961.517377916655
 20
1602.245226961268
  0
LINE
  5
AA7
330
23
100
AcDbEntity
  8
SANINDUSA
100
AcDbLine
 10
1963.062121270021
 20
1602.258250829989
 30
0.0
 11
1963.836353061518
 21
1602.242010404582
 31
0.0
  0
LINE
  5
AA8
330
23
100
AcDbEntity
  8
SANINDUSA
100
AcDbLine
 10
1963.836353061518
 20
1602.242010404582
 30
0.0
 11
1963.988857624849
 21
1602.242017229313
 31
0.0
  0
ARC
  5
AC2
330
23
100
AcDbEntity
  8
SANINDUSA
100
AcDbCircle
 10
1959.522300173958
 20
1602.647050642173
 30
0.0
 40
0.0050010290416769
100
AcDbArc
 50
90.02051026560812
 51
179.9792821012585
  0
LINE
  5
AC4
330
23
100
AcDbEntity
  8
SANINDUSA
100
AcDbLine
 10
1959.522298383718
 20
1602.652051668243
 30
0.0
 11
1961.212540012816
 21
1602.652051668243
 31
0.0
  0
ARC
  5
AC8
330
23
100
AcDbEntity
  8
SANINDUSA
100
AcDbCircle
 10
1961.212538220791
 20
1602.647050601958
 30
0.0
 40
0.0050010692556697
100
AcDbArc
 50
0.0211784618175847
 51
89.97950466397012
  0
LINE
  5
ACB
330
23
100
AcDbEntity
  8
SANINDUSA
100
AcDbLine
 10
1959.517299145243
 20
1601.85681080067
 30
0.0
 11
1959.517299145243
 21
1602.647052429767
 31
0.0
  0
LINE
  5
ACC
330
23
100
AcDbEntity
  8
SANINDUSA
100
AcDbLine
 10
1961.217539251292
 20
1602.647052429767
 30
0.0
 11
1961.217539251292
 21
1601.85681080067
 31
0.0
  0
ELLIPSE
  5
AD9
330
23
100
AcDbEntity
  8
SANINDUSA
100
AcDbEllipse
 10
1959.60767583454
 20
1602.561674978946
 30
0.0
 11
0.0141714282369873
 21
-0.0141714282369858
 31
0.0
210
0.0
220
0.0
230
1.0
 40
0.9979329808706712
 41
2.356803477777904
 42
3.92638182940161
  0
ELLIPSE
  5
ADC
330
23
100
AcDbEntity
  8
SANINDUSA
100
AcDbEllipse
 10
1961.127162561818
 20
1602.561674978946
 30
0.0
 11
0.0141714282369861
 21
0.0141714282369864
 31
0.0
210
0.0
220
0.0
230
1.0
 40
0.9979329808707111
 41
5.498396131367771
 42
7.067974482991423
  0
LINE
  5
ADE
330
23
100
AcDbEntity
  8
SANINDUSA
100
AcDbLine
 10
1961.127195467185
 20
1602.581695700853
 30
0.0
 11
1959.607642929174
 21
1602.581695700853
 31
0.0
  0
LINE
  5
ADF
330
23
100
AcDbEntity
  8
SANINDUSA
100
AcDbLine
 10
1959.587655112633
 20
1602.561707884312
 30
0.0
 11
1959.587655112633
 21
1601.942155346124
 31
0.0
  0
LINE
  5
AE2
330
23
100
AcDbEntity
  8
SANINDUSA
100
AcDbLine
 10
1961.147183283725
 20
1601.942155346124
 30
0.0
 11
1961.147183283725
 21
1602.561707884312
 31
0.0
  0
ELLIPSE
  5
AE4
330
23
100
AcDbEntity
  8
SANINDUSA
100
AcDbEllipse
 10
1961.127162561818
 20
1601.942188251491
 30
0.0
 11
-0.0141714282369861
 21
0.0141714282369874
 31
0.0
210
0.0
220
0.0
230
1.0
 40
0.9979329808706809
 41
2.35680347777799
 42
3.926381829401686
  0
ELLIPSE
  5
AE5
330
23
100
AcDbEntity
  8
SANINDUSA
100
AcDbEllipse
 10
1959.60767583454
 20
1601.942188251491
 30
0.0
 11
0.0141714282369856
 21
0.0141714282369874
 31
0.0
210
0.0
220
0.0
230
1.0
 40
0.9979329808707012
 41
2.356803477777897
 42
3.926381829401565
  0
LINE
  5
AE7
330
23
100
AcDbEntity
  8
SANINDUSA
100
AcDbLine
 10
1959.607642929174
 20
1601.922167529584
 30
0.0
 11
1961.127195467185
 21
1601.922167529584
 31
0.0
  0
ARC
  5
AE9
330
23
100
AcDbEntity
  8
SANINDUSA
100
AcDbCircle
 10
1961.212538227078
 20
1601.856812624836
 30
0.0
 40
0.0050010629595766
100
AcDbArc
 50
270.0204233327454
 51
359.9791011876325
  0
LINE
  5
AEA
330
23
100
AcDbEntity
  8
SANINDUSA
100
AcDbLine
 10
1961.212540012816
 20
1601.851811562194
 30
0.0
 11
1959.522298383718
 21
1601.851811562194
 31
0.0
  0
ARC
  5
AEC
330
23
100
AcDbEntity
  8
SANINDUSA
100
AcDbCircle
 10
1959.52230016767
 20
1601.856812584621
 30
0.0
 40
0.0050010227454467
100
AcDbArc
 50
180.0204382492961
 51
269.9795617507039
  0
ARC
  5
B32
330
23
100
AcDbEntity
  8
SANINDUSA
100
AcDbCircle
 10
1959.635504470832
 20
1601.969726136332
 30
0.0
 40
0.0108877795079256
100
AcDbArc
 50
179.98753168165
 51
269.9876889632898
  0
ARC
  5
B35
330
23
100
AcDbEntity
  8
SANINDUSA
100
AcDbCircle
 10
1959.635504460278
 20
1602.534137086777
 30
0.0
 40
0.0108877689512737
100
AcDbArc
 50
90.01225551328493
 51
180.0124062420634
  0
LINE
  5
B38
330
23
100
AcDbEntity
  8
SANINDUSA
100
AcDbLine
 10
1959.624616693773
 20
1601.969728503009
 30
0.0
 11
1959.624616693773
 21
1602.534134727428
 31
0.0
  0
LINE
  5
B3D
330
23
100
AcDbEntity
  8
SANINDUSA
100
AcDbLine
 10
1959.635502133624
 20
1602.545024871998
 30
0.0
 11
1960.152353180166
 21
1602.545024871998
 31
0.0
  0
LINE
  5
B3F
330
23
100
AcDbEntity
  8
SANINDUSA
100
AcDbLine
 10
1960.152353726985
 20
1601.958838358439
 30
0.0
 11
1959.635502133624
 21
1601.958838358439
 31
0.0
  0
LWPOLYLINE
  5
B4E
330
23
100
AcDbEntity
  8
SANINDUSA
100
AcDbPolyline
 90
        3
 70
   128
 43
0.0
 10
1960.164486327879
 20
1601.959235286757
 10
1960.158459583037
 20
1601.958951956078
 10
1960.15235374283
 20
1601.958838357076
  0
LWPOLYLINE
  5
B4F
330
23
100
AcDbEntity
  8
SANINDUSA
100
AcDbPolyline
 90
        3
 70
   128
 43
0.0
 10
1960.152353206389
 20
1602.545024855479
 10
1960.161418953649
 20
1602.544786138877
 10
1960.164486327879
 20
1602.544627888545
  0
ARC
  5
B51
330
23
100
AcDbEntity
  8
SANINDUSA
100
AcDbCircle
 10
1960.16538481245
 20
1602.53419505213
 30
0.0
 40
0.0101579386503083
100
AcDbArc
 50
0.0046899968820424
 51
72.96857489465125
  0
ARC
  5
B53
330
23
100
AcDbEntity
  8
SANINDUSA
100
AcDbCircle
 10
1960.165384999847
 20
1601.96966813496
 30
0.0
 40
0.010157870454485
100
AcDbArc
 50
287.0300858299747
 51
359.9959158885075
  0
LINE
  5
B56
330
23
100
AcDbEntity
  8
SANINDUSA
100
AcDbLine
 10
1960.164486306797
 20
1602.544627913701
 30
0.0
 11
1960.166846022335
 21
1602.544320795024
 31
0.0
  0
LINE
  5
B57
330
23
100
AcDbEntity
  8
SANINDUSA
100
AcDbLine
 10
1960.166845693485
 20
1601.959542328321
 30
0.0
 11
1960.164486312538
 21
1601.959235287529
 31
0.0
  0
LWPOLYLINE
  5
B58
330
23
100
AcDbEntity
  8
SANINDUSA
100
AcDbPolyline
 90
        8
 70
   128
 43
0.0
 10
1960.175542751066
 20
1602.534195883616
 10
1960.17554048609
 20
1602.497666223392
 10
1960.175465086214
 20
1602.401659949168
 10
1960.17539779257
 20
1602.305665834293
 10
1960.175391653292
 20
1602.209671421394
 10
1960.175459304563
 20
1602.113672478541
 10
1960.175536194555
 20
1602.017673505887
 10
1960.175542870275
 20
1601.969667410895
  0
LINE
  5
B59
330
23
100
AcDbEntity
  8
SANINDUSA
100
AcDbLine
 10
1960.168359965725
 20
1601.959955674195
 30
0.0
 11
1960.166845693485
 21
1601.959542328321
 31
0.0
  0
LINE
  5
B5A
330
23
100
AcDbEntity
  8
SANINDUSA
100
AcDbLine
 10
1960.166846022335
 20
1602.544320795024
 30
0.0
 11
1960.168360007315
 21
1602.543907500137
 31
0.0
  0
CIRCLE
  5
B7A
330
23
100
AcDbEntity
  8
SANINDUSA
100
AcDbCircle
 10
1960.302065307048
 20
1602.49178085128
 30
0.0
 40
0.0107481129185497
  0
CIRCLE
  5
B7C
330
23
100
AcDbEntity
  8
SANINDUSA
100
AcDbCircle
 10
1960.302081400288
 20
1602.011925545388
 30
0.0
 40
0.0107483118826213
  0
CIRCLE
  5
B7E
330
23
100
AcDbEntity
  8
SANINDUSA
100
AcDbCircle
 10
1960.302065212065
 20
1602.091904991219
 30
0.0
 40
0.0107494804090941
  0
CIRCLE
  5
B80
330
23
100
AcDbEntity
  8
SANINDUSA
100
AcDbCircle
 10
1960.302066196584
 20
1602.411958116002
 30
0.0
 40
0.0107484362535795
  0
CIRCLE
  5
B83
330
23
100
AcDbEntity
  8
SANINDUSA
100
AcDbCircle
 10
1960.382054122485
 20
1602.491780344023
 30
0.0
 40
0.0107478366991083
  0
CIRCLE
  5
B86
330
23
100
AcDbEntity
  8
SANINDUSA
100
AcDbCircle
 10
1960.38207015044
 20
1602.011926006098
 30
0.0
 40
0.0107480413484805
  0
CIRCLE
  5
BBF
330
23
100
AcDbEntity
  8
SANINDUSA
100
AcDbCircle
 10
1960.302035495648
 20
1602.17190465748
 30
0.0
 40
0.0107517191302605
  0
CIRCLE
  5
BC1
330
23
100
AcDbEntity
  8
SANINDUSA
100
AcDbCircle
 10
1960.302036720527
 20
1602.331959302313
 30
0.0
 40
0.0107504349513283
  0
CIRCLE
  5
BC3
330
23
100
AcDbEntity
  8
SANINDUSA
100
AcDbCircle
 10
1960.382053347262
 20
1602.091902326908
 30
0.0
 40
0.0107491692071922
  0
CIRCLE
  5
BC5
330
23
100
AcDbEntity
  8
SANINDUSA
100
AcDbCircle
 10
1960.38205436373
 20
1602.411960715233
 30
0.0
 40
0.0107480930625825
  0
CIRCLE
  5
BC7
330
23
100
AcDbEntity
  8
SANINDUSA
100
AcDbCircle
 10
1960.462040891472
 20
1602.491779941291
 30
0.0
 40
0.0107476995785199
  0
CIRCLE
  5
BC9
330
23
100
AcDbEntity
  8
SANINDUSA
100
AcDbCircle
 10
1960.462056742437
 20
1602.011926024979
 30
0.0
 40
0.0107479024319725
  0
CIRCLE
  5
BCB
330
23
100
AcDbEntity
  8
SANINDUSA
100
AcDbCircle
 10
1960.302019791328
 20
1602.251932415985
 30
0.0
 40
0.0107525811805692
  0
CIRCLE
  5
BCD
330
23
100
AcDbEntity
  8
SANINDUSA
100
AcDbCircle
 10
1960.462039621477
 20
1602.091900378306
 30
0.0
 40
0.0107488115733737
  0
CIRCLE
  5
BCF
330
23
100
AcDbEntity
  8
SANINDUSA
100
AcDbCircle
 10
1960.462040621531
 20
1602.411962896717
 30
0.0
 40
0.0107477519317148
  0
CIRCLE
  5
BD1
330
23
100
AcDbEntity
  8
SANINDUSA
100
AcDbCircle
 10
1960.382020453542
 20
1602.171900842352
 30
0.0
 40
0.0107517241546225
  0
CIRCLE
  5
BD3
330
23
100
AcDbEntity
  8
SANINDUSA
100
AcDbCircle
 10
1960.382021734328
 20
1602.331963514023
 30
0.0
 40
0.0107504438635698
  0
CIRCLE
  5
BD5
330
23
100
AcDbEntity
  8
SANINDUSA
100
AcDbCircle
 10
1960.542024337376
 20
1602.491780866531
 30
0.0
 40
0.0107476073192978
  0
CIRCLE
  5
BD7
330
23
100
AcDbEntity
  8
SANINDUSA
100
AcDbCircle
 10
1960.542039941985
 20
1602.011925427229
 30
0.0
 40
0.0107478180941346
  0
CIRCLE
  5
BD9
330
23
100
AcDbEntity
  8
SANINDUSA
100
AcDbCircle
 10
1960.382002210626
 20
1602.251932540119
 30
0.0
 40
0.0107530982747473
  0
CIRCLE
  5
BDB
330
23
100
AcDbEntity
  8
SANINDUSA
100
AcDbCircle
 10
1960.54202258934
 20
1602.091899744278
 30
0.0
 40
0.0107484818919734
  0
CIRCLE
  5
BDD
330
23
100
AcDbEntity
  8
SANINDUSA
100
AcDbCircle
 10
1960.542023455958
 20
1602.411963504406
 30
0.0
 40
0.0107476152708768
  0
CIRCLE
  5
BDF
330
23
100
AcDbEntity
  8
SANINDUSA
100
AcDbCircle
 10
1960.462004670529
 20
1602.171897000954
 30
0.0
 40
0.0107518742214049
  0
CIRCLE
  5
BE1
330
23
100
AcDbEntity
  8
SANINDUSA
100
AcDbCircle
 10
1960.46200610892
 20
1602.3319671565
 30
0.0
 40
0.0107503766654413
  0
CIRCLE
  5
BE3
330
23
100
AcDbEntity
  8
SANINDUSA
100
AcDbCircle
 10
1960.622003306324
 20
1602.491783701043
 30
0.0
 40
0.0107477005882255
  0
CIRCLE
  5
BE5
330
23
100
AcDbEntity
  8
SANINDUSA
100
AcDbCircle
 10
1960.622018304501
 20
1602.011922681261
 30
0.0
 40
0.0107481601668816
  0
CIRCLE
  5
BE7
330
23
100
AcDbEntity
  8
SANINDUSA
100
AcDbCircle
 10
1960.461984710251
 20
1602.251932791878
 30
0.0
 40
0.0107535350568672
  0
CIRCLE
  5
BE9
330
23
100
AcDbEntity
  8
SANINDUSA
100
AcDbCircle
 10
1960.622000712816
 20
1602.091899945472
 30
0.0
 40
0.0107484667787433
  0
CIRCLE
  5
BEB
330
23
100
AcDbEntity
  8
SANINDUSA
100
AcDbCircle
 10
1960.622001624264
 20
1602.411963382042
 30
0.0
 40
0.0107474361418635
  0
CIRCLE
  5
BED
330
23
100
AcDbEntity
  8
SANINDUSA
100
AcDbCircle
 10
1960.541987770292
 20
1602.171895321073
 30
0.0
 40
0.0107517106189313
  0
CIRCLE
  5
BEF
330
23
100
AcDbEntity
  8
SANINDUSA
100
AcDbCircle
 10
1960.541989094416
 20
1602.331968881125
 30
0.0
 40
0.010750386901094
  0
CIRCLE
  5
BF1
330
23
100
AcDbEntity
  8
SANINDUSA
100
AcDbCircle
 10
1960.701976870811
 20
1602.49178932886
 30
0.0
 40
0.0107480726579562
  0
CIRCLE
  5
BF3
330
23
100
AcDbEntity
  8
SANINDUSA
100
AcDbCircle
 10
1960.701991102833
 20
1602.011917247616
 30
0.0
 40
0.0107490598588956
  0
CIRCLE
  5
BF5
330
23
100
AcDbEntity
  8
SANINDUSA
100
AcDbCircle
 10
1960.541967283974
 20
1602.25193249828
 30
0.0
 40
0.0107539572926234
  0
CIRCLE
  5
BF7
330
23
100
AcDbEntity
  8
SANINDUSA
100
AcDbCircle
 10
1960.621968723532
 20
1602.171895850785
 30
0.0
 40
0.0107516073744219
  0
CIRCLE
  5
BF9
330
23
100
AcDbEntity
  8
SANINDUSA
100
AcDbCircle
 10
1960.621969879309
 20
1602.331968396504
 30
0.0
 40
0.0107503327432529
  0
CIRCLE
  5
BFB
330
23
100
AcDbEntity
  8
SANINDUSA
100
AcDbCircle
 10
1960.701973786871
 20
1602.091902790813
 30
0.0
 40
0.0107483748297078
  0
CIRCLE
  5
BFD
330
23
100
AcDbEntity
  8
SANINDUSA
100
AcDbCircle
 10
1960.701974370139
 20
1602.411960657655
 30
0.0
 40
0.0107477916016176
  0
CIRCLE
  5
C01
330
23
100
AcDbEntity
  8
SANINDUSA
100
AcDbCircle
 10
1960.781946422942
 20
1602.491797830612
 30
0.0
 40
0.0107488812431278
  0
CIRCLE
  5
C03
330
23
100
AcDbEntity
  8
SANINDUSA
100
AcDbCircle
 10
1960.781960214327
 20
1602.011909742033
 30
0.0
 40
0.0107503084925414
  0
CIRCLE
  5
C05
330
23
100
AcDbEntity
  8
SANINDUSA
100
AcDbCircle
 10
1960.70194680795
 20
1602.171900322484
 30
0.0
 40
0.0107512733628458
  0
CIRCLE
  5
C07
330
23
100
AcDbEntity
  8
SANINDUSA
100
AcDbCircle
 10
1960.701947649149
 20
1602.331964567014
 30
0.0
 40
0.0107504324796354
  0
CIRCLE
  5
C09
330
23
100
AcDbEntity
  8
SANINDUSA
100
AcDbCircle
 10
1960.781943719574
 20
1602.091907574102
 30
0.0
 40
0.0107485633532959
  0
CIRCLE
  5
C0B
330
23
100
AcDbEntity
  8
SANINDUSA
100
AcDbCircle
 10
1960.781943952098
 20
1602.411956007235
 30
0.0
 40
0.0107483308529514
  0
CIRCLE
  5
C0D
330
23
100
AcDbEntity
  8
SANINDUSA
100
AcDbCircle
 10
1960.701933868951
 20
1602.251932513911
 30
0.0
 40
0.0107532450834205
  0
CIRCLE
  5
C0F
330
23
100
AcDbEntity
  8
SANINDUSA
100
AcDbCircle
 10
1960.861918476399
 20
1602.491806157251
 30
0.0
 40
0.0107505256026794
  0
CIRCLE
  5
C11
330
23
100
AcDbEntity
  8
SANINDUSA
100
AcDbCircle
 10
1960.861932876488
 20
1602.011901462605
 30
0.0
 40
0.0107519401312836
  0
CIRCLE
  5
C13
330
23
100
AcDbEntity
  8
SANINDUSA
100
AcDbCircle
 10
1960.781922236531
 20
1602.171905945368
 30
0.0
 40
0.0107515689486119
  0
CIRCLE
  5
C15
330
23
100
AcDbEntity
  8
SANINDUSA
100
AcDbCircle
 10
1960.781923030953
 20
1602.331959056056
 30
0.0
 40
0.0107507747538567
  0
CIRCLE
  5
C17
330
23
100
AcDbEntity
  8
SANINDUSA
100
AcDbCircle
 10
1960.781918509124
 20
1602.25193239385
 30
0.0
 40
0.0107514816784711
  0
CIRCLE
  5
C19
330
23
100
AcDbEntity
  8
SANINDUSA
100
AcDbCircle
 10
1960.861917605194
 20
1602.411949826235
 30
0.0
 40
0.0107490906438859
  0
CIRCLE
  5
C1B
330
23
100
AcDbEntity
  8
SANINDUSA
100
AcDbCircle
 10
1960.86191751689
 20
1602.091914347426
 30
0.0
 40
0.0107491789440059
  0
CIRCLE
  5
C1D
330
23
100
AcDbEntity
  8
SANINDUSA
100
AcDbCircle
 10
1960.861901095021
 20
1602.171909552251
 30
0.0
 40
0.0107523686610698
  0
CIRCLE
  5
C1F
330
23
100
AcDbEntity
  8
SANINDUSA
100
AcDbCircle
 10
1960.861902179898
 20
1602.331954873154
 30
0.0
 40
0.0107512839936064
  0
CIRCLE
  5
C21
330
23
100
AcDbEntity
  8
SANINDUSA
100
AcDbCircle
 10
1960.861903757789
 20
1602.251931981549
 30
0.0
 40
0.0107492289750055
  0
LWPOLYLINE
  5
C22
330
23
100
AcDbEntity
  8
SANINDUSA
100
AcDbPolyline
 90
       59
 70
   128
 43
0.0
 10
1961.111401417963
 20
1602.251931621179
 10
1961.111160734407
 20
1602.258023245677
 10
1961.11043379616
 20
1602.264075799331
 10
1961.108657577745
 20
1602.27211864148
 10
1961.105984309427
 20
1602.279937250957
 10
1961.102464059107
 20
1602.287383718833
 10
1961.102406957857
 20
1602.287488324985
 10
1961.098007777445
 20
1602.294542802914
 10
1961.092827776186
 20
1602.301079972132
 10
1961.086966970675
 20
1602.306976898059
 10
1961.080463150255
 20
1602.312176211223
 10
1961.073396065943
 20
1602.316629810676
 10
1961.065899589769
 20
1602.320254607543
 10
1961.058046200983
 20
1602.323003305539
 10
1961.049909570925
 20
1602.32486520563
 10
1961.041642287485
 20
1602.325805290088
 10
1961.033334592096
 20
1602.325802250251
 10
1961.025052645914
 20
1602.324871046885
 10
1961.016951778643
 20
1602.323028667315
 10
1961.009108165018
 20
1602.320277912959
 10
1961.001596549265
 20
1602.316657556638
 10
1960.994558790438
 20
1602.312235219821
 10
1960.988059380762
 20
1602.30703325425
 10
1960.98216340851
 20
1602.301118417129
 10
1960.976981619112
 20
1602.294602794989
 10
1960.972594598047
 20
1602.287579818114
 10
1960.969002822153
 20
1602.280089719638
 10
1960.966273167841
 20
1602.272271944627
 10
1960.964692929499
 20
1602.265595032319
 10
1960.963736155741
 20
1602.258785529479
 10
1960.963414648287
 20
1602.251931621179
 10
1960.964087107889
 20
1602.24201048766
 10
1960.966082194559
 20
1602.232268883332
 10
1960.968749144785
 20
1602.22439680849
 10
1960.972287634127
 20
1602.216846926555
 10
1960.97663126301
 20
1602.209760738954
 10
1960.981747964136
 20
1602.203215374097
 10
1960.987580874674
 20
1602.197262330397
 10
1960.994020918123
 20
1602.192013932809
 10
1961.001026728861
 20
1602.187524391755
 10
1961.008514383547
 20
1602.183834357604
 10
1961.016342380754
 20
1602.181012912139
 10
1961.024445393793
 20
1602.179097993716
 10
1961.032737949602
 20
1602.178096725091
 10
1961.041063884012
 20
1602.1780275539
 10
1961.049330452196
 20
1602.178901745423
 10
1961.057473996393
 20
1602.180697067126
 10
1961.065341928713
 20
1602.183379752978
 10
1961.072821357958
 20
1602.186918212518
 10
1961.079883912317
 20
1602.191278620109
 10
1961.086397746317
 20
1602.196380658492
 10
1961.092252352946
 20
1602.202143146142
 10
1961.097449639551
 20
1602.208538039073
 10
1961.101891616099
 20
1602.215448035344
 10
1961.105649331324
 20
1602.223118318662
 10
1961.108502009622
 20
1602.231200321063
 10
1961.110391715281
 20
1602.239529891356
 10
1961.11115024399
 20
1602.245709909543
 10
1961.111401417963
 20
1602.251931621179
  0
CIRCLE
  5
C24
330
23
100
AcDbEntity
  8
SANINDUSA
100
AcDbCircle
 10
1961.037419198267
 20
1602.251931615218
 30
0.0
 40
0.05
  0
LINE
  5
C80
330
23
100
AcDbEntity
  8
SANINDUSA
100
AcDbLine
 10
1965.096425756912
 20
1602.255546381776
 30
0.0
 11
1965.148668691616
 21
1602.254452047949
 31
0.0
  0
LINE
  5
C82
330
23
100
AcDbEntity
  8
SANINDUSA
100
AcDbLine
 10
1965.176408693294
 20
1602.253870977168
 30
0.0
 11
1965.228651627998
 21
1602.252776643341
 31
0.0
  0
LINE
  5
C84
330
23
100
AcDbEntity
  8
SANINDUSA
100
AcDbLine
 10
1965.256391629677
 20
1602.25219557256
 30
0.0
 11
1965.308634623985
 21
1602.251101238732
 31
0.0
  0
LINE
  5
C86
330
23
100
AcDbEntity
  8
SANINDUSA
100
AcDbLine
 10
1965.336374625664
 20
1602.250520175402
 30
0.0
 11
1965.388617500763
 21
1602.249425834124
 31
0.0
  0
LINE
  5
C88
330
23
100
AcDbEntity
  8
SANINDUSA
100
AcDbLine
 10
1965.416357502441
 20
1602.248844755893
 30
0.0
 11
1965.46860049675
 21
1602.247750444417
 31
0.0
  0
LINE
  5
C8A
330
23
100
AcDbEntity
  8
SANINDUSA
100
AcDbLine
 10
1965.496340498428
 20
1602.247169358735
 30
0.0
 11
1965.548583373527
 21
1602.24607505471
 31
0.0
  0
LINE
  5
C8C
330
23
100
AcDbEntity
  8
SANINDUSA
100
AcDbLine
 10
1965.576323375206
 20
1602.245493969028
 30
0.0
 11
1965.628566369514
 21
1602.244399635201
 31
0.0
  0
LINE
  5
C8E
330
23
100
AcDbEntity
  8
SANINDUSA
100
AcDbLine
 10
1965.656306371193
 20
1602.243818601673
 30
0.0
 11
1965.741767067793
 21
1602.242028466539
 31
0.0
  0
LWPOLYLINE
  5
C8F
330
23
100
AcDbEntity
  8
SANINDUSA
100
AcDbPolyline
 90
        3
 70
   128
 43
0.0
 10
1965.894338831406
 20
1602.242012849157
 10
1965.903747782211
 20
1602.242716362779
 10
1965.913138613205
 20
1602.24455285639
  0
LINE
  5
C90
330
23
100
AcDbEntity
  8
SANINDUSA
100
AcDbLine
 10
1964.972589716415
 20
1602.258140375917
 30
0.0
 11
1965.068685755234
 21
1602.256127452557
 31
0.0
  0
ARC
  5
C92
330
23
100
AcDbEntity
  8
SANINDUSA
100
AcDbCircle
 10
1965.741764977796
 20
1602.241928488381
 30
0.0
 40
0.0001000000002118
100
AcDbArc
 50
54.99999999392633
 51
88.80243309824864
  0
LINE
  5
C93
330
23
100
AcDbEntity
  8
SANINDUSA
100
AcDbLine
 10
1965.894283070904
 20
1602.241994780175
 30
0.0
 11
1965.880934104423
 21
1602.232647752469
 31
0.0
  0
LINE
  5
C94
330
23
100
AcDbEntity
  8
SANINDUSA
100
AcDbLine
 10
1965.755193576316
 20
1602.232647752469
 30
0.0
 11
1965.74182233544
 21
1602.242010403586
 31
0.0
  0
LWPOLYLINE
  5
C96
330
23
100
AcDbEntity
  8
SANINDUSA
100
AcDbPolyline
 90
       37
 70
   128
 43
0.0
 10
1965.742030963401
 20
1602.245928196316
 10
1965.742573008041
 20
1602.245927972798
 10
1965.743491396408
 20
1602.245925514107
 10
1965.744776234131
 20
1602.245922325258
 10
1965.746757015686
 20
1602.245918950145
 10
1965.74922798584
 20
1602.245916334991
 10
1965.752266034584
 20
1602.245914502149
 10
1965.755782589416
 20
1602.245913429265
 10
1965.759657725792
 20
1602.24591297478
 10
1965.763937816124
 20
1602.245912944977
 10
1965.768735870819
 20
1602.245913190847
 10
1965.773895725708
 20
1602.24591348887
 10
1965.779212460022
 20
1602.245913697486
 10
1965.784797176819
 20
1602.245913794344
 10
1965.790784940223
 20
1602.2459138763
 10
1965.796972259979
 20
1602.245914233928
 10
1965.803128704529
 20
1602.245914986436
 10
1965.809388265114
 20
1602.245916230684
 10
1965.81589256237
 20
1602.245918160384
 10
1965.822412476043
 20
1602.24592081279
 10
1965.828722581367
 20
1602.245924105947
 10
1965.834958300094
 20
1602.245928114359
 10
1965.841252789001
 20
1602.245932912533
 10
1965.847376212577
 20
1602.245938358908
 10
1965.853116735916
 20
1602.245944215064
 10
1965.858613595466
 20
1602.245950287288
 10
1965.863975510101
 20
1602.24595635206
 10
1965.869000300865
 20
1602.245961910193
 10
1965.873514399032
 20
1602.245966537004
 10
1965.877647146682
 20
1602.245970038777
 10
1965.881470069389
 20
1602.245972028082
 10
1965.884833797912
 20
1602.245971901422
 10
1965.887631043892
 20
1602.245969144707
 10
1965.88995872448
 20
1602.245962841516
 10
1965.89184628437
 20
1602.245951315467
 10
1965.89320872734
 20
1602.245935289269
 10
1965.894006595116
 20
1602.24591913641
  0
ARC
  5
C97
330
23
100
AcDbEntity
  8
SANINDUSA
100
AcDbCircle
 10
1965.894340428548
 20
1602.241912864971
 30
0.0
 40
0.0040000000007639
100
AcDbArc
 50
90.92293436244634
 51
124.9999999879298
  0
ARC
  5
C99
330
23
100
AcDbEntity
  8
SANINDUSA
100
AcDbCircle
 10
1965.741764977796
 20
1602.241928488381
 30
0.0
 40
0.0040000000000051
100
AcDbArc
 50
54.99999999392633
 51
88.80243309824864
  0
LINE
  5
C9A
330
23
100
AcDbEntity
  8
SANINDUSA
100
AcDbLine
 10
1965.892046122803
 20
1602.245189473148
 30
0.0
 11
1965.878361404702
 21
1602.235607330376
 31
0.0
  0
LINE
  5
C9C
330
23
100
AcDbEntity
  8
SANINDUSA
100
AcDbLine
 10
1965.757766314185
 20
1602.235607330376
 30
0.0
 11
1965.744059283542
 21
1602.245205096559
 31
0.0
  0
ARC
  5
C9E
330
23
100
AcDbEntity
  8
SANINDUSA
100
AcDbCircle
 10
1965.416523026332
 20
1602.256743128442
 30
0.0
 40
0.0079001067762263
100
AcDbArc
 50
217.4825620031516
 51
268.7994447833098
  0
ARC
  5
C9F
330
23
100
AcDbEntity
  8
SANINDUSA
100
AcDbCircle
 10
1965.388783068252
 20
1602.257323799491
 30
0.0
 40
0.0078997005975023
100
AcDbArc
 50
268.7990667580087
 51
320.1188864769024
  0
ARC
  5
CA1
330
23
100
AcDbEntity
  8
SANINDUSA
100
AcDbCircle
 10
1965.336540241559
 20
1602.258418971405
 30
0.0
 40
0.0079005320656729
100
AcDbArc
 50
217.4840668238053
 51
268.7988420483825
  0
ARC
  5
CA2
330
23
100
AcDbEntity
  8
SANINDUSA
100
AcDbCircle
 10
1965.308799969965
 20
1602.258999691083
 30
0.0
 40
0.0079001828354773
100
AcDbArc
 50
268.8007469251177
 51
320.1172063035273
  0
ARC
  5
CA4
330
23
100
AcDbEntity
  8
SANINDUSA
100
AcDbCircle
 10
1965.25655708549
 20
1602.260093810682
 30
0.0
 40
0.0078999709530019
100
AcDbArc
 50
217.4820888024386
 51
268.7999179957493
  0
ARC
  5
CA5
330
23
100
AcDbEntity
  8
SANINDUSA
100
AcDbCircle
 10
1965.228817141678
 20
1602.260674740332
 30
0.0
 40
0.0078998310654644
100
AcDbArc
 50
268.7994769554684
 51
320.1183626738387
  0
ARC
  5
CA7
330
23
100
AcDbEntity
  8
SANINDUSA
100
AcDbCircle
 10
1965.496505927825
 20
1602.255067533108
 30
0.0
 40
0.0078999066648616
100
AcDbArc
 50
217.4817956007103
 51
268.8000998610808
  0
ARC
  5
CA8
330
23
100
AcDbEntity
  8
SANINDUSA
100
AcDbCircle
 10
1965.468765842729
 20
1602.255648896768
 30
0.0
 40
0.0079001828354815
100
AcDbArc
 50
268.8007469251177
 51
320.1172063035273
  0
ARC
  5
CAA
330
23
100
AcDbEntity
  8
SANINDUSA
100
AcDbCircle
 10
1965.176574166144
 20
1602.261769248931
 30
0.0
 40
0.0079000049432978
100
AcDbArc
 50
217.4822072166014
 51
268.7997995754854
  0
ARC
  5
CAB
330
23
100
AcDbEntity
  8
SANINDUSA
100
AcDbCircle
 10
1965.148834181935
 20
1602.262350182975
 30
0.0
 40
0.0078998686021548
100
AcDbArc
 50
268.7996521233785
 51
320.1183010959616
  0
ARC
  5
CAD
330
23
100
AcDbEntity
  8
SANINDUSA
100
AcDbCircle
 10
1965.096591229762
 20
1602.263444653539
 30
0.0
 40
0.0079000049432949
100
AcDbArc
 50
217.4822072166014
 51
268.7997995754854
  0
ARC
  5
CAE
330
23
100
AcDbEntity
  8
SANINDUSA
100
AcDbCircle
 10
1965.068851227411
 20
1602.264025640788
 30
0.0
 40
0.0078999214159259
100
AcDbArc
 50
268.7997917571217
 51
320.1180478839161
  0
ARC
  5
CAF
330
23
100
AcDbEntity
  8
SANINDUSA
100
AcDbCircle
 10
1965.416523052667
 20
1602.256743215473
 30
0.0
 40
0.0040001972186399
100
AcDbArc
 50
217.4834408505103
 51
268.7983087395862
  0
ARC
  5
CB0
330
23
100
AcDbEntity
  8
SANINDUSA
100
AcDbCircle
 10
1965.38878289753
 20
1602.257324389067
 30
0.0
 40
0.0040002818952162
100
AcDbArc
 50
268.8005326271337
 51
320.1158306584189
  0
ARC
  5
CB1
330
23
100
AcDbEntity
  8
SANINDUSA
100
AcDbCircle
 10
1965.336539878108
 20
1602.258418058571
 30
0.0
 40
0.0039996146986436
100
AcDbArc
 50
217.4795690237838
 51
268.8024004441761
  0
ARC
  5
CB2
330
23
100
AcDbEntity
  8
SANINDUSA
100
AcDbCircle
 10
1965.308799992372
 20
1602.258999600947
 30
0.0
 40
0.0040000886153905
100
AcDbArc
 50
268.8008812686522
 51
320.1171147131761
  0
ARC
  5
CB3
330
23
100
AcDbEntity
  8
SANINDUSA
100
AcDbCircle
 10
1965.256557135251
 20
1602.260093958754
 30
0.0
 40
0.0040001216624553
100
AcDbArc
 50
217.4830805920046
 51
268.7997796650212
  0
ARC
  5
CB4
330
23
100
AcDbEntity
  8
SANINDUSA
100
AcDbCircle
 10
1965.228817093966
 20
1602.260674901291
 30
0.0
 40
0.0039999926181313
100
AcDbArc
 50
268.800308399967
 51
320.1179119362179
  0
ARC
  5
CB5
330
23
100
AcDbEntity
  8
SANINDUSA
100
AcDbCircle
 10
1965.176574180875
 20
1602.26176933528
 30
0.0
 40
0.004000085761016
100
AcDbArc
 50
217.4828335624352
 51
268.8000266954985
  0
ARC
  5
CB6
330
23
100
AcDbEntity
  8
SANINDUSA
100
AcDbCircle
 10
1965.148834177029
 20
1602.26235028044
 30
0.0
 40
0.0039999613707132
100
AcDbArc
 50
268.7991664405766
 51
320.1180131726679
  0
ARC
  5
CB7
330
23
100
AcDbEntity
  8
SANINDUSA
100
AcDbCircle
 10
1965.496505750872
 20
1602.255067249355
 30
0.0
 40
0.0039996146986338
100
AcDbArc
 50
217.4795690237838
 51
268.8024004441761
  0
ARC
  5
CB8
330
23
100
AcDbEntity
  8
SANINDUSA
100
AcDbCircle
 10
1965.468766038185
 20
1602.25564842619
 30
0.0
 40
0.003999711882696
100
AcDbArc
 50
268.7982888551713
 51
320.119707128767
  0
ARC
  5
CBA
330
23
100
AcDbEntity
  8
SANINDUSA
100
AcDbCircle
 10
1965.576488914267
 20
1602.253392348356
 30
0.0
 40
0.0079001138722121
100
AcDbArc
 50
217.482448318277
 51
268.7993358230668
  0
ARC
  5
CBB
330
23
100
AcDbEntity
  8
SANINDUSA
100
AcDbCircle
 10
1965.548748991401
 20
1602.253972909309
 30
0.0
 40
0.0078995909100097
100
AcDbArc
 50
268.7986845628955
 51
320.1192686627078
  0
ARC
  5
CBC
330
23
100
AcDbEntity
  8
SANINDUSA
100
AcDbCircle
 10
1965.096591258312
 20
1602.263444744948
 30
0.0
 40
0.0040000998061773
100
AcDbArc
 50
217.4827706122088
 51
268.7989789721709
  0
ARC
  5
CBD
330
23
100
AcDbEntity
  8
SANINDUSA
100
AcDbCircle
 10
1965.068851217287
 20
1602.264025715633
 30
0.0
 40
0.003999998908336
100
AcDbArc
 50
268.7995124112143
 51
320.1178915614891
  0
ARC
  5
CBE
330
23
100
AcDbEntity
  8
SANINDUSA
100
AcDbCircle
 10
1965.57648894209
 20
1602.253392461505
 30
0.0
 40
0.004000230456623
100
AcDbArc
 50
217.4836695284574
 51
268.7980800557911
  0
ARC
  5
CBF
330
23
100
AcDbEntity
  8
SANINDUSA
100
AcDbCircle
 10
1965.548748737972
 20
1602.253973666893
 30
0.0
 40
0.0040003434028884
100
AcDbArc
 50
268.8027219039046
 51
320.1154984261191
  0
ARC
  5
CC1
330
23
100
AcDbEntity
  8
SANINDUSA
100
AcDbCircle
 10
1965.656471631051
 20
1602.251716418101
 30
0.0
 40
0.0078995452498161
100
AcDbArc
 50
217.4803979070691
 51
268.801274891061
  0
ARC
  5
CC2
330
23
100
AcDbEntity
  8
SANINDUSA
100
AcDbCircle
 10
1965.628731693874
 20
1602.252298095111
 30
0.0
 40
0.0079001899412632
100
AcDbArc
 50
268.8009048406926
 51
320.117389168988
  0
ARC
  5
CC3
330
23
100
AcDbEntity
  8
SANINDUSA
100
AcDbCircle
 10
1965.656471866536
 20
1602.251716941295
 30
0.0
 40
0.0040000761358179
100
AcDbArc
 50
217.4824710552519
 51
268.7990586531018
  0
ARC
  5
CC4
330
23
100
AcDbEntity
  8
SANINDUSA
100
AcDbCircle
 10
1965.628731889332
 20
1602.252297617082
 30
0.0
 40
0.0039997189871436
100
AcDbArc
 50
268.7986007251771
 51
320.1200683026502
  0
ARC
  5
CC5
330
23
100
AcDbEntity
  8
SANINDUSA
100
AcDbCircle
 10
1965.474904878288
 20
1602.250518898845
 30
0.0
 40
0.004000126154876
100
AcDbArc
 50
88.80122722599221
 51
140.1169931019972
  0
ARC
  5
CC6
330
23
100
AcDbEntity
  8
SANINDUSA
100
AcDbCircle
 10
1965.49015753055
 20
1602.250199378364
 30
0.0
 40
0.0040001396290444
100
AcDbArc
 50
37.48304461557221
 51
88.7987049815956
  0
ARC
  5
CC7
330
23
100
AcDbEntity
  8
SANINDUSA
100
AcDbCircle
 10
1965.554887635992
 20
1602.248844032992
 30
0.0
 40
0.0039996074086678
100
AcDbArc
 50
88.79765749216614
 51
140.1205628438226
  0
ARC
  5
CC8
330
23
100
AcDbEntity
  8
SANINDUSA
100
AcDbCircle
 10
1965.570140557076
 20
1602.248524303387
 30
0.0
 40
0.0039998292805663
100
AcDbArc
 50
37.48077241064584
 51
88.8007572974128
  0
ARC
  5
CC9
330
23
100
AcDbEntity
  8
SANINDUSA
100
AcDbCircle
 10
1965.394921795843
 20
1602.252194740704
 30
0.0
 40
0.003999678411202
100
AcDbArc
 50
88.79814615898762
 51
140.120074175707
  0
ARC
  5
CCA
330
23
100
AcDbEntity
  8
SANINDUSA
100
AcDbCircle
 10
1965.410174688244
 20
1602.251875059943
 30
0.0
 40
0.0039998446014727
100
AcDbArc
 50
37.48115121858663
 51
88.80081825367234
  0
ARC
  5
CCB
330
23
100
AcDbEntity
  8
SANINDUSA
100
AcDbCircle
 10
1965.314939005523
 20
1602.253869693161
 30
0.0
 40
0.0040001261548777
100
AcDbArc
 50
88.80122722599221
 51
140.1169931019972
  0
ARC
  5
CCC
330
23
100
AcDbEntity
  8
SANINDUSA
100
AcDbCircle
 10
1965.330191657785
 20
1602.25355018758
 30
0.0
 40
0.0040001396290398
100
AcDbArc
 50
37.48304461557221
 51
88.7987049815956
  0
ARC
  5
CCD
330
23
100
AcDbEntity
  8
SANINDUSA
100
AcDbCircle
 10
1965.23495598444
 20
1602.255545263206
 30
0.0
 40
0.0039999550786855
100
AcDbArc
 50
88.79996242932945
 51
140.1180335573936
  0
ARC
  5
CCE
330
23
100
AcDbEntity
  8
SANINDUSA
100
AcDbCircle
 10
1965.250208741466
 20
1602.255225742049
 30
0.0
 40
0.0039999806827514
100
AcDbArc
 50
37.48195095005065
 51
88.79979863716171
  0
ARC
  5
CCF
330
23
100
AcDbEntity
  8
SANINDUSA
100
AcDbCircle
 10
1965.154973029918
 20
1602.257220728469
 30
0.0
 40
0.0039999022654094
100
AcDbArc
 50
88.79968666685
 51
140.1185336647338
  0
ARC
  5
CD0
330
23
100
AcDbEntity
  8
SANINDUSA
100
AcDbCircle
 10
1965.170225821831
 20
1602.256901168138
 30
0.0
 40
0.0039999588559339
100
AcDbArc
 50
37.48193743971926
 51
88.80003202478127
  0
ARC
  5
CD1
330
23
100
AcDbEntity
  8
SANINDUSA
100
AcDbCircle
 10
1965.074990102794
 20
1602.258896091948
 30
0.0
 40
0.0039999357427641
100
AcDbArc
 50
88.79982937605822
 51
140.1181666094407
  0
ARC
  5
CD2
330
23
100
AcDbEntity
  8
SANINDUSA
100
AcDbCircle
 10
1965.090242863056
 20
1602.258576528532
 30
0.0
 40
0.0040000035302115
100
AcDbArc
 50
37.48224484757748
 51
88.79972462442855
  0
ARC
  5
CD3
330
23
100
AcDbEntity
  8
SANINDUSA
100
AcDbCircle
 10
1965.634870857427
 20
1602.247167891446
 30
0.0
 40
0.0040003444176724
100
AcDbArc
 50
88.80281654373302
 51
140.1156281204711
  0
ARC
  5
CD4
330
23
100
AcDbEntity
  8
SANINDUSA
100
AcDbCircle
 10
1965.650123393734
 20
1602.246848628873
 30
0.0
 40
0.004000147158171
100
AcDbArc
 50
37.48295972583444
 51
88.79856997352886
  0
ARC
  5
CD5
330
23
100
AcDbEntity
  8
SANINDUSA
100
AcDbCircle
 10
1965.314938948819
 20
1602.25386982021
 30
0.0
 40
0.0001000000106708
100
AcDbArc
 50
88.80000694133059
 51
140.1178118924008
  0
ARC
  5
CD6
330
23
100
AcDbEntity
  8
SANINDUSA
100
AcDbCircle
 10
1965.330191695447
 20
1602.253550322527
 30
0.0
 40
0.000100000011802
100
AcDbArc
 50
37.4822024873132
 51
88.8000066547873
  0
ARC
  5
CD7
330
23
100
AcDbEntity
  8
SANINDUSA
100
AcDbCircle
 10
1965.394921888551
 20
1602.252194412938
 30
0.0
 40
0.0001000000135109
100
AcDbArc
 50
88.79997274952584
 51
140.1177792911641
  0
ARC
  5
CD8
330
23
100
AcDbEntity
  8
SANINDUSA
100
AcDbCircle
 10
1965.410174635905
 20
1602.251874906252
 30
0.0
 40
0.0001000000148532
100
AcDbArc
 50
37.48218700710569
 51
88.79998198812687
  0
ARC
  5
CD9
330
23
100
AcDbEntity
  8
SANINDUSA
100
AcDbCircle
 10
1965.234956006124
 20
1602.255545220797
 30
0.0
 40
0.0001000000082693
100
AcDbArc
 50
88.79999735106279
 51
140.1178038642786
  0
ARC
  5
CDA
330
23
100
AcDbEntity
  8
SANINDUSA
100
AcDbCircle
 10
1965.250208752903
 20
1602.255225720775
 30
0.0
 40
0.000100000009191
100
AcDbArc
 50
37.48219364113599
 51
88.79999901876937
  0
ARC
  5
CDB
330
23
100
AcDbEntity
  8
SANINDUSA
100
AcDbCircle
 10
1965.154973064439
 20
1602.257220628916
 30
0.0
 40
0.000100000006275
100
AcDbArc
 50
88.79999960515347
 51
140.1178081560593
  0
ARC
  5
CDC
330
23
100
AcDbEntity
  8
SANINDUSA
100
AcDbCircle
 10
1965.170225810902
 20
1602.256901129067
 30
0.0
 40
0.0001000000070194
100
AcDbArc
 50
37.48219024072142
 51
88.79999792414935
  0
ARC
  5
CDD
330
23
100
AcDbEntity
  8
SANINDUSA
100
AcDbCircle
 10
1965.474904832299
 20
1602.250519025799
 30
0.0
 40
0.0001000000163984
100
AcDbArc
 50
88.79998835993093
 51
140.1177992956001
  0
ARC
  5
CDE
330
23
100
AcDbEntity
  8
SANINDUSA
100
AcDbCircle
 10
1965.490157574383
 20
1602.250199516684
 30
0.0
 40
0.0001000000176436
100
AcDbArc
 50
37.48213427638845
 51
88.79994079905989
  0
ARC
  5
CDF
330
23
100
AcDbEntity
  8
SANINDUSA
100
AcDbCircle
 10
1965.074990122495
 20
1602.258896029173
 30
0.0
 40
0.0001000000046296
100
AcDbArc
 50
88.80000137733045
 51
140.1178103578222
  0
ARC
  5
CE0
330
23
100
AcDbEntity
  8
SANINDUSA
100
AcDbCircle
 10
1965.090242869311
 20
1602.258576530286
 30
0.0
 40
0.0001000000052197
100
AcDbArc
 50
37.48219492314097
 51
88.80000335790255
  0
ARC
  5
CE1
330
23
100
AcDbEntity
  8
SANINDUSA
100
AcDbCircle
 10
1965.634870732895
 20
1602.247168239586
 30
0.0
 40
0.0001000000102281
100
AcDbArc
 50
88.80022583921444
 51
140.1180356657616
  0
ARC
  5
CE2
330
23
100
AcDbEntity
  8
SANINDUSA
100
AcDbCircle
 10
1965.650123451022
 20
1602.246848773435
 30
0.0
 40
0.000100000007764
100
AcDbArc
 50
37.48199332065284
 51
88.79993655109958
  0
ARC
  5
CE3
330
23
100
AcDbEntity
  8
SANINDUSA
100
AcDbCircle
 10
1965.55488777906
 20
1602.248843640623
 30
0.0
 40
0.0001000000171235
100
AcDbArc
 50
88.80003413587314
 51
140.1178646565161
  0
ARC
  5
CE4
330
23
100
AcDbEntity
  8
SANINDUSA
100
AcDbCircle
 10
1965.570140513123
 20
1602.248524131297
 30
0.0
 40
0.0001000000168627
100
AcDbArc
 50
37.48208197300619
 51
88.79989929712738
  0
LINE
  5
CE5
330
23
100
AcDbEntity
  8
SANINDUSA
100
AcDbLine
 10
1965.314941043049
 20
1602.253969798279
 30
0.0
 11
1965.330193789677
 21
1602.253650300596
 31
0.0
  0
LINE
  5
CE6
330
23
100
AcDbEntity
  8
SANINDUSA
100
AcDbLine
 10
1965.394923982841
 20
1602.252294391005
 30
0.0
 11
1965.410176730179
 21
1602.251974884319
 31
0.0
  0
LINE
  5
CE7
330
23
100
AcDbEntity
  8
SANINDUSA
100
AcDbLine
 10
1965.234958100371
 20
1602.255645198865
 30
0.0
 11
1965.250210847147
 21
1602.255325698843
 31
0.0
  0
LINE
  5
CE8
330
23
100
AcDbEntity
  8
SANINDUSA
100
AcDbLine
 10
1965.395005688171
 20
1602.256193539207
 30
0.0
 11
1965.41025839756
 21
1602.255874028509
 31
0.0
  0
LINE
  5
CE9
330
23
100
AcDbEntity
  8
SANINDUSA
100
AcDbLine
 10
1965.315022692184
 20
1602.257868943815
 30
0.0
 11
1965.330275520782
 21
1602.257549448018
 31
0.0
  0
LINE
  5
CEA
330
23
100
AcDbEntity
  8
SANINDUSA
100
AcDbLine
 10
1965.154975158681
 20
1602.257320606984
 30
0.0
 11
1965.170227905147
 21
1602.257001107135
 31
0.0
  0
LINE
  5
CEB
330
23
100
AcDbEntity
  8
SANINDUSA
100
AcDbLine
 10
1965.235039755802
 20
1602.259544340973
 30
0.0
 11
1965.250292524795
 21
1602.259224845176
 31
0.0
  0
LINE
  5
CEC
330
23
100
AcDbEntity
  8
SANINDUSA
100
AcDbLine
 10
1965.474906926561
 20
1602.250619003867
 30
0.0
 11
1965.490159668729
 21
1602.25029949475
 31
0.0
  0
LINE
  5
CED
330
23
100
AcDbEntity
  8
SANINDUSA
100
AcDbLine
 10
1965.15505681942
 20
1602.261219753032
 30
0.0
 11
1965.170309588413
 21
1602.260900249784
 31
0.0
  0
LINE
  5
CEE
330
23
100
AcDbEntity
  8
SANINDUSA
100
AcDbLine
 10
1965.074992216735
 20
1602.258996007241
 30
0.0
 11
1965.090244963548
 21
1602.258676508355
 31
0.0
  0
LINE
  5
CEF
330
23
100
AcDbEntity
  8
SANINDUSA
100
AcDbLine
 10
1965.474988564949
 20
1602.2545181495
 30
0.0
 11
1965.490241393547
 21
1602.254198638802
 31
0.0
  0
LINE
  5
CF0
330
23
100
AcDbEntity
  8
SANINDUSA
100
AcDbLine
 10
1965.075073883037
 20
1602.26289515019
 30
0.0
 11
1965.090326652031
 21
1602.262575654392
 31
0.0
  0
LINE
  5
CF1
330
23
100
AcDbEntity
  8
SANINDUSA
100
AcDbLine
 10
1965.634872826743
 20
1602.247268217662
 30
0.0
 11
1965.650125545375
 21
1602.246948751501
 31
0.0
  0
LINE
  5
CF2
330
23
100
AcDbEntity
  8
SANINDUSA
100
AcDbLine
 10
1965.554889873243
 20
1602.248943618692
 30
0.0
 11
1965.570142607542
 21
1602.248624109362
 31
0.0
  0
LINE
  5
CF3
330
23
100
AcDbEntity
  8
SANINDUSA
100
AcDbLine
 10
1965.554971560936
 20
1602.252842759793
 30
0.0
 11
1965.570224270324
 21
1602.252523256545
 31
0.0
  0
LINE
  5
CF4
330
23
100
AcDbEntity
  8
SANINDUSA
100
AcDbLine
 10
1965.994861468773
 20
1602.314704245036
 30
0.0
 11
1965.998762115936
 21
1602.314704245036
 31
0.0
  0
LINE
  5
CF5
330
23
100
AcDbEntity
  8
SANINDUSA
100
AcDbLine
 10
1965.994861468773
 20
1602.314704245036
 30
0.0
 11
1965.994284506457
 21
1602.347758346602
 31
0.0
  0
ARC
  5
CF6
330
23
100
AcDbEntity
  8
SANINDUSA
100
AcDbCircle
 10
1965.991184978602
 20
1602.347704244142
 30
0.0
 40
0.0030999999999999
100
AcDbArc
 50
0.9999999969218754
 51
90.0
  0
LINE
  5
CF7
330
23
100
AcDbEntity
  8
SANINDUSA
100
AcDbLine
 10
1965.991184978602
 20
1602.350804244142
 30
0.0
 11
1965.934823680691
 21
1602.350804244142
 31
0.0
  0
ARC
  5
CF8
330
23
100
AcDbEntity
  8
SANINDUSA
100
AcDbCircle
 10
1965.934823680691
 20
1602.347704244142
 30
0.0
 40
0.0031000000000001
100
AcDbArc
 50
90.0
 51
177.9999999962464
  0
LINE
  5
CF9
330
23
100
AcDbEntity
  8
SANINDUSA
100
AcDbLine
 10
1965.931725569127
 20
1602.347812432581
 30
0.0
 11
1965.928800806503
 21
1602.264059802597
 31
0.0
  0
ARC
  5
CFA
330
23
100
AcDbEntity
  8
SANINDUSA
100
AcDbCircle
 10
1965.907913689144
 20
1602.264789052822
 30
0.0
 40
0.020899843958022
100
AcDbArc
 50
284.4774076308748
 51
358.000394489454
  0
LINE
  5
CFB
330
23
100
AcDbEntity
  8
SANINDUSA
100
AcDbLine
 10
1965.880934104423
 20
1602.232647752469
 30
0.0
 11
1965.869759664039
 21
1602.220664559012
 31
0.0
  0
LINE
  5
CFC
330
23
100
AcDbEntity
  8
SANINDUSA
100
AcDbLine
 10
1965.869759664039
 20
1602.220664559012
 30
0.0
 11
1965.76636813591
 21
1602.220664559012
 31
0.0
  0
LINE
  5
CFD
330
23
100
AcDbEntity
  8
SANINDUSA
100
AcDbLine
 10
1965.76636813591
 20
1602.220664559012
 30
0.0
 11
1965.755193576316
 21
1602.232647752469
 31
0.0
  0
ARC
  5
CFE
330
23
100
AcDbEntity
  8
SANINDUSA
100
AcDbCircle
 10
1964.973031564353
 20
1602.279039962376
 30
0.0
 40
0.0209042565941532
100
AcDbArc
 50
181.1630179157752
 51
268.7888635335773
  0
ARC
  5
CFF
330
23
100
AcDbEntity
  8
SANINDUSA
100
AcDbCircle
 10
1964.94903223365
 20
1602.278553349798
 30
0.0
 40
0.0031000000001356
100
AcDbArc
 50
1.151829408211579
 51
89.00000000307812
  0
LINE
  5
D00
330
23
100
AcDbEntity
  8
SANINDUSA
100
AcDbLine
 10
1964.41164321325
 20
1602.291033982258
 30
0.0
 11
1964.94908633611
 21
1602.281652877653
 31
0.0
  0
ARC
  5
D01
330
23
100
AcDbEntity
  8
SANINDUSA
100
AcDbCircle
 10
1964.41158911079
 20
1602.287934454403
 30
0.0
 40
0.0031000000000004
100
AcDbArc
 50
89.00000000307812
 51
154.6842608275599
  0
ARC
  5
D02
330
23
100
AcDbEntity
  8
SANINDUSA
100
AcDbCircle
 10
1964.396221703747
 20
1602.295203759786
 30
0.0
 40
0.0139000000000002
100
AcDbArc
 50
269.0000000030781
 51
334.6842608275599
  0
LINE
  5
D03
330
23
100
AcDbEntity
  8
SANINDUSA
100
AcDbLine
 10
1964.386537105622
 20
1602.281470687716
 30
0.0
 11
1964.395979115298
 21
1602.281305876824
 31
0.0
  0
ARC
  5
D04
330
23
100
AcDbEntity
  8
SANINDUSA
100
AcDbCircle
 10
1964.386901860916
 20
1602.302367504545
 30
0.0
 40
0.0209
100
AcDbArc
 50
182.0000000037536
 51
269.0000000030781
  0
LINE
  5
D05
330
23
100
AcDbEntity
  8
SANINDUSA
100
AcDbLine
 10
1964.366014592632
 20
1602.301638105063
 30
0.0
 11
1964.364402149584
 21
1602.347812432581
 31
0.0
  0
ARC
  5
D06
330
23
100
AcDbEntity
  8
SANINDUSA
100
AcDbCircle
 10
1964.36130403802
 20
1602.347704244142
 30
0.0
 40
0.0031000000000001
100
AcDbArc
 50
2.000000003753602
 51
90.0
  0
LINE
  5
D07
330
23
100
AcDbEntity
  8
SANINDUSA
100
AcDbLine
 10
1964.36130403802
 20
1602.350804244142
 30
0.0
 11
1964.304942740285
 21
1602.350804244142
 31
0.0
  0
ARC
  5
D08
330
23
100
AcDbEntity
  8
SANINDUSA
100
AcDbCircle
 10
1964.304942740285
 20
1602.347704244142
 30
0.0
 40
0.0031000000000001
100
AcDbArc
 50
90.0
 51
179.0000000030781
  0
LINE
  5
D09
330
23
100
AcDbEntity
  8
SANINDUSA
100
AcDbLine
 10
1964.30184321243
 20
1602.347758346602
 30
0.0
 11
1964.301266250999
 21
1602.314704245036
 31
0.0
  0
LINE
  5
D0A
330
23
100
AcDbEntity
  8
SANINDUSA
100
AcDbLine
 10
1964.297365656863
 20
1602.314704245036
 30
0.0
 11
1964.301266250999
 21
1602.314704245036
 31
0.0
  0
LINE
  5
D0B
330
23
100
AcDbEntity
  8
SANINDUSA
100
AcDbLine
 10
1964.297943806419
 20
1602.347826410987
 30
0.0
 11
1964.297365656863
 21
1602.314704245036
 31
0.0
  0
ARC
  5
D0C
330
23
100
AcDbEntity
  8
SANINDUSA
100
AcDbCircle
 10
1964.304942740285
 20
1602.347704244142
 30
0.0
 40
0.0069999999999999
100
AcDbArc
 50
90.0
 51
179.0000000030781
  0
LINE
  5
D0D
330
23
100
AcDbEntity
  8
SANINDUSA
100
AcDbLine
 10
1964.36130403802
 20
1602.354704244142
 30
0.0
 11
1964.304942740285
 21
1602.354704244142
 31
0.0
  0
ARC
  5
D0E
330
23
100
AcDbEntity
  8
SANINDUSA
100
AcDbCircle
 10
1964.36130403802
 20
1602.347704244142
 30
0.0
 40
0.007
100
AcDbArc
 50
2.000000003753602
 51
90.0
  0
LINE
  5
D0F
330
23
100
AcDbEntity
  8
SANINDUSA
100
AcDbLine
 10
1964.369912216857
 20
1602.3017742131
 30
0.0
 11
1964.368299773809
 21
1602.347948540619
 31
0.0
  0
ARC
  5
D10
330
23
100
AcDbEntity
  8
SANINDUSA
100
AcDbCircle
 10
1964.386901860916
 20
1602.302367504545
 30
0.0
 40
0.0170000000000001
100
AcDbArc
 50
182.0000000037536
 51
269.0000000030781
  0
LINE
  5
D11
330
23
100
AcDbEntity
  8
SANINDUSA
100
AcDbLine
 10
1964.386605170007
 20
1602.285370093727
 30
0.0
 11
1964.396047179683
 21
1602.285205282835
 31
0.0
  0
ARC
  5
D12
330
23
100
AcDbEntity
  8
SANINDUSA
100
AcDbCircle
 10
1964.396221703747
 20
1602.295203759786
 30
0.0
 40
0.0100000000000007
100
AcDbArc
 50
269.0000000030781
 51
334.6842608275599
  0
ARC
  5
D13
330
23
100
AcDbEntity
  8
SANINDUSA
100
AcDbCircle
 10
1964.41158911079
 20
1602.287934454403
 30
0.0
 40
0.0070000000000004
100
AcDbArc
 50
89.00000000307812
 51
154.6842608275599
  0
LINE
  5
D14
330
23
100
AcDbEntity
  8
SANINDUSA
100
AcDbLine
 10
1964.411711277636
 20
1602.294933388268
 30
0.0
 11
1964.949154400495
 21
1602.285552283664
 31
0.0
  0
ARC
  5
D15
330
23
100
AcDbEntity
  8
SANINDUSA
100
AcDbCircle
 10
1964.94903223365
 20
1602.278553349798
 30
0.0
 40
0.0070000000002988
100
AcDbArc
 50
1.151829408211579
 51
89.00000000307812
  0
ARC
  5
D16
330
23
100
AcDbEntity
  8
SANINDUSA
100
AcDbCircle
 10
1964.973030722844
 20
1602.279039121491
 30
0.0
 40
0.0170033936150261
100
AcDbArc
 50
181.1628167157569
 51
268.7890264145671
  0
LINE
  5
D17
330
23
100
AcDbEntity
  8
SANINDUSA
100
AcDbLine
 10
1964.972671374778
 20
1602.262039525514
 30
0.0
 11
1965.068767413597
 21
1602.260026594703
 31
0.0
  0
LINE
  5
D18
330
23
100
AcDbEntity
  8
SANINDUSA
100
AcDbLine
 10
1965.096507415275
 20
1602.259445523923
 30
0.0
 11
1965.148750349979
 21
1602.258351197546
 31
0.0
  0
LINE
  5
D19
330
23
100
AcDbEntity
  8
SANINDUSA
100
AcDbLine
 10
1965.176490411262
 20
1602.257770126765
 30
0.0
 11
1965.228733345966
 21
1602.256675785487
 31
0.0
  0
LINE
  5
D1A
330
23
100
AcDbEntity
  8
SANINDUSA
100
AcDbLine
 10
1965.256473347645
 20
1602.256094714706
 30
0.0
 11
1965.308716282348
 21
1602.255000388329
 31
0.0
  0
LINE
  5
D1B
330
23
100
AcDbEntity
  8
SANINDUSA
100
AcDbLine
 10
1965.336456284027
 20
1602.254419317548
 30
0.0
 11
1965.388699159126
 21
1602.253324983721
 31
0.0
  0
LWPOLYLINE
  5
D1C
330
23
100
AcDbEntity
  8
SANINDUSA
100
AcDbPolyline
 90
        3
 70
   128
 43
0.0
 10
1965.416439160804
 20
1602.252743898039
 10
1965.44174669693
 20
1602.25221379668
 10
1965.468682155113
 20
1602.251649594014
  0
LINE
  5
D1D
330
23
100
AcDbEntity
  8
SANINDUSA
100
AcDbLine
 10
1965.496422156791
 20
1602.251068508332
 30
0.0
 11
1965.5486651511
 21
1602.249974196856
 31
0.0
  0
LINE
  5
D1E
330
23
100
AcDbEntity
  8
SANINDUSA
100
AcDbLine
 10
1965.576405033569
 20
1602.249393111174
 30
0.0
 11
1965.628648027878
 21
1602.248298777347
 31
0.0
  0
LINE
  5
D1F
330
23
100
AcDbEntity
  8
SANINDUSA
100
AcDbLine
 10
1965.656388029556
 20
1602.247717743819
 30
0.0
 11
1965.741848577651
 21
1602.245927614669
 31
0.0
  0
LINE
  5
D20
330
23
100
AcDbEntity
  8
SANINDUSA
100
AcDbLine
 10
1965.768063888054
 20
1602.224564565425
 30
0.0
 11
1965.757766314185
 21
1602.235607330376
 31
0.0
  0
LINE
  5
D21
330
23
100
AcDbEntity
  8
SANINDUSA
100
AcDbLine
 10
1965.868063911895
 20
1602.224564565425
 30
0.0
 11
1965.768063888054
 21
1602.224564565425
 31
0.0
  0
LINE
  5
D22
330
23
100
AcDbEntity
  8
SANINDUSA
100
AcDbLine
 10
1965.878361404702
 20
1602.235607330376
 30
0.0
 11
1965.868063911895
 21
1602.224564565425
 31
0.0
  0
LWPOLYLINE
  5
D23
330
23
100
AcDbEntity
  8
SANINDUSA
100
AcDbPolyline
 90
        3
 70
   128
 43
0.0
 10
1965.89427600811
 20
1602.245912348931
 10
1965.903228506546
 20
1602.246581627136
 10
1965.912163600426
 20
1602.248329019253
  0
ARC
  5
D24
330
23
100
AcDbEntity
  8
SANINDUSA
100
AcDbCircle
 10
1965.907913670475
 20
1602.264789157436
 30
0.0
 40
0.016999942752244
100
AcDbArc
 50
284.4773181724137
 51
358.0001410143113
  0
LINE
  5
D25
330
23
100
AcDbEntity
  8
SANINDUSA
100
AcDbLine
 10
1965.927827944902
 20
1602.347948540619
 30
0.0
 11
1965.924903258781
 21
1602.264195909803
 31
0.0
  0
ARC
  5
D26
330
23
100
AcDbEntity
  8
SANINDUSA
100
AcDbCircle
 10
1965.934823680691
 20
1602.347704244142
 30
0.0
 40
0.007
100
AcDbArc
 50
90.0
 51
177.9999999962464
  0
LINE
  5
D27
330
23
100
AcDbEntity
  8
SANINDUSA
100
AcDbLine
 10
1965.991184978602
 20
1602.354704244142
 30
0.0
 11
1965.934823680691
 21
1602.354704244142
 31
0.0
  0
ARC
  5
D28
330
23
100
AcDbEntity
  8
SANINDUSA
100
AcDbCircle
 10
1965.991184978602
 20
1602.347704244142
 30
0.0
 40
0.0069999999999999
100
AcDbArc
 50
0.9999999969218754
 51
90.0
  0
LINE
  5
D29
330
23
100
AcDbEntity
  8
SANINDUSA
100
AcDbLine
 10
1965.998762115936
 20
1602.314704245036
 30
0.0
 11
1965.998183912468
 21
1602.347826410987
 31
0.0
  0
LINE
  5
D2A
330
23
100
AcDbEntity
  8
SANINDUSA
100
AcDbLine
 10
1965.634954437713
 20
1602.251167362635
 30
0.0
 11
1965.650207266311
 21
1602.250847896641
 31
0.0
  0
LWPOLYLINE
  5
DB8
330
23
100
AcDbEntity
  8
SANINDUSA
100
AcDbPolyline
 90
       12
 70
   128
 43
0.0
 10
1964.395979113977
 20
1602.281305877571
 10
1964.396182656388
 20
1602.281302323644
 10
1964.396789133649
 20
1602.281291736369
 10
1964.397786200146
 20
1602.281274331813
 10
1964.3991535605
 20
1602.281250467603
 10
1964.40086337934
 20
1602.281220620578
 10
1964.402880847554
 20
1602.281185409134
 10
1964.405164897542
 20
1602.281145541077
 10
1964.407669037681
 20
1602.281101828521
 10
1964.410342276196
 20
1602.281055165534
 10
1964.41313020895
 20
1602.281006505792
 10
1964.415976069967
 20
1602.280956825321
  0
ARC
  5
DBD
330
23
100
AcDbEntity
  8
SANINDUSA
100
AcDbCircle
 10
1964.972195920407
 20
1602.310433915176
 30
0.0
 40
0.0497826604777848
100
AcDbArc
 50
238.2793821209875
 51
257.1794790496864
  0
LINE
  5
DC2
330
23
100
AcDbEntity
  8
SANINDUSA
100
AcDbLine
 10
1964.944122274391
 20
1602.269145071072
 30
0.0
 11
1964.946021276263
 21
1602.268087691094
 31
0.0
  0
LINE
  5
DC3
330
23
100
AcDbEntity
  8
SANINDUSA
100
AcDbLine
 10
1964.941329142506
 20
1602.27035386811
 30
0.0
 11
1964.944122274391
 21
1602.269145071072
 31
0.0
  0
LWPOLYLINE
  5
DC4
330
23
100
AcDbEntity
  8
SANINDUSA
100
AcDbPolyline
 90
        3
 70
   128
 43
0.0
 10
1964.932827100257
 20
1602.271935163145
 10
1964.93708448122
 20
1602.271510107522
 10
1964.941329166393
 20
1602.270353866821
  0
LINE
  5
DC6
330
23
100
AcDbEntity
  8
SANINDUSA
100
AcDbLine
 10
1964.415976069201
 20
1602.280956828695
 30
0.0
 11
1964.932827115744
 21
1602.27193516012
 31
0.0
  0
LINE
  5
DCD
330
23
100
AcDbEntity
  8
SANINDUSA
100
AcDbLine
 10
1965.907840128361
 20
1602.354704244142
 30
0.0
 11
1965.934823680691
 21
1602.354704244142
 31
0.0
  0
LINE
  5
DCF
330
23
100
AcDbEntity
  8
SANINDUSA
100
AcDbLine
 10
1964.36130403802
 20
1602.354704244142
 30
0.0
 11
1964.38828759035
 21
1602.354704244142
 31
0.0
  0
LINE
  5
DD0
330
23
100
AcDbEntity
  8
SANINDUSA
100
AcDbLine
 10
1964.38828759035
 20
1602.354704244142
 30
0.0
 11
1965.907840128361
 21
1602.354704244142
 31
0.0
  0
LINE
  5
DD6
330
23
100
AcDbEntity
  8
SANINDUSA
100
AcDbLine
 10
1964.302366083588
 20
1602.314704245036
 30
0.0
 11
1964.301266250999
 21
1602.314704245036
 31
0.0
  0
LINE
  5
DD8
330
23
100
AcDbEntity
  8
SANINDUSA
100
AcDbLine
 10
1965.994861468773
 20
1602.314704245036
 30
0.0
 11
1965.993761643867
 21
1602.314704245036
 31
0.0
  0
LINE
  5
DD9
330
23
100
AcDbEntity
  8
SANINDUSA
100
AcDbLine
 10
1965.993761643867
 20
1602.314704245036
 30
0.0
 11
1965.930569395523
 21
1602.314704245036
 31
0.0
  0
LINE
  5
DDA
330
23
100
AcDbEntity
  8
SANINDUSA
100
AcDbLine
 10
1964.365558311443
 20
1602.314704245036
 30
0.0
 11
1964.302366083588
 21
1602.314704245036
 31
0.0
  0
ENDSEC
  0
SECTION
  2
OBJECTS
  0
DICTIONARY
  5
C
330
0
100
AcDbDictionary
281
     1
  3
ACAD_COLOR
350
1C
  3
ACAD_GROUP
350
D
  3
ACAD_LAYOUT
350
1A
  3
ACAD_MATERIAL
350
1B
  3
ACAD_MLINESTYLE
350
17
  3
ACAD_PLOTSETTINGS
350
19
  3
ACAD_PLOTSTYLENAME
350
E
  3
ACAD_TABLESTYLE
350
1D
  3
ACDBHEADERROUNDTRIPXREC
350
89F2
  3
AcDbVariableDictionary
350
89DD
  0
DICTIONARY
  5
1C
102
{ACAD_REACTORS
330
C
102
}
330
C
100
AcDbDictionary
281
     1
  0
DICTIONARY
  5
D
102
{ACAD_REACTORS
330
C
102
}
330
C
100
AcDbDictionary
281
     1
  0
DICTIONARY
  5
1A
102
{ACAD_REACTORS
330
C
102
}
330
C
100
AcDbDictionary
281
     1
  3
Layout1
350
22
  3
Layout2
350
2A
  3
Model
350
26
  0
DICTIONARY
  5
1B
102
{ACAD_REACTORS
330
C
102
}
330
C
100
AcDbDictionary
281
     1
  0
DICTIONARY
  5
17
102
{ACAD_REACTORS
330
C
102
}
330
C
100
AcDbDictionary
281
     1
  3
Standard
350
18
  0
DICTIONARY
  5
19
102
{ACAD_REACTORS
330
C
102
}
330
C
100
AcDbDictionary
281
     1
  0
ACDBDICTIONARYWDFLT
  5
E
102
{ACAD_REACTORS
330
C
102
}
330
C
100
AcDbDictionary
281
     1
  3
Normal
350
F
100
AcDbDictionaryWithDefault
340
F
  0
DICTIONARY
  5
1D
102
{ACAD_REACTORS
330
C
102
}
330
C
100
AcDbDictionary
281
     1
  3
Standard
350
1E
  0
DICTIONARY
  5
89F2
102
{ACAD_REACTORS
330
C
102
}
330
C
100
AcDbDictionary
281
     1
  0
DICTIONARY
  5
89DD
102
{ACAD_REACTORS
330
C
102
}
330
C
100
AcDbDictionary
281
     1
  3
CTABLESTYLE
350
89DE
  3
DIMASSOC
350
89EF
  3
HIDETEXT
350
89EE
  3
PROJECTNAME
350
89F0
  0
LAYOUT
  5
22
102
{ACAD_XDICTIONARY
360
89F3
102
}
102
{ACAD_REACTORS
330
1A
102
}
330
1A
100
AcDbPlotSettings
  1

  2
C:\Documents and Settings\Julio\Application Data\Autodesk\AutoCAD 2006\R16.2\enu\plotters\Default Windows System Printer.pc3
  4

  6

 40
0.0
 41
0.0
 42
0.0
 43
0.0
 44
0.0
 45
0.0
 46
0.0
 47
0.0
 48
0.0
 49
0.0
140
0.0
141
0.0
142
1.0
143
1.0
 70
   688
 72
     0
 73
     0
 74
     5
  7

 75
    16
147
1.0
148
0.0
149
0.0
100
AcDbLayout
  1
Layout1
 70
     1
 71
     1
 10
0.0
 20
0.0
 11
420.0
 21
297.0
 12
0.0
 22
0.0
 32
0.0
 14
1.000000000000000E+20
 24
1.000000000000000E+20
 34
1.000000000000000E+20
 15
-1.000000000000000E+20
 25
-1.000000000000000E+20
 35
-1.000000000000000E+20
146
0.0
 13
0.0
 23
0.0
 33
0.0
 16
1.0
 26
0.0
 36
0.0
 17
0.0
 27
1.0
 37
0.0
 76
     0
330
1F
  0
LAYOUT
  5
2A
102
{ACAD_XDICTIONARY
360
89F7
102
}
102
{ACAD_REACTORS
330
1A
102
}
330
1A
100
AcDbPlotSettings
  1

  2
C:\Documents and Settings\Julio\Application Data\Autodesk\AutoCAD 2006\R16.2\enu\plotters\Default Windows System Printer.pc3
  4

  6

 40
0.0
 41
0.0
 42
0.0
 43
0.0
 44
0.0
 45
0.0
 46
0.0
 47
0.0
 48
0.0
 49
0.0
140
0.0
141
0.0
142
1.0
143
1.0
 70
   688
 72
     0
 73
     0
 74
     5
  7

 75
    16
147
1.0
148
0.0
149
0.0
100
AcDbLayout
  1
Layout2
 70
     1
 71
     2
 10
0.0
 20
0.0
 11
12.0
 21
9.0
 12
0.0
 22
0.0
 32
0.0
 14
0.0
 24
0.0
 34
0.0
 15
0.0
 25
0.0
 35
0.0
146
0.0
 13
0.0
 23
0.0
 33
0.0
 16
1.0
 26
0.0
 36
0.0
 17
0.0
 27
1.0
 37
0.0
 76
     0
330
27
  0
LAYOUT
  5
26
102
{ACAD_XDICTIONARY
360
89F5
102
}
102
{ACAD_REACTORS
330
1A
102
}
330
1A
100
AcDbPlotSettings
  1

  2
C:\Documents and Settings\Julio\Application Data\Autodesk\AutoCAD 2006\R16.2\enu\plotters\Default Windows System Printer.pc3
  4

  6

 40
0.0
 41
0.0
 42
0.0
 43
0.0
 44
0.0
 45
0.0
 46
0.0
 47
0.0
 48
0.0
 49
0.0
140
0.0
141
0.0
142
1.0
143
1.0
 70
  1712
 72
     0
 73
     0
 74
     0
  7

 75
     0
147
1.0
148
0.0
149
0.0
100
AcDbLayout
  1
Model
 70
     1
 71
     0
 10
0.0
 20
0.0
 11
12.0
 21
9.0
 12
0.0
 22
0.0
 32
0.0
 14
0.0
 24
0.0
 34
0.0
 15
0.0
 25
0.0
 35
0.0
146
0.0
 13
0.0
 23
0.0
 33
0.0
 16
1.0
 26
0.0
 36
0.0
 17
0.0
 27
1.0
 37
0.0
 76
     0
330
23
  0
MLINESTYLE
  5
18
102
{ACAD_REACTORS
330
17
102
}
330
17
100
AcDbMlineStyle
  2
STANDARD
 70
     0
  3

 62
   256
 51
90.0
 52
90.0
 71
     2
 49
0.5
 62
   256
  6
BYLAYER
 49
-0.5
 62
   256
  6
BYLAYER
  0
ACDBPLACEHOLDER
  5
F
102
{ACAD_REACTORS
330
E
102
}
330
E
  0
TABLESTYLE
  5
1E
102
{ACAD_REACTORS
330
1D
102
}
330
1D
100
AcDbTableStyle
  3
Standard
 70
     0
 71
     0
 40
1.5
 41
1.5
280
     0
281
     0
  7
Standard
140
4.5
170
     2
 62
     0
 63
     7
283
     0
274
    -2
284
     1
 64
     0
275
    -2
285
     1
 65
     0
276
    -2
286
     1
 66
     0
277
    -2
287
     1
 67
     0
278
    -2
288
     1
 68
     0
279
    -2
289
     1
 69
     0
  7
Standard
140
6.0
170
     5
 62
     0
 63
     7
283
     0
274
    -2
284
     1
 64
     0
275
    -2
285
     1
 65
     0
276
    -2
286
     1
 66
     0
277
    -2
287
     1
 67
     0
278
    -2
288
     1
 68
     0
279
    -2
289
     1
 69
     0
  7
Standard
140
4.5
170
     5
 62
     0
 63
     7
283
     0
274
    -2
284
     1
 64
     0
275
    -2
285
     1
 65
     0
276
    -2
286
     1
 66
     0
277
    -2
287
     1
 67
     0
278
    -2
288
     1
 68
     0
279
    -2
289
     1
 69
     0
  0
DICTIONARYVAR
  5
89DE
102
{ACAD_REACTORS
330
89DD
102
}
330
89DD
100
DictionaryVariables
280
     0
  1
STANDARD
  0
DICTIONARYVAR
  5
89EF
102
{ACAD_REACTORS
330
89DD
102
}
330
89DD
100
DictionaryVariables
280
     0
  1
2
  0
DICTIONARYVAR
  5
89EE
102
{ACAD_REACTORS
330
89DD
102
}
330
89DD
100
DictionaryVariables
280
     0
  1
1
  0
DICTIONARYVAR
  5
89F0
102
{ACAD_REACTORS
330
89DD
102
}
330
89DD
100
DictionaryVariables
280
     0
  1

  0
DICTIONARY
  5
89F3
330
22
100
AcDbDictionary
280
     1
281
     1
  3
ACAD_XREC_ROUNDTRIP
360
89F4
  0
DICTIONARY
  5
89F7
330
2A
100
AcDbDictionary
280
     1
281
     1
  3
ACAD_XREC_ROUNDTRIP
360
89F8
  0
DICTIONARY
  5
89F5
330
26
100
AcDbDictionary
280
     1
281
     1
  3
ACAD_XREC_ROUNDTRIP
360
89F6
  0
XRECORD
  5
89F4
102
{ACAD_REACTORS
330
89F3
102
}
330
89F3
100
AcDbXrecord
280
     1
102
SHADEPLOT
 70
     0
102
SHADEPLOTRESLEVEL
 70
     2
102
SHADEPLOTCUSTOMDPI
 70
   300
  0
XRECORD
  5
89F8
102
{ACAD_REACTORS
330
89F7
102
}
330
89F7
100
AcDbXrecord
280
     1
102
SHADEPLOT
 70
     0
102
SHADEPLOTRESLEVEL
 70
     2
102
SHADEPLOTCUSTOMDPI
 70
   300
  0
XRECORD
  5
89F6
102
{ACAD_REACTORS
330
89F5
102
}
330
89F5
100
AcDbXrecord
280
     1
102
SHADEPLOT
 70
     0
102
SHADEPLOTRESLEVEL
 70
     2
102
SHADEPLOTCUSTOMDPI
 70
   300
  0
ENDSEC
  0
EOF
