  0
SECTION
  2
HEADER
  9
$ACADVER
  1
AC1015
  9
$ACADMAINTVER
 70
    20
  9
$DWGCODEPAGE
  3
ANSI_1252
  9
$INSBASE
 10
0.0
 20
0.0
 30
0.0
  9
$EXTMIN
 10
1880.962143080301
 20
1644.380580935805
 30
0.0
  9
$EXTMAX
 10
1887.184215156578
 20
1645.180821041853
 30
0.0
  9
$LIMMIN
 10
0.0
 20
0.0
  9
$LIMMAX
 10
420.0
 20
297.0
  9
$ORTHOMODE
 70
     0
  9
$REGENMODE
 70
     1
  9
$FILLMODE
 70
     1
  9
$QTEXTMODE
 70
     0
  9
$MIRRTEXT
 70
     0
  9
$LTSCALE
 40
1.0
  9
$ATTMODE
 70
     1
  9
$TEXTSIZE
 40
2.5
  9
$TRACEWID
 40
1.0
  9
$TEXTSTYLE
  7
Standard
  9
$CLAYER
  8
0
  9
$CELTYPE
  6
ByLayer
  9
$CECOLOR
 62
   256
  9
$CELTSCALE
 40
1.0
  9
$DISPSILH
 70
     0
  9
$DIMSCALE
 40
1.0
  9
$DIMASZ
 40
2.5
  9
$DIMEXO
 40
0.625
  9
$DIMDLI
 40
3.75
  9
$DIMRND
 40
0.0
  9
$DIMDLE
 40
0.0
  9
$DIMEXE
 40
1.25
  9
$DIMTP
 40
0.0
  9
$DIMTM
 40
0.0
  9
$DIMTXT
 40
2.5
  9
$DIMCEN
 40
2.5
  9
$DIMTSZ
 40
0.0
  9
$DIMTOL
 70
     0
  9
$DIMLIM
 70
     0
  9
$DIMTIH
 70
     0
  9
$DIMTOH
 70
     0
  9
$DIMSE1
 70
     0
  9
$DIMSE2
 70
     0
  9
$DIMTAD
 70
     1
  9
$DIMZIN
 70
     8
  9
$DIMBLK
  1

  9
$DIMASO
 70
     1
  9
$DIMSHO
 70
     1
  9
$DIMPOST
  1

  9
$DIMAPOST
  1

  9
$DIMALT
 70
     0
  9
$DIMALTD
 70
     3
  9
$DIMALTF
 40
0.03937007874016
  9
$DIMLFAC
 40
1.0
  9
$DIMTOFL
 70
     1
  9
$DIMTVP
 40
0.0
  9
$DIMTIX
 70
     0
  9
$DIMSOXD
 70
     0
  9
$DIMSAH
 70
     0
  9
$DIMBLK1
  1

  9
$DIMBLK2
  1

  9
$DIMSTYLE
  2
ISO-25
  9
$DIMCLRD
 70
     0
  9
$DIMCLRE
 70
     0
  9
$DIMCLRT
 70
     0
  9
$DIMTFAC
 40
1.0
  9
$DIMGAP
 40
0.625
  9
$DIMJUST
 70
     0
  9
$DIMSD1
 70
     0
  9
$DIMSD2
 70
     0
  9
$DIMTOLJ
 70
     0
  9
$DIMTZIN
 70
     8
  9
$DIMALTZ
 70
     0
  9
$DIMALTTZ
 70
     0
  9
$DIMUPT
 70
     0
  9
$DIMDEC
 70
     2
  9
$DIMTDEC
 70
     2
  9
$DIMALTU
 70
     2
  9
$DIMALTTD
 70
     3
  9
$DIMTXSTY
  7
Standard
  9
$DIMAUNIT
 70
     0
  9
$DIMADEC
 70
     0
  9
$DIMALTRND
 40
0.0
  9
$DIMAZIN
 70
     0
  9
$DIMDSEP
 70
    44
  9
$DIMATFIT
 70
     3
  9
$DIMFRAC
 70
     0
  9
$DIMLDRBLK
  1

  9
$DIMLUNIT
 70
     2
  9
$DIMLWD
 70
    -2
  9
$DIMLWE
 70
    -2
  9
$DIMTMOVE
 70
     0
  9
$LUNITS
 70
     2
  9
$LUPREC
 70
     4
  9
$SKETCHINC
 40
1.0
  9
$FILLETRAD
 40
0.0
  9
$AUNITS
 70
     0
  9
$AUPREC
 70
     0
  9
$MENU
  1
.
  9
$ELEVATION
 40
0.0
  9
$PELEVATION
 40
0.0
  9
$THICKNESS
 40
0.0
  9
$LIMCHECK
 70
     0
  9
$CHAMFERA
 40
0.0
  9
$CHAMFERB
 40
0.0
  9
$CHAMFERC
 40
0.0
  9
$CHAMFERD
 40
0.0
  9
$SKPOLY
 70
     0
  9
$TDCREATE
 40
2454930.703632443
  9
$TDUCREATE
 40
2454930.661965775
  9
$TDUPDATE
 40
2454930.709397778
  9
$TDUUPDATE
 40
2454930.667731111
  9
$TDINDWG
 40
0.0057657060
  9
$TDUSRTIMER
 40
0.0057657060
  9
$USRTIMER
 70
     1
  9
$ANGBASE
 50
0.0
  9
$ANGDIR
 70
     0
  9
$PDMODE
 70
     0
  9
$PDSIZE
 40
0.0
  9
$PLINEWID
 40
0.0
  9
$SPLFRAME
 70
     0
  9
$SPLINETYPE
 70
     6
  9
$SPLINESEGS
 70
     8
  9
$HANDSEED
  5
9076
  9
$SURFTAB1
 70
     6
  9
$SURFTAB2
 70
     6
  9
$SURFTYPE
 70
     6
  9
$SURFU
 70
     6
  9
$SURFV
 70
     6
  9
$UCSBASE
  2

  9
$UCSNAME
  2

  9
$UCSORG
 10
0.0
 20
0.0
 30
0.0
  9
$UCSXDIR
 10
1.0
 20
0.0
 30
0.0
  9
$UCSYDIR
 10
0.0
 20
1.0
 30
0.0
  9
$UCSORTHOREF
  2

  9
$UCSORTHOVIEW
 70
     0
  9
$UCSORGTOP
 10
0.0
 20
0.0
 30
0.0
  9
$UCSORGBOTTOM
 10
0.0
 20
0.0
 30
0.0
  9
$UCSORGLEFT
 10
0.0
 20
0.0
 30
0.0
  9
$UCSORGRIGHT
 10
0.0
 20
0.0
 30
0.0
  9
$UCSORGFRONT
 10
0.0
 20
0.0
 30
0.0
  9
$UCSORGBACK
 10
0.0
 20
0.0
 30
0.0
  9
$PUCSBASE
  2

  9
$PUCSNAME
  2

  9
$PUCSORG
 10
0.0
 20
0.0
 30
0.0
  9
$PUCSXDIR
 10
1.0
 20
0.0
 30
0.0
  9
$PUCSYDIR
 10
0.0
 20
1.0
 30
0.0
  9
$PUCSORTHOREF
  2

  9
$PUCSORTHOVIEW
 70
     0
  9
$PUCSORGTOP
 10
0.0
 20
0.0
 30
0.0
  9
$PUCSORGBOTTOM
 10
0.0
 20
0.0
 30
0.0
  9
$PUCSORGLEFT
 10
0.0
 20
0.0
 30
0.0
  9
$PUCSORGRIGHT
 10
0.0
 20
0.0
 30
0.0
  9
$PUCSORGFRONT
 10
0.0
 20
0.0
 30
0.0
  9
$PUCSORGBACK
 10
0.0
 20
0.0
 30
0.0
  9
$USERI1
 70
     0
  9
$USERI2
 70
     0
  9
$USERI3
 70
     0
  9
$USERI4
 70
     0
  9
$USERI5
 70
     0
  9
$USERR1
 40
0.0
  9
$USERR2
 40
0.0
  9
$USERR3
 40
0.0
  9
$USERR4
 40
0.0
  9
$USERR5
 40
0.0
  9
$WORLDVIEW
 70
     1
  9
$SHADEDGE
 70
     3
  9
$SHADEDIF
 70
    70
  9
$TILEMODE
 70
     1
  9
$MAXACTVP
 70
    64
  9
$PINSBASE
 10
0.0
 20
0.0
 30
0.0
  9
$PLIMCHECK
 70
     0
  9
$PEXTMIN
 10
1.000000000000000E+20
 20
1.000000000000000E+20
 30
1.000000000000000E+20
  9
$PEXTMAX
 10
-1.000000000000000E+20
 20
-1.000000000000000E+20
 30
-1.000000000000000E+20
  9
$PLIMMIN
 10
0.0
 20
0.0
  9
$PLIMMAX
 10
420.0
 20
297.0
  9
$UNITMODE
 70
     0
  9
$VISRETAIN
 70
     1
  9
$PLINEGEN
 70
     0
  9
$PSLTSCALE
 70
     1
  9
$TREEDEPTH
 70
  3020
  9
$CMLSTYLE
  2
Standard
  9
$CMLJUST
 70
     0
  9
$CMLSCALE
 40
20.0
  9
$PROXYGRAPHICS
 70
     1
  9
$MEASUREMENT
 70
     1
  9
$CELWEIGHT
370
    -1
  9
$ENDCAPS
280
     0
  9
$JOINSTYLE
280
     0
  9
$LWDISPLAY
290
     0
  9
$INSUNITS
 70
     4
  9
$HYPERLINKBASE
  1

  9
$STYLESHEET
  1

  9
$XEDIT
290
     1
  9
$CEPSNTYPE
380
     0
  9
$PSTYLEMODE
290
     1
  9
$FINGERPRINTGUID
  2
{00A18679-C6FD-4CDA-9AA4-C19E4E7C5D15}
  9
$VERSIONGUID
  2
{EEAF49A6-F244-4374-ACE1-3576101996A4}
  9
$EXTNAMES
290
     1
  9
$PSVPSCALE
 40
0.0
  9
$OLESTARTUP
290
     0
  0
ENDSEC
  0
SECTION
  2
CLASSES
  0
CLASS
  1
ACDBDICTIONARYWDFLT
  2
AcDbDictionaryWithDefault
  3
ObjectDBX Classes
 90
        0
280
     0
281
     0
  0
CLASS
  1
TABLESTYLE
  2
AcDbTableStyle
  3
ObjectDBX Classes
 90
     2047
280
     0
281
     0
  0
CLASS
  1
DIMASSOC
  2
AcDbDimAssoc
  3
"AcDbDimAssoc|Product Desc:     AcDim ARX App For Dimension|Company:          Autodesk, Inc.|WEB Address:      www.autodesk.com"
 90
        0
280
     0
281
     0
  0
CLASS
  1
SORTENTSTABLE
  2
AcDbSortentsTable
  3
ObjectDBX Classes
 90
        0
280
     0
281
     0
  0
CLASS
  1
DICTIONARYVAR
  2
AcDbDictionaryVar
  3
ObjectDBX Classes
 90
        0
280
     0
281
     0
  0
CLASS
  1
ACDBPLACEHOLDER
  2
AcDbPlaceHolder
  3
ObjectDBX Classes
 90
        0
280
     0
281
     0
  0
CLASS
  1
LAYOUT
  2
AcDbLayout
  3
ObjectDBX Classes
 90
        0
280
     0
281
     0
  0
ENDSEC
  0
SECTION
  2
TABLES
  0
TABLE
  2
VPORT
  5
8
330
0
100
AcDbSymbolTable
 70
    11
  0
VPORT
  5
906E
330
8
100
AcDbSymbolTableRecord
100
AcDbViewportTableRecord
  2
*Active
 70
     0
 10
0.0
 20
0.0
 11
1.0
 21
1.0
 12
1884.073179118439
 22
1644.780700988829
 13
0.0
 23
0.0
 14
10.0
 24
10.0
 15
10.0
 25
10.0
 16
0.0
 26
0.0
 36
1.0
 17
0.0
 27
0.0
 37
0.0
 40
3.898618858528653
 41
1.602030456852791
 42
50.0
 43
0.0
 44
0.0
 50
0.0
 51
0.0
 71
     0
 72
  1000
 73
     1
 74
     3
 75
     0
 76
     0
 77
     0
 78
     0
281
     0
 65
     1
110
0.0
120
0.0
130
0.0
111
1.0
121
0.0
131
0.0
112
0.0
122
1.0
132
0.0
 79
     0
146
0.0
  0
ENDTAB
  0
TABLE
  2
LTYPE
  5
5
330
0
100
AcDbSymbolTable
 70
     4
  0
LTYPE
  5
14
330
5
100
AcDbSymbolTableRecord
100
AcDbLinetypeTableRecord
  2
ByBlock
 70
     0
  3

 72
    65
 73
     0
 40
0.0
  0
LTYPE
  5
15
330
5
100
AcDbSymbolTableRecord
100
AcDbLinetypeTableRecord
  2
ByLayer
 70
     0
  3

 72
    65
 73
     0
 40
0.0
  0
LTYPE
  5
16
330
5
100
AcDbSymbolTableRecord
100
AcDbLinetypeTableRecord
  2
Continuous
 70
     0
  3
Solid line
 72
    65
 73
     0
 40
0.0
  0
LTYPE
  5
312
330
5
100
AcDbSymbolTableRecord
100
AcDbLinetypeTableRecord
  2
DASHDOT
 70
     0
  3
Dash dot __ . __ . __ . __ . __ . __ . __ . __
 72
    65
 73
     4
 40
25.4
 49
12.7
 74
     0
 49
-6.349999999999999
 74
     0
 49
0.0
 74
     0
 49
-6.349999999999999
 74
     0
  0
LTYPE
  5
313
330
5
100
AcDbSymbolTableRecord
100
AcDbLinetypeTableRecord
  2
HIDDEN
 70
     0
  3
Hidden __ __ __ __ __ __ __ __ __ __ __ __ __ _
 72
    65
 73
     2
 40
9.524999999999998
 49
6.349999999999999
 74
     0
 49
-3.174999999999999
 74
     0
  0
LTYPE
  5
314
330
5
100
AcDbSymbolTableRecord
100
AcDbLinetypeTableRecord
  2
HIDDEN2
 70
     0
  3
Hidden (.5x) _ _ _ _ _ _ _ _ _ _ _ _ _ _ _ _ _
 72
    65
 73
     2
 40
4.762499999999999
 49
3.174999999999999
 74
     0
 49
-1.587499999999999
 74
     0
  0
ENDTAB
  0
TABLE
  2
LAYER
  5
2
330
0
100
AcDbSymbolTable
 70
     9
  0
LAYER
  5
10
330
2
100
AcDbSymbolTableRecord
100
AcDbLayerTableRecord
  2
0
 70
     0
 62
     7
  6
Continuous
370
    -3
390
F
  0
LAYER
  5
315
330
2
100
AcDbSymbolTableRecord
100
AcDbLayerTableRecord
  2
4
 70
     0
 62
     4
  6
Continuous
370
    -3
390
F
  0
LAYER
  5
316
330
2
100
AcDbSymbolTableRecord
100
AcDbLayerTableRecord
  2
cen
 70
     0
 62
     7
  6
DASHDOT
370
    -3
390
F
  0
LAYER
  5
317
330
2
100
AcDbSymbolTableRecord
100
AcDbLayerTableRecord
  2
hid
 70
     0
 62
     9
  6
HIDDEN
370
    -3
390
F
  0
LAYER
  5
318
330
2
100
AcDbSymbolTableRecord
100
AcDbLayerTableRecord
  2
hatch
 70
     0
 62
     9
  6
Continuous
370
    -3
390
F
  0
LAYER
  5
319
330
2
100
AcDbSymbolTableRecord
100
AcDbLayerTableRecord
  2
9
 70
     0
 62
     9
  6
Continuous
370
    -3
390
F
  0
LAYER
  5
31A
330
2
100
AcDbSymbolTableRecord
100
AcDbLayerTableRecord
  2
cotas
 70
     0
 62
     1
  6
Continuous
370
    -3
390
F
  0
LAYER
  5
31B
330
2
100
AcDbSymbolTableRecord
100
AcDbLayerTableRecord
  2
Defpoints
 70
     0
 62
     7
  6
Continuous
290
     0
370
    -3
390
F
  0
LAYER
  5
31C
330
2
100
AcDbSymbolTableRecord
100
AcDbLayerTableRecord
  2
SANINDUSA
 70
     0
 62
     3
  6
Continuous
370
    -3
390
F
  0
ENDTAB
  0
TABLE
  2
STYLE
  5
3
330
0
100
AcDbSymbolTable
 70
     2
  0
STYLE
  5
11
330
3
100
AcDbSymbolTableRecord
100
AcDbTextStyleTableRecord
  2
Standard
 70
     0
 40
0.0
 41
1.0
 50
0.0
 71
     0
 42
2.5
  3
txt
  4

  0
STYLE
  5
31D
330
3
100
AcDbSymbolTableRecord
100
AcDbTextStyleTableRecord
  2
SANINDUSA
 70
     0
 40
0.0
 41
1.0
 50
0.0
 71
     0
 42
2.5
  3
verdana.TTF
  4

1001
ACAD
1000
Verdana
1071
       34
  0
ENDTAB
  0
TABLE
  2
VIEW
  5
6
330
0
100
AcDbSymbolTable
 70
     0
  0
ENDTAB
  0
TABLE
  2
UCS
  5
7
330
0
100
AcDbSymbolTable
 70
     0
  0
ENDTAB
  0
TABLE
  2
APPID
  5
9
330
0
100
AcDbSymbolTable
 70
     6
  0
APPID
  5
12
330
9
100
AcDbSymbolTableRecord
100
AcDbRegAppTableRecord
  2
ACAD
 70
     0
  0
APPID
  5
31F
330
9
100
AcDbSymbolTableRecord
100
AcDbRegAppTableRecord
  2
ACAD_DSTYLE_DIMEXT_LENGTH
 70
     0
  0
APPID
  5
320
330
9
100
AcDbSymbolTableRecord
100
AcDbRegAppTableRecord
  2
ACAD_DSTYLE_DIMEXT_ENABLED
 70
     0
  0
APPID
  5
321
330
9
100
AcDbSymbolTableRecord
100
AcDbRegAppTableRecord
  2
ACAD_DSTYLE_DIMJOGGED_JOGANGLE_SYMBOL
 70
     0
  0
APPID
  5
322
330
9
100
AcDbSymbolTableRecord
100
AcDbRegAppTableRecord
  2
ACAD_DSTYLE_DIMARC_LENGTH_SYMBOL
 70
     0
  0
APPID
  5
323
330
9
100
AcDbSymbolTableRecord
100
AcDbRegAppTableRecord
  2
ACAD_PSEXT
 70
     0
  0
ENDTAB
  0
TABLE
  2
DIMSTYLE
  5
A
330
0
100
AcDbSymbolTable
 70
     2
100
AcDbDimStyleTable
 71
     0
  0
DIMSTYLE
105
2B
330
A
100
AcDbSymbolTableRecord
100
AcDbDimStyleTableRecord
  2
ISO-25
 70
     0
 41
2.5
 42
0.625
 43
3.75
 44
1.25
 73
     0
 74
     0
 77
     1
 78
     8
140
2.5
141
2.5
143
0.03937007874016
147
0.625
171
     3
172
     1
271
     2
272
     2
274
     3
278
    44
283
     0
284
     8
340
11
  0
DIMSTYLE
105
31E
102
{ACAD_REACTORS
330
340
330
3B7
330
3B8
330
3B9
330
3BA
330
3BB
330
3BC
330
3BD
330
3BE
330
3BF
330
3C0
330
3C1
330
3C2
330
3C3
330
3C4
330
3C5
330
3C6
330
3C7
330
3C8
330
3C9
330
3CA
330
3CB
330
3CC
330
3CD
330
3CE
330
3CF
330
3D6
330
3D7
330
3D9
330
3DA
330
3DB
330
3DD
330
3E2
330
3E4
330
3E5
330
3E6
330
3E7
330
527
330
529
330
521
330
522
330
526
330
531
330
52C
330
52F
330
530
330
532
330
535
330
536
330
547
330
54A
330
54B
330
54C
330
54D
330
8DF
330
8E0
330
8E8
330
8E2
330
8E5
330
8E6
330
8DC
330
8DD
330
8DE
330
8EC
330
8EB
102
}
330
A
100
AcDbSymbolTableRecord
100
AcDbDimStyleTableRecord
  2
SANINDUSA
 70
     0
 40
5.0
 41
2.0
 42
1.0
 43
1.0
 44
1.0
 73
     0
 74
     0
 77
     1
 78
     8
140
2.0
141
0.0
143
0.03937007874016
147
1.0
171
     3
172
     1
176
   256
177
   256
178
   256
179
     1
271
     1
272
     1
274
     3
278
    44
283
     0
284
     8
340
31D
371
    -1
372
    -1
1001
ACAD_DSTYLE_DIMEXT_LENGTH
1070
   378
1040
1.0
1001
ACAD_DSTYLE_DIMEXT_ENABLED
1070
   383
1070
     0
1001
ACAD_DSTYLE_DIMARC_LENGTH_SYMBOL
1070
   379
1070
     0
1001
ACAD_DSTYLE_DIMJOGGED_JOGANGLE_SYMBOL
1070
   384
1040
1.570796326794896
  0
ENDTAB
  0
TABLE
  2
BLOCK_RECORD
  5
1
330
0
100
AcDbSymbolTable
 70
   132
  0
BLOCK_RECORD
  5
23
330
1
100
AcDbSymbolTableRecord
100
AcDbBlockTableRecord
  2
*Model_Space
340
26
  0
BLOCK_RECORD
  5
1F
330
1
100
AcDbSymbolTableRecord
100
AcDbBlockTableRecord
  2
*Paper_Space
340
22
  0
BLOCK_RECORD
  5
27
330
1
100
AcDbSymbolTableRecord
100
AcDbBlockTableRecord
  2
*Paper_Space0
340
2A
  0
BLOCK_RECORD
  5
2F
330
1
100
AcDbSymbolTableRecord
100
AcDbBlockTableRecord
  2
*D1
340
0
  0
BLOCK_RECORD
  5
3A
330
1
100
AcDbSymbolTableRecord
100
AcDbBlockTableRecord
  2
*D2
340
0
  0
BLOCK_RECORD
  5
46
330
1
100
AcDbSymbolTableRecord
100
AcDbBlockTableRecord
  2
*D3
340
0
  0
BLOCK_RECORD
  5
52
330
1
100
AcDbSymbolTableRecord
100
AcDbBlockTableRecord
  2
*D4
340
0
  0
BLOCK_RECORD
  5
5E
330
1
100
AcDbSymbolTableRecord
100
AcDbBlockTableRecord
  2
*D5
340
0
  0
BLOCK_RECORD
  5
6A
330
1
100
AcDbSymbolTableRecord
100
AcDbBlockTableRecord
  2
*D6
340
0
  0
BLOCK_RECORD
  5
76
330
1
100
AcDbSymbolTableRecord
100
AcDbBlockTableRecord
  2
*D7
340
0
  0
BLOCK_RECORD
  5
82
330
1
100
AcDbSymbolTableRecord
100
AcDbBlockTableRecord
  2
*D8
340
0
  0
BLOCK_RECORD
  5
8E
330
1
100
AcDbSymbolTableRecord
100
AcDbBlockTableRecord
  2
*D9
340
0
  0
BLOCK_RECORD
  5
9A
330
1
100
AcDbSymbolTableRecord
100
AcDbBlockTableRecord
  2
*D10
340
0
  0
BLOCK_RECORD
  5
A6
330
1
100
AcDbSymbolTableRecord
100
AcDbBlockTableRecord
  2
*D11
340
0
  0
BLOCK_RECORD
  5
AF
330
1
100
AcDbSymbolTableRecord
100
AcDbBlockTableRecord
  2
*D12
340
0
  0
BLOCK_RECORD
  5
B8
330
1
100
AcDbSymbolTableRecord
100
AcDbBlockTableRecord
  2
*D13
340
0
  0
BLOCK_RECORD
  5
C1
330
1
100
AcDbSymbolTableRecord
100
AcDbBlockTableRecord
  2
*D14
340
0
  0
BLOCK_RECORD
  5
CA
330
1
100
AcDbSymbolTableRecord
100
AcDbBlockTableRecord
  2
*D15
340
0
  0
BLOCK_RECORD
  5
D3
330
1
100
AcDbSymbolTableRecord
100
AcDbBlockTableRecord
  2
*D16
340
0
  0
BLOCK_RECORD
  5
DC
330
1
100
AcDbSymbolTableRecord
100
AcDbBlockTableRecord
  2
*D17
340
0
  0
BLOCK_RECORD
  5
E5
330
1
100
AcDbSymbolTableRecord
100
AcDbBlockTableRecord
  2
*D18
340
0
  0
BLOCK_RECORD
  5
EE
330
1
100
AcDbSymbolTableRecord
100
AcDbBlockTableRecord
  2
*D19
340
0
  0
BLOCK_RECORD
  5
FA
330
1
100
AcDbSymbolTableRecord
100
AcDbBlockTableRecord
  2
*D20
340
0
  0
BLOCK_RECORD
  5
106
330
1
100
AcDbSymbolTableRecord
100
AcDbBlockTableRecord
  2
*D21
340
0
  0
BLOCK_RECORD
  5
112
330
1
100
AcDbSymbolTableRecord
100
AcDbBlockTableRecord
  2
*D22
340
0
  0
BLOCK_RECORD
  5
11E
330
1
100
AcDbSymbolTableRecord
100
AcDbBlockTableRecord
  2
*D23
340
0
  0
BLOCK_RECORD
  5
12A
330
1
100
AcDbSymbolTableRecord
100
AcDbBlockTableRecord
  2
*D24
340
0
  0
BLOCK_RECORD
  5
136
330
1
100
AcDbSymbolTableRecord
100
AcDbBlockTableRecord
  2
*D25
340
0
  0
BLOCK_RECORD
  5
143
330
1
100
AcDbSymbolTableRecord
100
AcDbBlockTableRecord
  2
*D26
340
0
  0
BLOCK_RECORD
  5
150
330
1
100
AcDbSymbolTableRecord
100
AcDbBlockTableRecord
  2
*D27
340
0
  0
BLOCK_RECORD
  5
15C
330
1
100
AcDbSymbolTableRecord
100
AcDbBlockTableRecord
  2
*D28
340
0
  0
BLOCK_RECORD
  5
168
330
1
100
AcDbSymbolTableRecord
100
AcDbBlockTableRecord
  2
*D29
340
0
  0
BLOCK_RECORD
  5
179
330
1
100
AcDbSymbolTableRecord
100
AcDbBlockTableRecord
  2
*D30
340
0
  0
BLOCK_RECORD
  5
185
330
1
100
AcDbSymbolTableRecord
100
AcDbBlockTableRecord
  2
*D31
340
0
  0
BLOCK_RECORD
  5
191
330
1
100
AcDbSymbolTableRecord
100
AcDbBlockTableRecord
  2
*D32
340
0
  0
BLOCK_RECORD
  5
19D
330
1
100
AcDbSymbolTableRecord
100
AcDbBlockTableRecord
  2
*D33
340
0
  0
BLOCK_RECORD
  5
1A9
330
1
100
AcDbSymbolTableRecord
100
AcDbBlockTableRecord
  2
*D34
340
0
  0
BLOCK_RECORD
  5
1BB
330
1
100
AcDbSymbolTableRecord
100
AcDbBlockTableRecord
  2
*D35
340
0
  0
BLOCK_RECORD
  5
1C3
330
1
100
AcDbSymbolTableRecord
100
AcDbBlockTableRecord
  2
*D36
340
0
  0
BLOCK_RECORD
  5
1CB
330
1
100
AcDbSymbolTableRecord
100
AcDbBlockTableRecord
  2
*D37
340
0
  0
BLOCK_RECORD
  5
1D4
330
1
100
AcDbSymbolTableRecord
100
AcDbBlockTableRecord
  2
*D38
340
0
  0
BLOCK_RECORD
  5
1DC
330
1
100
AcDbSymbolTableRecord
100
AcDbBlockTableRecord
  2
*D39
340
0
  0
BLOCK_RECORD
  5
1E9
330
1
100
AcDbSymbolTableRecord
100
AcDbBlockTableRecord
  2
*D40
340
0
  0
BLOCK_RECORD
  5
1F5
330
1
100
AcDbSymbolTableRecord
100
AcDbBlockTableRecord
  2
*D41
340
0
  0
BLOCK_RECORD
  5
201
330
1
100
AcDbSymbolTableRecord
100
AcDbBlockTableRecord
  2
*D42
340
0
  0
BLOCK_RECORD
  5
213
330
1
100
AcDbSymbolTableRecord
100
AcDbBlockTableRecord
  2
*D43
340
0
  0
BLOCK_RECORD
  5
21B
330
1
100
AcDbSymbolTableRecord
100
AcDbBlockTableRecord
  2
*D44
340
0
  0
BLOCK_RECORD
  5
228
330
1
100
AcDbSymbolTableRecord
100
AcDbBlockTableRecord
  2
*D45
340
0
  0
BLOCK_RECORD
  5
234
330
1
100
AcDbSymbolTableRecord
100
AcDbBlockTableRecord
  2
*D46
340
0
  0
BLOCK_RECORD
  5
240
330
1
100
AcDbSymbolTableRecord
100
AcDbBlockTableRecord
  2
*D47
340
0
  0
BLOCK_RECORD
  5
24C
330
1
100
AcDbSymbolTableRecord
100
AcDbBlockTableRecord
  2
*D48
340
0
  0
BLOCK_RECORD
  5
258
330
1
100
AcDbSymbolTableRecord
100
AcDbBlockTableRecord
  2
*D49
340
0
  0
BLOCK_RECORD
  5
260
330
1
100
AcDbSymbolTableRecord
100
AcDbBlockTableRecord
  2
*D50
340
0
  0
BLOCK_RECORD
  5
26C
330
1
100
AcDbSymbolTableRecord
100
AcDbBlockTableRecord
  2
*D51
340
0
  0
BLOCK_RECORD
  5
278
330
1
100
AcDbSymbolTableRecord
100
AcDbBlockTableRecord
  2
*D52
340
0
  0
BLOCK_RECORD
  5
280
330
1
100
AcDbSymbolTableRecord
100
AcDbBlockTableRecord
  2
*D53
340
0
  0
BLOCK_RECORD
  5
288
330
1
100
AcDbSymbolTableRecord
100
AcDbBlockTableRecord
  2
*D54
340
0
  0
BLOCK_RECORD
  5
290
330
1
100
AcDbSymbolTableRecord
100
AcDbBlockTableRecord
  2
*D55
340
0
  0
BLOCK_RECORD
  5
299
330
1
100
AcDbSymbolTableRecord
100
AcDbBlockTableRecord
  2
*D56
340
0
  0
BLOCK_RECORD
  5
2A2
330
1
100
AcDbSymbolTableRecord
100
AcDbBlockTableRecord
  2
*D57
340
0
  0
BLOCK_RECORD
  5
2AA
330
1
100
AcDbSymbolTableRecord
100
AcDbBlockTableRecord
  2
*D58
340
0
  0
BLOCK_RECORD
  5
2B3
330
1
100
AcDbSymbolTableRecord
100
AcDbBlockTableRecord
  2
*D59
340
0
  0
BLOCK_RECORD
  5
2BF
330
1
100
AcDbSymbolTableRecord
100
AcDbBlockTableRecord
  2
*D60
340
0
  0
BLOCK_RECORD
  5
2CB
330
1
100
AcDbSymbolTableRecord
100
AcDbBlockTableRecord
  2
*D61
340
0
  0
BLOCK_RECORD
  5
2D7
330
1
100
AcDbSymbolTableRecord
100
AcDbBlockTableRecord
  2
*D62
340
0
  0
BLOCK_RECORD
  5
2E8
330
1
100
AcDbSymbolTableRecord
100
AcDbBlockTableRecord
  2
*D63
340
0
  0
BLOCK_RECORD
  5
2F5
330
1
100
AcDbSymbolTableRecord
100
AcDbBlockTableRecord
  2
*D64
340
0
  0
BLOCK_RECORD
  5
303
330
1
100
AcDbSymbolTableRecord
100
AcDbBlockTableRecord
  2
*D65
340
0
  0
BLOCK_RECORD
  5
EC1
330
1
100
AcDbSymbolTableRecord
100
AcDbBlockTableRecord
  2
*D67
340
0
  0
BLOCK_RECORD
  5
ECC
330
1
100
AcDbSymbolTableRecord
100
AcDbBlockTableRecord
  2
*D68
340
0
  0
BLOCK_RECORD
  5
ED8
330
1
100
AcDbSymbolTableRecord
100
AcDbBlockTableRecord
  2
*D69
340
0
  0
BLOCK_RECORD
  5
EE4
330
1
100
AcDbSymbolTableRecord
100
AcDbBlockTableRecord
  2
*D70
340
0
  0
BLOCK_RECORD
  5
EF0
330
1
100
AcDbSymbolTableRecord
100
AcDbBlockTableRecord
  2
*D71
340
0
  0
BLOCK_RECORD
  5
EFC
330
1
100
AcDbSymbolTableRecord
100
AcDbBlockTableRecord
  2
*D72
340
0
  0
BLOCK_RECORD
  5
F08
330
1
100
AcDbSymbolTableRecord
100
AcDbBlockTableRecord
  2
*D73
340
0
  0
BLOCK_RECORD
  5
F14
330
1
100
AcDbSymbolTableRecord
100
AcDbBlockTableRecord
  2
*D74
340
0
  0
BLOCK_RECORD
  5
F20
330
1
100
AcDbSymbolTableRecord
100
AcDbBlockTableRecord
  2
*D75
340
0
  0
BLOCK_RECORD
  5
F2C
330
1
100
AcDbSymbolTableRecord
100
AcDbBlockTableRecord
  2
*D76
340
0
  0
BLOCK_RECORD
  5
F38
330
1
100
AcDbSymbolTableRecord
100
AcDbBlockTableRecord
  2
*D77
340
0
  0
BLOCK_RECORD
  5
F41
330
1
100
AcDbSymbolTableRecord
100
AcDbBlockTableRecord
  2
*D78
340
0
  0
BLOCK_RECORD
  5
F4A
330
1
100
AcDbSymbolTableRecord
100
AcDbBlockTableRecord
  2
*D79
340
0
  0
BLOCK_RECORD
  5
F53
330
1
100
AcDbSymbolTableRecord
100
AcDbBlockTableRecord
  2
*D80
340
0
  0
BLOCK_RECORD
  5
F5C
330
1
100
AcDbSymbolTableRecord
100
AcDbBlockTableRecord
  2
*D81
340
0
  0
BLOCK_RECORD
  5
F65
330
1
100
AcDbSymbolTableRecord
100
AcDbBlockTableRecord
  2
*D82
340
0
  0
BLOCK_RECORD
  5
F6E
330
1
100
AcDbSymbolTableRecord
100
AcDbBlockTableRecord
  2
*D83
340
0
  0
BLOCK_RECORD
  5
F77
330
1
100
AcDbSymbolTableRecord
100
AcDbBlockTableRecord
  2
*D84
340
0
  0
BLOCK_RECORD
  5
F80
330
1
100
AcDbSymbolTableRecord
100
AcDbBlockTableRecord
  2
*D85
340
0
  0
BLOCK_RECORD
  5
F8C
330
1
100
AcDbSymbolTableRecord
100
AcDbBlockTableRecord
  2
*D86
340
0
  0
BLOCK_RECORD
  5
F98
330
1
100
AcDbSymbolTableRecord
100
AcDbBlockTableRecord
  2
*D87
340
0
  0
BLOCK_RECORD
  5
FA4
330
1
100
AcDbSymbolTableRecord
100
AcDbBlockTableRecord
  2
*D88
340
0
  0
BLOCK_RECORD
  5
FB0
330
1
100
AcDbSymbolTableRecord
100
AcDbBlockTableRecord
  2
*D89
340
0
  0
BLOCK_RECORD
  5
FBC
330
1
100
AcDbSymbolTableRecord
100
AcDbBlockTableRecord
  2
*D90
340
0
  0
BLOCK_RECORD
  5
FC8
330
1
100
AcDbSymbolTableRecord
100
AcDbBlockTableRecord
  2
*D91
340
0
  0
BLOCK_RECORD
  5
FD5
330
1
100
AcDbSymbolTableRecord
100
AcDbBlockTableRecord
  2
*D92
340
0
  0
BLOCK_RECORD
  5
FE2
330
1
100
AcDbSymbolTableRecord
100
AcDbBlockTableRecord
  2
*D93
340
0
  0
BLOCK_RECORD
  5
FEE
330
1
100
AcDbSymbolTableRecord
100
AcDbBlockTableRecord
  2
*D94
340
0
  0
BLOCK_RECORD
  5
FFA
330
1
100
AcDbSymbolTableRecord
100
AcDbBlockTableRecord
  2
*D95
340
0
  0
BLOCK_RECORD
  5
100B
330
1
100
AcDbSymbolTableRecord
100
AcDbBlockTableRecord
  2
*D96
340
0
  0
BLOCK_RECORD
  5
1017
330
1
100
AcDbSymbolTableRecord
100
AcDbBlockTableRecord
  2
*D97
340
0
  0
BLOCK_RECORD
  5
1023
330
1
100
AcDbSymbolTableRecord
100
AcDbBlockTableRecord
  2
*D98
340
0
  0
BLOCK_RECORD
  5
102F
330
1
100
AcDbSymbolTableRecord
100
AcDbBlockTableRecord
  2
*D99
340
0
  0
BLOCK_RECORD
  5
103B
330
1
100
AcDbSymbolTableRecord
100
AcDbBlockTableRecord
  2
*D100
340
0
  0
BLOCK_RECORD
  5
104D
330
1
100
AcDbSymbolTableRecord
100
AcDbBlockTableRecord
  2
*D101
340
0
  0
BLOCK_RECORD
  5
1055
330
1
100
AcDbSymbolTableRecord
100
AcDbBlockTableRecord
  2
*D102
340
0
  0
BLOCK_RECORD
  5
105D
330
1
100
AcDbSymbolTableRecord
100
AcDbBlockTableRecord
  2
*D103
340
0
  0
BLOCK_RECORD
  5
1066
330
1
100
AcDbSymbolTableRecord
100
AcDbBlockTableRecord
  2
*D104
340
0
  0
BLOCK_RECORD
  5
1072
330
1
100
AcDbSymbolTableRecord
100
AcDbBlockTableRecord
  2
*D105
340
0
  0
BLOCK_RECORD
  5
107E
330
1
100
AcDbSymbolTableRecord
100
AcDbBlockTableRecord
  2
*D106
340
0
  0
BLOCK_RECORD
  5
108A
330
1
100
AcDbSymbolTableRecord
100
AcDbBlockTableRecord
  2
*D107
340
0
  0
BLOCK_RECORD
  5
1093
330
1
100
AcDbSymbolTableRecord
100
AcDbBlockTableRecord
  2
*D108
340
0
  0
BLOCK_RECORD
  5
109C
330
1
100
AcDbSymbolTableRecord
100
AcDbBlockTableRecord
  2
*D109
340
0
  0
BLOCK_RECORD
  5
10A4
330
1
100
AcDbSymbolTableRecord
100
AcDbBlockTableRecord
  2
*D110
340
0
  0
BLOCK_RECORD
  5
10AD
330
1
100
AcDbSymbolTableRecord
100
AcDbBlockTableRecord
  2
*D111
340
0
  0
BLOCK_RECORD
  5
10BA
330
1
100
AcDbSymbolTableRecord
100
AcDbBlockTableRecord
  2
*D112
340
0
  0
BLOCK_RECORD
  5
10C7
330
1
100
AcDbSymbolTableRecord
100
AcDbBlockTableRecord
  2
*D113
340
0
  0
BLOCK_RECORD
  5
10D3
330
1
100
AcDbSymbolTableRecord
100
AcDbBlockTableRecord
  2
*D114
340
0
  0
BLOCK_RECORD
  5
10DF
330
1
100
AcDbSymbolTableRecord
100
AcDbBlockTableRecord
  2
*D115
340
0
  0
BLOCK_RECORD
  5
10E7
330
1
100
AcDbSymbolTableRecord
100
AcDbBlockTableRecord
  2
*D116
340
0
  0
BLOCK_RECORD
  5
10F4
330
1
100
AcDbSymbolTableRecord
100
AcDbBlockTableRecord
  2
*D117
340
0
  0
BLOCK_RECORD
  5
1100
330
1
100
AcDbSymbolTableRecord
100
AcDbBlockTableRecord
  2
*D118
340
0
  0
BLOCK_RECORD
  5
110C
330
1
100
AcDbSymbolTableRecord
100
AcDbBlockTableRecord
  2
*D119
340
0
  0
BLOCK_RECORD
  5
1114
330
1
100
AcDbSymbolTableRecord
100
AcDbBlockTableRecord
  2
*D120
340
0
  0
BLOCK_RECORD
  5
1120
330
1
100
AcDbSymbolTableRecord
100
AcDbBlockTableRecord
  2
*D121
340
0
  0
BLOCK_RECORD
  5
1128
330
1
100
AcDbSymbolTableRecord
100
AcDbBlockTableRecord
  2
*D122
340
0
  0
BLOCK_RECORD
  5
1134
330
1
100
AcDbSymbolTableRecord
100
AcDbBlockTableRecord
  2
*D123
340
0
  0
BLOCK_RECORD
  5
113C
330
1
100
AcDbSymbolTableRecord
100
AcDbBlockTableRecord
  2
*D124
340
0
  0
BLOCK_RECORD
  5
1144
330
1
100
AcDbSymbolTableRecord
100
AcDbBlockTableRecord
  2
*D125
340
0
  0
BLOCK_RECORD
  5
12A9
330
1
100
AcDbSymbolTableRecord
100
AcDbBlockTableRecord
  2
*D126
340
0
  0
BLOCK_RECORD
  5
12C2
330
1
100
AcDbSymbolTableRecord
100
AcDbBlockTableRecord
  2
*D127
340
0
  0
BLOCK_RECORD
  5
12DD
330
1
100
AcDbSymbolTableRecord
100
AcDbBlockTableRecord
  2
*D128
340
0
  0
BLOCK_RECORD
  5
130D
330
1
100
AcDbSymbolTableRecord
100
AcDbBlockTableRecord
  2
*D129
340
0
  0
BLOCK_RECORD
  5
1340
330
1
100
AcDbSymbolTableRecord
100
AcDbBlockTableRecord
  2
*D130
340
0
  0
BLOCK_RECORD
  5
135A
330
1
100
AcDbSymbolTableRecord
100
AcDbBlockTableRecord
  2
*D131
340
0
  0
ENDTAB
  0
ENDSEC
  0
SECTION
  2
BLOCKS
  0
BLOCK
  5
24
330
23
100
AcDbEntity
  8
0
100
AcDbBlockBegin
  2
*Model_Space
 70
     0
 10
0.0
 20
0.0
 30
0.0
  3
*Model_Space
  1

  0
ENDBLK
  5
25
330
23
100
AcDbEntity
  8
0
100
AcDbBlockEnd
  0
BLOCK
  5
20
330
1F
100
AcDbEntity
 67
     1
  8
0
100
AcDbBlockBegin
  2
*Paper_Space
 70
     0
 10
0.0
 20
0.0
 30
0.0
  3
*Paper_Space
  1

  0
ENDBLK
  5
21
330
1F
100
AcDbEntity
 67
     1
  8
0
100
AcDbBlockEnd
  0
BLOCK
  5
28
330
27
100
AcDbEntity
 67
     1
  8
0
100
AcDbBlockBegin
  2
*Paper_Space0
 70
     0
 10
0.0
 20
0.0
 30
0.0
  3
*Paper_Space0
  1

  0
ENDBLK
  5
29
330
27
100
AcDbEntity
 67
     1
  8
0
100
AcDbBlockEnd
  0
BLOCK
  5
30
330
2F
100
AcDbEntity
  8
0
100
AcDbBlockBegin
  2
*D1
 70
     1
 10
0.0
 20
0.0
 30
0.0
  3
*D1
  1

  0
LINE
  5
31
330
2F
100
AcDbEntity
  8
cotas
100
AcDbLine
 10
6151.532196570546
 20
2107.288623027554
 30
0.0
 11
6198.478900449871
 21
2077.913626873249
 31
0.0
  0
LINE
  5
32
330
2F
100
AcDbEntity
  8
cotas
100
AcDbLine
 10
6342.592642300142
 20
1987.740297058319
 30
0.0
 11
6351.069921232511
 21
1982.435983539793
 31
0.0
  0
MTEXT
  5
33
330
2F
100
AcDbEntity
  8
cotas
100
AcDbMText
 10
6176.54857515589
 20
2104.493458813246
 30
0.0
 40
10.0
 41
0.0
 71
     5
 72
     1
  1
\U+2205150
  7
SANINDUSA
 11
0.8477278932369056
 21
-0.5304313518525441
 31
0.0
 73
     1
 44
1.0
1001
ACAD
1000
MTEXTBEGIN
1070
    73
1070
     1
1070
    44
1040
1.0
1070
    74
1070
     0
1000
MTEXTEND
  0
LINE
  5
34
330
2F
100
AcDbEntity
  8
cotas
100
AcDbLine
 10
6334.115363367773
 20
1993.044610576844
 30
0.0
 11
6206.956179382242
 21
2072.609313354723
 31
0.0
  0
SOLID
  5
35
330
2F
100
AcDbEntity
  8
cotas
100
AcDbTrace
 10
6343.47669455323
 20
1989.153176880381
 30
0.0
 11
6341.708590047054
 21
1986.327417236257
 31
0.0
 12
6334.115363367773
 22
1993.044610576844
 32
0.0
 13
6334.115363367773
 23
1993.044610576844
 33
0.0
  0
SOLID
  5
36
330
2F
100
AcDbEntity
  8
cotas
100
AcDbTrace
 10
6199.362952702959
 20
2079.326506695311
 30
0.0
 11
6197.594848196785
 21
2076.500747051187
 31
0.0
 12
6206.956179382242
 22
2072.609313354723
 32
0.0
 13
6206.956179382242
 23
2072.609313354723
 33
0.0
  0
POINT
  5
37
330
2F
100
AcDbEntity
  8
Defpoints
 62
     0
100
AcDbPoint
 10
6206.956179382242
 20
2072.609313354723
 30
0.0
  0
POINT
  5
38
330
2F
100
AcDbEntity
  8
Defpoints
 62
     0
100
AcDbPoint
 10
6334.115363367773
 20
1993.044610576844
 30
0.0
  0
ENDBLK
  5
39
330
2F
100
AcDbEntity
  8
0
100
AcDbBlockEnd
  0
BLOCK
  5
3B
330
3A
100
AcDbEntity
  8
0
100
AcDbBlockBegin
  2
*D2
 70
     1
 10
0.0
 20
0.0
 30
0.0
  3
*D2
  1

  0
LINE
  5
3C
330
3A
100
AcDbEntity
  8
cotas
100
AcDbLine
 10
4957.790834347357
 20
2320.042571836216
 30
0.0
 11
4957.790834347357
 21
2473.664940983173
 31
0.0
  0
LINE
  5
3D
330
3A
100
AcDbEntity
  8
cotas
100
AcDbLine
 10
5408.727660986729
 20
2320.109421671407
 30
0.0
 11
5408.727660986729
 21
2473.664940983173
 31
0.0
  0
LINE
  5
3E
330
3A
100
AcDbEntity
  8
cotas
100
AcDbLine
 10
4967.790834347358
 20
2468.664940983173
 30
0.0
 11
5398.727660986729
 21
2468.664940983173
 31
0.0
  0
SOLID
  5
3F
330
3A
100
AcDbEntity
  8
cotas
100
AcDbTrace
 10
4967.790834347358
 20
2470.33160764984
 30
0.0
 11
4967.790834347358
 21
2466.998274316506
 31
0.0
 12
4957.790834347357
 22
2468.664940983173
 32
0.0
 13
4957.790834347357
 23
2468.664940983173
 33
0.0
  0
SOLID
  5
40
330
3A
100
AcDbEntity
  8
cotas
100
AcDbTrace
 10
5398.727660986729
 20
2470.33160764984
 30
0.0
 11
5398.727660986729
 21
2466.998274316506
 31
0.0
 12
5408.727660986729
 22
2468.664940983173
 32
0.0
 13
5408.727660986729
 23
2468.664940983173
 33
0.0
  0
MTEXT
  5
41
330
3A
100
AcDbEntity
  8
cotas
100
AcDbMText
 10
5183.259247667043
 20
2478.78582748418
 30
0.0
 40
10.0
 41
0.0
 71
     5
 72
     1
  1
451
  7
SANINDUSA
 73
     1
 44
1.0
1001
ACAD
1000
MTEXTBEGIN
1070
    73
1070
     1
1070
    44
1040
1.0
1070
    74
1070
     0
1000
MTEXTEND
  0
POINT
  5
42
330
3A
100
AcDbEntity
  8
Defpoints
 62
     0
100
AcDbPoint
 10
4957.790834347357
 20
2315.042571836217
 30
0.0
  0
POINT
  5
43
330
3A
100
AcDbEntity
  8
Defpoints
 62
     0
100
AcDbPoint
 10
5408.727660986729
 20
2315.109421671406
 30
0.0
  0
POINT
  5
44
330
3A
100
AcDbEntity
  8
Defpoints
 62
     0
100
AcDbPoint
 10
5408.727660986729
 20
2468.664940983173
 30
0.0
  0
ENDBLK
  5
45
330
3A
100
AcDbEntity
  8
0
100
AcDbBlockEnd
  0
BLOCK
  5
47
330
46
100
AcDbEntity
  8
0
100
AcDbBlockBegin
  2
*D3
 70
     1
 10
0.0
 20
0.0
 30
0.0
  3
*D3
  1

  0
LINE
  5
48
330
46
100
AcDbEntity
  8
cotas
100
AcDbLine
 10
5408.727660986729
 20
2320.109421671407
 30
0.0
 11
5408.727660986729
 21
2473.67418801697
 31
0.0
  0
LINE
  5
49
330
46
100
AcDbEntity
  8
cotas
100
AcDbLine
 10
5535.267988860159
 20
2300.915642035526
 30
0.0
 11
5535.267988860159
 21
2473.67418801697
 31
0.0
  0
LINE
  5
4A
330
46
100
AcDbEntity
  8
cotas
100
AcDbLine
 10
5418.727660986728
 20
2468.67418801697
 30
0.0
 11
5525.267988860159
 21
2468.67418801697
 31
0.0
  0
SOLID
  5
4B
330
46
100
AcDbEntity
  8
cotas
100
AcDbTrace
 10
5418.727660986728
 20
2470.340854683637
 30
0.0
 11
5418.727660986728
 21
2467.007521350304
 31
0.0
 12
5408.727660986729
 22
2468.67418801697
 32
0.0
 13
5408.727660986729
 23
2468.67418801697
 33
0.0
  0
SOLID
  5
4C
330
46
100
AcDbEntity
  8
cotas
100
AcDbTrace
 10
5525.267988860159
 20
2470.340854683637
 30
0.0
 11
5525.267988860159
 21
2467.007521350304
 31
0.0
 12
5535.267988860159
 22
2468.67418801697
 32
0.0
 13
5535.267988860159
 23
2468.67418801697
 33
0.0
  0
MTEXT
  5
4D
330
46
100
AcDbEntity
  8
cotas
100
AcDbMText
 10
5471.997824923444
 20
2480.020729319858
 30
0.0
 40
10.0
 41
0.0
 71
     5
 72
     1
  1
126,5
  7
SANINDUSA
 73
     1
 44
1.0
1001
ACAD
1000
MTEXTBEGIN
1070
    73
1070
     1
1070
    44
1040
1.0
1070
    74
1070
     0
1000
MTEXTEND
  0
POINT
  5
4E
330
46
100
AcDbEntity
  8
Defpoints
 62
     0
100
AcDbPoint
 10
5408.727660986729
 20
2315.109421671406
 30
0.0
  0
POINT
  5
4F
330
46
100
AcDbEntity
  8
Defpoints
 62
     0
100
AcDbPoint
 10
5535.267988860159
 20
2295.915642035526
 30
0.0
  0
POINT
  5
50
330
46
100
AcDbEntity
  8
Defpoints
 62
     0
100
AcDbPoint
 10
5535.267988860159
 20
2468.67418801697
 30
0.0
  0
ENDBLK
  5
51
330
46
100
AcDbEntity
  8
0
100
AcDbBlockEnd
  0
BLOCK
  5
53
330
52
100
AcDbEntity
  8
0
100
AcDbBlockBegin
  2
*D4
 70
     1
 10
0.0
 20
0.0
 30
0.0
  3
*D4
  1

  0
LINE
  5
54
330
52
100
AcDbEntity
  8
cotas
100
AcDbLine
 10
5535.267988860159
 20
2300.915642035526
 30
0.0
 11
5535.267988860159
 21
2473.67418801697
 31
0.0
  0
LINE
  5
55
330
52
100
AcDbEntity
  8
cotas
100
AcDbLine
 10
5615.280743053065
 20
2300.902632880421
 30
0.0
 11
5615.280743053065
 21
2473.67418801697
 31
0.0
  0
LINE
  5
56
330
52
100
AcDbEntity
  8
cotas
100
AcDbLine
 10
5545.267988860159
 20
2468.67418801697
 30
0.0
 11
5605.280743053064
 21
2468.67418801697
 31
0.0
  0
SOLID
  5
57
330
52
100
AcDbEntity
  8
cotas
100
AcDbTrace
 10
5545.267988860159
 20
2470.340854683637
 30
0.0
 11
5545.267988860159
 21
2467.007521350304
 31
0.0
 12
5535.267988860159
 22
2468.67418801697
 32
0.0
 13
5535.267988860159
 23
2468.67418801697
 33
0.0
  0
SOLID
  5
58
330
52
100
AcDbEntity
  8
cotas
100
AcDbTrace
 10
5605.280743053064
 20
2470.340854683637
 30
0.0
 11
5605.280743053064
 21
2467.007521350304
 31
0.0
 12
5615.280743053065
 22
2468.67418801697
 32
0.0
 13
5615.280743053065
 23
2468.67418801697
 33
0.0
  0
MTEXT
  5
59
330
52
100
AcDbEntity
  8
cotas
100
AcDbMText
 10
5575.274365956611
 20
2478.902529185539
 30
0.0
 40
10.0
 41
0.0
 71
     5
 72
     1
  1
80
  7
SANINDUSA
 73
     1
 44
1.0
1001
ACAD
1000
MTEXTBEGIN
1070
    73
1070
     1
1070
    44
1040
1.0
1070
    74
1070
     0
1000
MTEXTEND
  0
POINT
  5
5A
330
52
100
AcDbEntity
  8
Defpoints
 62
     0
100
AcDbPoint
 10
5535.267988860159
 20
2295.915642035526
 30
0.0
  0
POINT
  5
5B
330
52
100
AcDbEntity
  8
Defpoints
 62
     0
100
AcDbPoint
 10
5615.280743053065
 20
2295.902632880421
 30
0.0
  0
POINT
  5
5C
330
52
100
AcDbEntity
  8
Defpoints
 62
     0
100
AcDbPoint
 10
5615.280743053065
 20
2468.67418801697
 30
0.0
  0
ENDBLK
  5
5D
330
52
100
AcDbEntity
  8
0
100
AcDbBlockEnd
  0
BLOCK
  5
5F
330
5E
100
AcDbEntity
  8
0
100
AcDbBlockBegin
  2
*D5
 70
     1
 10
0.0
 20
0.0
 30
0.0
  3
*D5
  1

  0
LINE
  5
60
330
5E
100
AcDbEntity
  8
cotas
100
AcDbLine
 10
5615.280743053065
 20
2300.902632880421
 30
0.0
 11
5615.280743053065
 21
2473.67418801697
 31
0.0
  0
LINE
  5
61
330
5E
100
AcDbEntity
  8
cotas
100
AcDbLine
 10
5695.246763215809
 20
2300.91574942338
 30
0.0
 11
5695.246763215809
 21
2473.67418801697
 31
0.0
  0
LINE
  5
62
330
5E
100
AcDbEntity
  8
cotas
100
AcDbLine
 10
5625.280743053065
 20
2468.67418801697
 30
0.0
 11
5685.246763215809
 21
2468.67418801697
 31
0.0
  0
SOLID
  5
63
330
5E
100
AcDbEntity
  8
cotas
100
AcDbTrace
 10
5625.280743053065
 20
2470.340854683637
 30
0.0
 11
5625.280743053065
 21
2467.007521350304
 31
0.0
 12
5615.280743053065
 22
2468.67418801697
 32
0.0
 13
5615.280743053065
 23
2468.67418801697
 33
0.0
  0
SOLID
  5
64
330
5E
100
AcDbEntity
  8
cotas
100
AcDbTrace
 10
5685.246763215809
 20
2470.340854683637
 30
0.0
 11
5685.246763215809
 21
2467.007521350304
 31
0.0
 12
5695.246763215809
 22
2468.67418801697
 32
0.0
 13
5695.246763215809
 23
2468.67418801697
 33
0.0
  0
MTEXT
  5
65
330
5E
100
AcDbEntity
  8
cotas
100
AcDbMText
 10
5655.263753134438
 20
2478.902529185539
 30
0.0
 40
10.0
 41
0.0
 71
     5
 72
     1
  1
80
  7
SANINDUSA
 73
     1
 44
1.0
1001
ACAD
1000
MTEXTBEGIN
1070
    73
1070
     1
1070
    44
1040
1.0
1070
    74
1070
     0
1000
MTEXTEND
  0
POINT
  5
66
330
5E
100
AcDbEntity
  8
Defpoints
 62
     0
100
AcDbPoint
 10
5615.280743053065
 20
2295.902632880421
 30
0.0
  0
POINT
  5
67
330
5E
100
AcDbEntity
  8
Defpoints
 62
     0
100
AcDbPoint
 10
5695.246763215809
 20
2295.91574942338
 30
0.0
  0
POINT
  5
68
330
5E
100
AcDbEntity
  8
Defpoints
 62
     0
100
AcDbPoint
 10
5695.246763215809
 20
2468.67418801697
 30
0.0
  0
ENDBLK
  5
69
330
5E
100
AcDbEntity
  8
0
100
AcDbBlockEnd
  0
BLOCK
  5
6B
330
6A
100
AcDbEntity
  8
0
100
AcDbBlockBegin
  2
*D6
 70
     1
 10
0.0
 20
0.0
 30
0.0
  3
*D6
  1

  0
LINE
  5
6C
330
6A
100
AcDbEntity
  8
cotas
100
AcDbLine
 10
5695.246763215809
 20
2300.91574942338
 30
0.0
 11
5695.246763215809
 21
2473.67418801697
 31
0.0
  0
LINE
  5
6D
330
6A
100
AcDbEntity
  8
cotas
100
AcDbLine
 10
5775.259517408716
 20
2300.902740268276
 30
0.0
 11
5775.259517408716
 21
2473.67418801697
 31
0.0
  0
LINE
  5
6E
330
6A
100
AcDbEntity
  8
cotas
100
AcDbLine
 10
5705.24676321581
 20
2468.67418801697
 30
0.0
 11
5765.259517408715
 21
2468.67418801697
 31
0.0
  0
SOLID
  5
6F
330
6A
100
AcDbEntity
  8
cotas
100
AcDbTrace
 10
5705.24676321581
 20
2470.340854683637
 30
0.0
 11
5705.24676321581
 21
2467.007521350304
 31
0.0
 12
5695.246763215809
 22
2468.67418801697
 32
0.0
 13
5695.246763215809
 23
2468.67418801697
 33
0.0
  0
SOLID
  5
70
330
6A
100
AcDbEntity
  8
cotas
100
AcDbTrace
 10
5765.259517408715
 20
2470.340854683637
 30
0.0
 11
5765.259517408715
 21
2467.007521350304
 31
0.0
 12
5775.259517408716
 22
2468.67418801697
 32
0.0
 13
5775.259517408716
 23
2468.67418801697
 33
0.0
  0
MTEXT
  5
71
330
6A
100
AcDbEntity
  8
cotas
100
AcDbMText
 10
5735.253140312263
 20
2478.902529185539
 30
0.0
 40
10.0
 41
0.0
 71
     5
 72
     1
  1
80
  7
SANINDUSA
 73
     1
 44
1.0
1001
ACAD
1000
MTEXTBEGIN
1070
    73
1070
     1
1070
    44
1040
1.0
1070
    74
1070
     0
1000
MTEXTEND
  0
POINT
  5
72
330
6A
100
AcDbEntity
  8
Defpoints
 62
     0
100
AcDbPoint
 10
5695.246763215809
 20
2295.91574942338
 30
0.0
  0
POINT
  5
73
330
6A
100
AcDbEntity
  8
Defpoints
 62
     0
100
AcDbPoint
 10
5775.259517408716
 20
2295.902740268276
 30
0.0
  0
POINT
  5
74
330
6A
100
AcDbEntity
  8
Defpoints
 62
     0
100
AcDbPoint
 10
5775.259517408716
 20
2468.67418801697
 30
0.0
  0
ENDBLK
  5
75
330
6A
100
AcDbEntity
  8
0
100
AcDbBlockEnd
  0
BLOCK
  5
77
330
76
100
AcDbEntity
  8
0
100
AcDbBlockBegin
  2
*D7
 70
     1
 10
0.0
 20
0.0
 30
0.0
  3
*D7
  1

  0
LINE
  5
78
330
76
100
AcDbEntity
  8
cotas
100
AcDbLine
 10
5775.259517408716
 20
2300.902740268276
 30
0.0
 11
5775.259517408716
 21
2473.67418801697
 31
0.0
  0
LINE
  5
79
330
76
100
AcDbEntity
  8
cotas
100
AcDbLine
 10
5855.210178062822
 20
2300.915276586312
 30
0.0
 11
5855.210178062822
 21
2473.67418801697
 31
0.0
  0
LINE
  5
7A
330
76
100
AcDbEntity
  8
cotas
100
AcDbLine
 10
5785.259517408715
 20
2468.67418801697
 30
0.0
 11
5845.210178062822
 21
2468.67418801697
 31
0.0
  0
SOLID
  5
7B
330
76
100
AcDbEntity
  8
cotas
100
AcDbTrace
 10
5785.259517408715
 20
2470.340854683637
 30
0.0
 11
5785.259517408715
 21
2467.007521350304
 31
0.0
 12
5775.259517408716
 22
2468.67418801697
 32
0.0
 13
5775.259517408716
 23
2468.67418801697
 33
0.0
  0
SOLID
  5
7C
330
76
100
AcDbEntity
  8
cotas
100
AcDbTrace
 10
5845.210178062822
 20
2470.340854683637
 30
0.0
 11
5845.210178062822
 21
2467.007521350304
 31
0.0
 12
5855.210178062822
 22
2468.67418801697
 32
0.0
 13
5855.210178062822
 23
2468.67418801697
 33
0.0
  0
MTEXT
  5
7D
330
76
100
AcDbEntity
  8
cotas
100
AcDbMText
 10
5815.234847735768
 20
2478.902529185539
 30
0.0
 40
10.0
 41
0.0
 71
     5
 72
     1
  1
80
  7
SANINDUSA
 73
     1
 44
1.0
1001
ACAD
1000
MTEXTBEGIN
1070
    73
1070
     1
1070
    44
1040
1.0
1070
    74
1070
     0
1000
MTEXTEND
  0
POINT
  5
7E
330
76
100
AcDbEntity
  8
Defpoints
 62
     0
100
AcDbPoint
 10
5775.259517408716
 20
2295.902740268276
 30
0.0
  0
POINT
  5
7F
330
76
100
AcDbEntity
  8
Defpoints
 62
     0
100
AcDbPoint
 10
5855.210178062822
 20
2295.915276586312
 30
0.0
  0
POINT
  5
80
330
76
100
AcDbEntity
  8
Defpoints
 62
     0
100
AcDbPoint
 10
5855.210178062822
 20
2468.67418801697
 30
0.0
  0
ENDBLK
  5
81
330
76
100
AcDbEntity
  8
0
100
AcDbBlockEnd
  0
BLOCK
  5
83
330
82
100
AcDbEntity
  8
0
100
AcDbBlockBegin
  2
*D8
 70
     1
 10
0.0
 20
0.0
 30
0.0
  3
*D8
  1

  0
LINE
  5
84
330
82
100
AcDbEntity
  8
cotas
100
AcDbLine
 10
6015.168049994883
 20
2300.914844977761
 30
0.0
 11
6015.168049994883
 21
2473.67418801697
 31
0.0
  0
LINE
  5
85
330
82
100
AcDbEntity
  8
cotas
100
AcDbLine
 10
6095.18080418779
 20
2300.901835822656
 30
0.0
 11
6095.18080418779
 21
2473.67418801697
 31
0.0
  0
LINE
  5
86
330
82
100
AcDbEntity
  8
cotas
100
AcDbLine
 10
6025.168049994883
 20
2468.67418801697
 30
0.0
 11
6085.180804187789
 21
2468.67418801697
 31
0.0
  0
SOLID
  5
87
330
82
100
AcDbEntity
  8
cotas
100
AcDbTrace
 10
6025.168049994883
 20
2470.340854683637
 30
0.0
 11
6025.168049994883
 21
2467.007521350304
 31
0.0
 12
6015.168049994883
 22
2468.67418801697
 32
0.0
 13
6015.168049994883
 23
2468.67418801697
 33
0.0
  0
SOLID
  5
88
330
82
100
AcDbEntity
  8
cotas
100
AcDbTrace
 10
6085.180804187789
 20
2470.340854683637
 30
0.0
 11
6085.180804187789
 21
2467.007521350304
 31
0.0
 12
6095.18080418779
 22
2468.67418801697
 32
0.0
 13
6095.18080418779
 23
2468.67418801697
 33
0.0
  0
MTEXT
  5
89
330
82
100
AcDbEntity
  8
cotas
100
AcDbMText
 10
6055.174427091337
 20
2478.902529185539
 30
0.0
 40
10.0
 41
0.0
 71
     5
 72
     1
  1
80
  7
SANINDUSA
 73
     1
 44
1.0
1001
ACAD
1000
MTEXTBEGIN
1070
    73
1070
     1
1070
    44
1040
1.0
1070
    74
1070
     0
1000
MTEXTEND
  0
POINT
  5
8A
330
82
100
AcDbEntity
  8
Defpoints
 62
     0
100
AcDbPoint
 10
6015.168049994883
 20
2295.91484497776
 30
0.0
  0
POINT
  5
8B
330
82
100
AcDbEntity
  8
Defpoints
 62
     0
100
AcDbPoint
 10
6095.18080418779
 20
2295.901835822657
 30
0.0
  0
POINT
  5
8C
330
82
100
AcDbEntity
  8
Defpoints
 62
     0
100
AcDbPoint
 10
6095.18080418779
 20
2468.67418801697
 30
0.0
  0
ENDBLK
  5
8D
330
82
100
AcDbEntity
  8
0
100
AcDbBlockEnd
  0
BLOCK
  5
8F
330
8E
100
AcDbEntity
  8
0
100
AcDbBlockBegin
  2
*D9
 70
     1
 10
0.0
 20
0.0
 30
0.0
  3
*D9
  1

  0
LINE
  5
90
330
8E
100
AcDbEntity
  8
cotas
100
AcDbLine
 10
6015.168049994883
 20
2300.914844977761
 30
0.0
 11
6015.168049994883
 21
2473.67418801697
 31
0.0
  0
LINE
  5
91
330
8E
100
AcDbEntity
  8
cotas
100
AcDbLine
 10
5935.222932255728
 20
2300.902267431208
 30
0.0
 11
5935.222932255728
 21
2473.67418801697
 31
0.0
  0
LINE
  5
92
330
8E
100
AcDbEntity
  8
cotas
100
AcDbLine
 10
6005.168049994884
 20
2468.67418801697
 30
0.0
 11
5945.222932255727
 21
2468.67418801697
 31
0.0
  0
SOLID
  5
93
330
8E
100
AcDbEntity
  8
cotas
100
AcDbTrace
 10
6005.168049994884
 20
2470.340854683637
 30
0.0
 11
6005.168049994884
 21
2467.007521350304
 31
0.0
 12
6015.168049994883
 22
2468.67418801697
 32
0.0
 13
6015.168049994883
 23
2468.67418801697
 33
0.0
  0
SOLID
  5
94
330
8E
100
AcDbEntity
  8
cotas
100
AcDbTrace
 10
5945.222932255727
 20
2470.340854683637
 30
0.0
 11
5945.222932255727
 21
2467.007521350304
 31
0.0
 12
5935.222932255728
 22
2468.67418801697
 32
0.0
 13
5935.222932255728
 23
2468.67418801697
 33
0.0
  0
MTEXT
  5
95
330
8E
100
AcDbEntity
  8
cotas
100
AcDbMText
 10
5975.195491125305
 20
2478.902529185539
 30
0.0
 40
10.0
 41
0.0
 71
     5
 72
     1
  1
80
  7
SANINDUSA
 73
     1
 44
1.0
1001
ACAD
1000
MTEXTBEGIN
1070
    73
1070
     1
1070
    44
1040
1.0
1070
    74
1070
     0
1000
MTEXTEND
  0
POINT
  5
96
330
8E
100
AcDbEntity
  8
Defpoints
 62
     0
100
AcDbPoint
 10
6015.168049994883
 20
2295.91484497776
 30
0.0
  0
POINT
  5
97
330
8E
100
AcDbEntity
  8
Defpoints
 62
     0
100
AcDbPoint
 10
5935.222932255728
 20
2295.902267431207
 30
0.0
  0
POINT
  5
98
330
8E
100
AcDbEntity
  8
Defpoints
 62
     0
100
AcDbPoint
 10
5935.222932255728
 20
2468.67418801697
 30
0.0
  0
ENDBLK
  5
99
330
8E
100
AcDbEntity
  8
0
100
AcDbBlockEnd
  0
BLOCK
  5
9B
330
9A
100
AcDbEntity
  8
0
100
AcDbBlockBegin
  2
*D10
 70
     1
 10
0.0
 20
0.0
 30
0.0
  3
*D10
  1

  0
LINE
  5
9C
330
9A
100
AcDbEntity
  8
cotas
100
AcDbLine
 10
5935.222932255728
 20
2300.902267431208
 30
0.0
 11
5935.222932255728
 21
2473.67418801697
 31
0.0
  0
LINE
  5
9D
330
9A
100
AcDbEntity
  8
cotas
100
AcDbLine
 10
5855.210178062822
 20
2300.915276586312
 30
0.0
 11
5855.210178062822
 21
2473.67418801697
 31
0.0
  0
LINE
  5
9E
330
9A
100
AcDbEntity
  8
cotas
100
AcDbLine
 10
5925.222932255728
 20
2468.67418801697
 30
0.0
 11
5865.210178062822
 21
2468.67418801697
 31
0.0
  0
SOLID
  5
9F
330
9A
100
AcDbEntity
  8
cotas
100
AcDbTrace
 10
5925.222932255728
 20
2470.340854683637
 30
0.0
 11
5925.222932255728
 21
2467.007521350304
 31
0.0
 12
5935.222932255728
 22
2468.67418801697
 32
0.0
 13
5935.222932255728
 23
2468.67418801697
 33
0.0
  0
SOLID
  5
A0
330
9A
100
AcDbEntity
  8
cotas
100
AcDbTrace
 10
5865.210178062822
 20
2470.340854683637
 30
0.0
 11
5865.210178062822
 21
2467.007521350304
 31
0.0
 12
5855.210178062822
 22
2468.67418801697
 32
0.0
 13
5855.210178062822
 23
2468.67418801697
 33
0.0
  0
MTEXT
  5
A1
330
9A
100
AcDbEntity
  8
cotas
100
AcDbMText
 10
5895.216555159276
 20
2478.902529185539
 30
0.0
 40
10.0
 41
0.0
 71
     5
 72
     1
  1
80
  7
SANINDUSA
 73
     1
 44
1.0
1001
ACAD
1000
MTEXTBEGIN
1070
    73
1070
     1
1070
    44
1040
1.0
1070
    74
1070
     0
1000
MTEXTEND
  0
POINT
  5
A2
330
9A
100
AcDbEntity
  8
Defpoints
 62
     0
100
AcDbPoint
 10
5935.222932255728
 20
2295.902267431207
 30
0.0
  0
POINT
  5
A3
330
9A
100
AcDbEntity
  8
Defpoints
 62
     0
100
AcDbPoint
 10
5855.210178062822
 20
2295.915276586312
 30
0.0
  0
POINT
  5
A4
330
9A
100
AcDbEntity
  8
Defpoints
 62
     0
100
AcDbPoint
 10
5855.210178062822
 20
2468.67418801697
 30
0.0
  0
ENDBLK
  5
A5
330
9A
100
AcDbEntity
  8
0
100
AcDbBlockEnd
  0
BLOCK
  5
A7
330
A6
100
AcDbEntity
  8
0
100
AcDbBlockBegin
  2
*D11
 70
     1
 10
0.0
 20
0.0
 30
0.0
  3
*D11
  1

  0
LINE
  5
A8
330
A6
100
AcDbEntity
  8
cotas
100
AcDbLine
 10
4886.471165049261
 20
1675.897778747765
 30
0.0
 11
4920.200951210962
 21
1705.385234011669
 31
0.0
  0
MTEXT
  5
A9
330
A6
100
AcDbEntity
  8
cotas
100
AcDbMText
 10
4892.85295847511
 20
1695.036029617884
 30
0.0
 40
10.0
 41
0.0
 71
     5
 72
     1
  1
R20
  7
SANINDUSA
 11
0.7528654114042005
 21
0.6581744998943547
 31
0.0
 73
     1
 44
1.0
1001
ACAD
1000
MTEXTBEGIN
1070
    73
1070
     1
1070
    44
1040
1.0
1070
    74
1070
     0
1000
MTEXTEND
  0
LINE
  5
AA
330
A6
100
AcDbEntity
  8
cotas
100
AcDbLine
 10
4942.791665354482
 20
1725.134623156715
 30
0.0
 11
4927.729605325005
 21
1711.966979010612
 31
0.0
  0
SOLID
  5
AB
330
A6
100
AcDbEntity
  8
cotas
100
AcDbTrace
 10
4919.103993711138
 20
1706.640009697342
 30
0.0
 11
4921.297908710787
 21
1704.130458325995
 31
0.0
 12
4927.729605325005
 22
1711.966979010612
 32
0.0
 13
4927.729605325005
 23
1711.966979010612
 33
0.0
  0
POINT
  5
AC
330
A6
100
AcDbEntity
  8
Defpoints
 62
     0
100
AcDbPoint
 10
4927.729605325005
 20
1711.966979010612
 30
0.0
  0
POINT
  5
AD
330
A6
100
AcDbEntity
  8
Defpoints
 62
     0
100
AcDbPoint
 10
4942.791665354482
 20
1725.134623156715
 30
0.0
  0
ENDBLK
  5
AE
330
A6
100
AcDbEntity
  8
0
100
AcDbBlockEnd
  0
BLOCK
  5
B0
330
AF
100
AcDbEntity
  8
0
100
AcDbBlockBegin
  2
*D12
 70
     1
 10
0.0
 20
0.0
 30
0.0
  3
*D12
  1

  0
LINE
  5
B1
330
AF
100
AcDbEntity
  8
cotas
100
AcDbLine
 10
4872.387811250681
 20
2365.808164258131
 30
0.0
 11
4914.55197485232
 21
2350.662478396176
 31
0.0
  0
MTEXT
  5
B2
330
AF
100
AcDbEntity
  8
cotas
100
AcDbMText
 10
4892.215241981009
 20
2369.532801734696
 30
0.0
 40
10.0
 41
0.0
 71
     5
 72
     1
  1
R20
  7
SANINDUSA
 11
0.9411248628817441
 21
-0.3380591552758458
 31
0.0
 73
     1
 44
1.0
1001
ACAD
1000
MTEXTBEGIN
1070
    73
1070
     1
1070
    44
1040
1.0
1070
    74
1070
     0
1000
MTEXTEND
  0
LINE
  5
B3
330
AF
100
AcDbEntity
  8
cotas
100
AcDbLine
 10
4942.791889814133
 20
2340.518487759461
 30
0.0
 11
4923.963223481138
 21
2347.281886843417
 31
0.0
  0
SOLID
  5
B4
330
AF
100
AcDbEntity
  8
cotas
100
AcDbTrace
 10
4915.115406777781
 20
2352.231019834312
 30
0.0
 11
4913.988542926861
 21
2349.093936958039
 31
0.0
 12
4923.963223481138
 22
2347.281886843417
 32
0.0
 13
4923.963223481138
 23
2347.281886843417
 33
0.0
  0
POINT
  5
B5
330
AF
100
AcDbEntity
  8
Defpoints
 62
     0
100
AcDbPoint
 10
4923.963223481138
 20
2347.281886843417
 30
0.0
  0
POINT
  5
B6
330
AF
100
AcDbEntity
  8
Defpoints
 62
     0
100
AcDbPoint
 10
4942.791889814133
 20
2340.518487759461
 30
0.0
  0
ENDBLK
  5
B7
330
AF
100
AcDbEntity
  8
0
100
AcDbBlockEnd
  0
BLOCK
  5
B9
330
B8
100
AcDbEntity
  8
0
100
AcDbBlockBegin
  2
*D13
 70
     1
 10
0.0
 20
0.0
 30
0.0
  3
*D13
  1

  0
LINE
  5
BA
330
B8
100
AcDbEntity
  8
cotas
100
AcDbLine
 10
6396.033674795969
 20
1661.726959458421
 30
0.0
 11
6372.950044381784
 21
1700.124283575554
 31
0.0
  0
MTEXT
  5
BB
330
B8
100
AcDbEntity
  8
cotas
100
AcDbMText
 10
6395.816952603627
 20
1681.900034712064
 30
0.0
 40
10.0
 41
0.0
 71
     5
 72
     1
  1
R20
  7
SANINDUSA
 11
0.5152379806134216
 21
-0.8570471535063887
 31
0.0
 73
     1
 44
1.0
1001
ACAD
1000
MTEXTBEGIN
1070
    73
1070
     1
1070
    44
1040
1.0
1070
    74
1070
     0
1000
MTEXTEND
  0
LINE
  5
BC
330
B8
100
AcDbEntity
  8
cotas
100
AcDbLine
 10
6357.493271430276
 20
1725.835088599502
 30
0.0
 11
6367.79766457565
 21
1708.694755110618
 31
0.0
  0
SOLID
  5
BD
330
B8
100
AcDbEntity
  8
cotas
100
AcDbTrace
 10
6374.378456304295
 20
1700.983013543243
 30
0.0
 11
6371.521632459273
 21
1699.265553607865
 31
0.0
 12
6367.79766457565
 22
1708.694755110618
 32
0.0
 13
6367.79766457565
 23
1708.694755110618
 33
0.0
  0
POINT
  5
BE
330
B8
100
AcDbEntity
  8
Defpoints
 62
     0
100
AcDbPoint
 10
6367.79766457565
 20
1708.694755110618
 30
0.0
  0
POINT
  5
BF
330
B8
100
AcDbEntity
  8
Defpoints
 62
     0
100
AcDbPoint
 10
6357.493271430276
 20
1725.835088599502
 30
0.0
  0
ENDBLK
  5
C0
330
B8
100
AcDbEntity
  8
0
100
AcDbBlockEnd
  0
BLOCK
  5
C2
330
C1
100
AcDbEntity
  8
0
100
AcDbBlockBegin
  2
*D14
 70
     1
 10
0.0
 20
0.0
 30
0.0
  3
*D14
  1

  0
LINE
  5
C3
330
C1
100
AcDbEntity
  8
cotas
100
AcDbLine
 10
6418.039007921159
 20
2383.743806431343
 30
0.0
 11
6381.77546245845
 21
2357.434801073314
 31
0.0
  0
MTEXT
  5
C4
330
C1
100
AcDbEntity
  8
cotas
100
AcDbMText
 10
6397.95977925408
 20
2381.788171027455
 30
0.0
 40
10.0
 41
0.0
 71
     5
 72
     1
  1
R20
  7
SANINDUSA
 11
0.809420164802511
 21
0.5872299352136911
 31
0.0
 73
     1
 44
1.0
1001
ACAD
1000
MTEXTBEGIN
1070
    73
1070
     1
1070
    44
1040
1.0
1070
    74
1070
     0
1000
MTEXTEND
  0
LINE
  5
C5
330
C1
100
AcDbEntity
  8
cotas
100
AcDbLine
 10
6357.494392472965
 20
2339.819016621028
 30
0.0
 11
6373.681260810425
 21
2351.562501721177
 31
0.0
  0
SOLID
  5
C6
330
C1
100
AcDbEntity
  8
cotas
100
AcDbTrace
 10
6380.796745899761
 20
2358.783834681318
 30
0.0
 11
6382.75417901714
 21
2356.085767465309
 31
0.0
 12
6373.681260810425
 22
2351.562501721177
 32
0.0
 13
6373.681260810425
 23
2351.562501721177
 33
0.0
  0
POINT
  5
C7
330
C1
100
AcDbEntity
  8
Defpoints
 62
     0
100
AcDbPoint
 10
6373.681260810425
 20
2351.562501721177
 30
0.0
  0
POINT
  5
C8
330
C1
100
AcDbEntity
  8
Defpoints
 62
     0
100
AcDbPoint
 10
6357.494392472965
 20
2339.819016621028
 30
0.0
  0
ENDBLK
  5
C9
330
C1
100
AcDbEntity
  8
0
100
AcDbBlockEnd
  0
BLOCK
  5
CB
330
CA
100
AcDbEntity
  8
0
100
AcDbBlockBegin
  2
*D15
 70
     1
 10
0.0
 20
0.0
 30
0.0
  3
*D15
  1

  0
LINE
  5
CC
330
CA
100
AcDbEntity
  8
cotas
100
AcDbLine
 10
4805.685717344213
 20
1623.381537664586
 30
0.0
 11
4840.343852275208
 21
1633.08395010182
 31
0.0
  0
MTEXT
  5
CD
330
CA
100
AcDbEntity
  8
cotas
100
AcDbMText
 10
4815.476016202144
 20
1636.614852101931
 30
0.0
 40
10.0
 41
0.0
 71
     5
 72
     1
  1
R5
  7
SANINDUSA
 11
0.9629774755038694
 21
0.2695818645090846
 31
0.0
 73
     1
 44
1.0
1001
ACAD
1000
MTEXTBEGIN
1070
    73
1070
     1
1070
    44
1040
1.0
1070
    74
1070
     0
1000
MTEXTEND
  0
LINE
  5
CE
330
CA
100
AcDbEntity
  8
cotas
100
AcDbLine
 10
4854.787477465946
 20
1637.127387781556
 30
0.0
 11
4849.973627030248
 21
1635.779768746911
 31
0.0
  0
SOLID
  5
CF
330
CA
100
AcDbEntity
  8
cotas
100
AcDbTrace
 10
4839.894549167693
 20
1634.688912560993
 30
0.0
 11
4840.793155382724
 21
1631.478987642647
 31
0.0
 12
4849.973627030248
 22
1635.779768746911
 32
0.0
 13
4849.973627030248
 23
1635.779768746911
 33
0.0
  0
POINT
  5
D0
330
CA
100
AcDbEntity
  8
Defpoints
 62
     0
100
AcDbPoint
 10
4849.973627030248
 20
1635.779768746911
 30
0.0
  0
POINT
  5
D1
330
CA
100
AcDbEntity
  8
Defpoints
 62
     0
100
AcDbPoint
 10
4854.787477465946
 20
1637.127387781556
 30
0.0
  0
ENDBLK
  5
D2
330
CA
100
AcDbEntity
  8
0
100
AcDbBlockEnd
  0
BLOCK
  5
D4
330
D3
100
AcDbEntity
  8
0
100
AcDbBlockBegin
  2
*D16
 70
     1
 10
0.0
 20
0.0
 30
0.0
  3
*D16
  1

  0
LINE
  5
D5
330
D3
100
AcDbEntity
  8
cotas
100
AcDbLine
 10
6494.597321448132
 20
1621.11868038801
 30
0.0
 11
6460.426553458863
 21
1632.418314852048
 31
0.0
  0
MTEXT
  5
D6
330
D3
100
AcDbEntity
  8
cotas
100
AcDbMText
 10
6485.431406910328
 20
1634.79188679364
 30
0.0
 40
10.0
 41
0.0
 71
     5
 72
     1
  1
R5
  7
SANINDUSA
 11
0.949435968203408
 21
-0.3139607336621212
 31
0.0
 73
     1
 44
1.0
1001
ACAD
1000
MTEXTBEGIN
1070
    73
1070
     1
1070
    44
1040
1.0
1070
    74
1070
     0
1000
MTEXTEND
  0
LINE
  5
D7
330
D3
100
AcDbEntity
  8
cotas
100
AcDbLine
 10
6446.18603629603
 20
1637.12738778156
 30
0.0
 11
6450.932193776829
 21
1635.557922188669
 31
0.0
  0
SOLID
  5
D8
330
D3
100
AcDbEntity
  8
cotas
100
AcDbTrace
 10
6460.9498213483
 20
1634.000708132387
 30
0.0
 11
6459.903285569426
 21
1630.83592157171
 31
0.0
 12
6450.932193776829
 22
1635.557922188669
 32
0.0
 13
6450.932193776829
 23
1635.557922188669
 33
0.0
  0
POINT
  5
D9
330
D3
100
AcDbEntity
  8
Defpoints
 62
     0
100
AcDbPoint
 10
6450.932193776829
 20
1635.557922188669
 30
0.0
  0
POINT
  5
DA
330
D3
100
AcDbEntity
  8
Defpoints
 62
     0
100
AcDbPoint
 10
6446.18603629603
 20
1637.12738778156
 30
0.0
  0
ENDBLK
  5
DB
330
D3
100
AcDbEntity
  8
0
100
AcDbBlockEnd
  0
BLOCK
  5
DD
330
DC
100
AcDbEntity
  8
0
100
AcDbBlockBegin
  2
*D17
 70
     1
 10
0.0
 20
0.0
 30
0.0
  3
*D17
  1

  0
LINE
  5
DE
330
DC
100
AcDbEntity
  8
cotas
100
AcDbLine
 10
6493.15123196002
 20
2448.380458409563
 30
0.0
 11
6460.001176150456
 21
2434.366289728539
 31
0.0
  0
MTEXT
  5
DF
330
DC
100
AcDbEntity
  8
cotas
100
AcDbMText
 10
6477.247206064871
 20
2452.626930245298
 30
0.0
 40
10.0
 41
0.0
 71
     5
 72
     1
  1
R5
  7
SANINDUSA
 11
0.9210754450538885
 21
0.3893841605905164
 31
0.0
 73
     1
 44
1.0
1001
ACAD
1000
MTEXTBEGIN
1070
    73
1070
     1
1070
    44
1040
1.0
1070
    74
1070
     0
1000
MTEXTEND
  0
LINE
  5
E0
330
DC
100
AcDbEntity
  8
cotas
100
AcDbLine
 10
6446.18603629603
 20
2428.525946611648
 30
0.0
 11
6450.790421699918
 21
2430.472448122633
 31
0.0
  0
SOLID
  5
E1
330
DC
100
AcDbEntity
  8
cotas
100
AcDbTrace
 10
6459.352202549472
 20
2435.901415470295
 30
0.0
 11
6460.650149751441
 21
2432.831163986782
 31
0.0
 12
6450.790421699918
 22
2430.472448122633
 32
0.0
 13
6450.790421699918
 23
2430.472448122633
 33
0.0
  0
POINT
  5
E2
330
DC
100
AcDbEntity
  8
Defpoints
 62
     0
100
AcDbPoint
 10
6450.790421699918
 20
2430.472448122633
 30
0.0
  0
POINT
  5
E3
330
DC
100
AcDbEntity
  8
Defpoints
 62
     0
100
AcDbPoint
 10
6446.18603629603
 20
2428.525946611648
 30
0.0
  0
ENDBLK
  5
E4
330
DC
100
AcDbEntity
  8
0
100
AcDbBlockEnd
  0
BLOCK
  5
E6
330
E5
100
AcDbEntity
  8
0
100
AcDbBlockBegin
  2
*D18
 70
     1
 10
0.0
 20
0.0
 30
0.0
  3
*D18
  1

  0
LINE
  5
E7
330
E5
100
AcDbEntity
  8
cotas
100
AcDbLine
 10
4806.540360178392
 20
2445.022822556241
 30
0.0
 11
4840.595251425426
 21
2433.378617725083
 31
0.0
  0
MTEXT
  5
E8
330
E5
100
AcDbEntity
  8
cotas
100
AcDbMText
 10
4822.105749380012
 20
2450.379054601935
 30
0.0
 40
10.0
 41
0.0
 71
     5
 72
     1
  1
R5
  7
SANINDUSA
 11
0.9462163289202122
 21
-0.3235346332075699
 31
0.0
 73
     1
 44
1.0
1001
ACAD
1000
MTEXTBEGIN
1070
    73
1070
     1
1070
    44
1040
1.0
1070
    74
1070
     0
1000
MTEXTEND
  0
LINE
  5
E9
330
E5
100
AcDbEntity
  8
cotas
100
AcDbLine
 10
4854.787477465944
 20
2428.525946611641
 30
0.0
 11
4850.057414714628
 21
2430.143271393007
 31
0.0
  0
SOLID
  5
EA
330
E5
100
AcDbEntity
  8
cotas
100
AcDbTrace
 10
4841.134475814104
 20
2434.95564493995
 30
0.0
 11
4840.056027036746
 21
2431.801590510216
 31
0.0
 12
4850.057414714628
 22
2430.143271393007
 32
0.0
 13
4850.057414714628
 23
2430.143271393007
 33
0.0
  0
POINT
  5
EB
330
E5
100
AcDbEntity
  8
Defpoints
 62
     0
100
AcDbPoint
 10
4850.057414714628
 20
2430.143271393007
 30
0.0
  0
POINT
  5
EC
330
E5
100
AcDbEntity
  8
Defpoints
 62
     0
100
AcDbPoint
 10
4854.787477465944
 20
2428.525946611641
 30
0.0
  0
ENDBLK
  5
ED
330
E5
100
AcDbEntity
  8
0
100
AcDbBlockEnd
  0
BLOCK
  5
EF
330
EE
100
AcDbEntity
  8
0
100
AcDbBlockBegin
  2
*D19
 70
     1
 10
0.0
 20
0.0
 30
0.0
  3
*D19
  1

  0
LINE
  5
F0
330
EE
100
AcDbEntity
  8
cotas
100
AcDbLine
 10
5605.218764214551
 20
1632.119154575486
 30
0.0
 11
5469.584888469363
 21
1632.119154575486
 31
0.0
  0
LINE
  5
F1
330
EE
100
AcDbEntity
  8
cotas
100
AcDbLine
 10
5501.93404048345
 20
1792.817019526572
 30
0.0
 11
5469.584888469363
 21
1792.817019526572
 31
0.0
  0
LINE
  5
F2
330
EE
100
AcDbEntity
  8
cotas
100
AcDbLine
 10
5474.584888469362
 20
1642.119154575486
 30
0.0
 11
5474.584888469362
 21
1782.817019526572
 31
0.0
  0
SOLID
  5
F3
330
EE
100
AcDbEntity
  8
cotas
100
AcDbTrace
 10
5472.918221802696
 20
1642.119154575486
 30
0.0
 11
5476.25155513603
 21
1642.119154575486
 31
0.0
 12
5474.584888469362
 22
1632.119154575486
 32
0.0
 13
5474.584888469362
 23
1632.119154575486
 33
0.0
  0
SOLID
  5
F4
330
EE
100
AcDbEntity
  8
cotas
100
AcDbTrace
 10
5472.918221802696
 20
1782.817019526572
 30
0.0
 11
5476.25155513603
 21
1782.817019526572
 31
0.0
 12
5474.584888469362
 22
1792.817019526572
 32
0.0
 13
5474.584888469362
 23
1792.817019526572
 33
0.0
  0
MTEXT
  5
F5
330
EE
100
AcDbEntity
  8
cotas
100
AcDbMText
 10
5463.241705124836
 20
1745.240439665138
 30
0.0
 40
10.0
 41
0.0
 71
     5
 72
     1
  1
160,7
  7
SANINDUSA
 11
0.0000000000000001
 21
1.0
 31
0.0
 73
     1
 44
1.0
1001
ACAD
1000
MTEXTBEGIN
1070
    73
1070
     1
1070
    44
1040
1.0
1070
    74
1070
     0
1000
MTEXTEND
  0
POINT
  5
F6
330
EE
100
AcDbEntity
  8
Defpoints
 62
     0
100
AcDbPoint
 10
5610.218764214551
 20
1632.119154575486
 30
0.0
  0
POINT
  5
F7
330
EE
100
AcDbEntity
  8
Defpoints
 62
     0
100
AcDbPoint
 10
5506.93404048345
 20
1792.817019526572
 30
0.0
  0
POINT
  5
F8
330
EE
100
AcDbEntity
  8
Defpoints
 62
     0
100
AcDbPoint
 10
5474.584888469362
 20
1792.817019526572
 30
0.0
  0
ENDBLK
  5
F9
330
EE
100
AcDbEntity
  8
0
100
AcDbBlockEnd
  0
BLOCK
  5
FB
330
FA
100
AcDbEntity
  8
0
100
AcDbBlockBegin
  2
*D20
 70
     1
 10
0.0
 20
0.0
 30
0.0
  3
*D20
  1

  0
LINE
  5
FC
330
FA
100
AcDbEntity
  8
cotas
100
AcDbLine
 10
5501.93404048345
 20
1792.817019526572
 30
0.0
 11
5469.584888469363
 21
1792.817019526572
 31
0.0
  0
LINE
  5
FD
330
FA
100
AcDbEntity
  8
cotas
100
AcDbLine
 10
5501.86839704181
 20
1872.787719334157
 30
0.0
 11
5469.584888469363
 21
1872.787719334157
 31
0.0
  0
LINE
  5
FE
330
FA
100
AcDbEntity
  8
cotas
100
AcDbLine
 10
5474.584888469362
 20
1802.817019526572
 30
0.0
 11
5474.584888469362
 21
1862.787719334157
 31
0.0
  0
SOLID
  5
FF
330
FA
100
AcDbEntity
  8
cotas
100
AcDbTrace
 10
5472.918221802696
 20
1802.817019526572
 30
0.0
 11
5476.25155513603
 21
1802.817019526572
 31
0.0
 12
5474.584888469362
 22
1792.817019526572
 32
0.0
 13
5474.584888469362
 23
1792.817019526572
 33
0.0
  0
SOLID
  5
100
330
FA
100
AcDbEntity
  8
cotas
100
AcDbTrace
 10
5472.918221802696
 20
1862.787719334157
 30
0.0
 11
5476.25155513603
 21
1862.787719334157
 31
0.0
 12
5474.584888469362
 22
1872.787719334157
 32
0.0
 13
5474.584888469362
 23
1872.787719334157
 33
0.0
  0
MTEXT
  5
101
330
FA
100
AcDbEntity
  8
cotas
100
AcDbMText
 10
5464.356547300793
 20
1832.802369430365
 30
0.0
 40
10.0
 41
0.0
 71
     5
 72
     1
  1
80
  7
SANINDUSA
 11
0.0000000000000001
 21
1.0
 31
0.0
 73
     1
 44
1.0
1001
ACAD
1000
MTEXTBEGIN
1070
    73
1070
     1
1070
    44
1040
1.0
1070
    74
1070
     0
1000
MTEXTEND
  0
POINT
  5
102
330
FA
100
AcDbEntity
  8
Defpoints
 62
     0
100
AcDbPoint
 10
5506.93404048345
 20
1792.817019526572
 30
0.0
  0
POINT
  5
103
330
FA
100
AcDbEntity
  8
Defpoints
 62
     0
100
AcDbPoint
 10
5506.86839704181
 20
1872.787719334157
 30
0.0
  0
POINT
  5
104
330
FA
100
AcDbEntity
  8
Defpoints
 62
     0
100
AcDbPoint
 10
5474.584888469362
 20
1872.787719334157
 30
0.0
  0
ENDBLK
  5
105
330
FA
100
AcDbEntity
  8
0
100
AcDbBlockEnd
  0
BLOCK
  5
107
330
106
100
AcDbEntity
  8
0
100
AcDbBlockBegin
  2
*D21
 70
     1
 10
0.0
 20
0.0
 30
0.0
  3
*D21
  1

  0
LINE
  5
108
330
106
100
AcDbEntity
  8
cotas
100
AcDbLine
 10
5501.86839704181
 20
1872.787719334157
 30
0.0
 11
5469.584888469363
 21
1872.787719334157
 31
0.0
  0
LINE
  5
109
330
106
100
AcDbEntity
  8
cotas
100
AcDbLine
 10
5501.913349401681
 20
1952.816230722231
 30
0.0
 11
5469.584888469363
 21
1952.816230722231
 31
0.0
  0
LINE
  5
10A
330
106
100
AcDbEntity
  8
cotas
100
AcDbLine
 10
5474.584888469362
 20
1882.787719334157
 30
0.0
 11
5474.584888469362
 21
1942.816230722231
 31
0.0
  0
SOLID
  5
10B
330
106
100
AcDbEntity
  8
cotas
100
AcDbTrace
 10
5472.918221802696
 20
1882.787719334157
 30
0.0
 11
5476.25155513603
 21
1882.787719334157
 31
0.0
 12
5474.584888469362
 22
1872.787719334157
 32
0.0
 13
5474.584888469362
 23
1872.787719334157
 33
0.0
  0
SOLID
  5
10C
330
106
100
AcDbEntity
  8
cotas
100
AcDbTrace
 10
5472.918221802696
 20
1942.816230722231
 30
0.0
 11
5476.25155513603
 21
1942.816230722231
 31
0.0
 12
5474.584888469362
 22
1952.816230722231
 32
0.0
 13
5474.584888469362
 23
1952.816230722231
 33
0.0
  0
MTEXT
  5
10D
330
106
100
AcDbEntity
  8
cotas
100
AcDbMText
 10
5464.356547300793
 20
1912.801975028195
 30
0.0
 40
10.0
 41
0.0
 71
     5
 72
     1
  1
80
  7
SANINDUSA
 11
0.0000000000000001
 21
1.0
 31
0.0
 73
     1
 44
1.0
1001
ACAD
1000
MTEXTBEGIN
1070
    73
1070
     1
1070
    44
1040
1.0
1070
    74
1070
     0
1000
MTEXTEND
  0
POINT
  5
10E
330
106
100
AcDbEntity
  8
Defpoints
 62
     0
100
AcDbPoint
 10
5506.86839704181
 20
1872.787719334157
 30
0.0
  0
POINT
  5
10F
330
106
100
AcDbEntity
  8
Defpoints
 62
     0
100
AcDbPoint
 10
5506.913349401681
 20
1952.816230722231
 30
0.0
  0
POINT
  5
110
330
106
100
AcDbEntity
  8
Defpoints
 62
     0
100
AcDbPoint
 10
5474.584888469362
 20
1952.816230722231
 30
0.0
  0
ENDBLK
  5
111
330
106
100
AcDbEntity
  8
0
100
AcDbBlockEnd
  0
BLOCK
  5
113
330
112
100
AcDbEntity
  8
0
100
AcDbBlockBegin
  2
*D22
 70
     1
 10
0.0
 20
0.0
 30
0.0
  3
*D22
  1

  0
LINE
  5
114
330
112
100
AcDbEntity
  8
cotas
100
AcDbLine
 10
5501.913349401681
 20
1952.816230722231
 30
0.0
 11
5469.584888469362
 21
1952.816230722231
 31
0.0
  0
LINE
  5
115
330
112
100
AcDbEntity
  8
cotas
100
AcDbLine
 10
5501.851986041259
 20
2032.837827048371
 30
0.0
 11
5469.584888469362
 21
2032.837827048371
 31
0.0
  0
LINE
  5
116
330
112
100
AcDbEntity
  8
cotas
100
AcDbLine
 10
5474.584888469362
 20
1962.81623072223
 30
0.0
 11
5474.584888469362
 21
2022.837827048371
 31
0.0
  0
MTEXT
  5
117
330
112
100
AcDbEntity
  8
cotas
100
AcDbMText
 10
5464.356547300792
 20
1992.827028885301
 30
0.0
 40
10.0
 41
0.0
 71
     5
 72
     1
  1
80
  7
SANINDUSA
 11
0.0000000000000001
 21
1.0
 31
0.0
 73
     1
 44
1.0
1001
ACAD
1000
MTEXTBEGIN
1070
    73
1070
     1
1070
    44
1040
1.0
1070
    74
1070
     0
1000
MTEXTEND
  0
SOLID
  5
118
330
112
100
AcDbEntity
  8
cotas
100
AcDbTrace
 10
5472.918221802695
 20
1962.81623072223
 30
0.0
 11
5476.251555136029
 21
1962.81623072223
 31
0.0
 12
5474.584888469362
 22
1952.816230722231
 32
0.0
 13
5474.584888469362
 23
1952.816230722231
 33
0.0
  0
SOLID
  5
119
330
112
100
AcDbEntity
  8
cotas
100
AcDbTrace
 10
5472.918221802695
 20
2022.837827048371
 30
0.0
 11
5476.251555136029
 21
2022.837827048371
 31
0.0
 12
5474.584888469362
 22
2032.837827048371
 32
0.0
 13
5474.584888469362
 23
2032.837827048371
 33
0.0
  0
POINT
  5
11A
330
112
100
AcDbEntity
  8
Defpoints
 62
     0
100
AcDbPoint
 10
5506.913349401681
 20
1952.816230722231
 30
0.0
  0
POINT
  5
11B
330
112
100
AcDbEntity
  8
Defpoints
 62
     0
100
AcDbPoint
 10
5506.851986041259
 20
2032.837827048371
 30
0.0
  0
POINT
  5
11C
330
112
100
AcDbEntity
  8
Defpoints
 62
     0
100
AcDbPoint
 10
5474.584888469362
 20
2032.837827048371
 30
0.0
  0
ENDBLK
  5
11D
330
112
100
AcDbEntity
  8
0
100
AcDbBlockEnd
  0
BLOCK
  5
11F
330
11E
100
AcDbEntity
  8
0
100
AcDbBlockBegin
  2
*D23
 70
     1
 10
0.0
 20
0.0
 30
0.0
  3
*D23
  1

  0
LINE
  5
120
330
11E
100
AcDbEntity
  8
cotas
100
AcDbLine
 10
5501.851986041259
 20
2032.837827048371
 30
0.0
 11
5469.584888469362
 21
2032.837827048371
 31
0.0
  0
LINE
  5
121
330
11E
100
AcDbEntity
  8
cotas
100
AcDbLine
 10
5501.924919362049
 20
2112.819378127835
 30
0.0
 11
5469.584888469363
 21
2112.819378127835
 31
0.0
  0
LINE
  5
122
330
11E
100
AcDbEntity
  8
cotas
100
AcDbLine
 10
5474.584888469362
 20
2042.837827048371
 30
0.0
 11
5474.584888469362
 21
2102.819378127835
 31
0.0
  0
SOLID
  5
123
330
11E
100
AcDbEntity
  8
cotas
100
AcDbTrace
 10
5472.918221802695
 20
2042.837827048371
 30
0.0
 11
5476.251555136029
 21
2042.837827048371
 31
0.0
 12
5474.584888469362
 22
2032.837827048371
 32
0.0
 13
5474.584888469362
 23
2032.837827048371
 33
0.0
  0
SOLID
  5
124
330
11E
100
AcDbEntity
  8
cotas
100
AcDbTrace
 10
5472.918221802696
 20
2102.819378127835
 30
0.0
 11
5476.25155513603
 21
2102.819378127835
 31
0.0
 12
5474.584888469362
 22
2112.819378127835
 32
0.0
 13
5474.584888469362
 23
2112.819378127835
 33
0.0
  0
MTEXT
  5
125
330
11E
100
AcDbEntity
  8
cotas
100
AcDbMText
 10
5464.356547300792
 20
2072.828602588104
 30
0.0
 40
10.0
 41
0.0
 71
     5
 72
     1
  1
80
  7
SANINDUSA
 11
0.0000000000000001
 21
1.0
 31
0.0
 73
     1
 44
1.0
1001
ACAD
1000
MTEXTBEGIN
1070
    73
1070
     1
1070
    44
1040
1.0
1070
    74
1070
     0
1000
MTEXTEND
  0
POINT
  5
126
330
11E
100
AcDbEntity
  8
Defpoints
 62
     0
100
AcDbPoint
 10
5506.851986041259
 20
2032.837827048371
 30
0.0
  0
POINT
  5
127
330
11E
100
AcDbEntity
  8
Defpoints
 62
     0
100
AcDbPoint
 10
5506.924919362049
 20
2112.819378127835
 30
0.0
  0
POINT
  5
128
330
11E
100
AcDbEntity
  8
Defpoints
 62
     0
100
AcDbPoint
 10
5474.584888469362
 20
2112.819378127835
 30
0.0
  0
ENDBLK
  5
129
330
11E
100
AcDbEntity
  8
0
100
AcDbBlockEnd
  0
BLOCK
  5
12B
330
12A
100
AcDbEntity
  8
0
100
AcDbBlockBegin
  2
*D24
 70
     1
 10
0.0
 20
0.0
 30
0.0
  3
*D24
  1

  0
LINE
  5
12C
330
12A
100
AcDbEntity
  8
cotas
100
AcDbLine
 10
5501.924919362049
 20
2112.819378127835
 30
0.0
 11
5469.584888469363
 21
2112.819378127835
 31
0.0
  0
LINE
  5
12D
330
12A
100
AcDbEntity
  8
cotas
100
AcDbLine
 10
5501.935190360287
 20
2192.818639342757
 30
0.0
 11
5469.584888469363
 21
2192.818639342757
 31
0.0
  0
LINE
  5
12E
330
12A
100
AcDbEntity
  8
cotas
100
AcDbLine
 10
5474.584888469362
 20
2122.819378127835
 30
0.0
 11
5474.584888469362
 21
2182.818639342757
 31
0.0
  0
SOLID
  5
12F
330
12A
100
AcDbEntity
  8
cotas
100
AcDbTrace
 10
5472.918221802696
 20
2122.819378127835
 30
0.0
 11
5476.25155513603
 21
2122.819378127835
 31
0.0
 12
5474.584888469362
 22
2112.819378127835
 32
0.0
 13
5474.584888469362
 23
2112.819378127835
 33
0.0
  0
SOLID
  5
130
330
12A
100
AcDbEntity
  8
cotas
100
AcDbTrace
 10
5472.918221802696
 20
2182.818639342757
 30
0.0
 11
5476.25155513603
 21
2182.818639342757
 31
0.0
 12
5474.584888469362
 22
2192.818639342757
 32
0.0
 13
5474.584888469362
 23
2192.818639342757
 33
0.0
  0
MTEXT
  5
131
330
12A
100
AcDbEntity
  8
cotas
100
AcDbMText
 10
5464.356547300792
 20
2152.819008735297
 30
0.0
 40
10.0
 41
0.0
 71
     5
 72
     1
  1
80
  7
SANINDUSA
 11
0.0000000000000001
 21
1.0
 31
0.0
 73
     1
 44
1.0
1001
ACAD
1000
MTEXTBEGIN
1070
    73
1070
     1
1070
    44
1040
1.0
1070
    74
1070
     0
1000
MTEXTEND
  0
POINT
  5
132
330
12A
100
AcDbEntity
  8
Defpoints
 62
     0
100
AcDbPoint
 10
5506.924919362049
 20
2112.819378127835
 30
0.0
  0
POINT
  5
133
330
12A
100
AcDbEntity
  8
Defpoints
 62
     0
100
AcDbPoint
 10
5506.935190360287
 20
2192.818639342757
 30
0.0
  0
POINT
  5
134
330
12A
100
AcDbEntity
  8
Defpoints
 62
     0
100
AcDbPoint
 10
5474.584888469362
 20
2192.818639342757
 30
0.0
  0
ENDBLK
  5
135
330
12A
100
AcDbEntity
  8
0
100
AcDbBlockEnd
  0
BLOCK
  5
137
330
136
100
AcDbEntity
  8
0
100
AcDbBlockBegin
  2
*D25
 70
     1
 10
0.0
 20
0.0
 30
0.0
  3
*D25
  1

  0
LINE
  5
138
330
136
100
AcDbEntity
  8
cotas
100
AcDbLine
 10
4719.24213808271
 20
3013.492078623184
 30
0.0
 11
4719.790224055659
 21
2982.092254262611
 31
0.0
  0
ARC
  5
139
330
136
100
AcDbEntity
  8
cotas
100
AcDbCircle
 10
4718.456673453395
 20
3058.491317098966
 30
0.0
 40
71.41070055615351
100
AcDbArc
 50
188.0299867699656
 51
262.9700132300347
  0
SOLID
  5
13A
330
136
100
AcDbEntity
  8
cotas
100
AcDbTrace
 10
4646.083571805693
 20
3048.399163616347
 30
0.0
 11
4649.408724345545
 21
3048.632555342471
 31
0.0
 12
4647.045972897242
 22
3058.491317098966
 32
0.0
 13
4647.045972897242
 23
3058.491317098966
 33
0.0
  0
SOLID
  5
13B
330
136
100
AcDbEntity
  8
cotas
100
AcDbTrace
 10
4709.80446610556
 20
2989.281825211064
 30
0.0
 11
4709.629141839715
 21
2985.953105860785
 31
0.0
 12
4719.702962023472
 22
2987.091492738393
 32
0.0
 13
4719.702962023472
 23
2987.091492738393
 33
0.0
  0
MTEXT
  5
13C
330
136
100
AcDbEntity
  8
cotas
100
AcDbMText
 10
4692.398124015205
 20
3003.102400559368
 30
0.0
 40
10.0
 41
0.0
 71
     5
 72
     1
  1
91°
  7
SANINDUSA
 11
0.9048616415632446
 21
-0.4257057782406414
 31
0.0
 73
     1
 44
1.0
1001
ACAD
1000
MTEXTBEGIN
1070
    73
1070
     1
1070
    44
1040
1.0
1070
    74
1070
     0
1000
MTEXTEND
  0
POINT
  5
13D
330
136
100
AcDbEntity
  8
Defpoints
 62
     0
100
AcDbPoint
 10
4656.821963391599
 20
3022.426782310354
 30
0.0
  0
POINT
  5
13E
330
136
100
AcDbEntity
  8
Defpoints
 62
     0
100
AcDbPoint
 10
4718.576726477681
 20
3051.613483944028
 30
0.0
  0
POINT
  5
13F
330
136
100
AcDbEntity
  8
Defpoints
 62
     0
100
AcDbPoint
 10
3975.335554295206
 20
3058.491317098966
 30
0.0
  0
POINT
  5
140
330
136
100
AcDbEntity
  8
Defpoints
 62
     0
100
AcDbPoint
 10
4711.577792611587
 20
3058.491317098966
 30
0.0
  0
POINT
  5
141
330
136
100
AcDbEntity
  8
Defpoints
 62
     0
100
AcDbPoint
 10
4719.154876050524
 20
3018.491317098965
 30
0.0
  0
ENDBLK
  5
142
330
136
100
AcDbEntity
  8
0
100
AcDbBlockEnd
  0
BLOCK
  5
144
330
143
100
AcDbEntity
  8
0
100
AcDbBlockBegin
  2
*D26
 70
     1
 10
0.0
 20
0.0
 30
0.0
  3
*D26
  1

  0
LINE
  5
145
330
143
100
AcDbEntity
  8
cotas
100
AcDbLine
 10
3917.67119070783
 20
3013.492078623184
 30
0.0
 11
3917.083043765277
 21
2979.797162851227
 31
0.0
  0
ARC
  5
146
330
143
100
AcDbEntity
  8
cotas
100
AcDbCircle
 10
3918.456655337147
 20
3058.491317098966
 30
0.0
 40
73.70614157432207
100
AcDbArc
 50
276.7795166034135
 51
352.2204833965842
  0
SOLID
  5
147
330
143
100
AcDbEntity
  8
cotas
100
AcDbTrace
 10
3927.241613673367
 20
2983.635998187332
 30
0.0
 11
3927.073565617268
 21
2986.965092803283
 31
0.0
 12
3917.170305797465
 22
2984.796401327009
 32
0.0
 13
3917.170305797465
 23
2984.796401327009
 33
0.0
  0
SOLID
  5
148
330
143
100
AcDbEntity
  8
cotas
100
AcDbTrace
 10
3989.821600021983
 20
3048.627414478682
 30
0.0
 11
3993.147254757723
 21
3048.40129130481
 31
0.0
 12
3992.16279691147
 22
3058.491317098966
 32
0.0
 13
3992.16279691147
 23
3058.491317098966
 33
0.0
  0
MTEXT
  5
149
330
143
100
AcDbEntity
  8
cotas
100
AcDbMText
 10
3947.17863099845
 20
3001.849309927591
 30
0.0
 40
10.0
 41
0.0
 71
     5
 72
     1
  1
91°
  7
SANINDUSA
 11
0.8918874397272524
 21
0.4522574431192554
 31
0.0
 73
     1
 44
1.0
1001
ACAD
1000
MTEXTBEGIN
1070
    73
1070
     1
1070
    44
1040
1.0
1070
    74
1070
     0
1000
MTEXTEND
  0
POINT
  5
14A
330
143
100
AcDbEntity
  8
Defpoints
 62
     0
100
AcDbPoint
 10
3982.072564862285
 20
3021.267516096604
 30
0.0
  0
POINT
  5
14B
330
143
100
AcDbEntity
  8
Defpoints
 62
     0
100
AcDbPoint
 10
3925.335536178955
 20
3058.491317098966
 30
0.0
  0
POINT
  5
14C
330
143
100
AcDbEntity
  8
Defpoints
 62
     0
100
AcDbPoint
 10
3917.758452740017
 20
3018.491317098966
 30
0.0
  0
POINT
  5
14D
330
143
100
AcDbEntity
  8
Defpoints
 62
     0
100
AcDbPoint
 10
3918.336602312862
 20
3051.613483944027
 30
0.0
  0
POINT
  5
14E
330
143
100
AcDbEntity
  8
Defpoints
 62
     0
100
AcDbPoint
 10
4661.577774495335
 20
3058.491317098966
 30
0.0
  0
ENDBLK
  5
14F
330
143
100
AcDbEntity
  8
0
100
AcDbBlockEnd
  0
BLOCK
  5
151
330
150
100
AcDbEntity
  8
0
100
AcDbBlockBegin
  2
*D27
 70
     1
 10
0.0
 20
0.0
 30
0.0
  3
*D27
  1

  0
LINE
  5
152
330
150
100
AcDbEntity
  8
cotas
100
AcDbLine
 10
6450.486753720544
 20
3626.041564836029
 30
0.0
 11
6450.486753720544
 21
3651.041564836029
 31
0.0
  0
LINE
  5
153
330
150
100
AcDbEntity
  8
cotas
100
AcDbLine
 10
6380.367616447383
 20
3626.041568109251
 30
0.0
 11
6380.367616447383
 21
3651.041564836029
 31
0.0
  0
LINE
  5
154
330
150
100
AcDbEntity
  8
cotas
100
AcDbLine
 10
6440.486753720545
 20
3646.041564836029
 30
0.0
 11
6390.367616447384
 21
3646.041564836029
 31
0.0
  0
SOLID
  5
155
330
150
100
AcDbEntity
  8
cotas
100
AcDbTrace
 10
6440.486753720545
 20
3647.708231502696
 30
0.0
 11
6440.486753720545
 21
3644.374898169362
 31
0.0
 12
6450.486753720544
 22
3646.041564836029
 32
0.0
 13
6450.486753720544
 23
3646.041564836029
 33
0.0
  0
SOLID
  5
156
330
150
100
AcDbEntity
  8
cotas
100
AcDbTrace
 10
6390.367616447384
 20
3647.708231502696
 30
0.0
 11
6390.367616447384
 21
3644.374898169362
 31
0.0
 12
6380.367616447383
 22
3646.041564836029
 32
0.0
 13
6380.367616447383
 23
3646.041564836029
 33
0.0
  0
MTEXT
  5
157
330
150
100
AcDbEntity
  8
cotas
100
AcDbMText
 10
6415.427185083965
 20
3656.246400296069
 30
0.0
 40
10.0
 41
0.0
 71
     5
 72
     1
  1
70
  7
SANINDUSA
 73
     1
 44
1.0
1001
ACAD
1000
MTEXTBEGIN
1070
    73
1070
     1
1070
    44
1040
1.0
1070
    74
1070
     0
1000
MTEXTEND
  0
POINT
  5
158
330
150
100
AcDbEntity
  8
Defpoints
 62
     0
100
AcDbPoint
 10
6450.486753720544
 20
3621.041564836029
 30
0.0
  0
POINT
  5
159
330
150
100
AcDbEntity
  8
Defpoints
 62
     0
100
AcDbPoint
 10
6380.367616447383
 20
3621.041568109251
 30
0.0
  0
POINT
  5
15A
330
150
100
AcDbEntity
  8
Defpoints
 62
     0
100
AcDbPoint
 10
6380.367616447383
 20
3646.041564836029
 30
0.0
  0
ENDBLK
  5
15B
330
150
100
AcDbEntity
  8
0
100
AcDbBlockEnd
  0
BLOCK
  5
15D
330
15C
100
AcDbEntity
  8
0
100
AcDbBlockBegin
  2
*D28
 70
     1
 10
0.0
 20
0.0
 30
0.0
  3
*D28
  1

  0
LINE
  5
15E
330
15C
100
AcDbEntity
  8
cotas
100
AcDbLine
 10
6450.486753720544
 20
3626.041564836029
 30
0.0
 11
6450.486753720544
 21
3675.67831845119
 31
0.0
  0
LINE
  5
15F
330
15C
100
AcDbEntity
  8
cotas
100
AcDbLine
 10
6270.752308681522
 20
3541.557442573421
 30
0.0
 11
6270.752308681522
 21
3675.67831845119
 31
0.0
  0
LINE
  5
160
330
15C
100
AcDbEntity
  8
cotas
100
AcDbLine
 10
6440.486753720545
 20
3670.67831845119
 30
0.0
 11
6280.752308681521
 21
3670.67831845119
 31
0.0
  0
SOLID
  5
161
330
15C
100
AcDbEntity
  8
cotas
100
AcDbTrace
 10
6440.486753720545
 20
3672.344985117856
 30
0.0
 11
6440.486753720545
 21
3669.011651784523
 31
0.0
 12
6450.486753720544
 22
3670.67831845119
 32
0.0
 13
6450.486753720544
 23
3670.67831845119
 33
0.0
  0
SOLID
  5
162
330
15C
100
AcDbEntity
  8
cotas
100
AcDbTrace
 10
6280.752308681521
 20
3672.344985117856
 30
0.0
 11
6280.752308681521
 21
3669.011651784523
 31
0.0
 12
6270.752308681522
 22
3670.67831845119
 32
0.0
 13
6270.752308681522
 23
3670.67831845119
 33
0.0
  0
MTEXT
  5
163
330
15C
100
AcDbEntity
  8
cotas
100
AcDbMText
 10
6360.619531201034
 20
3680.906659619759
 30
0.0
 40
10.0
 41
0.0
 71
     5
 72
     1
  1
180
  7
SANINDUSA
 73
     1
 44
1.0
1001
ACAD
1000
MTEXTBEGIN
1070
    73
1070
     1
1070
    44
1040
1.0
1070
    74
1070
     0
1000
MTEXTEND
  0
POINT
  5
164
330
15C
100
AcDbEntity
  8
Defpoints
 62
     0
100
AcDbPoint
 10
6450.486753720544
 20
3621.041564836029
 30
0.0
  0
POINT
  5
165
330
15C
100
AcDbEntity
  8
Defpoints
 62
     0
100
AcDbPoint
 10
6270.752308681522
 20
3536.557442573422
 30
0.0
  0
POINT
  5
166
330
15C
100
AcDbEntity
  8
Defpoints
 62
     0
100
AcDbPoint
 10
6270.752308681522
 20
3670.67831845119
 30
0.0
  0
ENDBLK
  5
167
330
15C
100
AcDbEntity
  8
0
100
AcDbBlockEnd
  0
BLOCK
  5
169
330
168
100
AcDbEntity
  8
0
100
AcDbBlockBegin
  2
*D29
 70
     1
 10
0.0
 20
0.0
 30
0.0
  3
*D29
  1

  0
LINE
  5
16A
330
168
100
AcDbEntity
  8
cotas
100
AcDbLine
 10
6377.492479793532
 20
3572.002238641177
 30
0.0
 11
6377.492479793532
 21
3607.763584372765
 31
0.0
  0
ARC
  5
16B
330
168
100
AcDbEntity
  8
cotas
100
AcDbCircle
 10
6377.492479793533
 20
3535.296261294198
 30
0.0
 40
67.4673230785677
100
AcDbArc
 50
70.95243734143863
 51
88.00000000000141
  0
LINE
  5
16C
330
168
100
AcDbEntity
  8
cotas
100
AcDbLine
 10
6399.510639087596
 20
3599.069612662062
 30
0.0
 11
6422.275308553581
 21
3591.209964269311
 31
0.0
  0
ARC
  5
16D
330
168
100
AcDbEntity
  8
cotas
100
AcDbCircle
 10
6377.492479793533
 20
3535.296261294198
 30
0.0
 40
67.4673230785677
100
AcDbArc
 50
70.9996643104661
 51
79.49983215523374
  0
ARC
  5
16E
330
168
100
AcDbEntity
  8
cotas
100
AcDbCircle
 10
6377.492479793533
 20
3535.296261294198
 30
0.0
 40
67.4673230785677
100
AcDbArc
 50
98.50016784476817
 51
107.0003356895358
  0
ARC
  5
16F
330
168
100
AcDbEntity
  8
cotas
100
AcDbCircle
 10
6377.492479793533
 20
3535.296261294198
 30
0.0
 40
67.4673230785677
100
AcDbArc
 50
88.00000000000141
 51
90.00000000000053
  0
SOLID
  5
170
330
168
100
AcDbEntity
  8
cotas
100
AcDbTrace
 10
6389.606169982339
 20
3599.977041495837
 30
0.0
 11
6389.969064418567
 21
3603.290562091709
 31
0.0
 12
6379.847055412838
 22
3602.722485102452
 32
0.0
 13
6379.847055412838
 23
3602.722485102452
 33
0.0
  0
SOLID
  5
171
330
168
100
AcDbEntity
  8
cotas
100
AcDbTrace
 10
6367.396462443214
 20
3603.684568324786
 30
0.0
 11
6367.643495612846
 21
3600.360401402953
 31
0.0
 12
6377.492479793533
 22
3602.763584372765
 32
0.0
 13
6377.492479793533
 23
3602.763584372765
 33
0.0
  0
MTEXT
  5
172
330
168
100
AcDbEntity
  8
cotas
100
AcDbMText
 10
6414.190475495685
 20
3604.690665546437
 30
0.0
 40
10.0
 41
0.0
 71
     5
 72
     1
  1
2°
  7
SANINDUSA
 11
0.9452479875864945
 21
-0.3263529407921472
 31
0.0
 73
     1
 44
1.0
1001
ACAD
1000
MTEXTBEGIN
1070
    73
1070
     1
1070
    44
1040
1.0
1070
    74
1070
     0
1000
MTEXTEND
  0
POINT
  5
173
330
168
100
AcDbEntity
  8
Defpoints
 62
     0
100
AcDbPoint
 10
6378.27748003046
 20
3602.759017374985
 30
0.0
  0
POINT
  5
174
330
168
100
AcDbEntity
  8
Defpoints
 62
     0
100
AcDbPoint
 10
6377.492479793532
 20
3535.296261294182
 30
0.0
  0
POINT
  5
175
330
168
100
AcDbEntity
  8
Defpoints
 62
     0
100
AcDbPoint
 10
6377.344665109924
 20
3531.063402575437
 30
0.0
  0
POINT
  5
176
330
168
100
AcDbEntity
  8
Defpoints
 62
     0
100
AcDbPoint
 10
6380.250857522335
 20
3614.285864586169
 30
0.0
  0
POINT
  5
177
330
168
100
AcDbEntity
  8
Defpoints
 62
     0
100
AcDbPoint
 10
6377.492479793533
 20
3567.002238641177
 30
0.0
  0
ENDBLK
  5
178
330
168
100
AcDbEntity
  8
0
100
AcDbBlockEnd
  0
BLOCK
  5
17A
330
179
100
AcDbEntity
  8
0
100
AcDbBlockBegin
  2
*D30
 70
     1
 10
0.0
 20
0.0
 30
0.0
  3
*D30
  1

  0
LINE
  5
17B
330
179
100
AcDbEntity
  8
cotas
100
AcDbLine
 10
4850.486790135759
 20
3626.041568109259
 30
0.0
 11
4850.486790135759
 21
3650.678318448588
 31
0.0
  0
LINE
  5
17C
330
179
100
AcDbEntity
  8
cotas
100
AcDbLine
 10
4920.605927466056
 20
3626.041568109259
 30
0.0
 11
4920.605927466056
 21
3650.678318448588
 31
0.0
  0
LINE
  5
17D
330
179
100
AcDbEntity
  8
cotas
100
AcDbLine
 10
4860.486790135759
 20
3645.678318448589
 30
0.0
 11
4910.605927466057
 21
3645.678318448589
 31
0.0
  0
SOLID
  5
17E
330
179
100
AcDbEntity
  8
cotas
100
AcDbTrace
 10
4860.486790135759
 20
3647.344985115255
 30
0.0
 11
4860.486790135759
 21
3644.011651781922
 31
0.0
 12
4850.486790135759
 22
3645.678318448589
 32
0.0
 13
4850.486790135759
 23
3645.678318448589
 33
0.0
  0
SOLID
  5
17F
330
179
100
AcDbEntity
  8
cotas
100
AcDbTrace
 10
4910.605927466057
 20
3647.344985115255
 30
0.0
 11
4910.605927466057
 21
3644.011651781922
 31
0.0
 12
4920.605927466056
 22
3645.678318448589
 32
0.0
 13
4920.605927466056
 23
3645.678318448589
 33
0.0
  0
MTEXT
  5
180
330
179
100
AcDbEntity
  8
cotas
100
AcDbMText
 10
4885.546358800908
 20
3655.883153908629
 30
0.0
 40
10.0
 41
0.0
 71
     5
 72
     1
  1
70
  7
SANINDUSA
 73
     1
 44
1.0
1001
ACAD
1000
MTEXTBEGIN
1070
    73
1070
     1
1070
    44
1040
1.0
1070
    74
1070
     0
1000
MTEXTEND
  0
POINT
  5
181
330
179
100
AcDbEntity
  8
Defpoints
 62
     0
100
AcDbPoint
 10
4850.486790135759
 20
3621.041568109259
 30
0.0
  0
POINT
  5
182
330
179
100
AcDbEntity
  8
Defpoints
 62
     0
100
AcDbPoint
 10
4920.605927466056
 20
3621.041568109259
 30
0.0
  0
POINT
  5
183
330
179
100
AcDbEntity
  8
Defpoints
 62
     0
100
AcDbPoint
 10
4920.605927466056
 20
3645.678318448589
 30
0.0
  0
ENDBLK
  5
184
330
179
100
AcDbEntity
  8
0
100
AcDbBlockEnd
  0
BLOCK
  5
186
330
185
100
AcDbEntity
  8
0
100
AcDbBlockBegin
  2
*D31
 70
     1
 10
0.0
 20
0.0
 30
0.0
  3
*D31
  1

  0
LINE
  5
187
330
185
100
AcDbEntity
  8
cotas
100
AcDbLine
 10
4845.486790135759
 20
3621.041568109259
 30
0.0
 11
4794.788554283871
 21
3621.041568109259
 31
0.0
  0
LINE
  5
188
330
185
100
AcDbEntity
  8
cotas
100
AcDbLine
 10
4948.510175890048
 20
3551.454617986165
 30
0.0
 11
4794.788554283871
 21
3551.454617986165
 31
0.0
  0
LINE
  5
189
330
185
100
AcDbEntity
  8
cotas
100
AcDbLine
 10
4799.788554283872
 20
3611.041568109259
 30
0.0
 11
4799.788554283872
 21
3561.454617986165
 31
0.0
  0
SOLID
  5
18A
330
185
100
AcDbEntity
  8
cotas
100
AcDbTrace
 10
4798.121887617205
 20
3611.041568109259
 30
0.0
 11
4801.455220950539
 21
3611.041568109259
 31
0.0
 12
4799.788554283872
 22
3621.041568109259
 32
0.0
 13
4799.788554283872
 23
3621.041568109259
 33
0.0
  0
SOLID
  5
18B
330
185
100
AcDbEntity
  8
cotas
100
AcDbTrace
 10
4798.121887617205
 20
3561.454617986165
 30
0.0
 11
4801.455220950539
 21
3561.454617986165
 31
0.0
 12
4799.788554283872
 22
3551.454617986165
 32
0.0
 13
4799.788554283872
 23
3551.454617986165
 33
0.0
  0
MTEXT
  5
18C
330
185
100
AcDbEntity
  8
cotas
100
AcDbMText
 10
4788.445370939345
 20
3586.248093047713
 30
0.0
 40
10.0
 41
0.0
 71
     5
 72
     1
  1
69,6
  7
SANINDUSA
 11
0.0000000000000001
 21
1.0
 31
0.0
 73
     1
 44
1.0
1001
ACAD
1000
MTEXTBEGIN
1070
    73
1070
     1
1070
    44
1040
1.0
1070
    74
1070
     0
1000
MTEXTEND
  0
POINT
  5
18D
330
185
100
AcDbEntity
  8
Defpoints
 62
     0
100
AcDbPoint
 10
4850.486790135759
 20
3621.041568109259
 30
0.0
  0
POINT
  5
18E
330
185
100
AcDbEntity
  8
Defpoints
 62
     0
100
AcDbPoint
 10
4953.510175890047
 20
3551.454617986165
 30
0.0
  0
POINT
  5
18F
330
185
100
AcDbEntity
  8
Defpoints
 62
     0
100
AcDbPoint
 10
4799.788554283872
 20
3551.454617986165
 30
0.0
  0
ENDBLK
  5
190
330
185
100
AcDbEntity
  8
0
100
AcDbBlockEnd
  0
BLOCK
  5
192
330
191
100
AcDbEntity
  8
0
100
AcDbBlockBegin
  2
*D32
 70
     1
 10
0.0
 20
0.0
 30
0.0
  3
*D32
  1

  0
LINE
  5
193
330
191
100
AcDbEntity
  8
cotas
100
AcDbLine
 10
6270.752338718712
 20
3536.744721420345
 30
0.0
 11
6270.752338718712
 21
3675.67831845119
 31
0.0
  0
LINE
  5
194
330
191
100
AcDbEntity
  8
cotas
100
AcDbLine
 10
4850.486790135759
 20
3626.041568109259
 30
0.0
 11
4850.486790135759
 21
3675.67831845119
 31
0.0
  0
LINE
  5
195
330
191
100
AcDbEntity
  8
cotas
100
AcDbLine
 10
6260.752338718712
 20
3670.67831845119
 30
0.0
 11
4860.486790135759
 21
3670.67831845119
 31
0.0
  0
SOLID
  5
196
330
191
100
AcDbEntity
  8
cotas
100
AcDbTrace
 10
6260.752338718712
 20
3672.344985117856
 30
0.0
 11
6260.752338718712
 21
3669.011651784523
 31
0.0
 12
6270.752338718712
 22
3670.67831845119
 32
0.0
 13
6270.752338718712
 23
3670.67831845119
 33
0.0
  0
SOLID
  5
197
330
191
100
AcDbEntity
  8
cotas
100
AcDbTrace
 10
4860.486790135759
 20
3672.344985117856
 30
0.0
 11
4860.486790135759
 21
3669.011651784523
 31
0.0
 12
4850.486790135759
 22
3670.67831845119
 32
0.0
 13
4850.486790135759
 23
3670.67831845119
 33
0.0
  0
MTEXT
  5
198
330
191
100
AcDbEntity
  8
cotas
100
AcDbMText
 10
5560.619564427236
 20
3682.024859754078
 30
0.0
 40
10.0
 41
0.0
 71
     5
 72
     1
  1
1420,3
  7
SANINDUSA
 73
     1
 44
1.0
1001
ACAD
1000
MTEXTBEGIN
1070
    73
1070
     1
1070
    44
1040
1.0
1070
    74
1070
     0
1000
MTEXTEND
  0
POINT
  5
199
330
191
100
AcDbEntity
  8
Defpoints
 62
     0
100
AcDbPoint
 10
6270.752338718712
 20
3531.744721420345
 30
0.0
  0
POINT
  5
19A
330
191
100
AcDbEntity
  8
Defpoints
 62
     0
100
AcDbPoint
 10
4850.486790135759
 20
3621.041568109259
 30
0.0
  0
POINT
  5
19B
330
191
100
AcDbEntity
  8
Defpoints
 62
     0
100
AcDbPoint
 10
4850.486790135759
 20
3670.67831845119
 30
0.0
  0
ENDBLK
  5
19C
330
191
100
AcDbEntity
  8
0
100
AcDbBlockEnd
  0
BLOCK
  5
19E
330
19D
100
AcDbEntity
  8
0
100
AcDbBlockBegin
  2
*D33
 70
     1
 10
0.0
 20
0.0
 30
0.0
  3
*D33
  1

  0
LINE
  5
19F
330
19D
100
AcDbEntity
  8
cotas
100
AcDbLine
 10
4718.456673453395
 20
3063.491317098965
 30
0.0
 11
4718.456673453395
 21
3093.482851724019
 31
0.0
  0
LINE
  5
1A0
330
19D
100
AcDbEntity
  8
cotas
100
AcDbLine
 10
3918.456655337145
 20
3063.491317098965
 30
0.0
 11
3918.456655337145
 21
3093.482851724019
 31
0.0
  0
LINE
  5
1A1
330
19D
100
AcDbEntity
  8
cotas
100
AcDbLine
 10
4708.456673453396
 20
3088.482851724019
 30
0.0
 11
3928.456655337146
 21
3088.482851724019
 31
0.0
  0
SOLID
  5
1A2
330
19D
100
AcDbEntity
  8
cotas
100
AcDbTrace
 10
4708.456673453396
 20
3090.149518390686
 30
0.0
 11
4708.456673453396
 21
3086.816185057353
 31
0.0
 12
4718.456673453395
 22
3088.482851724019
 32
0.0
 13
4718.456673453395
 23
3088.482851724019
 33
0.0
  0
SOLID
  5
1A3
330
19D
100
AcDbEntity
  8
cotas
100
AcDbTrace
 10
3928.456655337146
 20
3090.149518390686
 30
0.0
 11
3928.456655337146
 21
3086.816185057353
 31
0.0
 12
3918.456655337145
 22
3088.482851724019
 32
0.0
 13
3918.456655337145
 23
3088.482851724019
 33
0.0
  0
MTEXT
  5
1A4
330
19D
100
AcDbEntity
  8
cotas
100
AcDbMText
 10
4318.45666439527
 20
3098.711192892589
 30
0.0
 40
10.0
 41
0.0
 71
     5
 72
     1
  1
800
  7
SANINDUSA
 73
     1
 44
1.0
1001
ACAD
1000
MTEXTBEGIN
1070
    73
1070
     1
1070
    44
1040
1.0
1070
    74
1070
     0
1000
MTEXTEND
  0
POINT
  5
1A5
330
19D
100
AcDbEntity
  8
Defpoints
 62
     0
100
AcDbPoint
 10
4718.456673453395
 20
3058.491317098966
 30
0.0
  0
POINT
  5
1A6
330
19D
100
AcDbEntity
  8
Defpoints
 62
     0
100
AcDbPoint
 10
3918.456655337145
 20
3058.491317098966
 30
0.0
  0
POINT
  5
1A7
330
19D
100
AcDbEntity
  8
Defpoints
 62
     0
100
AcDbPoint
 10
3918.456655337145
 20
3088.482851724019
 30
0.0
  0
ENDBLK
  5
1A8
330
19D
100
AcDbEntity
  8
0
100
AcDbBlockEnd
  0
BLOCK
  5
1AA
330
1A9
100
AcDbEntity
  8
0
100
AcDbBlockBegin
  2
*D34
 70
     1
 10
0.0
 20
0.0
 30
0.0
  3
*D34
  1

  0
LINE
  5
1AB
330
1A9
100
AcDbEntity
  8
cotas
100
AcDbLine
 10
3985.951108897999
 20
2978.762479923212
 30
0.0
 11
3985.951108897999
 21
2904.293326120803
 31
0.0
  0
LINE
  5
1AC
330
1A9
100
AcDbEntity
  8
cotas
100
AcDbLine
 10
3987.742661553124
 20
2967.187961497008
 30
0.0
 11
3989.936561307565
 21
2904.36289245138
 31
0.0
  0
ARC
  5
1AD
330
1A9
100
AcDbEntity
  8
cotas
100
AcDbCircle
 10
3985.951108897999
 20
3018.491317098967
 30
0.0
 40
109.1979909781632
100
AcDbArc
 50
259.4913512490729
 51
270.0000000000002
  0
LINE
  5
1AE
330
1A9
100
AcDbEntity
  8
cotas
100
AcDbLine
 10
3966.035148524174
 20
2911.124861648229
 30
0.0
 11
3942.355810622366
 21
2915.517264781507
 31
0.0
  0
ARC
  5
1AF
330
1A9
100
AcDbEntity
  8
cotas
100
AcDbCircle
 10
3985.951108897999
 20
3018.491317098967
 30
0.0
 40
109.1979909781632
100
AcDbArc
 50
259.5024040748637
 51
264.7512020374319
  0
ARC
  5
1B0
330
1A9
100
AcDbEntity
  8
cotas
100
AcDbCircle
 10
3985.951108897999
 20
3018.491317098967
 30
0.0
 40
109.1979909781632
100
AcDbArc
 50
277.2487979625638
 51
282.497595925132
  0
ARC
  5
1B1
330
1A9
100
AcDbEntity
  8
cotas
100
AcDbCircle
 10
3985.951108897999
 20
3018.491317098967
 30
0.0
 40
109.1979909781632
100
AcDbArc
 50
270.0000000000002
 51
271.9999999999956
  0
SOLID
  5
1B2
330
1A9
100
AcDbEntity
  8
cotas
100
AcDbTrace
 10
3976.03791126108
 20
2911.416128605531
 30
0.0
 11
3975.885283300462
 21
2908.086291399788
 31
0.0
 12
3985.951108897999
 22
2909.293326120803
 32
0.0
 13
3985.951108897999
 23
2909.293326120803
 33
0.0
  0
SOLID
  5
1B3
330
1A9
100
AcDbEntity
  8
cotas
100
AcDbTrace
 10
3999.863882496871
 20
2908.504839405648
 30
0.0
 11
3999.595137870501
 21
2911.827321525526
 31
0.0
 12
3989.762063824053
 22
2909.359846586476
 32
0.0
 13
3989.762063824053
 23
2909.359846586476
 33
0.0
  0
MTEXT
  5
1B4
330
1A9
100
AcDbEntity
  8
cotas
100
AcDbMText
 10
3956.038304591123
 20
2923.25568783095
 30
0.0
 40
10.0
 41
0.0
 71
     5
 72
     1
  1
2°
  7
SANINDUSA
 11
0.9832273880588905
 21
-0.1823839449373005
 31
0.0
 73
     1
 44
1.0
1001
ACAD
1000
MTEXTBEGIN
1070
    73
1070
     1
1070
    44
1040
1.0
1070
    74
1070
     0
1000
MTEXTEND
  0
POINT
  5
1B5
330
1A9
100
AcDbEntity
  8
Defpoints
 62
     0
100
AcDbPoint
 10
3988.492032186199
 20
2909.322892440045
 30
0.0
  0
POINT
  5
1B6
330
1A9
100
AcDbEntity
  8
Defpoints
 62
     0
100
AcDbPoint
 10
3985.951108897999
 20
3018.491317098967
 30
0.0
  0
POINT
  5
1B7
330
1A9
100
AcDbEntity
  8
Defpoints
 62
     0
100
AcDbPoint
 10
3985.951108897999
 20
3018.491317098967
 30
0.0
  0
POINT
  5
1B8
330
1A9
100
AcDbEntity
  8
Defpoints
 62
     0
100
AcDbPoint
 10
3985.951108897999
 20
2983.762479923212
 30
0.0
  0
POINT
  5
1B9
330
1A9
100
AcDbEntity
  8
Defpoints
 62
     0
100
AcDbPoint
 10
3987.568164069612
 20
2972.184915632103
 30
0.0
  0
ENDBLK
  5
1BA
330
1A9
100
AcDbEntity
  8
0
100
AcDbBlockEnd
  0
BLOCK
  5
1BC
330
1BB
100
AcDbEntity
  8
0
100
AcDbBlockBegin
  2
*D35
 70
     1
 10
0.0
 20
0.0
 30
0.0
  3
*D35
  1

  0
LINE
  5
1BD
330
1BB
100
AcDbEntity
  8
cotas
100
AcDbLine
 10
4679.144836748081
 20
3025.291934415369
 30
0.0
 11
4709.244093364158
 21
3049.606151901285
 31
0.0
  0
MTEXT
  5
1BE
330
1BB
100
AcDbEntity
  8
cotas
100
AcDbMText
 10
4683.011786957186
 20
3041.27078858711
 30
0.0
 40
10.0
 41
0.0
 71
     5
 72
     1
  1
R7
  7
SANINDUSA
 11
0.7778997491430193
 21
0.6283883992271243
 31
0.0
 73
     1
 44
1.0
1001
ACAD
1000
MTEXTBEGIN
1070
    73
1070
     1
1070
    44
1040
1.0
1070
    74
1070
     0
1000
MTEXTEND
  0
SOLID
  5
1BF
330
1BB
100
AcDbEntity
  8
cotas
100
AcDbTrace
 10
4708.196779365446
 20
3050.90265148319
 30
0.0
 11
4710.291407362869
 21
3048.30965231938
 31
0.0
 12
4717.023090855588
 22
3055.890035893556
 32
0.0
 13
4717.023090855588
 23
3055.890035893556
 33
0.0
  0
POINT
  5
1C0
330
1BB
100
AcDbEntity
  8
Defpoints
 62
     0
100
AcDbPoint
 10
4717.023090855588
 20
3055.890035893556
 30
0.0
  0
POINT
  5
1C1
330
1BB
100
AcDbEntity
  8
Defpoints
 62
     0
100
AcDbPoint
 10
4711.577792611587
 20
3051.491317098967
 30
0.0
  0
ENDBLK
  5
1C2
330
1BB
100
AcDbEntity
  8
0
100
AcDbBlockEnd
  0
BLOCK
  5
1C4
330
1C3
100
AcDbEntity
  8
0
100
AcDbBlockBegin
  2
*D36
 70
     1
 10
0.0
 20
0.0
 30
0.0
  3
*D36
  1

  0
LINE
  5
1C5
330
1C3
100
AcDbEntity
  8
cotas
100
AcDbLine
 10
3959.869911648885
 20
3026.513564447232
 30
0.0
 11
3927.766361878823
 21
3049.733168522518
 31
0.0
  0
MTEXT
  5
1C6
330
1C3
100
AcDbEntity
  8
cotas
100
AcDbMText
 10
3955.157104161705
 20
3042.263692387989
 30
0.0
 40
10.0
 41
0.0
 71
     5
 72
     1
  1
R7
  7
SANINDUSA
 11
0.8102752332900815
 21
-0.5860495254811698
 31
0.0
 73
     1
 44
1.0
1001
ACAD
1000
MTEXTBEGIN
1070
    73
1070
     1
1070
    44
1040
1.0
1070
    74
1070
     0
1000
MTEXTEND
  0
SOLID
  5
1C7
330
1C3
100
AcDbEntity
  8
cotas
100
AcDbTrace
 10
3928.743111087958
 20
3051.083627244669
 30
0.0
 11
3926.789612669687
 21
3048.382709800368
 31
0.0
 12
3919.663609545922
 22
3055.59366377733
 32
0.0
 13
3919.663609545922
 23
3055.59366377733
 33
0.0
  0
POINT
  5
1C8
330
1C3
100
AcDbEntity
  8
Defpoints
 62
     0
100
AcDbPoint
 10
3919.663609545922
 20
3055.59366377733
 30
0.0
  0
POINT
  5
1C9
330
1C3
100
AcDbEntity
  8
Defpoints
 62
     0
100
AcDbPoint
 10
3925.335536178951
 20
3051.491317098963
 30
0.0
  0
ENDBLK
  5
1CA
330
1C3
100
AcDbEntity
  8
0
100
AcDbBlockEnd
  0
BLOCK
  5
1CC
330
1CB
100
AcDbEntity
  8
0
100
AcDbBlockBegin
  2
*D37
 70
     1
 10
0.0
 20
0.0
 30
0.0
  3
*D37
  1

  0
LINE
  5
1CD
330
1CB
100
AcDbEntity
  8
cotas
100
AcDbLine
 10
4902.398237702378
 20
3507.079099434517
 30
0.0
 11
4925.446892352309
 21
3545.544411904174
 31
0.0
  0
MTEXT
  5
1CE
330
1CB
100
AcDbEntity
  8
cotas
100
AcDbMText
 10
4902.760256065929
 20
3527.171369759013
 30
0.0
 40
10.0
 41
0.0
 71
     5
 72
     1
  1
R17
  7
SANINDUSA
 11
0.5139950093417232
 21
0.8577931745891907
 31
0.0
 73
     1
 44
1.0
1001
ACAD
1000
MTEXTBEGIN
1070
    73
1070
     1
1070
    44
1040
1.0
1070
    74
1070
     0
1000
MTEXTEND
  0
LINE
  5
1CF
330
1CB
100
AcDbEntity
  8
cotas
100
AcDbLine
 10
4939.324757604532
 20
3568.704827618077
 30
0.0
 11
4930.586842445726
 21
3554.122343650066
 31
0.0
  0
SOLID
  5
1D0
330
1CB
100
AcDbEntity
  8
cotas
100
AcDbTrace
 10
4924.017237061327
 20
3546.401070253077
 30
0.0
 11
4926.876547643291
 21
3544.687753555271
 31
0.0
 12
4930.586842445726
 22
3554.122343650066
 32
0.0
 13
4930.586842445726
 23
3554.122343650066
 33
0.0
  0
POINT
  5
1D1
330
1CB
100
AcDbEntity
  8
Defpoints
 62
     0
100
AcDbPoint
 10
4930.586842445726
 20
3554.122343650066
 30
0.0
  0
POINT
  5
1D2
330
1CB
100
AcDbEntity
  8
Defpoints
 62
     0
100
AcDbPoint
 10
4939.324757604532
 20
3568.704827618077
 30
0.0
  0
ENDBLK
  5
1D3
330
1CB
100
AcDbEntity
  8
0
100
AcDbBlockEnd
  0
BLOCK
  5
1D5
330
1D4
100
AcDbEntity
  8
0
100
AcDbBlockBegin
  2
*D38
 70
     1
 10
0.0
 20
0.0
 30
0.0
  3
*D38
  1

  0
LINE
  5
1D6
330
1D4
100
AcDbEntity
  8
cotas
100
AcDbLine
 10
4886.382094422235
 20
3024.297942806816
 30
0.0
 11
4859.554579975188
 21
3049.439877608328
 31
0.0
  0
MTEXT
  5
1D7
330
1D4
100
AcDbEntity
  8
cotas
100
AcDbMText
 10
4883.698904164024
 20
3040.517609098071
 30
0.0
 40
10.0
 41
0.0
 71
     5
 72
     1
  1
R7
  7
SANINDUSA
 11
0.7296574298567366
 21
-0.6838128655230621
 31
0.0
 73
     1
 44
1.0
1001
ACAD
1000
MTEXTBEGIN
1070
    73
1070
     1
1070
    44
1040
1.0
1070
    74
1070
     0
1000
MTEXTEND
  0
SOLID
  5
1D8
330
1D4
100
AcDbEntity
  8
cotas
100
AcDbTrace
 10
4860.694268084393
 20
3050.655973324756
 30
0.0
 11
4858.414891865982
 21
3048.223781891901
 31
0.0
 12
4852.25800567662
 22
3056.278006263559
 32
0.0
 13
4852.25800567662
 23
3056.278006263559
 33
0.0
  0
POINT
  5
1D9
330
1D4
100
AcDbEntity
  8
Defpoints
 62
     0
100
AcDbPoint
 10
4852.25800567662
 20
3056.278006263559
 30
0.0
  0
POINT
  5
1DA
330
1D4
100
AcDbEntity
  8
Defpoints
 62
     0
100
AcDbPoint
 10
4857.365607685618
 20
3051.491316204895
 30
0.0
  0
ENDBLK
  5
1DB
330
1D4
100
AcDbEntity
  8
0
100
AcDbBlockEnd
  0
BLOCK
  5
1DD
330
1DC
100
AcDbEntity
  8
0
100
AcDbBlockBegin
  2
*D39
 70
     1
 10
0.0
 20
0.0
 30
0.0
  3
*D39
  1

  0
LINE
  5
1DE
330
1DC
100
AcDbEntity
  8
cotas
100
AcDbLine
 10
4849.701262214495
 20
3013.492077729117
 30
0.0
 11
4849.094213394928
 21
2978.714274148168
 31
0.0
  0
ARC
  5
1DF
330
1DC
100
AcDbEntity
  8
cotas
100
AcDbCircle
 10
4850.486726843811
 20
3058.491316204899
 30
0.0
 40
74.78919433749682
100
AcDbArc
 50
276.6666886178982
 51
352.3333113821008
  0
SOLID
  5
1E0
330
1DC
100
AcDbEntity
  8
cotas
100
AcDbTrace
 10
4859.251635876914
 20
2982.543193738735
 30
0.0
 11
4859.086865761319
 21
2985.872452202735
 31
0.0
 12
4849.181475427116
 22
2983.71351262395
 32
0.0
 13
4849.181475427116
 23
2983.71351262395
 33
0.0
  0
SOLID
  5
1E1
330
1DC
100
AcDbEntity
  8
cotas
100
AcDbTrace
 10
4922.944437521445
 20
3048.625113200624
 30
0.0
 11
4926.27031328823
 21
3048.402264608467
 31
0.0
 12
4925.275921181309
 22
3058.491316204899
 32
0.0
 13
4925.275921181309
 23
3058.491316204899
 33
0.0
  0
MTEXT
  5
1E2
330
1DC
100
AcDbEntity
  8
cotas
100
AcDbMText
 10
4880.942395322401
 20
3001.531161705552
 30
0.0
 40
10.0
 41
0.0
 71
     5
 72
     1
  1
91°
  7
SANINDUSA
 11
0.8818579762119087
 21
0.4715151214875687
 31
0.0
 73
     1
 44
1.0
1001
ACAD
1000
MTEXTBEGIN
1070
    73
1070
     1
1070
    44
1040
1.0
1070
    74
1070
     0
1000
MTEXTEND
  0
POINT
  5
1E3
330
1DC
100
AcDbEntity
  8
Defpoints
 62
     0
100
AcDbPoint
 10
4915.037421247406
 20
3020.720541237134
 30
0.0
  0
POINT
  5
1E4
330
1DC
100
AcDbEntity
  8
Defpoints
 62
     0
100
AcDbPoint
 10
4857.365607685622
 20
3058.491316204899
 30
0.0
  0
POINT
  5
1E5
330
1DC
100
AcDbEntity
  8
Defpoints
 62
     0
100
AcDbPoint
 10
4849.788524246682
 20
3018.491316204899
 30
0.0
  0
POINT
  5
1E6
330
1DC
100
AcDbEntity
  8
Defpoints
 62
     0
100
AcDbPoint
 10
4850.366673819526
 20
3051.61348304996
 30
0.0
  0
POINT
  5
1E7
330
1DC
100
AcDbEntity
  8
Defpoints
 62
     0
100
AcDbPoint
 10
6443.607846002
 20
3058.491316204899
 30
0.0
  0
ENDBLK
  5
1E8
330
1DC
100
AcDbEntity
  8
0
100
AcDbBlockEnd
  0
BLOCK
  5
1EA
330
1E9
100
AcDbEntity
  8
0
100
AcDbBlockBegin
  2
*D40
 70
     1
 10
0.0
 20
0.0
 30
0.0
  3
*D40
  1

  0
LINE
  5
1EB
330
1E9
100
AcDbEntity
  8
cotas
100
AcDbLine
 10
4852.36560768562
 20
3058.491316204899
 30
0.0
 11
4814.934914496596
 21
3058.491316204899
 31
0.0
  0
LINE
  5
1EC
330
1E9
100
AcDbEntity
  8
cotas
100
AcDbLine
 10
4844.788524246681
 20
3018.491316204899
 30
0.0
 11
4814.934914496596
 21
3018.491316204899
 31
0.0
  0
LINE
  5
1ED
330
1E9
100
AcDbEntity
  8
cotas
100
AcDbLine
 10
4819.934914496596
 20
3048.491316204899
 30
0.0
 11
4819.934914496596
 21
3028.491316204899
 31
0.0
  0
SOLID
  5
1EE
330
1E9
100
AcDbEntity
  8
cotas
100
AcDbTrace
 10
4818.268247829929
 20
3048.491316204899
 30
0.0
 11
4821.601581163264
 21
3048.491316204899
 31
0.0
 12
4819.934914496596
 22
3058.491316204899
 32
0.0
 13
4819.934914496596
 23
3058.491316204899
 33
0.0
  0
SOLID
  5
1EF
330
1E9
100
AcDbEntity
  8
cotas
100
AcDbTrace
 10
4818.268247829929
 20
3028.491316204899
 30
0.0
 11
4821.601581163264
 21
3028.491316204899
 31
0.0
 12
4819.934914496596
 22
3018.491316204899
 32
0.0
 13
4819.934914496596
 23
3018.491316204899
 33
0.0
  0
MTEXT
  5
1F0
330
1E9
100
AcDbEntity
  8
cotas
100
AcDbMText
 10
4809.730079036555
 20
3038.491316204899
 30
0.0
 40
10.0
 41
0.0
 71
     5
 72
     1
  1
40
  7
SANINDUSA
 11
0.0000000000000001
 21
1.0
 31
0.0
 73
     1
 44
1.0
1001
ACAD
1000
MTEXTBEGIN
1070
    73
1070
     1
1070
    44
1040
1.0
1070
    74
1070
     0
1000
MTEXTEND
  0
POINT
  5
1F1
330
1E9
100
AcDbEntity
  8
Defpoints
 62
     0
100
AcDbPoint
 10
4857.36560768562
 20
3058.491316204899
 30
0.0
  0
POINT
  5
1F2
330
1E9
100
AcDbEntity
  8
Defpoints
 62
     0
100
AcDbPoint
 10
4849.788524246682
 20
3018.491316204899
 30
0.0
  0
POINT
  5
1F3
330
1E9
100
AcDbEntity
  8
Defpoints
 62
     0
100
AcDbPoint
 10
4819.934914496596
 20
3018.491316204899
 30
0.0
  0
ENDBLK
  5
1F4
330
1E9
100
AcDbEntity
  8
0
100
AcDbBlockEnd
  0
BLOCK
  5
1F6
330
1F5
100
AcDbEntity
  8
0
100
AcDbBlockBegin
  2
*D41
 70
     1
 10
0.0
 20
0.0
 30
0.0
  3
*D41
  1

  0
LINE
  5
1F7
330
1F5
100
AcDbEntity
  8
cotas
100
AcDbLine
 10
4850.48672684381
 20
3063.491316204899
 30
0.0
 11
4850.48672684381
 21
3093.482850829952
 31
0.0
  0
LINE
  5
1F8
330
1F5
100
AcDbEntity
  8
cotas
100
AcDbLine
 10
6450.48672684381
 20
3063.491316204899
 30
0.0
 11
6450.48672684381
 21
3093.482850829952
 31
0.0
  0
LINE
  5
1F9
330
1F5
100
AcDbEntity
  8
cotas
100
AcDbLine
 10
4860.48672684381
 20
3088.482850829952
 30
0.0
 11
6440.486726843809
 21
3088.482850829952
 31
0.0
  0
SOLID
  5
1FA
330
1F5
100
AcDbEntity
  8
cotas
100
AcDbTrace
 10
4860.48672684381
 20
3090.149517496619
 30
0.0
 11
4860.48672684381
 21
3086.816184163286
 31
0.0
 12
4850.48672684381
 22
3088.482850829952
 32
0.0
 13
4850.48672684381
 23
3088.482850829952
 33
0.0
  0
SOLID
  5
1FB
330
1F5
100
AcDbEntity
  8
cotas
100
AcDbTrace
 10
6440.486726843809
 20
3090.149517496619
 30
0.0
 11
6440.486726843809
 21
3086.816184163286
 31
0.0
 12
6450.48672684381
 22
3088.482850829952
 32
0.0
 13
6450.48672684381
 23
3088.482850829952
 33
0.0
  0
MTEXT
  5
1FC
330
1F5
100
AcDbEntity
  8
cotas
100
AcDbMText
 10
5650.48672684381
 20
3098.687686289992
 30
0.0
 40
10.0
 41
0.0
 71
     5
 72
     1
  1
1600
  7
SANINDUSA
 73
     1
 44
1.0
1001
ACAD
1000
MTEXTBEGIN
1070
    73
1070
     1
1070
    44
1040
1.0
1070
    74
1070
     0
1000
MTEXTEND
  0
POINT
  5
1FD
330
1F5
100
AcDbEntity
  8
Defpoints
 62
     0
100
AcDbPoint
 10
4850.48672684381
 20
3058.491316204899
 30
0.0
  0
POINT
  5
1FE
330
1F5
100
AcDbEntity
  8
Defpoints
 62
     0
100
AcDbPoint
 10
6450.48672684381
 20
3058.491316204899
 30
0.0
  0
POINT
  5
1FF
330
1F5
100
AcDbEntity
  8
Defpoints
 62
     0
100
AcDbPoint
 10
6450.48672684381
 20
3088.482850829952
 30
0.0
  0
ENDBLK
  5
200
330
1F5
100
AcDbEntity
  8
0
100
AcDbBlockEnd
  0
BLOCK
  5
202
330
201
100
AcDbEntity
  8
0
100
AcDbBlockBegin
  2
*D42
 70
     1
 10
0.0
 20
0.0
 30
0.0
  3
*D42
  1

  0
LINE
  5
203
330
201
100
AcDbEntity
  8
cotas
100
AcDbLine
 10
4917.981179349251
 20
2984.025037343934
 30
0.0
 11
4917.981179349252
 21
2919.45532991162
 31
0.0
  0
LINE
  5
204
330
201
100
AcDbEntity
  8
cotas
100
AcDbLine
 10
4918.611927805152
 20
3000.428223015973
 30
0.0
 11
4921.437465293355
 21
2919.515659788963
 31
0.0
  0
ARC
  5
205
330
201
100
AcDbEntity
  8
cotas
100
AcDbCircle
 10
4917.98117934925
 20
3018.49044110069
 30
0.0
 40
94.03511118907085
100
AcDbArc
 50
257.7908742777386
 51
270.0000000000015
  0
LINE
  5
206
330
201
100
AcDbEntity
  8
cotas
100
AcDbLine
 10
4898.09458978058
 20
2926.582195052427
 30
0.0
 11
4861.119478536726
 21
2934.582661748052
 31
0.0
  0
ARC
  5
207
330
201
100
AcDbEntity
  8
cotas
100
AcDbCircle
 10
4917.98117934925
 20
3018.49044110069
 30
0.0
 40
94.03511118907085
100
AcDbArc
 50
257.8082109594009
 51
263.9041054797012
  0
ARC
  5
208
330
201
100
AcDbEntity
  8
cotas
100
AcDbCircle
 10
4917.98117934925
 20
3018.49044110069
 30
0.0
 40
94.03511118907085
100
AcDbArc
 50
278.0959005452599
 51
284.1917950655602
  0
ARC
  5
209
330
201
100
AcDbEntity
  8
cotas
100
AcDbCircle
 10
4917.98117934925
 20
3018.49044110069
 30
0.0
 40
94.03511118907085
100
AcDbArc
 50
270.0000000000015
 51
272.0000060249597
  0
SOLID
  5
20A
330
201
100
AcDbEntity
  8
cotas
100
AcDbTrace
 10
4908.083944846147
 20
2926.651355177483
 30
0.0
 11
4907.906706084412
 21
2923.32273721616
 31
0.0
 12
4917.981179349252
 22
2924.45532991162
 32
0.0
 13
4917.981179349252
 23
2924.45532991162
 33
0.0
  0
SOLID
  5
20B
330
201
100
AcDbEntity
  8
cotas
100
AcDbTrace
 10
4931.37083044941
 20
2923.7323062645
 30
0.0
 11
4931.077532216017
 21
2927.052710947276
 31
0.0
 12
4921.262967284387
 22
2924.512613905709
 32
0.0
 13
4921.262967284387
 23
2924.512613905709
 33
0.0
  0
MTEXT
  5
20C
330
201
100
AcDbEntity
  8
cotas
100
AcDbMText
 10
4882.006606053248
 20
2941.672336166348
 30
0.0
 40
10.0
 41
0.0
 71
     5
 72
     1
  1
2,0°
  7
SANINDUSA
 11
0.9773822233640833
 21
-0.2114804706158015
 31
0.0
 73
     1
 44
1.0
1001
ACAD
1000
MTEXTBEGIN
1070
    73
1070
     1
1070
    44
1040
1.0
1070
    74
1070
     0
1000
MTEXTEND
  0
POINT
  5
20D
330
201
100
AcDbEntity
  8
Defpoints
 62
     0
100
AcDbPoint
 10
4920.169284839552
 20
2924.480790900809
 30
0.0
  0
POINT
  5
20E
330
201
100
AcDbEntity
  8
Defpoints
 62
     0
100
AcDbPoint
 10
4917.98117934925
 20
3018.491316204899
 30
0.0
  0
POINT
  5
20F
330
201
100
AcDbEntity
  8
Defpoints
 62
     0
100
AcDbPoint
 10
4918.437429796182
 20
3005.425177132719
 30
0.0
  0
POINT
  5
210
330
201
100
AcDbEntity
  8
Defpoints
 62
     0
100
AcDbPoint
 10
4917.981148789845
 20
3018.491316204899
 30
0.0
  0
POINT
  5
211
330
201
100
AcDbEntity
  8
Defpoints
 62
     0
100
AcDbPoint
 10
4917.98117934925
 20
2989.025037343934
 30
0.0
  0
ENDBLK
  5
212
330
201
100
AcDbEntity
  8
0
100
AcDbBlockEnd
  0
BLOCK
  5
214
330
213
100
AcDbEntity
  8
0
100
AcDbBlockBegin
  2
*D43
 70
     1
 10
0.0
 20
0.0
 30
0.0
  3
*D43
  1

  0
LINE
  5
215
330
213
100
AcDbEntity
  8
cotas
100
AcDbLine
 10
6413.518217635424
 20
3026.525937029346
 30
0.0
 11
6441.299091593234
 21
3049.575718548257
 31
0.0
  0
MTEXT
  5
216
330
213
100
AcDbEntity
  8
cotas
100
AcDbMText
 10
6417.175355015584
 20
3042.554113180863
 30
0.0
 40
10.0
 41
0.0
 71
     5
 72
     1
  1
R7
  7
SANINDUSA
 11
0.7695948153148276
 21
0.6385325522168283
 31
0.0
 73
     1
 44
1.0
1001
ACAD
1000
MTEXTBEGIN
1070
    73
1070
     1
1070
    44
1040
1.0
1070
    74
1070
     0
1000
MTEXTEND
  0
SOLID
  5
217
330
213
100
AcDbEntity
  8
cotas
100
AcDbTrace
 10
6440.234870672873
 20
3050.858376573782
 30
0.0
 11
6442.363312513596
 21
3048.293060522733
 31
0.0
 12
6448.995039746382
 22
3055.961044070425
 32
0.0
 13
6448.995039746382
 23
3055.961044070425
 33
0.0
  0
POINT
  5
218
330
213
100
AcDbEntity
  8
Defpoints
 62
     0
100
AcDbPoint
 10
6448.995039746382
 20
3055.961044070425
 30
0.0
  0
POINT
  5
219
330
213
100
AcDbEntity
  8
Defpoints
 62
     0
100
AcDbPoint
 10
6443.607876039173
 20
3051.491316204904
 30
0.0
  0
ENDBLK
  5
21A
330
213
100
AcDbEntity
  8
0
100
AcDbBlockEnd
  0
BLOCK
  5
21C
330
21B
100
AcDbEntity
  8
0
100
AcDbBlockBegin
  2
*D44
 70
     1
 10
0.0
 20
0.0
 30
0.0
  3
*D44
  1

  0
LINE
  5
21D
330
21B
100
AcDbEntity
  8
cotas
100
AcDbLine
 10
6451.272221510304
 20
3013.492077729117
 30
0.0
 11
6451.870336122219
 21
2979.226114561746
 31
0.0
  0
ARC
  5
21E
330
21B
100
AcDbEntity
  8
cotas
100
AcDbCircle
 10
6450.486756880988
 20
3058.491316204899
 30
0.0
 40
74.27727595626868
100
AcDbArc
 50
187.7196071745741
 51
263.2803928254268
  0
SOLID
  5
21F
330
21B
100
AcDbEntity
  8
cotas
100
AcDbTrace
 10
6375.219748063075
 20
3048.401806472491
 30
0.0
 11
6378.545520563404
 21
3048.626190935331
 31
0.0
 12
6376.20948092472
 22
3058.491316204899
 32
0.0
 13
6376.20948092472
 23
3058.491316204899
 33
0.0
  0
SOLID
  5
220
330
21B
100
AcDbEntity
  8
cotas
100
AcDbTrace
 10
6441.878681813598
 20
2986.388866710301
 30
0.0
 11
6441.712374258994
 21
2983.059684692389
 31
0.0
 12
6451.783074090032
 22
2984.225353037528
 32
0.0
 13
6451.783074090032
 23
2984.225353037528
 33
0.0
  0
MTEXT
  5
221
330
21B
100
AcDbEntity
  8
cotas
100
AcDbMText
 10
6419.175286869695
 20
3002.583086646743
 30
0.0
 40
10.0
 41
0.0
 71
     5
 72
     1
  1
91°
  7
SANINDUSA
 11
0.8724869784155798
 21
-0.4886373629750918
 31
0.0
 73
     1
 44
1.0
1001
ACAD
1000
MTEXTBEGIN
1070
    73
1070
     1
1070
    44
1040
1.0
1070
    74
1070
     0
1000
MTEXTEND
  0
POINT
  5
222
330
21B
100
AcDbEntity
  8
Defpoints
 62
     0
100
AcDbPoint
 10
6386.377900195783
 20
3020.979075296104
 30
0.0
  0
POINT
  5
223
330
21B
100
AcDbEntity
  8
Defpoints
 62
     0
100
AcDbPoint
 10
6450.606809905274
 20
3051.61348304996
 30
0.0
  0
POINT
  5
224
330
21B
100
AcDbEntity
  8
Defpoints
 62
     0
100
AcDbPoint
 10
4857.3656377228
 20
3058.491316204899
 30
0.0
  0
POINT
  5
225
330
21B
100
AcDbEntity
  8
Defpoints
 62
     0
100
AcDbPoint
 10
6443.607876039179
 20
3058.491316204899
 30
0.0
  0
POINT
  5
226
330
21B
100
AcDbEntity
  8
Defpoints
 62
     0
100
AcDbPoint
 10
6451.184959478118
 20
3018.491316204899
 30
0.0
  0
ENDBLK
  5
227
330
21B
100
AcDbEntity
  8
0
100
AcDbBlockEnd
  0
BLOCK
  5
229
330
228
100
AcDbEntity
  8
0
100
AcDbBlockBegin
  2
*D45
 70
     1
 10
0.0
 20
0.0
 30
0.0
  3
*D45
  1

  0
LINE
  5
22A
330
228
100
AcDbEntity
  8
cotas
100
AcDbLine
 10
4850.486756880989
 20
3063.491316204899
 30
0.0
 11
4850.486756880989
 21
3093.482850829952
 31
0.0
  0
LINE
  5
22B
330
228
100
AcDbEntity
  8
cotas
100
AcDbLine
 10
6450.48675688099
 20
3063.491316204899
 30
0.0
 11
6450.48675688099
 21
3093.482850829952
 31
0.0
  0
LINE
  5
22C
330
228
100
AcDbEntity
  8
cotas
100
AcDbLine
 10
4860.486756880989
 20
3088.482850829952
 30
0.0
 11
6440.486756880989
 21
3088.482850829952
 31
0.0
  0
SOLID
  5
22D
330
228
100
AcDbEntity
  8
cotas
100
AcDbTrace
 10
4860.486756880989
 20
3090.149517496619
 30
0.0
 11
4860.486756880989
 21
3086.816184163286
 31
0.0
 12
4850.486756880989
 22
3088.482850829952
 32
0.0
 13
4850.486756880989
 23
3088.482850829952
 33
0.0
  0
SOLID
  5
22E
330
228
100
AcDbEntity
  8
cotas
100
AcDbTrace
 10
6440.486756880989
 20
3090.149517496619
 30
0.0
 11
6440.486756880989
 21
3086.816184163286
 31
0.0
 12
6450.48675688099
 22
3088.482850829952
 32
0.0
 13
6450.48675688099
 23
3088.482850829952
 33
0.0
  0
MTEXT
  5
22F
330
228
100
AcDbEntity
  8
cotas
100
AcDbMText
 10
5650.48675688099
 20
3098.687686289992
 30
0.0
 40
10.0
 41
0.0
 71
     5
 72
     1
  1
1600
  7
SANINDUSA
 73
     1
 44
1.0
1001
ACAD
1000
MTEXTBEGIN
1070
    73
1070
     1
1070
    44
1040
1.0
1070
    74
1070
     0
1000
MTEXTEND
  0
POINT
  5
230
330
228
100
AcDbEntity
  8
Defpoints
 62
     0
100
AcDbPoint
 10
4850.486756880989
 20
3058.491316204899
 30
0.0
  0
POINT
  5
231
330
228
100
AcDbEntity
  8
Defpoints
 62
     0
100
AcDbPoint
 10
6450.48675688099
 20
3058.491316204899
 30
0.0
  0
POINT
  5
232
330
228
100
AcDbEntity
  8
Defpoints
 62
     0
100
AcDbPoint
 10
6450.48675688099
 20
3088.482850829952
 30
0.0
  0
ENDBLK
  5
233
330
228
100
AcDbEntity
  8
0
100
AcDbBlockEnd
  0
BLOCK
  5
235
330
234
100
AcDbEntity
  8
0
100
AcDbBlockBegin
  2
*D46
 70
     1
 10
0.0
 20
0.0
 30
0.0
  3
*D46
  1

  0
LINE
  5
236
330
234
100
AcDbEntity
  8
cotas
100
AcDbLine
 10
6455.48675688099
 20
3058.491316204899
 30
0.0
 11
6491.202411884557
 21
3058.491316204899
 31
0.0
  0
LINE
  5
237
330
234
100
AcDbEntity
  8
cotas
100
AcDbLine
 10
6327.182525143337
 20
2926.546338504652
 30
0.0
 11
6491.202411884557
 21
2926.546338504652
 31
0.0
  0
LINE
  5
238
330
234
100
AcDbEntity
  8
cotas
100
AcDbLine
 10
6486.202411884557
 20
3048.491316204899
 30
0.0
 11
6486.202411884557
 21
2936.546338504652
 31
0.0
  0
SOLID
  5
239
330
234
100
AcDbEntity
  8
cotas
100
AcDbTrace
 10
6484.53574521789
 20
3048.491316204899
 30
0.0
 11
6487.869078551224
 21
3048.491316204899
 31
0.0
 12
6486.202411884557
 22
3058.491316204899
 32
0.0
 13
6486.202411884557
 23
3058.491316204899
 33
0.0
  0
SOLID
  5
23A
330
234
100
AcDbEntity
  8
cotas
100
AcDbTrace
 10
6484.53574521789
 20
2936.546338504652
 30
0.0
 11
6487.869078551224
 21
2936.546338504652
 31
0.0
 12
6486.202411884557
 22
2926.546338504652
 32
0.0
 13
6486.202411884557
 23
2926.546338504652
 33
0.0
  0
MTEXT
  5
23B
330
234
100
AcDbEntity
  8
cotas
100
AcDbMText
 10
6474.855870581667
 20
2992.518827354776
 30
0.0
 40
10.0
 41
0.0
 71
     5
 72
     1
  1
131,9
  7
SANINDUSA
 11
0.0000000000000001
 21
1.0
 31
0.0
 73
     1
 44
1.0
1001
ACAD
1000
MTEXTBEGIN
1070
    73
1070
     1
1070
    44
1040
1.0
1070
    74
1070
     0
1000
MTEXTEND
  0
POINT
  5
23C
330
234
100
AcDbEntity
  8
Defpoints
 62
     0
100
AcDbPoint
 10
6450.48675688099
 20
3058.491316204899
 30
0.0
  0
POINT
  5
23D
330
234
100
AcDbEntity
  8
Defpoints
 62
     0
100
AcDbPoint
 10
6322.182525143336
 20
2926.546338504652
 30
0.0
  0
POINT
  5
23E
330
234
100
AcDbEntity
  8
Defpoints
 62
     0
100
AcDbPoint
 10
6486.202411884557
 20
2926.546338504652
 30
0.0
  0
ENDBLK
  5
23F
330
234
100
AcDbEntity
  8
0
100
AcDbBlockEnd
  0
BLOCK
  5
241
330
240
100
AcDbEntity
  8
0
100
AcDbBlockBegin
  2
*D47
 70
     1
 10
0.0
 20
0.0
 30
0.0
  3
*D47
  1

  0
LINE
  5
242
330
240
100
AcDbEntity
  8
cotas
100
AcDbLine
 10
6455.486753720546
 20
3621.041564836029
 30
0.0
 11
6481.184959478118
 21
3621.041564836029
 31
0.0
  0
LINE
  5
243
330
240
100
AcDbEntity
  8
cotas
100
AcDbLine
 10
6381.922253957743
 20
3518.968111007613
 30
0.0
 11
6481.184959478118
 21
3518.968111007613
 31
0.0
  0
LINE
  5
244
330
240
100
AcDbEntity
  8
cotas
100
AcDbLine
 10
6476.184959478118
 20
3611.041564836029
 30
0.0
 11
6476.184959478118
 21
3528.968111007613
 31
0.0
  0
SOLID
  5
245
330
240
100
AcDbEntity
  8
cotas
100
AcDbTrace
 10
6474.518292811452
 20
3611.041564836029
 30
0.0
 11
6477.851626144785
 21
3611.041564836029
 31
0.0
 12
6476.184959478118
 22
3621.041564836029
 32
0.0
 13
6476.184959478118
 23
3621.041564836029
 33
0.0
  0
SOLID
  5
246
330
240
100
AcDbEntity
  8
cotas
100
AcDbTrace
 10
6474.518292811452
 20
3528.968111007613
 30
0.0
 11
6477.851626144785
 21
3528.968111007613
 31
0.0
 12
6476.184959478118
 22
3518.968111007613
 32
0.0
 13
6476.184959478118
 23
3518.968111007613
 33
0.0
  0
MTEXT
  5
247
330
240
100
AcDbEntity
  8
cotas
100
AcDbMText
 10
6464.838418175229
 20
3570.004837921822
 30
0.0
 40
10.0
 41
0.0
 71
     5
 72
     1
  1
102,1
  7
SANINDUSA
 11
0.0000000000000001
 21
1.0
 31
0.0
 73
     1
 44
1.0
1001
ACAD
1000
MTEXTBEGIN
1070
    73
1070
     1
1070
    44
1040
1.0
1070
    74
1070
     0
1000
MTEXTEND
  0
POINT
  5
248
330
240
100
AcDbEntity
  8
Defpoints
 62
     0
100
AcDbPoint
 10
6450.486753720544
 20
3621.041564836029
 30
0.0
  0
POINT
  5
249
330
240
100
AcDbEntity
  8
Defpoints
 62
     0
100
AcDbPoint
 10
6376.922253957742
 20
3518.968111007613
 30
0.0
  0
POINT
  5
24A
330
240
100
AcDbEntity
  8
Defpoints
 62
     0
100
AcDbPoint
 10
6476.184959478118
 20
3518.968111007613
 30
0.0
  0
ENDBLK
  5
24B
330
240
100
AcDbEntity
  8
0
100
AcDbBlockEnd
  0
BLOCK
  5
24D
330
24C
100
AcDbEntity
  8
0
100
AcDbBlockBegin
  2
*D48
 70
     1
 10
0.0
 20
0.0
 30
0.0
  3
*D48
  1

  0
LINE
  5
24E
330
24C
100
AcDbEntity
  8
cotas
100
AcDbLine
 10
6455.486753720546
 20
3621.041564836029
 30
0.0
 11
6506.184959478118
 21
3621.041564836029
 31
0.0
  0
LINE
  5
24F
330
24C
100
AcDbEntity
  8
cotas
100
AcDbLine
 10
6351.672864026763
 20
3514.345211127258
 30
0.0
 11
6506.184959478118
 21
3514.345211127258
 31
0.0
  0
LINE
  5
250
330
24C
100
AcDbEntity
  8
cotas
100
AcDbLine
 10
6501.184959478118
 20
3611.041564836029
 30
0.0
 11
6501.184959478118
 21
3524.345211127258
 31
0.0
  0
SOLID
  5
251
330
24C
100
AcDbEntity
  8
cotas
100
AcDbTrace
 10
6499.518292811451
 20
3611.041564836029
 30
0.0
 11
6502.851626144785
 21
3611.041564836029
 31
0.0
 12
6501.184959478118
 22
3621.041564836029
 32
0.0
 13
6501.184959478118
 23
3621.041564836029
 33
0.0
  0
SOLID
  5
252
330
24C
100
AcDbEntity
  8
cotas
100
AcDbTrace
 10
6499.518292811451
 20
3524.345211127258
 30
0.0
 11
6502.851626144785
 21
3524.345211127258
 31
0.0
 12
6501.184959478118
 22
3514.345211127258
 32
0.0
 13
6501.184959478118
 23
3514.345211127258
 33
0.0
  0
MTEXT
  5
253
330
24C
100
AcDbEntity
  8
cotas
100
AcDbMText
 10
6489.841776133591
 20
3567.693387981645
 30
0.0
 40
10.0
 41
0.0
 71
     5
 72
     1
  1
106,7
  7
SANINDUSA
 11
0.0000000000000001
 21
1.0
 31
0.0
 73
     1
 44
1.0
1001
ACAD
1000
MTEXTBEGIN
1070
    73
1070
     1
1070
    44
1040
1.0
1070
    74
1070
     0
1000
MTEXTEND
  0
POINT
  5
254
330
24C
100
AcDbEntity
  8
Defpoints
 62
     0
100
AcDbPoint
 10
6450.486753720544
 20
3621.041564836029
 30
0.0
  0
POINT
  5
255
330
24C
100
AcDbEntity
  8
Defpoints
 62
     0
100
AcDbPoint
 10
6346.672864026763
 20
3514.345211127258
 30
0.0
  0
POINT
  5
256
330
24C
100
AcDbEntity
  8
Defpoints
 62
     0
100
AcDbPoint
 10
6501.184959478118
 20
3514.345211127258
 30
0.0
  0
ENDBLK
  5
257
330
24C
100
AcDbEntity
  8
0
100
AcDbBlockEnd
  0
BLOCK
  5
259
330
258
100
AcDbEntity
  8
0
100
AcDbBlockBegin
  2
*D49
 70
     1
 10
0.0
 20
0.0
 30
0.0
  3
*D49
  1

  0
LINE
  5
25A
330
258
100
AcDbEntity
  8
cotas
100
AcDbLine
 10
6330.446586095977
 20
3556.26425040758
 30
0.0
 11
6365.949060143115
 21
3528.870910321117
 31
0.0
  0
MTEXT
  5
25B
330
258
100
AcDbEntity
  8
cotas
100
AcDbMText
 10
6350.358310585602
 20
3553.552496005457
 30
0.0
 40
10.0
 41
0.0
 71
     5
 72
     1
  1
R17
  7
SANINDUSA
 11
0.7917205909268529
 21
-0.6108833815896738
 31
0.0
 73
     1
 44
1.0
1001
ACAD
1000
MTEXTBEGIN
1070
    73
1070
     1
1070
    44
1040
1.0
1070
    74
1070
     0
1000
MTEXTEND
  0
SOLID
  5
25C
330
258
100
AcDbEntity
  8
cotas
100
AcDbTrace
 10
6366.96719911243
 20
3530.190444639329
 30
0.0
 11
6364.930921173798
 21
3527.551376002906
 31
0.0
 12
6373.866266052382
 22
3522.762076505221
 32
0.0
 13
6373.866266052382
 23
3522.762076505221
 33
0.0
  0
POINT
  5
25D
330
258
100
AcDbEntity
  8
Defpoints
 62
     0
100
AcDbPoint
 10
6373.866266052382
 20
3522.762076505221
 30
0.0
  0
POINT
  5
25E
330
258
100
AcDbEntity
  8
Defpoints
 62
     0
100
AcDbPoint
 10
6360.406951556557
 20
3533.147143721249
 30
0.0
  0
ENDBLK
  5
25F
330
258
100
AcDbEntity
  8
0
100
AcDbBlockEnd
  0
BLOCK
  5
261
330
260
100
AcDbEntity
  8
0
100
AcDbBlockBegin
  2
*D50
 70
     1
 10
0.0
 20
0.0
 30
0.0
  3
*D50
  1

  0
LINE
  5
262
330
260
100
AcDbEntity
  8
cotas
100
AcDbLine
 10
5501.935190360287
 20
2192.818639342757
 30
0.0
 11
5469.584888469363
 21
2192.818639342757
 31
0.0
  0
LINE
  5
263
330
260
100
AcDbEntity
  8
cotas
100
AcDbLine
 10
5507.052077748486
 20
2272.699730923853
 30
0.0
 11
5469.584888469363
 21
2272.699730923853
 31
0.0
  0
LINE
  5
264
330
260
100
AcDbEntity
  8
cotas
100
AcDbLine
 10
5474.584888469362
 20
2202.818639342757
 30
0.0
 11
5474.584888469362
 21
2262.699730923853
 31
0.0
  0
SOLID
  5
265
330
260
100
AcDbEntity
  8
cotas
100
AcDbTrace
 10
5472.918221802696
 20
2202.818639342757
 30
0.0
 11
5476.25155513603
 21
2202.818639342757
 31
0.0
 12
5474.584888469362
 22
2192.818639342757
 32
0.0
 13
5474.584888469362
 23
2192.818639342757
 33
0.0
  0
SOLID
  5
266
330
260
100
AcDbEntity
  8
cotas
100
AcDbTrace
 10
5472.918221802696
 20
2262.699730923853
 30
0.0
 11
5476.25155513603
 21
2262.699730923853
 31
0.0
 12
5474.584888469362
 22
2272.699730923853
 32
0.0
 13
5474.584888469362
 23
2272.699730923853
 33
0.0
  0
MTEXT
  5
267
330
260
100
AcDbEntity
  8
cotas
100
AcDbMText
 10
5463.241705124835
 20
2232.759185133306
 30
0.0
 40
10.0
 41
0.0
 71
     5
 72
     1
  1
79,9
  7
SANINDUSA
 11
0.0000000000000001
 21
1.0
 31
0.0
 73
     1
 44
1.0
1001
ACAD
1000
MTEXTBEGIN
1070
    73
1070
     1
1070
    44
1040
1.0
1070
    74
1070
     0
1000
MTEXTEND
  0
POINT
  5
268
330
260
100
AcDbEntity
  8
Defpoints
 62
     0
100
AcDbPoint
 10
5506.935190360287
 20
2192.818639342757
 30
0.0
  0
POINT
  5
269
330
260
100
AcDbEntity
  8
Defpoints
 62
     0
100
AcDbPoint
 10
5512.052077748486
 20
2272.699730923853
 30
0.0
  0
POINT
  5
26A
330
260
100
AcDbEntity
  8
Defpoints
 62
     0
100
AcDbPoint
 10
5474.584888469362
 20
2272.699730923853
 30
0.0
  0
ENDBLK
  5
26B
330
260
100
AcDbEntity
  8
0
100
AcDbBlockEnd
  0
BLOCK
  5
26D
330
26C
100
AcDbEntity
  8
0
100
AcDbBlockBegin
  2
*D51
 70
     1
 10
0.0
 20
0.0
 30
0.0
  3
*D51
  1

  0
LINE
  5
26E
330
26C
100
AcDbEntity
  8
cotas
100
AcDbLine
 10
5502.031853276355
 20
2272.785295362806
 30
0.0
 11
5469.584888469363
 21
2272.785295362806
 31
0.0
  0
LINE
  5
26F
330
26C
100
AcDbEntity
  8
cotas
100
AcDbLine
 10
5525.220647044533
 20
2433.515577885994
 30
0.0
 11
5469.584888469363
 21
2433.515577885994
 31
0.0
  0
LINE
  5
270
330
26C
100
AcDbEntity
  8
cotas
100
AcDbLine
 10
5474.584888469363
 20
2282.785295362806
 30
0.0
 11
5474.584888469363
 21
2423.515577885993
 31
0.0
  0
SOLID
  5
271
330
26C
100
AcDbEntity
  8
cotas
100
AcDbTrace
 10
5472.918221802697
 20
2282.785295362806
 30
0.0
 11
5476.25155513603
 21
2282.785295362806
 31
0.0
 12
5474.584888469363
 22
2272.785295362806
 32
0.0
 13
5474.584888469363
 23
2272.785295362806
 33
0.0
  0
SOLID
  5
272
330
26C
100
AcDbEntity
  8
cotas
100
AcDbTrace
 10
5472.918221802697
 20
2423.515577885993
 30
0.0
 11
5476.25155513603
 21
2423.515577885993
 31
0.0
 12
5474.584888469363
 22
2433.515577885994
 32
0.0
 13
5474.584888469363
 23
2433.515577885994
 33
0.0
  0
MTEXT
  5
273
330
26C
100
AcDbEntity
  8
cotas
100
AcDbMText
 10
5463.241705124836
 20
2316.993403965494
 30
0.0
 40
10.0
 41
0.0
 71
     5
 72
     1
  1
160,7
  7
SANINDUSA
 11
0.0000000000000001
 21
1.0
 31
0.0
 73
     1
 44
1.0
1001
ACAD
1000
MTEXTBEGIN
1070
    73
1070
     1
1070
    44
1040
1.0
1070
    74
1070
     0
1000
MTEXTEND
  0
POINT
  5
274
330
26C
100
AcDbEntity
  8
Defpoints
 62
     0
100
AcDbPoint
 10
5507.031853276355
 20
2272.785295362806
 30
0.0
  0
POINT
  5
275
330
26C
100
AcDbEntity
  8
Defpoints
 62
     0
100
AcDbPoint
 10
5530.220647044533
 20
2433.515577885994
 30
0.0
  0
POINT
  5
276
330
26C
100
AcDbEntity
  8
Defpoints
 62
     0
100
AcDbPoint
 10
5474.584888469363
 20
2433.515577885994
 30
0.0
  0
ENDBLK
  5
277
330
26C
100
AcDbEntity
  8
0
100
AcDbBlockEnd
  0
BLOCK
  5
279
330
278
100
AcDbEntity
  8
0
100
AcDbBlockBegin
  2
*D52
 70
     1
 10
0.0
 20
0.0
 30
0.0
  3
*D52
  1

  0
LINE
  5
27A
330
278
100
AcDbEntity
  8
cotas
100
AcDbLine
 10
5362.01346746064
 20
2278.745506139673
 30
0.0
 11
5398.253108369644
 21
2315.191779667438
 31
0.0
  0
MTEXT
  5
27B
330
278
100
AcDbEntity
  8
cotas
100
AcDbMText
 10
5367.046369194572
 20
2298.280123815311
 30
0.0
 40
10.0
 41
0.0
 71
     5
 72
     1
  1
R10
  7
SANINDUSA
 11
0.7050937581798549
 21
0.7091140896751442
 31
0.0
 73
     1
 44
1.0
1001
ACAD
1000
MTEXTBEGIN
1070
    73
1070
     1
1070
    44
1040
1.0
1070
    74
1070
     0
1000
MTEXTEND
  0
SOLID
  5
27C
330
278
100
AcDbEntity
  8
cotas
100
AcDbTrace
 10
5397.071251553519
 20
2316.366935931071
 30
0.0
 11
5399.434965185769
 21
2314.016623403805
 31
0.0
 12
5405.304045951443
 22
2322.282920564189
 32
0.0
 13
5405.304045951443
 23
2322.282920564189
 33
0.0
  0
POINT
  5
27D
330
278
100
AcDbEntity
  8
Defpoints
 62
     0
100
AcDbPoint
 10
5405.304045951443
 20
2322.282920564189
 30
0.0
  0
POINT
  5
27E
330
278
100
AcDbEntity
  8
Defpoints
 62
     0
100
AcDbPoint
 10
5398.149670382498
 20
2315.087751893484
 30
0.0
  0
ENDBLK
  5
27F
330
278
100
AcDbEntity
  8
0
100
AcDbBlockEnd
  0
BLOCK
  5
281
330
280
100
AcDbEntity
  8
0
100
AcDbBlockBegin
  2
*D53
 70
     1
 10
0.0
 20
0.0
 30
0.0
  3
*D53
  1

  0
LINE
  5
282
330
280
100
AcDbEntity
  8
cotas
100
AcDbLine
 10
5006.372558229732
 20
2280.399587440296
 30
0.0
 11
4968.495541043492
 21
2315.627431971703
 31
0.0
  0
MTEXT
  5
283
330
280
100
AcDbEntity
  8
cotas
100
AcDbMText
 10
5000.580571711207
 20
2299.722741421104
 30
0.0
 40
10.0
 41
0.0
 71
     5
 72
     1
  1
R10
  7
SANINDUSA
 11
0.7322502693024405
 21
-0.6810356401147472
 31
0.0
 73
     1
 44
1.0
1001
ACAD
1000
MTEXTBEGIN
1070
    73
1070
     1
1070
    44
1040
1.0
1070
    74
1070
     0
1000
MTEXTEND
  0
SOLID
  5
284
330
280
100
AcDbEntity
  8
cotas
100
AcDbTrace
 10
4969.630600443684
 20
2316.847849087208
 30
0.0
 11
4967.3604816433
 21
2314.4070148562
 31
0.0
 12
4961.173038350467
 22
2322.437788372851
 32
0.0
 13
4961.173038350467
 23
2322.437788372851
 33
0.0
  0
POINT
  5
285
330
280
100
AcDbEntity
  8
Defpoints
 62
     0
100
AcDbPoint
 10
4961.173038350467
 20
2322.437788372851
 30
0.0
  0
POINT
  5
286
330
280
100
AcDbEntity
  8
Defpoints
 62
     0
100
AcDbPoint
 10
4969.145607890273
 20
2315.022831728215
 30
0.0
  0
ENDBLK
  5
287
330
280
100
AcDbEntity
  8
0
100
AcDbBlockEnd
  0
BLOCK
  5
289
330
288
100
AcDbEntity
  8
0
100
AcDbBlockBegin
  2
*D54
 70
     1
 10
0.0
 20
0.0
 30
0.0
  3
*D54
  1

  0
LINE
  5
28A
330
288
100
AcDbEntity
  8
cotas
100
AcDbLine
 10
5356.417970927259
 20
1780.297515344045
 30
0.0
 11
5398.26852079479
 21
1750.461733084158
 31
0.0
  0
MTEXT
  5
28B
330
288
100
AcDbEntity
  8
cotas
100
AcDbMText
 10
5376.510777127529
 20
1778.505721104968
 30
0.0
 40
10.0
 41
0.0
 71
     5
 72
     1
  1
R10
  7
SANINDUSA
 11
0.8142619724650723
 21
-0.5804975798375819
 31
0.0
 73
     1
 44
1.0
1001
ACAD
1000
MTEXTBEGIN
1070
    73
1070
     1
1070
    44
1040
1.0
1070
    74
1070
     0
1000
MTEXTEND
  0
SOLID
  5
28C
330
288
100
AcDbEntity
  8
cotas
100
AcDbTrace
 10
5399.236016761186
 20
1751.8188363716
 30
0.0
 11
5397.301024828394
 21
1749.104629796716
 31
0.0
 12
5406.41114051944
 22
1744.656757285782
 32
0.0
 13
5406.41114051944
 23
1744.656757285782
 33
0.0
  0
POINT
  5
28D
330
288
100
AcDbEntity
  8
Defpoints
 62
     0
100
AcDbPoint
 10
5406.41114051944
 20
1744.656757285782
 30
0.0
  0
POINT
  5
28E
330
288
100
AcDbEntity
  8
Defpoints
 62
     0
100
AcDbPoint
 10
5398.149822584414
 20
1750.546354528097
 30
0.0
  0
ENDBLK
  5
28F
330
288
100
AcDbEntity
  8
0
100
AcDbBlockEnd
  0
BLOCK
  5
291
330
290
100
AcDbEntity
  8
0
100
AcDbBlockBegin
  2
*D55
 70
     1
 10
0.0
 20
0.0
 30
0.0
  3
*D55
  1

  0
LINE
  5
292
330
290
100
AcDbEntity
  8
cotas
100
AcDbLine
 10
5381.504782513808
 20
3490.642392714361
 30
0.0
 11
5408.927118399422
 21
3526.122475001987
 31
0.0
  0
MTEXT
  5
293
330
290
100
AcDbEntity
  8
cotas
100
AcDbMText
 10
5384.232803564471
 20
3510.551895099788
 30
0.0
 40
10.0
 41
0.0
 71
     5
 72
     1
  1
R17
  7
SANINDUSA
 11
0.6115300005044105
 21
0.7912212449644383
 31
0.0
 73
     1
 44
1.0
1001
ACAD
1000
MTEXTBEGIN
1070
    73
1070
     1
1070
    44
1040
1.0
1070
    74
1070
     0
1000
MTEXTEND
  0
LINE
  5
294
330
290
100
AcDbEntity
  8
cotas
100
AcDbLine
 10
5425.438430391741
 20
3547.485451176147
 30
0.0
 11
5415.042418404465
 21
3534.034687451631
 31
0.0
  0
SOLID
  5
295
330
290
100
AcDbEntity
  8
cotas
100
AcDbTrace
 10
5407.608416324481
 20
3527.141691669494
 30
0.0
 11
5410.245820474361
 21
3525.10325833448
 31
0.0
 12
5415.042418404465
 22
3534.034687451631
 32
0.0
 13
5415.042418404465
 23
3534.034687451631
 33
0.0
  0
POINT
  5
296
330
290
100
AcDbEntity
  8
Defpoints
 62
     0
100
AcDbPoint
 10
5415.042418404465
 20
3534.034687451631
 30
0.0
  0
POINT
  5
297
330
290
100
AcDbEntity
  8
Defpoints
 62
     0
100
AcDbPoint
 10
5425.438430391741
 20
3547.485451176147
 30
0.0
  0
ENDBLK
  5
298
330
290
100
AcDbEntity
  8
0
100
AcDbBlockEnd
  0
BLOCK
  5
29A
330
299
100
AcDbEntity
  8
0
100
AcDbBlockBegin
  2
*D56
 70
     1
 10
0.0
 20
0.0
 30
0.0
  3
*D56
  1

  0
LINE
  5
29B
330
299
100
AcDbEntity
  8
cotas
100
AcDbLine
 10
5442.282061948084
 20
3580.583620776844
 30
0.0
 11
5414.525228983531
 21
3557.504894431859
 31
0.0
  0
MTEXT
  5
29C
330
299
100
AcDbEntity
  8
cotas
100
AcDbMText
 10
5425.854945673143
 20
3579.93021779934
 30
0.0
 40
10.0
 41
0.0
 71
     5
 72
     1
  1
R7
  7
SANINDUSA
 11
0.7689288238924572
 21
0.6393343912127382
 31
0.0
 73
     1
 44
1.0
1001
ACAD
1000
MTEXTBEGIN
1070
    73
1070
     1
1070
    44
1040
1.0
1070
    74
1070
     0
1000
MTEXTEND
  0
LINE
  5
29D
330
299
100
AcDbEntity
  8
cotas
100
AcDbLine
 10
5401.453438977363
 20
3546.636209781246
 30
0.0
 11
5406.835940744606
 21
3551.111550519732
 31
0.0
  0
SOLID
  5
29E
330
299
100
AcDbEntity
  8
cotas
100
AcDbTrace
 10
5413.459671664843
 20
3558.78644247168
 30
0.0
 11
5415.590786302218
 21
3556.223346392038
 31
0.0
 12
5406.835940744606
 22
3551.111550519732
 32
0.0
 13
5406.835940744606
 23
3551.111550519732
 33
0.0
  0
POINT
  5
29F
330
299
100
AcDbEntity
  8
Defpoints
 62
     0
100
AcDbPoint
 10
5406.835940744606
 20
3551.111550519732
 30
0.0
  0
POINT
  5
2A0
330
299
100
AcDbEntity
  8
Defpoints
 62
     0
100
AcDbPoint
 10
5401.453438977363
 20
3546.636209781246
 30
0.0
  0
ENDBLK
  5
2A1
330
299
100
AcDbEntity
  8
0
100
AcDbBlockEnd
  0
BLOCK
  5
2A3
330
2A2
100
AcDbEntity
  8
0
100
AcDbBlockBegin
  2
*D57
 70
     1
 10
0.0
 20
0.0
 30
0.0
  3
*D57
  1

  0
LINE
  5
2A4
330
2A2
100
AcDbEntity
  8
cotas
100
AcDbLine
 10
4994.293436241179
 20
3523.621926716447
 30
0.0
 11
4966.120462148838
 21
3552.137670435559
 31
0.0
  0
MTEXT
  5
2A5
330
2A2
100
AcDbEntity
  8
cotas
100
AcDbMText
 10
4992.236033725378
 20
3539.932787498436
 30
0.0
 40
10.0
 41
0.0
 71
     5
 72
     1
  1
R7
  7
SANINDUSA
 11
0.7028183963299303
 21
-0.7113693146180999
 31
0.0
 73
     1
 44
1.0
1001
ACAD
1000
MTEXTBEGIN
1070
    73
1070
     1
1070
    44
1040
1.0
1070
    74
1070
     0
1000
MTEXTEND
  0
SOLID
  5
2A6
330
2A2
100
AcDbEntity
  8
cotas
100
AcDbTrace
 10
4967.306077673202
 20
3553.309034429442
 30
0.0
 11
4964.934846624474
 21
3550.966306441676
 31
0.0
 12
4959.092278185538
 22
3559.25136358174
 32
0.0
 13
4959.092278185538
 23
3559.25136358174
 33
0.0
  0
POINT
  5
2A7
330
2A2
100
AcDbEntity
  8
Defpoints
 62
     0
100
AcDbPoint
 10
4959.092278185538
 20
3559.25136358174
 30
0.0
  0
POINT
  5
2A8
330
2A2
100
AcDbEntity
  8
Defpoints
 62
     0
100
AcDbPoint
 10
4964.012006959845
 20
3554.271778379416
 30
0.0
  0
ENDBLK
  5
2A9
330
2A2
100
AcDbEntity
  8
0
100
AcDbBlockEnd
  0
BLOCK
  5
2AB
330
2AA
100
AcDbEntity
  8
0
100
AcDbBlockBegin
  2
*D58
 70
     1
 10
0.0
 20
0.0
 30
0.0
  3
*D58
  1

  0
LINE
  5
2AC
330
2AA
100
AcDbEntity
  8
cotas
100
AcDbLine
 10
4968.360878310439
 20
3499.811414421883
 30
0.0
 11
4954.729694440047
 21
3542.489269554802
 31
0.0
  0
MTEXT
  5
2AD
330
2AA
100
AcDbEntity
  8
cotas
100
AcDbMText
 10
4972.78759146683
 20
3519.492257854719
 30
0.0
 40
10.0
 41
0.0
 71
     5
 72
     1
  1
R10
  7
SANINDUSA
 11
0.3042547261732118
 21
-0.9525907104319587
 31
0.0
 73
     1
 44
1.0
1001
ACAD
1000
MTEXTBEGIN
1070
    73
1070
     1
1070
    44
1040
1.0
1070
    74
1070
     0
1000
MTEXTEND
  0
LINE
  5
2AE
330
2AA
100
AcDbEntity
  8
cotas
100
AcDbLine
 10
4948.644599916582
 20
3561.541083763442
 30
0.0
 11
4951.687147178314
 21
3552.015176659121
 31
0.0
  0
SOLID
  5
2AF
330
2AA
100
AcDbEntity
  8
cotas
100
AcDbTrace
 10
4956.3173456241
 20
3542.99636076509
 30
0.0
 11
4953.142043255994
 21
3541.982178344512
 31
0.0
 12
4951.687147178314
 22
3552.015176659121
 32
0.0
 13
4951.687147178314
 23
3552.015176659121
 33
0.0
  0
POINT
  5
2B0
330
2AA
100
AcDbEntity
  8
Defpoints
 62
     0
100
AcDbPoint
 10
4951.687147178314
 20
3552.015176659121
 30
0.0
  0
POINT
  5
2B1
330
2AA
100
AcDbEntity
  8
Defpoints
 62
     0
100
AcDbPoint
 10
4948.644599916582
 20
3561.541083763442
 30
0.0
  0
ENDBLK
  5
2B2
330
2AA
100
AcDbEntity
  8
0
100
AcDbBlockEnd
  0
BLOCK
  5
2B4
330
2B3
100
AcDbEntity
  8
0
100
AcDbBlockBegin
  2
*D59
 70
     1
 10
0.0
 20
0.0
 30
0.0
  3
*D59
  1

  0
LINE
  5
2B5
330
2B3
100
AcDbEntity
  8
cotas
100
AcDbLine
 10
5408.282737874181
 20
3558.518909356472
 30
0.0
 11
5408.737728004118
 21
3584.585333243744
 31
0.0
  0
LINE
  5
2B6
330
2B3
100
AcDbEntity
  8
cotas
100
AcDbLine
 10
4958.393189308149
 20
3566.371743525226
 30
0.0
 11
4958.848179438086
 21
3592.438167412499
 31
0.0
  0
LINE
  5
2B7
330
2B3
100
AcDbEntity
  8
cotas
100
AcDbLine
 10
5398.651989203824
 20
3579.760618448831
 30
0.0
 11
4968.759394554194
 21
3587.264405249211
 31
0.0
  0
SOLID
  5
2B8
330
2B3
100
AcDbEntity
  8
cotas
100
AcDbTrace
 10
5398.681076484522
 20
3581.427031275197
 30
0.0
 11
5398.622901923125
 21
3578.094205622465
 31
0.0
 12
5408.650466162025
 22
3579.586094764644
 32
0.0
 13
5408.650466162025
 23
3579.586094764644
 33
0.0
  0
SOLID
  5
2B9
330
2B3
100
AcDbEntity
  8
cotas
100
AcDbTrace
 10
4968.788481834891
 20
3588.930818075578
 30
0.0
 11
4968.730307273495
 21
3585.597992422845
 31
0.0
 12
4958.760917595992
 22
3587.438928933398
 32
0.0
 13
4958.760917595992
 23
3587.438928933398
 33
0.0
  0
MTEXT
  5
2BA
330
2B3
100
AcDbEntity
  8
cotas
100
AcDbMText
 10
5183.88379042711
 20
3593.715793069965
 30
0.0
 40
10.0
 41
0.0
 71
     5
 72
     1
  1
450
  7
SANINDUSA
 11
0.9998476958200079
 21
-0.0174523684186741
 31
0.0
 73
     1
 44
1.0
1001
ACAD
1000
MTEXTBEGIN
1070
    73
1070
     1
1070
    44
1040
1.0
1070
    74
1070
     0
1000
MTEXTEND
  0
POINT
  5
2BB
330
2B3
100
AcDbEntity
  8
Defpoints
 62
     0
100
AcDbPoint
 10
5408.195476032087
 20
3553.519670877372
 30
0.0
  0
POINT
  5
2BC
330
2B3
100
AcDbEntity
  8
Defpoints
 62
     0
100
AcDbPoint
 10
4958.305927466056
 20
3561.372505046126
 30
0.0
  0
POINT
  5
2BD
330
2B3
100
AcDbEntity
  8
Defpoints
 62
     0
100
AcDbPoint
 10
4958.760917595992
 20
3587.438928933398
 30
0.0
  0
ENDBLK
  5
2BE
330
2B3
100
AcDbEntity
  8
0
100
AcDbBlockEnd
  0
BLOCK
  5
2C0
330
2BF
100
AcDbEntity
  8
0
100
AcDbBlockBegin
  2
*D60
 70
     1
 10
0.0
 20
0.0
 30
0.0
  3
*D60
  1

  0
LINE
  5
2C1
330
2BF
100
AcDbEntity
  8
cotas
100
AcDbLine
 10
4850.486028628012
 20
3620.954306971139
 30
0.0
 11
4824.169875445558
 21
3620.954306971139
 31
0.0
  0
LINE
  5
2C2
330
2BF
100
AcDbEntity
  8
cotas
100
AcDbLine
 10
4953.683938692305
 20
3561.365847871937
 30
0.0
 11
4824.169875445558
 21
3561.365847871937
 31
0.0
  0
LINE
  5
2C3
330
2BF
100
AcDbEntity
  8
cotas
100
AcDbLine
 10
4829.169875445558
 20
3610.95430697114
 30
0.0
 11
4829.169875445558
 21
3571.365847871938
 31
0.0
  0
SOLID
  5
2C4
330
2BF
100
AcDbEntity
  8
cotas
100
AcDbTrace
 10
4827.503208778891
 20
3610.95430697114
 30
0.0
 11
4830.836542112225
 21
3610.95430697114
 31
0.0
 12
4829.169875445558
 22
3620.954306971139
 32
0.0
 13
4829.169875445558
 23
3620.954306971139
 33
0.0
  0
SOLID
  5
2C5
330
2BF
100
AcDbEntity
  8
cotas
100
AcDbTrace
 10
4827.503208778891
 20
3571.365847871938
 30
0.0
 11
4830.836542112225
 21
3571.365847871938
 31
0.0
 12
4829.169875445558
 22
3561.365847871937
 32
0.0
 13
4829.169875445558
 23
3561.365847871937
 33
0.0
  0
MTEXT
  5
2C6
330
2BF
100
AcDbEntity
  8
cotas
100
AcDbMText
 10
4817.826692101029
 20
3591.160077421539
 30
0.0
 40
10.0
 41
0.0
 71
     5
 72
     1
  1
59,6
  7
SANINDUSA
 11
0.0000000000000001
 21
1.0
 31
0.0
 73
     1
 44
1.0
1001
ACAD
1000
MTEXTBEGIN
1070
    73
1070
     1
1070
    44
1040
1.0
1070
    74
1070
     0
1000
MTEXTEND
  0
POINT
  5
2C7
330
2BF
100
AcDbEntity
  8
Defpoints
 62
     0
100
AcDbPoint
 10
4855.486028628011
 20
3620.954306971139
 30
0.0
  0
POINT
  5
2C8
330
2BF
100
AcDbEntity
  8
Defpoints
 62
     0
100
AcDbPoint
 10
4958.683938692306
 20
3561.365847871937
 30
0.0
  0
POINT
  5
2C9
330
2BF
100
AcDbEntity
  8
Defpoints
 62
     0
100
AcDbPoint
 10
4829.169875445558
 20
3561.365847871937
 30
0.0
  0
ENDBLK
  5
2CA
330
2BF
100
AcDbEntity
  8
0
100
AcDbBlockEnd
  0
BLOCK
  5
2CC
330
2CB
100
AcDbEntity
  8
0
100
AcDbBlockBegin
  2
*D61
 70
     1
 10
0.0
 20
0.0
 30
0.0
  3
*D61
  1

  0
LINE
  5
2CD
330
2CB
100
AcDbEntity
  8
cotas
100
AcDbLine
 10
5650.486032387464
 20
3620.954306971131
 30
0.0
 11
5466.516782656397
 21
3620.954306971131
 31
0.0
  0
LINE
  5
2CE
330
2CB
100
AcDbEntity
  8
cotas
100
AcDbLine
 10
5413.573487258338
 20
3553.513013703183
 30
0.0
 11
5476.516782656397
 21
3553.513013703183
 31
0.0
  0
LINE
  5
2CF
330
2CB
100
AcDbEntity
  8
cotas
100
AcDbLine
 10
5471.516782656397
 20
3610.954306971131
 30
0.0
 11
5471.516782656397
 21
3563.513013703183
 31
0.0
  0
SOLID
  5
2D0
330
2CB
100
AcDbEntity
  8
cotas
100
AcDbTrace
 10
5469.85011598973
 20
3610.954306971131
 30
0.0
 11
5473.183449323064
 21
3610.954306971131
 31
0.0
 12
5471.516782656397
 22
3620.954306971131
 32
0.0
 13
5471.516782656397
 23
3620.954306971131
 33
0.0
  0
SOLID
  5
2D1
330
2CB
100
AcDbEntity
  8
cotas
100
AcDbTrace
 10
5469.85011598973
 20
3563.513013703183
 30
0.0
 11
5473.183449323064
 21
3563.513013703183
 31
0.0
 12
5471.516782656397
 22
3553.513013703183
 32
0.0
 13
5471.516782656397
 23
3553.513013703183
 33
0.0
  0
MTEXT
  5
2D2
330
2CB
100
AcDbEntity
  8
cotas
100
AcDbMText
 10
5460.180315228593
 20
3587.233660337158
 30
0.0
 40
10.0
 41
0.0
 71
     5
 72
     1
  1
67,4
  7
SANINDUSA
 11
0.0000000000000001
 21
1.0
 31
0.0
 73
     1
 44
1.0
1001
ACAD
1000
MTEXTBEGIN
1070
    73
1070
     1
1070
    44
1040
1.0
1070
    74
1070
     0
1000
MTEXTEND
  0
POINT
  5
2D3
330
2CB
100
AcDbEntity
  8
Defpoints
 62
     0
100
AcDbPoint
 10
5655.486032387464
 20
3620.954306971131
 30
0.0
  0
POINT
  5
2D4
330
2CB
100
AcDbEntity
  8
Defpoints
 62
     0
100
AcDbPoint
 10
5408.573487258338
 20
3553.513013703183
 30
0.0
  0
POINT
  5
2D5
330
2CB
100
AcDbEntity
  8
Defpoints
 62
     0
100
AcDbPoint
 10
5471.516782656397
 20
3553.513013703183
 30
0.0
  0
ENDBLK
  5
2D6
330
2CB
100
AcDbEntity
  8
0
100
AcDbBlockEnd
  0
BLOCK
  5
2D8
330
2D7
100
AcDbEntity
  8
0
100
AcDbBlockBegin
  2
*D62
 70
     1
 10
0.0
 20
0.0
 30
0.0
  3
*D62
  1

  0
LINE
  5
2D9
330
2D7
100
AcDbEntity
  8
cotas
100
AcDbLine
 10
4972.747218197667
 20
3561.365847871938
 30
0.0
 11
5237.787442924533
 21
3561.365847871936
 31
0.0
  0
ARC
  5
2DA
330
2D7
100
AcDbEntity
  8
cotas
100
AcDbCircle
 10
4958.683861023835
 20
3561.365847871938
 30
0.0
 40
274.1035819006979
100
AcDbArc
 50
354.8184782661549
 51
358.9999994727821
  0
LINE
  5
2DB
330
2D7
100
AcDbEntity
  8
cotas
100
AcDbLine
 10
5231.667339586319
 20
3536.611170683212
 30
0.0
 11
5228.321754216832
 21
3499.717555588668
 31
0.0
  0
ARC
  5
2DC
330
2D7
100
AcDbEntity
  8
cotas
100
AcDbCircle
 10
4958.683861023835
 20
3561.365847871938
 30
0.0
 40
274.1035819006979
100
AcDbArc
 50
354.819174321548
 51
356.909586897165
  0
ARC
  5
2DD
330
2D7
100
AcDbEntity
  8
cotas
100
AcDbCircle
 10
4958.683861023835
 20
3561.365847871938
 30
0.0
 40
274.1035819006979
100
AcDbArc
 50
2.090412575616573
 51
4.180825151233626
  0
ARC
  5
2DE
330
2D7
100
AcDbEntity
  8
cotas
100
AcDbCircle
 10
4958.683861023835
 20
3561.365847871938
 30
0.0
 40
274.1035819006979
100
AcDbArc
 50
358.9999994727821
 51
359.9999999999996
  0
SOLID
  5
2DF
330
2D7
100
AcDbEntity
  8
cotas
100
AcDbTrace
 10
5230.723210481902
 20
3546.64792845462
 30
0.0
 11
5234.054420415138
 21
3546.52896841168
 31
0.0
 12
5232.74569557734
 22
3556.58207823286
 32
0.0
 13
5232.74569557734
 23
3556.58207823286
 33
0.0
  0
SOLID
  5
2E0
330
2D7
100
AcDbEntity
  8
cotas
100
AcDbTrace
 10
5234.271419488039
 20
3571.394586144359
 30
0.0
 11
5230.938640774631
 21
3571.333781879959
 31
0.0
 12
5232.787442924532
 22
3561.365847871936
 32
0.0
 13
5232.787442924532
 23
3561.365847871936
 33
0.0
  0
MTEXT
  5
2E1
330
2D7
100
AcDbEntity
  8
cotas
100
AcDbMText
 10
5218.697716608847
 20
3519.188781861295
 30
0.0
 40
10.0
 41
0.0
 71
     5
 72
     1
  1
1,0°
  7
SANINDUSA
 11
0.090311396214056
 21
0.9959135764281297
 31
0.0
 73
     1
 44
1.0
1001
ACAD
1000
MTEXTBEGIN
1070
    73
1070
     1
1070
    44
1040
1.0
1070
    74
1070
     0
1000
MTEXTEND
  0
POINT
  5
2E2
330
2D7
100
AcDbEntity
  8
Defpoints
 62
     0
100
AcDbPoint
 10
5232.782804225732
 20
3559.771186028273
 30
0.0
  0
POINT
  5
2E3
330
2D7
100
AcDbEntity
  8
Defpoints
 62
     0
100
AcDbPoint
 10
4958.683938692307
 20
3561.365847871938
 30
0.0
  0
POINT
  5
2E4
330
2D7
100
AcDbEntity
  8
Defpoints
 62
     0
100
AcDbPoint
 10
4964.134175662792
 20
3561.270712225868
 30
0.0
  0
POINT
  5
2E5
330
2D7
100
AcDbEntity
  8
Defpoints
 62
     0
100
AcDbPoint
 10
5401.609082762963
 20
3553.634555291234
 30
0.0
  0
POINT
  5
2E6
330
2D7
100
AcDbEntity
  8
Defpoints
 62
     0
100
AcDbPoint
 10
4967.747218197667
 20
3561.365847871938
 30
0.0
  0
ENDBLK
  5
2E7
330
2D7
100
AcDbEntity
  8
0
100
AcDbBlockEnd
  0
BLOCK
  5
2E9
330
2E8
100
AcDbEntity
  8
0
100
AcDbBlockBegin
  2
*D63
 70
     1
 10
0.0
 20
0.0
 30
0.0
  3
*D63
  1

  0
LINE
  5
2EA
330
2E8
100
AcDbEntity
  8
cotas
100
AcDbLine
 10
4920.605927466056
 20
3626.041568109251
 30
0.0
 11
4920.605927466056
 21
3650.591057310469
 31
0.0
  0
LINE
  5
2EB
330
2E8
100
AcDbEntity
  8
cotas
100
AcDbLine
 10
4958.305927466057
 20
3566.372505046126
 30
0.0
 11
4958.305927466057
 21
3650.591057310469
 31
0.0
  0
LINE
  5
2EC
330
2E8
100
AcDbEntity
  8
cotas
100
AcDbLine
 10
4930.605927466057
 20
3645.591057310468
 30
0.0
 11
4948.305927466056
 21
3645.591057310468
 31
0.0
  0
LINE
  5
2ED
330
2E8
100
AcDbEntity
  8
cotas
100
AcDbLine
 10
4958.305927466057
 20
3645.591057310468
 30
0.0
 11
5007.553744793121
 21
3645.591057310468
 31
0.0
  0
SOLID
  5
2EE
330
2E8
100
AcDbEntity
  8
cotas
100
AcDbTrace
 10
4930.605927466057
 20
3647.257723977135
 30
0.0
 11
4930.605927466057
 21
3643.924390643802
 31
0.0
 12
4920.605927466056
 22
3645.591057310468
 32
0.0
 13
4920.605927466056
 23
3645.591057310468
 33
0.0
  0
SOLID
  5
2EF
330
2E8
100
AcDbEntity
  8
cotas
100
AcDbTrace
 10
4948.305927466056
 20
3647.257723977135
 30
0.0
 11
4948.305927466056
 21
3643.924390643802
 31
0.0
 12
4958.305927466057
 22
3645.591057310468
 32
0.0
 13
4958.305927466057
 23
3645.591057310468
 33
0.0
  0
MTEXT
  5
2F0
330
2E8
100
AcDbEntity
  8
cotas
100
AcDbMText
 10
4987.929836129588
 20
3656.937598613357
 30
0.0
 40
10.0
 41
0.0
 71
     5
 72
     1
  1
37,7
  7
SANINDUSA
 73
     1
 44
1.0
1001
ACAD
1000
MTEXTBEGIN
1070
    73
1070
     1
1070
    44
1040
1.0
1070
    74
1070
     0
1000
MTEXTEND
  0
POINT
  5
2F1
330
2E8
100
AcDbEntity
  8
Defpoints
 62
     0
100
AcDbPoint
 10
4920.605927466056
 20
3621.041568109251
 30
0.0
  0
POINT
  5
2F2
330
2E8
100
AcDbEntity
  8
Defpoints
 62
     0
100
AcDbPoint
 10
4958.305927466057
 20
3561.372505046126
 30
0.0
  0
POINT
  5
2F3
330
2E8
100
AcDbEntity
  8
Defpoints
 62
     0
100
AcDbPoint
 10
4958.305927466057
 20
3645.591057310468
 30
0.0
  0
ENDBLK
  5
2F4
330
2E8
100
AcDbEntity
  8
0
100
AcDbBlockEnd
  0
BLOCK
  5
2F6
330
2F5
100
AcDbEntity
  8
0
100
AcDbBlockBegin
  2
*D64
 70
     1
 10
0.0
 20
0.0
 30
0.0
  3
*D64
  1

  0
LINE
  5
2F7
330
2F5
100
AcDbEntity
  8
cotas
100
AcDbLine
 10
4953.683938692305
 20
3561.365847871937
 30
0.0
 11
4824.169875445558
 21
3561.365847871937
 31
0.0
  0
LINE
  5
2F8
330
2F5
100
AcDbEntity
  8
cotas
100
AcDbLine
 10
4953.509414382299
 20
3551.367356848044
 30
0.0
 11
4824.169875445558
 21
3551.367356848044
 31
0.0
  0
LINE
  5
2F9
330
2F5
100
AcDbEntity
  8
cotas
100
AcDbLine
 10
4829.169875445558
 20
3571.365847871938
 30
0.0
 11
4829.169875445558
 21
3581.365847871938
 31
0.0
  0
LINE
  5
2FA
330
2F5
100
AcDbEntity
  8
cotas
100
AcDbLine
 10
4829.169875445558
 20
3541.367356848045
 30
0.0
 11
4829.169875445558
 21
3506.652783308756
 31
0.0
  0
LINE
  5
2FB
330
2F5
100
AcDbEntity
  8
cotas
100
AcDbLine
 10
4829.169875445558
 20
3561.365847871937
 30
0.0
 11
4829.169875445558
 21
3551.367356848044
 31
0.0
  0
SOLID
  5
2FC
330
2F5
100
AcDbEntity
  8
cotas
100
AcDbTrace
 10
4827.503208778891
 20
3571.365847871938
 30
0.0
 11
4830.836542112225
 21
3571.365847871938
 31
0.0
 12
4829.169875445558
 22
3561.365847871937
 32
0.0
 13
4829.169875445558
 23
3561.365847871937
 33
0.0
  0
SOLID
  5
2FD
330
2F5
100
AcDbEntity
  8
cotas
100
AcDbTrace
 10
4827.503208778891
 20
3541.367356848045
 30
0.0
 11
4830.836542112225
 21
3541.367356848045
 31
0.0
 12
4829.169875445558
 22
3551.367356848044
 32
0.0
 13
4829.169875445558
 23
3551.367356848044
 33
0.0
  0
MTEXT
  5
2FE
330
2F5
100
AcDbEntity
  8
cotas
100
AcDbMText
 10
4818.965039985517
 20
3519.010070078401
 30
0.0
 40
10.0
 41
0.0
 71
     5
 72
     1
  1
10
  7
SANINDUSA
 11
0.0000000000000001
 21
1.0
 31
0.0
 73
     1
 44
1.0
1001
ACAD
1000
MTEXTBEGIN
1070
    73
1070
     1
1070
    44
1040
1.0
1070
    74
1070
     0
1000
MTEXTEND
  0
POINT
  5
2FF
330
2F5
100
AcDbEntity
  8
Defpoints
 62
     0
100
AcDbPoint
 10
4958.683938692306
 20
3561.365847871937
 30
0.0
  0
POINT
  5
300
330
2F5
100
AcDbEntity
  8
Defpoints
 62
     0
100
AcDbPoint
 10
4958.509414382299
 20
3551.367356848044
 30
0.0
  0
POINT
  5
301
330
2F5
100
AcDbEntity
  8
Defpoints
 62
     0
100
AcDbPoint
 10
4829.169875445558
 20
3551.367356848044
 30
0.0
  0
ENDBLK
  5
302
330
2F5
100
AcDbEntity
  8
0
100
AcDbBlockEnd
  0
BLOCK
  5
304
330
303
100
AcDbEntity
  8
0
100
AcDbBlockBegin
  2
*D65
 70
     1
 10
0.0
 20
0.0
 30
0.0
  3
*D65
  1

  0
LINE
  5
305
330
303
100
AcDbEntity
  8
cotas
100
AcDbLine
 10
4922.335113545208
 20
3589.510962298553
 30
0.0
 11
4922.335113545208
 21
3603.403890859282
 31
0.0
  0
ARC
  5
306
330
303
100
AcDbEntity
  8
cotas
100
AcDbCircle
 10
4922.335113545208
 20
3568.111558507129
 30
0.0
 40
30.29233235215287
100
AcDbArc
 50
51.99752176003165
 51
70.99876088001529
  0
ARC
  5
307
330
303
100
AcDbEntity
  8
cotas
100
AcDbCircle
 10
4922.335113545208
 20
3568.111558507129
 30
0.0
 40
30.29233235215287
100
AcDbArc
 50
111.0012391199855
 51
130.0024782399692
  0
ARC
  5
308
330
303
100
AcDbEntity
  8
cotas
100
AcDbCircle
 10
4922.335113545208
 20
3568.111558507129
 30
0.0
 40
30.29233235215287
100
AcDbArc
 50
89.99999999999896
 51
92.00000000000191
  0
SOLID
  5
309
330
303
100
AcDbEntity
  8
cotas
100
AcDbTrace
 10
4931.922854594619
 20
3595.109501788874
 30
0.0
 11
4932.473048830999
 21
3598.397114511407
 31
0.0
 12
4922.335113545209
 22
3598.403890859282
 32
0.0
 13
4922.335113545209
 23
3598.403890859282
 33
0.0
  0
SOLID
  5
30A
330
303
100
AcDbEntity
  8
cotas
100
AcDbTrace
 10
4911.146403353768
 20
3598.024856529901
 30
0.0
 11
4911.810998456055
 21
3594.758448034149
 31
0.0
 12
4921.277926392171
 22
3598.385437588884
 32
0.0
 13
4921.277926392171
 23
3598.385437588884
 33
0.0
  0
MTEXT
  5
30B
330
303
100
AcDbEntity
  8
cotas
100
AcDbMText
 10
4900.166293229117
 20
3603.358391060612
 30
0.0
 40
10.0
 41
0.0
 71
     5
 72
     1
  1
2,0°
  7
SANINDUSA
 11
0.846488616514765
 21
0.5324068201205909
 31
0.0
 73
     1
 44
1.0
1001
ACAD
1000
MTEXTBEGIN
1070
    73
1070
     1
1070
    44
1040
1.0
1070
    74
1070
     0
1000
MTEXTEND
  0
POINT
  5
30C
330
303
100
AcDbEntity
  8
Defpoints
 62
     0
100
AcDbPoint
 10
4921.982654206545
 20
3598.401840310834
 30
0.0
  0
POINT
  5
30D
330
303
100
AcDbEntity
  8
Defpoints
 62
     0
100
AcDbPoint
 10
4922.335113545208
 20
3568.111536174125
 30
0.0
  0
POINT
  5
30E
330
303
100
AcDbEntity
  8
Defpoints
 62
     0
100
AcDbPoint
 10
4922.335114293872
 20
3568.111537068196
 30
0.0
  0
POINT
  5
30F
330
303
100
AcDbEntity
  8
Defpoints
 62
     0
100
AcDbPoint
 10
4920.722671246179
 20
3614.285864586165
 30
0.0
  0
POINT
  5
310
330
303
100
AcDbEntity
  8
Defpoints
 62
     0
100
AcDbPoint
 10
4922.335113545209
 20
3584.510962298553
 30
0.0
  0
ENDBLK
  5
311
330
303
100
AcDbEntity
  8
0
100
AcDbBlockEnd
  0
BLOCK
  5
ECA
330
EC1
100
AcDbEntity
  8
0
100
AcDbBlockBegin
  2
*D67
 70
     1
 10
0.0
 20
0.0
 30
0.0
  3
*D67
  1

  0
LINE
  5
8F7A
330
EC1
100
AcDbEntity
  8
cotas
100
AcDbLine
 10
-373.9230747794715
 20
1661.571316573509
 30
0.0
 11
-326.9763709001466
 21
1632.196320419203
 31
0.0
  0
LINE
  5
8F7B
330
EC1
100
AcDbEntity
  8
cotas
100
AcDbLine
 10
-182.8626290498765
 20
1542.022990604273
 30
0.0
 11
-174.3853501175075
 21
1536.718677085747
 31
0.0
  0
MTEXT
  5
8F7C
330
EC1
100
AcDbEntity
  8
cotas
100
AcDbMText
 10
-348.9066961941287
 20
1658.776152359202
 30
0.0
 40
10.0
 41
0.0
 71
     5
 72
     1
  1
\U+2205150
  7
SANINDUSA
 11
0.8477278932369037
 21
-0.5304313518525471
 31
0.0
 73
     1
 44
1.0
1001
ACAD
1000
MTEXTBEGIN
1070
    73
1070
     1
1070
    44
1040
1.0
1070
    74
1070
     0
1000
MTEXTEND
  0
LINE
  5
8F7D
330
EC1
100
AcDbEntity
  8
cotas
100
AcDbLine
 10
-191.3399079822455
 20
1547.327304122798
 30
0.0
 11
-318.4990919677775
 21
1626.892006900678
 31
0.0
  0
SOLID
  5
8F7E
330
EC1
100
AcDbEntity
  8
cotas
100
AcDbTrace
 10
-181.9785767967889
 20
1543.435870426334
 30
0.0
 11
-183.7466813029641
 21
1540.610110782211
 31
0.0
 12
-191.3399079822455
 22
1547.327304122798
 32
0.0
 13
-191.3399079822455
 23
1547.327304122798
 33
0.0
  0
SOLID
  5
8F7F
330
EC1
100
AcDbEntity
  8
cotas
100
AcDbTrace
 10
-326.092318647059
 20
1633.609200241265
 30
0.0
 11
-327.8604231532341
 21
1630.783440597141
 31
0.0
 12
-318.4990919677775
 22
1626.892006900678
 32
0.0
 13
-318.4990919677775
 23
1626.892006900678
 33
0.0
  0
POINT
  5
8F80
330
EC1
100
AcDbEntity
  8
Defpoints
 62
     0
100
AcDbPoint
 10
-318.4990919677775
 20
1626.892006900678
 30
0.0
  0
POINT
  5
8F81
330
EC1
100
AcDbEntity
  8
Defpoints
 62
     0
100
AcDbPoint
 10
-191.3399079822455
 20
1547.327304122798
 30
0.0
  0
ENDBLK
  5
ECB
330
EC1
100
AcDbEntity
  8
0
100
AcDbBlockEnd
  0
BLOCK
  5
ED6
330
ECC
100
AcDbEntity
  8
0
100
AcDbBlockBegin
  2
*D68
 70
     1
 10
0.0
 20
0.0
 30
0.0
  3
*D68
  1

  0
LINE
  5
8F82
330
ECC
100
AcDbEntity
  8
cotas
100
AcDbLine
 10
-1567.664437002661
 20
1874.325265382171
 30
0.0
 11
-1567.664437002661
 21
2027.947634529127
 31
0.0
  0
LINE
  5
8F83
330
ECC
100
AcDbEntity
  8
cotas
100
AcDbLine
 10
-1116.72761036329
 20
1874.392115217361
 30
0.0
 11
-1116.72761036329
 21
2027.947634529127
 31
0.0
  0
LINE
  5
8F84
330
ECC
100
AcDbEntity
  8
cotas
100
AcDbLine
 10
-1557.664437002661
 20
2022.947634529127
 30
0.0
 11
-1126.72761036329
 21
2022.947634529127
 31
0.0
  0
SOLID
  5
8F85
330
ECC
100
AcDbEntity
  8
cotas
100
AcDbTrace
 10
-1557.664437002661
 20
2024.614301195794
 30
0.0
 11
-1557.664437002661
 21
2021.28096786246
 31
0.0
 12
-1567.664437002661
 22
2022.947634529127
 32
0.0
 13
-1567.664437002661
 23
2022.947634529127
 33
0.0
  0
SOLID
  5
8F86
330
ECC
100
AcDbEntity
  8
cotas
100
AcDbTrace
 10
-1126.72761036329
 20
2024.614301195794
 30
0.0
 11
-1126.72761036329
 21
2021.28096786246
 31
0.0
 12
-1116.72761036329
 22
2022.947634529127
 32
0.0
 13
-1116.72761036329
 23
2022.947634529127
 33
0.0
  0
MTEXT
  5
8F87
330
ECC
100
AcDbEntity
  8
cotas
100
AcDbMText
 10
-1342.196023682976
 20
2033.068521030134
 30
0.0
 40
10.0
 41
0.0
 71
     5
 72
     1
  1
451
  7
SANINDUSA
 73
     1
 44
1.0
1001
ACAD
1000
MTEXTBEGIN
1070
    73
1070
     1
1070
    44
1040
1.0
1070
    74
1070
     0
1000
MTEXTEND
  0
POINT
  5
8F88
330
ECC
100
AcDbEntity
  8
Defpoints
 62
     0
100
AcDbPoint
 10
-1567.664437002661
 20
1869.325265382171
 30
0.0
  0
POINT
  5
8F89
330
ECC
100
AcDbEntity
  8
Defpoints
 62
     0
100
AcDbPoint
 10
-1116.72761036329
 20
1869.392115217361
 30
0.0
  0
POINT
  5
8F8A
330
ECC
100
AcDbEntity
  8
Defpoints
 62
     0
100
AcDbPoint
 10
-1116.72761036329
 20
2022.947634529127
 30
0.0
  0
ENDBLK
  5
ED7
330
ECC
100
AcDbEntity
  8
0
100
AcDbBlockEnd
  0
BLOCK
  5
EE2
330
ED8
100
AcDbEntity
  8
0
100
AcDbBlockBegin
  2
*D69
 70
     1
 10
0.0
 20
0.0
 30
0.0
  3
*D69
  1

  0
LINE
  5
8F8B
330
ED8
100
AcDbEntity
  8
cotas
100
AcDbLine
 10
-1116.72761036329
 20
1874.392115217361
 30
0.0
 11
-1116.72761036329
 21
2027.956881562925
 31
0.0
  0
LINE
  5
8F8C
330
ED8
100
AcDbEntity
  8
cotas
100
AcDbLine
 10
-990.1872824898598
 20
1855.19833558148
 30
0.0
 11
-990.1872824898598
 21
2027.956881562925
 31
0.0
  0
LINE
  5
8F8D
330
ED8
100
AcDbEntity
  8
cotas
100
AcDbLine
 10
-1106.72761036329
 20
2022.956881562925
 30
0.0
 11
-1000.18728248986
 21
2022.956881562925
 31
0.0
  0
SOLID
  5
8F8E
330
ED8
100
AcDbEntity
  8
cotas
100
AcDbTrace
 10
-1106.72761036329
 20
2024.623548229591
 30
0.0
 11
-1106.72761036329
 21
2021.290214896258
 31
0.0
 12
-1116.72761036329
 22
2022.956881562925
 32
0.0
 13
-1116.72761036329
 23
2022.956881562925
 33
0.0
  0
SOLID
  5
8F8F
330
ED8
100
AcDbEntity
  8
cotas
100
AcDbTrace
 10
-1000.18728248986
 20
2024.623548229591
 30
0.0
 11
-1000.18728248986
 21
2021.290214896258
 31
0.0
 12
-990.1872824898598
 22
2022.956881562925
 32
0.0
 13
-990.1872824898598
 23
2022.956881562925
 33
0.0
  0
MTEXT
  5
8F90
330
ED8
100
AcDbEntity
  8
cotas
100
AcDbMText
 10
-1053.457446426575
 20
2034.303422865813
 30
0.0
 40
10.0
 41
0.0
 71
     5
 72
     1
  1
126,5
  7
SANINDUSA
 73
     1
 44
1.0
1001
ACAD
1000
MTEXTBEGIN
1070
    73
1070
     1
1070
    44
1040
1.0
1070
    74
1070
     0
1000
MTEXTEND
  0
POINT
  5
8F91
330
ED8
100
AcDbEntity
  8
Defpoints
 62
     0
100
AcDbPoint
 10
-1116.72761036329
 20
1869.392115217361
 30
0.0
  0
POINT
  5
8F92
330
ED8
100
AcDbEntity
  8
Defpoints
 62
     0
100
AcDbPoint
 10
-990.1872824898598
 20
1850.19833558148
 30
0.0
  0
POINT
  5
8F93
330
ED8
100
AcDbEntity
  8
Defpoints
 62
     0
100
AcDbPoint
 10
-990.1872824898598
 20
2022.956881562925
 30
0.0
  0
ENDBLK
  5
EE3
330
ED8
100
AcDbEntity
  8
0
100
AcDbBlockEnd
  0
BLOCK
  5
EEE
330
EE4
100
AcDbEntity
  8
0
100
AcDbBlockBegin
  2
*D70
 70
     1
 10
0.0
 20
0.0
 30
0.0
  3
*D70
  1

  0
LINE
  5
8F94
330
EE4
100
AcDbEntity
  8
cotas
100
AcDbLine
 10
-990.1872824898598
 20
1855.19833558148
 30
0.0
 11
-990.1872824898598
 21
2027.956881562925
 31
0.0
  0
LINE
  5
8F95
330
EE4
100
AcDbEntity
  8
cotas
100
AcDbLine
 10
-910.1745282969538
 20
1855.185326426375
 30
0.0
 11
-910.1745282969538
 21
2027.956881562925
 31
0.0
  0
LINE
  5
8F96
330
EE4
100
AcDbEntity
  8
cotas
100
AcDbLine
 10
-980.1872824898598
 20
2022.956881562925
 30
0.0
 11
-920.1745282969538
 21
2022.956881562925
 31
0.0
  0
SOLID
  5
8F97
330
EE4
100
AcDbEntity
  8
cotas
100
AcDbTrace
 10
-980.1872824898598
 20
2024.623548229591
 30
0.0
 11
-980.1872824898598
 21
2021.290214896258
 31
0.0
 12
-990.1872824898598
 22
2022.956881562925
 32
0.0
 13
-990.1872824898598
 23
2022.956881562925
 33
0.0
  0
SOLID
  5
8F98
330
EE4
100
AcDbEntity
  8
cotas
100
AcDbTrace
 10
-920.1745282969538
 20
2024.623548229591
 30
0.0
 11
-920.1745282969538
 21
2021.290214896258
 31
0.0
 12
-910.1745282969538
 22
2022.956881562925
 32
0.0
 13
-910.1745282969538
 23
2022.956881562925
 33
0.0
  0
MTEXT
  5
8F99
330
EE4
100
AcDbEntity
  8
cotas
100
AcDbMText
 10
-950.1809053934069
 20
2033.185222731495
 30
0.0
 40
10.0
 41
0.0
 71
     5
 72
     1
  1
80
  7
SANINDUSA
 73
     1
 44
1.0
1001
ACAD
1000
MTEXTBEGIN
1070
    73
1070
     1
1070
    44
1040
1.0
1070
    74
1070
     0
1000
MTEXTEND
  0
POINT
  5
8F9A
330
EE4
100
AcDbEntity
  8
Defpoints
 62
     0
100
AcDbPoint
 10
-990.1872824898598
 20
1850.19833558148
 30
0.0
  0
POINT
  5
8F9B
330
EE4
100
AcDbEntity
  8
Defpoints
 62
     0
100
AcDbPoint
 10
-910.1745282969538
 20
1850.185326426375
 30
0.0
  0
POINT
  5
8F9C
330
EE4
100
AcDbEntity
  8
Defpoints
 62
     0
100
AcDbPoint
 10
-910.1745282969538
 20
2022.956881562925
 30
0.0
  0
ENDBLK
  5
EEF
330
EE4
100
AcDbEntity
  8
0
100
AcDbBlockEnd
  0
BLOCK
  5
EFA
330
EF0
100
AcDbEntity
  8
0
100
AcDbBlockBegin
  2
*D71
 70
     1
 10
0.0
 20
0.0
 30
0.0
  3
*D71
  1

  0
LINE
  5
8F9D
330
EF0
100
AcDbEntity
  8
cotas
100
AcDbLine
 10
-910.1745282969538
 20
1855.185326426375
 30
0.0
 11
-910.1745282969538
 21
2027.956881562925
 31
0.0
  0
LINE
  5
8F9E
330
EF0
100
AcDbEntity
  8
cotas
100
AcDbLine
 10
-830.208508134209
 20
1855.198442969333
 30
0.0
 11
-830.208508134209
 21
2027.956881562925
 31
0.0
  0
LINE
  5
8F9F
330
EF0
100
AcDbEntity
  8
cotas
100
AcDbLine
 10
-900.1745282969539
 20
2022.956881562925
 30
0.0
 11
-840.2085081342089
 21
2022.956881562925
 31
0.0
  0
SOLID
  5
8FA0
330
EF0
100
AcDbEntity
  8
cotas
100
AcDbTrace
 10
-900.1745282969539
 20
2024.623548229591
 30
0.0
 11
-900.1745282969539
 21
2021.290214896258
 31
0.0
 12
-910.1745282969538
 22
2022.956881562925
 32
0.0
 13
-910.1745282969538
 23
2022.956881562925
 33
0.0
  0
SOLID
  5
8FA1
330
EF0
100
AcDbEntity
  8
cotas
100
AcDbTrace
 10
-840.2085081342089
 20
2024.623548229591
 30
0.0
 11
-840.2085081342089
 21
2021.290214896258
 31
0.0
 12
-830.208508134209
 22
2022.956881562925
 32
0.0
 13
-830.208508134209
 23
2022.956881562925
 33
0.0
  0
MTEXT
  5
8FA2
330
EF0
100
AcDbEntity
  8
cotas
100
AcDbMText
 10
-870.1915182155815
 20
2033.185222731495
 30
0.0
 40
10.0
 41
0.0
 71
     5
 72
     1
  1
80
  7
SANINDUSA
 73
     1
 44
1.0
1001
ACAD
1000
MTEXTBEGIN
1070
    73
1070
     1
1070
    44
1040
1.0
1070
    74
1070
     0
1000
MTEXTEND
  0
POINT
  5
8FA3
330
EF0
100
AcDbEntity
  8
Defpoints
 62
     0
100
AcDbPoint
 10
-910.1745282969538
 20
1850.185326426375
 30
0.0
  0
POINT
  5
8FA4
330
EF0
100
AcDbEntity
  8
Defpoints
 62
     0
100
AcDbPoint
 10
-830.208508134209
 20
1850.198442969334
 30
0.0
  0
POINT
  5
8FA5
330
EF0
100
AcDbEntity
  8
Defpoints
 62
     0
100
AcDbPoint
 10
-830.208508134209
 20
2022.956881562925
 30
0.0
  0
ENDBLK
  5
EFB
330
EF0
100
AcDbEntity
  8
0
100
AcDbBlockEnd
  0
BLOCK
  5
F06
330
EFC
100
AcDbEntity
  8
0
100
AcDbBlockBegin
  2
*D72
 70
     1
 10
0.0
 20
0.0
 30
0.0
  3
*D72
  1

  0
LINE
  5
8FA6
330
EFC
100
AcDbEntity
  8
cotas
100
AcDbLine
 10
-830.208508134209
 20
1855.198442969333
 30
0.0
 11
-830.208508134209
 21
2027.956881562925
 31
0.0
  0
LINE
  5
8FA7
330
EFC
100
AcDbEntity
  8
cotas
100
AcDbLine
 10
-750.1957539413031
 20
1855.18543381423
 30
0.0
 11
-750.1957539413031
 21
2027.956881562925
 31
0.0
  0
LINE
  5
8FA8
330
EFC
100
AcDbEntity
  8
cotas
100
AcDbLine
 10
-820.208508134209
 20
2022.956881562925
 30
0.0
 11
-760.1957539413031
 21
2022.956881562925
 31
0.0
  0
SOLID
  5
8FA9
330
EFC
100
AcDbEntity
  8
cotas
100
AcDbTrace
 10
-820.208508134209
 20
2024.623548229591
 30
0.0
 11
-820.208508134209
 21
2021.290214896258
 31
0.0
 12
-830.208508134209
 22
2022.956881562925
 32
0.0
 13
-830.208508134209
 23
2022.956881562925
 33
0.0
  0
SOLID
  5
8FAA
330
EFC
100
AcDbEntity
  8
cotas
100
AcDbTrace
 10
-760.1957539413031
 20
2024.623548229591
 30
0.0
 11
-760.1957539413031
 21
2021.290214896258
 31
0.0
 12
-750.1957539413031
 22
2022.956881562925
 32
0.0
 13
-750.1957539413031
 23
2022.956881562925
 33
0.0
  0
MTEXT
  5
8FAB
330
EFC
100
AcDbEntity
  8
cotas
100
AcDbMText
 10
-790.2021310377561
 20
2033.185222731495
 30
0.0
 40
10.0
 41
0.0
 71
     5
 72
     1
  1
80
  7
SANINDUSA
 73
     1
 44
1.0
1001
ACAD
1000
MTEXTBEGIN
1070
    73
1070
     1
1070
    44
1040
1.0
1070
    74
1070
     0
1000
MTEXTEND
  0
POINT
  5
8FAC
330
EFC
100
AcDbEntity
  8
Defpoints
 62
     0
100
AcDbPoint
 10
-830.208508134209
 20
1850.198442969334
 30
0.0
  0
POINT
  5
8FAD
330
EFC
100
AcDbEntity
  8
Defpoints
 62
     0
100
AcDbPoint
 10
-750.1957539413031
 20
1850.18543381423
 30
0.0
  0
POINT
  5
8FAE
330
EFC
100
AcDbEntity
  8
Defpoints
 62
     0
100
AcDbPoint
 10
-750.1957539413031
 20
2022.956881562925
 30
0.0
  0
ENDBLK
  5
F07
330
EFC
100
AcDbEntity
  8
0
100
AcDbBlockEnd
  0
BLOCK
  5
F12
330
F08
100
AcDbEntity
  8
0
100
AcDbBlockBegin
  2
*D73
 70
     1
 10
0.0
 20
0.0
 30
0.0
  3
*D73
  1

  0
LINE
  5
8FAF
330
F08
100
AcDbEntity
  8
cotas
100
AcDbLine
 10
-750.1957539413031
 20
1855.18543381423
 30
0.0
 11
-750.1957539413031
 21
2027.956881562925
 31
0.0
  0
LINE
  5
8FB0
330
F08
100
AcDbEntity
  8
cotas
100
AcDbLine
 10
-670.245093287197
 20
1855.197970132266
 30
0.0
 11
-670.245093287197
 21
2027.956881562925
 31
0.0
  0
LINE
  5
8FB1
330
F08
100
AcDbEntity
  8
cotas
100
AcDbLine
 10
-740.1957539413031
 20
2022.956881562925
 30
0.0
 11
-680.245093287197
 21
2022.956881562925
 31
0.0
  0
SOLID
  5
8FB2
330
F08
100
AcDbEntity
  8
cotas
100
AcDbTrace
 10
-740.1957539413031
 20
2024.623548229591
 30
0.0
 11
-740.1957539413031
 21
2021.290214896258
 31
0.0
 12
-750.1957539413031
 22
2022.956881562925
 32
0.0
 13
-750.1957539413031
 23
2022.956881562925
 33
0.0
  0
SOLID
  5
8FB3
330
F08
100
AcDbEntity
  8
cotas
100
AcDbTrace
 10
-680.245093287197
 20
2024.623548229591
 30
0.0
 11
-680.245093287197
 21
2021.290214896258
 31
0.0
 12
-670.245093287197
 22
2022.956881562925
 32
0.0
 13
-670.245093287197
 23
2022.956881562925
 33
0.0
  0
MTEXT
  5
8FB4
330
F08
100
AcDbEntity
  8
cotas
100
AcDbMText
 10
-710.22042361425
 20
2033.185222731495
 30
0.0
 40
10.0
 41
0.0
 71
     5
 72
     1
  1
80
  7
SANINDUSA
 73
     1
 44
1.0
1001
ACAD
1000
MTEXTBEGIN
1070
    73
1070
     1
1070
    44
1040
1.0
1070
    74
1070
     0
1000
MTEXTEND
  0
POINT
  5
8FB5
330
F08
100
AcDbEntity
  8
Defpoints
 62
     0
100
AcDbPoint
 10
-750.1957539413031
 20
1850.18543381423
 30
0.0
  0
POINT
  5
8FB6
330
F08
100
AcDbEntity
  8
Defpoints
 62
     0
100
AcDbPoint
 10
-670.245093287197
 20
1850.197970132266
 30
0.0
  0
POINT
  5
8FB7
330
F08
100
AcDbEntity
  8
Defpoints
 62
     0
100
AcDbPoint
 10
-670.245093287197
 20
2022.956881562925
 30
0.0
  0
ENDBLK
  5
F13
330
F08
100
AcDbEntity
  8
0
100
AcDbBlockEnd
  0
BLOCK
  5
F1E
330
F14
100
AcDbEntity
  8
0
100
AcDbBlockBegin
  2
*D74
 70
     1
 10
0.0
 20
0.0
 30
0.0
  3
*D74
  1

  0
LINE
  5
8FB8
330
F14
100
AcDbEntity
  8
cotas
100
AcDbLine
 10
-510.2872213551354
 20
1855.197538523714
 30
0.0
 11
-510.2872213551354
 21
2027.956881562925
 31
0.0
  0
LINE
  5
8FB9
330
F14
100
AcDbEntity
  8
cotas
100
AcDbLine
 10
-430.2744671622295
 20
1855.184529368611
 30
0.0
 11
-430.2744671622295
 21
2027.956881562925
 31
0.0
  0
LINE
  5
8FBA
330
F14
100
AcDbEntity
  8
cotas
100
AcDbLine
 10
-500.2872213551354
 20
2022.956881562925
 30
0.0
 11
-440.2744671622294
 21
2022.956881562925
 31
0.0
  0
SOLID
  5
8FBB
330
F14
100
AcDbEntity
  8
cotas
100
AcDbTrace
 10
-500.2872213551354
 20
2024.623548229591
 30
0.0
 11
-500.2872213551354
 21
2021.290214896258
 31
0.0
 12
-510.2872213551354
 22
2022.956881562925
 32
0.0
 13
-510.2872213551354
 23
2022.956881562925
 33
0.0
  0
SOLID
  5
8FBC
330
F14
100
AcDbEntity
  8
cotas
100
AcDbTrace
 10
-440.2744671622294
 20
2024.623548229591
 30
0.0
 11
-440.2744671622294
 21
2021.290214896258
 31
0.0
 12
-430.2744671622295
 22
2022.956881562925
 32
0.0
 13
-430.2744671622295
 23
2022.956881562925
 33
0.0
  0
MTEXT
  5
8FBD
330
F14
100
AcDbEntity
  8
cotas
100
AcDbMText
 10
-470.2808442586825
 20
2033.185222731495
 30
0.0
 40
10.0
 41
0.0
 71
     5
 72
     1
  1
80
  7
SANINDUSA
 73
     1
 44
1.0
1001
ACAD
1000
MTEXTBEGIN
1070
    73
1070
     1
1070
    44
1040
1.0
1070
    74
1070
     0
1000
MTEXTEND
  0
POINT
  5
8FBE
330
F14
100
AcDbEntity
  8
Defpoints
 62
     0
100
AcDbPoint
 10
-510.2872213551354
 20
1850.197538523715
 30
0.0
  0
POINT
  5
8FBF
330
F14
100
AcDbEntity
  8
Defpoints
 62
     0
100
AcDbPoint
 10
-430.2744671622295
 20
1850.184529368611
 30
0.0
  0
POINT
  5
8FC0
330
F14
100
AcDbEntity
  8
Defpoints
 62
     0
100
AcDbPoint
 10
-430.2744671622295
 20
2022.956881562925
 30
0.0
  0
ENDBLK
  5
F1F
330
F14
100
AcDbEntity
  8
0
100
AcDbBlockEnd
  0
BLOCK
  5
F2A
330
F20
100
AcDbEntity
  8
0
100
AcDbBlockBegin
  2
*D75
 70
     1
 10
0.0
 20
0.0
 30
0.0
  3
*D75
  1

  0
LINE
  5
8FC1
330
F20
100
AcDbEntity
  8
cotas
100
AcDbLine
 10
-510.2872213551354
 20
1855.197538523714
 30
0.0
 11
-510.2872213551354
 21
2027.956881562925
 31
0.0
  0
LINE
  5
8FC2
330
F20
100
AcDbEntity
  8
cotas
100
AcDbLine
 10
-590.232339094291
 20
1855.184960977161
 30
0.0
 11
-590.232339094291
 21
2027.956881562925
 31
0.0
  0
LINE
  5
8FC3
330
F20
100
AcDbEntity
  8
cotas
100
AcDbLine
 10
-520.2872213551354
 20
2022.956881562925
 30
0.0
 11
-580.2323390942911
 21
2022.956881562925
 31
0.0
  0
SOLID
  5
8FC4
330
F20
100
AcDbEntity
  8
cotas
100
AcDbTrace
 10
-520.2872213551354
 20
2024.623548229591
 30
0.0
 11
-520.2872213551354
 21
2021.290214896258
 31
0.0
 12
-510.2872213551354
 22
2022.956881562925
 32
0.0
 13
-510.2872213551354
 23
2022.956881562925
 33
0.0
  0
SOLID
  5
8FC5
330
F20
100
AcDbEntity
  8
cotas
100
AcDbTrace
 10
-580.2323390942911
 20
2024.623548229591
 30
0.0
 11
-580.2323390942911
 21
2021.290214896258
 31
0.0
 12
-590.232339094291
 22
2022.956881562925
 32
0.0
 13
-590.232339094291
 23
2022.956881562925
 33
0.0
  0
MTEXT
  5
8FC6
330
F20
100
AcDbEntity
  8
cotas
100
AcDbMText
 10
-550.2597802247132
 20
2033.185222731495
 30
0.0
 40
10.0
 41
0.0
 71
     5
 72
     1
  1
80
  7
SANINDUSA
 73
     1
 44
1.0
1001
ACAD
1000
MTEXTBEGIN
1070
    73
1070
     1
1070
    44
1040
1.0
1070
    74
1070
     0
1000
MTEXTEND
  0
POINT
  5
8FC7
330
F20
100
AcDbEntity
  8
Defpoints
 62
     0
100
AcDbPoint
 10
-510.2872213551354
 20
1850.197538523715
 30
0.0
  0
POINT
  5
8FC8
330
F20
100
AcDbEntity
  8
Defpoints
 62
     0
100
AcDbPoint
 10
-590.232339094291
 20
1850.184960977162
 30
0.0
  0
POINT
  5
8FC9
330
F20
100
AcDbEntity
  8
Defpoints
 62
     0
100
AcDbPoint
 10
-590.232339094291
 20
2022.956881562925
 30
0.0
  0
ENDBLK
  5
F2B
330
F20
100
AcDbEntity
  8
0
100
AcDbBlockEnd
  0
BLOCK
  5
F36
330
F2C
100
AcDbEntity
  8
0
100
AcDbBlockBegin
  2
*D76
 70
     1
 10
0.0
 20
0.0
 30
0.0
  3
*D76
  1

  0
LINE
  5
8FCA
330
F2C
100
AcDbEntity
  8
cotas
100
AcDbLine
 10
-590.232339094291
 20
1855.184960977161
 30
0.0
 11
-590.232339094291
 21
2027.956881562925
 31
0.0
  0
LINE
  5
8FCB
330
F2C
100
AcDbEntity
  8
cotas
100
AcDbLine
 10
-670.245093287197
 20
1855.197970132266
 30
0.0
 11
-670.245093287197
 21
2027.956881562925
 31
0.0
  0
LINE
  5
8FCC
330
F2C
100
AcDbEntity
  8
cotas
100
AcDbLine
 10
-600.2323390942911
 20
2022.956881562925
 30
0.0
 11
-660.245093287197
 21
2022.956881562925
 31
0.0
  0
SOLID
  5
8FCD
330
F2C
100
AcDbEntity
  8
cotas
100
AcDbTrace
 10
-600.2323390942911
 20
2024.623548229591
 30
0.0
 11
-600.2323390942911
 21
2021.290214896258
 31
0.0
 12
-590.232339094291
 22
2022.956881562925
 32
0.0
 13
-590.232339094291
 23
2022.956881562925
 33
0.0
  0
SOLID
  5
8FCE
330
F2C
100
AcDbEntity
  8
cotas
100
AcDbTrace
 10
-660.245093287197
 20
2024.623548229591
 30
0.0
 11
-660.245093287197
 21
2021.290214896258
 31
0.0
 12
-670.245093287197
 22
2022.956881562925
 32
0.0
 13
-670.245093287197
 23
2022.956881562925
 33
0.0
  0
MTEXT
  5
8FCF
330
F2C
100
AcDbEntity
  8
cotas
100
AcDbMText
 10
-630.238716190744
 20
2033.185222731495
 30
0.0
 40
10.0
 41
0.0
 71
     5
 72
     1
  1
80
  7
SANINDUSA
 73
     1
 44
1.0
1001
ACAD
1000
MTEXTBEGIN
1070
    73
1070
     1
1070
    44
1040
1.0
1070
    74
1070
     0
1000
MTEXTEND
  0
POINT
  5
8FD0
330
F2C
100
AcDbEntity
  8
Defpoints
 62
     0
100
AcDbPoint
 10
-590.232339094291
 20
1850.184960977162
 30
0.0
  0
POINT
  5
8FD1
330
F2C
100
AcDbEntity
  8
Defpoints
 62
     0
100
AcDbPoint
 10
-670.245093287197
 20
1850.197970132266
 30
0.0
  0
POINT
  5
8FD2
330
F2C
100
AcDbEntity
  8
Defpoints
 62
     0
100
AcDbPoint
 10
-670.245093287197
 20
2022.956881562925
 30
0.0
  0
ENDBLK
  5
F37
330
F2C
100
AcDbEntity
  8
0
100
AcDbBlockEnd
  0
BLOCK
  5
F3F
330
F38
100
AcDbEntity
  8
0
100
AcDbBlockBegin
  2
*D77
 70
     1
 10
0.0
 20
0.0
 30
0.0
  3
*D77
  1

  0
LINE
  5
8FD3
330
F38
100
AcDbEntity
  8
cotas
100
AcDbLine
 10
-1638.984106300758
 20
1230.180472293719
 30
0.0
 11
-1605.254320139056
 21
1259.667927557623
 31
0.0
  0
MTEXT
  5
8FD4
330
F38
100
AcDbEntity
  8
cotas
100
AcDbMText
 10
-1632.602312874909
 20
1249.318723163838
 30
0.0
 40
10.0
 41
0.0
 71
     5
 72
     1
  1
R20
  7
SANINDUSA
 11
0.752865411404195
 21
0.6581744998943611
 31
0.0
 73
     1
 44
1.0
1001
ACAD
1000
MTEXTBEGIN
1070
    73
1070
     1
1070
    44
1040
1.0
1070
    74
1070
     0
1000
MTEXTEND
  0
LINE
  5
8FD5
330
F38
100
AcDbEntity
  8
cotas
100
AcDbLine
 10
-1582.663605995537
 20
1279.417316702669
 30
0.0
 11
-1597.725666025014
 21
1266.249672556566
 31
0.0
  0
SOLID
  5
8FD6
330
F38
100
AcDbEntity
  8
cotas
100
AcDbTrace
 10
-1606.35127763888
 20
1260.922703243297
 30
0.0
 11
-1604.157362639232
 21
1258.413151871949
 31
0.0
 12
-1597.725666025014
 22
1266.249672556566
 32
0.0
 13
-1597.725666025014
 23
1266.249672556566
 33
0.0
  0
POINT
  5
8FD7
330
F38
100
AcDbEntity
  8
Defpoints
 62
     0
100
AcDbPoint
 10
-1597.725666025014
 20
1266.249672556566
 30
0.0
  0
POINT
  5
8FD8
330
F38
100
AcDbEntity
  8
Defpoints
 62
     0
100
AcDbPoint
 10
-1582.663605995537
 20
1279.417316702669
 30
0.0
  0
ENDBLK
  5
F40
330
F38
100
AcDbEntity
  8
0
100
AcDbBlockEnd
  0
BLOCK
  5
F48
330
F41
100
AcDbEntity
  8
0
100
AcDbBlockBegin
  2
*D78
 70
     1
 10
0.0
 20
0.0
 30
0.0
  3
*D78
  1

  0
LINE
  5
8FD9
330
F41
100
AcDbEntity
  8
cotas
100
AcDbLine
 10
-1653.067460099338
 20
1920.090857804085
 30
0.0
 11
-1610.903296497698
 21
1904.94517194213
 31
0.0
  0
MTEXT
  5
8FDA
330
F41
100
AcDbEntity
  8
cotas
100
AcDbMText
 10
-1633.240029369009
 20
1923.81549528065
 30
0.0
 40
10.0
 41
0.0
 71
     5
 72
     1
  1
R20
  7
SANINDUSA
 11
0.9411248628817428
 21
-0.3380591552758491
 31
0.0
 73
     1
 44
1.0
1001
ACAD
1000
MTEXTBEGIN
1070
    73
1070
     1
1070
    44
1040
1.0
1070
    74
1070
     0
1000
MTEXTEND
  0
LINE
  5
8FDB
330
F41
100
AcDbEntity
  8
cotas
100
AcDbLine
 10
-1582.663381535886
 20
1894.801181305415
 30
0.0
 11
-1601.49204786888
 21
1901.564580389371
 31
0.0
  0
SOLID
  5
8FDC
330
F41
100
AcDbEntity
  8
cotas
100
AcDbTrace
 10
-1610.339864572238
 20
1906.513713380266
 30
0.0
 11
-1611.466728423158
 21
1903.376630503993
 31
0.0
 12
-1601.49204786888
 22
1901.564580389371
 32
0.0
 13
-1601.49204786888
 23
1901.564580389371
 33
0.0
  0
POINT
  5
8FDD
330
F41
100
AcDbEntity
  8
Defpoints
 62
     0
100
AcDbPoint
 10
-1601.49204786888
 20
1901.564580389371
 30
0.0
  0
POINT
  5
8FDE
330
F41
100
AcDbEntity
  8
Defpoints
 62
     0
100
AcDbPoint
 10
-1582.663381535886
 20
1894.801181305415
 30
0.0
  0
ENDBLK
  5
F49
330
F41
100
AcDbEntity
  8
0
100
AcDbBlockEnd
  0
BLOCK
  5
F51
330
F4A
100
AcDbEntity
  8
0
100
AcDbBlockBegin
  2
*D79
 70
     1
 10
0.0
 20
0.0
 30
0.0
  3
*D79
  1

  0
LINE
  5
8FDF
330
F4A
100
AcDbEntity
  8
cotas
100
AcDbLine
 10
-129.4215965540498
 20
1216.009653004375
 30
0.0
 11
-152.5052269682347
 21
1254.406977121508
 31
0.0
  0
MTEXT
  5
8FE0
330
F4A
100
AcDbEntity
  8
cotas
100
AcDbMText
 10
-129.6383187463916
 20
1236.182728258018
 30
0.0
 40
10.0
 41
0.0
 71
     5
 72
     1
  1
R20
  7
SANINDUSA
 11
0.5152379806134216
 21
-0.8570471535063887
 31
0.0
 73
     1
 44
1.0
1001
ACAD
1000
MTEXTBEGIN
1070
    73
1070
     1
1070
    44
1040
1.0
1070
    74
1070
     0
1000
MTEXTEND
  0
LINE
  5
8FE1
330
F4A
100
AcDbEntity
  8
cotas
100
AcDbLine
 10
-167.9619999197429
 20
1280.117782145457
 30
0.0
 11
-157.6576067743689
 21
1262.977448656572
 31
0.0
  0
SOLID
  5
8FE2
330
F4A
100
AcDbEntity
  8
cotas
100
AcDbTrace
 10
-151.0768150457241
 20
1255.265707089197
 30
0.0
 11
-153.9336388907453
 21
1253.548247153819
 31
0.0
 12
-157.6576067743689
 22
1262.977448656572
 32
0.0
 13
-157.6576067743689
 23
1262.977448656572
 33
0.0
  0
POINT
  5
8FE3
330
F4A
100
AcDbEntity
  8
Defpoints
 62
     0
100
AcDbPoint
 10
-157.6576067743689
 20
1262.977448656572
 30
0.0
  0
POINT
  5
8FE4
330
F4A
100
AcDbEntity
  8
Defpoints
 62
     0
100
AcDbPoint
 10
-167.9619999197429
 20
1280.117782145457
 30
0.0
  0
ENDBLK
  5
F52
330
F4A
100
AcDbEntity
  8
0
100
AcDbBlockEnd
  0
BLOCK
  5
F5A
330
F53
100
AcDbEntity
  8
0
100
AcDbBlockBegin
  2
*D80
 70
     1
 10
0.0
 20
0.0
 30
0.0
  3
*D80
  1

  0
LINE
  5
8FE5
330
F53
100
AcDbEntity
  8
cotas
100
AcDbLine
 10
-107.4162634288551
 20
1938.026499977295
 30
0.0
 11
-143.6798088915668
 21
1911.717494619267
 31
0.0
  0
MTEXT
  5
8FE6
330
F53
100
AcDbEntity
  8
cotas
100
AcDbMText
 10
-127.4954920959343
 20
1936.070864573408
 30
0.0
 40
10.0
 41
0.0
 71
     5
 72
     1
  1
R20
  7
SANINDUSA
 11
0.8094201648025435
 21
0.5872299352136466
 31
0.0
 73
     1
 44
1.0
1001
ACAD
1000
MTEXTBEGIN
1070
    73
1070
     1
1070
    44
1040
1.0
1070
    74
1070
     0
1000
MTEXTEND
  0
LINE
  5
8FE7
330
F53
100
AcDbEntity
  8
cotas
100
AcDbLine
 10
-167.9608788770512
 20
1894.101710166984
 30
0.0
 11
-151.7740105395922
 21
1905.845195267131
 31
0.0
  0
SOLID
  5
8FE8
330
F53
100
AcDbEntity
  8
cotas
100
AcDbTrace
 10
-144.6585254502563
 20
1913.066528227272
 30
0.0
 11
-142.7010923328773
 21
1910.368461011264
 31
0.0
 12
-151.7740105395922
 22
1905.845195267131
 32
0.0
 13
-151.7740105395922
 23
1905.845195267131
 33
0.0
  0
POINT
  5
8FE9
330
F53
100
AcDbEntity
  8
Defpoints
 62
     0
100
AcDbPoint
 10
-151.7740105395922
 20
1905.845195267131
 30
0.0
  0
POINT
  5
8FEA
330
F53
100
AcDbEntity
  8
Defpoints
 62
     0
100
AcDbPoint
 10
-167.9608788770512
 20
1894.101710166984
 30
0.0
  0
ENDBLK
  5
F5B
330
F53
100
AcDbEntity
  8
0
100
AcDbBlockEnd
  0
BLOCK
  5
F63
330
F5C
100
AcDbEntity
  8
0
100
AcDbBlockBegin
  2
*D81
 70
     1
 10
0.0
 20
0.0
 30
0.0
  3
*D81
  1

  0
LINE
  5
8FEB
330
F5C
100
AcDbEntity
  8
cotas
100
AcDbLine
 10
-1719.769554005806
 20
1177.664231210543
 30
0.0
 11
-1685.11141907481
 21
1187.366643647775
 31
0.0
  0
MTEXT
  5
8FEC
330
F5C
100
AcDbEntity
  8
cotas
100
AcDbMText
 10
-1709.979255147873
 20
1190.897545647887
 30
0.0
 40
10.0
 41
0.0
 71
     5
 72
     1
  1
R5
  7
SANINDUSA
 11
0.9629774755038852
 21
0.2695818645090295
 31
0.0
 73
     1
 44
1.0
1001
ACAD
1000
MTEXTBEGIN
1070
    73
1070
     1
1070
    44
1040
1.0
1070
    74
1070
     0
1000
MTEXTEND
  0
LINE
  5
8FED
330
F5C
100
AcDbEntity
  8
cotas
100
AcDbLine
 10
-1670.667793884073
 20
1191.41008132751
 30
0.0
 11
-1675.481644319771
 21
1190.062462292866
 31
0.0
  0
SOLID
  5
8FEE
330
F5C
100
AcDbEntity
  8
cotas
100
AcDbTrace
 10
-1685.560722182325
 20
1188.971606106948
 30
0.0
 11
-1684.662115967295
 21
1185.761681188602
 31
0.0
 12
-1675.481644319771
 22
1190.062462292866
 32
0.0
 13
-1675.481644319771
 23
1190.062462292866
 33
0.0
  0
POINT
  5
8FEF
330
F5C
100
AcDbEntity
  8
Defpoints
 62
     0
100
AcDbPoint
 10
-1675.481644319771
 20
1190.062462292866
 30
0.0
  0
POINT
  5
8FF0
330
F5C
100
AcDbEntity
  8
Defpoints
 62
     0
100
AcDbPoint
 10
-1670.667793884073
 20
1191.41008132751
 30
0.0
  0
ENDBLK
  5
F64
330
F5C
100
AcDbEntity
  8
0
100
AcDbBlockEnd
  0
BLOCK
  5
F6C
330
F65
100
AcDbEntity
  8
0
100
AcDbBlockBegin
  2
*D82
 70
     1
 10
0.0
 20
0.0
 30
0.0
  3
*D82
  1

  0
LINE
  5
8FF1
330
F65
100
AcDbEntity
  8
cotas
100
AcDbLine
 10
-30.85794990188856
 20
1175.401373933962
 30
0.0
 11
-65.0287178911563
 21
1186.701008398002
 31
0.0
  0
MTEXT
  5
8FF2
330
F65
100
AcDbEntity
  8
cotas
100
AcDbMText
 10
-40.02386443969129
 20
1189.074580339592
 30
0.0
 40
10.0
 41
0.0
 71
     5
 72
     1
  1
R5
  7
SANINDUSA
 11
0.94943596820339
 21
-0.3139607336621752
 31
0.0
 73
     1
 44
1.0
1001
ACAD
1000
MTEXTBEGIN
1070
    73
1070
     1
1070
    44
1040
1.0
1070
    74
1070
     0
1000
MTEXTEND
  0
LINE
  5
8FF3
330
F65
100
AcDbEntity
  8
cotas
100
AcDbLine
 10
-79.26923505398872
 20
1191.410081327514
 30
0.0
 11
-74.52307757319022
 21
1189.840615734624
 31
0.0
  0
SOLID
  5
8FF4
330
F65
100
AcDbEntity
  8
cotas
100
AcDbTrace
 10
-64.50545000171928
 20
1188.283401678341
 30
0.0
 11
-65.55198578059327
 21
1185.118615117663
 31
0.0
 12
-74.52307757319022
 22
1189.840615734624
 32
0.0
 13
-74.52307757319022
 23
1189.840615734624
 33
0.0
  0
POINT
  5
8FF5
330
F65
100
AcDbEntity
  8
Defpoints
 62
     0
100
AcDbPoint
 10
-74.52307757319022
 20
1189.840615734624
 30
0.0
  0
POINT
  5
8FF6
330
F65
100
AcDbEntity
  8
Defpoints
 62
     0
100
AcDbPoint
 10
-79.26923505398872
 20
1191.410081327514
 30
0.0
  0
ENDBLK
  5
F6D
330
F65
100
AcDbEntity
  8
0
100
AcDbBlockEnd
  0
BLOCK
  5
F75
330
F6E
100
AcDbEntity
  8
0
100
AcDbBlockBegin
  2
*D83
 70
     1
 10
0.0
 20
0.0
 30
0.0
  3
*D83
  1

  0
LINE
  5
8FF7
330
F6E
100
AcDbEntity
  8
cotas
100
AcDbLine
 10
-32.30403939000178
 20
2002.663151955518
 30
0.0
 11
-65.45409519956343
 21
1988.648983274493
 31
0.0
  0
MTEXT
  5
8FF8
330
F6E
100
AcDbEntity
  8
cotas
100
AcDbMText
 10
-48.20806528515095
 20
2006.909623791253
 30
0.0
 40
10.0
 41
0.0
 71
     5
 72
     1
  1
R5
  7
SANINDUSA
 11
0.9210754450538777
 21
0.3893841605905426
 31
0.0
 73
     1
 44
1.0
1001
ACAD
1000
MTEXTBEGIN
1070
    73
1070
     1
1070
    44
1040
1.0
1070
    74
1070
     0
1000
MTEXTEND
  0
LINE
  5
8FF9
330
F6E
100
AcDbEntity
  8
cotas
100
AcDbLine
 10
-79.26923505398997
 20
1982.808640157603
 30
0.0
 11
-74.66484965010216
 21
1984.755141668587
 31
0.0
  0
SOLID
  5
8FFA
330
F6E
100
AcDbEntity
  8
cotas
100
AcDbTrace
 10
-66.1030688005477
 20
1990.184109016249
 30
0.0
 11
-64.80512159857915
 21
1987.113857532736
 31
0.0
 12
-74.66484965010216
 22
1984.755141668587
 32
0.0
 13
-74.66484965010216
 23
1984.755141668587
 33
0.0
  0
POINT
  5
8FFB
330
F6E
100
AcDbEntity
  8
Defpoints
 62
     0
100
AcDbPoint
 10
-74.66484965010216
 20
1984.755141668587
 30
0.0
  0
POINT
  5
8FFC
330
F6E
100
AcDbEntity
  8
Defpoints
 62
     0
100
AcDbPoint
 10
-79.26923505398997
 20
1982.808640157603
 30
0.0
  0
ENDBLK
  5
F76
330
F6E
100
AcDbEntity
  8
0
100
AcDbBlockEnd
  0
BLOCK
  5
F7E
330
F77
100
AcDbEntity
  8
0
100
AcDbBlockBegin
  2
*D84
 70
     1
 10
0.0
 20
0.0
 30
0.0
  3
*D84
  1

  0
LINE
  5
8FFD
330
F77
100
AcDbEntity
  8
cotas
100
AcDbLine
 10
-1718.914911171627
 20
1999.305516102194
 30
0.0
 11
-1684.860019924593
 21
1987.661311271037
 31
0.0
  0
MTEXT
  5
8FFE
330
F77
100
AcDbEntity
  8
cotas
100
AcDbMText
 10
-1703.349521970006
 20
2004.661748147888
 30
0.0
 40
10.0
 41
0.0
 71
     5
 72
     1
  1
R5
  7
SANINDUSA
 11
0.9462163289202166
 21
-0.3235346332075568
 31
0.0
 73
     1
 44
1.0
1001
ACAD
1000
MTEXTBEGIN
1070
    73
1070
     1
1070
    44
1040
1.0
1070
    74
1070
     0
1000
MTEXTEND
  0
LINE
  5
8FFF
330
F77
100
AcDbEntity
  8
cotas
100
AcDbLine
 10
-1670.667793884074
 20
1982.808640157595
 30
0.0
 11
-1675.397856635391
 21
1984.425964938962
 31
0.0
  0
SOLID
  5
9000
330
F77
100
AcDbEntity
  8
cotas
100
AcDbTrace
 10
-1684.320795535914
 20
1989.238338485904
 30
0.0
 11
-1685.399244313272
 21
1986.08428405617
 31
0.0
 12
-1675.397856635391
 22
1984.425964938962
 32
0.0
 13
-1675.397856635391
 23
1984.425964938962
 33
0.0
  0
POINT
  5
9001
330
F77
100
AcDbEntity
  8
Defpoints
 62
     0
100
AcDbPoint
 10
-1675.397856635391
 20
1984.425964938962
 30
0.0
  0
POINT
  5
9002
330
F77
100
AcDbEntity
  8
Defpoints
 62
     0
100
AcDbPoint
 10
-1670.667793884074
 20
1982.808640157595
 30
0.0
  0
ENDBLK
  5
F7F
330
F77
100
AcDbEntity
  8
0
100
AcDbBlockEnd
  0
BLOCK
  5
F8A
330
F80
100
AcDbEntity
  8
0
100
AcDbBlockBegin
  2
*D85
 70
     1
 10
0.0
 20
0.0
 30
0.0
  3
*D85
  1

  0
LINE
  5
9003
330
F80
100
AcDbEntity
  8
cotas
100
AcDbLine
 10
-920.2365071354668
 20
1186.40184812144
 30
0.0
 11
-1055.870382880656
 21
1186.40184812144
 31
0.0
  0
LINE
  5
9004
330
F80
100
AcDbEntity
  8
cotas
100
AcDbLine
 10
-1023.521230866568
 20
1347.099713072526
 30
0.0
 11
-1055.870382880656
 21
1347.099713072526
 31
0.0
  0
LINE
  5
9005
330
F80
100
AcDbEntity
  8
cotas
100
AcDbLine
 10
-1050.870382880656
 20
1196.401848121441
 30
0.0
 11
-1050.870382880656
 21
1337.099713072526
 31
0.0
  0
SOLID
  5
9006
330
F80
100
AcDbEntity
  8
cotas
100
AcDbTrace
 10
-1052.537049547322
 20
1196.401848121441
 30
0.0
 11
-1049.203716213989
 21
1196.401848121441
 31
0.0
 12
-1050.870382880656
 22
1186.40184812144
 32
0.0
 13
-1050.870382880656
 23
1186.40184812144
 33
0.0
  0
SOLID
  5
9007
330
F80
100
AcDbEntity
  8
cotas
100
AcDbTrace
 10
-1052.537049547322
 20
1337.099713072526
 30
0.0
 11
-1049.203716213989
 21
1337.099713072526
 31
0.0
 12
-1050.870382880656
 22
1347.099713072526
 32
0.0
 13
-1050.870382880656
 23
1347.099713072526
 33
0.0
  0
MTEXT
  5
9008
330
F80
100
AcDbEntity
  8
cotas
100
AcDbMText
 10
-1062.213566225183
 20
1299.523133211092
 30
0.0
 40
10.0
 41
0.0
 71
     5
 72
     1
  1
160,7
  7
SANINDUSA
 11
0.0000000000000001
 21
1.0
 31
0.0
 73
     1
 44
1.0
1001
ACAD
1000
MTEXTBEGIN
1070
    73
1070
     1
1070
    44
1040
1.0
1070
    74
1070
     0
1000
MTEXTEND
  0
POINT
  5
9009
330
F80
100
AcDbEntity
  8
Defpoints
 62
     0
100
AcDbPoint
 10
-915.2365071354667
 20
1186.40184812144
 30
0.0
  0
POINT
  5
900A
330
F80
100
AcDbEntity
  8
Defpoints
 62
     0
100
AcDbPoint
 10
-1018.521230866568
 20
1347.099713072526
 30
0.0
  0
POINT
  5
900B
330
F80
100
AcDbEntity
  8
Defpoints
 62
     0
100
AcDbPoint
 10
-1050.870382880656
 20
1347.099713072526
 30
0.0
  0
ENDBLK
  5
F8B
330
F80
100
AcDbEntity
  8
0
100
AcDbBlockEnd
  0
BLOCK
  5
F96
330
F8C
100
AcDbEntity
  8
0
100
AcDbBlockBegin
  2
*D86
 70
     1
 10
0.0
 20
0.0
 30
0.0
  3
*D86
  1

  0
LINE
  5
900C
330
F8C
100
AcDbEntity
  8
cotas
100
AcDbLine
 10
-1023.521230866568
 20
1347.099713072526
 30
0.0
 11
-1055.870382880656
 21
1347.099713072526
 31
0.0
  0
LINE
  5
900D
330
F8C
100
AcDbEntity
  8
cotas
100
AcDbLine
 10
-1023.586874308208
 20
1427.070412880111
 30
0.0
 11
-1055.870382880656
 21
1427.070412880111
 31
0.0
  0
LINE
  5
900E
330
F8C
100
AcDbEntity
  8
cotas
100
AcDbLine
 10
-1050.870382880656
 20
1357.099713072526
 30
0.0
 11
-1050.870382880656
 21
1417.070412880111
 31
0.0
  0
SOLID
  5
900F
330
F8C
100
AcDbEntity
  8
cotas
100
AcDbTrace
 10
-1052.537049547323
 20
1357.099713072526
 30
0.0
 11
-1049.203716213989
 21
1357.099713072526
 31
0.0
 12
-1050.870382880656
 22
1347.099713072526
 32
0.0
 13
-1050.870382880656
 23
1347.099713072526
 33
0.0
  0
SOLID
  5
9010
330
F8C
100
AcDbEntity
  8
cotas
100
AcDbTrace
 10
-1052.537049547323
 20
1417.070412880111
 30
0.0
 11
-1049.203716213989
 21
1417.070412880111
 31
0.0
 12
-1050.870382880656
 22
1427.070412880111
 32
0.0
 13
-1050.870382880656
 23
1427.070412880111
 33
0.0
  0
MTEXT
  5
9011
330
F8C
100
AcDbEntity
  8
cotas
100
AcDbMText
 10
-1061.098724049226
 20
1387.085062976318
 30
0.0
 40
10.0
 41
0.0
 71
     5
 72
     1
  1
80
  7
SANINDUSA
 11
0.0000000000000001
 21
1.0
 31
0.0
 73
     1
 44
1.0
1001
ACAD
1000
MTEXTBEGIN
1070
    73
1070
     1
1070
    44
1040
1.0
1070
    74
1070
     0
1000
MTEXTEND
  0
POINT
  5
9012
330
F8C
100
AcDbEntity
  8
Defpoints
 62
     0
100
AcDbPoint
 10
-1018.521230866568
 20
1347.099713072526
 30
0.0
  0
POINT
  5
9013
330
F8C
100
AcDbEntity
  8
Defpoints
 62
     0
100
AcDbPoint
 10
-1018.586874308208
 20
1427.070412880111
 30
0.0
  0
POINT
  5
9014
330
F8C
100
AcDbEntity
  8
Defpoints
 62
     0
100
AcDbPoint
 10
-1050.870382880656
 20
1427.070412880111
 30
0.0
  0
ENDBLK
  5
F97
330
F8C
100
AcDbEntity
  8
0
100
AcDbBlockEnd
  0
BLOCK
  5
FA2
330
F98
100
AcDbEntity
  8
0
100
AcDbBlockBegin
  2
*D87
 70
     1
 10
0.0
 20
0.0
 30
0.0
  3
*D87
  1

  0
LINE
  5
9015
330
F98
100
AcDbEntity
  8
cotas
100
AcDbLine
 10
-1023.586874308208
 20
1427.070412880111
 30
0.0
 11
-1055.870382880656
 21
1427.070412880111
 31
0.0
  0
LINE
  5
9016
330
F98
100
AcDbEntity
  8
cotas
100
AcDbLine
 10
-1023.541921948337
 20
1507.098924268185
 30
0.0
 11
-1055.870382880656
 21
1507.098924268185
 31
0.0
  0
LINE
  5
9017
330
F98
100
AcDbEntity
  8
cotas
100
AcDbLine
 10
-1050.870382880656
 20
1437.070412880111
 30
0.0
 11
-1050.870382880656
 21
1497.098924268185
 31
0.0
  0
SOLID
  5
9018
330
F98
100
AcDbEntity
  8
cotas
100
AcDbTrace
 10
-1052.537049547323
 20
1437.070412880111
 30
0.0
 11
-1049.203716213989
 21
1437.070412880111
 31
0.0
 12
-1050.870382880656
 22
1427.070412880111
 32
0.0
 13
-1050.870382880656
 23
1427.070412880111
 33
0.0
  0
SOLID
  5
9019
330
F98
100
AcDbEntity
  8
cotas
100
AcDbTrace
 10
-1052.537049547323
 20
1497.098924268185
 30
0.0
 11
-1049.203716213989
 21
1497.098924268185
 31
0.0
 12
-1050.870382880656
 22
1507.098924268185
 32
0.0
 13
-1050.870382880656
 23
1507.098924268185
 33
0.0
  0
MTEXT
  5
901A
330
F98
100
AcDbEntity
  8
cotas
100
AcDbMText
 10
-1061.098724049226
 20
1467.084668574148
 30
0.0
 40
10.0
 41
0.0
 71
     5
 72
     1
  1
80
  7
SANINDUSA
 11
0.0000000000000001
 21
1.0
 31
0.0
 73
     1
 44
1.0
1001
ACAD
1000
MTEXTBEGIN
1070
    73
1070
     1
1070
    44
1040
1.0
1070
    74
1070
     0
1000
MTEXTEND
  0
POINT
  5
901B
330
F98
100
AcDbEntity
  8
Defpoints
 62
     0
100
AcDbPoint
 10
-1018.586874308208
 20
1427.070412880111
 30
0.0
  0
POINT
  5
901C
330
F98
100
AcDbEntity
  8
Defpoints
 62
     0
100
AcDbPoint
 10
-1018.541921948337
 20
1507.098924268185
 30
0.0
  0
POINT
  5
901D
330
F98
100
AcDbEntity
  8
Defpoints
 62
     0
100
AcDbPoint
 10
-1050.870382880656
 20
1507.098924268185
 30
0.0
  0
ENDBLK
  5
FA3
330
F98
100
AcDbEntity
  8
0
100
AcDbBlockEnd
  0
BLOCK
  5
FAE
330
FA4
100
AcDbEntity
  8
0
100
AcDbBlockBegin
  2
*D88
 70
     1
 10
0.0
 20
0.0
 30
0.0
  3
*D88
  1

  0
LINE
  5
901E
330
FA4
100
AcDbEntity
  8
cotas
100
AcDbLine
 10
-1023.541921948337
 20
1507.098924268185
 30
0.0
 11
-1055.870382880657
 21
1507.098924268185
 31
0.0
  0
LINE
  5
901F
330
FA4
100
AcDbEntity
  8
cotas
100
AcDbLine
 10
-1023.603285308759
 20
1587.120520594325
 30
0.0
 11
-1055.870382880657
 21
1587.120520594325
 31
0.0
  0
LINE
  5
9020
330
FA4
100
AcDbEntity
  8
cotas
100
AcDbLine
 10
-1050.870382880657
 20
1517.098924268185
 30
0.0
 11
-1050.870382880657
 21
1577.120520594325
 31
0.0
  0
MTEXT
  5
9021
330
FA4
100
AcDbEntity
  8
cotas
100
AcDbMText
 10
-1061.098724049227
 20
1547.109722431255
 30
0.0
 40
10.0
 41
0.0
 71
     5
 72
     1
  1
80
  7
SANINDUSA
 11
0.0000000000000001
 21
1.0
 31
0.0
 73
     1
 44
1.0
1001
ACAD
1000
MTEXTBEGIN
1070
    73
1070
     1
1070
    44
1040
1.0
1070
    74
1070
     0
1000
MTEXTEND
  0
SOLID
  5
9022
330
FA4
100
AcDbEntity
  8
cotas
100
AcDbTrace
 10
-1052.537049547324
 20
1517.098924268185
 30
0.0
 11
-1049.20371621399
 21
1517.098924268185
 31
0.0
 12
-1050.870382880657
 22
1507.098924268185
 32
0.0
 13
-1050.870382880657
 23
1507.098924268185
 33
0.0
  0
SOLID
  5
9023
330
FA4
100
AcDbEntity
  8
cotas
100
AcDbTrace
 10
-1052.537049547324
 20
1577.120520594325
 30
0.0
 11
-1049.20371621399
 21
1577.120520594325
 31
0.0
 12
-1050.870382880657
 22
1587.120520594325
 32
0.0
 13
-1050.870382880657
 23
1587.120520594325
 33
0.0
  0
POINT
  5
9024
330
FA4
100
AcDbEntity
  8
Defpoints
 62
     0
100
AcDbPoint
 10
-1018.541921948337
 20
1507.098924268185
 30
0.0
  0
POINT
  5
9025
330
FA4
100
AcDbEntity
  8
Defpoints
 62
     0
100
AcDbPoint
 10
-1018.60328530876
 20
1587.120520594325
 30
0.0
  0
POINT
  5
9026
330
FA4
100
AcDbEntity
  8
Defpoints
 62
     0
100
AcDbPoint
 10
-1050.870382880657
 20
1587.120520594325
 30
0.0
  0
ENDBLK
  5
FAF
330
FA4
100
AcDbEntity
  8
0
100
AcDbBlockEnd
  0
BLOCK
  5
FBA
330
FB0
100
AcDbEntity
  8
0
100
AcDbBlockBegin
  2
*D89
 70
     1
 10
0.0
 20
0.0
 30
0.0
  3
*D89
  1

  0
LINE
  5
9027
330
FB0
100
AcDbEntity
  8
cotas
100
AcDbLine
 10
-1023.603285308759
 20
1587.120520594325
 30
0.0
 11
-1055.870382880656
 21
1587.120520594325
 31
0.0
  0
LINE
  5
9028
330
FB0
100
AcDbEntity
  8
cotas
100
AcDbLine
 10
-1023.530351987969
 20
1667.102071673789
 30
0.0
 11
-1055.870382880656
 21
1667.102071673789
 31
0.0
  0
LINE
  5
9029
330
FB0
100
AcDbEntity
  8
cotas
100
AcDbLine
 10
-1050.870382880656
 20
1597.120520594325
 30
0.0
 11
-1050.870382880656
 21
1657.102071673789
 31
0.0
  0
SOLID
  5
902A
330
FB0
100
AcDbEntity
  8
cotas
100
AcDbTrace
 10
-1052.537049547323
 20
1597.120520594325
 30
0.0
 11
-1049.203716213989
 21
1597.120520594325
 31
0.0
 12
-1050.870382880656
 22
1587.120520594325
 32
0.0
 13
-1050.870382880656
 23
1587.120520594325
 33
0.0
  0
SOLID
  5
902B
330
FB0
100
AcDbEntity
  8
cotas
100
AcDbTrace
 10
-1052.537049547323
 20
1657.102071673789
 30
0.0
 11
-1049.203716213989
 21
1657.102071673789
 31
0.0
 12
-1050.870382880656
 22
1667.102071673789
 32
0.0
 13
-1050.870382880656
 23
1667.102071673789
 33
0.0
  0
MTEXT
  5
902C
330
FB0
100
AcDbEntity
  8
cotas
100
AcDbMText
 10
-1061.098724049226
 20
1627.111296134057
 30
0.0
 40
10.0
 41
0.0
 71
     5
 72
     1
  1
80
  7
SANINDUSA
 11
0.0000000000000001
 21
1.0
 31
0.0
 73
     1
 44
1.0
1001
ACAD
1000
MTEXTBEGIN
1070
    73
1070
     1
1070
    44
1040
1.0
1070
    74
1070
     0
1000
MTEXTEND
  0
POINT
  5
902D
330
FB0
100
AcDbEntity
  8
Defpoints
 62
     0
100
AcDbPoint
 10
-1018.60328530876
 20
1587.120520594325
 30
0.0
  0
POINT
  5
902E
330
FB0
100
AcDbEntity
  8
Defpoints
 62
     0
100
AcDbPoint
 10
-1018.530351987969
 20
1667.102071673789
 30
0.0
  0
POINT
  5
902F
330
FB0
100
AcDbEntity
  8
Defpoints
 62
     0
100
AcDbPoint
 10
-1050.870382880656
 20
1667.102071673789
 30
0.0
  0
ENDBLK
  5
FBB
330
FB0
100
AcDbEntity
  8
0
100
AcDbBlockEnd
  0
BLOCK
  5
FC6
330
FBC
100
AcDbEntity
  8
0
100
AcDbBlockBegin
  2
*D90
 70
     1
 10
0.0
 20
0.0
 30
0.0
  3
*D90
  1

  0
LINE
  5
9030
330
FBC
100
AcDbEntity
  8
cotas
100
AcDbLine
 10
-1023.530351987969
 20
1667.102071673789
 30
0.0
 11
-1055.870382880656
 21
1667.102071673789
 31
0.0
  0
LINE
  5
9031
330
FBC
100
AcDbEntity
  8
cotas
100
AcDbLine
 10
-1023.520080989732
 20
1747.101332888711
 30
0.0
 11
-1055.870382880656
 21
1747.101332888711
 31
0.0
  0
LINE
  5
9032
330
FBC
100
AcDbEntity
  8
cotas
100
AcDbLine
 10
-1050.870382880656
 20
1677.102071673789
 30
0.0
 11
-1050.870382880656
 21
1737.101332888711
 31
0.0
  0
SOLID
  5
9033
330
FBC
100
AcDbEntity
  8
cotas
100
AcDbTrace
 10
-1052.537049547323
 20
1677.102071673789
 30
0.0
 11
-1049.203716213989
 21
1677.102071673789
 31
0.0
 12
-1050.870382880656
 22
1667.102071673789
 32
0.0
 13
-1050.870382880656
 23
1667.102071673789
 33
0.0
  0
SOLID
  5
9034
330
FBC
100
AcDbEntity
  8
cotas
100
AcDbTrace
 10
-1052.537049547323
 20
1737.101332888711
 30
0.0
 11
-1049.203716213989
 21
1737.101332888711
 31
0.0
 12
-1050.870382880656
 22
1747.101332888711
 32
0.0
 13
-1050.870382880656
 23
1747.101332888711
 33
0.0
  0
MTEXT
  5
9035
330
FBC
100
AcDbEntity
  8
cotas
100
AcDbMText
 10
-1061.098724049226
 20
1707.10170228125
 30
0.0
 40
10.0
 41
0.0
 71
     5
 72
     1
  1
80
  7
SANINDUSA
 11
0.0000000000000001
 21
1.0
 31
0.0
 73
     1
 44
1.0
1001
ACAD
1000
MTEXTBEGIN
1070
    73
1070
     1
1070
    44
1040
1.0
1070
    74
1070
     0
1000
MTEXTEND
  0
POINT
  5
9036
330
FBC
100
AcDbEntity
  8
Defpoints
 62
     0
100
AcDbPoint
 10
-1018.530351987969
 20
1667.102071673789
 30
0.0
  0
POINT
  5
9037
330
FBC
100
AcDbEntity
  8
Defpoints
 62
     0
100
AcDbPoint
 10
-1018.520080989732
 20
1747.101332888711
 30
0.0
  0
POINT
  5
9038
330
FBC
100
AcDbEntity
  8
Defpoints
 62
     0
100
AcDbPoint
 10
-1050.870382880656
 20
1747.101332888711
 30
0.0
  0
ENDBLK
  5
FC7
330
FBC
100
AcDbEntity
  8
0
100
AcDbBlockEnd
  0
BLOCK
  5
FD3
330
FC8
100
AcDbEntity
  8
0
100
AcDbBlockBegin
  2
*D91
 70
     1
 10
0.0
 20
0.0
 30
0.0
  3
*D91
  1

  0
LINE
  5
8DF5
330
FC8
100
AcDbEntity
  8
cotas
100
AcDbLine
 10
953.2770320777187
 20
1599.83918056487
 30
0.0
 11
953.8251180506675
 21
1568.439356204297
 31
0.0
  0
ARC
  5
8DF6
330
FC8
100
AcDbEntity
  8
cotas
100
AcDbCircle
 10
952.4915674484029
 20
1644.838419040652
 30
0.0
 40
71.41070055615367
100
AcDbArc
 50
188.0299867699656
 51
262.9700132300351
  0
SOLID
  5
8DF7
330
FC8
100
AcDbEntity
  8
cotas
100
AcDbTrace
 10
880.1184658007011
 20
1634.746265558032
 30
0.0
 11
883.4436183405534
 21
1634.979657284158
 31
0.0
 12
881.0808668922494
 22
1644.838419040652
 32
0.0
 13
881.0808668922494
 23
1644.838419040652
 33
0.0
  0
SOLID
  5
8DF8
330
FC8
100
AcDbEntity
  8
cotas
100
AcDbTrace
 10
943.8393601005682
 20
1575.62892715275
 30
0.0
 11
943.664035834724
 21
1572.300207802472
 31
0.0
 12
953.737856018481
 22
1573.438594680079
 32
0.0
 13
953.737856018481
 23
1573.438594680079
 33
0.0
  0
MTEXT
  5
8DF9
330
FC8
100
AcDbEntity
  8
cotas
100
AcDbMText
 10
926.4330180102152
 20
1589.449502501055
 30
0.0
 40
10.0
 41
0.0
 71
     5
 72
     1
  1
91°
  7
SANINDUSA
 11
0.9048616415632446
 21
-0.4257057782406414
 31
0.0
 73
     1
 44
1.0
1001
ACAD
1000
MTEXTBEGIN
1070
    73
1070
     1
1070
    44
1040
1.0
1070
    74
1070
     0
1000
MTEXTEND
  0
POINT
  5
8DFA
330
FC8
100
AcDbEntity
  8
Defpoints
 62
     0
100
AcDbPoint
 10
890.8568573866071
 20
1608.77388425204
 30
0.0
  0
POINT
  5
8DFB
330
FC8
100
AcDbEntity
  8
Defpoints
 62
     0
100
AcDbPoint
 10
952.611620472688
 20
1637.960585885713
 30
0.0
  0
POINT
  5
8DFC
330
FC8
100
AcDbEntity
  8
Defpoints
 62
     0
100
AcDbPoint
 10
209.3704482902142
 20
1644.838419040652
 30
0.0
  0
POINT
  5
8DFD
330
FC8
100
AcDbEntity
  8
Defpoints
 62
     0
100
AcDbPoint
 10
945.6126866065956
 20
1644.838419040653
 30
0.0
  0
POINT
  5
8DFE
330
FC8
100
AcDbEntity
  8
Defpoints
 62
     0
100
AcDbPoint
 10
953.1897700455322
 20
1604.838419040652
 30
0.0
  0
ENDBLK
  5
FD4
330
FC8
100
AcDbEntity
  8
0
100
AcDbBlockEnd
  0
BLOCK
  5
FE0
330
FD5
100
AcDbEntity
  8
0
100
AcDbBlockBegin
  2
*D92
 70
     1
 10
0.0
 20
0.0
 30
0.0
  3
*D92
  1

  0
LINE
  5
8DEB
330
FD5
100
AcDbEntity
  8
cotas
100
AcDbLine
 10
151.7060847028386
 20
1599.83918056487
 30
0.0
 11
151.1179377602877
 21
1566.144264792913
 31
0.0
  0
ARC
  5
8DEC
330
FD5
100
AcDbEntity
  8
cotas
100
AcDbCircle
 10
152.4915493321543
 20
1644.838419040652
 30
0.0
 40
73.70614157432254
100
AcDbArc
 50
276.7795166034149
 51
352.2204833965842
  0
SOLID
  5
8DED
330
FD5
100
AcDbEntity
  8
cotas
100
AcDbTrace
 10
161.2765076683762
 20
1569.983100129018
 30
0.0
 11
161.1084596122767
 21
1573.312194744968
 31
0.0
 12
151.2051997924742
 22
1571.143503268695
 32
0.0
 13
151.2051997924742
 23
1571.143503268695
 33
0.0
  0
SOLID
  5
8DEE
330
FD5
100
AcDbEntity
  8
cotas
100
AcDbTrace
 10
223.85649401699
 20
1634.974516420369
 30
0.0
 11
227.1821487527299
 21
1634.748393246496
 31
0.0
 12
226.197690906477
 22
1644.838419040652
 32
0.0
 13
226.197690906477
 23
1644.838419040652
 33
0.0
  0
MTEXT
  5
8DEF
330
FD5
100
AcDbEntity
  8
cotas
100
AcDbMText
 10
181.213524993458
 20
1588.196411869277
 30
0.0
 40
10.0
 41
0.0
 71
     5
 72
     1
  1
91°
  7
SANINDUSA
 11
0.8918874397272528
 21
0.4522574431192547
 31
0.0
 73
     1
 44
1.0
1001
ACAD
1000
MTEXTBEGIN
1070
    73
1070
     1
1070
    44
1040
1.0
1070
    74
1070
     0
1000
MTEXTEND
  0
POINT
  5
8DF0
330
FD5
100
AcDbEntity
  8
Defpoints
 62
     0
100
AcDbPoint
 10
216.107458857293
 20
1607.61461803829
 30
0.0
  0
POINT
  5
8DF1
330
FD5
100
AcDbEntity
  8
Defpoints
 62
     0
100
AcDbPoint
 10
159.3704301739636
 20
1644.838419040652
 30
0.0
  0
POINT
  5
8DF2
330
FD5
100
AcDbEntity
  8
Defpoints
 62
     0
100
AcDbPoint
 10
151.7933467350251
 20
1604.838419040653
 30
0.0
  0
POINT
  5
8DF3
330
FD5
100
AcDbEntity
  8
Defpoints
 62
     0
100
AcDbPoint
 10
152.3714963078694
 20
1637.960585885712
 30
0.0
  0
POINT
  5
8DF4
330
FD5
100
AcDbEntity
  8
Defpoints
 62
     0
100
AcDbPoint
 10
895.612668490345
 20
1644.838419040652
 30
0.0
  0
ENDBLK
  5
FE1
330
FD5
100
AcDbEntity
  8
0
100
AcDbBlockEnd
  0
BLOCK
  5
FEC
330
FE2
100
AcDbEntity
  8
0
100
AcDbBlockBegin
  2
*D93
 70
     1
 10
0.0
 20
0.0
 30
0.0
  3
*D93
  1

  0
LINE
  5
8EC1
330
FE2
100
AcDbEntity
  8
cotas
100
AcDbLine
 10
4546.391884397026
 20
1649.838414873355
 30
0.0
 11
4546.391884397026
 21
1674.838414873355
 31
0.0
  0
LINE
  5
8EC2
330
FE2
100
AcDbEntity
  8
cotas
100
AcDbLine
 10
4476.272747123864
 20
1649.838418146577
 30
0.0
 11
4476.272747123864
 21
1674.838414873355
 31
0.0
  0
LINE
  5
8EC3
330
FE2
100
AcDbEntity
  8
cotas
100
AcDbLine
 10
4536.391884397025
 20
1669.838414873355
 30
0.0
 11
4486.272747123865
 21
1669.838414873355
 31
0.0
  0
SOLID
  5
8EC4
330
FE2
100
AcDbEntity
  8
cotas
100
AcDbTrace
 10
4536.391884397025
 20
1671.505081540021
 30
0.0
 11
4536.391884397025
 21
1668.171748206688
 31
0.0
 12
4546.391884397026
 22
1669.838414873355
 32
0.0
 13
4546.391884397026
 23
1669.838414873355
 33
0.0
  0
SOLID
  5
8EC5
330
FE2
100
AcDbEntity
  8
cotas
100
AcDbTrace
 10
4486.272747123865
 20
1671.505081540021
 30
0.0
 11
4486.272747123865
 21
1668.171748206688
 31
0.0
 12
4476.272747123864
 22
1669.838414873355
 32
0.0
 13
4476.272747123864
 23
1669.838414873355
 33
0.0
  0
MTEXT
  5
8EC6
330
FE2
100
AcDbEntity
  8
cotas
100
AcDbMText
 10
4511.332315760445
 20
1680.043250333395
 30
0.0
 40
10.0
 41
0.0
 71
     5
 72
     1
  1
70
  7
SANINDUSA
 73
     1
 44
1.0
1001
ACAD
1000
MTEXTBEGIN
1070
    73
1070
     1
1070
    44
1040
1.0
1070
    74
1070
     0
1000
MTEXTEND
  0
POINT
  5
8EC7
330
FE2
100
AcDbEntity
  8
Defpoints
 62
     0
100
AcDbPoint
 10
4546.391884397026
 20
1644.838414873355
 30
0.0
  0
POINT
  5
8EC8
330
FE2
100
AcDbEntity
  8
Defpoints
 62
     0
100
AcDbPoint
 10
4476.272747123864
 20
1644.838418146577
 30
0.0
  0
POINT
  5
8EC9
330
FE2
100
AcDbEntity
  8
Defpoints
 62
     0
100
AcDbPoint
 10
4476.272747123864
 20
1669.838414873355
 30
0.0
  0
ENDBLK
  5
FED
330
FE2
100
AcDbEntity
  8
0
100
AcDbBlockEnd
  0
BLOCK
  5
FF8
330
FEE
100
AcDbEntity
  8
0
100
AcDbBlockBegin
  2
*D94
 70
     1
 10
0.0
 20
0.0
 30
0.0
  3
*D94
  1

  0
LINE
  5
8ECA
330
FEE
100
AcDbEntity
  8
cotas
100
AcDbLine
 10
4546.391884397026
 20
1649.838414873355
 30
0.0
 11
4546.391884397026
 21
1699.475168488516
 31
0.0
  0
LINE
  5
8ECB
330
FEE
100
AcDbEntity
  8
cotas
100
AcDbLine
 10
4366.657439358003
 20
1565.354292610747
 30
0.0
 11
4366.657439358003
 21
1699.475168488516
 31
0.0
  0
LINE
  5
8ECC
330
FEE
100
AcDbEntity
  8
cotas
100
AcDbLine
 10
4536.391884397025
 20
1694.475168488516
 30
0.0
 11
4376.657439358003
 21
1694.475168488516
 31
0.0
  0
SOLID
  5
8ECD
330
FEE
100
AcDbEntity
  8
cotas
100
AcDbTrace
 10
4536.391884397025
 20
1696.141835155183
 30
0.0
 11
4536.391884397025
 21
1692.808501821849
 31
0.0
 12
4546.391884397026
 22
1694.475168488516
 32
0.0
 13
4546.391884397026
 23
1694.475168488516
 33
0.0
  0
SOLID
  5
8ECE
330
FEE
100
AcDbEntity
  8
cotas
100
AcDbTrace
 10
4376.657439358003
 20
1696.141835155183
 30
0.0
 11
4376.657439358003
 21
1692.808501821849
 31
0.0
 12
4366.657439358003
 22
1694.475168488516
 32
0.0
 13
4366.657439358003
 23
1694.475168488516
 33
0.0
  0
MTEXT
  5
8ECF
330
FEE
100
AcDbEntity
  8
cotas
100
AcDbMText
 10
4456.524661877515
 20
1704.703509657085
 30
0.0
 40
10.0
 41
0.0
 71
     5
 72
     1
  1
180
  7
SANINDUSA
 73
     1
 44
1.0
1001
ACAD
1000
MTEXTBEGIN
1070
    73
1070
     1
1070
    44
1040
1.0
1070
    74
1070
     0
1000
MTEXTEND
  0
POINT
  5
8ED0
330
FEE
100
AcDbEntity
  8
Defpoints
 62
     0
100
AcDbPoint
 10
4546.391884397026
 20
1644.838414873355
 30
0.0
  0
POINT
  5
8ED1
330
FEE
100
AcDbEntity
  8
Defpoints
 62
     0
100
AcDbPoint
 10
4366.657439358003
 20
1560.354292610747
 30
0.0
  0
POINT
  5
8ED2
330
FEE
100
AcDbEntity
  8
Defpoints
 62
     0
100
AcDbPoint
 10
4366.657439358003
 20
1694.475168488516
 30
0.0
  0
ENDBLK
  5
FF9
330
FEE
100
AcDbEntity
  8
0
100
AcDbBlockEnd
  0
BLOCK
  5
1009
330
FFA
100
AcDbEntity
  8
0
100
AcDbBlockBegin
  2
*D95
 70
     1
 10
0.0
 20
0.0
 30
0.0
  3
*D95
  1

  0
LINE
  5
8ED3
330
FFA
100
AcDbEntity
  8
cotas
100
AcDbLine
 10
4473.397610470013
 20
1595.799088678503
 30
0.0
 11
4473.397610470013
 21
1631.560434410091
 31
0.0
  0
ARC
  5
8ED4
330
FFA
100
AcDbEntity
  8
cotas
100
AcDbCircle
 10
4473.397610470013
 20
1559.093111331497
 30
0.0
 40
67.46732307859383
100
AcDbArc
 50
70.95243734144496
 51
88.00000000000109
  0
LINE
  5
8ED5
330
FFA
100
AcDbEntity
  8
cotas
100
AcDbLine
 10
4495.415769764078
 20
1622.866462699388
 30
0.0
 11
4518.180439230064
 21
1615.00681430664
 31
0.0
  0
ARC
  5
8ED6
330
FFA
100
AcDbEntity
  8
cotas
100
AcDbCircle
 10
4473.397610470013
 20
1559.093111331497
 30
0.0
 40
67.46732307859383
100
AcDbArc
 50
70.99966431047237
 51
79.49983215523673
  0
ARC
  5
8ED7
330
FFA
100
AcDbEntity
  8
cotas
100
AcDbCircle
 10
4473.397610470013
 20
1559.093111331497
 30
0.0
 40
67.46732307859383
100
AcDbArc
 50
98.50016784476409
 51
107.0003356895284
  0
ARC
  5
8ED8
330
FFA
100
AcDbEntity
  8
cotas
100
AcDbCircle
 10
4473.397610470013
 20
1559.093111331497
 30
0.0
 40
67.46732307859383
100
AcDbArc
 50
88.00000000000109
 51
89.99999999999971
  0
SOLID
  5
8ED9
330
FFA
100
AcDbEntity
  8
cotas
100
AcDbTrace
 10
4485.511300658822
 20
1623.773891533163
 30
0.0
 11
4485.874195095049
 21
1627.087412129035
 31
0.0
 12
4475.752186089319
 22
1626.519335139778
 32
0.0
 13
4475.752186089319
 23
1626.519335139778
 33
0.0
  0
SOLID
  5
8EDA
330
FFA
100
AcDbEntity
  8
cotas
100
AcDbTrace
 10
4463.301593119697
 20
1627.481418362113
 30
0.0
 11
4463.548626289328
 21
1624.15725144028
 31
0.0
 12
4473.397610470013
 22
1626.560434410091
 32
0.0
 13
4473.397610470013
 23
1626.560434410091
 33
0.0
  0
MTEXT
  5
8EDB
330
FFA
100
AcDbEntity
  8
cotas
100
AcDbMText
 10
4510.095606172166
 20
1628.487515583766
 30
0.0
 40
10.0
 41
0.0
 71
     5
 72
     1
  1
2°
  7
SANINDUSA
 11
0.9452479875865334
 21
-0.3263529407920338
 31
0.0
 73
     1
 44
1.0
1001
ACAD
1000
MTEXTBEGIN
1070
    73
1070
     1
1070
    44
1040
1.0
1070
    74
1070
     0
1000
MTEXTEND
  0
POINT
  5
8EDC
330
FFA
100
AcDbEntity
  8
Defpoints
 62
     0
100
AcDbPoint
 10
4474.18261070694
 20
1626.555867412311
 30
0.0
  0
POINT
  5
8EDD
330
FFA
100
AcDbEntity
  8
Defpoints
 62
     0
100
AcDbPoint
 10
4473.397610470014
 20
1559.093111331508
 30
0.0
  0
POINT
  5
8EDE
330
FFA
100
AcDbEntity
  8
Defpoints
 62
     0
100
AcDbPoint
 10
4473.249795786405
 20
1554.860252612763
 30
0.0
  0
POINT
  5
8EDF
330
FFA
100
AcDbEntity
  8
Defpoints
 62
     0
100
AcDbPoint
 10
4476.155988198816
 20
1638.082714623495
 30
0.0
  0
POINT
  5
8EE0
330
FFA
100
AcDbEntity
  8
Defpoints
 62
     0
100
AcDbPoint
 10
4473.397610470013
 20
1590.799088678503
 30
0.0
  0
ENDBLK
  5
100A
330
FFA
100
AcDbEntity
  8
0
100
AcDbBlockEnd
  0
BLOCK
  5
1015
330
100B
100
AcDbEntity
  8
0
100
AcDbBlockBegin
  2
*D96
 70
     1
 10
0.0
 20
0.0
 30
0.0
  3
*D96
  1

  0
LINE
  5
8EE1
330
100B
100
AcDbEntity
  8
cotas
100
AcDbLine
 10
2946.391920812241
 20
1649.838418146585
 30
0.0
 11
2946.391920812241
 21
1674.475168485914
 31
0.0
  0
LINE
  5
8EE2
330
100B
100
AcDbEntity
  8
cotas
100
AcDbLine
 10
3016.511058142538
 20
1649.838418146585
 30
0.0
 11
3016.511058142538
 21
1674.475168485914
 31
0.0
  0
LINE
  5
8EE3
330
100B
100
AcDbEntity
  8
cotas
100
AcDbLine
 10
2956.391920812241
 20
1669.475168485915
 30
0.0
 11
3006.511058142538
 21
1669.475168485915
 31
0.0
  0
SOLID
  5
8EE4
330
100B
100
AcDbEntity
  8
cotas
100
AcDbTrace
 10
2956.391920812241
 20
1671.141835152581
 30
0.0
 11
2956.391920812241
 21
1667.808501819248
 31
0.0
 12
2946.391920812241
 22
1669.475168485915
 32
0.0
 13
2946.391920812241
 23
1669.475168485915
 33
0.0
  0
SOLID
  5
8EE5
330
100B
100
AcDbEntity
  8
cotas
100
AcDbTrace
 10
3006.511058142538
 20
1671.141835152581
 30
0.0
 11
3006.511058142538
 21
1667.808501819248
 31
0.0
 12
3016.511058142538
 22
1669.475168485915
 32
0.0
 13
3016.511058142538
 23
1669.475168485915
 33
0.0
  0
MTEXT
  5
8EE6
330
100B
100
AcDbEntity
  8
cotas
100
AcDbMText
 10
2981.45148947739
 20
1679.680003945955
 30
0.0
 40
10.0
 41
0.0
 71
     5
 72
     1
  1
70
  7
SANINDUSA
 73
     1
 44
1.0
1001
ACAD
1000
MTEXTBEGIN
1070
    73
1070
     1
1070
    44
1040
1.0
1070
    74
1070
     0
1000
MTEXTEND
  0
POINT
  5
8EE7
330
100B
100
AcDbEntity
  8
Defpoints
 62
     0
100
AcDbPoint
 10
2946.391920812241
 20
1644.838418146585
 30
0.0
  0
POINT
  5
8EE8
330
100B
100
AcDbEntity
  8
Defpoints
 62
     0
100
AcDbPoint
 10
3016.511058142538
 20
1644.838418146585
 30
0.0
  0
POINT
  5
8EE9
330
100B
100
AcDbEntity
  8
Defpoints
 62
     0
100
AcDbPoint
 10
3016.511058142538
 20
1669.475168485915
 30
0.0
  0
ENDBLK
  5
1016
330
100B
100
AcDbEntity
  8
0
100
AcDbBlockEnd
  0
BLOCK
  5
1021
330
1017
100
AcDbEntity
  8
0
100
AcDbBlockBegin
  2
*D97
 70
     1
 10
0.0
 20
0.0
 30
0.0
  3
*D97
  1

  0
LINE
  5
8EEA
330
1017
100
AcDbEntity
  8
cotas
100
AcDbLine
 10
2941.391920812241
 20
1644.838418146585
 30
0.0
 11
2890.693684960354
 21
1644.838418146585
 31
0.0
  0
LINE
  5
8EEB
330
1017
100
AcDbEntity
  8
cotas
100
AcDbLine
 10
3044.415306566529
 20
1575.25146802349
 30
0.0
 11
2890.693684960354
 21
1575.25146802349
 31
0.0
  0
LINE
  5
8EEC
330
1017
100
AcDbEntity
  8
cotas
100
AcDbLine
 10
2895.693684960354
 20
1634.838418146585
 30
0.0
 11
2895.693684960354
 21
1585.251468023491
 31
0.0
  0
SOLID
  5
8EED
330
1017
100
AcDbEntity
  8
cotas
100
AcDbTrace
 10
2894.027018293687
 20
1634.838418146585
 30
0.0
 11
2897.36035162702
 21
1634.838418146585
 31
0.0
 12
2895.693684960354
 22
1644.838418146585
 32
0.0
 13
2895.693684960354
 23
1644.838418146585
 33
0.0
  0
SOLID
  5
8EEE
330
1017
100
AcDbEntity
  8
cotas
100
AcDbTrace
 10
2894.027018293687
 20
1585.251468023491
 30
0.0
 11
2897.36035162702
 21
1585.251468023491
 31
0.0
 12
2895.693684960354
 22
1575.25146802349
 32
0.0
 13
2895.693684960354
 23
1575.25146802349
 33
0.0
  0
MTEXT
  5
8EEF
330
1017
100
AcDbEntity
  8
cotas
100
AcDbMText
 10
2884.350501615827
 20
1610.044943085038
 30
0.0
 40
10.0
 41
0.0
 71
     5
 72
     1
  1
69,6
  7
SANINDUSA
 11
0.0000000000000001
 21
1.0
 31
0.0
 73
     1
 44
1.0
1001
ACAD
1000
MTEXTBEGIN
1070
    73
1070
     1
1070
    44
1040
1.0
1070
    74
1070
     0
1000
MTEXTEND
  0
POINT
  5
8EF0
330
1017
100
AcDbEntity
  8
Defpoints
 62
     0
100
AcDbPoint
 10
2946.391920812241
 20
1644.838418146585
 30
0.0
  0
POINT
  5
8EF1
330
1017
100
AcDbEntity
  8
Defpoints
 62
     0
100
AcDbPoint
 10
3049.415306566529
 20
1575.25146802349
 30
0.0
  0
POINT
  5
8EF2
330
1017
100
AcDbEntity
  8
Defpoints
 62
     0
100
AcDbPoint
 10
2895.693684960354
 20
1575.25146802349
 30
0.0
  0
ENDBLK
  5
1022
330
1017
100
AcDbEntity
  8
0
100
AcDbBlockEnd
  0
BLOCK
  5
102D
330
1023
100
AcDbEntity
  8
0
100
AcDbBlockBegin
  2
*D98
 70
     1
 10
0.0
 20
0.0
 30
0.0
  3
*D98
  1

  0
LINE
  5
8EF3
330
1023
100
AcDbEntity
  8
cotas
100
AcDbLine
 10
4366.657469395193
 20
1560.541571457671
 30
0.0
 11
4366.657469395193
 21
1699.475168488516
 31
0.0
  0
LINE
  5
8EF4
330
1023
100
AcDbEntity
  8
cotas
100
AcDbLine
 10
2946.391920812241
 20
1649.838418146585
 30
0.0
 11
2946.391920812241
 21
1699.475168488516
 31
0.0
  0
LINE
  5
8EF5
330
1023
100
AcDbEntity
  8
cotas
100
AcDbLine
 10
4356.657469395194
 20
1694.475168488516
 30
0.0
 11
2956.391920812241
 21
1694.475168488516
 31
0.0
  0
SOLID
  5
8EF6
330
1023
100
AcDbEntity
  8
cotas
100
AcDbTrace
 10
4356.657469395194
 20
1696.141835155183
 30
0.0
 11
4356.657469395194
 21
1692.808501821849
 31
0.0
 12
4366.657469395193
 22
1694.475168488516
 32
0.0
 13
4366.657469395193
 23
1694.475168488516
 33
0.0
  0
SOLID
  5
8EF7
330
1023
100
AcDbEntity
  8
cotas
100
AcDbTrace
 10
2956.391920812241
 20
1696.141835155183
 30
0.0
 11
2956.391920812241
 21
1692.808501821849
 31
0.0
 12
2946.391920812241
 22
1694.475168488516
 32
0.0
 13
2946.391920812241
 23
1694.475168488516
 33
0.0
  0
MTEXT
  5
8EF8
330
1023
100
AcDbEntity
  8
cotas
100
AcDbMText
 10
3656.524695103718
 20
1705.821709791404
 30
0.0
 40
10.0
 41
0.0
 71
     5
 72
     1
  1
1420,3
  7
SANINDUSA
 73
     1
 44
1.0
1001
ACAD
1000
MTEXTBEGIN
1070
    73
1070
     1
1070
    44
1040
1.0
1070
    74
1070
     0
1000
MTEXTEND
  0
POINT
  5
8EF9
330
1023
100
AcDbEntity
  8
Defpoints
 62
     0
100
AcDbPoint
 10
4366.657469395193
 20
1555.541571457671
 30
0.0
  0
POINT
  5
8EFA
330
1023
100
AcDbEntity
  8
Defpoints
 62
     0
100
AcDbPoint
 10
2946.391920812241
 20
1644.838418146585
 30
0.0
  0
POINT
  5
8EFB
330
1023
100
AcDbEntity
  8
Defpoints
 62
     0
100
AcDbPoint
 10
2946.391920812241
 20
1694.475168488516
 30
0.0
  0
ENDBLK
  5
102E
330
1023
100
AcDbEntity
  8
0
100
AcDbBlockEnd
  0
BLOCK
  5
1039
330
102F
100
AcDbEntity
  8
0
100
AcDbBlockBegin
  2
*D99
 70
     1
 10
0.0
 20
0.0
 30
0.0
  3
*D99
  1

  0
LINE
  5
8DA7
330
102F
100
AcDbEntity
  8
cotas
100
AcDbLine
 10
952.4915674484038
 20
1649.838419040652
 30
0.0
 11
952.4915674484038
 21
1679.829953665705
 31
0.0
  0
LINE
  5
8DA8
330
102F
100
AcDbEntity
  8
cotas
100
AcDbLine
 10
152.4915493321534
 20
1649.838419040652
 30
0.0
 11
152.4915493321534
 21
1679.829953665705
 31
0.0
  0
LINE
  5
8DA9
330
102F
100
AcDbEntity
  8
cotas
100
AcDbLine
 10
942.4915674484038
 20
1674.829953665705
 30
0.0
 11
162.4915493321534
 21
1674.829953665705
 31
0.0
  0
SOLID
  5
8DAA
330
102F
100
AcDbEntity
  8
cotas
100
AcDbTrace
 10
942.4915674484038
 20
1676.496620332372
 30
0.0
 11
942.4915674484038
 21
1673.163286999039
 31
0.0
 12
952.4915674484038
 22
1674.829953665705
 32
0.0
 13
952.4915674484038
 23
1674.829953665705
 33
0.0
  0
SOLID
  5
8DAB
330
102F
100
AcDbEntity
  8
cotas
100
AcDbTrace
 10
162.4915493321534
 20
1676.496620332372
 30
0.0
 11
162.4915493321534
 21
1673.163286999039
 31
0.0
 12
152.4915493321534
 22
1674.829953665705
 32
0.0
 13
152.4915493321534
 23
1674.829953665705
 33
0.0
  0
MTEXT
  5
8DAC
330
102F
100
AcDbEntity
  8
cotas
100
AcDbMText
 10
552.4915583902786
 20
1685.058294834275
 30
0.0
 40
10.0
 41
0.0
 71
     5
 72
     1
  1
800
  7
SANINDUSA
 73
     1
 44
1.0
1001
ACAD
1000
MTEXTBEGIN
1070
    73
1070
     1
1070
    44
1040
1.0
1070
    74
1070
     0
1000
MTEXTEND
  0
POINT
  5
8DAD
330
102F
100
AcDbEntity
  8
Defpoints
 62
     0
100
AcDbPoint
 10
952.4915674484038
 20
1644.838419040652
 30
0.0
  0
POINT
  5
8DAE
330
102F
100
AcDbEntity
  8
Defpoints
 62
     0
100
AcDbPoint
 10
152.4915493321534
 20
1644.838419040652
 30
0.0
  0
POINT
  5
8DAF
330
102F
100
AcDbEntity
  8
Defpoints
 62
     0
100
AcDbPoint
 10
152.4915493321534
 20
1674.829953665705
 30
0.0
  0
ENDBLK
  5
103A
330
102F
100
AcDbEntity
  8
0
100
AcDbBlockEnd
  0
BLOCK
  5
104B
330
103B
100
AcDbEntity
  8
0
100
AcDbBlockBegin
  2
*D100
 70
     1
 10
0.0
 20
0.0
 30
0.0
  3
*D100
  1

  0
LINE
  5
8D98
330
103B
100
AcDbEntity
  8
cotas
100
AcDbLine
 10
219.9860028930073
 20
1565.109581864898
 30
0.0
 11
219.9860028930072
 21
1490.640428062503
 31
0.0
  0
LINE
  5
8D99
330
103B
100
AcDbEntity
  8
cotas
100
AcDbLine
 10
221.7775555481326
 20
1553.535063438694
 30
0.0
 11
223.9714553025728
 21
1490.70999439308
 31
0.0
  0
ARC
  5
8D9A
330
103B
100
AcDbEntity
  8
cotas
100
AcDbCircle
 10
219.9860028930073
 20
1604.838419040653
 30
0.0
 40
109.1979909781495
100
AcDbArc
 50
259.4913512490714
 51
270.0
  0
LINE
  5
8D9B
330
103B
100
AcDbEntity
  8
cotas
100
AcDbLine
 10
200.070042519182
 20
1497.471963589928
 30
0.0
 11
176.3907046173743
 21
1501.864366723207
 31
0.0
  0
ARC
  5
8D9C
330
103B
100
AcDbEntity
  8
cotas
100
AcDbCircle
 10
219.9860028930073
 20
1604.838419040653
 30
0.0
 40
109.1979909781495
100
AcDbArc
 50
259.5024040748623
 51
264.7512020374311
  0
ARC
  5
8D9D
330
103B
100
AcDbEntity
  8
cotas
100
AcDbCircle
 10
219.9860028930073
 20
1604.838419040653
 30
0.0
 40
109.1979909781495
100
AcDbArc
 50
277.2487979625645
 51
282.4975959251334
  0
ARC
  5
8D9E
330
103B
100
AcDbEntity
  8
cotas
100
AcDbCircle
 10
219.9860028930073
 20
1604.838419040653
 30
0.0
 40
109.1979909781495
100
AcDbArc
 50
270.0
 51
271.9999999999957
  0
SOLID
  5
8D9F
330
103B
100
AcDbEntity
  8
cotas
100
AcDbTrace
 10
210.0728052560885
 20
1497.763230547231
 30
0.0
 11
209.9201772954697
 21
1494.433393341488
 31
0.0
 12
219.9860028930072
 22
1495.640428062502
 32
0.0
 13
219.9860028930072
 23
1495.640428062502
 33
0.0
  0
SOLID
  5
8DA0
330
103B
100
AcDbEntity
  8
cotas
100
AcDbTrace
 10
233.8987764918796
 20
1494.851941347348
 30
0.0
 11
233.6300318655091
 21
1498.174423467226
 31
0.0
 12
223.7969578190607
 22
1495.706948528175
 32
0.0
 13
223.7969578190607
 23
1495.706948528175
 33
0.0
  0
MTEXT
  5
8DA1
330
103B
100
AcDbEntity
  8
cotas
100
AcDbMText
 10
190.0731985861304
 20
1509.60278977265
 30
0.0
 40
10.0
 41
0.0
 71
     5
 72
     1
  1
2°
  7
SANINDUSA
 11
0.9832273880588859
 21
-0.1823839449373249
 31
0.0
 73
     1
 44
1.0
1001
ACAD
1000
MTEXTBEGIN
1070
    73
1070
     1
1070
    44
1040
1.0
1070
    74
1070
     0
1000
MTEXTEND
  0
POINT
  5
8DA2
330
103B
100
AcDbEntity
  8
Defpoints
 62
     0
100
AcDbPoint
 10
222.5269261812069
 20
1495.669994381745
 30
0.0
  0
POINT
  5
8DA3
330
103B
100
AcDbEntity
  8
Defpoints
 62
     0
100
AcDbPoint
 10
219.9860028930073
 20
1604.838419040653
 30
0.0
  0
POINT
  5
8DA4
330
103B
100
AcDbEntity
  8
Defpoints
 62
     0
100
AcDbPoint
 10
219.9860028930073
 20
1604.838419040653
 30
0.0
  0
POINT
  5
8DA5
330
103B
100
AcDbEntity
  8
Defpoints
 62
     0
100
AcDbPoint
 10
219.9860028930073
 20
1570.109581864898
 30
0.0
  0
POINT
  5
8DA6
330
103B
100
AcDbEntity
  8
Defpoints
 62
     0
100
AcDbPoint
 10
221.6030580646204
 20
1558.53201757379
 30
0.0
  0
ENDBLK
  5
104C
330
103B
100
AcDbEntity
  8
0
100
AcDbBlockEnd
  0
BLOCK
  5
1053
330
104D
100
AcDbEntity
  8
0
100
AcDbBlockBegin
  2
*D101
 70
     1
 10
0.0
 20
0.0
 30
0.0
  3
*D101
  1

  0
LINE
  5
8D93
330
104D
100
AcDbEntity
  8
cotas
100
AcDbLine
 10
913.1797307430865
 20
1611.639036357058
 30
0.0
 11
943.2789873591646
 21
1635.953253842971
 31
0.0
  0
MTEXT
  5
8D94
330
104D
100
AcDbEntity
  8
cotas
100
AcDbMText
 10
917.0466809521924
 20
1627.617890528799
 30
0.0
 40
10.0
 41
0.0
 71
     5
 72
     1
  1
R7
  7
SANINDUSA
 11
0.7778997491430701
 21
0.6283883992270614
 31
0.0
 73
     1
 44
1.0
1001
ACAD
1000
MTEXTBEGIN
1070
    73
1070
     1
1070
    44
1040
1.0
1070
    74
1070
     0
1000
MTEXTEND
  0
SOLID
  5
8D95
330
104D
100
AcDbEntity
  8
cotas
100
AcDbTrace
 10
942.231673360453
 20
1637.249753424876
 30
0.0
 11
944.3263013578764
 21
1634.656754261066
 31
0.0
 12
951.0579848505953
 22
1642.237137835242
 32
0.0
 13
951.0579848505953
 23
1642.237137835242
 33
0.0
  0
POINT
  5
8D96
330
104D
100
AcDbEntity
  8
Defpoints
 62
     0
100
AcDbPoint
 10
951.0579848505953
 20
1642.237137835242
 30
0.0
  0
POINT
  5
8D97
330
104D
100
AcDbEntity
  8
Defpoints
 62
     0
100
AcDbPoint
 10
945.6126866065948
 20
1637.838419040653
 30
0.0
  0
ENDBLK
  5
1054
330
104D
100
AcDbEntity
  8
0
100
AcDbBlockEnd
  0
BLOCK
  5
105B
330
1055
100
AcDbEntity
  8
0
100
AcDbBlockBegin
  2
*D102
 70
     1
 10
0.0
 20
0.0
 30
0.0
  3
*D102
  1

  0
LINE
  5
8D8E
330
1055
100
AcDbEntity
  8
cotas
100
AcDbLine
 10
193.904805643896
 20
1612.860666388918
 30
0.0
 11
161.8012558738307
 21
1636.080270464205
 31
0.0
  0
MTEXT
  5
8D8F
330
1055
100
AcDbEntity
  8
cotas
100
AcDbMText
 10
189.1919981567148
 20
1628.610794329676
 30
0.0
 40
10.0
 41
0.0
 71
     5
 72
     1
  1
R7
  7
SANINDUSA
 11
0.8102752332901022
 21
-0.5860495254811409
 31
0.0
 73
     1
 44
1.0
1001
ACAD
1000
MTEXTBEGIN
1070
    73
1070
     1
1070
    44
1040
1.0
1070
    74
1070
     0
1000
MTEXTEND
  0
SOLID
  5
8D90
330
1055
100
AcDbEntity
  8
cotas
100
AcDbTrace
 10
162.778005082966
 20
1637.430729186355
 30
0.0
 11
160.8245066646955
 21
1634.729811742055
 31
0.0
 12
153.6985035409298
 22
1641.940765719017
 32
0.0
 13
153.6985035409298
 23
1641.940765719017
 33
0.0
  0
POINT
  5
8D91
330
1055
100
AcDbEntity
  8
Defpoints
 62
     0
100
AcDbPoint
 10
153.6985035409298
 20
1641.940765719017
 30
0.0
  0
POINT
  5
8D92
330
1055
100
AcDbEntity
  8
Defpoints
 62
     0
100
AcDbPoint
 10
159.3704301739591
 20
1637.838419040649
 30
0.0
  0
ENDBLK
  5
105C
330
1055
100
AcDbEntity
  8
0
100
AcDbBlockEnd
  0
BLOCK
  5
1064
330
105D
100
AcDbEntity
  8
0
100
AcDbBlockBegin
  2
*D103
 70
     1
 10
0.0
 20
0.0
 30
0.0
  3
*D103
  1

  0
LINE
  5
8EFC
330
105D
100
AcDbEntity
  8
cotas
100
AcDbLine
 10
2998.303368378859
 20
1530.875949471841
 30
0.0
 11
3021.35202302879
 21
1569.341261941499
 31
0.0
  0
MTEXT
  5
8EFD
330
105D
100
AcDbEntity
  8
cotas
100
AcDbMText
 10
2998.665386742409
 20
1550.968219796338
 30
0.0
 40
10.0
 41
0.0
 71
     5
 72
     1
  1
R17
  7
SANINDUSA
 11
0.5139950093417184
 21
0.8577931745891936
 31
0.0
 73
     1
 44
1.0
1001
ACAD
1000
MTEXTBEGIN
1070
    73
1070
     1
1070
    44
1040
1.0
1070
    74
1070
     0
1000
MTEXTEND
  0
LINE
  5
8EFE
330
105D
100
AcDbEntity
  8
cotas
100
AcDbLine
 10
3035.229888281014
 20
1592.501677655404
 30
0.0
 11
3026.491973122207
 21
1577.919193687391
 31
0.0
  0
SOLID
  5
8EFF
330
105D
100
AcDbEntity
  8
cotas
100
AcDbTrace
 10
3019.922367737808
 20
1570.197920290402
 30
0.0
 11
3022.781678319772
 21
1568.484603592596
 31
0.0
 12
3026.491973122207
 22
1577.919193687391
 32
0.0
 13
3026.491973122207
 23
1577.919193687391
 33
0.0
  0
POINT
  5
8F00
330
105D
100
AcDbEntity
  8
Defpoints
 62
     0
100
AcDbPoint
 10
3026.491973122207
 20
1577.919193687391
 30
0.0
  0
POINT
  5
8F01
330
105D
100
AcDbEntity
  8
Defpoints
 62
     0
100
AcDbPoint
 10
3035.229888281014
 20
1592.501677655404
 30
0.0
  0
ENDBLK
  5
1065
330
105D
100
AcDbEntity
  8
0
100
AcDbBlockEnd
  0
BLOCK
  5
1070
330
1066
100
AcDbEntity
  8
0
100
AcDbBlockBegin
  2
*D104
 70
     1
 10
0.0
 20
0.0
 30
0.0
  3
*D104
  1

  0
LINE
  5
8F19
330
1066
100
AcDbEntity
  8
cotas
100
AcDbLine
 10
3504.187868550663
 20
1582.315759393798
 30
0.0
 11
3504.642858680599
 21
1608.382183281043
 31
0.0
  0
LINE
  5
8F1A
330
1066
100
AcDbEntity
  8
cotas
100
AcDbLine
 10
3054.298319984631
 20
1590.168593562552
 30
0.0
 11
3054.753310114567
 21
1616.235017449797
 31
0.0
  0
LINE
  5
8F1B
330
1066
100
AcDbEntity
  8
cotas
100
AcDbLine
 10
3494.557119880306
 20
1603.557468486129
 30
0.0
 11
3064.664525230674
 21
1611.06125528651
 31
0.0
  0
SOLID
  5
8F1C
330
1066
100
AcDbEntity
  8
cotas
100
AcDbTrace
 10
3494.586207161004
 20
1605.223881312496
 30
0.0
 11
3494.528032599608
 21
1601.891055659763
 31
0.0
 12
3504.555596838506
 22
1603.382944801943
 32
0.0
 13
3504.555596838506
 23
1603.382944801943
 33
0.0
  0
SOLID
  5
8F1D
330
1066
100
AcDbEntity
  8
cotas
100
AcDbTrace
 10
3064.693612511371
 20
1612.727668112877
 30
0.0
 11
3064.635437949976
 21
1609.394842460143
 31
0.0
 12
3054.666048272474
 22
1611.235778970697
 32
0.0
 13
3054.666048272474
 23
1611.235778970697
 33
0.0
  0
MTEXT
  5
8F1E
330
1066
100
AcDbEntity
  8
cotas
100
AcDbMText
 10
3279.78892110359
 20
1617.512643107263
 30
0.0
 40
10.0
 41
0.0
 71
     5
 72
     1
  1
450
  7
SANINDUSA
 11
0.9998476958200079
 21
-0.0174523684186741
 31
0.0
 73
     1
 44
1.0
1001
ACAD
1000
MTEXTBEGIN
1070
    73
1070
     1
1070
    44
1040
1.0
1070
    74
1070
     0
1000
MTEXTEND
  0
POINT
  5
8F1F
330
1066
100
AcDbEntity
  8
Defpoints
 62
     0
100
AcDbPoint
 10
3504.10060670857
 20
1577.316520914698
 30
0.0
  0
POINT
  5
8F20
330
1066
100
AcDbEntity
  8
Defpoints
 62
     0
100
AcDbPoint
 10
3054.211058142537
 20
1585.169355083452
 30
0.0
  0
POINT
  5
8F21
330
1066
100
AcDbEntity
  8
Defpoints
 62
     0
100
AcDbPoint
 10
3054.666048272474
 20
1611.235778970697
 30
0.0
  0
ENDBLK
  5
1071
330
1066
100
AcDbEntity
  8
0
100
AcDbBlockEnd
  0
BLOCK
  5
107C
330
1072
100
AcDbEntity
  8
0
100
AcDbBlockBegin
  2
*D105
 70
     1
 10
0.0
 20
0.0
 30
0.0
  3
*D105
  1

  0
LINE
  5
8F22
330
1072
100
AcDbEntity
  8
cotas
100
AcDbLine
 10
2946.391159304493
 20
1644.751157008465
 30
0.0
 11
2920.075006122039
 21
1644.751157008465
 31
0.0
  0
LINE
  5
8F23
330
1072
100
AcDbEntity
  8
cotas
100
AcDbLine
 10
3049.589069368787
 20
1585.162697909263
 30
0.0
 11
2920.075006122039
 21
1585.162697909263
 31
0.0
  0
LINE
  5
8F24
330
1072
100
AcDbEntity
  8
cotas
100
AcDbLine
 10
2925.075006122039
 20
1634.751157008465
 30
0.0
 11
2925.075006122039
 21
1595.162697909263
 31
0.0
  0
SOLID
  5
8F25
330
1072
100
AcDbEntity
  8
cotas
100
AcDbTrace
 10
2923.408339455372
 20
1634.751157008465
 30
0.0
 11
2926.741672788705
 21
1634.751157008465
 31
0.0
 12
2925.075006122039
 22
1644.751157008465
 32
0.0
 13
2925.075006122039
 23
1644.751157008465
 33
0.0
  0
SOLID
  5
8F26
330
1072
100
AcDbEntity
  8
cotas
100
AcDbTrace
 10
2923.408339455372
 20
1595.162697909263
 30
0.0
 11
2926.741672788705
 21
1595.162697909263
 31
0.0
 12
2925.075006122039
 22
1585.162697909263
 32
0.0
 13
2925.075006122039
 23
1585.162697909263
 33
0.0
  0
MTEXT
  5
8F27
330
1072
100
AcDbEntity
  8
cotas
100
AcDbMText
 10
2913.731822777512
 20
1614.956927458865
 30
0.0
 40
10.0
 41
0.0
 71
     5
 72
     1
  1
59,6
  7
SANINDUSA
 11
0.0000000000000001
 21
1.0
 31
0.0
 73
     1
 44
1.0
1001
ACAD
1000
MTEXTBEGIN
1070
    73
1070
     1
1070
    44
1040
1.0
1070
    74
1070
     0
1000
MTEXTEND
  0
POINT
  5
8F28
330
1072
100
AcDbEntity
  8
Defpoints
 62
     0
100
AcDbPoint
 10
2951.391159304492
 20
1644.751157008465
 30
0.0
  0
POINT
  5
8F29
330
1072
100
AcDbEntity
  8
Defpoints
 62
     0
100
AcDbPoint
 10
3054.589069368787
 20
1585.162697909263
 30
0.0
  0
POINT
  5
8F2A
330
1072
100
AcDbEntity
  8
Defpoints
 62
     0
100
AcDbPoint
 10
2925.075006122039
 20
1585.162697909263
 30
0.0
  0
ENDBLK
  5
107D
330
1072
100
AcDbEntity
  8
0
100
AcDbBlockEnd
  0
BLOCK
  5
1088
330
107E
100
AcDbEntity
  8
0
100
AcDbBlockBegin
  2
*D106
 70
     1
 10
0.0
 20
0.0
 30
0.0
  3
*D106
  1

  0
LINE
  5
8F2B
330
107E
100
AcDbEntity
  8
cotas
100
AcDbLine
 10
3746.391163063945
 20
1644.751157008457
 30
0.0
 11
3562.421913332879
 21
1644.751157008457
 31
0.0
  0
LINE
  5
8F2C
330
107E
100
AcDbEntity
  8
cotas
100
AcDbLine
 10
3509.47861793482
 20
1577.309863740509
 30
0.0
 11
3572.421913332879
 21
1577.309863740509
 31
0.0
  0
LINE
  5
8F2D
330
107E
100
AcDbEntity
  8
cotas
100
AcDbLine
 10
3567.421913332879
 20
1634.751157008457
 30
0.0
 11
3567.421913332879
 21
1587.309863740509
 31
0.0
  0
SOLID
  5
8F2E
330
107E
100
AcDbEntity
  8
cotas
100
AcDbTrace
 10
3565.755246666213
 20
1634.751157008457
 30
0.0
 11
3569.088579999546
 21
1634.751157008457
 31
0.0
 12
3567.421913332879
 22
1644.751157008457
 32
0.0
 13
3567.421913332879
 23
1644.751157008457
 33
0.0
  0
SOLID
  5
8F2F
330
107E
100
AcDbEntity
  8
cotas
100
AcDbTrace
 10
3565.755246666213
 20
1587.309863740509
 30
0.0
 11
3569.088579999546
 21
1587.309863740509
 31
0.0
 12
3567.421913332879
 22
1577.309863740509
 32
0.0
 13
3567.421913332879
 23
1577.309863740509
 33
0.0
  0
MTEXT
  5
8F30
330
107E
100
AcDbEntity
  8
cotas
100
AcDbMText
 10
3556.085445905075
 20
1611.030510374484
 30
0.0
 40
10.0
 41
0.0
 71
     5
 72
     1
  1
67,4
  7
SANINDUSA
 11
0.0000000000000001
 21
1.0
 31
0.0
 73
     1
 44
1.0
1001
ACAD
1000
MTEXTBEGIN
1070
    73
1070
     1
1070
    44
1040
1.0
1070
    74
1070
     0
1000
MTEXTEND
  0
POINT
  5
8F31
330
107E
100
AcDbEntity
  8
Defpoints
 62
     0
100
AcDbPoint
 10
3751.391163063945
 20
1644.751157008457
 30
0.0
  0
POINT
  5
8F32
330
107E
100
AcDbEntity
  8
Defpoints
 62
     0
100
AcDbPoint
 10
3504.478617934819
 20
1577.309863740509
 30
0.0
  0
POINT
  5
8F33
330
107E
100
AcDbEntity
  8
Defpoints
 62
     0
100
AcDbPoint
 10
3567.421913332879
 20
1577.309863740509
 30
0.0
  0
ENDBLK
  5
1089
330
107E
100
AcDbEntity
  8
0
100
AcDbBlockEnd
  0
BLOCK
  5
1091
330
108A
100
AcDbEntity
  8
0
100
AcDbBlockBegin
  2
*D107
 70
     1
 10
0.0
 20
0.0
 30
0.0
  3
*D107
  1

  0
LINE
  5
8F34
330
108A
100
AcDbEntity
  8
cotas
100
AcDbLine
 10
3477.409913190287
 20
1514.439242751688
 30
0.0
 11
3504.832249075903
 21
1549.919325039314
 31
0.0
  0
MTEXT
  5
8F35
330
108A
100
AcDbEntity
  8
cotas
100
AcDbMText
 10
3480.137934240952
 20
1534.348745137115
 30
0.0
 40
10.0
 41
0.0
 71
     5
 72
     1
  1
R17
  7
SANINDUSA
 11
0.6115300005044438
 21
0.7912212449644126
 31
0.0
 73
     1
 44
1.0
1001
ACAD
1000
MTEXTBEGIN
1070
    73
1070
     1
1070
    44
1040
1.0
1070
    74
1070
     0
1000
MTEXTEND
  0
LINE
  5
8F36
330
108A
100
AcDbEntity
  8
cotas
100
AcDbLine
 10
3521.343561068224
 20
1571.282301213473
 30
0.0
 11
3510.947549080948
 21
1557.831537488958
 31
0.0
  0
SOLID
  5
8F37
330
108A
100
AcDbEntity
  8
cotas
100
AcDbTrace
 10
3503.513547000962
 20
1550.938541706821
 30
0.0
 11
3506.150951150843
 21
1548.900108371806
 31
0.0
 12
3510.947549080948
 22
1557.831537488958
 32
0.0
 13
3510.947549080948
 23
1557.831537488958
 33
0.0
  0
POINT
  5
8F38
330
108A
100
AcDbEntity
  8
Defpoints
 62
     0
100
AcDbPoint
 10
3510.947549080948
 20
1557.831537488958
 30
0.0
  0
POINT
  5
8F39
330
108A
100
AcDbEntity
  8
Defpoints
 62
     0
100
AcDbPoint
 10
3521.343561068224
 20
1571.282301213473
 30
0.0
  0
ENDBLK
  5
1092
330
108A
100
AcDbEntity
  8
0
100
AcDbBlockEnd
  0
BLOCK
  5
109A
330
1093
100
AcDbEntity
  8
0
100
AcDbBlockBegin
  2
*D108
 70
     1
 10
0.0
 20
0.0
 30
0.0
  3
*D108
  1

  0
LINE
  5
8F3A
330
1093
100
AcDbEntity
  8
cotas
100
AcDbLine
 10
3538.187192624562
 20
1604.380470814174
 30
0.0
 11
3510.430359660011
 21
1581.301744469185
 31
0.0
  0
MTEXT
  5
8F3B
330
1093
100
AcDbEntity
  8
cotas
100
AcDbMText
 10
3521.760076349621
 20
1603.727067836668
 30
0.0
 40
10.0
 41
0.0
 71
     5
 72
     1
  1
R7
  7
SANINDUSA
 11
0.7689288238923936
 21
0.6393343912128147
 31
0.0
 73
     1
 44
1.0
1001
ACAD
1000
MTEXTBEGIN
1070
    73
1070
     1
1070
    44
1040
1.0
1070
    74
1070
     0
1000
MTEXTEND
  0
LINE
  5
8F3C
330
1093
100
AcDbEntity
  8
cotas
100
AcDbLine
 10
3497.358569653844
 20
1570.433059818571
 30
0.0
 11
3502.741071421087
 21
1574.908400557057
 31
0.0
  0
SOLID
  5
8F3D
330
1093
100
AcDbEntity
  8
cotas
100
AcDbTrace
 10
3509.364802341324
 20
1582.583292509006
 30
0.0
 11
3511.495916978699
 21
1580.020196429364
 31
0.0
 12
3502.741071421087
 22
1574.908400557057
 32
0.0
 13
3502.741071421087
 23
1574.908400557057
 33
0.0
  0
POINT
  5
8F3E
330
1093
100
AcDbEntity
  8
Defpoints
 62
     0
100
AcDbPoint
 10
3502.741071421087
 20
1574.908400557057
 30
0.0
  0
POINT
  5
8F3F
330
1093
100
AcDbEntity
  8
Defpoints
 62
     0
100
AcDbPoint
 10
3497.358569653844
 20
1570.433059818571
 30
0.0
  0
ENDBLK
  5
109B
330
1093
100
AcDbEntity
  8
0
100
AcDbBlockEnd
  0
BLOCK
  5
10A2
330
109C
100
AcDbEntity
  8
0
100
AcDbBlockBegin
  2
*D109
 70
     1
 10
0.0
 20
0.0
 30
0.0
  3
*D109
  1

  0
LINE
  5
8F4B
330
109C
100
AcDbEntity
  8
cotas
100
AcDbLine
 10
3090.19856691766
 20
1547.418776753773
 30
0.0
 11
3062.025592825319
 21
1575.934520472886
 31
0.0
  0
MTEXT
  5
8F4C
330
109C
100
AcDbEntity
  8
cotas
100
AcDbMText
 10
3088.141164401859
 20
1563.729637535763
 30
0.0
 40
10.0
 41
0.0
 71
     5
 72
     1
  1
R7
  7
SANINDUSA
 11
0.7028183963299303
 21
-0.7113693146180999
 31
0.0
 73
     1
 44
1.0
1001
ACAD
1000
MTEXTBEGIN
1070
    73
1070
     1
1070
    44
1040
1.0
1070
    74
1070
     0
1000
MTEXTEND
  0
SOLID
  5
8F4D
330
109C
100
AcDbEntity
  8
cotas
100
AcDbTrace
 10
3063.211208349682
 20
1577.105884466769
 30
0.0
 11
3060.839977300956
 21
1574.763156479003
 31
0.0
 12
3054.99740886202
 22
1583.048213619067
 32
0.0
 13
3054.99740886202
 23
1583.048213619067
 33
0.0
  0
POINT
  5
8F4E
330
109C
100
AcDbEntity
  8
Defpoints
 62
     0
100
AcDbPoint
 10
3054.99740886202
 20
1583.048213619067
 30
0.0
  0
POINT
  5
8F4F
330
109C
100
AcDbEntity
  8
Defpoints
 62
     0
100
AcDbPoint
 10
3059.917137636327
 20
1578.068628416743
 30
0.0
  0
ENDBLK
  5
10A3
330
109C
100
AcDbEntity
  8
0
100
AcDbBlockEnd
  0
BLOCK
  5
10AB
330
10A4
100
AcDbEntity
  8
0
100
AcDbBlockBegin
  2
*D110
 70
     1
 10
0.0
 20
0.0
 30
0.0
  3
*D110
  1

  0
LINE
  5
8F50
330
10A4
100
AcDbEntity
  8
cotas
100
AcDbLine
 10
3064.266008986921
 20
1523.608264459209
 30
0.0
 11
3050.634825116528
 21
1566.286119592127
 31
0.0
  0
MTEXT
  5
8F51
330
10A4
100
AcDbEntity
  8
cotas
100
AcDbMText
 10
3068.692722143311
 20
1543.289107892045
 30
0.0
 40
10.0
 41
0.0
 71
     5
 72
     1
  1
R10
  7
SANINDUSA
 11
0.3042547261732118
 21
-0.9525907104319587
 31
0.0
 73
     1
 44
1.0
1001
ACAD
1000
MTEXTBEGIN
1070
    73
1070
     1
1070
    44
1040
1.0
1070
    74
1070
     0
1000
MTEXTEND
  0
LINE
  5
8F52
330
10A4
100
AcDbEntity
  8
cotas
100
AcDbLine
 10
3044.549730593063
 20
1585.337933800768
 30
0.0
 11
3047.592277854796
 21
1575.812026696447
 31
0.0
  0
SOLID
  5
8F53
330
10A4
100
AcDbEntity
  8
cotas
100
AcDbTrace
 10
3052.222476300582
 20
1566.793210802416
 30
0.0
 11
3049.047173932475
 21
1565.779028381839
 31
0.0
 12
3047.592277854796
 22
1575.812026696447
 32
0.0
 13
3047.592277854796
 23
1575.812026696447
 33
0.0
  0
POINT
  5
8F54
330
10A4
100
AcDbEntity
  8
Defpoints
 62
     0
100
AcDbPoint
 10
3047.592277854796
 20
1575.812026696447
 30
0.0
  0
POINT
  5
8F55
330
10A4
100
AcDbEntity
  8
Defpoints
 62
     0
100
AcDbPoint
 10
3044.549730593063
 20
1585.337933800768
 30
0.0
  0
ENDBLK
  5
10AC
330
10A4
100
AcDbEntity
  8
0
100
AcDbBlockEnd
  0
BLOCK
  5
10B8
330
10AD
100
AcDbEntity
  8
0
100
AcDbBlockBegin
  2
*D111
 70
     1
 10
0.0
 20
0.0
 30
0.0
  3
*D111
  1

  0
LINE
  5
8F64
330
10AD
100
AcDbEntity
  8
cotas
100
AcDbLine
 10
3016.511058142538
 20
1649.838418146577
 30
0.0
 11
3016.511058142538
 21
1674.387907347795
 31
0.0
  0
LINE
  5
8F65
330
10AD
100
AcDbEntity
  8
cotas
100
AcDbLine
 10
3054.211058142538
 20
1590.169355083452
 30
0.0
 11
3054.211058142538
 21
1674.387907347795
 31
0.0
  0
LINE
  5
8F66
330
10AD
100
AcDbEntity
  8
cotas
100
AcDbLine
 10
3026.511058142538
 20
1669.387907347795
 30
0.0
 11
3044.211058142538
 21
1669.387907347795
 31
0.0
  0
LINE
  5
8F67
330
10AD
100
AcDbEntity
  8
cotas
100
AcDbLine
 10
3054.211058142538
 20
1669.387907347795
 30
0.0
 11
3103.458875469603
 21
1669.387907347795
 31
0.0
  0
SOLID
  5
8F68
330
10AD
100
AcDbEntity
  8
cotas
100
AcDbTrace
 10
3026.511058142538
 20
1671.054574014461
 30
0.0
 11
3026.511058142538
 21
1667.721240681128
 31
0.0
 12
3016.511058142538
 22
1669.387907347795
 32
0.0
 13
3016.511058142538
 23
1669.387907347795
 33
0.0
  0
SOLID
  5
8F69
330
10AD
100
AcDbEntity
  8
cotas
100
AcDbTrace
 10
3044.211058142538
 20
1671.054574014461
 30
0.0
 11
3044.211058142538
 21
1667.721240681128
 31
0.0
 12
3054.211058142538
 22
1669.387907347795
 32
0.0
 13
3054.211058142538
 23
1669.387907347795
 33
0.0
  0
MTEXT
  5
8F6A
330
10AD
100
AcDbEntity
  8
cotas
100
AcDbMText
 10
3083.83496680607
 20
1680.734448650682
 30
0.0
 40
10.0
 41
0.0
 71
     5
 72
     1
  1
37,7
  7
SANINDUSA
 73
     1
 44
1.0
1001
ACAD
1000
MTEXTBEGIN
1070
    73
1070
     1
1070
    44
1040
1.0
1070
    74
1070
     0
1000
MTEXTEND
  0
POINT
  5
8F6B
330
10AD
100
AcDbEntity
  8
Defpoints
 62
     0
100
AcDbPoint
 10
3016.511058142538
 20
1644.838418146577
 30
0.0
  0
POINT
  5
8F6C
330
10AD
100
AcDbEntity
  8
Defpoints
 62
     0
100
AcDbPoint
 10
3054.211058142538
 20
1585.169355083452
 30
0.0
  0
POINT
  5
8F6D
330
10AD
100
AcDbEntity
  8
Defpoints
 62
     0
100
AcDbPoint
 10
3054.211058142538
 20
1669.387907347795
 30
0.0
  0
ENDBLK
  5
10B9
330
10AD
100
AcDbEntity
  8
0
100
AcDbBlockEnd
  0
BLOCK
  5
10C5
330
10BA
100
AcDbEntity
  8
0
100
AcDbBlockBegin
  2
*D112
 70
     1
 10
0.0
 20
0.0
 30
0.0
  3
*D112
  1

  0
LINE
  5
8D7E
330
10BA
100
AcDbEntity
  8
cotas
100
AcDbLine
 10
1083.736156209504
 20
1599.839179670803
 30
0.0
 11
1083.129107389937
 21
1565.061376089854
 31
0.0
  0
ARC
  5
8D7F
330
10BA
100
AcDbEntity
  8
cotas
100
AcDbCircle
 10
1084.521620838819
 20
1644.838418146585
 30
0.0
 40
74.7891943374967
100
AcDbArc
 50
276.6666886178986
 51
352.3333113821008
  0
SOLID
  5
8D80
330
10BA
100
AcDbEntity
  8
cotas
100
AcDbTrace
 10
1093.286529871922
 20
1568.890295680421
 30
0.0
 11
1093.121759756327
 21
1572.219554144421
 31
0.0
 12
1083.216369422123
 22
1570.060614565636
 32
0.0
 13
1083.216369422123
 23
1570.060614565636
 33
0.0
  0
SOLID
  5
8D81
330
10BA
100
AcDbEntity
  8
cotas
100
AcDbTrace
 10
1156.979331516453
 20
1634.97221514231
 30
0.0
 11
1160.305207283237
 21
1634.749366550153
 31
0.0
 12
1159.310815176316
 22
1644.838418146585
 32
0.0
 13
1159.310815176316
 23
1644.838418146585
 33
0.0
  0
MTEXT
  5
8D82
330
10BA
100
AcDbEntity
  8
cotas
100
AcDbMText
 10
1114.977289317409
 20
1587.878263647239
 30
0.0
 40
10.0
 41
0.0
 71
     5
 72
     1
  1
91°
  7
SANINDUSA
 11
0.8818579762119087
 21
0.4715151214875687
 31
0.0
 73
     1
 44
1.0
1001
ACAD
1000
MTEXTBEGIN
1070
    73
1070
     1
1070
    44
1040
1.0
1070
    74
1070
     0
1000
MTEXTEND
  0
POINT
  5
8D83
330
10BA
100
AcDbEntity
  8
Defpoints
 62
     0
100
AcDbPoint
 10
1149.072315242414
 20
1607.067643178821
 30
0.0
  0
POINT
  5
8D84
330
10BA
100
AcDbEntity
  8
Defpoints
 62
     0
100
AcDbPoint
 10
1091.400501680628
 20
1644.838418146585
 30
0.0
  0
POINT
  5
8D85
330
10BA
100
AcDbEntity
  8
Defpoints
 62
     0
100
AcDbPoint
 10
1083.82341824169
 20
1604.838418146585
 30
0.0
  0
POINT
  5
8D86
330
10BA
100
AcDbEntity
  8
Defpoints
 62
     0
100
AcDbPoint
 10
1084.401567814534
 20
1637.960584991646
 30
0.0
  0
POINT
  5
8D87
330
10BA
100
AcDbEntity
  8
Defpoints
 62
     0
100
AcDbPoint
 10
2677.642739997009
 20
1644.838418146586
 30
0.0
  0
ENDBLK
  5
10C6
330
10BA
100
AcDbEntity
  8
0
100
AcDbBlockEnd
  0
BLOCK
  5
10D1
330
10C7
100
AcDbEntity
  8
0
100
AcDbBlockBegin
  2
*D113
 70
     1
 10
0.0
 20
0.0
 30
0.0
  3
*D113
  1

  0
LINE
  5
8D75
330
10C7
100
AcDbEntity
  8
cotas
100
AcDbLine
 10
1086.400501680629
 20
1644.838418146585
 30
0.0
 11
1048.969808491604
 21
1644.838418146585
 31
0.0
  0
LINE
  5
8D76
330
10C7
100
AcDbEntity
  8
cotas
100
AcDbLine
 10
1078.82341824169
 20
1604.838418146585
 30
0.0
 11
1048.969808491604
 21
1604.838418146585
 31
0.0
  0
LINE
  5
8D77
330
10C7
100
AcDbEntity
  8
cotas
100
AcDbLine
 10
1053.969808491604
 20
1634.838418146585
 30
0.0
 11
1053.969808491604
 21
1614.838418146585
 31
0.0
  0
SOLID
  5
8D78
330
10C7
100
AcDbEntity
  8
cotas
100
AcDbTrace
 10
1052.303141824938
 20
1634.838418146585
 30
0.0
 11
1055.636475158271
 21
1634.838418146585
 31
0.0
 12
1053.969808491604
 22
1644.838418146585
 32
0.0
 13
1053.969808491604
 23
1644.838418146585
 33
0.0
  0
SOLID
  5
8D79
330
10C7
100
AcDbEntity
  8
cotas
100
AcDbTrace
 10
1052.303141824938
 20
1614.838418146585
 30
0.0
 11
1055.636475158271
 21
1614.838418146585
 31
0.0
 12
1053.969808491604
 22
1604.838418146585
 32
0.0
 13
1053.969808491604
 23
1604.838418146585
 33
0.0
  0
MTEXT
  5
8D7A
330
10C7
100
AcDbEntity
  8
cotas
100
AcDbMText
 10
1043.764973031564
 20
1624.838418146585
 30
0.0
 40
10.0
 41
0.0
 71
     5
 72
     1
  1
40
  7
SANINDUSA
 11
0.0000000000000001
 21
1.0
 31
0.0
 73
     1
 44
1.0
1001
ACAD
1000
MTEXTBEGIN
1070
    73
1070
     1
1070
    44
1040
1.0
1070
    74
1070
     0
1000
MTEXTEND
  0
POINT
  5
8D7B
330
10C7
100
AcDbEntity
  8
Defpoints
 62
     0
100
AcDbPoint
 10
1091.400501680629
 20
1644.838418146585
 30
0.0
  0
POINT
  5
8D7C
330
10C7
100
AcDbEntity
  8
Defpoints
 62
     0
100
AcDbPoint
 10
1083.82341824169
 20
1604.838418146585
 30
0.0
  0
POINT
  5
8D7D
330
10C7
100
AcDbEntity
  8
Defpoints
 62
     0
100
AcDbPoint
 10
1053.969808491604
 20
1604.838418146585
 30
0.0
  0
ENDBLK
  5
10D2
330
10C7
100
AcDbEntity
  8
0
100
AcDbBlockEnd
  0
BLOCK
  5
10DD
330
10D3
100
AcDbEntity
  8
0
100
AcDbBlockBegin
  2
*D114
 70
     1
 10
0.0
 20
0.0
 30
0.0
  3
*D114
  1

  0
LINE
  5
8D6C
330
10D3
100
AcDbEntity
  8
cotas
100
AcDbLine
 10
1084.521620838818
 20
1649.838418146585
 30
0.0
 11
1084.521620838818
 21
1679.829952771638
 31
0.0
  0
LINE
  5
8D6D
330
10D3
100
AcDbEntity
  8
cotas
100
AcDbLine
 10
2684.521620838819
 20
1649.838418146585
 30
0.0
 11
2684.521620838819
 21
1679.829952771638
 31
0.0
  0
LINE
  5
8D6E
330
10D3
100
AcDbEntity
  8
cotas
100
AcDbLine
 10
1094.521620838818
 20
1674.829952771639
 30
0.0
 11
2674.521620838818
 21
1674.829952771639
 31
0.0
  0
SOLID
  5
8D6F
330
10D3
100
AcDbEntity
  8
cotas
100
AcDbTrace
 10
1094.521620838818
 20
1676.496619438305
 30
0.0
 11
1094.521620838818
 21
1673.163286104972
 31
0.0
 12
1084.521620838818
 22
1674.829952771639
 32
0.0
 13
1084.521620838818
 23
1674.829952771639
 33
0.0
  0
SOLID
  5
8D70
330
10D3
100
AcDbEntity
  8
cotas
100
AcDbTrace
 10
2674.521620838818
 20
1676.496619438305
 30
0.0
 11
2674.521620838818
 21
1673.163286104972
 31
0.0
 12
2684.521620838819
 22
1674.829952771639
 32
0.0
 13
2684.521620838819
 23
1674.829952771639
 33
0.0
  0
MTEXT
  5
8D71
330
10D3
100
AcDbEntity
  8
cotas
100
AcDbMText
 10
1884.521620838818
 20
1685.034788231679
 30
0.0
 40
10.0
 41
0.0
 71
     5
 72
     1
  1
1600
  7
SANINDUSA
 73
     1
 44
1.0
1001
ACAD
1000
MTEXTBEGIN
1070
    73
1070
     1
1070
    44
1040
1.0
1070
    74
1070
     0
1000
MTEXTEND
  0
POINT
  5
8D72
330
10D3
100
AcDbEntity
  8
Defpoints
 62
     0
100
AcDbPoint
 10
1084.521620838818
 20
1644.838418146585
 30
0.0
  0
POINT
  5
8D73
330
10D3
100
AcDbEntity
  8
Defpoints
 62
     0
100
AcDbPoint
 10
2684.521620838819
 20
1644.838418146585
 30
0.0
  0
POINT
  5
8D74
330
10D3
100
AcDbEntity
  8
Defpoints
 62
     0
100
AcDbPoint
 10
2684.521620838819
 20
1674.829952771639
 30
0.0
  0
ENDBLK
  5
10DE
330
10D3
100
AcDbEntity
  8
0
100
AcDbBlockEnd
  0
BLOCK
  5
10E5
330
10DF
100
AcDbEntity
  8
0
100
AcDbBlockBegin
  2
*D115
 70
     1
 10
0.0
 20
0.0
 30
0.0
  3
*D115
  1

  0
LINE
  5
8D67
330
10DF
100
AcDbEntity
  8
cotas
100
AcDbLine
 10
1120.416988417244
 20
1610.645044748503
 30
0.0
 11
1093.589473970196
 21
1635.786979550014
 31
0.0
  0
MTEXT
  5
8D68
330
10DF
100
AcDbEntity
  8
cotas
100
AcDbMText
 10
1117.733798159031
 20
1626.864711039758
 30
0.0
 40
10.0
 41
0.0
 71
     5
 72
     1
  1
R7
  7
SANINDUSA
 11
0.7296574298567543
 21
-0.6838128655230433
 31
0.0
 73
     1
 44
1.0
1001
ACAD
1000
MTEXTBEGIN
1070
    73
1070
     1
1070
    44
1040
1.0
1070
    74
1070
     0
1000
MTEXTEND
  0
SOLID
  5
8D69
330
10DF
100
AcDbEntity
  8
cotas
100
AcDbTrace
 10
1094.729162079401
 20
1637.003075266442
 30
0.0
 11
1092.44978586099
 21
1634.570883833586
 31
0.0
 12
1086.292899671628
 22
1642.625108205244
 32
0.0
 13
1086.292899671628
 23
1642.625108205244
 33
0.0
  0
POINT
  5
8D6A
330
10DF
100
AcDbEntity
  8
Defpoints
 62
     0
100
AcDbPoint
 10
1086.292899671628
 20
1642.625108205244
 30
0.0
  0
POINT
  5
8D6B
330
10DF
100
AcDbEntity
  8
Defpoints
 62
     0
100
AcDbPoint
 10
1091.400501680626
 20
1637.838418146582
 30
0.0
  0
ENDBLK
  5
10E6
330
10DF
100
AcDbEntity
  8
0
100
AcDbBlockEnd
  0
BLOCK
  5
10F2
330
10E7
100
AcDbEntity
  8
0
100
AcDbBlockBegin
  2
*D116
 70
     1
 10
0.0
 20
0.0
 30
0.0
  3
*D116
  1

  0
LINE
  5
8D4E
330
10E7
100
AcDbEntity
  8
cotas
100
AcDbLine
 10
2685.307115505312
 20
1599.839179670803
 30
0.0
 11
2685.905230117227
 21
1565.573216503433
 31
0.0
  0
ARC
  5
8D4F
330
10E7
100
AcDbEntity
  8
cotas
100
AcDbCircle
 10
2684.521650875997
 20
1644.838418146586
 30
0.0
 40
74.27727595626887
100
AcDbArc
 50
187.7196071745741
 51
263.2803928254261
  0
SOLID
  5
8D50
330
10E7
100
AcDbEntity
  8
cotas
100
AcDbTrace
 10
2609.254642058083
 20
1634.748908414178
 30
0.0
 11
2612.580414558413
 21
1634.973292877018
 31
0.0
 12
2610.244374919728
 22
1644.838418146586
 32
0.0
 13
2610.244374919728
 23
1644.838418146586
 33
0.0
  0
SOLID
  5
8D51
330
10E7
100
AcDbEntity
  8
cotas
100
AcDbTrace
 10
2675.913575808606
 20
1572.735968651988
 30
0.0
 11
2675.747268254
 21
1569.406786634076
 31
0.0
 12
2685.81796808504
 22
1570.572454979215
 32
0.0
 13
2685.81796808504
 23
1570.572454979215
 33
0.0
  0
MTEXT
  5
8D52
330
10E7
100
AcDbEntity
  8
cotas
100
AcDbMText
 10
2653.210180864704
 20
1588.93018858843
 30
0.0
 40
10.0
 41
0.0
 71
     5
 72
     1
  1
91°
  7
SANINDUSA
 11
0.8724869784155798
 21
-0.4886373629750918
 31
0.0
 73
     1
 44
1.0
1001
ACAD
1000
MTEXTBEGIN
1070
    73
1070
     1
1070
    44
1040
1.0
1070
    74
1070
     0
1000
MTEXTEND
  0
POINT
  5
8D53
330
10E7
100
AcDbEntity
  8
Defpoints
 62
     0
100
AcDbPoint
 10
2620.412794190791
 20
1607.326177237792
 30
0.0
  0
POINT
  5
8D54
330
10E7
100
AcDbEntity
  8
Defpoints
 62
     0
100
AcDbPoint
 10
2684.641703900282
 20
1637.960584991646
 30
0.0
  0
POINT
  5
8D55
330
10E7
100
AcDbEntity
  8
Defpoints
 62
     0
100
AcDbPoint
 10
1091.400531717808
 20
1644.838418146585
 30
0.0
  0
POINT
  5
8D56
330
10E7
100
AcDbEntity
  8
Defpoints
 62
     0
100
AcDbPoint
 10
2677.642770034188
 20
1644.838418146586
 30
0.0
  0
POINT
  5
8D57
330
10E7
100
AcDbEntity
  8
Defpoints
 62
     0
100
AcDbPoint
 10
2685.219853473126
 20
1604.838418146585
 30
0.0
  0
ENDBLK
  5
10F3
330
10E7
100
AcDbEntity
  8
0
100
AcDbBlockEnd
  0
BLOCK
  5
10FE
330
10F4
100
AcDbEntity
  8
0
100
AcDbBlockBegin
  2
*D117
 70
     1
 10
0.0
 20
0.0
 30
0.0
  3
*D117
  1

  0
LINE
  5
8D45
330
10F4
100
AcDbEntity
  8
cotas
100
AcDbLine
 10
1084.521650875998
 20
1649.838418146585
 30
0.0
 11
1084.521650875998
 21
1679.829952771638
 31
0.0
  0
LINE
  5
8D46
330
10F4
100
AcDbEntity
  8
cotas
100
AcDbLine
 10
2684.521650875998
 20
1649.838418146585
 30
0.0
 11
2684.521650875998
 21
1679.829952771638
 31
0.0
  0
LINE
  5
8D47
330
10F4
100
AcDbEntity
  8
cotas
100
AcDbLine
 10
1094.521650875998
 20
1674.829952771639
 30
0.0
 11
2674.521650875998
 21
1674.829952771639
 31
0.0
  0
SOLID
  5
8D48
330
10F4
100
AcDbEntity
  8
cotas
100
AcDbTrace
 10
1094.521650875998
 20
1676.496619438305
 30
0.0
 11
1094.521650875998
 21
1673.163286104972
 31
0.0
 12
1084.521650875998
 22
1674.829952771639
 32
0.0
 13
1084.521650875998
 23
1674.829952771639
 33
0.0
  0
SOLID
  5
8D49
330
10F4
100
AcDbEntity
  8
cotas
100
AcDbTrace
 10
2674.521650875998
 20
1676.496619438305
 30
0.0
 11
2674.521650875998
 21
1673.163286104972
 31
0.0
 12
2684.521650875998
 22
1674.829952771639
 32
0.0
 13
2684.521650875998
 23
1674.829952771639
 33
0.0
  0
MTEXT
  5
8D4A
330
10F4
100
AcDbEntity
  8
cotas
100
AcDbMText
 10
1884.521650875998
 20
1685.034788231679
 30
0.0
 40
10.0
 41
0.0
 71
     5
 72
     1
  1
1600
  7
SANINDUSA
 73
     1
 44
1.0
1001
ACAD
1000
MTEXTBEGIN
1070
    73
1070
     1
1070
    44
1040
1.0
1070
    74
1070
     0
1000
MTEXTEND
  0
POINT
  5
8D4B
330
10F4
100
AcDbEntity
  8
Defpoints
 62
     0
100
AcDbPoint
 10
1084.521650875998
 20
1644.838418146585
 30
0.0
  0
POINT
  5
8D4C
330
10F4
100
AcDbEntity
  8
Defpoints
 62
     0
100
AcDbPoint
 10
2684.521650875998
 20
1644.838418146585
 30
0.0
  0
POINT
  5
8D4D
330
10F4
100
AcDbEntity
  8
Defpoints
 62
     0
100
AcDbPoint
 10
2684.521650875998
 20
1674.829952771639
 30
0.0
  0
ENDBLK
  5
10FF
330
10F4
100
AcDbEntity
  8
0
100
AcDbBlockEnd
  0
BLOCK
  5
110A
330
1100
100
AcDbEntity
  8
0
100
AcDbBlockBegin
  2
*D118
 70
     1
 10
0.0
 20
0.0
 30
0.0
  3
*D118
  1

  0
LINE
  5
8D3C
330
1100
100
AcDbEntity
  8
cotas
100
AcDbLine
 10
2689.521650875998
 20
1644.838418146585
 30
0.0
 11
2725.237305879565
 21
1644.838418146585
 31
0.0
  0
LINE
  5
8D3D
330
1100
100
AcDbEntity
  8
cotas
100
AcDbLine
 10
2561.217419138344
 20
1512.893440446338
 30
0.0
 11
2725.237305879565
 21
1512.893440446338
 31
0.0
  0
LINE
  5
8D3E
330
1100
100
AcDbEntity
  8
cotas
100
AcDbLine
 10
2720.237305879565
 20
1634.838418146585
 30
0.0
 11
2720.237305879565
 21
1522.893440446338
 31
0.0
  0
SOLID
  5
8D3F
330
1100
100
AcDbEntity
  8
cotas
100
AcDbTrace
 10
2718.570639212898
 20
1634.838418146585
 30
0.0
 11
2721.903972546231
 21
1634.838418146585
 31
0.0
 12
2720.237305879565
 22
1644.838418146585
 32
0.0
 13
2720.237305879565
 23
1644.838418146585
 33
0.0
  0
SOLID
  5
8D40
330
1100
100
AcDbEntity
  8
cotas
100
AcDbTrace
 10
2718.570639212898
 20
1522.893440446338
 30
0.0
 11
2721.903972546231
 21
1522.893440446338
 31
0.0
 12
2720.237305879565
 22
1512.893440446338
 32
0.0
 13
2720.237305879565
 23
1512.893440446338
 33
0.0
  0
MTEXT
  5
8D41
330
1100
100
AcDbEntity
  8
cotas
100
AcDbMText
 10
2708.890764576676
 20
1578.865929296462
 30
0.0
 40
10.0
 41
0.0
 71
     5
 72
     1
  1
131,9
  7
SANINDUSA
 11
0.0000000000000001
 21
1.0
 31
0.0
 73
     1
 44
1.0
1001
ACAD
1000
MTEXTBEGIN
1070
    73
1070
     1
1070
    44
1040
1.0
1070
    74
1070
     0
1000
MTEXTEND
  0
POINT
  5
8D42
330
1100
100
AcDbEntity
  8
Defpoints
 62
     0
100
AcDbPoint
 10
2684.521650875998
 20
1644.838418146585
 30
0.0
  0
POINT
  5
8D43
330
1100
100
AcDbEntity
  8
Defpoints
 62
     0
100
AcDbPoint
 10
2556.217419138345
 20
1512.893440446338
 30
0.0
  0
POINT
  5
8D44
330
1100
100
AcDbEntity
  8
Defpoints
 62
     0
100
AcDbPoint
 10
2720.237305879565
 20
1512.893440446338
 30
0.0
  0
ENDBLK
  5
110B
330
1100
100
AcDbEntity
  8
0
100
AcDbBlockEnd
  0
BLOCK
  5
1112
330
110C
100
AcDbEntity
  8
0
100
AcDbBlockBegin
  2
*D119
 70
     1
 10
0.0
 20
0.0
 30
0.0
  3
*D119
  1

  0
LINE
  5
8D37
330
110C
100
AcDbEntity
  8
cotas
100
AcDbLine
 10
2647.553111630431
 20
1612.873038971031
 30
0.0
 11
2675.333985588242
 21
1635.922820489944
 31
0.0
  0
MTEXT
  5
8D38
330
110C
100
AcDbEntity
  8
cotas
100
AcDbMText
 10
2651.210249010592
 20
1628.90121512255
 30
0.0
 40
10.0
 41
0.0
 71
     5
 72
     1
  1
R7
  7
SANINDUSA
 11
0.7695948153148276
 21
0.6385325522168283
 31
0.0
 73
     1
 44
1.0
1001
ACAD
1000
MTEXTBEGIN
1070
    73
1070
     1
1070
    44
1040
1.0
1070
    74
1070
     0
1000
MTEXTEND
  0
SOLID
  5
8D39
330
110C
100
AcDbEntity
  8
cotas
100
AcDbTrace
 10
2674.26976466788
 20
1637.205478515468
 30
0.0
 11
2676.398206508603
 21
1634.640162464419
 31
0.0
 12
2683.02993374139
 22
1642.308146012112
 32
0.0
 13
2683.02993374139
 23
1642.308146012112
 33
0.0
  0
POINT
  5
8D3A
330
110C
100
AcDbEntity
  8
Defpoints
 62
     0
100
AcDbPoint
 10
2683.02993374139
 20
1642.308146012112
 30
0.0
  0
POINT
  5
8D3B
330
110C
100
AcDbEntity
  8
Defpoints
 62
     0
100
AcDbPoint
 10
2677.642770034182
 20
1637.838418146591
 30
0.0
  0
ENDBLK
  5
1113
330
110C
100
AcDbEntity
  8
0
100
AcDbBlockEnd
  0
BLOCK
  5
111E
330
1114
100
AcDbEntity
  8
0
100
AcDbBlockBegin
  2
*D120
 70
     1
 10
0.0
 20
0.0
 30
0.0
  3
*D120
  1

  0
LINE
  5
8F0B
330
1114
100
AcDbEntity
  8
cotas
100
AcDbLine
 10
4551.391884397026
 20
1644.838414873355
 30
0.0
 11
4602.090090154599
 21
1644.838414873355
 31
0.0
  0
LINE
  5
8F0C
330
1114
100
AcDbEntity
  8
cotas
100
AcDbLine
 10
4447.577994703244
 20
1538.142061164584
 30
0.0
 11
4602.090090154599
 21
1538.142061164584
 31
0.0
  0
LINE
  5
8F0D
330
1114
100
AcDbEntity
  8
cotas
100
AcDbLine
 10
4597.090090154599
 20
1634.838414873355
 30
0.0
 11
4597.090090154599
 21
1548.142061164584
 31
0.0
  0
SOLID
  5
8F0E
330
1114
100
AcDbEntity
  8
cotas
100
AcDbTrace
 10
4595.423423487932
 20
1634.838414873355
 30
0.0
 11
4598.756756821265
 21
1634.838414873355
 31
0.0
 12
4597.090090154599
 22
1644.838414873355
 32
0.0
 13
4597.090090154599
 23
1644.838414873355
 33
0.0
  0
SOLID
  5
8F0F
330
1114
100
AcDbEntity
  8
cotas
100
AcDbTrace
 10
4595.423423487932
 20
1548.142061164584
 30
0.0
 11
4598.756756821265
 21
1548.142061164584
 31
0.0
 12
4597.090090154599
 22
1538.142061164584
 32
0.0
 13
4597.090090154599
 23
1538.142061164584
 33
0.0
  0
MTEXT
  5
8F10
330
1114
100
AcDbEntity
  8
cotas
100
AcDbMText
 10
4585.746906810072
 20
1591.49023801897
 30
0.0
 40
10.0
 41
0.0
 71
     5
 72
     1
  1
106,7
  7
SANINDUSA
 11
0.0000000000000001
 21
1.0
 31
0.0
 73
     1
 44
1.0
1001
ACAD
1000
MTEXTBEGIN
1070
    73
1070
     1
1070
    44
1040
1.0
1070
    74
1070
     0
1000
MTEXTEND
  0
POINT
  5
8F11
330
1114
100
AcDbEntity
  8
Defpoints
 62
     0
100
AcDbPoint
 10
4546.391884397026
 20
1644.838414873355
 30
0.0
  0
POINT
  5
8F12
330
1114
100
AcDbEntity
  8
Defpoints
 62
     0
100
AcDbPoint
 10
4442.577994703245
 20
1538.142061164584
 30
0.0
  0
POINT
  5
8F13
330
1114
100
AcDbEntity
  8
Defpoints
 62
     0
100
AcDbPoint
 10
4597.090090154599
 20
1538.142061164584
 30
0.0
  0
ENDBLK
  5
111F
330
1114
100
AcDbEntity
  8
0
100
AcDbBlockEnd
  0
BLOCK
  5
1126
330
1120
100
AcDbEntity
  8
0
100
AcDbBlockBegin
  2
*D121
 70
     1
 10
0.0
 20
0.0
 30
0.0
  3
*D121
  1

  0
LINE
  5
8F14
330
1120
100
AcDbEntity
  8
cotas
100
AcDbLine
 10
4426.351716772456
 20
1580.061100444905
 30
0.0
 11
4461.854190819596
 21
1552.667760358444
 31
0.0
  0
MTEXT
  5
8F15
330
1120
100
AcDbEntity
  8
cotas
100
AcDbMText
 10
4446.263441262082
 20
1577.349346042783
 30
0.0
 40
10.0
 41
0.0
 71
     5
 72
     1
  1
R17
  7
SANINDUSA
 11
0.7917205909268914
 21
-0.6108833815896239
 31
0.0
 73
     1
 44
1.0
1001
ACAD
1000
MTEXTBEGIN
1070
    73
1070
     1
1070
    44
1040
1.0
1070
    74
1070
     0
1000
MTEXTEND
  0
SOLID
  5
8F16
330
1120
100
AcDbEntity
  8
cotas
100
AcDbTrace
 10
4462.872329788913
 20
1553.987294676655
 30
0.0
 11
4460.83605185028
 21
1551.348226040232
 31
0.0
 12
4469.771396728865
 22
1546.558926542548
 32
0.0
 13
4469.771396728865
 23
1546.558926542548
 33
0.0
  0
POINT
  5
8F17
330
1120
100
AcDbEntity
  8
Defpoints
 62
     0
100
AcDbPoint
 10
4469.771396728865
 20
1546.558926542548
 30
0.0
  0
POINT
  5
8F18
330
1120
100
AcDbEntity
  8
Defpoints
 62
     0
100
AcDbPoint
 10
4456.31208223304
 20
1556.943993758574
 30
0.0
  0
ENDBLK
  5
1127
330
1120
100
AcDbEntity
  8
0
100
AcDbBlockEnd
  0
BLOCK
  5
1132
330
1128
100
AcDbEntity
  8
0
100
AcDbBlockBegin
  2
*D122
 70
     1
 10
0.0
 20
0.0
 30
0.0
  3
*D122
  1

  0
LINE
  5
9042
330
1128
100
AcDbEntity
  8
cotas
100
AcDbLine
 10
-1023.423418073663
 20
1827.06798890876
 30
0.0
 11
-1055.870382880656
 21
1827.06798890876
 31
0.0
  0
LINE
  5
9043
330
1128
100
AcDbEntity
  8
cotas
100
AcDbLine
 10
-1000.234624305486
 20
1987.798271431948
 30
0.0
 11
-1055.870382880656
 21
1987.798271431948
 31
0.0
  0
LINE
  5
9044
330
1128
100
AcDbEntity
  8
cotas
100
AcDbLine
 10
-1050.870382880656
 20
1837.06798890876
 30
0.0
 11
-1050.870382880656
 21
1977.798271431948
 31
0.0
  0
SOLID
  5
9045
330
1128
100
AcDbEntity
  8
cotas
100
AcDbTrace
 10
-1052.537049547322
 20
1837.06798890876
 30
0.0
 11
-1049.203716213989
 21
1837.06798890876
 31
0.0
 12
-1050.870382880656
 22
1827.06798890876
 32
0.0
 13
-1050.870382880656
 23
1827.06798890876
 33
0.0
  0
SOLID
  5
9046
330
1128
100
AcDbEntity
  8
cotas
100
AcDbTrace
 10
-1052.537049547322
 20
1977.798271431948
 30
0.0
 11
-1049.203716213989
 21
1977.798271431948
 31
0.0
 12
-1050.870382880656
 22
1987.798271431948
 32
0.0
 13
-1050.870382880656
 23
1987.798271431948
 33
0.0
  0
MTEXT
  5
9047
330
1128
100
AcDbEntity
  8
cotas
100
AcDbMText
 10
-1062.213566225183
 20
1871.276097511449
 30
0.0
 40
10.0
 41
0.0
 71
     5
 72
     1
  1
160,7
  7
SANINDUSA
 11
0.0000000000000001
 21
1.0
 31
0.0
 73
     1
 44
1.0
1001
ACAD
1000
MTEXTBEGIN
1070
    73
1070
     1
1070
    44
1040
1.0
1070
    74
1070
     0
1000
MTEXTEND
  0
POINT
  5
9048
330
1128
100
AcDbEntity
  8
Defpoints
 62
     0
100
AcDbPoint
 10
-1018.423418073663
 20
1827.06798890876
 30
0.0
  0
POINT
  5
9049
330
1128
100
AcDbEntity
  8
Defpoints
 62
     0
100
AcDbPoint
 10
-995.234624305486
 20
1987.798271431948
 30
0.0
  0
POINT
  5
904A
330
1128
100
AcDbEntity
  8
Defpoints
 62
     0
100
AcDbPoint
 10
-1050.870382880656
 20
1987.798271431948
 30
0.0
  0
ENDBLK
  5
1133
330
1128
100
AcDbEntity
  8
0
100
AcDbBlockEnd
  0
BLOCK
  5
113A
330
1134
100
AcDbEntity
  8
0
100
AcDbBlockBegin
  2
*D123
 70
     1
 10
0.0
 20
0.0
 30
0.0
  3
*D123
  1

  0
LINE
  5
904B
330
1134
100
AcDbEntity
  8
cotas
100
AcDbLine
 10
-1163.441803889383
 20
1833.02819968563
 30
0.0
 11
-1127.202162980373
 21
1869.474473213393
 31
0.0
  0
MTEXT
  5
904C
330
1134
100
AcDbEntity
  8
cotas
100
AcDbMText
 10
-1158.408902155448
 20
1852.562817361268
 30
0.0
 40
10.0
 41
0.0
 71
     5
 72
     1
  1
R10
  7
SANINDUSA
 11
0.705093758179923
 21
0.7091140896750766
 31
0.0
 73
     1
 44
1.0
1001
ACAD
1000
MTEXTBEGIN
1070
    73
1070
     1
1070
    44
1040
1.0
1070
    74
1070
     0
1000
MTEXTEND
  0
SOLID
  5
904D
330
1134
100
AcDbEntity
  8
cotas
100
AcDbTrace
 10
-1128.384019796498
 20
1870.649629477026
 30
0.0
 11
-1126.020306164248
 21
1868.29931694976
 31
0.0
 12
-1120.151225398574
 22
1876.565614110144
 32
0.0
 13
-1120.151225398574
 23
1876.565614110144
 33
0.0
  0
POINT
  5
904E
330
1134
100
AcDbEntity
  8
Defpoints
 62
     0
100
AcDbPoint
 10
-1120.151225398574
 20
1876.565614110144
 30
0.0
  0
POINT
  5
904F
330
1134
100
AcDbEntity
  8
Defpoints
 62
     0
100
AcDbPoint
 10
-1127.305600967519
 20
1869.370445439439
 30
0.0
  0
ENDBLK
  5
113B
330
1134
100
AcDbEntity
  8
0
100
AcDbBlockEnd
  0
BLOCK
  5
1142
330
113C
100
AcDbEntity
  8
0
100
AcDbBlockBegin
  2
*D124
 70
     1
 10
0.0
 20
0.0
 30
0.0
  3
*D124
  1

  0
LINE
  5
9050
330
113C
100
AcDbEntity
  8
cotas
100
AcDbLine
 10
-1519.082713120289
 20
1834.682280986248
 30
0.0
 11
-1556.959730306527
 21
1869.910125517657
 31
0.0
  0
MTEXT
  5
9051
330
113C
100
AcDbEntity
  8
cotas
100
AcDbMText
 10
-1524.874699638812
 20
1854.005434967057
 30
0.0
 40
10.0
 41
0.0
 71
     5
 72
     1
  1
R10
  7
SANINDUSA
 11
0.732250269302409
 21
-0.6810356401147811
 31
0.0
 73
     1
 44
1.0
1001
ACAD
1000
MTEXTBEGIN
1070
    73
1070
     1
1070
    44
1040
1.0
1070
    74
1070
     0
1000
MTEXTEND
  0
SOLID
  5
9052
330
113C
100
AcDbEntity
  8
cotas
100
AcDbTrace
 10
-1555.824670906335
 20
1871.130542633162
 30
0.0
 11
-1558.094789706718
 21
1868.689708402154
 31
0.0
 12
-1564.282232999551
 22
1876.720481918805
 32
0.0
 13
-1564.282232999551
 23
1876.720481918805
 33
0.0
  0
POINT
  5
9053
330
113C
100
AcDbEntity
  8
Defpoints
 62
     0
100
AcDbPoint
 10
-1564.282232999551
 20
1876.720481918805
 30
0.0
  0
POINT
  5
9054
330
113C
100
AcDbEntity
  8
Defpoints
 62
     0
100
AcDbPoint
 10
-1556.309663459745
 20
1869.305525274168
 30
0.0
  0
ENDBLK
  5
1143
330
113C
100
AcDbEntity
  8
0
100
AcDbBlockEnd
  0
BLOCK
  5
114A
330
1144
100
AcDbEntity
  8
0
100
AcDbBlockBegin
  2
*D125
 70
     1
 10
0.0
 20
0.0
 30
0.0
  3
*D125
  1

  0
LINE
  5
9055
330
1144
100
AcDbEntity
  8
cotas
100
AcDbLine
 10
-1169.037300422762
 20
1334.580208889995
 30
0.0
 11
-1127.186750555229
 21
1304.744426630112
 31
0.0
  0
MTEXT
  5
9056
330
1144
100
AcDbEntity
  8
cotas
100
AcDbMText
 10
-1148.944494222492
 20
1332.78841465092
 30
0.0
 40
10.0
 41
0.0
 71
     5
 72
     1
  1
R10
  7
SANINDUSA
 11
0.8142619724651192
 21
-0.5804975798375162
 31
0.0
 73
     1
 44
1.0
1001
ACAD
1000
MTEXTBEGIN
1070
    73
1070
     1
1070
    44
1040
1.0
1070
    74
1070
     0
1000
MTEXTEND
  0
SOLID
  5
9057
330
1144
100
AcDbEntity
  8
cotas
100
AcDbTrace
 10
-1126.219254588833
 20
1306.101529917554
 30
0.0
 11
-1128.154246521625
 21
1303.38732334267
 31
0.0
 12
-1119.044130830578
 22
1298.939450831737
 32
0.0
 13
-1119.044130830578
 23
1298.939450831737
 33
0.0
  0
POINT
  5
9058
330
1144
100
AcDbEntity
  8
Defpoints
 62
     0
100
AcDbPoint
 10
-1119.044130830578
 20
1298.939450831737
 30
0.0
  0
POINT
  5
9059
330
1144
100
AcDbEntity
  8
Defpoints
 62
     0
100
AcDbPoint
 10
-1127.305448765605
 20
1304.829048074051
 30
0.0
  0
ENDBLK
  5
114B
330
1144
100
AcDbEntity
  8
0
100
AcDbBlockEnd
  0
BLOCK
  5
12B5
330
12A9
100
AcDbEntity
  8
0
100
AcDbBlockBegin
  2
*D126
 70
     1
 10
0.0
 20
0.0
 30
0.0
  3
*D126
  1

  0
LINE
  5
8F40
330
12A9
100
AcDbEntity
  8
cotas
100
AcDbLine
 10
3049.589069368787
 20
1585.162697909263
 30
0.0
 11
2920.075006122039
 21
1585.162697909263
 31
0.0
  0
LINE
  5
8F41
330
12A9
100
AcDbEntity
  8
cotas
100
AcDbLine
 10
3049.414545058781
 20
1575.164206885371
 30
0.0
 11
2920.075006122039
 21
1575.164206885371
 31
0.0
  0
LINE
  5
8F42
330
12A9
100
AcDbEntity
  8
cotas
100
AcDbLine
 10
2925.075006122039
 20
1595.162697909263
 30
0.0
 11
2925.075006122039
 21
1605.162697909263
 31
0.0
  0
LINE
  5
8F43
330
12A9
100
AcDbEntity
  8
cotas
100
AcDbLine
 10
2925.075006122039
 20
1565.164206885371
 30
0.0
 11
2925.075006122039
 21
1530.449633346083
 31
0.0
  0
LINE
  5
8F44
330
12A9
100
AcDbEntity
  8
cotas
100
AcDbLine
 10
2925.075006122039
 20
1585.162697909263
 30
0.0
 11
2925.075006122039
 21
1575.164206885371
 31
0.0
  0
SOLID
  5
8F45
330
12A9
100
AcDbEntity
  8
cotas
100
AcDbTrace
 10
2923.408339455372
 20
1595.162697909263
 30
0.0
 11
2926.741672788705
 21
1595.162697909263
 31
0.0
 12
2925.075006122039
 22
1585.162697909263
 32
0.0
 13
2925.075006122039
 23
1585.162697909263
 33
0.0
  0
SOLID
  5
8F46
330
12A9
100
AcDbEntity
  8
cotas
100
AcDbTrace
 10
2923.408339455372
 20
1565.164206885371
 30
0.0
 11
2926.741672788705
 21
1565.164206885371
 31
0.0
 12
2925.075006122039
 22
1575.164206885371
 32
0.0
 13
2925.075006122039
 23
1575.164206885371
 33
0.0
  0
MTEXT
  5
8F47
330
12A9
100
AcDbEntity
  8
cotas
100
AcDbMText
 10
2914.870170661998
 20
1542.806920115727
 30
0.0
 40
10.0
 41
0.0
 71
     5
 72
     1
  1
10
  7
SANINDUSA
 11
0.0000000000000001
 21
1.0
 31
0.0
 73
     1
 44
1.0
1001
ACAD
1000
MTEXTBEGIN
1070
    73
1070
     1
1070
    44
1040
1.0
1070
    74
1070
     0
1000
MTEXTEND
  0
POINT
  5
8F48
330
12A9
100
AcDbEntity
  8
Defpoints
 62
     0
100
AcDbPoint
 10
3054.589069368787
 20
1585.162697909263
 30
0.0
  0
POINT
  5
8F49
330
12A9
100
AcDbEntity
  8
Defpoints
 62
     0
100
AcDbPoint
 10
3054.41454505878
 20
1575.164206885371
 30
0.0
  0
POINT
  5
8F4A
330
12A9
100
AcDbEntity
  8
Defpoints
 62
     0
100
AcDbPoint
 10
2925.075006122039
 20
1575.164206885371
 30
0.0
  0
ENDBLK
  5
12B6
330
12A9
100
AcDbEntity
  8
0
100
AcDbBlockEnd
  0
BLOCK
  5
12D1
330
12C2
100
AcDbEntity
  8
0
100
AcDbBlockBegin
  2
*D127
 70
     1
 10
0.0
 20
0.0
 30
0.0
  3
*D127
  1

  0
LINE
  5
8F56
330
12C2
100
AcDbEntity
  8
cotas
100
AcDbLine
 10
3068.652348874147
 20
1585.162697909264
 30
0.0
 11
3333.692573601042
 21
1585.162697909262
 31
0.0
  0
ARC
  5
8F57
330
12C2
100
AcDbEntity
  8
cotas
100
AcDbCircle
 10
3054.588991700289
 20
1585.162697909264
 30
0.0
 40
274.1035819007525
100
AcDbArc
 50
354.8184782661558
 51
358.9999994727821
  0
LINE
  5
8F58
330
12C2
100
AcDbEntity
  8
cotas
100
AcDbLine
 10
3327.572470262829
 20
1560.408020720536
 30
0.0
 11
3324.226884893342
 21
1523.514405625992
 31
0.0
  0
ARC
  5
8F59
330
12C2
100
AcDbEntity
  8
cotas
100
AcDbCircle
 10
3054.588991700289
 20
1585.162697909264
 30
0.0
 40
274.1035819007525
100
AcDbArc
 50
354.8191743215489
 51
356.9095868971655
  0
ARC
  5
8F5A
330
12C2
100
AcDbEntity
  8
cotas
100
AcDbCircle
 10
3054.588991700289
 20
1585.162697909264
 30
0.0
 40
274.1035819007525
100
AcDbArc
 50
2.090412575616173
 51
4.180825151232747
  0
ARC
  5
8F5B
330
12C2
100
AcDbEntity
  8
cotas
100
AcDbCircle
 10
3054.588991700289
 20
1585.162697909264
 30
0.0
 40
274.1035819007525
100
AcDbArc
 50
358.9999994727821
 51
359.9999999999996
  0
SOLID
  5
8F5C
330
12C2
100
AcDbEntity
  8
cotas
100
AcDbTrace
 10
3326.628341158411
 20
1570.444778491945
 30
0.0
 11
3329.959551091648
 21
1570.325818449005
 31
0.0
 12
3328.650826253849
 22
1580.378928270185
 32
0.0
 13
3328.650826253849
 23
1580.378928270185
 33
0.0
  0
SOLID
  5
8F5D
330
12C2
100
AcDbEntity
  8
cotas
100
AcDbTrace
 10
3330.176550164548
 20
1595.191436181684
 30
0.0
 11
3326.843771451141
 21
1595.130631917285
 31
0.0
 12
3328.692573601042
 22
1585.162697909262
 32
0.0
 13
3328.692573601042
 23
1585.162697909262
 33
0.0
  0
MTEXT
  5
8F5E
330
12C2
100
AcDbEntity
  8
cotas
100
AcDbMText
 10
3314.602847285358
 20
1542.98563189862
 30
0.0
 40
10.0
 41
0.0
 71
     5
 72
     1
  1
1,0°
  7
SANINDUSA
 11
0.0903113962140418
 21
0.9959135764281308
 31
0.0
 73
     1
 44
1.0
1001
ACAD
1000
MTEXTBEGIN
1070
    73
1070
     1
1070
    44
1040
1.0
1070
    74
1070
     0
1000
MTEXTEND
  0
POINT
  5
8F5F
330
12C2
100
AcDbEntity
  8
Defpoints
 62
     0
100
AcDbPoint
 10
3328.687934902241
 20
1583.568036065598
 30
0.0
  0
POINT
  5
8F60
330
12C2
100
AcDbEntity
  8
Defpoints
 62
     0
100
AcDbPoint
 10
3054.589069368788
 20
1585.162697909264
 30
0.0
  0
POINT
  5
8F61
330
12C2
100
AcDbEntity
  8
Defpoints
 62
     0
100
AcDbPoint
 10
3060.039306339272
 20
1585.067562263194
 30
0.0
  0
POINT
  5
8F62
330
12C2
100
AcDbEntity
  8
Defpoints
 62
     0
100
AcDbPoint
 10
3497.514213439444
 20
1577.43140532856
 30
0.0
  0
POINT
  5
8F63
330
12C2
100
AcDbEntity
  8
Defpoints
 62
     0
100
AcDbPoint
 10
3063.652348874148
 20
1585.162697909264
 30
0.0
  0
ENDBLK
  5
12D2
330
12C2
100
AcDbEntity
  8
0
100
AcDbBlockEnd
  0
BLOCK
  5
12EA
330
12DD
100
AcDbEntity
  8
0
100
AcDbBlockBegin
  2
*D128
 70
     1
 10
0.0
 20
0.0
 30
0.0
  3
*D128
  1

  0
LINE
  5
8F6E
330
12DD
100
AcDbEntity
  8
cotas
100
AcDbLine
 10
3018.24024422169
 20
1613.307812335879
 30
0.0
 11
3018.240244221691
 21
1627.200740896604
 31
0.0
  0
ARC
  5
8F6F
330
12DD
100
AcDbEntity
  8
cotas
100
AcDbCircle
 10
3018.24024422169
 20
1591.908408544429
 30
0.0
 40
30.29233235217452
100
AcDbArc
 50
51.99752176005944
 51
70.9987608800294
  0
ARC
  5
8F70
330
12DD
100
AcDbEntity
  8
cotas
100
AcDbCircle
 10
3018.24024422169
 20
1591.908408544429
 30
0.0
 40
30.29233235217452
100
AcDbArc
 50
111.0012391199705
 51
130.0024782399405
  0
ARC
  5
8F71
330
12DD
100
AcDbEntity
  8
cotas
100
AcDbCircle
 10
3018.24024422169
 20
1591.908408544429
 30
0.0
 40
30.29233235217452
100
AcDbArc
 50
89.99999999999934
 51
92.00000000000063
  0
SOLID
  5
8F72
330
12DD
100
AcDbEntity
  8
cotas
100
AcDbTrace
 10
3027.827985271102
 20
1618.906351826198
 30
0.0
 11
3028.378179507482
 21
1622.193964548731
 31
0.0
 12
3018.24024422169
 22
1622.200740896604
 32
0.0
 13
3018.24024422169
 23
1622.200740896604
 33
0.0
  0
SOLID
  5
8F73
330
12DD
100
AcDbEntity
  8
cotas
100
AcDbTrace
 10
3007.051534030251
 20
1621.821706567225
 30
0.0
 11
3007.716129132536
 21
1618.555298071472
 31
0.0
 12
3017.183057068653
 22
1622.182287626206
 32
0.0
 13
3017.183057068653
 23
1622.182287626206
 33
0.0
  0
MTEXT
  5
8F74
330
12DD
100
AcDbEntity
  8
cotas
100
AcDbMText
 10
2996.071423905597
 20
1627.155241097938
 30
0.0
 40
10.0
 41
0.0
 71
     5
 72
     1
  1
2,0°
  7
SANINDUSA
 11
0.8464886165147673
 21
0.5324068201205873
 31
0.0
 73
     1
 44
1.0
1001
ACAD
1000
MTEXTBEGIN
1070
    73
1070
     1
1070
    44
1040
1.0
1070
    74
1070
     0
1000
MTEXTEND
  0
POINT
  5
8F75
330
12DD
100
AcDbEntity
  8
Defpoints
 62
     0
100
AcDbPoint
 10
3017.887784883029
 20
1622.198690348156
 30
0.0
  0
POINT
  5
8F76
330
12DD
100
AcDbEntity
  8
Defpoints
 62
     0
100
AcDbPoint
 10
3018.24024422169
 20
1591.908386211451
 30
0.0
  0
POINT
  5
8F77
330
12DD
100
AcDbEntity
  8
Defpoints
 62
     0
100
AcDbPoint
 10
3018.240244970353
 20
1591.908387105523
 30
0.0
  0
POINT
  5
8F78
330
12DD
100
AcDbEntity
  8
Defpoints
 62
     0
100
AcDbPoint
 10
3016.627801922661
 20
1638.082714623491
 30
0.0
  0
POINT
  5
8F79
330
12DD
100
AcDbEntity
  8
Defpoints
 62
     0
100
AcDbPoint
 10
3018.24024422169
 20
1608.307812335879
 30
0.0
  0
ENDBLK
  5
12EB
330
12DD
100
AcDbEntity
  8
0
100
AcDbBlockEnd
  0
BLOCK
  5
131D
330
130D
100
AcDbEntity
  8
0
100
AcDbBlockBegin
  2
*D129
 70
     1
 10
0.0
 20
0.0
 30
0.0
  3
*D129
  1

  0
LINE
  5
8D58
330
130D
100
AcDbEntity
  8
cotas
100
AcDbLine
 10
1152.016073344258
 20
1570.37213928562
 30
0.0
 11
1152.016073344258
 21
1505.802431853293
 31
0.0
  0
LINE
  5
8D59
330
130D
100
AcDbEntity
  8
cotas
100
AcDbLine
 10
1152.646821800159
 20
1586.775324957659
 30
0.0
 11
1155.472359288358
 21
1505.862761730637
 31
0.0
  0
ARC
  5
8D5A
330
130D
100
AcDbEntity
  8
cotas
100
AcDbCircle
 10
1152.016073344258
 20
1604.83754304239
 30
0.0
 40
94.03511118909717
100
AcDbArc
 50
257.7908742777403
 51
269.9999999999998
  0
LINE
  5
8D5B
330
130D
100
AcDbEntity
  8
cotas
100
AcDbLine
 10
1132.129483775586
 20
1512.9292969941
 30
0.0
 11
1095.154372531731
 21
1520.929763689724
 31
0.0
  0
ARC
  5
8D5C
330
130D
100
AcDbEntity
  8
cotas
100
AcDbCircle
 10
1152.016073344258
 20
1604.83754304239
 30
0.0
 40
94.03511118909717
100
AcDbArc
 50
257.8082109594026
 51
263.9041054797012
  0
ARC
  5
8D5D
330
130D
100
AcDbEntity
  8
cotas
100
AcDbCircle
 10
1152.016073344258
 20
1604.83754304239
 30
0.0
 40
94.03511118909717
100
AcDbArc
 50
278.0959005452542
 51
284.1917950655528
  0
ARC
  5
8D5E
330
130D
100
AcDbEntity
  8
cotas
100
AcDbCircle
 10
1152.016073344258
 20
1604.83754304239
 30
0.0
 40
94.03511118909717
100
AcDbArc
 50
269.9999999999998
 51
272.0000060249557
  0
SOLID
  5
8D5F
330
130D
100
AcDbEntity
  8
cotas
100
AcDbTrace
 10
1142.118838841152
 20
1512.998457119157
 30
0.0
 11
1141.941600079418
 21
1509.669839157833
 31
0.0
 12
1152.016073344258
 22
1510.802431853293
 32
0.0
 13
1152.016073344258
 23
1510.802431853293
 33
0.0
  0
SOLID
  5
8D60
330
130D
100
AcDbEntity
  8
cotas
100
AcDbTrace
 10
1165.405724444413
 20
1510.079408206172
 30
0.0
 11
1165.112426211021
 21
1513.399812888948
 31
0.0
 12
1155.29786127939
 22
1510.859715847383
 32
0.0
 13
1155.29786127939
 23
1510.859715847383
 33
0.0
  0
MTEXT
  5
8D61
330
130D
100
AcDbEntity
  8
cotas
100
AcDbMText
 10
1116.041500048254
 20
1528.019438108021
 30
0.0
 40
10.0
 41
0.0
 71
     5
 72
     1
  1
2,0°
  7
SANINDUSA
 11
0.9773822233641006
 21
-0.2114804706157235
 31
0.0
 73
     1
 44
1.0
1001
ACAD
1000
MTEXTBEGIN
1070
    73
1070
     1
1070
    44
1040
1.0
1070
    74
1070
     0
1000
MTEXTEND
  0
POINT
  5
8D62
330
130D
100
AcDbEntity
  8
Defpoints
 62
     0
100
AcDbPoint
 10
1154.204178834556
 20
1510.827892842482
 30
0.0
  0
POINT
  5
8D63
330
130D
100
AcDbEntity
  8
Defpoints
 62
     0
100
AcDbPoint
 10
1152.016073344258
 20
1604.838418146585
 30
0.0
  0
POINT
  5
8D64
330
130D
100
AcDbEntity
  8
Defpoints
 62
     0
100
AcDbPoint
 10
1152.47232379119
 20
1591.772279074405
 30
0.0
  0
POINT
  5
8D65
330
130D
100
AcDbEntity
  8
Defpoints
 62
     0
100
AcDbPoint
 10
1152.016042784854
 20
1604.838418146585
 30
0.0
  0
POINT
  5
8D66
330
130D
100
AcDbEntity
  8
Defpoints
 62
     0
100
AcDbPoint
 10
1152.016073344258
 20
1575.37213928562
 30
0.0
  0
ENDBLK
  5
131E
330
130D
100
AcDbEntity
  8
0
100
AcDbBlockEnd
  0
BLOCK
  5
134A
330
1340
100
AcDbEntity
  8
0
100
AcDbBlockBegin
  2
*D130
 70
     1
 10
0.0
 20
0.0
 30
0.0
  3
*D130
  1

  0
LINE
  5
8F02
330
1340
100
AcDbEntity
  8
cotas
100
AcDbLine
 10
4551.391884397026
 20
1644.838414873355
 30
0.0
 11
4577.090090154599
 21
1644.838414873355
 31
0.0
  0
LINE
  5
8F03
330
1340
100
AcDbEntity
  8
cotas
100
AcDbLine
 10
4477.827384634223
 20
1542.764961044939
 30
0.0
 11
4577.090090154599
 21
1542.764961044939
 31
0.0
  0
LINE
  5
8F04
330
1340
100
AcDbEntity
  8
cotas
100
AcDbLine
 10
4572.090090154599
 20
1634.838414873355
 30
0.0
 11
4572.090090154599
 21
1552.764961044939
 31
0.0
  0
SOLID
  5
8F05
330
1340
100
AcDbEntity
  8
cotas
100
AcDbTrace
 10
4570.423423487932
 20
1634.838414873355
 30
0.0
 11
4573.756756821266
 21
1634.838414873355
 31
0.0
 12
4572.090090154599
 22
1644.838414873355
 32
0.0
 13
4572.090090154599
 23
1644.838414873355
 33
0.0
  0
SOLID
  5
8F06
330
1340
100
AcDbEntity
  8
cotas
100
AcDbTrace
 10
4570.423423487932
 20
1552.764961044939
 30
0.0
 11
4573.756756821266
 21
1552.764961044939
 31
0.0
 12
4572.090090154599
 22
1542.764961044939
 32
0.0
 13
4572.090090154599
 23
1542.764961044939
 33
0.0
  0
MTEXT
  5
8F07
330
1340
100
AcDbEntity
  8
cotas
100
AcDbMText
 10
4560.743548851711
 20
1593.801687959147
 30
0.0
 40
10.0
 41
0.0
 71
     5
 72
     1
  1
102,1
  7
SANINDUSA
 11
0.0000000000000001
 21
1.0
 31
0.0
 73
     1
 44
1.0
1001
ACAD
1000
MTEXTBEGIN
1070
    73
1070
     1
1070
    44
1040
1.0
1070
    74
1070
     0
1000
MTEXTEND
  0
POINT
  5
8F08
330
1340
100
AcDbEntity
  8
Defpoints
 62
     0
100
AcDbPoint
 10
4546.391884397026
 20
1644.838414873355
 30
0.0
  0
POINT
  5
8F09
330
1340
100
AcDbEntity
  8
Defpoints
 62
     0
100
AcDbPoint
 10
4472.827384634223
 20
1542.764961044939
 30
0.0
  0
POINT
  5
8F0A
330
1340
100
AcDbEntity
  8
Defpoints
 62
     0
100
AcDbPoint
 10
4572.090090154599
 20
1542.764961044939
 30
0.0
  0
ENDBLK
  5
134B
330
1340
100
AcDbEntity
  8
0
100
AcDbBlockEnd
  0
BLOCK
  5
1364
330
135A
100
AcDbEntity
  8
0
100
AcDbBlockBegin
  2
*D131
 70
     1
 10
0.0
 20
0.0
 30
0.0
  3
*D131
  1

  0
LINE
  5
9039
330
135A
100
AcDbEntity
  8
cotas
100
AcDbLine
 10
-1023.520080989732
 20
1747.101332888711
 30
0.0
 11
-1055.870382880656
 21
1747.101332888711
 31
0.0
  0
LINE
  5
903A
330
135A
100
AcDbEntity
  8
cotas
100
AcDbLine
 10
-1018.403193601532
 20
1826.982424469807
 30
0.0
 11
-1055.870382880656
 21
1826.982424469807
 31
0.0
  0
LINE
  5
903B
330
135A
100
AcDbEntity
  8
cotas
100
AcDbLine
 10
-1050.870382880656
 20
1757.101332888711
 30
0.0
 11
-1050.870382880656
 21
1816.982424469807
 31
0.0
  0
SOLID
  5
903C
330
135A
100
AcDbEntity
  8
cotas
100
AcDbTrace
 10
-1052.537049547323
 20
1757.101332888711
 30
0.0
 11
-1049.203716213989
 21
1757.101332888711
 31
0.0
 12
-1050.870382880656
 22
1747.101332888711
 32
0.0
 13
-1050.870382880656
 23
1747.101332888711
 33
0.0
  0
SOLID
  5
903D
330
135A
100
AcDbEntity
  8
cotas
100
AcDbTrace
 10
-1052.537049547323
 20
1816.982424469807
 30
0.0
 11
-1049.203716213989
 21
1816.982424469807
 31
0.0
 12
-1050.870382880656
 22
1826.982424469807
 32
0.0
 13
-1050.870382880656
 23
1826.982424469807
 33
0.0
  0
MTEXT
  5
903E
330
135A
100
AcDbEntity
  8
cotas
100
AcDbMText
 10
-1062.213566225183
 20
1787.041878679259
 30
0.0
 40
10.0
 41
0.0
 71
     5
 72
     1
  1
79,9
  7
SANINDUSA
 11
0.0000000000000001
 21
1.0
 31
0.0
 73
     1
 44
1.0
1001
ACAD
1000
MTEXTBEGIN
1070
    73
1070
     1
1070
    44
1040
1.0
1070
    74
1070
     0
1000
MTEXTEND
  0
POINT
  5
903F
330
135A
100
AcDbEntity
  8
Defpoints
 62
     0
100
AcDbPoint
 10
-1018.520080989732
 20
1747.101332888711
 30
0.0
  0
POINT
  5
9040
330
135A
100
AcDbEntity
  8
Defpoints
 62
     0
100
AcDbPoint
 10
-1013.403193601532
 20
1826.982424469807
 30
0.0
  0
POINT
  5
9041
330
135A
100
AcDbEntity
  8
Defpoints
 62
     0
100
AcDbPoint
 10
-1050.870382880656
 20
1826.982424469807
 30
0.0
  0
ENDBLK
  5
1365
330
135A
100
AcDbEntity
  8
0
100
AcDbBlockEnd
  0
ENDSEC
  0
SECTION
  2
ENTITIES
  0
ARC
  5
9BD
330
23
100
AcDbEntity
  8
SANINDUSA
100
AcDbCircle
 10
1885.216122232128
 20
1644.813633581791
 30
0.0
 40
0.0858729578527551
100
AcDbArc
 50
271.1397387901642
 51
283.7807389304153
  0
ARC
  5
9BF
330
23
100
AcDbEntity
  8
SANINDUSA
100
AcDbCircle
 10
1885.231566982043
 20
1644.750522748736
 30
0.0
 40
0.0209000012802069
100
AcDbArc
 50
283.8685881971072
 51
358.0000003352111
  0
ARC
  5
9C0
330
23
100
AcDbEntity
  8
SANINDUSA
100
AcDbCircle
 10
1884.291632589768
 20
1644.764948912463
 30
0.0
 40
0.0208998316536828
100
AcDbArc
 50
238.9919658696156
 51
268.7996187393776
  0
LINE
  5
9D6
330
23
100
AcDbEntity
  8
SANINDUSA
100
AcDbLine
 10
1885.065447828031
 20
1644.727788230394
 30
0.0
 11
1885.078776418124
 21
1644.718455459887
 31
0.0
  0
LINE
  5
9D7
330
23
100
AcDbEntity
  8
SANINDUSA
100
AcDbLine
 10
1885.204516956368
 20
1644.718455459887
 30
0.0
 11
1885.21783032105
 21
1644.727777613317
 31
0.0
  0
LINE
  5
9D8
330
23
100
AcDbEntity
  8
SANINDUSA
100
AcDbLine
 10
1885.078776418124
 20
1644.718455459887
 30
0.0
 11
1885.089950918984
 21
1644.706472274815
 31
0.0
  0
LINE
  5
9D9
330
23
100
AcDbEntity
  8
SANINDUSA
100
AcDbLine
 10
1885.193342455508
 20
1644.706472274815
 30
0.0
 11
1885.204516956368
 21
1644.718455459887
 31
0.0
  0
LINE
  5
A03
330
23
100
AcDbEntity
  8
SANINDUSA
100
AcDbLine
 10
1883.725947723022
 20
1644.79841725341
 30
0.0
 11
1885.31734563992
 21
1644.79841725341
 31
0.0
  0
LINE
  5
A06
330
23
100
AcDbEntity
  8
SANINDUSA
100
AcDbLine
 10
1883.720948484665
 20
1644.79841725341
 30
0.0
 11
1883.725947723022
 21
1644.79841725341
 31
0.0
  0
LINE
  5
A07
330
23
100
AcDbEntity
  8
SANINDUSA
100
AcDbLine
 10
1883.720948484665
 20
1644.79841725341
 30
0.0
 11
1883.721526634221
 21
1644.83153941936
 31
0.0
  0
LINE
  5
A09
330
23
100
AcDbEntity
  8
SANINDUSA
100
AcDbLine
 10
1885.32176674027
 20
1644.83153941936
 30
0.0
 11
1885.322344919897
 21
1644.79841725341
 31
0.0
  0
LINE
  5
A0A
330
23
100
AcDbEntity
  8
SANINDUSA
100
AcDbLine
 10
1885.31734563992
 20
1644.79841725341
 30
0.0
 11
1885.322344919897
 21
1644.79841725341
 31
0.0
  0
LINE
  5
A0B
330
23
100
AcDbEntity
  8
SANINDUSA
100
AcDbLine
 10
1883.72852556803
 20
1644.838417252515
 30
0.0
 11
1885.314767858243
 21
1644.838417252515
 31
0.0
  0
ARC
  5
A0E
330
23
100
AcDbEntity
  8
SANINDUSA
100
AcDbCircle
 10
1883.728525568088
 20
1644.831417252516
 30
0.0
 40
0.0070000000000002
100
AcDbArc
 50
90.0
 51
179.0000000030781
  0
ARC
  5
A0F
330
23
100
AcDbEntity
  8
SANINDUSA
100
AcDbCircle
 10
1885.314767806404
 20
1644.831417252516
 30
0.0
 40
0.0070000000000002
100
AcDbArc
 50
0.9999999969218754
 51
90.0
  0
ARC
  5
A5E
330
23
100
AcDbEntity
  8
SANINDUSA
100
AcDbCircle
 10
1884.250888954704
 20
1644.731383515171
 30
0.0
 40
0.0261025499585454
100
AcDbArc
 50
58.32516178258193
 51
88.99970388096299
  0
LINE
  5
A62
330
23
100
AcDbEntity
  8
SANINDUSA
100
AcDbLine
 10
1883.789141139246
 20
1644.79841725341
 30
0.0
 11
1883.789597420433
 21
1644.785351113437
 31
0.0
  0
LINE
  5
A63
330
23
100
AcDbEntity
  8
SANINDUSA
100
AcDbLine
 10
1885.252612065138
 20
1644.754312574122
 30
0.0
 11
1885.254152199484
 21
1644.79841725341
 31
0.0
  0
ARC
  5
A65
330
23
100
AcDbEntity
  8
SANINDUSA
100
AcDbCircle
 10
1884.291850857047
 20
1644.797775533811
 30
0.0
 40
0.0519088439836626
100
AcDbArc
 50
238.3273946258756
 51
269.0160903338277
  0
LINE
  5
A67
330
23
100
AcDbEntity
  8
SANINDUSA
100
AcDbLine
 10
1883.813119934538
 20
1644.765131330875
 30
0.0
 11
1884.251344623417
 21
1644.757482090478
 31
0.0
  0
ARC
  5
A6A
330
23
100
AcDbEntity
  8
SANINDUSA
100
AcDbCircle
 10
1883.810484688718
 20
1644.786080512919
 30
0.0
 40
0.0209000000000002
100
AcDbArc
 50
182.0000000037536
 51
269.0000000030781
  0
LWPOLYLINE
  5
A6B
330
23
100
AcDbEntity
  8
SANINDUSA
100
AcDbPolyline
 90
        7
 70
   128
 43
0.0
 10
1885.252454301572
 20
1644.749793460583
 10
1885.252470156408
 20
1644.7502505239
 10
1885.252506157613
 20
1644.751280946647
 10
1885.252546331144
 20
1644.752430317913
 10
1885.252574702955
 20
1644.753244219337
 10
1885.252598425603
 20
1644.75392079166
 10
1885.252598783231
 20
1644.753931915377
  0
LINE
  5
A6E
330
23
100
AcDbEntity
  8
SANINDUSA
100
AcDbLine
 10
1885.141646687246
 20
1644.706472274815
 30
0.0
 11
1885.193342455508
 21
1644.706472274815
 31
0.0
  0
LINE
  5
A6F
330
23
100
AcDbEntity
  8
SANINDUSA
100
AcDbLine
 10
1885.089950918984
 20
1644.706472274815
 30
0.0
 11
1885.141646687246
 21
1644.706472274815
 31
0.0
  0
ARC
  5
AC1
330
23
100
AcDbEntity
  8
SANINDUSA
100
AcDbCircle
 10
1882.87965859704
 20
1644.7516027185
 30
0.0
 40
0.0208999917238545
100
AcDbArc
 50
181.990865707347
 51
269.2411370718371
  0
ARC
  5
AC2
330
23
100
AcDbEntity
  8
SANINDUSA
100
AcDbCircle
 10
1883.499574634313
 20
1644.751602982028
 30
0.0
 40
0.0208999915548485
100
AcDbArc
 50
270.6679966985195
 51
358.0089223368146
  0
LINE
  5
AC3
330
23
100
AcDbEntity
  8
SANINDUSA
100
AcDbLine
 10
1883.113393784728
 20
1644.727805017446
 30
0.0
 11
1883.126746346617
 21
1644.718455460781
 31
0.0
  0
LINE
  5
AC4
330
23
100
AcDbEntity
  8
SANINDUSA
100
AcDbLine
 10
1883.252486884861
 20
1644.718455460781
 30
0.0
 11
1883.265813351837
 21
1644.727786748623
 31
0.0
  0
LINE
  5
AC5
330
23
100
AcDbEntity
  8
SANINDUSA
100
AcDbLine
 10
1883.126746346617
 20
1644.718455460781
 30
0.0
 11
1883.137920847477
 21
1644.706472275709
 31
0.0
  0
LINE
  5
AC6
330
23
100
AcDbEntity
  8
SANINDUSA
100
AcDbLine
 10
1883.241312384001
 20
1644.706472275709
 30
0.0
 11
1883.252486884861
 21
1644.718455460781
 31
0.0
  0
LINE
  5
AC9
330
23
100
AcDbEntity
  8
SANINDUSA
100
AcDbLine
 10
1882.788918413158
 20
1644.798417254303
 30
0.0
 11
1882.789496562715
 21
1644.831539420255
 31
0.0
  0
LINE
  5
ACA
330
23
100
AcDbEntity
  8
SANINDUSA
100
AcDbLine
 10
1882.788918413158
 20
1644.798417254303
 30
0.0
 11
1882.793917651516
 21
1644.798417254303
 31
0.0
  0
LINE
  5
ACC
330
23
100
AcDbEntity
  8
SANINDUSA
100
AcDbLine
 10
1883.589736668763
 20
1644.831539420255
 30
0.0
 11
1883.590314836469
 21
1644.798417254303
 31
0.0
  0
LINE
  5
ACE
330
23
100
AcDbEntity
  8
SANINDUSA
100
AcDbLine
 10
1883.585315556493
 20
1644.798417254303
 30
0.0
 11
1883.590314836469
 21
1644.798417254303
 31
0.0
  0
LINE
  5
AD0
330
23
100
AcDbEntity
  8
SANINDUSA
100
AcDbLine
 10
1882.793917651516
 20
1644.798417254303
 30
0.0
 11
1883.585315556493
 21
1644.798417254303
 31
0.0
  0
LINE
  5
AD2
330
23
100
AcDbEntity
  8
SANINDUSA
100
AcDbLine
 10
1882.796495496523
 20
1644.83841725341
 30
0.0
 11
1883.582737715211
 21
1644.83841725341
 31
0.0
  0
ARC
  5
AD4
330
23
100
AcDbEntity
  8
SANINDUSA
100
AcDbCircle
 10
1882.796495496581
 20
1644.83141725341
 30
0.0
 40
0.0070000000000002
100
AcDbArc
 50
90.0
 51
179.0000000030781
  0
ARC
  5
AD5
330
23
100
AcDbEntity
  8
SANINDUSA
100
AcDbCircle
 10
1883.582737734897
 20
1644.83141725341
 30
0.0
 40
0.0070000000000002
100
AcDbArc
 50
0.9999999969218754
 51
90.0
  0
LINE
  5
ADA
330
23
100
AcDbEntity
  8
SANINDUSA
100
AcDbLine
 10
1883.520573007914
 20
1644.754055279404
 30
0.0
 11
1883.52212217566
 21
1644.798417254303
 31
0.0
  0
LINE
  5
ADD
330
23
100
AcDbEntity
  8
SANINDUSA
100
AcDbLine
 10
1882.857111067739
 20
1644.798417254303
 30
0.0
 11
1882.85866026598
 21
1644.754054064786
 31
0.0
  0
LWPOLYLINE
  5
AE4
330
23
100
AcDbEntity
  8
SANINDUSA
100
AcDbPolyline
 90
        5
 70
   128
 43
0.0
 10
1882.858660266962
 20
1644.75405406109
 10
1882.858719789651
 20
1644.752349487458
 10
1882.858754822281
 20
1644.751346274231
 10
1882.858769417968
 20
1644.750928326462
 10
1882.858768874076
 20
1644.750944009935
  0
LWPOLYLINE
  5
AE5
330
23
100
AcDbEntity
  8
SANINDUSA
100
AcDbPolyline
 90
        4
 70
   128
 43
0.0
 10
1883.520463020769
 20
1644.750905691599
 10
1883.520472736326
 20
1644.75118379942
 10
1883.520507426229
 20
1644.752177222585
 10
1883.520572991338
 20
1644.754055282985
  0
LINE
  5
AE7
330
23
100
AcDbEntity
  8
SANINDUSA
100
AcDbLine
 10
1883.137920847477
 20
1644.706472275709
 30
0.0
 11
1883.241312384001
 21
1644.706472275709
 31
0.0
  0
LINE
  5
AED
330
23
100
AcDbEntity
  8
SANINDUSA
100
AcDbLine
 10
1882.879381791916
 20
1644.730704559897
 30
0.0
 11
1883.113393784728
 21
1644.727805017446
 31
0.0
  0
LINE
  5
AEE
330
23
100
AcDbEntity
  8
SANINDUSA
100
AcDbLine
 10
1883.113393784728
 20
1644.727805017446
 30
0.0
 11
1883.265813351837
 21
1644.727786748623
 31
0.0
  0
LINE
  5
AEF
330
23
100
AcDbEntity
  8
SANINDUSA
100
AcDbLine
 10
1883.265813351837
 20
1644.727786748623
 30
0.0
 11
1883.4998182964
 21
1644.730704410886
 31
0.0
  0
LINE
  5
AF0
330
23
100
AcDbEntity
  8
SANINDUSA
100
AcDbLine
 10
1884.291194757676
 20
1644.744053667401
 30
0.0
 11
1885.065447828031
 21
1644.727788230394
 31
0.0
  0
LINE
  5
AF1
330
23
100
AcDbEntity
  8
SANINDUSA
100
AcDbLine
 10
1885.065447828031
 20
1644.727788230394
 30
0.0
 11
1885.21783032105
 21
1644.727777613317
 31
0.0
  0
ARC
  5
AF9
330
23
100
AcDbEntity
  8
SANINDUSA
100
AcDbCircle
 10
1883.810484658267
 20
1644.786080512919
 30
0.0
 40
0.0209000000000002
100
AcDbArc
 50
182.0000000037536
 51
269.0000000030781
  0
ARC
  5
B20
330
23
100
AcDbEntity
  8
SANINDUSA
100
AcDbCircle
 10
1880.967144102608
 20
1645.175820019546
 30
0.0
 40
0.0050010226247751
100
AcDbArc
 50
90.02043701167874
 51
179.9795629883212
  0
LINE
  5
B22
330
23
100
AcDbEntity
  8
SANINDUSA
100
AcDbLine
 10
1880.967142318777
 20
1645.180821041853
 30
0.0
 11
1882.557383947874
 21
1645.180821041853
 31
0.0
  0
ARC
  5
B26
330
23
100
AcDbEntity
  8
SANINDUSA
100
AcDbCircle
 10
1882.557382164043
 20
1645.175820019546
 30
0.0
 40
0.0050010226247742
100
AcDbArc
 50
0.0204370116787323
 51
89.97956298832127
  0
LINE
  5
B29
330
23
100
AcDbEntity
  8
SANINDUSA
100
AcDbLine
 10
1880.962143080301
 20
1644.385580174281
 30
0.0
 11
1880.962143080301
 21
1645.175821803378
 31
0.0
  0
LINE
  5
B2A
330
23
100
AcDbEntity
  8
SANINDUSA
100
AcDbLine
 10
1882.56238318635
 20
1645.175821803378
 30
0.0
 11
1882.56238318635
 21
1644.385580174281
 31
0.0
  0
ELLIPSE
  5
B37
330
23
100
AcDbEntity
  8
SANINDUSA
100
AcDbEllipse
 10
1882.47200649781
 20
1645.090444352556
 30
0.0
 11
0.0141714282369861
 21
0.0141714282369867
 31
0.0
210
0.0
220
0.0
230
1.0
 40
0.9979329808706809
 41
5.498396131367732
 42
7.067974482991399
  0
LINE
  5
B39
330
23
100
AcDbEntity
  8
SANINDUSA
100
AcDbLine
 10
1882.472039403176
 20
1645.110465074463
 30
0.0
 11
1881.052486864231
 21
1645.110465074463
 31
0.0
  0
ELLIPSE
  5
B3B
330
23
100
AcDbEntity
  8
SANINDUSA
100
AcDbEllipse
 10
1881.052519769598
 20
1645.090444352556
 30
0.0
 11
-0.0141714282369793
 21
0.0141714282369932
 31
0.0
210
0.0
220
0.0
230
1.0
 40
0.997932980870711
 41
5.498396131368258
 42
7.067974482990901
  0
LINE
  5
B3E
330
23
100
AcDbEntity
  8
SANINDUSA
100
AcDbLine
 10
1882.492027219717
 20
1644.470924719735
 30
0.0
 11
1882.492027219717
 21
1645.090477257923
 31
0.0
  0
LINE
  5
B3F
330
23
100
AcDbEntity
  8
SANINDUSA
100
AcDbLine
 10
1881.032499047691
 20
1645.090477257923
 30
0.0
 11
1881.03249904769
 21
1644.470924719735
 31
0.0
  0
ELLIPSE
  5
B42
330
23
100
AcDbEntity
  8
SANINDUSA
100
AcDbEllipse
 10
1882.47200649781
 20
1644.470957625102
 30
0.0
 11
-0.0141714282369867
 21
0.0141714282369861
 31
0.0
210
0.0
220
0.0
230
1.0
 40
0.9979329808706859
 41
2.356803477777984
 42
3.926381829401618
  0
ELLIPSE
  5
B43
330
23
100
AcDbEntity
  8
SANINDUSA
100
AcDbEllipse
 10
1881.052519769597
 20
1644.470957625102
 30
0.0
 11
0.0141714282369935
 21
0.0141714282369796
 31
0.0
210
0.0
220
0.0
230
1.0
 40
0.9979329808706863
 41
2.356803477777424
 42
3.926381829402172
  0
LINE
  5
B45
330
23
100
AcDbEntity
  8
SANINDUSA
100
AcDbLine
 10
1881.052486864231
 20
1644.450936903194
 30
0.0
 11
1882.472039403176
 21
1644.450936903195
 31
0.0
  0
ARC
  5
B47
330
23
100
AcDbEntity
  8
SANINDUSA
100
AcDbCircle
 10
1882.557382164043
 20
1644.385581958111
 30
0.0
 40
0.0050010226247742
100
AcDbArc
 50
270.0204370116787
 51
359.9795629883213
  0
LINE
  5
B48
330
23
100
AcDbEntity
  8
SANINDUSA
100
AcDbLine
 10
1882.557383947874
 20
1644.380580935805
 30
0.0
 11
1880.967142318777
 21
1644.380580935805
 31
0.0
  0
ARC
  5
B4A
330
23
100
AcDbEntity
  8
SANINDUSA
100
AcDbCircle
 10
1880.967144102608
 20
1644.385581958111
 30
0.0
 40
0.0050010226247748
100
AcDbArc
 50
180.0204370116787
 51
269.9795629883212
  0
ARC
  5
B86
330
23
100
AcDbEntity
  8
SANINDUSA
100
AcDbCircle
 10
1881.080348399301
 20
1644.498495502333
 30
0.0
 40
0.0108877701390786
100
AcDbArc
 50
179.9875034900254
 51
269.9877384549587
  0
ARC
  5
B8A
330
23
100
AcDbEntity
  8
SANINDUSA
100
AcDbCircle
 10
1881.080348444885
 20
1645.062906429761
 30
0.0
 40
0.0108878157128463
100
AcDbArc
 50
90.01250136925134
 51
180.0122566857646
  0
LINE
  5
B9A
330
23
100
AcDbEntity
  8
SANINDUSA
100
AcDbLine
 10
1881.069460629421
 20
1644.498497877013
 30
0.0
 11
1881.069460629421
 21
1645.062904100645
 31
0.0
  0
LINE
  5
B9B
330
23
100
AcDbEntity
  8
SANINDUSA
100
AcDbLine
 10
1881.080346069272
 20
1645.073794245215
 30
0.0
 11
1881.49715265689
 21
1645.073794245215
 31
0.0
  0
LINE
  5
B9D
330
23
100
AcDbEntity
  8
SANINDUSA
100
AcDbLine
 10
1881.497148611552
 20
1644.487607732443
 30
0.0
 11
1881.080346069272
 21
1644.487607732443
 31
0.0
  0
LWPOLYLINE
  5
BAC
330
23
100
AcDbEntity
  8
SANINDUSA
100
AcDbPolyline
 90
        3
 70
   128
 43
0.0
 10
1881.50934483781
 20
1644.488008096528
 10
1881.503286778414
 20
1644.487722491989
 10
1881.497148611552
 20
1644.487607732443
  0
LWPOLYLINE
  5
BAD
330
23
100
AcDbEntity
  8
SANINDUSA
100
AcDbPolyline
 90
        3
 70
   128
 43
0.0
 10
1881.49715265689
 20
1645.073794245215
 10
1881.506218439849
 20
1645.073555525608
 10
1881.509344876059
 20
1645.0733940974
  0
LWPOLYLINE
  5
BAE
330
23
100
AcDbEntity
  8
SANINDUSA
100
AcDbPolyline
 90
        5
 70
   128
 43
0.0
 10
1881.520390599445
 20
1645.062970959644
 10
1881.52030125737
 20
1644.900701851868
 10
1881.520263220766
 20
1644.73843275392
 10
1881.520379348819
 20
1644.546434719521
 10
1881.520389801844
 20
1644.498430571815
  0
ARC
  5
BB2
330
23
100
AcDbEntity
  8
SANINDUSA
100
AcDbCircle
 10
1881.510243565642
 20
1645.062971168924
 30
0.0
 40
0.0101470338059416
100
AcDbArc
 50
359.9988182837877
 51
72.91584372393508
  0
ARC
  5
BB3
330
23
100
AcDbEntity
  8
SANINDUSA
100
AcDbCircle
 10
1881.510243676926
 20
1644.498430208792
 30
0.0
 40
0.0101461249251531
100
AcDbArc
 50
287.0869938165856
 51
0.0020500025518493
  0
LINE
  5
BB5
330
23
100
AcDbEntity
  8
SANINDUSA
100
AcDbLine
 10
1881.511745006134
 20
1644.488324694159
 30
0.0
 11
1881.50934483781
 21
1644.488008096528
 31
0.0
  0
LINE
  5
BB6
330
23
100
AcDbEntity
  8
SANINDUSA
100
AcDbLine
 10
1881.509344876059
 20
1645.0733940974
 30
0.0
 11
1881.511742540411
 21
1645.073078089035
 31
0.0
  0
LINE
  5
BB7
330
23
100
AcDbEntity
  8
SANINDUSA
100
AcDbLine
 10
1881.511742540411
 20
1645.073078089035
 30
0.0
 11
1881.513224520778
 21
1645.072670457637
 31
0.0
  0
LINE
  5
BB8
330
23
100
AcDbEntity
  8
SANINDUSA
100
AcDbLine
 10
1881.51322484536
 20
1644.488731936484
 30
0.0
 11
1881.511745006134
 21
1644.488324694159
 31
0.0
  0
CIRCLE
  5
BD8
330
23
100
AcDbEntity
  8
SANINDUSA
100
AcDbCircle
 10
1881.646946500024
 20
1645.020551852297
 30
0.0
 40
0.0107485907389347
  0
CIRCLE
  5
BDA
330
23
100
AcDbEntity
  8
SANINDUSA
100
AcDbCircle
 10
1881.646936111545
 20
1644.540693991594
 30
0.0
 40
0.0107487871492258
  0
CIRCLE
  5
BDC
330
23
100
AcDbEntity
  8
SANINDUSA
100
AcDbCircle
 10
1881.646922791155
 20
1644.940722878848
 30
0.0
 40
0.0107488557390897
  0
CIRCLE
  5
BDE
330
23
100
AcDbEntity
  8
SANINDUSA
100
AcDbCircle
 10
1881.646921450979
 20
1644.620679252684
 30
0.0
 40
0.0107497697598041
  0
CIRCLE
  5
BE1
330
23
100
AcDbEntity
  8
SANINDUSA
100
AcDbCircle
 10
1881.726935498799
 20
1645.020551627927
 30
0.0
 40
0.0107483385549797
  0
CIRCLE
  5
BE4
330
23
100
AcDbEntity
  8
SANINDUSA
100
AcDbCircle
 10
1881.726925030742
 20
1644.540694132888
 30
0.0
 40
0.0107485243681132
  0
CIRCLE
  5
C1D
330
23
100
AcDbEntity
  8
SANINDUSA
100
AcDbCircle
 10
1881.646898937032
 20
1644.860722588821
 30
0.0
 40
0.0107503786384698
  0
CIRCLE
  5
C1F
330
23
100
AcDbEntity
  8
SANINDUSA
100
AcDbCircle
 10
1881.646897693826
 20
1644.700680524031
 30
0.0
 40
0.010751345129198
  0
CIRCLE
  5
C21
330
23
100
AcDbEntity
  8
SANINDUSA
100
AcDbCircle
 10
1881.726910855467
 20
1644.940725699427
 30
0.0
 40
0.0107485637086246
  0
CIRCLE
  5
C23
330
23
100
AcDbEntity
  8
SANINDUSA
100
AcDbCircle
 10
1881.726909378617
 20
1644.620676359334
 30
0.0
 40
0.0107495562197782
  0
CIRCLE
  5
C25
330
23
100
AcDbEntity
  8
SANINDUSA
100
AcDbCircle
 10
1881.646885720812
 20
1644.780701873764
 30
0.0
 40
0.010751915732633
  0
CIRCLE
  5
C27
330
23
100
AcDbEntity
  8
SANINDUSA
100
AcDbCircle
 10
1881.806923110106
 20
1645.020551605506
 30
0.0
 40
0.0107481032131858
  0
CIRCLE
  5
C29
330
23
100
AcDbEntity
  8
SANINDUSA
100
AcDbCircle
 10
1881.806912494019
 20
1644.540694106133
 30
0.0
 40
0.0107483090890619
  0
CIRCLE
  5
C2B
330
23
100
AcDbEntity
  8
SANINDUSA
100
AcDbCircle
 10
1881.726883792948
 20
1644.860726486128
 30
0.0
 40
0.0107504018393133
  0
CIRCLE
  5
C2D
330
23
100
AcDbEntity
  8
SANINDUSA
100
AcDbCircle
 10
1881.726882364672
 20
1644.700676708267
 30
0.0
 40
0.01075150567802
  0
CIRCLE
  5
C2F
330
23
100
AcDbEntity
  8
SANINDUSA
100
AcDbCircle
 10
1881.806897630068
 20
1644.940728058536
 30
0.0
 40
0.010748268413222
  0
CIRCLE
  5
C31
330
23
100
AcDbEntity
  8
SANINDUSA
100
AcDbCircle
 10
1881.806896066927
 20
1644.620673964364
 30
0.0
 40
0.0107493049911693
  0
CIRCLE
  5
C33
330
23
100
AcDbEntity
  8
SANINDUSA
100
AcDbCircle
 10
1881.726868218482
 20
1644.780701983184
 30
0.0
 40
0.0107523600377925
  0
CIRCLE
  5
C35
330
23
100
AcDbEntity
  8
SANINDUSA
100
AcDbCircle
 10
1881.886908138676
 20
1645.020552342415
 30
0.0
 40
0.0107479261151522
  0
CIRCLE
  5
C37
330
23
100
AcDbEntity
  8
SANINDUSA
100
AcDbCircle
 10
1881.886897272123
 20
1644.540693399169
 30
0.0
 40
0.0107482136189682
  0
CIRCLE
  5
C39
330
23
100
AcDbEntity
  8
SANINDUSA
100
AcDbCircle
 10
1881.806868230162
 20
1644.86072997706
 30
0.0
 40
0.0107504015398973
  0
CIRCLE
  5
C3B
330
23
100
AcDbEntity
  8
SANINDUSA
100
AcDbCircle
 10
1881.806866670819
 20
1644.700673298141
 30
0.0
 40
0.0107515934054756
  0
CIRCLE
  5
C3D
330
23
100
AcDbEntity
  8
SANINDUSA
100
AcDbCircle
 10
1881.886881763854
 20
1644.940729622828
 30
0.0
 40
0.0107480259202332
  0
CIRCLE
  5
C3F
330
23
100
AcDbEntity
  8
SANINDUSA
100
AcDbCircle
 10
1881.886880188531
 20
1644.620672435477
 30
0.0
 40
0.0107490593335421
  0
CIRCLE
  5
C41
330
23
100
AcDbEntity
  8
SANINDUSA
100
AcDbCircle
 10
1881.96688919884
 20
1645.020554579841
 30
0.0
 40
0.0107478912793929
  0
CIRCLE
  5
C43
330
23
100
AcDbEntity
  8
SANINDUSA
100
AcDbCircle
 10
1881.806850731774
 20
1644.780702120877
 30
0.0
 40
0.0107527882741636
  0
CIRCLE
  5
C45
330
23
100
AcDbEntity
  8
SANINDUSA
100
AcDbCircle
 10
1881.966877959612
 20
1644.540691308518
 30
0.0
 40
0.0107483479956344
  0
CIRCLE
  5
C47
330
23
100
AcDbEntity
  8
SANINDUSA
100
AcDbCircle
 10
1881.886851626941
 20
1644.860732275813
 30
0.0
 40
0.0107503868515249
  0
CIRCLE
  5
C49
330
23
100
AcDbEntity
  8
SANINDUSA
100
AcDbCircle
 10
1881.886850038277
 20
1644.700671082274
 30
0.0
 40
0.0107515732613772
  0
CIRCLE
  5
C4B
330
23
100
AcDbEntity
  8
SANINDUSA
100
AcDbCircle
 10
1881.966861742102
 20
1644.940730039628
 30
0.0
 40
0.0107479162530314
  0
CIRCLE
  5
C4D
330
23
100
AcDbEntity
  8
SANINDUSA
100
AcDbCircle
 10
1881.966860250262
 20
1644.6206721538
 30
0.0
 40
0.0107488879575456
  0
CIRCLE
  5
C4F
330
23
100
AcDbEntity
  8
SANINDUSA
100
AcDbCircle
 10
1881.886833337821
 20
1644.780702181544
 30
0.0
 40
0.0107531243744863
  0
CIRCLE
  5
C51
330
23
100
AcDbEntity
  8
SANINDUSA
100
AcDbCircle
 10
1882.046865262942
 20
1645.020559075296
 30
0.0
 40
0.0107481271209806
  0
CIRCLE
  5
C53
330
23
100
AcDbEntity
  8
SANINDUSA
100
AcDbCircle
 10
1882.046853529258
 20
1644.540687120459
 30
0.0
 40
0.0107488826352941
  0
CIRCLE
  5
C55
330
23
100
AcDbEntity
  8
SANINDUSA
100
AcDbCircle
 10
1881.966833105201
 20
1644.860732381904
 30
0.0
 40
0.0107503963282078
  0
CIRCLE
  5
C57
330
23
100
AcDbEntity
  8
SANINDUSA
100
AcDbCircle
 10
1881.966831646566
 20
1644.700671056525
 30
0.0
 40
0.0107514390457941
  0
CIRCLE
  5
C59
330
23
100
AcDbEntity
  8
SANINDUSA
100
AcDbCircle
 10
1882.046836737902
 20
1644.940728938079
 30
0.0
 40
0.0107480264460053
  0
CIRCLE
  5
C5B
330
23
100
AcDbEntity
  8
SANINDUSA
100
AcDbCircle
 10
1882.046835462704
 20
1644.620673468023
 30
0.0
 40
0.0107488611098995
  0
CIRCLE
  5
C5D
330
23
100
AcDbEntity
  8
SANINDUSA
100
AcDbCircle
 10
1881.966816208185
 20
1644.780702259803
 30
0.0
 40
0.0107531977810607
  0
CIRCLE
  5
C5F
330
23
100
AcDbEntity
  8
SANINDUSA
100
AcDbCircle
 10
1882.126836960287
 20
1645.020566143525
 30
0.0
 40
0.0107488144647613
  0
CIRCLE
  5
C61
330
23
100
AcDbEntity
  8
SANINDUSA
100
AcDbCircle
 10
1882.126824751803
 20
1644.540680546759
 30
0.0
 40
0.0107500081462997
  0
CIRCLE
  5
C63
330
23
100
AcDbEntity
  8
SANINDUSA
100
AcDbCircle
 10
1882.046811822392
 20
1644.86072962118
 30
0.0
 40
0.0107505058296161
  0
CIRCLE
  5
C65
330
23
100
AcDbEntity
  8
SANINDUSA
100
AcDbCircle
 10
1882.046810634094
 20
1644.700673931817
 30
0.0
 40
0.010751305136756
  0
CIRCLE
  5
C67
330
23
100
AcDbEntity
  8
SANINDUSA
100
AcDbCircle
 10
1882.126808314056
 20
1644.940725715269
 30
0.0
 40
0.010748426738329
  0
CIRCLE
  5
C69
330
23
100
AcDbEntity
  8
SANINDUSA
100
AcDbCircle
 10
1882.126807479362
 20
1644.620676827534
 30
0.0
 40
0.0107489911059765
  0
CIRCLE
  5
C6B
330
23
100
AcDbEntity
  8
SANINDUSA
100
AcDbCircle
 10
1882.046799600715
 20
1644.780702188452
 30
0.0
 40
0.0107527492358781
  0
CIRCLE
  5
C6D
330
23
100
AcDbEntity
  8
SANINDUSA
100
AcDbCircle
 10
1882.206809651593
 20
1645.020573913481
 30
0.0
 40
0.0107501672123204
  0
CIRCLE
  5
C6F
330
23
100
AcDbEntity
  8
SANINDUSA
100
AcDbCircle
 10
1882.206797796685
 20
1644.540673045178
 30
0.0
 40
0.0107515835857333
  0
CIRCLE
  5
C71
330
23
100
AcDbEntity
  8
SANINDUSA
100
AcDbCircle
 10
1882.12678810576
 20
1644.860724886523
 30
0.0
 40
0.0107508276885095
  0
CIRCLE
  5
C73
330
23
100
AcDbEntity
  8
SANINDUSA
100
AcDbCircle
 10
1882.12678710627
 20
1644.700678796585
 30
0.0
 40
0.0107515099958723
  0
CIRCLE
  5
C75
330
23
100
AcDbEntity
  8
SANINDUSA
100
AcDbCircle
 10
1882.126783925075
 20
1644.780702188587
 30
0.0
 40
0.0107513739482869
  0
CIRCLE
  5
C77
330
23
100
AcDbEntity
  8
SANINDUSA
100
AcDbCircle
 10
1882.206782954667
 20
1644.940719655425
 30
0.0
 40
0.0107492385063135
  0
CIRCLE
  5
C79
330
23
100
AcDbEntity
  8
SANINDUSA
100
AcDbCircle
 10
1882.206782869703
 20
1644.620682681361
 30
0.0
 40
0.0107493425359233
  0
CIRCLE
  5
C7B
330
23
100
AcDbEntity
  8
SANINDUSA
100
AcDbCircle
 10
1882.206767416716
 20
1644.860721747026
 30
0.0
 40
0.0107513034414153
  0
CIRCLE
  5
C7D
330
23
100
AcDbEntity
  8
SANINDUSA
100
AcDbCircle
 10
1882.206766229543
 20
1644.7006818067
 30
0.0
 40
0.0107523230982092
  0
CIRCLE
  5
C7F
330
23
100
AcDbEntity
  8
SANINDUSA
100
AcDbCircle
 10
1882.206768959014
 20
1644.780701439956
 30
0.0
 40
0.0107492868366882
  0
CIRCLE
  5
C80
330
23
100
AcDbEntity
  8
SANINDUSA
100
AcDbCircle
 10
1882.382296834547
 20
1644.780708576041
 30
0.0
 40
0.0739966376399416
  0
CIRCLE
  5
C82
330
23
100
AcDbEntity
  8
SANINDUSA
100
AcDbCircle
 10
1882.382263133325
 20
1644.780700988829
 30
0.0
 40
0.0499999999999997
  0
LINE
  5
CDF
330
23
100
AcDbEntity
  8
SANINDUSA
100
AcDbLine
 10
1886.281900182298
 20
1644.741353646714
 30
0.0
 11
1886.334143120131
 21
1644.740259310592
 31
0.0
  0
LINE
  5
CE1
330
23
100
AcDbEntity
  8
SANINDUSA
100
AcDbLine
 10
1886.361883124729
 20
1644.739678239794
 30
0.0
 11
1886.41412606266
 21
1644.738583911649
 31
0.0
  0
LINE
  5
CE3
330
23
100
AcDbEntity
  8
SANINDUSA
100
AcDbLine
 10
1886.4418660642
 20
1644.738002836607
 30
0.0
 11
1886.494109008175
 21
1644.736908509111
 31
0.0
  0
LINE
  5
CE5
330
23
100
AcDbEntity
  8
SANINDUSA
100
AcDbLine
 10
1886.521849005838
 20
1644.736327441006
 30
0.0
 11
1886.57409194879
 21
1644.735233090805
 31
0.0
  0
LWPOLYLINE
  5
CE7
330
23
100
AcDbEntity
  8
SANINDUSA
100
AcDbPolyline
 90
        3
 70
   128
 43
0.0
 10
1886.601831956721
 20
1644.734652041461
 10
1886.628173738548
 20
1644.734100262462
 10
1886.654074885997
 20
1644.733557667007
  0
LINE
  5
CE9
330
23
100
AcDbEntity
  8
SANINDUSA
100
AcDbLine
 10
1886.681814908268
 20
1644.732976638244
 30
0.0
 11
1886.734057806486
 21
1644.731882241368
 31
0.0
  0
LINE
  5
CEB
330
23
100
AcDbEntity
  8
SANINDUSA
100
AcDbLine
 10
1886.761797878122
 20
1644.731301253149
 30
0.0
 11
1886.814040758531
 21
1644.730206797438
 31
0.0
  0
LINE
  5
CED
330
23
100
AcDbEntity
  8
SANINDUSA
100
AcDbLine
 10
1886.84178084552
 20
1644.729625884004
 30
0.0
 11
1886.927220165034
 21
1644.727836172745
 31
0.0
  0
LWPOLYLINE
  5
CEE
330
23
100
AcDbEntity
  8
SANINDUSA
100
AcDbPolyline
 90
        3
 70
   128
 43
0.0
 10
1887.079791744911
 20
1644.727820413891
 10
1887.089128504573
 20
1644.728490170971
 10
1887.098448481053
 20
1644.730232418656
  0
LINE
  5
CEF
330
23
100
AcDbEntity
  8
SANINDUSA
100
AcDbLine
 10
1886.158064105057
 20
1644.743947641234
 30
0.0
 11
1886.254160179076
 21
1644.741934716477
 31
0.0
  0
ARC
  5
CF1
330
23
100
AcDbEntity
  8
SANINDUSA
100
AcDbCircle
 10
1886.927218078805
 20
1644.727736194509
 30
0.0
 40
0.000100000000035
100
AcDbArc
 50
54.99999999392633
 51
88.80459203907255
  0
LINE
  5
CF2
330
23
100
AcDbEntity
  8
SANINDUSA
100
AcDbLine
 10
1887.07973595192
 20
1644.727802341324
 30
0.0
 11
1887.066387223103
 21
1644.718455460781
 31
0.0
  0
LINE
  5
CF3
330
23
100
AcDbEntity
  8
SANINDUSA
100
AcDbLine
 10
1886.940646684859
 20
1644.718455460781
 30
0.0
 11
1886.927275436448
 21
1644.727818109714
 31
0.0
  0
LWPOLYLINE
  5
CF4
330
23
100
AcDbEntity
  8
SANINDUSA
100
AcDbPolyline
 90
       37
 70
   128
 43
0.0
 10
1886.927301527975
 20
1644.731735323945
 10
1886.927820094408
 20
1644.731735186747
 10
1886.928806250151
 20
1644.731732923468
 10
1886.930312142538
 20
1644.731729746754
 10
1886.932373655674
 20
1644.73172670712
 10
1886.934970297299
 20
1644.731724252879
 10
1886.937961784401
 20
1644.731722555517
 10
1886.941428985927
 20
1644.731721429942
 10
1886.945418015696
 20
1644.731720787517
 10
1886.949862962476
 20
1644.731720599197
 10
1886.954536299278
 20
1644.73172065417
 10
1886.959582712241
 20
1644.731720763997
 10
1886.965055313893
 20
1644.731720896533
 10
1886.970851232479
 20
1644.731720864594
 10
1886.976662789544
 20
1644.73172078245
 10
1886.982700826791
 20
1644.731721007473
 10
1886.989019810965
 20
1644.731721660105
 10
1886.995491820469
 20
1644.731722763361
 10
1887.005659642365
 20
1644.731725801258
 10
1887.010822045725
 20
1644.73172802916
 10
1887.015974232834
 20
1644.731730720607
 10
1887.021108054778
 20
1644.731733887229
 10
1887.026182072367
 20
1644.73173752352
 10
1887.031219753511
 20
1644.731741675354
 10
1887.036144460306
 20
1644.731746295951
 10
1887.041731573246
 20
1644.731752134577
 10
1887.0470907226
 20
1644.731758041793
 10
1887.052251731081
 20
1644.731763866653
 10
1887.057091067356
 20
1644.731769204205
 10
1887.061374635747
 20
1644.731773538447
 10
1887.065287881987
 20
1644.731776806581
 10
1887.068843854251
 20
1644.731778663898
 10
1887.071950046674
 20
1644.73177848004
 10
1887.074469298328
 20
1644.731775456021
 10
1887.07652465305
 20
1644.731768640239
 10
1887.07811311432
 20
1644.731757041505
 10
1887.079176957486
 20
1644.731739108957
  0
LWPOLYLINE
  5
CF6
330
23
100
AcDbEntity
  8
SANINDUSA
100
AcDbPolyline
 90
        3
 70
   128
 43
0.0
 10
1887.079730723251
 20
1644.73171993694
 10
1887.078547729822
 20
1644.731521548606
 10
1887.077499003818
 20
1644.730997034297
  0
LWPOLYLINE
  5
CF8
330
23
100
AcDbEntity
  8
SANINDUSA
100
AcDbPolyline
 90
        3
 70
   128
 43
0.0
 10
1886.929512384551
 20
1644.731012802686
 10
1886.928437700652
 20
1644.731545724999
 10
1886.927301527975
 20
1644.731735323945
  0
LINE
  5
CF9
330
23
100
AcDbEntity
  8
SANINDUSA
100
AcDbLine
 10
1887.077499003818
 20
1644.730997034297
 30
0.0
 11
1887.063814499239
 21
1644.721415041035
 31
0.0
  0
LINE
  5
CFB
330
23
100
AcDbEntity
  8
SANINDUSA
100
AcDbLine
 10
1886.943219408722
 20
1644.721415041035
 30
0.0
 11
1886.929512384551
 21
1644.731012802686
 31
0.0
  0
LWPOLYLINE
  5
D06
330
23
100
AcDbEntity
  8
SANINDUSA
100
AcDbPolyline
 90
        3
 70
   128
 43
0.0
 10
1887.079730723251
 20
1644.73171993694
 10
1887.088630045199
 20
1644.732358185777
 10
1887.097513370617
 20
1644.734018652736
  0
LINE
  5
D07
330
23
100
AcDbEntity
  8
SANINDUSA
100
AcDbLine
 10
1886.841862482267
 20
1644.733525029494
 30
0.0
 11
1886.927301527975
 21
1644.731735323945
 31
0.0
  0
LINE
  5
D08
330
23
100
AcDbEntity
  8
SANINDUSA
100
AcDbLine
 10
1886.761879528832
 20
1644.735200398466
 30
0.0
 11
1886.814122440436
 21
1644.734105942069
 31
0.0
  0
LINE
  5
D09
330
23
100
AcDbEntity
  8
SANINDUSA
100
AcDbLine
 10
1886.681896574683
 20
1644.736875783172
 30
0.0
 11
1886.734139494797
 21
1644.735781385764
 31
0.0
  0
LWPOLYLINE
  5
D0A
330
23
100
AcDbEntity
  8
SANINDUSA
100
AcDbPolyline
 90
        3
 70
   128
 43
0.0
 10
1886.601913628538
 20
1644.738551186263
 10
1886.627111673925
 20
1644.73802336677
 10
1886.654156562477
 20
1644.737456811691
  0
LINE
  5
D0B
330
23
100
AcDbEntity
  8
SANINDUSA
100
AcDbLine
 10
1886.521930682621
 20
1644.740226585679
 30
0.0
 11
1886.574173622915
 21
1644.73913223555
 31
0.0
  0
LINE
  5
D0C
330
23
100
AcDbEntity
  8
SANINDUSA
100
AcDbLine
 10
1886.441947740744
 20
1644.741901981285
 30
0.0
 11
1886.494190681752
 21
1644.740807653851
 31
0.0
  0
LINE
  5
D0D
330
23
100
AcDbEntity
  8
SANINDUSA
100
AcDbLine
 10
1886.361964799871
 20
1644.743577384486
 30
0.0
 11
1886.414207738225
 21
1644.742483056341
 31
0.0
  0
LINE
  5
D0E
330
23
100
AcDbEntity
  8
SANINDUSA
100
AcDbLine
 10
1886.281981857725
 20
1644.745252791397
 30
0.0
 11
1886.334224795955
 21
1644.744158455269
 31
0.0
  0
LINE
  5
D0F
330
23
100
AcDbEntity
  8
SANINDUSA
100
AcDbLine
 10
1886.158145780528
 20
1644.747846785906
 30
0.0
 11
1886.254241854413
 21
1644.745833861158
 31
0.0
  0
ARC
  5
D54
330
23
100
AcDbEntity
  8
SANINDUSA
100
AcDbCircle
 10
1886.601997394404
 20
1644.742550308876
 30
0.0
 40
0.0078999998602788
100
AcDbArc
 50
217.4822415305623
 51
268.8000539158176
  0
ARC
  5
D55
330
23
100
AcDbEntity
  8
SANINDUSA
100
AcDbCircle
 10
1886.574257391324
 20
1644.743131358138
 30
0.0
 40
0.0078999998791108
100
AcDbArc
 50
268.8000187208384
 51
320.1178391026188
  0
ARC
  5
D57
330
23
100
AcDbEntity
  8
SANINDUSA
100
AcDbCircle
 10
1886.522014453621
 20
1644.744225708268
 30
0.0
 40
0.0078999999182459
100
AcDbArc
 50
217.4821722799034
 51
268.7999806460377
  0
ARC
  5
D58
330
23
100
AcDbEntity
  8
SANINDUSA
100
AcDbCircle
 10
1886.494274449577
 20
1644.744806776505
 30
0.0
 40
0.0078999999173051
100
AcDbArc
 50
268.8000269429676
 51
320.1178357999744
  0
ARC
  5
D5A
330
23
100
AcDbEntity
  8
SANINDUSA
100
AcDbCircle
 10
1886.442031511498
 20
1644.745901103879
 30
0.0
 40
0.0078999999177627
100
AcDbArc
 50
217.4821718056997
 51
268.7999841640694
  0
ARC
  5
D5B
330
23
100
AcDbEntity
  8
SANINDUSA
100
AcDbCircle
 10
1886.414291508078
 20
1644.746482178972
 30
0.0
 40
0.0078999999301374
100
AcDbArc
 50
268.7999978069271
 51
320.1178089516958
  0
ARC
  5
D5D
330
23
100
AcDbEntity
  8
SANINDUSA
100
AcDbCircle
 10
1886.68198033498
 20
1644.740874905859
 30
0.0
 40
0.0078999998302705
100
AcDbArc
 50
217.4823213367385
 51
268.8001334925508
  0
ARC
  5
D5E
330
23
100
AcDbEntity
  8
SANINDUSA
100
AcDbCircle
 10
1886.654240333285
 20
1644.741455934265
 30
0.0
 40
0.0078999999038612
100
AcDbArc
 50
268.7999842291929
 51
320.1178269962095
  0
ARC
  5
D60
330
23
100
AcDbEntity
  8
SANINDUSA
100
AcDbCircle
 10
1886.36204856921
 20
1644.747576507158
 30
0.0
 40
0.0078999999513801
100
AcDbArc
 50
217.4821904623164
 51
268.8000046088189
  0
ARC
  5
D61
330
23
100
AcDbEntity
  8
SANINDUSA
100
AcDbCircle
 10
1886.334308566059
 20
1644.748157577929
 30
0.0
 40
0.0078999999545941
100
AcDbArc
 50
268.7999941062768
 51
320.1178076840181
  0
ARC
  5
D63
330
23
100
AcDbEntity
  8
SANINDUSA
100
AcDbCircle
 10
1886.282065627366
 20
1644.749251914077
 30
0.0
 40
0.0078999999622793
100
AcDbArc
 50
217.4821877418455
 51
268.800000347834
  0
ARC
  5
D64
330
23
100
AcDbEntity
  8
SANINDUSA
100
AcDbCircle
 10
1886.254325624009
 20
1644.749832983847
 30
0.0
 40
0.007899999967396
100
AcDbArc
 50
268.8000013252317
 51
320.1178140658166
  0
ARC
  5
D66
330
23
100
AcDbEntity
  8
SANINDUSA
100
AcDbCircle
 10
1886.761963272846
 20
1644.739199521308
 30
0.0
 40
0.0078999997040673
100
AcDbArc
 50
217.4825821371753
 51
268.8003655120318
  0
ARC
  5
D67
330
23
100
AcDbEntity
  8
SANINDUSA
100
AcDbCircle
 10
1886.734223277682
 20
1644.73978050822
 30
0.0
 40
0.0078999999991121
100
AcDbArc
 50
268.7998108207079
 51
320.1176774809246
  0
ARC
  5
D68
330
23
100
AcDbEntity
  8
SANINDUSA
100
AcDbCircle
 10
1886.522014453656
 20
1644.744225708359
 30
0.0
 40
0.0039999999752542
100
AcDbArc
 50
217.4821723998335
 51
268.7999805809142
  0
ARC
  5
D69
330
23
100
AcDbEntity
  8
SANINDUSA
100
AcDbCircle
 10
1886.494274449545
 20
1644.744806776599
 30
0.0
 40
0.0039999999754172
100
AcDbArc
 50
268.8000270211158
 51
320.1178356798757
  0
ARC
  5
D6A
330
23
100
AcDbEntity
  8
SANINDUSA
100
AcDbCircle
 10
1886.601997394463
 20
1644.742550309033
 30
0.0
 40
0.0039999999577026
100
AcDbArc
 50
217.4822417442298
 51
268.8000537855706
  0
ARC
  5
D6B
330
23
100
AcDbEntity
  8
SANINDUSA
100
AcDbCircle
 10
1886.574257391277
 20
1644.743131358276
 30
0.0
 40
0.0039999999637583
100
AcDbArc
 50
268.8000188641101
 51
320.117838954173
  0
ARC
  5
D6C
330
23
100
AcDbEntity
  8
SANINDUSA
100
AcDbCircle
 10
1886.442031511533
 20
1644.745901103971
 30
0.0
 40
0.0039999999751614
100
AcDbArc
 50
217.4821719256299
 51
268.7999840989459
  0
ARC
  5
D6D
330
23
100
AcDbEntity
  8
SANINDUSA
100
AcDbCircle
 10
1886.414291508051
 20
1644.746482179051
 30
0.0
 40
0.0039999999790824
100
AcDbArc
 50
268.7999978850753
 51
320.1178088682977
  0
ARC
  5
D6E
330
23
100
AcDbEntity
  8
SANINDUSA
100
AcDbCircle
 10
1886.681980335052
 20
1644.74087490605
 30
0.0
 40
0.0039999999491173
100
AcDbArc
 50
217.4823216258779
 51
268.8001333883534
  0
ARC
  5
D6F
330
23
100
AcDbEntity
  8
SANINDUSA
100
AcDbCircle
 10
1886.654240333248
 20
1644.741455934373
 30
0.0
 40
0.0039999999709991
100
AcDbArc
 50
268.7999843597126
 51
320.1178268944612
  0
ARC
  5
D70
330
23
100
AcDbEntity
  8
SANINDUSA
100
AcDbCircle
 10
1886.362048569231
 20
1644.747576507212
 30
0.0
 40
0.0039999999853403
100
AcDbArc
 50
217.4821905377883
 51
268.8000045697448
  0
ARC
  5
D71
330
23
100
AcDbEntity
  8
SANINDUSA
100
AcDbCircle
 10
1886.334308566042
 20
1644.748157577981
 30
0.0
 40
0.0039999999864672
100
AcDbArc
 50
268.7999941583756
 51
320.1178076189705
  0
ARC
  5
D72
330
23
100
AcDbEntity
  8
SANINDUSA
100
AcDbCircle
 10
1886.282065627382
 20
1644.749251914119
 30
0.0
 40
0.0039999999886427
100
AcDbArc
 50
217.4821877966416
 51
268.8000003217845
  0
ARC
  5
D73
330
23
100
AcDbEntity
  8
SANINDUSA
100
AcDbCircle
 10
1886.254325623997
 20
1644.749832983884
 30
0.0
 40
0.0039999999903053
100
AcDbArc
 50
268.8000013643058
 51
320.1178140191191
  0
ARC
  5
D74
330
23
100
AcDbEntity
  8
SANINDUSA
100
AcDbCircle
 10
1886.761963272964
 20
1644.739199521653
 30
0.0
 40
0.0039999999175983
100
AcDbArc
 50
217.4825831975853
 51
268.8003659942183
  0
ARC
  5
D75
330
23
100
AcDbEntity
  8
SANINDUSA
100
AcDbCircle
 10
1886.734223277681
 20
1644.739780508221
 30
0.0
 40
0.0039999999997829
100
AcDbArc
 50
268.7998108207079
 51
320.1176774709278
  0
ARC
  5
D77
330
23
100
AcDbEntity
  8
SANINDUSA
100
AcDbCircle
 10
1886.841946212279
 20
1644.737524153007
 30
0.0
 40
0.0078999999625243
100
AcDbArc
 50
217.4827618390932
 51
268.8005684215216
  0
ARC
  5
D78
330
23
100
AcDbEntity
  8
SANINDUSA
100
AcDbCircle
 10
1886.814206216834
 20
1644.738105064322
 30
0.0
 40
0.007899999760265
100
AcDbArc
 50
268.7999043138175
 51
320.117819615278
  0
ARC
  5
D79
330
23
100
AcDbEntity
  8
SANINDUSA
100
AcDbCircle
 10
1886.8419462123
 20
1644.737524153044
 30
0.0
 40
0.0039999999857173
100
AcDbArc
 50
217.4827615888949
 51
268.800568017756
  0
ARC
  5
D7A
330
23
100
AcDbEntity
  8
SANINDUSA
100
AcDbCircle
 10
1886.814206216736
 20
1644.738105064588
 30
0.0
 40
0.0039999999244345
100
AcDbArc
 50
268.7999051346462
 51
320.117819605281
  0
ARC
  5
D7B
330
23
100
AcDbEntity
  8
SANINDUSA
100
AcDbCircle
 10
1886.580396309858
 20
1644.738001672356
 30
0.0
 40
0.0039999999718972
100
AcDbArc
 50
88.80003270233823
 51
140.1178389174724
  0
ARC
  5
D7C
330
23
100
AcDbEntity
  8
SANINDUSA
100
AcDbCircle
 10
1886.595649058673
 20
1644.737682185016
 30
0.0
 40
0.0039999999636826
100
AcDbArc
 50
37.48224178076058
 51
88.80005473691898
  0
ARC
  5
D7D
330
23
100
AcDbEntity
  8
SANINDUSA
100
AcDbCircle
 10
1886.66037925076
 20
1644.736326247154
 30
0.0
 40
0.0039999999788688
100
AcDbArc
 50
88.80004274901601
 51
140.117826866114
  0
ARC
  5
D7E
330
23
100
AcDbEntity
  8
SANINDUSA
100
AcDbCircle
 10
1886.675632006065
 20
1644.736006773191
 30
0.0
 40
0.0039999999546053
100
AcDbArc
 50
37.48232169893943
 51
88.80013258054937
  0
ARC
  5
D7F
330
23
100
AcDbEntity
  8
SANINDUSA
100
AcDbCircle
 10
1886.500413367848
 20
1644.739677090317
 30
0.0
 40
0.0039999999799971
100
AcDbArc
 50
88.80001799118272
 51
140.1178356431751
  0
ARC
  5
D80
330
23
100
AcDbEntity
  8
SANINDUSA
100
AcDbCircle
 10
1886.515666111947
 20
1644.739357592007
 30
0.0
 40
0.0039999999787928
100
AcDbArc
 50
37.48217241809892
 51
88.79999039260182
  0
ARC
  5
D81
330
23
100
AcDbEntity
  8
SANINDUSA
100
AcDbCircle
 10
1886.420430423959
 20
1644.741352489892
 30
0.0
 40
0.00399999998372
100
AcDbArc
 50
88.79999409325211
 51
140.1178088399505
  0
ARC
  5
D82
330
23
100
AcDbEntity
  8
SANINDUSA
100
AcDbCircle
 10
1886.435683169785
 20
1644.74103298767
 30
0.0
 40
0.0039999999785133
100
AcDbArc
 50
37.48217195423317
 51
88.7999858580982
  0
ARC
  5
D83
330
23
100
AcDbEntity
  8
SANINDUSA
100
AcDbCircle
 10
1886.740362181855
 20
1644.734650804962
 30
0.0
 40
0.0039999999997831
100
AcDbArc
 50
88.79993466170034
 51
140.1176774709277
  0
ARC
  5
D84
330
23
100
AcDbEntity
  8
SANINDUSA
100
AcDbCircle
 10
1886.755614966254
 20
1644.734331359829
 30
0.0
 40
0.0039999999340208
100
AcDbArc
 50
37.48258354152088
 51
88.80040685766793
  0
ARC
  5
D85
330
23
100
AcDbEntity
  8
SANINDUSA
100
AcDbCircle
 10
1886.340447481849
 20
1644.74302788868
 30
0.0
 40
0.0039999999891801
100
AcDbArc
 50
88.79999574820685
 51
140.1178076006201
  0
ARC
  5
D86
330
23
100
AcDbEntity
  8
SANINDUSA
100
AcDbCircle
 10
1886.355700229049
 20
1644.742708388839
 30
0.0
 40
0.003999999987338
100
AcDbArc
 50
37.48219055605372
 51
88.80000200278862
  0
ARC
  5
D87
330
23
100
AcDbEntity
  8
SANINDUSA
100
AcDbCircle
 10
1886.260464540383
 20
1644.744703295265
 30
0.0
 40
0.0039999999923709
100
AcDbArc
 50
88.80000127313289
 51
140.1178140107657
  0
ARC
  5
D88
330
23
100
AcDbEntity
  8
SANINDUSA
100
AcDbCircle
 10
1886.275717286962
 20
1644.744383796046
 30
0.0
 40
0.0039999999901488
100
AcDbArc
 50
37.48218781490701
 51
88.80000069977349
  0
ARC
  5
D89
330
23
100
AcDbEntity
  8
SANINDUSA
100
AcDbCircle
 10
1886.820345133551
 20
1644.732975376627
 30
0.0
 40
0.0039999999654618
100
AcDbArc
 50
88.80011140614412
 51
140.1178196052811
  0
ARC
  5
D8A
330
23
100
AcDbEntity
  8
SANINDUSA
100
AcDbCircle
 10
1886.835597920588
 20
1644.73265597137
 30
0.0
 40
0.0040000000437021
100
AcDbArc
 50
37.48276150549548
 51
88.80055304583377
  0
ARC
  5
D8B
330
23
100
AcDbEntity
  8
SANINDUSA
100
AcDbCircle
 10
1886.500413367862
 20
1644.739677090263
 30
0.0
 40
0.0000999999989818
100
AcDbArc
 50
88.80001791303454
 51
140.117835791621
  0
ARC
  5
D8C
330
23
100
AcDbEntity
  8
SANINDUSA
100
AcDbCircle
 10
1886.515666111931
 20
1644.739357591953
 30
0.0
 40
0.0000999999990018
100
AcDbArc
 50
37.48217228783083
 51
88.79999045772528
  0
ARC
  5
D8D
330
23
100
AcDbEntity
  8
SANINDUSA
100
AcDbCircle
 10
1886.580396309876
 20
1644.738001672275
 30
0.0
 40
0.000099999998459
100
AcDbArc
 50
88.80003255906657
 51
140.1178391109722
  0
ARC
  5
D8E
330
23
100
AcDbEntity
  8
SANINDUSA
100
AcDbCircle
 10
1886.595649058645
 20
1644.737682184923
 30
0.0
 40
0.0000999999983081
100
AcDbArc
 50
37.48224155916562
 51
88.80005482809185
  0
ARC
  5
D8F
330
23
100
AcDbEntity
  8
SANINDUSA
100
AcDbCircle
 10
1886.42043042397
 20
1644.741352489845
 30
0.0
 40
0.0000999999991254
100
AcDbArc
 50
88.79999401510394
 51
140.1178089516957
  0
ARC
  5
D90
330
23
100
AcDbEntity
  8
SANINDUSA
100
AcDbCircle
 10
1886.435683169768
 20
1644.741032987616
 30
0.0
 40
0.0000999999990091
100
AcDbArc
 50
37.4821718239651
 51
88.79998591019699
  0
ARC
  5
D91
330
23
100
AcDbEntity
  8
SANINDUSA
100
AcDbCircle
 10
1886.340447481856
 20
1644.74302788865
 30
0.0
 40
0.000099999999436
100
AcDbArc
 50
88.79999570913275
 51
140.1178076840182
  0
ARC
  5
D92
330
23
100
AcDbEntity
  8
SANINDUSA
100
AcDbCircle
 10
1886.355700229039
 20
1644.742708388807
 30
0.0
 40
0.0000999999994119
100
AcDbArc
 50
37.48219047265429
 51
88.80000202883802
  0
ARC
  5
D93
330
23
100
AcDbEntity
  8
SANINDUSA
100
AcDbCircle
 10
1886.660379250772
 20
1644.736326247088
 30
0.0
 40
0.0000999999987402
100
AcDbArc
 50
88.80004259244683
 51
140.1178270145598
  0
ARC
  5
D94
330
23
100
AcDbEntity
  8
SANINDUSA
100
AcDbCircle
 10
1886.675632006026
 20
1644.736006773082
 30
0.0
 40
0.0000999999980493
100
AcDbArc
 50
37.48232138360714
 51
88.80013263264816
  0
ARC
  5
D95
330
23
100
AcDbEntity
  8
SANINDUSA
100
AcDbCircle
 10
1886.260464540388
 20
1644.744703295243
 30
0.0
 40
0.0001000000000007
100
AcDbArc
 50
88.80000126010818
 51
140.1178140474663
  0
ARC
  5
D96
330
23
100
AcDbEntity
  8
SANINDUSA
100
AcDbCircle
 10
1886.275717286954
 20
1644.744383796021
 30
0.0
 40
0.0000999999995421
100
AcDbArc
 50
37.48218774977297
 51
88.80000072582289
  0
ARC
  5
D97
330
23
100
AcDbEntity
  8
SANINDUSA
100
AcDbCircle
 10
1886.740362181856
 20
1644.734650804961
 30
0.0
 40
0.0001000000025225
100
AcDbArc
 50
88.79993468774973
 51
140.1176757412059
  0
ARC
  5
D98
330
23
100
AcDbEntity
  8
SANINDUSA
100
AcDbCircle
 10
1886.755614966151
 20
1644.73433135971
 30
0.0
 40
0.0000999999985345
100
AcDbArc
 50
37.48258250971417
 51
88.8004064536296
  0
ARC
  5
D99
330
23
100
AcDbEntity
  8
SANINDUSA
100
AcDbCircle
 10
1886.820345133548
 20
1644.732975376448
 30
0.0
 40
0.0000999999965518
100
AcDbArc
 50
88.80011093698231
 51
140.1178197637238
  0
ARC
  5
D9A
330
23
100
AcDbEntity
  8
SANINDUSA
100
AcDbCircle
 10
1886.835597920645
 20
1644.732655971341
 30
0.0
 40
0.0000999999996397
100
AcDbArc
 50
37.48276161749814
 51
88.80055364524256
  0
LINE
  5
D9B
330
23
100
AcDbEntity
  8
SANINDUSA
100
AcDbLine
 10
1886.500497136271
 20
1644.743676213057
 30
0.0
 11
1886.515749882297
 21
1644.743356714706
 31
0.0
  0
LINE
  5
D9C
330
23
100
AcDbEntity
  8
SANINDUSA
100
AcDbLine
 10
1886.580480077254
 20
1644.74200079511
 30
0.0
 11
1886.595732824531
 21
1644.741681307794
 31
0.0
  0
LINE
  5
D9D
330
23
100
AcDbEntity
  8
SANINDUSA
100
AcDbLine
 10
1886.42051419405
 20
1644.7453516126
 30
0.0
 11
1886.435766940451
 21
1644.745032110362
 31
0.0
  0
LINE
  5
D9E
330
23
100
AcDbEntity
  8
SANINDUSA
100
AcDbLine
 10
1886.660463017456
 20
1644.740325369929
 30
0.0
 11
1886.67571576649
 21
1644.740005896073
 31
0.0
  0
LINE
  5
D9F
330
23
100
AcDbEntity
  8
SANINDUSA
100
AcDbLine
 10
1886.340531251825
 20
1644.747027011397
 30
0.0
 11
1886.355783998588
 21
1644.746707511563
 31
0.0
  0
LINE
  5
DA0
330
23
100
AcDbEntity
  8
SANINDUSA
100
AcDbLine
 10
1886.260548309973
 20
1644.748702417993
 30
0.0
 11
1886.275801056592
 21
1644.748382918771
 31
0.0
  0
LINE
  5
DA1
330
23
100
AcDbEntity
  8
SANINDUSA
100
AcDbLine
 10
1886.740445956095
 20
1644.7386499276
 30
0.0
 11
1886.755698707534
 21
1644.738330483091
 31
0.0
  0
LINE
  5
DA2
330
23
100
AcDbEntity
  8
SANINDUSA
100
AcDbLine
 10
1886.820347227596
 20
1644.733075354517
 30
0.0
 11
1886.835600013921
 21
1644.73275594943
 31
0.0
  0
LINE
  5
DA3
330
23
100
AcDbEntity
  8
SANINDUSA
100
AcDbLine
 10
1887.180314562499
 20
1644.79841725341
 30
0.0
 11
1887.184215156578
 21
1644.79841725341
 31
0.0
  0
LINE
  5
DA4
330
23
100
AcDbEntity
  8
SANINDUSA
100
AcDbLine
 10
1887.180314562499
 20
1644.79841725341
 30
0.0
 11
1887.179737600994
 21
1644.83147135587
 31
0.0
  0
ARC
  5
DA5
330
23
100
AcDbEntity
  8
SANINDUSA
100
AcDbCircle
 10
1887.176638073139
 20
1644.83141725341
 30
0.0
 40
0.0031
100
AcDbArc
 50
0.9999999969218754
 51
90.0
  0
LINE
  5
DA6
330
23
100
AcDbEntity
  8
SANINDUSA
100
AcDbLine
 10
1887.176638073139
 20
1644.83451725341
 30
0.0
 11
1887.120276776161
 21
1644.83451725341
 31
0.0
  0
ARC
  5
DA7
330
23
100
AcDbEntity
  8
SANINDUSA
100
AcDbCircle
 10
1887.120276776161
 20
1644.83141725341
 30
0.0
 40
0.0031000000000001
100
AcDbArc
 50
90.0
 51
177.9999999962464
  0
LINE
  5
DA8
330
23
100
AcDbEntity
  8
SANINDUSA
100
AcDbLine
 10
1887.117178664597
 20
1644.831525441849
 30
0.0
 11
1887.114324517082
 21
1644.749793350675
 31
0.0
  0
ARC
  5
DA9
330
23
100
AcDbEntity
  8
SANINDUSA
100
AcDbCircle
 10
1887.093437248772
 20
1644.750522750148
 30
0.0
 40
0.0209000000246234
100
AcDbArc
 50
283.8730768871533
 51
358.0000000222856
  0
LINE
  5
DAA
330
23
100
AcDbEntity
  8
SANINDUSA
100
AcDbLine
 10
1887.066387223103
 20
1644.718455460781
 30
0.0
 11
1887.055212722243
 21
1644.706472275709
 31
0.0
  0
LINE
  5
DAB
330
23
100
AcDbEntity
  8
SANINDUSA
100
AcDbLine
 10
1887.055212722243
 20
1644.706472275709
 30
0.0
 11
1886.951821185719
 21
1644.706472275709
 31
0.0
  0
LINE
  5
DAC
330
23
100
AcDbEntity
  8
SANINDUSA
100
AcDbLine
 10
1886.951821185719
 20
1644.706472275709
 30
0.0
 11
1886.940646684859
 21
1644.718455460781
 31
0.0
  0
ARC
  5
DAD
330
23
100
AcDbEntity
  8
SANINDUSA
100
AcDbCircle
 10
1886.158506007494
 20
1644.764847321299
 30
0.0
 40
0.0209043513316761
100
AcDbArc
 50
181.9972894058364
 51
268.7887196122526
  0
ARC
  5
DAE
330
23
100
AcDbEntity
  8
SANINDUSA
100
AcDbCircle
 10
1886.134516218149
 20
1644.764011326372
 30
0.0
 40
0.0031000000000005
100
AcDbArc
 50
1.986009590153244
 51
89.00000000307812
  0
LINE
  5
DAF
330
23
100
AcDbEntity
  8
SANINDUSA
100
AcDbLine
 10
1885.697096308378
 20
1644.774746991515
 30
0.0
 11
1886.134570320609
 21
1644.767110854227
 31
0.0
  0
ARC
  5
DB0
330
23
100
AcDbEntity
  8
SANINDUSA
100
AcDbCircle
 10
1885.697042205918
 20
1644.77164746366
 30
0.0
 40
0.0030999999999999
100
AcDbArc
 50
89.00000000307812
 51
154.6842608275599
  0
ARC
  5
DB1
330
23
100
AcDbEntity
  8
SANINDUSA
100
AcDbCircle
 10
1885.681674798874
 20
1644.778916769044
 30
0.0
 40
0.0139000000000002
100
AcDbArc
 50
269.0000000030781
 51
334.6842608275599
  0
LINE
  5
DB2
330
23
100
AcDbEntity
  8
SANINDUSA
100
AcDbLine
 10
1885.671990200158
 20
1644.765183696984
 30
0.0
 11
1885.681432210425
 21
1644.765018886081
 31
0.0
  0
ARC
  5
DB3
330
23
100
AcDbEntity
  8
SANINDUSA
100
AcDbCircle
 10
1885.672354955453
 20
1644.786080513813
 30
0.0
 40
0.0209000000000002
100
AcDbArc
 50
182.0000000037536
 51
269.0000000030781
  0
LINE
  5
DB4
330
23
100
AcDbEntity
  8
SANINDUSA
100
AcDbLine
 10
1885.651467687169
 20
1644.785351114332
 30
0.0
 11
1885.649855244121
 21
1644.831525441849
 31
0.0
  0
ARC
  5
DB5
330
23
100
AcDbEntity
  8
SANINDUSA
100
AcDbCircle
 10
1885.646757132557
 20
1644.83141725341
 30
0.0
 40
0.0031
100
AcDbArc
 50
2.000000003753602
 51
90.0
  0
LINE
  5
DB6
330
23
100
AcDbEntity
  8
SANINDUSA
100
AcDbLine
 10
1885.646757132557
 20
1644.83451725341
 30
0.0
 11
1885.590395834823
 21
1644.83451725341
 31
0.0
  0
ARC
  5
DB7
330
23
100
AcDbEntity
  8
SANINDUSA
100
AcDbCircle
 10
1885.590395834823
 20
1644.83141725341
 30
0.0
 40
0.0031
100
AcDbArc
 50
90.0
 51
179.0000000030781
  0
LINE
  5
DB8
330
23
100
AcDbEntity
  8
SANINDUSA
100
AcDbLine
 10
1885.587296306968
 20
1644.83147135587
 30
0.0
 11
1885.586719345463
 21
1644.79841725341
 31
0.0
  0
LINE
  5
DB9
330
23
100
AcDbEntity
  8
SANINDUSA
100
AcDbLine
 10
1885.582818751384
 20
1644.79841725341
 30
0.0
 11
1885.586719345463
 21
1644.79841725341
 31
0.0
  0
LINE
  5
DBA
330
23
100
AcDbEntity
  8
SANINDUSA
100
AcDbLine
 10
1885.583396900957
 20
1644.831539420255
 30
0.0
 11
1885.582818751384
 21
1644.79841725341
 31
0.0
  0
ARC
  5
DBB
330
23
100
AcDbEntity
  8
SANINDUSA
100
AcDbCircle
 10
1885.590395834823
 20
1644.83141725341
 30
0.0
 40
0.0069999999999999
100
AcDbArc
 50
90.0
 51
179.0000000030781
  0
LINE
  5
DBC
330
23
100
AcDbEntity
  8
SANINDUSA
100
AcDbLine
 10
1885.646757132557
 20
1644.83841725341
 30
0.0
 11
1885.590395834823
 21
1644.83841725341
 31
0.0
  0
ARC
  5
DBD
330
23
100
AcDbEntity
  8
SANINDUSA
100
AcDbCircle
 10
1885.646757132557
 20
1644.83141725341
 30
0.0
 40
0.0069999999999999
100
AcDbArc
 50
2.000000003753602
 51
90.0
  0
LINE
  5
DBE
330
23
100
AcDbEntity
  8
SANINDUSA
100
AcDbLine
 10
1885.655365311394
 20
1644.785487222369
 30
0.0
 11
1885.653752868346
 21
1644.831661549886
 31
0.0
  0
ARC
  5
DBF
330
23
100
AcDbEntity
  8
SANINDUSA
100
AcDbCircle
 10
1885.672354955453
 20
1644.786080513813
 30
0.0
 40
0.017
100
AcDbArc
 50
182.0000000037536
 51
269.0000000030781
  0
LINE
  5
DC0
330
23
100
AcDbEntity
  8
SANINDUSA
100
AcDbLine
 10
1885.672058264544
 20
1644.769083102995
 30
0.0
 11
1885.68150027481
 21
1644.768918292093
 31
0.0
  0
ARC
  5
DC1
330
23
100
AcDbEntity
  8
SANINDUSA
100
AcDbCircle
 10
1885.681674798874
 20
1644.778916769044
 30
0.0
 40
0.0100000000000001
100
AcDbArc
 50
269.0000000030781
 51
334.6842608275599
  0
ARC
  5
DC2
330
23
100
AcDbEntity
  8
SANINDUSA
100
AcDbCircle
 10
1885.697042205918
 20
1644.77164746366
 30
0.0
 40
0.0070000000000003
100
AcDbArc
 50
89.00000000307812
 51
154.6842608275599
  0
LINE
  5
DC3
330
23
100
AcDbEntity
  8
SANINDUSA
100
AcDbLine
 10
1885.697164372763
 20
1644.778646397526
 30
0.0
 11
1886.134638384994
 21
1644.771010260238
 31
0.0
  0
ARC
  5
DC4
330
23
100
AcDbEntity
  8
SANINDUSA
100
AcDbCircle
 10
1886.134516218149
 20
1644.764011326372
 30
0.0
 40
0.007000000000023
100
AcDbArc
 50
1.986009590153244
 51
89.00000000307812
  0
ARC
  5
DC5
330
23
100
AcDbEntity
  8
SANINDUSA
100
AcDbCircle
 10
1886.1585052227
 20
1644.764846525671
 30
0.0
 40
0.0170035393607039
100
AcDbArc
 50
181.9972894058364
 51
268.7887196252772
  0
LINE
  5
DC6
330
23
100
AcDbEntity
  8
SANINDUSA
100
AcDbLine
 10
1886.953516953981
 20
1644.710372275709
 30
0.0
 11
1886.943219408722
 21
1644.721415041035
 31
0.0
  0
LINE
  5
DC7
330
23
100
AcDbEntity
  8
SANINDUSA
100
AcDbLine
 10
1887.053516953981
 20
1644.710372275709
 30
0.0
 11
1886.953516953981
 21
1644.710372275709
 31
0.0
  0
LINE
  5
DC8
330
23
100
AcDbEntity
  8
SANINDUSA
100
AcDbLine
 10
1887.063814499239
 20
1644.721415041035
 30
0.0
 11
1887.053516953981
 21
1644.710372275709
 31
0.0
  0
ARC
  5
DC9
330
23
100
AcDbEntity
  8
SANINDUSA
100
AcDbCircle
 10
1887.093437248776
 20
1644.75052275015
 30
0.0
 40
0.0170000000203012
100
AcDbArc
 50
283.8730764985095
 51
358.0000000222856
  0
LINE
  5
DCA
330
23
100
AcDbEntity
  8
SANINDUSA
100
AcDbLine
 10
1887.113281040372
 20
1644.831661549886
 30
0.0
 11
1887.110426892856
 21
1644.749929458712
 31
0.0
  0
ARC
  5
DCB
330
23
100
AcDbEntity
  8
SANINDUSA
100
AcDbCircle
 10
1887.120276776161
 20
1644.83141725341
 30
0.0
 40
0.0070000000000001
100
AcDbArc
 50
90.0
 51
177.9999999962464
  0
LINE
  5
DCC
330
23
100
AcDbEntity
  8
SANINDUSA
100
AcDbLine
 10
1887.176638073139
 20
1644.83841725341
 30
0.0
 11
1887.120276776161
 21
1644.83841725341
 31
0.0
  0
ARC
  5
DCD
330
23
100
AcDbEntity
  8
SANINDUSA
100
AcDbCircle
 10
1887.176638073139
 20
1644.83141725341
 30
0.0
 40
0.0069999999999999
100
AcDbArc
 50
0.9999999969218754
 51
90.0
  0
LINE
  5
DCE
330
23
100
AcDbEntity
  8
SANINDUSA
100
AcDbLine
 10
1887.184215156578
 20
1644.79841725341
 30
0.0
 11
1887.183637007005
 21
1644.831539420255
 31
0.0
  0
LINE
  5
DCF
330
23
100
AcDbEntity
  8
SANINDUSA
100
AcDbLine
 10
1886.820428895454
 20
1644.73697449949
 30
0.0
 11
1886.835681651666
 21
1644.736655094957
 31
0.0
  0
LINE
  5
DD0
330
23
100
AcDbEntity
  8
SANINDUSA
100
AcDbLine
 10
1886.740364276212
 20
1644.734750783027
 30
0.0
 11
1886.755617059684
 21
1644.734431337792
 31
0.0
  0
LINE
  5
DD1
330
23
100
AcDbEntity
  8
SANINDUSA
100
AcDbLine
 10
1886.260466634627
 20
1644.744803273312
 30
0.0
 11
1886.275719381195
 21
1644.744483774089
 31
0.0
  0
LINE
  5
DD2
330
23
100
AcDbEntity
  8
SANINDUSA
100
AcDbLine
 10
1886.66038134494
 20
1644.736426225157
 30
0.0
 11
1886.675634100036
 21
1644.736106751153
 31
0.0
  0
LINE
  5
DD3
330
23
100
AcDbEntity
  8
SANINDUSA
100
AcDbLine
 10
1886.340449576106
 20
1644.743127866718
 30
0.0
 11
1886.355702323277
 21
1644.742808366875
 31
0.0
  0
LINE
  5
DD4
330
23
100
AcDbEntity
  8
SANINDUSA
100
AcDbLine
 10
1886.420432518222
 20
1644.741452467912
 30
0.0
 11
1886.435685264034
 21
1644.741132965682
 31
0.0
  0
LINE
  5
DD5
330
23
100
AcDbEntity
  8
SANINDUSA
100
AcDbLine
 10
1886.580398404061
 20
1644.738101650343
 30
0.0
 11
1886.595651152791
 21
1644.737782162992
 31
0.0
  0
LINE
  5
DD6
330
23
100
AcDbEntity
  8
SANINDUSA
100
AcDbLine
 10
1886.500415462073
 20
1644.739777068331
 30
0.0
 11
1886.515668206189
 21
1644.73945757002
 31
0.0
  0
LINE
  5
E19
330
23
100
AcDbEntity
  8
SANINDUSA
100
AcDbLine
 10
1885.681432210425
 20
1644.765018886081
 30
0.0
 11
1885.701429164328
 21
1644.764669837953
 31
0.0
  0
ARC
  5
E1D
330
23
100
AcDbEntity
  8
SANINDUSA
100
AcDbCircle
 10
1886.157692987898
 20
1644.795491252983
 30
0.0
 40
0.0494982425196848
100
AcDbArc
 50
238.0043572596254
 51
258.3243537354698
  0
LINE
  5
E24
330
23
100
AcDbEntity
  8
SANINDUSA
100
AcDbLine
 10
1885.701429164328
 20
1644.764669837953
 30
0.0
 11
1886.118235751945
 21
1644.757394451903
 31
0.0
  0
ARC
  5
E25
330
23
100
AcDbEntity
  8
SANINDUSA
100
AcDbCircle
 10
1886.11776243452
 20
1644.731295385829
 30
0.0
 40
0.0261033515896164
100
AcDbArc
 50
58.3332682739102
 51
88.99944692530011
  0
LINE
  5
E2C
330
23
100
AcDbEntity
  8
SANINDUSA
100
AcDbLine
 10
1887.093293223832
 20
1644.83841725341
 30
0.0
 11
1887.120276776161
 21
1644.83841725341
 31
0.0
  0
LINE
  5
E2E
330
23
100
AcDbEntity
  8
SANINDUSA
100
AcDbLine
 10
1885.646757132557
 20
1644.83841725341
 30
0.0
 11
1885.673740684887
 21
1644.83841725341
 31
0.0
  0
LINE
  5
E2F
330
23
100
AcDbEntity
  8
SANINDUSA
100
AcDbLine
 10
1885.673740684887
 20
1644.83841725341
 30
0.0
 11
1887.093293223832
 21
1644.83841725341
 31
0.0
  0
LINE
  5
E35
330
23
100
AcDbEntity
  8
SANINDUSA
100
AcDbLine
 10
1885.587819177928
 20
1644.79841725341
 30
0.0
 11
1885.586719345463
 21
1644.79841725341
 31
0.0
  0
LINE
  5
E37
330
23
100
AcDbEntity
  8
SANINDUSA
100
AcDbLine
 10
1887.180314562499
 20
1644.79841725341
 30
0.0
 11
1887.179214730034
 21
1644.79841725341
 31
0.0
  0
LINE
  5
E38
330
23
100
AcDbEntity
  8
SANINDUSA
100
AcDbLine
 10
1887.179214730034
 20
1644.79841725341
 30
0.0
 11
1887.116022501181
 21
1644.79841725341
 31
0.0
  0
LINE
  5
E39
330
23
100
AcDbEntity
  8
SANINDUSA
100
AcDbLine
 10
1885.651011407538
 20
1644.79841725341
 30
0.0
 11
1885.587819177928
 21
1644.79841725341
 31
0.0
  0
ENDSEC
  0
SECTION
  2
OBJECTS
  0
DICTIONARY
  5
C
330
0
100
AcDbDictionary
281
     1
  3
ACAD_COLOR
350
1C
  3
ACAD_GROUP
350
D
  3
ACAD_LAYOUT
350
1A
  3
ACAD_MATERIAL
350
1B
  3
ACAD_MLINESTYLE
350
17
  3
ACAD_PLOTSETTINGS
350
19
  3
ACAD_PLOTSTYLENAME
350
E
  3
ACAD_TABLESTYLE
350
1D
  3
ACDBHEADERROUNDTRIPXREC
350
906F
  3
AcDbVariableDictionary
350
8EBF
  0
DICTIONARY
  5
1C
102
{ACAD_REACTORS
330
C
102
}
330
C
100
AcDbDictionary
281
     1
  0
DICTIONARY
  5
D
102
{ACAD_REACTORS
330
C
102
}
330
C
100
AcDbDictionary
281
     1
  0
DICTIONARY
  5
1A
102
{ACAD_REACTORS
330
C
102
}
330
C
100
AcDbDictionary
281
     1
  3
Layout1
350
22
  3
Layout2
350
2A
  3
Model
350
26
  0
DICTIONARY
  5
1B
102
{ACAD_REACTORS
330
C
102
}
330
C
100
AcDbDictionary
281
     1
  0
DICTIONARY
  5
17
102
{ACAD_REACTORS
330
C
102
}
330
C
100
AcDbDictionary
281
     1
  3
Standard
350
18
  0
DICTIONARY
  5
19
102
{ACAD_REACTORS
330
C
102
}
330
C
100
AcDbDictionary
281
     1
  0
ACDBDICTIONARYWDFLT
  5
E
102
{ACAD_REACTORS
330
C
102
}
330
C
100
AcDbDictionary
281
     1
  3
Normal
350
F
100
AcDbDictionaryWithDefault
340
F
  0
DICTIONARY
  5
1D
102
{ACAD_REACTORS
330
C
102
}
330
C
100
AcDbDictionary
281
     1
  3
Standard
350
1E
  0
DICTIONARY
  5
906F
102
{ACAD_REACTORS
330
C
102
}
330
C
100
AcDbDictionary
281
     1
  0
DICTIONARY
  5
8EBF
102
{ACAD_REACTORS
330
C
102
}
330
C
100
AcDbDictionary
281
     1
  3
CTABLESTYLE
350
8EC0
  3
DIMASSOC
350
906C
  3
HIDETEXT
350
906B
  3
PROJECTNAME
350
906D
  0
LAYOUT
  5
22
102
{ACAD_XDICTIONARY
360
9070
102
}
102
{ACAD_REACTORS
330
1A
102
}
330
1A
100
AcDbPlotSettings
  1

  2
C:\Documents and Settings\Julio\Application Data\Autodesk\AutoCAD 2006\R16.2\enu\plotters\Default Windows System Printer.pc3
  4

  6

 40
0.0
 41
0.0
 42
0.0
 43
0.0
 44
0.0
 45
0.0
 46
0.0
 47
0.0
 48
0.0
 49
0.0
140
0.0
141
0.0
142
1.0
143
1.0
 70
   688
 72
     0
 73
     0
 74
     5
  7

 75
    16
147
1.0
148
0.0
149
0.0
100
AcDbLayout
  1
Layout1
 70
     1
 71
     1
 10
0.0
 20
0.0
 11
420.0
 21
297.0
 12
0.0
 22
0.0
 32
0.0
 14
1.000000000000000E+20
 24
1.000000000000000E+20
 34
1.000000000000000E+20
 15
-1.000000000000000E+20
 25
-1.000000000000000E+20
 35
-1.000000000000000E+20
146
0.0
 13
0.0
 23
0.0
 33
0.0
 16
1.0
 26
0.0
 36
0.0
 17
0.0
 27
1.0
 37
0.0
 76
     0
330
1F
  0
LAYOUT
  5
2A
102
{ACAD_XDICTIONARY
360
9074
102
}
102
{ACAD_REACTORS
330
1A
102
}
330
1A
100
AcDbPlotSettings
  1

  2
C:\Documents and Settings\Julio\Application Data\Autodesk\AutoCAD 2006\R16.2\enu\plotters\Default Windows System Printer.pc3
  4

  6

 40
0.0
 41
0.0
 42
0.0
 43
0.0
 44
0.0
 45
0.0
 46
0.0
 47
0.0
 48
0.0
 49
0.0
140
0.0
141
0.0
142
1.0
143
1.0
 70
   688
 72
     0
 73
     0
 74
     5
  7

 75
    16
147
1.0
148
0.0
149
0.0
100
AcDbLayout
  1
Layout2
 70
     1
 71
     2
 10
0.0
 20
0.0
 11
12.0
 21
9.0
 12
0.0
 22
0.0
 32
0.0
 14
0.0
 24
0.0
 34
0.0
 15
0.0
 25
0.0
 35
0.0
146
0.0
 13
0.0
 23
0.0
 33
0.0
 16
1.0
 26
0.0
 36
0.0
 17
0.0
 27
1.0
 37
0.0
 76
     0
330
27
  0
LAYOUT
  5
26
102
{ACAD_XDICTIONARY
360
9072
102
}
102
{ACAD_REACTORS
330
1A
102
}
330
1A
100
AcDbPlotSettings
  1

  2
C:\Documents and Settings\Julio\Application Data\Autodesk\AutoCAD 2006\R16.2\enu\plotters\Default Windows System Printer.pc3
  4

  6

 40
0.0
 41
0.0
 42
0.0
 43
0.0
 44
0.0
 45
0.0
 46
0.0
 47
0.0
 48
0.0
 49
0.0
140
0.0
141
0.0
142
1.0
143
1.0
 70
  1712
 72
     0
 73
     0
 74
     0
  7

 75
     0
147
1.0
148
0.0
149
0.0
100
AcDbLayout
  1
Model
 70
     1
 71
     0
 10
0.0
 20
0.0
 11
12.0
 21
9.0
 12
0.0
 22
0.0
 32
0.0
 14
0.0
 24
0.0
 34
0.0
 15
0.0
 25
0.0
 35
0.0
146
0.0
 13
0.0
 23
0.0
 33
0.0
 16
1.0
 26
0.0
 36
0.0
 17
0.0
 27
1.0
 37
0.0
 76
     0
330
23
  0
MLINESTYLE
  5
18
102
{ACAD_REACTORS
330
17
102
}
330
17
100
AcDbMlineStyle
  2
STANDARD
 70
     0
  3

 62
   256
 51
90.0
 52
90.0
 71
     2
 49
0.5
 62
   256
  6
BYLAYER
 49
-0.5
 62
   256
  6
BYLAYER
  0
ACDBPLACEHOLDER
  5
F
102
{ACAD_REACTORS
330
E
102
}
330
E
  0
TABLESTYLE
  5
1E
102
{ACAD_REACTORS
330
1D
102
}
330
1D
100
AcDbTableStyle
  3
Standard
 70
     0
 71
     0
 40
1.5
 41
1.5
280
     0
281
     0
  7
Standard
140
4.5
170
     2
 62
     0
 63
     7
283
     0
274
    -2
284
     1
 64
     0
275
    -2
285
     1
 65
     0
276
    -2
286
     1
 66
     0
277
    -2
287
     1
 67
     0
278
    -2
288
     1
 68
     0
279
    -2
289
     1
 69
     0
  7
Standard
140
6.0
170
     5
 62
     0
 63
     7
283
     0
274
    -2
284
     1
 64
     0
275
    -2
285
     1
 65
     0
276
    -2
286
     1
 66
     0
277
    -2
287
     1
 67
     0
278
    -2
288
     1
 68
     0
279
    -2
289
     1
 69
     0
  7
Standard
140
4.5
170
     5
 62
     0
 63
     7
283
     0
274
    -2
284
     1
 64
     0
275
    -2
285
     1
 65
     0
276
    -2
286
     1
 66
     0
277
    -2
287
     1
 67
     0
278
    -2
288
     1
 68
     0
279
    -2
289
     1
 69
     0
  0
DICTIONARYVAR
  5
8EC0
102
{ACAD_REACTORS
330
8EBF
102
}
330
8EBF
100
DictionaryVariables
280
     0
  1
STANDARD
  0
DICTIONARYVAR
  5
906C
102
{ACAD_REACTORS
330
8EBF
102
}
330
8EBF
100
DictionaryVariables
280
     0
  1
2
  0
DICTIONARYVAR
  5
906B
102
{ACAD_REACTORS
330
8EBF
102
}
330
8EBF
100
DictionaryVariables
280
     0
  1
1
  0
DICTIONARYVAR
  5
906D
102
{ACAD_REACTORS
330
8EBF
102
}
330
8EBF
100
DictionaryVariables
280
     0
  1

  0
DICTIONARY
  5
9070
330
22
100
AcDbDictionary
280
     1
281
     1
  3
ACAD_XREC_ROUNDTRIP
360
9071
  0
DICTIONARY
  5
9074
330
2A
100
AcDbDictionary
280
     1
281
     1
  3
ACAD_XREC_ROUNDTRIP
360
9075
  0
DICTIONARY
  5
9072
330
26
100
AcDbDictionary
280
     1
281
     1
  3
ACAD_XREC_ROUNDTRIP
360
9073
  0
XRECORD
  5
9071
102
{ACAD_REACTORS
330
9070
102
}
330
9070
100
AcDbXrecord
280
     1
102
SHADEPLOT
 70
     0
102
SHADEPLOTRESLEVEL
 70
     2
102
SHADEPLOTCUSTOMDPI
 70
   300
  0
XRECORD
  5
9075
102
{ACAD_REACTORS
330
9074
102
}
330
9074
100
AcDbXrecord
280
     1
102
SHADEPLOT
 70
     0
102
SHADEPLOTRESLEVEL
 70
     2
102
SHADEPLOTCUSTOMDPI
 70
   300
  0
XRECORD
  5
9073
102
{ACAD_REACTORS
330
9072
102
}
330
9072
100
AcDbXrecord
280
     1
102
SHADEPLOT
 70
     0
102
SHADEPLOTRESLEVEL
 70
     2
102
SHADEPLOTCUSTOMDPI
 70
   300
  0
ENDSEC
  0
EOF
